  0
SECTION
  2
HEADER
  9
$ACADVER
  1
AC1018
  9
$ACADMAINTVER
 70
   104
  9
$DWGCODEPAGE
  3
ANSI_932
  9
$INSBASE
 10
0.0
 20
0.0
 30
0.0
  9
$EXTMIN
 10
-1.31213133
 20
-0.91498248
 30
0.0
  9
$EXTMAX
 10
28682.32880003
 20
20000.91579744
 30
0.0
  9
$LIMMIN
 10
0.0
 20
0.0
  9
$LIMMAX
 10
420.0
 20
330.0
  9
$ORTHOMODE
 70
     1
  9
$REGENMODE
 70
     1
  9
$FILLMODE
 70
     1
  9
$QTEXTMODE
 70
     0
  9
$MIRRTEXT
 70
     0
  9
$LTSCALE
 40
1.0
  9
$ATTMODE
 70
     1
  9
$TEXTSIZE
 40
0.2
  9
$TRACEWID
 40
0.05
  9
$TEXTSTYLE
  7
STANDARD
  9
$CLAYER
  8
0
  9
$CELTYPE
  6
BYLAYER
  9
$CECOLOR
 62
   256
  9
$CELTSCALE
 40
1.0
  9
$DISPSILH
 70
     1
  9
$DIMSCALE
 40
1.0
  9
$DIMASZ
 40
0.18
  9
$DIMEXO
 40
0.0625
  9
$DIMDLI
 40
0.38
  9
$DIMRND
 40
0.0
  9
$DIMDLE
 40
0.0
  9
$DIMEXE
 40
0.18
  9
$DIMTP
 40
0.0
  9
$DIMTM
 40
0.0
  9
$DIMTXT
 40
75.0
  9
$DIMCEN
 40
0.09
  9
$DIMTSZ
 40
0.0
  9
$DIMTOL
 70
     0
  9
$DIMLIM
 70
     0
  9
$DIMTIH
 70
     1
  9
$DIMTOH
 70
     1
  9
$DIMSE1
 70
     0
  9
$DIMSE2
 70
     0
  9
$DIMTAD
 70
     0
  9
$DIMZIN
 70
     0
  9
$DIMBLK
  1

  9
$DIMASO
 70
     1
  9
$DIMSHO
 70
     0
  9
$DIMPOST
  1

  9
$DIMAPOST
  1

  9
$DIMALT
 70
     0
  9
$DIMALTD
 70
     2
  9
$DIMALTF
 40
25.4
  9
$DIMLFAC
 40
1.0
  9
$DIMTOFL
 70
     0
  9
$DIMTVP
 40
0.0
  9
$DIMTIX
 70
     0
  9
$DIMSOXD
 70
     0
  9
$DIMSAH
 70
     0
  9
$DIMBLK1
  1

  9
$DIMBLK2
  1

  9
$DIMSTYLE
  2
STANDARD
  9
$DIMCLRD
 70
     0
  9
$DIMCLRE
 70
     0
  9
$DIMCLRT
 70
     0
  9
$DIMTFAC
 40
1.0
  9
$DIMGAP
 40
0.09
  9
$DIMJUST
 70
     0
  9
$DIMSD1
 70
     0
  9
$DIMSD2
 70
     0
  9
$DIMTOLJ
 70
     1
  9
$DIMTZIN
 70
     0
  9
$DIMALTZ
 70
     0
  9
$DIMALTTZ
 70
     0
  9
$DIMUPT
 70
     0
  9
$DIMDEC
 70
     4
  9
$DIMTDEC
 70
     4
  9
$DIMALTU
 70
     2
  9
$DIMALTTD
 70
     2
  9
$DIMTXSTY
  7
STANDARD
  9
$DIMAUNIT
 70
     0
  9
$DIMADEC
 70
     0
  9
$DIMALTRND
 40
0.0
  9
$DIMAZIN
 70
     0
  9
$DIMDSEP
 70
    46
  9
$DIMATFIT
 70
     3
  9
$DIMFRAC
 70
     0
  9
$DIMLDRBLK
  1

  9
$DIMLUNIT
 70
     2
  9
$DIMLWD
 70
    -2
  9
$DIMLWE
 70
    -2
  9
$DIMTMOVE
 70
     2
  9
$LUNITS
 70
     2
  9
$LUPREC
 70
     4
  9
$SKETCHINC
 40
0.1
  9
$FILLETRAD
 40
1.0
  9
$AUNITS
 70
     0
  9
$AUPREC
 70
     0
  9
$MENU
  1
acad
  9
$ELEVATION
 40
0.0
  9
$PELEVATION
 40
0.0
  9
$THICKNESS
 40
0.0
  9
$LIMCHECK
 70
     0
  9
$CHAMFERA
 40
0.0
  9
$CHAMFERB
 40
0.0
  9
$CHAMFERC
 40
0.0
  9
$CHAMFERD
 40
0.0
  9
$SKPOLY
 70
     0
  9
$TDCREATE
 40
2453046.712012442
  9
$TDUCREATE
 40
2453046.337012442
  9
$TDUPDATE
 40
2457185.494816840
  9
$TDUUPDATE
 40
2457185.119816840
  9
$TDINDWG
 40
0.2850095833
  9
$TDUSRTIMER
 40
0.2850095833
  9
$USRTIMER
 70
     1
  9
$ANGBASE
 50
0.0
  9
$ANGDIR
 70
     0
  9
$PDMODE
 70
     0
  9
$PDSIZE
 40
0.0
  9
$PLINEWID
 40
0.0
  9
$SPLFRAME
 70
     0
  9
$SPLINETYPE
 70
     6
  9
$SPLINESEGS
 70
     8
  9
$HANDSEED
  5
D7BF
  9
$SURFTAB1
 70
     6
  9
$SURFTAB2
 70
     6
  9
$SURFTYPE
 70
     6
  9
$SURFU
 70
     6
  9
$SURFV
 70
     6
  9
$UCSBASE
  2

  9
$UCSNAME
  2

  9
$UCSORG
 10
0.0
 20
0.0
 30
0.0
  9
$UCSXDIR
 10
1.0
 20
0.0
 30
0.0
  9
$UCSYDIR
 10
0.0
 20
1.0
 30
0.0
  9
$UCSORTHOREF
  2

  9
$UCSORTHOVIEW
 70
     0
  9
$UCSORGTOP
 10
0.0
 20
0.0
 30
0.0
  9
$UCSORGBOTTOM
 10
0.0
 20
0.0
 30
0.0
  9
$UCSORGLEFT
 10
0.0
 20
0.0
 30
0.0
  9
$UCSORGRIGHT
 10
0.0
 20
0.0
 30
0.0
  9
$UCSORGFRONT
 10
0.0
 20
0.0
 30
0.0
  9
$UCSORGBACK
 10
0.0
 20
0.0
 30
0.0
  9
$PUCSBASE
  2

  9
$PUCSNAME
  2

  9
$PUCSORG
 10
0.0
 20
0.0
 30
0.0
  9
$PUCSXDIR
 10
1.0
 20
0.0
 30
0.0
  9
$PUCSYDIR
 10
0.0
 20
1.0
 30
0.0
  9
$PUCSORTHOREF
  2

  9
$PUCSORTHOVIEW
 70
     0
  9
$PUCSORGTOP
 10
0.0
 20
0.0
 30
0.0
  9
$PUCSORGBOTTOM
 10
0.0
 20
0.0
 30
0.0
  9
$PUCSORGLEFT
 10
0.0
 20
0.0
 30
0.0
  9
$PUCSORGRIGHT
 10
0.0
 20
0.0
 30
0.0
  9
$PUCSORGFRONT
 10
0.0
 20
0.0
 30
0.0
  9
$PUCSORGBACK
 10
0.0
 20
0.0
 30
0.0
  9
$USERI1
 70
     0
  9
$USERI2
 70
     0
  9
$USERI3
 70
     0
  9
$USERI4
 70
     0
  9
$USERI5
 70
     0
  9
$USERR1
 40
0.0
  9
$USERR2
 40
0.0
  9
$USERR3
 40
0.0
  9
$USERR4
 40
0.0
  9
$USERR5
 40
0.0
  9
$WORLDVIEW
 70
     1
  9
$SHADEDGE
 70
     3
  9
$SHADEDIF
 70
    70
  9
$TILEMODE
 70
     1
  9
$MAXACTVP
 70
    16
  9
$PINSBASE
 10
0.0
 20
0.0
 30
0.0
  9
$PLIMCHECK
 70
     0
  9
$PEXTMIN
 10
1.00000000E+20
 20
1.00000000E+20
 30
1.00000000E+20
  9
$PEXTMAX
 10
-1.00000000E+20
 20
-1.00000000E+20
 30
-1.00000000E+20
  9
$PLIMMIN
 10
0.0
 20
0.0
  9
$PLIMMAX
 10
12.0
 20
9.0
  9
$UNITMODE
 70
     0
  9
$VISRETAIN
 70
     0
  9
$PLINEGEN
 70
     0
  9
$PSLTSCALE
 70
     0
  9
$TREEDEPTH
 70
  3020
  9
$CMLSTYLE
  2
STANDARD
  9
$CMLJUST
 70
     0
  9
$CMLSCALE
 40
1.0
  9
$PROXYGRAPHICS
 70
     1
  9
$MEASUREMENT
 70
     1
  9
$CELWEIGHT
370
    -1
  9
$ENDCAPS
280
     0
  9
$JOINSTYLE
280
     0
  9
$LWDISPLAY
290
     0
  9
$INSUNITS
 70
     0
  9
$HYPERLINKBASE
  1

  9
$STYLESHEET
  1

  9
$XEDIT
290
     1
  9
$CEPSNTYPE
380
     0
  9
$PSTYLEMODE
290
     1
  9
$FINGERPRINTGUID
  2
{E3C60F4B-C64D-48BF-913E-01BE5CE68F3B}
  9
$VERSIONGUID
  2
{F35FBBC6-4D29-4019-8C1B-B60FC0CE898C}
  9
$EXTNAMES
290
     1
  9
$PSVPSCALE
 40
0.0
  9
$OLESTARTUP
290
     0
  9
$SORTENTS
280
   127
  9
$INDEXCTL
280
     0
  9
$HIDETEXT
280
     0
  9
$XCLIPFRAME
290
     0
  9
$HALOGAP
280
     0
  9
$OBSCOLOR
 70
   257
  9
$OBSLTYPE
280
     0
  9
$INTERSECTIONDISPLAY
280
     0
  9
$INTERSECTIONCOLOR
 70
   257
  9
$DIMASSOC
280
     1
  9
$PROJECTNAME
  1

  0
ENDSEC
  0
SECTION
  2
CLASSES
  0
CLASS
  1
DICTIONARYVAR
  2
AcDbDictionaryVar
  3
ObjectDBX Classes
 90
        0
 91
        8
280
     0
281
     0
  0
CLASS
  1
ACDBDICTIONARYWDFLT
  2
AcDbDictionaryWithDefault
  3
ObjectDBX Classes
 90
        0
 91
        1
280
     0
281
     0
  0
CLASS
  1
MATERIAL
  2
AcDbMaterial
  3
ObjectDBX Classes
 90
     1153
 91
        3
280
     0
281
     0
  0
CLASS
  1
VISUALSTYLE
  2
AcDbVisualStyle
  3
ObjectDBX Classes
 90
     4095
 91
       24
280
     0
281
     0
  0
CLASS
  1
TABLESTYLE
  2
AcDbTableStyle
  3
ObjectDBX Classes
 90
     4095
 91
        1
280
     0
281
     0
  0
CLASS
  1
SCALE
  2
AcDbScale
  3
ObjectDBX Classes
 90
     1153
 91
       17
280
     0
281
     0
  0
CLASS
  1
MLEADERSTYLE
  2
AcDbMLeaderStyle
  3
ACDB_MLEADERSTYLE_CLASS
 90
     4095
 91
        1
280
     0
281
     0
  0
CLASS
  1
ACDBSECTIONVIEWSTYLE
  2
AcDbSectionViewStyle
  3
ObjectDBX Classes
 90
     1025
 91
        1
280
     0
281
     0
  0
CLASS
  1
ACDBDETAILVIEWSTYLE
  2
AcDbDetailViewStyle
  3
ObjectDBX Classes
 90
     1025
 91
        1
280
     0
281
     0
  0
CLASS
  1
CELLSTYLEMAP
  2
AcDbCellStyleMap
  3
ObjectDBX Classes
 90
     1152
 91
        2
280
     0
281
     0
  0
ENDSEC
  0
SECTION
  2
TABLES
  0
TABLE
  2
VPORT
  5
A8ED
330
0
100
AcDbSymbolTable
 70
     1
  0
VPORT
  5
D6DE
330
A8ED
100
AcDbSymbolTableRecord
100
AcDbViewportTableRecord
  2
*ACTIVE
 70
     0
 10
0.0
 20
0.0
 11
1.0
 21
1.0
 12
14340.50833435
 22
10000.00040748
 13
0.0
 23
0.0
 14
1.0
 24
1.0
 15
10.0
 25
10.0
 16
0.0
 26
0.0
 36
1.0
 17
0.0
 27
0.0
 37
0.0
 40
21504.61592816
 41
1.34178905
 42
50.0
 43
0.0
 44
0.0
 50
0.0
 51
0.0
 71
     0
 72
   100
 73
     1
 74
     0
 75
     0
 76
     0
 77
     0
 78
     0
281
     0
 65
     1
110
0.0
120
0.0
130
0.0
111
1.0
121
0.0
131
0.0
112
0.0
122
1.0
132
0.0
 79
     0
146
0.0
1001
ACAD_NAV_VCDISPLAY
1070
     1
  0
ENDTAB
  0
TABLE
  2
LTYPE
  5
A8EA
330
0
100
AcDbSymbolTable
 70
     5
  0
LTYPE
  5
A8F6
330
A8EA
100
AcDbSymbolTableRecord
100
AcDbLinetypeTableRecord
  2
BYBLOCK
 70
     0
  3

 72
    65
 73
     0
 40
0.0
  0
LTYPE
  5
A8F7
330
A8EA
100
AcDbSymbolTableRecord
100
AcDbLinetypeTableRecord
  2
BYLAYER
 70
     0
  3

 72
    65
 73
     0
 40
0.0
  0
LTYPE
  5
A8F8
330
A8EA
100
AcDbSymbolTableRecord
100
AcDbLinetypeTableRecord
  2
CONTINUOUS
 70
     0
  3
Solid line
 72
    65
 73
     0
 40
0.0
  0
LTYPE
  5
A903
330
A8EA
100
AcDbSymbolTableRecord
100
AcDbLinetypeTableRecord
  2
ITTENSAP
 70
     0
  3

 72
    65
 73
     4
 40
5.5
 49
3.0
 74
     0
 49
-1.0
 74
     0
 49
0.5
 74
     0
 49
-1.0
 74
     0
  0
LTYPE
  5
A904
330
A8EA
100
AcDbSymbolTableRecord
100
AcDbLinetypeTableRecord
  2
CENTER
 70
     0
  3
____ _ ____ _ ____ _ ____ _ ____ _ ____ _ ____
 72
    65
 73
     4
 40
17.5
 49
13.0
 74
     0
 49
-1.5
 74
     0
 49
1.5
 74
     0
 49
-1.5
 74
     0
  0
LTYPE
  5
A905
330
A8EA
100
AcDbSymbolTableRecord
100
AcDbLinetypeTableRecord
  2
PHANTOM
 70
     0
  3
_____ _ _ _____ _ _ _____ _ _ _____ _ _ ____  
 72
    65
 73
     6
 40
15.5
 49
8.0
 74
     0
 49
-1.5
 74
     0
 49
1.5
 74
     0
 49
-1.5
 74
     0
 49
1.5
 74
     0
 49
-1.5
 74
     0
  0
LTYPE
  5
A929
330
A8EA
100
AcDbSymbolTableRecord
100
AcDbLinetypeTableRecord
  2
NITENSAP
 70
     0
  3

 72
    65
 73
     6
 40
7.5
 49
3.0
 74
     0
 49
-1.0
 74
     0
 49
0.5
 74
     0
 49
-1.5
 74
     0
 49
0.5
 74
     0
 49
-1.0
 74
     0
  0
ENDTAB
  0
TABLE
  2
LAYER
  5
A8E7
330
0
100
AcDbSymbolTable
 70
    11
  0
LAYER
  5
A8F3
330
A8E7
100
AcDbSymbolTableRecord
100
AcDbLayerTableRecord
  2
0
 70
     0
 62
     7
  6
CONTINUOUS
370
    -3
390
D6E1
  0
LAYER
  5
A909
330
A8E7
100
AcDbSymbolTableRecord
100
AcDbLayerTableRecord
  2
YKK_IN
 70
     0
 62
     1
  6
CONTINUOUS
370
    -3
390
D6E1
  0
LAYER
  5
A90A
330
A8E7
100
AcDbSymbolTableRecord
100
AcDbLayerTableRecord
  2
YKK_F1
 70
     0
 62
     7
  6
CONTINUOUS
370
    -3
390
D6E1
  0
LAYER
  5
A90B
330
A8E7
100
AcDbSymbolTableRecord
100
AcDbLayerTableRecord
  2
YKK_N1
 70
     0
 62
     2
  6
CONTINUOUS
370
    -3
390
D6E1
  0
LAYER
  5
A90C
330
A8E7
100
AcDbSymbolTableRecord
100
AcDbLayerTableRecord
  2
YKK_Z1
 70
     0
 62
     7
  6
CONTINUOUS
370
    -3
390
D6E1
  0
LAYER
  5
A90D
330
A8E7
100
AcDbSymbolTableRecord
100
AcDbLayerTableRecord
  2
YKK_A1
 70
     0
 62
     4
  6
CONTINUOUS
370
    -3
390
D6E1
  0
LAYER
  5
A90E
330
A8E7
100
AcDbSymbolTableRecord
100
AcDbLayerTableRecord
  2
YKK_A2
 70
     0
 62
     3
  6
CONTINUOUS
370
    -3
390
D6E1
  0
LAYER
  5
A90F
330
A8E7
100
AcDbSymbolTableRecord
100
AcDbLayerTableRecord
  2
YKK_B1
 70
     0
 62
     4
  6
CONTINUOUS
370
    -3
390
D6E1
  0
LAYER
  5
A910
330
A8E7
100
AcDbSymbolTableRecord
100
AcDbLayerTableRecord
  2
YKK_C1
 70
     0
 62
     4
  6
CONTINUOUS
370
    -3
390
D6E1
  0
LAYER
  5
A911
330
A8E7
100
AcDbSymbolTableRecord
100
AcDbLayerTableRecord
  2
YKK_B2
 70
     0
 62
     5
  6
CONTINUOUS
370
    -3
390
D6E1
  0
LAYER
  5
A912
330
A8E7
100
AcDbSymbolTableRecord
100
AcDbLayerTableRecord
  2
YKK_C2
 70
     0
 62
     5
  6
CONTINUOUS
370
    -3
390
D6E1
  0
ENDTAB
  0
TABLE
  2
STYLE
  5
A8E8
330
0
100
AcDbSymbolTable
 70
     1
  0
STYLE
  5
A8F4
330
A8E8
100
AcDbSymbolTableRecord
100
AcDbTextStyleTableRecord
  2
STANDARD
 70
     0
 40
0.0
 41
1.0
 50
0.0
 71
     0
 42
0.2
  3
txt.shx
  4
bigfont.shx
  0
ENDTAB
  0
TABLE
  2
VIEW
  5
A8EB
330
0
100
AcDbSymbolTable
 70
     0
  0
ENDTAB
  0
TABLE
  2
UCS
  5
A8EC
330
0
100
AcDbSymbolTable
 70
     0
  0
ENDTAB
  0
TABLE
  2
APPID
  5
A8EE
330
0
100
AcDbSymbolTable
 70
     5
  0
APPID
  5
A8F5
330
A8EE
100
AcDbSymbolTableRecord
100
AcDbRegAppTableRecord
  2
ACAD
 70
     0
  0
APPID
  5
D76C
330
A8EE
100
AcDbSymbolTableRecord
100
AcDbRegAppTableRecord
  2
ACAD_MLEADERVER
 70
     0
  0
APPID
  5
D77F
330
A8EE
100
AcDbSymbolTableRecord
100
AcDbRegAppTableRecord
  2
ACAD_PSEXT
 70
     0
  0
APPID
  5
D780
330
A8EE
100
AcDbSymbolTableRecord
100
AcDbRegAppTableRecord
  2
ACAD_NAV_VCDISPLAY
 70
     0
  0
APPID
  5
D781
330
A8EE
100
AcDbSymbolTableRecord
100
AcDbRegAppTableRecord
  2
YKK_AP_LOCKLAYER
 70
     0
  0
ENDTAB
  0
TABLE
  2
DIMSTYLE
  5
A8EF
330
0
100
AcDbSymbolTable
 70
     1
100
AcDbDimStyleTable
 71
     0
  0
DIMSTYLE
105
A908
330
A8EF
100
AcDbSymbolTableRecord
100
AcDbDimStyleTableRecord
  2
STANDARD
 70
     0
279
     2
340
A8F4
  0
ENDTAB
  0
TABLE
  2
BLOCK_RECORD
  5
A8E6
330
0
100
AcDbSymbolTable
 70
     0
  0
BLOCK_RECORD
  5
A8FC
330
A8E6
100
AcDbSymbolTableRecord
100
AcDbBlockTableRecord
  2
*MODEL_SPACE
340
D733
  0
BLOCK_RECORD
  5
A8F9
330
A8E6
100
AcDbSymbolTableRecord
100
AcDbBlockTableRecord
  2
*PAPER_SPACE
340
D734
  0
ENDTAB
  0
ENDSEC
  0
SECTION
  2
BLOCKS
  0
BLOCK
  5
A915
330
A8FC
100
AcDbEntity
  8
0
100
AcDbBlockBegin
  2
*MODEL_SPACE
 70
     0
 10
0.0
 20
0.0
 30
0.0
  3
*MODEL_SPACE
  1

  0
ENDBLK
  5
A916
330
A8FC
100
AcDbEntity
  8
0
100
AcDbBlockEnd
  0
BLOCK
  5
A913
330
A8F9
100
AcDbEntity
 67
     1
  8
0
100
AcDbBlockBegin
  2
*PAPER_SPACE
 70
     0
 10
0.0
 20
0.0
 30
0.0
  3
*PAPER_SPACE
  1

  0
ENDBLK
  5
A914
330
A8F9
100
AcDbEntity
 67
     1
  8
0
100
AcDbBlockEnd
  0
ENDSEC
  0
SECTION
  2
ENTITIES
  0
TEXT
  5
2B6F
330
A8FC
100
AcDbEntity
  8
0
100
AcDbText
 10
100.0
 20
12687.5
 30
0.0
 40
175.0
  1
扉内設置型全面片開き
100
AcDbText
  0
TEXT
  5
2E8B
330
A8FC
100
AcDbEntity
  8
0
100
AcDbText
 10
5800.0
 20
12687.5
 30
0.0
 40
175.0
  1
ニ連扉内設置型全面両開き
100
AcDbText
  0
TEXT
  5
49E6
330
A8FC
100
AcDbEntity
  8
0
100
AcDbText
 10
100.0
 20
12237.5
 30
0.0
 40
175.0
  1
W=600　H=1,900
100
AcDbText
  0
TEXT
  5
49E7
330
A8FC
100
AcDbEntity
  8
0
100
AcDbText
 10
5800.0
 20
12237.5
 30
0.0
 40
175.0
  1
W=900　H=1,900
100
AcDbText
  0
LINE
  5
4A18
330
A8FC
100
AcDbEntity
  8
YKK_F1
100
AcDbLine
 10
0.0
 20
18600.0
 30
0.0
 11
28500.0
 21
18600.0
 31
0.0
  0
LINE
  5
4A19
330
A8FC
100
AcDbEntity
  8
YKK_F1
100
AcDbLine
 10
0.0
 20
19050.0
 30
0.0
 11
28500.0
 21
19050.0
 31
0.0
  0
LINE
  5
4A1A
330
A8FC
100
AcDbEntity
  8
YKK_F1
100
AcDbLine
 10
0.0
 20
0.0
 30
0.0
 11
28681.0155
 21
0.0
 31
0.0
  0
LINE
  5
4A1B
330
A8FC
100
AcDbEntity
  8
YKK_F1
100
AcDbLine
 10
0.0
 20
20000.0
 30
0.0
 11
28681.0155
 21
20000.0
 31
0.0
  0
LINE
  5
4A1C
330
A8FC
100
AcDbEntity
  8
YKK_F1
100
AcDbLine
 10
0.0
 20
19500.0
 30
0.0
 11
28500.0
 21
19500.0
 31
0.0
  0
LINE
  5
4A1D
330
A8FC
100
AcDbEntity
  8
YKK_F1
100
AcDbLine
 10
11400.0
 20
0.0
 30
0.0
 11
11400.0
 21
19500.0
 31
0.0
  0
LINE
  5
4A1E
330
A8FC
100
AcDbEntity
  8
YKK_F1
100
AcDbLine
 10
5700.0
 20
0.0
 30
0.0
 11
5700.0
 21
19500.0
 31
0.0
  0
LINE
  5
4A1F
330
A8FC
100
AcDbEntity
  8
YKK_F1
100
AcDbLine
 10
0.0
 20
0.0
 30
0.0
 11
0.0
 21
20000.0
 31
0.0
  0
POINT
  5
4A20
330
A8FC
100
AcDbEntity
  8
YKK_F1
100
AcDbPoint
 10
0.0
 20
0.0
 30
0.0
  0
LINE
  5
4A21
330
A8FC
100
AcDbEntity
  8
YKK_F1
100
AcDbLine
 10
17100.0
 20
0.0
 30
0.0
 11
17100.0
 21
19500.0
 31
0.0
  0
LINE
  5
4A22
330
A8FC
100
AcDbEntity
  8
YKK_F1
100
AcDbLine
 10
22800.0
 20
0.0
 30
0.0
 11
22800.0
 21
19500.0
 31
0.0
  0
LINE
  5
4A23
330
A8FC
100
AcDbEntity
  8
YKK_F1
100
AcDbLine
 10
28500.0
 20
0.0
 30
0.0
 11
28500.0
 21
20000.0
 31
0.0
  0
LINE
  5
4A24
330
A8FC
100
AcDbEntity
  8
YKK_F1
100
AcDbLine
 10
28681.0155
 20
0.0
 30
0.0
 11
28681.0155
 21
20000.0
 31
0.0
  0
LINE
  5
4A27
330
A8FC
100
AcDbEntity
  8
YKK_F1
100
AcDbLine
 10
0.0
 20
13000.0
 30
0.0
 11
28500.0
 21
13000.0
 31
0.0
  0
LINE
  5
4A28
330
A8FC
100
AcDbEntity
  8
YKK_F1
100
AcDbLine
 10
0.0
 20
12550.0
 30
0.0
 11
28500.0
 21
12550.0
 31
0.0
  0
LINE
  5
4A29
330
A8FC
100
AcDbEntity
  8
YKK_F1
100
AcDbLine
 10
0.0
 20
12100.0
 30
0.0
 11
28500.0
 21
12100.0
 31
0.0
  0
LINE
  5
4A2A
330
A8FC
100
AcDbEntity
  8
YKK_F1
100
AcDbLine
 10
0.0
 20
5600.0
 30
0.0
 11
28500.0
 21
5600.0
 31
0.0
  0
LINE
  5
4A2B
330
A8FC
100
AcDbEntity
  8
YKK_F1
100
AcDbLine
 10
0.0
 20
6050.0
 30
0.0
 11
28500.0
 21
6050.0
 31
0.0
  0
LINE
  5
4A2C
330
A8FC
100
AcDbEntity
  8
YKK_F1
100
AcDbLine
 10
0.0
 20
6500.0
 30
0.0
 11
28500.0
 21
6500.0
 31
0.0
  0
TEXT
  5
4A9B
330
A8FC
100
AcDbEntity
  8
0
100
AcDbText
 10
100.0
 20
18737.5
 30
0.0
 40
175.0
  1
W=600　H=1,900
100
AcDbText
  0
TEXT
  5
4A9C
330
A8FC
100
AcDbEntity
  8
0
100
AcDbText
 10
100.0
 20
19187.5
 30
0.0
 40
175.0
  1
一般設置型下段片開き
100
AcDbText
  0
TEXT
  5
4B9B
330
A8FC
100
AcDbEntity
  8
0
100
AcDbText
 10
5800.0
 20
18737.5
 30
0.0
 40
175.0
  1
W=900　H=1,900
100
AcDbText
  0
TEXT
  5
4B9C
330
A8FC
100
AcDbEntity
  8
0
100
AcDbText
 10
5800.0
 20
19187.5
 30
0.0
 40
175.0
  1
二連一般設置型下段片開き
100
AcDbText
  0
TEXT
  5
7130
330
A8FC
100
AcDbEntity
  8
YKK_N1
  6
Continuous
100
AcDbText
 10
3321.02070557
 20
16499.11526489
 30
0.0
 40
60.0
  1
33
 72
     4
 11
3371.02070557
 21
16529.11526489
 31
0.0
100
AcDbText
  0
LINE
  5
7131
330
A8FC
100
AcDbEntity
  8
YKK_C1
  6
Continuous
100
AcDbLine
 10
3481.38700623
 20
15890.00057983
 30
0.0
 11
3481.38700623
 21
17810.0007019
 31
0.0
  0
LINE
  5
7132
330
A8FC
100
AcDbEntity
  8
YKK_C1
  6
Continuous
100
AcDbLine
 10
3448.38700623
 20
17835.0007019
 30
0.0
 11
3448.38700623
 21
15865.00057983
 31
0.0
  0
LINE
  5
7133
330
A8FC
100
AcDbEntity
  8
YKK_C1
  6
Continuous
100
AcDbLine
 10
3452.38700623
 20
17696.00006335
 30
0.0
 11
3452.38700623
 21
17012.00010561
 31
0.0
  0
LINE
  5
7134
330
A8FC
100
AcDbEntity
  8
YKK_N1
  6
Continuous
100
AcDbLine
 10
3682.58701844
 20
17800.0007019
 30
0.0
 11
3682.58701844
 21
15900.00057983
 31
0.0
  0
LINE
  5
7135
330
A8FC
100
AcDbEntity
  8
YKK_C1
  6
Continuous
100
AcDbLine
 10
3452.38700623
 20
17009.00010561
 30
0.0
 11
3452.38700623
 21
15895.00057983
 31
0.0
  0
LINE
  5
7136
330
A8FC
100
AcDbEntity
  8
YKK_C1
  6
Continuous
100
AcDbLine
 10
3477.38700623
 20
17009.00010561
 30
0.0
 11
3477.38700623
 21
15895.00057983
 31
0.0
  0
LINE
  5
7137
330
A8FC
100
AcDbEntity
  8
YKK_C1
  6
Continuous
100
AcDbLine
 10
3482.58698792
 20
15890.00057983
 30
0.0
 11
3482.58698792
 21
15900.00057983
 31
0.0
  0
LINE
  5
7138
330
A8FC
100
AcDbEntity
  8
YKK_IN
  6
Continuous
100
AcDbLine
 10
3447.23167176
 20
15864.64523315
 30
0.0
 11
3517.9423346
 21
15935.355896
 31
0.0
  0
LINE
  5
7139
330
A8FC
100
AcDbEntity
  8
YKK_IN
  6
Continuous
100
AcDbLine
 10
3447.23167176
 20
15935.355896
 30
0.0
 11
3517.9423346
 21
15864.64523315
 31
0.0
  0
CIRCLE
  5
713A
330
A8FC
100
AcDbEntity
  8
YKK_IN
  6
Continuous
100
AcDbCircle
 10
3482.58698792
 20
15900.00057983
 30
0.0
 40
25.0
  0
LINE
  5
713B
330
A8FC
100
AcDbEntity
  8
YKK_N1
  6
Continuous
100
AcDbLine
 10
3682.58698792
 20
15900.00057983
 30
0.0
 11
3682.58698792
 21
15890.00057983
 31
0.0
  0
CIRCLE
  5
713C
330
A8FC
100
AcDbEntity
  8
YKK_N1
  6
Continuous
100
AcDbCircle
 10
3682.58698792
 20
15890.00057983
 30
0.0
 40
5.0
  0
LINE
  5
713D
330
A8FC
100
AcDbEntity
  8
YKK_C1
  6
Continuous
100
AcDbLine
 10
3449.58698792
 20
15865.00057983
 30
0.0
 11
3469.58698792
 21
15865.00057983
 31
0.0
  0
LINE
  5
713E
330
A8FC
100
AcDbEntity
  8
YKK_C1
  6
Continuous
100
AcDbLine
 10
3449.58698792
 20
15865.00057983
 30
0.0
 11
3449.58698792
 21
15890.00057983
 31
0.0
  0
LINE
  5
713F
330
A8FC
100
AcDbEntity
  8
YKK_C1
  6
Continuous
100
AcDbLine
 10
3449.58698792
 20
15890.00057983
 30
0.0
 11
3482.58698792
 21
15890.00057983
 31
0.0
  0
LINE
  5
7140
330
A8FC
100
AcDbEntity
  8
YKK_N1
  6
Continuous
100
AcDbLine
 10
3557.58698792
 20
15890.00057983
 30
0.0
 11
3682.58698792
 21
15890.00057983
 31
0.0
  0
TEXT
  5
7141
330
A8FC
100
AcDbEntity
  8
YKK_N1
  6
Continuous
100
AcDbText
 10
3670.58698945
 20
15786.47457116
 30
0.0
 40
60.0
  1
10
 50
90.0000025
 72
     4
 11
3640.58698792
 21
15821.47456984
 31
0.0
100
AcDbText
  0
LINE
  5
7144
330
A8FC
100
AcDbEntity
  8
YKK_C1
  6
Continuous
100
AcDbLine
 10
3452.38700623
 20
15895.00057983
 30
0.0
 11
3477.38700623
 21
15895.00057983
 31
0.0
  0
LINE
  5
7145
330
A8FC
100
AcDbEntity
  8
YKK_N1
  6
Continuous
100
AcDbLine
 10
3557.58698792
 20
15900.00057983
 30
0.0
 11
3682.58701844
 21
15900.00057983
 31
0.0
  0
LINE
  5
7147
330
A8FC
100
AcDbEntity
  8
YKK_N1
  6
Continuous
100
AcDbLine
 10
3448.38700623
 20
16487.11526489
 30
0.0
 11
3481.38700623
 21
16487.11526489
 31
0.0
  0
CIRCLE
  5
7148
330
A8FC
100
AcDbEntity
  8
YKK_N1
  6
Continuous
100
AcDbCircle
 10
3481.38700623
 20
16487.11526489
 30
0.0
 40
5.0
  0
CIRCLE
  5
7149
330
A8FC
100
AcDbEntity
  8
YKK_N1
  6
Continuous
100
AcDbCircle
 10
3448.38700623
 20
16487.11526489
 30
0.0
 40
5.0
  0
LINE
  5
714C
330
A8FC
100
AcDbEntity
  8
YKK_C1
  6
Continuous
100
AcDbLine
 10
3452.38700623
 20
17012.00010561
 30
0.0
 11
3481.38700623
 21
17012.00010561
 31
0.0
  0
LINE
  5
714D
330
A8FC
100
AcDbEntity
  8
YKK_C1
  6
Continuous
100
AcDbLine
 10
3452.38700623
 20
17009.00010561
 30
0.0
 11
3477.38700623
 21
17009.00010561
 31
0.0
  0
TEXT
  5
714E
330
A8FC
100
AcDbEntity
  8
YKK_N1
  6
Continuous
100
AcDbText
 10
3670.587025
 20
16700.00064218
 30
0.0
 40
60.0
  1
H=1900
 50
90.0000025
 72
     4
 11
3640.58701844
 21
16850.00064087
 31
0.0
100
AcDbText
  0
TEXT
  5
714F
330
A8FC
100
AcDbEntity
  8
YKK_N1
  6
Continuous
100
AcDbText
 10
3670.58698945
 20
17836.49840523
 30
0.0
 40
60.0
  1
10
 50
90.0000025
 72
     4
 11
3640.58698792
 21
17871.49840392
 31
0.0
100
AcDbText
  0
LINE
  5
7152
330
A8FC
100
AcDbEntity
  8
YKK_C1
  6
Continuous
100
AcDbLine
 10
3449.58698792
 20
17835.0007019
 30
0.0
 11
3469.58698792
 21
17835.0007019
 31
0.0
  0
LINE
  5
7153
330
A8FC
100
AcDbEntity
  8
YKK_C1
  6
Continuous
100
AcDbLine
 10
3449.58698792
 20
17835.0007019
 30
0.0
 11
3449.58698792
 21
17810.0007019
 31
0.0
  0
LINE
  5
7154
330
A8FC
100
AcDbEntity
  8
YKK_C1
  6
Continuous
100
AcDbLine
 10
3449.58698792
 20
17810.0007019
 30
0.0
 11
3481.38700623
 21
17810.0007019
 31
0.0
  0
LINE
  5
7155
330
A8FC
100
AcDbEntity
  8
YKK_C1
  6
Continuous
100
AcDbLine
 10
3449.58698792
 20
17721.00006335
 30
0.0
 11
3449.58698792
 21
17696.00006335
 31
0.0
  0
LINE
  5
7156
330
A8FC
100
AcDbEntity
  8
YKK_C1
  6
Continuous
100
AcDbLine
 10
3449.58698792
 20
17696.00006335
 30
0.0
 11
3481.38700623
 21
17696.00006335
 31
0.0
  0
LINE
  5
7157
330
A8FC
100
AcDbEntity
  8
YKK_C1
  6
Continuous
100
AcDbLine
 10
3481.38700623
 20
17721.00006335
 30
0.0
 11
3449.58698792
 21
17721.00006335
 31
0.0
  0
LINE
  5
7158
330
A8FC
100
AcDbEntity
  8
YKK_N1
  6
Continuous
100
AcDbLine
 10
3682.58698792
 20
17810.0007019
 30
0.0
 11
3682.58698792
 21
17800.0007019
 31
0.0
  0
LINE
  5
7159
330
A8FC
100
AcDbEntity
  8
YKK_N1
  6
Continuous
100
AcDbLine
 10
3557.58698792
 20
17800.0007019
 30
0.0
 11
3682.58701844
 21
17800.0007019
 31
0.0
  0
LINE
  5
715A
330
A8FC
100
AcDbEntity
  8
YKK_N1
  6
Continuous
100
AcDbLine
 10
3557.58698792
 20
17810.0007019
 30
0.0
 11
3682.58698792
 21
17810.0007019
 31
0.0
  0
CIRCLE
  5
715C
330
A8FC
100
AcDbEntity
  8
YKK_N1
  6
Continuous
100
AcDbCircle
 10
3682.58698792
 20
17810.0007019
 30
0.0
 40
5.0
  0
ARC
  5
715D
330
A8FC
100
AcDbEntity
  8
YKK_B1
  6
PHANTOM
100
AcDbCircle
 10
2105.38722123
 20
14437.80007935
 30
0.0
 40
614.1133933486058
100
AcDbArc
 50
359.1602846
 51
88.8990069
  0
LINE
  5
715E
330
A8FC
100
AcDbEntity
  8
YKK_B1
  6
Continuous
100
AcDbLine
 10
2719.38723649
 20
14401.00003052
 30
0.0
 11
2107.38722123
 21
14401.00003052
 31
0.0
  0
LINE
  5
715F
330
A8FC
100
AcDbEntity
  8
YKK_B1
  6
Continuous
100
AcDbLine
 10
2103.38722123
 20
14395.80007935
 30
0.0
 11
2723.38723649
 21
14395.80007935
 31
0.0
  0
LINE
  5
7160
330
A8FC
100
AcDbEntity
  8
YKK_B1
  6
Continuous
100
AcDbLine
 10
2107.42732133
 20
14428.80007935
 30
0.0
 11
2723.38723649
 21
14428.80007935
 31
0.0
  0
LINE
  5
7161
330
A8FC
100
AcDbEntity
  8
YKK_N1
  6
Continuous
100
AcDbLine
 10
2113.38722123
 20
14195.80010986
 30
0.0
 11
2713.38723649
 21
14195.80010986
 31
0.0
  0
LINE
  5
7162
330
A8FC
100
AcDbEntity
  8
YKK_B1
  6
Continuous
100
AcDbLine
 10
2719.38723649
 20
14426.00003052
 30
0.0
 11
2107.38722123
 21
14426.00003052
 31
0.0
  0
LINE
  5
7163
330
A8FC
100
AcDbEntity
  8
YKK_B1
100
AcDbLine
 10
2413.38720597
 20
14295.80007935
 30
0.0
 11
2413.38720597
 21
14528.80007935
 31
0.0
  0
TEXT
  5
7164
330
A8FC
100
AcDbEntity
  8
YKK_N1
  6
Continuous
100
AcDbText
 10
2000.13563415
 20
14207.80010986
 30
0.0
 40
60.0
  1
10
 72
     4
 11
2035.13563415
 21
14237.80010986
 31
0.0
100
AcDbText
  0
TEXT
  5
7165
330
A8FC
100
AcDbEntity
  8
YKK_N1
  6
Continuous
100
AcDbText
 10
2273.38722886
 20
14207.80010986
 30
0.0
 40
60.0
  1
W=600
 72
     4
 11
2413.38722886
 21
14237.80010986
 31
0.0
100
AcDbText
  0
LINE
  5
7166
330
A8FC
100
AcDbEntity
  8
YKK_N1
  6
Continuous
100
AcDbLine
 10
2103.38722123
 20
14320.80007935
 30
0.0
 11
2103.38722123
 21
14195.80010986
 31
0.0
  0
LINE
  5
7167
330
A8FC
100
AcDbEntity
  8
YKK_N1
  6
Continuous
100
AcDbLine
 10
2113.38722123
 20
14320.80007935
 30
0.0
 11
2113.38722123
 21
14195.80010986
 31
0.0
  0
LINE
  5
7168
330
A8FC
100
AcDbEntity
  8
YKK_N1
  6
Continuous
100
AcDbLine
 10
2103.38722123
 20
14195.80010986
 30
0.0
 11
2113.38722123
 21
14195.80010986
 31
0.0
  0
CIRCLE
  5
716C
330
A8FC
100
AcDbEntity
  8
YKK_N1
  6
Continuous
100
AcDbCircle
 10
2103.38722123
 20
14195.80010986
 30
0.0
 40
5.0
  0
LINE
  5
716D
330
A8FC
100
AcDbEntity
  8
YKK_B1
  6
PHANTOM
100
AcDbLine
 10
2117.18727006
 20
15051.8000946
 30
0.0
 11
2117.18727006
 21
14439.80007935
 31
0.0
  0
LINE
  5
716E
330
A8FC
100
AcDbEntity
  8
YKK_B1
  6
Continuous
100
AcDbLine
 10
2078.38722123
 20
14430.00003052
 30
0.0
 11
2078.38722123
 21
14408.80007935
 31
0.0
  0
LINE
  5
716F
330
A8FC
100
AcDbEntity
  8
YKK_B1
  6
Continuous
100
AcDbLine
 10
2078.38722123
 20
14430.00003052
 30
0.0
 11
2103.38722123
 21
14430.00003052
 31
0.0
  0
LINE
  5
7170
330
A8FC
100
AcDbEntity
  8
YKK_B1
  6
Continuous
100
AcDbLine
 10
2107.38722123
 20
14433.21749878
 30
0.0
 11
2107.38722123
 21
14401.00003052
 31
0.0
  0
LINE
  5
7171
330
A8FC
100
AcDbEntity
  8
YKK_B1
  6
Continuous
100
AcDbLine
 10
2103.38722123
 20
14433.21749878
 30
0.0
 11
2103.38722123
 21
14395.80007935
 31
0.0
  0
LINE
  5
7172
330
A8FC
100
AcDbEntity
  8
YKK_B1
  6
CENTER
100
AcDbLine
 10
2105.38722123
 20
14452.80007935
 30
0.0
 11
2105.38722123
 21
14422.80007935
 31
0.0
  0
LINE
  5
7173
330
A8FC
100
AcDbEntity
  8
YKK_B1
  6
CENTER
100
AcDbLine
 10
2090.38722123
 20
14437.80007935
 30
0.0
 11
2120.38722123
 21
14437.80007935
 31
0.0
  0
CIRCLE
  5
7174
330
A8FC
100
AcDbEntity
  8
YKK_B1
  6
Continuous
100
AcDbCircle
 10
2105.38722123
 20
14437.80007935
 30
0.0
 40
5.0
  0
LINE
  5
7175
330
A8FC
100
AcDbEntity
  8
YKK_N1
  6
Continuous
100
AcDbLine
 10
2580.02914323
 20
14428.80007935
 30
0.0
 11
2580.02914323
 21
14395.80007935
 31
0.0
  0
CIRCLE
  5
7176
330
A8FC
100
AcDbEntity
  8
YKK_N1
  6
Continuous
100
AcDbCircle
 10
2580.02914323
 20
14428.80007935
 30
0.0
 40
5.0
  0
CIRCLE
  5
7177
330
A8FC
100
AcDbEntity
  8
YKK_N1
  6
Continuous
100
AcDbCircle
 10
2580.02914323
 20
14395.80007935
 30
0.0
 40
5.0
  0
TEXT
  5
7178
330
A8FC
100
AcDbEntity
  8
YKK_N1
  6
Continuous
100
AcDbText
 10
2568.02914542
 20
14450.93803586
 30
0.0
 40
60.0
  1
33
 50
90.0000025
 72
     4
 11
2538.02914323
 21
14500.93803455
 31
0.0
100
AcDbText
  0
LINE
  5
7179
330
A8FC
100
AcDbEntity
  8
YKK_N1
  6
Continuous
100
AcDbLine
 10
2713.38723649
 20
14320.80007935
 30
0.0
 11
2713.38723649
 21
14195.80010986
 31
0.0
  0
LINE
  5
717A
330
A8FC
100
AcDbEntity
  8
YKK_N1
  6
Continuous
100
AcDbLine
 10
2723.38723649
 20
14320.80007935
 30
0.0
 11
2723.38723649
 21
14195.80010986
 31
0.0
  0
LINE
  5
717B
330
A8FC
100
AcDbEntity
  8
YKK_N1
  6
Continuous
100
AcDbLine
 10
2713.38723649
 20
14195.80010986
 30
0.0
 11
2723.38723649
 21
14195.80010986
 31
0.0
  0
CIRCLE
  5
717F
330
A8FC
100
AcDbEntity
  8
YKK_N1
  6
Continuous
100
AcDbCircle
 10
2723.38723649
 20
14195.80010986
 30
0.0
 40
5.0
  0
TEXT
  5
7180
330
A8FC
100
AcDbEntity
  8
YKK_N1
  6
Continuous
100
AcDbText
 10
2748.76364045
 20
14207.80010986
 30
0.0
 40
60.0
  1
10
 72
     4
 11
2783.76364045
 21
14237.80010986
 31
0.0
100
AcDbText
  0
LINE
  5
7181
330
A8FC
100
AcDbEntity
  8
YKK_B1
  6
Continuous
100
AcDbLine
 10
2719.38723649
 20
14426.00003052
 30
0.0
 11
2719.38723649
 21
14401.00003052
 31
0.0
  0
LINE
  5
7182
330
A8FC
100
AcDbEntity
  8
YKK_B1
  6
Continuous
100
AcDbLine
 10
2748.38723649
 20
14430.00003052
 30
0.0
 11
2748.38723649
 21
14408.80007935
 31
0.0
  0
LINE
  5
7183
330
A8FC
100
AcDbEntity
  8
YKK_B1
  6
Continuous
100
AcDbLine
 10
2723.38723649
 20
14430.00003052
 30
0.0
 11
2723.38723649
 21
14395.80007935
 31
0.0
  0
LINE
  5
7184
330
A8FC
100
AcDbEntity
  8
YKK_B1
  6
Continuous
100
AcDbLine
 10
2748.38723649
 20
14430.00003052
 30
0.0
 11
2723.38723649
 21
14430.00003052
 31
0.0
  0
LINE
  5
7266
330
A8FC
100
AcDbEntity
  8
YKK_N1
100
AcDbLine
 10
2626.78468217
 20
14245.80010986
 30
0.0
 11
2626.78468217
 21
14145.80010105
 31
0.0
  0
LINE
  5
7267
330
A8FC
100
AcDbEntity
  8
YKK_N1
  6
Continuous
100
AcDbLine
 10
2713.38723649
 20
14195.80010986
 30
0.0
 11
2626.78468217
 21
14245.80010986
 31
0.0
  0
LINE
  5
7268
330
A8FC
100
AcDbEntity
  8
YKK_N1
  6
Continuous
100
AcDbLine
 10
2113.38722123
 20
14195.80010986
 30
0.0
 11
2199.98977555
 21
14245.80010986
 31
0.0
  0
LINE
  5
7269
330
A8FC
100
AcDbEntity
  8
YKK_N1
100
AcDbLine
 10
2199.98977555
 20
14245.80010986
 30
0.0
 11
2199.98977555
 21
14145.80010105
 31
0.0
  0
LINE
  5
726A
330
A8FC
100
AcDbEntity
  8
YKK_N1
  6
Continuous
100
AcDbLine
 10
2199.98977555
 20
14145.80010105
 30
0.0
 11
2113.38722123
 21
14195.80010986
 31
0.0
  0
LINE
  5
726B
330
A8FC
100
AcDbEntity
  8
YKK_N1
  6
Continuous
100
AcDbLine
 10
2626.78468217
 20
14145.80010105
 30
0.0
 11
2713.38723649
 21
14195.80010986
 31
0.0
  0
LINE
  5
7291
330
A8FC
100
AcDbEntity
  8
YKK_N1
  6
Continuous
100
AcDbLine
 10
3682.58701844
 20
15900.00057983
 30
0.0
 11
3632.58701844
 21
15986.60313416
 31
0.0
  0
LINE
  5
7292
330
A8FC
100
AcDbEntity
  8
YKK_N1
100
AcDbLine
 10
3632.58701844
 20
15986.60313416
 30
0.0
 11
3732.58702725
 21
15986.60313416
 31
0.0
  0
LINE
  5
7293
330
A8FC
100
AcDbEntity
  8
YKK_N1
100
AcDbLine
 10
3632.58698792
 20
17713.39814758
 30
0.0
 11
3732.58699673
 21
17713.39814758
 31
0.0
  0
LINE
  5
7294
330
A8FC
100
AcDbEntity
  8
YKK_N1
  6
Continuous
100
AcDbLine
 10
3682.58698792
 20
17800.0007019
 30
0.0
 11
3632.58698792
 21
17713.39814758
 31
0.0
  0
LINE
  5
7295
330
A8FC
100
AcDbEntity
  8
YKK_N1
  6
Continuous
100
AcDbLine
 10
3732.58702725
 20
15986.60313416
 30
0.0
 11
3682.58701844
 21
15900.00057983
 31
0.0
  0
LINE
  5
7296
330
A8FC
100
AcDbEntity
  8
YKK_N1
  6
Continuous
100
AcDbLine
 10
3732.58699673
 20
17713.39814758
 30
0.0
 11
3682.58698792
 21
17800.0007019
 31
0.0
  0
POINT
  5
7871
330
A8FC
100
AcDbEntity
  8
YKK_IN
100
AcDbPoint
 10
0.0
 20
0.0
 30
0.0
  0
POINT
  5
7872
330
A8FC
100
AcDbEntity
  8
YKK_F1
100
AcDbPoint
 10
0.0
 20
0.0
 30
0.0
  0
POINT
  5
7873
330
A8FC
100
AcDbEntity
  8
YKK_N1
100
AcDbPoint
 10
0.0
 20
0.0
 30
0.0
  0
POINT
  5
7874
330
A8FC
100
AcDbEntity
  8
YKK_Z1
100
AcDbPoint
 10
0.0
 20
0.0
 30
0.0
  0
POINT
  5
7875
330
A8FC
100
AcDbEntity
  8
YKK_A1
100
AcDbPoint
 10
0.0
 20
0.0
 30
0.0
  0
POINT
  5
7876
330
A8FC
100
AcDbEntity
  8
YKK_A2
100
AcDbPoint
 10
0.0
 20
0.0
 30
0.0
  0
POINT
  5
7877
330
A8FC
100
AcDbEntity
  8
YKK_B1
100
AcDbPoint
 10
0.0
 20
0.0
 30
0.0
  0
POINT
  5
7878
330
A8FC
100
AcDbEntity
  8
YKK_C1
100
AcDbPoint
 10
0.0
 20
0.0
 30
0.0
  0
POINT
  5
7879
330
A8FC
100
AcDbEntity
  8
YKK_B2
100
AcDbPoint
 10
0.0
 20
0.0
 30
0.0
  0
POINT
  5
787A
330
A8FC
100
AcDbEntity
  8
YKK_C2
100
AcDbPoint
 10
0.0
 20
0.0
 30
0.0
  0
TEXT
  5
7887
330
A8FC
100
AcDbEntity
  8
0
100
AcDbText
 10
100.0
 20
19637.5
 30
0.0
 40
250.0
  1
ＢＳＤＧＡＳ１１　ステンレスパイプシャフトドア　ガスチャンバー　一般設置型・扉内設置型　枠見込３３（沖縄向け）
100
AcDbText
  0
TEXT
  5
862A
330
A8FC
100
AcDbEntity
  8
0
100
AcDbText
 10
5800.0
 20
18287.5
 30
0.0
 40
175.0
  1
2GC SAC
100
AcDbText
  0
TEXT
  5
862B
330
A8FC
100
AcDbEntity
  8
0
100
AcDbText
 10
100.0
 20
18287.5
 30
0.0
 40
175.0
  1
2GC SAA
100
AcDbText
  0
TEXT
  5
862D
330
A8FC
100
AcDbEntity
  8
0
100
AcDbText
 10
5800.0
 20
11787.5
 30
0.0
 40
175.0
  1
2GC SBC
100
AcDbText
  0
TEXT
  5
862E
330
A8FC
100
AcDbEntity
  8
0
100
AcDbText
 10
100.0
 20
11787.5
 30
0.0
 40
175.0
  1
2GC SBA
100
AcDbText
  0
LINE
  5
BE29
330
A8FC
100
AcDbEntity
  8
YKK_A1
100
AcDbLine
 10
8573.38706759
 20
10254.59998023
 30
0.0
 11
8573.38706759
 21
9540.00002283
 31
0.0
  0
LINE
  5
BE2A
330
A8FC
100
AcDbEntity
  8
YKK_A1
100
AcDbLine
 10
8569.38706783
 20
10254.59998023
 30
0.0
 11
8569.38706783
 21
9540.00002283
 31
0.0
  0
LINE
  5
BE2B
330
A8FC
100
AcDbEntity
  8
YKK_A1
100
AcDbLine
 10
7657.38712219
 20
10254.59998023
 30
0.0
 11
7657.38712219
 21
9540.00002283
 31
0.0
  0
LINE
  5
BE2C
330
A8FC
100
AcDbEntity
  8
YKK_A1
100
AcDbLine
 10
7653.38712243
 20
10254.59998023
 30
0.0
 11
7653.38712243
 21
9540.00002283
 31
0.0
  0
LINE
  5
BE2D
330
A8FC
100
AcDbEntity
  8
YKK_A1
  6
NITENSAP
100
AcDbLine
 10
7657.38712219
 20
10294.59997785
 30
0.0
 11
8096.787096
 21
9362.00003344
 31
0.0
  0
LINE
  5
BE2F
330
A8FC
100
AcDbEntity
  8
YKK_A1
  6
NITENSAP
100
AcDbLine
 10
8569.38706783
 20
10294.59997785
 30
0.0
 11
8129.78709403
 21
9362.00003344
 31
0.0
  0
LINE
  5
BE30
330
A8FC
100
AcDbEntity
  8
YKK_A1
100
AcDbLine
 10
8598.3870661
 20
11301.99991781
 30
0.0
 11
8598.3870661
 21
9332.00003523
 31
0.0
  0
LINE
  5
BE33
330
A8FC
100
AcDbEntity
  8
YKK_A1
100
AcDbLine
 10
8129.78709403
 20
9362.00003344
 30
0.0
 11
8129.78709403
 21
11226.99992228
 31
0.0
  0
LINE
  5
BE34
330
A8FC
100
AcDbEntity
  8
YKK_A1
100
AcDbLine
 10
8096.787096
 20
9362.00003344
 30
0.0
 11
8096.787096
 21
11226.99992228
 31
0.0
  0
LINE
  5
BE35
330
A8FC
100
AcDbEntity
  8
YKK_A1
100
AcDbLine
 10
7628.38712392
 20
9332.00003523
 30
0.0
 11
7628.38712392
 21
11301.99991781
 31
0.0
  0
LINE
  5
BE36
330
A8FC
100
AcDbEntity
  8
YKK_A1
100
AcDbLine
 10
8125.78709427
 20
9357.00003374
 30
0.0
 11
8125.78709427
 21
11276.9999193
 31
0.0
  0
LINE
  5
BE37
330
A8FC
100
AcDbEntity
  8
YKK_A1
100
AcDbLine
 10
8100.78709576
 20
11276.9999193
 30
0.0
 11
8100.78709576
 21
9357.00003374
 31
0.0
  0
LINE
  5
BE3B
330
A8FC
100
AcDbEntity
  8
YKK_A1
100
AcDbLine
 10
8569.38706783
 20
9362.00003344
 30
0.0
 11
8129.78709403
 21
9362.00003344
 31
0.0
  0
LINE
  5
BE3C
330
A8FC
100
AcDbEntity
  8
YKK_A1
100
AcDbLine
 10
7628.38712392
 20
9332.00003523
 30
0.0
 11
8598.3870661
 21
9332.00003523
 31
0.0
  0
LINE
  5
BE3D
330
A8FC
100
AcDbEntity
  8
YKK_A1
100
AcDbLine
 10
8573.38706759
 20
9357.00003374
 30
0.0
 11
7653.38712243
 21
9357.00003374
 31
0.0
  0
LINE
  5
BE3E
330
A8FC
100
AcDbEntity
  8
YKK_A1
100
AcDbLine
 10
8544.38706932
 20
9456.00002784
 30
0.0
 11
8154.78709254
 21
9456.00002784
 31
0.0
  0
LINE
  5
BE3F
330
A8FC
100
AcDbEntity
  8
YKK_A1
100
AcDbLine
 10
8154.78709254
 20
9387.00003195
 30
0.0
 11
8544.38706932
 21
9387.00003195
 31
0.0
  0
LINE
  5
BE4E
330
A8FC
100
AcDbEntity
  8
YKK_A1
100
AcDbLine
 10
7682.3871207
 20
9456.00002784
 30
0.0
 11
8071.78709749
 21
9456.00002784
 31
0.0
  0
LINE
  5
BE4F
330
A8FC
100
AcDbEntity
  8
YKK_A1
100
AcDbLine
 10
8071.78709749
 20
9387.00003195
 30
0.0
 11
7682.3871207
 21
9387.00003195
 31
0.0
  0
LINE
  5
BE50
330
A8FC
100
AcDbEntity
  8
YKK_A1
100
AcDbLine
 10
7657.38712219
 20
9362.00003344
 30
0.0
 11
8096.787096
 21
9362.00003344
 31
0.0
  0
LINE
  5
BE53
330
A8FC
100
AcDbEntity
  8
YKK_A1
100
AcDbLine
 10
7653.38712243
 20
9460.0000276
 30
0.0
 11
7653.38712243
 21
9332.00003523
 31
0.0
  0
LINE
  5
BE6D
330
A8FC
100
AcDbEntity
  8
YKK_A1
100
AcDbLine
 10
7663.38712183
 20
9332.00003523
 30
0.0
 11
7663.38712183
 21
9341.77174756
 31
0.0
  0
LINE
  5
BE6F
330
A8FC
100
AcDbEntity
  8
YKK_A1
100
AcDbLine
 10
7660.78712199
 20
9540.00002283
 30
0.0
 11
7649.78712264
 21
9540.00002283
 31
0.0
  0
LINE
  5
BE70
330
A8FC
100
AcDbEntity
  8
YKK_A1
100
AcDbLine
 10
7649.78712264
 20
9500.00002521
 30
0.0
 11
7660.78712199
 21
9500.00002521
 31
0.0
  0
LINE
  5
BE71
330
A8FC
100
AcDbEntity
  8
YKK_A1
100
AcDbLine
 10
7649.78712264
 20
9460.0000276
 30
0.0
 11
7660.78712199
 21
9460.0000276
 31
0.0
  0
LINE
  5
BE72
330
A8FC
100
AcDbEntity
  8
YKK_A1
100
AcDbLine
 10
7682.3871207
 20
9387.00003195
 30
0.0
 11
7682.3871207
 21
9456.00002784
 31
0.0
  0
LINE
  5
BE73
330
A8FC
100
AcDbEntity
  8
YKK_A1
100
AcDbLine
 10
7657.38712219
 20
9460.0000276
 30
0.0
 11
7657.38712219
 21
9362.00003344
 31
0.0
  0
LINE
  5
BE74
330
A8FC
100
AcDbEntity
  8
YKK_A1
100
AcDbLine
 10
7649.78712264
 20
9540.00002283
 30
0.0
 11
7649.78712264
 21
9460.0000276
 31
0.0
  0
LINE
  5
BE75
330
A8FC
100
AcDbEntity
  8
YKK_A1
100
AcDbLine
 10
7660.78712199
 20
9460.0000276
 30
0.0
 11
7660.78712199
 21
9540.00002283
 31
0.0
  0
LINE
  5
BE97
330
A8FC
100
AcDbEntity
  8
YKK_A1
100
AcDbLine
 10
8071.78709749
 20
9456.00002784
 30
0.0
 11
8071.78709749
 21
9387.00003195
 31
0.0
  0
LINE
  5
BE98
330
A8FC
100
AcDbEntity
  8
YKK_A1
100
AcDbLine
 10
8154.78709254
 20
9456.00002784
 30
0.0
 11
8154.78709254
 21
9387.00003195
 31
0.0
  0
LINE
  5
BEB7
330
A8FC
100
AcDbEntity
  8
YKK_A1
100
AcDbLine
 10
8573.38706759
 20
9332.00003523
 30
0.0
 11
8573.38706759
 21
9460.0000276
 31
0.0
  0
LINE
  5
BECF
330
A8FC
100
AcDbEntity
  8
YKK_A1
100
AcDbLine
 10
8563.38706819
 20
9332.00003523
 30
0.0
 11
8563.38706819
 21
9345.40388378
 31
0.0
  0
LINE
  5
BED1
330
A8FC
100
AcDbEntity
  8
YKK_A1
100
AcDbLine
 10
8565.78706805
 20
9540.00002283
 30
0.0
 11
8576.78706739
 21
9540.00002283
 31
0.0
  0
LINE
  5
BED2
330
A8FC
100
AcDbEntity
  8
YKK_A1
100
AcDbLine
 10
8576.78706739
 20
9500.00002521
 30
0.0
 11
8565.78706805
 21
9500.00002521
 31
0.0
  0
LINE
  5
BED3
330
A8FC
100
AcDbEntity
  8
YKK_A1
100
AcDbLine
 10
8598.3870661
 20
9367.00003314
 30
0.0
 11
8584.44650875
 21
9367.00003314
 31
0.0
  0
LINE
  5
BED4
330
A8FC
100
AcDbEntity
  8
YKK_A1
100
AcDbLine
 10
8569.38706783
 20
9460.0000276
 30
0.0
 11
8569.38706783
 21
9362.00003344
 31
0.0
  0
LINE
  5
BED5
330
A8FC
100
AcDbEntity
  8
YKK_A1
100
AcDbLine
 10
8544.38706932
 20
9387.00003195
 30
0.0
 11
8544.38706932
 21
9456.00002784
 31
0.0
  0
LINE
  5
BED6
330
A8FC
100
AcDbEntity
  8
YKK_A1
100
AcDbLine
 10
8576.78706739
 20
9460.0000276
 30
0.0
 11
8565.78706805
 21
9460.0000276
 31
0.0
  0
LINE
  5
BED7
330
A8FC
100
AcDbEntity
  8
YKK_A1
100
AcDbLine
 10
8565.78706805
 20
9460.0000276
 30
0.0
 11
8565.78706805
 21
9540.00002283
 31
0.0
  0
LINE
  5
BED8
330
A8FC
100
AcDbEntity
  8
YKK_A1
100
AcDbLine
 10
8576.78706739
 20
9540.00002283
 30
0.0
 11
8576.78706739
 21
9460.0000276
 31
0.0
  0
CIRCLE
  5
BEE9
330
A8FC
100
AcDbEntity
  8
YKK_A1
100
AcDbCircle
 10
8349.58708093
 20
11116.99992883
 30
0.0
 40
74.99999311461178
  0
LINE
  5
BEEA
330
A8FC
100
AcDbEntity
  8
YKK_A1
100
AcDbLine
 10
8129.78709403
 20
11226.99992228
 30
0.0
 11
8569.38706783
 21
11226.99992228
 31
0.0
  0
LINE
  5
BEEB
330
A8FC
100
AcDbEntity
  8
YKK_A1
100
AcDbLine
 10
7653.38712243
 20
11276.9999193
 30
0.0
 11
8573.38706759
 21
11276.9999193
 31
0.0
  0
LINE
  5
BEEC
330
A8FC
100
AcDbEntity
  8
YKK_A1
100
AcDbLine
 10
8598.3870661
 20
11301.99991781
 30
0.0
 11
7628.38712392
 21
11301.99991781
 31
0.0
  0
LINE
  5
BEED
330
A8FC
100
AcDbEntity
  8
YKK_A1
  6
NITENSAP
100
AcDbLine
 10
8129.78709403
 20
11226.99992228
 30
0.0
 11
8569.38706783
 21
10294.59997785
 31
0.0
  0
LINE
  5
BEEE
330
A8FC
100
AcDbEntity
  8
YKK_A1
100
AcDbLine
 10
7653.38712243
 20
11048.99993289
 30
0.0
 11
7653.38712243
 21
10334.59997547
 31
0.0
  0
LINE
  5
BEEF
330
A8FC
100
AcDbEntity
  8
YKK_A1
100
AcDbLine
 10
7657.38712219
 20
11048.99993289
 30
0.0
 11
7657.38712219
 21
10334.59997547
 31
0.0
  0
LINE
  5
BEF0
330
A8FC
100
AcDbEntity
  8
YKK_A1
  6
NITENSAP
100
AcDbLine
 10
8096.787096
 20
11226.99992228
 30
0.0
 11
7657.38712219
 21
10294.59997785
 31
0.0
  0
LINE
  5
BEF7
330
A8FC
100
AcDbEntity
  8
YKK_A1
100
AcDbLine
 10
7649.78712264
 20
10334.59997547
 30
0.0
 11
7660.78712199
 21
10334.59997547
 31
0.0
  0
LINE
  5
BEF8
330
A8FC
100
AcDbEntity
  8
YKK_A1
100
AcDbLine
 10
7660.78712199
 20
10254.59998023
 30
0.0
 11
7649.78712264
 21
10254.59998023
 31
0.0
  0
LINE
  5
BEF9
330
A8FC
100
AcDbEntity
  8
YKK_A1
100
AcDbLine
 10
7649.78712264
 20
10294.59997785
 30
0.0
 11
7660.78712199
 21
10294.59997785
 31
0.0
  0
LINE
  5
BEFA
330
A8FC
100
AcDbEntity
  8
YKK_A1
100
AcDbLine
 10
7649.78712264
 20
10254.59998023
 30
0.0
 11
7649.78712264
 21
10334.59997547
 31
0.0
  0
LINE
  5
BEFB
330
A8FC
100
AcDbEntity
  8
YKK_A1
100
AcDbLine
 10
7660.78712199
 20
10334.59997547
 30
0.0
 11
7660.78712199
 21
10254.59998023
 31
0.0
  0
LINE
  5
BEFC
330
A8FC
100
AcDbEntity
  8
YKK_A1
  6
ITTENSAP
100
AcDbLine
 10
8184.78709075
 20
10206.99998307
 30
0.0
 11
8184.78709075
 21
10316.99997652
 31
0.0
  0
ARC
  5
BEFD
330
A8FC
100
AcDbEntity
  8
YKK_A1
100
AcDbCircle
 10
8186.98709062
 20
10236.59998131
 30
0.0
 40
1.49999995797303
100
AcDbArc
 50
274.70399475
 51
355.51899719
  0
ARC
  5
BEFE
330
A8FC
100
AcDbEntity
  8
YKK_A1
100
AcDbCircle
 10
8182.78709087
 20
10236.59998131
 30
0.0
 40
1.49999995797303
100
AcDbArc
 50
184.48098755
 51
265.29598999
  0
LINE
  5
BEFF
330
A8FC
100
AcDbEntity
  8
YKK_A1
  6
ITTENSAP
100
AcDbLine
 10
8041.78709928
 20
10206.99998307
 30
0.0
 11
8041.78709928
 21
10316.99997652
 31
0.0
  0
ARC
  5
BF00
330
A8FC
100
AcDbEntity
  8
YKK_A1
100
AcDbCircle
 10
8043.98709915
 20
10236.59998131
 30
0.0
 40
1.49999995797303
100
AcDbArc
 50
274.70399475
 51
355.51899719
  0
ARC
  5
BF01
330
A8FC
100
AcDbEntity
  8
YKK_A1
100
AcDbCircle
 10
8039.7870994
 20
10236.59998131
 30
0.0
 40
1.49999995797303
100
AcDbArc
 50
184.48098755
 51
265.29598999
  0
CIRCLE
  5
BF02
330
A8FC
100
AcDbEntity
  8
YKK_A1
100
AcDbCircle
 10
8041.78709928
 20
10261.99997979
 30
0.0
 40
28.00000012698984
  0
CIRCLE
  5
BF03
330
A8FC
100
AcDbEntity
  8
YKK_A1
100
AcDbCircle
 10
8041.78709928
 20
10261.99997979
 30
0.0
 40
28.99999759282533
  0
CIRCLE
  5
BF04
330
A8FC
100
AcDbEntity
  8
YKK_A1
100
AcDbCircle
 10
8041.78709928
 20
10261.99997979
 30
0.0
 40
37.99999665722356
  0
CIRCLE
  5
BF05
330
A8FC
100
AcDbEntity
  8
YKK_A1
100
AcDbCircle
 10
8184.78709075
 20
10261.99997979
 30
0.0
 40
37.99999665722356
  0
CIRCLE
  5
BF06
330
A8FC
100
AcDbEntity
  8
YKK_A1
100
AcDbCircle
 10
8184.78709075
 20
10261.99997979
 30
0.0
 40
28.99999759282533
  0
CIRCLE
  5
BF07
330
A8FC
100
AcDbEntity
  8
YKK_A1
100
AcDbCircle
 10
8184.78709075
 20
10261.99997979
 30
0.0
 40
28.00000012698984
  0
LINE
  5
BF08
330
A8FC
100
AcDbEntity
  8
YKK_A1
100
AcDbLine
 10
8039.7870994
 20
10235.19998139
 30
0.0
 11
8043.98709915
 21
10235.19998139
 31
0.0
  0
LINE
  5
BF09
330
A8FC
100
AcDbEntity
  8
YKK_A1
100
AcDbLine
 10
8182.78709087
 20
10235.19998139
 30
0.0
 11
8186.98709062
 21
10235.19998139
 31
0.0
  0
LINE
  5
BF0A
330
A8FC
100
AcDbEntity
  8
YKK_A1
  6
ITTENSAP
100
AcDbLine
 10
7986.78710256
 20
10261.99997979
 30
0.0
 11
8096.787096
 21
10261.99997979
 31
0.0
  0
LINE
  5
BF0B
330
A8FC
100
AcDbEntity
  8
YKK_A1
100
AcDbLine
 10
8045.38709906
 20
10236.59998131
 30
0.0
 11
8045.78709904
 21
10242.19998097
 31
0.0
  0
LINE
  5
BF0C
330
A8FC
100
AcDbEntity
  8
YKK_A1
100
AcDbLine
 10
8046.58709899
 20
10261.79997981
 30
0.0
 11
8046.58709899
 21
10262.19997978
 31
0.0
  0
LINE
  5
BF0D
330
A8FC
100
AcDbEntity
  8
YKK_A1
100
AcDbLine
 10
8045.78709904
 20
10281.79997861
 30
0.0
 11
8045.38709906
 21
10287.39997828
 31
0.0
  0
LINE
  5
BF0E
330
A8FC
100
AcDbEntity
  8
YKK_A1
100
AcDbLine
 10
8043.98709915
 20
10288.7999782
 30
0.0
 11
8039.7870994
 21
10288.7999782
 31
0.0
  0
LINE
  5
BF0F
330
A8FC
100
AcDbEntity
  8
YKK_A1
100
AcDbLine
 10
8038.38709948
 20
10287.39997828
 30
0.0
 11
8037.9870995
 21
10281.79997861
 31
0.0
  0
LINE
  5
BF10
330
A8FC
100
AcDbEntity
  8
YKK_A1
100
AcDbLine
 10
8037.18709955
 20
10262.19997978
 30
0.0
 11
8037.18709955
 21
10261.79997981
 31
0.0
  0
LINE
  5
BF11
330
A8FC
100
AcDbEntity
  8
YKK_A1
100
AcDbLine
 10
8037.9870995
 20
10242.19998097
 30
0.0
 11
8038.38709948
 21
10236.59998131
 31
0.0
  0
ARC
  5
BF12
330
A8FC
100
AcDbEntity
  8
YKK_A1
100
AcDbCircle
 10
8041.78709928
 20
10261.99997979
 30
0.0
 40
7.499999448165172
100
AcDbArc
 50
308.68099976
 51
51.31898499
  0
ARC
  5
BF13
330
A8FC
100
AcDbEntity
  8
YKK_A1
100
AcDbCircle
 10
8041.78709928
 20
10261.99997979
 30
0.0
 40
7.499999448165172
100
AcDbArc
 50
128.68099976
 51
231.31898499
  0
ARC
  5
BF14
330
A8FC
100
AcDbEntity
  8
YKK_A1
100
AcDbCircle
 10
7796.58711389
 20
10261.79997981
 30
0.0
 40
249.9999952753182
100
AcDbArc
 50
355.53399658
 51
0.0
  0
ARC
  5
BF15
330
A8FC
100
AcDbEntity
  8
YKK_A1
100
AcDbCircle
 10
7796.58711389
 20
10262.19997978
 30
0.0
 40
249.9999952753182
100
AcDbArc
 50
0.0
 51
4.46598816
  0
ARC
  5
BF16
330
A8FC
100
AcDbEntity
  8
YKK_A1
100
AcDbCircle
 10
8043.98709915
 20
10287.39997828
 30
0.0
 40
1.49999995797303
100
AcDbArc
 50
4.44499207
 51
85.25799561
  0
ARC
  5
BF17
330
A8FC
100
AcDbEntity
  8
YKK_A1
100
AcDbCircle
 10
8039.7870994
 20
10287.39997828
 30
0.0
 40
1.49999995797303
100
AcDbArc
 50
94.74198914
 51
175.55499268
  0
ARC
  5
BF18
330
A8FC
100
AcDbEntity
  8
YKK_A1
100
AcDbCircle
 10
8287.18708465
 20
10262.19997978
 30
0.0
 40
249.9999952753182
100
AcDbArc
 50
175.53399658
 51
180.0
  0
ARC
  5
BF19
330
A8FC
100
AcDbEntity
  8
YKK_A1
100
AcDbCircle
 10
8287.18708465
 20
10261.79997981
 30
0.0
 40
249.9999952753182
100
AcDbArc
 50
180.0
 51
184.46598816
  0
LINE
  5
BF1A
330
A8FC
100
AcDbEntity
  8
YKK_A1
  6
ITTENSAP
100
AcDbLine
 10
8129.78709403
 20
10261.99997979
 30
0.0
 11
8239.78708748
 21
10261.99997979
 31
0.0
  0
LINE
  5
BF1B
330
A8FC
100
AcDbEntity
  8
YKK_A1
100
AcDbLine
 10
8188.38709054
 20
10236.59998131
 30
0.0
 11
8188.78709052
 21
10242.19998097
 31
0.0
  0
LINE
  5
BF1C
330
A8FC
100
AcDbEntity
  8
YKK_A1
100
AcDbLine
 10
8189.58709047
 20
10261.79997981
 30
0.0
 11
8189.58709047
 21
10262.19997978
 31
0.0
  0
LINE
  5
BF1D
330
A8FC
100
AcDbEntity
  8
YKK_A1
100
AcDbLine
 10
8188.78709052
 20
10281.79997861
 30
0.0
 11
8188.38709054
 21
10287.39997828
 31
0.0
  0
LINE
  5
BF1E
330
A8FC
100
AcDbEntity
  8
YKK_A1
100
AcDbLine
 10
8186.98709062
 20
10288.7999782
 30
0.0
 11
8182.78709087
 21
10288.7999782
 31
0.0
  0
LINE
  5
BF1F
330
A8FC
100
AcDbEntity
  8
YKK_A1
100
AcDbLine
 10
8181.38709096
 20
10287.39997828
 30
0.0
 11
8180.98709098
 21
10281.79997861
 31
0.0
  0
LINE
  5
BF20
330
A8FC
100
AcDbEntity
  8
YKK_A1
100
AcDbLine
 10
8180.18709103
 20
10262.19997978
 30
0.0
 11
8180.18709103
 21
10261.79997981
 31
0.0
  0
LINE
  5
BF21
330
A8FC
100
AcDbEntity
  8
YKK_A1
100
AcDbLine
 10
8180.98709098
 20
10242.19998097
 30
0.0
 11
8181.38709096
 21
10236.59998131
 31
0.0
  0
ARC
  5
BF22
330
A8FC
100
AcDbEntity
  8
YKK_A1
100
AcDbCircle
 10
7939.58710537
 20
10261.79997981
 30
0.0
 40
249.9999952753182
100
AcDbArc
 50
355.53399658
 51
0.0
  0
ARC
  5
BF23
330
A8FC
100
AcDbEntity
  8
YKK_A1
100
AcDbCircle
 10
7939.58710537
 20
10262.19997978
 30
0.0
 40
249.9999952753182
100
AcDbArc
 50
0.0
 51
4.46598816
  0
ARC
  5
BF24
330
A8FC
100
AcDbEntity
  8
YKK_A1
100
AcDbCircle
 10
8186.98709062
 20
10287.39997828
 30
0.0
 40
1.49999995797303
100
AcDbArc
 50
4.44499207
 51
85.25799561
  0
ARC
  5
BF25
330
A8FC
100
AcDbEntity
  8
YKK_A1
100
AcDbCircle
 10
8182.78709087
 20
10287.39997828
 30
0.0
 40
1.49999995797303
100
AcDbArc
 50
94.74198914
 51
175.55499268
  0
ARC
  5
BF26
330
A8FC
100
AcDbEntity
  8
YKK_A1
100
AcDbCircle
 10
8430.18707613
 20
10262.19997978
 30
0.0
 40
249.9999952753182
100
AcDbArc
 50
175.53399658
 51
180.0
  0
ARC
  5
BF27
330
A8FC
100
AcDbEntity
  8
YKK_A1
100
AcDbCircle
 10
8430.18707613
 20
10261.79997981
 30
0.0
 40
249.9999952753182
100
AcDbArc
 50
180.0
 51
184.46598816
  0
ARC
  5
BF28
330
A8FC
100
AcDbEntity
  8
YKK_A1
100
AcDbCircle
 10
8184.78709075
 20
10261.99997979
 30
0.0
 40
7.499999448165172
100
AcDbArc
 50
128.68099976
 51
231.31898499
  0
ARC
  5
BF29
330
A8FC
100
AcDbEntity
  8
YKK_A1
100
AcDbCircle
 10
8184.78709075
 20
10261.99997979
 30
0.0
 40
7.499999448165172
100
AcDbArc
 50
308.68099976
 51
51.31898499
  0
LINE
  5
BF2A
330
A8FC
100
AcDbEntity
  8
YKK_A1
100
AcDbLine
 10
8060.78709815
 20
10257.19998008
 30
0.0
 11
8060.78709815
 21
10266.9999795
 31
0.0
  0
LINE
  5
BF2B
330
A8FC
100
AcDbEntity
  8
YKK_A1
100
AcDbLine
 10
8058.78709826
 20
10257.19998008
 30
0.0
 11
8058.78709826
 21
10266.9999795
 31
0.0
  0
LINE
  5
BF2C
330
A8FC
100
AcDbEntity
  8
YKK_A1
100
AcDbLine
 10
8058.78709826
 20
10258.19998002
 30
0.0
 11
8060.78709815
 21
10258.19998002
 31
0.0
  0
LINE
  5
BF2D
330
A8FC
100
AcDbEntity
  8
YKK_A1
100
AcDbLine
 10
8058.78709826
 20
10265.79997957
 30
0.0
 11
8060.78709815
 21
10265.79997957
 31
0.0
  0
LINE
  5
BF2E
330
A8FC
100
AcDbEntity
  8
YKK_A1
  6
ITTENSAP
100
AcDbLine
 10
8059.78709821
 20
10251.99998039
 30
0.0
 11
8059.78709821
 21
10271.9999792
 31
0.0
  0
LINE
  5
BF2F
330
A8FC
100
AcDbEntity
  8
YKK_A1
100
AcDbLine
 10
8165.78709189
 20
10266.9999795
 30
0.0
 11
8165.78709189
 21
10257.19998008
 31
0.0
  0
LINE
  5
BF30
330
A8FC
100
AcDbEntity
  8
YKK_A1
100
AcDbLine
 10
8167.78709177
 20
10266.9999795
 30
0.0
 11
8167.78709177
 21
10257.19998008
 31
0.0
  0
LINE
  5
BF31
330
A8FC
100
AcDbEntity
  8
YKK_A1
100
AcDbLine
 10
8167.78709177
 20
10265.79997957
 30
0.0
 11
8165.78709189
 21
10265.79997957
 31
0.0
  0
LINE
  5
BF32
330
A8FC
100
AcDbEntity
  8
YKK_A1
100
AcDbLine
 10
8167.78709177
 20
10258.19998002
 30
0.0
 11
8165.78709189
 21
10258.19998002
 31
0.0
  0
LINE
  5
BF33
330
A8FC
100
AcDbEntity
  8
YKK_A1
  6
ITTENSAP
100
AcDbLine
 10
8166.78709183
 20
10271.9999792
 30
0.0
 11
8166.78709183
 21
10251.99998039
 31
0.0
  0
LINE
  5
BF34
330
A8FC
100
AcDbEntity
  8
YKK_A1
100
AcDbLine
 10
8096.787096
 20
11226.99992228
 30
0.0
 11
7657.38712219
 21
11226.99992228
 31
0.0
  0
LINE
  5
BF35
330
A8FC
100
AcDbEntity
  8
YKK_A1
100
AcDbLine
 10
7649.78712264
 20
11048.99993289
 30
0.0
 11
7649.78712264
 21
11128.99992812
 31
0.0
  0
LINE
  5
BF36
330
A8FC
100
AcDbEntity
  8
YKK_A1
100
AcDbLine
 10
7660.78712199
 20
11128.99992812
 30
0.0
 11
7660.78712199
 21
11048.99993289
 31
0.0
  0
LINE
  5
BF37
330
A8FC
100
AcDbEntity
  8
YKK_A1
100
AcDbLine
 10
7660.78712199
 20
11048.99993289
 30
0.0
 11
7649.78712264
 21
11048.99993289
 31
0.0
  0
LINE
  5
BF38
330
A8FC
100
AcDbEntity
  8
YKK_A1
100
AcDbLine
 10
7649.78712264
 20
11088.9999305
 30
0.0
 11
7660.78712199
 21
11088.9999305
 31
0.0
  0
LINE
  5
BF39
330
A8FC
100
AcDbEntity
  8
YKK_A1
100
AcDbLine
 10
7649.78712264
 20
11128.99992812
 30
0.0
 11
7660.78712199
 21
11128.99992812
 31
0.0
  0
LINE
  5
BF3A
330
A8FC
100
AcDbEntity
  8
YKK_A1
100
AcDbLine
 10
7657.38712219
 20
11226.99992228
 30
0.0
 11
7657.38712219
 21
11128.99992812
 31
0.0
  0
LINE
  5
BF3B
330
A8FC
100
AcDbEntity
  8
YKK_A1
100
AcDbLine
 10
7653.38712243
 20
11301.99991781
 30
0.0
 11
7653.38712243
 21
11128.99992812
 31
0.0
  0
CIRCLE
  5
BF3C
330
A8FC
100
AcDbEntity
  8
YKK_A1
100
AcDbCircle
 10
7877.18710909
 20
11116.99992883
 30
0.0
 40
74.99999311461178
  0
LINE
  5
BF3D
330
A8FC
100
AcDbEntity
  8
YKK_A1
100
AcDbLine
 10
7859.58711014
 20
11276.9999193
 30
0.0
 11
7859.58711014
 21
11226.99992228
 31
0.0
  0
LINE
  5
BF3E
330
A8FC
100
AcDbEntity
  8
YKK_A1
100
AcDbLine
 10
7894.58710805
 20
11276.9999193
 30
0.0
 11
7894.58710805
 21
11226.99992228
 31
0.0
  0
LINE
  5
BF3F
330
A8FC
100
AcDbEntity
  8
YKK_A1
100
AcDbLine
 10
8332.18708197
 20
11276.9999193
 30
0.0
 11
8332.18708197
 21
11226.99992228
 31
0.0
  0
LINE
  5
BF40
330
A8FC
100
AcDbEntity
  8
YKK_A1
100
AcDbLine
 10
8367.18707988
 20
11276.9999193
 30
0.0
 11
8367.18707988
 21
11226.99992228
 31
0.0
  0
LINE
  5
BF41
330
A8FC
100
AcDbEntity
  8
YKK_A1
100
AcDbLine
 10
8569.38706783
 20
11048.99993289
 30
0.0
 11
8569.38706783
 21
10334.59997547
 31
0.0
  0
LINE
  5
BF42
330
A8FC
100
AcDbEntity
  8
YKK_A1
100
AcDbLine
 10
8573.38706759
 20
11048.99993289
 30
0.0
 11
8573.38706759
 21
10334.59997547
 31
0.0
  0
LINE
  5
BF43
330
A8FC
100
AcDbEntity
  8
YKK_A1
100
AcDbLine
 10
8576.78706739
 20
10334.59997547
 30
0.0
 11
8565.78706805
 21
10334.59997547
 31
0.0
  0
LINE
  5
BF44
330
A8FC
100
AcDbEntity
  8
YKK_A1
100
AcDbLine
 10
8565.78706805
 20
10254.59998023
 30
0.0
 11
8576.78706739
 21
10254.59998023
 31
0.0
  0
LINE
  5
BF45
330
A8FC
100
AcDbEntity
  8
YKK_A1
100
AcDbLine
 10
8576.78706739
 20
10294.59997785
 30
0.0
 11
8565.78706805
 21
10294.59997785
 31
0.0
  0
LINE
  5
BF46
330
A8FC
100
AcDbEntity
  8
YKK_A1
100
AcDbLine
 10
8565.78706805
 20
10334.59997547
 30
0.0
 11
8565.78706805
 21
10254.59998023
 31
0.0
  0
LINE
  5
BF47
330
A8FC
100
AcDbEntity
  8
YKK_A1
100
AcDbLine
 10
8576.78706739
 20
10254.59998023
 30
0.0
 11
8576.78706739
 21
10334.59997547
 31
0.0
  0
LINE
  5
BF64
330
A8FC
100
AcDbEntity
  8
YKK_A1
100
AcDbLine
 10
8565.78706805
 20
11128.99992812
 30
0.0
 11
8565.78706805
 21
11048.99993289
 31
0.0
  0
LINE
  5
BF65
330
A8FC
100
AcDbEntity
  8
YKK_A1
100
AcDbLine
 10
8576.78706739
 20
11048.99993289
 30
0.0
 11
8576.78706739
 21
11128.99992812
 31
0.0
  0
LINE
  5
BF66
330
A8FC
100
AcDbEntity
  8
YKK_A1
100
AcDbLine
 10
8565.78706805
 20
11048.99993289
 30
0.0
 11
8576.78706739
 21
11048.99993289
 31
0.0
  0
LINE
  5
BF67
330
A8FC
100
AcDbEntity
  8
YKK_A1
100
AcDbLine
 10
8576.78706739
 20
11088.9999305
 30
0.0
 11
8565.78706805
 21
11088.9999305
 31
0.0
  0
LINE
  5
BF68
330
A8FC
100
AcDbEntity
  8
YKK_A1
100
AcDbLine
 10
8598.3870661
 20
11266.99991989
 30
0.0
 11
8587.27142959
 21
11266.99991989
 31
0.0
  0
LINE
  5
BF69
330
A8FC
100
AcDbEntity
  8
YKK_A1
100
AcDbLine
 10
8576.78706739
 20
11128.99992812
 30
0.0
 11
8565.78706805
 21
11128.99992812
 31
0.0
  0
LINE
  5
BF6A
330
A8FC
100
AcDbEntity
  8
YKK_A1
100
AcDbLine
 10
8569.38706783
 20
11226.99992228
 30
0.0
 11
8569.38706783
 21
11128.99992812
 31
0.0
  0
LINE
  5
BF6B
330
A8FC
100
AcDbEntity
  8
YKK_A1
100
AcDbLine
 10
8573.38706759
 20
11128.99992812
 30
0.0
 11
8573.38706759
 21
11301.99991781
 31
0.0
  0
LINE
  5
BF7C
330
A8FC
100
AcDbEntity
  8
YKK_A1
100
AcDbLine
 10
8573.38688586
 20
16816.99987244
 30
0.0
 11
8573.38688586
 21
16072.99991678
 31
0.0
  0
LINE
  5
BF7D
330
A8FC
100
AcDbEntity
  8
YKK_A1
100
AcDbLine
 10
8569.38688609
 20
16816.99987244
 30
0.0
 11
8569.38688609
 21
16072.99991678
 31
0.0
  0
LINE
  5
BF7E
330
A8FC
100
AcDbEntity
  8
YKK_A1
100
AcDbLine
 10
7657.38694045
 20
16816.99987244
 30
0.0
 11
7657.38694045
 21
16072.99991678
 31
0.0
  0
LINE
  5
BF7F
330
A8FC
100
AcDbEntity
  8
YKK_A1
100
AcDbLine
 10
7653.38694069
 20
16816.99987244
 30
0.0
 11
7653.38694069
 21
16072.99991678
 31
0.0
  0
LINE
  5
BF82
330
A8FC
100
AcDbEntity
  8
YKK_A1
100
AcDbLine
 10
8129.7869123
 20
15894.99992739
 30
0.0
 11
8129.7869123
 21
16994.99986183
 31
0.0
  0
LINE
  5
BF83
330
A8FC
100
AcDbEntity
  8
YKK_A1
100
AcDbLine
 10
8096.78691426
 20
15894.99992739
 30
0.0
 11
8096.78691426
 21
16994.99986183
 31
0.0
  0
LINE
  5
BF84
330
A8FC
100
AcDbEntity
  8
YKK_A1
  6
NITENSAP
100
AcDbLine
 10
8569.38688609
 20
16444.99989461
 30
0.0
 11
8129.7869123
 21
15894.99992739
 31
0.0
  0
LINE
  5
BF85
330
A8FC
100
AcDbEntity
  8
YKK_A1
  6
NITENSAP
100
AcDbLine
 10
7657.38694045
 20
16444.99989461
 30
0.0
 11
8096.78691426
 21
15894.99992739
 31
0.0
  0
LINE
  5
BF87
330
A8FC
100
AcDbEntity
  8
YKK_A1
100
AcDbLine
 10
8598.38688437
 20
17834.99981176
 30
0.0
 11
8598.38688437
 21
15864.99992918
 31
0.0
  0
LINE
  5
BF88
330
A8FC
100
AcDbEntity
  8
YKK_A1
100
AcDbLine
 10
7628.38694218
 20
15864.99992918
 30
0.0
 11
7628.38694218
 21
17834.99981176
 31
0.0
  0
LINE
  5
BF89
330
A8FC
100
AcDbEntity
  8
YKK_A1
100
AcDbLine
 10
8125.78691254
 20
15889.99992769
 30
0.0
 11
8125.78691254
 21
17695.99982005
 31
0.0
  0
LINE
  5
BF8A
330
A8FC
100
AcDbEntity
  8
YKK_A1
100
AcDbLine
 10
8100.78691403
 20
17695.99982005
 30
0.0
 11
8100.78691403
 21
15889.99992769
 31
0.0
  0
LINE
  5
BF8E
330
A8FC
100
AcDbEntity
  8
YKK_A1
100
AcDbLine
 10
7628.38694218
 20
15864.99992918
 30
0.0
 11
8598.38688437
 21
15864.99992918
 31
0.0
  0
LINE
  5
BF8F
330
A8FC
100
AcDbEntity
  8
YKK_A1
100
AcDbLine
 10
8573.38688586
 20
15889.99992769
 30
0.0
 11
7653.38694069
 21
15889.99992769
 31
0.0
  0
LINE
  5
BF90
330
A8FC
100
AcDbEntity
  8
YKK_A1
100
AcDbLine
 10
8569.38688609
 20
15894.99992739
 30
0.0
 11
8129.7869123
 21
15894.99992739
 31
0.0
  0
LINE
  5
BF91
330
A8FC
100
AcDbEntity
  8
YKK_A1
100
AcDbLine
 10
8154.78691081
 20
15919.9999259
 30
0.0
 11
8544.38688758
 21
15919.9999259
 31
0.0
  0
LINE
  5
BF92
330
A8FC
100
AcDbEntity
  8
YKK_A1
100
AcDbLine
 10
8544.38688758
 20
15988.99992179
 30
0.0
 11
8154.78691081
 21
15988.99992179
 31
0.0
  0
LINE
  5
BFA0
330
A8FC
100
AcDbEntity
  8
YKK_A1
100
AcDbLine
 10
7682.38693896
 20
15988.99992179
 30
0.0
 11
8071.78691575
 21
15988.99992179
 31
0.0
  0
LINE
  5
BFA1
330
A8FC
100
AcDbEntity
  8
YKK_A1
100
AcDbLine
 10
8071.78691575
 20
15919.9999259
 30
0.0
 11
7682.38693896
 21
15919.9999259
 31
0.0
  0
LINE
  5
BFA2
330
A8FC
100
AcDbEntity
  8
YKK_A1
100
AcDbLine
 10
7657.38694045
 20
15894.99992739
 30
0.0
 11
8096.78691426
 21
15894.99992739
 31
0.0
  0
LINE
  5
BFA6
330
A8FC
100
AcDbEntity
  8
YKK_A1
100
AcDbLine
 10
7653.38694069
 20
15992.99992155
 30
0.0
 11
7653.38694069
 21
15864.99992918
 31
0.0
  0
LINE
  5
BFC0
330
A8FC
100
AcDbEntity
  8
YKK_A1
100
AcDbLine
 10
7663.3869401
 20
15864.99992918
 30
0.0
 11
7663.3869401
 21
15868.43085755
 31
0.0
  0
LINE
  5
BFC3
330
A8FC
100
AcDbEntity
  8
YKK_A1
100
AcDbLine
 10
7649.78694091
 20
16072.99991678
 30
0.0
 11
7660.78694025
 21
16072.99991678
 31
0.0
  0
LINE
  5
BFC4
330
A8FC
100
AcDbEntity
  8
YKK_A1
100
AcDbLine
 10
7660.78694025
 20
16032.99991917
 30
0.0
 11
7649.78694091
 21
16032.99991917
 31
0.0
  0
LINE
  5
BFC5
330
A8FC
100
AcDbEntity
  8
YKK_A1
100
AcDbLine
 10
7660.78694025
 20
15992.99992155
 30
0.0
 11
7649.78694091
 21
15992.99992155
 31
0.0
  0
LINE
  5
BFC6
330
A8FC
100
AcDbEntity
  8
YKK_A1
100
AcDbLine
 10
7682.38693896
 20
15919.9999259
 30
0.0
 11
7682.38693896
 21
15988.99992179
 31
0.0
  0
LINE
  5
BFC7
330
A8FC
100
AcDbEntity
  8
YKK_A1
100
AcDbLine
 10
7657.38694045
 20
15992.99992155
 30
0.0
 11
7657.38694045
 21
15894.99992739
 31
0.0
  0
LINE
  5
BFC8
330
A8FC
100
AcDbEntity
  8
YKK_A1
100
AcDbLine
 10
7660.78694025
 20
16072.99991678
 30
0.0
 11
7660.78694025
 21
15992.99992155
 31
0.0
  0
LINE
  5
BFC9
330
A8FC
100
AcDbEntity
  8
YKK_A1
100
AcDbLine
 10
7649.78694091
 20
15992.99992155
 30
0.0
 11
7649.78694091
 21
16072.99991678
 31
0.0
  0
LINE
  5
BFEB
330
A8FC
100
AcDbEntity
  8
YKK_A1
100
AcDbLine
 10
8071.78691575
 20
15988.99992179
 30
0.0
 11
8071.78691575
 21
15919.9999259
 31
0.0
  0
LINE
  5
BFEC
330
A8FC
100
AcDbEntity
  8
YKK_A1
100
AcDbLine
 10
8154.78691081
 20
15988.99992179
 30
0.0
 11
8154.78691081
 21
15919.9999259
 31
0.0
  0
LINE
  5
C014
330
A8FC
100
AcDbEntity
  8
YKK_A1
100
AcDbLine
 10
8573.38688586
 20
15864.99992918
 30
0.0
 11
8573.38688586
 21
15992.99992155
 31
0.0
  0
LINE
  5
C02C
330
A8FC
100
AcDbEntity
  8
YKK_A1
100
AcDbLine
 10
8563.38688645
 20
15864.99992918
 30
0.0
 11
8563.38688645
 21
15868.42039142
 31
0.0
  0
LINE
  5
C02E
330
A8FC
100
AcDbEntity
  8
YKK_A1
100
AcDbLine
 10
8565.78688631
 20
16072.99991678
 30
0.0
 11
8576.78688565
 21
16072.99991678
 31
0.0
  0
LINE
  5
C02F
330
A8FC
100
AcDbEntity
  8
YKK_A1
100
AcDbLine
 10
8544.38688758
 20
15919.9999259
 30
0.0
 11
8544.38688758
 21
15988.99992179
 31
0.0
  0
LINE
  5
C030
330
A8FC
100
AcDbEntity
  8
YKK_A1
100
AcDbLine
 10
8576.78688565
 20
16032.99991917
 30
0.0
 11
8565.78688631
 21
16032.99991917
 31
0.0
  0
LINE
  5
C031
330
A8FC
100
AcDbEntity
  8
YKK_A1
100
AcDbLine
 10
8576.78688565
 20
15992.99992155
 30
0.0
 11
8565.78688631
 21
15992.99992155
 31
0.0
  0
LINE
  5
C032
330
A8FC
100
AcDbEntity
  8
YKK_A1
100
AcDbLine
 10
8598.38688437
 20
15899.9999271
 30
0.0
 11
8586.51677111
 21
15899.9999271
 31
0.0
  0
LINE
  5
C033
330
A8FC
100
AcDbEntity
  8
YKK_A1
100
AcDbLine
 10
8569.38688609
 20
15992.99992155
 30
0.0
 11
8569.38688609
 21
15894.99992739
 31
0.0
  0
LINE
  5
C034
330
A8FC
100
AcDbEntity
  8
YKK_A1
100
AcDbLine
 10
8576.78688565
 20
16072.99991678
 30
0.0
 11
8576.78688565
 21
15992.99992155
 31
0.0
  0
LINE
  5
C035
330
A8FC
100
AcDbEntity
  8
YKK_A1
100
AcDbLine
 10
8565.78688631
 20
15992.99992155
 30
0.0
 11
8565.78688631
 21
16072.99991678
 31
0.0
  0
LINE
  5
C045
330
A8FC
100
AcDbEntity
  8
YKK_A1
100
AcDbLine
 10
8185.78690896
 20
17670.99982154
 30
0.0
 11
8513.38688943
 21
17670.99982154
 31
0.0
  0
LINE
  5
C046
330
A8FC
100
AcDbEntity
  8
YKK_A1
100
AcDbLine
 10
7653.38694069
 20
17695.99982005
 30
0.0
 11
8573.38688586
 21
17695.99982005
 31
0.0
  0
LINE
  5
C047
330
A8FC
100
AcDbEntity
  8
YKK_A1
100
AcDbLine
 10
8573.38688586
 20
17720.99981856
 30
0.0
 11
7653.38694069
 21
17720.99981856
 31
0.0
  0
LINE
  5
C048
330
A8FC
100
AcDbEntity
  8
YKK_A1
100
AcDbLine
 10
7653.38694069
 20
17809.99981325
 30
0.0
 11
8573.38688586
 21
17809.99981325
 31
0.0
  0
LINE
  5
C049
330
A8FC
100
AcDbEntity
  8
YKK_A1
100
AcDbLine
 10
8598.38688437
 20
17834.99981176
 30
0.0
 11
7628.38694218
 21
17834.99981176
 31
0.0
  0
LINE
  5
C04A
330
A8FC
100
AcDbEntity
  8
YKK_A1
100
AcDbLine
 10
8561.78688655
 20
17730.99981796
 30
0.0
 11
7664.78694001
 21
17730.99981796
 31
0.0
  0
LINE
  5
C04B
330
A8FC
100
AcDbEntity
  8
YKK_A1
100
AcDbLine
 10
7664.78694001
 20
17799.99981385
 30
0.0
 11
8561.78688655
 21
17799.99981385
 31
0.0
  0
LINE
  5
C04C
330
A8FC
100
AcDbEntity
  8
YKK_A1
  6
NITENSAP
100
AcDbLine
 10
8129.7869123
 20
16994.99986183
 30
0.0
 11
8569.38688609
 21
16444.99989461
 31
0.0
  0
LINE
  5
C04D
330
A8FC
100
AcDbEntity
  8
YKK_A1
100
AcDbLine
 10
8129.7869123
 20
16994.99986183
 30
0.0
 11
8569.38688609
 21
16994.99986183
 31
0.0
  0
LINE
  5
C04E
330
A8FC
100
AcDbEntity
  8
YKK_A1
100
AcDbLine
 10
7653.38694069
 20
17834.99981176
 30
0.0
 11
7653.38694069
 21
16896.99986767
 31
0.0
  0
LINE
  5
C04F
330
A8FC
100
AcDbEntity
  8
YKK_A1
100
AcDbLine
 10
8040.7869176
 20
17695.99982005
 30
0.0
 11
8040.7869176
 21
16997.99986165
 31
0.0
  0
LINE
  5
C050
330
A8FC
100
AcDbEntity
  8
YKK_A1
100
AcDbLine
 10
8030.7869182
 20
17670.99982154
 30
0.0
 11
8030.7869182
 21
16997.99986165
 31
0.0
  0
LINE
  5
C051
330
A8FC
100
AcDbEntity
  8
YKK_A1
100
AcDbLine
 10
8185.78690896
 20
16997.99986165
 30
0.0
 11
8185.78690896
 21
17695.99982005
 31
0.0
  0
LINE
  5
C052
330
A8FC
100
AcDbEntity
  8
YKK_A1
100
AcDbLine
 10
8195.78690836
 20
16997.99986165
 30
0.0
 11
8195.78690836
 21
17670.99982154
 31
0.0
  0
LINE
  5
C053
330
A8FC
100
AcDbEntity
  8
YKK_A1
100
AcDbLine
 10
7723.38693652
 20
16997.99986165
 30
0.0
 11
7723.38693652
 21
17670.99982154
 31
0.0
  0
LINE
  5
C054
330
A8FC
100
AcDbEntity
  8
YKK_A1
100
AcDbLine
 10
7713.38693712
 20
16997.99986165
 30
0.0
 11
7713.38693712
 21
17695.99982005
 31
0.0
  0
LINE
  5
C055
330
A8FC
100
AcDbEntity
  8
YKK_A1
100
AcDbLine
 10
8096.78691426
 20
16994.99986183
 30
0.0
 11
7657.38694045
 21
16994.99986183
 31
0.0
  0
LINE
  5
C056
330
A8FC
100
AcDbEntity
  8
YKK_A1
  6
NITENSAP
100
AcDbLine
 10
8096.78691426
 20
16994.99986183
 30
0.0
 11
7657.38694045
 21
16444.99989461
 31
0.0
  0
LINE
  5
C05C
330
A8FC
100
AcDbEntity
  8
YKK_A1
100
AcDbLine
 10
7657.38694045
 20
16994.99986183
 30
0.0
 11
7657.38694045
 21
16896.99986767
 31
0.0
  0
LINE
  5
C05D
330
A8FC
100
AcDbEntity
  8
YKK_A1
100
AcDbLine
 10
7660.78694025
 20
16896.99986767
 30
0.0
 11
7649.78694091
 21
16896.99986767
 31
0.0
  0
LINE
  5
C05E
330
A8FC
100
AcDbEntity
  8
YKK_A1
100
AcDbLine
 10
7660.78694025
 20
16856.99987005
 30
0.0
 11
7649.78694091
 21
16856.99987005
 31
0.0
  0
LINE
  5
C05F
330
A8FC
100
AcDbEntity
  8
YKK_A1
100
AcDbLine
 10
7649.78694091
 20
16816.99987244
 30
0.0
 11
7660.78694025
 21
16816.99987244
 31
0.0
  0
LINE
  5
C060
330
A8FC
100
AcDbEntity
  8
YKK_A1
100
AcDbLine
 10
7660.78694025
 20
16816.99987244
 30
0.0
 11
7660.78694025
 21
16896.99986767
 31
0.0
  0
LINE
  5
C061
330
A8FC
100
AcDbEntity
  8
YKK_A1
100
AcDbLine
 10
7649.78694091
 20
16896.99986767
 30
0.0
 11
7649.78694091
 21
16816.99987244
 31
0.0
  0
CIRCLE
  5
C062
330
A8FC
100
AcDbEntity
  8
YKK_A1
100
AcDbCircle
 10
7734.38693586
 20
17007.99986105
 30
0.0
 40
2.49999998692838
  0
LINE
  5
C063
330
A8FC
100
AcDbEntity
  8
YKK_A1
100
AcDbLine
 10
7713.38693712
 20
16997.99986165
 30
0.0
 11
7723.38693652
 21
16997.99986165
 31
0.0
  0
LINE
  5
C064
330
A8FC
100
AcDbEntity
  8
YKK_A1
100
AcDbLine
 10
7723.38693652
 20
16997.99986165
 30
0.0
 11
7740.38693551
 21
16997.99986165
 31
0.0
  0
LINE
  5
C065
330
A8FC
100
AcDbEntity
  8
YKK_A1
100
AcDbLine
 10
7740.38693551
 20
16997.99986165
 30
0.0
 11
7740.38693551
 21
17012.99986076
 31
0.0
  0
LINE
  5
C066
330
A8FC
100
AcDbEntity
  8
YKK_A1
100
AcDbLine
 10
7740.38693551
 20
17012.99986076
 30
0.0
 11
7723.38693652
 21
17012.99986076
 31
0.0
  0
LINE
  5
C067
330
A8FC
100
AcDbEntity
  8
YKK_A1
100
AcDbLine
 10
7653.38694069
 20
16997.99986165
 30
0.0
 11
7713.38693712
 21
16997.99986165
 31
0.0
  0
LINE
  5
C068
330
A8FC
100
AcDbEntity
  8
YKK_A1
  6
ITTENSAP
100
AcDbLine
 10
7986.78692082
 20
16494.99989163
 30
0.0
 11
8096.78691426
 21
16494.99989163
 31
0.0
  0
CIRCLE
  5
C069
330
A8FC
100
AcDbEntity
  8
YKK_A1
100
AcDbCircle
 10
8041.78691754
 20
16494.99989163
 30
0.0
 40
28.00000012698984
  0
CIRCLE
  5
C06A
330
A8FC
100
AcDbEntity
  8
YKK_A1
100
AcDbCircle
 10
8041.78691754
 20
16494.99989163
 30
0.0
 40
28.99999759282533
  0
CIRCLE
  5
C06B
330
A8FC
100
AcDbEntity
  8
YKK_A1
100
AcDbCircle
 10
8041.78691754
 20
16494.99989163
 30
0.0
 40
37.99999665722356
  0
LINE
  5
C06C
330
A8FC
100
AcDbEntity
  8
YKK_A1
  6
ITTENSAP
100
AcDbLine
 10
8041.78691754
 20
16439.99989491
 30
0.0
 11
8041.78691754
 21
16549.99988835
 31
0.0
  0
LINE
  5
C06D
330
A8FC
100
AcDbEntity
  8
YKK_A1
100
AcDbLine
 10
8045.38691733
 20
16469.59989314
 30
0.0
 11
8045.7869173
 21
16475.19989281
 31
0.0
  0
LINE
  5
C06E
330
A8FC
100
AcDbEntity
  8
YKK_A1
100
AcDbLine
 10
8046.58691726
 20
16494.79989164
 30
0.0
 11
8046.58691726
 21
16495.19989162
 31
0.0
  0
LINE
  5
C06F
330
A8FC
100
AcDbEntity
  8
YKK_A1
100
AcDbLine
 10
8045.7869173
 20
16514.79989045
 30
0.0
 11
8045.38691733
 21
16520.39989012
 31
0.0
  0
LINE
  5
C070
330
A8FC
100
AcDbEntity
  8
YKK_A1
100
AcDbLine
 10
8043.98691741
 20
16521.79989003
 30
0.0
 11
8039.78691766
 21
16521.79989003
 31
0.0
  0
LINE
  5
C071
330
A8FC
100
AcDbEntity
  8
YKK_A1
100
AcDbLine
 10
8038.38691774
 20
16520.39989012
 30
0.0
 11
8037.98691777
 21
16514.79989045
 31
0.0
  0
LINE
  5
C072
330
A8FC
100
AcDbEntity
  8
YKK_A1
100
AcDbLine
 10
8037.18691782
 20
16495.19989162
 30
0.0
 11
8037.18691782
 21
16494.79989164
 31
0.0
  0
LINE
  5
C073
330
A8FC
100
AcDbEntity
  8
YKK_A1
100
AcDbLine
 10
8037.98691777
 20
16475.19989281
 30
0.0
 11
8038.38691774
 21
16469.59989314
 31
0.0
  0
LINE
  5
C074
330
A8FC
100
AcDbEntity
  8
YKK_A1
100
AcDbLine
 10
8039.78691766
 20
16468.19989323
 30
0.0
 11
8043.98691741
 21
16468.19989323
 31
0.0
  0
ARC
  5
C075
330
A8FC
100
AcDbEntity
  8
YKK_A1
100
AcDbCircle
 10
8041.78691754
 20
16494.99989163
 30
0.0
 40
7.499999448165172
100
AcDbArc
 50
308.68099976
 51
51.31898499
  0
ARC
  5
C076
330
A8FC
100
AcDbEntity
  8
YKK_A1
100
AcDbCircle
 10
8041.78691754
 20
16494.99989163
 30
0.0
 40
7.499999448165172
100
AcDbArc
 50
128.68099976
 51
231.31898499
  0
ARC
  5
C077
330
A8FC
100
AcDbEntity
  8
YKK_A1
100
AcDbCircle
 10
8043.98691741
 20
16469.59989314
 30
0.0
 40
1.49999995797303
100
AcDbArc
 50
274.70399475
 51
355.51899719
  0
ARC
  5
C078
330
A8FC
100
AcDbEntity
  8
YKK_A1
100
AcDbCircle
 10
7796.58693216
 20
16494.79989164
 30
0.0
 40
249.9999952753182
100
AcDbArc
 50
355.53399658
 51
0.0
  0
ARC
  5
C079
330
A8FC
100
AcDbEntity
  8
YKK_A1
100
AcDbCircle
 10
7796.58693216
 20
16495.19989162
 30
0.0
 40
249.9999952753182
100
AcDbArc
 50
0.0
 51
4.46598816
  0
ARC
  5
C07A
330
A8FC
100
AcDbEntity
  8
YKK_A1
100
AcDbCircle
 10
8043.98691741
 20
16520.39989012
 30
0.0
 40
1.49999995797303
100
AcDbArc
 50
4.44499207
 51
85.25799561
  0
ARC
  5
C07B
330
A8FC
100
AcDbEntity
  8
YKK_A1
100
AcDbCircle
 10
8039.78691766
 20
16520.39989012
 30
0.0
 40
1.49999995797303
100
AcDbArc
 50
94.74198914
 51
175.55499268
  0
ARC
  5
C07C
330
A8FC
100
AcDbEntity
  8
YKK_A1
100
AcDbCircle
 10
8287.18690292
 20
16495.19989162
 30
0.0
 40
249.9999952753182
100
AcDbArc
 50
175.53399658
 51
180.0
  0
ARC
  5
C07D
330
A8FC
100
AcDbEntity
  8
YKK_A1
100
AcDbCircle
 10
8287.18690292
 20
16494.79989164
 30
0.0
 40
249.9999952753182
100
AcDbArc
 50
180.0
 51
184.46598816
  0
ARC
  5
C07E
330
A8FC
100
AcDbEntity
  8
YKK_A1
100
AcDbCircle
 10
8039.78691766
 20
16469.59989314
 30
0.0
 40
1.49999995797303
100
AcDbArc
 50
184.48098755
 51
265.29598999
  0
LINE
  5
C07F
330
A8FC
100
AcDbEntity
  8
YKK_A1
  6
ITTENSAP
100
AcDbLine
 10
8184.78690902
 20
16439.99989491
 30
0.0
 11
8184.78690902
 21
16549.99988835
 31
0.0
  0
CIRCLE
  5
C080
330
A8FC
100
AcDbEntity
  8
YKK_A1
100
AcDbCircle
 10
8184.78690902
 20
16494.99989163
 30
0.0
 40
28.99999759282533
  0
CIRCLE
  5
C081
330
A8FC
100
AcDbEntity
  8
YKK_A1
100
AcDbCircle
 10
8184.78690902
 20
16494.99989163
 30
0.0
 40
28.00000012698984
  0
LINE
  5
C082
330
A8FC
100
AcDbEntity
  8
YKK_A1
  6
ITTENSAP
100
AcDbLine
 10
8129.7869123
 20
16494.99989163
 30
0.0
 11
8239.78690574
 21
16494.99989163
 31
0.0
  0
CIRCLE
  5
C083
330
A8FC
100
AcDbEntity
  8
YKK_A1
100
AcDbCircle
 10
8184.78690902
 20
16494.99989163
 30
0.0
 40
37.99999665722356
  0
LINE
  5
C084
330
A8FC
100
AcDbEntity
  8
YKK_A1
100
AcDbLine
 10
8188.3869088
 20
16469.59989314
 30
0.0
 11
8188.78690878
 21
16475.19989281
 31
0.0
  0
LINE
  5
C085
330
A8FC
100
AcDbEntity
  8
YKK_A1
100
AcDbLine
 10
8189.58690873
 20
16494.79989164
 30
0.0
 11
8189.58690873
 21
16495.19989162
 31
0.0
  0
LINE
  5
C086
330
A8FC
100
AcDbEntity
  8
YKK_A1
100
AcDbLine
 10
8188.78690878
 20
16514.79989045
 30
0.0
 11
8188.3869088
 21
16520.39989012
 31
0.0
  0
LINE
  5
C087
330
A8FC
100
AcDbEntity
  8
YKK_A1
100
AcDbLine
 10
8186.98690889
 20
16521.79989003
 30
0.0
 11
8182.78690914
 21
16521.79989003
 31
0.0
  0
LINE
  5
C088
330
A8FC
100
AcDbEntity
  8
YKK_A1
100
AcDbLine
 10
8181.38690922
 20
16520.39989012
 30
0.0
 11
8180.98690925
 21
16514.79989045
 31
0.0
  0
LINE
  5
C089
330
A8FC
100
AcDbEntity
  8
YKK_A1
100
AcDbLine
 10
8180.18690929
 20
16495.19989162
 30
0.0
 11
8180.18690929
 21
16494.79989164
 31
0.0
  0
LINE
  5
C08A
330
A8FC
100
AcDbEntity
  8
YKK_A1
100
AcDbLine
 10
8180.98690925
 20
16475.19989281
 30
0.0
 11
8181.38690922
 21
16469.59989314
 31
0.0
  0
LINE
  5
C08B
330
A8FC
100
AcDbEntity
  8
YKK_A1
100
AcDbLine
 10
8182.78690914
 20
16468.19989323
 30
0.0
 11
8186.98690889
 21
16468.19989323
 31
0.0
  0
ARC
  5
C08C
330
A8FC
100
AcDbEntity
  8
YKK_A1
100
AcDbCircle
 10
8186.98690889
 20
16469.59989314
 30
0.0
 40
1.49999995797303
100
AcDbArc
 50
274.70399475
 51
355.51899719
  0
ARC
  5
C08D
330
A8FC
100
AcDbEntity
  8
YKK_A1
100
AcDbCircle
 10
7939.58692363
 20
16494.79989164
 30
0.0
 40
249.9999952753182
100
AcDbArc
 50
355.53399658
 51
0.0
  0
ARC
  5
C08E
330
A8FC
100
AcDbEntity
  8
YKK_A1
100
AcDbCircle
 10
7939.58692363
 20
16495.19989162
 30
0.0
 40
249.9999952753182
100
AcDbArc
 50
0.0
 51
4.46598816
  0
ARC
  5
C08F
330
A8FC
100
AcDbEntity
  8
YKK_A1
100
AcDbCircle
 10
8186.98690889
 20
16520.39989012
 30
0.0
 40
1.49999995797303
100
AcDbArc
 50
4.44499207
 51
85.25799561
  0
ARC
  5
C090
330
A8FC
100
AcDbEntity
  8
YKK_A1
100
AcDbCircle
 10
8182.78690914
 20
16520.39989012
 30
0.0
 40
1.49999995797303
100
AcDbArc
 50
94.74198914
 51
175.55499268
  0
ARC
  5
C091
330
A8FC
100
AcDbEntity
  8
YKK_A1
100
AcDbCircle
 10
8430.18689439
 20
16495.19989162
 30
0.0
 40
249.9999952753182
100
AcDbArc
 50
175.53399658
 51
180.0
  0
ARC
  5
C092
330
A8FC
100
AcDbEntity
  8
YKK_A1
100
AcDbCircle
 10
8430.18689439
 20
16494.79989164
 30
0.0
 40
249.9999952753182
100
AcDbArc
 50
180.0
 51
184.46598816
  0
ARC
  5
C093
330
A8FC
100
AcDbEntity
  8
YKK_A1
100
AcDbCircle
 10
8182.78690914
 20
16469.59989314
 30
0.0
 40
1.49999995797303
100
AcDbArc
 50
184.48098755
 51
265.29598999
  0
ARC
  5
C094
330
A8FC
100
AcDbEntity
  8
YKK_A1
100
AcDbCircle
 10
8184.78690902
 20
16494.99989163
 30
0.0
 40
7.499999448165172
100
AcDbArc
 50
128.68099976
 51
231.31898499
  0
ARC
  5
C095
330
A8FC
100
AcDbEntity
  8
YKK_A1
100
AcDbCircle
 10
8184.78690902
 20
16494.99989163
 30
0.0
 40
7.499999448165172
100
AcDbArc
 50
308.68099976
 51
51.31898499
  0
LINE
  5
C096
330
A8FC
100
AcDbEntity
  8
YKK_A1
100
AcDbLine
 10
8165.78691015
 20
16499.99989133
 30
0.0
 11
8165.78691015
 21
16490.19989192
 31
0.0
  0
LINE
  5
C097
330
A8FC
100
AcDbEntity
  8
YKK_A1
100
AcDbLine
 10
8167.78691003
 20
16499.99989133
 30
0.0
 11
8167.78691003
 21
16490.19989192
 31
0.0
  0
LINE
  5
C098
330
A8FC
100
AcDbEntity
  8
YKK_A1
100
AcDbLine
 10
8167.78691003
 20
16498.7998914
 30
0.0
 11
8165.78691015
 21
16498.7998914
 31
0.0
  0
LINE
  5
C099
330
A8FC
100
AcDbEntity
  8
YKK_A1
100
AcDbLine
 10
8167.78691003
 20
16491.19989186
 30
0.0
 11
8165.78691015
 21
16491.19989186
 31
0.0
  0
LINE
  5
C09A
330
A8FC
100
AcDbEntity
  8
YKK_A1
  6
ITTENSAP
100
AcDbLine
 10
8166.78691009
 20
16504.99989103
 30
0.0
 11
8166.78691009
 21
16484.99989223
 31
0.0
  0
LINE
  5
C09B
330
A8FC
100
AcDbEntity
  8
YKK_A1
100
AcDbLine
 10
8060.78691641
 20
16490.19989192
 30
0.0
 11
8060.78691641
 21
16499.99989133
 31
0.0
  0
LINE
  5
C09C
330
A8FC
100
AcDbEntity
  8
YKK_A1
100
AcDbLine
 10
8058.78691653
 20
16490.19989192
 30
0.0
 11
8058.78691653
 21
16499.99989133
 31
0.0
  0
LINE
  5
C09D
330
A8FC
100
AcDbEntity
  8
YKK_A1
100
AcDbLine
 10
8058.78691653
 20
16491.19989186
 30
0.0
 11
8060.78691641
 21
16491.19989186
 31
0.0
  0
LINE
  5
C09E
330
A8FC
100
AcDbEntity
  8
YKK_A1
100
AcDbLine
 10
8058.78691653
 20
16498.7998914
 30
0.0
 11
8060.78691641
 21
16498.7998914
 31
0.0
  0
LINE
  5
C09F
330
A8FC
100
AcDbEntity
  8
YKK_A1
  6
ITTENSAP
100
AcDbLine
 10
8059.78691647
 20
16484.99989223
 30
0.0
 11
8059.78691647
 21
16504.99989103
 31
0.0
  0
LINE
  5
C0A0
330
A8FC
100
AcDbEntity
  8
YKK_A1
100
AcDbLine
 10
8040.7869176
 20
16997.99986165
 30
0.0
 11
8100.78691403
 21
16997.99986165
 31
0.0
  0
CIRCLE
  5
C0A1
330
A8FC
100
AcDbEntity
  8
YKK_A1
100
AcDbCircle
 10
8019.78691885
 20
17007.99986105
 30
0.0
 40
2.49999998692838
  0
LINE
  5
C0A2
330
A8FC
100
AcDbEntity
  8
YKK_A1
100
AcDbLine
 10
8030.7869182
 20
16997.99986165
 30
0.0
 11
8013.78691921
 21
16997.99986165
 31
0.0
  0
LINE
  5
C0A3
330
A8FC
100
AcDbEntity
  8
YKK_A1
100
AcDbLine
 10
8013.78691921
 20
17012.99986076
 30
0.0
 11
8030.7869182
 21
17012.99986076
 31
0.0
  0
LINE
  5
C0A4
330
A8FC
100
AcDbEntity
  8
YKK_A1
100
AcDbLine
 10
8013.78691921
 20
16997.99986165
 30
0.0
 11
8013.78691921
 21
17012.99986076
 31
0.0
  0
LINE
  5
C0A5
330
A8FC
100
AcDbEntity
  8
YKK_A1
100
AcDbLine
 10
8030.7869182
 20
16997.99986165
 30
0.0
 11
8040.7869176
 21
16997.99986165
 31
0.0
  0
LINE
  5
C0A6
330
A8FC
100
AcDbEntity
  8
YKK_A1
100
AcDbLine
 10
8195.78690836
 20
16997.99986165
 30
0.0
 11
8212.78690735
 21
16997.99986165
 31
0.0
  0
LINE
  5
C0A7
330
A8FC
100
AcDbEntity
  8
YKK_A1
100
AcDbLine
 10
8212.78690735
 20
17012.99986076
 30
0.0
 11
8195.78690836
 21
17012.99986076
 31
0.0
  0
CIRCLE
  5
C0A8
330
A8FC
100
AcDbEntity
  8
YKK_A1
100
AcDbCircle
 10
8206.78690771
 20
17007.99986105
 30
0.0
 40
2.49999998692838
  0
LINE
  5
C0A9
330
A8FC
100
AcDbEntity
  8
YKK_A1
100
AcDbLine
 10
8185.78690896
 20
16997.99986165
 30
0.0
 11
8195.78690836
 21
16997.99986165
 31
0.0
  0
LINE
  5
C0AA
330
A8FC
100
AcDbEntity
  8
YKK_A1
100
AcDbLine
 10
8125.78691254
 20
16997.99986165
 30
0.0
 11
8185.78690896
 21
16997.99986165
 31
0.0
  0
LINE
  5
C0AB
330
A8FC
100
AcDbEntity
  8
YKK_A1
100
AcDbLine
 10
8212.78690735
 20
16997.99986165
 30
0.0
 11
8212.78690735
 21
17012.99986076
 31
0.0
  0
LINE
  5
C0AC
330
A8FC
100
AcDbEntity
  8
YKK_A1
100
AcDbLine
 10
7713.38693712
 20
17670.99982154
 30
0.0
 11
8040.7869176
 21
17670.99982154
 31
0.0
  0
LINE
  5
C0AD
330
A8FC
100
AcDbEntity
  8
YKK_A1
100
AcDbLine
 10
7664.78694001
 20
17730.99981796
 30
0.0
 11
7664.78694001
 21
17799.99981385
 31
0.0
  0
CIRCLE
  5
C0AE
330
A8FC
100
AcDbEntity
  8
YKK_A1
100
AcDbCircle
 10
7877.18692735
 20
17676.99982118
 30
0.0
 40
2.99999991596606
  0
CIRCLE
  5
C0AF
330
A8FC
100
AcDbEntity
  8
YKK_A1
100
AcDbCircle
 10
8349.5868992
 20
17676.99982118
 30
0.0
 40
2.99999991596606
  0
LINE
  5
C0B0
330
A8FC
100
AcDbEntity
  8
YKK_A1
100
AcDbLine
 10
8573.38688586
 20
16896.99986767
 30
0.0
 11
8573.38688586
 21
17834.99981176
 31
0.0
  0
LINE
  5
C0B1
330
A8FC
100
AcDbEntity
  8
YKK_A1
100
AcDbLine
 10
8503.38689003
 20
17670.99982154
 30
0.0
 11
8503.38689003
 21
16997.99986165
 31
0.0
  0
LINE
  5
C0B2
330
A8FC
100
AcDbEntity
  8
YKK_A1
100
AcDbLine
 10
8513.38688943
 20
17695.99982005
 30
0.0
 11
8513.38688943
 21
16997.99986165
 31
0.0
  0
LINE
  5
C0C9
330
A8FC
100
AcDbEntity
  8
YKK_A1
100
AcDbLine
 10
8569.38688609
 20
16994.99986183
 30
0.0
 11
8569.38688609
 21
16896.99986767
 31
0.0
  0
LINE
  5
C0CA
330
A8FC
100
AcDbEntity
  8
YKK_A1
100
AcDbLine
 10
8576.78688565
 20
16896.99986767
 30
0.0
 11
8565.78688631
 21
16896.99986767
 31
0.0
  0
LINE
  5
C0CB
330
A8FC
100
AcDbEntity
  8
YKK_A1
100
AcDbLine
 10
8576.78688565
 20
16856.99987005
 30
0.0
 11
8565.78688631
 21
16856.99987005
 31
0.0
  0
LINE
  5
C0CC
330
A8FC
100
AcDbEntity
  8
YKK_A1
100
AcDbLine
 10
8565.78688631
 20
16816.99987244
 30
0.0
 11
8576.78688565
 21
16816.99987244
 31
0.0
  0
LINE
  5
C0CD
330
A8FC
100
AcDbEntity
  8
YKK_A1
100
AcDbLine
 10
8576.78688565
 20
16816.99987244
 30
0.0
 11
8576.78688565
 21
16896.99986767
 31
0.0
  0
LINE
  5
C0CE
330
A8FC
100
AcDbEntity
  8
YKK_A1
100
AcDbLine
 10
8565.78688631
 20
16896.99986767
 30
0.0
 11
8565.78688631
 21
16816.99987244
 31
0.0
  0
LINE
  5
C0CF
330
A8FC
100
AcDbEntity
  8
YKK_A1
100
AcDbLine
 10
8513.38688943
 20
16997.99986165
 30
0.0
 11
8573.38688586
 21
16997.99986165
 31
0.0
  0
CIRCLE
  5
C0D0
330
A8FC
100
AcDbEntity
  8
YKK_A1
100
AcDbCircle
 10
8492.38689068
 20
17007.99986105
 30
0.0
 40
2.49999998692838
  0
LINE
  5
C0D1
330
A8FC
100
AcDbEntity
  8
YKK_A1
100
AcDbLine
 10
8503.38689003
 20
16997.99986165
 30
0.0
 11
8513.38688943
 21
16997.99986165
 31
0.0
  0
LINE
  5
C0D2
330
A8FC
100
AcDbEntity
  8
YKK_A1
100
AcDbLine
 10
8503.38689003
 20
16997.99986165
 30
0.0
 11
8486.38689104
 21
16997.99986165
 31
0.0
  0
LINE
  5
C0D3
330
A8FC
100
AcDbEntity
  8
YKK_A1
100
AcDbLine
 10
8486.38689104
 20
16997.99986165
 30
0.0
 11
8486.38689104
 21
17012.99986076
 31
0.0
  0
LINE
  5
C0D4
330
A8FC
100
AcDbEntity
  8
YKK_A1
100
AcDbLine
 10
8486.38689104
 20
17012.99986076
 30
0.0
 11
8503.38689003
 21
17012.99986076
 31
0.0
  0
LINE
  5
C0F8
330
A8FC
100
AcDbEntity
  8
YKK_A1
100
AcDbLine
 10
8561.78688655
 20
17799.99981385
 30
0.0
 11
8561.78688655
 21
17730.99981796
 31
0.0
  0
LINE
  5
C10A
330
A8FC
100
AcDbEntity
  8
YKK_A1
100
AcDbLine
 10
2723.38712975
 20
10252.59556791
 30
0.0
 11
2723.38712975
 21
9537.99905116
 31
0.0
  0
LINE
  5
C10B
330
A8FC
100
AcDbEntity
  8
YKK_A1
100
AcDbLine
 10
2719.38714925
 20
10252.59556791
 30
0.0
 11
2719.38714925
 21
9537.99905116
 31
0.0
  0
LINE
  5
C10D
330
A8FC
100
AcDbEntity
  8
YKK_A1
  6
NITENSAP
100
AcDbLine
 10
2719.38714925
 20
10292.59537294
 30
0.0
 11
2107.39013238
 21
9359.9999188
 31
0.0
  0
LINE
  5
C10F
330
A8FC
100
AcDbEntity
  8
YKK_A1
100
AcDbLine
 10
2078.39027374
 20
9330.00006503
 30
0.0
 11
2078.39027374
 21
11299.99046247
 31
0.0
  0
LINE
  5
C110
330
A8FC
100
AcDbEntity
  8
YKK_A1
100
AcDbLine
 10
2107.39013238
 20
9359.9999188
 30
0.0
 11
2107.39013238
 21
11224.99082805
 31
0.0
  0
LINE
  5
C111
330
A8FC
100
AcDbEntity
  8
YKK_A1
100
AcDbLine
 10
2103.39015188
 20
11299.99046247
 30
0.0
 11
2103.39015188
 21
9330.00006503
 31
0.0
  0
LINE
  5
C112
330
A8FC
100
AcDbEntity
  8
YKK_A1
100
AcDbLine
 10
2748.38700789
 20
9330.00006503
 30
0.0
 11
2748.38700789
 21
11299.99046247
 31
0.0
  0
LINE
  5
C115
330
A8FC
100
AcDbEntity
  8
YKK_A1
100
AcDbLine
 10
2132.39001052
 20
9384.99979694
 30
0.0
 11
2694.38727111
 21
9384.99979694
 31
0.0
  0
LINE
  5
C116
330
A8FC
100
AcDbEntity
  8
YKK_A1
100
AcDbLine
 10
2694.38727111
 20
9453.99946061
 30
0.0
 11
2132.39001052
 21
9453.99946061
 31
0.0
  0
LINE
  5
C117
330
A8FC
100
AcDbEntity
  8
YKK_A1
100
AcDbLine
 10
2078.39027374
 20
9330.00006503
 30
0.0
 11
2748.38700789
 21
9330.00006503
 31
0.0
  0
LINE
  5
C118
330
A8FC
100
AcDbEntity
  8
YKK_A1
100
AcDbLine
 10
2723.38712975
 20
9354.99994317
 30
0.0
 11
2103.39015188
 21
9354.99994317
 31
0.0
  0
LINE
  5
C119
330
A8FC
100
AcDbEntity
  8
YKK_A1
100
AcDbLine
 10
2719.38714925
 20
9359.9999188
 30
0.0
 11
2107.39013238
 21
9359.9999188
 31
0.0
  0
LINE
  5
C14C
330
A8FC
100
AcDbEntity
  8
YKK_A1
100
AcDbLine
 10
2113.39027165
 20
9330.00006502
 30
0.0
 11
2113.39027165
 21
9340.13664929
 31
0.0
  0
LINE
  5
C14E
330
A8FC
100
AcDbEntity
  8
YKK_A1
100
AcDbLine
 10
2132.39001052
 20
9453.99946061
 30
0.0
 11
2132.39001052
 21
9384.99979694
 31
0.0
  0
LINE
  5
C16D
330
A8FC
100
AcDbEntity
  8
YKK_A1
100
AcDbLine
 10
2723.38712975
 20
9457.99944111
 30
0.0
 11
2723.38712975
 21
9330.00006503
 31
0.0
  0
LINE
  5
C18C
330
A8FC
100
AcDbEntity
  8
YKK_A1
100
AcDbLine
 10
2713.38700998
 20
9330.00006502
 30
0.0
 11
2713.38700998
 21
9339.15574239
 31
0.0
  0
LINE
  5
C18E
330
A8FC
100
AcDbEntity
  8
YKK_A1
100
AcDbLine
 10
2715.7871668
 20
9537.99905116
 30
0.0
 11
2726.78711318
 21
9537.99905116
 31
0.0
  0
LINE
  5
C18F
330
A8FC
100
AcDbEntity
  8
YKK_A1
100
AcDbLine
 10
2726.78711318
 20
9497.99924613
 30
0.0
 11
2715.7871668
 21
9497.99924613
 31
0.0
  0
LINE
  5
C190
330
A8FC
100
AcDbEntity
  8
YKK_A1
100
AcDbLine
 10
2726.78711318
 20
9457.99944111
 30
0.0
 11
2715.7871668
 21
9457.99944111
 31
0.0
  0
LINE
  5
C191
330
A8FC
100
AcDbEntity
  8
YKK_A1
100
AcDbLine
 10
2748.38700789
 20
9365.00006295
 30
0.0
 11
2738.33101472
 21
9365.00006295
 31
0.0
  0
LINE
  5
C192
330
A8FC
100
AcDbEntity
  8
YKK_A1
100
AcDbLine
 10
2719.38714925
 20
9457.99944111
 30
0.0
 11
2719.38714925
 21
9359.9999188
 31
0.0
  0
LINE
  5
C193
330
A8FC
100
AcDbEntity
  8
YKK_A1
100
AcDbLine
 10
2694.38727111
 20
9384.99979694
 30
0.0
 11
2694.38727111
 21
9453.99946061
 31
0.0
  0
LINE
  5
C194
330
A8FC
100
AcDbEntity
  8
YKK_A1
100
AcDbLine
 10
2726.78711318
 20
9537.99905116
 30
0.0
 11
2726.78711318
 21
9457.99944111
 31
0.0
  0
LINE
  5
C195
330
A8FC
100
AcDbEntity
  8
YKK_A1
100
AcDbLine
 10
2715.7871668
 20
9457.99944111
 30
0.0
 11
2715.7871668
 21
9537.99905116
 31
0.0
  0
LINE
  5
C1A6
330
A8FC
100
AcDbEntity
  8
YKK_A1
100
AcDbLine
 10
2107.39013238
 20
11224.99082805
 30
0.0
 11
2719.38714925
 21
11224.99082805
 31
0.0
  0
LINE
  5
C1A7
330
A8FC
100
AcDbEntity
  8
YKK_A1
100
AcDbLine
 10
2748.38700789
 20
11299.99046247
 30
0.0
 11
2078.39027374
 21
11299.99046247
 31
0.0
  0
LINE
  5
C1A8
330
A8FC
100
AcDbEntity
  8
YKK_A1
100
AcDbLine
 10
2103.39015188
 20
11274.99058433
 30
0.0
 11
2723.38712975
 21
11274.99058433
 31
0.0
  0
LINE
  5
C1A9
330
A8FC
100
AcDbEntity
  8
YKK_A1
  6
NITENSAP
100
AcDbLine
 10
2107.39013238
 20
11224.99082805
 30
0.0
 11
2719.38714925
 21
10292.59537294
 31
0.0
  0
CIRCLE
  5
C1AF
330
A8FC
100
AcDbEntity
  8
YKK_A1
100
AcDbCircle
 10
2162.38986429
 20
10259.99553184
 30
0.0
 40
27.99986531282352
  0
CIRCLE
  5
C1B0
330
A8FC
100
AcDbEntity
  8
YKK_A1
100
AcDbCircle
 10
2162.38986429
 20
10259.99553184
 30
0.0
 40
28.9998579638796
  0
LINE
  5
C1B1
330
A8FC
100
AcDbEntity
  8
YKK_A1
100
AcDbLine
 10
2165.98984674
 20
10234.59565565
 30
0.0
 11
2166.38984479
 21
10240.19562836
 31
0.0
  0
LINE
  5
C1B2
330
A8FC
100
AcDbEntity
  8
YKK_A1
100
AcDbLine
 10
2158.38988379
 20
10240.19562836
 30
0.0
 11
2158.78988184
 21
10234.59565565
 31
0.0
  0
LINE
  5
C1B3
330
A8FC
100
AcDbEntity
  8
YKK_A1
  6
ITTENSAP
100
AcDbLine
 10
2162.38986429
 20
10204.99579993
 30
0.0
 11
2162.38986429
 21
10314.99526375
 31
0.0
  0
CIRCLE
  5
C1B4
330
A8FC
100
AcDbEntity
  8
YKK_A1
100
AcDbCircle
 10
2162.38986429
 20
10259.99553184
 30
0.0
 40
37.99981369515762
  0
ARC
  5
C1B5
330
A8FC
100
AcDbEntity
  8
YKK_A1
100
AcDbCircle
 10
2160.38987404
 20
10234.59565565
 30
0.0
 40
1.499992735785784
100
AcDbArc
 50
184.48098755
 51
265.29598999
  0
ARC
  5
C1B6
330
A8FC
100
AcDbEntity
  8
YKK_A1
100
AcDbCircle
 10
2164.38985454
 20
10234.59565565
 30
0.0
 40
1.499992735785784
100
AcDbArc
 50
274.70399475
 51
355.51899719
  0
LINE
  5
C1B7
330
A8FC
100
AcDbEntity
  8
YKK_A1
100
AcDbLine
 10
2160.18987501
 20
10233.19566248
 30
0.0
 11
2164.58985356
 21
10233.19566248
 31
0.0
  0
LINE
  5
C1B8
330
A8FC
100
AcDbEntity
  8
YKK_A1
  6
ITTENSAP
100
AcDbLine
 10
2107.39013238
 20
10259.99553184
 30
0.0
 11
2217.3895962
 21
10259.99553184
 31
0.0
  0
ARC
  5
C1B9
330
A8FC
100
AcDbEntity
  8
YKK_A1
100
AcDbCircle
 10
1917.19105949
 20
10260.19553087
 30
0.0
 40
249.9987915774328
100
AcDbArc
 50
0.0
 51
4.46598816
  0
ARC
  5
C1BA
330
A8FC
100
AcDbEntity
  8
YKK_A1
100
AcDbCircle
 10
2407.58866909
 20
10260.19553087
 30
0.0
 40
249.9987915774328
100
AcDbArc
 50
175.53399658
 51
180.0
  0
LINE
  5
C1BB
330
A8FC
100
AcDbEntity
  8
YKK_A1
100
AcDbLine
 10
2167.18984089
 20
10259.79553282
 30
0.0
 11
2167.18984089
 21
10260.19553087
 31
0.0
  0
ARC
  5
C1BC
330
A8FC
100
AcDbEntity
  8
YKK_A1
100
AcDbCircle
 10
1917.19105949
 20
10259.79553282
 30
0.0
 40
249.9987915774328
100
AcDbArc
 50
355.53399658
 51
0.0
  0
ARC
  5
C1BD
330
A8FC
100
AcDbEntity
  8
YKK_A1
100
AcDbCircle
 10
2162.38986429
 20
10259.99553184
 30
0.0
 40
7.499963337230585
100
AcDbArc
 50
308.68099976
 51
51.31898499
  0
ARC
  5
C1BE
330
A8FC
100
AcDbEntity
  8
YKK_A1
100
AcDbCircle
 10
2162.38986429
 20
10259.99553184
 30
0.0
 40
7.499963337230585
100
AcDbArc
 50
128.68099976
 51
231.31898499
  0
ARC
  5
C1BF
330
A8FC
100
AcDbEntity
  8
YKK_A1
100
AcDbCircle
 10
2407.58866909
 20
10259.79553282
 30
0.0
 40
249.9987915774328
100
AcDbArc
 50
180.0
 51
184.46598816
  0
LINE
  5
C1C0
330
A8FC
100
AcDbEntity
  8
YKK_A1
  6
ITTENSAP
100
AcDbLine
 10
2144.38995203
 20
10269.9954831
 30
0.0
 11
2144.38995203
 21
10249.99558059
 31
0.0
  0
LINE
  5
C1C1
330
A8FC
100
AcDbEntity
  8
YKK_A1
100
AcDbLine
 10
2145.38994715
 20
10256.19555036
 30
0.0
 11
2143.3899569
 21
10256.19555036
 31
0.0
  0
LINE
  5
C1C2
330
A8FC
100
AcDbEntity
  8
YKK_A1
100
AcDbLine
 10
2143.3899569
 20
10264.99550747
 30
0.0
 11
2143.3899569
 21
10255.19555524
 31
0.0
  0
LINE
  5
C1C3
330
A8FC
100
AcDbEntity
  8
YKK_A1
100
AcDbLine
 10
2157.58988769
 20
10260.19553087
 30
0.0
 11
2157.58988769
 21
10259.79553282
 31
0.0
  0
LINE
  5
C1C4
330
A8FC
100
AcDbEntity
  8
YKK_A1
100
AcDbLine
 10
2145.38994715
 20
10264.99550747
 30
0.0
 11
2145.38994715
 21
10255.19555524
 31
0.0
  0
LINE
  5
C1C5
330
A8FC
100
AcDbEntity
  8
YKK_A1
100
AcDbLine
 10
2145.38994715
 20
10263.79551332
 30
0.0
 11
2143.3899569
 21
10263.79551332
 31
0.0
  0
LINE
  5
C1C6
330
A8FC
100
AcDbEntity
  8
YKK_A1
100
AcDbLine
 10
2158.78988184
 20
10285.39540803
 30
0.0
 11
2158.38988379
 21
10279.79543533
 31
0.0
  0
LINE
  5
C1C7
330
A8FC
100
AcDbEntity
  8
YKK_A1
100
AcDbLine
 10
2164.58985356
 20
10286.79540121
 30
0.0
 11
2160.18987501
 21
10286.79540121
 31
0.0
  0
ARC
  5
C1C8
330
A8FC
100
AcDbEntity
  8
YKK_A1
100
AcDbCircle
 10
2164.38985454
 20
10285.39540803
 30
0.0
 40
1.499992735785784
100
AcDbArc
 50
4.44499207
 51
85.25799561
  0
ARC
  5
C1C9
330
A8FC
100
AcDbEntity
  8
YKK_A1
100
AcDbCircle
 10
2160.38987404
 20
10285.39540803
 30
0.0
 40
1.499992735785784
100
AcDbArc
 50
94.74198914
 51
175.55499267
  0
LINE
  5
C1CA
330
A8FC
100
AcDbEntity
  8
YKK_A1
100
AcDbLine
 10
2166.38984479
 20
10279.79543533
 30
0.0
 11
2165.98984674
 21
10285.39540803
 31
0.0
  0
CIRCLE
  5
C1CB
330
A8FC
100
AcDbEntity
  8
YKK_A1
100
AcDbCircle
 10
2413.38864082
 20
11074.99155921
 30
0.0
 40
74.99963200527249
  0
LINE
  5
C1CC
330
A8FC
100
AcDbEntity
  8
YKK_A1
100
AcDbLine
 10
2395.7887266
 20
11274.99058433
 30
0.0
 11
2395.7887266
 21
11224.99082805
 31
0.0
  0
LINE
  5
C1CD
330
A8FC
100
AcDbEntity
  8
YKK_A1
100
AcDbLine
 10
2430.788556
 20
11274.99058433
 30
0.0
 11
2430.788556
 21
11224.99082805
 31
0.0
  0
LINE
  5
C1CE
330
A8FC
100
AcDbEntity
  8
YKK_A1
100
AcDbLine
 10
2723.38712975
 20
11046.99169569
 30
0.0
 11
2723.38712975
 21
10332.59517796
 31
0.0
  0
LINE
  5
C1CF
330
A8FC
100
AcDbEntity
  8
YKK_A1
100
AcDbLine
 10
2719.38714925
 20
11046.99169569
 30
0.0
 11
2719.38714925
 21
10332.59517796
 31
0.0
  0
LINE
  5
C1D0
330
A8FC
100
AcDbEntity
  8
YKK_A1
100
AcDbLine
 10
2715.7871668
 20
10252.59556791
 30
0.0
 11
2715.7871668
 21
10332.59517796
 31
0.0
  0
LINE
  5
C1D1
330
A8FC
100
AcDbEntity
  8
YKK_A1
100
AcDbLine
 10
2726.78711318
 20
10332.59517796
 30
0.0
 11
2726.78711318
 21
10252.59556791
 31
0.0
  0
LINE
  5
C1D2
330
A8FC
100
AcDbEntity
  8
YKK_A1
100
AcDbLine
 10
2726.78711318
 20
10252.59556791
 30
0.0
 11
2715.7871668
 21
10252.59556791
 31
0.0
  0
LINE
  5
C1D3
330
A8FC
100
AcDbEntity
  8
YKK_A1
100
AcDbLine
 10
2715.7871668
 20
10292.59537294
 30
0.0
 11
2726.78711318
 21
10292.59537294
 31
0.0
  0
LINE
  5
C1D4
330
A8FC
100
AcDbEntity
  8
YKK_A1
100
AcDbLine
 10
2715.7871668
 20
10332.59517796
 30
0.0
 11
2726.78711318
 21
10332.59517796
 31
0.0
  0
LINE
  5
C1F3
330
A8FC
100
AcDbEntity
  8
YKK_A1
100
AcDbLine
 10
2726.78711318
 20
11046.99169569
 30
0.0
 11
2726.78711318
 21
11126.99130574
 31
0.0
  0
LINE
  5
C1F4
330
A8FC
100
AcDbEntity
  8
YKK_A1
100
AcDbLine
 10
2715.7871668
 20
11126.99130574
 30
0.0
 11
2715.7871668
 21
11046.99169569
 31
0.0
  0
LINE
  5
C1F5
330
A8FC
100
AcDbEntity
  8
YKK_A1
100
AcDbLine
 10
2726.78711318
 20
11086.99150072
 30
0.0
 11
2715.7871668
 21
11086.99150072
 31
0.0
  0
LINE
  5
C1F6
330
A8FC
100
AcDbEntity
  8
YKK_A1
100
AcDbLine
 10
2715.7871668
 20
11046.99169569
 30
0.0
 11
2726.78711318
 21
11046.99169569
 31
0.0
  0
LINE
  5
C1F8
330
A8FC
100
AcDbEntity
  8
YKK_A1
100
AcDbLine
 10
2723.38712975
 20
11299.99046247
 30
0.0
 11
2723.38712975
 21
11126.99130574
 31
0.0
  0
LINE
  5
C1F9
330
A8FC
100
AcDbEntity
  8
YKK_A1
100
AcDbLine
 10
2719.38714925
 20
11224.99082805
 30
0.0
 11
2719.38714925
 21
11126.99130574
 31
0.0
  0
LINE
  5
C1FA
330
A8FC
100
AcDbEntity
  8
YKK_A1
100
AcDbLine
 10
2726.78711318
 20
11126.99130574
 30
0.0
 11
2715.7871668
 21
11126.99130574
 31
0.0
  0
LINE
  5
C1FB
330
A8FC
100
AcDbEntity
  8
YKK_A1
100
AcDbLine
 10
2748.38700789
 20
11264.99046456
 30
0.0
 11
2740.63010832
 21
11264.99046456
 31
0.0
  0
LINE
  5
C829
330
A8FC
100
AcDbEntity
  8
YKK_A1
100
AcDbLine
 10
2103.3868493
 20
17835.00005656
 30
0.0
 11
2103.3868493
 21
15865.00017398
 31
0.0
  0
LINE
  5
C82A
330
A8FC
100
AcDbEntity
  8
YKK_A1
100
AcDbLine
 10
2078.38685079
 20
15865.00017398
 30
0.0
 11
2078.38685079
 21
17835.00005656
 31
0.0
  0
LINE
  5
C82B
330
A8FC
100
AcDbEntity
  8
YKK_A1
100
AcDbLine
 10
2748.38681086
 20
17835.00005656
 30
0.0
 11
2748.38681086
 21
15865.00017398
 31
0.0
  0
LINE
  5
C82D
330
A8FC
100
AcDbEntity
  8
YKK_A1
100
AcDbLine
 10
2107.38684907
 20
15895.00017219
 30
0.0
 11
2107.38684907
 21
17009.00010579
 31
0.0
  0
LINE
  5
C82E
330
A8FC
100
AcDbEntity
  8
YKK_A1
  6
NITENSAP
100
AcDbLine
 10
2107.38684907
 20
17009.00010579
 30
0.0
 11
2719.38681259
 21
16452.00013899
 31
0.0
  0
LINE
  5
C82F
330
A8FC
100
AcDbEntity
  8
YKK_A1
100
AcDbLine
 10
2719.38681259
 20
16831.0001164
 30
0.0
 11
2719.38681259
 21
16073.00016158
 31
0.0
  0
LINE
  5
C830
330
A8FC
100
AcDbEntity
  8
YKK_A1
100
AcDbLine
 10
2723.38681235
 20
16831.0001164
 30
0.0
 11
2723.38681235
 21
16073.00016158
 31
0.0
  0
LINE
  5
C832
330
A8FC
100
AcDbEntity
  8
YKK_A1
100
AcDbLine
 10
2719.38681259
 20
15895.00017219
 30
0.0
 11
2107.38684907
 21
15895.00017219
 31
0.0
  0
LINE
  5
C833
330
A8FC
100
AcDbEntity
  8
YKK_A1
100
AcDbLine
 10
2078.38685079
 20
15865.00017398
 30
0.0
 11
2748.38681086
 21
15865.00017398
 31
0.0
  0
LINE
  5
C834
330
A8FC
100
AcDbEntity
  8
YKK_A1
100
AcDbLine
 10
2723.38681235
 20
15890.00017249
 30
0.0
 11
2103.3868493
 21
15890.00017249
 31
0.0
  0
LINE
  5
C835
330
A8FC
100
AcDbEntity
  8
YKK_A1
100
AcDbLine
 10
2694.38681408
 20
15989.00016659
 30
0.0
 11
2132.38684758
 21
15989.00016659
 31
0.0
  0
LINE
  5
C836
330
A8FC
100
AcDbEntity
  8
YKK_A1
100
AcDbLine
 10
2132.38684758
 20
15920.0001707
 30
0.0
 11
2694.38681408
 21
15920.0001707
 31
0.0
  0
LINE
  5
C837
330
A8FC
100
AcDbEntity
  8
YKK_A1
  6
NITENSAP
100
AcDbLine
 10
2719.38681259
 20
16452.00013899
 30
0.0
 11
2107.38684907
 21
15895.00017219
 31
0.0
  0
LINE
  5
C86A
330
A8FC
100
AcDbEntity
  8
YKK_A1
100
AcDbLine
 10
2113.38684871
 20
15865.00017398
 30
0.0
 11
2113.38684871
 21
15867.00017386
 31
0.0
  0
LINE
  5
C86B
330
A8FC
100
AcDbEntity
  8
YKK_A1
100
AcDbLine
 10
2132.38684758
 20
15989.00016659
 30
0.0
 11
2132.38684758
 21
15920.0001707
 31
0.0
  0
LINE
  5
C86C
330
A8FC
100
AcDbEntity
  8
YKK_A1
  6
ITTENSAP
100
AcDbLine
 10
2107.38684907
 20
16495.00013643
 30
0.0
 11
2217.38684251
 21
16495.00013643
 31
0.0
  0
LINE
  5
C86D
330
A8FC
100
AcDbEntity
  8
YKK_A1
  6
ITTENSAP
100
AcDbLine
 10
2162.38684579
 20
16440.00013971
 30
0.0
 11
2162.38684579
 21
16550.00013315
 31
0.0
  0
CIRCLE
  5
C86E
330
A8FC
100
AcDbEntity
  8
YKK_A1
100
AcDbCircle
 10
2162.38684579
 20
16495.00013643
 30
0.0
 40
37.99999665722356
  0
CIRCLE
  5
C86F
330
A8FC
100
AcDbEntity
  8
YKK_A1
100
AcDbCircle
 10
2162.38684579
 20
16495.00013643
 30
0.0
 40
28.00000012698984
  0
CIRCLE
  5
C870
330
A8FC
100
AcDbEntity
  8
YKK_A1
100
AcDbCircle
 10
2162.38684579
 20
16495.00013643
 30
0.0
 40
28.99999759282533
  0
LINE
  5
C871
330
A8FC
100
AcDbEntity
  8
YKK_A1
100
AcDbLine
 10
2166.38684555
 20
16514.80013525
 30
0.0
 11
2165.98684557
 21
16520.40013492
 31
0.0
  0
LINE
  5
C872
330
A8FC
100
AcDbEntity
  8
YKK_A1
100
AcDbLine
 10
2165.98684557
 20
16469.60013794
 30
0.0
 11
2166.38684555
 21
16475.20013761
 31
0.0
  0
LINE
  5
C873
330
A8FC
100
AcDbEntity
  8
YKK_A1
100
AcDbLine
 10
2167.1868455
 20
16494.80013644
 30
0.0
 11
2167.1868455
 21
16495.20013642
 31
0.0
  0
ARC
  5
C874
330
A8FC
100
AcDbEntity
  8
YKK_A1
100
AcDbCircle
 10
1917.1868604
 20
16495.20013642
 30
0.0
 40
249.9999952753182
100
AcDbArc
 50
0.0
 51
4.46598816
  0
LINE
  5
C875
330
A8FC
100
AcDbEntity
  8
YKK_A1
100
AcDbLine
 10
2158.38684603
 20
16475.20013761
 30
0.0
 11
2158.786846
 21
16469.60013794
 31
0.0
  0
LINE
  5
C876
330
A8FC
100
AcDbEntity
  8
YKK_A1
100
AcDbLine
 10
2158.786846
 20
16520.40013492
 30
0.0
 11
2158.38684603
 21
16514.80013525
 31
0.0
  0
LINE
  5
C877
330
A8FC
100
AcDbEntity
  8
YKK_A1
100
AcDbLine
 10
2164.58684566
 20
16521.80013483
 30
0.0
 11
2160.18684592
 21
16521.80013483
 31
0.0
  0
ARC
  5
C878
330
A8FC
100
AcDbEntity
  8
YKK_A1
100
AcDbCircle
 10
2407.58683117
 20
16494.80013644
 30
0.0
 40
249.9999952753182
100
AcDbArc
 50
180.0
 51
184.46598816
  0
ARC
  5
C879
330
A8FC
100
AcDbEntity
  8
YKK_A1
100
AcDbCircle
 10
2407.58683117
 20
16495.20013642
 30
0.0
 40
249.9999952753182
100
AcDbArc
 50
175.53399658
 51
180.0
  0
ARC
  5
C87A
330
A8FC
100
AcDbEntity
  8
YKK_A1
100
AcDbCircle
 10
2160.38684591
 20
16520.40013492
 30
0.0
 40
1.49999995797303
100
AcDbArc
 50
94.74198914
 51
175.55499268
  0
ARC
  5
C87B
330
A8FC
100
AcDbEntity
  8
YKK_A1
100
AcDbCircle
 10
2162.38684579
 20
16495.00013643
 30
0.0
 40
7.499999448165172
100
AcDbArc
 50
308.68099976
 51
51.31898499
  0
ARC
  5
C87C
330
A8FC
100
AcDbEntity
  8
YKK_A1
100
AcDbCircle
 10
1917.1868604
 20
16494.80013644
 30
0.0
 40
249.9999952753182
100
AcDbArc
 50
355.53399658
 51
0.0
  0
ARC
  5
C87D
330
A8FC
100
AcDbEntity
  8
YKK_A1
100
AcDbCircle
 10
2160.38684591
 20
16469.60013794
 30
0.0
 40
1.49999995797303
100
AcDbArc
 50
184.48098755
 51
265.29598999
  0
ARC
  5
C87E
330
A8FC
100
AcDbEntity
  8
YKK_A1
100
AcDbCircle
 10
2164.38684567
 20
16520.40013492
 30
0.0
 40
1.49999995797303
100
AcDbArc
 50
4.44499206
 51
85.25799561
  0
LINE
  5
C87F
330
A8FC
100
AcDbEntity
  8
YKK_A1
100
AcDbLine
 10
2157.58684607
 20
16495.20013642
 30
0.0
 11
2157.58684607
 21
16494.80013644
 31
0.0
  0
ARC
  5
C880
330
A8FC
100
AcDbEntity
  8
YKK_A1
100
AcDbCircle
 10
2164.38684567
 20
16469.60013794
 30
0.0
 40
1.49999995797303
100
AcDbArc
 50
274.70399475
 51
355.51899719
  0
LINE
  5
C881
330
A8FC
100
AcDbEntity
  8
YKK_A1
100
AcDbLine
 10
2160.18684592
 20
16468.20013803
 30
0.0
 11
2164.58684566
 21
16468.20013803
 31
0.0
  0
LINE
  5
C882
330
A8FC
100
AcDbEntity
  8
YKK_A1
  6
ITTENSAP
100
AcDbLine
 10
2144.38684686
 20
16505.00013583
 30
0.0
 11
2144.38684686
 21
16485.00013703
 31
0.0
  0
LINE
  5
C883
330
A8FC
100
AcDbEntity
  8
YKK_A1
100
AcDbLine
 10
2145.3868468
 20
16491.20013666
 30
0.0
 11
2143.38684692
 21
16491.20013666
 31
0.0
  0
LINE
  5
C884
330
A8FC
100
AcDbEntity
  8
YKK_A1
100
AcDbLine
 10
2145.3868468
 20
16500.00013613
 30
0.0
 11
2145.3868468
 21
16490.20013672
 31
0.0
  0
LINE
  5
C885
330
A8FC
100
AcDbEntity
  8
YKK_A1
100
AcDbLine
 10
2143.38684692
 20
16500.00013613
 30
0.0
 11
2143.38684692
 21
16490.20013672
 31
0.0
  0
LINE
  5
C886
330
A8FC
100
AcDbEntity
  8
YKK_A1
100
AcDbLine
 10
2145.3868468
 20
16498.8001362
 30
0.0
 11
2143.38684692
 21
16498.8001362
 31
0.0
  0
ARC
  5
C887
330
A8FC
100
AcDbEntity
  8
YKK_A1
100
AcDbCircle
 10
2162.38684579
 20
16495.00013643
 30
0.0
 40
7.499999448165172
100
AcDbArc
 50
128.68099976
 51
231.31898499
  0
LINE
  5
C8CB
330
A8FC
100
AcDbEntity
  8
YKK_A1
100
AcDbLine
 10
2715.7868128
 20
15993.00016635
 30
0.0
 11
2715.7868128
 21
16073.00016158
 31
0.0
  0
LINE
  5
C8CC
330
A8FC
100
AcDbEntity
  8
YKK_A1
100
AcDbLine
 10
2726.78681215
 20
16073.00016158
 30
0.0
 11
2726.78681215
 21
15993.00016635
 31
0.0
  0
LINE
  5
C8CD
330
A8FC
100
AcDbEntity
  8
YKK_A1
100
AcDbLine
 10
2748.38681086
 20
15900.00017189
 30
0.0
 11
2744.92370385
 21
15900.00017189
 31
0.0
  0
LINE
  5
C8CE
330
A8FC
100
AcDbEntity
  8
YKK_A1
100
AcDbLine
 10
2719.38681259
 20
15993.00016635
 30
0.0
 11
2719.38681259
 21
15895.00017219
 31
0.0
  0
LINE
  5
C8CF
330
A8FC
100
AcDbEntity
  8
YKK_A1
100
AcDbLine
 10
2723.38681235
 20
15865.00017398
 30
0.0
 11
2723.38681235
 21
15993.00016635
 31
0.0
  0
LINE
  5
C8D0
330
A8FC
100
AcDbEntity
  8
YKK_A1
100
AcDbLine
 10
2713.38681295
 20
15865.00017398
 30
0.0
 11
2713.38681295
 21
15867.00017386
 31
0.0
  0
LINE
  5
C8D1
330
A8FC
100
AcDbEntity
  8
YKK_A1
100
AcDbLine
 10
2694.38681408
 20
15920.0001707
 30
0.0
 11
2694.38681408
 21
15989.00016659
 31
0.0
  0
LINE
  5
C8D2
330
A8FC
100
AcDbEntity
  8
YKK_A1
100
AcDbLine
 10
2726.78681215
 20
15993.00016635
 30
0.0
 11
2715.7868128
 21
15993.00016635
 31
0.0
  0
LINE
  5
C8D3
330
A8FC
100
AcDbEntity
  8
YKK_A1
100
AcDbLine
 10
2726.78681215
 20
16033.00016397
 30
0.0
 11
2715.7868128
 21
16033.00016397
 31
0.0
  0
LINE
  5
C8D4
330
A8FC
100
AcDbEntity
  8
YKK_A1
100
AcDbLine
 10
2715.7868128
 20
16073.00016158
 30
0.0
 11
2726.78681215
 21
16073.00016158
 31
0.0
  0
LINE
  5
C8E1
330
A8FC
100
AcDbEntity
  8
YKK_A1
100
AcDbLine
 10
2711.78681304
 20
17731.00006276
 30
0.0
 11
2114.78684862
 21
17731.00006276
 31
0.0
  0
LINE
  5
C8E2
330
A8FC
100
AcDbEntity
  8
YKK_A1
100
AcDbLine
 10
2103.3868493
 20
17696.00006484
 30
0.0
 11
2723.38681235
 21
17696.00006484
 31
0.0
  0
LINE
  5
C8E3
330
A8FC
100
AcDbEntity
  8
YKK_A1
100
AcDbLine
 10
2723.38681235
 20
17721.00006335
 30
0.0
 11
2103.3868493
 21
17721.00006335
 31
0.0
  0
LINE
  5
C8E4
330
A8FC
100
AcDbEntity
  8
YKK_A1
100
AcDbLine
 10
2183.38684454
 20
17671.00006633
 30
0.0
 11
2643.38681712
 21
17671.00006633
 31
0.0
  0
LINE
  5
C8E5
330
A8FC
100
AcDbEntity
  8
YKK_A1
100
AcDbLine
 10
2114.78684862
 20
17800.00005864
 30
0.0
 11
2711.78681304
 21
17800.00005864
 31
0.0
  0
LINE
  5
C8E6
330
A8FC
100
AcDbEntity
  8
YKK_A1
100
AcDbLine
 10
2103.3868493
 20
17810.00005805
 30
0.0
 11
2723.38681235
 21
17810.00005805
 31
0.0
  0
LINE
  5
C8E7
330
A8FC
100
AcDbEntity
  8
YKK_A1
100
AcDbLine
 10
2748.38681086
 20
17835.00005656
 30
0.0
 11
2078.38685079
 21
17835.00005656
 31
0.0
  0
LINE
  5
C8E8
330
A8FC
100
AcDbEntity
  8
YKK_A1
100
AcDbLine
 10
2107.38684907
 20
17009.00010579
 30
0.0
 11
2719.38681259
 21
17009.00010579
 31
0.0
  0
LINE
  5
C8E9
330
A8FC
100
AcDbEntity
  8
YKK_A1
100
AcDbLine
 10
2193.38684394
 20
17012.00010561
 30
0.0
 11
2193.38684394
 21
17671.00006633
 31
0.0
  0
LINE
  5
C8EA
330
A8FC
100
AcDbEntity
  8
YKK_A1
100
AcDbLine
 10
2183.38684454
 20
17012.00010561
 30
0.0
 11
2183.38684454
 21
17696.00006484
 31
0.0
  0
LINE
  5
C8EB
330
A8FC
100
AcDbEntity
  8
YKK_A1
100
AcDbLine
 10
2210.38684293
 20
17027.00010472
 30
0.0
 11
2193.38684394
 21
17027.00010472
 31
0.0
  0
LINE
  5
C8EC
330
A8FC
100
AcDbEntity
  8
YKK_A1
100
AcDbLine
 10
2193.38684394
 20
17012.00010561
 30
0.0
 11
2210.38684293
 21
17012.00010561
 31
0.0
  0
CIRCLE
  5
C8ED
330
A8FC
100
AcDbEntity
  8
YKK_A1
100
AcDbCircle
 10
2204.38684328
 20
17022.00010502
 30
0.0
 40
2.49999998692838
  0
LINE
  5
C8EE
330
A8FC
100
AcDbEntity
  8
YKK_A1
100
AcDbLine
 10
2193.38684394
 20
17012.00010561
 30
0.0
 11
2103.3868493
 21
17012.00010561
 31
0.0
  0
LINE
  5
C8EF
330
A8FC
100
AcDbEntity
  8
YKK_A1
100
AcDbLine
 10
2210.38684293
 20
17012.00010561
 30
0.0
 11
2210.38684293
 21
17027.00010472
 31
0.0
  0
LINE
  5
C8F0
330
A8FC
100
AcDbEntity
  8
YKK_A1
100
AcDbLine
 10
2114.78684862
 20
17731.00006276
 30
0.0
 11
2114.78684862
 21
17800.00005864
 31
0.0
  0
CIRCLE
  5
C8F1
330
A8FC
100
AcDbEntity
  8
YKK_A1
100
AcDbCircle
 10
2413.38683083
 20
17677.00006598
 30
0.0
 40
2.99999991596606
  0
LINE
  5
C8F3
330
A8FC
100
AcDbEntity
  8
YKK_A1
100
AcDbLine
 10
2723.38681235
 20
16911.00011163
 30
0.0
 11
2723.38681235
 21
17835.00005656
 31
0.0
  0
LINE
  5
C8F4
330
A8FC
100
AcDbEntity
  8
YKK_A1
100
AcDbLine
 10
2633.38681771
 20
17671.00006633
 30
0.0
 11
2633.38681771
 21
17012.00010561
 31
0.0
  0
LINE
  5
C8F5
330
A8FC
100
AcDbEntity
  8
YKK_A1
100
AcDbLine
 10
2643.38681712
 20
17696.00006484
 30
0.0
 11
2643.38681712
 21
17012.00010561
 31
0.0
  0
LINE
  5
C90A
330
A8FC
100
AcDbEntity
  8
YKK_A1
100
AcDbLine
 10
2715.7868128
 20
16911.00011163
 30
0.0
 11
2715.7868128
 21
16831.0001164
 31
0.0
  0
LINE
  5
C90B
330
A8FC
100
AcDbEntity
  8
YKK_A1
100
AcDbLine
 10
2726.78681215
 20
16831.0001164
 30
0.0
 11
2726.78681215
 21
16911.00011163
 31
0.0
  0
LINE
  5
C90C
330
A8FC
100
AcDbEntity
  8
YKK_A1
100
AcDbLine
 10
2715.7868128
 20
16831.0001164
 30
0.0
 11
2726.78681215
 21
16831.0001164
 31
0.0
  0
LINE
  5
C90D
330
A8FC
100
AcDbEntity
  8
YKK_A1
100
AcDbLine
 10
2726.78681215
 20
16871.00011402
 30
0.0
 11
2715.7868128
 21
16871.00011402
 31
0.0
  0
LINE
  5
C90E
330
A8FC
100
AcDbEntity
  8
YKK_A1
100
AcDbLine
 10
2633.38681771
 20
17012.00010561
 30
0.0
 11
2723.38681235
 21
17012.00010561
 31
0.0
  0
LINE
  5
C90F
330
A8FC
100
AcDbEntity
  8
YKK_A1
100
AcDbLine
 10
2616.38681873
 20
17027.00010472
 30
0.0
 11
2633.38681771
 21
17027.00010472
 31
0.0
  0
LINE
  5
C910
330
A8FC
100
AcDbEntity
  8
YKK_A1
100
AcDbLine
 10
2633.38681771
 20
17012.00010561
 30
0.0
 11
2616.38681873
 21
17012.00010561
 31
0.0
  0
CIRCLE
  5
C911
330
A8FC
100
AcDbEntity
  8
YKK_A1
100
AcDbCircle
 10
2622.38681837
 20
17022.00010502
 30
0.0
 40
2.49999998692838
  0
LINE
  5
C912
330
A8FC
100
AcDbEntity
  8
YKK_A1
100
AcDbLine
 10
2616.38681873
 20
17012.00010561
 30
0.0
 11
2616.38681873
 21
17027.00010472
 31
0.0
  0
LINE
  5
C913
330
A8FC
100
AcDbEntity
  8
YKK_A1
100
AcDbLine
 10
2719.38681259
 20
17009.00010579
 30
0.0
 11
2719.38681259
 21
16911.00011163
 31
0.0
  0
LINE
  5
C914
330
A8FC
100
AcDbEntity
  8
YKK_A1
100
AcDbLine
 10
2726.78681215
 20
16911.00011163
 30
0.0
 11
2715.7868128
 21
16911.00011163
 31
0.0
  0
LINE
  5
C93E
330
A8FC
100
AcDbEntity
  8
YKK_A1
100
AcDbLine
 10
2711.78681304
 20
17800.00005864
 30
0.0
 11
2711.78681304
 21
17731.00006276
 31
0.0
  0
LINE
  5
CF03
330
A8FC
100
AcDbEntity
  8
YKK_N1
  6
Continuous
100
AcDbLine
 10
2913.38686965
 20
17800.00064087
 30
0.0
 11
2913.38686965
 21
15900.00057983
 31
0.0
  0
LINE
  5
CF04
330
A8FC
100
AcDbEntity
  8
YKK_N1
  6
Continuous
100
AcDbLine
 10
2788.38680862
 20
15900.00057983
 30
0.0
 11
2913.38686965
 21
15900.00057983
 31
0.0
  0
LINE
  5
CF05
330
A8FC
100
AcDbEntity
  8
YKK_N1
  6
Continuous
100
AcDbLine
 10
2913.38686965
 20
15900.00057983
 30
0.0
 11
2863.38686965
 21
15986.60313416
 31
0.0
  0
LINE
  5
CF06
330
A8FC
100
AcDbEntity
  8
YKK_N1
100
AcDbLine
 10
2863.38686965
 20
15986.60313416
 30
0.0
 11
2963.38687846
 21
15986.60313416
 31
0.0
  0
LINE
  5
CF07
330
A8FC
100
AcDbEntity
  8
YKK_N1
  6
Continuous
100
AcDbLine
 10
2963.38687846
 20
15986.60313416
 30
0.0
 11
2913.38686965
 21
15900.00057983
 31
0.0
  0
TEXT
  5
CF08
330
A8FC
100
AcDbEntity
  8
YKK_N1
  6
Continuous
100
AcDbText
 10
2901.38687621
 20
16700.00061166
 30
0.0
 40
60.0
  1
H=1900
 50
90.0000025
 72
     4
 11
2871.38686965
 21
16850.00061035
 31
0.0
100
AcDbText
  0
LINE
  5
CF09
330
A8FC
100
AcDbEntity
  8
YKK_N1
  6
Continuous
100
AcDbLine
 10
2788.38680862
 20
17800.00064087
 30
0.0
 11
2913.38686965
 21
17800.00064087
 31
0.0
  0
LINE
  5
CF0A
330
A8FC
100
AcDbEntity
  8
YKK_N1
100
AcDbLine
 10
2863.38686965
 20
17713.39808655
 30
0.0
 11
2963.38687846
 21
17713.39808655
 31
0.0
  0
LINE
  5
CF0B
330
A8FC
100
AcDbEntity
  8
YKK_N1
  6
Continuous
100
AcDbLine
 10
2913.38686965
 20
17800.00064087
 30
0.0
 11
2863.38686965
 21
17713.39808655
 31
0.0
  0
LINE
  5
CF0C
330
A8FC
100
AcDbEntity
  8
YKK_N1
  6
Continuous
100
AcDbLine
 10
2963.38687846
 20
17713.39808655
 30
0.0
 11
2913.38686965
 21
17800.00064087
 31
0.0
  0
LINE
  5
CF0D
330
A8FC
100
AcDbEntity
  8
YKK_N1
  6
Continuous
100
AcDbLine
 10
2113.38698123
 20
15665.00003052
 30
0.0
 11
2713.38696597
 21
15665.00003052
 31
0.0
  0
TEXT
  5
CF0E
330
A8FC
100
AcDbEntity
  8
YKK_N1
  6
Continuous
100
AcDbText
 10
2273.3869736
 20
15677.00003052
 30
0.0
 40
60.0
  1
W=600
 72
     4
 11
2413.3869736
 21
15707.00003052
 31
0.0
100
AcDbText
  0
LINE
  5
CF0F
330
A8FC
100
AcDbEntity
  8
YKK_N1
  6
Continuous
100
AcDbLine
 10
2113.38698123
 20
15665.00003052
 30
0.0
 11
2199.98953555
 21
15715.00003052
 31
0.0
  0
LINE
  5
CF10
330
A8FC
100
AcDbEntity
  8
YKK_N1
  6
Continuous
100
AcDbLine
 10
2199.98953555
 20
15615.00002171
 30
0.0
 11
2113.38698123
 21
15665.00003052
 31
0.0
  0
LINE
  5
CF11
330
A8FC
100
AcDbEntity
  8
YKK_N1
100
AcDbLine
 10
2199.98953555
 20
15715.00003052
 30
0.0
 11
2199.98953555
 21
15615.00002171
 31
0.0
  0
LINE
  5
CF12
330
A8FC
100
AcDbEntity
  8
YKK_N1
  6
Continuous
100
AcDbLine
 10
2113.38698123
 20
15790.00003052
 30
0.0
 11
2113.38698123
 21
15665.00003052
 31
0.0
  0
LINE
  5
CF13
330
A8FC
100
AcDbEntity
  8
YKK_N1
100
AcDbLine
 10
2626.78441165
 20
15715.00003052
 30
0.0
 11
2626.78441165
 21
15615.00002171
 31
0.0
  0
LINE
  5
CF14
330
A8FC
100
AcDbEntity
  8
YKK_N1
  6
Continuous
100
AcDbLine
 10
2626.78441165
 20
15615.00002171
 30
0.0
 11
2713.38696597
 21
15665.00003052
 31
0.0
  0
LINE
  5
CF15
330
A8FC
100
AcDbEntity
  8
YKK_N1
  6
Continuous
100
AcDbLine
 10
2713.38696597
 20
15665.00003052
 30
0.0
 11
2626.78441165
 21
15715.00003052
 31
0.0
  0
LINE
  5
CF16
330
A8FC
100
AcDbEntity
  8
YKK_N1
  6
Continuous
100
AcDbLine
 10
2713.38696597
 20
15790.00003052
 30
0.0
 11
2713.38696597
 21
15665.00003052
 31
0.0
  0
LINE
  5
CF17
330
A8FC
100
AcDbEntity
  8
YKK_N1
  6
Continuous
100
AcDbLine
 10
8763.38694595
 20
17800.00006576
 30
0.0
 11
8763.38694595
 21
15900.00000472
 31
0.0
  0
LINE
  5
CF18
330
A8FC
100
AcDbEntity
  8
YKK_N1
100
AcDbLine
 10
8713.38694595
 20
15986.60255904
 30
0.0
 11
8813.38695476
 21
15986.60255904
 31
0.0
  0
LINE
  5
CF19
330
A8FC
100
AcDbEntity
  8
YKK_N1
  6
Continuous
100
AcDbLine
 10
8763.38694595
 20
15900.00000472
 30
0.0
 11
8713.38694595
 21
15986.60255904
 31
0.0
  0
LINE
  5
CF1A
330
A8FC
100
AcDbEntity
  8
YKK_N1
  6
Continuous
100
AcDbLine
 10
8638.38688491
 20
15900.00000472
 30
0.0
 11
8763.38694595
 21
15900.00000472
 31
0.0
  0
LINE
  5
CF1B
330
A8FC
100
AcDbEntity
  8
YKK_N1
  6
Continuous
100
AcDbLine
 10
8813.38695476
 20
15986.60255904
 30
0.0
 11
8763.38694595
 21
15900.00000472
 31
0.0
  0
LINE
  5
CF1C
330
A8FC
100
AcDbEntity
  8
YKK_N1
  6
Continuous
100
AcDbLine
 10
8763.38694595
 20
17800.00006576
 30
0.0
 11
8713.38694595
 21
17713.39751143
 31
0.0
  0
LINE
  5
CF1D
330
A8FC
100
AcDbEntity
  8
YKK_N1
100
AcDbLine
 10
8713.38694595
 20
17713.39751143
 30
0.0
 11
8813.38695476
 21
17713.39751143
 31
0.0
  0
LINE
  5
CF1E
330
A8FC
100
AcDbEntity
  8
YKK_N1
  6
Continuous
100
AcDbLine
 10
8638.38688491
 20
17800.00006576
 30
0.0
 11
8763.38694595
 21
17800.00006576
 31
0.0
  0
TEXT
  5
CF1F
330
A8FC
100
AcDbEntity
  8
YKK_N1
  6
Continuous
100
AcDbText
 10
8751.3869525
 20
16700.00003655
 30
0.0
 40
60.0
  1
H=1900
 50
90.0000025
 72
     4
 11
8721.38694595
 21
16850.00003524
 31
0.0
100
AcDbText
  0
LINE
  5
CF20
330
A8FC
100
AcDbEntity
  8
YKK_N1
  6
Continuous
100
AcDbLine
 10
8813.38695476
 20
17713.39751143
 30
0.0
 11
8763.38694595
 21
17800.00006576
 31
0.0
  0
TEXT
  5
CF21
330
A8FC
100
AcDbEntity
  8
YKK_N1
  6
Continuous
100
AcDbText
 10
7973.3869736
 20
15677.00006576
 30
0.0
 40
60.0
  1
W=900
 72
     4
 11
8113.3869736
 21
15707.00006576
 31
0.0
100
AcDbText
  0
LINE
  5
CF22
330
A8FC
100
AcDbEntity
  8
YKK_N1
  6
Continuous
100
AcDbLine
 10
7663.38698123
 20
15665.00006576
 30
0.0
 11
8563.38696597
 21
15665.00006576
 31
0.0
  0
LINE
  5
CF23
330
A8FC
100
AcDbEntity
  8
YKK_N1
  6
Continuous
100
AcDbLine
 10
7749.98953555
 20
15615.00005695
 30
0.0
 11
7663.38698123
 21
15665.00006576
 31
0.0
  0
LINE
  5
CF24
330
A8FC
100
AcDbEntity
  8
YKK_N1
100
AcDbLine
 10
7749.98953555
 20
15715.00006576
 30
0.0
 11
7749.98953555
 21
15615.00005695
 31
0.0
  0
LINE
  5
CF25
330
A8FC
100
AcDbEntity
  8
YKK_N1
  6
Continuous
100
AcDbLine
 10
7663.38698123
 20
15665.00006576
 30
0.0
 11
7749.98953555
 21
15715.00006576
 31
0.0
  0
LINE
  5
CF26
330
A8FC
100
AcDbEntity
  8
YKK_N1
  6
Continuous
100
AcDbLine
 10
7663.38698123
 20
15790.00006576
 30
0.0
 11
7663.38698123
 21
15665.00006576
 31
0.0
  0
LINE
  5
CF27
330
A8FC
100
AcDbEntity
  8
YKK_N1
  6
Continuous
100
AcDbLine
 10
8476.78441165
 20
15615.00005695
 30
0.0
 11
8563.38696597
 21
15665.00006576
 31
0.0
  0
LINE
  5
CF28
330
A8FC
100
AcDbEntity
  8
YKK_N1
  6
Continuous
100
AcDbLine
 10
8563.38696597
 20
15665.00006576
 30
0.0
 11
8476.78441165
 21
15715.00006576
 31
0.0
  0
LINE
  5
CF29
330
A8FC
100
AcDbEntity
  8
YKK_N1
100
AcDbLine
 10
8476.78441165
 20
15715.00006576
 30
0.0
 11
8476.78441165
 21
15615.00005695
 31
0.0
  0
LINE
  5
CF2A
330
A8FC
100
AcDbEntity
  8
YKK_N1
  6
Continuous
100
AcDbLine
 10
8563.38696597
 20
15790.00006576
 30
0.0
 11
8563.38696597
 21
15665.00006576
 31
0.0
  0
LINE
  5
CF2C
330
A8FC
100
AcDbEntity
  8
YKK_N1
  6
Continuous
100
AcDbLine
 10
2913.38706992
 20
11264.99052901
 30
0.0
 11
2913.38706992
 21
9364.99046798
 31
0.0
  0
LINE
  5
CF2D
330
A8FC
100
AcDbEntity
  8
YKK_N1
  6
Continuous
100
AcDbLine
 10
2963.38707873
 20
9451.5930223
 30
0.0
 11
2913.38706992
 21
9364.99046798
 31
0.0
  0
LINE
  5
CF2E
330
A8FC
100
AcDbEntity
  8
YKK_N1
100
AcDbLine
 10
2863.38706992
 20
9451.5930223
 30
0.0
 11
2963.38707873
 21
9451.5930223
 31
0.0
  0
LINE
  5
CF2F
330
A8FC
100
AcDbEntity
  8
YKK_N1
  6
Continuous
100
AcDbLine
 10
2913.38706992
 20
9364.99046798
 30
0.0
 11
2863.38706992
 21
9451.5930223
 31
0.0
  0
LINE
  5
CF30
330
A8FC
100
AcDbEntity
  8
YKK_N1
  6
Continuous
100
AcDbLine
 10
2788.38700889
 20
9364.99046798
 30
0.0
 11
2913.38706992
 21
9364.99046798
 31
0.0
  0
TEXT
  5
CF31
330
A8FC
100
AcDbEntity
  8
YKK_N1
  6
Continuous
100
AcDbText
 10
2901.38707648
 20
10164.99049981
 30
0.0
 40
60.0
  1
H=1900
 50
90.0000025
 72
     4
 11
2871.38706992
 21
10314.9904985
 31
0.0
100
AcDbText
  0
LINE
  5
CF32
330
A8FC
100
AcDbEntity
  8
YKK_N1
  6
Continuous
100
AcDbLine
 10
2963.38707873
 20
11178.38797469
 30
0.0
 11
2913.38706992
 21
11264.99052901
 31
0.0
  0
LINE
  5
CF33
330
A8FC
100
AcDbEntity
  8
YKK_N1
  6
Continuous
100
AcDbLine
 10
2913.38706992
 20
11264.99052901
 30
0.0
 11
2863.38706992
 21
11178.38797469
 31
0.0
  0
LINE
  5
CF34
330
A8FC
100
AcDbEntity
  8
YKK_N1
100
AcDbLine
 10
2863.38706992
 20
11178.38797469
 30
0.0
 11
2963.38707873
 21
11178.38797469
 31
0.0
  0
LINE
  5
CF35
330
A8FC
100
AcDbEntity
  8
YKK_N1
  6
Continuous
100
AcDbLine
 10
2788.38700889
 20
11264.99052901
 30
0.0
 11
2913.38706992
 21
11264.99052901
 31
0.0
  0
LINE
  5
CF36
330
A8FC
100
AcDbEntity
  8
YKK_N1
  6
Continuous
100
AcDbLine
 10
2713.38696597
 20
9290.00006576
 30
0.0
 11
2713.38696597
 21
9165.00006576
 31
0.0
  0
LINE
  5
CF37
330
A8FC
100
AcDbEntity
  8
YKK_N1
  6
Continuous
100
AcDbLine
 10
2113.38698123
 20
9290.00006576
 30
0.0
 11
2113.38698123
 21
9165.00006576
 31
0.0
  0
LINE
  5
CF38
330
A8FC
100
AcDbEntity
  8
YKK_N1
  6
Continuous
100
AcDbLine
 10
2199.98953555
 20
9115.00005695
 30
0.0
 11
2113.38698123
 21
9165.00006576
 31
0.0
  0
LINE
  5
CF39
330
A8FC
100
AcDbEntity
  8
YKK_N1
  6
Continuous
100
AcDbLine
 10
2113.38698123
 20
9165.00006576
 30
0.0
 11
2199.98953555
 21
9215.00006576
 31
0.0
  0
LINE
  5
CF3A
330
A8FC
100
AcDbEntity
  8
YKK_N1
  6
Continuous
100
AcDbLine
 10
2113.38698123
 20
9165.00006576
 30
0.0
 11
2713.38696597
 21
9165.00006576
 31
0.0
  0
TEXT
  5
CF3B
330
A8FC
100
AcDbEntity
  8
YKK_N1
  6
Continuous
100
AcDbText
 10
2273.3869736
 20
9177.00006576
 30
0.0
 40
60.0
  1
W=600
 72
     4
 11
2413.3869736
 21
9207.00006576
 31
0.0
100
AcDbText
  0
LINE
  5
CF3C
330
A8FC
100
AcDbEntity
  8
YKK_N1
100
AcDbLine
 10
2199.98953555
 20
9215.00006576
 30
0.0
 11
2199.98953555
 21
9115.00005695
 31
0.0
  0
LINE
  5
CF3D
330
A8FC
100
AcDbEntity
  8
YKK_N1
  6
Continuous
100
AcDbLine
 10
2713.38696597
 20
9165.00006576
 30
0.0
 11
2626.78441165
 21
9215.00006576
 31
0.0
  0
LINE
  5
CF3E
330
A8FC
100
AcDbEntity
  8
YKK_N1
  6
Continuous
100
AcDbLine
 10
2626.78441165
 20
9115.00005695
 30
0.0
 11
2713.38696597
 21
9165.00006576
 31
0.0
  0
LINE
  5
CF3F
330
A8FC
100
AcDbEntity
  8
YKK_N1
100
AcDbLine
 10
2626.78441165
 20
9215.00006576
 30
0.0
 11
2626.78441165
 21
9115.00005695
 31
0.0
  0
LINE
  5
CF48
330
A8FC
100
AcDbEntity
  8
YKK_N1
  6
Continuous
100
AcDbLine
 10
8763.38712714
 20
11266.99968643
 30
0.0
 11
8763.38712714
 21
9366.99962539
 31
0.0
  0
LINE
  5
CF49
330
A8FC
100
AcDbEntity
  8
YKK_N1
  6
Continuous
100
AcDbLine
 10
8813.38713595
 20
9453.60217971
 30
0.0
 11
8763.38712714
 21
9366.99962539
 31
0.0
  0
LINE
  5
CF4A
330
A8FC
100
AcDbEntity
  8
YKK_N1
  6
Continuous
100
AcDbLine
 10
8763.38712714
 20
9366.99962539
 30
0.0
 11
8713.38712714
 21
9453.60217971
 31
0.0
  0
LINE
  5
CF4B
330
A8FC
100
AcDbEntity
  8
YKK_N1
  6
Continuous
100
AcDbLine
 10
8638.38706611
 20
9366.99962539
 30
0.0
 11
8763.38712714
 21
9366.99962539
 31
0.0
  0
LINE
  5
CF4C
330
A8FC
100
AcDbEntity
  8
YKK_N1
100
AcDbLine
 10
8713.38712714
 20
9453.60217971
 30
0.0
 11
8813.38713595
 21
9453.60217971
 31
0.0
  0
TEXT
  5
CF4D
330
A8FC
100
AcDbEntity
  8
YKK_N1
  6
Continuous
100
AcDbText
 10
8751.3871337
 20
10166.99965722
 30
0.0
 40
60.0
  1
H=1900
 50
90.0000025
 72
     4
 11
8721.38712714
 21
10316.99965591
 31
0.0
100
AcDbText
  0
LINE
  5
CF4E
330
A8FC
100
AcDbEntity
  8
YKK_N1
  6
Continuous
100
AcDbLine
 10
8638.38706611
 20
11266.99968643
 30
0.0
 11
8763.38712714
 21
11266.99968643
 31
0.0
  0
LINE
  5
CF4F
330
A8FC
100
AcDbEntity
  8
YKK_N1
  6
Continuous
100
AcDbLine
 10
8813.38713595
 20
11180.39713211
 30
0.0
 11
8763.38712714
 21
11266.99968643
 31
0.0
  0
LINE
  5
CF50
330
A8FC
100
AcDbEntity
  8
YKK_N1
100
AcDbLine
 10
8713.38712714
 20
11180.39713211
 30
0.0
 11
8813.38713595
 21
11180.39713211
 31
0.0
  0
LINE
  5
CF51
330
A8FC
100
AcDbEntity
  8
YKK_N1
  6
Continuous
100
AcDbLine
 10
8763.38712714
 20
11266.99968643
 30
0.0
 11
8713.38712714
 21
11180.39713211
 31
0.0
  0
LINE
  5
CF52
330
A8FC
100
AcDbEntity
  8
YKK_N1
  6
Continuous
100
AcDbLine
 10
7663.38698123
 20
9167.00003452
 30
0.0
 11
8563.38696597
 21
9167.00003452
 31
0.0
  0
LINE
  5
CF53
330
A8FC
100
AcDbEntity
  8
YKK_N1
  6
Continuous
100
AcDbLine
 10
7663.38698123
 20
9292.00003452
 30
0.0
 11
7663.38698123
 21
9167.00003452
 31
0.0
  0
LINE
  5
CF54
330
A8FC
100
AcDbEntity
  8
YKK_N1
  6
Continuous
100
AcDbLine
 10
7663.38698123
 20
9167.00003452
 30
0.0
 11
7749.98953555
 21
9217.00003452
 31
0.0
  0
LINE
  5
CF55
330
A8FC
100
AcDbEntity
  8
YKK_N1
100
AcDbLine
 10
7749.98953555
 20
9217.00003452
 30
0.0
 11
7749.98953555
 21
9117.00002571
 31
0.0
  0
LINE
  5
CF56
330
A8FC
100
AcDbEntity
  8
YKK_N1
  6
Continuous
100
AcDbLine
 10
7749.98953555
 20
9117.00002571
 30
0.0
 11
7663.38698123
 21
9167.00003452
 31
0.0
  0
TEXT
  5
CF57
330
A8FC
100
AcDbEntity
  8
YKK_N1
  6
Continuous
100
AcDbText
 10
7973.3869736
 20
9179.00003452
 30
0.0
 40
60.0
  1
W=900
 72
     4
 11
8113.3869736
 21
9209.00003452
 31
0.0
100
AcDbText
  0
LINE
  5
CF58
330
A8FC
100
AcDbEntity
  8
YKK_N1
  6
Continuous
100
AcDbLine
 10
8563.38696597
 20
9292.00003452
 30
0.0
 11
8563.38696597
 21
9167.00003452
 31
0.0
  0
LINE
  5
CF59
330
A8FC
100
AcDbEntity
  8
YKK_N1
100
AcDbLine
 10
8476.78441165
 20
9217.00003452
 30
0.0
 11
8476.78441165
 21
9117.00002571
 31
0.0
  0
LINE
  5
CF5A
330
A8FC
100
AcDbEntity
  8
YKK_N1
  6
Continuous
100
AcDbLine
 10
8563.38696597
 20
9167.00003452
 30
0.0
 11
8476.78441165
 21
9217.00003452
 31
0.0
  0
LINE
  5
CF5B
330
A8FC
100
AcDbEntity
  8
YKK_N1
  6
Continuous
100
AcDbLine
 10
8476.78441165
 20
9117.00002571
 30
0.0
 11
8563.38696597
 21
9167.00003452
 31
0.0
  0
LINE
  5
D1BB
330
A8FC
100
AcDbEntity
  8
YKK_C1
  6
Continuous
100
AcDbLine
 10
3481.3868732
 20
9354.99046798
 30
0.0
 11
3481.3868732
 21
11274.99055953
 31
0.0
  0
LINE
  5
D1BC
330
A8FC
100
AcDbEntity
  8
YKK_C1
  6
Continuous
100
AcDbLine
 10
3477.3868732
 20
11224.99082805
 30
0.0
 11
3477.3868732
 21
9359.99046798
 31
0.0
  0
LINE
  5
D1BD
330
A8FC
100
AcDbEntity
  8
YKK_C1
  6
Continuous
100
AcDbLine
 10
3452.3868732
 20
11224.99082805
 30
0.0
 11
3452.3868732
 21
9359.99046798
 31
0.0
  0
LINE
  5
D1BE
330
A8FC
100
AcDbEntity
  8
YKK_C1
  6
Continuous
100
AcDbLine
 10
3448.3868732
 20
11299.99055953
 30
0.0
 11
3448.3868732
 21
9329.99045272
 31
0.0
  0
LINE
  5
D1BF
330
A8FC
100
AcDbEntity
  8
YKK_N1
  6
Continuous
100
AcDbLine
 10
3682.58687015
 20
11264.99055953
 30
0.0
 11
3682.58687015
 21
9364.99046798
 31
0.0
  0
TEXT
  5
D1C8
330
A8FC
100
AcDbEntity
  8
YKK_N1
  6
Continuous
100
AcDbText
 10
3317.71977745
 20
9935.90242477
 30
0.0
 40
60.0
  1
33
 72
     4
 11
3367.71977745
 21
9965.90242477
 31
0.0
100
AcDbText
  0
ARC
  5
D1C9
330
A8FC
100
AcDbEntity
  8
YKK_B1
  6
PHANTOM
100
AcDbCircle
 10
2105.38698123
 20
7937.80020614
 30
0.0
 40
614.1133933486058
100
AcDbArc
 50
359.1602846
 51
88.8990069
  0
LINE
  5
D1CA
330
A8FC
100
AcDbEntity
  8
YKK_B1
  6
Continuous
100
AcDbLine
 10
2719.38699649
 20
7901.00015731
 30
0.0
 11
2107.38698123
 21
7901.00015731
 31
0.0
  0
LINE
  5
D1CB
330
A8FC
100
AcDbEntity
  8
YKK_B1
  6
Continuous
100
AcDbLine
 10
2103.38698123
 20
7895.80020614
 30
0.0
 11
2723.38699649
 21
7895.80020614
 31
0.0
  0
LINE
  5
D1CC
330
A8FC
100
AcDbEntity
  8
YKK_B1
  6
Continuous
100
AcDbLine
 10
2107.42708133
 20
7928.80020614
 30
0.0
 11
2723.38699649
 21
7928.80020614
 31
0.0
  0
LINE
  5
D1CD
330
A8FC
100
AcDbEntity
  8
YKK_N1
  6
Continuous
100
AcDbLine
 10
2113.38698123
 20
7695.80023665
 30
0.0
 11
2713.38699649
 21
7695.80023665
 31
0.0
  0
LINE
  5
D1CE
330
A8FC
100
AcDbEntity
  8
YKK_B1
  6
Continuous
100
AcDbLine
 10
2719.38699649
 20
7926.00015731
 30
0.0
 11
2107.38698123
 21
7926.00015731
 31
0.0
  0
LINE
  5
D1CF
330
A8FC
100
AcDbEntity
  8
YKK_N1
  6
Continuous
100
AcDbLine
 10
2103.38698123
 20
7820.80020614
 30
0.0
 11
2103.38698123
 21
7695.80023665
 31
0.0
  0
LINE
  5
D1D0
330
A8FC
100
AcDbEntity
  8
YKK_N1
  6
Continuous
100
AcDbLine
 10
2113.38698123
 20
7820.80020614
 30
0.0
 11
2113.38698123
 21
7695.80023665
 31
0.0
  0
LINE
  5
D1D1
330
A8FC
100
AcDbEntity
  8
YKK_N1
100
AcDbLine
 10
2199.98953555
 20
7745.80023665
 30
0.0
 11
2199.98953555
 21
7645.80022785
 31
0.0
  0
LINE
  5
D1D2
330
A8FC
100
AcDbEntity
  8
YKK_N1
  6
Continuous
100
AcDbLine
 10
2199.98953555
 20
7645.80022785
 30
0.0
 11
2113.38698123
 21
7695.80023665
 31
0.0
  0
LINE
  5
D1D3
330
A8FC
100
AcDbEntity
  8
YKK_N1
  6
Continuous
100
AcDbLine
 10
2113.38698123
 20
7695.80023665
 30
0.0
 11
2199.98953555
 21
7745.80023665
 31
0.0
  0
LINE
  5
D1D4
330
A8FC
100
AcDbEntity
  8
YKK_N1
  6
Continuous
100
AcDbLine
 10
2103.38698123
 20
7695.80023665
 30
0.0
 11
2113.38698123
 21
7695.80023665
 31
0.0
  0
CIRCLE
  5
D1D5
330
A8FC
100
AcDbEntity
  8
YKK_N1
  6
Continuous
100
AcDbCircle
 10
2103.38698123
 20
7695.80023665
 30
0.0
 40
5.0
  0
TEXT
  5
D1D6
330
A8FC
100
AcDbEntity
  8
YKK_N1
  6
Continuous
100
AcDbText
 10
2005.38551623
 20
7707.80023665
 30
0.0
 40
60.0
  1
10
 72
     4
 11
2040.38551623
 21
7737.80023665
 31
0.0
100
AcDbText
  0
LINE
  5
D1D7
330
A8FC
100
AcDbEntity
  8
YKK_B1
  6
PHANTOM
100
AcDbLine
 10
2117.18703006
 20
8551.8002214
 30
0.0
 11
2117.18703006
 21
7939.80020614
 31
0.0
  0
LINE
  5
D1D8
330
A8FC
100
AcDbEntity
  8
YKK_B1
  6
Continuous
100
AcDbLine
 10
2107.38698123
 20
7933.21762557
 30
0.0
 11
2107.38698123
 21
7901.00015731
 31
0.0
  0
LINE
  5
D1D9
330
A8FC
100
AcDbEntity
  8
YKK_B1
  6
Continuous
100
AcDbLine
 10
2103.38698123
 20
7933.21762557
 30
0.0
 11
2103.38698123
 21
7895.80020614
 31
0.0
  0
LINE
  5
D1DA
330
A8FC
100
AcDbEntity
  8
YKK_B1
  6
CENTER
100
AcDbLine
 10
2105.38698123
 20
7952.80020614
 30
0.0
 11
2105.38698123
 21
7922.80020614
 31
0.0
  0
CIRCLE
  5
D1DB
330
A8FC
100
AcDbEntity
  8
YKK_B1
  6
Continuous
100
AcDbCircle
 10
2105.38698123
 20
7937.80020614
 30
0.0
 40
5.0
  0
LINE
  5
D1DC
330
A8FC
100
AcDbEntity
  8
YKK_B1
  6
Continuous
100
AcDbLine
 10
2078.38698123
 20
7930.00015731
 30
0.0
 11
2078.38698123
 21
7908.80020614
 31
0.0
  0
LINE
  5
D1DD
330
A8FC
100
AcDbEntity
  8
YKK_B1
  6
Continuous
100
AcDbLine
 10
2078.38698123
 20
7930.00015731
 30
0.0
 11
2103.38698123
 21
7930.00015731
 31
0.0
  0
LINE
  5
D1DE
330
A8FC
100
AcDbEntity
  8
YKK_B1
  6
CENTER
100
AcDbLine
 10
2090.38698123
 20
7937.80020614
 30
0.0
 11
2120.38698123
 21
7937.80020614
 31
0.0
  0
LINE
  5
D1DF
330
A8FC
100
AcDbEntity
  8
YKK_N1
  6
Continuous
100
AcDbLine
 10
2713.38699649
 20
7820.80020614
 30
0.0
 11
2713.38699649
 21
7695.80023665
 31
0.0
  0
LINE
  5
D1E0
330
A8FC
100
AcDbEntity
  8
YKK_N1
  6
Continuous
100
AcDbLine
 10
2723.38699649
 20
7820.80020614
 30
0.0
 11
2723.38699649
 21
7695.80023665
 31
0.0
  0
TEXT
  5
D1E1
330
A8FC
100
AcDbEntity
  8
YKK_N1
  6
Continuous
100
AcDbText
 10
2750.07593097
 20
7707.80023665
 30
0.0
 40
60.0
  1
10
 72
     4
 11
2785.07593097
 21
7737.80023665
 31
0.0
100
AcDbText
  0
TEXT
  5
D1E2
330
A8FC
100
AcDbEntity
  8
YKK_N1
  6
Continuous
100
AcDbText
 10
2273.38698886
 20
7707.80023665
 30
0.0
 40
60.0
  1
W=600
 72
     4
 11
2413.38698886
 21
7737.80023665
 31
0.0
100
AcDbText
  0
LINE
  5
D1E3
330
A8FC
100
AcDbEntity
  8
YKK_N1
100
AcDbLine
 10
2626.78444217
 20
7745.80023665
 30
0.0
 11
2626.78444217
 21
7645.80022785
 31
0.0
  0
LINE
  5
D1E4
330
A8FC
100
AcDbEntity
  8
YKK_N1
  6
Continuous
100
AcDbLine
 10
2626.78444217
 20
7645.80022785
 30
0.0
 11
2713.38699649
 21
7695.80023665
 31
0.0
  0
LINE
  5
D1E5
330
A8FC
100
AcDbEntity
  8
YKK_N1
  6
Continuous
100
AcDbLine
 10
2713.38699649
 20
7695.80023665
 30
0.0
 11
2626.78444217
 21
7745.80023665
 31
0.0
  0
LINE
  5
D1E6
330
A8FC
100
AcDbEntity
  8
YKK_N1
  6
Continuous
100
AcDbLine
 10
2713.38699649
 20
7695.80023665
 30
0.0
 11
2723.38699649
 21
7695.80023665
 31
0.0
  0
CIRCLE
  5
D1E7
330
A8FC
100
AcDbEntity
  8
YKK_N1
  6
Continuous
100
AcDbCircle
 10
2723.38699649
 20
7695.80023665
 30
0.0
 40
5.0
  0
LINE
  5
D1E8
330
A8FC
100
AcDbEntity
  8
YKK_B1
100
AcDbLine
 10
2413.38696597
 20
7795.80020614
 30
0.0
 11
2413.38696597
 21
8028.80020614
 31
0.0
  0
LINE
  5
D1E9
330
A8FC
100
AcDbEntity
  8
YKK_B1
  6
Continuous
100
AcDbLine
 10
2719.38699649
 20
7926.00015731
 30
0.0
 11
2719.38699649
 21
7901.00015731
 31
0.0
  0
LINE
  5
D1EA
330
A8FC
100
AcDbEntity
  8
YKK_B1
  6
Continuous
100
AcDbLine
 10
2723.38699649
 20
7930.00015731
 30
0.0
 11
2723.38699649
 21
7895.80020614
 31
0.0
  0
LINE
  5
D1EB
330
A8FC
100
AcDbEntity
  8
YKK_B1
  6
Continuous
100
AcDbLine
 10
2748.38699649
 20
7930.00015731
 30
0.0
 11
2748.38699649
 21
7908.80020614
 31
0.0
  0
LINE
  5
D1EC
330
A8FC
100
AcDbEntity
  8
YKK_B1
  6
Continuous
100
AcDbLine
 10
2748.38699649
 20
7930.00015731
 30
0.0
 11
2723.38699649
 21
7930.00015731
 31
0.0
  0
LINE
  5
D1ED
330
A8FC
100
AcDbEntity
  8
YKK_N1
  6
Continuous
100
AcDbLine
 10
2580.02890323
 20
7928.80020614
 30
0.0
 11
2580.02890323
 21
7895.80020614
 31
0.0
  0
CIRCLE
  5
D1EE
330
A8FC
100
AcDbEntity
  8
YKK_N1
  6
Continuous
100
AcDbCircle
 10
2580.02890323
 20
7895.80020614
 30
0.0
 40
5.0
  0
CIRCLE
  5
D1EF
330
A8FC
100
AcDbEntity
  8
YKK_N1
  6
Continuous
100
AcDbCircle
 10
2580.02890323
 20
7928.80020614
 30
0.0
 40
5.0
  0
TEXT
  5
D1F0
330
A8FC
100
AcDbEntity
  8
YKK_N1
  6
Continuous
100
AcDbText
 10
2568.02890542
 20
7950.93816581
 30
0.0
 40
60.0
  1
33
 50
90.0000025
 72
     4
 11
2538.02890323
 21
8000.93816449
 31
0.0
100
AcDbText
  0
CIRCLE
  5
D23C
330
A8FC
100
AcDbEntity
  8
YKK_N1
  6
Continuous
100
AcDbCircle
 10
3682.58687015
 20
9354.99046798
 30
0.0
 40
5.0
  0
LINE
  5
D23D
330
A8FC
100
AcDbEntity
  8
YKK_C1
  6
Continuous
100
AcDbLine
 10
3449.58687015
 20
9329.99045272
 30
0.0
 11
3449.58687015
 21
9354.99046798
 31
0.0
  0
LINE
  5
D23E
330
A8FC
100
AcDbEntity
  8
YKK_IN
  6
Continuous
100
AcDbLine
 10
3447.23153872
 20
9329.6351213
 30
0.0
 11
3517.94221683
 21
9400.34581466
 31
0.0
  0
LINE
  5
D23F
330
A8FC
100
AcDbEntity
  8
YKK_IN
  6
Continuous
100
AcDbLine
 10
3447.23153872
 20
9400.34581466
 30
0.0
 11
3517.94221683
 21
9329.6351213
 31
0.0
  0
CIRCLE
  5
D240
330
A8FC
100
AcDbEntity
  8
YKK_IN
  6
Continuous
100
AcDbCircle
 10
3482.58687015
 20
9364.99046798
 30
0.0
 40
25.0
  0
TEXT
  5
D241
330
A8FC
100
AcDbEntity
  8
YKK_N1
  6
Continuous
100
AcDbText
 10
3670.58687168
 20
9252.81558187
 30
0.0
 40
60.0
  1
10
 50
90.0000025
 72
     4
 11
3640.58687015
 21
9287.81558056
 31
0.0
100
AcDbText
  0
LINE
  5
D242
330
A8FC
100
AcDbEntity
  8
YKK_C1
  6
Continuous
100
AcDbLine
 10
3449.58687015
 20
9329.99045272
 30
0.0
 11
3469.58687015
 21
9329.99045272
 31
0.0
  0
LINE
  5
D243
330
A8FC
100
AcDbEntity
  8
YKK_N1
  6
Continuous
100
AcDbLine
 10
3557.58687015
 20
9364.99046798
 30
0.0
 11
3682.58687015
 21
9364.99046798
 31
0.0
  0
LINE
  5
D244
330
A8FC
100
AcDbEntity
  8
YKK_N1
  6
Continuous
100
AcDbLine
 10
3557.58687015
 20
9354.99046798
 30
0.0
 11
3682.58687015
 21
9354.99046798
 31
0.0
  0
LINE
  5
D245
330
A8FC
100
AcDbEntity
  8
YKK_C1
  6
Continuous
100
AcDbLine
 10
3482.58687015
 20
9354.99046798
 30
0.0
 11
3482.58687015
 21
9364.99046798
 31
0.0
  0
LINE
  5
D246
330
A8FC
100
AcDbEntity
  8
YKK_C1
  6
Continuous
100
AcDbLine
 10
3452.3868732
 20
9359.99046798
 30
0.0
 11
3477.3868732
 21
9359.99046798
 31
0.0
  0
LINE
  5
D247
330
A8FC
100
AcDbEntity
  8
YKK_C1
  6
Continuous
100
AcDbLine
 10
3449.58687015
 20
9354.99046798
 30
0.0
 11
3482.58687015
 21
9354.99046798
 31
0.0
  0
LINE
  5
D248
330
A8FC
100
AcDbEntity
  8
YKK_N1
  6
Continuous
100
AcDbLine
 10
3682.58687015
 20
9364.99046798
 30
0.0
 11
3632.58687015
 21
9451.5930223
 31
0.0
  0
LINE
  5
D249
330
A8FC
100
AcDbEntity
  8
YKK_N1
  6
Continuous
100
AcDbLine
 10
3732.58687896
 20
9451.5930223
 30
0.0
 11
3682.58687015
 21
9364.99046798
 31
0.0
  0
LINE
  5
D24A
330
A8FC
100
AcDbEntity
  8
YKK_N1
100
AcDbLine
 10
3632.58687015
 20
9451.5930223
 30
0.0
 11
3732.58687896
 21
9451.5930223
 31
0.0
  0
LINE
  5
D24B
330
A8FC
100
AcDbEntity
  8
YKK_N1
  6
Continuous
100
AcDbLine
 10
3682.58687015
 20
9364.99046798
 30
0.0
 11
3682.58687015
 21
9354.99046798
 31
0.0
  0
CIRCLE
  5
D24C
330
A8FC
100
AcDbEntity
  8
YKK_N1
  6
Continuous
100
AcDbCircle
 10
3448.3868732
 20
9923.90242477
 30
0.0
 40
5.0
  0
LINE
  5
D24D
330
A8FC
100
AcDbEntity
  8
YKK_N1
  6
Continuous
100
AcDbLine
 10
3448.3868732
 20
9923.90242477
 30
0.0
 11
3481.3868732
 21
9923.90242477
 31
0.0
  0
CIRCLE
  5
D24E
330
A8FC
100
AcDbEntity
  8
YKK_N1
  6
Continuous
100
AcDbCircle
 10
3481.3868732
 20
9923.90242477
 30
0.0
 40
5.0
  0
TEXT
  5
D2A6
330
A8FC
100
AcDbEntity
  8
YKK_N1
  6
Continuous
100
AcDbText
 10
3670.5868767
 20
10164.99051507
 30
0.0
 40
60.0
  1
H=1900
 50
90.0000025
 72
     4
 11
3640.58687015
 21
10314.99051375
 31
0.0
100
AcDbText
  0
TEXT
  5
D2A7
330
A8FC
100
AcDbEntity
  8
YKK_N1
  6
Continuous
100
AcDbText
 10
3670.58687168
 20
11301.4076005
 30
0.0
 40
60.0
  1
10
 50
90.0000025
 72
     4
 11
3640.58687015
 21
11336.40759919
 31
0.0
100
AcDbText
  0
LINE
  5
D2A8
330
A8FC
100
AcDbEntity
  8
YKK_N1
  6
Continuous
100
AcDbLine
 10
3557.58687015
 20
11264.99055953
 30
0.0
 11
3682.58687015
 21
11264.99055953
 31
0.0
  0
LINE
  5
D2A9
330
A8FC
100
AcDbEntity
  8
YKK_N1
  6
Continuous
100
AcDbLine
 10
3557.58687015
 20
11274.99055953
 30
0.0
 11
3682.58687015
 21
11274.99055953
 31
0.0
  0
LINE
  5
D2AA
330
A8FC
100
AcDbEntity
  8
YKK_C1
  6
Continuous
100
AcDbLine
 10
3452.3868732
 20
11224.99082805
 30
0.0
 11
3477.3868732
 21
11224.99082805
 31
0.0
  0
LINE
  5
D2AB
330
A8FC
100
AcDbEntity
  8
YKK_C1
  6
Continuous
100
AcDbLine
 10
3449.58687015
 20
11299.99055953
 30
0.0
 11
3469.58687015
 21
11299.99055953
 31
0.0
  0
LINE
  5
D2AC
330
A8FC
100
AcDbEntity
  8
YKK_C1
  6
Continuous
100
AcDbLine
 10
3449.58687015
 20
11299.99055953
 30
0.0
 11
3449.58687015
 21
11274.99055953
 31
0.0
  0
LINE
  5
D2AE
330
A8FC
100
AcDbEntity
  8
YKK_C1
  6
Continuous
100
AcDbLine
 10
3449.58687015
 20
11274.99055953
 30
0.0
 11
3481.3868732
 21
11274.99055953
 31
0.0
  0
LINE
  5
D2B1
330
A8FC
100
AcDbEntity
  8
YKK_N1
  6
Continuous
100
AcDbLine
 10
3682.58687015
 20
11264.99055953
 30
0.0
 11
3632.58687015
 21
11178.38800521
 31
0.0
  0
LINE
  5
D2B2
330
A8FC
100
AcDbEntity
  8
YKK_N1
  6
Continuous
100
AcDbLine
 10
3732.58687896
 20
11178.38800521
 30
0.0
 11
3682.58687015
 21
11264.99055953
 31
0.0
  0
LINE
  5
D2B3
330
A8FC
100
AcDbEntity
  8
YKK_N1
100
AcDbLine
 10
3632.58687015
 20
11178.38800521
 30
0.0
 11
3732.58687896
 21
11178.38800521
 31
0.0
  0
LINE
  5
D2B4
330
A8FC
100
AcDbEntity
  8
YKK_N1
  6
Continuous
100
AcDbLine
 10
3682.58687015
 20
11264.99055953
 30
0.0
 11
3682.58687015
 21
11274.99055953
 31
0.0
  0
CIRCLE
  5
D2B5
330
A8FC
100
AcDbEntity
  8
YKK_N1
  6
Continuous
100
AcDbCircle
 10
3682.58687015
 20
11274.99055953
 30
0.0
 40
5.0
  0
LINE
  5
D2C3
330
A8FC
100
AcDbEntity
  8
YKK_N1
  6
Continuous
100
AcDbLine
 10
7749.98953555
 20
7645.80022785
 30
0.0
 11
7663.38698123
 21
7695.80023665
 31
0.0
  0
LINE
  5
D2C4
330
A8FC
100
AcDbEntity
  8
YKK_N1
  6
Continuous
100
AcDbLine
 10
7663.38698123
 20
7695.80023665
 30
0.0
 11
7749.98953555
 21
7745.80023665
 31
0.0
  0
ARC
  5
D2C5
330
A8FC
100
AcDbEntity
  8
YKK_B1
  6
PHANTOM
100
AcDbCircle
 10
7655.38698123
 20
7937.80020614
 30
0.0
 40
441.6576781013289
100
AcDbArc
 50
358.83235878
 51
88.46901007
  0
LINE
  5
D2C6
330
A8FC
100
AcDbEntity
  8
YKK_B1
  6
Continuous
100
AcDbLine
 10
7653.38698123
 20
7895.80020614
 30
0.0
 11
8100.88699649
 21
7895.80020614
 31
0.0
  0
LINE
  5
D2C7
330
A8FC
100
AcDbEntity
  8
YKK_B1
  6
Continuous
100
AcDbLine
 10
7657.42708133
 20
7928.80020614
 30
0.0
 11
8569.38705753
 21
7928.80020614
 31
0.0
  0
LINE
  5
D2C8
330
A8FC
100
AcDbEntity
  8
YKK_B1
  6
Continuous
100
AcDbLine
 10
8096.88699649
 20
7901.00015731
 30
0.0
 11
7657.38698123
 21
7901.00015731
 31
0.0
  0
LINE
  5
D2C9
330
A8FC
100
AcDbEntity
  8
YKK_N1
  6
Continuous
100
AcDbLine
 10
7663.38698123
 20
7695.80023665
 30
0.0
 11
8563.38705753
 21
7695.80023665
 31
0.0
  0
LINE
  5
D2CA
330
A8FC
100
AcDbEntity
  8
YKK_B1
  6
Continuous
100
AcDbLine
 10
8096.88699649
 20
7926.00015731
 30
0.0
 11
7657.38698123
 21
7926.00015731
 31
0.0
  0
LINE
  5
D2CB
330
A8FC
100
AcDbEntity
  8
YKK_N1
  6
Continuous
100
AcDbLine
 10
7653.38698123
 20
7820.80020614
 30
0.0
 11
7653.38698123
 21
7695.80023665
 31
0.0
  0
LINE
  5
D2CC
330
A8FC
100
AcDbEntity
  8
YKK_N1
  6
Continuous
100
AcDbLine
 10
7663.38698123
 20
7820.80020614
 30
0.0
 11
7663.38698123
 21
7695.80023665
 31
0.0
  0
LINE
  5
D2CD
330
A8FC
100
AcDbEntity
  8
YKK_N1
  6
Continuous
100
AcDbLine
 10
7653.38698123
 20
7695.80023665
 30
0.0
 11
7663.38698123
 21
7695.80023665
 31
0.0
  0
CIRCLE
  5
D2CE
330
A8FC
100
AcDbEntity
  8
YKK_N1
  6
Continuous
100
AcDbCircle
 10
7653.38698123
 20
7695.80023665
 30
0.0
 40
5.0
  0
TEXT
  5
D2CF
330
A8FC
100
AcDbEntity
  8
YKK_N1
  6
Continuous
100
AcDbText
 10
7552.32435277
 20
7707.80023665
 30
0.0
 40
60.0
  1
10
 72
     4
 11
7587.32435277
 21
7737.80023665
 31
0.0
100
AcDbText
  0
LINE
  5
D2D0
330
A8FC
100
AcDbEntity
  8
YKK_B1
  6
PHANTOM
100
AcDbLine
 10
7667.18703006
 20
8379.3002214
 30
0.0
 11
7667.18703006
 21
7939.80020614
 31
0.0
  0
LINE
  5
D2D1
330
A8FC
100
AcDbEntity
  8
YKK_B1
  6
Continuous
100
AcDbLine
 10
7657.38698123
 20
7933.21762557
 30
0.0
 11
7657.38698123
 21
7901.00015731
 31
0.0
  0
LINE
  5
D2D2
330
A8FC
100
AcDbEntity
  8
YKK_B1
  6
Continuous
100
AcDbLine
 10
7653.38698123
 20
7933.21762557
 30
0.0
 11
7653.38698123
 21
7895.80020614
 31
0.0
  0
LINE
  5
D2D3
330
A8FC
100
AcDbEntity
  8
YKK_B1
  6
Continuous
100
AcDbLine
 10
7628.38698123
 20
7930.00015731
 30
0.0
 11
7628.38698123
 21
7908.80020614
 31
0.0
  0
LINE
  5
D2D4
330
A8FC
100
AcDbEntity
  8
YKK_B1
  6
Continuous
100
AcDbLine
 10
7628.38698123
 20
7930.00015731
 30
0.0
 11
7653.38698123
 21
7930.00015731
 31
0.0
  0
LINE
  5
D2D5
330
A8FC
100
AcDbEntity
  8
YKK_B1
  6
CENTER
100
AcDbLine
 10
7655.38698123
 20
7952.80020614
 30
0.0
 11
7655.38698123
 21
7922.80020614
 31
0.0
  0
CIRCLE
  5
D2D6
330
A8FC
100
AcDbEntity
  8
YKK_B1
  6
Continuous
100
AcDbCircle
 10
7655.38698123
 20
7937.80020614
 30
0.0
 40
5.0
  0
LINE
  5
D2D7
330
A8FC
100
AcDbEntity
  8
YKK_B1
  6
CENTER
100
AcDbLine
 10
7640.38698123
 20
7937.80020614
 30
0.0
 11
7670.38698123
 21
7937.80020614
 31
0.0
  0
LINE
  5
D2D8
330
A8FC
100
AcDbEntity
  8
YKK_N1
  6
Continuous
100
AcDbLine
 10
8563.38705753
 20
7820.80020614
 30
0.0
 11
8563.38705753
 21
7695.80023665
 31
0.0
  0
LINE
  5
D2D9
330
A8FC
100
AcDbEntity
  8
YKK_N1
  6
Continuous
100
AcDbLine
 10
8573.38705753
 20
7820.80020614
 30
0.0
 11
8573.38705753
 21
7695.80023665
 31
0.0
  0
TEXT
  5
D2DA
330
A8FC
100
AcDbEntity
  8
YKK_N1
  6
Continuous
100
AcDbText
 10
7973.38701938
 20
7707.80023665
 30
0.0
 40
60.0
  1
W=900
 72
     4
 11
8113.38701938
 21
7737.80023665
 31
0.0
100
AcDbText
  0
LINE
  5
D2DB
330
A8FC
100
AcDbEntity
  8
YKK_N1
100
AcDbLine
 10
7749.98953555
 20
7745.80023665
 30
0.0
 11
7749.98953555
 21
7645.80022785
 31
0.0
  0
LINE
  5
D2DC
330
A8FC
100
AcDbEntity
  8
YKK_N1
  6
Continuous
100
AcDbLine
 10
8563.38705753
 20
7695.80023665
 30
0.0
 11
8573.38705753
 21
7695.80023665
 31
0.0
  0
LINE
  5
D2DD
330
A8FC
100
AcDbEntity
  8
YKK_N1
100
AcDbLine
 10
8476.78450321
 20
7745.80023665
 30
0.0
 11
8476.78450321
 21
7645.80022785
 31
0.0
  0
LINE
  5
D2DE
330
A8FC
100
AcDbEntity
  8
YKK_N1
  6
Continuous
100
AcDbLine
 10
8476.78450321
 20
7645.80022785
 30
0.0
 11
8563.38705753
 21
7695.80023665
 31
0.0
  0
LINE
  5
D2DF
330
A8FC
100
AcDbEntity
  8
YKK_N1
  6
Continuous
100
AcDbLine
 10
8563.38705753
 20
7695.80023665
 30
0.0
 11
8476.78450321
 21
7745.80023665
 31
0.0
  0
CIRCLE
  5
D2E0
330
A8FC
100
AcDbEntity
  8
YKK_N1
  6
Continuous
100
AcDbCircle
 10
8573.38705753
 20
7695.80023665
 30
0.0
 40
5.0
  0
TEXT
  5
D2E1
330
A8FC
100
AcDbEntity
  8
YKK_N1
  6
Continuous
100
AcDbText
 10
8600.77953997
 20
7707.80023665
 30
0.0
 40
60.0
  1
10
 72
     4
 11
8635.77953997
 21
7737.80023665
 31
0.0
100
AcDbText
  0
ARC
  5
D2E2
330
A8FC
100
AcDbEntity
  8
YKK_B1
  6
PHANTOM
100
AcDbCircle
 10
8571.38705753
 20
7937.80020614
 30
0.0
 40
441.6577238613548
100
AcDbArc
 50
91.53098977
 51
181.1676411
  0
LINE
  5
D2E3
330
A8FC
100
AcDbEntity
  8
YKK_B1
  6
Continuous
100
AcDbLine
 10
8569.38705753
 20
7901.00015731
 30
0.0
 11
8129.88699649
 21
7901.00015731
 31
0.0
  0
LINE
  5
D2E4
330
A8FC
100
AcDbEntity
  8
YKK_B1
  6
Continuous
100
AcDbLine
 10
8125.88699649
 20
7895.80020614
 30
0.0
 11
8573.38705753
 21
7895.80020614
 31
0.0
  0
LINE
  5
D2E5
330
A8FC
100
AcDbEntity
  8
YKK_B1
  6
Continuous
100
AcDbLine
 10
8569.38705753
 20
7926.00015731
 30
0.0
 11
8129.88699649
 21
7926.00015731
 31
0.0
  0
LINE
  5
D2E6
330
A8FC
100
AcDbEntity
  8
YKK_N1
  6
Continuous
100
AcDbLine
 10
8250.02890323
 20
7928.80020614
 30
0.0
 11
8250.02890323
 21
7895.80020614
 31
0.0
  0
CIRCLE
  5
D2E7
330
A8FC
100
AcDbEntity
  8
YKK_N1
  6
Continuous
100
AcDbCircle
 10
8250.02890323
 20
7895.80020614
 30
0.0
 40
5.0
  0
CIRCLE
  5
D2E8
330
A8FC
100
AcDbEntity
  8
YKK_N1
  6
Continuous
100
AcDbCircle
 10
8250.02890323
 20
7928.80020614
 30
0.0
 40
5.0
  0
TEXT
  5
D2E9
330
A8FC
100
AcDbEntity
  8
YKK_N1
  6
Continuous
100
AcDbText
 10
8238.02890542
 20
7957.65235726
 30
0.0
 40
60.0
  1
33
 50
90.0000025
 72
     4
 11
8208.02890323
 21
8007.65235594
 31
0.0
100
AcDbText
  0
LINE
  5
D2EA
330
A8FC
100
AcDbEntity
  8
YKK_B1
  6
Continuous
100
AcDbLine
 10
8100.88699649
 20
7928.80020614
 30
0.0
 11
8100.88699649
 21
7895.80020614
 31
0.0
  0
LINE
  5
D2EB
330
A8FC
100
AcDbEntity
  8
YKK_B1
  6
Continuous
100
AcDbLine
 10
8125.88699649
 20
7928.80020614
 30
0.0
 11
8125.88699649
 21
7895.80020614
 31
0.0
  0
LINE
  5
D2EC
330
A8FC
100
AcDbEntity
  8
YKK_B1
  6
Continuous
100
AcDbLine
 10
8129.88699649
 20
7926.00015731
 30
0.0
 11
8129.88699649
 21
7901.00015731
 31
0.0
  0
LINE
  5
D2ED
330
A8FC
100
AcDbEntity
  8
YKK_B1
  6
Continuous
100
AcDbLine
 10
8096.88699649
 20
7926.00015731
 30
0.0
 11
8096.88699649
 21
7901.00015731
 31
0.0
  0
LINE
  5
D2EE
330
A8FC
100
AcDbEntity
  8
YKK_B1
100
AcDbLine
 10
8113.38693546
 20
7795.80020614
 30
0.0
 11
8113.38693546
 21
8028.80020614
 31
0.0
  0
LINE
  5
D2EF
330
A8FC
100
AcDbEntity
  8
YKK_B1
  6
PHANTOM
100
AcDbLine
 10
8559.5870087
 20
7939.80020614
 30
0.0
 11
8559.5870087
 21
8379.30026717
 31
0.0
  0
LINE
  5
D2F0
330
A8FC
100
AcDbEntity
  8
YKK_B1
  6
CENTER
100
AcDbLine
 10
8586.38705753
 20
7937.80020614
 30
0.0
 11
8556.38705753
 21
7937.80020614
 31
0.0
  0
LINE
  5
D2F1
330
A8FC
100
AcDbEntity
  8
YKK_B1
  6
Continuous
100
AcDbLine
 10
8569.38705753
 20
7933.21762557
 30
0.0
 11
8569.38705753
 21
7901.00015731
 31
0.0
  0
LINE
  5
D2F2
330
A8FC
100
AcDbEntity
  8
YKK_B1
  6
Continuous
100
AcDbLine
 10
8573.38705753
 20
7933.21762557
 30
0.0
 11
8573.38705753
 21
7895.80020614
 31
0.0
  0
LINE
  5
D2F3
330
A8FC
100
AcDbEntity
  8
YKK_B1
  6
Continuous
100
AcDbLine
 10
8598.38705753
 20
7930.00015731
 30
0.0
 11
8598.38705753
 21
7908.80020614
 31
0.0
  0
LINE
  5
D2F4
330
A8FC
100
AcDbEntity
  8
YKK_B1
  6
Continuous
100
AcDbLine
 10
8598.38705753
 20
7930.00015731
 30
0.0
 11
8573.38705753
 21
7930.00015731
 31
0.0
  0
LINE
  5
D2F5
330
A8FC
100
AcDbEntity
  8
YKK_B1
  6
CENTER
100
AcDbLine
 10
8571.38705753
 20
7952.80020614
 30
0.0
 11
8571.38705753
 21
7922.80020614
 31
0.0
  0
CIRCLE
  5
D2F6
330
A8FC
100
AcDbEntity
  8
YKK_B1
  6
Continuous
100
AcDbCircle
 10
8571.38705753
 20
7937.80020614
 30
0.0
 40
5.0
  0
LINE
  5
D3EB
330
A8FC
100
AcDbEntity
  8
YKK_C1
  6
Continuous
100
AcDbLine
 10
9327.38682727
 20
11226.99992228
 30
0.0
 11
9327.38682727
 21
9361.99962539
 31
0.0
  0
LINE
  5
D3EC
330
A8FC
100
AcDbEntity
  8
YKK_C1
  6
Continuous
100
AcDbLine
 10
9302.38682727
 20
11226.99992228
 30
0.0
 11
9302.38682727
 21
9361.99962539
 31
0.0
  0
LINE
  5
D3ED
330
A8FC
100
AcDbEntity
  8
YKK_N1
  6
Continuous
100
AcDbLine
 10
9532.58682422
 20
11266.99971694
 30
0.0
 11
9532.58682422
 21
9366.99962539
 31
0.0
  0
LINE
  5
D3EE
330
A8FC
100
AcDbEntity
  8
YKK_C1
  6
Continuous
100
AcDbLine
 10
9298.38682727
 20
11301.99971694
 30
0.0
 11
9298.38682727
 21
9331.99961013
 31
0.0
  0
LINE
  5
D3EF
330
A8FC
100
AcDbEntity
  8
YKK_C1
  6
Continuous
100
AcDbLine
 10
9331.38682727
 20
9356.99962539
 30
0.0
 11
9331.38682727
 21
11276.99971694
 31
0.0
  0
LINE
  5
D3F0
330
A8FC
100
AcDbEntity
  8
YKK_C1
  6
Continuous
100
AcDbLine
 10
9299.58682422
 20
9331.99961013
 30
0.0
 11
9299.58682422
 21
9356.99962539
 31
0.0
  0
CIRCLE
  5
D3F1
330
A8FC
100
AcDbEntity
  8
YKK_IN
  6
Continuous
100
AcDbCircle
 10
9332.58682422
 20
9366.99962539
 30
0.0
 40
25.0
  0
LINE
  5
D3F2
330
A8FC
100
AcDbEntity
  8
YKK_IN
  6
Continuous
100
AcDbLine
 10
9297.23149279
 20
9402.35497207
 30
0.0
 11
9367.9421709
 21
9331.64427871
 31
0.0
  0
LINE
  5
D3F3
330
A8FC
100
AcDbEntity
  8
YKK_IN
  6
Continuous
100
AcDbLine
 10
9297.23149279
 20
9331.64427871
 30
0.0
 11
9367.9421709
 21
9402.35497207
 31
0.0
  0
CIRCLE
  5
D3F4
330
A8FC
100
AcDbEntity
  8
YKK_N1
  6
Continuous
100
AcDbCircle
 10
9532.58682422
 20
9356.99962539
 30
0.0
 40
5.0
  0
LINE
  5
D3F5
330
A8FC
100
AcDbEntity
  8
YKK_C1
  6
Continuous
100
AcDbLine
 10
9299.58682422
 20
9331.99961013
 30
0.0
 11
9319.58682422
 21
9331.99961013
 31
0.0
  0
TEXT
  5
D3F6
330
A8FC
100
AcDbEntity
  8
YKK_N1
  6
Continuous
100
AcDbText
 10
9520.58682575
 20
9254.82473929
 30
0.0
 40
60.0
  1
10
 50
90.0000025
 72
     4
 11
9490.58682422
 21
9289.82473797
 31
0.0
100
AcDbText
  0
LINE
  5
D3F7
330
A8FC
100
AcDbEntity
  8
YKK_C1
  6
Continuous
100
AcDbLine
 10
9302.38682727
 20
9361.99962539
 30
0.0
 11
9327.38682727
 21
9361.99962539
 31
0.0
  0
LINE
  5
D3F8
330
A8FC
100
AcDbEntity
  8
YKK_C1
  6
Continuous
100
AcDbLine
 10
9299.58682422
 20
9356.99962539
 30
0.0
 11
9332.58682422
 21
9356.99962539
 31
0.0
  0
LINE
  5
D3F9
330
A8FC
100
AcDbEntity
  8
YKK_C1
  6
Continuous
100
AcDbLine
 10
9332.58682422
 20
9356.99962539
 30
0.0
 11
9332.58682422
 21
9366.99962539
 31
0.0
  0
CIRCLE
  5
D3FA
330
A8FC
100
AcDbEntity
  8
YKK_N1
  6
Continuous
100
AcDbCircle
 10
9331.38682727
 20
9925.91158218
 30
0.0
 40
5.0
  0
LINE
  5
D3FB
330
A8FC
100
AcDbEntity
  8
YKK_N1
  6
Continuous
100
AcDbLine
 10
9298.38682727
 20
9925.91158218
 30
0.0
 11
9331.38682727
 21
9925.91158218
 31
0.0
  0
TEXT
  5
D3FC
330
A8FC
100
AcDbEntity
  8
YKK_N1
  6
Continuous
100
AcDbText
 10
9167.71973152
 20
9937.91158218
 30
0.0
 40
60.0
  1
33
 72
     4
 11
9217.71973152
 21
9967.91158218
 31
0.0
100
AcDbText
  0
CIRCLE
  5
D3FD
330
A8FC
100
AcDbEntity
  8
YKK_N1
  6
Continuous
100
AcDbCircle
 10
9298.38682727
 20
9925.91158218
 30
0.0
 40
5.0
  0
LINE
  5
D3FE
330
A8FC
100
AcDbEntity
  8
YKK_N1
  6
Continuous
100
AcDbLine
 10
9532.58682422
 20
9366.99962539
 30
0.0
 11
9482.58682422
 21
9453.60217971
 31
0.0
  0
LINE
  5
D3FF
330
A8FC
100
AcDbEntity
  8
YKK_N1
  6
Continuous
100
AcDbLine
 10
9582.58683303
 20
9453.60217971
 30
0.0
 11
9532.58682422
 21
9366.99962539
 31
0.0
  0
LINE
  5
D400
330
A8FC
100
AcDbEntity
  8
YKK_N1
100
AcDbLine
 10
9482.58682422
 20
9453.60217971
 30
0.0
 11
9582.58683303
 21
9453.60217971
 31
0.0
  0
LINE
  5
D401
330
A8FC
100
AcDbEntity
  8
YKK_N1
  6
Continuous
100
AcDbLine
 10
9407.58682422
 20
9366.99962539
 30
0.0
 11
9532.58682422
 21
9366.99962539
 31
0.0
  0
LINE
  5
D402
330
A8FC
100
AcDbEntity
  8
YKK_N1
  6
Continuous
100
AcDbLine
 10
9407.58682422
 20
9356.99962539
 30
0.0
 11
9532.58682422
 21
9356.99962539
 31
0.0
  0
LINE
  5
D403
330
A8FC
100
AcDbEntity
  8
YKK_N1
  6
Continuous
100
AcDbLine
 10
9532.58682422
 20
9366.99962539
 30
0.0
 11
9532.58682422
 21
9356.99962539
 31
0.0
  0
TEXT
  5
D404
330
A8FC
100
AcDbEntity
  8
YKK_N1
  6
Continuous
100
AcDbText
 10
9520.58683077
 20
10166.99967248
 30
0.0
 40
60.0
  1
H=1900
 50
90.0000025
 72
     4
 11
9490.58682422
 21
10316.99967117
 31
0.0
100
AcDbText
  0
LINE
  5
D405
330
A8FC
100
AcDbEntity
  8
YKK_C1
  6
Continuous
100
AcDbLine
 10
9302.38682727
 20
11226.99992228
 30
0.0
 11
9327.38682727
 21
11226.99992228
 31
0.0
  0
LINE
  5
D409
330
A8FC
100
AcDbEntity
  8
YKK_C1
  6
Continuous
100
AcDbLine
 10
9299.58682422
 20
11276.99971694
 30
0.0
 11
9331.38682727
 21
11276.99971694
 31
0.0
  0
LINE
  5
D40A
330
A8FC
100
AcDbEntity
  8
YKK_C1
  6
Continuous
100
AcDbLine
 10
9299.58682422
 20
11301.99971694
 30
0.0
 11
9299.58682422
 21
11276.99971694
 31
0.0
  0
LINE
  5
D40B
330
A8FC
100
AcDbEntity
  8
YKK_C1
  6
Continuous
100
AcDbLine
 10
9299.58682422
 20
11301.99971694
 30
0.0
 11
9319.58682422
 21
11301.99971694
 31
0.0
  0
TEXT
  5
D40C
330
A8FC
100
AcDbEntity
  8
YKK_N1
  6
Continuous
100
AcDbText
 10
9520.58682575
 20
11303.41675792
 30
0.0
 40
60.0
  1
10
 50
90.0000025
 72
     4
 11
9490.58682422
 21
11338.41675661
 31
0.0
100
AcDbText
  0
LINE
  5
D40D
330
A8FC
100
AcDbEntity
  8
YKK_N1
  6
Continuous
100
AcDbLine
 10
9532.58682422
 20
11266.99971694
 30
0.0
 11
9482.58682422
 21
11180.39716262
 31
0.0
  0
LINE
  5
D40E
330
A8FC
100
AcDbEntity
  8
YKK_N1
  6
Continuous
100
AcDbLine
 10
9582.58683303
 20
11180.39716262
 30
0.0
 11
9532.58682422
 21
11266.99971694
 31
0.0
  0
LINE
  5
D40F
330
A8FC
100
AcDbEntity
  8
YKK_N1
100
AcDbLine
 10
9482.58682422
 20
11180.39716262
 30
0.0
 11
9582.58683303
 21
11180.39716262
 31
0.0
  0
CIRCLE
  5
D410
330
A8FC
100
AcDbEntity
  8
YKK_N1
  6
Continuous
100
AcDbCircle
 10
9532.58682422
 20
11276.99971694
 30
0.0
 40
5.0
  0
LINE
  5
D411
330
A8FC
100
AcDbEntity
  8
YKK_N1
  6
Continuous
100
AcDbLine
 10
9532.58682422
 20
11266.99971694
 30
0.0
 11
9532.58682422
 21
11276.99971694
 31
0.0
  0
LINE
  5
D412
330
A8FC
100
AcDbEntity
  8
YKK_N1
  6
Continuous
100
AcDbLine
 10
9407.58682422
 20
11276.99971694
 30
0.0
 11
9532.58682422
 21
11276.99971694
 31
0.0
  0
LINE
  5
D413
330
A8FC
100
AcDbEntity
  8
YKK_N1
  6
Continuous
100
AcDbLine
 10
9407.58682422
 20
11266.99971694
 30
0.0
 11
9532.58682422
 21
11266.99971694
 31
0.0
  0
TEXT
  5
D56F
330
A8FC
100
AcDbEntity
  8
YKK_N1
  6
Continuous
100
AcDbText
 10
8599.00480446
 20
14207.80010986
 30
0.0
 40
60.0
  1
10
 72
     4
 11
8634.00480446
 21
14237.80010986
 31
0.0
100
AcDbText
  0
ARC
  5
D57C
330
A8FC
100
AcDbEntity
  8
YKK_B1
  6
PHANTOM
100
AcDbCircle
 10
7655.38670657
 20
14437.80007935
 30
0.0
 40
441.6576781013289
100
AcDbArc
 50
358.83228168
 51
88.46901007
  0
ARC
  5
D57D
330
A8FC
100
AcDbEntity
  8
YKK_B1
  6
PHANTOM
100
AcDbCircle
 10
8571.38678287
 20
14437.80007935
 30
0.0
 40
441.657723861353
100
AcDbArc
 50
91.53098977
 51
181.1677182
  0
LINE
  5
D57E
330
A8FC
100
AcDbEntity
  8
YKK_B1
  6
PHANTOM
100
AcDbLine
 10
7667.1867554
 20
14879.3000946
 30
0.0
 11
7667.1867554
 21
14439.80007935
 31
0.0
  0
LINE
  5
D57F
330
A8FC
100
AcDbEntity
  8
YKK_B1
  6
PHANTOM
100
AcDbLine
 10
8559.58673404
 20
14439.80007935
 30
0.0
 11
8559.58673404
 21
14879.30014038
 31
0.0
  0
LINE
  5
D580
330
A8FC
100
AcDbEntity
  8
YKK_B1
  6
Continuous
100
AcDbLine
 10
8096.88672183
 20
14426.00003052
 30
0.0
 11
7657.38670657
 21
14426.00003052
 31
0.0
  0
LINE
  5
D581
330
A8FC
100
AcDbEntity
  8
YKK_B1
  6
Continuous
100
AcDbLine
 10
8096.88672183
 20
14401.00003052
 30
0.0
 11
7657.38670657
 21
14401.00003052
 31
0.0
  0
TEXT
  5
D582
330
A8FC
100
AcDbEntity
  8
YKK_N1
  6
Continuous
100
AcDbText
 10
7973.38674472
 20
14207.80010986
 30
0.0
 40
60.0
  1
W=900
 72
     4
 11
8113.38674472
 21
14237.80010986
 31
0.0
100
AcDbText
  0
LINE
  5
D583
330
A8FC
100
AcDbEntity
  8
YKK_N1
  6
Continuous
100
AcDbLine
 10
7663.38670657
 20
14195.80010986
 30
0.0
 11
8563.38678287
 21
14195.80010986
 31
0.0
  0
LINE
  5
D584
330
A8FC
100
AcDbEntity
  8
YKK_B1
  6
Continuous
100
AcDbLine
 10
7657.42680667
 20
14428.80007935
 30
0.0
 11
8569.38678287
 21
14428.80007935
 31
0.0
  0
LINE
  5
D585
330
A8FC
100
AcDbEntity
  8
YKK_B1
  6
Continuous
100
AcDbLine
 10
7653.38670657
 20
14395.80007935
 30
0.0
 11
8100.88672183
 21
14395.80007935
 31
0.0
  0
LINE
  5
D586
330
A8FC
100
AcDbEntity
  8
YKK_N1
  6
Continuous
100
AcDbLine
 10
7663.38670657
 20
14320.80007935
 30
0.0
 11
7663.38670657
 21
14195.80010986
 31
0.0
  0
LINE
  5
D587
330
A8FC
100
AcDbEntity
  8
YKK_N1
  6
Continuous
100
AcDbLine
 10
7653.38670657
 20
14320.80007935
 30
0.0
 11
7653.38670657
 21
14195.80010986
 31
0.0
  0
LINE
  5
D588
330
A8FC
100
AcDbEntity
  8
YKK_N1
  6
Continuous
100
AcDbLine
 10
7749.9892609
 20
14145.80010105
 30
0.0
 11
7663.38670657
 21
14195.80010986
 31
0.0
  0
LINE
  5
D589
330
A8FC
100
AcDbEntity
  8
YKK_N1
  6
Continuous
100
AcDbLine
 10
7663.38670657
 20
14195.80010986
 30
0.0
 11
7749.9892609
 21
14245.80010986
 31
0.0
  0
LINE
  5
D58A
330
A8FC
100
AcDbEntity
  8
YKK_N1
100
AcDbLine
 10
7749.9892609
 20
14245.80010986
 30
0.0
 11
7749.9892609
 21
14145.80010105
 31
0.0
  0
CIRCLE
  5
D58B
330
A8FC
100
AcDbEntity
  8
YKK_N1
  6
Continuous
100
AcDbCircle
 10
7653.38670657
 20
14195.80010986
 30
0.0
 40
5.0
  0
LINE
  5
D58C
330
A8FC
100
AcDbEntity
  8
YKK_N1
  6
Continuous
100
AcDbLine
 10
7653.38670657
 20
14195.80010986
 30
0.0
 11
7663.38670657
 21
14195.80010986
 31
0.0
  0
TEXT
  5
D58D
330
A8FC
100
AcDbEntity
  8
YKK_N1
  6
Continuous
100
AcDbText
 10
7548.58413184
 20
14207.80010986
 30
0.0
 40
60.0
  1
10
 72
     4
 11
7583.58413184
 21
14237.80010986
 31
0.0
100
AcDbText
  0
CIRCLE
  5
D58E
330
A8FC
100
AcDbEntity
  8
YKK_B1
  6
Continuous
100
AcDbCircle
 10
7655.38670657
 20
14437.80007935
 30
0.0
 40
5.0
  0
LINE
  5
D58F
330
A8FC
100
AcDbEntity
  8
YKK_B1
  6
CENTER
100
AcDbLine
 10
7640.38670657
 20
14437.80007935
 30
0.0
 11
7670.38670657
 21
14437.80007935
 31
0.0
  0
LINE
  5
D590
330
A8FC
100
AcDbEntity
  8
YKK_B1
  6
CENTER
100
AcDbLine
 10
7655.38670657
 20
14452.80007935
 30
0.0
 11
7655.38670657
 21
14422.80007935
 31
0.0
  0
LINE
  5
D591
330
A8FC
100
AcDbEntity
  8
YKK_B1
  6
Continuous
100
AcDbLine
 10
7653.38670657
 20
14433.21749878
 30
0.0
 11
7653.38670657
 21
14395.80007935
 31
0.0
  0
LINE
  5
D592
330
A8FC
100
AcDbEntity
  8
YKK_B1
  6
Continuous
100
AcDbLine
 10
7657.38670657
 20
14433.21749878
 30
0.0
 11
7657.38670657
 21
14401.00003052
 31
0.0
  0
LINE
  5
D593
330
A8FC
100
AcDbEntity
  8
YKK_B1
  6
Continuous
100
AcDbLine
 10
7628.38670657
 20
14430.00003052
 30
0.0
 11
7653.38670657
 21
14430.00003052
 31
0.0
  0
LINE
  5
D594
330
A8FC
100
AcDbEntity
  8
YKK_B1
  6
Continuous
100
AcDbLine
 10
7628.38670657
 20
14430.00003052
 30
0.0
 11
7628.38670657
 21
14408.80007935
 31
0.0
  0
LINE
  5
D595
330
A8FC
100
AcDbEntity
  8
YKK_N1
  6
Continuous
100
AcDbLine
 10
8573.38678287
 20
14320.80007935
 30
0.0
 11
8573.38678287
 21
14195.80010986
 31
0.0
  0
LINE
  5
D596
330
A8FC
100
AcDbEntity
  8
YKK_N1
  6
Continuous
100
AcDbLine
 10
8563.38678287
 20
14320.80007935
 30
0.0
 11
8563.38678287
 21
14195.80010986
 31
0.0
  0
LINE
  5
D597
330
A8FC
100
AcDbEntity
  8
YKK_B1
100
AcDbLine
 10
8113.3866608
 20
14295.80007935
 30
0.0
 11
8113.3866608
 21
14528.80007935
 31
0.0
  0
LINE
  5
D598
330
A8FC
100
AcDbEntity
  8
YKK_N1
100
AcDbLine
 10
8476.78422855
 20
14245.80010986
 30
0.0
 11
8476.78422855
 21
14145.80010105
 31
0.0
  0
LINE
  5
D599
330
A8FC
100
AcDbEntity
  8
YKK_N1
  6
Continuous
100
AcDbLine
 10
8563.38678287
 20
14195.80010986
 30
0.0
 11
8476.78422855
 21
14245.80010986
 31
0.0
  0
LINE
  5
D59A
330
A8FC
100
AcDbEntity
  8
YKK_N1
  6
Continuous
100
AcDbLine
 10
8476.78422855
 20
14145.80010105
 30
0.0
 11
8563.38678287
 21
14195.80010986
 31
0.0
  0
CIRCLE
  5
D59B
330
A8FC
100
AcDbEntity
  8
YKK_N1
  6
Continuous
100
AcDbCircle
 10
8573.38678287
 20
14195.80010986
 30
0.0
 40
5.0
  0
LINE
  5
D59C
330
A8FC
100
AcDbEntity
  8
YKK_N1
  6
Continuous
100
AcDbLine
 10
8563.38678287
 20
14195.80010986
 30
0.0
 11
8573.38678287
 21
14195.80010986
 31
0.0
  0
LINE
  5
D59D
330
A8FC
100
AcDbEntity
  8
YKK_B1
  6
Continuous
100
AcDbLine
 10
8569.38678287
 20
14426.00003052
 30
0.0
 11
8129.88672183
 21
14426.00003052
 31
0.0
  0
LINE
  5
D59E
330
A8FC
100
AcDbEntity
  8
YKK_B1
  6
Continuous
100
AcDbLine
 10
8125.88672183
 20
14395.80007935
 30
0.0
 11
8573.38678287
 21
14395.80007935
 31
0.0
  0
LINE
  5
D59F
330
A8FC
100
AcDbEntity
  8
YKK_B1
  6
Continuous
100
AcDbLine
 10
8569.38678287
 20
14401.00003052
 30
0.0
 11
8129.88672183
 21
14401.00003052
 31
0.0
  0
TEXT
  5
D5A0
330
A8FC
100
AcDbEntity
  8
YKK_N1
  6
Continuous
100
AcDbText
 10
8238.02863076
 20
14452.22433526
 30
0.0
 40
60.0
  1
33
 50
90.0000025
 72
     4
 11
8208.02862857
 21
14502.22433395
 31
0.0
100
AcDbText
  0
CIRCLE
  5
D5A1
330
A8FC
100
AcDbEntity
  8
YKK_N1
  6
Continuous
100
AcDbCircle
 10
8250.02862857
 20
14395.80007935
 30
0.0
 40
5.0
  0
CIRCLE
  5
D5A2
330
A8FC
100
AcDbEntity
  8
YKK_N1
  6
Continuous
100
AcDbCircle
 10
8250.02862857
 20
14428.80007935
 30
0.0
 40
5.0
  0
LINE
  5
D5A3
330
A8FC
100
AcDbEntity
  8
YKK_N1
  6
Continuous
100
AcDbLine
 10
8250.02862857
 20
14428.80007935
 30
0.0
 11
8250.02862857
 21
14395.80007935
 31
0.0
  0
LINE
  5
D5A4
330
A8FC
100
AcDbEntity
  8
YKK_B1
  6
Continuous
100
AcDbLine
 10
8129.88672183
 20
14426.00003052
 30
0.0
 11
8129.88672183
 21
14401.00003052
 31
0.0
  0
LINE
  5
D5A5
330
A8FC
100
AcDbEntity
  8
YKK_B1
  6
Continuous
100
AcDbLine
 10
8125.88672183
 20
14428.80007935
 30
0.0
 11
8125.88672183
 21
14395.80007935
 31
0.0
  0
LINE
  5
D5A6
330
A8FC
100
AcDbEntity
  8
YKK_B1
  6
Continuous
100
AcDbLine
 10
8100.88672183
 20
14428.80007935
 30
0.0
 11
8100.88672183
 21
14395.80007935
 31
0.0
  0
LINE
  5
D5A7
330
A8FC
100
AcDbEntity
  8
YKK_B1
  6
Continuous
100
AcDbLine
 10
8096.88672183
 20
14426.00003052
 30
0.0
 11
8096.88672183
 21
14401.00003052
 31
0.0
  0
LINE
  5
D5A8
330
A8FC
100
AcDbEntity
  8
YKK_B1
  6
Continuous
100
AcDbLine
 10
8598.38678287
 20
14430.00003052
 30
0.0
 11
8598.38678287
 21
14408.80007935
 31
0.0
  0
CIRCLE
  5
D5A9
330
A8FC
100
AcDbEntity
  8
YKK_B1
  6
Continuous
100
AcDbCircle
 10
8571.38678287
 20
14437.80007935
 30
0.0
 40
5.0
  0
LINE
  5
D5AA
330
A8FC
100
AcDbEntity
  8
YKK_B1
  6
CENTER
100
AcDbLine
 10
8586.38678287
 20
14437.80007935
 30
0.0
 11
8556.38678287
 21
14437.80007935
 31
0.0
  0
LINE
  5
D5AB
330
A8FC
100
AcDbEntity
  8
YKK_B1
  6
CENTER
100
AcDbLine
 10
8571.38678287
 20
14452.80007935
 30
0.0
 11
8571.38678287
 21
14422.80007935
 31
0.0
  0
LINE
  5
D5AC
330
A8FC
100
AcDbEntity
  8
YKK_B1
  6
Continuous
100
AcDbLine
 10
8573.38678287
 20
14433.21749878
 30
0.0
 11
8573.38678287
 21
14395.80007935
 31
0.0
  0
LINE
  5
D5AD
330
A8FC
100
AcDbEntity
  8
YKK_B1
  6
Continuous
100
AcDbLine
 10
8569.38678287
 20
14433.21749878
 30
0.0
 11
8569.38678287
 21
14401.00003052
 31
0.0
  0
LINE
  5
D5AE
330
A8FC
100
AcDbEntity
  8
YKK_B1
  6
Continuous
100
AcDbLine
 10
8598.38678287
 20
14430.00003052
 30
0.0
 11
8573.38678287
 21
14430.00003052
 31
0.0
  0
LINE
  5
D691
330
A8FC
100
AcDbEntity
  8
YKK_N1
  6
Continuous
100
AcDbLine
 10
9532.58701844
 20
17800.00012679
 30
0.0
 11
9532.58701844
 21
15900.00000472
 31
0.0
  0
LINE
  5
D692
330
A8FC
100
AcDbEntity
  8
YKK_C1
  6
Continuous
100
AcDbLine
 10
9298.38700623
 20
17835.00012679
 30
0.0
 11
9298.38700623
 21
15865.00000472
 31
0.0
  0
LINE
  5
D693
330
A8FC
100
AcDbEntity
  8
YKK_C1
  6
Continuous
100
AcDbLine
 10
9331.38700623
 20
15890.00000472
 30
0.0
 11
9331.38700623
 21
17810.00012679
 31
0.0
  0
LINE
  5
D694
330
A8FC
100
AcDbEntity
  8
YKK_C1
  6
Continuous
100
AcDbLine
 10
9327.38700623
 20
16994.99986183
 30
0.0
 11
9327.38700623
 21
15895.00000472
 31
0.0
  0
LINE
  5
D695
330
A8FC
100
AcDbEntity
  8
YKK_C1
  6
Continuous
100
AcDbLine
 10
9302.38700623
 20
16994.99986183
 30
0.0
 11
9302.38700623
 21
15895.00000472
 31
0.0
  0
CIRCLE
  5
D69B
330
A8FC
100
AcDbEntity
  8
YKK_IN
  6
Continuous
100
AcDbCircle
 10
9332.58698792
 20
15900.00000472
 30
0.0
 40
25.0
  0
LINE
  5
D69C
330
A8FC
100
AcDbEntity
  8
YKK_IN
  6
Continuous
100
AcDbLine
 10
9297.23167176
 20
15935.35532088
 30
0.0
 11
9367.9423346
 21
15864.64465804
 31
0.0
  0
LINE
  5
D69D
330
A8FC
100
AcDbEntity
  8
YKK_IN
  6
Continuous
100
AcDbLine
 10
9297.23167176
 20
15864.64465804
 30
0.0
 11
9367.9423346
 21
15935.35532088
 31
0.0
  0
LINE
  5
D69E
330
A8FC
100
AcDbEntity
  8
YKK_C1
  6
Continuous
100
AcDbLine
 10
9332.58698792
 20
15890.00000472
 30
0.0
 11
9332.58698792
 21
15900.00000472
 31
0.0
  0
CIRCLE
  5
D69F
330
A8FC
100
AcDbEntity
  8
YKK_N1
  6
Continuous
100
AcDbCircle
 10
9532.58698792
 20
15890.00000472
 30
0.0
 40
5.0
  0
LINE
  5
D6A0
330
A8FC
100
AcDbEntity
  8
YKK_N1
  6
Continuous
100
AcDbLine
 10
9532.58698792
 20
15900.00000472
 30
0.0
 11
9532.58698792
 21
15890.00000472
 31
0.0
  0
TEXT
  5
D6A1
330
A8FC
100
AcDbEntity
  8
YKK_N1
  6
Continuous
100
AcDbText
 10
9520.58698945
 20
15782.63434081
 30
0.0
 40
60.0
  1
10
 50
90.0000025
 72
     4
 11
9490.58698792
 21
15817.6343395
 31
0.0
100
AcDbText
  0
LINE
  5
D6A2
330
A8FC
100
AcDbEntity
  8
YKK_N1
  6
Continuous
100
AcDbLine
 10
9407.58698792
 20
15890.00000472
 30
0.0
 11
9532.58698792
 21
15890.00000472
 31
0.0
  0
LINE
  5
D6A3
330
A8FC
100
AcDbEntity
  8
YKK_C1
  6
Continuous
100
AcDbLine
 10
9299.58698792
 20
15890.00000472
 30
0.0
 11
9332.58698792
 21
15890.00000472
 31
0.0
  0
LINE
  5
D6A4
330
A8FC
100
AcDbEntity
  8
YKK_C1
  6
Continuous
100
AcDbLine
 10
9299.58698792
 20
15865.00000472
 30
0.0
 11
9299.58698792
 21
15890.00000472
 31
0.0
  0
LINE
  5
D6A5
330
A8FC
100
AcDbEntity
  8
YKK_C1
  6
Continuous
100
AcDbLine
 10
9299.58698792
 20
15865.00000472
 30
0.0
 11
9319.58698792
 21
15865.00000472
 31
0.0
  0
LINE
  5
D6A6
330
A8FC
100
AcDbEntity
  8
YKK_N1
  6
Continuous
100
AcDbLine
 10
9407.58698792
 20
15900.00000472
 30
0.0
 11
9532.58701844
 21
15900.00000472
 31
0.0
  0
LINE
  5
D6A7
330
A8FC
100
AcDbEntity
  8
YKK_C1
  6
Continuous
100
AcDbLine
 10
9302.38700623
 20
15895.00000472
 30
0.0
 11
9327.38700623
 21
15895.00000472
 31
0.0
  0
LINE
  5
D6A8
330
A8FC
100
AcDbEntity
  8
YKK_N1
  6
Continuous
100
AcDbLine
 10
9532.58701844
 20
15900.00000472
 30
0.0
 11
9482.58701844
 21
15986.60255904
 31
0.0
  0
LINE
  5
D6A9
330
A8FC
100
AcDbEntity
  8
YKK_N1
100
AcDbLine
 10
9482.58701844
 20
15986.60255904
 30
0.0
 11
9582.58702725
 21
15986.60255904
 31
0.0
  0
LINE
  5
D6AA
330
A8FC
100
AcDbEntity
  8
YKK_N1
  6
Continuous
100
AcDbLine
 10
9582.58702725
 20
15986.60255904
 30
0.0
 11
9532.58701844
 21
15900.00000472
 31
0.0
  0
TEXT
  5
D6AB
330
A8FC
100
AcDbEntity
  8
YKK_N1
  6
Continuous
100
AcDbText
 10
9520.58698945
 20
17834.03527885
 30
0.0
 40
60.0
  1
10
 50
90.0000025
 72
     4
 11
9490.58698792
 21
17869.03527754
 31
0.0
100
AcDbText
  0
LINE
  5
D6AC
330
A8FC
100
AcDbEntity
  8
YKK_C1
  6
Continuous
100
AcDbLine
 10
9299.58700318
 20
17720.99981856
 30
0.0
 11
9299.58700318
 21
16997.99986183
 31
0.0
  0
TEXT
  5
D6AD
330
A8FC
100
AcDbEntity
  8
YKK_N1
  6
Continuous
100
AcDbText
 10
9164.53568558
 20
16499.11468978
 30
0.0
 40
60.0
  1
33
 72
     4
 11
9214.53568558
 21
16529.11468978
 31
0.0
100
AcDbText
  0
CIRCLE
  5
D6AF
330
A8FC
100
AcDbEntity
  8
YKK_N1
  6
Continuous
100
AcDbCircle
 10
9298.38700623
 20
16487.11468978
 30
0.0
 40
5.0
  0
CIRCLE
  5
D6B0
330
A8FC
100
AcDbEntity
  8
YKK_N1
  6
Continuous
100
AcDbCircle
 10
9331.38700623
 20
16487.11468978
 30
0.0
 40
5.0
  0
LINE
  5
D6B1
330
A8FC
100
AcDbEntity
  8
YKK_N1
  6
Continuous
100
AcDbLine
 10
9298.38700623
 20
16487.11468978
 30
0.0
 11
9331.38700623
 21
16487.11468978
 31
0.0
  0
TEXT
  5
D6B2
330
A8FC
100
AcDbEntity
  8
YKK_N1
  6
Continuous
100
AcDbText
 10
9520.587025
 20
16700.00006707
 30
0.0
 40
60.0
  1
H=1900
 50
90.0000025
 72
     4
 11
9490.58701844
 21
16850.00006576
 31
0.0
100
AcDbText
  0
LINE
  5
D6B4
330
A8FC
100
AcDbEntity
  8
YKK_C1
  6
Continuous
100
AcDbLine
 10
9302.38700623
 20
16994.99986183
 30
0.0
 11
9327.38700623
 21
16994.99986183
 31
0.0
  0
LINE
  5
D6B5
330
A8FC
100
AcDbEntity
  8
YKK_C1
  6
Continuous
100
AcDbLine
 10
9299.58700318
 20
16997.99986183
 30
0.0
 11
9331.38700623
 21
16997.99986183
 31
0.0
  0
LINE
  5
D6BA
330
A8FC
100
AcDbEntity
  8
YKK_N1
  6
Continuous
100
AcDbLine
 10
9407.58698792
 20
17810.00012679
 30
0.0
 11
9532.58698792
 21
17810.00012679
 31
0.0
  0
LINE
  5
D6BB
330
A8FC
100
AcDbEntity
  8
YKK_N1
  6
Continuous
100
AcDbLine
 10
9407.58698792
 20
17800.00012679
 30
0.0
 11
9532.58701844
 21
17800.00012679
 31
0.0
  0
LINE
  5
D6BC
330
A8FC
100
AcDbEntity
  8
YKK_C1
  6
Continuous
100
AcDbLine
 10
9331.38700623
 20
17720.99981856
 30
0.0
 11
9299.58698792
 21
17720.99981856
 31
0.0
  0
LINE
  5
D6BD
330
A8FC
100
AcDbEntity
  8
YKK_C1
  6
Continuous
100
AcDbLine
 10
9299.58698792
 20
17695.99981856
 30
0.0
 11
9331.38700623
 21
17695.99981856
 31
0.0
  0
LINE
  5
D6BE
330
A8FC
100
AcDbEntity
  8
YKK_C1
  6
Continuous
100
AcDbLine
 10
9299.58698792
 20
17810.00012679
 30
0.0
 11
9331.38700623
 21
17810.00012679
 31
0.0
  0
LINE
  5
D6BF
330
A8FC
100
AcDbEntity
  8
YKK_C1
  6
Continuous
100
AcDbLine
 10
9299.58698792
 20
17835.00012679
 30
0.0
 11
9299.58698792
 21
17810.00012679
 31
0.0
  0
LINE
  5
D6C0
330
A8FC
100
AcDbEntity
  8
YKK_C1
  6
Continuous
100
AcDbLine
 10
9299.58698792
 20
17835.00012679
 30
0.0
 11
9319.58698792
 21
17835.00012679
 31
0.0
  0
LINE
  5
D6C1
330
A8FC
100
AcDbEntity
  8
YKK_N1
100
AcDbLine
 10
9482.58698792
 20
17713.39757247
 30
0.0
 11
9582.58699673
 21
17713.39757247
 31
0.0
  0
LINE
  5
D6C2
330
A8FC
100
AcDbEntity
  8
YKK_N1
  6
Continuous
100
AcDbLine
 10
9532.58698792
 20
17800.00012679
 30
0.0
 11
9482.58698792
 21
17713.39757247
 31
0.0
  0
LINE
  5
D6C3
330
A8FC
100
AcDbEntity
  8
YKK_N1
  6
Continuous
100
AcDbLine
 10
9582.58699673
 20
17713.39757247
 30
0.0
 11
9532.58698792
 21
17800.00012679
 31
0.0
  0
CIRCLE
  5
D6C4
330
A8FC
100
AcDbEntity
  8
YKK_N1
  6
Continuous
100
AcDbCircle
 10
9532.58698792
 20
17810.00012679
 30
0.0
 40
5.0
  0
LINE
  5
D6C5
330
A8FC
100
AcDbEntity
  8
YKK_N1
  6
Continuous
100
AcDbLine
 10
9532.58698792
 20
17810.00012679
 30
0.0
 11
9532.58698792
 21
17800.00012679
 31
0.0
  0
ENDSEC
  0
SECTION
  2
OBJECTS
  0
DICTIONARY
  5
A8F1
330
0
100
AcDbDictionary
281
     1
  3
ACAD_CIP_PREVIOUS_PRODUCT_INFO
350
D77E
  3
ACAD_COLOR
350
D714
  3
ACAD_DETAILVIEWSTYLE
350
D72D
  3
ACAD_GROUP
350
A8F2
  3
ACAD_LAYOUT
350
D732
  3
ACAD_MATERIAL
350
D6E2
  3
ACAD_MLEADERSTYLE
350
D729
  3
ACAD_MLINESTYLE
350
A8FF
  3
ACAD_PLOTSETTINGS
350
D731
  3
ACAD_PLOTSTYLENAME
350
D6E0
  3
ACAD_SCALELIST
350
D717
  3
ACAD_SECTIONVIEWSTYLE
350
D72B
  3
ACAD_TABLESTYLE
350
D715
  3
ACAD_VISUALSTYLE
350
D6FB
  3
ACDB_RECOMPOSE_DATA
350
D784
  3
ACDBVARIABLEDICTIONARY
350
A917
  0
XRECORD
  5
D77E
102
{ACAD_REACTORS
330
A8F1
102
}
330
A8F1
100
AcDbXrecord
280
     1
300
ACD
300
2014
300
86063ACD_2014_0F
  0
DICTIONARY
  5
D714
102
{ACAD_REACTORS
330
A8F1
102
}
330
A8F1
100
AcDbDictionary
281
     1
  0
DICTIONARY
  5
D72D
102
{ACAD_REACTORS
330
A8F1
102
}
330
A8F1
100
AcDbDictionary
281
     1
  3
Imperial24
350
D72E
  0
DICTIONARY
  5
A8F2
102
{ACAD_REACTORS
330
A8F1
102
}
330
A8F1
100
AcDbDictionary
281
     1
  0
DICTIONARY
  5
D732
102
{ACAD_REACTORS
330
A8F1
102
}
330
A8F1
100
AcDbDictionary
281
     1
  3
Model
350
D733
  3
レイアウト1
350
D734
  0
DICTIONARY
  5
D6E2
102
{ACAD_REACTORS
330
A8F1
102
}
330
A8F1
100
AcDbDictionary
281
     1
  3
ByBlock
350
D6EB
  3
ByLayer
350
D6E3
  3
Global
350
D6F3
  0
DICTIONARY
  5
D729
102
{ACAD_REACTORS
330
A8F1
102
}
330
A8F1
100
AcDbDictionary
281
     1
  3
Standard
350
D72A
  0
DICTIONARY
  5
A8FF
102
{ACAD_REACTORS
330
A8F1
102
}
330
A8F1
100
AcDbDictionary
281
     1
  3
STANDARD
350
A900
  0
DICTIONARY
  5
D731
102
{ACAD_REACTORS
330
A8F1
102
}
330
A8F1
100
AcDbDictionary
281
     1
  0
ACDBDICTIONARYWDFLT
  5
D6E0
102
{ACAD_REACTORS
330
A8F1
102
}
330
A8F1
100
AcDbDictionary
281
     1
  3
Normal
350
D6E1
100
AcDbDictionaryWithDefault
340
D6E1
  0
DICTIONARY
  5
D717
102
{ACAD_REACTORS
330
A8F1
102
}
330
A8F1
100
AcDbDictionary
281
     1
  3
A0
350
D718
  3
A1
350
D719
  3
A2
350
D71A
  3
A3
350
D71B
  3
A4
350
D71C
  3
A5
350
D71D
  3
A6
350
D71E
  3
A7
350
D71F
  3
A8
350
D720
  3
A9
350
D721
  3
B0
350
D722
  3
B1
350
D723
  3
B2
350
D724
  3
B3
350
D725
  3
B4
350
D726
  3
B5
350
D727
  3
B6
350
D728
  0
DICTIONARY
  5
D72B
102
{ACAD_REACTORS
330
A8F1
102
}
330
A8F1
100
AcDbDictionary
281
     1
  3
Imperial24
350
D72C
  0
DICTIONARY
  5
D715
102
{ACAD_REACTORS
330
A8F1
102
}
330
A8F1
100
AcDbDictionary
281
     1
  3
Standard
350
D716
  0
DICTIONARY
  5
D6FB
102
{ACAD_REACTORS
330
A8F1
102
}
330
A8F1
100
AcDbDictionary
281
     1
  3
2dWireframe
350
D701
  3
Basic
350
D700
  3
Brighten
350
D707
  3
ColorChange
350
D70B
  3
Conceptual
350
D704
  3
Dim
350
D706
  3
EdgeColorOff
350
D713
  3
Facepattern
350
D70A
  3
Flat
350
D6FC
  3
FlatWithEdges
350
D6FD
  3
Gouraud
350
D6FE
  3
GouraudWithEdges
350
D6FF
  3
Hidden
350
D703
  3
JitterOff
350
D711
  3
Linepattern
350
D709
  3
OverhangOff
350
D712
  3
Realistic
350
D705
  3
Shaded
350
D710
  3
Shaded with edges
350
D70F
  3
Shades of Gray
350
D70C
  3
Sketchy
350
D70D
  3
Thicken
350
D708
  3
Wireframe
350
D702
  3
X-Ray
350
D70E
  0
XRECORD
  5
D784
102
{ACAD_REACTORS
330
A8F1
102
}
330
A8F1
100
AcDbXrecord
280
     1
 90
        1
330
D716
  0
DICTIONARY
  5
A917
102
{ACAD_REACTORS
330
A8F1
102
}
330
A8F1
100
AcDbDictionary
281
     1
  3
CANNOSCALE
350
D777
  3
CMLEADERSTYLE
350
D774
  3
CTABLESTYLE
350
D773
  3
CVIEWDETAILSTYLE
350
D775
  3
CVIEWSECTIONSTYLE
350
D776
  3
DIMADEC
350
A918
  3
XCLIPFRAME
350
D782
  0
ACDBDETAILVIEWSTYLE
  5
D72E
102
{ACAD_XDICTIONARY
360
D7BD
102
}
102
{ACAD_REACTORS
330
D72D
102
}
330
D72D
100
AcDbModelDocViewStyle
 70
     0
  3
Imperial24
290
     0
100
AcDbDetailViewStyle
 70
     0
 71
     0
 90
        3
 71
     1
340
A8F4
 62
   256
 40
0.24
340
0
 62
   256
 40
0.24
300

 40
0.36
280
     3
 71
     2
340
A8F8
 90
       25
 62
   256
 71
     3
340
A8F4
 62
   256
 40
0.24
 90
        1
 40
0.75
 90
        1
300
%<\AcVar ViewType \f "%tc1">% %<\AcVar ViewDetailId>%\PSCALE %<\AcVar ViewScale \f "%sn">%
 71
     4
340
A8F8
 90
       25
 62
   256
340
A8F8
 90
       25
 62
   256
280
     0
  0
LAYOUT
  5
D733
102
{ACAD_REACTORS
330
D732
102
}
330
D732
100
AcDbPlotSettings
  1

  2
C:\ACAD-I\support\plotters\Default Windows System Printer.pc3
  4
A4
  6

 40
3.17499995
 41
3.17499995
 42
3.17500305
 43
3.17498779
 44
209.88865662
 45
297.05300903
 46
0.0
 47
0.0
 48
0.0
 49
0.0
140
0.0
141
0.0
142
1.0
143
3304.82630188
 70
 11952
 72
     0
 73
     1
 74
     0
  7
monochrome.ctb
 75
     0
147
0.00030259
 76
     0
 77
     2
 78
   300
148
87034.93205015
149
2899.66714925
100
AcDbLayout
  1
Model
 70
     1
 71
     0
 10
0.0
 20
0.0
 11
12.0
 21
9.0
 12
0.0
 22
0.0
 32
0.0
 14
0.0
 24
0.0
 34
0.0
 15
0.0
 25
0.0
 35
0.0
146
0.0
 13
0.0
 23
0.0
 33
0.0
 16
1.0
 26
0.0
 36
0.0
 17
0.0
 27
1.0
 37
0.0
 76
     0
330
A8FC
1001
ACAD_PSEXT
1000
C:\ACAD-I\support\plotters\Default Windows System Printer.pc3
1000
Fiery PRO80 65-55C-KM PS3.0jp
1000
IP_10.230.204.212
1000

1070
     0
  0
LAYOUT
  5
D734
102
{ACAD_REACTORS
330
D732
102
}
330
D732
100
AcDbPlotSettings
  1

  2
C:\ACAD-I\support\plotters\Default Windows System Printer.pc3
  4
A4
  6

 40
3.17499995
 41
3.17499995
 42
3.17500305
 43
3.17498779
 44
209.88865662
 45
297.05300903
 46
0.0
 47
0.0
 48
0.0
 49
0.0
140
0.0
141
0.0
142
1.0
143
1.0
 70
 15024
 72
     0
 73
     1
 74
     5
  7
monochrome.ctb
 75
    16
147
1.0
 76
     0
 77
     2
 78
   300
148
0.0
149
0.0
100
AcDbLayout
  1
レイアウト1
 70
     0
 71
     1
 10
0.0
 20
0.0
 11
12.0
 21
9.0
 12
0.0
 22
0.0
 32
0.0
 14
1.00000000E+20
 24
1.00000000E+20
 34
1.00000000E+20
 15
-1.00000000E+20
 25
-1.00000000E+20
 35
-1.00000000E+20
146
0.0
 13
0.0
 23
0.0
 33
0.0
 16
1.0
 26
0.0
 36
0.0
 17
0.0
 27
1.0
 37
0.0
 76
     0
330
A8F9
1001
ACAD_PSEXT
1000
C:\ACAD-I\support\plotters\Default Windows System Printer.pc3
1000
Fiery PRO80 65-55C-KM PS3.0jp
1000
IP_10.230.204.212
1000

1070
     0
  0
MATERIAL
  5
D6EB
102
{ACAD_XDICTIONARY
360
D6EC
102
}
102
{ACAD_REACTORS
330
D6E2
102
}
330
D6E2
100
AcDbMaterial
  1
ByBlock
 72
     0
 43
0.02083333
 43
0.0
 43
0.0
 43
0.0
 43
0.0
 43
0.02083333
 43
0.0
 43
0.0
 43
0.0
 43
0.0
 43
1.0
 43
0.0
 43
0.0
 43
0.0
 43
0.0
 43
1.0
 77
     0
 47
0.02083333
 47
0.0
 47
0.0
 47
0.0
 47
0.0
 47
0.02083333
 47
0.0
 47
0.0
 47
0.0
 47
0.0
 47
1.0
 47
0.0
 47
0.0
 47
0.0
 47
0.0
 47
1.0
171
     0
 49
0.02083333
 49
0.0
 49
0.0
 49
0.0
 49
0.0
 49
0.02083333
 49
0.0
 49
0.0
 49
0.0
 49
0.0
 49
1.0
 49
0.0
 49
0.0
 49
0.0
 49
0.0
 49
1.0
175
     0
142
0.02083333
142
0.0
142
0.0
142
0.0
142
0.0
142
0.02083333
142
0.0
142
0.0
142
0.0
142
0.0
142
1.0
142
0.0
142
0.0
142
0.0
142
0.0
142
1.0
179
     0
144
0.02083333
144
0.0
144
0.0
144
0.0
144
0.0
144
0.02083333
144
0.0
144
0.0
144
0.0
144
0.0
144
1.0
144
0.0
144
0.0
144
0.0
144
0.0
144
1.0
147
0.02083333
147
0.0
147
0.0
147
0.0
147
0.0
147
0.02083333
147
0.0
147
0.0
147
0.0
147
0.0
147
1.0
147
0.0
147
0.0
147
0.0
147
0.0
147
1.0
  0
MATERIAL
  5
D6E3
102
{ACAD_XDICTIONARY
360
D6E4
102
}
102
{ACAD_REACTORS
330
D6E2
102
}
330
D6E2
100
AcDbMaterial
  1
ByLayer
 72
     0
 43
0.02083333
 43
0.0
 43
0.0
 43
0.0
 43
0.0
 43
0.02083333
 43
0.0
 43
0.0
 43
0.0
 43
0.0
 43
1.0
 43
0.0
 43
0.0
 43
0.0
 43
0.0
 43
1.0
 77
     0
 47
0.02083333
 47
0.0
 47
0.0
 47
0.0
 47
0.0
 47
0.02083333
 47
0.0
 47
0.0
 47
0.0
 47
0.0
 47
1.0
 47
0.0
 47
0.0
 47
0.0
 47
0.0
 47
1.0
171
     0
 49
0.02083333
 49
0.0
 49
0.0
 49
0.0
 49
0.0
 49
0.02083333
 49
0.0
 49
0.0
 49
0.0
 49
0.0
 49
1.0
 49
0.0
 49
0.0
 49
0.0
 49
0.0
 49
1.0
175
     0
142
0.02083333
142
0.0
142
0.0
142
0.0
142
0.0
142
0.02083333
142
0.0
142
0.0
142
0.0
142
0.0
142
1.0
142
0.0
142
0.0
142
0.0
142
0.0
142
1.0
179
     0
144
0.02083333
144
0.0
144
0.0
144
0.0
144
0.0
144
0.02083333
144
0.0
144
0.0
144
0.0
144
0.0
144
1.0
144
0.0
144
0.0
144
0.0
144
0.0
144
1.0
147
0.02083333
147
0.0
147
0.0
147
0.0
147
0.0
147
0.02083333
147
0.0
147
0.0
147
0.0
147
0.0
147
1.0
147
0.0
147
0.0
147
0.0
147
0.0
147
1.0
  0
MATERIAL
  5
D6F3
102
{ACAD_XDICTIONARY
360
D6F4
102
}
102
{ACAD_REACTORS
330
D6E2
102
}
330
D6E2
100
AcDbMaterial
  1
Global
 72
     0
 43
0.02083333
 43
0.0
 43
0.0
 43
0.0
 43
0.0
 43
0.02083333
 43
0.0
 43
0.0
 43
0.0
 43
0.0
 43
1.0
 43
0.0
 43
0.0
 43
0.0
 43
0.0
 43
1.0
 77
     0
 47
0.02083333
 47
0.0
 47
0.0
 47
0.0
 47
0.0
 47
0.02083333
 47
0.0
 47
0.0
 47
0.0
 47
0.0
 47
1.0
 47
0.0
 47
0.0
 47
0.0
 47
0.0
 47
1.0
171
     0
 49
0.02083333
 49
0.0
 49
0.0
 49
0.0
 49
0.0
 49
0.02083333
 49
0.0
 49
0.0
 49
0.0
 49
0.0
 49
1.0
 49
0.0
 49
0.0
 49
0.0
 49
0.0
 49
1.0
175
     0
142
0.02083333
142
0.0
142
0.0
142
0.0
142
0.0
142
0.02083333
142
0.0
142
0.0
142
0.0
142
0.0
142
1.0
142
0.0
142
0.0
142
0.0
142
0.0
142
1.0
179
     0
144
0.02083333
144
0.0
144
0.0
144
0.0
144
0.0
144
0.02083333
144
0.0
144
0.0
144
0.0
144
0.0
144
1.0
144
0.0
144
0.0
144
0.0
144
0.0
144
1.0
147
0.02083333
147
0.0
147
0.0
147
0.0
147
0.0
147
0.02083333
147
0.0
147
0.0
147
0.0
147
0.0
147
1.0
147
0.0
147
0.0
147
0.0
147
0.0
147
1.0
  0
MLEADERSTYLE
  5
D72A
102
{ACAD_XDICTIONARY
360
D7B9
102
}
102
{ACAD_REACTORS
330
D729
102
}
330
D729
100
AcDbMLeaderStyle
170
     2
171
     1
172
     0
 90
        2
 40
0.0
 41
0.0
173
     1
 91
-1056964608
340
A8F6
 92
       -2
290
     1
 42
0.09
291
     1
 43
0.36
  3
Standard
 44
0.18
300

342
A8F4
174
     1
178
     6
175
     1
176
     0
 93
-1056964608
 45
0.18
292
     0
297
     0
 46
0.18
 94
-1056964608
 47
1.0
 49
1.0
140
1.0
293
     1
141
0.0
294
     1
177
     0
142
1.0
295
     0
296
     0
143
0.125
1001
ACAD_MLEADERVER
1070
     2
  0
MLINESTYLE
  5
A900
102
{ACAD_REACTORS
330
A8FF
102
}
330
A8FF
100
AcDbMlineStyle
  2
STANDARD
 70
     0
  3

 62
   256
 51
90.0
 52
90.0
 71
     2
 49
0.5
 62
   256
  6
BYLAYER
 49
-0.5
 62
   256
  6
BYLAYER
  0
ACDBPLACEHOLDER
  5
D6E1
102
{ACAD_REACTORS
330
D6E0
102
}
330
D6E0
  0
SCALE
  5
D718
102
{ACAD_REACTORS
330
D717
102
}
330
D717
100
AcDbScale
 70
     0
300
1:1
140
1.0
141
1.0
290
     1
  0
SCALE
  5
D719
102
{ACAD_REACTORS
330
D717
102
}
330
D717
100
AcDbScale
 70
     0
300
1/128" = 1'-0"
140
0.0078125
141
12.0
290
     0
  0
SCALE
  5
D71A
102
{ACAD_REACTORS
330
D717
102
}
330
D717
100
AcDbScale
 70
     0
300
1/64" = 1'-0"
140
0.015625
141
12.0
290
     0
  0
SCALE
  5
D71B
102
{ACAD_REACTORS
330
D717
102
}
330
D717
100
AcDbScale
 70
     0
300
1/32" = 1'-0"
140
0.03125
141
12.0
290
     0
  0
SCALE
  5
D71C
102
{ACAD_REACTORS
330
D717
102
}
330
D717
100
AcDbScale
 70
     0
300
1/16" = 1'-0"
140
0.0625
141
12.0
290
     0
  0
SCALE
  5
D71D
102
{ACAD_REACTORS
330
D717
102
}
330
D717
100
AcDbScale
 70
     0
300
3/32" = 1'-0"
140
0.09375
141
12.0
290
     0
  0
SCALE
  5
D71E
102
{ACAD_REACTORS
330
D717
102
}
330
D717
100
AcDbScale
 70
     0
300
1/8" = 1'-0"
140
0.125
141
12.0
290
     0
  0
SCALE
  5
D71F
102
{ACAD_REACTORS
330
D717
102
}
330
D717
100
AcDbScale
 70
     0
300
3/16" = 1'-0"
140
0.1875
141
12.0
290
     0
  0
SCALE
  5
D720
102
{ACAD_REACTORS
330
D717
102
}
330
D717
100
AcDbScale
 70
     0
300
1/4" = 1'-0"
140
0.25
141
12.0
290
     0
  0
SCALE
  5
D721
102
{ACAD_REACTORS
330
D717
102
}
330
D717
100
AcDbScale
 70
     0
300
3/8" = 1'-0"
140
0.375
141
12.0
290
     0
  0
SCALE
  5
D722
102
{ACAD_REACTORS
330
D717
102
}
330
D717
100
AcDbScale
 70
     0
300
1/2" = 1'-0"
140
0.5
141
12.0
290
     0
  0
SCALE
  5
D723
102
{ACAD_REACTORS
330
D717
102
}
330
D717
100
AcDbScale
 70
     0
300
3/4" = 1'-0"
140
0.75
141
12.0
290
     0
  0
SCALE
  5
D724
102
{ACAD_REACTORS
330
D717
102
}
330
D717
100
AcDbScale
 70
     0
300
1" = 1'-0"
140
1.0
141
12.0
290
     0
  0
SCALE
  5
D725
102
{ACAD_REACTORS
330
D717
102
}
330
D717
100
AcDbScale
 70
     0
300
1-1/2" = 1'-0"
140
1.5
141
12.0
290
     0
  0
SCALE
  5
D726
102
{ACAD_REACTORS
330
D717
102
}
330
D717
100
AcDbScale
 70
     0
300
3" = 1'-0"
140
3.0
141
12.0
290
     0
  0
SCALE
  5
D727
102
{ACAD_REACTORS
330
D717
102
}
330
D717
100
AcDbScale
 70
     0
300
6" = 1'-0"
140
6.0
141
12.0
290
     0
  0
SCALE
  5
D728
102
{ACAD_REACTORS
330
D717
102
}
330
D717
100
AcDbScale
 70
     0
300
1'-0" = 1'-0"
140
12.0
141
12.0
290
     0
  0
ACDBSECTIONVIEWSTYLE
  5
D72C
102
{ACAD_XDICTIONARY
360
D7BB
102
}
102
{ACAD_REACTORS
330
D72B
102
}
330
D72B
100
AcDbModelDocViewStyle
 70
     0
  3
Imperial24
290
     0
100
AcDbSectionViewStyle
 70
     0
 71
     0
 90
      102
 71
     1
340
A8F4
 62
   256
 40
5.0
340
0
340
0
 62
   256
 40
5.0
300
I, O, Q, S, X, Z
 40
10.0
 90
        0
 40
2.5
 90
        0
 71
     2
340
A8F8
 90
       25
 62
   256
340
A8F8
 90
       50
 62
   256
 40
5.0
 40
2.5
 40
5.0
 71
     3
340
A8F4
 62
   256
 40
5.0
 90
        0
 40
15.0
 90
        1
300
%<\AcVar ViewSectionStartId>%-%<\AcVar ViewSectionEndId>% (%<\AcVar ViewScale \f "%sn">%)
 71
     4
 62
   256
 62
   257
300
ANSI31
 40
1.0
 90
        0
290
     0
290
     0
 90
        6
 40
0.0
 40
1.57079633
 40
0.26179939
 40
1.30899694
 40
-0.26179939
 40
1.83259571
  0
TABLESTYLE
  5
D716
102
{ACAD_XDICTIONARY
360
D735
102
}
102
{ACAD_REACTORS
330
D715
102
}
330
D715
100
AcDbTableStyle
  3
Standard
 70
     0
 71
     0
 40
0.06
 41
0.06
280
     0
281
     0
  7
STANDARD
140
0.18
170
     2
 62
     0
 63
     7
283
     0
274
    -2
284
     1
 64
     0
275
    -2
285
     1
 65
     0
276
    -2
286
     1
 66
     0
277
    -2
287
     1
 67
     0
278
    -2
288
     1
 68
     0
279
    -2
289
     1
 69
     0
  7
STANDARD
140
0.25
170
     5
 62
     0
 63
     7
283
     0
274
    -2
284
     1
 64
     0
275
    -2
285
     1
 65
     0
276
    -2
286
     1
 66
     0
277
    -2
287
     1
 67
     0
278
    -2
288
     1
 68
     0
279
    -2
289
     1
 69
     0
  7
STANDARD
140
0.18
170
     5
 62
     0
 63
     7
283
     0
274
    -2
284
     1
 64
     0
275
    -2
285
     1
 65
     0
276
    -2
286
     1
 66
     0
277
    -2
287
     1
 67
     0
278
    -2
288
     1
 68
     0
279
    -2
289
     1
 69
     0
  0
VISUALSTYLE
  5
D701
102
{ACAD_XDICTIONARY
360
D792
102
}
102
{ACAD_REACTORS
330
D6FB
102
}
330
D6FB
100
AcDbVisualStyle
  2
2dWireframe
 70
     4
 71
     0
 72
     2
 73
     0
 90
        0
 40
-0.6
 41
-30.0
 62
     5
 63
     7
421
 16777215
 74
     1
 91
        4
 64
     7
 65
   257
 75
     1
175
     1
 42
1.0
 92
        0
 66
   257
 43
1.0
 76
     1
 77
     6
 78
     2
 67
     7
 79
     5
170
     0
171
     0
290
     0
174
     0
 93
        1
 44
0.0
173
     0
291
     0
 45
0.0
1001
ACAD
1000
AcDbSavedByObjectVersion
1070
     0
  0
VISUALSTYLE
  5
D700
102
{ACAD_XDICTIONARY
360
D790
102
}
102
{ACAD_REACTORS
330
D6FB
102
}
330
D6FB
100
AcDbVisualStyle
  2
Basic
 70
     7
 71
     1
 72
     0
 73
     1
 90
        0
 40
-0.6
 41
-30.0
 62
     5
 63
     7
421
 16777215
 74
     0
 91
        4
 64
     7
 65
   257
 75
     1
175
     1
 42
1.0
 92
        8
 66
     7
 43
1.0
 76
     1
 77
     6
 78
     2
 67
     7
 79
     5
170
     0
171
     0
290
     0
174
     0
 93
        1
 44
0.0
173
     0
291
     1
 45
0.0
1001
ACAD
1000
AcDbSavedByObjectVersion
1070
     0
  0
VISUALSTYLE
  5
D707
102
{ACAD_XDICTIONARY
360
D79E
102
}
102
{ACAD_REACTORS
330
D6FB
102
}
330
D6FB
100
AcDbVisualStyle
  2
Brighten
 70
    12
 71
     2
 72
     2
 73
     0
 90
        0
 40
-0.6
 41
-30.0
 62
     5
 63
     7
421
 16777215
 74
     1
 91
        4
 64
     7
 65
   257
 75
     1
175
     1
 42
1.0
 92
        8
 66
     7
 43
1.0
 76
     1
 77
     6
 78
     2
 67
     7
 79
     5
170
     0
171
     0
290
     0
174
     0
 93
        1
 44
50.0
173
     0
291
     1
 45
0.0
1001
ACAD
1000
AcDbSavedByObjectVersion
1070
     0
  0
VISUALSTYLE
  5
D70B
102
{ACAD_XDICTIONARY
360
D7A6
102
}
102
{ACAD_REACTORS
330
D6FB
102
}
330
D6FB
100
AcDbVisualStyle
  2
ColorChange
 70
    16
 71
     2
 72
     2
 73
     3
 90
        0
 40
-0.6
 41
-30.0
 62
     5
 63
     8
421
  8421504
 74
     1
 91
        4
 64
     7
 65
   257
 75
     1
175
     1
 42
1.0
 92
        8
 66
     8
424
  8421504
 43
1.0
 76
     1
 77
     6
 78
     2
 67
     7
 79
     5
170
     0
171
     0
290
     0
174
     0
 93
        1
 44
0.0
173
     0
291
     1
 45
0.0
1001
ACAD
1000
AcDbSavedByObjectVersion
1070
     0
  0
VISUALSTYLE
  5
D704
102
{ACAD_XDICTIONARY
360
D798
102
}
102
{ACAD_REACTORS
330
D6FB
102
}
330
D6FB
100
AcDbVisualStyle
  2
Conceptual
 70
     9
 71
     3
 72
     2
 73
     0
 90
        0
 40
-0.6
 41
-30.0
 62
     5
 63
     7
421
 16777215
 74
     2
 91
        2
 64
     7
 65
   257
 75
     1
175
     1
 42
179.0
 92
        8
 66
     7
 43
1.0
 76
     1
 77
     6
 78
     2
 67
     7
 79
     3
170
     0
171
     0
290
     0
174
     0
 93
        1
 44
0.0
173
     0
291
     0
 45
0.0
1001
ACAD
1000
AcDbSavedByObjectVersion
1070
     0
  0
VISUALSTYLE
  5
D706
102
{ACAD_XDICTIONARY
360
D79C
102
}
102
{ACAD_REACTORS
330
D6FB
102
}
330
D6FB
100
AcDbVisualStyle
  2
Dim
 70
    11
 71
     2
 72
     2
 73
     0
 90
        0
 40
-0.6
 41
-30.0
 62
     5
 63
     7
421
 16777215
 74
     1
 91
        4
 64
     7
 65
   257
 75
     1
175
     1
 42
1.0
 92
        8
 66
     7
 43
1.0
 76
     1
 77
     6
 78
     2
 67
     7
 79
     5
170
     0
171
     0
290
     0
174
     0
 93
        1
 44
-50.0
173
     0
291
     1
 45
0.0
1001
ACAD
1000
AcDbSavedByObjectVersion
1070
     0
  0
VISUALSTYLE
  5
D713
102
{ACAD_XDICTIONARY
360
D7B6
102
}
102
{ACAD_REACTORS
330
D6FB
102
}
330
D6FB
100
AcDbVisualStyle
  2
EdgeColorOff
 70
    22
 71
     2
 72
     2
 73
     0
 90
        0
 40
-0.6
 41
-30.0
 62
     5
 63
     7
421
 16777215
 74
     1
 91
        4
 64
     7
 65
   257
 75
     1
175
     1
 42
1.0
 92
        8
 66
     7
 43
1.0
 76
     1
 77
     6
 78
     2
 67
     7
 79
     5
170
     0
171
     0
290
     0
174
     0
 93
        1
 44
0.0
173
     0
291
     1
 45
0.0
1001
ACAD
1000
AcDbSavedByObjectVersion
1070
     0
  0
VISUALSTYLE
  5
D70A
102
{ACAD_XDICTIONARY
360
D7A4
102
}
102
{ACAD_REACTORS
330
D6FB
102
}
330
D6FB
100
AcDbVisualStyle
  2
Facepattern
 70
    15
 71
     2
 72
     2
 73
     0
 90
        0
 40
-0.6
 41
-30.0
 62
     5
 63
     7
421
 16777215
 74
     1
 91
        4
 64
     7
 65
   257
 75
     1
175
     1
 42
1.0
 92
        8
 66
     7
 43
1.0
 76
     1
 77
     6
 78
     2
 67
     7
 79
     5
170
     0
171
     0
290
     0
174
     0
 93
        1
 44
0.0
173
     0
291
     1
 45
0.0
1001
ACAD
1000
AcDbSavedByObjectVersion
1070
     0
  0
VISUALSTYLE
  5
D6FC
102
{ACAD_XDICTIONARY
360
D788
102
}
102
{ACAD_REACTORS
330
D6FB
102
}
330
D6FB
100
AcDbVisualStyle
  2
Flat
 70
     0
 71
     2
 72
     1
 73
     1
 90
        2
 40
-0.6
 41
30.0
 62
     5
 63
     7
421
 16777215
 74
     0
 91
        0
 64
     7
 65
   257
 75
     1
175
     1
 42
1.0
 92
        8
 66
     7
 43
1.0
 76
     1
 77
     6
 78
     2
 67
     7
 79
     5
170
     0
171
     0
290
     0
174
     0
 93
       13
 44
0.0
173
     0
291
     1
 45
0.0
1001
ACAD
1000
AcDbSavedByObjectVersion
1070
     0
  0
VISUALSTYLE
  5
D6FD
102
{ACAD_XDICTIONARY
360
D78A
102
}
102
{ACAD_REACTORS
330
D6FB
102
}
330
D6FB
100
AcDbVisualStyle
  2
FlatWithEdges
 70
     1
 71
     2
 72
     1
 73
     1
 90
        2
 40
-0.6
 41
30.0
 62
     5
 63
     7
421
 16777215
 74
     1
 91
        0
 64
     7
 65
   257
 75
     1
175
     1
 42
1.0
 92
        0
 66
   257
 43
1.0
 76
     1
 77
     6
 78
     2
 67
     7
 79
     5
170
     0
171
     0
290
     0
174
     0
 93
       13
 44
0.0
173
     0
291
     1
 45
0.0
1001
ACAD
1000
AcDbSavedByObjectVersion
1070
     0
  0
VISUALSTYLE
  5
D6FE
102
{ACAD_XDICTIONARY
360
D78C
102
}
102
{ACAD_REACTORS
330
D6FB
102
}
330
D6FB
100
AcDbVisualStyle
  2
Gouraud
 70
     2
 71
     2
 72
     2
 73
     1
 90
        2
 40
-0.6
 41
30.0
 62
     5
 63
     7
421
 16777215
 74
     0
 91
        0
 64
     7
 65
   257
 75
     1
175
     1
 42
1.0
 92
        0
 66
     7
 43
1.0
 76
     1
 77
     6
 78
     2
 67
     7
 79
     5
170
     0
171
     0
290
     0
174
     0
 93
       13
 44
0.0
173
     0
291
     1
 45
0.0
1001
ACAD
1000
AcDbSavedByObjectVersion
1070
     0
  0
VISUALSTYLE
  5
D6FF
102
{ACAD_XDICTIONARY
360
D78E
102
}
102
{ACAD_REACTORS
330
D6FB
102
}
330
D6FB
100
AcDbVisualStyle
  2
GouraudWithEdges
 70
     3
 71
     2
 72
     2
 73
     1
 90
        2
 40
-0.6
 41
30.0
 62
     5
 63
     7
421
 16777215
 74
     1
 91
        0
 64
     7
 65
   257
 75
     1
175
     1
 42
1.0
 92
        0
 66
   257
 43
1.0
 76
     1
 77
     6
 78
     2
 67
     7
 79
     5
170
     0
171
     0
290
     0
174
     0
 93
       13
 44
0.0
173
     0
291
     1
 45
0.0
1001
ACAD
1000
AcDbSavedByObjectVersion
1070
     0
  0
VISUALSTYLE
  5
D703
102
{ACAD_XDICTIONARY
360
D796
102
}
102
{ACAD_REACTORS
330
D6FB
102
}
330
D6FB
100
AcDbVisualStyle
  2
Hidden
 70
     6
 71
     1
 72
     2
 73
     2
 90
        0
 40
-0.6
 41
-30.0
 62
     5
 63
     7
421
 16777215
 74
     2
 91
        2
 64
     7
 65
   257
 75
     2
175
     1
 42
40.0
 92
        0
 66
   257
 43
1.0
 76
     1
 77
     6
 78
     2
 67
     7
 79
     3
170
     0
171
     0
290
     0
174
     0
 93
        1
 44
0.0
173
     0
291
     0
 45
0.0
1001
ACAD
1000
AcDbSavedByObjectVersion
1070
     0
  0
VISUALSTYLE
  5
D711
102
{ACAD_XDICTIONARY
360
D7B2
102
}
102
{ACAD_REACTORS
330
D6FB
102
}
330
D6FB
100
AcDbVisualStyle
  2
JitterOff
 70
    20
 71
     2
 72
     2
 73
     0
 90
        0
 40
-0.6
 41
-30.0
 62
     5
 63
     7
421
 16777215
 74
     1
 91
        4
 64
     7
 65
   257
 75
     1
175
     1
 42
1.0
 92
       10
 66
     7
 43
1.0
 76
     1
 77
     6
 78
     2
 67
     7
 79
     5
170
     0
171
     0
290
     0
174
     0
 93
        1
 44
0.0
173
     0
291
     1
 45
0.0
1001
ACAD
1000
AcDbSavedByObjectVersion
1070
     0
  0
VISUALSTYLE
  5
D709
102
{ACAD_XDICTIONARY
360
D7A2
102
}
102
{ACAD_REACTORS
330
D6FB
102
}
330
D6FB
100
AcDbVisualStyle
  2
Linepattern
 70
    14
 71
     2
 72
     2
 73
     0
 90
        0
 40
-0.6
 41
-30.0
 62
     5
 63
     7
421
 16777215
 74
     1
 91
        4
 64
     7
 65
   257
 75
     7
175
     7
 42
1.0
 92
        8
 66
     7
 43
1.0
 76
     1
 77
     6
 78
     2
 67
     7
 79
     5
170
     0
171
     0
290
     0
174
     0
 93
        1
 44
0.0
173
     0
291
     1
 45
0.0
1001
ACAD
1000
AcDbSavedByObjectVersion
1070
     0
  0
VISUALSTYLE
  5
D712
102
{ACAD_XDICTIONARY
360
D7B4
102
}
102
{ACAD_REACTORS
330
D6FB
102
}
330
D6FB
100
AcDbVisualStyle
  2
OverhangOff
 70
    21
 71
     2
 72
     2
 73
     0
 90
        0
 40
-0.6
 41
-30.0
 62
     5
 63
     7
421
 16777215
 74
     1
 91
        4
 64
     7
 65
   257
 75
     1
175
     1
 42
1.0
 92
        9
 66
     7
 43
1.0
 76
     1
 77
     6
 78
     2
 67
     7
 79
     5
170
     0
171
     0
290
     0
174
     0
 93
        1
 44
0.0
173
     0
291
     1
 45
0.0
1001
ACAD
1000
AcDbSavedByObjectVersion
1070
     0
  0
VISUALSTYLE
  5
D705
102
{ACAD_XDICTIONARY
360
D79A
102
}
102
{ACAD_REACTORS
330
D6FB
102
}
330
D6FB
100
AcDbVisualStyle
  2
Realistic
 70
     8
 71
     2
 72
     2
 73
     0
 90
        2
 40
-0.6
 41
30.0
 62
     5
 63
     7
421
 16777215
 74
     0
 91
        0
 64
     7
 65
   257
 75
     1
175
     1
 42
1.0
 92
        8
 66
   257
 43
1.0
 76
     1
 77
     6
 78
     2
 67
     7
 79
     3
170
     0
171
     0
290
     0
174
     0
 93
       13
 44
0.0
173
     0
291
     0
 45
0.0
1001
ACAD
1000
AcDbSavedByObjectVersion
1070
     0
  0
VISUALSTYLE
  5
D710
102
{ACAD_XDICTIONARY
360
D7B0
102
}
102
{ACAD_REACTORS
330
D6FB
102
}
330
D6FB
100
AcDbVisualStyle
  2
Shaded
 70
    27
 71
     2
 72
     2
 73
     1
 90
        2
 40
-0.6
 41
30.0
 62
     5
 63
     7
421
 16777215
 74
     0
 91
        4
 64
     7
 65
   257
 75
     1
175
     1
 42
1.0
 92
        8
 66
   257
 43
1.0
 76
     1
 77
     6
 78
     2
 67
     8
425
  7895160
 79
     3
170
     0
171
     0
290
     0
174
     0
 93
        5
 44
0.0
173
     0
291
     0
 45
0.0
1001
ACAD
1000
AcDbSavedByObjectVersion
1070
     0
  0
VISUALSTYLE
  5
D70F
102
{ACAD_XDICTIONARY
360
D7AE
102
}
102
{ACAD_REACTORS
330
D6FB
102
}
330
D6FB
100
AcDbVisualStyle
  2
Shaded with edges
 70
    26
 71
     2
 72
     2
 73
     1
 90
        2
 40
-0.6
 41
30.0
 62
     5
 63
     7
421
 16777215
 74
     1
 91
       10
 64
     7
 65
   257
 75
     2
175
     1
 42
1.0
 92
        8
 66
   257
 43
1.0
 76
     1
 77
     6
 78
     2
 67
     7
 79
     3
170
     0
171
     0
290
     0
174
     0
 93
        5
 44
0.0
173
     0
291
     0
 45
0.0
1001
ACAD
1000
AcDbSavedByObjectVersion
1070
     0
  0
VISUALSTYLE
  5
D70C
102
{ACAD_XDICTIONARY
360
D7A8
102
}
102
{ACAD_REACTORS
330
D6FB
102
}
330
D6FB
100
AcDbVisualStyle
  2
Shades of Gray
 70
    23
 71
     2
 72
     2
 73
     3
 90
        0
 40
-0.6
 41
-30.0
 62
     5
 63
     7
421
 16777215
 74
     2
 91
        2
 64
     7
 65
     7
 75
     1
175
     1
 42
40.0
 92
        8
 66
     7
 43
1.0
 76
     1
 77
     6
 78
     2
 67
     7
 79
     3
170
     0
171
     0
290
     0
174
     0
 93
        1
 44
0.0
173
     0
291
     0
 45
0.0
1001
ACAD
1000
AcDbSavedByObjectVersion
1070
     0
  0
VISUALSTYLE
  5
D70D
102
{ACAD_XDICTIONARY
360
D7AA
102
}
102
{ACAD_REACTORS
330
D6FB
102
}
330
D6FB
100
AcDbVisualStyle
  2
Sketchy
 70
    24
 71
     1
 72
     2
 73
     2
 90
        0
 40
-0.6
 41
-30.0
 62
     5
 63
     7
421
 16777215
 74
     2
 91
        2
 64
     7
 65
     7
 75
     1
175
     1
 42
40.0
 92
       11
 66
     7
 43
1.0
 76
     1
 77
     6
 78
     2
 67
     7
 79
     6
170
     0
171
     0
290
     0
174
     0
 93
        1
 44
0.0
173
     0
291
     0
 45
0.0
1001
ACAD
1000
AcDbSavedByObjectVersion
1070
     0
  0
VISUALSTYLE
  5
D708
102
{ACAD_XDICTIONARY
360
D7A0
102
}
102
{ACAD_REACTORS
330
D6FB
102
}
330
D6FB
100
AcDbVisualStyle
  2
Thicken
 70
    13
 71
     2
 72
     2
 73
     0
 90
        0
 40
-0.6
 41
-30.0
 62
     5
 63
     7
421
 16777215
 74
     1
 91
        4
 64
     7
 65
   257
 75
     1
175
     1
 42
1.0
 92
       12
 66
     7
 43
1.0
 76
     1
 77
     6
 78
     2
 67
     7
 79
     5
170
     0
171
     0
290
     0
174
     0
 93
        1
 44
0.0
173
     0
291
     1
 45
0.0
1001
ACAD
1000
AcDbSavedByObjectVersion
1070
     0
  0
VISUALSTYLE
  5
D702
102
{ACAD_XDICTIONARY
360
D794
102
}
102
{ACAD_REACTORS
330
D6FB
102
}
330
D6FB
100
AcDbVisualStyle
  2
Wireframe
 70
     5
 71
     0
 72
     2
 73
     0
 90
        0
 40
-0.6
 41
-30.0
 62
     5
 63
     7
421
 16777215
 74
     1
 91
        4
 64
     7
 65
   257
 75
     1
175
     1
 42
1.0
 92
        0
 66
   257
 43
1.0
 76
     1
 77
     6
 78
     2
 67
     7
 79
     3
170
     0
171
     0
290
     0
174
     0
 93
        1
 44
0.0
173
     0
291
     0
 45
0.0
1001
ACAD
1000
AcDbSavedByObjectVersion
1070
     0
  0
VISUALSTYLE
  5
D70E
102
{ACAD_XDICTIONARY
360
D7AC
102
}
102
{ACAD_REACTORS
330
D6FB
102
}
330
D6FB
100
AcDbVisualStyle
  2
X-Ray
 70
    25
 71
     2
 72
     2
 73
     1
 90
        1
 40
0.5
 41
-30.0
 62
     5
 63
     7
421
 16777215
 74
     1
 91
        0
 64
     7
 65
   257
 75
     1
175
     1
 42
1.0
 92
        8
 66
     7
 43
1.0
 76
     1
 77
     6
 78
     2
 67
     7
 79
     3
170
     0
171
     0
290
     0
174
     0
 93
       13
 44
0.0
173
     0
291
     0
 45
0.0
1001
ACAD
1000
AcDbSavedByObjectVersion
1070
     0
  0
DICTIONARYVAR
  5
D777
102
{ACAD_REACTORS
330
A917
102
}
330
A917
100
DictionaryVariables
280
     0
  1
1:1
  0
DICTIONARYVAR
  5
D774
102
{ACAD_REACTORS
330
A917
102
}
330
A917
100
DictionaryVariables
280
     0
  1
STANDARD
  0
DICTIONARYVAR
  5
D773
102
{ACAD_REACTORS
330
A917
102
}
330
A917
100
DictionaryVariables
280
     0
  1
STANDARD
  0
DICTIONARYVAR
  5
D775
102
{ACAD_REACTORS
330
A917
102
}
330
A917
100
DictionaryVariables
280
     0
  1
Imperial24
  0
DICTIONARYVAR
  5
D776
102
{ACAD_REACTORS
330
A917
102
}
330
A917
100
DictionaryVariables
280
     0
  1
Imperial24
  0
DICTIONARYVAR
  5
A918
102
{ACAD_REACTORS
330
A917
102
}
330
A917
100
DictionaryVariables
280
     0
  1
0
  0
DICTIONARYVAR
  5
D782
102
{ACAD_REACTORS
330
A917
102
}
330
A917
100
DictionaryVariables
280
     0
  1
2
  0
DICTIONARY
  5
D7BD
330
D72E
100
AcDbDictionary
280
     1
281
     1
  3
ACAD_XREC_ROUNDTRIP
360
D7BE
  0
DICTIONARY
  5
D6EC
330
D6EB
100
AcDbDictionary
280
     1
281
     1
  3
ACAD_XREC_ROUNDTRIP
360
D786
  3
BUMPTILE
360
D6EE
  3
DIFFUSETILE
360
D6ED
  3
OPACITYTILE
360
D6F1
  3
REFLECTIONTILE
360
D6F0
  3
REFRACTIONTILE
360
D6F2
  3
SPECULARTILE
360
D6EF
  0
DICTIONARY
  5
D6E4
330
D6E3
100
AcDbDictionary
280
     1
281
     1
  3
ACAD_XREC_ROUNDTRIP
360
D785
  3
BUMPTILE
360
D6E6
  3
DIFFUSETILE
360
D6E5
  3
OPACITYTILE
360
D6E9
  3
REFLECTIONTILE
360
D6E8
  3
REFRACTIONTILE
360
D6EA
  3
SPECULARTILE
360
D6E7
  0
DICTIONARY
  5
D6F4
330
D6F3
100
AcDbDictionary
280
     1
281
     1
  3
ACAD_XREC_ROUNDTRIP
360
D787
  3
BUMPTILE
360
D6F6
  3
DIFFUSETILE
360
D6F5
  3
OPACITYTILE
360
D6F9
  3
REFLECTIONTILE
360
D6F8
  3
REFRACTIONTILE
360
D6FA
  3
SPECULARTILE
360
D6F7
  0
DICTIONARY
  5
D7B9
330
D72A
100
AcDbDictionary
280
     1
281
     1
  3
ACAD_XREC_ROUNDTRIP
360
D7BA
  0
DICTIONARY
  5
D7BB
330
D72C
100
AcDbDictionary
280
     1
281
     1
  3
ACAD_XREC_ROUNDTRIP
360
D7BC
  0
DICTIONARY
  5
D735
330
D716
100
AcDbDictionary
280
     1
281
     1
  3
ACAD_ROUNDTRIP_2008_TABLESTYLE_CELLSTYLEMAP
360
D783
  3
ACAD_XREC_ROUNDTRIP
360
D7B8
  0
DICTIONARY
  5
D792
330
D701
100
AcDbDictionary
280
     1
281
     1
  3
ACAD_XREC_ROUNDTRIP
360
D793
  0
DICTIONARY
  5
D790
330
D700
100
AcDbDictionary
280
     1
281
     1
  3
ACAD_XREC_ROUNDTRIP
360
D791
  0
DICTIONARY
  5
D79E
330
D707
100
AcDbDictionary
280
     1
281
     1
  3
ACAD_XREC_ROUNDTRIP
360
D79F
  0
DICTIONARY
  5
D7A6
330
D70B
100
AcDbDictionary
280
     1
281
     1
  3
ACAD_XREC_ROUNDTRIP
360
D7A7
  0
DICTIONARY
  5
D798
330
D704
100
AcDbDictionary
280
     1
281
     1
  3
ACAD_XREC_ROUNDTRIP
360
D799
  0
DICTIONARY
  5
D79C
330
D706
100
AcDbDictionary
280
     1
281
     1
  3
ACAD_XREC_ROUNDTRIP
360
D79D
  0
DICTIONARY
  5
D7B6
330
D713
100
AcDbDictionary
280
     1
281
     1
  3
ACAD_XREC_ROUNDTRIP
360
D7B7
  0
DICTIONARY
  5
D7A4
330
D70A
100
AcDbDictionary
280
     1
281
     1
  3
ACAD_XREC_ROUNDTRIP
360
D7A5
  0
DICTIONARY
  5
D788
330
D6FC
100
AcDbDictionary
280
     1
281
     1
  3
ACAD_XREC_ROUNDTRIP
360
D789
  0
DICTIONARY
  5
D78A
330
D6FD
100
AcDbDictionary
280
     1
281
     1
  3
ACAD_XREC_ROUNDTRIP
360
D78B
  0
DICTIONARY
  5
D78C
330
D6FE
100
AcDbDictionary
280
     1
281
     1
  3
ACAD_XREC_ROUNDTRIP
360
D78D
  0
DICTIONARY
  5
D78E
330
D6FF
100
AcDbDictionary
280
     1
281
     1
  3
ACAD_XREC_ROUNDTRIP
360
D78F
  0
DICTIONARY
  5
D796
330
D703
100
AcDbDictionary
280
     1
281
     1
  3
ACAD_XREC_ROUNDTRIP
360
D797
  0
DICTIONARY
  5
D7B2
330
D711
100
AcDbDictionary
280
     1
281
     1
  3
ACAD_XREC_ROUNDTRIP
360
D7B3
  0
DICTIONARY
  5
D7A2
330
D709
100
AcDbDictionary
280
     1
281
     1
  3
ACAD_XREC_ROUNDTRIP
360
D7A3
  0
DICTIONARY
  5
D7B4
330
D712
100
AcDbDictionary
280
     1
281
     1
  3
ACAD_XREC_ROUNDTRIP
360
D7B5
  0
DICTIONARY
  5
D79A
330
D705
100
AcDbDictionary
280
     1
281
     1
  3
ACAD_XREC_ROUNDTRIP
360
D79B
  0
DICTIONARY
  5
D7B0
330
D710
100
AcDbDictionary
280
     1
281
     1
  3
ACAD_XREC_ROUNDTRIP
360
D7B1
  0
DICTIONARY
  5
D7AE
330
D70F
100
AcDbDictionary
280
     1
281
     1
  3
ACAD_XREC_ROUNDTRIP
360
D7AF
  0
DICTIONARY
  5
D7A8
330
D70C
100
AcDbDictionary
280
     1
281
     1
  3
ACAD_XREC_ROUNDTRIP
360
D7A9
  0
DICTIONARY
  5
D7AA
330
D70D
100
AcDbDictionary
280
     1
281
     1
  3
ACAD_XREC_ROUNDTRIP
360
D7AB
  0
DICTIONARY
  5
D7A0
330
D708
100
AcDbDictionary
280
     1
281
     1
  3
ACAD_XREC_ROUNDTRIP
360
D7A1
  0
DICTIONARY
  5
D794
330
D702
100
AcDbDictionary
280
     1
281
     1
  3
ACAD_XREC_ROUNDTRIP
360
D795
  0
DICTIONARY
  5
D7AC
330
D70E
100
AcDbDictionary
280
     1
281
     1
  3
ACAD_XREC_ROUNDTRIP
360
D7AD
  0
XRECORD
  5
D7BE
102
{ACAD_REACTORS
330
D7BD
102
}
330
D7BD
100
AcDbXrecord
280
     1
102
DISPLAYNAME
  1
Imperial24
102
FLAGS
 90
        0
  0
XRECORD
  5
D786
102
{ACAD_REACTORS
330
D6EC
102
}
330
D6EC
100
AcDbXrecord
280
     1
102
MATERIAL
148
0.0
149
0.0
149
0.0
 93
        0
 94
      127
282
     0
 72
     0
 77
     0
171
     0
175
     0
179
     0
273
     0
  0
XRECORD
  5
D6EE
102
{ACAD_REACTORS
330
D6EC
102
}
330
D6EC
100
AcDbXrecord
280
     1
270
     1
271
     1
  0
XRECORD
  5
D6ED
102
{ACAD_REACTORS
330
D6EC
102
}
330
D6EC
100
AcDbXrecord
280
     1
270
     1
271
     1
  0
XRECORD
  5
D6F1
102
{ACAD_REACTORS
330
D6EC
102
}
330
D6EC
100
AcDbXrecord
280
     1
270
     1
271
     1
  0
XRECORD
  5
D6F0
102
{ACAD_REACTORS
330
D6EC
102
}
330
D6EC
100
AcDbXrecord
280
     1
270
     1
271
     1
  0
XRECORD
  5
D6F2
102
{ACAD_REACTORS
330
D6EC
102
}
330
D6EC
100
AcDbXrecord
280
     1
270
     1
271
     1
  0
XRECORD
  5
D6EF
102
{ACAD_REACTORS
330
D6EC
102
}
330
D6EC
100
AcDbXrecord
280
     1
270
     1
271
     1
  0
XRECORD
  5
D785
102
{ACAD_REACTORS
330
D6E4
102
}
330
D6E4
100
AcDbXrecord
280
     1
102
MATERIAL
148
0.0
149
0.0
149
0.0
 93
        0
 94
      127
282
     0
 72
     0
 77
     0
171
     0
175
     0
179
     0
273
     0
  0
XRECORD
  5
D6E6
102
{ACAD_REACTORS
330
D6E4
102
}
330
D6E4
100
AcDbXrecord
280
     1
270
     1
271
     1
  0
XRECORD
  5
D6E5
102
{ACAD_REACTORS
330
D6E4
102
}
330
D6E4
100
AcDbXrecord
280
     1
270
     1
271
     1
  0
XRECORD
  5
D6E9
102
{ACAD_REACTORS
330
D6E4
102
}
330
D6E4
100
AcDbXrecord
280
     1
270
     1
271
     1
  0
XRECORD
  5
D6E8
102
{ACAD_REACTORS
330
D6E4
102
}
330
D6E4
100
AcDbXrecord
280
     1
270
     1
271
     1
  0
XRECORD
  5
D6EA
102
{ACAD_REACTORS
330
D6E4
102
}
330
D6E4
100
AcDbXrecord
280
     1
270
     1
271
     1
  0
XRECORD
  5
D6E7
102
{ACAD_REACTORS
330
D6E4
102
}
330
D6E4
100
AcDbXrecord
280
     1
270
     1
271
     1
  0
XRECORD
  5
D787
102
{ACAD_REACTORS
330
D6F4
102
}
330
D6F4
100
AcDbXrecord
280
     1
102
MATERIAL
148
0.0
149
0.0
149
0.0
 93
        0
 94
      127
282
     0
 72
     0
 77
     0
171
     0
175
     0
179
     0
273
     0
  0
XRECORD
  5
D6F6
102
{ACAD_REACTORS
330
D6F4
102
}
330
D6F4
100
AcDbXrecord
280
     1
270
     1
271
     1
  0
XRECORD
  5
D6F5
102
{ACAD_REACTORS
330
D6F4
102
}
330
D6F4
100
AcDbXrecord
280
     1
270
     1
271
     1
  0
XRECORD
  5
D6F9
102
{ACAD_REACTORS
330
D6F4
102
}
330
D6F4
100
AcDbXrecord
280
     1
270
     1
271
     1
  0
XRECORD
  5
D6F8
102
{ACAD_REACTORS
330
D6F4
102
}
330
D6F4
100
AcDbXrecord
280
     1
270
     1
271
     1
  0
XRECORD
  5
D6FA
102
{ACAD_REACTORS
330
D6F4
102
}
330
D6F4
100
AcDbXrecord
280
     1
270
     1
271
     1
  0
XRECORD
  5
D6F7
102
{ACAD_REACTORS
330
D6F4
102
}
330
D6F4
100
AcDbXrecord
280
     1
270
     1
271
     1
  0
XRECORD
  5
D7BA
102
{ACAD_REACTORS
330
D7B9
102
}
330
D7B9
100
AcDbXrecord
280
     1
102
ACAD_ROUNDTRIP_2012_MLEADER_STYLE
298
     1
  0
XRECORD
  5
D7BC
102
{ACAD_REACTORS
330
D7BB
102
}
330
D7BB
100
AcDbXrecord
280
     1
102
DISPLAYNAME
  1
Imperial24
102
FLAGS
 90
        0
  0
CELLSTYLEMAP
  5
D783
102
{ACAD_REACTORS
330
D735
102
}
330
D735
100
AcDbCellStyleMap
 90
        3
300
CELLSTYLE
  1
TABLEFORMAT_BEGIN
 90
        5
170
     1
 91
        0
 92
    32768
 62
   257
 93
        1
300
CONTENTFORMAT
  1
CONTENTFORMAT_BEGIN
 90
        0
 91
        0
 92
      512
 93
        0
300

 40
0.0
140
1.0
 94
        5
 62
     0
340
A8F4
144
0.25
309
CONTENTFORMAT_END
171
     0
 94
        0
309
TABLEFORMAT_END
  1
CELLSTYLE_BEGIN
 90
        1
 91
        1
300
_TITLE
309
CELLSTYLE_END
300
CELLSTYLE
  1
TABLEFORMAT_BEGIN
 90
        5
170
     1
 91
        0
 92
        0
 62
   257
 93
        1
300
CONTENTFORMAT
  1
CONTENTFORMAT_BEGIN
 90
        0
 91
        0
 92
      512
 93
        0
300

 40
0.0
140
1.0
 94
        5
 62
     0
340
A8F4
144
0.18
309
CONTENTFORMAT_END
171
     0
 94
        0
309
TABLEFORMAT_END
  1
CELLSTYLE_BEGIN
 90
        2
 91
        1
300
_HEADER
309
CELLSTYLE_END
300
CELLSTYLE
  1
TABLEFORMAT_BEGIN
 90
        5
170
     1
 91
        0
 92
        0
 62
   257
 93
        1
300
CONTENTFORMAT
  1
CONTENTFORMAT_BEGIN
 90
        0
 91
        0
 92
      512
 93
        0
300

 40
0.0
140
1.0
 94
        2
 62
     0
340
A8F4
144
0.18
309
CONTENTFORMAT_END
171
     0
 94
        0
309
TABLEFORMAT_END
  1
CELLSTYLE_BEGIN
 90
        3
 91
        2
300
_DATA
309
CELLSTYLE_END
  0
XRECORD
  5
D7B8
102
{ACAD_REACTORS
330
D735
102
}
330
D735
100
AcDbXrecord
280
     1
102
ACAD_ROUNDTRIP_PRE2007_TABLESTYLE
 90
      512
 91
        0
  1

 92
      512
 93
        0
  2

 94
      512
 95
        0
  3

  0
XRECORD
  5
D793
102
{ACAD_REACTORS
330
D792
102
}
330
D792
100
AcDbXrecord
280
     1
102
RTVSPost2010Prop28
280
     1
102
RTVSPost2010PropOp28
 70
     1
102
RTVSPost2010Prop29
280
     1
102
RTVSPost2010PropOp29
 70
     1
102
RTVSPost2010Prop30
280
     0
102
RTVSPost2010PropOp30
 70
     1
102
RTVSPost2010Prop31
280
     0
102
RTVSPost2010PropOp31
 70
     1
102
RTVSPost2010Prop32
280
     0
102
RTVSPost2010PropOp32
 70
     1
102
RTVSPost2010Prop33
280
     0
102
RTVSPost2010PropOp33
 70
     1
102
RTVSPost2010Prop34
280
     0
102
RTVSPost2010PropOp34
 70
     1
102
RTVSPost2010Prop35
280
     0
102
RTVSPost2010PropOp35
 70
     1
102
RTVSPost2010Prop36
280
     0
102
RTVSPost2010PropOp36
 70
     1
102
RTVSPost2010Prop37
 90
       50
102
RTVSPost2010PropOp37
 70
     1
102
RTVSPost2010Prop38
140
0.0
102
RTVSPost2010PropOp38
 70
     1
102
RTVSPost2010Prop39
140
1.0
102
RTVSPost2010PropOp39
 70
     1
102
RTVSPost2010Prop40
 90
        0
102
RTVSPost2010PropOp40
 70
     1
102
RTVSPost2010Prop41ColorIndex
 90
       18
102
RTVSPost2010Prop41ColorRGB
 90
        0
102
RTVSPost2010PropOp41
 70
     1
102
RTVSPost2010Prop42
 90
       50
102
RTVSPost2010PropOp42
 70
     1
102
RTVSPost2010Prop43
 90
        3
102
RTVSPost2010PropOp43
 70
     1
102
RTVSPost2010Prop44ColorIndex
 90
        5
102
RTVSPost2010Prop44ColorRGB
 90
      255
102
RTVSPost2010PropOp44
 70
     1
102
RTVSPost2010Prop45
280
     0
102
RTVSPost2010PropOp45
 70
     1
102
RTVSPost2010Prop46
 90
       50
102
RTVSPost2010PropOp46
 70
     1
102
RTVSPost2010Prop47
 90
       50
102
RTVSPost2010PropOp47
 70
     1
102
RTVSPost2010Prop48
 90
       50
102
RTVSPost2010PropOp48
 70
     1
102
RTVSPost2010Prop49
280
     0
102
RTVSPost2010PropOp49
 70
     1
102
RTVSPost2010Prop50
 90
       50
102
RTVSPost2010PropOp50
 70
     1
102
RTVSPost2010Prop51ColorIndex
 90
      256
102
RTVSPost2010Prop51ColorRGB
 90
-16777216
102
RTVSPost2010PropOp51
 70
     0
102
RTVSPost2010Prop52
140
1.0
102
RTVSPost2010PropOp52
 70
     0
102
RTVSPost2010Prop53
 90
        2
102
RTVSPost2010PropOp53
 70
     1
102
RTVSPost2010Prop54
  1
strokes_ogs.tif
102
RTVSPost2010PropOp54
 70
     1
102
RTVSPost2010Prop55
280
     0
102
RTVSPost2010PropOp55
 70
     1
102
RTVSPost2010Prop56
140
1.0
102
RTVSPost2010PropOp56
 70
     1
102
RTVSPost2010Prop57
140
1.0
102
RTVSPost2010PropOp57
 70
     1
102
RTVSPropertyOp0
 70
     1
102
RTVSPropertyOp1
 70
     1
102
RTVSPropertyOp2
 70
     1
102
RTVSPropertyOp3
 70
     1
102
RTVSPropertyOp4
 70
     1
102
RTVSPropertyOp5
 70
     1
102
RTVSPropertyOp6
 70
     1
102
RTVSPropertyOp7
 70
     1
102
RTVSPropertyOp8
 70
     1
102
RTVSPropertyOp9
 70
     1
102
RTVSPropertyOp10
 70
     1
102
RTVSPropertyOp11
 70
     1
102
RTVSPropertyOp12
 70
     1
102
RTVSPropertyOp13
 70
     1
102
RTVSPropertyOp14
 70
     1
102
RTVSPropertyOp15
 70
     1
102
RTVSPropertyOp16
 70
     1
102
RTVSPropertyOp17
 70
     1
102
RTVSPropertyOp18
 70
     1
102
RTVSPropertyOp19
 70
     1
102
RTVSPropertyOp20
 70
     1
102
RTVSPropertyOp21
 70
     1
102
RTVSPropertyOp22
 70
     1
102
RTVSPropertyOp23
 70
     1
102
RTVSPropertyOp24
 70
     1
102
RTVSPropertyOp25
 70
     1
102
RTVSPropertyOp26
 70
     1
102
RTVSPropertyOp27
 70
     1
102
RTVSPropertyOp28
 70
     1
102
RTVSPropertyOp29
 70
     1
102
RTVSPropertyOp30
 70
     1
102
RTVSPropertyOp31
 70
     1
102
RTVSPropertyOp32
 70
     1
102
RTVSPropertyOp33
 70
     1
102
RTVSPropertyOp34
 70
     1
102
RTVSPropertyOp35
 70
     1
102
RTVSPropertyOp36
 70
     1
102
RTVSPropertyOp37
 70
     1
102
RTVSPropertyOp38
 70
     1
102
RTVSPropertyOp39
 70
     1
102
RTVSPropertyOp40
 70
     1
102
RTVSPropertyOp41
 70
     1
102
RTVSPropertyOp42
 70
     1
102
RTVSPropertyOp43
 70
     1
102
RTVSPropertyOp44
 70
     1
102
RTVSPropertyOp45
 70
     1
102
RTVSPropertyOp46
 70
     1
102
RTVSPropertyOp47
 70
     1
102
RTVSPropertyOp48
 70
     1
102
RTVSPropertyOp49
 70
     1
102
RTVSPropertyOp50
 70
     1
102
RTVSPropertyOp51
 70
     0
102
RTVSPropertyOp52
 70
     0
102
RTVSPropertyOp53
 70
     1
102
RTVSPropertyOp54
 70
     1
102
RTVSPropertyOp55
 70
     1
102
RTVSPropertyOp56
 70
     1
102
RTVSPropertyOp57
 70
     1
102
RTVSPropertyOp58
 70
     1
102
RTVSPropertyOp59
 70
     1
102
RTVSPropertyOp60
 70
     1
102
RTVSPropertyOp61
 70
     1
102
RTVSPropertyOp62
 70
     1
  0
XRECORD
  5
D791
102
{ACAD_REACTORS
330
D790
102
}
330
D790
100
AcDbXrecord
280
     1
102
RTVSPost2010Prop28
280
     0
102
RTVSPost2010PropOp28
 70
     1
102
RTVSPost2010Prop29
280
     1
102
RTVSPost2010PropOp29
 70
     1
102
RTVSPost2010Prop30
280
     1
102
RTVSPost2010PropOp30
 70
     1
102
RTVSPost2010Prop31
280
     0
102
RTVSPost2010PropOp31
 70
     1
102
RTVSPost2010Prop32
280
     0
102
RTVSPost2010PropOp32
 70
     1
102
RTVSPost2010Prop33
280
     0
102
RTVSPost2010PropOp33
 70
     1
102
RTVSPost2010Prop34
280
     0
102
RTVSPost2010PropOp34
 70
     1
102
RTVSPost2010Prop35
280
     0
102
RTVSPost2010PropOp35
 70
     1
102
RTVSPost2010Prop36
280
     0
102
RTVSPost2010PropOp36
 70
     1
102
RTVSPost2010Prop37
 90
       50
102
RTVSPost2010PropOp37
 70
     1
102
RTVSPost2010Prop38
140
0.0
102
RTVSPost2010PropOp38
 70
     1
102
RTVSPost2010Prop39
140
1.0
102
RTVSPost2010PropOp39
 70
     1
102
RTVSPost2010Prop40
 90
        0
102
RTVSPost2010PropOp40
 70
     1
102
RTVSPost2010Prop41ColorIndex
 90
       18
102
RTVSPost2010Prop41ColorRGB
 90
        0
102
RTVSPost2010PropOp41
 70
     1
102
RTVSPost2010Prop42
 90
       50
102
RTVSPost2010PropOp42
 70
     1
102
RTVSPost2010Prop43
 90
        3
102
RTVSPost2010PropOp43
 70
     1
102
RTVSPost2010Prop44ColorIndex
 90
        5
102
RTVSPost2010Prop44ColorRGB
 90
      255
102
RTVSPost2010PropOp44
 70
     1
102
RTVSPost2010Prop45
280
     0
102
RTVSPost2010PropOp45
 70
     1
102
RTVSPost2010Prop46
 90
       50
102
RTVSPost2010PropOp46
 70
     1
102
RTVSPost2010Prop47
 90
       50
102
RTVSPost2010PropOp47
 70
     1
102
RTVSPost2010Prop48
 90
       50
102
RTVSPost2010PropOp48
 70
     1
102
RTVSPost2010Prop49
280
     0
102
RTVSPost2010PropOp49
 70
     1
102
RTVSPost2010Prop50
 90
       50
102
RTVSPost2010PropOp50
 70
     1
102
RTVSPost2010Prop51ColorIndex
 90
      256
102
RTVSPost2010Prop51ColorRGB
 90
-16777216
102
RTVSPost2010PropOp51
 70
     0
102
RTVSPost2010Prop52
140
1.0
102
RTVSPost2010PropOp52
 70
     0
102
RTVSPost2010Prop53
 90
        2
102
RTVSPost2010PropOp53
 70
     1
102
RTVSPost2010Prop54
  1
strokes_ogs.tif
102
RTVSPost2010PropOp54
 70
     1
102
RTVSPost2010Prop55
280
     0
102
RTVSPost2010PropOp55
 70
     1
102
RTVSPost2010Prop56
140
1.0
102
RTVSPost2010PropOp56
 70
     1
102
RTVSPost2010Prop57
140
1.0
102
RTVSPost2010PropOp57
 70
     1
102
RTVSPropertyOp0
 70
     1
102
RTVSPropertyOp1
 70
     1
102
RTVSPropertyOp2
 70
     1
102
RTVSPropertyOp3
 70
     1
102
RTVSPropertyOp4
 70
     1
102
RTVSPropertyOp5
 70
     1
102
RTVSPropertyOp6
 70
     1
102
RTVSPropertyOp7
 70
     1
102
RTVSPropertyOp8
 70
     1
102
RTVSPropertyOp9
 70
     1
102
RTVSPropertyOp10
 70
     1
102
RTVSPropertyOp11
 70
     1
102
RTVSPropertyOp12
 70
     1
102
RTVSPropertyOp13
 70
     1
102
RTVSPropertyOp14
 70
     1
102
RTVSPropertyOp15
 70
     1
102
RTVSPropertyOp16
 70
     1
102
RTVSPropertyOp17
 70
     1
102
RTVSPropertyOp18
 70
     1
102
RTVSPropertyOp19
 70
     1
102
RTVSPropertyOp20
 70
     1
102
RTVSPropertyOp21
 70
     1
102
RTVSPropertyOp22
 70
     1
102
RTVSPropertyOp23
 70
     1
102
RTVSPropertyOp24
 70
     1
102
RTVSPropertyOp25
 70
     1
102
RTVSPropertyOp26
 70
     1
102
RTVSPropertyOp27
 70
     1
102
RTVSPropertyOp28
 70
     1
102
RTVSPropertyOp29
 70
     1
102
RTVSPropertyOp30
 70
     1
102
RTVSPropertyOp31
 70
     1
102
RTVSPropertyOp32
 70
     1
102
RTVSPropertyOp33
 70
     1
102
RTVSPropertyOp34
 70
     1
102
RTVSPropertyOp35
 70
     1
102
RTVSPropertyOp36
 70
     1
102
RTVSPropertyOp37
 70
     1
102
RTVSPropertyOp38
 70
     1
102
RTVSPropertyOp39
 70
     1
102
RTVSPropertyOp40
 70
     1
102
RTVSPropertyOp41
 70
     1
102
RTVSPropertyOp42
 70
     1
102
RTVSPropertyOp43
 70
     1
102
RTVSPropertyOp44
 70
     1
102
RTVSPropertyOp45
 70
     1
102
RTVSPropertyOp46
 70
     1
102
RTVSPropertyOp47
 70
     1
102
RTVSPropertyOp48
 70
     1
102
RTVSPropertyOp49
 70
     1
102
RTVSPropertyOp50
 70
     1
102
RTVSPropertyOp51
 70
     0
102
RTVSPropertyOp52
 70
     0
102
RTVSPropertyOp53
 70
     1
102
RTVSPropertyOp54
 70
     1
102
RTVSPropertyOp55
 70
     1
102
RTVSPropertyOp56
 70
     1
102
RTVSPropertyOp57
 70
     1
102
RTVSPropertyOp58
 70
     1
102
RTVSPropertyOp59
 70
     1
102
RTVSPropertyOp60
 70
     1
102
RTVSPropertyOp61
 70
     1
102
RTVSPropertyOp62
 70
     1
  0
XRECORD
  5
D79F
102
{ACAD_REACTORS
330
D79E
102
}
330
D79E
100
AcDbXrecord
280
     1
102
RTVSPost2010Prop28
280
     0
102
RTVSPost2010PropOp28
 70
     1
102
RTVSPost2010Prop29
280
     1
102
RTVSPost2010PropOp29
 70
     1
102
RTVSPost2010Prop30
280
     1
102
RTVSPost2010PropOp30
 70
     1
102
RTVSPost2010Prop31
280
     0
102
RTVSPost2010PropOp31
 70
     1
102
RTVSPost2010Prop32
280
     0
102
RTVSPost2010PropOp32
 70
     1
102
RTVSPost2010Prop33
280
     0
102
RTVSPost2010PropOp33
 70
     1
102
RTVSPost2010Prop34
280
     0
102
RTVSPost2010PropOp34
 70
     1
102
RTVSPost2010Prop35
280
     0
102
RTVSPost2010PropOp35
 70
     1
102
RTVSPost2010Prop36
280
     0
102
RTVSPost2010PropOp36
 70
     1
102
RTVSPost2010Prop37
 90
       50
102
RTVSPost2010PropOp37
 70
     1
102
RTVSPost2010Prop38
140
0.0
102
RTVSPost2010PropOp38
 70
     1
102
RTVSPost2010Prop39
140
1.0
102
RTVSPost2010PropOp39
 70
     1
102
RTVSPost2010Prop40
 90
        0
102
RTVSPost2010PropOp40
 70
     1
102
RTVSPost2010Prop41ColorIndex
 90
       18
102
RTVSPost2010Prop41ColorRGB
 90
        0
102
RTVSPost2010PropOp41
 70
     1
102
RTVSPost2010Prop42
 90
       50
102
RTVSPost2010PropOp42
 70
     1
102
RTVSPost2010Prop43
 90
        3
102
RTVSPost2010PropOp43
 70
     1
102
RTVSPost2010Prop44ColorIndex
 90
        5
102
RTVSPost2010Prop44ColorRGB
 90
      255
102
RTVSPost2010PropOp44
 70
     1
102
RTVSPost2010Prop45
280
     0
102
RTVSPost2010PropOp45
 70
     1
102
RTVSPost2010Prop46
 90
       50
102
RTVSPost2010PropOp46
 70
     1
102
RTVSPost2010Prop47
 90
       50
102
RTVSPost2010PropOp47
 70
     1
102
RTVSPost2010Prop48
 90
       50
102
RTVSPost2010PropOp48
 70
     1
102
RTVSPost2010Prop49
280
     0
102
RTVSPost2010PropOp49
 70
     1
102
RTVSPost2010Prop50
 90
       50
102
RTVSPost2010PropOp50
 70
     1
102
RTVSPost2010Prop51ColorIndex
 90
      256
102
RTVSPost2010Prop51ColorRGB
 90
-16777216
102
RTVSPost2010PropOp51
 70
     0
102
RTVSPost2010Prop52
140
1.0
102
RTVSPost2010PropOp52
 70
     0
102
RTVSPost2010Prop53
 90
        2
102
RTVSPost2010PropOp53
 70
     1
102
RTVSPost2010Prop54
  1
strokes_ogs.tif
102
RTVSPost2010PropOp54
 70
     1
102
RTVSPost2010Prop55
280
     0
102
RTVSPost2010PropOp55
 70
     1
102
RTVSPost2010Prop56
140
1.0
102
RTVSPost2010PropOp56
 70
     1
102
RTVSPost2010Prop57
140
1.0
102
RTVSPost2010PropOp57
 70
     1
102
RTVSPropertyOp0
 70
     1
102
RTVSPropertyOp1
 70
     1
102
RTVSPropertyOp2
 70
     1
102
RTVSPropertyOp3
 70
     1
102
RTVSPropertyOp4
 70
     1
102
RTVSPropertyOp5
 70
     1
102
RTVSPropertyOp6
 70
     1
102
RTVSPropertyOp7
 70
     1
102
RTVSPropertyOp8
 70
     1
102
RTVSPropertyOp9
 70
     1
102
RTVSPropertyOp10
 70
     1
102
RTVSPropertyOp11
 70
     1
102
RTVSPropertyOp12
 70
     1
102
RTVSPropertyOp13
 70
     1
102
RTVSPropertyOp14
 70
     1
102
RTVSPropertyOp15
 70
     1
102
RTVSPropertyOp16
 70
     1
102
RTVSPropertyOp17
 70
     1
102
RTVSPropertyOp18
 70
     1
102
RTVSPropertyOp19
 70
     1
102
RTVSPropertyOp20
 70
     1
102
RTVSPropertyOp21
 70
     1
102
RTVSPropertyOp22
 70
     1
102
RTVSPropertyOp23
 70
     1
102
RTVSPropertyOp24
 70
     1
102
RTVSPropertyOp25
 70
     1
102
RTVSPropertyOp26
 70
     1
102
RTVSPropertyOp27
 70
     1
102
RTVSPropertyOp28
 70
     1
102
RTVSPropertyOp29
 70
     1
102
RTVSPropertyOp30
 70
     1
102
RTVSPropertyOp31
 70
     1
102
RTVSPropertyOp32
 70
     1
102
RTVSPropertyOp33
 70
     1
102
RTVSPropertyOp34
 70
     1
102
RTVSPropertyOp35
 70
     1
102
RTVSPropertyOp36
 70
     1
102
RTVSPropertyOp37
 70
     1
102
RTVSPropertyOp38
 70
     1
102
RTVSPropertyOp39
 70
     1
102
RTVSPropertyOp40
 70
     1
102
RTVSPropertyOp41
 70
     1
102
RTVSPropertyOp42
 70
     1
102
RTVSPropertyOp43
 70
     1
102
RTVSPropertyOp44
 70
     1
102
RTVSPropertyOp45
 70
     1
102
RTVSPropertyOp46
 70
     1
102
RTVSPropertyOp47
 70
     1
102
RTVSPropertyOp48
 70
     1
102
RTVSPropertyOp49
 70
     1
102
RTVSPropertyOp50
 70
     1
102
RTVSPropertyOp51
 70
     0
102
RTVSPropertyOp52
 70
     0
102
RTVSPropertyOp53
 70
     1
102
RTVSPropertyOp54
 70
     1
102
RTVSPropertyOp55
 70
     1
102
RTVSPropertyOp56
 70
     1
102
RTVSPropertyOp57
 70
     1
102
RTVSPropertyOp58
 70
     1
102
RTVSPropertyOp59
 70
     1
102
RTVSPropertyOp60
 70
     1
102
RTVSPropertyOp61
 70
     1
102
RTVSPropertyOp62
 70
     1
  0
XRECORD
  5
D7A7
102
{ACAD_REACTORS
330
D7A6
102
}
330
D7A6
100
AcDbXrecord
280
     1
102
RTVSPost2010Prop28
280
     0
102
RTVSPost2010PropOp28
 70
     1
102
RTVSPost2010Prop29
280
     1
102
RTVSPost2010PropOp29
 70
     1
102
RTVSPost2010Prop30
280
     1
102
RTVSPost2010PropOp30
 70
     1
102
RTVSPost2010Prop31
280
     0
102
RTVSPost2010PropOp31
 70
     1
102
RTVSPost2010Prop32
280
     0
102
RTVSPost2010PropOp32
 70
     1
102
RTVSPost2010Prop33
280
     0
102
RTVSPost2010PropOp33
 70
     1
102
RTVSPost2010Prop34
280
     0
102
RTVSPost2010PropOp34
 70
     1
102
RTVSPost2010Prop35
280
     0
102
RTVSPost2010PropOp35
 70
     1
102
RTVSPost2010Prop36
280
     0
102
RTVSPost2010PropOp36
 70
     1
102
RTVSPost2010Prop37
 90
       50
102
RTVSPost2010PropOp37
 70
     1
102
RTVSPost2010Prop38
140
0.0
102
RTVSPost2010PropOp38
 70
     1
102
RTVSPost2010Prop39
140
1.0
102
RTVSPost2010PropOp39
 70
     1
102
RTVSPost2010Prop40
 90
        0
102
RTVSPost2010PropOp40
 70
     1
102
RTVSPost2010Prop41ColorIndex
 90
       18
102
RTVSPost2010Prop41ColorRGB
 90
        0
102
RTVSPost2010PropOp41
 70
     1
102
RTVSPost2010Prop42
 90
       50
102
RTVSPost2010PropOp42
 70
     1
102
RTVSPost2010Prop43
 90
        3
102
RTVSPost2010PropOp43
 70
     1
102
RTVSPost2010Prop44ColorIndex
 90
        5
102
RTVSPost2010Prop44ColorRGB
 90
      255
102
RTVSPost2010PropOp44
 70
     1
102
RTVSPost2010Prop45
280
     0
102
RTVSPost2010PropOp45
 70
     1
102
RTVSPost2010Prop46
 90
       50
102
RTVSPost2010PropOp46
 70
     1
102
RTVSPost2010Prop47
 90
       50
102
RTVSPost2010PropOp47
 70
     1
102
RTVSPost2010Prop48
 90
       50
102
RTVSPost2010PropOp48
 70
     1
102
RTVSPost2010Prop49
280
     0
102
RTVSPost2010PropOp49
 70
     1
102
RTVSPost2010Prop50
 90
       50
102
RTVSPost2010PropOp50
 70
     1
102
RTVSPost2010Prop51ColorIndex
 90
      256
102
RTVSPost2010Prop51ColorRGB
 90
-16777216
102
RTVSPost2010PropOp51
 70
     0
102
RTVSPost2010Prop52
140
1.0
102
RTVSPost2010PropOp52
 70
     0
102
RTVSPost2010Prop53
 90
        2
102
RTVSPost2010PropOp53
 70
     1
102
RTVSPost2010Prop54
  1
strokes_ogs.tif
102
RTVSPost2010PropOp54
 70
     1
102
RTVSPost2010Prop55
280
     0
102
RTVSPost2010PropOp55
 70
     1
102
RTVSPost2010Prop56
140
1.0
102
RTVSPost2010PropOp56
 70
     1
102
RTVSPost2010Prop57
140
1.0
102
RTVSPost2010PropOp57
 70
     1
102
RTVSPropertyOp0
 70
     1
102
RTVSPropertyOp1
 70
     1
102
RTVSPropertyOp2
 70
     1
102
RTVSPropertyOp3
 70
     1
102
RTVSPropertyOp4
 70
     1
102
RTVSPropertyOp5
 70
     1
102
RTVSPropertyOp6
 70
     1
102
RTVSPropertyOp7
 70
     1
102
RTVSPropertyOp8
 70
     1
102
RTVSPropertyOp9
 70
     1
102
RTVSPropertyOp10
 70
     1
102
RTVSPropertyOp11
 70
     1
102
RTVSPropertyOp12
 70
     1
102
RTVSPropertyOp13
 70
     1
102
RTVSPropertyOp14
 70
     1
102
RTVSPropertyOp15
 70
     1
102
RTVSPropertyOp16
 70
     1
102
RTVSPropertyOp17
 70
     1
102
RTVSPropertyOp18
 70
     1
102
RTVSPropertyOp19
 70
     1
102
RTVSPropertyOp20
 70
     1
102
RTVSPropertyOp21
 70
     1
102
RTVSPropertyOp22
 70
     1
102
RTVSPropertyOp23
 70
     1
102
RTVSPropertyOp24
 70
     1
102
RTVSPropertyOp25
 70
     1
102
RTVSPropertyOp26
 70
     1
102
RTVSPropertyOp27
 70
     1
102
RTVSPropertyOp28
 70
     1
102
RTVSPropertyOp29
 70
     1
102
RTVSPropertyOp30
 70
     1
102
RTVSPropertyOp31
 70
     1
102
RTVSPropertyOp32
 70
     1
102
RTVSPropertyOp33
 70
     1
102
RTVSPropertyOp34
 70
     1
102
RTVSPropertyOp35
 70
     1
102
RTVSPropertyOp36
 70
     1
102
RTVSPropertyOp37
 70
     1
102
RTVSPropertyOp38
 70
     1
102
RTVSPropertyOp39
 70
     1
102
RTVSPropertyOp40
 70
     1
102
RTVSPropertyOp41
 70
     1
102
RTVSPropertyOp42
 70
     1
102
RTVSPropertyOp43
 70
     1
102
RTVSPropertyOp44
 70
     1
102
RTVSPropertyOp45
 70
     1
102
RTVSPropertyOp46
 70
     1
102
RTVSPropertyOp47
 70
     1
102
RTVSPropertyOp48
 70
     1
102
RTVSPropertyOp49
 70
     1
102
RTVSPropertyOp50
 70
     1
102
RTVSPropertyOp51
 70
     0
102
RTVSPropertyOp52
 70
     0
102
RTVSPropertyOp53
 70
     1
102
RTVSPropertyOp54
 70
     1
102
RTVSPropertyOp55
 70
     1
102
RTVSPropertyOp56
 70
     1
102
RTVSPropertyOp57
 70
     1
102
RTVSPropertyOp58
 70
     1
102
RTVSPropertyOp59
 70
     1
102
RTVSPropertyOp60
 70
     1
102
RTVSPropertyOp61
 70
     1
102
RTVSPropertyOp62
 70
     1
  0
XRECORD
  5
D799
102
{ACAD_REACTORS
330
D798
102
}
330
D798
100
AcDbXrecord
280
     1
102
RTVSPost2010Prop28
280
     0
102
RTVSPost2010PropOp28
 70
     1
102
RTVSPost2010Prop29
280
     1
102
RTVSPost2010PropOp29
 70
     1
102
RTVSPost2010Prop30
280
     1
102
RTVSPost2010PropOp30
 70
     1
102
RTVSPost2010Prop31
280
     0
102
RTVSPost2010PropOp31
 70
     1
102
RTVSPost2010Prop32
280
     0
102
RTVSPost2010PropOp32
 70
     1
102
RTVSPost2010Prop33
280
     0
102
RTVSPost2010PropOp33
 70
     1
102
RTVSPost2010Prop34
280
     0
102
RTVSPost2010PropOp34
 70
     1
102
RTVSPost2010Prop35
280
     0
102
RTVSPost2010PropOp35
 70
     1
102
RTVSPost2010Prop36
280
     0
102
RTVSPost2010PropOp36
 70
     1
102
RTVSPost2010Prop37
 90
       50
102
RTVSPost2010PropOp37
 70
     1
102
RTVSPost2010Prop38
140
0.0
102
RTVSPost2010PropOp38
 70
     1
102
RTVSPost2010Prop39
140
1.0
102
RTVSPost2010PropOp39
 70
     1
102
RTVSPost2010Prop40
 90
        0
102
RTVSPost2010PropOp40
 70
     1
102
RTVSPost2010Prop41ColorIndex
 90
       18
102
RTVSPost2010Prop41ColorRGB
 90
        0
102
RTVSPost2010PropOp41
 70
     1
102
RTVSPost2010Prop42
 90
       50
102
RTVSPost2010PropOp42
 70
     1
102
RTVSPost2010Prop43
 90
        3
102
RTVSPost2010PropOp43
 70
     1
102
RTVSPost2010Prop44ColorIndex
 90
        5
102
RTVSPost2010Prop44ColorRGB
 90
      255
102
RTVSPost2010PropOp44
 70
     1
102
RTVSPost2010Prop45
280
     0
102
RTVSPost2010PropOp45
 70
     1
102
RTVSPost2010Prop46
 90
       50
102
RTVSPost2010PropOp46
 70
     1
102
RTVSPost2010Prop47
 90
       50
102
RTVSPost2010PropOp47
 70
     1
102
RTVSPost2010Prop48
 90
       50
102
RTVSPost2010PropOp48
 70
     1
102
RTVSPost2010Prop49
280
     0
102
RTVSPost2010PropOp49
 70
     1
102
RTVSPost2010Prop50
 90
       50
102
RTVSPost2010PropOp50
 70
     1
102
RTVSPost2010Prop51ColorIndex
 90
      256
102
RTVSPost2010Prop51ColorRGB
 90
-16777216
102
RTVSPost2010PropOp51
 70
     0
102
RTVSPost2010Prop52
140
1.0
102
RTVSPost2010PropOp52
 70
     0
102
RTVSPost2010Prop53
 90
        2
102
RTVSPost2010PropOp53
 70
     1
102
RTVSPost2010Prop54
  1
strokes_ogs.tif
102
RTVSPost2010PropOp54
 70
     1
102
RTVSPost2010Prop55
280
     0
102
RTVSPost2010PropOp55
 70
     1
102
RTVSPost2010Prop56
140
1.0
102
RTVSPost2010PropOp56
 70
     1
102
RTVSPost2010Prop57
140
1.0
102
RTVSPost2010PropOp57
 70
     1
102
RTVSPropertyOp0
 70
     1
102
RTVSPropertyOp1
 70
     1
102
RTVSPropertyOp2
 70
     1
102
RTVSPropertyOp3
 70
     1
102
RTVSPropertyOp4
 70
     1
102
RTVSPropertyOp5
 70
     1
102
RTVSPropertyOp6
 70
     1
102
RTVSPropertyOp7
 70
     1
102
RTVSPropertyOp8
 70
     1
102
RTVSPropertyOp9
 70
     1
102
RTVSPropertyOp10
 70
     1
102
RTVSPropertyOp11
 70
     1
102
RTVSPropertyOp12
 70
     1
102
RTVSPropertyOp13
 70
     1
102
RTVSPropertyOp14
 70
     1
102
RTVSPropertyOp15
 70
     1
102
RTVSPropertyOp16
 70
     1
102
RTVSPropertyOp17
 70
     1
102
RTVSPropertyOp18
 70
     1
102
RTVSPropertyOp19
 70
     1
102
RTVSPropertyOp20
 70
     1
102
RTVSPropertyOp21
 70
     1
102
RTVSPropertyOp22
 70
     1
102
RTVSPropertyOp23
 70
     1
102
RTVSPropertyOp24
 70
     1
102
RTVSPropertyOp25
 70
     1
102
RTVSPropertyOp26
 70
     1
102
RTVSPropertyOp27
 70
     1
102
RTVSPropertyOp28
 70
     1
102
RTVSPropertyOp29
 70
     1
102
RTVSPropertyOp30
 70
     1
102
RTVSPropertyOp31
 70
     1
102
RTVSPropertyOp32
 70
     1
102
RTVSPropertyOp33
 70
     1
102
RTVSPropertyOp34
 70
     1
102
RTVSPropertyOp35
 70
     1
102
RTVSPropertyOp36
 70
     1
102
RTVSPropertyOp37
 70
     1
102
RTVSPropertyOp38
 70
     1
102
RTVSPropertyOp39
 70
     1
102
RTVSPropertyOp40
 70
     1
102
RTVSPropertyOp41
 70
     1
102
RTVSPropertyOp42
 70
     1
102
RTVSPropertyOp43
 70
     1
102
RTVSPropertyOp44
 70
     1
102
RTVSPropertyOp45
 70
     1
102
RTVSPropertyOp46
 70
     1
102
RTVSPropertyOp47
 70
     1
102
RTVSPropertyOp48
 70
     1
102
RTVSPropertyOp49
 70
     1
102
RTVSPropertyOp50
 70
     1
102
RTVSPropertyOp51
 70
     0
102
RTVSPropertyOp52
 70
     0
102
RTVSPropertyOp53
 70
     1
102
RTVSPropertyOp54
 70
     1
102
RTVSPropertyOp55
 70
     1
102
RTVSPropertyOp56
 70
     1
102
RTVSPropertyOp57
 70
     1
102
RTVSPropertyOp58
 70
     1
102
RTVSPropertyOp59
 70
     1
102
RTVSPropertyOp60
 70
     1
102
RTVSPropertyOp61
 70
     1
102
RTVSPropertyOp62
 70
     1
  0
XRECORD
  5
D79D
102
{ACAD_REACTORS
330
D79C
102
}
330
D79C
100
AcDbXrecord
280
     1
102
RTVSPost2010Prop28
280
     0
102
RTVSPost2010PropOp28
 70
     1
102
RTVSPost2010Prop29
280
     1
102
RTVSPost2010PropOp29
 70
     1
102
RTVSPost2010Prop30
280
     1
102
RTVSPost2010PropOp30
 70
     1
102
RTVSPost2010Prop31
280
     0
102
RTVSPost2010PropOp31
 70
     1
102
RTVSPost2010Prop32
280
     0
102
RTVSPost2010PropOp32
 70
     1
102
RTVSPost2010Prop33
280
     0
102
RTVSPost2010PropOp33
 70
     1
102
RTVSPost2010Prop34
280
     0
102
RTVSPost2010PropOp34
 70
     1
102
RTVSPost2010Prop35
280
     0
102
RTVSPost2010PropOp35
 70
     1
102
RTVSPost2010Prop36
280
     0
102
RTVSPost2010PropOp36
 70
     1
102
RTVSPost2010Prop37
 90
       50
102
RTVSPost2010PropOp37
 70
     1
102
RTVSPost2010Prop38
140
0.0
102
RTVSPost2010PropOp38
 70
     1
102
RTVSPost2010Prop39
140
1.0
102
RTVSPost2010PropOp39
 70
     1
102
RTVSPost2010Prop40
 90
        0
102
RTVSPost2010PropOp40
 70
     1
102
RTVSPost2010Prop41ColorIndex
 90
       18
102
RTVSPost2010Prop41ColorRGB
 90
        0
102
RTVSPost2010PropOp41
 70
     1
102
RTVSPost2010Prop42
 90
       50
102
RTVSPost2010PropOp42
 70
     1
102
RTVSPost2010Prop43
 90
        3
102
RTVSPost2010PropOp43
 70
     1
102
RTVSPost2010Prop44ColorIndex
 90
        5
102
RTVSPost2010Prop44ColorRGB
 90
      255
102
RTVSPost2010PropOp44
 70
     1
102
RTVSPost2010Prop45
280
     0
102
RTVSPost2010PropOp45
 70
     1
102
RTVSPost2010Prop46
 90
       50
102
RTVSPost2010PropOp46
 70
     1
102
RTVSPost2010Prop47
 90
       50
102
RTVSPost2010PropOp47
 70
     1
102
RTVSPost2010Prop48
 90
       50
102
RTVSPost2010PropOp48
 70
     1
102
RTVSPost2010Prop49
280
     0
102
RTVSPost2010PropOp49
 70
     1
102
RTVSPost2010Prop50
 90
       50
102
RTVSPost2010PropOp50
 70
     1
102
RTVSPost2010Prop51ColorIndex
 90
      256
102
RTVSPost2010Prop51ColorRGB
 90
-16777216
102
RTVSPost2010PropOp51
 70
     0
102
RTVSPost2010Prop52
140
1.0
102
RTVSPost2010PropOp52
 70
     0
102
RTVSPost2010Prop53
 90
        2
102
RTVSPost2010PropOp53
 70
     1
102
RTVSPost2010Prop54
  1
strokes_ogs.tif
102
RTVSPost2010PropOp54
 70
     1
102
RTVSPost2010Prop55
280
     0
102
RTVSPost2010PropOp55
 70
     1
102
RTVSPost2010Prop56
140
1.0
102
RTVSPost2010PropOp56
 70
     1
102
RTVSPost2010Prop57
140
1.0
102
RTVSPost2010PropOp57
 70
     1
102
RTVSPropertyOp0
 70
     1
102
RTVSPropertyOp1
 70
     1
102
RTVSPropertyOp2
 70
     1
102
RTVSPropertyOp3
 70
     1
102
RTVSPropertyOp4
 70
     1
102
RTVSPropertyOp5
 70
     1
102
RTVSPropertyOp6
 70
     1
102
RTVSPropertyOp7
 70
     1
102
RTVSPropertyOp8
 70
     1
102
RTVSPropertyOp9
 70
     1
102
RTVSPropertyOp10
 70
     1
102
RTVSPropertyOp11
 70
     1
102
RTVSPropertyOp12
 70
     1
102
RTVSPropertyOp13
 70
     1
102
RTVSPropertyOp14
 70
     1
102
RTVSPropertyOp15
 70
     1
102
RTVSPropertyOp16
 70
     1
102
RTVSPropertyOp17
 70
     1
102
RTVSPropertyOp18
 70
     1
102
RTVSPropertyOp19
 70
     1
102
RTVSPropertyOp20
 70
     1
102
RTVSPropertyOp21
 70
     1
102
RTVSPropertyOp22
 70
     1
102
RTVSPropertyOp23
 70
     1
102
RTVSPropertyOp24
 70
     1
102
RTVSPropertyOp25
 70
     1
102
RTVSPropertyOp26
 70
     1
102
RTVSPropertyOp27
 70
     1
102
RTVSPropertyOp28
 70
     1
102
RTVSPropertyOp29
 70
     1
102
RTVSPropertyOp30
 70
     1
102
RTVSPropertyOp31
 70
     1
102
RTVSPropertyOp32
 70
     1
102
RTVSPropertyOp33
 70
     1
102
RTVSPropertyOp34
 70
     1
102
RTVSPropertyOp35
 70
     1
102
RTVSPropertyOp36
 70
     1
102
RTVSPropertyOp37
 70
     1
102
RTVSPropertyOp38
 70
     1
102
RTVSPropertyOp39
 70
     1
102
RTVSPropertyOp40
 70
     1
102
RTVSPropertyOp41
 70
     1
102
RTVSPropertyOp42
 70
     1
102
RTVSPropertyOp43
 70
     1
102
RTVSPropertyOp44
 70
     1
102
RTVSPropertyOp45
 70
     1
102
RTVSPropertyOp46
 70
     1
102
RTVSPropertyOp47
 70
     1
102
RTVSPropertyOp48
 70
     1
102
RTVSPropertyOp49
 70
     1
102
RTVSPropertyOp50
 70
     1
102
RTVSPropertyOp51
 70
     0
102
RTVSPropertyOp52
 70
     0
102
RTVSPropertyOp53
 70
     1
102
RTVSPropertyOp54
 70
     1
102
RTVSPropertyOp55
 70
     1
102
RTVSPropertyOp56
 70
     1
102
RTVSPropertyOp57
 70
     1
102
RTVSPropertyOp58
 70
     1
102
RTVSPropertyOp59
 70
     1
102
RTVSPropertyOp60
 70
     1
102
RTVSPropertyOp61
 70
     1
102
RTVSPropertyOp62
 70
     1
  0
XRECORD
  5
D7B7
102
{ACAD_REACTORS
330
D7B6
102
}
330
D7B6
100
AcDbXrecord
280
     1
102
RTVSPost2010Prop28
280
     0
102
RTVSPost2010PropOp28
 70
     0
102
RTVSPost2010Prop29
280
     1
102
RTVSPost2010PropOp29
 70
     0
102
RTVSPost2010Prop30
280
     1
102
RTVSPost2010PropOp30
 70
     0
102
RTVSPost2010Prop31
280
     0
102
RTVSPost2010PropOp31
 70
     0
102
RTVSPost2010Prop32
280
     0
102
RTVSPost2010PropOp32
 70
     0
102
RTVSPost2010Prop33
280
     0
102
RTVSPost2010PropOp33
 70
     0
102
RTVSPost2010Prop34
280
     0
102
RTVSPost2010PropOp34
 70
     0
102
RTVSPost2010Prop35
280
     0
102
RTVSPost2010PropOp35
 70
     0
102
RTVSPost2010Prop36
280
     0
102
RTVSPost2010PropOp36
 70
     0
102
RTVSPost2010Prop37
 90
       50
102
RTVSPost2010PropOp37
 70
     0
102
RTVSPost2010Prop38
140
0.0
102
RTVSPost2010PropOp38
 70
     0
102
RTVSPost2010Prop39
140
1.0
102
RTVSPost2010PropOp39
 70
     0
102
RTVSPost2010Prop40
 90
        0
102
RTVSPost2010PropOp40
 70
     0
102
RTVSPost2010Prop41ColorIndex
 90
       18
102
RTVSPost2010Prop41ColorRGB
 90
        0
102
RTVSPost2010PropOp41
 70
     0
102
RTVSPost2010Prop42
 90
       50
102
RTVSPost2010PropOp42
 70
     0
102
RTVSPost2010Prop43
 90
        3
102
RTVSPost2010PropOp43
 70
     0
102
RTVSPost2010Prop44ColorIndex
 90
        5
102
RTVSPost2010Prop44ColorRGB
 90
      255
102
RTVSPost2010PropOp44
 70
     0
102
RTVSPost2010Prop45
280
     0
102
RTVSPost2010PropOp45
 70
     0
102
RTVSPost2010Prop46
 90
       50
102
RTVSPost2010PropOp46
 70
     0
102
RTVSPost2010Prop47
 90
       50
102
RTVSPost2010PropOp47
 70
     0
102
RTVSPost2010Prop48
 90
       50
102
RTVSPost2010PropOp48
 70
     0
102
RTVSPost2010Prop49
280
     0
102
RTVSPost2010PropOp49
 70
     0
102
RTVSPost2010Prop50
 90
       50
102
RTVSPost2010PropOp50
 70
     0
102
RTVSPost2010Prop51ColorIndex
 90
      256
102
RTVSPost2010Prop51ColorRGB
 90
-16777216
102
RTVSPost2010PropOp51
 70
     0
102
RTVSPost2010Prop52
140
1.0
102
RTVSPost2010PropOp52
 70
     0
102
RTVSPost2010Prop53
 90
        2
102
RTVSPost2010PropOp53
 70
     0
102
RTVSPost2010Prop54
  1
strokes_ogs.tif
102
RTVSPost2010PropOp54
 70
     0
102
RTVSPost2010Prop55
280
     0
102
RTVSPost2010PropOp55
 70
     0
102
RTVSPost2010Prop56
140
1.0
102
RTVSPost2010PropOp56
 70
     0
102
RTVSPost2010Prop57
140
1.0
102
RTVSPost2010PropOp57
 70
     0
102
RTVSPropertyOp0
 70
     0
102
RTVSPropertyOp1
 70
     0
102
RTVSPropertyOp2
 70
     0
102
RTVSPropertyOp3
 70
     0
102
RTVSPropertyOp4
 70
     0
102
RTVSPropertyOp5
 70
     0
102
RTVSPropertyOp6
 70
     0
102
RTVSPropertyOp7
 70
     0
102
RTVSPropertyOp8
 70
     0
102
RTVSPropertyOp9
 70
     0
102
RTVSPropertyOp10
 70
     0
102
RTVSPropertyOp11
 70
     0
102
RTVSPropertyOp12
 70
     0
102
RTVSPropertyOp13
 70
     0
102
RTVSPropertyOp14
 70
     2
102
RTVSPropertyOp15
 70
     0
102
RTVSPropertyOp16
 70
     0
102
RTVSPropertyOp17
 70
     0
102
RTVSPropertyOp18
 70
     0
102
RTVSPropertyOp19
 70
     0
102
RTVSPropertyOp20
 70
     0
102
RTVSPropertyOp21
 70
     0
102
RTVSPropertyOp22
 70
     0
102
RTVSPropertyOp23
 70
     0
102
RTVSPropertyOp24
 70
     0
102
RTVSPropertyOp25
 70
     0
102
RTVSPropertyOp26
 70
     0
102
RTVSPropertyOp27
 70
     0
102
RTVSPropertyOp28
 70
     0
102
RTVSPropertyOp29
 70
     0
102
RTVSPropertyOp30
 70
     0
102
RTVSPropertyOp31
 70
     0
102
RTVSPropertyOp32
 70
     0
102
RTVSPropertyOp33
 70
     0
102
RTVSPropertyOp34
 70
     0
102
RTVSPropertyOp35
 70
     0
102
RTVSPropertyOp36
 70
     0
102
RTVSPropertyOp37
 70
     0
102
RTVSPropertyOp38
 70
     0
102
RTVSPropertyOp39
 70
     0
102
RTVSPropertyOp40
 70
     0
102
RTVSPropertyOp41
 70
     0
102
RTVSPropertyOp42
 70
     0
102
RTVSPropertyOp43
 70
     0
102
RTVSPropertyOp44
 70
     0
102
RTVSPropertyOp45
 70
     0
102
RTVSPropertyOp46
 70
     0
102
RTVSPropertyOp47
 70
     0
102
RTVSPropertyOp48
 70
     0
102
RTVSPropertyOp49
 70
     0
102
RTVSPropertyOp50
 70
     0
102
RTVSPropertyOp51
 70
     0
102
RTVSPropertyOp52
 70
     0
102
RTVSPropertyOp53
 70
     0
102
RTVSPropertyOp54
 70
     0
102
RTVSPropertyOp55
 70
     0
102
RTVSPropertyOp56
 70
     0
102
RTVSPropertyOp57
 70
     0
102
RTVSPropertyOp58
 70
     0
102
RTVSPropertyOp59
 70
     0
102
RTVSPropertyOp60
 70
     0
102
RTVSPropertyOp61
 70
     0
102
RTVSPropertyOp62
 70
     0
  0
XRECORD
  5
D7A5
102
{ACAD_REACTORS
330
D7A4
102
}
330
D7A4
100
AcDbXrecord
280
     1
102
RTVSPost2010Prop28
280
     0
102
RTVSPost2010PropOp28
 70
     1
102
RTVSPost2010Prop29
280
     1
102
RTVSPost2010PropOp29
 70
     1
102
RTVSPost2010Prop30
280
     1
102
RTVSPost2010PropOp30
 70
     1
102
RTVSPost2010Prop31
280
     0
102
RTVSPost2010PropOp31
 70
     1
102
RTVSPost2010Prop32
280
     0
102
RTVSPost2010PropOp32
 70
     1
102
RTVSPost2010Prop33
280
     0
102
RTVSPost2010PropOp33
 70
     1
102
RTVSPost2010Prop34
280
     0
102
RTVSPost2010PropOp34
 70
     1
102
RTVSPost2010Prop35
280
     0
102
RTVSPost2010PropOp35
 70
     1
102
RTVSPost2010Prop36
280
     0
102
RTVSPost2010PropOp36
 70
     1
102
RTVSPost2010Prop37
 90
       50
102
RTVSPost2010PropOp37
 70
     1
102
RTVSPost2010Prop38
140
0.0
102
RTVSPost2010PropOp38
 70
     1
102
RTVSPost2010Prop39
140
1.0
102
RTVSPost2010PropOp39
 70
     1
102
RTVSPost2010Prop40
 90
        0
102
RTVSPost2010PropOp40
 70
     1
102
RTVSPost2010Prop41ColorIndex
 90
       18
102
RTVSPost2010Prop41ColorRGB
 90
        0
102
RTVSPost2010PropOp41
 70
     1
102
RTVSPost2010Prop42
 90
       50
102
RTVSPost2010PropOp42
 70
     1
102
RTVSPost2010Prop43
 90
        3
102
RTVSPost2010PropOp43
 70
     1
102
RTVSPost2010Prop44ColorIndex
 90
        5
102
RTVSPost2010Prop44ColorRGB
 90
      255
102
RTVSPost2010PropOp44
 70
     1
102
RTVSPost2010Prop45
280
     0
102
RTVSPost2010PropOp45
 70
     1
102
RTVSPost2010Prop46
 90
       50
102
RTVSPost2010PropOp46
 70
     1
102
RTVSPost2010Prop47
 90
       50
102
RTVSPost2010PropOp47
 70
     1
102
RTVSPost2010Prop48
 90
       50
102
RTVSPost2010PropOp48
 70
     1
102
RTVSPost2010Prop49
280
     0
102
RTVSPost2010PropOp49
 70
     1
102
RTVSPost2010Prop50
 90
       50
102
RTVSPost2010PropOp50
 70
     1
102
RTVSPost2010Prop51ColorIndex
 90
      256
102
RTVSPost2010Prop51ColorRGB
 90
-16777216
102
RTVSPost2010PropOp51
 70
     0
102
RTVSPost2010Prop52
140
1.0
102
RTVSPost2010PropOp52
 70
     0
102
RTVSPost2010Prop53
 90
        2
102
RTVSPost2010PropOp53
 70
     1
102
RTVSPost2010Prop54
  1
strokes_ogs.tif
102
RTVSPost2010PropOp54
 70
     1
102
RTVSPost2010Prop55
280
     0
102
RTVSPost2010PropOp55
 70
     1
102
RTVSPost2010Prop56
140
1.0
102
RTVSPost2010PropOp56
 70
     1
102
RTVSPost2010Prop57
140
1.0
102
RTVSPost2010PropOp57
 70
     1
102
RTVSPropertyOp0
 70
     1
102
RTVSPropertyOp1
 70
     1
102
RTVSPropertyOp2
 70
     1
102
RTVSPropertyOp3
 70
     1
102
RTVSPropertyOp4
 70
     1
102
RTVSPropertyOp5
 70
     1
102
RTVSPropertyOp6
 70
     1
102
RTVSPropertyOp7
 70
     1
102
RTVSPropertyOp8
 70
     1
102
RTVSPropertyOp9
 70
     1
102
RTVSPropertyOp10
 70
     1
102
RTVSPropertyOp11
 70
     1
102
RTVSPropertyOp12
 70
     1
102
RTVSPropertyOp13
 70
     1
102
RTVSPropertyOp14
 70
     1
102
RTVSPropertyOp15
 70
     1
102
RTVSPropertyOp16
 70
     1
102
RTVSPropertyOp17
 70
     1
102
RTVSPropertyOp18
 70
     1
102
RTVSPropertyOp19
 70
     1
102
RTVSPropertyOp20
 70
     1
102
RTVSPropertyOp21
 70
     1
102
RTVSPropertyOp22
 70
     1
102
RTVSPropertyOp23
 70
     1
102
RTVSPropertyOp24
 70
     1
102
RTVSPropertyOp25
 70
     1
102
RTVSPropertyOp26
 70
     1
102
RTVSPropertyOp27
 70
     1
102
RTVSPropertyOp28
 70
     1
102
RTVSPropertyOp29
 70
     1
102
RTVSPropertyOp30
 70
     1
102
RTVSPropertyOp31
 70
     1
102
RTVSPropertyOp32
 70
     1
102
RTVSPropertyOp33
 70
     1
102
RTVSPropertyOp34
 70
     1
102
RTVSPropertyOp35
 70
     1
102
RTVSPropertyOp36
 70
     1
102
RTVSPropertyOp37
 70
     1
102
RTVSPropertyOp38
 70
     1
102
RTVSPropertyOp39
 70
     1
102
RTVSPropertyOp40
 70
     1
102
RTVSPropertyOp41
 70
     1
102
RTVSPropertyOp42
 70
     1
102
RTVSPropertyOp43
 70
     1
102
RTVSPropertyOp44
 70
     1
102
RTVSPropertyOp45
 70
     1
102
RTVSPropertyOp46
 70
     1
102
RTVSPropertyOp47
 70
     1
102
RTVSPropertyOp48
 70
     1
102
RTVSPropertyOp49
 70
     1
102
RTVSPropertyOp50
 70
     1
102
RTVSPropertyOp51
 70
     0
102
RTVSPropertyOp52
 70
     0
102
RTVSPropertyOp53
 70
     1
102
RTVSPropertyOp54
 70
     1
102
RTVSPropertyOp55
 70
     1
102
RTVSPropertyOp56
 70
     1
102
RTVSPropertyOp57
 70
     1
102
RTVSPropertyOp58
 70
     1
102
RTVSPropertyOp59
 70
     1
102
RTVSPropertyOp60
 70
     1
102
RTVSPropertyOp61
 70
     1
102
RTVSPropertyOp62
 70
     1
  0
XRECORD
  5
D789
102
{ACAD_REACTORS
330
D788
102
}
330
D788
100
AcDbXrecord
280
     1
102
RTVSPost2010Prop28
280
     0
102
RTVSPost2010PropOp28
 70
     1
102
RTVSPost2010Prop29
280
     1
102
RTVSPost2010PropOp29
 70
     1
102
RTVSPost2010Prop30
280
     1
102
RTVSPost2010PropOp30
 70
     1
102
RTVSPost2010Prop31
280
     0
102
RTVSPost2010PropOp31
 70
     1
102
RTVSPost2010Prop32
280
     0
102
RTVSPost2010PropOp32
 70
     1
102
RTVSPost2010Prop33
280
     0
102
RTVSPost2010PropOp33
 70
     1
102
RTVSPost2010Prop34
280
     0
102
RTVSPost2010PropOp34
 70
     1
102
RTVSPost2010Prop35
280
     0
102
RTVSPost2010PropOp35
 70
     1
102
RTVSPost2010Prop36
280
     0
102
RTVSPost2010PropOp36
 70
     1
102
RTVSPost2010Prop37
 90
       50
102
RTVSPost2010PropOp37
 70
     1
102
RTVSPost2010Prop38
140
0.0
102
RTVSPost2010PropOp38
 70
     1
102
RTVSPost2010Prop39
140
1.0
102
RTVSPost2010PropOp39
 70
     1
102
RTVSPost2010Prop40
 90
        0
102
RTVSPost2010PropOp40
 70
     1
102
RTVSPost2010Prop41ColorIndex
 90
       18
102
RTVSPost2010Prop41ColorRGB
 90
        0
102
RTVSPost2010PropOp41
 70
     1
102
RTVSPost2010Prop42
 90
       50
102
RTVSPost2010PropOp42
 70
     1
102
RTVSPost2010Prop43
 90
        3
102
RTVSPost2010PropOp43
 70
     1
102
RTVSPost2010Prop44ColorIndex
 90
        5
102
RTVSPost2010Prop44ColorRGB
 90
      255
102
RTVSPost2010PropOp44
 70
     1
102
RTVSPost2010Prop45
280
     0
102
RTVSPost2010PropOp45
 70
     1
102
RTVSPost2010Prop46
 90
       50
102
RTVSPost2010PropOp46
 70
     1
102
RTVSPost2010Prop47
 90
       50
102
RTVSPost2010PropOp47
 70
     1
102
RTVSPost2010Prop48
 90
       50
102
RTVSPost2010PropOp48
 70
     1
102
RTVSPost2010Prop49
280
     0
102
RTVSPost2010PropOp49
 70
     1
102
RTVSPost2010Prop50
 90
       50
102
RTVSPost2010PropOp50
 70
     1
102
RTVSPost2010Prop51ColorIndex
 90
      256
102
RTVSPost2010Prop51ColorRGB
 90
-16777216
102
RTVSPost2010PropOp51
 70
     0
102
RTVSPost2010Prop52
140
1.0
102
RTVSPost2010PropOp52
 70
     0
102
RTVSPost2010Prop53
 90
        2
102
RTVSPost2010PropOp53
 70
     1
102
RTVSPost2010Prop54
  1
strokes_ogs.tif
102
RTVSPost2010PropOp54
 70
     1
102
RTVSPost2010Prop55
280
     0
102
RTVSPost2010PropOp55
 70
     1
102
RTVSPost2010Prop56
140
1.0
102
RTVSPost2010PropOp56
 70
     1
102
RTVSPost2010Prop57
140
1.0
102
RTVSPost2010PropOp57
 70
     1
102
RTVSPropertyOp0
 70
     1
102
RTVSPropertyOp1
 70
     1
102
RTVSPropertyOp2
 70
     1
102
RTVSPropertyOp3
 70
     1
102
RTVSPropertyOp4
 70
     1
102
RTVSPropertyOp5
 70
     1
102
RTVSPropertyOp6
 70
     1
102
RTVSPropertyOp7
 70
     1
102
RTVSPropertyOp8
 70
     1
102
RTVSPropertyOp9
 70
     1
102
RTVSPropertyOp10
 70
     1
102
RTVSPropertyOp11
 70
     1
102
RTVSPropertyOp12
 70
     1
102
RTVSPropertyOp13
 70
     1
102
RTVSPropertyOp14
 70
     1
102
RTVSPropertyOp15
 70
     1
102
RTVSPropertyOp16
 70
     1
102
RTVSPropertyOp17
 70
     1
102
RTVSPropertyOp18
 70
     1
102
RTVSPropertyOp19
 70
     1
102
RTVSPropertyOp20
 70
     1
102
RTVSPropertyOp21
 70
     1
102
RTVSPropertyOp22
 70
     1
102
RTVSPropertyOp23
 70
     1
102
RTVSPropertyOp24
 70
     1
102
RTVSPropertyOp25
 70
     1
102
RTVSPropertyOp26
 70
     1
102
RTVSPropertyOp27
 70
     1
102
RTVSPropertyOp28
 70
     1
102
RTVSPropertyOp29
 70
     1
102
RTVSPropertyOp30
 70
     1
102
RTVSPropertyOp31
 70
     1
102
RTVSPropertyOp32
 70
     1
102
RTVSPropertyOp33
 70
     1
102
RTVSPropertyOp34
 70
     1
102
RTVSPropertyOp35
 70
     1
102
RTVSPropertyOp36
 70
     1
102
RTVSPropertyOp37
 70
     1
102
RTVSPropertyOp38
 70
     1
102
RTVSPropertyOp39
 70
     1
102
RTVSPropertyOp40
 70
     1
102
RTVSPropertyOp41
 70
     1
102
RTVSPropertyOp42
 70
     1
102
RTVSPropertyOp43
 70
     1
102
RTVSPropertyOp44
 70
     1
102
RTVSPropertyOp45
 70
     1
102
RTVSPropertyOp46
 70
     1
102
RTVSPropertyOp47
 70
     1
102
RTVSPropertyOp48
 70
     1
102
RTVSPropertyOp49
 70
     1
102
RTVSPropertyOp50
 70
     1
102
RTVSPropertyOp51
 70
     0
102
RTVSPropertyOp52
 70
     0
102
RTVSPropertyOp53
 70
     1
102
RTVSPropertyOp54
 70
     1
102
RTVSPropertyOp55
 70
     1
102
RTVSPropertyOp56
 70
     1
102
RTVSPropertyOp57
 70
     1
102
RTVSPropertyOp58
 70
     1
102
RTVSPropertyOp59
 70
     1
102
RTVSPropertyOp60
 70
     1
102
RTVSPropertyOp61
 70
     1
102
RTVSPropertyOp62
 70
     1
  0
XRECORD
  5
D78B
102
{ACAD_REACTORS
330
D78A
102
}
330
D78A
100
AcDbXrecord
280
     1
102
RTVSPost2010Prop28
280
     0
102
RTVSPost2010PropOp28
 70
     1
102
RTVSPost2010Prop29
280
     1
102
RTVSPost2010PropOp29
 70
     1
102
RTVSPost2010Prop30
280
     1
102
RTVSPost2010PropOp30
 70
     1
102
RTVSPost2010Prop31
280
     0
102
RTVSPost2010PropOp31
 70
     1
102
RTVSPost2010Prop32
280
     0
102
RTVSPost2010PropOp32
 70
     1
102
RTVSPost2010Prop33
280
     0
102
RTVSPost2010PropOp33
 70
     1
102
RTVSPost2010Prop34
280
     0
102
RTVSPost2010PropOp34
 70
     1
102
RTVSPost2010Prop35
280
     0
102
RTVSPost2010PropOp35
 70
     1
102
RTVSPost2010Prop36
280
     0
102
RTVSPost2010PropOp36
 70
     1
102
RTVSPost2010Prop37
 90
       50
102
RTVSPost2010PropOp37
 70
     1
102
RTVSPost2010Prop38
140
0.0
102
RTVSPost2010PropOp38
 70
     1
102
RTVSPost2010Prop39
140
1.0
102
RTVSPost2010PropOp39
 70
     1
102
RTVSPost2010Prop40
 90
        0
102
RTVSPost2010PropOp40
 70
     1
102
RTVSPost2010Prop41ColorIndex
 90
       18
102
RTVSPost2010Prop41ColorRGB
 90
        0
102
RTVSPost2010PropOp41
 70
     1
102
RTVSPost2010Prop42
 90
       50
102
RTVSPost2010PropOp42
 70
     1
102
RTVSPost2010Prop43
 90
        3
102
RTVSPost2010PropOp43
 70
     1
102
RTVSPost2010Prop44ColorIndex
 90
        5
102
RTVSPost2010Prop44ColorRGB
 90
      255
102
RTVSPost2010PropOp44
 70
     1
102
RTVSPost2010Prop45
280
     0
102
RTVSPost2010PropOp45
 70
     1
102
RTVSPost2010Prop46
 90
       50
102
RTVSPost2010PropOp46
 70
     1
102
RTVSPost2010Prop47
 90
       50
102
RTVSPost2010PropOp47
 70
     1
102
RTVSPost2010Prop48
 90
       50
102
RTVSPost2010PropOp48
 70
     1
102
RTVSPost2010Prop49
280
     0
102
RTVSPost2010PropOp49
 70
     1
102
RTVSPost2010Prop50
 90
       50
102
RTVSPost2010PropOp50
 70
     1
102
RTVSPost2010Prop51ColorIndex
 90
      256
102
RTVSPost2010Prop51ColorRGB
 90
-16777216
102
RTVSPost2010PropOp51
 70
     0
102
RTVSPost2010Prop52
140
1.0
102
RTVSPost2010PropOp52
 70
     0
102
RTVSPost2010Prop53
 90
        2
102
RTVSPost2010PropOp53
 70
     1
102
RTVSPost2010Prop54
  1
strokes_ogs.tif
102
RTVSPost2010PropOp54
 70
     1
102
RTVSPost2010Prop55
280
     0
102
RTVSPost2010PropOp55
 70
     1
102
RTVSPost2010Prop56
140
1.0
102
RTVSPost2010PropOp56
 70
     1
102
RTVSPost2010Prop57
140
1.0
102
RTVSPost2010PropOp57
 70
     1
102
RTVSPropertyOp0
 70
     1
102
RTVSPropertyOp1
 70
     1
102
RTVSPropertyOp2
 70
     1
102
RTVSPropertyOp3
 70
     1
102
RTVSPropertyOp4
 70
     1
102
RTVSPropertyOp5
 70
     1
102
RTVSPropertyOp6
 70
     1
102
RTVSPropertyOp7
 70
     1
102
RTVSPropertyOp8
 70
     1
102
RTVSPropertyOp9
 70
     1
102
RTVSPropertyOp10
 70
     1
102
RTVSPropertyOp11
 70
     1
102
RTVSPropertyOp12
 70
     1
102
RTVSPropertyOp13
 70
     1
102
RTVSPropertyOp14
 70
     1
102
RTVSPropertyOp15
 70
     1
102
RTVSPropertyOp16
 70
     1
102
RTVSPropertyOp17
 70
     1
102
RTVSPropertyOp18
 70
     1
102
RTVSPropertyOp19
 70
     1
102
RTVSPropertyOp20
 70
     1
102
RTVSPropertyOp21
 70
     1
102
RTVSPropertyOp22
 70
     1
102
RTVSPropertyOp23
 70
     1
102
RTVSPropertyOp24
 70
     1
102
RTVSPropertyOp25
 70
     1
102
RTVSPropertyOp26
 70
     1
102
RTVSPropertyOp27
 70
     1
102
RTVSPropertyOp28
 70
     1
102
RTVSPropertyOp29
 70
     1
102
RTVSPropertyOp30
 70
     1
102
RTVSPropertyOp31
 70
     1
102
RTVSPropertyOp32
 70
     1
102
RTVSPropertyOp33
 70
     1
102
RTVSPropertyOp34
 70
     1
102
RTVSPropertyOp35
 70
     1
102
RTVSPropertyOp36
 70
     1
102
RTVSPropertyOp37
 70
     1
102
RTVSPropertyOp38
 70
     1
102
RTVSPropertyOp39
 70
     1
102
RTVSPropertyOp40
 70
     1
102
RTVSPropertyOp41
 70
     1
102
RTVSPropertyOp42
 70
     1
102
RTVSPropertyOp43
 70
     1
102
RTVSPropertyOp44
 70
     1
102
RTVSPropertyOp45
 70
     1
102
RTVSPropertyOp46
 70
     1
102
RTVSPropertyOp47
 70
     1
102
RTVSPropertyOp48
 70
     1
102
RTVSPropertyOp49
 70
     1
102
RTVSPropertyOp50
 70
     1
102
RTVSPropertyOp51
 70
     0
102
RTVSPropertyOp52
 70
     0
102
RTVSPropertyOp53
 70
     1
102
RTVSPropertyOp54
 70
     1
102
RTVSPropertyOp55
 70
     1
102
RTVSPropertyOp56
 70
     1
102
RTVSPropertyOp57
 70
     1
102
RTVSPropertyOp58
 70
     1
102
RTVSPropertyOp59
 70
     1
102
RTVSPropertyOp60
 70
     1
102
RTVSPropertyOp61
 70
     1
102
RTVSPropertyOp62
 70
     1
  0
XRECORD
  5
D78D
102
{ACAD_REACTORS
330
D78C
102
}
330
D78C
100
AcDbXrecord
280
     1
102
RTVSPost2010Prop28
280
     0
102
RTVSPost2010PropOp28
 70
     1
102
RTVSPost2010Prop29
280
     1
102
RTVSPost2010PropOp29
 70
     1
102
RTVSPost2010Prop30
280
     1
102
RTVSPost2010PropOp30
 70
     1
102
RTVSPost2010Prop31
280
     0
102
RTVSPost2010PropOp31
 70
     1
102
RTVSPost2010Prop32
280
     0
102
RTVSPost2010PropOp32
 70
     1
102
RTVSPost2010Prop33
280
     0
102
RTVSPost2010PropOp33
 70
     1
102
RTVSPost2010Prop34
280
     0
102
RTVSPost2010PropOp34
 70
     1
102
RTVSPost2010Prop35
280
     0
102
RTVSPost2010PropOp35
 70
     1
102
RTVSPost2010Prop36
280
     0
102
RTVSPost2010PropOp36
 70
     1
102
RTVSPost2010Prop37
 90
       50
102
RTVSPost2010PropOp37
 70
     1
102
RTVSPost2010Prop38
140
0.0
102
RTVSPost2010PropOp38
 70
     1
102
RTVSPost2010Prop39
140
1.0
102
RTVSPost2010PropOp39
 70
     1
102
RTVSPost2010Prop40
 90
        0
102
RTVSPost2010PropOp40
 70
     1
102
RTVSPost2010Prop41ColorIndex
 90
       18
102
RTVSPost2010Prop41ColorRGB
 90
        0
102
RTVSPost2010PropOp41
 70
     1
102
RTVSPost2010Prop42
 90
       50
102
RTVSPost2010PropOp42
 70
     1
102
RTVSPost2010Prop43
 90
        3
102
RTVSPost2010PropOp43
 70
     1
102
RTVSPost2010Prop44ColorIndex
 90
        5
102
RTVSPost2010Prop44ColorRGB
 90
      255
102
RTVSPost2010PropOp44
 70
     1
102
RTVSPost2010Prop45
280
     0
102
RTVSPost2010PropOp45
 70
     1
102
RTVSPost2010Prop46
 90
       50
102
RTVSPost2010PropOp46
 70
     1
102
RTVSPost2010Prop47
 90
       50
102
RTVSPost2010PropOp47
 70
     1
102
RTVSPost2010Prop48
 90
       50
102
RTVSPost2010PropOp48
 70
     1
102
RTVSPost2010Prop49
280
     0
102
RTVSPost2010PropOp49
 70
     1
102
RTVSPost2010Prop50
 90
       50
102
RTVSPost2010PropOp50
 70
     1
102
RTVSPost2010Prop51ColorIndex
 90
      256
102
RTVSPost2010Prop51ColorRGB
 90
-16777216
102
RTVSPost2010PropOp51
 70
     0
102
RTVSPost2010Prop52
140
1.0
102
RTVSPost2010PropOp52
 70
     0
102
RTVSPost2010Prop53
 90
        2
102
RTVSPost2010PropOp53
 70
     1
102
RTVSPost2010Prop54
  1
strokes_ogs.tif
102
RTVSPost2010PropOp54
 70
     1
102
RTVSPost2010Prop55
280
     0
102
RTVSPost2010PropOp55
 70
     1
102
RTVSPost2010Prop56
140
1.0
102
RTVSPost2010PropOp56
 70
     1
102
RTVSPost2010Prop57
140
1.0
102
RTVSPost2010PropOp57
 70
     1
102
RTVSPropertyOp0
 70
     1
102
RTVSPropertyOp1
 70
     1
102
RTVSPropertyOp2
 70
     1
102
RTVSPropertyOp3
 70
     1
102
RTVSPropertyOp4
 70
     1
102
RTVSPropertyOp5
 70
     1
102
RTVSPropertyOp6
 70
     1
102
RTVSPropertyOp7
 70
     1
102
RTVSPropertyOp8
 70
     1
102
RTVSPropertyOp9
 70
     1
102
RTVSPropertyOp10
 70
     1
102
RTVSPropertyOp11
 70
     1
102
RTVSPropertyOp12
 70
     1
102
RTVSPropertyOp13
 70
     1
102
RTVSPropertyOp14
 70
     1
102
RTVSPropertyOp15
 70
     1
102
RTVSPropertyOp16
 70
     1
102
RTVSPropertyOp17
 70
     1
102
RTVSPropertyOp18
 70
     1
102
RTVSPropertyOp19
 70
     1
102
RTVSPropertyOp20
 70
     1
102
RTVSPropertyOp21
 70
     1
102
RTVSPropertyOp22
 70
     1
102
RTVSPropertyOp23
 70
     1
102
RTVSPropertyOp24
 70
     1
102
RTVSPropertyOp25
 70
     1
102
RTVSPropertyOp26
 70
     1
102
RTVSPropertyOp27
 70
     1
102
RTVSPropertyOp28
 70
     1
102
RTVSPropertyOp29
 70
     1
102
RTVSPropertyOp30
 70
     1
102
RTVSPropertyOp31
 70
     1
102
RTVSPropertyOp32
 70
     1
102
RTVSPropertyOp33
 70
     1
102
RTVSPropertyOp34
 70
     1
102
RTVSPropertyOp35
 70
     1
102
RTVSPropertyOp36
 70
     1
102
RTVSPropertyOp37
 70
     1
102
RTVSPropertyOp38
 70
     1
102
RTVSPropertyOp39
 70
     1
102
RTVSPropertyOp40
 70
     1
102
RTVSPropertyOp41
 70
     1
102
RTVSPropertyOp42
 70
     1
102
RTVSPropertyOp43
 70
     1
102
RTVSPropertyOp44
 70
     1
102
RTVSPropertyOp45
 70
     1
102
RTVSPropertyOp46
 70
     1
102
RTVSPropertyOp47
 70
     1
102
RTVSPropertyOp48
 70
     1
102
RTVSPropertyOp49
 70
     1
102
RTVSPropertyOp50
 70
     1
102
RTVSPropertyOp51
 70
     0
102
RTVSPropertyOp52
 70
     0
102
RTVSPropertyOp53
 70
     1
102
RTVSPropertyOp54
 70
     1
102
RTVSPropertyOp55
 70
     1
102
RTVSPropertyOp56
 70
     1
102
RTVSPropertyOp57
 70
     1
102
RTVSPropertyOp58
 70
     1
102
RTVSPropertyOp59
 70
     1
102
RTVSPropertyOp60
 70
     1
102
RTVSPropertyOp61
 70
     1
102
RTVSPropertyOp62
 70
     1
  0
XRECORD
  5
D78F
102
{ACAD_REACTORS
330
D78E
102
}
330
D78E
100
AcDbXrecord
280
     1
102
RTVSPost2010Prop28
280
     0
102
RTVSPost2010PropOp28
 70
     1
102
RTVSPost2010Prop29
280
     1
102
RTVSPost2010PropOp29
 70
     1
102
RTVSPost2010Prop30
280
     1
102
RTVSPost2010PropOp30
 70
     1
102
RTVSPost2010Prop31
280
     0
102
RTVSPost2010PropOp31
 70
     1
102
RTVSPost2010Prop32
280
     0
102
RTVSPost2010PropOp32
 70
     1
102
RTVSPost2010Prop33
280
     0
102
RTVSPost2010PropOp33
 70
     1
102
RTVSPost2010Prop34
280
     0
102
RTVSPost2010PropOp34
 70
     1
102
RTVSPost2010Prop35
280
     0
102
RTVSPost2010PropOp35
 70
     1
102
RTVSPost2010Prop36
280
     0
102
RTVSPost2010PropOp36
 70
     1
102
RTVSPost2010Prop37
 90
       50
102
RTVSPost2010PropOp37
 70
     1
102
RTVSPost2010Prop38
140
0.0
102
RTVSPost2010PropOp38
 70
     1
102
RTVSPost2010Prop39
140
1.0
102
RTVSPost2010PropOp39
 70
     1
102
RTVSPost2010Prop40
 90
        0
102
RTVSPost2010PropOp40
 70
     1
102
RTVSPost2010Prop41ColorIndex
 90
       18
102
RTVSPost2010Prop41ColorRGB
 90
        0
102
RTVSPost2010PropOp41
 70
     1
102
RTVSPost2010Prop42
 90
       50
102
RTVSPost2010PropOp42
 70
     1
102
RTVSPost2010Prop43
 90
        3
102
RTVSPost2010PropOp43
 70
     1
102
RTVSPost2010Prop44ColorIndex
 90
        5
102
RTVSPost2010Prop44ColorRGB
 90
      255
102
RTVSPost2010PropOp44
 70
     1
102
RTVSPost2010Prop45
280
     0
102
RTVSPost2010PropOp45
 70
     1
102
RTVSPost2010Prop46
 90
       50
102
RTVSPost2010PropOp46
 70
     1
102
RTVSPost2010Prop47
 90
       50
102
RTVSPost2010PropOp47
 70
     1
102
RTVSPost2010Prop48
 90
       50
102
RTVSPost2010PropOp48
 70
     1
102
RTVSPost2010Prop49
280
     0
102
RTVSPost2010PropOp49
 70
     1
102
RTVSPost2010Prop50
 90
       50
102
RTVSPost2010PropOp50
 70
     1
102
RTVSPost2010Prop51ColorIndex
 90
      256
102
RTVSPost2010Prop51ColorRGB
 90
-16777216
102
RTVSPost2010PropOp51
 70
     0
102
RTVSPost2010Prop52
140
1.0
102
RTVSPost2010PropOp52
 70
     0
102
RTVSPost2010Prop53
 90
        2
102
RTVSPost2010PropOp53
 70
     1
102
RTVSPost2010Prop54
  1
strokes_ogs.tif
102
RTVSPost2010PropOp54
 70
     1
102
RTVSPost2010Prop55
280
     0
102
RTVSPost2010PropOp55
 70
     1
102
RTVSPost2010Prop56
140
1.0
102
RTVSPost2010PropOp56
 70
     1
102
RTVSPost2010Prop57
140
1.0
102
RTVSPost2010PropOp57
 70
     1
102
RTVSPropertyOp0
 70
     1
102
RTVSPropertyOp1
 70
     1
102
RTVSPropertyOp2
 70
     1
102
RTVSPropertyOp3
 70
     1
102
RTVSPropertyOp4
 70
     1
102
RTVSPropertyOp5
 70
     1
102
RTVSPropertyOp6
 70
     1
102
RTVSPropertyOp7
 70
     1
102
RTVSPropertyOp8
 70
     1
102
RTVSPropertyOp9
 70
     1
102
RTVSPropertyOp10
 70
     1
102
RTVSPropertyOp11
 70
     1
102
RTVSPropertyOp12
 70
     1
102
RTVSPropertyOp13
 70
     1
102
RTVSPropertyOp14
 70
     1
102
RTVSPropertyOp15
 70
     1
102
RTVSPropertyOp16
 70
     1
102
RTVSPropertyOp17
 70
     1
102
RTVSPropertyOp18
 70
     1
102
RTVSPropertyOp19
 70
     1
102
RTVSPropertyOp20
 70
     1
102
RTVSPropertyOp21
 70
     1
102
RTVSPropertyOp22
 70
     1
102
RTVSPropertyOp23
 70
     1
102
RTVSPropertyOp24
 70
     1
102
RTVSPropertyOp25
 70
     1
102
RTVSPropertyOp26
 70
     1
102
RTVSPropertyOp27
 70
     1
102
RTVSPropertyOp28
 70
     1
102
RTVSPropertyOp29
 70
     1
102
RTVSPropertyOp30
 70
     1
102
RTVSPropertyOp31
 70
     1
102
RTVSPropertyOp32
 70
     1
102
RTVSPropertyOp33
 70
     1
102
RTVSPropertyOp34
 70
     1
102
RTVSPropertyOp35
 70
     1
102
RTVSPropertyOp36
 70
     1
102
RTVSPropertyOp37
 70
     1
102
RTVSPropertyOp38
 70
     1
102
RTVSPropertyOp39
 70
     1
102
RTVSPropertyOp40
 70
     1
102
RTVSPropertyOp41
 70
     1
102
RTVSPropertyOp42
 70
     1
102
RTVSPropertyOp43
 70
     1
102
RTVSPropertyOp44
 70
     1
102
RTVSPropertyOp45
 70
     1
102
RTVSPropertyOp46
 70
     1
102
RTVSPropertyOp47
 70
     1
102
RTVSPropertyOp48
 70
     1
102
RTVSPropertyOp49
 70
     1
102
RTVSPropertyOp50
 70
     1
102
RTVSPropertyOp51
 70
     0
102
RTVSPropertyOp52
 70
     0
102
RTVSPropertyOp53
 70
     1
102
RTVSPropertyOp54
 70
     1
102
RTVSPropertyOp55
 70
     1
102
RTVSPropertyOp56
 70
     1
102
RTVSPropertyOp57
 70
     1
102
RTVSPropertyOp58
 70
     1
102
RTVSPropertyOp59
 70
     1
102
RTVSPropertyOp60
 70
     1
102
RTVSPropertyOp61
 70
     1
102
RTVSPropertyOp62
 70
     1
  0
XRECORD
  5
D797
102
{ACAD_REACTORS
330
D796
102
}
330
D796
100
AcDbXrecord
280
     1
102
RTVSPost2010Prop28
280
     0
102
RTVSPost2010PropOp28
 70
     1
102
RTVSPost2010Prop29
280
     1
102
RTVSPost2010PropOp29
 70
     1
102
RTVSPost2010Prop30
280
     1
102
RTVSPost2010PropOp30
 70
     1
102
RTVSPost2010Prop31
280
     0
102
RTVSPost2010PropOp31
 70
     1
102
RTVSPost2010Prop32
280
     0
102
RTVSPost2010PropOp32
 70
     1
102
RTVSPost2010Prop33
280
     0
102
RTVSPost2010PropOp33
 70
     1
102
RTVSPost2010Prop34
280
     0
102
RTVSPost2010PropOp34
 70
     1
102
RTVSPost2010Prop35
280
     0
102
RTVSPost2010PropOp35
 70
     1
102
RTVSPost2010Prop36
280
     0
102
RTVSPost2010PropOp36
 70
     1
102
RTVSPost2010Prop37
 90
       50
102
RTVSPost2010PropOp37
 70
     1
102
RTVSPost2010Prop38
140
0.0
102
RTVSPost2010PropOp38
 70
     1
102
RTVSPost2010Prop39
140
1.0
102
RTVSPost2010PropOp39
 70
     1
102
RTVSPost2010Prop40
 90
        0
102
RTVSPost2010PropOp40
 70
     1
102
RTVSPost2010Prop41ColorIndex
 90
       18
102
RTVSPost2010Prop41ColorRGB
 90
        0
102
RTVSPost2010PropOp41
 70
     1
102
RTVSPost2010Prop42
 90
       50
102
RTVSPost2010PropOp42
 70
     1
102
RTVSPost2010Prop43
 90
        3
102
RTVSPost2010PropOp43
 70
     1
102
RTVSPost2010Prop44ColorIndex
 90
        5
102
RTVSPost2010Prop44ColorRGB
 90
      255
102
RTVSPost2010PropOp44
 70
     1
102
RTVSPost2010Prop45
280
     0
102
RTVSPost2010PropOp45
 70
     1
102
RTVSPost2010Prop46
 90
       50
102
RTVSPost2010PropOp46
 70
     1
102
RTVSPost2010Prop47
 90
       50
102
RTVSPost2010PropOp47
 70
     1
102
RTVSPost2010Prop48
 90
       50
102
RTVSPost2010PropOp48
 70
     1
102
RTVSPost2010Prop49
280
     0
102
RTVSPost2010PropOp49
 70
     1
102
RTVSPost2010Prop50
 90
       50
102
RTVSPost2010PropOp50
 70
     1
102
RTVSPost2010Prop51ColorIndex
 90
      256
102
RTVSPost2010Prop51ColorRGB
 90
-16777216
102
RTVSPost2010PropOp51
 70
     0
102
RTVSPost2010Prop52
140
1.0
102
RTVSPost2010PropOp52
 70
     0
102
RTVSPost2010Prop53
 90
        2
102
RTVSPost2010PropOp53
 70
     1
102
RTVSPost2010Prop54
  1
strokes_ogs.tif
102
RTVSPost2010PropOp54
 70
     1
102
RTVSPost2010Prop55
280
     0
102
RTVSPost2010PropOp55
 70
     1
102
RTVSPost2010Prop56
140
1.0
102
RTVSPost2010PropOp56
 70
     1
102
RTVSPost2010Prop57
140
1.0
102
RTVSPost2010PropOp57
 70
     1
102
RTVSPropertyOp0
 70
     1
102
RTVSPropertyOp1
 70
     1
102
RTVSPropertyOp2
 70
     1
102
RTVSPropertyOp3
 70
     1
102
RTVSPropertyOp4
 70
     1
102
RTVSPropertyOp5
 70
     1
102
RTVSPropertyOp6
 70
     1
102
RTVSPropertyOp7
 70
     1
102
RTVSPropertyOp8
 70
     1
102
RTVSPropertyOp9
 70
     1
102
RTVSPropertyOp10
 70
     1
102
RTVSPropertyOp11
 70
     1
102
RTVSPropertyOp12
 70
     1
102
RTVSPropertyOp13
 70
     1
102
RTVSPropertyOp14
 70
     1
102
RTVSPropertyOp15
 70
     1
102
RTVSPropertyOp16
 70
     1
102
RTVSPropertyOp17
 70
     1
102
RTVSPropertyOp18
 70
     1
102
RTVSPropertyOp19
 70
     1
102
RTVSPropertyOp20
 70
     1
102
RTVSPropertyOp21
 70
     1
102
RTVSPropertyOp22
 70
     1
102
RTVSPropertyOp23
 70
     1
102
RTVSPropertyOp24
 70
     1
102
RTVSPropertyOp25
 70
     1
102
RTVSPropertyOp26
 70
     1
102
RTVSPropertyOp27
 70
     1
102
RTVSPropertyOp28
 70
     1
102
RTVSPropertyOp29
 70
     1
102
RTVSPropertyOp30
 70
     1
102
RTVSPropertyOp31
 70
     1
102
RTVSPropertyOp32
 70
     1
102
RTVSPropertyOp33
 70
     1
102
RTVSPropertyOp34
 70
     1
102
RTVSPropertyOp35
 70
     1
102
RTVSPropertyOp36
 70
     1
102
RTVSPropertyOp37
 70
     1
102
RTVSPropertyOp38
 70
     1
102
RTVSPropertyOp39
 70
     1
102
RTVSPropertyOp40
 70
     1
102
RTVSPropertyOp41
 70
     1
102
RTVSPropertyOp42
 70
     1
102
RTVSPropertyOp43
 70
     1
102
RTVSPropertyOp44
 70
     1
102
RTVSPropertyOp45
 70
     1
102
RTVSPropertyOp46
 70
     1
102
RTVSPropertyOp47
 70
     1
102
RTVSPropertyOp48
 70
     1
102
RTVSPropertyOp49
 70
     1
102
RTVSPropertyOp50
 70
     1
102
RTVSPropertyOp51
 70
     0
102
RTVSPropertyOp52
 70
     0
102
RTVSPropertyOp53
 70
     1
102
RTVSPropertyOp54
 70
     1
102
RTVSPropertyOp55
 70
     1
102
RTVSPropertyOp56
 70
     1
102
RTVSPropertyOp57
 70
     1
102
RTVSPropertyOp58
 70
     1
102
RTVSPropertyOp59
 70
     1
102
RTVSPropertyOp60
 70
     1
102
RTVSPropertyOp61
 70
     1
102
RTVSPropertyOp62
 70
     1
  0
XRECORD
  5
D7B3
102
{ACAD_REACTORS
330
D7B2
102
}
330
D7B2
100
AcDbXrecord
280
     1
102
RTVSPost2010Prop28
280
     0
102
RTVSPost2010PropOp28
 70
     0
102
RTVSPost2010Prop29
280
     1
102
RTVSPost2010PropOp29
 70
     0
102
RTVSPost2010Prop30
280
     1
102
RTVSPost2010PropOp30
 70
     0
102
RTVSPost2010Prop31
280
     0
102
RTVSPost2010PropOp31
 70
     0
102
RTVSPost2010Prop32
280
     0
102
RTVSPost2010PropOp32
 70
     0
102
RTVSPost2010Prop33
280
     0
102
RTVSPost2010PropOp33
 70
     0
102
RTVSPost2010Prop34
280
     0
102
RTVSPost2010PropOp34
 70
     0
102
RTVSPost2010Prop35
280
     0
102
RTVSPost2010PropOp35
 70
     0
102
RTVSPost2010Prop36
280
     0
102
RTVSPost2010PropOp36
 70
     0
102
RTVSPost2010Prop37
 90
       50
102
RTVSPost2010PropOp37
 70
     0
102
RTVSPost2010Prop38
140
0.0
102
RTVSPost2010PropOp38
 70
     0
102
RTVSPost2010Prop39
140
1.0
102
RTVSPost2010PropOp39
 70
     0
102
RTVSPost2010Prop40
 90
        0
102
RTVSPost2010PropOp40
 70
     0
102
RTVSPost2010Prop41ColorIndex
 90
       18
102
RTVSPost2010Prop41ColorRGB
 90
        0
102
RTVSPost2010PropOp41
 70
     0
102
RTVSPost2010Prop42
 90
       50
102
RTVSPost2010PropOp42
 70
     0
102
RTVSPost2010Prop43
 90
        3
102
RTVSPost2010PropOp43
 70
     0
102
RTVSPost2010Prop44ColorIndex
 90
        5
102
RTVSPost2010Prop44ColorRGB
 90
      255
102
RTVSPost2010PropOp44
 70
     0
102
RTVSPost2010Prop45
280
     0
102
RTVSPost2010PropOp45
 70
     0
102
RTVSPost2010Prop46
 90
       50
102
RTVSPost2010PropOp46
 70
     0
102
RTVSPost2010Prop47
 90
       50
102
RTVSPost2010PropOp47
 70
     0
102
RTVSPost2010Prop48
 90
       50
102
RTVSPost2010PropOp48
 70
     0
102
RTVSPost2010Prop49
280
     0
102
RTVSPost2010PropOp49
 70
     0
102
RTVSPost2010Prop50
 90
       50
102
RTVSPost2010PropOp50
 70
     0
102
RTVSPost2010Prop51ColorIndex
 90
      256
102
RTVSPost2010Prop51ColorRGB
 90
-16777216
102
RTVSPost2010PropOp51
 70
     0
102
RTVSPost2010Prop52
140
1.0
102
RTVSPost2010PropOp52
 70
     0
102
RTVSPost2010Prop53
 90
        2
102
RTVSPost2010PropOp53
 70
     0
102
RTVSPost2010Prop54
  1
strokes_ogs.tif
102
RTVSPost2010PropOp54
 70
     0
102
RTVSPost2010Prop55
280
     0
102
RTVSPost2010PropOp55
 70
     0
102
RTVSPost2010Prop56
140
1.0
102
RTVSPost2010PropOp56
 70
     0
102
RTVSPost2010Prop57
140
1.0
102
RTVSPost2010PropOp57
 70
     0
102
RTVSPropertyOp0
 70
     0
102
RTVSPropertyOp1
 70
     0
102
RTVSPropertyOp2
 70
     0
102
RTVSPropertyOp3
 70
     0
102
RTVSPropertyOp4
 70
     0
102
RTVSPropertyOp5
 70
     0
102
RTVSPropertyOp6
 70
     0
102
RTVSPropertyOp7
 70
     0
102
RTVSPropertyOp8
 70
     0
102
RTVSPropertyOp9
 70
     0
102
RTVSPropertyOp10
 70
     0
102
RTVSPropertyOp11
 70
     0
102
RTVSPropertyOp12
 70
     0
102
RTVSPropertyOp13
 70
     0
102
RTVSPropertyOp14
 70
     2
102
RTVSPropertyOp15
 70
     0
102
RTVSPropertyOp16
 70
     0
102
RTVSPropertyOp17
 70
     0
102
RTVSPropertyOp18
 70
     0
102
RTVSPropertyOp19
 70
     0
102
RTVSPropertyOp20
 70
     0
102
RTVSPropertyOp21
 70
     0
102
RTVSPropertyOp22
 70
     0
102
RTVSPropertyOp23
 70
     0
102
RTVSPropertyOp24
 70
     0
102
RTVSPropertyOp25
 70
     0
102
RTVSPropertyOp26
 70
     0
102
RTVSPropertyOp27
 70
     0
102
RTVSPropertyOp28
 70
     0
102
RTVSPropertyOp29
 70
     0
102
RTVSPropertyOp30
 70
     0
102
RTVSPropertyOp31
 70
     0
102
RTVSPropertyOp32
 70
     0
102
RTVSPropertyOp33
 70
     0
102
RTVSPropertyOp34
 70
     0
102
RTVSPropertyOp35
 70
     0
102
RTVSPropertyOp36
 70
     0
102
RTVSPropertyOp37
 70
     0
102
RTVSPropertyOp38
 70
     0
102
RTVSPropertyOp39
 70
     0
102
RTVSPropertyOp40
 70
     0
102
RTVSPropertyOp41
 70
     0
102
RTVSPropertyOp42
 70
     0
102
RTVSPropertyOp43
 70
     0
102
RTVSPropertyOp44
 70
     0
102
RTVSPropertyOp45
 70
     0
102
RTVSPropertyOp46
 70
     0
102
RTVSPropertyOp47
 70
     0
102
RTVSPropertyOp48
 70
     0
102
RTVSPropertyOp49
 70
     0
102
RTVSPropertyOp50
 70
     0
102
RTVSPropertyOp51
 70
     0
102
RTVSPropertyOp52
 70
     0
102
RTVSPropertyOp53
 70
     0
102
RTVSPropertyOp54
 70
     0
102
RTVSPropertyOp55
 70
     0
102
RTVSPropertyOp56
 70
     0
102
RTVSPropertyOp57
 70
     0
102
RTVSPropertyOp58
 70
     0
102
RTVSPropertyOp59
 70
     0
102
RTVSPropertyOp60
 70
     0
102
RTVSPropertyOp61
 70
     0
102
RTVSPropertyOp62
 70
     0
  0
XRECORD
  5
D7A3
102
{ACAD_REACTORS
330
D7A2
102
}
330
D7A2
100
AcDbXrecord
280
     1
102
RTVSPost2010Prop28
280
     0
102
RTVSPost2010PropOp28
 70
     1
102
RTVSPost2010Prop29
280
     1
102
RTVSPost2010PropOp29
 70
     1
102
RTVSPost2010Prop30
280
     1
102
RTVSPost2010PropOp30
 70
     1
102
RTVSPost2010Prop31
280
     0
102
RTVSPost2010PropOp31
 70
     1
102
RTVSPost2010Prop32
280
     0
102
RTVSPost2010PropOp32
 70
     1
102
RTVSPost2010Prop33
280
     0
102
RTVSPost2010PropOp33
 70
     1
102
RTVSPost2010Prop34
280
     0
102
RTVSPost2010PropOp34
 70
     1
102
RTVSPost2010Prop35
280
     0
102
RTVSPost2010PropOp35
 70
     1
102
RTVSPost2010Prop36
280
     0
102
RTVSPost2010PropOp36
 70
     1
102
RTVSPost2010Prop37
 90
       50
102
RTVSPost2010PropOp37
 70
     1
102
RTVSPost2010Prop38
140
0.0
102
RTVSPost2010PropOp38
 70
     1
102
RTVSPost2010Prop39
140
1.0
102
RTVSPost2010PropOp39
 70
     1
102
RTVSPost2010Prop40
 90
        0
102
RTVSPost2010PropOp40
 70
     1
102
RTVSPost2010Prop41ColorIndex
 90
       18
102
RTVSPost2010Prop41ColorRGB
 90
        0
102
RTVSPost2010PropOp41
 70
     1
102
RTVSPost2010Prop42
 90
       50
102
RTVSPost2010PropOp42
 70
     1
102
RTVSPost2010Prop43
 90
        3
102
RTVSPost2010PropOp43
 70
     1
102
RTVSPost2010Prop44ColorIndex
 90
        5
102
RTVSPost2010Prop44ColorRGB
 90
      255
102
RTVSPost2010PropOp44
 70
     1
102
RTVSPost2010Prop45
280
     0
102
RTVSPost2010PropOp45
 70
     1
102
RTVSPost2010Prop46
 90
       50
102
RTVSPost2010PropOp46
 70
     1
102
RTVSPost2010Prop47
 90
       50
102
RTVSPost2010PropOp47
 70
     1
102
RTVSPost2010Prop48
 90
       50
102
RTVSPost2010PropOp48
 70
     1
102
RTVSPost2010Prop49
280
     0
102
RTVSPost2010PropOp49
 70
     1
102
RTVSPost2010Prop50
 90
       50
102
RTVSPost2010PropOp50
 70
     1
102
RTVSPost2010Prop51ColorIndex
 90
      256
102
RTVSPost2010Prop51ColorRGB
 90
-16777216
102
RTVSPost2010PropOp51
 70
     0
102
RTVSPost2010Prop52
140
1.0
102
RTVSPost2010PropOp52
 70
     0
102
RTVSPost2010Prop53
 90
        2
102
RTVSPost2010PropOp53
 70
     1
102
RTVSPost2010Prop54
  1
strokes_ogs.tif
102
RTVSPost2010PropOp54
 70
     1
102
RTVSPost2010Prop55
280
     0
102
RTVSPost2010PropOp55
 70
     1
102
RTVSPost2010Prop56
140
1.0
102
RTVSPost2010PropOp56
 70
     1
102
RTVSPost2010Prop57
140
1.0
102
RTVSPost2010PropOp57
 70
     1
102
RTVSPropertyOp0
 70
     1
102
RTVSPropertyOp1
 70
     1
102
RTVSPropertyOp2
 70
     1
102
RTVSPropertyOp3
 70
     1
102
RTVSPropertyOp4
 70
     1
102
RTVSPropertyOp5
 70
     1
102
RTVSPropertyOp6
 70
     1
102
RTVSPropertyOp7
 70
     1
102
RTVSPropertyOp8
 70
     1
102
RTVSPropertyOp9
 70
     1
102
RTVSPropertyOp10
 70
     1
102
RTVSPropertyOp11
 70
     1
102
RTVSPropertyOp12
 70
     1
102
RTVSPropertyOp13
 70
     1
102
RTVSPropertyOp14
 70
     1
102
RTVSPropertyOp15
 70
     1
102
RTVSPropertyOp16
 70
     1
102
RTVSPropertyOp17
 70
     1
102
RTVSPropertyOp18
 70
     1
102
RTVSPropertyOp19
 70
     1
102
RTVSPropertyOp20
 70
     1
102
RTVSPropertyOp21
 70
     1
102
RTVSPropertyOp22
 70
     1
102
RTVSPropertyOp23
 70
     1
102
RTVSPropertyOp24
 70
     1
102
RTVSPropertyOp25
 70
     1
102
RTVSPropertyOp26
 70
     1
102
RTVSPropertyOp27
 70
     1
102
RTVSPropertyOp28
 70
     1
102
RTVSPropertyOp29
 70
     1
102
RTVSPropertyOp30
 70
     1
102
RTVSPropertyOp31
 70
     1
102
RTVSPropertyOp32
 70
     1
102
RTVSPropertyOp33
 70
     1
102
RTVSPropertyOp34
 70
     1
102
RTVSPropertyOp35
 70
     1
102
RTVSPropertyOp36
 70
     1
102
RTVSPropertyOp37
 70
     1
102
RTVSPropertyOp38
 70
     1
102
RTVSPropertyOp39
 70
     1
102
RTVSPropertyOp40
 70
     1
102
RTVSPropertyOp41
 70
     1
102
RTVSPropertyOp42
 70
     1
102
RTVSPropertyOp43
 70
     1
102
RTVSPropertyOp44
 70
     1
102
RTVSPropertyOp45
 70
     1
102
RTVSPropertyOp46
 70
     1
102
RTVSPropertyOp47
 70
     1
102
RTVSPropertyOp48
 70
     1
102
RTVSPropertyOp49
 70
     1
102
RTVSPropertyOp50
 70
     1
102
RTVSPropertyOp51
 70
     0
102
RTVSPropertyOp52
 70
     0
102
RTVSPropertyOp53
 70
     1
102
RTVSPropertyOp54
 70
     1
102
RTVSPropertyOp55
 70
     1
102
RTVSPropertyOp56
 70
     1
102
RTVSPropertyOp57
 70
     1
102
RTVSPropertyOp58
 70
     1
102
RTVSPropertyOp59
 70
     1
102
RTVSPropertyOp60
 70
     1
102
RTVSPropertyOp61
 70
     1
102
RTVSPropertyOp62
 70
     1
  0
XRECORD
  5
D7B5
102
{ACAD_REACTORS
330
D7B4
102
}
330
D7B4
100
AcDbXrecord
280
     1
102
RTVSPost2010Prop28
280
     0
102
RTVSPost2010PropOp28
 70
     0
102
RTVSPost2010Prop29
280
     1
102
RTVSPost2010PropOp29
 70
     0
102
RTVSPost2010Prop30
280
     1
102
RTVSPost2010PropOp30
 70
     0
102
RTVSPost2010Prop31
280
     0
102
RTVSPost2010PropOp31
 70
     0
102
RTVSPost2010Prop32
280
     0
102
RTVSPost2010PropOp32
 70
     0
102
RTVSPost2010Prop33
280
     0
102
RTVSPost2010PropOp33
 70
     0
102
RTVSPost2010Prop34
280
     0
102
RTVSPost2010PropOp34
 70
     0
102
RTVSPost2010Prop35
280
     0
102
RTVSPost2010PropOp35
 70
     0
102
RTVSPost2010Prop36
280
     0
102
RTVSPost2010PropOp36
 70
     0
102
RTVSPost2010Prop37
 90
       50
102
RTVSPost2010PropOp37
 70
     0
102
RTVSPost2010Prop38
140
0.0
102
RTVSPost2010PropOp38
 70
     0
102
RTVSPost2010Prop39
140
1.0
102
RTVSPost2010PropOp39
 70
     0
102
RTVSPost2010Prop40
 90
        0
102
RTVSPost2010PropOp40
 70
     0
102
RTVSPost2010Prop41ColorIndex
 90
       18
102
RTVSPost2010Prop41ColorRGB
 90
        0
102
RTVSPost2010PropOp41
 70
     0
102
RTVSPost2010Prop42
 90
       50
102
RTVSPost2010PropOp42
 70
     0
102
RTVSPost2010Prop43
 90
        3
102
RTVSPost2010PropOp43
 70
     0
102
RTVSPost2010Prop44ColorIndex
 90
        5
102
RTVSPost2010Prop44ColorRGB
 90
      255
102
RTVSPost2010PropOp44
 70
     0
102
RTVSPost2010Prop45
280
     0
102
RTVSPost2010PropOp45
 70
     0
102
RTVSPost2010Prop46
 90
       50
102
RTVSPost2010PropOp46
 70
     0
102
RTVSPost2010Prop47
 90
       50
102
RTVSPost2010PropOp47
 70
     0
102
RTVSPost2010Prop48
 90
       50
102
RTVSPost2010PropOp48
 70
     0
102
RTVSPost2010Prop49
280
     0
102
RTVSPost2010PropOp49
 70
     0
102
RTVSPost2010Prop50
 90
       50
102
RTVSPost2010PropOp50
 70
     0
102
RTVSPost2010Prop51ColorIndex
 90
      256
102
RTVSPost2010Prop51ColorRGB
 90
-16777216
102
RTVSPost2010PropOp51
 70
     0
102
RTVSPost2010Prop52
140
1.0
102
RTVSPost2010PropOp52
 70
     0
102
RTVSPost2010Prop53
 90
        2
102
RTVSPost2010PropOp53
 70
     0
102
RTVSPost2010Prop54
  1
strokes_ogs.tif
102
RTVSPost2010PropOp54
 70
     0
102
RTVSPost2010Prop55
280
     0
102
RTVSPost2010PropOp55
 70
     0
102
RTVSPost2010Prop56
140
1.0
102
RTVSPost2010PropOp56
 70
     0
102
RTVSPost2010Prop57
140
1.0
102
RTVSPost2010PropOp57
 70
     0
102
RTVSPropertyOp0
 70
     0
102
RTVSPropertyOp1
 70
     0
102
RTVSPropertyOp2
 70
     0
102
RTVSPropertyOp3
 70
     0
102
RTVSPropertyOp4
 70
     0
102
RTVSPropertyOp5
 70
     0
102
RTVSPropertyOp6
 70
     0
102
RTVSPropertyOp7
 70
     0
102
RTVSPropertyOp8
 70
     0
102
RTVSPropertyOp9
 70
     0
102
RTVSPropertyOp10
 70
     0
102
RTVSPropertyOp11
 70
     0
102
RTVSPropertyOp12
 70
     0
102
RTVSPropertyOp13
 70
     0
102
RTVSPropertyOp14
 70
     2
102
RTVSPropertyOp15
 70
     0
102
RTVSPropertyOp16
 70
     0
102
RTVSPropertyOp17
 70
     0
102
RTVSPropertyOp18
 70
     0
102
RTVSPropertyOp19
 70
     0
102
RTVSPropertyOp20
 70
     0
102
RTVSPropertyOp21
 70
     0
102
RTVSPropertyOp22
 70
     0
102
RTVSPropertyOp23
 70
     0
102
RTVSPropertyOp24
 70
     0
102
RTVSPropertyOp25
 70
     0
102
RTVSPropertyOp26
 70
     0
102
RTVSPropertyOp27
 70
     0
102
RTVSPropertyOp28
 70
     0
102
RTVSPropertyOp29
 70
     0
102
RTVSPropertyOp30
 70
     0
102
RTVSPropertyOp31
 70
     0
102
RTVSPropertyOp32
 70
     0
102
RTVSPropertyOp33
 70
     0
102
RTVSPropertyOp34
 70
     0
102
RTVSPropertyOp35
 70
     0
102
RTVSPropertyOp36
 70
     0
102
RTVSPropertyOp37
 70
     0
102
RTVSPropertyOp38
 70
     0
102
RTVSPropertyOp39
 70
     0
102
RTVSPropertyOp40
 70
     0
102
RTVSPropertyOp41
 70
     0
102
RTVSPropertyOp42
 70
     0
102
RTVSPropertyOp43
 70
     0
102
RTVSPropertyOp44
 70
     0
102
RTVSPropertyOp45
 70
     0
102
RTVSPropertyOp46
 70
     0
102
RTVSPropertyOp47
 70
     0
102
RTVSPropertyOp48
 70
     0
102
RTVSPropertyOp49
 70
     0
102
RTVSPropertyOp50
 70
     0
102
RTVSPropertyOp51
 70
     0
102
RTVSPropertyOp52
 70
     0
102
RTVSPropertyOp53
 70
     0
102
RTVSPropertyOp54
 70
     0
102
RTVSPropertyOp55
 70
     0
102
RTVSPropertyOp56
 70
     0
102
RTVSPropertyOp57
 70
     0
102
RTVSPropertyOp58
 70
     0
102
RTVSPropertyOp59
 70
     0
102
RTVSPropertyOp60
 70
     0
102
RTVSPropertyOp61
 70
     0
102
RTVSPropertyOp62
 70
     0
  0
XRECORD
  5
D79B
102
{ACAD_REACTORS
330
D79A
102
}
330
D79A
100
AcDbXrecord
280
     1
102
RTVSPost2010Prop28
280
     0
102
RTVSPost2010PropOp28
 70
     1
102
RTVSPost2010Prop29
280
     1
102
RTVSPost2010PropOp29
 70
     1
102
RTVSPost2010Prop30
280
     1
102
RTVSPost2010PropOp30
 70
     1
102
RTVSPost2010Prop31
280
     0
102
RTVSPost2010PropOp31
 70
     1
102
RTVSPost2010Prop32
280
     0
102
RTVSPost2010PropOp32
 70
     1
102
RTVSPost2010Prop33
280
     0
102
RTVSPost2010PropOp33
 70
     1
102
RTVSPost2010Prop34
280
     0
102
RTVSPost2010PropOp34
 70
     1
102
RTVSPost2010Prop35
280
     0
102
RTVSPost2010PropOp35
 70
     1
102
RTVSPost2010Prop36
280
     0
102
RTVSPost2010PropOp36
 70
     1
102
RTVSPost2010Prop37
 90
       50
102
RTVSPost2010PropOp37
 70
     1
102
RTVSPost2010Prop38
140
0.0
102
RTVSPost2010PropOp38
 70
     1
102
RTVSPost2010Prop39
140
1.0
102
RTVSPost2010PropOp39
 70
     1
102
RTVSPost2010Prop40
 90
        0
102
RTVSPost2010PropOp40
 70
     1
102
RTVSPost2010Prop41ColorIndex
 90
       18
102
RTVSPost2010Prop41ColorRGB
 90
        0
102
RTVSPost2010PropOp41
 70
     1
102
RTVSPost2010Prop42
 90
       50
102
RTVSPost2010PropOp42
 70
     1
102
RTVSPost2010Prop43
 90
        3
102
RTVSPost2010PropOp43
 70
     1
102
RTVSPost2010Prop44ColorIndex
 90
        5
102
RTVSPost2010Prop44ColorRGB
 90
      255
102
RTVSPost2010PropOp44
 70
     1
102
RTVSPost2010Prop45
280
     0
102
RTVSPost2010PropOp45
 70
     1
102
RTVSPost2010Prop46
 90
       50
102
RTVSPost2010PropOp46
 70
     1
102
RTVSPost2010Prop47
 90
       50
102
RTVSPost2010PropOp47
 70
     1
102
RTVSPost2010Prop48
 90
       50
102
RTVSPost2010PropOp48
 70
     1
102
RTVSPost2010Prop49
280
     0
102
RTVSPost2010PropOp49
 70
     1
102
RTVSPost2010Prop50
 90
       50
102
RTVSPost2010PropOp50
 70
     1
102
RTVSPost2010Prop51ColorIndex
 90
      256
102
RTVSPost2010Prop51ColorRGB
 90
-16777216
102
RTVSPost2010PropOp51
 70
     0
102
RTVSPost2010Prop52
140
1.0
102
RTVSPost2010PropOp52
 70
     0
102
RTVSPost2010Prop53
 90
        2
102
RTVSPost2010PropOp53
 70
     1
102
RTVSPost2010Prop54
  1
strokes_ogs.tif
102
RTVSPost2010PropOp54
 70
     1
102
RTVSPost2010Prop55
280
     0
102
RTVSPost2010PropOp55
 70
     1
102
RTVSPost2010Prop56
140
1.0
102
RTVSPost2010PropOp56
 70
     1
102
RTVSPost2010Prop57
140
1.0
102
RTVSPost2010PropOp57
 70
     1
102
RTVSPropertyOp0
 70
     1
102
RTVSPropertyOp1
 70
     1
102
RTVSPropertyOp2
 70
     1
102
RTVSPropertyOp3
 70
     1
102
RTVSPropertyOp4
 70
     1
102
RTVSPropertyOp5
 70
     1
102
RTVSPropertyOp6
 70
     1
102
RTVSPropertyOp7
 70
     1
102
RTVSPropertyOp8
 70
     1
102
RTVSPropertyOp9
 70
     1
102
RTVSPropertyOp10
 70
     1
102
RTVSPropertyOp11
 70
     1
102
RTVSPropertyOp12
 70
     1
102
RTVSPropertyOp13
 70
     1
102
RTVSPropertyOp14
 70
     1
102
RTVSPropertyOp15
 70
     1
102
RTVSPropertyOp16
 70
     1
102
RTVSPropertyOp17
 70
     1
102
RTVSPropertyOp18
 70
     1
102
RTVSPropertyOp19
 70
     1
102
RTVSPropertyOp20
 70
     1
102
RTVSPropertyOp21
 70
     1
102
RTVSPropertyOp22
 70
     1
102
RTVSPropertyOp23
 70
     1
102
RTVSPropertyOp24
 70
     1
102
RTVSPropertyOp25
 70
     1
102
RTVSPropertyOp26
 70
     1
102
RTVSPropertyOp27
 70
     1
102
RTVSPropertyOp28
 70
     1
102
RTVSPropertyOp29
 70
     1
102
RTVSPropertyOp30
 70
     1
102
RTVSPropertyOp31
 70
     1
102
RTVSPropertyOp32
 70
     1
102
RTVSPropertyOp33
 70
     1
102
RTVSPropertyOp34
 70
     1
102
RTVSPropertyOp35
 70
     1
102
RTVSPropertyOp36
 70
     1
102
RTVSPropertyOp37
 70
     1
102
RTVSPropertyOp38
 70
     1
102
RTVSPropertyOp39
 70
     1
102
RTVSPropertyOp40
 70
     1
102
RTVSPropertyOp41
 70
     1
102
RTVSPropertyOp42
 70
     1
102
RTVSPropertyOp43
 70
     1
102
RTVSPropertyOp44
 70
     1
102
RTVSPropertyOp45
 70
     1
102
RTVSPropertyOp46
 70
     1
102
RTVSPropertyOp47
 70
     1
102
RTVSPropertyOp48
 70
     1
102
RTVSPropertyOp49
 70
     1
102
RTVSPropertyOp50
 70
     1
102
RTVSPropertyOp51
 70
     0
102
RTVSPropertyOp52
 70
     0
102
RTVSPropertyOp53
 70
     1
102
RTVSPropertyOp54
 70
     1
102
RTVSPropertyOp55
 70
     1
102
RTVSPropertyOp56
 70
     1
102
RTVSPropertyOp57
 70
     1
102
RTVSPropertyOp58
 70
     1
102
RTVSPropertyOp59
 70
     1
102
RTVSPropertyOp60
 70
     1
102
RTVSPropertyOp61
 70
     1
102
RTVSPropertyOp62
 70
     1
  0
XRECORD
  5
D7B1
102
{ACAD_REACTORS
330
D7B0
102
}
330
D7B0
100
AcDbXrecord
280
     1
102
RTVSPost2010Prop28
280
     0
102
RTVSPost2010PropOp28
 70
     1
102
RTVSPost2010Prop29
280
     1
102
RTVSPost2010PropOp29
 70
     1
102
RTVSPost2010Prop30
280
     1
102
RTVSPost2010PropOp30
 70
     1
102
RTVSPost2010Prop31
280
     0
102
RTVSPost2010PropOp31
 70
     1
102
RTVSPost2010Prop32
280
     0
102
RTVSPost2010PropOp32
 70
     1
102
RTVSPost2010Prop33
280
     0
102
RTVSPost2010PropOp33
 70
     1
102
RTVSPost2010Prop34
280
     0
102
RTVSPost2010PropOp34
 70
     1
102
RTVSPost2010Prop35
280
     0
102
RTVSPost2010PropOp35
 70
     1
102
RTVSPost2010Prop36
280
     0
102
RTVSPost2010PropOp36
 70
     1
102
RTVSPost2010Prop37
 90
       50
102
RTVSPost2010PropOp37
 70
     1
102
RTVSPost2010Prop38
140
0.0
102
RTVSPost2010PropOp38
 70
     1
102
RTVSPost2010Prop39
140
1.0
102
RTVSPost2010PropOp39
 70
     1
102
RTVSPost2010Prop40
 90
        0
102
RTVSPost2010PropOp40
 70
     1
102
RTVSPost2010Prop41ColorIndex
 90
       18
102
RTVSPost2010Prop41ColorRGB
 90
        0
102
RTVSPost2010PropOp41
 70
     1
102
RTVSPost2010Prop42
 90
       50
102
RTVSPost2010PropOp42
 70
     1
102
RTVSPost2010Prop43
 90
        3
102
RTVSPost2010PropOp43
 70
     1
102
RTVSPost2010Prop44ColorIndex
 90
        5
102
RTVSPost2010Prop44ColorRGB
 90
      255
102
RTVSPost2010PropOp44
 70
     1
102
RTVSPost2010Prop45
280
     0
102
RTVSPost2010PropOp45
 70
     1
102
RTVSPost2010Prop46
 90
       50
102
RTVSPost2010PropOp46
 70
     1
102
RTVSPost2010Prop47
 90
       50
102
RTVSPost2010PropOp47
 70
     1
102
RTVSPost2010Prop48
 90
       50
102
RTVSPost2010PropOp48
 70
     1
102
RTVSPost2010Prop49
280
     0
102
RTVSPost2010PropOp49
 70
     1
102
RTVSPost2010Prop50
 90
       50
102
RTVSPost2010PropOp50
 70
     1
102
RTVSPost2010Prop51ColorIndex
 90
      256
102
RTVSPost2010Prop51ColorRGB
 90
-16777216
102
RTVSPost2010PropOp51
 70
     0
102
RTVSPost2010Prop52
140
1.0
102
RTVSPost2010PropOp52
 70
     0
102
RTVSPost2010Prop53
 90
        2
102
RTVSPost2010PropOp53
 70
     1
102
RTVSPost2010Prop54
  1
strokes_ogs.tif
102
RTVSPost2010PropOp54
 70
     1
102
RTVSPost2010Prop55
280
     0
102
RTVSPost2010PropOp55
 70
     1
102
RTVSPost2010Prop56
140
1.0
102
RTVSPost2010PropOp56
 70
     1
102
RTVSPost2010Prop57
140
1.0
102
RTVSPost2010PropOp57
 70
     1
102
RTVSPropertyOp0
 70
     1
102
RTVSPropertyOp1
 70
     1
102
RTVSPropertyOp2
 70
     1
102
RTVSPropertyOp3
 70
     1
102
RTVSPropertyOp4
 70
     1
102
RTVSPropertyOp5
 70
     1
102
RTVSPropertyOp6
 70
     1
102
RTVSPropertyOp7
 70
     1
102
RTVSPropertyOp8
 70
     1
102
RTVSPropertyOp9
 70
     1
102
RTVSPropertyOp10
 70
     1
102
RTVSPropertyOp11
 70
     1
102
RTVSPropertyOp12
 70
     1
102
RTVSPropertyOp13
 70
     1
102
RTVSPropertyOp14
 70
     1
102
RTVSPropertyOp15
 70
     1
102
RTVSPropertyOp16
 70
     1
102
RTVSPropertyOp17
 70
     1
102
RTVSPropertyOp18
 70
     1
102
RTVSPropertyOp19
 70
     1
102
RTVSPropertyOp20
 70
     1
102
RTVSPropertyOp21
 70
     1
102
RTVSPropertyOp22
 70
     1
102
RTVSPropertyOp23
 70
     1
102
RTVSPropertyOp24
 70
     1
102
RTVSPropertyOp25
 70
     1
102
RTVSPropertyOp26
 70
     1
102
RTVSPropertyOp27
 70
     1
102
RTVSPropertyOp28
 70
     1
102
RTVSPropertyOp29
 70
     1
102
RTVSPropertyOp30
 70
     1
102
RTVSPropertyOp31
 70
     1
102
RTVSPropertyOp32
 70
     1
102
RTVSPropertyOp33
 70
     1
102
RTVSPropertyOp34
 70
     1
102
RTVSPropertyOp35
 70
     1
102
RTVSPropertyOp36
 70
     1
102
RTVSPropertyOp37
 70
     1
102
RTVSPropertyOp38
 70
     1
102
RTVSPropertyOp39
 70
     1
102
RTVSPropertyOp40
 70
     1
102
RTVSPropertyOp41
 70
     1
102
RTVSPropertyOp42
 70
     1
102
RTVSPropertyOp43
 70
     1
102
RTVSPropertyOp44
 70
     1
102
RTVSPropertyOp45
 70
     1
102
RTVSPropertyOp46
 70
     1
102
RTVSPropertyOp47
 70
     1
102
RTVSPropertyOp48
 70
     1
102
RTVSPropertyOp49
 70
     1
102
RTVSPropertyOp50
 70
     1
102
RTVSPropertyOp51
 70
     0
102
RTVSPropertyOp52
 70
     0
102
RTVSPropertyOp53
 70
     1
102
RTVSPropertyOp54
 70
     1
102
RTVSPropertyOp55
 70
     1
102
RTVSPropertyOp56
 70
     1
102
RTVSPropertyOp57
 70
     1
102
RTVSPropertyOp58
 70
     1
102
RTVSPropertyOp59
 70
     1
102
RTVSPropertyOp60
 70
     1
102
RTVSPropertyOp61
 70
     1
102
RTVSPropertyOp62
 70
     1
  0
XRECORD
  5
D7AF
102
{ACAD_REACTORS
330
D7AE
102
}
330
D7AE
100
AcDbXrecord
280
     1
102
RTVSPost2010Prop28
280
     0
102
RTVSPost2010PropOp28
 70
     1
102
RTVSPost2010Prop29
280
     1
102
RTVSPost2010PropOp29
 70
     1
102
RTVSPost2010Prop30
280
     1
102
RTVSPost2010PropOp30
 70
     1
102
RTVSPost2010Prop31
280
     0
102
RTVSPost2010PropOp31
 70
     1
102
RTVSPost2010Prop32
280
     0
102
RTVSPost2010PropOp32
 70
     1
102
RTVSPost2010Prop33
280
     0
102
RTVSPost2010PropOp33
 70
     1
102
RTVSPost2010Prop34
280
     0
102
RTVSPost2010PropOp34
 70
     1
102
RTVSPost2010Prop35
280
     0
102
RTVSPost2010PropOp35
 70
     1
102
RTVSPost2010Prop36
280
     0
102
RTVSPost2010PropOp36
 70
     1
102
RTVSPost2010Prop37
 90
       50
102
RTVSPost2010PropOp37
 70
     1
102
RTVSPost2010Prop38
140
0.0
102
RTVSPost2010PropOp38
 70
     1
102
RTVSPost2010Prop39
140
1.0
102
RTVSPost2010PropOp39
 70
     1
102
RTVSPost2010Prop40
 90
        0
102
RTVSPost2010PropOp40
 70
     1
102
RTVSPost2010Prop41ColorIndex
 90
       18
102
RTVSPost2010Prop41ColorRGB
 90
        0
102
RTVSPost2010PropOp41
 70
     1
102
RTVSPost2010Prop42
 90
       50
102
RTVSPost2010PropOp42
 70
     1
102
RTVSPost2010Prop43
 90
        3
102
RTVSPost2010PropOp43
 70
     1
102
RTVSPost2010Prop44ColorIndex
 90
        5
102
RTVSPost2010Prop44ColorRGB
 90
      255
102
RTVSPost2010PropOp44
 70
     1
102
RTVSPost2010Prop45
280
     0
102
RTVSPost2010PropOp45
 70
     1
102
RTVSPost2010Prop46
 90
       50
102
RTVSPost2010PropOp46
 70
     1
102
RTVSPost2010Prop47
 90
       50
102
RTVSPost2010PropOp47
 70
     1
102
RTVSPost2010Prop48
 90
       50
102
RTVSPost2010PropOp48
 70
     1
102
RTVSPost2010Prop49
280
     0
102
RTVSPost2010PropOp49
 70
     1
102
RTVSPost2010Prop50
 90
       50
102
RTVSPost2010PropOp50
 70
     1
102
RTVSPost2010Prop51ColorIndex
 90
      256
102
RTVSPost2010Prop51ColorRGB
 90
-16777216
102
RTVSPost2010PropOp51
 70
     0
102
RTVSPost2010Prop52
140
1.0
102
RTVSPost2010PropOp52
 70
     0
102
RTVSPost2010Prop53
 90
        2
102
RTVSPost2010PropOp53
 70
     1
102
RTVSPost2010Prop54
  1
strokes_ogs.tif
102
RTVSPost2010PropOp54
 70
     1
102
RTVSPost2010Prop55
280
     0
102
RTVSPost2010PropOp55
 70
     1
102
RTVSPost2010Prop56
140
1.0
102
RTVSPost2010PropOp56
 70
     1
102
RTVSPost2010Prop57
140
1.0
102
RTVSPost2010PropOp57
 70
     1
102
RTVSPropertyOp0
 70
     1
102
RTVSPropertyOp1
 70
     1
102
RTVSPropertyOp2
 70
     1
102
RTVSPropertyOp3
 70
     1
102
RTVSPropertyOp4
 70
     1
102
RTVSPropertyOp5
 70
     1
102
RTVSPropertyOp6
 70
     1
102
RTVSPropertyOp7
 70
     1
102
RTVSPropertyOp8
 70
     1
102
RTVSPropertyOp9
 70
     1
102
RTVSPropertyOp10
 70
     1
102
RTVSPropertyOp11
 70
     1
102
RTVSPropertyOp12
 70
     1
102
RTVSPropertyOp13
 70
     1
102
RTVSPropertyOp14
 70
     1
102
RTVSPropertyOp15
 70
     1
102
RTVSPropertyOp16
 70
     1
102
RTVSPropertyOp17
 70
     1
102
RTVSPropertyOp18
 70
     1
102
RTVSPropertyOp19
 70
     1
102
RTVSPropertyOp20
 70
     1
102
RTVSPropertyOp21
 70
     1
102
RTVSPropertyOp22
 70
     1
102
RTVSPropertyOp23
 70
     1
102
RTVSPropertyOp24
 70
     1
102
RTVSPropertyOp25
 70
     1
102
RTVSPropertyOp26
 70
     1
102
RTVSPropertyOp27
 70
     1
102
RTVSPropertyOp28
 70
     1
102
RTVSPropertyOp29
 70
     1
102
RTVSPropertyOp30
 70
     1
102
RTVSPropertyOp31
 70
     1
102
RTVSPropertyOp32
 70
     1
102
RTVSPropertyOp33
 70
     1
102
RTVSPropertyOp34
 70
     1
102
RTVSPropertyOp35
 70
     1
102
RTVSPropertyOp36
 70
     1
102
RTVSPropertyOp37
 70
     1
102
RTVSPropertyOp38
 70
     1
102
RTVSPropertyOp39
 70
     1
102
RTVSPropertyOp40
 70
     1
102
RTVSPropertyOp41
 70
     1
102
RTVSPropertyOp42
 70
     1
102
RTVSPropertyOp43
 70
     1
102
RTVSPropertyOp44
 70
     1
102
RTVSPropertyOp45
 70
     1
102
RTVSPropertyOp46
 70
     1
102
RTVSPropertyOp47
 70
     1
102
RTVSPropertyOp48
 70
     1
102
RTVSPropertyOp49
 70
     1
102
RTVSPropertyOp50
 70
     1
102
RTVSPropertyOp51
 70
     0
102
RTVSPropertyOp52
 70
     0
102
RTVSPropertyOp53
 70
     1
102
RTVSPropertyOp54
 70
     1
102
RTVSPropertyOp55
 70
     1
102
RTVSPropertyOp56
 70
     1
102
RTVSPropertyOp57
 70
     1
102
RTVSPropertyOp58
 70
     1
102
RTVSPropertyOp59
 70
     1
102
RTVSPropertyOp60
 70
     1
102
RTVSPropertyOp61
 70
     1
102
RTVSPropertyOp62
 70
     1
  0
XRECORD
  5
D7A9
102
{ACAD_REACTORS
330
D7A8
102
}
330
D7A8
100
AcDbXrecord
280
     1
102
RTVSPost2010Prop28
280
     0
102
RTVSPost2010PropOp28
 70
     1
102
RTVSPost2010Prop29
280
     1
102
RTVSPost2010PropOp29
 70
     1
102
RTVSPost2010Prop30
280
     1
102
RTVSPost2010PropOp30
 70
     1
102
RTVSPost2010Prop31
280
     0
102
RTVSPost2010PropOp31
 70
     1
102
RTVSPost2010Prop32
280
     0
102
RTVSPost2010PropOp32
 70
     1
102
RTVSPost2010Prop33
280
     0
102
RTVSPost2010PropOp33
 70
     1
102
RTVSPost2010Prop34
280
     0
102
RTVSPost2010PropOp34
 70
     1
102
RTVSPost2010Prop35
280
     0
102
RTVSPost2010PropOp35
 70
     1
102
RTVSPost2010Prop36
280
     0
102
RTVSPost2010PropOp36
 70
     1
102
RTVSPost2010Prop37
 90
       50
102
RTVSPost2010PropOp37
 70
     1
102
RTVSPost2010Prop38
140
0.0
102
RTVSPost2010PropOp38
 70
     1
102
RTVSPost2010Prop39
140
1.0
102
RTVSPost2010PropOp39
 70
     1
102
RTVSPost2010Prop40
 90
        0
102
RTVSPost2010PropOp40
 70
     1
102
RTVSPost2010Prop41ColorIndex
 90
       18
102
RTVSPost2010Prop41ColorRGB
 90
        0
102
RTVSPost2010PropOp41
 70
     1
102
RTVSPost2010Prop42
 90
       50
102
RTVSPost2010PropOp42
 70
     1
102
RTVSPost2010Prop43
 90
        3
102
RTVSPost2010PropOp43
 70
     1
102
RTVSPost2010Prop44ColorIndex
 90
        5
102
RTVSPost2010Prop44ColorRGB
 90
      255
102
RTVSPost2010PropOp44
 70
     1
102
RTVSPost2010Prop45
280
     0
102
RTVSPost2010PropOp45
 70
     1
102
RTVSPost2010Prop46
 90
       50
102
RTVSPost2010PropOp46
 70
     1
102
RTVSPost2010Prop47
 90
       50
102
RTVSPost2010PropOp47
 70
     1
102
RTVSPost2010Prop48
 90
       50
102
RTVSPost2010PropOp48
 70
     1
102
RTVSPost2010Prop49
280
     0
102
RTVSPost2010PropOp49
 70
     1
102
RTVSPost2010Prop50
 90
       50
102
RTVSPost2010PropOp50
 70
     1
102
RTVSPost2010Prop51ColorIndex
 90
      256
102
RTVSPost2010Prop51ColorRGB
 90
-16777216
102
RTVSPost2010PropOp51
 70
     0
102
RTVSPost2010Prop52
140
1.0
102
RTVSPost2010PropOp52
 70
     0
102
RTVSPost2010Prop53
 90
        2
102
RTVSPost2010PropOp53
 70
     1
102
RTVSPost2010Prop54
  1
strokes_ogs.tif
102
RTVSPost2010PropOp54
 70
     1
102
RTVSPost2010Prop55
280
     0
102
RTVSPost2010PropOp55
 70
     1
102
RTVSPost2010Prop56
140
1.0
102
RTVSPost2010PropOp56
 70
     1
102
RTVSPost2010Prop57
140
1.0
102
RTVSPost2010PropOp57
 70
     1
102
RTVSPropertyOp0
 70
     1
102
RTVSPropertyOp1
 70
     1
102
RTVSPropertyOp2
 70
     1
102
RTVSPropertyOp3
 70
     1
102
RTVSPropertyOp4
 70
     1
102
RTVSPropertyOp5
 70
     1
102
RTVSPropertyOp6
 70
     1
102
RTVSPropertyOp7
 70
     1
102
RTVSPropertyOp8
 70
     1
102
RTVSPropertyOp9
 70
     1
102
RTVSPropertyOp10
 70
     1
102
RTVSPropertyOp11
 70
     1
102
RTVSPropertyOp12
 70
     1
102
RTVSPropertyOp13
 70
     1
102
RTVSPropertyOp14
 70
     1
102
RTVSPropertyOp15
 70
     1
102
RTVSPropertyOp16
 70
     1
102
RTVSPropertyOp17
 70
     1
102
RTVSPropertyOp18
 70
     1
102
RTVSPropertyOp19
 70
     1
102
RTVSPropertyOp20
 70
     1
102
RTVSPropertyOp21
 70
     1
102
RTVSPropertyOp22
 70
     1
102
RTVSPropertyOp23
 70
     1
102
RTVSPropertyOp24
 70
     1
102
RTVSPropertyOp25
 70
     1
102
RTVSPropertyOp26
 70
     1
102
RTVSPropertyOp27
 70
     1
102
RTVSPropertyOp28
 70
     1
102
RTVSPropertyOp29
 70
     1
102
RTVSPropertyOp30
 70
     1
102
RTVSPropertyOp31
 70
     1
102
RTVSPropertyOp32
 70
     1
102
RTVSPropertyOp33
 70
     1
102
RTVSPropertyOp34
 70
     1
102
RTVSPropertyOp35
 70
     1
102
RTVSPropertyOp36
 70
     1
102
RTVSPropertyOp37
 70
     1
102
RTVSPropertyOp38
 70
     1
102
RTVSPropertyOp39
 70
     1
102
RTVSPropertyOp40
 70
     1
102
RTVSPropertyOp41
 70
     1
102
RTVSPropertyOp42
 70
     1
102
RTVSPropertyOp43
 70
     1
102
RTVSPropertyOp44
 70
     1
102
RTVSPropertyOp45
 70
     1
102
RTVSPropertyOp46
 70
     1
102
RTVSPropertyOp47
 70
     1
102
RTVSPropertyOp48
 70
     1
102
RTVSPropertyOp49
 70
     1
102
RTVSPropertyOp50
 70
     1
102
RTVSPropertyOp51
 70
     0
102
RTVSPropertyOp52
 70
     0
102
RTVSPropertyOp53
 70
     1
102
RTVSPropertyOp54
 70
     1
102
RTVSPropertyOp55
 70
     1
102
RTVSPropertyOp56
 70
     1
102
RTVSPropertyOp57
 70
     1
102
RTVSPropertyOp58
 70
     1
102
RTVSPropertyOp59
 70
     1
102
RTVSPropertyOp60
 70
     1
102
RTVSPropertyOp61
 70
     1
102
RTVSPropertyOp62
 70
     1
  0
XRECORD
  5
D7AB
102
{ACAD_REACTORS
330
D7AA
102
}
330
D7AA
100
AcDbXrecord
280
     1
102
RTVSPost2010Prop28
280
     0
102
RTVSPost2010PropOp28
 70
     1
102
RTVSPost2010Prop29
280
     1
102
RTVSPost2010PropOp29
 70
     1
102
RTVSPost2010Prop30
280
     1
102
RTVSPost2010PropOp30
 70
     1
102
RTVSPost2010Prop31
280
     0
102
RTVSPost2010PropOp31
 70
     1
102
RTVSPost2010Prop32
280
     0
102
RTVSPost2010PropOp32
 70
     1
102
RTVSPost2010Prop33
280
     0
102
RTVSPost2010PropOp33
 70
     1
102
RTVSPost2010Prop34
280
     0
102
RTVSPost2010PropOp34
 70
     1
102
RTVSPost2010Prop35
280
     0
102
RTVSPost2010PropOp35
 70
     1
102
RTVSPost2010Prop36
280
     0
102
RTVSPost2010PropOp36
 70
     1
102
RTVSPost2010Prop37
 90
       50
102
RTVSPost2010PropOp37
 70
     1
102
RTVSPost2010Prop38
140
0.0
102
RTVSPost2010PropOp38
 70
     1
102
RTVSPost2010Prop39
140
1.0
102
RTVSPost2010PropOp39
 70
     1
102
RTVSPost2010Prop40
 90
        0
102
RTVSPost2010PropOp40
 70
     1
102
RTVSPost2010Prop41ColorIndex
 90
       18
102
RTVSPost2010Prop41ColorRGB
 90
        0
102
RTVSPost2010PropOp41
 70
     1
102
RTVSPost2010Prop42
 90
       50
102
RTVSPost2010PropOp42
 70
     1
102
RTVSPost2010Prop43
 90
        3
102
RTVSPost2010PropOp43
 70
     1
102
RTVSPost2010Prop44ColorIndex
 90
        5
102
RTVSPost2010Prop44ColorRGB
 90
      255
102
RTVSPost2010PropOp44
 70
     1
102
RTVSPost2010Prop45
280
     0
102
RTVSPost2010PropOp45
 70
     1
102
RTVSPost2010Prop46
 90
       50
102
RTVSPost2010PropOp46
 70
     1
102
RTVSPost2010Prop47
 90
       50
102
RTVSPost2010PropOp47
 70
     1
102
RTVSPost2010Prop48
 90
       50
102
RTVSPost2010PropOp48
 70
     1
102
RTVSPost2010Prop49
280
     0
102
RTVSPost2010PropOp49
 70
     1
102
RTVSPost2010Prop50
 90
       50
102
RTVSPost2010PropOp50
 70
     1
102
RTVSPost2010Prop51ColorIndex
 90
      256
102
RTVSPost2010Prop51ColorRGB
 90
-16777216
102
RTVSPost2010PropOp51
 70
     0
102
RTVSPost2010Prop52
140
1.0
102
RTVSPost2010PropOp52
 70
     0
102
RTVSPost2010Prop53
 90
        2
102
RTVSPost2010PropOp53
 70
     1
102
RTVSPost2010Prop54
  1
strokes_ogs.tif
102
RTVSPost2010PropOp54
 70
     1
102
RTVSPost2010Prop55
280
     0
102
RTVSPost2010PropOp55
 70
     1
102
RTVSPost2010Prop56
140
1.0
102
RTVSPost2010PropOp56
 70
     1
102
RTVSPost2010Prop57
140
1.0
102
RTVSPost2010PropOp57
 70
     1
102
RTVSPropertyOp0
 70
     1
102
RTVSPropertyOp1
 70
     1
102
RTVSPropertyOp2
 70
     1
102
RTVSPropertyOp3
 70
     1
102
RTVSPropertyOp4
 70
     1
102
RTVSPropertyOp5
 70
     1
102
RTVSPropertyOp6
 70
     1
102
RTVSPropertyOp7
 70
     1
102
RTVSPropertyOp8
 70
     1
102
RTVSPropertyOp9
 70
     1
102
RTVSPropertyOp10
 70
     1
102
RTVSPropertyOp11
 70
     1
102
RTVSPropertyOp12
 70
     1
102
RTVSPropertyOp13
 70
     1
102
RTVSPropertyOp14
 70
     1
102
RTVSPropertyOp15
 70
     1
102
RTVSPropertyOp16
 70
     1
102
RTVSPropertyOp17
 70
     1
102
RTVSPropertyOp18
 70
     1
102
RTVSPropertyOp19
 70
     1
102
RTVSPropertyOp20
 70
     1
102
RTVSPropertyOp21
 70
     1
102
RTVSPropertyOp22
 70
     1
102
RTVSPropertyOp23
 70
     1
102
RTVSPropertyOp24
 70
     1
102
RTVSPropertyOp25
 70
     1
102
RTVSPropertyOp26
 70
     1
102
RTVSPropertyOp27
 70
     1
102
RTVSPropertyOp28
 70
     1
102
RTVSPropertyOp29
 70
     1
102
RTVSPropertyOp30
 70
     1
102
RTVSPropertyOp31
 70
     1
102
RTVSPropertyOp32
 70
     1
102
RTVSPropertyOp33
 70
     1
102
RTVSPropertyOp34
 70
     1
102
RTVSPropertyOp35
 70
     1
102
RTVSPropertyOp36
 70
     1
102
RTVSPropertyOp37
 70
     1
102
RTVSPropertyOp38
 70
     1
102
RTVSPropertyOp39
 70
     1
102
RTVSPropertyOp40
 70
     1
102
RTVSPropertyOp41
 70
     1
102
RTVSPropertyOp42
 70
     1
102
RTVSPropertyOp43
 70
     1
102
RTVSPropertyOp44
 70
     1
102
RTVSPropertyOp45
 70
     1
102
RTVSPropertyOp46
 70
     1
102
RTVSPropertyOp47
 70
     1
102
RTVSPropertyOp48
 70
     1
102
RTVSPropertyOp49
 70
     1
102
RTVSPropertyOp50
 70
     1
102
RTVSPropertyOp51
 70
     0
102
RTVSPropertyOp52
 70
     0
102
RTVSPropertyOp53
 70
     1
102
RTVSPropertyOp54
 70
     1
102
RTVSPropertyOp55
 70
     1
102
RTVSPropertyOp56
 70
     1
102
RTVSPropertyOp57
 70
     1
102
RTVSPropertyOp58
 70
     1
102
RTVSPropertyOp59
 70
     1
102
RTVSPropertyOp60
 70
     1
102
RTVSPropertyOp61
 70
     1
102
RTVSPropertyOp62
 70
     1
  0
XRECORD
  5
D7A1
102
{ACAD_REACTORS
330
D7A0
102
}
330
D7A0
100
AcDbXrecord
280
     1
102
RTVSPost2010Prop28
280
     0
102
RTVSPost2010PropOp28
 70
     1
102
RTVSPost2010Prop29
280
     1
102
RTVSPost2010PropOp29
 70
     1
102
RTVSPost2010Prop30
280
     1
102
RTVSPost2010PropOp30
 70
     1
102
RTVSPost2010Prop31
280
     0
102
RTVSPost2010PropOp31
 70
     1
102
RTVSPost2010Prop32
280
     0
102
RTVSPost2010PropOp32
 70
     1
102
RTVSPost2010Prop33
280
     0
102
RTVSPost2010PropOp33
 70
     1
102
RTVSPost2010Prop34
280
     0
102
RTVSPost2010PropOp34
 70
     1
102
RTVSPost2010Prop35
280
     0
102
RTVSPost2010PropOp35
 70
     1
102
RTVSPost2010Prop36
280
     0
102
RTVSPost2010PropOp36
 70
     1
102
RTVSPost2010Prop37
 90
       50
102
RTVSPost2010PropOp37
 70
     1
102
RTVSPost2010Prop38
140
0.0
102
RTVSPost2010PropOp38
 70
     1
102
RTVSPost2010Prop39
140
1.0
102
RTVSPost2010PropOp39
 70
     1
102
RTVSPost2010Prop40
 90
        0
102
RTVSPost2010PropOp40
 70
     1
102
RTVSPost2010Prop41ColorIndex
 90
       18
102
RTVSPost2010Prop41ColorRGB
 90
        0
102
RTVSPost2010PropOp41
 70
     1
102
RTVSPost2010Prop42
 90
       50
102
RTVSPost2010PropOp42
 70
     1
102
RTVSPost2010Prop43
 90
        3
102
RTVSPost2010PropOp43
 70
     1
102
RTVSPost2010Prop44ColorIndex
 90
        5
102
RTVSPost2010Prop44ColorRGB
 90
      255
102
RTVSPost2010PropOp44
 70
     1
102
RTVSPost2010Prop45
280
     0
102
RTVSPost2010PropOp45
 70
     1
102
RTVSPost2010Prop46
 90
       50
102
RTVSPost2010PropOp46
 70
     1
102
RTVSPost2010Prop47
 90
       50
102
RTVSPost2010PropOp47
 70
     1
102
RTVSPost2010Prop48
 90
       50
102
RTVSPost2010PropOp48
 70
     1
102
RTVSPost2010Prop49
280
     0
102
RTVSPost2010PropOp49
 70
     1
102
RTVSPost2010Prop50
 90
       50
102
RTVSPost2010PropOp50
 70
     1
102
RTVSPost2010Prop51ColorIndex
 90
      256
102
RTVSPost2010Prop51ColorRGB
 90
-16777216
102
RTVSPost2010PropOp51
 70
     0
102
RTVSPost2010Prop52
140
1.0
102
RTVSPost2010PropOp52
 70
     0
102
RTVSPost2010Prop53
 90
        2
102
RTVSPost2010PropOp53
 70
     1
102
RTVSPost2010Prop54
  1
strokes_ogs.tif
102
RTVSPost2010PropOp54
 70
     1
102
RTVSPost2010Prop55
280
     0
102
RTVSPost2010PropOp55
 70
     1
102
RTVSPost2010Prop56
140
1.0
102
RTVSPost2010PropOp56
 70
     1
102
RTVSPost2010Prop57
140
1.0
102
RTVSPost2010PropOp57
 70
     1
102
RTVSPropertyOp0
 70
     1
102
RTVSPropertyOp1
 70
     1
102
RTVSPropertyOp2
 70
     1
102
RTVSPropertyOp3
 70
     1
102
RTVSPropertyOp4
 70
     1
102
RTVSPropertyOp5
 70
     1
102
RTVSPropertyOp6
 70
     1
102
RTVSPropertyOp7
 70
     1
102
RTVSPropertyOp8
 70
     1
102
RTVSPropertyOp9
 70
     1
102
RTVSPropertyOp10
 70
     1
102
RTVSPropertyOp11
 70
     1
102
RTVSPropertyOp12
 70
     1
102
RTVSPropertyOp13
 70
     1
102
RTVSPropertyOp14
 70
     1
102
RTVSPropertyOp15
 70
     1
102
RTVSPropertyOp16
 70
     1
102
RTVSPropertyOp17
 70
     1
102
RTVSPropertyOp18
 70
     1
102
RTVSPropertyOp19
 70
     1
102
RTVSPropertyOp20
 70
     1
102
RTVSPropertyOp21
 70
     1
102
RTVSPropertyOp22
 70
     1
102
RTVSPropertyOp23
 70
     1
102
RTVSPropertyOp24
 70
     1
102
RTVSPropertyOp25
 70
     1
102
RTVSPropertyOp26
 70
     1
102
RTVSPropertyOp27
 70
     1
102
RTVSPropertyOp28
 70
     1
102
RTVSPropertyOp29
 70
     1
102
RTVSPropertyOp30
 70
     1
102
RTVSPropertyOp31
 70
     1
102
RTVSPropertyOp32
 70
     1
102
RTVSPropertyOp33
 70
     1
102
RTVSPropertyOp34
 70
     1
102
RTVSPropertyOp35
 70
     1
102
RTVSPropertyOp36
 70
     1
102
RTVSPropertyOp37
 70
     1
102
RTVSPropertyOp38
 70
     1
102
RTVSPropertyOp39
 70
     1
102
RTVSPropertyOp40
 70
     1
102
RTVSPropertyOp41
 70
     1
102
RTVSPropertyOp42
 70
     1
102
RTVSPropertyOp43
 70
     1
102
RTVSPropertyOp44
 70
     1
102
RTVSPropertyOp45
 70
     1
102
RTVSPropertyOp46
 70
     1
102
RTVSPropertyOp47
 70
     1
102
RTVSPropertyOp48
 70
     1
102
RTVSPropertyOp49
 70
     1
102
RTVSPropertyOp50
 70
     1
102
RTVSPropertyOp51
 70
     0
102
RTVSPropertyOp52
 70
     0
102
RTVSPropertyOp53
 70
     1
102
RTVSPropertyOp54
 70
     1
102
RTVSPropertyOp55
 70
     1
102
RTVSPropertyOp56
 70
     1
102
RTVSPropertyOp57
 70
     1
102
RTVSPropertyOp58
 70
     1
102
RTVSPropertyOp59
 70
     1
102
RTVSPropertyOp60
 70
     1
102
RTVSPropertyOp61
 70
     1
102
RTVSPropertyOp62
 70
     1
  0
XRECORD
  5
D795
102
{ACAD_REACTORS
330
D794
102
}
330
D794
100
AcDbXrecord
280
     1
102
RTVSPost2010Prop28
280
     0
102
RTVSPost2010PropOp28
 70
     1
102
RTVSPost2010Prop29
280
     1
102
RTVSPost2010PropOp29
 70
     1
102
RTVSPost2010Prop30
280
     1
102
RTVSPost2010PropOp30
 70
     1
102
RTVSPost2010Prop31
280
     0
102
RTVSPost2010PropOp31
 70
     1
102
RTVSPost2010Prop32
280
     0
102
RTVSPost2010PropOp32
 70
     1
102
RTVSPost2010Prop33
280
     0
102
RTVSPost2010PropOp33
 70
     1
102
RTVSPost2010Prop34
280
     0
102
RTVSPost2010PropOp34
 70
     1
102
RTVSPost2010Prop35
280
     0
102
RTVSPost2010PropOp35
 70
     1
102
RTVSPost2010Prop36
280
     0
102
RTVSPost2010PropOp36
 70
     1
102
RTVSPost2010Prop37
 90
       50
102
RTVSPost2010PropOp37
 70
     1
102
RTVSPost2010Prop38
140
0.0
102
RTVSPost2010PropOp38
 70
     1
102
RTVSPost2010Prop39
140
1.0
102
RTVSPost2010PropOp39
 70
     1
102
RTVSPost2010Prop40
 90
        0
102
RTVSPost2010PropOp40
 70
     1
102
RTVSPost2010Prop41ColorIndex
 90
       18
102
RTVSPost2010Prop41ColorRGB
 90
        0
102
RTVSPost2010PropOp41
 70
     1
102
RTVSPost2010Prop42
 90
       50
102
RTVSPost2010PropOp42
 70
     1
102
RTVSPost2010Prop43
 90
        3
102
RTVSPost2010PropOp43
 70
     1
102
RTVSPost2010Prop44ColorIndex
 90
        5
102
RTVSPost2010Prop44ColorRGB
 90
      255
102
RTVSPost2010PropOp44
 70
     1
102
RTVSPost2010Prop45
280
     0
102
RTVSPost2010PropOp45
 70
     1
102
RTVSPost2010Prop46
 90
       50
102
RTVSPost2010PropOp46
 70
     1
102
RTVSPost2010Prop47
 90
       50
102
RTVSPost2010PropOp47
 70
     1
102
RTVSPost2010Prop48
 90
       50
102
RTVSPost2010PropOp48
 70
     1
102
RTVSPost2010Prop49
280
     0
102
RTVSPost2010PropOp49
 70
     1
102
RTVSPost2010Prop50
 90
       50
102
RTVSPost2010PropOp50
 70
     1
102
RTVSPost2010Prop51ColorIndex
 90
      256
102
RTVSPost2010Prop51ColorRGB
 90
-16777216
102
RTVSPost2010PropOp51
 70
     0
102
RTVSPost2010Prop52
140
1.0
102
RTVSPost2010PropOp52
 70
     0
102
RTVSPost2010Prop53
 90
        2
102
RTVSPost2010PropOp53
 70
     1
102
RTVSPost2010Prop54
  1
strokes_ogs.tif
102
RTVSPost2010PropOp54
 70
     1
102
RTVSPost2010Prop55
280
     0
102
RTVSPost2010PropOp55
 70
     1
102
RTVSPost2010Prop56
140
1.0
102
RTVSPost2010PropOp56
 70
     1
102
RTVSPost2010Prop57
140
1.0
102
RTVSPost2010PropOp57
 70
     1
102
RTVSPropertyOp0
 70
     1
102
RTVSPropertyOp1
 70
     1
102
RTVSPropertyOp2
 70
     1
102
RTVSPropertyOp3
 70
     1
102
RTVSPropertyOp4
 70
     1
102
RTVSPropertyOp5
 70
     1
102
RTVSPropertyOp6
 70
     1
102
RTVSPropertyOp7
 70
     1
102
RTVSPropertyOp8
 70
     1
102
RTVSPropertyOp9
 70
     1
102
RTVSPropertyOp10
 70
     1
102
RTVSPropertyOp11
 70
     1
102
RTVSPropertyOp12
 70
     1
102
RTVSPropertyOp13
 70
     1
102
RTVSPropertyOp14
 70
     1
102
RTVSPropertyOp15
 70
     1
102
RTVSPropertyOp16
 70
     1
102
RTVSPropertyOp17
 70
     1
102
RTVSPropertyOp18
 70
     1
102
RTVSPropertyOp19
 70
     1
102
RTVSPropertyOp20
 70
     1
102
RTVSPropertyOp21
 70
     1
102
RTVSPropertyOp22
 70
     1
102
RTVSPropertyOp23
 70
     1
102
RTVSPropertyOp24
 70
     1
102
RTVSPropertyOp25
 70
     1
102
RTVSPropertyOp26
 70
     1
102
RTVSPropertyOp27
 70
     1
102
RTVSPropertyOp28
 70
     1
102
RTVSPropertyOp29
 70
     1
102
RTVSPropertyOp30
 70
     1
102
RTVSPropertyOp31
 70
     1
102
RTVSPropertyOp32
 70
     1
102
RTVSPropertyOp33
 70
     1
102
RTVSPropertyOp34
 70
     1
102
RTVSPropertyOp35
 70
     1
102
RTVSPropertyOp36
 70
     1
102
RTVSPropertyOp37
 70
     1
102
RTVSPropertyOp38
 70
     1
102
RTVSPropertyOp39
 70
     1
102
RTVSPropertyOp40
 70
     1
102
RTVSPropertyOp41
 70
     1
102
RTVSPropertyOp42
 70
     1
102
RTVSPropertyOp43
 70
     1
102
RTVSPropertyOp44
 70
     1
102
RTVSPropertyOp45
 70
     1
102
RTVSPropertyOp46
 70
     1
102
RTVSPropertyOp47
 70
     1
102
RTVSPropertyOp48
 70
     1
102
RTVSPropertyOp49
 70
     1
102
RTVSPropertyOp50
 70
     1
102
RTVSPropertyOp51
 70
     0
102
RTVSPropertyOp52
 70
     0
102
RTVSPropertyOp53
 70
     1
102
RTVSPropertyOp54
 70
     1
102
RTVSPropertyOp55
 70
     1
102
RTVSPropertyOp56
 70
     1
102
RTVSPropertyOp57
 70
     1
102
RTVSPropertyOp58
 70
     1
102
RTVSPropertyOp59
 70
     1
102
RTVSPropertyOp60
 70
     1
102
RTVSPropertyOp61
 70
     1
102
RTVSPropertyOp62
 70
     1
  0
XRECORD
  5
D7AD
102
{ACAD_REACTORS
330
D7AC
102
}
330
D7AC
100
AcDbXrecord
280
     1
102
RTVSPost2010Prop28
280
     0
102
RTVSPost2010PropOp28
 70
     1
102
RTVSPost2010Prop29
280
     1
102
RTVSPost2010PropOp29
 70
     1
102
RTVSPost2010Prop30
280
     1
102
RTVSPost2010PropOp30
 70
     1
102
RTVSPost2010Prop31
280
     0
102
RTVSPost2010PropOp31
 70
     1
102
RTVSPost2010Prop32
280
     0
102
RTVSPost2010PropOp32
 70
     1
102
RTVSPost2010Prop33
280
     0
102
RTVSPost2010PropOp33
 70
     1
102
RTVSPost2010Prop34
280
     0
102
RTVSPost2010PropOp34
 70
     1
102
RTVSPost2010Prop35
280
     0
102
RTVSPost2010PropOp35
 70
     1
102
RTVSPost2010Prop36
280
     0
102
RTVSPost2010PropOp36
 70
     1
102
RTVSPost2010Prop37
 90
       50
102
RTVSPost2010PropOp37
 70
     1
102
RTVSPost2010Prop38
140
0.0
102
RTVSPost2010PropOp38
 70
     1
102
RTVSPost2010Prop39
140
1.0
102
RTVSPost2010PropOp39
 70
     1
102
RTVSPost2010Prop40
 90
        0
102
RTVSPost2010PropOp40
 70
     1
102
RTVSPost2010Prop41ColorIndex
 90
       18
102
RTVSPost2010Prop41ColorRGB
 90
        0
102
RTVSPost2010PropOp41
 70
     1
102
RTVSPost2010Prop42
 90
       50
102
RTVSPost2010PropOp42
 70
     1
102
RTVSPost2010Prop43
 90
        3
102
RTVSPost2010PropOp43
 70
     1
102
RTVSPost2010Prop44ColorIndex
 90
        5
102
RTVSPost2010Prop44ColorRGB
 90
      255
102
RTVSPost2010PropOp44
 70
     1
102
RTVSPost2010Prop45
280
     0
102
RTVSPost2010PropOp45
 70
     1
102
RTVSPost2010Prop46
 90
       50
102
RTVSPost2010PropOp46
 70
     1
102
RTVSPost2010Prop47
 90
       50
102
RTVSPost2010PropOp47
 70
     1
102
RTVSPost2010Prop48
 90
       50
102
RTVSPost2010PropOp48
 70
     1
102
RTVSPost2010Prop49
280
     0
102
RTVSPost2010PropOp49
 70
     1
102
RTVSPost2010Prop50
 90
       50
102
RTVSPost2010PropOp50
 70
     1
102
RTVSPost2010Prop51ColorIndex
 90
      256
102
RTVSPost2010Prop51ColorRGB
 90
-16777216
102
RTVSPost2010PropOp51
 70
     0
102
RTVSPost2010Prop52
140
1.0
102
RTVSPost2010PropOp52
 70
     0
102
RTVSPost2010Prop53
 90
        2
102
RTVSPost2010PropOp53
 70
     1
102
RTVSPost2010Prop54
  1
strokes_ogs.tif
102
RTVSPost2010PropOp54
 70
     1
102
RTVSPost2010Prop55
280
     0
102
RTVSPost2010PropOp55
 70
     1
102
RTVSPost2010Prop56
140
1.0
102
RTVSPost2010PropOp56
 70
     1
102
RTVSPost2010Prop57
140
1.0
102
RTVSPost2010PropOp57
 70
     1
102
RTVSPropertyOp0
 70
     1
102
RTVSPropertyOp1
 70
     1
102
RTVSPropertyOp2
 70
     1
102
RTVSPropertyOp3
 70
     1
102
RTVSPropertyOp4
 70
     1
102
RTVSPropertyOp5
 70
     1
102
RTVSPropertyOp6
 70
     1
102
RTVSPropertyOp7
 70
     1
102
RTVSPropertyOp8
 70
     1
102
RTVSPropertyOp9
 70
     1
102
RTVSPropertyOp10
 70
     1
102
RTVSPropertyOp11
 70
     1
102
RTVSPropertyOp12
 70
     1
102
RTVSPropertyOp13
 70
     1
102
RTVSPropertyOp14
 70
     1
102
RTVSPropertyOp15
 70
     1
102
RTVSPropertyOp16
 70
     1
102
RTVSPropertyOp17
 70
     1
102
RTVSPropertyOp18
 70
     1
102
RTVSPropertyOp19
 70
     1
102
RTVSPropertyOp20
 70
     1
102
RTVSPropertyOp21
 70
     1
102
RTVSPropertyOp22
 70
     1
102
RTVSPropertyOp23
 70
     1
102
RTVSPropertyOp24
 70
     1
102
RTVSPropertyOp25
 70
     1
102
RTVSPropertyOp26
 70
     1
102
RTVSPropertyOp27
 70
     1
102
RTVSPropertyOp28
 70
     1
102
RTVSPropertyOp29
 70
     1
102
RTVSPropertyOp30
 70
     1
102
RTVSPropertyOp31
 70
     1
102
RTVSPropertyOp32
 70
     1
102
RTVSPropertyOp33
 70
     1
102
RTVSPropertyOp34
 70
     1
102
RTVSPropertyOp35
 70
     1
102
RTVSPropertyOp36
 70
     1
102
RTVSPropertyOp37
 70
     1
102
RTVSPropertyOp38
 70
     1
102
RTVSPropertyOp39
 70
     1
102
RTVSPropertyOp40
 70
     1
102
RTVSPropertyOp41
 70
     1
102
RTVSPropertyOp42
 70
     1
102
RTVSPropertyOp43
 70
     1
102
RTVSPropertyOp44
 70
     1
102
RTVSPropertyOp45
 70
     1
102
RTVSPropertyOp46
 70
     1
102
RTVSPropertyOp47
 70
     1
102
RTVSPropertyOp48
 70
     1
102
RTVSPropertyOp49
 70
     1
102
RTVSPropertyOp50
 70
     1
102
RTVSPropertyOp51
 70
     0
102
RTVSPropertyOp52
 70
     0
102
RTVSPropertyOp53
 70
     1
102
RTVSPropertyOp54
 70
     1
102
RTVSPropertyOp55
 70
     1
102
RTVSPropertyOp56
 70
     1
102
RTVSPropertyOp57
 70
     1
102
RTVSPropertyOp58
 70
     1
102
RTVSPropertyOp59
 70
     1
102
RTVSPropertyOp60
 70
     1
102
RTVSPropertyOp61
 70
     1
102
RTVSPropertyOp62
 70
     1
  0
ENDSEC
  0
EOF
