  0
SECTION
  2
HEADER
  9
$ACADVER
  1
AC1018
  9
$ACADMAINTVER
 70
   104
  9
$DWGCODEPAGE
  3
ANSI_932
  9
$INSBASE
 10
0.0
 20
0.0
 30
0.0
  9
$EXTMIN
 10
-0.43689628
 20
-0.30465887
 30
0.0
  9
$EXTMAX
 10
28681.45343142
 20
20000.30538069
 30
0.0
  9
$LIMMIN
 10
0.0
 20
0.0
  9
$LIMMAX
 10
420.0
 20
330.0
  9
$ORTHOMODE
 70
     1
  9
$REGENMODE
 70
     1
  9
$FILLMODE
 70
     1
  9
$QTEXTMODE
 70
     0
  9
$MIRRTEXT
 70
     0
  9
$LTSCALE
 40
1.0
  9
$ATTMODE
 70
     1
  9
$TEXTSIZE
 40
0.2
  9
$TRACEWID
 40
0.05
  9
$TEXTSTYLE
  7
STANDARD
  9
$CLAYER
  8
0
  9
$CELTYPE
  6
BYLAYER
  9
$CECOLOR
 62
   256
  9
$CELTSCALE
 40
1.0
  9
$DISPSILH
 70
     1
  9
$DIMSCALE
 40
1.0
  9
$DIMASZ
 40
0.18
  9
$DIMEXO
 40
0.0625
  9
$DIMDLI
 40
0.38
  9
$DIMRND
 40
0.0
  9
$DIMDLE
 40
0.0
  9
$DIMEXE
 40
0.18
  9
$DIMTP
 40
0.0
  9
$DIMTM
 40
0.0
  9
$DIMTXT
 40
75.0
  9
$DIMCEN
 40
0.09
  9
$DIMTSZ
 40
0.0
  9
$DIMTOL
 70
     0
  9
$DIMLIM
 70
     0
  9
$DIMTIH
 70
     1
  9
$DIMTOH
 70
     1
  9
$DIMSE1
 70
     0
  9
$DIMSE2
 70
     0
  9
$DIMTAD
 70
     0
  9
$DIMZIN
 70
     0
  9
$DIMBLK
  1

  9
$DIMASO
 70
     1
  9
$DIMSHO
 70
     0
  9
$DIMPOST
  1

  9
$DIMAPOST
  1

  9
$DIMALT
 70
     0
  9
$DIMALTD
 70
     2
  9
$DIMALTF
 40
25.4
  9
$DIMLFAC
 40
1.0
  9
$DIMTOFL
 70
     0
  9
$DIMTVP
 40
0.0
  9
$DIMTIX
 70
     0
  9
$DIMSOXD
 70
     0
  9
$DIMSAH
 70
     0
  9
$DIMBLK1
  1

  9
$DIMBLK2
  1

  9
$DIMSTYLE
  2
STANDARD
  9
$DIMCLRD
 70
     0
  9
$DIMCLRE
 70
     0
  9
$DIMCLRT
 70
     0
  9
$DIMTFAC
 40
1.0
  9
$DIMGAP
 40
0.09
  9
$DIMJUST
 70
     0
  9
$DIMSD1
 70
     0
  9
$DIMSD2
 70
     0
  9
$DIMTOLJ
 70
     1
  9
$DIMTZIN
 70
     0
  9
$DIMALTZ
 70
     0
  9
$DIMALTTZ
 70
     0
  9
$DIMUPT
 70
     0
  9
$DIMDEC
 70
     4
  9
$DIMTDEC
 70
     4
  9
$DIMALTU
 70
     2
  9
$DIMALTTD
 70
     2
  9
$DIMTXSTY
  7
STANDARD
  9
$DIMAUNIT
 70
     0
  9
$DIMADEC
 70
     0
  9
$DIMALTRND
 40
0.0
  9
$DIMAZIN
 70
     0
  9
$DIMDSEP
 70
    46
  9
$DIMATFIT
 70
     3
  9
$DIMFRAC
 70
     0
  9
$DIMLDRBLK
  1

  9
$DIMLUNIT
 70
     2
  9
$DIMLWD
 70
    -2
  9
$DIMLWE
 70
    -2
  9
$DIMTMOVE
 70
     2
  9
$LUNITS
 70
     2
  9
$LUPREC
 70
     4
  9
$SKETCHINC
 40
0.1
  9
$FILLETRAD
 40
1.0
  9
$AUNITS
 70
     0
  9
$AUPREC
 70
     0
  9
$MENU
  1
ACAD
  9
$ELEVATION
 40
0.0
  9
$PELEVATION
 40
0.0
  9
$THICKNESS
 40
0.0
  9
$LIMCHECK
 70
     0
  9
$CHAMFERA
 40
0.0
  9
$CHAMFERB
 40
0.0
  9
$CHAMFERC
 40
0.0
  9
$CHAMFERD
 40
0.0
  9
$SKPOLY
 70
     0
  9
$TDCREATE
 40
2453046.712033600
  9
$TDUCREATE
 40
2453046.337033600
  9
$TDUPDATE
 40
2457185.494822141
  9
$TDUUPDATE
 40
2457185.119822141
  9
$TDINDWG
 40
0.0425113194
  9
$TDUSRTIMER
 40
0.0425113194
  9
$USRTIMER
 70
     1
  9
$ANGBASE
 50
0.0
  9
$ANGDIR
 70
     0
  9
$PDMODE
 70
     0
  9
$PDSIZE
 40
0.0
  9
$PLINEWID
 40
0.0
  9
$SPLFRAME
 70
     0
  9
$SPLINETYPE
 70
     6
  9
$SPLINESEGS
 70
     8
  9
$HANDSEED
  5
5B4
  9
$SURFTAB1
 70
     6
  9
$SURFTAB2
 70
     6
  9
$SURFTYPE
 70
     6
  9
$SURFU
 70
     6
  9
$SURFV
 70
     6
  9
$UCSBASE
  2

  9
$UCSNAME
  2

  9
$UCSORG
 10
0.0
 20
0.0
 30
0.0
  9
$UCSXDIR
 10
1.0
 20
0.0
 30
0.0
  9
$UCSYDIR
 10
0.0
 20
1.0
 30
0.0
  9
$UCSORTHOREF
  2

  9
$UCSORTHOVIEW
 70
     0
  9
$UCSORGTOP
 10
0.0
 20
0.0
 30
0.0
  9
$UCSORGBOTTOM
 10
0.0
 20
0.0
 30
0.0
  9
$UCSORGLEFT
 10
0.0
 20
0.0
 30
0.0
  9
$UCSORGRIGHT
 10
0.0
 20
0.0
 30
0.0
  9
$UCSORGFRONT
 10
0.0
 20
0.0
 30
0.0
  9
$UCSORGBACK
 10
0.0
 20
0.0
 30
0.0
  9
$PUCSBASE
  2

  9
$PUCSNAME
  2

  9
$PUCSORG
 10
0.0
 20
0.0
 30
0.0
  9
$PUCSXDIR
 10
1.0
 20
0.0
 30
0.0
  9
$PUCSYDIR
 10
0.0
 20
1.0
 30
0.0
  9
$PUCSORTHOREF
  2

  9
$PUCSORTHOVIEW
 70
     0
  9
$PUCSORGTOP
 10
0.0
 20
0.0
 30
0.0
  9
$PUCSORGBOTTOM
 10
0.0
 20
0.0
 30
0.0
  9
$PUCSORGLEFT
 10
0.0
 20
0.0
 30
0.0
  9
$PUCSORGRIGHT
 10
0.0
 20
0.0
 30
0.0
  9
$PUCSORGFRONT
 10
0.0
 20
0.0
 30
0.0
  9
$PUCSORGBACK
 10
0.0
 20
0.0
 30
0.0
  9
$USERI1
 70
     0
  9
$USERI2
 70
     0
  9
$USERI3
 70
     0
  9
$USERI4
 70
     0
  9
$USERI5
 70
     0
  9
$USERR1
 40
0.0
  9
$USERR2
 40
0.0
  9
$USERR3
 40
0.0
  9
$USERR4
 40
0.0
  9
$USERR5
 40
0.0
  9
$WORLDVIEW
 70
     1
  9
$SHADEDGE
 70
     3
  9
$SHADEDIF
 70
    70
  9
$TILEMODE
 70
     1
  9
$MAXACTVP
 70
    16
  9
$PINSBASE
 10
0.0
 20
0.0
 30
0.0
  9
$PLIMCHECK
 70
     0
  9
$PEXTMIN
 10
1.00000000E+20
 20
1.00000000E+20
 30
1.00000000E+20
  9
$PEXTMAX
 10
-1.00000000E+20
 20
-1.00000000E+20
 30
-1.00000000E+20
  9
$PLIMMIN
 10
0.0
 20
0.0
  9
$PLIMMAX
 10
12.0
 20
9.0
  9
$UNITMODE
 70
     0
  9
$VISRETAIN
 70
     0
  9
$PLINEGEN
 70
     0
  9
$PSLTSCALE
 70
     0
  9
$TREEDEPTH
 70
  3020
  9
$CMLSTYLE
  2
STANDARD
  9
$CMLJUST
 70
     0
  9
$CMLSCALE
 40
1.0
  9
$PROXYGRAPHICS
 70
     1
  9
$MEASUREMENT
 70
     1
  9
$CELWEIGHT
370
    -1
  9
$ENDCAPS
280
     0
  9
$JOINSTYLE
280
     0
  9
$LWDISPLAY
290
     0
  9
$INSUNITS
 70
     0
  9
$HYPERLINKBASE
  1

  9
$STYLESHEET
  1

  9
$XEDIT
290
     1
  9
$CEPSNTYPE
380
     0
  9
$PSTYLEMODE
290
     1
  9
$FINGERPRINTGUID
  2
{F6F035DB-79F0-40FF-9989-4CD4175DCB43}
  9
$VERSIONGUID
  2
{F96D7733-AD66-4AF5-9863-16A3B07D9E6F}
  9
$EXTNAMES
290
     1
  9
$PSVPSCALE
 40
0.0
  9
$OLESTARTUP
290
     0
  9
$SORTENTS
280
   127
  9
$INDEXCTL
280
     0
  9
$HIDETEXT
280
     0
  9
$XCLIPFRAME
290
     0
  9
$HALOGAP
280
     0
  9
$OBSCOLOR
 70
   257
  9
$OBSLTYPE
280
     0
  9
$INTERSECTIONDISPLAY
280
     0
  9
$INTERSECTIONCOLOR
 70
   257
  9
$DIMASSOC
280
     1
  9
$PROJECTNAME
  1

  0
ENDSEC
  0
SECTION
  2
CLASSES
  0
CLASS
  1
DICTIONARYVAR
  2
AcDbDictionaryVar
  3
ObjectDBX Classes
 90
        0
 91
        7
280
     0
281
     0
  0
CLASS
  1
ACDBDICTIONARYWDFLT
  2
AcDbDictionaryWithDefault
  3
ObjectDBX Classes
 90
        0
 91
        1
280
     0
281
     0
  0
CLASS
  1
MATERIAL
  2
AcDbMaterial
  3
ObjectDBX Classes
 90
     1153
 91
        3
280
     0
281
     0
  0
CLASS
  1
VISUALSTYLE
  2
AcDbVisualStyle
  3
ObjectDBX Classes
 90
     4095
 91
       24
280
     0
281
     0
  0
CLASS
  1
TABLESTYLE
  2
AcDbTableStyle
  3
ObjectDBX Classes
 90
     4095
 91
        1
280
     0
281
     0
  0
CLASS
  1
SCALE
  2
AcDbScale
  3
ObjectDBX Classes
 90
     1153
 91
       17
280
     0
281
     0
  0
CLASS
  1
MLEADERSTYLE
  2
AcDbMLeaderStyle
  3
ACDB_MLEADERSTYLE_CLASS
 90
     4095
 91
        1
280
     0
281
     0
  0
CLASS
  1
ACDBSECTIONVIEWSTYLE
  2
AcDbSectionViewStyle
  3
ObjectDBX Classes
 90
     1025
 91
        1
280
     0
281
     0
  0
CLASS
  1
ACDBDETAILVIEWSTYLE
  2
AcDbDetailViewStyle
  3
ObjectDBX Classes
 90
     1025
 91
        1
280
     0
281
     0
  0
CLASS
  1
CELLSTYLEMAP
  2
AcDbCellStyleMap
  3
ObjectDBX Classes
 90
     1152
 91
        2
280
     0
281
     0
  0
ENDSEC
  0
SECTION
  2
TABLES
  0
TABLE
  2
VPORT
  5
12
330
0
100
AcDbSymbolTable
 70
     1
  0
VPORT
  5
4D2
330
12
100
AcDbSymbolTableRecord
100
AcDbViewportTableRecord
  2
*ACTIVE
 70
     0
 10
0.0
 20
0.0
 11
1.0
 21
1.0
 12
14340.50826757
 22
10000.00036091
 13
0.0
 23
0.0
 14
1.0
 24
1.0
 15
10.0
 25
10.0
 16
0.0
 26
0.0
 36
1.0
 17
0.0
 27
0.0
 37
0.0
 40
21503.30347068
 41
1.34178905
 42
50.0
 43
0.0
 44
0.0
 50
0.0
 51
0.0
 71
     0
 72
   100
 73
     1
 74
     0
 75
     0
 76
     0
 77
     0
 78
     0
281
     0
 65
     1
110
0.0
120
0.0
130
0.0
111
1.0
121
0.0
131
0.0
112
0.0
122
1.0
132
0.0
 79
     0
146
0.0
1001
ACAD_NAV_VCDISPLAY
1070
     1
  0
ENDTAB
  0
TABLE
  2
LTYPE
  5
D
330
0
100
AcDbSymbolTable
 70
     6
  0
LTYPE
  5
E
330
D
100
AcDbSymbolTableRecord
100
AcDbLinetypeTableRecord
  2
BYBLOCK
 70
     0
  3

 72
    65
 73
     0
 40
0.0
  0
LTYPE
  5
F
330
D
100
AcDbSymbolTableRecord
100
AcDbLinetypeTableRecord
  2
BYLAYER
 70
     0
  3

 72
    65
 73
     0
 40
0.0
  0
LTYPE
  5
5
330
D
100
AcDbSymbolTableRecord
100
AcDbLinetypeTableRecord
  2
CONTINUOUS
 70
     0
  3
Solid line
 72
    65
 73
     0
 40
0.0
  0
LTYPE
  5
5E
330
D
100
AcDbSymbolTableRecord
100
AcDbLinetypeTableRecord
  2
CENTER
 70
     0
  3
____ _ ____ _ ____ _ ____ _ ____ _ ____ _ ____
 72
    65
 73
     4
 40
17.5
 49
13.0
 74
     0
 49
-1.5
 74
     0
 49
1.5
 74
     0
 49
-1.5
 74
     0
  0
LTYPE
  5
56
330
D
100
AcDbSymbolTableRecord
100
AcDbLinetypeTableRecord
  2
PHANTOM
 70
     0
  3
_____ _ _ _____ _ _ _____ _ _ _____ _ _ ____  
 72
    65
 73
     6
 40
15.5
 49
8.0
 74
     0
 49
-1.5
 74
     0
 49
1.5
 74
     0
 49
-1.5
 74
     0
 49
1.5
 74
     0
 49
-1.5
 74
     0
  0
LTYPE
  5
CA
330
D
100
AcDbSymbolTableRecord
100
AcDbLinetypeTableRecord
  2
ITTENSAP
 70
     0
  3

 72
    65
 73
     4
 40
5.5
 49
3.0
 74
     0
 49
-1.0
 74
     0
 49
0.5
 74
     0
 49
-1.0
 74
     0
  0
LTYPE
  5
C6
330
D
100
AcDbSymbolTableRecord
100
AcDbLinetypeTableRecord
  2
NITENSAP
 70
     0
  3

 72
    65
 73
     6
 40
7.5
 49
3.0
 74
     0
 49
-1.0
 74
     0
 49
0.5
 74
     0
 49
-1.5
 74
     0
 49
0.5
 74
     0
 49
-1.0
 74
     0
  0
LTYPE
  5
3C
330
D
100
AcDbSymbolTableRecord
100
AcDbLinetypeTableRecord
  2
YCENTER_1
 70
     0
  3
中心線尺度1--- － --- － ---
 72
    65
 73
     4
 40
13.0
 49
10.0
 74
     0
 49
-1.0
 74
     0
 49
1.0
 74
     0
 49
-1.0
 74
     0
  0
ENDTAB
  0
TABLE
  2
LAYER
  5
A
330
0
100
AcDbSymbolTable
 70
    11
  0
LAYER
  5
4
330
A
100
AcDbSymbolTableRecord
100
AcDbLayerTableRecord
  2
0
 70
     0
 62
     7
  6
CONTINUOUS
370
    -3
390
4D5
  0
LAYER
  5
44
330
A
100
AcDbSymbolTableRecord
100
AcDbLayerTableRecord
  2
YKK_IN
 70
     0
 62
     1
  6
CONTINUOUS
370
    -3
390
4D5
  0
LAYER
  5
23
330
A
100
AcDbSymbolTableRecord
100
AcDbLayerTableRecord
  2
YKK_F1
 70
     0
 62
     7
  6
CONTINUOUS
370
    -3
390
4D5
  0
LAYER
  5
1E
330
A
100
AcDbSymbolTableRecord
100
AcDbLayerTableRecord
  2
YKK_N1
 70
     0
 62
     2
  6
CONTINUOUS
370
    -3
390
4D5
  0
LAYER
  5
48
330
A
100
AcDbSymbolTableRecord
100
AcDbLayerTableRecord
  2
YKK_Z1
 70
     0
 62
     7
  6
CONTINUOUS
370
    -3
390
4D5
  0
LAYER
  5
36
330
A
100
AcDbSymbolTableRecord
100
AcDbLayerTableRecord
  2
YKK_A1
 70
     0
 62
     4
  6
CONTINUOUS
370
    -3
390
4D5
  0
LAYER
  5
4B
330
A
100
AcDbSymbolTableRecord
100
AcDbLayerTableRecord
  2
YKK_A2
 70
     0
 62
     3
  6
CONTINUOUS
370
    -3
390
4D5
  0
LAYER
  5
4D
330
A
100
AcDbSymbolTableRecord
100
AcDbLayerTableRecord
  2
YKK_B1
 70
     0
 62
     4
  6
CONTINUOUS
370
    -3
390
4D5
  0
LAYER
  5
31
330
A
100
AcDbSymbolTableRecord
100
AcDbLayerTableRecord
  2
YKK_C1
 70
     0
 62
     4
  6
CONTINUOUS
370
    -3
390
4D5
  0
LAYER
  5
50
330
A
100
AcDbSymbolTableRecord
100
AcDbLayerTableRecord
  2
YKK_B2
 70
     0
 62
     5
  6
CONTINUOUS
370
    -3
390
4D5
  0
LAYER
  5
52
330
A
100
AcDbSymbolTableRecord
100
AcDbLayerTableRecord
  2
YKK_C2
 70
     0
 62
     5
  6
CONTINUOUS
370
    -3
390
4D5
  0
ENDTAB
  0
TABLE
  2
STYLE
  5
B
330
0
100
AcDbSymbolTable
 70
     1
  0
STYLE
  5
C
330
B
100
AcDbSymbolTableRecord
100
AcDbTextStyleTableRecord
  2
STANDARD
 70
     0
 40
0.0
 41
1.0
 50
0.0
 71
     0
 42
0.2
  3
txt.shx
  4
bigfont.shx
  0
ENDTAB
  0
TABLE
  2
VIEW
  5
10
330
0
100
AcDbSymbolTable
 70
     0
  0
ENDTAB
  0
TABLE
  2
UCS
  5
11
330
0
100
AcDbSymbolTable
 70
     0
  0
ENDTAB
  0
TABLE
  2
APPID
  5
14
330
0
100
AcDbSymbolTable
 70
     5
  0
APPID
  5
15
330
14
100
AcDbSymbolTableRecord
100
AcDbRegAppTableRecord
  2
ACAD
 70
     0
  0
APPID
  5
560
330
14
100
AcDbSymbolTableRecord
100
AcDbRegAppTableRecord
  2
ACAD_MLEADERVER
 70
     0
  0
APPID
  5
574
330
14
100
AcDbSymbolTableRecord
100
AcDbRegAppTableRecord
  2
ACAD_PSEXT
 70
     0
  0
APPID
  5
575
330
14
100
AcDbSymbolTableRecord
100
AcDbRegAppTableRecord
  2
ACAD_NAV_VCDISPLAY
 70
     0
  0
APPID
  5
576
330
14
100
AcDbSymbolTableRecord
100
AcDbRegAppTableRecord
  2
YKK_AP_LOCKLAYER
 70
     0
  0
ENDTAB
  0
TABLE
  2
DIMSTYLE
  5
16
330
0
100
AcDbSymbolTable
 70
     1
100
AcDbDimStyleTable
 71
     0
  0
DIMSTYLE
105
1C
330
16
100
AcDbSymbolTableRecord
100
AcDbDimStyleTableRecord
  2
STANDARD
 70
     0
279
     2
340
C
  0
ENDTAB
  0
TABLE
  2
BLOCK_RECORD
  5
1
330
0
100
AcDbSymbolTable
 70
     0
  0
BLOCK_RECORD
  5
2
330
1
100
AcDbSymbolTableRecord
100
AcDbBlockTableRecord
  2
*MODEL_SPACE
340
527
  0
BLOCK_RECORD
  5
7
330
1
100
AcDbSymbolTableRecord
100
AcDbBlockTableRecord
  2
*PAPER_SPACE
340
528
  0
ENDTAB
  0
ENDSEC
  0
SECTION
  2
BLOCKS
  0
BLOCK
  5
3
330
2
100
AcDbEntity
  8
0
100
AcDbBlockBegin
  2
*MODEL_SPACE
 70
     0
 10
0.0
 20
0.0
 30
0.0
  3
*MODEL_SPACE
  1

  0
ENDBLK
  5
6
330
2
100
AcDbEntity
  8
0
100
AcDbBlockEnd
  0
BLOCK
  5
8
330
7
100
AcDbEntity
 67
     1
  8
0
100
AcDbBlockBegin
  2
*PAPER_SPACE
 70
     0
 10
0.0
 20
0.0
 30
0.0
  3
*PAPER_SPACE
  1

  0
ENDBLK
  5
9
330
7
100
AcDbEntity
 67
     1
  8
0
100
AcDbBlockEnd
  0
ENDSEC
  0
SECTION
  2
ENTITIES
  0
LINE
  5
1D
330
2
100
AcDbEntity
  8
YKK_N1
100
AcDbLine
 10
14285.00000322
 20
16609.3974742
 30
0.0
 11
14385.00001203
 21
16609.3974742
 31
0.0
  0
LINE
  5
1F
330
2
100
AcDbEntity
  8
YKK_N1
  6
Continuous
100
AcDbLine
 10
14385.00001203
 20
16609.3974742
 30
0.0
 11
14335.00000322
 21
16696.00002852
 31
0.0
  0
LINE
  5
20
330
2
100
AcDbEntity
  8
YKK_N1
  6
Continuous
100
AcDbLine
 10
14385.00001203
 20
15632.6025218
 30
0.0
 11
14335.00000322
 21
15545.99996748
 31
0.0
  0
LINE
  5
21
330
2
100
AcDbEntity
  8
YKK_N1
100
AcDbLine
 10
14285.00000322
 20
15632.6025218
 30
0.0
 11
14385.00001203
 21
15632.6025218
 31
0.0
  0
LINE
  5
22
330
2
100
AcDbEntity
  8
YKK_F1
100
AcDbLine
 10
0.0
 20
13000.0
 30
0.0
 11
28500.0
 21
13000.0
 31
0.0
  0
LINE
  5
24
330
2
100
AcDbEntity
  8
YKK_F1
100
AcDbLine
 10
0.0
 20
12550.0
 30
0.0
 11
28500.0
 21
12550.0
 31
0.0
  0
LINE
  5
25
330
2
100
AcDbEntity
  8
YKK_F1
100
AcDbLine
 10
0.0
 20
12100.0
 30
0.0
 11
28500.0
 21
12100.0
 31
0.0
  0
LINE
  5
26
330
2
100
AcDbEntity
  8
YKK_F1
100
AcDbLine
 10
0.0
 20
6500.0
 30
0.0
 11
28500.0
 21
6500.0
 31
0.0
  0
LINE
  5
27
330
2
100
AcDbEntity
  8
YKK_F1
100
AcDbLine
 10
0.0
 20
6050.0
 30
0.0
 11
28500.0
 21
6050.0
 31
0.0
  0
LINE
  5
28
330
2
100
AcDbEntity
  8
YKK_F1
100
AcDbLine
 10
0.0
 20
5600.0
 30
0.0
 11
28500.0
 21
5600.0
 31
0.0
  0
LINE
  5
29
330
2
100
AcDbEntity
  8
YKK_F1
100
AcDbLine
 10
0.0
 20
18600.0
 30
0.0
 11
28500.0
 21
18600.0
 31
0.0
  0
LINE
  5
2A
330
2
100
AcDbEntity
  8
YKK_F1
100
AcDbLine
 10
0.0
 20
19050.0
 30
0.0
 11
28500.0
 21
19050.0
 31
0.0
  0
LINE
  5
2B
330
2
100
AcDbEntity
  8
YKK_F1
100
AcDbLine
 10
0.0
 20
0.0
 30
0.0
 11
28681.0155
 21
0.0
 31
0.0
  0
LINE
  5
2C
330
2
100
AcDbEntity
  8
YKK_F1
100
AcDbLine
 10
0.0
 20
20000.0
 30
0.0
 11
28681.0155
 21
20000.0
 31
0.0
  0
LINE
  5
2D
330
2
100
AcDbEntity
  8
YKK_F1
100
AcDbLine
 10
0.0
 20
19500.0
 30
0.0
 11
28500.0
 21
19500.0
 31
0.0
  0
TEXT
  5
2E
330
2
100
AcDbEntity
  8
YKK_N1
  6
Continuous
100
AcDbText
 10
3771.81088813
 20
9890.99999659
 30
0.0
 40
60.0
  1
H=2000
 50
90.0000025
 72
     4
 11
3741.81088135
 21
10045.99999528
 31
0.0
100
AcDbText
  0
LINE
  5
2F
330
2
100
AcDbEntity
  8
YKK_N1
  6
Continuous
100
AcDbLine
 10
3783.81088135
 20
11045.99993424
 30
0.0
 11
3783.81088135
 21
9045.99993424
 31
0.0
  0
LINE
  5
30
330
2
100
AcDbEntity
  8
YKK_C1
100
AcDbLine
 10
3554.81085043
 20
9040.99993424
 30
0.0
 11
3554.81085043
 21
10528.00007771
 31
0.0
  0
LINE
  5
32
330
2
100
AcDbEntity
  8
YKK_C1
100
AcDbLine
 10
3579.81085076
 20
10528.00007771
 30
0.0
 11
3579.81085076
 21
9040.99993424
 31
0.0
  0
LINE
  5
33
330
2
100
AcDbEntity
  8
YKK_C1
  6
Continuous
100
AcDbLine
 10
3583.81085083
 20
9035.99993456
 30
0.0
 11
3583.81085083
 21
11056.00005631
 31
0.0
  0
LINE
  5
34
330
2
100
AcDbEntity
  8
YKK_C1
  6
Continuous
100
AcDbLine
 10
3550.8108509
 20
11081.00005631
 30
0.0
 11
3550.8108509
 21
9010.99993424
 31
0.0
  0
LINE
  5
35
330
2
100
AcDbEntity
  8
YKK_A1
  6
Continuous
 48
1.5
100
AcDbLine
 10
2534.99904311
 20
9010.99993744
 30
0.0
 11
2534.99904311
 21
11055.99981554
 31
0.0
  0
LINE
  5
37
330
2
100
AcDbEntity
  8
YKK_A1
  6
Continuous
 48
1.5
100
AcDbLine
 10
1964.99907709
 20
11080.99981405
 30
0.0
 11
1964.99907709
 21
9010.99993744
 31
0.0
  0
LINE
  5
38
330
2
100
AcDbEntity
  8
YKK_A1
  6
Continuous
 48
1.5
100
AcDbLine
 10
1939.99907858
 20
11080.99981405
 30
0.0
 11
1939.99907858
 21
9010.99993744
 31
0.0
  0
LINE
  5
39
330
2
100
AcDbEntity
  8
YKK_A1
  6
Continuous
 48
1.5
100
AcDbLine
 10
2559.99904162
 20
9010.99993744
 30
0.0
 11
2559.99904162
 21
11080.99981405
 31
0.0
  0
LINE
  5
3A
330
2
100
AcDbEntity
  8
YKK_N1
  6
Continuous
100
AcDbLine
 10
2759.99907214
 20
11045.99993424
 30
0.0
 11
2759.99907214
 21
9045.99993424
 31
0.0
  0
LINE
  5
3B
330
2
100
AcDbEntity
  8
YKK_A1
  6
YCENTER_1
 48
1.5
100
AcDbLine
 10
1968.99919568
 20
10527.99996205
 30
0.0
 11
2530.99916218
 21
9784.50000637
 31
0.0
  0
LINE
  5
3D
330
2
100
AcDbEntity
  8
YKK_A1
  6
Continuous
 48
1.5
100
AcDbLine
 10
1968.99907685
 20
10527.99984702
 30
0.0
 11
1968.99907685
 21
9040.99993565
 31
0.0
  0
LINE
  5
3E
330
2
100
AcDbEntity
  8
YKK_A1
  6
Continuous
 48
1.5
100
AcDbLine
 10
2530.99904335
 20
9040.99993565
 30
0.0
 11
2530.99904335
 21
10527.99984702
 31
0.0
  0
TEXT
  5
3F
330
2
100
AcDbEntity
  8
YKK_N1
  6
Continuous
100
AcDbText
 10
2747.99907891
 20
9890.99999659
 30
0.0
 40
60.0
  1
H=2000
 50
90.0000025
 72
     4
 11
2717.99907214
 21
10045.99999528
 31
0.0
100
AcDbText
  0
LINE
  5
40
330
2
100
AcDbEntity
  8
YKK_F1
100
AcDbLine
 10
11400.0
 20
0.0
 30
0.0
 11
11400.0
 21
19500.0
 31
0.0
  0
LINE
  5
41
330
2
100
AcDbEntity
  8
YKK_F1
100
AcDbLine
 10
5700.0
 20
0.0
 30
0.0
 11
5700.0
 21
19500.0
 31
0.0
  0
LINE
  5
42
330
2
100
AcDbEntity
  8
YKK_F1
100
AcDbLine
 10
0.0
 20
0.0
 30
0.0
 11
0.0
 21
20000.0
 31
0.0
  0
POINT
  5
43
330
2
100
AcDbEntity
  8
YKK_IN
100
AcDbPoint
 10
0.0
 20
0.0
 30
0.0
  0
POINT
  5
45
330
2
100
AcDbEntity
  8
YKK_F1
100
AcDbPoint
 10
0.0
 20
0.0
 30
0.0
  0
POINT
  5
46
330
2
100
AcDbEntity
  8
YKK_N1
100
AcDbPoint
 10
0.0
 20
0.0
 30
0.0
  0
POINT
  5
47
330
2
100
AcDbEntity
  8
YKK_Z1
100
AcDbPoint
 10
0.0
 20
0.0
 30
0.0
  0
POINT
  5
49
330
2
100
AcDbEntity
  8
YKK_A1
100
AcDbPoint
 10
0.0
 20
0.0
 30
0.0
  0
POINT
  5
4A
330
2
100
AcDbEntity
  8
YKK_A2
100
AcDbPoint
 10
0.0
 20
0.0
 30
0.0
  0
POINT
  5
4C
330
2
100
AcDbEntity
  8
YKK_B1
100
AcDbPoint
 10
0.0
 20
0.0
 30
0.0
  0
POINT
  5
4E
330
2
100
AcDbEntity
  8
YKK_C1
100
AcDbPoint
 10
0.0
 20
0.0
 30
0.0
  0
POINT
  5
4F
330
2
100
AcDbEntity
  8
YKK_B2
100
AcDbPoint
 10
0.0
 20
0.0
 30
0.0
  0
POINT
  5
51
330
2
100
AcDbEntity
  8
YKK_C2
100
AcDbPoint
 10
0.0
 20
0.0
 30
0.0
  0
LINE
  5
53
330
2
100
AcDbEntity
  8
YKK_N1
  6
Continuous
100
AcDbLine
 10
1974.99912434
 20
7347.19994645
 30
0.0
 11
2061.60167867
 21
7397.19994645
 31
0.0
  0
LINE
  5
54
330
2
100
AcDbEntity
  8
YKK_N1
  6
Continuous
100
AcDbLine
 10
2061.60167867
 20
7297.19993764
 30
0.0
 11
1974.99912434
 21
7347.19994645
 31
0.0
  0
ARC
  5
55
330
2
100
AcDbEntity
  8
YKK_B1
  6
PHANTOM
100
AcDbCircle
 10
1988.91535379
 20
7579.53327024
 30
0.0
 40
542.0940879416007
100
AcDbArc
 50
359.64768415
 51
92.25709372
  0
LINE
  5
57
330
2
100
AcDbEntity
  8
YKK_B1
  6
Continuous
100
AcDbLine
 10
1969.03924927
 20
7578.99991597
 30
0.0
 11
2531.03932556
 21
7578.99991597
 31
0.0
  0
LINE
  5
58
330
2
100
AcDbEntity
  8
YKK_B1
  6
Continuous
100
AcDbLine
 10
1964.99911697
 20
7547.19991597
 30
0.0
 11
2534.99919327
 21
7547.19991597
 31
0.0
  0
LINE
  5
59
330
2
100
AcDbEntity
  8
YKK_B1
  6
Continuous
100
AcDbLine
 10
2530.99919318
 20
7551.19991593
 30
0.0
 11
1968.99911689
 21
7551.19991593
 31
0.0
  0
LINE
  5
5A
330
2
100
AcDbEntity
  8
YKK_B1
  6
Continuous
100
AcDbLine
 10
2530.99919318
 20
7576.19991593
 30
0.0
 11
1968.99911689
 21
7576.19991593
 31
0.0
  0
LINE
  5
5B
330
2
100
AcDbEntity
  8
YKK_N1
  6
Continuous
100
AcDbLine
 10
1974.99912434
 20
7347.19994645
 30
0.0
 11
2524.99912435
 21
7347.19994645
 31
0.0
  0
LINE
  5
5C
330
2
100
AcDbEntity
  8
YKK_B1
  6
PHANTOM
100
AcDbLine
 10
1967.56577569
 20
7559.1665755
 30
0.0
 11
1967.56577569
 21
8121.20678417
 31
0.0
  0
LINE
  5
5D
330
2
100
AcDbEntity
  8
YKK_B1
  6
CENTER
 48
1.5
100
AcDbLine
 10
1978.19911653
 20
7576.67160114
 30
0.0
 11
1978.19911653
 21
7560.06154914
 31
0.0
  0
LINE
  5
5F
330
2
100
AcDbEntity
  8
YKK_N1
  6
Continuous
100
AcDbLine
 10
1964.99912434
 20
7472.19991593
 30
0.0
 11
1964.99912434
 21
7347.19994645
 31
0.0
  0
LINE
  5
60
330
2
100
AcDbEntity
  8
YKK_N1
  6
Continuous
100
AcDbLine
 10
1974.99912434
 20
7472.19991593
 30
0.0
 11
1974.99912434
 21
7347.19994645
 31
0.0
  0
LINE
  5
61
330
2
100
AcDbEntity
  8
YKK_N1
  6
Continuous
100
AcDbLine
 10
1964.99912434
 20
7347.19994645
 30
0.0
 11
1974.99912434
 21
7347.19994645
 31
0.0
  0
CIRCLE
  5
62
330
2
100
AcDbEntity
  8
YKK_N1
  6
Continuous
100
AcDbCircle
 10
1964.99912434
 20
7347.19994645
 30
0.0
 40
5.0
  0
TEXT
  5
63
330
2
100
AcDbEntity
  8
YKK_N1
  6
Continuous
100
AcDbText
 10
1866.11834777
 20
7359.19994645
 30
0.0
 40
60.0
  1
10
 72
     4
 11
1901.11834777
 21
7389.19994645
 31
0.0
100
AcDbText
  0
LINE
  5
64
330
2
100
AcDbEntity
  8
YKK_B1
  6
Continuous
100
AcDbLine
 10
1939.99911689
 20
7580.19991593
 30
0.0
 11
1939.99911689
 21
7558.99991593
 31
0.0
  0
LINE
  5
65
330
2
100
AcDbEntity
  8
YKK_B1
  6
Continuous
100
AcDbLine
 10
1968.99911689
 20
7576.19991593
 30
0.0
 11
1968.99911689
 21
7551.19991593
 31
0.0
  0
LINE
  5
66
330
2
100
AcDbEntity
  8
YKK_B1
  6
Continuous
100
AcDbLine
 10
1964.99911689
 20
7580.19991593
 30
0.0
 11
1964.99911689
 21
7547.19991593
 31
0.0
  0
LINE
  5
67
330
2
100
AcDbEntity
  8
YKK_B1
  6
Continuous
100
AcDbLine
 10
1939.99911689
 20
7580.19991593
 30
0.0
 11
1964.99911689
 21
7580.19991593
 31
0.0
  0
CIRCLE
  5
68
330
2
100
AcDbEntity
  8
YKK_B1
  6
Continuous
 48
1.5
100
AcDbCircle
 10
1978.19911653
 20
7568.36657514
 30
0.0
 40
6.305025999999999
  0
LINE
  5
69
330
2
100
AcDbEntity
  8
YKK_B1
  6
CENTER
 48
1.5
100
AcDbLine
 10
1969.89409053
 20
7568.36657514
 30
0.0
 11
1986.50414253
 21
7568.36657514
 31
0.0
  0
TEXT
  5
6A
330
2
100
AcDbEntity
  8
YKK_N1
  6
Continuous
100
AcDbText
 10
2187.97466726
 20
7602.74019734
 30
0.0
 40
60.0
  1
33
 50
90.0000025
 72
     4
 11
2157.97466508
 21
7652.74019603
 31
0.0
100
AcDbText
  0
TEXT
  5
6B
330
2
100
AcDbEntity
  8
YKK_N1
  6
Continuous
100
AcDbText
 10
2559.52439018
 20
7359.19994645
 30
0.0
 40
60.0
  1
10
 72
     4
 11
2594.52439018
 21
7389.19994645
 31
0.0
100
AcDbText
  0
TEXT
  5
6C
330
2
100
AcDbEntity
  8
YKK_N1
  6
Continuous
100
AcDbText
 10
2104.99916249
 20
7359.19994645
 30
0.0
 40
60.0
  1
W=550
 72
     4
 11
2249.99916249
 21
7389.19994645
 31
0.0
100
AcDbText
  0
LINE
  5
6D
330
2
100
AcDbEntity
  8
YKK_N1
100
AcDbLine
 10
2061.60167867
 20
7397.19994645
 30
0.0
 11
2061.60167867
 21
7297.19993764
 31
0.0
  0
LINE
  5
6E
330
2
100
AcDbEntity
  8
YKK_N1
100
AcDbLine
 10
2199.97466508
 20
7580.19991597
 30
0.0
 11
2074.97466508
 21
7580.19991597
 31
0.0
  0
LINE
  5
6F
330
2
100
AcDbEntity
  8
YKK_N1
  6
Continuous
100
AcDbLine
 10
2199.97466508
 20
7580.19991597
 30
0.0
 11
2199.97466508
 21
7547.19991597
 31
0.0
  0
CIRCLE
  5
70
330
2
100
AcDbEntity
  8
YKK_N1
  6
Continuous
100
AcDbCircle
 10
2199.97466508
 20
7580.19991597
 30
0.0
 40
5.0
  0
CIRCLE
  5
71
330
2
100
AcDbEntity
  8
YKK_N1
  6
Continuous
100
AcDbCircle
 10
2199.97466508
 20
7547.19991597
 30
0.0
 40
5.0
  0
LINE
  5
72
330
2
100
AcDbEntity
  8
YKK_B1
  6
Continuous
100
AcDbLine
 10
2559.99919318
 20
7580.19991593
 30
0.0
 11
2559.99919318
 21
7558.99991624
 31
0.0
  0
LINE
  5
73
330
2
100
AcDbEntity
  8
YKK_N1
  6
Continuous
100
AcDbLine
 10
2524.99912435
 20
7472.19991593
 30
0.0
 11
2524.99912435
 21
7347.19994645
 31
0.0
  0
LINE
  5
74
330
2
100
AcDbEntity
  8
YKK_N1
  6
Continuous
100
AcDbLine
 10
2534.99912435
 20
7472.19991593
 30
0.0
 11
2534.99912435
 21
7347.19994645
 31
0.0
  0
LINE
  5
75
330
2
100
AcDbEntity
  8
YKK_N1
  6
Continuous
100
AcDbLine
 10
2524.99912435
 20
7347.19994645
 30
0.0
 11
2534.99912435
 21
7347.19994645
 31
0.0
  0
LINE
  5
76
330
2
100
AcDbEntity
  8
YKK_N1
100
AcDbLine
 10
2438.39652425
 20
7397.19994645
 30
0.0
 11
2438.39652425
 21
7297.19993764
 31
0.0
  0
LINE
  5
77
330
2
100
AcDbEntity
  8
YKK_N1
  6
Continuous
100
AcDbLine
 10
2524.99907857
 20
7347.19994645
 30
0.0
 11
2438.39652425
 21
7397.19994645
 31
0.0
  0
LINE
  5
78
330
2
100
AcDbEntity
  8
YKK_N1
  6
Continuous
100
AcDbLine
 10
2438.39652425
 20
7297.19993764
 30
0.0
 11
2524.99907857
 21
7347.19994645
 31
0.0
  0
LINE
  5
79
330
2
100
AcDbEntity
  8
YKK_B1
  6
Continuous
100
AcDbLine
 10
2530.99919318
 20
7576.19991593
 30
0.0
 11
2530.99919318
 21
7551.19991593
 31
0.0
  0
LINE
  5
7A
330
2
100
AcDbEntity
  8
YKK_B1
  6
Continuous
100
AcDbLine
 10
2534.99919318
 20
7580.19991593
 30
0.0
 11
2534.99919318
 21
7547.19991624
 31
0.0
  0
CIRCLE
  5
7B
330
2
100
AcDbEntity
  8
YKK_N1
  6
Continuous
100
AcDbCircle
 10
2534.99912435
 20
7347.19994645
 30
0.0
 40
5.0
  0
LINE
  5
7C
330
2
100
AcDbEntity
  8
YKK_B1
  6
Continuous
100
AcDbLine
 10
2559.99919318
 20
7580.19991593
 30
0.0
 11
2534.99919318
 21
7580.19991593
 31
0.0
  0
ARC
  5
7D
330
2
100
AcDbEntity
  8
YKK_A2
  6
Continuous
 48
1.5
100
AcDbCircle
 10
2020.49918235
 20
9707.49993861
 30
0.0
 40
5.499999672174453
100
AcDbArc
 50
90.0
 51
270.0
  0
LINE
  5
7E
330
2
100
AcDbEntity
  8
YKK_A2
  6
YCENTER_1
 48
1.5
100
AcDbLine
 10
1998.8404365
 20
9740.99993661
 30
0.0
 11
2047.51470928
 21
9740.99993661
 31
0.0
  0
LINE
  5
7F
330
2
100
AcDbEntity
  8
YKK_A2
  6
Continuous
 48
1.5
100
AcDbLine
 10
2012.49918283
 20
9683.49994004
 30
0.0
 11
2035.49918146
 21
9683.49994004
 31
0.0
  0
LINE
  5
80
330
2
100
AcDbEntity
  8
YKK_A2
  6
Continuous
 48
1.5
100
AcDbLine
 10
2035.49918146
 20
9798.49993318
 30
0.0
 11
2012.49918283
 21
9798.49993318
 31
0.0
  0
LINE
  5
81
330
2
100
AcDbEntity
  8
YKK_A2
  6
Continuous
 48
1.5
100
AcDbLine
 10
2012.9991828
 20
9796.99993327
 30
0.0
 11
2034.99918149
 21
9796.99993327
 31
0.0
  0
LINE
  5
82
330
2
100
AcDbEntity
  8
YKK_A2
  6
Continuous
 48
1.5
100
AcDbLine
 10
2012.9991828
 20
9684.99993995
 30
0.0
 11
2034.99918149
 21
9684.99993995
 31
0.0
  0
LINE
  5
83
330
2
100
AcDbEntity
  8
YKK_N1
  6
Continuous
100
AcDbLine
 10
2061.60167803
 20
8760.99995914
 30
0.0
 11
1974.9991237
 21
8810.99996795
 31
0.0
  0
LINE
  5
84
330
2
100
AcDbEntity
  8
YKK_N1
  6
Continuous
100
AcDbLine
 10
1974.9991237
 20
8810.99996795
 30
0.0
 11
2061.60167803
 21
8860.99996795
 31
0.0
  0
LINE
  5
85
330
2
100
AcDbEntity
  8
YKK_N1
  6
Continuous
100
AcDbLine
 10
1974.9991237
 20
8810.99996795
 30
0.0
 11
2524.99912371
 21
8810.99996795
 31
0.0
  0
LINE
  5
86
330
2
100
AcDbEntity
  8
YKK_A1
  6
Continuous
 48
1.5
100
AcDbLine
 10
1939.99907858
 20
9010.99993744
 30
0.0
 11
2559.99904162
 21
9010.99993744
 31
0.0
  0
LINE
  5
87
330
2
100
AcDbEntity
  8
YKK_A1
  6
YCENTER_1
 48
1.5
100
AcDbLine
 10
1968.99919568
 20
9041.00005068
 30
0.0
 11
2530.99916218
 21
9784.50000637
 31
0.0
  0
LINE
  5
88
330
2
100
AcDbEntity
  8
YKK_A1
  6
Continuous
 48
1.5
100
AcDbLine
 10
1968.99907685
 20
9040.99993565
 30
0.0
 11
2530.99904335
 21
9040.99993565
 31
0.0
  0
LINE
  5
89
330
2
100
AcDbEntity
  8
YKK_A1
  6
Continuous
 48
1.5
100
AcDbLine
 10
1964.99907709
 20
9035.99993595
 30
0.0
 11
2534.99904311
 21
9035.99993595
 31
0.0
  0
LINE
  5
8A
330
2
100
AcDbEntity
  8
YKK_N1
  6
Continuous
100
AcDbLine
 10
1974.9991237
 20
8935.99993744
 30
0.0
 11
1974.9991237
 21
8810.99996795
 31
0.0
  0
ARC
  5
8B
330
2
100
AcDbEntity
  8
YKK_A2
  6
Continuous
 48
1.5
100
AcDbCircle
 10
2012.49918283
 20
9685.49993992
 30
0.0
 40
1.99999988079071
100
AcDbArc
 50
180.0
 51
270.0
  0
ARC
  5
8C
330
2
100
AcDbEntity
  8
YKK_A2
  6
Continuous
 48
1.5
100
AcDbCircle
 10
2012.49918283
 20
9796.4999333
 30
0.0
 40
1.99999988079071
100
AcDbArc
 50
90.0
 51
180.0
  0
ARC
  5
8D
330
2
100
AcDbEntity
  8
YKK_A2
  6
Continuous
 48
1.5
100
AcDbCircle
 10
2012.9991828
 20
9685.99993989
 30
0.0
 40
0.9999999403953561
100
AcDbArc
 50
180.0
 51
270.0
  0
ARC
  5
8E
330
2
100
AcDbEntity
  8
YKK_A2
  6
Continuous
 48
1.5
100
AcDbCircle
 10
2012.9991828
 20
9795.99993333
 30
0.0
 40
0.9999999403953561
100
AcDbArc
 50
90.0
 51
180.0
  0
LINE
  5
8F
330
2
100
AcDbEntity
  8
YKK_A2
  6
Continuous
 48
1.5
100
AcDbLine
 10
2010.49918295
 20
9796.4999333
 30
0.0
 11
2010.49918295
 21
9685.49993992
 31
0.0
  0
LINE
  5
90
330
2
100
AcDbEntity
  8
YKK_A2
  6
Continuous
 48
1.5
100
AcDbLine
 10
2011.99918286
 20
9685.99993989
 30
0.0
 11
2011.99918286
 21
9795.99993333
 31
0.0
  0
LINE
  5
91
330
2
100
AcDbEntity
  8
YKK_N1
  6
Continuous
100
AcDbLine
 10
2524.99912371
 20
8935.99993744
 30
0.0
 11
2524.99912371
 21
8810.99996795
 31
0.0
  0
LINE
  5
92
330
2
100
AcDbEntity
  8
YKK_N1
100
AcDbLine
 10
2438.39652361
 20
8860.99996795
 30
0.0
 11
2438.39652361
 21
8760.99995914
 31
0.0
  0
LINE
  5
93
330
2
100
AcDbEntity
  8
YKK_N1
  6
Continuous
100
AcDbLine
 10
2524.99907793
 20
8810.99996795
 30
0.0
 11
2438.39652361
 21
8860.99996795
 31
0.0
  0
LINE
  5
94
330
2
100
AcDbEntity
  8
YKK_N1
100
AcDbLine
 10
2061.60167803
 20
8860.99996795
 30
0.0
 11
2061.60167803
 21
8760.99995914
 31
0.0
  0
TEXT
  5
95
330
2
100
AcDbEntity
  8
YKK_N1
  6
Continuous
100
AcDbText
 10
2104.99916185
 20
8822.99996795
 30
0.0
 40
60.0
  1
W=550
 72
     4
 11
2249.99916185
 21
8852.99996795
 31
0.0
100
AcDbText
  0
LINE
  5
96
330
2
100
AcDbEntity
  8
YKK_N1
  6
Continuous
100
AcDbLine
 10
2438.39652361
 20
8760.99995914
 30
0.0
 11
2524.99907793
 21
8810.99996795
 31
0.0
  0
LINE
  5
97
330
2
100
AcDbEntity
  8
YKK_N1
100
AcDbLine
 10
2709.99904162
 20
9132.60248857
 30
0.0
 11
2809.99905043
 21
9132.60248857
 31
0.0
  0
LINE
  5
98
330
2
100
AcDbEntity
  8
YKK_N1
  6
Continuous
100
AcDbLine
 10
2809.99905043
 20
9132.60248857
 30
0.0
 11
2759.99904162
 21
9045.99993424
 31
0.0
  0
LINE
  5
99
330
2
100
AcDbEntity
  8
YKK_N1
  6
Continuous
100
AcDbLine
 10
2759.99904162
 20
9045.99993424
 30
0.0
 11
2709.99904162
 21
9132.60248857
 31
0.0
  0
LINE
  5
9A
330
2
100
AcDbEntity
  8
YKK_N1
  6
Continuous
100
AcDbLine
 10
2634.99904162
 20
9045.99993424
 30
0.0
 11
2759.99907214
 21
9045.99993424
 31
0.0
  0
ARC
  5
9B
330
2
100
AcDbEntity
  8
YKK_A2
  6
Continuous
 48
1.5
100
AcDbCircle
 10
2023.99918215
 20
9723.99993762
 30
0.0
 40
7.999999523162841
100
AcDbArc
 50
180.0
 51
0.0
  0
ARC
  5
9C
330
2
100
AcDbEntity
  8
YKK_A2
  6
Continuous
 48
1.5
100
AcDbCircle
 10
2027.49918194
 20
9707.49993861
 30
0.0
 40
5.499999672174453
100
AcDbArc
 50
270.0
 51
90.0
  0
ARC
  5
9D
330
2
100
AcDbEntity
  8
YKK_A2
  6
Continuous
 48
1.5
100
AcDbCircle
 10
2020.49918235
 20
9707.49993861
 30
0.0
 40
4.499999731779097
100
AcDbArc
 50
90.0
 51
270.0
  0
ARC
  5
9E
330
2
100
AcDbEntity
  8
YKK_A2
  6
Continuous
 48
1.5
100
AcDbCircle
 10
2027.49918194
 20
9707.49993861
 30
0.0
 40
4.499999731779097
100
AcDbArc
 50
270.0
 51
90.0
  0
ARC
  5
9F
330
2
100
AcDbEntity
  8
YKK_A2
  6
Continuous
 48
1.5
100
AcDbCircle
 10
2035.49918146
 20
9796.4999333
 30
0.0
 40
1.99999988079071
100
AcDbArc
 50
0.0
 51
90.0
  0
ARC
  5
A0
330
2
100
AcDbEntity
  8
YKK_A2
  6
Continuous
 48
1.5
100
AcDbCircle
 10
2035.49918146
 20
9685.49993992
 30
0.0
 40
1.99999988079071
100
AcDbArc
 50
270.0
 51
0.0
  0
ARC
  5
A1
330
2
100
AcDbEntity
  8
YKK_A2
  6
Continuous
 48
1.5
100
AcDbCircle
 10
2034.99918149
 20
9795.99993333
 30
0.0
 40
0.9999999403953561
100
AcDbArc
 50
0.0
 51
90.0
  0
ARC
  5
A2
330
2
100
AcDbEntity
  8
YKK_A2
  6
Continuous
 48
1.5
100
AcDbCircle
 10
2034.99918149
 20
9685.99993989
 30
0.0
 40
0.9999999403953561
100
AcDbArc
 50
270.0
 51
0.0
  0
CIRCLE
  5
A3
330
2
100
AcDbEntity
  8
YKK_A2
  6
Continuous
 48
1.5
100
AcDbCircle
 10
2023.99918215
 20
9697.74993919
 30
0.0
 40
1.749999895691871
  0
LINE
  5
A4
330
2
100
AcDbEntity
  8
YKK_A2
  6
Continuous
 48
1.5
100
AcDbLine
 10
2020.49918235
 20
9701.99993893
 30
0.0
 11
2027.49918194
 21
9701.99993893
 31
0.0
  0
LINE
  5
A5
330
2
100
AcDbEntity
  8
YKK_A2
  6
Continuous
 48
1.5
100
AcDbLine
 10
2027.49918194
 20
9712.99993828
 30
0.0
 11
2020.49918235
 21
9712.99993828
 31
0.0
  0
LINE
  5
A6
330
2
100
AcDbEntity
  8
YKK_A2
  6
Continuous
 48
1.5
100
AcDbLine
 10
2020.49918235
 20
9702.99993887
 30
0.0
 11
2027.49918194
 21
9702.99993887
 31
0.0
  0
LINE
  5
A7
330
2
100
AcDbEntity
  8
YKK_A2
  6
Continuous
 48
1.5
100
AcDbLine
 10
2027.49918194
 20
9711.99993834
 30
0.0
 11
2020.49918235
 21
9711.99993834
 31
0.0
  0
LINE
  5
A8
330
2
100
AcDbEntity
  8
YKK_A2
  6
Continuous
 48
1.5
100
AcDbLine
 10
2037.49918134
 20
9685.49993992
 30
0.0
 11
2037.49918134
 21
9796.4999333
 31
0.0
  0
LINE
  5
A9
330
2
100
AcDbEntity
  8
YKK_A2
  6
Continuous
 48
1.5
100
AcDbLine
 10
2031.99918167
 20
9783.99993405
 30
0.0
 11
2031.99918167
 21
9723.99993762
 31
0.0
  0
LINE
  5
AA
330
2
100
AcDbEntity
  8
YKK_A2
  6
Continuous
 48
1.5
100
AcDbLine
 10
2015.99918262
 20
9783.99993405
 30
0.0
 11
2015.99918262
 21
9723.99993762
 31
0.0
  0
LINE
  5
AB
330
2
100
AcDbEntity
  8
YKK_A2
  6
Continuous
 48
1.5
100
AcDbLine
 10
2015.99918262
 20
9783.99993405
 30
0.0
 11
2031.99918167
 21
9783.99993405
 31
0.0
  0
LINE
  5
AC
330
2
100
AcDbEntity
  8
YKK_A2
  6
Continuous
 48
1.5
100
AcDbLine
 10
2035.99918143
 20
9685.99993989
 30
0.0
 11
2035.99918143
 21
9795.99993333
 31
0.0
  0
LINE
  5
AD
330
2
100
AcDbEntity
  8
YKK_N1
  6
Continuous
100
AcDbLine
 10
3658.81085083
 20
9045.99993424
 30
0.0
 11
3783.81088135
 21
9045.99993424
 31
0.0
  0
LINE
  5
AE
330
2
100
AcDbEntity
  8
YKK_N1
  6
Continuous
100
AcDbLine
 10
3658.81085083
 20
9035.99993424
 30
0.0
 11
3783.81085083
 21
9035.99993424
 31
0.0
  0
LINE
  5
AF
330
2
100
AcDbEntity
  8
YKK_C1
  6
Continuous
100
AcDbLine
 10
3554.81085043
 20
9040.99993424
 30
0.0
 11
3579.81086921
 21
9040.99993424
 31
0.0
  0
LINE
  5
B0
330
2
100
AcDbEntity
  8
YKK_C1
  6
Continuous
100
AcDbLine
 10
3585.0108509
 20
9035.99993424
 30
0.0
 11
3585.0108509
 21
9045.99993424
 31
0.0
  0
LINE
  5
B1
330
2
100
AcDbEntity
  8
YKK_C1
  6
Continuous
100
AcDbLine
 10
3552.0108509
 20
9035.99993424
 30
0.0
 11
3585.0108509
 21
9035.99993424
 31
0.0
  0
LINE
  5
B2
330
2
100
AcDbEntity
  8
YKK_C1
  6
Continuous
100
AcDbLine
 10
3552.0108509
 20
9010.99993424
 30
0.0
 11
3572.0108509
 21
9010.99993424
 31
0.0
  0
LINE
  5
B3
330
2
100
AcDbEntity
  8
YKK_C1
  6
Continuous
100
AcDbLine
 10
3552.0108509
 20
9010.99993424
 30
0.0
 11
3552.0108509
 21
9035.99993424
 31
0.0
  0
CIRCLE
  5
B4
330
2
100
AcDbEntity
  8
YKK_N1
  6
Continuous
100
AcDbCircle
 10
3783.81085083
 20
9035.99993424
 30
0.0
 40
5.0
  0
LINE
  5
B5
330
2
100
AcDbEntity
  8
YKK_N1
  6
Continuous
100
AcDbLine
 10
3783.81085083
 20
9045.99993424
 30
0.0
 11
3783.81085083
 21
9035.99993424
 31
0.0
  0
LINE
  5
B6
330
2
100
AcDbEntity
  8
YKK_N1
  6
Continuous
100
AcDbLine
 10
3783.81085083
 20
9045.99993424
 30
0.0
 11
3733.81085083
 21
9132.60248857
 31
0.0
  0
LINE
  5
B7
330
2
100
AcDbEntity
  8
YKK_N1
  6
Continuous
100
AcDbLine
 10
3833.81085964
 20
9132.60248857
 30
0.0
 11
3783.81085083
 21
9045.99993424
 31
0.0
  0
LINE
  5
B8
330
2
100
AcDbEntity
  8
YKK_N1
100
AcDbLine
 10
3733.81085083
 20
9132.60248857
 30
0.0
 11
3833.81085964
 21
9132.60248857
 31
0.0
  0
TEXT
  5
B9
330
2
100
AcDbEntity
  8
YKK_N1
  6
Continuous
100
AcDbText
 10
3771.81085236
 20
8935.29046357
 30
0.0
 40
60.0
  1
10
 50
90.0000025
 72
     4
 11
3741.81085083
 21
8970.29046226
 31
0.0
100
AcDbText
  0
CIRCLE
  5
BA
330
2
100
AcDbEntity
  8
YKK_N1
  6
Continuous
100
AcDbCircle
 10
3583.8108509
 20
9654.91200991
 30
0.0
 40
5.0
  0
CIRCLE
  5
BB
330
2
100
AcDbEntity
  8
YKK_N1
  6
Continuous
100
AcDbCircle
 10
3550.8108509
 20
9654.91200991
 30
0.0
 40
5.0
  0
LINE
  5
BC
330
2
100
AcDbEntity
  8
YKK_N1
  6
Continuous
100
AcDbLine
 10
3550.8108509
 20
9654.91200991
 30
0.0
 11
3583.8108509
 21
9654.91200991
 31
0.0
  0
TEXT
  5
BD
330
2
100
AcDbEntity
  8
YKK_N1
  6
Continuous
100
AcDbText
 10
3419.88025206
 20
9666.91200991
 30
0.0
 40
60.0
  1
33
 72
     4
 11
3469.88025206
 21
9696.91200991
 31
0.0
100
AcDbText
  0
TEXT
  5
BE
330
2
100
AcDbEntity
  8
0
100
AcDbText
 10
500.0
 20
19625.0
 30
0.0
 40
250.0
  1
ＢＳＤＧＡＳ１２　ステンレスパイプシャフトドア　点検口　枠見込３３（沖縄向け）
100
AcDbText
  0
LINE
  5
BF
330
2
100
AcDbEntity
  8
YKK_A1
100
AcDbLine
 10
1940.00040602
 20
16975.99905413
 30
0.0
 11
1940.00040602
 21
15505.97517997
 31
0.0
  0
LINE
  5
C0
330
2
100
AcDbEntity
  8
YKK_A1
100
AcDbLine
 10
1915.0
 20
15505.97517997
 30
0.0
 11
1915.0
 21
16975.99905413
 31
0.0
  0
LINE
  5
C1
330
2
100
AcDbEntity
  8
YKK_A1
100
AcDbLine
 10
1944.00047099
 20
15535.9756672
 30
0.0
 11
1944.00047099
 21
16947.99859939
 31
0.0
  0
LINE
  5
C2
330
2
100
AcDbEntity
  8
YKK_A1
100
AcDbLine
 10
2585.01088142
 20
15505.97517997
 30
0.0
 11
2585.01088142
 21
16975.99905413
 31
0.0
  0
LINE
  5
C3
330
2
100
AcDbEntity
  8
YKK_A1
100
AcDbLine
 10
2556.01041043
 20
16769.9957085
 30
0.0
 11
2556.01041043
 21
15713.97855808
 31
0.0
  0
LINE
  5
C4
330
2
100
AcDbEntity
  8
YKK_A1
100
AcDbLine
 10
2560.0104754
 20
16769.9957085
 30
0.0
 11
2560.0104754
 21
15713.97855808
 31
0.0
  0
LINE
  5
C5
330
2
100
AcDbEntity
  8
YKK_A1
  6
NITENSAP
100
AcDbLine
 10
1944.00047099
 20
16947.99859939
 30
0.0
 11
2556.01041043
 21
16241.98713329
 31
0.0
  0
LINE
  5
C7
330
2
100
AcDbEntity
  8
YKK_A2
100
AcDbLine
 10
2012.40158187
 20
16186.3862303
 30
0.0
 11
2012.40158187
 21
16297.38803304
 31
0.0
  0
LINE
  5
C8
330
2
100
AcDbEntity
  8
YKK_A2
100
AcDbLine
 10
2011.00155913
 20
16186.98624004
 30
0.0
 11
2011.00155913
 21
16296.98802654
 31
0.0
  0
LINE
  5
C9
330
2
100
AcDbEntity
  8
YKK_A2
  6
ITTENSAP
100
AcDbLine
 10
1999.00136424
 20
16339.38871516
 30
0.0
 11
1999.00136424
 21
16144.58555143
 31
0.0
  0
LINE
  5
CB
330
2
100
AcDbEntity
  8
YKK_A2
100
AcDbLine
 10
1985.40114336
 20
16297.38803304
 30
0.0
 11
1985.40114336
 21
16186.3862303
 31
0.0
  0
LINE
  5
CC
330
2
100
AcDbEntity
  8
YKK_A2
100
AcDbLine
 10
1987.00116935
 20
16296.98802654
 30
0.0
 11
1987.00116935
 21
16186.98624004
 31
0.0
  0
LINE
  5
CD
330
2
100
AcDbEntity
  8
YKK_A2
100
AcDbLine
 10
2007.00149417
 20
16284.98783165
 30
0.0
 11
2007.00149417
 21
16224.9868572
 31
0.0
  0
LINE
  5
CE
330
2
100
AcDbEntity
  8
YKK_A2
100
AcDbLine
 10
1991.00123431
 20
16224.9868572
 30
0.0
 11
1991.00123431
 21
16284.98783165
 31
0.0
  0
LINE
  5
CF
330
2
100
AcDbEntity
  8
YKK_N1
  6
Continuous
100
AcDbLine
 10
2785.01088142
 20
16940.99996476
 30
0.0
 11
2785.01088142
 21
15540.99984269
 31
0.0
  0
TEXT
  5
D0
330
2
100
AcDbEntity
  8
YKK_N1
  6
Continuous
100
AcDbText
 10
2773.01088798
 20
16090.99990504
 30
0.0
 40
60.0
  1
H=1400
 50
90.0000025
 72
     4
 11
2743.01088142
 21
16240.99990373
 31
0.0
100
AcDbText
  0
TEXT
  5
D1
330
2
100
AcDbEntity
  8
YKK_N1
  6
Continuous
100
AcDbText
 10
3773.01088798
 20
16090.99990504
 30
0.0
 40
60.0
  1
H=1400
 50
90.0000025
 72
     4
 11
3743.01088142
 21
16240.99990373
 31
0.0
100
AcDbText
  0
LINE
  5
D2
330
2
100
AcDbEntity
  8
YKK_N1
  6
Continuous
100
AcDbLine
 10
3785.01088142
 20
16940.99996476
 30
0.0
 11
3785.01088142
 21
15540.99984269
 31
0.0
  0
LINE
  5
D3
330
2
100
AcDbEntity
  8
YKK_C1
  6
Continuous
100
AcDbLine
 10
3579.81086921
 20
16947.99996476
 30
0.0
 11
3579.81086921
 21
15535.99984269
 31
0.0
  0
LINE
  5
D4
330
2
100
AcDbEntity
  8
YKK_C1
  6
Continuous
100
AcDbLine
 10
3550.51086921
 20
16975.99996476
 30
0.0
 11
3550.51086921
 21
15505.99984269
 31
0.0
  0
LINE
  5
D5
330
2
100
AcDbEntity
  8
YKK_C1
  6
Continuous
100
AcDbLine
 10
3554.81086921
 20
16947.99996476
 30
0.0
 11
3554.81086921
 21
15535.99984269
 31
0.0
  0
LINE
  5
D6
330
2
100
AcDbEntity
  8
YKK_C1
  6
Continuous
100
AcDbLine
 10
3583.51086921
 20
15530.99984269
 30
0.0
 11
3583.51086921
 21
16950.99996476
 31
0.0
  0
TEXT
  5
D7
330
2
100
AcDbEntity
  8
0
100
AcDbText
 10
100.0
 20
11787.5
 30
0.0
 40
175.0
  1
2PT NAA/UMR(UML)
100
AcDbText
  0
TEXT
  5
D8
330
2
100
AcDbEntity
  8
0
100
AcDbText
 10
100.0
 20
12237.5
 30
0.0
 40
175.0
  1
W=550　H=2000
100
AcDbText
  0
TEXT
  5
D9
330
2
100
AcDbEntity
  8
0
100
AcDbText
 10
100.0
 20
12687.5
 30
0.0
 40
175.0
  1
上段M/B付点検口片開き（枠見込３３）
100
AcDbText
  0
LINE
  5
DA
330
2
100
AcDbEntity
  8
YKK_A1
  6
Continuous
 48
1.5
100
AcDbLine
 10
1964.99907709
 20
10555.99984535
 30
0.0
 11
2534.99904311
 21
10555.99984535
 31
0.0
  0
LINE
  5
DB
330
2
100
AcDbEntity
  8
YKK_A1
  6
Continuous
 48
1.5
100
AcDbLine
 10
1964.99907709
 20
10530.99984684
 30
0.0
 11
2534.99904311
 21
10530.99984684
 31
0.0
  0
LINE
  5
DC
330
2
100
AcDbEntity
  8
YKK_A1
  6
Continuous
 48
1.5
100
AcDbLine
 10
1968.99907685
 20
10527.99984702
 30
0.0
 11
2530.99904335
 21
10527.99984702
 31
0.0
  0
LINE
  5
DD
330
2
100
AcDbEntity
  8
YKK_A1
  6
Continuous
 48
1.5
100
AcDbLine
 10
2534.99904311
 20
11055.99981554
 30
0.0
 11
1964.99907709
 21
11055.99981554
 31
0.0
  0
LINE
  5
DE
330
2
100
AcDbEntity
  8
YKK_A1
  6
Continuous
 48
1.5
100
AcDbLine
 10
2559.99904162
 20
11080.99981405
 30
0.0
 11
1939.99907858
 21
11080.99981405
 31
0.0
  0
LINE
  5
DF
330
2
100
AcDbEntity
  8
YKK_A1
  6
YCENTER_1
 48
1.5
100
AcDbLine
 10
1974.99918357
 20
10570.99991871
 30
0.0
 11
1974.99918357
 21
10600.99991573
 31
0.0
  0
CIRCLE
  5
E0
330
2
100
AcDbEntity
  8
YKK_A1
  6
Continuous
 48
1.5
100
AcDbCircle
 10
1974.99918357
 20
10585.99991722
 30
0.0
 40
4.999999701976776
  0
LINE
  5
E1
330
2
100
AcDbEntity
  8
YKK_A1
  6
YCENTER_1
 48
1.5
100
AcDbLine
 10
1959.99918506
 20
10585.99991722
 30
0.0
 11
1989.99918208
 21
10585.99991722
 31
0.0
  0
LINE
  5
E2
330
2
100
AcDbEntity
  8
YKK_A1
  6
YCENTER_1
 48
1.5
100
AcDbLine
 10
1974.99918357
 20
10790.99994337
 30
0.0
 11
1974.99918357
 21
10820.99994039
 31
0.0
  0
LINE
  5
E3
330
2
100
AcDbEntity
  8
YKK_A1
  6
YCENTER_1
 48
1.5
100
AcDbLine
 10
1974.99918357
 20
11010.99994665
 30
0.0
 11
1974.99918357
 21
11040.99994367
 31
0.0
  0
CIRCLE
  5
E4
330
2
100
AcDbEntity
  8
YKK_A1
  6
Continuous
 48
1.5
100
AcDbCircle
 10
1974.99918357
 20
10805.99994188
 30
0.0
 40
4.999999701976776
  0
LINE
  5
E5
330
2
100
AcDbEntity
  8
YKK_A1
  6
YCENTER_1
 48
1.5
100
AcDbLine
 10
1959.99918506
 20
10805.99994188
 30
0.0
 11
1989.99918208
 21
10805.99994188
 31
0.0
  0
CIRCLE
  5
E6
330
2
100
AcDbEntity
  8
YKK_A1
  6
Continuous
 48
1.5
100
AcDbCircle
 10
1974.99918357
 20
11025.99994516
 30
0.0
 40
4.999999701976776
  0
LINE
  5
E7
330
2
100
AcDbEntity
  8
YKK_A1
  6
YCENTER_1
 48
1.5
100
AcDbLine
 10
1959.99918506
 20
11025.99994516
 30
0.0
 11
1989.99918208
 21
11025.99994516
 31
0.0
  0
LINE
  5
E8
330
2
100
AcDbEntity
  8
YKK_A1
  6
Continuous
 48
1.5
100
AcDbLine
 10
2324.99918811
 20
10780.99994716
 30
0.0
 11
2324.99918811
 21
10930.99993822
 31
0.0
  0
LINE
  5
E9
330
2
100
AcDbEntity
  8
YKK_A1
  6
YCENTER_1
 48
1.5
100
AcDbLine
 10
2249.99919258
 20
10740.99995104
 30
0.0
 11
2249.99919258
 21
10970.99993435
 31
0.0
  0
LINE
  5
EA
330
2
100
AcDbEntity
  8
YKK_A1
  6
Continuous
 48
1.5
100
AcDbLine
 10
2174.99919705
 20
10930.99993822
 30
0.0
 11
2174.99919705
 21
10780.99994716
 31
0.0
  0
LINE
  5
EB
330
2
100
AcDbEntity
  8
YKK_A1
  6
Continuous
 48
1.5
100
AcDbLine
 10
2174.99919705
 20
10780.99994716
 30
0.0
 11
2324.99918811
 21
10780.99994716
 31
0.0
  0
CIRCLE
  5
EC
330
2
100
AcDbEntity
  8
YKK_A1
  6
Continuous
 48
1.5
100
AcDbCircle
 10
2524.99917428
 20
10585.99991722
 30
0.0
 40
4.999999701976776
  0
LINE
  5
ED
330
2
100
AcDbEntity
  8
YKK_A1
  6
YCENTER_1
 48
1.5
100
AcDbLine
 10
2524.99917428
 20
10570.99991871
 30
0.0
 11
2524.99917428
 21
10600.99991573
 31
0.0
  0
LINE
  5
EE
330
2
100
AcDbEntity
  8
YKK_A1
  6
YCENTER_1
 48
1.5
100
AcDbLine
 10
2539.99917279
 20
10585.99991722
 30
0.0
 11
2509.99917577
 21
10585.99991722
 31
0.0
  0
LINE
  5
EF
330
2
100
AcDbEntity
  8
YKK_A1
  6
YCENTER_1
 48
1.5
100
AcDbLine
 10
2134.99920092
 20
10855.99994269
 30
0.0
 11
2364.99918423
 21
10855.99994269
 31
0.0
  0
LINE
  5
F0
330
2
100
AcDbEntity
  8
YKK_A1
  6
Continuous
 48
1.5
100
AcDbLine
 10
2324.99918811
 20
10930.99993822
 30
0.0
 11
2174.99919705
 21
10930.99993822
 31
0.0
  0
CIRCLE
  5
F1
330
2
100
AcDbEntity
  8
YKK_A1
  6
Continuous
 48
1.5
100
AcDbCircle
 10
2524.99917428
 20
10805.99994188
 30
0.0
 40
4.999999701976776
  0
LINE
  5
F2
330
2
100
AcDbEntity
  8
YKK_A1
  6
YCENTER_1
 48
1.5
100
AcDbLine
 10
2524.99917428
 20
10790.99994337
 30
0.0
 11
2524.99917428
 21
10820.99994039
 31
0.0
  0
CIRCLE
  5
F3
330
2
100
AcDbEntity
  8
YKK_A1
  6
Continuous
 48
1.5
100
AcDbCircle
 10
2524.99917428
 20
11025.99994516
 30
0.0
 40
4.999999701976776
  0
LINE
  5
F4
330
2
100
AcDbEntity
  8
YKK_A1
  6
YCENTER_1
 48
1.5
100
AcDbLine
 10
2524.99917428
 20
11010.99994665
 30
0.0
 11
2524.99917428
 21
11040.99994367
 31
0.0
  0
LINE
  5
F5
330
2
100
AcDbEntity
  8
YKK_A1
  6
YCENTER_1
 48
1.5
100
AcDbLine
 10
2539.99917279
 20
10805.99994188
 30
0.0
 11
2509.99917577
 21
10805.99994188
 31
0.0
  0
LINE
  5
F6
330
2
100
AcDbEntity
  8
YKK_A1
  6
YCENTER_1
 48
1.5
100
AcDbLine
 10
2539.99917279
 20
11025.99994516
 30
0.0
 11
2509.99917577
 21
11025.99994516
 31
0.0
  0
LINE
  5
F7
330
2
100
AcDbEntity
  8
YKK_N1
  6
Continuous
100
AcDbLine
 10
2759.99904162
 20
11045.99993424
 30
0.0
 11
2709.99904162
 21
10959.39737992
 31
0.0
  0
LINE
  5
F8
330
2
100
AcDbEntity
  8
YKK_N1
  6
Continuous
100
AcDbLine
 10
2809.99905043
 20
10959.39737992
 30
0.0
 11
2759.99904162
 21
11045.99993424
 31
0.0
  0
LINE
  5
F9
330
2
100
AcDbEntity
  8
YKK_N1
100
AcDbLine
 10
2709.99904162
 20
10959.39737992
 30
0.0
 11
2809.99905043
 21
10959.39737992
 31
0.0
  0
LINE
  5
FA
330
2
100
AcDbEntity
  8
YKK_N1
  6
Continuous
100
AcDbLine
 10
2634.99904162
 20
11045.99993424
 30
0.0
 11
2759.99907214
 21
11045.99993424
 31
0.0
  0
LINE
  5
FB
330
2
100
AcDbEntity
  8
YKK_C1
100
AcDbLine
 10
3554.41085041
 20
11055.50005612
 30
0.0
 11
3554.41085041
 21
10556.50007739
 31
0.0
  0
LINE
  5
FC
330
2
100
AcDbEntity
  8
YKK_C1
100
AcDbLine
 10
3550.8108509
 20
10780.99995538
 30
0.0
 11
3554.41085041
 21
10780.99995538
 31
0.0
  0
LINE
  5
FD
330
2
100
AcDbEntity
  8
YKK_C1
100
AcDbLine
 10
3564.41085041
 20
10556.50007739
 30
0.0
 11
3554.41085041
 21
10556.50007739
 31
0.0
  0
LINE
  5
FE
330
2
100
AcDbEntity
  8
YKK_C1
100
AcDbLine
 10
3582.61085058
 20
10566.00007745
 30
0.0
 11
3582.61085047
 21
10556.0000777
 31
0.0
  0
LINE
  5
FF
330
2
100
AcDbEntity
  8
YKK_C1
100
AcDbLine
 10
3582.61085047
 20
10556.0000777
 30
0.0
 11
3552.01085047
 21
10556.0000777
 31
0.0
  0
LINE
  5
100
330
2
100
AcDbEntity
  8
YKK_C1
100
AcDbLine
 10
3552.01085047
 20
10556.0000777
 30
0.0
 11
3552.01085047
 21
10531.0000777
 31
0.0
  0
LINE
  5
101
330
2
100
AcDbEntity
  8
YKK_C1
100
AcDbLine
 10
3552.01085047
 20
10531.0000777
 30
0.0
 11
3582.61085047
 21
10531.0000777
 31
0.0
  0
LINE
  5
102
330
2
100
AcDbEntity
  8
YKK_C1
100
AcDbLine
 10
3582.61085047
 20
10531.0000777
 30
0.0
 11
3582.61085047
 21
10521.0000777
 31
0.0
  0
LINE
  5
103
330
2
100
AcDbEntity
  8
YKK_C1
100
AcDbLine
 10
3579.81085076
 20
10528.00007771
 30
0.0
 11
3554.81085043
 21
10528.00007771
 31
0.0
  0
LINE
  5
104
330
2
100
AcDbEntity
  8
YKK_N1
  6
Continuous
100
AcDbLine
 10
3658.81085083
 20
11055.99993424
 30
0.0
 11
3783.81085083
 21
11055.99993424
 31
0.0
  0
LINE
  5
105
330
2
100
AcDbEntity
  8
YKK_N1
  6
Continuous
100
AcDbLine
 10
3658.81085083
 20
11045.99993424
 30
0.0
 11
3783.81088135
 21
11045.99993424
 31
0.0
  0
LINE
  5
106
330
2
100
AcDbEntity
  8
YKK_C1
  6
Continuous
100
AcDbLine
 10
3552.0108509
 20
11056.00005631
 30
0.0
 11
3583.81085083
 21
11056.00005631
 31
0.0
  0
LINE
  5
107
330
2
100
AcDbEntity
  8
YKK_C1
  6
Continuous
100
AcDbLine
 10
3552.0108509
 20
11081.00005631
 30
0.0
 11
3552.0108509
 21
11056.00005631
 31
0.0
  0
LINE
  5
108
330
2
100
AcDbEntity
  8
YKK_C1
  6
Continuous
100
AcDbLine
 10
3552.0108509
 20
11081.00005631
 30
0.0
 11
3572.0108509
 21
11081.00005631
 31
0.0
  0
LINE
  5
109
330
2
100
AcDbEntity
  8
YKK_C1
100
AcDbLine
 10
3564.41085041
 20
11055.50005612
 30
0.0
 11
3554.41085041
 21
11055.50005612
 31
0.0
  0
LINE
  5
10A
330
2
100
AcDbEntity
  8
YKK_C1
100
AcDbLine
 10
3550.8108509
 20
10930.99993822
 30
0.0
 11
3554.41085041
 21
10930.99993822
 31
0.0
  0
CIRCLE
  5
10B
330
2
100
AcDbEntity
  8
YKK_N1
  6
Continuous
100
AcDbCircle
 10
3783.81085083
 20
11055.99993424
 30
0.0
 40
5.0
  0
LINE
  5
10C
330
2
100
AcDbEntity
  8
YKK_N1
  6
Continuous
100
AcDbLine
 10
3783.81085083
 20
11055.99993424
 30
0.0
 11
3783.81085083
 21
11045.99993424
 31
0.0
  0
LINE
  5
10D
330
2
100
AcDbEntity
  8
YKK_N1
100
AcDbLine
 10
3733.81085083
 20
10959.39737992
 30
0.0
 11
3833.81085964
 21
10959.39737992
 31
0.0
  0
LINE
  5
10E
330
2
100
AcDbEntity
  8
YKK_N1
  6
Continuous
100
AcDbLine
 10
3833.81085964
 20
10959.39737992
 30
0.0
 11
3783.81085083
 21
11045.99993424
 31
0.0
  0
LINE
  5
10F
330
2
100
AcDbEntity
  8
YKK_N1
  6
Continuous
100
AcDbLine
 10
3783.81085083
 20
11045.99993424
 30
0.0
 11
3733.81085083
 21
10959.39737992
 31
0.0
  0
TEXT
  5
110
330
2
100
AcDbEntity
  8
YKK_N1
  6
Continuous
100
AcDbText
 10
3771.81085236
 20
11083.33969279
 30
0.0
 40
60.0
  1
10
 50
90.0000025
 72
     4
 11
3741.81085083
 21
11118.33969148
 31
0.0
100
AcDbText
  0
ARC
  5
111
330
2
100
AcDbEntity
  8
YKK_B1
  6
PHANTOM
100
AcDbCircle
 10
1941.99911608
 20
14113.80001359
 30
0.0
 40
614.1226182358827
100
AcDbArc
 50
359.16029721
 51
88.89902344
  0
LINE
  5
112
330
2
100
AcDbEntity
  8
YKK_B1
  6
PHANTOM
100
AcDbLine
 10
1953.7991649
 20
14727.80925544
 30
0.0
 11
1953.7991649
 21
14115.80001359
 31
0.0
  0
LINE
  5
113
330
2
100
AcDbEntity
  8
YKK_B1
  6
Continuous
100
AcDbLine
 10
2555.99913134
 20
14076.99996476
 30
0.0
 11
1943.99911608
 21
14076.99996476
 31
0.0
  0
LINE
  5
114
330
2
100
AcDbEntity
  8
YKK_B1
  6
Continuous
100
AcDbLine
 10
1939.99911608
 20
14071.50001359
 30
0.0
 11
2559.99913134
 21
14071.50001359
 31
0.0
  0
LINE
  5
115
330
2
100
AcDbEntity
  8
YKK_B1
  6
Continuous
100
AcDbLine
 10
1944.03921617
 20
14104.50001359
 30
0.0
 11
2559.99913134
 21
14104.50001359
 31
0.0
  0
LINE
  5
116
330
2
100
AcDbEntity
  8
YKK_B1
  6
Continuous
100
AcDbLine
 10
2555.99913134
 20
14101.99996476
 30
0.0
 11
1943.99911608
 21
14101.99996476
 31
0.0
  0
LINE
  5
117
330
2
100
AcDbEntity
  8
YKK_N1
  6
Continuous
100
AcDbLine
 10
2036.6016704
 20
13821.8000353
 30
0.0
 11
1949.99911608
 21
13871.80004411
 31
0.0
  0
LINE
  5
118
330
2
100
AcDbEntity
  8
YKK_N1
  6
Continuous
100
AcDbLine
 10
1949.99911608
 20
13871.80004411
 30
0.0
 11
2549.99913134
 21
13871.80004411
 31
0.0
  0
LINE
  5
119
330
2
100
AcDbEntity
  8
YKK_N1
  6
Continuous
100
AcDbLine
 10
1949.99911608
 20
13871.80004411
 30
0.0
 11
2036.6016704
 21
13921.80004411
 31
0.0
  0
LINE
  5
11A
330
2
100
AcDbEntity
  8
YKK_N1
  6
Continuous
100
AcDbLine
 10
1939.99911608
 20
13996.80001359
 30
0.0
 11
1939.99911608
 21
13871.80004411
 31
0.0
  0
LINE
  5
11B
330
2
100
AcDbEntity
  8
YKK_N1
  6
Continuous
100
AcDbLine
 10
1949.99911608
 20
13996.80001359
 30
0.0
 11
1949.99911608
 21
13871.80004411
 31
0.0
  0
TEXT
  5
11C
330
2
100
AcDbEntity
  8
YKK_N1
  6
Continuous
100
AcDbText
 10
1843.31018159
 20
13883.80004411
 30
0.0
 40
60.0
  1
10
 72
     4
 11
1878.31018159
 21
13913.80004411
 31
0.0
100
AcDbText
  0
LINE
  5
11D
330
2
100
AcDbEntity
  8
YKK_N1
  6
Continuous
100
AcDbLine
 10
1939.99911608
 20
13871.80004411
 30
0.0
 11
1949.99911608
 21
13871.80004411
 31
0.0
  0
CIRCLE
  5
11E
330
2
100
AcDbEntity
  8
YKK_N1
  6
Continuous
100
AcDbCircle
 10
1939.99911608
 20
13871.80004411
 30
0.0
 40
5.0
  0
LINE
  5
11F
330
2
100
AcDbEntity
  8
YKK_B1
  6
Continuous
100
AcDbLine
 10
1943.99911608
 20
14109.21743302
 30
0.0
 11
1943.99911608
 21
14076.99996476
 31
0.0
  0
LINE
  5
120
330
2
100
AcDbEntity
  8
YKK_B1
  6
Continuous
100
AcDbLine
 10
1939.99911608
 20
14109.21743302
 30
0.0
 11
1939.99911608
 21
14071.50001359
 31
0.0
  0
LINE
  5
121
330
2
100
AcDbEntity
  8
YKK_B1
  6
CENTER
100
AcDbLine
 10
1926.99911608
 20
14113.80001359
 30
0.0
 11
1956.99911608
 21
14113.80001359
 31
0.0
  0
CIRCLE
  5
122
330
2
100
AcDbEntity
  8
YKK_B1
  6
Continuous
100
AcDbCircle
 10
1941.99911608
 20
14113.80001359
 30
0.0
 40
5.0
  0
LINE
  5
123
330
2
100
AcDbEntity
  8
YKK_B1
  6
CENTER
100
AcDbLine
 10
1941.99911608
 20
14128.80001359
 30
0.0
 11
1941.99911608
 21
14098.80001359
 31
0.0
  0
LINE
  5
124
330
2
100
AcDbEntity
  8
YKK_B1
  6
Continuous
100
AcDbLine
 10
1914.99911608
 20
14105.99996476
 30
0.0
 11
1914.99911608
 21
14084.50001359
 31
0.0
  0
LINE
  5
125
330
2
100
AcDbEntity
  8
YKK_B1
  6
Continuous
100
AcDbLine
 10
1914.99911608
 20
14105.99996476
 30
0.0
 11
1939.99911608
 21
14105.99996476
 31
0.0
  0
LINE
  5
126
330
2
100
AcDbEntity
  8
YKK_N1
100
AcDbLine
 10
2036.6016704
 20
13921.80004411
 30
0.0
 11
2036.6016704
 21
13821.8000353
 31
0.0
  0
LINE
  5
127
330
2
100
AcDbEntity
  8
YKK_N1
  6
Continuous
100
AcDbLine
 10
2549.99918474
 20
13871.80004411
 30
0.0
 11
2463.39663042
 21
13921.80004411
 31
0.0
  0
LINE
  5
128
330
2
100
AcDbEntity
  8
YKK_N1
100
AcDbLine
 10
2463.39663042
 20
13921.80004411
 30
0.0
 11
2463.39663042
 21
13821.8000353
 31
0.0
  0
LINE
  5
129
330
2
100
AcDbEntity
  8
YKK_N1
  6
Continuous
100
AcDbLine
 10
2549.99913134
 20
13996.80001359
 30
0.0
 11
2549.99913134
 21
13871.80004411
 31
0.0
  0
LINE
  5
12A
330
2
100
AcDbEntity
  8
YKK_N1
  6
Continuous
100
AcDbLine
 10
2559.99913134
 20
13996.80001359
 30
0.0
 11
2559.99913134
 21
13871.80004411
 31
0.0
  0
TEXT
  5
12B
330
2
100
AcDbEntity
  8
YKK_N1
  6
Continuous
100
AcDbText
 10
2588.00059634
 20
13883.80004411
 30
0.0
 40
60.0
  1
10
 72
     4
 11
2623.00059634
 21
13913.80004411
 31
0.0
100
AcDbText
  0
TEXT
  5
12C
330
2
100
AcDbEntity
  8
YKK_N1
  6
Continuous
100
AcDbText
 10
2109.99912371
 20
13883.80004411
 30
0.0
 40
60.0
  1
W=600
 72
     4
 11
2249.99912371
 21
13913.80004411
 31
0.0
100
AcDbText
  0
LINE
  5
12D
330
2
100
AcDbEntity
  8
YKK_N1
  6
Continuous
100
AcDbLine
 10
2549.99913134
 20
13871.80004411
 30
0.0
 11
2559.99913134
 21
13871.80004411
 31
0.0
  0
CIRCLE
  5
12E
330
2
100
AcDbEntity
  8
YKK_N1
  6
Continuous
100
AcDbCircle
 10
2559.99913134
 20
13871.80004411
 30
0.0
 40
5.0
  0
LINE
  5
12F
330
2
100
AcDbEntity
  8
YKK_N1
  6
Continuous
100
AcDbLine
 10
2463.39663042
 20
13821.8000353
 30
0.0
 11
2549.99918474
 21
13871.80004411
 31
0.0
  0
LINE
  5
130
330
2
100
AcDbEntity
  8
YKK_B1
  6
Continuous
100
AcDbLine
 10
2584.99913134
 20
14105.99996476
 30
0.0
 11
2559.99913134
 21
14105.99996476
 31
0.0
  0
TEXT
  5
131
330
2
100
AcDbEntity
  8
YKK_N1
  6
Continuous
100
AcDbText
 10
2354.64104026
 20
14126.93797326
 30
0.0
 40
60.0
  1
33
 50
90.0000025
 72
     4
 11
2324.64103807
 21
14176.93797195
 31
0.0
100
AcDbText
  0
LINE
  5
132
330
2
100
AcDbEntity
  8
YKK_B1
100
AcDbLine
 10
2249.99910082
 20
13971.80001359
 30
0.0
 11
2249.99910082
 21
14204.80001359
 31
0.0
  0
LINE
  5
133
330
2
100
AcDbEntity
  8
YKK_B1
  6
Continuous
100
AcDbLine
 10
2555.99913134
 20
14101.99996476
 30
0.0
 11
2555.99913134
 21
14076.99996476
 31
0.0
  0
LINE
  5
134
330
2
100
AcDbEntity
  8
YKK_B1
  6
Continuous
100
AcDbLine
 10
2559.99913134
 20
14105.99996476
 30
0.0
 11
2559.99913134
 21
14071.50001359
 31
0.0
  0
LINE
  5
135
330
2
100
AcDbEntity
  8
YKK_N1
  6
Continuous
100
AcDbLine
 10
2366.64103807
 20
14104.50001359
 30
0.0
 11
2366.64103807
 21
14071.50001359
 31
0.0
  0
CIRCLE
  5
136
330
2
100
AcDbEntity
  8
YKK_N1
  6
Continuous
100
AcDbCircle
 10
2366.64103807
 20
14104.50001359
 30
0.0
 40
5.0
  0
CIRCLE
  5
137
330
2
100
AcDbEntity
  8
YKK_N1
  6
Continuous
100
AcDbCircle
 10
2366.64103807
 20
14071.50001359
 30
0.0
 40
5.0
  0
LINE
  5
138
330
2
100
AcDbEntity
  8
YKK_B1
  6
Continuous
100
AcDbLine
 10
2584.99913134
 20
14105.99996476
 30
0.0
 11
2584.99913134
 21
14084.49996476
 31
0.0
  0
LINE
  5
139
330
2
100
AcDbEntity
  8
YKK_A2
  6
ITTENSAP
100
AcDbLine
 10
1949.00055219
 20
16241.98713329
 30
0.0
 11
2049.00217628
 21
16241.98713329
 31
0.0
  0
LINE
  5
13A
330
2
100
AcDbEntity
  8
YKK_A1
  6
NITENSAP
100
AcDbLine
 10
2556.01041043
 20
16241.98713329
 30
0.0
 11
1944.00047099
 21
15535.9756672
 31
0.0
  0
LINE
  5
13B
330
2
100
AcDbEntity
  8
YKK_A1
100
AcDbLine
 10
2556.01041043
 20
15535.9756672
 30
0.0
 11
1944.00047099
 21
15535.9756672
 31
0.0
  0
LINE
  5
13C
330
2
100
AcDbEntity
  8
YKK_A1
100
AcDbLine
 10
2560.0104754
 20
15530.97558599
 30
0.0
 11
1940.00040602
 21
15530.97558599
 31
0.0
  0
LINE
  5
13D
330
2
100
AcDbEntity
  8
YKK_N1
  6
Continuous
100
AcDbLine
 10
2036.60164369
 20
15255.97517116
 30
0.0
 11
1949.99908937
 21
15305.97517997
 31
0.0
  0
LINE
  5
13E
330
2
100
AcDbEntity
  8
YKK_N1
  6
Continuous
100
AcDbLine
 10
1949.99908937
 20
15305.97517997
 30
0.0
 11
2036.60164369
 21
15355.97517997
 31
0.0
  0
LINE
  5
13F
330
2
100
AcDbEntity
  8
YKK_N1
  6
Continuous
100
AcDbLine
 10
1949.99908937
 20
15305.97517997
 30
0.0
 11
2549.99915804
 21
15305.97517997
 31
0.0
  0
LINE
  5
140
330
2
100
AcDbEntity
  8
YKK_A1
100
AcDbLine
 10
1915.0
 20
15505.97517997
 30
0.0
 11
2585.01088142
 21
15505.97517997
 31
0.0
  0
LINE
  5
141
330
2
100
AcDbEntity
  8
YKK_N1
  6
Continuous
100
AcDbLine
 10
1949.99908937
 20
15430.97517997
 30
0.0
 11
1949.99908937
 21
15305.97517997
 31
0.0
  0
LINE
  5
142
330
2
100
AcDbEntity
  8
YKK_A1
100
AcDbLine
 10
1949.99908937
 20
15505.97517997
 30
0.0
 11
1949.99908937
 21
15514.56353554
 31
0.0
  0
ARC
  5
143
330
2
100
AcDbEntity
  8
YKK_A2
100
AcDbCircle
 10
2010.40154938
 20
16186.3862303
 30
0.0
 40
2.000032488076468
100
AcDbArc
 50
270.0
 51
0.0
  0
ARC
  5
144
330
2
100
AcDbEntity
  8
YKK_A2
100
AcDbCircle
 10
2010.00154289
 20
16186.98624004
 30
0.0
 40
1.000016244048233
100
AcDbArc
 50
270.0
 51
0.0
  0
ARC
  5
145
330
2
100
AcDbEntity
  8
YKK_A2
100
AcDbCircle
 10
1987.40117584
 20
16186.3862303
 30
0.0
 40
2.000032488076468
100
AcDbArc
 50
180.0
 51
270.0
  0
ARC
  5
146
330
2
100
AcDbEntity
  8
YKK_A2
100
AcDbCircle
 10
1988.00118559
 20
16186.98624004
 30
0.0
 40
1.000016244048233
100
AcDbArc
 50
180.0
 51
270.0
  0
LINE
  5
147
330
2
100
AcDbEntity
  8
YKK_A2
100
AcDbLine
 10
1987.40117584
 20
16184.38619782
 30
0.0
 11
2010.40154938
 21
16184.38619782
 31
0.0
  0
LINE
  5
148
330
2
100
AcDbEntity
  8
YKK_A2
100
AcDbLine
 10
1988.00118559
 20
16185.9862238
 30
0.0
 11
2010.00154289
 21
16185.9862238
 31
0.0
  0
CIRCLE
  5
149
330
2
100
AcDbEntity
  8
YKK_A2
100
AcDbCircle
 10
1999.00136424
 20
16198.78643169
 30
0.0
 40
1.750028533866143
  0
LINE
  5
14A
330
2
100
AcDbEntity
  8
YKK_A2
100
AcDbLine
 10
2002.40141946
 20
16212.98666231
 30
0.0
 11
1995.40130577
 21
16212.98666231
 31
0.0
  0
LINE
  5
14B
330
2
100
AcDbEntity
  8
YKK_A2
100
AcDbLine
 10
1995.40130577
 20
16203.98651614
 30
0.0
 11
2002.40141946
 21
16203.98651614
 31
0.0
  0
LINE
  5
14C
330
2
100
AcDbEntity
  8
YKK_A2
100
AcDbLine
 10
1995.40130577
 20
16202.9864999
 30
0.0
 11
2002.40141946
 21
16202.9864999
 31
0.0
  0
LINE
  5
14D
330
2
100
AcDbEntity
  8
YKK_A2
100
AcDbLine
 10
2002.40141946
 20
16213.98667855
 30
0.0
 11
1995.40130577
 21
16213.98667855
 31
0.0
  0
TEXT
  5
14E
330
2
100
AcDbEntity
  8
YKK_N1
  6
Continuous
100
AcDbText
 10
2129.92428641
 20
15317.97517997
 30
0.0
 40
60.0
  1
W=600
 72
     4
 11
2269.92428641
 21
15347.97517997
 31
0.0
100
AcDbText
  0
LINE
  5
14F
330
2
100
AcDbEntity
  8
YKK_N1
100
AcDbLine
 10
2036.60164369
 20
15355.97517997
 30
0.0
 11
2036.60164369
 21
15255.97517116
 31
0.0
  0
LINE
  5
150
330
2
100
AcDbEntity
  8
YKK_N1
  6
Continuous
100
AcDbLine
 10
2549.99915804
 20
15430.97517997
 30
0.0
 11
2549.99915804
 21
15305.97517997
 31
0.0
  0
LINE
  5
151
330
2
100
AcDbEntity
  8
YKK_N1
100
AcDbLine
 10
2463.39660372
 20
15355.97517997
 30
0.0
 11
2463.39660372
 21
15255.97517116
 31
0.0
  0
LINE
  5
152
330
2
100
AcDbEntity
  8
YKK_N1
  6
Continuous
100
AcDbLine
 10
2463.39660372
 20
15255.97517116
 30
0.0
 11
2549.99915804
 21
15305.97517997
 31
0.0
  0
LINE
  5
153
330
2
100
AcDbEntity
  8
YKK_N1
  6
Continuous
100
AcDbLine
 10
2549.99915804
 20
15305.97517997
 30
0.0
 11
2463.39660372
 21
15355.97517997
 31
0.0
  0
LINE
  5
154
330
2
100
AcDbEntity
  8
YKK_A1
100
AcDbLine
 10
2560.0104754
 20
15633.97725881
 30
0.0
 11
2560.0104754
 21
15505.97517997
 31
0.0
  0
LINE
  5
155
330
2
100
AcDbEntity
  8
YKK_A1
100
AcDbLine
 10
2550.01179205
 20
15505.97517997
 30
0.0
 11
2550.01179205
 21
15508.94803025
 31
0.0
  0
LINE
  5
156
330
2
100
AcDbEntity
  8
YKK_A2
100
AcDbLine
 10
2552.41035197
 20
15713.97855808
 30
0.0
 11
2563.41053062
 21
15713.97855808
 31
0.0
  0
LINE
  5
157
330
2
100
AcDbEntity
  8
YKK_A2
100
AcDbLine
 10
2563.41053062
 20
15673.97790845
 30
0.0
 11
2552.41035197
 21
15673.97790845
 31
0.0
  0
LINE
  5
158
330
2
100
AcDbEntity
  8
YKK_A1
100
AcDbLine
 10
2556.01041043
 20
15633.97725881
 30
0.0
 11
2556.01041043
 21
15535.9756672
 31
0.0
  0
LINE
  5
159
330
2
100
AcDbEntity
  8
YKK_A2
100
AcDbLine
 10
2563.41053062
 20
15633.97725881
 30
0.0
 11
2552.41035197
 21
15633.97725881
 31
0.0
  0
LINE
  5
15A
330
2
100
AcDbEntity
  8
YKK_A2
100
AcDbLine
 10
2563.41053062
 20
15713.97855808
 30
0.0
 11
2563.41053062
 21
15633.97725881
 31
0.0
  0
LINE
  5
15B
330
2
100
AcDbEntity
  8
YKK_A2
100
AcDbLine
 10
2552.41035197
 20
15633.97725881
 30
0.0
 11
2552.41035197
 21
15713.97855808
 31
0.0
  0
LINE
  5
15C
330
2
100
AcDbEntity
  8
YKK_N1
  6
Continuous
100
AcDbLine
 10
2835.01089023
 20
15627.60239701
 30
0.0
 11
2785.01088142
 21
15540.99984269
 31
0.0
  0
LINE
  5
15D
330
2
100
AcDbEntity
  8
YKK_A1
100
AcDbLine
 10
2585.01088142
 20
15540.97426934
 30
0.0
 11
2577.58184734
 21
15540.97426934
 31
0.0
  0
LINE
  5
15E
330
2
100
AcDbEntity
  8
YKK_N1
  6
Continuous
100
AcDbLine
 10
2785.01088142
 20
15540.99984269
 30
0.0
 11
2735.01088142
 21
15627.60239701
 31
0.0
  0
LINE
  5
15F
330
2
100
AcDbEntity
  8
YKK_N1
  6
Continuous
100
AcDbLine
 10
2660.01088142
 20
15540.99984269
 30
0.0
 11
2785.01088142
 21
15540.99984269
 31
0.0
  0
LINE
  5
160
330
2
100
AcDbEntity
  8
YKK_N1
100
AcDbLine
 10
2735.01088142
 20
15627.60239701
 30
0.0
 11
2835.01089023
 21
15627.60239701
 31
0.0
  0
TEXT
  5
161
330
2
100
AcDbEntity
  8
YKK_N1
  6
Continuous
100
AcDbText
 10
3773.01085243
 20
15430.29037202
 30
0.0
 40
60.0
  1
10
 50
90.0000025
 72
     4
 11
3743.0108509
 21
15465.29037071
 31
0.0
100
AcDbText
  0
LINE
  5
162
330
2
100
AcDbEntity
  8
YKK_N1
  6
Continuous
100
AcDbLine
 10
3660.0108509
 20
15540.99984269
 30
0.0
 11
3785.01088142
 21
15540.99984269
 31
0.0
  0
LINE
  5
163
330
2
100
AcDbEntity
  8
YKK_N1
  6
Continuous
100
AcDbLine
 10
3660.0108509
 20
15530.99984269
 30
0.0
 11
3785.0108509
 21
15530.99984269
 31
0.0
  0
LINE
  5
164
330
2
100
AcDbEntity
  8
YKK_C1
  6
Continuous
100
AcDbLine
 10
3554.81086921
 20
15535.99984269
 30
0.0
 11
3579.81086921
 21
15535.99984269
 31
0.0
  0
LINE
  5
165
330
2
100
AcDbEntity
  8
YKK_C1
  6
Continuous
100
AcDbLine
 10
3585.0108509
 20
15530.99984269
 30
0.0
 11
3585.0108509
 21
15540.99984269
 31
0.0
  0
LINE
  5
166
330
2
100
AcDbEntity
  8
YKK_C1
  6
Continuous
100
AcDbLine
 10
3552.0108509
 20
15530.99984269
 30
0.0
 11
3585.0108509
 21
15530.99984269
 31
0.0
  0
LINE
  5
167
330
2
100
AcDbEntity
  8
YKK_C1
  6
Continuous
100
AcDbLine
 10
3552.0108509
 20
15505.99984269
 30
0.0
 11
3552.0108509
 21
15530.99984269
 31
0.0
  0
LINE
  5
168
330
2
100
AcDbEntity
  8
YKK_C1
  6
Continuous
100
AcDbLine
 10
3552.0108509
 20
15505.99984269
 30
0.0
 11
3572.0108509
 21
15505.99984269
 31
0.0
  0
CIRCLE
  5
169
330
2
100
AcDbEntity
  8
YKK_N1
  6
Continuous
100
AcDbCircle
 10
3550.51086921
 20
16099.91191836
 30
0.0
 40
5.0
  0
CIRCLE
  5
16A
330
2
100
AcDbEntity
  8
YKK_N1
  6
Continuous
100
AcDbCircle
 10
3583.51086921
 20
16099.91191836
 30
0.0
 40
5.0
  0
LINE
  5
16B
330
2
100
AcDbEntity
  8
YKK_N1
  6
Continuous
100
AcDbLine
 10
3550.51086921
 20
16099.91191836
 30
0.0
 11
3583.51086921
 21
16099.91191836
 31
0.0
  0
TEXT
  5
16C
330
2
100
AcDbEntity
  8
YKK_N1
  6
Continuous
100
AcDbText
 10
3419.88025206
 20
16111.91191836
 30
0.0
 40
60.0
  1
33
 72
     4
 11
3469.88025206
 21
16141.91191836
 31
0.0
100
AcDbText
  0
CIRCLE
  5
16D
330
2
100
AcDbEntity
  8
YKK_N1
  6
Continuous
100
AcDbCircle
 10
3785.0108509
 20
15530.99984269
 30
0.0
 40
5.0
  0
LINE
  5
16E
330
2
100
AcDbEntity
  8
YKK_N1
  6
Continuous
100
AcDbLine
 10
3785.0108509
 20
15540.99984269
 30
0.0
 11
3785.0108509
 21
15530.99984269
 31
0.0
  0
LINE
  5
16F
330
2
100
AcDbEntity
  8
YKK_N1
  6
Continuous
100
AcDbLine
 10
3785.0108509
 20
15540.99984269
 30
0.0
 11
3735.0108509
 21
15627.60239701
 31
0.0
  0
LINE
  5
170
330
2
100
AcDbEntity
  8
YKK_N1
  6
Continuous
100
AcDbLine
 10
3835.01085971
 20
15627.60239701
 30
0.0
 11
3785.0108509
 21
15540.99984269
 31
0.0
  0
LINE
  5
171
330
2
100
AcDbEntity
  8
YKK_N1
100
AcDbLine
 10
3735.0108509
 20
15627.60239701
 30
0.0
 11
3835.01085971
 21
15627.60239701
 31
0.0
  0
TEXT
  5
172
330
2
100
AcDbEntity
  8
0
100
AcDbText
 10
100.0
 20
18287.5
 30
0.0
 40
175.0
  1
2PT SAA
100
AcDbText
  0
TEXT
  5
173
330
2
100
AcDbEntity
  8
0
100
AcDbText
 10
100.0
 20
19187.5
 30
0.0
 40
175.0
  1
点検口片開き（枠見込３３）
100
AcDbText
  0
TEXT
  5
174
330
2
100
AcDbEntity
  8
0
100
AcDbText
 10
100.0
 20
18737.5
 30
0.0
 40
175.0
  1
W=600　H=1400
100
AcDbText
  0
LINE
  5
175
330
2
100
AcDbEntity
  8
YKK_A1
100
AcDbLine
 10
1940.00040602
 20
16950.99864811
 30
0.0
 11
2560.0104754
 21
16950.99864811
 31
0.0
  0
LINE
  5
176
330
2
100
AcDbEntity
  8
YKK_A1
100
AcDbLine
 10
1944.00047099
 20
16947.99859939
 30
0.0
 11
2556.01041043
 21
16947.99859939
 31
0.0
  0
LINE
  5
177
330
2
100
AcDbEntity
  8
YKK_A1
100
AcDbLine
 10
2585.01088142
 20
16975.99905413
 30
0.0
 11
1915.0
 21
16975.99905413
 31
0.0
  0
ARC
  5
178
330
2
100
AcDbEntity
  8
YKK_A2
100
AcDbCircle
 10
2010.40154938
 20
16297.38803304
 30
0.0
 40
2.000032488076468
100
AcDbArc
 50
0.0
 51
90.0
  0
ARC
  5
179
330
2
100
AcDbEntity
  8
YKK_A2
100
AcDbCircle
 10
2010.00154289
 20
16296.98802654
 30
0.0
 40
1.000016244048233
100
AcDbArc
 50
0.0
 51
90.0
  0
ARC
  5
17A
330
2
100
AcDbEntity
  8
YKK_A2
100
AcDbCircle
 10
1988.00118559
 20
16296.98802654
 30
0.0
 40
1.000016244048233
100
AcDbArc
 50
90.0
 51
180.0
  0
ARC
  5
17B
330
2
100
AcDbEntity
  8
YKK_A2
100
AcDbCircle
 10
1987.40117584
 20
16297.38803304
 30
0.0
 40
2.000032488076468
100
AcDbArc
 50
90.0
 51
180.0
  0
LINE
  5
17C
330
2
100
AcDbEntity
  8
YKK_A2
100
AcDbLine
 10
2010.40154938
 20
16299.38806552
 30
0.0
 11
1987.40117584
 21
16299.38806552
 31
0.0
  0
LINE
  5
17D
330
2
100
AcDbEntity
  8
YKK_A2
100
AcDbLine
 10
2010.00154289
 20
16297.98804279
 30
0.0
 11
1988.00118559
 21
16297.98804279
 31
0.0
  0
LINE
  5
17E
330
2
100
AcDbEntity
  8
YKK_A2
100
AcDbLine
 10
1991.00123431
 20
16284.98783165
 30
0.0
 11
2007.00149417
 21
16284.98783165
 31
0.0
  0
LINE
  5
17F
330
2
100
AcDbEntity
  8
YKK_A1
100
AcDbLine
 10
2560.0104754
 20
16975.99905413
 30
0.0
 11
2560.0104754
 21
16849.99700778
 31
0.0
  0
LINE
  5
180
330
2
100
AcDbEntity
  8
YKK_A1
100
AcDbLine
 10
2556.01041043
 20
16947.99859939
 30
0.0
 11
2556.01041043
 21
16849.99700778
 31
0.0
  0
LINE
  5
181
330
2
100
AcDbEntity
  8
YKK_A2
100
AcDbLine
 10
2563.41053062
 20
16769.9957085
 30
0.0
 11
2563.41053062
 21
16849.99700778
 31
0.0
  0
LINE
  5
182
330
2
100
AcDbEntity
  8
YKK_A2
100
AcDbLine
 10
2552.41035197
 20
16849.99700778
 30
0.0
 11
2552.41035197
 21
16769.9957085
 31
0.0
  0
LINE
  5
183
330
2
100
AcDbEntity
  8
YKK_A2
100
AcDbLine
 10
2563.41053062
 20
16809.99635814
 30
0.0
 11
2552.41035197
 21
16809.99635814
 31
0.0
  0
LINE
  5
184
330
2
100
AcDbEntity
  8
YKK_A2
100
AcDbLine
 10
2552.41035197
 20
16769.9957085
 30
0.0
 11
2563.41053062
 21
16769.9957085
 31
0.0
  0
LINE
  5
185
330
2
100
AcDbEntity
  8
YKK_A2
100
AcDbLine
 10
2563.41053062
 20
16849.99700778
 30
0.0
 11
2552.41035197
 21
16849.99700778
 31
0.0
  0
LINE
  5
186
330
2
100
AcDbEntity
  8
YKK_N1
  6
Continuous
100
AcDbLine
 10
2835.01089023
 20
16854.39741044
 30
0.0
 11
2785.01088142
 21
16940.99996476
 31
0.0
  0
LINE
  5
187
330
2
100
AcDbEntity
  8
YKK_A1
100
AcDbLine
 10
2585.01088142
 20
16940.99996476
 30
0.0
 11
2581.2524445
 21
16940.99996476
 31
0.0
  0
LINE
  5
188
330
2
100
AcDbEntity
  8
YKK_N1
100
AcDbLine
 10
2735.01088142
 20
16854.39741044
 30
0.0
 11
2835.01089023
 21
16854.39741044
 31
0.0
  0
LINE
  5
189
330
2
100
AcDbEntity
  8
YKK_N1
  6
Continuous
100
AcDbLine
 10
2660.01088142
 20
16940.99996476
 30
0.0
 11
2785.01088142
 21
16940.99996476
 31
0.0
  0
LINE
  5
18A
330
2
100
AcDbEntity
  8
YKK_N1
  6
Continuous
100
AcDbLine
 10
2785.01088142
 20
16940.99996476
 30
0.0
 11
2735.01088142
 21
16854.39741044
 31
0.0
  0
TEXT
  5
18B
330
2
100
AcDbEntity
  8
YKK_N1
  6
Continuous
100
AcDbText
 10
3773.01085243
 20
16978.33972331
 30
0.0
 40
60.0
  1
10
 50
90.0000025
 72
     4
 11
3743.0108509
 21
17013.339722
 31
0.0
100
AcDbText
  0
LINE
  5
18C
330
2
100
AcDbEntity
  8
YKK_N1
  6
Continuous
100
AcDbLine
 10
3660.0108509
 20
16950.99996476
 30
0.0
 11
3785.0108509
 21
16950.99996476
 31
0.0
  0
LINE
  5
18D
330
2
100
AcDbEntity
  8
YKK_N1
  6
Continuous
100
AcDbLine
 10
3660.0108509
 20
16940.99996476
 30
0.0
 11
3785.01088142
 21
16940.99996476
 31
0.0
  0
LINE
  5
18E
330
2
100
AcDbEntity
  8
YKK_C1
  6
Continuous
100
AcDbLine
 10
3554.81086921
 20
16947.99996476
 30
0.0
 11
3579.81086921
 21
16947.99996476
 31
0.0
  0
LINE
  5
18F
330
2
100
AcDbEntity
  8
YKK_C1
  6
Continuous
100
AcDbLine
 10
3552.0108509
 20
16950.99996476
 30
0.0
 11
3583.51086921
 21
16950.99996476
 31
0.0
  0
LINE
  5
190
330
2
100
AcDbEntity
  8
YKK_C1
  6
Continuous
100
AcDbLine
 10
3552.0108509
 20
16975.99996476
 30
0.0
 11
3552.0108509
 21
16950.99996476
 31
0.0
  0
LINE
  5
191
330
2
100
AcDbEntity
  8
YKK_C1
  6
Continuous
100
AcDbLine
 10
3552.0108509
 20
16975.99996476
 30
0.0
 11
3572.0108509
 21
16975.99996476
 31
0.0
  0
CIRCLE
  5
192
330
2
100
AcDbEntity
  8
YKK_N1
  6
Continuous
100
AcDbCircle
 10
3785.0108509
 20
16950.99996476
 30
0.0
 40
5.0
  0
LINE
  5
193
330
2
100
AcDbEntity
  8
YKK_N1
  6
Continuous
100
AcDbLine
 10
3785.0108509
 20
16950.99996476
 30
0.0
 11
3785.0108509
 21
16940.99996476
 31
0.0
  0
LINE
  5
194
330
2
100
AcDbEntity
  8
YKK_N1
100
AcDbLine
 10
3735.0108509
 20
16854.39741044
 30
0.0
 11
3835.01085971
 21
16854.39741044
 31
0.0
  0
LINE
  5
195
330
2
100
AcDbEntity
  8
YKK_N1
  6
Continuous
100
AcDbLine
 10
3835.01085971
 20
16854.39741044
 30
0.0
 11
3785.0108509
 21
16940.99996476
 31
0.0
  0
LINE
  5
196
330
2
100
AcDbEntity
  8
YKK_N1
  6
Continuous
100
AcDbLine
 10
3785.0108509
 20
16940.99996476
 30
0.0
 11
3735.0108509
 21
16854.39741044
 31
0.0
  0
LINE
  5
197
330
2
100
AcDbEntity
  8
YKK_N1
  6
Continuous
100
AcDbLine
 10
14335.00000322
 20
16696.00002852
 30
0.0
 11
14335.00000322
 21
15545.99996748
 31
0.0
  0
TEXT
  5
198
330
2
100
AcDbEntity
  8
YKK_N1
  6
Continuous
100
AcDbText
 10
14323.00000956
 20
15982.9501216
 30
0.0
 40
60.0
  1
H=1150
 50
90.0000025
 72
     4
 11
14293.00000322
 21
16127.95012029
 31
0.0
100
AcDbText
  0
LINE
  5
199
330
2
100
AcDbEntity
  8
YKK_A1
  6
NITENSAP
100
AcDbLine
 10
13646.99997127
 20
16703.0000281
 30
0.0
 11
13193.99999827
 21
16122.00006273
 31
0.0
  0
LINE
  5
19A
330
2
100
AcDbEntity
  8
YKK_A1
  6
NITENSAP
100
AcDbLine
 10
13652.99997091
 20
16703.0000281
 30
0.0
 11
14105.99994391
 21
16122.00006273
 31
0.0
  0
LINE
  5
19B
330
2
100
AcDbEntity
  8
YKK_A1
100
AcDbLine
 10
13165.0
 20
15511.00009915
 30
0.0
 11
13165.0
 21
16731.00002643
 31
0.0
  0
LINE
  5
19C
330
2
100
AcDbEntity
  8
YKK_A1
100
AcDbLine
 10
13640.19997168
 20
16703.0000281
 30
0.0
 11
13640.19997168
 21
15541.00009736
 31
0.0
  0
LINE
  5
19D
330
2
100
AcDbEntity
  8
YKK_A1
100
AcDbLine
 10
13189.99999851
 20
16525.00003871
 30
0.0
 11
13189.99999851
 21
15719.00008675
 31
0.0
  0
LINE
  5
19E
330
2
100
AcDbEntity
  8
YKK_A1
100
AcDbLine
 10
13193.99999827
 20
16525.00003871
 30
0.0
 11
13193.99999827
 21
15719.00008675
 31
0.0
  0
LINE
  5
19F
330
2
100
AcDbEntity
  8
YKK_A1
100
AcDbLine
 10
13668.19997001
 20
15541.00009736
 30
0.0
 11
13668.19997001
 21
16703.0000281
 31
0.0
  0
LINE
  5
1A0
330
2
100
AcDbEntity
  8
YKK_A1
100
AcDbLine
 10
14134.99994218
 20
15511.00009915
 30
0.0
 11
14134.99994218
 21
16731.00002643
 31
0.0
  0
LINE
  5
1A1
330
2
100
AcDbEntity
  8
YKK_A1
100
AcDbLine
 10
14109.99994367
 20
16525.00003871
 30
0.0
 11
14109.99994367
 21
15719.00008675
 31
0.0
  0
LINE
  5
1A2
330
2
100
AcDbEntity
  8
YKK_A1
100
AcDbLine
 10
14105.99994391
 20
16525.00003871
 30
0.0
 11
14105.99994391
 21
15719.00008675
 31
0.0
  0
LINE
  5
1A3
330
2
100
AcDbEntity
  8
YKK_A1
100
AcDbLine
 10
8260.0104754
 20
16451.98242342
 30
0.0
 11
8260.0104754
 21
15713.97043762
 31
0.0
  0
LINE
  5
1A4
330
2
100
AcDbEntity
  8
YKK_A1
100
AcDbLine
 10
8256.01041043
 20
16451.98242342
 30
0.0
 11
8256.01041043
 21
15713.97043762
 31
0.0
  0
LINE
  5
1A5
330
2
100
AcDbEntity
  8
YKK_A1
  6
NITENSAP
100
AcDbLine
 10
8256.01041043
 20
16491.98307306
 30
0.0
 11
7644.00047099
 21
15535.96754673
 31
0.0
  0
LINE
  5
1A6
330
2
100
AcDbEntity
  8
YKK_A1
100
AcDbLine
 10
7640.00040602
 20
17475.99905413
 30
0.0
 11
7640.00040602
 21
15505.96705951
 31
0.0
  0
LINE
  5
1A7
330
2
100
AcDbEntity
  8
YKK_A1
100
AcDbLine
 10
7644.00047099
 20
15535.96754673
 30
0.0
 11
7644.00047099
 21
17447.99859939
 31
0.0
  0
LINE
  5
1A8
330
2
100
AcDbEntity
  8
YKK_A1
100
AcDbLine
 10
7615.0
 20
15505.96705951
 30
0.0
 11
7615.0
 21
17475.99905413
 31
0.0
  0
LINE
  5
1A9
330
2
100
AcDbEntity
  8
YKK_A1
100
AcDbLine
 10
8285.01088142
 20
15505.96705951
 30
0.0
 11
8285.01088142
 21
17475.99905413
 31
0.0
  0
LINE
  5
1AA
330
2
100
AcDbEntity
  8
YKK_N1
  6
Continuous
100
AcDbLine
 10
8485.01088142
 20
17440.99996476
 30
0.0
 11
8485.01088142
 21
15540.99984269
 31
0.0
  0
LINE
  5
1AB
330
2
100
AcDbEntity
  8
YKK_C1
  6
Continuous
100
AcDbLine
 10
9283.51086921
 20
15530.99984269
 30
0.0
 11
9283.51086921
 21
17450.99996476
 31
0.0
  0
LINE
  5
1AC
330
2
100
AcDbEntity
  8
YKK_C1
  6
Continuous
100
AcDbLine
 10
9254.81086921
 20
17447.99996476
 30
0.0
 11
9254.81086921
 21
15535.99984269
 31
0.0
  0
LINE
  5
1AD
330
2
100
AcDbEntity
  8
YKK_C1
  6
Continuous
100
AcDbLine
 10
9250.51086921
 20
17475.99996476
 30
0.0
 11
9250.51086921
 21
15505.99984269
 31
0.0
  0
LINE
  5
1AE
330
2
100
AcDbEntity
  8
YKK_C1
  6
Continuous
100
AcDbLine
 10
9279.81086921
 20
17447.99996476
 30
0.0
 11
9279.81086921
 21
15535.99984269
 31
0.0
  0
LINE
  5
1AF
330
2
100
AcDbEntity
  8
YKK_N1
  6
Continuous
100
AcDbLine
 10
9485.01088142
 20
17440.99996476
 30
0.0
 11
9485.01088142
 21
15540.99984269
 31
0.0
  0
LINE
  5
1B0
330
2
100
AcDbEntity
  8
YKK_A1
100
AcDbLine
 10
7615.0
 20
15505.96705951
 30
0.0
 11
8285.01088142
 21
15505.96705951
 31
0.0
  0
LINE
  5
1B1
330
2
100
AcDbEntity
  8
YKK_B1
  6
Continuous
100
AcDbLine
 10
7614.99908937
 20
14105.99996476
 30
0.0
 11
7639.99908937
 21
14105.99996476
 31
0.0
  0
TEXT
  5
1B2
330
2
100
AcDbEntity
  8
YKK_N1
  6
Continuous
100
AcDbText
 10
7543.31015489
 20
13883.80004411
 30
0.0
 40
60.0
  1
10
 72
     4
 11
7578.31015489
 21
13913.80004411
 31
0.0
100
AcDbText
  0
LINE
  5
1B3
330
2
100
AcDbEntity
  8
YKK_B1
  6
Continuous
100
AcDbLine
 10
7614.99908937
 20
14105.99996476
 30
0.0
 11
7614.99908937
 21
14084.50001359
 31
0.0
  0
LINE
  5
1B4
330
2
100
AcDbEntity
  8
YKK_B1
  6
PHANTOM
100
AcDbLine
 10
7653.7991382
 20
14727.80925544
 30
0.0
 11
7653.7991382
 21
14115.80001359
 31
0.0
  0
ARC
  5
1B5
330
2
100
AcDbEntity
  8
YKK_B1
  6
PHANTOM
100
AcDbCircle
 10
7641.99908937
 20
14113.80001359
 30
0.0
 40
614.1226182358827
100
AcDbArc
 50
359.16029721
 51
88.89902344
  0
LINE
  5
1B6
330
2
100
AcDbEntity
  8
YKK_N1
  6
Continuous
100
AcDbLine
 10
7649.99908937
 20
13996.80001359
 30
0.0
 11
7649.99908937
 21
13871.80004411
 31
0.0
  0
LINE
  5
1B7
330
2
100
AcDbEntity
  8
YKK_N1
  6
Continuous
100
AcDbLine
 10
7639.99908937
 20
13996.80001359
 30
0.0
 11
7639.99908937
 21
13871.80004411
 31
0.0
  0
TEXT
  5
1B8
330
2
100
AcDbEntity
  8
YKK_N1
  6
Continuous
100
AcDbText
 10
7809.999097
 20
13883.80004411
 30
0.0
 40
60.0
  1
W=600
 72
     4
 11
7949.999097
 21
13913.80004411
 31
0.0
100
AcDbText
  0
TEXT
  5
1B9
330
2
100
AcDbEntity
  8
YKK_N1
  6
Continuous
100
AcDbText
 10
8288.00056963
 20
13883.80004411
 30
0.0
 40
60.0
  1
10
 72
     4
 11
8323.00056963
 21
13913.80004411
 31
0.0
100
AcDbText
  0
LINE
  5
1BA
330
2
100
AcDbEntity
  8
YKK_N1
  6
Continuous
100
AcDbLine
 10
8259.99910463
 20
13996.80001359
 30
0.0
 11
8259.99910463
 21
13871.80004411
 31
0.0
  0
LINE
  5
1BB
330
2
100
AcDbEntity
  8
YKK_N1
  6
Continuous
100
AcDbLine
 10
8249.99910463
 20
13996.80001359
 30
0.0
 11
8249.99910463
 21
13871.80004411
 31
0.0
  0
LINE
  5
1BC
330
2
100
AcDbEntity
  8
YKK_N1
100
AcDbLine
 10
8163.39660372
 20
13921.80004411
 30
0.0
 11
8163.39660372
 21
13821.8000353
 31
0.0
  0
LINE
  5
1BD
330
2
100
AcDbEntity
  8
YKK_N1
  6
Continuous
100
AcDbLine
 10
8249.99915804
 20
13871.80004411
 30
0.0
 11
8163.39660372
 21
13921.80004411
 31
0.0
  0
LINE
  5
1BE
330
2
100
AcDbEntity
  8
YKK_N1
100
AcDbLine
 10
7736.60164369
 20
13921.80004411
 30
0.0
 11
7736.60164369
 21
13821.8000353
 31
0.0
  0
LINE
  5
1BF
330
2
100
AcDbEntity
  8
YKK_N1
  6
Continuous
100
AcDbLine
 10
7649.99908937
 20
13871.80004411
 30
0.0
 11
7736.60164369
 21
13921.80004411
 31
0.0
  0
LINE
  5
1C0
330
2
100
AcDbEntity
  8
YKK_N1
  6
Continuous
100
AcDbLine
 10
8163.39660372
 20
13821.8000353
 30
0.0
 11
8249.99915804
 21
13871.80004411
 31
0.0
  0
LINE
  5
1C1
330
2
100
AcDbEntity
  8
YKK_N1
  6
Continuous
100
AcDbLine
 10
7649.99908937
 20
13871.80004411
 30
0.0
 11
8249.99910463
 21
13871.80004411
 31
0.0
  0
CIRCLE
  5
1C2
330
2
100
AcDbEntity
  8
YKK_N1
  6
Continuous
100
AcDbCircle
 10
7639.99908937
 20
13871.80004411
 30
0.0
 40
5.0
  0
LINE
  5
1C3
330
2
100
AcDbEntity
  8
YKK_N1
  6
Continuous
100
AcDbLine
 10
7639.99908937
 20
13871.80004411
 30
0.0
 11
7649.99908937
 21
13871.80004411
 31
0.0
  0
LINE
  5
1C4
330
2
100
AcDbEntity
  8
YKK_N1
  6
Continuous
100
AcDbLine
 10
7736.60164369
 20
13821.8000353
 30
0.0
 11
7649.99908937
 21
13871.80004411
 31
0.0
  0
CIRCLE
  5
1C5
330
2
100
AcDbEntity
  8
YKK_N1
  6
Continuous
100
AcDbCircle
 10
8259.99910463
 20
13871.80004411
 30
0.0
 40
5.0
  0
LINE
  5
1C6
330
2
100
AcDbEntity
  8
YKK_N1
  6
Continuous
100
AcDbLine
 10
8249.99910463
 20
13871.80004411
 30
0.0
 11
8259.99910463
 21
13871.80004411
 31
0.0
  0
LINE
  5
1C7
330
2
100
AcDbEntity
  8
YKK_B1
  6
Continuous
100
AcDbLine
 10
8255.99910463
 20
14101.99996476
 30
0.0
 11
7643.99908937
 21
14101.99996476
 31
0.0
  0
LINE
  5
1C8
330
2
100
AcDbEntity
  8
YKK_B1
  6
Continuous
100
AcDbLine
 10
7644.03918947
 20
14104.50001359
 30
0.0
 11
8259.99910463
 21
14104.50001359
 31
0.0
  0
LINE
  5
1C9
330
2
100
AcDbEntity
  8
YKK_B1
  6
Continuous
100
AcDbLine
 10
7639.99908937
 20
14071.50001359
 30
0.0
 11
8259.99910463
 21
14071.50001359
 31
0.0
  0
LINE
  5
1CA
330
2
100
AcDbEntity
  8
YKK_B1
  6
Continuous
100
AcDbLine
 10
8255.99910463
 20
14076.99996476
 30
0.0
 11
7643.99908937
 21
14076.99996476
 31
0.0
  0
LINE
  5
1CB
330
2
100
AcDbEntity
  8
YKK_B1
  6
CENTER
100
AcDbLine
 10
7641.99908937
 20
14128.80001359
 30
0.0
 11
7641.99908937
 21
14098.80001359
 31
0.0
  0
CIRCLE
  5
1CC
330
2
100
AcDbEntity
  8
YKK_B1
  6
Continuous
100
AcDbCircle
 10
7641.99908937
 20
14113.80001359
 30
0.0
 40
5.0
  0
LINE
  5
1CD
330
2
100
AcDbEntity
  8
YKK_B1
  6
CENTER
100
AcDbLine
 10
7626.99908937
 20
14113.80001359
 30
0.0
 11
7656.99908937
 21
14113.80001359
 31
0.0
  0
LINE
  5
1CE
330
2
100
AcDbEntity
  8
YKK_B1
  6
Continuous
100
AcDbLine
 10
7639.99908937
 20
14109.21743302
 30
0.0
 11
7639.99908937
 21
14071.50001359
 31
0.0
  0
LINE
  5
1CF
330
2
100
AcDbEntity
  8
YKK_B1
  6
Continuous
100
AcDbLine
 10
7643.99908937
 20
14109.21743302
 30
0.0
 11
7643.99908937
 21
14076.99996476
 31
0.0
  0
LINE
  5
1D0
330
2
100
AcDbEntity
  8
YKK_B1
100
AcDbLine
 10
7949.99907411
 20
13971.80001359
 30
0.0
 11
7949.99907411
 21
14204.80001359
 31
0.0
  0
CIRCLE
  5
1D1
330
2
100
AcDbEntity
  8
YKK_N1
  6
Continuous
100
AcDbCircle
 10
8066.64101137
 20
14071.50001359
 30
0.0
 40
5.0
  0
CIRCLE
  5
1D2
330
2
100
AcDbEntity
  8
YKK_N1
  6
Continuous
100
AcDbCircle
 10
8066.64101137
 20
14104.50001359
 30
0.0
 40
5.0
  0
LINE
  5
1D3
330
2
100
AcDbEntity
  8
YKK_N1
  6
Continuous
100
AcDbLine
 10
8066.64101137
 20
14104.50001359
 30
0.0
 11
8066.64101137
 21
14071.50001359
 31
0.0
  0
TEXT
  5
1D4
330
2
100
AcDbEntity
  8
YKK_N1
  6
Continuous
100
AcDbText
 10
8054.64101356
 20
14126.93797326
 30
0.0
 40
60.0
  1
33
 50
90.0000025
 72
     4
 11
8024.64101137
 21
14176.93797195
 31
0.0
100
AcDbText
  0
LINE
  5
1D5
330
2
100
AcDbEntity
  8
YKK_B1
  6
Continuous
100
AcDbLine
 10
8284.99910463
 20
14105.99996476
 30
0.0
 11
8259.99910463
 21
14105.99996476
 31
0.0
  0
LINE
  5
1D6
330
2
100
AcDbEntity
  8
YKK_B1
  6
Continuous
100
AcDbLine
 10
8259.99910463
 20
14105.99996476
 30
0.0
 11
8259.99910463
 21
14071.50001359
 31
0.0
  0
LINE
  5
1D7
330
2
100
AcDbEntity
  8
YKK_B1
  6
Continuous
100
AcDbLine
 10
8284.99910463
 20
14105.99996476
 30
0.0
 11
8284.99910463
 21
14084.49996476
 31
0.0
  0
LINE
  5
1D8
330
2
100
AcDbEntity
  8
YKK_B1
  6
Continuous
100
AcDbLine
 10
8255.99910463
 20
14101.99996476
 30
0.0
 11
8255.99910463
 21
14076.99996476
 31
0.0
  0
LINE
  5
1D9
330
2
100
AcDbEntity
  8
YKK_N1
  6
Continuous
100
AcDbLine
 10
8163.39660372
 20
15255.9670507
 30
0.0
 11
8249.99915804
 21
15305.96705951
 31
0.0
  0
LINE
  5
1DA
330
2
100
AcDbEntity
  8
YKK_N1
  6
Continuous
100
AcDbLine
 10
8249.99915804
 20
15305.96705951
 30
0.0
 11
8163.39660372
 21
15355.96705951
 31
0.0
  0
LINE
  5
1DB
330
2
100
AcDbEntity
  8
YKK_N1
  6
Continuous
100
AcDbLine
 10
7649.99908937
 20
15305.96705951
 30
0.0
 11
8249.99915804
 21
15305.96705951
 31
0.0
  0
TEXT
  5
1DC
330
2
100
AcDbEntity
  8
YKK_N1
  6
Continuous
100
AcDbText
 10
7829.92428641
 20
15317.96705951
 30
0.0
 40
60.0
  1
W=600
 72
     4
 11
7969.92428641
 21
15347.96705951
 31
0.0
100
AcDbText
  0
LINE
  5
1DD
330
2
100
AcDbEntity
  8
YKK_N1
  6
Continuous
100
AcDbLine
 10
7736.60164369
 20
15255.9670507
 30
0.0
 11
7649.99908937
 21
15305.96705951
 31
0.0
  0
LINE
  5
1DE
330
2
100
AcDbEntity
  8
YKK_N1
100
AcDbLine
 10
7736.60164369
 20
15355.96705951
 30
0.0
 11
7736.60164369
 21
15255.9670507
 31
0.0
  0
LINE
  5
1DF
330
2
100
AcDbEntity
  8
YKK_N1
  6
Continuous
100
AcDbLine
 10
7649.99908937
 20
15305.96705951
 30
0.0
 11
7736.60164369
 21
15355.96705951
 31
0.0
  0
LINE
  5
1E0
330
2
100
AcDbEntity
  8
YKK_N1
  6
Continuous
100
AcDbLine
 10
7649.99908937
 20
15430.96705951
 30
0.0
 11
7649.99908937
 21
15305.96705951
 31
0.0
  0
LINE
  5
1E1
330
2
100
AcDbEntity
  8
YKK_N1
100
AcDbLine
 10
8163.39660372
 20
15355.96705951
 30
0.0
 11
8163.39660372
 21
15255.9670507
 31
0.0
  0
LINE
  5
1E2
330
2
100
AcDbEntity
  8
YKK_N1
  6
Continuous
100
AcDbLine
 10
8249.99915804
 20
15430.96705951
 30
0.0
 11
8249.99915804
 21
15305.96705951
 31
0.0
  0
LINE
  5
1E3
330
2
100
AcDbEntity
  8
YKK_A1
100
AcDbLine
 10
8260.0104754
 20
15530.96746553
 30
0.0
 11
7640.00040602
 21
15530.96746553
 31
0.0
  0
LINE
  5
1E4
330
2
100
AcDbEntity
  8
YKK_A1
100
AcDbLine
 10
8256.01041043
 20
15535.96754673
 30
0.0
 11
7644.00047099
 21
15535.96754673
 31
0.0
  0
LINE
  5
1E5
330
2
100
AcDbEntity
  8
YKK_A1
100
AcDbLine
 10
7649.99908937
 20
15505.96705951
 30
0.0
 11
7649.99908937
 21
15514.55541508
 31
0.0
  0
LINE
  5
1E6
330
2
100
AcDbEntity
  8
YKK_N1
  6
Continuous
100
AcDbLine
 10
8485.01088142
 20
15540.99984269
 30
0.0
 11
8435.01088142
 21
15627.60239701
 31
0.0
  0
LINE
  5
1E7
330
2
100
AcDbEntity
  8
YKK_N1
100
AcDbLine
 10
8435.01088142
 20
15627.60239701
 30
0.0
 11
8535.01089023
 21
15627.60239701
 31
0.0
  0
LINE
  5
1E8
330
2
100
AcDbEntity
  8
YKK_N1
  6
Continuous
100
AcDbLine
 10
8360.01088142
 20
15540.99984269
 30
0.0
 11
8485.01088142
 21
15540.99984269
 31
0.0
  0
LINE
  5
1E9
330
2
100
AcDbEntity
  8
YKK_A1
100
AcDbLine
 10
8260.0104754
 20
15633.96913835
 30
0.0
 11
8260.0104754
 21
15505.96705951
 31
0.0
  0
LINE
  5
1EA
330
2
100
AcDbEntity
  8
YKK_A1
100
AcDbLine
 10
8250.01179205
 20
15505.96705951
 30
0.0
 11
8250.01179205
 21
15508.93990978
 31
0.0
  0
LINE
  5
1EB
330
2
100
AcDbEntity
  8
YKK_A2
100
AcDbLine
 10
8252.41035197
 20
15713.97043762
 30
0.0
 11
8263.41053062
 21
15713.97043762
 31
0.0
  0
LINE
  5
1EC
330
2
100
AcDbEntity
  8
YKK_A2
100
AcDbLine
 10
8263.41053062
 20
15673.96978798
 30
0.0
 11
8252.41035197
 21
15673.96978798
 31
0.0
  0
LINE
  5
1ED
330
2
100
AcDbEntity
  8
YKK_A1
100
AcDbLine
 10
8256.01041043
 20
15633.96913835
 30
0.0
 11
8256.01041043
 21
15535.96754673
 31
0.0
  0
LINE
  5
1EE
330
2
100
AcDbEntity
  8
YKK_A2
100
AcDbLine
 10
8263.41053062
 20
15633.96913835
 30
0.0
 11
8252.41035197
 21
15633.96913835
 31
0.0
  0
LINE
  5
1EF
330
2
100
AcDbEntity
  8
YKK_A1
100
AcDbLine
 10
8285.01088142
 20
15540.96614888
 30
0.0
 11
8277.58184734
 21
15540.96614888
 31
0.0
  0
LINE
  5
1F0
330
2
100
AcDbEntity
  8
YKK_A2
100
AcDbLine
 10
8263.41053062
 20
15713.97043762
 30
0.0
 11
8263.41053062
 21
15633.96913835
 31
0.0
  0
LINE
  5
1F1
330
2
100
AcDbEntity
  8
YKK_A2
100
AcDbLine
 10
8252.41035197
 20
15633.96913835
 30
0.0
 11
8252.41035197
 21
15713.97043762
 31
0.0
  0
LINE
  5
1F2
330
2
100
AcDbEntity
  8
YKK_N1
  6
Continuous
100
AcDbLine
 10
8535.01089023
 20
15627.60239701
 30
0.0
 11
8485.01088142
 21
15540.99984269
 31
0.0
  0
TEXT
  5
1F3
330
2
100
AcDbEntity
  8
YKK_N1
  6
Continuous
100
AcDbText
 10
9473.01085243
 20
15430.29037202
 30
0.0
 40
60.0
  1
10
 50
90.0000025
 72
     4
 11
9443.0108509
 21
15465.29037071
 31
0.0
100
AcDbText
  0
LINE
  5
1F4
330
2
100
AcDbEntity
  8
YKK_C1
  6
Continuous
100
AcDbLine
 10
9252.0108509
 20
15505.99984269
 30
0.0
 11
9272.0108509
 21
15505.99984269
 31
0.0
  0
LINE
  5
1F5
330
2
100
AcDbEntity
  8
YKK_C1
  6
Continuous
100
AcDbLine
 10
9252.0108509
 20
15505.99984269
 30
0.0
 11
9252.0108509
 21
15530.99984269
 31
0.0
  0
LINE
  5
1F6
330
2
100
AcDbEntity
  8
YKK_C1
  6
Continuous
100
AcDbLine
 10
9252.0108509
 20
15530.99984269
 30
0.0
 11
9285.0108509
 21
15530.99984269
 31
0.0
  0
LINE
  5
1F7
330
2
100
AcDbEntity
  8
YKK_C1
  6
Continuous
100
AcDbLine
 10
9285.0108509
 20
15530.99984269
 30
0.0
 11
9285.0108509
 21
15540.99984269
 31
0.0
  0
LINE
  5
1F8
330
2
100
AcDbEntity
  8
YKK_C1
  6
Continuous
100
AcDbLine
 10
9254.81086921
 20
15535.99984269
 30
0.0
 11
9279.81086921
 21
15535.99984269
 31
0.0
  0
LINE
  5
1F9
330
2
100
AcDbEntity
  8
YKK_N1
  6
Continuous
100
AcDbLine
 10
9250.51086921
 20
16099.91191836
 30
0.0
 11
9283.51086921
 21
16099.91191836
 31
0.0
  0
CIRCLE
  5
1FA
330
2
100
AcDbEntity
  8
YKK_N1
  6
Continuous
100
AcDbCircle
 10
9283.51086921
 20
16099.91191836
 30
0.0
 40
5.0
  0
CIRCLE
  5
1FB
330
2
100
AcDbEntity
  8
YKK_N1
  6
Continuous
100
AcDbCircle
 10
9250.51086921
 20
16099.91191836
 30
0.0
 40
5.0
  0
TEXT
  5
1FC
330
2
100
AcDbEntity
  8
YKK_N1
  6
Continuous
100
AcDbText
 10
9119.88025206
 20
16111.91191836
 30
0.0
 40
60.0
  1
33
 72
     4
 11
9169.88025206
 21
16141.91191836
 31
0.0
100
AcDbText
  0
LINE
  5
1FD
330
2
100
AcDbEntity
  8
YKK_N1
  6
Continuous
100
AcDbLine
 10
9485.0108509
 20
15540.99984269
 30
0.0
 11
9435.0108509
 21
15627.60239701
 31
0.0
  0
LINE
  5
1FE
330
2
100
AcDbEntity
  8
YKK_N1
  6
Continuous
100
AcDbLine
 10
9360.0108509
 20
15530.99984269
 30
0.0
 11
9485.0108509
 21
15530.99984269
 31
0.0
  0
LINE
  5
1FF
330
2
100
AcDbEntity
  8
YKK_N1
  6
Continuous
100
AcDbLine
 10
9360.0108509
 20
15540.99984269
 30
0.0
 11
9485.01088142
 21
15540.99984269
 31
0.0
  0
LINE
  5
200
330
2
100
AcDbEntity
  8
YKK_N1
  6
Continuous
100
AcDbLine
 10
9485.0108509
 20
15540.99984269
 30
0.0
 11
9485.0108509
 21
15530.99984269
 31
0.0
  0
LINE
  5
201
330
2
100
AcDbEntity
  8
YKK_N1
100
AcDbLine
 10
9435.0108509
 20
15627.60239701
 30
0.0
 11
9535.01085971
 21
15627.60239701
 31
0.0
  0
LINE
  5
202
330
2
100
AcDbEntity
  8
YKK_N1
  6
Continuous
100
AcDbLine
 10
9535.01085971
 20
15627.60239701
 30
0.0
 11
9485.0108509
 21
15540.99984269
 31
0.0
  0
CIRCLE
  5
203
330
2
100
AcDbEntity
  8
YKK_N1
  6
Continuous
100
AcDbCircle
 10
9485.0108509
 20
15530.99984269
 30
0.0
 40
5.0
  0
LINE
  5
204
330
2
100
AcDbEntity
  8
YKK_B1
  6
Continuous
100
AcDbLine
 10
13646.9999674
 20
14076.19991593
 30
0.0
 11
13193.99995214
 21
14076.19991593
 31
0.0
  0
LINE
  5
205
330
2
100
AcDbEntity
  8
YKK_B1
  6
Continuous
100
AcDbLine
 10
13646.9999674
 20
14051.19991593
 30
0.0
 11
13193.99995214
 21
14051.19991593
 31
0.0
  0
LINE
  5
206
330
2
100
AcDbEntity
  8
YKK_B1
  6
Continuous
100
AcDbLine
 10
13194.04005224
 20
14078.69996476
 30
0.0
 11
13621.9999674
 21
14078.69996476
 31
0.0
  0
LINE
  5
207
330
2
100
AcDbEntity
  8
YKK_B1
  6
Continuous
100
AcDbLine
 10
13189.99995214
 20
14045.69996476
 30
0.0
 11
14110.00002843
 21
14045.69996476
 31
0.0
  0
ARC
  5
208
330
2
100
AcDbEntity
  8
YKK_B1
  6
PHANTOM
100
AcDbCircle
 10
13191.99995214
 20
14087.99996476
 30
0.0
 40
455.1530017893372
100
AcDbArc
 50
359.01807028
 51
88.51441438
  0
LINE
  5
209
330
2
100
AcDbEntity
  8
YKK_N1
  6
Continuous
100
AcDbLine
 10
13286.60250646
 20
13795.99998647
 30
0.0
 11
13199.99995214
 21
13845.99999528
 31
0.0
  0
LINE
  5
20A
330
2
100
AcDbEntity
  8
YKK_N1
  6
Continuous
100
AcDbLine
 10
13199.99995214
 20
13845.99999528
 30
0.0
 11
13286.60250646
 21
13895.99999528
 31
0.0
  0
LINE
  5
20B
330
2
100
AcDbEntity
  8
YKK_N1
  6
Continuous
100
AcDbLine
 10
13199.99995214
 20
13845.99999528
 30
0.0
 11
14100.00002843
 21
13845.99999528
 31
0.0
  0
LINE
  5
20C
330
2
100
AcDbEntity
  8
YKK_N1
  6
Continuous
100
AcDbLine
 10
13199.99995214
 20
13970.99996476
 30
0.0
 11
13199.99995214
 21
13845.99999528
 31
0.0
  0
LINE
  5
20D
330
2
100
AcDbEntity
  8
YKK_N1
  6
Continuous
100
AcDbLine
 10
13189.99995214
 20
13970.99996476
 30
0.0
 11
13189.99995214
 21
13845.99999528
 31
0.0
  0
TEXT
  5
20E
330
2
100
AcDbEntity
  8
YKK_N1
  6
Continuous
100
AcDbText
 10
13091.11917556
 20
13857.99999528
 30
0.0
 40
60.0
  1
10
 72
     4
 11
13126.11917556
 21
13887.99999528
 31
0.0
100
AcDbText
  0
CIRCLE
  5
20F
330
2
100
AcDbEntity
  8
YKK_N1
  6
Continuous
100
AcDbCircle
 10
13189.99995214
 20
13845.99999528
 30
0.0
 40
5.0
  0
LINE
  5
210
330
2
100
AcDbEntity
  8
YKK_N1
  6
Continuous
100
AcDbLine
 10
13189.99995214
 20
13845.99999528
 30
0.0
 11
13199.99995214
 21
13845.99999528
 31
0.0
  0
LINE
  5
211
330
2
100
AcDbEntity
  8
YKK_B1
  6
PHANTOM
100
AcDbLine
 10
13203.80000097
 20
14542.99998002
 30
0.0
 11
13203.80000097
 21
14089.99996476
 31
0.0
  0
LINE
  5
212
330
2
100
AcDbEntity
  8
YKK_B1
  6
Continuous
100
AcDbLine
 10
13164.99995214
 20
14080.19991593
 30
0.0
 11
13189.99995214
 21
14080.19991593
 31
0.0
  0
LINE
  5
213
330
2
100
AcDbEntity
  8
YKK_B1
  6
Continuous
100
AcDbLine
 10
13164.99995214
 20
14080.19991593
 30
0.0
 11
13164.99995214
 21
14058.69996476
 31
0.0
  0
CIRCLE
  5
214
330
2
100
AcDbEntity
  8
YKK_B1
  6
Continuous
100
AcDbCircle
 10
13191.99995214
 20
14087.99996476
 30
0.0
 40
5.0
  0
LINE
  5
215
330
2
100
AcDbEntity
  8
YKK_B1
  6
CENTER
100
AcDbLine
 10
13176.99995214
 20
14087.99996476
 30
0.0
 11
13206.99995214
 21
14087.99996476
 31
0.0
  0
LINE
  5
216
330
2
100
AcDbEntity
  8
YKK_B1
  6
CENTER
100
AcDbLine
 10
13191.99995214
 20
14102.99996476
 30
0.0
 11
13191.99995214
 21
14072.99996476
 31
0.0
  0
LINE
  5
217
330
2
100
AcDbEntity
  8
YKK_B1
  6
Continuous
100
AcDbLine
 10
13189.99995214
 20
14083.41738419
 30
0.0
 11
13189.99995214
 21
14045.99996476
 31
0.0
  0
LINE
  5
218
330
2
100
AcDbEntity
  8
YKK_B1
  6
Continuous
100
AcDbLine
 10
13193.99995214
 20
14083.41738419
 30
0.0
 11
13193.99995214
 21
14051.19991593
 31
0.0
  0
LINE
  5
219
330
2
100
AcDbEntity
  8
YKK_B1
  6
PHANTOM
100
AcDbLine
 10
13199.79993993
 20
14527.99998002
 30
0.0
 11
13199.79993993
 21
14555.99998002
 31
0.0
  0
LINE
  5
21A
330
2
100
AcDbEntity
  8
YKK_B1
  6
PHANTOM
100
AcDbLine
 10
13199.79993993
 20
14527.99998002
 30
0.0
 11
13203.80000097
 21
14527.99998002
 31
0.0
  0
TEXT
  5
21B
330
2
100
AcDbEntity
  8
YKK_N1
  6
Continuous
100
AcDbText
 10
13509.99999028
 20
13857.99999528
 30
0.0
 40
60.0
  1
W=900
 72
     4
 11
13649.99999028
 21
13887.99999528
 31
0.0
100
AcDbText
  0
TEXT
  5
21C
330
2
100
AcDbEntity
  8
YKK_N1
  6
Continuous
100
AcDbText
 10
14134.52529426
 20
13857.99999528
 30
0.0
 40
60.0
  1
10
 72
     4
 11
14169.52529426
 21
13887.99999528
 31
0.0
100
AcDbText
  0
LINE
  5
21D
330
2
100
AcDbEntity
  8
YKK_N1
  6
Continuous
100
AcDbLine
 10
14110.00002843
 20
13970.99996476
 30
0.0
 11
14110.00002843
 21
13845.99999528
 31
0.0
  0
LINE
  5
21E
330
2
100
AcDbEntity
  8
YKK_N1
  6
Continuous
100
AcDbLine
 10
14100.00002843
 20
13970.99996476
 30
0.0
 11
14100.00002843
 21
13845.99999528
 31
0.0
  0
LINE
  5
21F
330
2
100
AcDbEntity
  8
YKK_N1
100
AcDbLine
 10
13286.60250646
 20
13895.99999528
 30
0.0
 11
13286.60250646
 21
13795.99998647
 31
0.0
  0
LINE
  5
220
330
2
100
AcDbEntity
  8
YKK_N1
  6
Continuous
100
AcDbLine
 10
14013.39742833
 20
13795.99998647
 30
0.0
 11
14099.99998266
 21
13845.99999528
 31
0.0
  0
LINE
  5
221
330
2
100
AcDbEntity
  8
YKK_N1
  6
Continuous
100
AcDbLine
 10
14099.99998266
 20
13845.99999528
 30
0.0
 11
14013.39742833
 21
13895.99999528
 31
0.0
  0
LINE
  5
222
330
2
100
AcDbEntity
  8
YKK_N1
100
AcDbLine
 10
14013.39742833
 20
13895.99999528
 30
0.0
 11
14013.39742833
 21
13795.99998647
 31
0.0
  0
CIRCLE
  5
223
330
2
100
AcDbEntity
  8
YKK_N1
  6
Continuous
100
AcDbCircle
 10
14110.00002843
 20
13845.99999528
 30
0.0
 40
5.0
  0
LINE
  5
224
330
2
100
AcDbEntity
  8
YKK_N1
  6
Continuous
100
AcDbLine
 10
14100.00002843
 20
13845.99999528
 30
0.0
 11
14110.00002843
 21
13845.99999528
 31
0.0
  0
TEXT
  5
225
330
2
100
AcDbEntity
  8
YKK_N1
  6
Continuous
100
AcDbText
 10
13834.64187632
 20
14101.54024613
 30
0.0
 40
60.0
  1
33
 50
90.0000025
 72
     4
 11
13804.64187413
 21
14151.54024482
 31
0.0
100
AcDbText
  0
ARC
  5
226
330
2
100
AcDbEntity
  8
YKK_B1
  6
PHANTOM
100
AcDbCircle
 10
14108.00002843
 20
14087.99996476
 30
0.0
 40
455.1316945540594
100
AcDbArc
 50
91.48565519
 51
180.98197569
  0
LINE
  5
227
330
2
100
AcDbEntity
  8
YKK_B1
  6
Continuous
100
AcDbLine
 10
14106.00002843
 20
14076.19991593
 30
0.0
 11
13652.9999674
 21
14076.19991593
 31
0.0
  0
LINE
  5
228
330
2
100
AcDbEntity
  8
YKK_B1
  6
Continuous
100
AcDbLine
 10
13669.9999674
 20
14078.69996476
 30
0.0
 11
14106.00002843
 21
14078.69996476
 31
0.0
  0
LINE
  5
229
330
2
100
AcDbEntity
  8
YKK_B1
  6
Continuous
100
AcDbLine
 10
14106.00002843
 20
14051.19991593
 30
0.0
 11
13652.9999674
 21
14051.19991593
 31
0.0
  0
LINE
  5
22A
330
2
100
AcDbEntity
  8
YKK_B1
100
AcDbLine
 10
13649.99990636
 20
13945.99996476
 30
0.0
 11
13649.99990636
 21
14180.19997697
 31
0.0
  0
LINE
  5
22B
330
2
100
AcDbEntity
  8
YKK_B1
  6
Continuous
100
AcDbLine
 10
13646.9999674
 20
14076.19991593
 30
0.0
 11
13646.9999674
 21
14051.19991593
 31
0.0
  0
LINE
  5
22C
330
2
100
AcDbEntity
  8
YKK_B1
  6
Continuous
100
AcDbLine
 10
13652.9999674
 20
14076.19991593
 30
0.0
 11
13652.9999674
 21
14051.19991593
 31
0.0
  0
LINE
  5
22D
330
2
100
AcDbEntity
  8
YKK_B1
  6
PHANTOM
100
AcDbLine
 10
14096.1999796
 20
14089.99996476
 30
0.0
 11
14096.1999796
 21
14542.97866562
 31
0.0
  0
CIRCLE
  5
22E
330
2
100
AcDbEntity
  8
YKK_N1
  6
Continuous
100
AcDbCircle
 10
13846.64187413
 20
14045.99996476
 30
0.0
 40
5.0
  0
CIRCLE
  5
22F
330
2
100
AcDbEntity
  8
YKK_N1
  6
Continuous
100
AcDbCircle
 10
13846.64187413
 20
14078.99996476
 30
0.0
 40
5.0
  0
LINE
  5
230
330
2
100
AcDbEntity
  8
YKK_N1
  6
Continuous
100
AcDbLine
 10
13846.64187413
 20
14078.99996476
 30
0.0
 11
13846.64187413
 21
14045.99996476
 31
0.0
  0
CIRCLE
  5
231
330
2
100
AcDbEntity
  8
YKK_B1
  6
Continuous
100
AcDbCircle
 10
14108.00002843
 20
14087.99996476
 30
0.0
 40
5.0
  0
LINE
  5
232
330
2
100
AcDbEntity
  8
YKK_B1
  6
CENTER
100
AcDbLine
 10
14123.00002843
 20
14087.99996476
 30
0.0
 11
14093.00002843
 21
14087.99996476
 31
0.0
  0
LINE
  5
233
330
2
100
AcDbEntity
  8
YKK_B1
  6
CENTER
100
AcDbLine
 10
14108.00002843
 20
14102.99996476
 30
0.0
 11
14108.00002843
 21
14072.99996476
 31
0.0
  0
LINE
  5
234
330
2
100
AcDbEntity
  8
YKK_B1
  6
Continuous
100
AcDbLine
 10
14135.00002843
 20
14080.19991593
 30
0.0
 11
14110.00002843
 21
14080.19991593
 31
0.0
  0
LINE
  5
235
330
2
100
AcDbEntity
  8
YKK_B1
  6
Continuous
100
AcDbLine
 10
14110.00002843
 20
14083.41738419
 30
0.0
 11
14110.00002843
 21
14045.99996476
 31
0.0
  0
LINE
  5
236
330
2
100
AcDbEntity
  8
YKK_B1
  6
Continuous
100
AcDbLine
 10
14135.00002843
 20
14080.19991593
 30
0.0
 11
14135.00002843
 21
14058.69991593
 31
0.0
  0
LINE
  5
237
330
2
100
AcDbEntity
  8
YKK_B1
  6
Continuous
100
AcDbLine
 10
14106.00002843
 20
14083.41738419
 30
0.0
 11
14106.00002843
 21
14051.19991593
 31
0.0
  0
LINE
  5
238
330
2
100
AcDbEntity
  8
YKK_A1
  6
NITENSAP
100
AcDbLine
 10
13193.99999827
 20
16122.00006273
 30
0.0
 11
13646.99997127
 21
15541.00009736
 31
0.0
  0
LINE
  5
239
330
2
100
AcDbEntity
  8
YKK_A1
100
AcDbLine
 10
14105.99994391
 20
15541.00009736
 30
0.0
 11
13193.99999827
 21
15541.00009736
 31
0.0
  0
LINE
  5
23A
330
2
100
AcDbEntity
  8
YKK_A1
100
AcDbLine
 10
14109.99994367
 20
15536.00009766
 30
0.0
 11
13189.99999851
 21
15536.00009766
 31
0.0
  0
LINE
  5
23B
330
2
100
AcDbEntity
  8
YKK_A1
100
AcDbLine
 10
13165.0
 20
15511.00009915
 30
0.0
 11
14134.99994218
 21
15511.00009915
 31
0.0
  0
LINE
  5
23C
330
2
100
AcDbEntity
  8
YKK_N1
  6
Continuous
100
AcDbLine
 10
13199.99999791
 20
15311.00009915
 30
0.0
 11
13286.60255224
 21
15361.00009915
 31
0.0
  0
LINE
  5
23D
330
2
100
AcDbEntity
  8
YKK_N1
  6
Continuous
100
AcDbLine
 10
13286.60255224
 20
15261.00009034
 30
0.0
 11
13199.99999791
 21
15311.00009915
 31
0.0
  0
LINE
  5
23E
330
2
100
AcDbEntity
  8
YKK_N1
  6
Continuous
100
AcDbLine
 10
13199.99999791
 20
15311.00009915
 30
0.0
 11
14099.99998266
 21
15311.00009915
 31
0.0
  0
LINE
  5
23F
330
2
100
AcDbEntity
  8
YKK_N1
  6
Continuous
100
AcDbLine
 10
13199.99999791
 20
15436.00009915
 30
0.0
 11
13199.99999791
 21
15311.00009915
 31
0.0
  0
LINE
  5
240
330
2
100
AcDbEntity
  8
YKK_A2
100
AcDbLine
 10
13186.39999872
 20
15719.00008675
 30
0.0
 11
13186.39999872
 21
15639.00009152
 31
0.0
  0
LINE
  5
241
330
2
100
AcDbEntity
  8
YKK_A2
100
AcDbLine
 10
13197.39999807
 20
15639.00009152
 30
0.0
 11
13197.39999807
 21
15719.00008675
 31
0.0
  0
LINE
  5
242
330
2
100
AcDbEntity
  8
YKK_A1
100
AcDbLine
 10
13193.99999827
 20
15639.00009152
 30
0.0
 11
13193.99999827
 21
15541.00009736
 31
0.0
  0
LINE
  5
243
330
2
100
AcDbEntity
  8
YKK_A2
100
AcDbLine
 10
13186.39999872
 20
15679.00008914
 30
0.0
 11
13197.39999807
 21
15679.00008914
 31
0.0
  0
LINE
  5
244
330
2
100
AcDbEntity
  8
YKK_A2
100
AcDbLine
 10
13186.39999872
 20
15639.00009152
 30
0.0
 11
13197.39999807
 21
15639.00009152
 31
0.0
  0
LINE
  5
245
330
2
100
AcDbEntity
  8
YKK_A1
100
AcDbLine
 10
13199.99999791
 20
15511.00009915
 30
0.0
 11
13199.99999791
 21
15520.17174585
 31
0.0
  0
LINE
  5
246
330
2
100
AcDbEntity
  8
YKK_A1
100
AcDbLine
 10
13189.99999851
 20
15639.00009152
 30
0.0
 11
13189.99999851
 21
15511.00009915
 31
0.0
  0
LINE
  5
247
330
2
100
AcDbEntity
  8
YKK_A2
100
AcDbLine
 10
13197.39999807
 20
15719.00008675
 30
0.0
 11
13186.39999872
 21
15719.00008675
 31
0.0
  0
TEXT
  5
248
330
2
100
AcDbEntity
  8
YKK_N1
  6
Continuous
100
AcDbText
 10
13509.99999028
 20
15323.00009915
 30
0.0
 40
60.0
  1
W=900
 72
     4
 11
13649.99999028
 21
15353.00009915
 31
0.0
100
AcDbText
  0
LINE
  5
249
330
2
100
AcDbEntity
  8
YKK_N1
100
AcDbLine
 10
13286.60255224
 20
15361.00009915
 30
0.0
 11
13286.60255224
 21
15261.00009034
 31
0.0
  0
LINE
  5
24A
330
2
100
AcDbEntity
  8
YKK_N1
  6
Continuous
100
AcDbLine
 10
14099.99998266
 20
15311.00009915
 30
0.0
 11
14013.39742833
 21
15361.00009915
 31
0.0
  0
LINE
  5
24B
330
2
100
AcDbEntity
  8
YKK_N1
  6
Continuous
100
AcDbLine
 10
14013.39742833
 20
15261.00009034
 30
0.0
 11
14099.99998266
 21
15311.00009915
 31
0.0
  0
LINE
  5
24C
330
2
100
AcDbEntity
  8
YKK_N1
100
AcDbLine
 10
14013.39742833
 20
15361.00009915
 30
0.0
 11
14013.39742833
 21
15261.00009034
 31
0.0
  0
LINE
  5
24D
330
2
100
AcDbEntity
  8
YKK_N1
  6
Continuous
100
AcDbLine
 10
14099.99998266
 20
15436.00009915
 30
0.0
 11
14099.99998266
 21
15311.00009915
 31
0.0
  0
LINE
  5
24E
330
2
100
AcDbEntity
  8
YKK_A1
  6
NITENSAP
100
AcDbLine
 10
14105.99994391
 20
16122.00006273
 30
0.0
 11
13652.99997091
 21
15541.00009736
 31
0.0
  0
LINE
  5
24F
330
2
100
AcDbEntity
  8
YKK_A1
100
AcDbLine
 10
13646.99997127
 20
15536.00009766
 30
0.0
 11
13646.99997127
 21
15541.00009736
 31
0.0
  0
LINE
  5
250
330
2
100
AcDbEntity
  8
YKK_A1
100
AcDbLine
 10
13652.99997091
 20
15541.00009736
 30
0.0
 11
13652.99997091
 21
15536.00009766
 31
0.0
  0
LINE
  5
251
330
2
100
AcDbEntity
  8
YKK_A2
  6
ITTENSAP
100
AcDbLine
 10
13709.19996756
 20
16067.00006601
 30
0.0
 11
13709.19996756
 21
16177.00005945
 31
0.0
  0
ARC
  5
252
330
2
100
AcDbEntity
  8
YKK_A2
100
AcDbCircle
 10
13463.94998218
 20
16121.74135075
 30
0.0
 40
249.9999850988182
100
AcDbArc
 50
355.53441592
 51
0.0
  0
ARC
  5
253
330
2
100
AcDbEntity
  8
YKK_A2
100
AcDbCircle
 10
13954.44995295
 20
16121.74135075
 30
0.0
 40
249.9999850988182
100
AcDbArc
 50
180.0
 51
184.46558408
  0
LINE
  5
254
330
2
100
AcDbEntity
  8
YKK_A2
100
AcDbLine
 10
13712.74157949
 20
16096.51760298
 30
0.0
 11
13713.19103783
 21
16102.27628638
 31
0.0
  0
ARC
  5
255
330
2
100
AcDbEntity
  8
YKK_A2
100
AcDbCircle
 10
13711.24616444
 20
16096.63479324
 30
0.0
 40
1.499999910567033
100
AcDbArc
 50
274.70398873
 51
355.51909522
  0
ARC
  5
256
330
2
100
AcDbEntity
  8
YKK_A2
100
AcDbCircle
 10
13707.15377069
 20
16096.63479324
 30
0.0
 40
1.499999910567033
100
AcDbArc
 50
184.48090478
 51
265.29601127
  0
LINE
  5
257
330
2
100
AcDbEntity
  8
YKK_A2
100
AcDbLine
 10
13707.03075886
 20
16095.13984581
 30
0.0
 11
13711.36917627
 21
16095.13984581
 31
0.0
  0
LINE
  5
258
330
2
100
AcDbEntity
  8
YKK_A2
100
AcDbLine
 10
13705.2088973
 20
16102.27628638
 30
0.0
 11
13705.65835563
 21
16096.51760298
 31
0.0
  0
LINE
  5
259
330
2
100
AcDbEntity
  8
YKK_A2
100
AcDbLine
 10
13713.19103783
 20
16141.72383908
 30
0.0
 11
13712.74165318
 21
16147.48157841
 31
0.0
  0
LINE
  5
25A
330
2
100
AcDbEntity
  8
YKK_A2
100
AcDbLine
 10
13713.94996728
 20
16121.74135075
 30
0.0
 11
13713.94996728
 21
16122.25877472
 31
0.0
  0
LINE
  5
25B
330
2
100
AcDbEntity
  8
YKK_A2
100
AcDbLine
 10
13704.44996785
 20
16122.25877472
 30
0.0
 11
13704.44996785
 21
16121.74135075
 31
0.0
  0
LINE
  5
25C
330
2
100
AcDbEntity
  8
YKK_A2
100
AcDbLine
 10
13705.65828195
 20
16147.48157841
 30
0.0
 11
13705.2088973
 21
16141.72383908
 31
0.0
  0
ARC
  5
25D
330
2
100
AcDbEntity
  8
YKK_A2
100
AcDbCircle
 10
13691.19996864
 20
16122.00006273
 30
0.0
 40
4.999999701976488
100
AcDbArc
 50
281.53695903
 51
78.46304097
  0
ARC
  5
25E
330
2
100
AcDbEntity
  8
YKK_A2
100
AcDbCircle
 10
13711.24616444
 20
16147.36533222
 30
0.0
 40
1.499999910598234
100
AcDbArc
 50
4.44473447
 51
85.257679
  0
ARC
  5
25F
330
2
100
AcDbEntity
  8
YKK_A2
100
AcDbCircle
 10
13463.94998218
 20
16122.25877472
 30
0.0
 40
249.9999850988646
100
AcDbArc
 50
0.0
 51
4.46558408
  0
ARC
  5
260
330
2
100
AcDbEntity
  8
YKK_A2
100
AcDbCircle
 10
13709.19996756
 20
16122.00006273
 30
0.0
 40
7.499999552965164
100
AcDbArc
 50
128.680815
 51
231.319185
  0
LINE
  5
261
330
2
100
AcDbEntity
  8
YKK_A2
100
AcDbLine
 10
13711.3701764
 20
16148.86019702
 30
0.0
 11
13707.02975873
 21
16148.86019702
 31
0.0
  0
ARC
  5
262
330
2
100
AcDbEntity
  8
YKK_A2
100
AcDbCircle
 10
13691.19996864
 20
16122.00006273
 30
0.0
 40
4.999999701976488
100
AcDbArc
 50
101.53695903
 51
258.46304097
  0
ARC
  5
263
330
2
100
AcDbEntity
  8
YKK_A2
100
AcDbCircle
 10
13709.19996756
 20
16122.00006273
 30
0.0
 40
7.499999552965164
100
AcDbArc
 50
308.680815
 51
51.319185
  0
ARC
  5
264
330
2
100
AcDbEntity
  8
YKK_A2
100
AcDbCircle
 10
13954.44995295
 20
16122.25877472
 30
0.0
 40
249.9999850988646
100
AcDbArc
 50
175.53441592
 51
180.0
  0
ARC
  5
265
330
2
100
AcDbEntity
  8
YKK_A2
100
AcDbCircle
 10
13707.15377069
 20
16147.36533222
 30
0.0
 40
1.499999910598234
100
AcDbArc
 50
94.742321
 51
175.55526553
  0
LINE
  5
266
330
2
100
AcDbEntity
  8
YKK_A2
100
AcDbLine
 10
13692.19996858
 20
16118.12707962
 30
0.0
 11
13690.1999687
 21
16118.12707962
 31
0.0
  0
LINE
  5
267
330
2
100
AcDbEntity
  8
YKK_A2
100
AcDbLine
 10
13692.19996858
 20
16125.87304585
 30
0.0
 11
13690.1999687
 21
16125.87304585
 31
0.0
  0
LINE
  5
268
330
2
100
AcDbEntity
  8
YKK_A2
100
AcDbLine
 10
13692.19996858
 20
16126.89904192
 30
0.0
 11
13692.19996858
 21
16117.10108354
 31
0.0
  0
LINE
  5
269
330
2
100
AcDbEntity
  8
YKK_A2
100
AcDbLine
 10
13690.1999687
 20
16126.89904192
 30
0.0
 11
13690.1999687
 21
16117.10108354
 31
0.0
  0
CIRCLE
  5
26A
330
2
100
AcDbEntity
  8
YKK_A2
100
AcDbCircle
 10
13709.19996756
 20
16122.00006273
 30
0.0
 40
28.9999982714653
  0
CIRCLE
  5
26B
330
2
100
AcDbEntity
  8
YKK_A2
100
AcDbCircle
 10
13709.19996756
 20
16122.00006273
 30
0.0
 40
27.99999833106996
  0
CIRCLE
  5
26C
330
2
100
AcDbEntity
  8
YKK_A2
100
AcDbCircle
 10
13709.19996756
 20
16122.00006273
 30
0.0
 40
37.9999977350235
  0
LINE
  5
26D
330
2
100
AcDbEntity
  8
YKK_A2
  6
ITTENSAP
100
AcDbLine
 10
13657.99997061
 20
16122.00006273
 30
0.0
 11
13757.99996465
 21
16122.00006273
 31
0.0
  0
LINE
  5
26E
330
2
100
AcDbEntity
  8
YKK_A2
  6
ITTENSAP
100
AcDbLine
 10
13654.19997084
 20
16122.00006273
 30
0.0
 11
13764.19996429
 21
16122.00006273
 31
0.0
  0
LINE
  5
26F
330
2
100
AcDbEntity
  8
YKK_N1
  6
Continuous
100
AcDbLine
 10
14335.00000322
 20
15545.99996748
 30
0.0
 11
14285.00000322
 21
15632.6025218
 31
0.0
  0
LINE
  5
270
330
2
100
AcDbEntity
  8
YKK_A2
100
AcDbLine
 10
14113.39994347
 20
15719.00008675
 30
0.0
 11
14113.39994347
 21
15639.00009152
 31
0.0
  0
LINE
  5
271
330
2
100
AcDbEntity
  8
YKK_A2
100
AcDbLine
 10
14102.39994413
 20
15639.00009152
 30
0.0
 11
14102.39994413
 21
15719.00008675
 31
0.0
  0
LINE
  5
272
330
2
100
AcDbEntity
  8
YKK_A1
100
AcDbLine
 10
14105.99994391
 20
15639.00009152
 30
0.0
 11
14105.99994391
 21
15541.00009736
 31
0.0
  0
LINE
  5
273
330
2
100
AcDbEntity
  8
YKK_A2
100
AcDbLine
 10
14113.39994347
 20
15679.00008914
 30
0.0
 11
14102.39994413
 21
15679.00008914
 31
0.0
  0
LINE
  5
274
330
2
100
AcDbEntity
  8
YKK_A2
100
AcDbLine
 10
14113.39994347
 20
15639.00009152
 30
0.0
 11
14102.39994413
 21
15639.00009152
 31
0.0
  0
LINE
  5
275
330
2
100
AcDbEntity
  8
YKK_A1
100
AcDbLine
 10
14134.99994218
 20
15546.00009706
 30
0.0
 11
14126.10002346
 21
15546.00009706
 31
0.0
  0
LINE
  5
276
330
2
100
AcDbEntity
  8
YKK_A1
100
AcDbLine
 10
14099.99994427
 20
15511.00009915
 30
0.0
 11
14099.99994427
 21
15517.40231556
 31
0.0
  0
LINE
  5
277
330
2
100
AcDbEntity
  8
YKK_A1
100
AcDbLine
 10
14109.99994367
 20
15639.00009152
 30
0.0
 11
14109.99994367
 21
15511.00009915
 31
0.0
  0
LINE
  5
278
330
2
100
AcDbEntity
  8
YKK_A2
100
AcDbLine
 10
14102.39994413
 20
15719.00008675
 30
0.0
 11
14113.39994347
 21
15719.00008675
 31
0.0
  0
LINE
  5
279
330
2
100
AcDbEntity
  8
YKK_N1
  6
Continuous
100
AcDbLine
 10
14209.99994218
 20
15545.99996748
 30
0.0
 11
14335.00000322
 21
15545.99996748
 31
0.0
  0
LINE
  5
27A
330
2
100
AcDbEntity
  8
YKK_A1
100
AcDbLine
 10
8285.01088142
 20
17475.99905413
 30
0.0
 11
7615.0
 21
17475.99905413
 31
0.0
  0
TEXT
  5
27B
330
2
100
AcDbEntity
  8
0
100
AcDbText
 10
5800.0
 20
18737.5
 30
0.0
 40
175.0
  1
W=600　H=1,900
100
AcDbText
  0
TEXT
  5
27C
330
2
100
AcDbEntity
  8
0
100
AcDbText
 10
5800.0
 20
19187.5
 30
0.0
 40
175.0
  1
点検口片開き（枠見込３３）
100
AcDbText
  0
TEXT
  5
27D
330
2
100
AcDbEntity
  8
0
100
AcDbText
 10
5800.0
 20
18287.5
 30
0.0
 40
175.0
  1
2PT SAA
100
AcDbText
  0
LINE
  5
27E
330
2
100
AcDbEntity
  8
YKK_A1
  6
NITENSAP
100
AcDbLine
 10
7644.00047099
 20
17447.99859939
 30
0.0
 11
8256.01041043
 21
16491.98307306
 31
0.0
  0
LINE
  5
27F
330
2
100
AcDbEntity
  8
YKK_A1
100
AcDbLine
 10
8256.01041043
 20
17269.9957085
 30
0.0
 11
8256.01041043
 21
16531.9837227
 31
0.0
  0
LINE
  5
280
330
2
100
AcDbEntity
  8
YKK_A1
100
AcDbLine
 10
8260.0104754
 20
17269.9957085
 30
0.0
 11
8260.0104754
 21
16531.9837227
 31
0.0
  0
LINE
  5
281
330
2
100
AcDbEntity
  8
YKK_A2
  6
ITTENSAP
100
AcDbLine
 10
7699.00136424
 20
16588.58464194
 30
0.0
 11
7699.00136424
 21
16393.58147495
 31
0.0
  0
LINE
  5
282
330
2
100
AcDbEntity
  8
YKK_A2
  6
ITTENSAP
100
AcDbLine
 10
7649.00055219
 20
16490.98305682
 30
0.0
 11
7749.00217628
 21
16490.98305682
 31
0.0
  0
LINE
  5
283
330
2
100
AcDbEntity
  8
YKK_A2
100
AcDbLine
 10
7710.40154938
 20
16548.5839923
 30
0.0
 11
7687.40117584
 21
16548.5839923
 31
0.0
  0
ARC
  5
284
330
2
100
AcDbEntity
  8
YKK_A2
100
AcDbCircle
 10
7710.00154289
 20
16545.98395007
 30
0.0
 40
1.000016244048233
100
AcDbArc
 50
0.0
 51
90.0
  0
ARC
  5
285
330
2
100
AcDbEntity
  8
YKK_A2
100
AcDbCircle
 10
7710.40154938
 20
16546.38395657
 30
0.0
 40
2.000032488076468
100
AcDbArc
 50
0.0
 51
90.0
  0
ARC
  5
286
330
2
100
AcDbEntity
  8
YKK_A2
100
AcDbCircle
 10
7687.40117584
 20
16546.38395657
 30
0.0
 40
2.000032488076468
100
AcDbArc
 50
90.0
 51
180.0
  0
LINE
  5
287
330
2
100
AcDbEntity
  8
YKK_A2
100
AcDbLine
 10
7710.00154289
 20
16546.98396631
 30
0.0
 11
7688.00118559
 21
16546.98396631
 31
0.0
  0
ARC
  5
288
330
2
100
AcDbEntity
  8
YKK_A2
100
AcDbCircle
 10
7688.00118559
 20
16545.98395007
 30
0.0
 40
1.000016244048233
100
AcDbArc
 50
90.0
 51
180.0
  0
LINE
  5
289
330
2
100
AcDbEntity
  8
YKK_A2
100
AcDbLine
 10
7691.00123431
 20
16533.98375518
 30
0.0
 11
7707.00149417
 21
16533.98375518
 31
0.0
  0
LINE
  5
28A
330
2
100
AcDbEntity
  8
YKK_A2
100
AcDbLine
 10
7702.40141946
 20
16462.98260207
 30
0.0
 11
7695.40130577
 21
16462.98260207
 31
0.0
  0
LINE
  5
28B
330
2
100
AcDbEntity
  8
YKK_A2
100
AcDbLine
 10
7695.40130577
 20
16451.98242342
 30
0.0
 11
7702.40141946
 21
16451.98242342
 31
0.0
  0
LINE
  5
28C
330
2
100
AcDbEntity
  8
YKK_A2
100
AcDbLine
 10
7702.40141946
 20
16461.98258583
 30
0.0
 11
7695.40130577
 21
16461.98258583
 31
0.0
  0
LINE
  5
28D
330
2
100
AcDbEntity
  8
YKK_A2
100
AcDbLine
 10
7695.40130577
 20
16452.98243967
 30
0.0
 11
7702.40141946
 21
16452.98243967
 31
0.0
  0
LINE
  5
28E
330
2
100
AcDbEntity
  8
YKK_A2
100
AcDbLine
 10
7688.00118559
 20
16434.98214733
 30
0.0
 11
7710.00154289
 21
16434.98214733
 31
0.0
  0
LINE
  5
28F
330
2
100
AcDbEntity
  8
YKK_A2
100
AcDbLine
 10
7687.40117584
 20
16433.58212459
 30
0.0
 11
7710.40154938
 21
16433.58212459
 31
0.0
  0
ARC
  5
290
330
2
100
AcDbEntity
  8
YKK_A2
100
AcDbCircle
 10
7710.00154289
 20
16435.98216357
 30
0.0
 40
1.000016244048233
100
AcDbArc
 50
270.0
 51
0.0
  0
ARC
  5
291
330
2
100
AcDbEntity
  8
YKK_A2
100
AcDbCircle
 10
7710.40154938
 20
16435.38215383
 30
0.0
 40
2.000032488076468
100
AcDbArc
 50
270.0
 51
0.0
  0
ARC
  5
292
330
2
100
AcDbEntity
  8
YKK_A2
100
AcDbCircle
 10
7687.40117584
 20
16435.38215383
 30
0.0
 40
2.000032488076468
100
AcDbArc
 50
180.0
 51
270.0
  0
ARC
  5
293
330
2
100
AcDbEntity
  8
YKK_A2
100
AcDbCircle
 10
7688.00118559
 20
16435.98216357
 30
0.0
 40
1.000016244048233
100
AcDbArc
 50
180.0
 51
270.0
  0
CIRCLE
  5
294
330
2
100
AcDbEntity
  8
YKK_A2
100
AcDbCircle
 10
7699.00136424
 20
16447.78235521
 30
0.0
 40
1.750028533866143
  0
LINE
  5
295
330
2
100
AcDbEntity
  8
YKK_A2
100
AcDbLine
 10
7711.00155913
 20
16435.98216357
 30
0.0
 11
7711.00155913
 21
16545.98395007
 31
0.0
  0
LINE
  5
296
330
2
100
AcDbEntity
  8
YKK_A2
100
AcDbLine
 10
7685.40114336
 20
16546.38395657
 30
0.0
 11
7685.40114336
 21
16435.38215383
 31
0.0
  0
LINE
  5
297
330
2
100
AcDbEntity
  8
YKK_A2
100
AcDbLine
 10
7712.40158187
 20
16435.38215383
 30
0.0
 11
7712.40158187
 21
16546.38395657
 31
0.0
  0
LINE
  5
298
330
2
100
AcDbEntity
  8
YKK_A2
100
AcDbLine
 10
7687.00116935
 20
16545.98395007
 30
0.0
 11
7687.00116935
 21
16435.98216357
 31
0.0
  0
LINE
  5
299
330
2
100
AcDbEntity
  8
YKK_A2
100
AcDbLine
 10
7691.00123431
 20
16473.98278072
 30
0.0
 11
7691.00123431
 21
16533.98375518
 31
0.0
  0
LINE
  5
29A
330
2
100
AcDbEntity
  8
YKK_A2
100
AcDbLine
 10
7707.00149417
 20
16533.98375518
 30
0.0
 11
7707.00149417
 21
16473.98278072
 31
0.0
  0
TEXT
  5
29B
330
2
100
AcDbEntity
  8
YKK_N1
  6
Continuous
100
AcDbText
 10
8473.01088798
 20
16340.99990504
 30
0.0
 40
60.0
  1
H=1900
 50
90.0000025
 72
     4
 11
8443.01088142
 21
16490.99990373
 31
0.0
100
AcDbText
  0
LINE
  5
29C
330
2
100
AcDbEntity
  8
YKK_A2
100
AcDbLine
 10
8252.41035197
 20
16531.9837227
 30
0.0
 11
8263.41053062
 21
16531.9837227
 31
0.0
  0
LINE
  5
29D
330
2
100
AcDbEntity
  8
YKK_A2
100
AcDbLine
 10
8252.41035197
 20
16491.98307306
 30
0.0
 11
8263.41053062
 21
16491.98307306
 31
0.0
  0
LINE
  5
29E
330
2
100
AcDbEntity
  8
YKK_A2
100
AcDbLine
 10
8263.41053062
 20
16451.98242342
 30
0.0
 11
8252.41035197
 21
16451.98242342
 31
0.0
  0
LINE
  5
29F
330
2
100
AcDbEntity
  8
YKK_A2
100
AcDbLine
 10
8252.41035197
 20
16451.98242342
 30
0.0
 11
8252.41035197
 21
16531.9837227
 31
0.0
  0
LINE
  5
2A0
330
2
100
AcDbEntity
  8
YKK_A2
100
AcDbLine
 10
8263.41053062
 20
16531.9837227
 30
0.0
 11
8263.41053062
 21
16451.98242342
 31
0.0
  0
LINE
  5
2A1
330
2
100
AcDbEntity
  8
YKK_A1
100
AcDbLine
 10
7644.00047099
 20
17447.99859939
 30
0.0
 11
8256.01041043
 21
17447.99859939
 31
0.0
  0
LINE
  5
2A2
330
2
100
AcDbEntity
  8
YKK_A1
100
AcDbLine
 10
7640.00040602
 20
17450.99864811
 30
0.0
 11
8260.0104754
 21
17450.99864811
 31
0.0
  0
LINE
  5
2A3
330
2
100
AcDbEntity
  8
YKK_A1
100
AcDbLine
 10
8260.0104754
 20
17475.99905413
 30
0.0
 11
8260.0104754
 21
17349.99700778
 31
0.0
  0
LINE
  5
2A4
330
2
100
AcDbEntity
  8
YKK_A1
100
AcDbLine
 10
8256.01041043
 20
17447.99859939
 30
0.0
 11
8256.01041043
 21
17349.99700778
 31
0.0
  0
LINE
  5
2A5
330
2
100
AcDbEntity
  8
YKK_N1
  6
Continuous
100
AcDbLine
 10
8535.01089023
 20
17354.39741044
 30
0.0
 11
8485.01088142
 21
17440.99996476
 31
0.0
  0
LINE
  5
2A6
330
2
100
AcDbEntity
  8
YKK_N1
  6
Continuous
100
AcDbLine
 10
8485.01088142
 20
17440.99996476
 30
0.0
 11
8435.01088142
 21
17354.39741044
 31
0.0
  0
LINE
  5
2A7
330
2
100
AcDbEntity
  8
YKK_N1
100
AcDbLine
 10
8435.01088142
 20
17354.39741044
 30
0.0
 11
8535.01089023
 21
17354.39741044
 31
0.0
  0
LINE
  5
2A8
330
2
100
AcDbEntity
  8
YKK_A2
100
AcDbLine
 10
8263.41053062
 20
17269.9957085
 30
0.0
 11
8263.41053062
 21
17349.99700778
 31
0.0
  0
LINE
  5
2A9
330
2
100
AcDbEntity
  8
YKK_A2
100
AcDbLine
 10
8252.41035197
 20
17349.99700778
 30
0.0
 11
8252.41035197
 21
17269.9957085
 31
0.0
  0
LINE
  5
2AA
330
2
100
AcDbEntity
  8
YKK_A2
100
AcDbLine
 10
8252.41035197
 20
17269.9957085
 30
0.0
 11
8263.41053062
 21
17269.9957085
 31
0.0
  0
LINE
  5
2AB
330
2
100
AcDbEntity
  8
YKK_A2
100
AcDbLine
 10
8263.41053062
 20
17349.99700778
 30
0.0
 11
8252.41035197
 21
17349.99700778
 31
0.0
  0
LINE
  5
2AC
330
2
100
AcDbEntity
  8
YKK_A2
100
AcDbLine
 10
8263.41053062
 20
17309.99635814
 30
0.0
 11
8252.41035197
 21
17309.99635814
 31
0.0
  0
LINE
  5
2AD
330
2
100
AcDbEntity
  8
YKK_N1
  6
Continuous
100
AcDbLine
 10
8360.01088142
 20
17440.99996476
 30
0.0
 11
8485.01088142
 21
17440.99996476
 31
0.0
  0
LINE
  5
2AE
330
2
100
AcDbEntity
  8
YKK_A1
100
AcDbLine
 10
8285.01088142
 20
17440.99996476
 30
0.0
 11
8281.2524445
 21
17440.99996476
 31
0.0
  0
TEXT
  5
2AF
330
2
100
AcDbEntity
  8
YKK_N1
  6
Continuous
100
AcDbText
 10
9473.01088798
 20
16340.99990504
 30
0.0
 40
60.0
  1
H=1900
 50
90.0000025
 72
     4
 11
9443.01088142
 21
16490.99990373
 31
0.0
100
AcDbText
  0
LINE
  5
2B0
330
2
100
AcDbEntity
  8
YKK_C1
  6
Continuous
100
AcDbLine
 10
9252.0108509
 20
17475.99996476
 30
0.0
 11
9272.0108509
 21
17475.99996476
 31
0.0
  0
LINE
  5
2B1
330
2
100
AcDbEntity
  8
YKK_C1
  6
Continuous
100
AcDbLine
 10
9252.0108509
 20
17475.99996476
 30
0.0
 11
9252.0108509
 21
17450.99996476
 31
0.0
  0
LINE
  5
2B2
330
2
100
AcDbEntity
  8
YKK_C1
  6
Continuous
100
AcDbLine
 10
9252.0108509
 20
17450.99996476
 30
0.0
 11
9283.51086921
 21
17450.99996476
 31
0.0
  0
LINE
  5
2B3
330
2
100
AcDbEntity
  8
YKK_C1
  6
Continuous
100
AcDbLine
 10
9254.81086921
 20
17447.99996476
 30
0.0
 11
9279.81086921
 21
17447.99996476
 31
0.0
  0
LINE
  5
2B4
330
2
100
AcDbEntity
  8
YKK_N1
  6
Continuous
100
AcDbLine
 10
9485.0108509
 20
17440.99996476
 30
0.0
 11
9435.0108509
 21
17354.39741044
 31
0.0
  0
LINE
  5
2B5
330
2
100
AcDbEntity
  8
YKK_N1
  6
Continuous
100
AcDbLine
 10
9535.01085971
 20
17354.39741044
 30
0.0
 11
9485.0108509
 21
17440.99996476
 31
0.0
  0
LINE
  5
2B6
330
2
100
AcDbEntity
  8
YKK_N1
100
AcDbLine
 10
9435.0108509
 20
17354.39741044
 30
0.0
 11
9535.01085971
 21
17354.39741044
 31
0.0
  0
LINE
  5
2B7
330
2
100
AcDbEntity
  8
YKK_N1
  6
Continuous
100
AcDbLine
 10
9485.0108509
 20
17450.99996476
 30
0.0
 11
9485.0108509
 21
17440.99996476
 31
0.0
  0
LINE
  5
2B8
330
2
100
AcDbEntity
  8
YKK_N1
  6
Continuous
100
AcDbLine
 10
9360.0108509
 20
17440.99996476
 30
0.0
 11
9485.01088142
 21
17440.99996476
 31
0.0
  0
LINE
  5
2B9
330
2
100
AcDbEntity
  8
YKK_N1
  6
Continuous
100
AcDbLine
 10
9360.0108509
 20
17450.99996476
 30
0.0
 11
9485.0108509
 21
17450.99996476
 31
0.0
  0
TEXT
  5
2BA
330
2
100
AcDbEntity
  8
YKK_N1
  6
Continuous
100
AcDbText
 10
9473.01085243
 20
17478.33972331
 30
0.0
 40
60.0
  1
10
 50
90.0000025
 72
     4
 11
9443.0108509
 21
17513.339722
 31
0.0
100
AcDbText
  0
CIRCLE
  5
2BB
330
2
100
AcDbEntity
  8
YKK_N1
  6
Continuous
100
AcDbCircle
 10
9485.0108509
 20
17450.99996476
 30
0.0
 40
5.0
  0
TEXT
  5
2BC
330
2
100
AcDbEntity
  8
0
100
AcDbText
 10
11500.0
 20
19187.5
 30
0.0
 40
175.0
  1
点検口両開き1ロック（枠見込３３）
100
AcDbText
  0
TEXT
  5
2BD
330
2
100
AcDbEntity
  8
0
100
AcDbText
 10
11500.0
 20
18737.5
 30
0.0
 40
175.0
  1
W=900　H=1150
100
AcDbText
  0
TEXT
  5
2BE
330
2
100
AcDbEntity
  8
0
100
AcDbText
 10
11500.0
 20
18287.5
 30
0.0
 40
175.0
  1
2PT SAB
100
AcDbText
  0
LINE
  5
2BF
330
2
100
AcDbEntity
  8
YKK_A1
100
AcDbLine
 10
14134.99994218
 20
16731.00002643
 30
0.0
 11
13165.0
 21
16731.00002643
 31
0.0
  0
LINE
  5
2C0
330
2
100
AcDbEntity
  8
YKK_A1
100
AcDbLine
 10
13193.99999827
 20
16703.0000281
 30
0.0
 11
14105.99994391
 21
16703.0000281
 31
0.0
  0
LINE
  5
2C1
330
2
100
AcDbEntity
  8
YKK_A1
100
AcDbLine
 10
13189.99999851
 20
16706.00002792
 30
0.0
 11
14109.99994367
 21
16706.00002792
 31
0.0
  0
LINE
  5
2C2
330
2
100
AcDbEntity
  8
YKK_A1
100
AcDbLine
 10
13189.99999851
 20
16731.00002643
 30
0.0
 11
13189.99999851
 21
16605.00003394
 31
0.0
  0
LINE
  5
2C3
330
2
100
AcDbEntity
  8
YKK_A1
100
AcDbLine
 10
13193.99999827
 20
16703.0000281
 30
0.0
 11
13193.99999827
 21
16605.00003394
 31
0.0
  0
LINE
  5
2C4
330
2
100
AcDbEntity
  8
YKK_A2
100
AcDbLine
 10
13186.39999872
 20
16565.00003633
 30
0.0
 11
13197.39999807
 21
16565.00003633
 31
0.0
  0
LINE
  5
2C5
330
2
100
AcDbEntity
  8
YKK_A2
100
AcDbLine
 10
13197.39999807
 20
16525.00003871
 30
0.0
 11
13186.39999872
 21
16525.00003871
 31
0.0
  0
LINE
  5
2C6
330
2
100
AcDbEntity
  8
YKK_A2
100
AcDbLine
 10
13186.39999872
 20
16525.00003871
 30
0.0
 11
13186.39999872
 21
16605.00003394
 31
0.0
  0
LINE
  5
2C7
330
2
100
AcDbEntity
  8
YKK_A2
100
AcDbLine
 10
13186.39999872
 20
16605.00003394
 30
0.0
 11
13197.39999807
 21
16605.00003394
 31
0.0
  0
LINE
  5
2C8
330
2
100
AcDbEntity
  8
YKK_A2
100
AcDbLine
 10
13197.39999807
 20
16605.00003394
 30
0.0
 11
13197.39999807
 21
16525.00003871
 31
0.0
  0
LINE
  5
2C9
330
2
100
AcDbEntity
  8
YKK_N1
  6
Continuous
100
AcDbLine
 10
14335.00000322
 20
16696.00002852
 30
0.0
 11
14285.00000322
 21
16609.3974742
 31
0.0
  0
LINE
  5
2CA
330
2
100
AcDbEntity
  8
YKK_A1
100
AcDbLine
 10
14109.99994367
 20
16731.00002643
 30
0.0
 11
14109.99994367
 21
16605.00003394
 31
0.0
  0
LINE
  5
2CB
330
2
100
AcDbEntity
  8
YKK_A1
100
AcDbLine
 10
14105.99994391
 20
16703.0000281
 30
0.0
 11
14105.99994391
 21
16605.00003394
 31
0.0
  0
LINE
  5
2CC
330
2
100
AcDbEntity
  8
YKK_A2
100
AcDbLine
 10
14113.39994347
 20
16565.00003633
 30
0.0
 11
14102.39994413
 21
16565.00003633
 31
0.0
  0
LINE
  5
2CD
330
2
100
AcDbEntity
  8
YKK_A2
100
AcDbLine
 10
14102.39994413
 20
16525.00003871
 30
0.0
 11
14113.39994347
 21
16525.00003871
 31
0.0
  0
LINE
  5
2CE
330
2
100
AcDbEntity
  8
YKK_A2
100
AcDbLine
 10
14113.39994347
 20
16525.00003871
 30
0.0
 11
14113.39994347
 21
16605.00003394
 31
0.0
  0
LINE
  5
2CF
330
2
100
AcDbEntity
  8
YKK_A2
100
AcDbLine
 10
14113.39994347
 20
16605.00003394
 30
0.0
 11
14102.39994413
 21
16605.00003394
 31
0.0
  0
LINE
  5
2D0
330
2
100
AcDbEntity
  8
YKK_A2
100
AcDbLine
 10
14102.39994413
 20
16605.00003394
 30
0.0
 11
14102.39994413
 21
16525.00003871
 31
0.0
  0
LINE
  5
2D1
330
2
100
AcDbEntity
  8
YKK_A1
100
AcDbLine
 10
14134.99994218
 20
16696.00002852
 30
0.0
 11
14121.01920104
 21
16696.00002852
 31
0.0
  0
LINE
  5
2D2
330
2
100
AcDbEntity
  8
YKK_N1
  6
Continuous
100
AcDbLine
 10
14209.99994218
 20
16696.00002852
 30
0.0
 11
14335.00000322
 21
16696.00002852
 31
0.0
  0
LINE
  5
2D3
330
2
100
AcDbEntity
  8
YKK_F1
100
AcDbLine
 10
22800.0
 20
0.0
 30
0.0
 11
22800.0
 21
19500.0
 31
0.0
  0
LINE
  5
2D4
330
2
100
AcDbEntity
  8
YKK_F1
100
AcDbLine
 10
28500.0
 20
0.0
 30
0.0
 11
28500.0
 21
20000.0
 31
0.0
  0
LINE
  5
2D5
330
2
100
AcDbEntity
  8
YKK_F1
100
AcDbLine
 10
28681.0155
 20
0.0
 30
0.0
 11
28681.0155
 21
20000.0
 31
0.0
  0
LINE
  5
2D6
330
2
100
AcDbEntity
  8
YKK_F1
100
AcDbLine
 10
17100.0
 20
0.0
 30
0.0
 11
17100.0
 21
19500.0
 31
0.0
  0
TEXT
  5
2D7
330
2
100
AcDbEntity
  8
0
100
AcDbText
 10
22900.0
 20
18287.5
 30
0.0
 40
175.0
  1
2PT NAB/W
100
AcDbText
  0
TEXT
  5
2D8
330
2
100
AcDbEntity
  8
0
100
AcDbText
 10
22900.0
 20
18737.5
 30
0.0
 40
175.0
  1
W=1100　H=1900
100
AcDbText
  0
TEXT
  5
2D9
330
2
100
AcDbEntity
  8
0
100
AcDbText
 10
22900.0
 20
19187.5
 30
0.0
 40
175.0
  1
点検口両開き2ロック（枠見込３３）
100
AcDbText
  0
LINE
  5
2DA
330
2
100
AcDbEntity
  8
YKK_N1
  6
Continuous
100
AcDbLine
 10
20035.00000322
 20
17445.99999528
 30
0.0
 11
20035.00000322
 21
15545.99993424
 31
0.0
  0
LINE
  5
2DB
330
2
100
AcDbEntity
  8
YKK_A1
100
AcDbLine
 10
18865.0
 20
15510.99993633
 30
0.0
 11
18865.0
 21
17480.99981891
 31
0.0
  0
LINE
  5
2DC
330
2
100
AcDbEntity
  8
YKK_A1
100
AcDbLine
 10
19368.19997001
 20
15540.99993454
 30
0.0
 11
19368.19997001
 21
17452.99982058
 31
0.0
  0
LINE
  5
2DD
330
2
100
AcDbEntity
  8
YKK_A1
100
AcDbLine
 10
19340.19997168
 20
17452.99982058
 30
0.0
 11
19340.19997168
 21
15540.99993454
 31
0.0
  0
LINE
  5
2DE
330
2
100
AcDbEntity
  8
YKK_A1
100
AcDbLine
 10
19834.99994218
 20
15510.99993633
 30
0.0
 11
19834.99994218
 21
17480.99981891
 31
0.0
  0
LINE
  5
2DF
330
2
100
AcDbEntity
  8
YKK_A1
  6
NITENSAP
100
AcDbLine
 10
18893.99999827
 20
16496.99987756
 30
0.0
 11
19346.99997127
 21
15540.99993454
 31
0.0
  0
LINE
  5
2E0
330
2
100
AcDbEntity
  8
YKK_A1
100
AcDbLine
 10
18889.99999851
 20
16456.99987994
 30
0.0
 11
18889.99999851
 21
15718.99992393
 31
0.0
  0
LINE
  5
2E1
330
2
100
AcDbEntity
  8
YKK_A1
100
AcDbLine
 10
18893.99999827
 20
16456.99987994
 30
0.0
 11
18893.99999827
 21
15718.99992393
 31
0.0
  0
LINE
  5
2E2
330
2
100
AcDbEntity
  8
YKK_A1
  6
NITENSAP
100
AcDbLine
 10
19805.99994391
 20
16496.99987756
 30
0.0
 11
19352.99997091
 21
15540.99993454
 31
0.0
  0
LINE
  5
2E3
330
2
100
AcDbEntity
  8
YKK_A1
100
AcDbLine
 10
19805.99994391
 20
16456.99987994
 30
0.0
 11
19805.99994391
 21
15718.99992393
 31
0.0
  0
LINE
  5
2E4
330
2
100
AcDbEntity
  8
YKK_A1
100
AcDbLine
 10
19809.99994367
 20
16456.99987994
 30
0.0
 11
19809.99994367
 21
15718.99992393
 31
0.0
  0
LINE
  5
2E5
330
2
100
AcDbEntity
  8
YKK_C1
  6
Continuous
100
AcDbLine
 10
20833.49999101
 20
15535.99990373
 30
0.0
 11
20833.49999101
 21
17456.0000258
 31
0.0
  0
LINE
  5
2E6
330
2
100
AcDbEntity
  8
YKK_C1
  6
Continuous
100
AcDbLine
 10
20804.79999101
 20
17453.0000258
 30
0.0
 11
20804.79999101
 21
15540.99990373
 31
0.0
  0
LINE
  5
2E7
330
2
100
AcDbEntity
  8
YKK_C1
  6
Continuous
100
AcDbLine
 10
20800.49999101
 20
17481.0000258
 30
0.0
 11
20800.49999101
 21
15510.99990373
 31
0.0
  0
LINE
  5
2E8
330
2
100
AcDbEntity
  8
YKK_C1
  6
Continuous
100
AcDbLine
 10
20829.79999101
 20
17453.0000258
 30
0.0
 11
20829.79999101
 21
15540.99990373
 31
0.0
  0
LINE
  5
2E9
330
2
100
AcDbEntity
  8
YKK_N1
  6
Continuous
100
AcDbLine
 10
21035.00000322
 20
17446.0000258
 30
0.0
 11
21035.00000322
 21
15545.99990373
 31
0.0
  0
TEXT
  5
2EA
330
2
100
AcDbEntity
  8
YKK_N1
  6
Continuous
100
AcDbText
 10
15323.00000956
 20
15982.95010634
 30
0.0
 40
60.0
  1
H=1150
 50
90.0000025
 72
     4
 11
15293.00000322
 21
16127.95010503
 31
0.0
100
AcDbText
  0
LINE
  5
2EB
330
2
100
AcDbEntity
  8
YKK_C1
  6
Continuous
100
AcDbLine
 10
15133.49999101
 20
15535.99993696
 30
0.0
 11
15133.49999101
 21
16706.00002852
 31
0.0
  0
LINE
  5
2EC
330
2
100
AcDbEntity
  8
YKK_C1
  6
Continuous
100
AcDbLine
 10
15104.79999101
 20
16703.00002852
 30
0.0
 11
15104.79999101
 21
15540.99993696
 31
0.0
  0
LINE
  5
2ED
330
2
100
AcDbEntity
  8
YKK_C1
  6
Continuous
100
AcDbLine
 10
15100.49999101
 20
16731.00002852
 30
0.0
 11
15100.49999101
 21
15510.99993696
 31
0.0
  0
LINE
  5
2EE
330
2
100
AcDbEntity
  8
YKK_C1
  6
Continuous
100
AcDbLine
 10
15129.79999101
 20
16703.00002852
 30
0.0
 11
15129.79999101
 21
15540.99993696
 31
0.0
  0
LINE
  5
2EF
330
2
100
AcDbEntity
  8
YKK_N1
  6
Continuous
100
AcDbLine
 10
15335.00000322
 20
16696.00002852
 30
0.0
 11
15335.00000322
 21
15545.99993696
 31
0.0
  0
TEXT
  5
2F0
330
2
100
AcDbEntity
  8
YKK_N1
  6
Continuous
100
AcDbText
 10
18791.11906931
 20
13857.99999528
 30
0.0
 40
60.0
  1
10
 72
     4
 11
18826.11906931
 21
13887.99999528
 31
0.0
100
AcDbText
  0
TEXT
  5
2F1
330
2
100
AcDbEntity
  8
YKK_N1
  6
Continuous
100
AcDbText
 10
15322.99997423
 20
15435.29046629
 30
0.0
 40
60.0
  1
10
 50
90.0000025
 72
     4
 11
15292.9999727
 21
15470.29046498
 31
0.0
100
AcDbText
  0
LINE
  5
2F2
330
2
100
AcDbEntity
  8
YKK_C1
  6
Continuous
100
AcDbLine
 10
15101.9999727
 20
15510.99993696
 30
0.0
 11
15121.9999727
 21
15510.99993696
 31
0.0
  0
LINE
  5
2F3
330
2
100
AcDbEntity
  8
YKK_C1
  6
Continuous
100
AcDbLine
 10
15101.9999727
 20
15510.99993696
 30
0.0
 11
15101.9999727
 21
15535.99993696
 31
0.0
  0
LINE
  5
2F4
330
2
100
AcDbEntity
  8
YKK_C1
  6
Continuous
100
AcDbLine
 10
15101.9999727
 20
15535.99993696
 30
0.0
 11
15134.9999727
 21
15535.99993696
 31
0.0
  0
LINE
  5
2F5
330
2
100
AcDbEntity
  8
YKK_C1
  6
Continuous
100
AcDbLine
 10
15134.9999727
 20
15535.99993696
 30
0.0
 11
15134.9999727
 21
15545.99993696
 31
0.0
  0
LINE
  5
2F6
330
2
100
AcDbEntity
  8
YKK_C1
  6
Continuous
100
AcDbLine
 10
15104.79999101
 20
15540.99993696
 30
0.0
 11
15129.79999101
 21
15540.99993696
 31
0.0
  0
LINE
  5
2F7
330
2
100
AcDbEntity
  8
YKK_N1
  6
Continuous
100
AcDbLine
 10
15334.9999727
 20
15545.99993696
 30
0.0
 11
15284.9999727
 21
15632.60249129
 31
0.0
  0
LINE
  5
2F8
330
2
100
AcDbEntity
  8
YKK_N1
  6
Continuous
100
AcDbLine
 10
15209.9999727
 20
15535.99993696
 30
0.0
 11
15334.9999727
 21
15535.99993696
 31
0.0
  0
LINE
  5
2F9
330
2
100
AcDbEntity
  8
YKK_N1
  6
Continuous
100
AcDbLine
 10
15209.9999727
 20
15545.99993696
 30
0.0
 11
15335.00000322
 21
15545.99993696
 31
0.0
  0
LINE
  5
2FA
330
2
100
AcDbEntity
  8
YKK_N1
  6
Continuous
100
AcDbLine
 10
15334.9999727
 20
15545.99993696
 30
0.0
 11
15334.9999727
 21
15535.99993696
 31
0.0
  0
CIRCLE
  5
2FB
330
2
100
AcDbEntity
  8
YKK_N1
  6
Continuous
100
AcDbCircle
 10
15334.9999727
 20
15535.99993696
 30
0.0
 40
5.0
  0
LINE
  5
2FC
330
2
100
AcDbEntity
  8
YKK_N1
100
AcDbLine
 10
15284.9999727
 20
15632.60249129
 30
0.0
 11
15384.99998151
 21
15632.60249129
 31
0.0
  0
LINE
  5
2FD
330
2
100
AcDbEntity
  8
YKK_N1
  6
Continuous
100
AcDbLine
 10
15384.99998151
 20
15632.60249129
 30
0.0
 11
15334.9999727
 21
15545.99993696
 31
0.0
  0
LINE
  5
2FE
330
2
100
AcDbEntity
  8
YKK_N1
  6
Continuous
100
AcDbLine
 10
15100.49999101
 20
16104.91201263
 30
0.0
 11
15133.49999101
 21
16104.91201263
 31
0.0
  0
CIRCLE
  5
2FF
330
2
100
AcDbEntity
  8
YKK_N1
  6
Continuous
100
AcDbCircle
 10
15133.49999101
 20
16104.91201263
 30
0.0
 40
5.0
  0
CIRCLE
  5
300
330
2
100
AcDbEntity
  8
YKK_N1
  6
Continuous
100
AcDbCircle
 10
15100.49999101
 20
16104.91201263
 30
0.0
 40
5.0
  0
TEXT
  5
301
330
2
100
AcDbEntity
  8
YKK_N1
  6
Continuous
100
AcDbText
 10
14969.86937385
 20
16116.91201263
 30
0.0
 40
60.0
  1
33
 72
     4
 11
15019.86937385
 21
16146.91201263
 31
0.0
100
AcDbText
  0
LINE
  5
302
330
2
100
AcDbEntity
  8
YKK_N1
100
AcDbLine
 10
20984.9999727
 20
15632.60245805
 30
0.0
 11
21084.99998151
 21
15632.60245805
 31
0.0
  0
LINE
  5
303
330
2
100
AcDbEntity
  8
YKK_N1
  6
Continuous
100
AcDbLine
 10
21084.99998151
 20
15632.60245805
 30
0.0
 11
21034.9999727
 21
15545.99990373
 31
0.0
  0
LINE
  5
304
330
2
100
AcDbEntity
  8
YKK_N1
  6
Continuous
100
AcDbLine
 10
18899.99984588
 20
13970.99996476
 30
0.0
 11
18899.99984588
 21
13845.99999528
 31
0.0
  0
LINE
  5
305
330
2
100
AcDbEntity
  8
YKK_N1
  6
Continuous
100
AcDbLine
 10
18889.99984588
 20
13970.99996476
 30
0.0
 11
18889.99984588
 21
13845.99999528
 31
0.0
  0
TEXT
  5
306
330
2
100
AcDbEntity
  8
YKK_N1
  6
Continuous
100
AcDbText
 10
19209.99988403
 20
13857.99999528
 30
0.0
 40
60.0
  1
W=900
 72
     4
 11
19349.99988403
 21
13887.99999528
 31
0.0
100
AcDbText
  0
LINE
  5
307
330
2
100
AcDbEntity
  8
YKK_N1
  6
Continuous
100
AcDbLine
 10
19809.99992217
 20
13970.99996476
 30
0.0
 11
19809.99992217
 21
13845.99999528
 31
0.0
  0
LINE
  5
308
330
2
100
AcDbEntity
  8
YKK_N1
  6
Continuous
100
AcDbLine
 10
19799.99992217
 20
13970.99996476
 30
0.0
 11
19799.99992217
 21
13845.99999528
 31
0.0
  0
TEXT
  5
309
330
2
100
AcDbEntity
  8
YKK_N1
  6
Continuous
100
AcDbText
 10
19834.525188
 20
13857.99999528
 30
0.0
 40
60.0
  1
10
 72
     4
 11
19869.525188
 21
13887.99999528
 31
0.0
100
AcDbText
  0
LINE
  5
30A
330
2
100
AcDbEntity
  8
YKK_N1
  6
Continuous
100
AcDbLine
 10
18899.99984588
 20
13845.99999528
 30
0.0
 11
19799.99992217
 21
13845.99999528
 31
0.0
  0
LINE
  5
30B
330
2
100
AcDbEntity
  8
YKK_N1
  6
Continuous
100
AcDbLine
 10
18986.6024002
 20
13795.99998647
 30
0.0
 11
18899.99984588
 21
13845.99999528
 31
0.0
  0
LINE
  5
30C
330
2
100
AcDbEntity
  8
YKK_N1
  6
Continuous
100
AcDbLine
 10
18899.99984588
 20
13845.99999528
 30
0.0
 11
18986.6024002
 21
13895.99999528
 31
0.0
  0
CIRCLE
  5
30D
330
2
100
AcDbEntity
  8
YKK_N1
  6
Continuous
100
AcDbCircle
 10
18889.99984588
 20
13845.99999528
 30
0.0
 40
5.0
  0
LINE
  5
30E
330
2
100
AcDbEntity
  8
YKK_N1
  6
Continuous
100
AcDbLine
 10
18889.99984588
 20
13845.99999528
 30
0.0
 11
18899.99984588
 21
13845.99999528
 31
0.0
  0
LINE
  5
30F
330
2
100
AcDbEntity
  8
YKK_N1
100
AcDbLine
 10
18986.6024002
 20
13895.99999528
 30
0.0
 11
18986.6024002
 21
13795.99998647
 31
0.0
  0
LINE
  5
310
330
2
100
AcDbEntity
  8
YKK_N1
  6
Continuous
100
AcDbLine
 10
19713.39732207
 20
13795.99998647
 30
0.0
 11
19799.9998764
 21
13845.99999528
 31
0.0
  0
LINE
  5
311
330
2
100
AcDbEntity
  8
YKK_N1
  6
Continuous
100
AcDbLine
 10
19799.9998764
 20
13845.99999528
 30
0.0
 11
19713.39732207
 21
13895.99999528
 31
0.0
  0
LINE
  5
312
330
2
100
AcDbEntity
  8
YKK_N1
100
AcDbLine
 10
19713.39732207
 20
13895.99999528
 30
0.0
 11
19713.39732207
 21
13795.99998647
 31
0.0
  0
CIRCLE
  5
313
330
2
100
AcDbEntity
  8
YKK_N1
  6
Continuous
100
AcDbCircle
 10
19809.99992217
 20
13845.99999528
 30
0.0
 40
5.0
  0
LINE
  5
314
330
2
100
AcDbEntity
  8
YKK_N1
  6
Continuous
100
AcDbLine
 10
19799.99992217
 20
13845.99999528
 30
0.0
 11
19809.99992217
 21
13845.99999528
 31
0.0
  0
LINE
  5
315
330
2
100
AcDbEntity
  8
YKK_B1
  6
Continuous
100
AcDbLine
 10
19805.99992217
 20
14076.19991593
 30
0.0
 11
19352.99986114
 21
14076.19991593
 31
0.0
  0
LINE
  5
316
330
2
100
AcDbEntity
  8
YKK_B1
  6
Continuous
100
AcDbLine
 10
19805.99992217
 20
14051.19991593
 30
0.0
 11
19352.99986114
 21
14051.19991593
 31
0.0
  0
LINE
  5
317
330
2
100
AcDbEntity
  8
YKK_B1
  6
Continuous
100
AcDbLine
 10
19369.99986114
 20
14078.69996476
 30
0.0
 11
19805.99992217
 21
14078.69996476
 31
0.0
  0
ARC
  5
318
330
2
100
AcDbEntity
  8
YKK_B1
  6
PHANTOM
100
AcDbCircle
 10
18891.99984588
 20
14087.99996476
 30
0.0
 40
455.1530017893372
100
AcDbArc
 50
359.01807028
 51
88.51441438
  0
LINE
  5
319
330
2
100
AcDbEntity
  8
YKK_B1
  6
Continuous
100
AcDbLine
 10
18889.99984588
 20
14045.69996476
 30
0.0
 11
19809.99992217
 21
14045.69996476
 31
0.0
  0
ARC
  5
31A
330
2
100
AcDbEntity
  8
YKK_B1
  6
PHANTOM
100
AcDbCircle
 10
19807.99992217
 20
14087.99996476
 30
0.0
 40
455.1316945540594
100
AcDbArc
 50
91.48565519
 51
180.98197569
  0
LINE
  5
31B
330
2
100
AcDbEntity
  8
YKK_B1
  6
PHANTOM
100
AcDbLine
 10
18903.79989471
 20
14542.99998002
 30
0.0
 11
18903.79989471
 21
14089.99996476
 31
0.0
  0
LINE
  5
31C
330
2
100
AcDbEntity
  8
YKK_B1
  6
Continuous
100
AcDbLine
 10
19346.99986114
 20
14076.19991593
 30
0.0
 11
18893.99984588
 21
14076.19991593
 31
0.0
  0
LINE
  5
31D
330
2
100
AcDbEntity
  8
YKK_B1
  6
Continuous
100
AcDbLine
 10
19346.99986114
 20
14051.19991593
 30
0.0
 11
18893.99984588
 21
14051.19991593
 31
0.0
  0
LINE
  5
31E
330
2
100
AcDbEntity
  8
YKK_B1
  6
Continuous
100
AcDbLine
 10
18894.03994598
 20
14078.69996476
 30
0.0
 11
19321.99986114
 21
14078.69996476
 31
0.0
  0
LINE
  5
31F
330
2
100
AcDbEntity
  8
YKK_B1
  6
Continuous
100
AcDbLine
 10
18864.99984588
 20
14080.19991593
 30
0.0
 11
18889.99984588
 21
14080.19991593
 31
0.0
  0
CIRCLE
  5
320
330
2
100
AcDbEntity
  8
YKK_B1
  6
Continuous
100
AcDbCircle
 10
18891.99984588
 20
14087.99996476
 30
0.0
 40
5.0
  0
LINE
  5
321
330
2
100
AcDbEntity
  8
YKK_B1
  6
CENTER
100
AcDbLine
 10
18876.99984588
 20
14087.99996476
 30
0.0
 11
18906.99984588
 21
14087.99996476
 31
0.0
  0
LINE
  5
322
330
2
100
AcDbEntity
  8
YKK_B1
  6
CENTER
100
AcDbLine
 10
18891.99984588
 20
14102.99996476
 30
0.0
 11
18891.99984588
 21
14072.99996476
 31
0.0
  0
LINE
  5
323
330
2
100
AcDbEntity
  8
YKK_B1
  6
Continuous
100
AcDbLine
 10
18889.99984588
 20
14083.41738419
 30
0.0
 11
18889.99984588
 21
14045.99996476
 31
0.0
  0
LINE
  5
324
330
2
100
AcDbEntity
  8
YKK_B1
  6
Continuous
100
AcDbLine
 10
18893.99984588
 20
14083.41738419
 30
0.0
 11
18893.99984588
 21
14051.19991593
 31
0.0
  0
LINE
  5
325
330
2
100
AcDbEntity
  8
YKK_B1
  6
Continuous
100
AcDbLine
 10
18864.99984588
 20
14080.19991593
 30
0.0
 11
18864.99984588
 21
14058.69996476
 31
0.0
  0
LINE
  5
326
330
2
100
AcDbEntity
  8
YKK_B1
100
AcDbLine
 10
19349.9998001
 20
13945.99996476
 30
0.0
 11
19349.9998001
 21
14180.19997697
 31
0.0
  0
LINE
  5
327
330
2
100
AcDbEntity
  8
YKK_B1
  6
Continuous
100
AcDbLine
 10
19346.99986114
 20
14076.19991593
 30
0.0
 11
19346.99986114
 21
14051.19991593
 31
0.0
  0
LINE
  5
328
330
2
100
AcDbEntity
  8
YKK_B1
  6
Continuous
100
AcDbLine
 10
19352.99986114
 20
14076.19991593
 30
0.0
 11
19352.99986114
 21
14051.19991593
 31
0.0
  0
LINE
  5
329
330
2
100
AcDbEntity
  8
YKK_B1
  6
PHANTOM
100
AcDbLine
 10
18899.79983367
 20
14527.99998002
 30
0.0
 11
18899.79983367
 21
14555.99998002
 31
0.0
  0
LINE
  5
32A
330
2
100
AcDbEntity
  8
YKK_B1
  6
PHANTOM
100
AcDbLine
 10
18899.79983367
 20
14527.99998002
 30
0.0
 11
18903.79989471
 21
14527.99998002
 31
0.0
  0
LINE
  5
32B
330
2
100
AcDbEntity
  8
YKK_B1
  6
PHANTOM
100
AcDbLine
 10
19796.19987334
 20
14089.99996476
 30
0.0
 11
19796.19987334
 21
14542.97866562
 31
0.0
  0
TEXT
  5
32C
330
2
100
AcDbEntity
  8
YKK_N1
  6
Continuous
100
AcDbText
 10
19534.64177006
 20
14101.54024613
 30
0.0
 40
60.0
  1
33
 50
90.0000025
 72
     4
 11
19504.64176788
 21
14151.54024482
 31
0.0
100
AcDbText
  0
CIRCLE
  5
32D
330
2
100
AcDbEntity
  8
YKK_N1
  6
Continuous
100
AcDbCircle
 10
19546.64176788
 20
14045.99996476
 30
0.0
 40
5.0
  0
CIRCLE
  5
32E
330
2
100
AcDbEntity
  8
YKK_N1
  6
Continuous
100
AcDbCircle
 10
19546.64176788
 20
14078.99996476
 30
0.0
 40
5.0
  0
LINE
  5
32F
330
2
100
AcDbEntity
  8
YKK_N1
  6
Continuous
100
AcDbLine
 10
19546.64176788
 20
14078.99996476
 30
0.0
 11
19546.64176788
 21
14045.99996476
 31
0.0
  0
CIRCLE
  5
330
330
2
100
AcDbEntity
  8
YKK_B1
  6
Continuous
100
AcDbCircle
 10
19807.99992217
 20
14087.99996476
 30
0.0
 40
5.0
  0
LINE
  5
331
330
2
100
AcDbEntity
  8
YKK_B1
  6
CENTER
100
AcDbLine
 10
19822.99992217
 20
14087.99996476
 30
0.0
 11
19792.99992217
 21
14087.99996476
 31
0.0
  0
LINE
  5
332
330
2
100
AcDbEntity
  8
YKK_B1
  6
CENTER
100
AcDbLine
 10
19807.99992217
 20
14102.99996476
 30
0.0
 11
19807.99992217
 21
14072.99996476
 31
0.0
  0
LINE
  5
333
330
2
100
AcDbEntity
  8
YKK_B1
  6
Continuous
100
AcDbLine
 10
19834.99992217
 20
14080.19991593
 30
0.0
 11
19809.99992217
 21
14080.19991593
 31
0.0
  0
LINE
  5
334
330
2
100
AcDbEntity
  8
YKK_B1
  6
Continuous
100
AcDbLine
 10
19809.99992217
 20
14083.41738419
 30
0.0
 11
19809.99992217
 21
14045.99996476
 31
0.0
  0
LINE
  5
335
330
2
100
AcDbEntity
  8
YKK_B1
  6
Continuous
100
AcDbLine
 10
19805.99992217
 20
14083.41738419
 30
0.0
 11
19805.99992217
 21
14051.19991593
 31
0.0
  0
LINE
  5
336
330
2
100
AcDbEntity
  8
YKK_B1
  6
Continuous
100
AcDbLine
 10
19834.99992217
 20
14080.19991593
 30
0.0
 11
19834.99992217
 21
14058.69991593
 31
0.0
  0
LINE
  5
337
330
2
100
AcDbEntity
  8
YKK_N1
  6
Continuous
100
AcDbLine
 10
19909.99994218
 20
15545.99993424
 30
0.0
 11
20035.00000322
 21
15545.99993424
 31
0.0
  0
LINE
  5
338
330
2
100
AcDbEntity
  8
YKK_N1
  6
Continuous
100
AcDbLine
 10
18899.99999791
 20
15310.99993633
 30
0.0
 11
19799.99998266
 21
15310.99993633
 31
0.0
  0
TEXT
  5
339
330
2
100
AcDbEntity
  8
YKK_N1
  6
Continuous
100
AcDbText
 10
19209.99999028
 20
15322.99993633
 30
0.0
 40
60.0
  1
W=900
 72
     4
 11
19349.99999028
 21
15352.99993633
 31
0.0
100
AcDbText
  0
LINE
  5
33A
330
2
100
AcDbEntity
  8
YKK_N1
  6
Continuous
100
AcDbLine
 10
18986.60255224
 20
15260.99992752
 30
0.0
 11
18899.99999791
 21
15310.99993633
 31
0.0
  0
LINE
  5
33B
330
2
100
AcDbEntity
  8
YKK_N1
  6
Continuous
100
AcDbLine
 10
18899.99999791
 20
15310.99993633
 30
0.0
 11
18986.60255224
 21
15360.99993633
 31
0.0
  0
LINE
  5
33C
330
2
100
AcDbEntity
  8
YKK_N1
  6
Continuous
100
AcDbLine
 10
18899.99999791
 20
15435.99993633
 30
0.0
 11
18899.99999791
 21
15310.99993633
 31
0.0
  0
LINE
  5
33D
330
2
100
AcDbEntity
  8
YKK_N1
100
AcDbLine
 10
18986.60255224
 20
15360.99993633
 30
0.0
 11
18986.60255224
 21
15260.99992752
 31
0.0
  0
LINE
  5
33E
330
2
100
AcDbEntity
  8
YKK_N1
  6
Continuous
100
AcDbLine
 10
19799.99998266
 20
15435.99993633
 30
0.0
 11
19799.99998266
 21
15310.99993633
 31
0.0
  0
LINE
  5
33F
330
2
100
AcDbEntity
  8
YKK_N1
  6
Continuous
100
AcDbLine
 10
19799.99998266
 20
15310.99993633
 30
0.0
 11
19713.39742833
 21
15360.99993633
 31
0.0
  0
LINE
  5
340
330
2
100
AcDbEntity
  8
YKK_N1
100
AcDbLine
 10
19713.39742833
 20
15360.99993633
 30
0.0
 11
19713.39742833
 21
15260.99992752
 31
0.0
  0
LINE
  5
341
330
2
100
AcDbEntity
  8
YKK_N1
  6
Continuous
100
AcDbLine
 10
19713.39742833
 20
15260.99992752
 30
0.0
 11
19799.99998266
 21
15310.99993633
 31
0.0
  0
LINE
  5
342
330
2
100
AcDbEntity
  8
YKK_A1
100
AcDbLine
 10
19805.99994391
 20
15540.99993454
 30
0.0
 11
18893.99999827
 21
15540.99993454
 31
0.0
  0
LINE
  5
343
330
2
100
AcDbEntity
  8
YKK_A1
100
AcDbLine
 10
18865.0
 20
15510.99993633
 30
0.0
 11
19834.99994218
 21
15510.99993633
 31
0.0
  0
LINE
  5
344
330
2
100
AcDbEntity
  8
YKK_A1
100
AcDbLine
 10
19809.99994367
 20
15535.99993484
 30
0.0
 11
18889.99999851
 21
15535.99993484
 31
0.0
  0
LINE
  5
345
330
2
100
AcDbEntity
  8
YKK_A2
100
AcDbLine
 10
18886.39999872
 20
15718.99992393
 30
0.0
 11
18886.39999872
 21
15638.9999287
 31
0.0
  0
LINE
  5
346
330
2
100
AcDbEntity
  8
YKK_A2
100
AcDbLine
 10
18897.39999807
 20
15638.9999287
 30
0.0
 11
18897.39999807
 21
15718.99992393
 31
0.0
  0
LINE
  5
347
330
2
100
AcDbEntity
  8
YKK_A2
100
AcDbLine
 10
18886.39999872
 20
15678.99992632
 30
0.0
 11
18897.39999807
 21
15678.99992632
 31
0.0
  0
LINE
  5
348
330
2
100
AcDbEntity
  8
YKK_A1
100
AcDbLine
 10
18893.99999827
 20
15638.9999287
 30
0.0
 11
18893.99999827
 21
15540.99993454
 31
0.0
  0
LINE
  5
349
330
2
100
AcDbEntity
  8
YKK_A2
100
AcDbLine
 10
18886.39999872
 20
15638.9999287
 30
0.0
 11
18897.39999807
 21
15638.9999287
 31
0.0
  0
LINE
  5
34A
330
2
100
AcDbEntity
  8
YKK_A1
100
AcDbLine
 10
18899.99999791
 20
15510.99993633
 30
0.0
 11
18899.99999791
 21
15520.17158304
 31
0.0
  0
LINE
  5
34B
330
2
100
AcDbEntity
  8
YKK_A1
100
AcDbLine
 10
18889.99999851
 20
15638.9999287
 30
0.0
 11
18889.99999851
 21
15510.99993633
 31
0.0
  0
LINE
  5
34C
330
2
100
AcDbEntity
  8
YKK_A2
100
AcDbLine
 10
18897.39999807
 20
15718.99992393
 30
0.0
 11
18886.39999872
 21
15718.99992393
 31
0.0
  0
LINE
  5
34D
330
2
100
AcDbEntity
  8
YKK_A1
100
AcDbLine
 10
19346.99997127
 20
15535.99993484
 30
0.0
 11
19346.99997127
 21
15540.99993454
 31
0.0
  0
LINE
  5
34E
330
2
100
AcDbEntity
  8
YKK_A1
100
AcDbLine
 10
19352.99997091
 20
15540.99993454
 30
0.0
 11
19352.99997091
 21
15535.99993484
 31
0.0
  0
LINE
  5
34F
330
2
100
AcDbEntity
  8
YKK_A2
100
AcDbLine
 10
19813.39994347
 20
15718.99992393
 30
0.0
 11
19813.39994347
 21
15638.9999287
 31
0.0
  0
LINE
  5
350
330
2
100
AcDbEntity
  8
YKK_A2
100
AcDbLine
 10
19802.39994413
 20
15638.9999287
 30
0.0
 11
19802.39994413
 21
15718.99992393
 31
0.0
  0
LINE
  5
351
330
2
100
AcDbEntity
  8
YKK_A1
100
AcDbLine
 10
19834.99994218
 20
15545.99993424
 30
0.0
 11
19826.10002346
 21
15545.99993424
 31
0.0
  0
LINE
  5
352
330
2
100
AcDbEntity
  8
YKK_A1
100
AcDbLine
 10
19805.99994391
 20
15638.9999287
 30
0.0
 11
19805.99994391
 21
15540.99993454
 31
0.0
  0
LINE
  5
353
330
2
100
AcDbEntity
  8
YKK_A2
100
AcDbLine
 10
19813.39994347
 20
15678.99992632
 30
0.0
 11
19802.39994413
 21
15678.99992632
 31
0.0
  0
LINE
  5
354
330
2
100
AcDbEntity
  8
YKK_A2
100
AcDbLine
 10
19813.39994347
 20
15638.9999287
 30
0.0
 11
19802.39994413
 21
15638.9999287
 31
0.0
  0
LINE
  5
355
330
2
100
AcDbEntity
  8
YKK_A1
100
AcDbLine
 10
19799.99994427
 20
15510.99993633
 30
0.0
 11
19799.99994427
 21
15516.59053968
 31
0.0
  0
LINE
  5
356
330
2
100
AcDbEntity
  8
YKK_A1
100
AcDbLine
 10
19809.99994367
 20
15638.9999287
 30
0.0
 11
19809.99994367
 21
15510.99993633
 31
0.0
  0
LINE
  5
357
330
2
100
AcDbEntity
  8
YKK_A2
100
AcDbLine
 10
19802.39994413
 20
15718.99992393
 30
0.0
 11
19813.39994347
 21
15718.99992393
 31
0.0
  0
TEXT
  5
358
330
2
100
AcDbEntity
  8
YKK_N1
  6
Continuous
100
AcDbText
 10
21022.99997423
 20
15435.29043305
 30
0.0
 40
60.0
  1
10
 50
90.0000025
 72
     4
 11
20992.9999727
 21
15470.29043174
 31
0.0
100
AcDbText
  0
LINE
  5
359
330
2
100
AcDbEntity
  8
YKK_N1
  6
Continuous
100
AcDbLine
 10
20085.00001203
 20
15632.60248857
 30
0.0
 11
20035.00000322
 21
15545.99993424
 31
0.0
  0
LINE
  5
35A
330
2
100
AcDbEntity
  8
YKK_N1
100
AcDbLine
 10
19985.00000322
 20
15632.60248857
 30
0.0
 11
20085.00001203
 21
15632.60248857
 31
0.0
  0
LINE
  5
35B
330
2
100
AcDbEntity
  8
YKK_N1
  6
Continuous
100
AcDbLine
 10
20035.00000322
 20
15545.99993424
 30
0.0
 11
19985.00000322
 21
15632.60248857
 31
0.0
  0
LINE
  5
35C
330
2
100
AcDbEntity
  8
YKK_N1
  6
Continuous
100
AcDbLine
 10
21034.9999727
 20
15545.99990373
 30
0.0
 11
20984.9999727
 21
15632.60245805
 31
0.0
  0
LINE
  5
35D
330
2
100
AcDbEntity
  8
YKK_N1
  6
Continuous
100
AcDbLine
 10
21034.9999727
 20
15545.99990373
 30
0.0
 11
21034.9999727
 21
15535.99990373
 31
0.0
  0
CIRCLE
  5
35E
330
2
100
AcDbEntity
  8
YKK_N1
  6
Continuous
100
AcDbCircle
 10
21034.9999727
 20
15535.99990373
 30
0.0
 40
5.0
  0
LINE
  5
35F
330
2
100
AcDbEntity
  8
YKK_C1
  6
Continuous
100
AcDbLine
 10
20801.9999727
 20
15510.99990373
 30
0.0
 11
20821.9999727
 21
15510.99990373
 31
0.0
  0
LINE
  5
360
330
2
100
AcDbEntity
  8
YKK_C1
  6
Continuous
100
AcDbLine
 10
20801.9999727
 20
15510.99990373
 30
0.0
 11
20801.9999727
 21
15535.99990373
 31
0.0
  0
LINE
  5
361
330
2
100
AcDbEntity
  8
YKK_C1
  6
Continuous
100
AcDbLine
 10
20801.9999727
 20
15535.99990373
 30
0.0
 11
20834.9999727
 21
15535.99990373
 31
0.0
  0
LINE
  5
362
330
2
100
AcDbEntity
  8
YKK_C1
  6
Continuous
100
AcDbLine
 10
20834.9999727
 20
15535.99990373
 30
0.0
 11
20834.9999727
 21
15545.99990373
 31
0.0
  0
LINE
  5
363
330
2
100
AcDbEntity
  8
YKK_C1
  6
Continuous
100
AcDbLine
 10
20804.79999101
 20
15540.99990373
 30
0.0
 11
20829.79999101
 21
15540.99990373
 31
0.0
  0
LINE
  5
364
330
2
100
AcDbEntity
  8
YKK_N1
  6
Continuous
100
AcDbLine
 10
20909.9999727
 20
15535.99990373
 30
0.0
 11
21034.9999727
 21
15535.99990373
 31
0.0
  0
LINE
  5
365
330
2
100
AcDbEntity
  8
YKK_N1
  6
Continuous
100
AcDbLine
 10
20909.9999727
 20
15545.99990373
 30
0.0
 11
21035.00000322
 21
15545.99990373
 31
0.0
  0
TEXT
  5
366
330
2
100
AcDbEntity
  8
YKK_N1
  6
Continuous
100
AcDbText
 10
20669.86937385
 20
16116.91197939
 30
0.0
 40
60.0
  1
33
 72
     4
 11
20719.86937385
 21
16146.91197939
 31
0.0
100
AcDbText
  0
LINE
  5
367
330
2
100
AcDbEntity
  8
YKK_N1
  6
Continuous
100
AcDbLine
 10
20800.49999101
 20
16104.91197939
 30
0.0
 11
20833.49999101
 21
16104.91197939
 31
0.0
  0
CIRCLE
  5
368
330
2
100
AcDbEntity
  8
YKK_N1
  6
Continuous
100
AcDbCircle
 10
20800.49999101
 20
16104.91197939
 30
0.0
 40
5.0
  0
CIRCLE
  5
369
330
2
100
AcDbEntity
  8
YKK_N1
  6
Continuous
100
AcDbCircle
 10
20833.49999101
 20
16104.91197939
 30
0.0
 40
5.0
  0
TEXT
  5
36A
330
2
100
AcDbEntity
  8
0
100
AcDbText
 10
17200.0
 20
19187.5
 30
0.0
 40
175.0
  1
点検口両開き1ロック（枠見込３３）
100
AcDbText
  0
TEXT
  5
36B
330
2
100
AcDbEntity
  8
0
100
AcDbText
 10
17200.0
 20
18737.5
 30
0.0
 40
175.0
  1
W=900　H=1900
100
AcDbText
  0
LINE
  5
36C
330
2
100
AcDbEntity
  8
YKK_N1
  6
Continuous
100
AcDbLine
 10
15334.9999727
 20
16696.00002852
 30
0.0
 11
15284.9999727
 21
16609.3974742
 31
0.0
  0
LINE
  5
36D
330
2
100
AcDbEntity
  8
YKK_N1
  6
Continuous
100
AcDbLine
 10
15384.99998151
 20
16609.3974742
 30
0.0
 11
15334.9999727
 21
16696.00002852
 31
0.0
  0
LINE
  5
36E
330
2
100
AcDbEntity
  8
YKK_N1
100
AcDbLine
 10
15284.9999727
 20
16609.3974742
 30
0.0
 11
15384.99998151
 21
16609.3974742
 31
0.0
  0
LINE
  5
36F
330
2
100
AcDbEntity
  8
YKK_C1
  6
Continuous
100
AcDbLine
 10
15101.9999727
 20
16731.00002852
 30
0.0
 11
15121.9999727
 21
16731.00002852
 31
0.0
  0
LINE
  5
370
330
2
100
AcDbEntity
  8
YKK_C1
  6
Continuous
100
AcDbLine
 10
15101.9999727
 20
16731.00002852
 30
0.0
 11
15101.9999727
 21
16706.00002852
 31
0.0
  0
LINE
  5
371
330
2
100
AcDbEntity
  8
YKK_C1
  6
Continuous
100
AcDbLine
 10
15101.9999727
 20
16706.00002852
 30
0.0
 11
15133.49999101
 21
16706.00002852
 31
0.0
  0
LINE
  5
372
330
2
100
AcDbEntity
  8
YKK_C1
  6
Continuous
100
AcDbLine
 10
15104.79999101
 20
16703.00002852
 30
0.0
 11
15129.79999101
 21
16703.00002852
 31
0.0
  0
TEXT
  5
373
330
2
100
AcDbEntity
  8
YKK_N1
  6
Continuous
100
AcDbText
 10
15322.99997423
 20
16733.33978707
 30
0.0
 40
60.0
  1
10
 50
90.0000025
 72
     4
 11
15292.9999727
 21
16768.33978576
 31
0.0
100
AcDbText
  0
LINE
  5
374
330
2
100
AcDbEntity
  8
YKK_N1
  6
Continuous
100
AcDbLine
 10
15209.9999727
 20
16696.00002852
 30
0.0
 11
15335.00000322
 21
16696.00002852
 31
0.0
  0
LINE
  5
375
330
2
100
AcDbEntity
  8
YKK_N1
  6
Continuous
100
AcDbLine
 10
15209.9999727
 20
16706.00002852
 30
0.0
 11
15334.9999727
 21
16706.00002852
 31
0.0
  0
LINE
  5
376
330
2
100
AcDbEntity
  8
YKK_N1
  6
Continuous
100
AcDbLine
 10
15334.9999727
 20
16706.00002852
 30
0.0
 11
15334.9999727
 21
16696.00002852
 31
0.0
  0
CIRCLE
  5
377
330
2
100
AcDbEntity
  8
YKK_N1
  6
Continuous
100
AcDbCircle
 10
15334.9999727
 20
16706.00002852
 30
0.0
 40
5.0
  0
TEXT
  5
378
330
2
100
AcDbEntity
  8
0
100
AcDbText
 10
17200.0
 20
18287.5
 30
0.0
 40
175.0
  1
2PT SAB
100
AcDbText
  0
LINE
  5
379
330
2
100
AcDbEntity
  8
YKK_N1
100
AcDbLine
 10
20984.9999727
 20
17359.39747148
 30
0.0
 11
21084.99998151
 21
17359.39747148
 31
0.0
  0
LINE
  5
37A
330
2
100
AcDbEntity
  8
YKK_N1
  6
Continuous
100
AcDbLine
 10
21084.99998151
 20
17359.39747148
 30
0.0
 11
21034.9999727
 21
17446.0000258
 31
0.0
  0
LINE
  5
37B
330
2
100
AcDbEntity
  8
YKK_N1
  6
Continuous
100
AcDbLine
 10
19909.99994218
 20
17445.99999528
 30
0.0
 11
20035.00000322
 21
17445.99999528
 31
0.0
  0
LINE
  5
37C
330
2
100
AcDbEntity
  8
YKK_A1
  6
NITENSAP
100
AcDbLine
 10
19346.99997127
 20
17452.99982058
 30
0.0
 11
18893.99999827
 21
16496.99987756
 31
0.0
  0
LINE
  5
37D
330
2
100
AcDbEntity
  8
YKK_A1
  6
NITENSAP
100
AcDbLine
 10
19352.99997091
 20
17452.99982058
 30
0.0
 11
19805.99994391
 21
16496.99987756
 31
0.0
  0
LINE
  5
37E
330
2
100
AcDbEntity
  8
YKK_A1
100
AcDbLine
 10
18889.99999851
 20
17274.99983119
 30
0.0
 11
18889.99999851
 21
16536.99987518
 31
0.0
  0
LINE
  5
37F
330
2
100
AcDbEntity
  8
YKK_A1
100
AcDbLine
 10
18893.99999827
 20
17274.99983119
 30
0.0
 11
18893.99999827
 21
16536.99987518
 31
0.0
  0
LINE
  5
380
330
2
100
AcDbEntity
  8
YKK_A1
100
AcDbLine
 10
19805.99994391
 20
17274.99983119
 30
0.0
 11
19805.99994391
 21
16536.99987518
 31
0.0
  0
LINE
  5
381
330
2
100
AcDbEntity
  8
YKK_A1
100
AcDbLine
 10
19809.99994367
 20
17274.99983119
 30
0.0
 11
19809.99994367
 21
16536.99987518
 31
0.0
  0
CIRCLE
  5
382
330
2
100
AcDbEntity
  8
YKK_A2
100
AcDbCircle
 10
19409.19996756
 20
16496.99987756
 30
0.0
 40
28.9999982714653
  0
CIRCLE
  5
383
330
2
100
AcDbEntity
  8
YKK_A2
100
AcDbCircle
 10
19409.19996756
 20
16496.99987756
 30
0.0
 40
37.9999977350235
  0
CIRCLE
  5
384
330
2
100
AcDbEntity
  8
YKK_A2
100
AcDbCircle
 10
19409.19996756
 20
16496.99987756
 30
0.0
 40
27.99999833106996
  0
LINE
  5
385
330
2
100
AcDbEntity
  8
YKK_A2
  6
ITTENSAP
100
AcDbLine
 10
19354.19997084
 20
16496.99987756
 30
0.0
 11
19464.19996428
 21
16496.99987756
 31
0.0
  0
LINE
  5
386
330
2
100
AcDbEntity
  8
YKK_A2
  6
ITTENSAP
100
AcDbLine
 10
19357.99997061
 20
16496.99987756
 30
0.0
 11
19457.99996465
 21
16496.99987756
 31
0.0
  0
LINE
  5
387
330
2
100
AcDbEntity
  8
YKK_A2
100
AcDbLine
 10
18886.39999872
 20
16456.99987994
 30
0.0
 11
18886.39999872
 21
16536.99987518
 31
0.0
  0
LINE
  5
388
330
2
100
AcDbEntity
  8
YKK_A2
100
AcDbLine
 10
18897.39999807
 20
16536.99987518
 30
0.0
 11
18897.39999807
 21
16456.99987994
 31
0.0
  0
LINE
  5
389
330
2
100
AcDbEntity
  8
YKK_A2
100
AcDbLine
 10
18886.39999872
 20
16496.99987756
 30
0.0
 11
18897.39999807
 21
16496.99987756
 31
0.0
  0
LINE
  5
38A
330
2
100
AcDbEntity
  8
YKK_A2
100
AcDbLine
 10
18897.39999807
 20
16456.99987994
 30
0.0
 11
18886.39999872
 21
16456.99987994
 31
0.0
  0
LINE
  5
38B
330
2
100
AcDbEntity
  8
YKK_A2
100
AcDbLine
 10
18886.39999872
 20
16536.99987518
 30
0.0
 11
18897.39999807
 21
16536.99987518
 31
0.0
  0
ARC
  5
38C
330
2
100
AcDbEntity
  8
YKK_A2
100
AcDbCircle
 10
19391.19996864
 20
16496.99987756
 30
0.0
 40
4.999999701976488
100
AcDbArc
 50
281.53695903
 51
78.46304097
  0
ARC
  5
38D
330
2
100
AcDbEntity
  8
YKK_A2
100
AcDbCircle
 10
19163.94998218
 20
16497.25858954
 30
0.0
 40
249.9999850988646
100
AcDbArc
 50
0.0
 51
4.46558408
  0
ARC
  5
38E
330
2
100
AcDbEntity
  8
YKK_A2
100
AcDbCircle
 10
19409.19996756
 20
16496.99987756
 30
0.0
 40
7.499999552965164
100
AcDbArc
 50
128.680815
 51
231.319185
  0
ARC
  5
38F
330
2
100
AcDbEntity
  8
YKK_A2
100
AcDbCircle
 10
19391.19996864
 20
16496.99987756
 30
0.0
 40
4.999999701976488
100
AcDbArc
 50
101.53695903
 51
258.46304097
  0
ARC
  5
390
330
2
100
AcDbEntity
  8
YKK_A2
100
AcDbCircle
 10
19409.19996756
 20
16496.99987756
 30
0.0
 40
7.499999552965164
100
AcDbArc
 50
308.680815
 51
51.319185
  0
ARC
  5
391
330
2
100
AcDbEntity
  8
YKK_A2
100
AcDbCircle
 10
19654.44995295
 20
16497.25858954
 30
0.0
 40
249.9999850988646
100
AcDbArc
 50
175.53441592
 51
180.0
  0
LINE
  5
392
330
2
100
AcDbEntity
  8
YKK_A2
  6
ITTENSAP
100
AcDbLine
 10
19409.19996756
 20
16441.99988084
 30
0.0
 11
19409.19996756
 21
16551.99987428
 31
0.0
  0
LINE
  5
393
330
2
100
AcDbEntity
  8
YKK_A2
100
AcDbLine
 10
19392.19996858
 20
16501.89885675
 30
0.0
 11
19392.19996858
 21
16492.10089837
 31
0.0
  0
LINE
  5
394
330
2
100
AcDbEntity
  8
YKK_A2
100
AcDbLine
 10
19390.1999687
 20
16501.89885675
 30
0.0
 11
19390.1999687
 21
16492.10089837
 31
0.0
  0
LINE
  5
395
330
2
100
AcDbEntity
  8
YKK_A2
100
AcDbLine
 10
19413.94996728
 20
16496.74116558
 30
0.0
 11
19413.94996728
 21
16497.25858954
 31
0.0
  0
LINE
  5
396
330
2
100
AcDbEntity
  8
YKK_A2
100
AcDbLine
 10
19412.74157949
 20
16471.51741781
 30
0.0
 11
19413.19103783
 21
16477.27610121
 31
0.0
  0
LINE
  5
397
330
2
100
AcDbEntity
  8
YKK_A2
100
AcDbLine
 10
19404.44996785
 20
16497.25858954
 30
0.0
 11
19404.44996785
 21
16496.74116558
 31
0.0
  0
ARC
  5
398
330
2
100
AcDbEntity
  8
YKK_A2
100
AcDbCircle
 10
19411.24616444
 20
16471.63460807
 30
0.0
 40
1.499999910567033
100
AcDbArc
 50
274.70398873
 51
355.51909522
  0
ARC
  5
399
330
2
100
AcDbEntity
  8
YKK_A2
100
AcDbCircle
 10
19163.94998218
 20
16496.74116558
 30
0.0
 40
249.9999850988182
100
AcDbArc
 50
355.53441592
 51
0.0
  0
ARC
  5
39A
330
2
100
AcDbEntity
  8
YKK_A2
100
AcDbCircle
 10
19407.15377069
 20
16471.63460807
 30
0.0
 40
1.499999910567033
100
AcDbArc
 50
184.48090478
 51
265.29601127
  0
LINE
  5
39B
330
2
100
AcDbEntity
  8
YKK_A2
100
AcDbLine
 10
19407.03075886
 20
16470.13966064
 30
0.0
 11
19411.36917627
 21
16470.13966064
 31
0.0
  0
LINE
  5
39C
330
2
100
AcDbEntity
  8
YKK_A2
100
AcDbLine
 10
19405.2088973
 20
16477.27610121
 30
0.0
 11
19405.65835563
 21
16471.51741781
 31
0.0
  0
LINE
  5
39D
330
2
100
AcDbEntity
  8
YKK_A2
100
AcDbLine
 10
19392.19996858
 20
16493.12689444
 30
0.0
 11
19390.1999687
 21
16493.12689444
 31
0.0
  0
ARC
  5
39E
330
2
100
AcDbEntity
  8
YKK_A2
100
AcDbCircle
 10
19654.44995295
 20
16496.74116558
 30
0.0
 40
249.9999850988182
100
AcDbArc
 50
180.0
 51
184.46558408
  0
LINE
  5
39F
330
2
100
AcDbEntity
  8
YKK_A2
100
AcDbLine
 10
19413.19103783
 20
16516.72365391
 30
0.0
 11
19412.74165318
 21
16522.48139324
 31
0.0
  0
LINE
  5
3A0
330
2
100
AcDbEntity
  8
YKK_A2
100
AcDbLine
 10
19405.65828195
 20
16522.48139324
 30
0.0
 11
19405.2088973
 21
16516.72365391
 31
0.0
  0
ARC
  5
3A1
330
2
100
AcDbEntity
  8
YKK_A2
100
AcDbCircle
 10
19411.24616444
 20
16522.36514705
 30
0.0
 40
1.499999910598234
100
AcDbArc
 50
4.44473447
 51
85.257679
  0
LINE
  5
3A2
330
2
100
AcDbEntity
  8
YKK_A2
100
AcDbLine
 10
19411.3701764
 20
16523.86001185
 30
0.0
 11
19407.02975873
 21
16523.86001185
 31
0.0
  0
ARC
  5
3A3
330
2
100
AcDbEntity
  8
YKK_A2
100
AcDbCircle
 10
19407.15377069
 20
16522.36514705
 30
0.0
 40
1.499999910598234
100
AcDbArc
 50
94.742321
 51
175.55526553
  0
LINE
  5
3A4
330
2
100
AcDbEntity
  8
YKK_A2
100
AcDbLine
 10
19392.19996858
 20
16500.87286068
 30
0.0
 11
19390.1999687
 21
16500.87286068
 31
0.0
  0
LINE
  5
3A5
330
2
100
AcDbEntity
  8
YKK_A2
100
AcDbLine
 10
19813.39994347
 20
16456.99987994
 30
0.0
 11
19813.39994347
 21
16536.99987518
 31
0.0
  0
LINE
  5
3A6
330
2
100
AcDbEntity
  8
YKK_A2
100
AcDbLine
 10
19802.39994413
 20
16536.99987518
 30
0.0
 11
19802.39994413
 21
16456.99987994
 31
0.0
  0
LINE
  5
3A7
330
2
100
AcDbEntity
  8
YKK_A2
100
AcDbLine
 10
19813.39994347
 20
16496.99987756
 30
0.0
 11
19802.39994413
 21
16496.99987756
 31
0.0
  0
LINE
  5
3A8
330
2
100
AcDbEntity
  8
YKK_A2
100
AcDbLine
 10
19802.39994413
 20
16456.99987994
 30
0.0
 11
19813.39994347
 21
16456.99987994
 31
0.0
  0
LINE
  5
3A9
330
2
100
AcDbEntity
  8
YKK_A2
100
AcDbLine
 10
19813.39994347
 20
16536.99987518
 30
0.0
 11
19802.39994413
 21
16536.99987518
 31
0.0
  0
LINE
  5
3AA
330
2
100
AcDbEntity
  8
YKK_A1
100
AcDbLine
 10
19834.99994218
 20
17480.99981891
 30
0.0
 11
18865.0
 21
17480.99981891
 31
0.0
  0
LINE
  5
3AB
330
2
100
AcDbEntity
  8
YKK_A1
100
AcDbLine
 10
18893.99999827
 20
17452.99982058
 30
0.0
 11
19805.99994391
 21
17452.99982058
 31
0.0
  0
LINE
  5
3AC
330
2
100
AcDbEntity
  8
YKK_A1
100
AcDbLine
 10
18889.99999851
 20
17455.9998204
 30
0.0
 11
19809.99994367
 21
17455.9998204
 31
0.0
  0
LINE
  5
3AD
330
2
100
AcDbEntity
  8
YKK_A1
100
AcDbLine
 10
18893.99999827
 20
17452.99982058
 30
0.0
 11
18893.99999827
 21
17354.99982642
 31
0.0
  0
LINE
  5
3AE
330
2
100
AcDbEntity
  8
YKK_A1
100
AcDbLine
 10
18889.99999851
 20
17480.99981891
 30
0.0
 11
18889.99999851
 21
17354.99982642
 31
0.0
  0
LINE
  5
3AF
330
2
100
AcDbEntity
  8
YKK_A2
100
AcDbLine
 10
18886.39999872
 20
17274.99983119
 30
0.0
 11
18886.39999872
 21
17354.99982642
 31
0.0
  0
LINE
  5
3B0
330
2
100
AcDbEntity
  8
YKK_A2
100
AcDbLine
 10
18897.39999807
 20
17354.99982642
 30
0.0
 11
18897.39999807
 21
17274.99983119
 31
0.0
  0
LINE
  5
3B1
330
2
100
AcDbEntity
  8
YKK_A2
100
AcDbLine
 10
18897.39999807
 20
17274.99983119
 30
0.0
 11
18886.39999872
 21
17274.99983119
 31
0.0
  0
LINE
  5
3B2
330
2
100
AcDbEntity
  8
YKK_A2
100
AcDbLine
 10
18886.39999872
 20
17314.9998288
 30
0.0
 11
18897.39999807
 21
17314.9998288
 31
0.0
  0
LINE
  5
3B3
330
2
100
AcDbEntity
  8
YKK_A2
100
AcDbLine
 10
18886.39999872
 20
17354.99982642
 30
0.0
 11
18897.39999807
 21
17354.99982642
 31
0.0
  0
LINE
  5
3B4
330
2
100
AcDbEntity
  8
YKK_A1
100
AcDbLine
 10
19805.99994391
 20
17452.99982058
 30
0.0
 11
19805.99994391
 21
17354.99982642
 31
0.0
  0
LINE
  5
3B5
330
2
100
AcDbEntity
  8
YKK_A1
100
AcDbLine
 10
19809.99994367
 20
17480.99981891
 30
0.0
 11
19809.99994367
 21
17354.99982642
 31
0.0
  0
LINE
  5
3B6
330
2
100
AcDbEntity
  8
YKK_A2
100
AcDbLine
 10
19813.39994347
 20
17274.99983119
 30
0.0
 11
19813.39994347
 21
17354.99982642
 31
0.0
  0
LINE
  5
3B7
330
2
100
AcDbEntity
  8
YKK_A2
100
AcDbLine
 10
19802.39994413
 20
17354.99982642
 30
0.0
 11
19802.39994413
 21
17274.99983119
 31
0.0
  0
LINE
  5
3B8
330
2
100
AcDbEntity
  8
YKK_A2
100
AcDbLine
 10
19802.39994413
 20
17274.99983119
 30
0.0
 11
19813.39994347
 21
17274.99983119
 31
0.0
  0
LINE
  5
3B9
330
2
100
AcDbEntity
  8
YKK_A2
100
AcDbLine
 10
19813.39994347
 20
17314.9998288
 30
0.0
 11
19802.39994413
 21
17314.9998288
 31
0.0
  0
LINE
  5
3BA
330
2
100
AcDbEntity
  8
YKK_A2
100
AcDbLine
 10
19813.39994347
 20
17354.99982642
 30
0.0
 11
19802.39994413
 21
17354.99982642
 31
0.0
  0
LINE
  5
3BB
330
2
100
AcDbEntity
  8
YKK_A1
100
AcDbLine
 10
19834.99994218
 20
17445.99982099
 30
0.0
 11
19821.01920104
 21
17445.99982099
 31
0.0
  0
TEXT
  5
3BC
330
2
100
AcDbEntity
  8
YKK_N1
  6
Continuous
100
AcDbText
 10
20023.00000978
 20
16345.99996607
 30
0.0
 40
60.0
  1
H=1900
 50
90.0000025
 72
     4
 11
19993.00000322
 21
16495.99996476
 31
0.0
100
AcDbText
  0
TEXT
  5
3BD
330
2
100
AcDbEntity
  8
YKK_N1
  6
Continuous
100
AcDbText
 10
21023.00000978
 20
16345.99996607
 30
0.0
 40
60.0
  1
H=1900
 50
90.0000025
 72
     4
 11
20993.00000322
 21
16495.99996476
 31
0.0
100
AcDbText
  0
LINE
  5
3BE
330
2
100
AcDbEntity
  8
YKK_N1
  6
Continuous
100
AcDbLine
 10
20085.00001203
 20
17359.39744096
 30
0.0
 11
20035.00000322
 21
17445.99999528
 31
0.0
  0
LINE
  5
3BF
330
2
100
AcDbEntity
  8
YKK_N1
  6
Continuous
100
AcDbLine
 10
20035.00000322
 20
17445.99999528
 30
0.0
 11
19985.00000322
 21
17359.39744096
 31
0.0
  0
LINE
  5
3C0
330
2
100
AcDbEntity
  8
YKK_N1
100
AcDbLine
 10
19985.00000322
 20
17359.39744096
 30
0.0
 11
20085.00001203
 21
17359.39744096
 31
0.0
  0
LINE
  5
3C1
330
2
100
AcDbEntity
  8
YKK_N1
  6
Continuous
100
AcDbLine
 10
21034.9999727
 20
17446.0000258
 30
0.0
 11
20984.9999727
 21
17359.39747148
 31
0.0
  0
LINE
  5
3C2
330
2
100
AcDbEntity
  8
YKK_N1
  6
Continuous
100
AcDbLine
 10
21034.9999727
 20
17456.0000258
 30
0.0
 11
21034.9999727
 21
17446.0000258
 31
0.0
  0
CIRCLE
  5
3C3
330
2
100
AcDbEntity
  8
YKK_N1
  6
Continuous
100
AcDbCircle
 10
21034.9999727
 20
17456.0000258
 30
0.0
 40
5.0
  0
LINE
  5
3C4
330
2
100
AcDbEntity
  8
YKK_C1
  6
Continuous
100
AcDbLine
 10
20801.9999727
 20
17481.0000258
 30
0.0
 11
20821.9999727
 21
17481.0000258
 31
0.0
  0
LINE
  5
3C5
330
2
100
AcDbEntity
  8
YKK_C1
  6
Continuous
100
AcDbLine
 10
20801.9999727
 20
17481.0000258
 30
0.0
 11
20801.9999727
 21
17456.0000258
 31
0.0
  0
LINE
  5
3C6
330
2
100
AcDbEntity
  8
YKK_C1
  6
Continuous
100
AcDbLine
 10
20801.9999727
 20
17456.0000258
 30
0.0
 11
20833.49999101
 21
17456.0000258
 31
0.0
  0
LINE
  5
3C7
330
2
100
AcDbEntity
  8
YKK_C1
  6
Continuous
100
AcDbLine
 10
20804.79999101
 20
17453.0000258
 30
0.0
 11
20829.79999101
 21
17453.0000258
 31
0.0
  0
LINE
  5
3C8
330
2
100
AcDbEntity
  8
YKK_N1
  6
Continuous
100
AcDbLine
 10
20909.9999727
 20
17446.0000258
 30
0.0
 11
21035.00000322
 21
17446.0000258
 31
0.0
  0
LINE
  5
3C9
330
2
100
AcDbEntity
  8
YKK_N1
  6
Continuous
100
AcDbLine
 10
20909.9999727
 20
17456.0000258
 30
0.0
 11
21034.9999727
 21
17456.0000258
 31
0.0
  0
TEXT
  5
3CA
330
2
100
AcDbEntity
  8
YKK_N1
  6
Continuous
100
AcDbText
 10
21022.99997423
 20
17483.33978435
 30
0.0
 40
60.0
  1
10
 50
90.0000025
 72
     4
 11
20992.9999727
 21
17518.33978304
 31
0.0
100
AcDbText
  0
LINE
  5
3CB
330
2
100
AcDbEntity
  8
YKK_N1
  6
Continuous
100
AcDbLine
 10
26835.00004795
 20
17445.99993424
 30
0.0
 11
26835.00004795
 21
15545.99993424
 31
0.0
  0
LINE
  5
3CC
330
2
100
AcDbEntity
  8
YKK_C1
  6
Continuous
100
AcDbLine
 10
26631.00003581
 20
17453.00005631
 30
0.0
 11
26631.00003581
 21
15540.99993424
 31
0.0
  0
LINE
  5
3CD
330
2
100
AcDbEntity
  8
YKK_C1
  6
Continuous
100
AcDbLine
 10
26602.0000175
 20
17481.00005631
 30
0.0
 11
26602.0000175
 21
15510.99993424
 31
0.0
  0
LINE
  5
3CE
330
2
100
AcDbEntity
  8
YKK_C1
  6
Continuous
100
AcDbLine
 10
26606.00003581
 20
17453.00005631
 30
0.0
 11
26606.00003581
 21
15540.99993424
 31
0.0
  0
LINE
  5
3CF
330
2
100
AcDbEntity
  8
YKK_C1
  6
Continuous
100
AcDbLine
 10
26635.00001743
 20
15535.99993456
 30
0.0
 11
26635.00001743
 21
17456.00005663
 31
0.0
  0
LINE
  5
3D0
330
2
100
AcDbEntity
  8
YKK_N1
  6
Continuous
100
AcDbLine
 10
25835.00004795
 20
17445.99993424
 30
0.0
 11
25835.00004795
 21
15545.99993424
 31
0.0
  0
LINE
  5
3D1
330
2
100
AcDbEntity
  8
YKK_A1
  6
YCENTER_1
 48
1.5
100
AcDbLine
 10
25033.50000847
 20
15541.00002741
 30
0.0
 11
24494.00000043
 21
16497.00004165
 31
0.0
  0
LINE
  5
3D2
330
2
100
AcDbEntity
  8
YKK_A1
  6
YCENTER_1
 48
1.5
100
AcDbLine
 10
25066.50000896
 20
15541.00002741
 30
0.0
 11
25606.000017
 21
16497.00004165
 31
0.0
  0
LINE
  5
3D3
330
2
100
AcDbEntity
  8
YKK_A1
  6
Continuous
 48
1.5
100
AcDbLine
 10
25037.50000853
 20
17456.00005594
 30
0.0
 11
25037.50000853
 21
15536.00002733
 31
0.0
  0
LINE
  5
3D4
330
2
100
AcDbEntity
  8
YKK_A1
  6
Continuous
 48
1.5
100
AcDbLine
 10
25033.50000847
 20
17453.0000559
 30
0.0
 11
25033.50000847
 21
15541.00002741
 31
0.0
  0
LINE
  5
3D5
330
2
100
AcDbEntity
  8
YKK_A1
  6
Continuous
 48
1.5
100
AcDbLine
 10
25062.5000089
 20
17456.00005594
 30
0.0
 11
25062.5000089
 21
15536.00002733
 31
0.0
  0
LINE
  5
3D6
330
2
100
AcDbEntity
  8
YKK_A1
  6
Continuous
 48
1.5
100
AcDbLine
 10
25066.50000896
 20
17453.0000559
 30
0.0
 11
25066.50000896
 21
15541.00002741
 31
0.0
  0
LINE
  5
3D7
330
2
100
AcDbEntity
  8
YKK_A1
  6
Continuous
 48
1.5
100
AcDbLine
 10
24465.0
 20
17481.00005631
 30
0.0
 11
24465.0
 21
15511.00002696
 31
0.0
  0
LINE
  5
3D8
330
2
100
AcDbEntity
  8
YKK_A1
  6
Continuous
 48
1.5
100
AcDbLine
 10
25635.00001743
 20
15511.00002696
 30
0.0
 11
25635.00001743
 21
17481.00005631
 31
0.0
  0
LINE
  5
3D9
330
2
100
AcDbEntity
  8
YKK_A1
  6
Continuous
 48
1.5
100
AcDbLine
 10
24494.00000043
 20
16459.00004109
 30
0.0
 11
24494.00000043
 21
15717.00003003
 31
0.0
  0
LINE
  5
3DA
330
2
100
AcDbEntity
  8
YKK_A1
  6
Continuous
 48
1.5
100
AcDbLine
 10
24490.00000037
 20
16459.00004109
 30
0.0
 11
24490.00000037
 21
15717.00003003
 31
0.0
  0
LINE
  5
3DB
330
2
100
AcDbEntity
  8
YKK_A1
  6
Continuous
 48
1.5
100
AcDbLine
 10
25610.00001706
 20
16459.00004109
 30
0.0
 11
25610.00001706
 21
15717.00003003
 31
0.0
  0
LINE
  5
3DC
330
2
100
AcDbEntity
  8
YKK_A1
  6
Continuous
 48
1.5
100
AcDbLine
 10
25606.000017
 20
16459.00004109
 30
0.0
 11
25606.000017
 21
15717.00003003
 31
0.0
  0
LINE
  5
3DD
330
2
100
AcDbEntity
  8
YKK_N1
  6
Continuous
100
AcDbLine
 10
25599.99995846
 20
15311.00005748
 30
0.0
 11
25513.39740414
 21
15361.00005748
 31
0.0
  0
LINE
  5
3DE
330
2
100
AcDbEntity
  8
YKK_N1
  6
Continuous
100
AcDbLine
 10
25513.39740414
 20
15261.00004867
 30
0.0
 11
25599.99995846
 21
15311.00005748
 31
0.0
  0
LINE
  5
3DF
330
2
100
AcDbEntity
  8
YKK_N1
  6
Continuous
100
AcDbLine
 10
24500.00000423
 20
15311.00005748
 30
0.0
 11
25600.00000424
 21
15311.00005748
 31
0.0
  0
LINE
  5
3E0
330
2
100
AcDbEntity
  8
YKK_A1
  6
Continuous
 48
1.5
100
AcDbLine
 10
25066.50000896
 20
15541.00002741
 30
0.0
 11
25606.000017
 21
15541.00002741
 31
0.0
  0
LINE
  5
3E1
330
2
100
AcDbEntity
  8
YKK_A1
  6
Continuous
 48
1.5
100
AcDbLine
 10
24490.00000037
 20
15536.00002733
 30
0.0
 11
25610.00001706
 21
15536.00002733
 31
0.0
  0
LINE
  5
3E2
330
2
100
AcDbEntity
  8
YKK_A1
  6
Continuous
 48
1.5
100
AcDbLine
 10
24465.0
 20
15511.00002696
 30
0.0
 11
25635.00001743
 21
15511.00002696
 31
0.0
  0
LINE
  5
3E3
330
2
100
AcDbEntity
  8
YKK_N1
  6
Continuous
100
AcDbLine
 10
25513.39740414
 20
13797.19993764
 30
0.0
 11
25599.99995846
 21
13847.19994645
 31
0.0
  0
LINE
  5
3E4
330
2
100
AcDbEntity
  8
YKK_N1
  6
Continuous
100
AcDbLine
 10
25599.99995846
 20
13847.19994645
 30
0.0
 11
25513.39740414
 21
13897.19994645
 31
0.0
  0
LINE
  5
3E5
330
2
100
AcDbEntity
  8
YKK_N1
  6
Continuous
100
AcDbLine
 10
24500.00000423
 20
13847.19994645
 30
0.0
 11
25600.00000424
 21
13847.19994645
 31
0.0
  0
LINE
  5
3E6
330
2
100
AcDbEntity
  8
YKK_B1
  6
Continuous
100
AcDbLine
 10
24489.99999686
 20
14047.19991597
 30
0.0
 11
25610.00007316
 21
14047.19991597
 31
0.0
  0
LINE
  5
3E7
330
2
100
AcDbEntity
  8
YKK_B1
  6
Continuous
100
AcDbLine
 10
25606.00007307
 20
14076.19991593
 30
0.0
 11
25066.50001204
 21
14076.19991593
 31
0.0
  0
LINE
  5
3E8
330
2
100
AcDbEntity
  8
YKK_B1
  6
Continuous
100
AcDbLine
 10
25606.00007307
 20
14051.19991593
 30
0.0
 11
25066.50001204
 21
14051.19991593
 31
0.0
  0
LINE
  5
3E9
330
2
100
AcDbEntity
  8
YKK_B1
  6
Continuous
100
AcDbLine
 10
24494.04012916
 20
14078.99991597
 30
0.0
 11
25606.04020545
 21
14078.99991597
 31
0.0
  0
ARC
  5
3EA
330
2
100
AcDbEntity
  8
YKK_B1
  6
PHANTOM
100
AcDbCircle
 10
25622.15218303
 20
14075.21064515
 30
0.0
 40
555.6530672308158
100
AcDbArc
 50
92.80089268
 51
179.89799198
  0
ARC
  5
3EB
330
2
100
AcDbEntity
  8
YKK_B1
  6
PHANTOM
100
AcDbCircle
 10
24477.84782544
 20
14075.21064515
 30
0.0
 40
555.6530672308158
100
AcDbArc
 50
0.10200802
 51
87.19910732
  0
TEXT
  5
3EC
330
2
100
AcDbEntity
  8
YKK_N1
  6
Continuous
100
AcDbText
 10
24391.11922766
 20
13859.19994645
 30
0.0
 40
60.0
  1
10
 72
     4
 11
24426.11922766
 21
13889.19994645
 31
0.0
100
AcDbText
  0
LINE
  5
3ED
330
2
100
AcDbEntity
  8
YKK_N1
  6
Continuous
100
AcDbLine
 10
24500.00000423
 20
13972.19991593
 30
0.0
 11
24500.00000423
 21
13847.19994645
 31
0.0
  0
LINE
  5
3EE
330
2
100
AcDbEntity
  8
YKK_N1
  6
Continuous
100
AcDbLine
 10
24490.00000423
 20
13972.19991593
 30
0.0
 11
24490.00000423
 21
13847.19994645
 31
0.0
  0
TEXT
  5
3EF
330
2
100
AcDbEntity
  8
YKK_N1
  6
Continuous
100
AcDbText
 10
24900.00004238
 20
13859.19994645
 30
0.0
 40
60.0
  1
W=1100
 72
     4
 11
25050.00004238
 21
13889.19994645
 31
0.0
100
AcDbText
  0
LINE
  5
3F0
330
2
100
AcDbEntity
  8
YKK_N1
  6
Continuous
100
AcDbLine
 10
24586.60255855
 20
13797.19993764
 30
0.0
 11
24500.00000423
 21
13847.19994645
 31
0.0
  0
CIRCLE
  5
3F1
330
2
100
AcDbEntity
  8
YKK_N1
  6
Continuous
100
AcDbCircle
 10
24490.00000423
 20
13847.19994645
 30
0.0
 40
5.0
  0
LINE
  5
3F2
330
2
100
AcDbEntity
  8
YKK_N1
  6
Continuous
100
AcDbLine
 10
24490.00000423
 20
13847.19994645
 30
0.0
 11
24500.00000423
 21
13847.19994645
 31
0.0
  0
LINE
  5
3F3
330
2
100
AcDbEntity
  8
YKK_N1
  6
Continuous
100
AcDbLine
 10
24500.00000423
 20
13847.19994645
 30
0.0
 11
24586.60255855
 21
13897.19994645
 31
0.0
  0
LINE
  5
3F4
330
2
100
AcDbEntity
  8
YKK_N1
100
AcDbLine
 10
24586.60255855
 20
13897.19994645
 30
0.0
 11
24586.60255855
 21
13797.19993764
 31
0.0
  0
LINE
  5
3F5
330
2
100
AcDbEntity
  8
YKK_N1
100
AcDbLine
 10
25513.39740414
 20
13897.19994645
 30
0.0
 11
25513.39740414
 21
13797.19993764
 31
0.0
  0
LINE
  5
3F6
330
2
100
AcDbEntity
  8
YKK_B1
  6
Continuous
100
AcDbLine
 10
25033.50001204
 20
14076.19991593
 30
0.0
 11
24493.99999678
 21
14076.19991593
 31
0.0
  0
LINE
  5
3F7
330
2
100
AcDbEntity
  8
YKK_B1
  6
Continuous
100
AcDbLine
 10
25033.50001204
 20
14051.19991593
 30
0.0
 11
24493.99999678
 21
14051.19991593
 31
0.0
  0
LINE
  5
3F8
330
2
100
AcDbEntity
  8
YKK_B1
  6
PHANTOM
100
AcDbLine
 10
24504.9999967
 20
14630.19991596
 30
0.0
 11
24504.9999967
 21
14090.69991596
 31
0.0
  0
TEXT
  5
3F9
330
2
100
AcDbEntity
  8
YKK_N1
  6
Continuous
100
AcDbText
 10
24712.97554715
 20
14102.74019734
 30
0.0
 40
60.0
  1
33
 50
90.0000025
 72
     4
 11
24682.97554497
 21
14152.74019603
 31
0.0
100
AcDbText
  0
LINE
  5
3FA
330
2
100
AcDbEntity
  8
YKK_N1
100
AcDbLine
 10
24724.97554497
 20
14080.19991597
 30
0.0
 11
24599.97554497
 21
14080.19991597
 31
0.0
  0
CIRCLE
  5
3FB
330
2
100
AcDbEntity
  8
YKK_B1
  6
Continuous
 48
1.5
100
AcDbCircle
 10
24491.99999686
 20
14088.69991597
 30
0.0
 40
5.0
  0
ARC
  5
3FC
330
2
100
AcDbEntity
  8
YKK_B1
  6
Continuous
 48
1.5
100
AcDbCircle
 10
24488.99999686
 20
14083.50376355
 30
0.0
 40
1.0
100
AcDbArc
 50
0.0
 51
60.0
  0
ARC
  5
3FD
330
2
100
AcDbEntity
  8
YKK_B1
  6
Continuous
 48
1.5
100
AcDbCircle
 10
24494.99999686
 20
14083.50376355
 30
0.0
 40
1.0
100
AcDbArc
 50
120.0
 51
180.0
  0
LINE
  5
3FE
330
2
100
AcDbEntity
  8
YKK_B1
  6
Continuous
100
AcDbLine
 10
24464.99999678
 20
14080.19991593
 30
0.0
 11
24489.99999678
 21
14080.19991593
 31
0.0
  0
LINE
  5
3FF
330
2
100
AcDbEntity
  8
YKK_B1
  6
CENTER
100
AcDbLine
 10
24476.99999669
 20
14088.69991597
 30
0.0
 11
24506.99999669
 21
14088.69991597
 31
0.0
  0
LINE
  5
400
330
2
100
AcDbEntity
  8
YKK_B1
  6
CENTER
100
AcDbLine
 10
24491.99999678
 20
14102.99996476
 30
0.0
 11
24491.99999678
 21
14072.99996476
 31
0.0
  0
LINE
  5
401
330
2
100
AcDbEntity
  8
YKK_B1
  6
Continuous
100
AcDbLine
 10
24489.99999678
 20
14083.50376355
 30
0.0
 11
24489.99999678
 21
14047.19991593
 31
0.0
  0
LINE
  5
402
330
2
100
AcDbEntity
  8
YKK_B1
  6
Continuous
100
AcDbLine
 10
24493.99999678
 20
14083.50376355
 30
0.0
 11
24493.99999678
 21
14051.19991593
 31
0.0
  0
LINE
  5
403
330
2
100
AcDbEntity
  8
YKK_B1
  6
Continuous
100
AcDbLine
 10
24464.99999678
 20
14080.19991593
 30
0.0
 11
24464.99999678
 21
14058.99991593
 31
0.0
  0
CIRCLE
  5
404
330
2
100
AcDbEntity
  8
YKK_N1
  6
Continuous
100
AcDbCircle
 10
24724.97554497
 20
14047.19991597
 30
0.0
 40
5.0
  0
CIRCLE
  5
405
330
2
100
AcDbEntity
  8
YKK_N1
  6
Continuous
100
AcDbCircle
 10
24724.97554497
 20
14080.19991597
 30
0.0
 40
5.0
  0
LINE
  5
406
330
2
100
AcDbEntity
  8
YKK_N1
  6
Continuous
100
AcDbLine
 10
24724.97554497
 20
14080.19991597
 30
0.0
 11
24724.97554497
 21
14047.19991597
 31
0.0
  0
LINE
  5
407
330
2
100
AcDbEntity
  8
YKK_B1
  6
Continuous
100
AcDbLine
 10
25033.50001204
 20
14076.19991593
 30
0.0
 11
25033.50001204
 21
14051.19991593
 31
0.0
  0
LINE
  5
408
330
2
100
AcDbEntity
  8
YKK_B1
  6
Continuous
100
AcDbLine
 10
25066.50001204
 20
14076.19991593
 30
0.0
 11
25066.50001204
 21
14051.19991593
 31
0.0
  0
LINE
  5
409
330
2
100
AcDbEntity
  8
YKK_B1
100
AcDbLine
 10
25027.49999667
 20
14048.39991621
 30
0.0
 11
25037.49999667
 21
14048.39991621
 31
0.0
  0
LINE
  5
40A
330
2
100
AcDbEntity
  8
YKK_B1
100
AcDbLine
 10
25037.49999667
 20
14048.39991621
 30
0.0
 11
25037.49999667
 21
14077.79991621
 31
0.0
  0
LINE
  5
40B
330
2
100
AcDbEntity
  8
YKK_B1
100
AcDbLine
 10
25037.49999667
 20
14077.79991621
 30
0.0
 11
25062.49999667
 21
14077.79991621
 31
0.0
  0
LINE
  5
40C
330
2
100
AcDbEntity
  8
YKK_B1
100
AcDbLine
 10
25062.49999667
 20
14077.79991621
 30
0.0
 11
25062.49999667
 21
14048.39991621
 31
0.0
  0
LINE
  5
40D
330
2
100
AcDbEntity
  8
YKK_B1
100
AcDbLine
 10
25062.49999667
 20
14048.39991621
 30
0.0
 11
25072.49999667
 21
14048.39991621
 31
0.0
  0
TEXT
  5
40E
330
2
100
AcDbEntity
  8
YKK_N1
  6
Continuous
100
AcDbText
 10
24900.00004238
 20
15323.00005748
 30
0.0
 40
60.0
  1
W=1100
 72
     4
 11
25050.00004238
 21
15353.00005748
 31
0.0
100
AcDbText
  0
LINE
  5
40F
330
2
100
AcDbEntity
  8
YKK_N1
100
AcDbLine
 10
24586.60255855
 20
15361.00005748
 30
0.0
 11
24586.60255855
 21
15261.00004867
 31
0.0
  0
LINE
  5
410
330
2
100
AcDbEntity
  8
YKK_N1
  6
Continuous
100
AcDbLine
 10
24500.00000423
 20
15436.00002696
 30
0.0
 11
24500.00000423
 21
15311.00005748
 31
0.0
  0
LINE
  5
411
330
2
100
AcDbEntity
  8
YKK_N1
  6
Continuous
100
AcDbLine
 10
24500.00000423
 20
15311.00005748
 30
0.0
 11
24586.60255855
 21
15361.00005748
 31
0.0
  0
LINE
  5
412
330
2
100
AcDbEntity
  8
YKK_N1
  6
Continuous
100
AcDbLine
 10
24586.60255855
 20
15261.00004867
 30
0.0
 11
24500.00000423
 21
15311.00005748
 31
0.0
  0
LINE
  5
413
330
2
100
AcDbEntity
  8
YKK_N1
100
AcDbLine
 10
25513.39740414
 20
15361.00005748
 30
0.0
 11
25513.39740414
 21
15261.00004867
 31
0.0
  0
LINE
  5
414
330
2
100
AcDbEntity
  8
YKK_A1
  6
Continuous
 48
1.5
100
AcDbLine
 10
25033.50000847
 20
15541.00002741
 30
0.0
 11
24494.00000043
 21
15541.00002741
 31
0.0
  0
LINE
  5
415
330
2
100
AcDbEntity
  8
YKK_A1
  6
Continuous
 48
1.5
100
AcDbLine
 10
24494.00000043
 20
15541.00002741
 30
0.0
 11
24494.00000043
 21
15641.0000289
 31
0.0
  0
LINE
  5
416
330
2
100
AcDbEntity
  8
YKK_A1
  6
Continuous
 48
1.5
100
AcDbLine
 10
24490.00000037
 20
15641.0000289
 30
0.0
 11
24490.00000037
 21
15511.00002696
 31
0.0
  0
LINE
  5
417
330
2
100
AcDbEntity
  8
YKK_A2
  6
Continuous
 48
1.5
100
AcDbLine
 10
24497.00000048
 20
15641.0000289
 30
0.0
 11
24487.00000033
 21
15641.0000289
 31
0.0
  0
LINE
  5
418
330
2
100
AcDbEntity
  8
YKK_A2
  6
Continuous
 48
1.5
100
AcDbLine
 10
24497.00000048
 20
15717.00003003
 30
0.0
 11
24497.00000048
 21
15641.0000289
 31
0.0
  0
LINE
  5
419
330
2
100
AcDbEntity
  8
YKK_A2
  6
Continuous
 48
1.5
100
AcDbLine
 10
24487.00000033
 20
15717.00003003
 30
0.0
 11
24497.00000048
 21
15717.00003003
 31
0.0
  0
LINE
  5
41A
330
2
100
AcDbEntity
  8
YKK_A2
  6
Continuous
 48
1.5
100
AcDbLine
 10
24487.00000033
 20
15641.0000289
 30
0.0
 11
24487.00000033
 21
15717.00003003
 31
0.0
  0
LINE
  5
41B
330
2
100
AcDbEntity
  8
YKK_A2
  6
Continuous
 48
1.5
100
AcDbLine
 10
24497.00000048
 20
15679.00002946
 30
0.0
 11
24487.00000033
 21
15679.00002946
 31
0.0
  0
LINE
  5
41C
330
2
100
AcDbEntity
  8
YKK_N1
  6
Continuous
100
AcDbLine
 10
25610.00000424
 20
13972.19991593
 30
0.0
 11
25610.00000424
 21
13847.19994645
 31
0.0
  0
LINE
  5
41D
330
2
100
AcDbEntity
  8
YKK_N1
  6
Continuous
100
AcDbLine
 10
25600.00000424
 20
13972.19991593
 30
0.0
 11
25600.00000424
 21
13847.19994645
 31
0.0
  0
TEXT
  5
41E
330
2
100
AcDbEntity
  8
YKK_N1
  6
Continuous
100
AcDbText
 10
25634.52527007
 20
13859.19994645
 30
0.0
 40
60.0
  1
10
 72
     4
 11
25669.52527007
 21
13889.19994645
 31
0.0
100
AcDbText
  0
CIRCLE
  5
41F
330
2
100
AcDbEntity
  8
YKK_N1
  6
Continuous
100
AcDbCircle
 10
25610.00000424
 20
13847.19994645
 30
0.0
 40
5.0
  0
LINE
  5
420
330
2
100
AcDbEntity
  8
YKK_N1
  6
Continuous
100
AcDbLine
 10
25600.00000424
 20
13847.19994645
 30
0.0
 11
25610.00000424
 21
13847.19994645
 31
0.0
  0
LINE
  5
421
330
2
100
AcDbEntity
  8
YKK_B1
  6
PHANTOM
100
AcDbLine
 10
25595.00001158
 20
14630.19991596
 30
0.0
 11
25595.00001158
 21
14090.69991596
 31
0.0
  0
LINE
  5
422
330
2
100
AcDbEntity
  8
YKK_B1
  6
YCENTER_1
 48
1.5
100
AcDbLine
 10
25614.99999686
 20
14088.69991597
 30
0.0
 11
25600.99999686
 21
14088.69991597
 31
0.0
  0
CIRCLE
  5
423
330
2
100
AcDbEntity
  8
YKK_B1
  6
Continuous
 48
1.5
100
AcDbCircle
 10
25607.99999686
 20
14088.69991597
 30
0.0
 40
5.0
  0
ARC
  5
424
330
2
100
AcDbEntity
  8
YKK_B1
  6
Continuous
 48
1.5
100
AcDbCircle
 10
25610.99999686
 20
14083.50376355
 30
0.0
 40
1.0
100
AcDbArc
 50
120.0
 51
180.0
  0
ARC
  5
425
330
2
100
AcDbEntity
  8
YKK_B1
  6
Continuous
 48
1.5
100
AcDbCircle
 10
25604.99999686
 20
14083.50376355
 30
0.0
 40
1.0
100
AcDbArc
 50
0.0
 51
60.0
  0
LINE
  5
426
330
2
100
AcDbEntity
  8
YKK_B1
  6
CENTER
100
AcDbLine
 10
25608.00007307
 20
14102.99996476
 30
0.0
 11
25608.00007307
 21
14072.99996476
 31
0.0
  0
LINE
  5
427
330
2
100
AcDbEntity
  8
YKK_B1
  6
Continuous
100
AcDbLine
 10
25635.00007307
 20
14080.19991593
 30
0.0
 11
25610.00007307
 21
14080.19991593
 31
0.0
  0
LINE
  5
428
330
2
100
AcDbEntity
  8
YKK_B1
  6
Continuous
100
AcDbLine
 10
25610.00007307
 20
14083.50376355
 30
0.0
 11
25610.00007307
 21
14047.19991624
 31
0.0
  0
LINE
  5
429
330
2
100
AcDbEntity
  8
YKK_B1
  6
Continuous
100
AcDbLine
 10
25606.00007307
 20
14083.50376355
 30
0.0
 11
25606.00007307
 21
14051.19991593
 31
0.0
  0
LINE
  5
42A
330
2
100
AcDbEntity
  8
YKK_B1
  6
Continuous
100
AcDbLine
 10
25635.00007307
 20
14080.19991593
 30
0.0
 11
25635.00007307
 21
14058.99991624
 31
0.0
  0
LINE
  5
42B
330
2
100
AcDbEntity
  8
YKK_N1
  6
Continuous
100
AcDbLine
 10
25600.00000424
 20
15436.00002696
 30
0.0
 11
25600.00000424
 21
15311.00005748
 31
0.0
  0
LINE
  5
42C
330
2
100
AcDbEntity
  8
YKK_N1
  6
Continuous
100
AcDbLine
 10
25835.00001743
 20
15545.99993424
 30
0.0
 11
25785.00001743
 21
15632.60248857
 31
0.0
  0
LINE
  5
42D
330
2
100
AcDbEntity
  8
YKK_N1
  6
Continuous
100
AcDbLine
 10
25710.00001743
 20
15545.99993424
 30
0.0
 11
25835.00004795
 21
15545.99993424
 31
0.0
  0
LINE
  5
42E
330
2
100
AcDbEntity
  8
YKK_N1
100
AcDbLine
 10
25785.00001743
 20
15632.60248857
 30
0.0
 11
25885.00002624
 21
15632.60248857
 31
0.0
  0
LINE
  5
42F
330
2
100
AcDbEntity
  8
YKK_A1
  6
Continuous
 48
1.5
100
AcDbLine
 10
25606.000017
 20
15541.00002741
 30
0.0
 11
25606.000017
 21
15641.0000289
 31
0.0
  0
LINE
  5
430
330
2
100
AcDbEntity
  8
YKK_A1
  6
Continuous
 48
1.5
100
AcDbLine
 10
25610.00001706
 20
15511.00002696
 30
0.0
 11
25610.00001706
 21
15641.0000289
 31
0.0
  0
LINE
  5
431
330
2
100
AcDbEntity
  8
YKK_A2
  6
Continuous
 48
1.5
100
AcDbLine
 10
25603.00001696
 20
15641.0000289
 30
0.0
 11
25613.00001711
 21
15641.0000289
 31
0.0
  0
LINE
  5
432
330
2
100
AcDbEntity
  8
YKK_A2
  6
Continuous
 48
1.5
100
AcDbLine
 10
25603.00001696
 20
15717.00003003
 30
0.0
 11
25603.00001696
 21
15641.0000289
 31
0.0
  0
LINE
  5
433
330
2
100
AcDbEntity
  8
YKK_A2
  6
Continuous
 48
1.5
100
AcDbLine
 10
25613.00001711
 20
15717.00003003
 30
0.0
 11
25603.00001696
 21
15717.00003003
 31
0.0
  0
LINE
  5
434
330
2
100
AcDbEntity
  8
YKK_A2
  6
Continuous
 48
1.5
100
AcDbLine
 10
25613.00001711
 20
15641.0000289
 30
0.0
 11
25613.00001711
 21
15717.00003003
 31
0.0
  0
LINE
  5
435
330
2
100
AcDbEntity
  8
YKK_A2
  6
Continuous
 48
1.5
100
AcDbLine
 10
25603.00001696
 20
15679.00002946
 30
0.0
 11
25613.00001711
 21
15679.00002946
 31
0.0
  0
LINE
  5
436
330
2
100
AcDbEntity
  8
YKK_N1
  6
Continuous
100
AcDbLine
 10
25885.00002624
 20
15632.60248857
 30
0.0
 11
25835.00001743
 21
15545.99993424
 31
0.0
  0
LINE
  5
437
330
2
100
AcDbEntity
  8
YKK_C1
  6
Continuous
100
AcDbLine
 10
26606.00003581
 20
15540.99993424
 30
0.0
 11
26631.00003581
 21
15540.99993424
 31
0.0
  0
LINE
  5
438
330
2
100
AcDbEntity
  8
YKK_C1
  6
Continuous
100
AcDbLine
 10
26636.2000175
 20
15535.99993424
 30
0.0
 11
26636.2000175
 21
15545.99993424
 31
0.0
  0
LINE
  5
439
330
2
100
AcDbEntity
  8
YKK_C1
  6
Continuous
100
AcDbLine
 10
26603.2000175
 20
15535.99993424
 30
0.0
 11
26636.2000175
 21
15535.99993424
 31
0.0
  0
LINE
  5
43A
330
2
100
AcDbEntity
  8
YKK_C1
  6
Continuous
100
AcDbLine
 10
26603.2000175
 20
15510.99993424
 30
0.0
 11
26603.2000175
 21
15535.99993424
 31
0.0
  0
LINE
  5
43B
330
2
100
AcDbEntity
  8
YKK_C1
  6
Continuous
100
AcDbLine
 10
26603.2000175
 20
15510.99993424
 30
0.0
 11
26623.2000175
 21
15510.99993424
 31
0.0
  0
CIRCLE
  5
43C
330
2
100
AcDbEntity
  8
YKK_N1
  6
Continuous
100
AcDbCircle
 10
26635.0000175
 20
16104.91200991
 30
0.0
 40
5.0
  0
CIRCLE
  5
43D
330
2
100
AcDbEntity
  8
YKK_N1
  6
Continuous
100
AcDbCircle
 10
26602.0000175
 20
16104.91200991
 30
0.0
 40
5.0
  0
LINE
  5
43E
330
2
100
AcDbEntity
  8
YKK_N1
  6
Continuous
100
AcDbLine
 10
26602.0000175
 20
16104.91200991
 30
0.0
 11
26635.0000175
 21
16104.91200991
 31
0.0
  0
TEXT
  5
43F
330
2
100
AcDbEntity
  8
YKK_N1
  6
Continuous
100
AcDbText
 10
26471.06941866
 20
16116.91200991
 30
0.0
 40
60.0
  1
33
 72
     4
 11
26521.06941866
 21
16146.91200991
 31
0.0
100
AcDbText
  0
TEXT
  5
440
330
2
100
AcDbEntity
  8
YKK_N1
  6
Continuous
100
AcDbText
 10
26823.00001896
 20
15435.29046357
 30
0.0
 40
60.0
  1
10
 50
90.0000025
 72
     4
 11
26793.00001743
 21
15470.29046226
 31
0.0
100
AcDbText
  0
LINE
  5
441
330
2
100
AcDbEntity
  8
YKK_N1
  6
Continuous
100
AcDbLine
 10
26835.00001743
 20
15545.99993424
 30
0.0
 11
26785.00001743
 21
15632.60248857
 31
0.0
  0
LINE
  5
442
330
2
100
AcDbEntity
  8
YKK_N1
  6
Continuous
100
AcDbLine
 10
26885.00002624
 20
15632.60248857
 30
0.0
 11
26835.00001743
 21
15545.99993424
 31
0.0
  0
CIRCLE
  5
443
330
2
100
AcDbEntity
  8
YKK_N1
  6
Continuous
100
AcDbCircle
 10
26835.00001743
 20
15535.99993424
 30
0.0
 40
5.0
  0
LINE
  5
444
330
2
100
AcDbEntity
  8
YKK_N1
  6
Continuous
100
AcDbLine
 10
26835.00001743
 20
15545.99993424
 30
0.0
 11
26835.00001743
 21
15535.99993424
 31
0.0
  0
LINE
  5
445
330
2
100
AcDbEntity
  8
YKK_N1
  6
Continuous
100
AcDbLine
 10
26710.00001743
 20
15545.99993424
 30
0.0
 11
26835.00004795
 21
15545.99993424
 31
0.0
  0
LINE
  5
446
330
2
100
AcDbEntity
  8
YKK_N1
  6
Continuous
100
AcDbLine
 10
26710.00001743
 20
15535.99993424
 30
0.0
 11
26835.00001743
 21
15535.99993424
 31
0.0
  0
LINE
  5
447
330
2
100
AcDbEntity
  8
YKK_N1
100
AcDbLine
 10
26785.00001743
 20
15632.60248857
 30
0.0
 11
26885.00002624
 21
15632.60248857
 31
0.0
  0
LINE
  5
448
330
2
100
AcDbEntity
  8
YKK_A1
  6
YCENTER_1
 48
1.5
100
AcDbLine
 10
25066.50000896
 20
17453.0000559
 30
0.0
 11
25606.000017
 21
16497.00004165
 31
0.0
  0
LINE
  5
449
330
2
100
AcDbEntity
  8
YKK_A1
  6
Continuous
 48
1.5
100
AcDbLine
 10
25066.50000896
 20
17453.0000559
 30
0.0
 11
25606.000017
 21
17453.0000559
 31
0.0
  0
LINE
  5
44A
330
2
100
AcDbEntity
  8
YKK_A1
  6
Continuous
 48
1.5
100
AcDbLine
 10
25610.00001706
 20
17456.00005594
 30
0.0
 11
24490.00000037
 21
17456.00005594
 31
0.0
  0
LINE
  5
44B
330
2
100
AcDbEntity
  8
YKK_A1
  6
Continuous
 48
1.5
100
AcDbLine
 10
25635.00001743
 20
17481.00005631
 30
0.0
 11
24465.0
 21
17481.00005631
 31
0.0
  0
LINE
  5
44C
330
2
100
AcDbEntity
  8
YKK_A1
  6
YCENTER_1
 48
1.5
100
AcDbLine
 10
25033.50000847
 20
17453.0000559
 30
0.0
 11
24494.00000043
 21
16497.00004165
 31
0.0
  0
LINE
  5
44D
330
2
100
AcDbEntity
  8
YKK_A1
  6
Continuous
 48
1.5
100
AcDbLine
 10
24490.00000037
 20
16535.00004222
 30
0.0
 11
24490.00000037
 21
17277.00005327
 31
0.0
  0
LINE
  5
44E
330
2
100
AcDbEntity
  8
YKK_A1
  6
Continuous
 48
1.5
100
AcDbLine
 10
24494.00000043
 20
16535.00004222
 30
0.0
 11
24494.00000043
 21
17277.00005327
 31
0.0
  0
ARC
  5
44F
330
2
100
AcDbEntity
  8
YKK_A2
  6
Continuous
 48
1.5
100
AcDbCircle
 10
24978.50000765
 20
16474.00004131
 30
0.0
 40
8.000000119209289
100
AcDbArc
 50
180.0
 51
0.0
  0
ARC
  5
450
330
2
100
AcDbEntity
  8
YKK_A2
  6
Continuous
 48
1.5
100
AcDbCircle
 10
24982.0000077
 20
16457.50004106
 30
0.0
 40
5.500000081956385
100
AcDbArc
 50
270.0
 51
90.0
  0
ARC
  5
451
330
2
100
AcDbEntity
  8
YKK_A2
  6
Continuous
 48
1.5
100
AcDbCircle
 10
24982.0000077
 20
16457.50004106
 30
0.0
 40
4.500000067055224
100
AcDbArc
 50
270.0
 51
90.0
  0
LINE
  5
452
330
2
100
AcDbEntity
  8
YKK_A2
  6
Continuous
 48
1.5
100
AcDbLine
 10
24967.00000748
 20
16433.50004071
 30
0.0
 11
24990.00000782
 21
16433.50004071
 31
0.0
  0
LINE
  5
453
330
2
100
AcDbEntity
  8
YKK_A2
  6
Continuous
 48
1.5
100
AcDbLine
 10
24990.00000782
 20
16548.50004242
 30
0.0
 11
24967.00000748
 21
16548.50004242
 31
0.0
  0
LINE
  5
454
330
2
100
AcDbEntity
  8
YKK_A2
  6
Continuous
 48
1.5
100
AcDbLine
 10
24970.50000753
 20
16534.0000422
 30
0.0
 11
24986.50000777
 21
16534.0000422
 31
0.0
  0
LINE
  5
455
330
2
100
AcDbEntity
  8
YKK_A2
  6
Continuous
 48
1.5
100
AcDbLine
 10
24967.50000749
 20
16547.0000424
 30
0.0
 11
24989.50000782
 21
16547.0000424
 31
0.0
  0
LINE
  5
456
330
2
100
AcDbEntity
  8
YKK_A2
  6
Continuous
 48
1.5
100
AcDbLine
 10
24967.50000749
 20
16435.00004073
 30
0.0
 11
24989.50000782
 21
16435.00004073
 31
0.0
  0
LINE
  5
457
330
2
100
AcDbEntity
  8
YKK_A2
  6
YCENTER_1
 48
1.5
100
AcDbLine
 10
25031.50000785
 20
16491.00004156
 30
0.0
 11
24925.50000746
 21
16491.00004156
 31
0.0
  0
LINE
  5
458
330
2
100
AcDbEntity
  8
YKK_A2
  6
Continuous
 48
1.5
100
AcDbLine
 10
24497.00000048
 20
16459.00004109
 30
0.0
 11
24487.00000033
 21
16459.00004109
 31
0.0
  0
LINE
  5
459
330
2
100
AcDbEntity
  8
YKK_A2
  6
Continuous
 48
1.5
100
AcDbLine
 10
24497.00000048
 20
16535.00004222
 30
0.0
 11
24497.00000048
 21
16459.00004109
 31
0.0
  0
LINE
  5
45A
330
2
100
AcDbEntity
  8
YKK_A2
  6
Continuous
 48
1.5
100
AcDbLine
 10
24487.00000033
 20
16535.00004222
 30
0.0
 11
24497.00000048
 21
16535.00004222
 31
0.0
  0
LINE
  5
45B
330
2
100
AcDbEntity
  8
YKK_A2
  6
Continuous
 48
1.5
100
AcDbLine
 10
24487.00000033
 20
16459.00004109
 30
0.0
 11
24487.00000033
 21
16535.00004222
 31
0.0
  0
LINE
  5
45C
330
2
100
AcDbEntity
  8
YKK_A2
  6
Continuous
 48
1.5
100
AcDbLine
 10
24497.00000048
 20
16497.00004165
 30
0.0
 11
24487.00000033
 21
16497.00004165
 31
0.0
  0
ARC
  5
45D
330
2
100
AcDbEntity
  8
YKK_A2
  6
Continuous
 48
1.5
100
AcDbCircle
 10
24975.0000076
 20
16457.50004106
 30
0.0
 40
5.500000081956385
100
AcDbArc
 50
90.0
 51
270.0
  0
ARC
  5
45E
330
2
100
AcDbEntity
  8
YKK_A2
  6
Continuous
 48
1.5
100
AcDbCircle
 10
24975.0000076
 20
16457.50004106
 30
0.0
 40
4.500000067055224
100
AcDbArc
 50
90.0
 51
270.0
  0
ARC
  5
45F
330
2
100
AcDbEntity
  8
YKK_A2
  6
Continuous
 48
1.5
100
AcDbCircle
 10
24967.00000748
 20
16435.50004073
 30
0.0
 40
2.000000029802321
100
AcDbArc
 50
180.0
 51
270.0
  0
ARC
  5
460
330
2
100
AcDbEntity
  8
YKK_A2
  6
Continuous
 48
1.5
100
AcDbCircle
 10
24967.00000748
 20
16546.50004239
 30
0.0
 40
2.000000029802321
100
AcDbArc
 50
90.0
 51
180.0
  0
ARC
  5
461
330
2
100
AcDbEntity
  8
YKK_A2
  6
Continuous
 48
1.5
100
AcDbCircle
 10
24967.50000749
 20
16436.00004074
 30
0.0
 40
1.000000014901162
100
AcDbArc
 50
180.0
 51
270.0
  0
ARC
  5
462
330
2
100
AcDbEntity
  8
YKK_A2
  6
Continuous
 48
1.5
100
AcDbCircle
 10
24967.50000749
 20
16546.00004238
 30
0.0
 40
1.000000014901162
100
AcDbArc
 50
90.0
 51
180.0
  0
CIRCLE
  5
463
330
2
100
AcDbEntity
  8
YKK_A2
  6
Continuous
 48
1.5
100
AcDbCircle
 10
24978.50000765
 20
16447.75004092
 30
0.0
 40
1.750000026077032
  0
LINE
  5
464
330
2
100
AcDbEntity
  8
YKK_A2
  6
Continuous
 48
1.5
100
AcDbLine
 10
24975.0000076
 20
16452.00004098
 30
0.0
 11
24982.0000077
 21
16452.00004098
 31
0.0
  0
LINE
  5
465
330
2
100
AcDbEntity
  8
YKK_A2
  6
Continuous
 48
1.5
100
AcDbLine
 10
24982.0000077
 20
16463.00004114
 30
0.0
 11
24975.0000076
 21
16463.00004114
 31
0.0
  0
LINE
  5
466
330
2
100
AcDbEntity
  8
YKK_A2
  6
Continuous
 48
1.5
100
AcDbLine
 10
24975.0000076
 20
16453.000041
 30
0.0
 11
24982.0000077
 21
16453.000041
 31
0.0
  0
LINE
  5
467
330
2
100
AcDbEntity
  8
YKK_A2
  6
Continuous
 48
1.5
100
AcDbLine
 10
24982.0000077
 20
16462.00004113
 30
0.0
 11
24975.0000076
 21
16462.00004113
 31
0.0
  0
LINE
  5
468
330
2
100
AcDbEntity
  8
YKK_A2
  6
Continuous
 48
1.5
100
AcDbLine
 10
24965.00000745
 20
16546.50004239
 30
0.0
 11
24965.00000745
 21
16435.50004073
 31
0.0
  0
LINE
  5
469
330
2
100
AcDbEntity
  8
YKK_A2
  6
Continuous
 48
1.5
100
AcDbLine
 10
24970.50000753
 20
16534.0000422
 30
0.0
 11
24970.50000753
 21
16474.00004131
 31
0.0
  0
LINE
  5
46A
330
2
100
AcDbEntity
  8
YKK_A2
  6
Continuous
 48
1.5
100
AcDbLine
 10
24966.50000747
 20
16436.00004074
 30
0.0
 11
24966.50000747
 21
16546.00004238
 31
0.0
  0
LINE
  5
46B
330
2
100
AcDbEntity
  8
YKK_A2
  6
YCENTER_1
 48
1.5
100
AcDbLine
 10
24978.50000765
 20
16438.00004137
 30
0.0
 11
24978.50000765
 21
16544.00004176
 31
0.0
  0
ARC
  5
46C
330
2
100
AcDbEntity
  8
YKK_A2
  6
Continuous
 48
1.5
100
AcDbCircle
 10
25121.50000978
 20
16474.00004131
 30
0.0
 40
8.000000119209289
100
AcDbArc
 50
180.0
 51
0.0
  0
ARC
  5
46D
330
2
100
AcDbEntity
  8
YKK_A2
  6
Continuous
 48
1.5
100
AcDbCircle
 10
25125.00000983
 20
16457.50004106
 30
0.0
 40
5.500000081956385
100
AcDbArc
 50
270.0
 51
90.0
  0
ARC
  5
46E
330
2
100
AcDbEntity
  8
YKK_A2
  6
Continuous
 48
1.5
100
AcDbCircle
 10
25118.00000973
 20
16457.50004106
 30
0.0
 40
5.500000081956385
100
AcDbArc
 50
90.0
 51
270.0
  0
ARC
  5
46F
330
2
100
AcDbEntity
  8
YKK_A2
  6
Continuous
 48
1.5
100
AcDbCircle
 10
25125.00000983
 20
16457.50004106
 30
0.0
 40
4.500000067055224
100
AcDbArc
 50
270.0
 51
90.0
  0
ARC
  5
470
330
2
100
AcDbEntity
  8
YKK_A2
  6
Continuous
 48
1.5
100
AcDbCircle
 10
25118.00000973
 20
16457.50004106
 30
0.0
 40
4.500000067055224
100
AcDbArc
 50
90.0
 51
270.0
  0
ARC
  5
471
330
2
100
AcDbEntity
  8
YKK_A2
  6
Continuous
 48
1.5
100
AcDbCircle
 10
25110.00000961
 20
16546.50004239
 30
0.0
 40
2.000000029802321
100
AcDbArc
 50
90.0
 51
180.0
  0
ARC
  5
472
330
2
100
AcDbEntity
  8
YKK_A2
  6
Continuous
 48
1.5
100
AcDbCircle
 10
25110.00000961
 20
16435.50004073
 30
0.0
 40
2.000000029802321
100
AcDbArc
 50
180.0
 51
270.0
  0
ARC
  5
473
330
2
100
AcDbEntity
  8
YKK_A2
  6
Continuous
 48
1.5
100
AcDbCircle
 10
25133.00000995
 20
16435.50004073
 30
0.0
 40
2.000000029802321
100
AcDbArc
 50
270.0
 51
0.0
  0
ARC
  5
474
330
2
100
AcDbEntity
  8
YKK_A2
  6
Continuous
 48
1.5
100
AcDbCircle
 10
25133.00000995
 20
16546.50004239
 30
0.0
 40
2.000000029802321
100
AcDbArc
 50
0.0
 51
90.0
  0
ARC
  5
475
330
2
100
AcDbEntity
  8
YKK_A2
  6
Continuous
 48
1.5
100
AcDbCircle
 10
25110.50000962
 20
16546.00004238
 30
0.0
 40
1.000000014901162
100
AcDbArc
 50
90.0
 51
180.0
  0
ARC
  5
476
330
2
100
AcDbEntity
  8
YKK_A2
  6
Continuous
 48
1.5
100
AcDbCircle
 10
25110.50000962
 20
16436.00004074
 30
0.0
 40
1.000000014901162
100
AcDbArc
 50
180.0
 51
270.0
  0
ARC
  5
477
330
2
100
AcDbEntity
  8
YKK_A2
  6
Continuous
 48
1.5
100
AcDbCircle
 10
25132.50000995
 20
16436.00004074
 30
0.0
 40
1.000000014901162
100
AcDbArc
 50
270.0
 51
0.0
  0
ARC
  5
478
330
2
100
AcDbEntity
  8
YKK_A2
  6
Continuous
 48
1.5
100
AcDbCircle
 10
25132.50000995
 20
16546.00004238
 30
0.0
 40
1.000000014901162
100
AcDbArc
 50
0.0
 51
90.0
  0
CIRCLE
  5
479
330
2
100
AcDbEntity
  8
YKK_A2
  6
Continuous
 48
1.5
100
AcDbCircle
 10
25121.50000978
 20
16447.75004092
 30
0.0
 40
1.750000026077032
  0
LINE
  5
47A
330
2
100
AcDbEntity
  8
YKK_A2
  6
Continuous
 48
1.5
100
AcDbLine
 10
25125.00000983
 20
16452.00004098
 30
0.0
 11
25118.00000973
 21
16452.00004098
 31
0.0
  0
LINE
  5
47B
330
2
100
AcDbEntity
  8
YKK_A2
  6
Continuous
 48
1.5
100
AcDbLine
 10
25118.00000973
 20
16463.00004114
 30
0.0
 11
25125.00000983
 21
16463.00004114
 31
0.0
  0
LINE
  5
47C
330
2
100
AcDbEntity
  8
YKK_A2
  6
Continuous
 48
1.5
100
AcDbLine
 10
25125.00000983
 20
16453.000041
 30
0.0
 11
25118.00000973
 21
16453.000041
 31
0.0
  0
LINE
  5
47D
330
2
100
AcDbEntity
  8
YKK_A2
  6
Continuous
 48
1.5
100
AcDbLine
 10
25118.00000973
 20
16462.00004113
 30
0.0
 11
25125.00000983
 21
16462.00004113
 31
0.0
  0
LINE
  5
47E
330
2
100
AcDbEntity
  8
YKK_A2
  6
Continuous
 48
1.5
100
AcDbLine
 10
25133.00000995
 20
16433.50004071
 30
0.0
 11
25110.00000961
 21
16433.50004071
 31
0.0
  0
LINE
  5
47F
330
2
100
AcDbEntity
  8
YKK_A2
  6
Continuous
 48
1.5
100
AcDbLine
 10
25135.00000998
 20
16546.50004239
 30
0.0
 11
25135.00000998
 21
16435.50004073
 31
0.0
  0
LINE
  5
480
330
2
100
AcDbEntity
  8
YKK_A2
  6
Continuous
 48
1.5
100
AcDbLine
 10
25110.00000961
 20
16548.50004242
 30
0.0
 11
25133.00000995
 21
16548.50004242
 31
0.0
  0
LINE
  5
481
330
2
100
AcDbEntity
  8
YKK_A2
  6
Continuous
 48
1.5
100
AcDbLine
 10
25108.00000958
 20
16435.50004073
 30
0.0
 11
25108.00000958
 21
16546.50004239
 31
0.0
  0
LINE
  5
482
330
2
100
AcDbEntity
  8
YKK_A2
  6
Continuous
 48
1.5
100
AcDbLine
 10
25113.50000966
 20
16534.0000422
 30
0.0
 11
25113.50000966
 21
16474.00004131
 31
0.0
  0
LINE
  5
483
330
2
100
AcDbEntity
  8
YKK_A2
  6
Continuous
 48
1.5
100
AcDbLine
 10
25129.5000099
 20
16534.0000422
 30
0.0
 11
25129.5000099
 21
16474.00004131
 31
0.0
  0
LINE
  5
484
330
2
100
AcDbEntity
  8
YKK_A2
  6
Continuous
 48
1.5
100
AcDbLine
 10
25129.5000099
 20
16534.0000422
 30
0.0
 11
25113.50000966
 21
16534.0000422
 31
0.0
  0
LINE
  5
485
330
2
100
AcDbEntity
  8
YKK_A2
  6
Continuous
 48
1.5
100
AcDbLine
 10
25132.50000995
 20
16547.0000424
 30
0.0
 11
25110.50000962
 21
16547.0000424
 31
0.0
  0
LINE
  5
486
330
2
100
AcDbEntity
  8
YKK_A2
  6
Continuous
 48
1.5
100
AcDbLine
 10
25132.50000995
 20
16435.00004073
 30
0.0
 11
25110.50000962
 21
16435.00004073
 31
0.0
  0
LINE
  5
487
330
2
100
AcDbEntity
  8
YKK_A2
  6
Continuous
 48
1.5
100
AcDbLine
 10
25109.5000096
 20
16436.00004074
 30
0.0
 11
25109.5000096
 21
16546.00004238
 31
0.0
  0
LINE
  5
488
330
2
100
AcDbEntity
  8
YKK_A2
  6
Continuous
 48
1.5
100
AcDbLine
 10
25133.50000996
 20
16436.00004074
 30
0.0
 11
25133.50000996
 21
16546.00004238
 31
0.0
  0
LINE
  5
489
330
2
100
AcDbEntity
  8
YKK_A2
  6
YCENTER_1
 48
1.5
100
AcDbLine
 10
25066.50000896
 20
16491.00004156
 30
0.0
 11
25176.71420733
 21
16491.00004156
 31
0.0
  0
LINE
  5
48A
330
2
100
AcDbEntity
  8
YKK_A2
  6
YCENTER_1
 48
1.5
100
AcDbLine
 10
25121.50000978
 20
16438.00004137
 30
0.0
 11
25121.50000978
 21
16544.00004176
 31
0.0
  0
ARC
  5
48B
330
2
100
AcDbEntity
  8
YKK_A2
  6
Continuous
 48
1.5
100
AcDbCircle
 10
24990.00000782
 20
16546.50004239
 30
0.0
 40
2.000000029802321
100
AcDbArc
 50
0.0
 51
90.0
  0
ARC
  5
48C
330
2
100
AcDbEntity
  8
YKK_A2
  6
Continuous
 48
1.5
100
AcDbCircle
 10
24990.00000782
 20
16435.50004073
 30
0.0
 40
2.000000029802321
100
AcDbArc
 50
270.0
 51
0.0
  0
ARC
  5
48D
330
2
100
AcDbEntity
  8
YKK_A2
  6
Continuous
 48
1.5
100
AcDbCircle
 10
24989.50000782
 20
16546.00004238
 30
0.0
 40
1.000000014901162
100
AcDbArc
 50
0.0
 51
90.0
  0
ARC
  5
48E
330
2
100
AcDbEntity
  8
YKK_A2
  6
Continuous
 48
1.5
100
AcDbCircle
 10
24989.50000782
 20
16436.00004074
 30
0.0
 40
1.000000014901162
100
AcDbArc
 50
270.0
 51
0.0
  0
LINE
  5
48F
330
2
100
AcDbEntity
  8
YKK_A2
  6
Continuous
 48
1.5
100
AcDbLine
 10
24992.00000785
 20
16435.50004073
 30
0.0
 11
24992.00000785
 21
16546.50004239
 31
0.0
  0
LINE
  5
490
330
2
100
AcDbEntity
  8
YKK_A2
  6
Continuous
 48
1.5
100
AcDbLine
 10
24986.50000777
 20
16534.0000422
 30
0.0
 11
24986.50000777
 21
16474.00004131
 31
0.0
  0
LINE
  5
491
330
2
100
AcDbEntity
  8
YKK_A2
  6
Continuous
 48
1.5
100
AcDbLine
 10
24990.50000783
 20
16436.00004074
 30
0.0
 11
24990.50000783
 21
16546.00004238
 31
0.0
  0
LINE
  5
492
330
2
100
AcDbEntity
  8
YKK_A1
  6
Continuous
 48
1.5
100
AcDbLine
 10
25033.50000847
 20
17453.0000559
 30
0.0
 11
24494.00000043
 21
17453.0000559
 31
0.0
  0
LINE
  5
493
330
2
100
AcDbEntity
  8
YKK_A1
  6
Continuous
 48
1.5
100
AcDbLine
 10
24490.00000037
 20
17481.00005631
 30
0.0
 11
24490.00000037
 21
17353.00005441
 31
0.0
  0
LINE
  5
494
330
2
100
AcDbEntity
  8
YKK_A1
  6
Continuous
 48
1.5
100
AcDbLine
 10
24494.00000043
 20
17353.00005441
 30
0.0
 11
24494.00000043
 21
17453.0000559
 31
0.0
  0
LINE
  5
495
330
2
100
AcDbEntity
  8
YKK_A2
  6
Continuous
 48
1.5
100
AcDbLine
 10
24497.00000048
 20
17353.00005441
 30
0.0
 11
24487.00000033
 21
17353.00005441
 31
0.0
  0
LINE
  5
496
330
2
100
AcDbEntity
  8
YKK_A2
  6
Continuous
 48
1.5
100
AcDbLine
 10
24497.00000048
 20
17277.00005327
 30
0.0
 11
24497.00000048
 21
17353.00005441
 31
0.0
  0
LINE
  5
497
330
2
100
AcDbEntity
  8
YKK_A2
  6
Continuous
 48
1.5
100
AcDbLine
 10
24487.00000033
 20
17277.00005327
 30
0.0
 11
24497.00000048
 21
17277.00005327
 31
0.0
  0
LINE
  5
498
330
2
100
AcDbEntity
  8
YKK_A2
  6
Continuous
 48
1.5
100
AcDbLine
 10
24487.00000033
 20
17353.00005441
 30
0.0
 11
24487.00000033
 21
17277.00005327
 31
0.0
  0
LINE
  5
499
330
2
100
AcDbEntity
  8
YKK_A2
  6
Continuous
 48
1.5
100
AcDbLine
 10
24497.00000048
 20
17315.00005384
 30
0.0
 11
24487.00000033
 21
17315.00005384
 31
0.0
  0
LINE
  5
49A
330
2
100
AcDbEntity
  8
YKK_A1
  6
Continuous
 48
1.5
100
AcDbLine
 10
25610.00001706
 20
16535.00004222
 30
0.0
 11
25610.00001706
 21
17277.00005327
 31
0.0
  0
LINE
  5
49B
330
2
100
AcDbEntity
  8
YKK_A1
  6
Continuous
 48
1.5
100
AcDbLine
 10
25606.000017
 20
16535.00004222
 30
0.0
 11
25606.000017
 21
17277.00005327
 31
0.0
  0
TEXT
  5
49C
330
2
100
AcDbEntity
  8
YKK_N1
  6
Continuous
100
AcDbText
 10
25823.00005451
 20
16345.99999659
 30
0.0
 40
60.0
  1
H=1900
 50
90.0000025
 72
     4
 11
25793.00004795
 21
16495.99999528
 31
0.0
100
AcDbText
  0
LINE
  5
49D
330
2
100
AcDbEntity
  8
YKK_A2
  6
Continuous
 48
1.5
100
AcDbLine
 10
25603.00001696
 20
16459.00004109
 30
0.0
 11
25613.00001711
 21
16459.00004109
 31
0.0
  0
LINE
  5
49E
330
2
100
AcDbEntity
  8
YKK_A2
  6
Continuous
 48
1.5
100
AcDbLine
 10
25603.00001696
 20
16535.00004222
 30
0.0
 11
25603.00001696
 21
16459.00004109
 31
0.0
  0
LINE
  5
49F
330
2
100
AcDbEntity
  8
YKK_A2
  6
Continuous
 48
1.5
100
AcDbLine
 10
25613.00001711
 20
16535.00004222
 30
0.0
 11
25603.00001696
 21
16535.00004222
 31
0.0
  0
LINE
  5
4A0
330
2
100
AcDbEntity
  8
YKK_A2
  6
Continuous
 48
1.5
100
AcDbLine
 10
25613.00001711
 20
16459.00004109
 30
0.0
 11
25613.00001711
 21
16535.00004222
 31
0.0
  0
LINE
  5
4A1
330
2
100
AcDbEntity
  8
YKK_A2
  6
Continuous
 48
1.5
100
AcDbLine
 10
25603.00001696
 20
16497.00004165
 30
0.0
 11
25613.00001711
 21
16497.00004165
 31
0.0
  0
LINE
  5
4A2
330
2
100
AcDbEntity
  8
YKK_N1
  6
Continuous
100
AcDbLine
 10
25835.00001743
 20
17445.99993424
 30
0.0
 11
25785.00001743
 21
17359.39737992
 31
0.0
  0
LINE
  5
4A3
330
2
100
AcDbEntity
  8
YKK_A1
  6
Continuous
 48
1.5
100
AcDbLine
 10
25610.00001706
 20
17353.00005441
 30
0.0
 11
25610.00001706
 21
17481.00005631
 31
0.0
  0
LINE
  5
4A4
330
2
100
AcDbEntity
  8
YKK_A1
  6
Continuous
 48
1.5
100
AcDbLine
 10
25606.000017
 20
17353.00005441
 30
0.0
 11
25606.000017
 21
17453.0000559
 31
0.0
  0
LINE
  5
4A5
330
2
100
AcDbEntity
  8
YKK_N1
  6
Continuous
100
AcDbLine
 10
25885.00002624
 20
17359.39737992
 30
0.0
 11
25835.00001743
 21
17445.99993424
 31
0.0
  0
LINE
  5
4A6
330
2
100
AcDbEntity
  8
YKK_N1
100
AcDbLine
 10
25785.00001743
 20
17359.39737992
 30
0.0
 11
25885.00002624
 21
17359.39737992
 31
0.0
  0
LINE
  5
4A7
330
2
100
AcDbEntity
  8
YKK_A2
  6
Continuous
 48
1.5
100
AcDbLine
 10
25603.00001696
 20
17353.00005441
 30
0.0
 11
25613.00001711
 21
17353.00005441
 31
0.0
  0
LINE
  5
4A8
330
2
100
AcDbEntity
  8
YKK_A2
  6
Continuous
 48
1.5
100
AcDbLine
 10
25603.00001696
 20
17277.00005327
 30
0.0
 11
25603.00001696
 21
17353.00005441
 31
0.0
  0
LINE
  5
4A9
330
2
100
AcDbEntity
  8
YKK_A2
  6
Continuous
 48
1.5
100
AcDbLine
 10
25613.00001711
 20
17277.00005327
 30
0.0
 11
25603.00001696
 21
17277.00005327
 31
0.0
  0
LINE
  5
4AA
330
2
100
AcDbEntity
  8
YKK_A2
  6
Continuous
 48
1.5
100
AcDbLine
 10
25613.00001711
 20
17353.00005441
 30
0.0
 11
25613.00001711
 21
17277.00005327
 31
0.0
  0
LINE
  5
4AB
330
2
100
AcDbEntity
  8
YKK_A2
  6
Continuous
 48
1.5
100
AcDbLine
 10
25603.00001696
 20
17315.00005384
 30
0.0
 11
25613.00001711
 21
17315.00005384
 31
0.0
  0
LINE
  5
4AC
330
2
100
AcDbEntity
  8
YKK_N1
  6
Continuous
100
AcDbLine
 10
25710.00001743
 20
17445.99993424
 30
0.0
 11
25835.00004795
 21
17445.99993424
 31
0.0
  0
LINE
  5
4AD
330
2
100
AcDbEntity
  8
YKK_C1
  6
Continuous
100
AcDbLine
 10
26606.00003581
 20
17453.00005631
 30
0.0
 11
26631.00003581
 21
17453.00005631
 31
0.0
  0
LINE
  5
4AE
330
2
100
AcDbEntity
  8
YKK_C1
  6
Continuous
100
AcDbLine
 10
26603.2000175
 20
17456.00005631
 30
0.0
 11
26635.00001743
 21
17456.00005631
 31
0.0
  0
LINE
  5
4AF
330
2
100
AcDbEntity
  8
YKK_C1
  6
Continuous
100
AcDbLine
 10
26603.2000175
 20
17481.00005631
 30
0.0
 11
26603.2000175
 21
17456.00005631
 31
0.0
  0
LINE
  5
4B0
330
2
100
AcDbEntity
  8
YKK_C1
  6
Continuous
100
AcDbLine
 10
26603.2000175
 20
17481.00005631
 30
0.0
 11
26623.2000175
 21
17481.00005631
 31
0.0
  0
TEXT
  5
4B1
330
2
100
AcDbEntity
  8
YKK_N1
  6
Continuous
100
AcDbText
 10
26823.00005451
 20
16345.99999659
 30
0.0
 40
60.0
  1
H=1900
 50
90.0000025
 72
     4
 11
26793.00004795
 21
16495.99999528
 31
0.0
100
AcDbText
  0
LINE
  5
4B2
330
2
100
AcDbEntity
  8
YKK_N1
  6
Continuous
100
AcDbLine
 10
26835.00001743
 20
17445.99993424
 30
0.0
 11
26785.00001743
 21
17359.39737992
 31
0.0
  0
LINE
  5
4B3
330
2
100
AcDbEntity
  8
YKK_N1
  6
Continuous
100
AcDbLine
 10
26885.00002624
 20
17359.39737992
 30
0.0
 11
26835.00001743
 21
17445.99993424
 31
0.0
  0
LINE
  5
4B4
330
2
100
AcDbEntity
  8
YKK_N1
100
AcDbLine
 10
26785.00001743
 20
17359.39737992
 30
0.0
 11
26885.00002624
 21
17359.39737992
 31
0.0
  0
TEXT
  5
4B5
330
2
100
AcDbEntity
  8
YKK_N1
  6
Continuous
100
AcDbText
 10
26823.00001896
 20
17483.33969279
 30
0.0
 40
60.0
  1
10
 50
90.0000025
 72
     4
 11
26793.00001743
 21
17518.33969148
 31
0.0
100
AcDbText
  0
CIRCLE
  5
4B6
330
2
100
AcDbEntity
  8
YKK_N1
  6
Continuous
100
AcDbCircle
 10
26835.00001743
 20
17455.99993424
 30
0.0
 40
5.0
  0
LINE
  5
4B7
330
2
100
AcDbEntity
  8
YKK_N1
  6
Continuous
100
AcDbLine
 10
26710.00001743
 20
17455.99993424
 30
0.0
 11
26835.00001743
 21
17455.99993424
 31
0.0
  0
LINE
  5
4B8
330
2
100
AcDbEntity
  8
YKK_N1
  6
Continuous
100
AcDbLine
 10
26710.00001743
 20
17445.99993424
 30
0.0
 11
26835.00004795
 21
17445.99993424
 31
0.0
  0
LINE
  5
4B9
330
2
100
AcDbEntity
  8
YKK_N1
  6
Continuous
100
AcDbLine
 10
26835.00001743
 20
17455.99993424
 30
0.0
 11
26835.00001743
 21
17445.99993424
 31
0.0
  0
ENDSEC
  0
SECTION
  2
OBJECTS
  0
DICTIONARY
  5
1A
330
0
100
AcDbDictionary
281
     1
  3
ACAD_CIP_PREVIOUS_PRODUCT_INFO
350
573
  3
ACAD_COLOR
350
508
  3
ACAD_DETAILVIEWSTYLE
350
521
  3
ACAD_GROUP
350
18
  3
ACAD_LAYOUT
350
526
  3
ACAD_MATERIAL
350
4D6
  3
ACAD_MLEADERSTYLE
350
51D
  3
ACAD_MLINESTYLE
350
19
  3
ACAD_PLOTSETTINGS
350
525
  3
ACAD_PLOTSTYLENAME
350
4D4
  3
ACAD_SCALELIST
350
50B
  3
ACAD_SECTIONVIEWSTYLE
350
51F
  3
ACAD_TABLESTYLE
350
509
  3
ACAD_VISUALSTYLE
350
4EF
  3
ACDB_RECOMPOSE_DATA
350
579
  3
AcDbVariableDictionary
350
567
  0
XRECORD
  5
573
102
{ACAD_REACTORS
330
1A
102
}
330
1A
100
AcDbXrecord
280
     1
300
ACD
300
2014
300
86063ACD_2014_0F
  0
DICTIONARY
  5
508
102
{ACAD_REACTORS
330
1A
102
}
330
1A
100
AcDbDictionary
281
     1
  0
DICTIONARY
  5
521
102
{ACAD_REACTORS
330
1A
102
}
330
1A
100
AcDbDictionary
281
     1
  3
Imperial24
350
522
  0
DICTIONARY
  5
18
102
{ACAD_REACTORS
330
1A
102
}
330
1A
100
AcDbDictionary
281
     1
  0
DICTIONARY
  5
526
102
{ACAD_REACTORS
330
1A
102
}
330
1A
100
AcDbDictionary
281
     1
  3
Model
350
527
  3
レイアウト1
350
528
  0
DICTIONARY
  5
4D6
102
{ACAD_REACTORS
330
1A
102
}
330
1A
100
AcDbDictionary
281
     1
  3
ByBlock
350
4DF
  3
ByLayer
350
4D7
  3
Global
350
4E7
  0
DICTIONARY
  5
51D
102
{ACAD_REACTORS
330
1A
102
}
330
1A
100
AcDbDictionary
281
     1
  3
Standard
350
51E
  0
DICTIONARY
  5
19
102
{ACAD_REACTORS
330
1A
102
}
330
1A
100
AcDbDictionary
281
     1
  3
STANDARD
350
1B
  0
DICTIONARY
  5
525
102
{ACAD_REACTORS
330
1A
102
}
330
1A
100
AcDbDictionary
281
     1
  0
ACDBDICTIONARYWDFLT
  5
4D4
102
{ACAD_REACTORS
330
1A
102
}
330
1A
100
AcDbDictionary
281
     1
  3
Normal
350
4D5
100
AcDbDictionaryWithDefault
340
4D5
  0
DICTIONARY
  5
50B
102
{ACAD_REACTORS
330
1A
102
}
330
1A
100
AcDbDictionary
281
     1
  3
A0
350
50C
  3
A1
350
50D
  3
A2
350
50E
  3
A3
350
50F
  3
A4
350
510
  3
A5
350
511
  3
A6
350
512
  3
A7
350
513
  3
A8
350
514
  3
A9
350
515
  3
B0
350
516
  3
B1
350
517
  3
B2
350
518
  3
B3
350
519
  3
B4
350
51A
  3
B5
350
51B
  3
B6
350
51C
  0
DICTIONARY
  5
51F
102
{ACAD_REACTORS
330
1A
102
}
330
1A
100
AcDbDictionary
281
     1
  3
Imperial24
350
520
  0
DICTIONARY
  5
509
102
{ACAD_REACTORS
330
1A
102
}
330
1A
100
AcDbDictionary
281
     1
  3
Standard
350
50A
  0
DICTIONARY
  5
4EF
102
{ACAD_REACTORS
330
1A
102
}
330
1A
100
AcDbDictionary
281
     1
  3
2dWireframe
350
4F5
  3
Basic
350
4F4
  3
Brighten
350
4FB
  3
ColorChange
350
4FF
  3
Conceptual
350
4F8
  3
Dim
350
4FA
  3
EdgeColorOff
350
507
  3
Facepattern
350
4FE
  3
Flat
350
4F0
  3
FlatWithEdges
350
4F1
  3
Gouraud
350
4F2
  3
GouraudWithEdges
350
4F3
  3
Hidden
350
4F7
  3
JitterOff
350
505
  3
Linepattern
350
4FD
  3
OverhangOff
350
506
  3
Realistic
350
4F9
  3
Shaded
350
504
  3
Shaded with edges
350
503
  3
Shades of Gray
350
500
  3
Sketchy
350
501
  3
Thicken
350
4FC
  3
Wireframe
350
4F6
  3
X-Ray
350
502
  0
XRECORD
  5
579
102
{ACAD_REACTORS
330
1A
102
}
330
1A
100
AcDbXrecord
280
     1
 90
        1
330
50A
  0
DICTIONARY
  5
567
102
{ACAD_REACTORS
330
1A
102
}
330
1A
100
AcDbDictionary
281
     1
  3
CANNOSCALE
350
56C
  3
CMLEADERSTYLE
350
569
  3
CTABLESTYLE
350
568
  3
CVIEWDETAILSTYLE
350
56A
  3
CVIEWSECTIONSTYLE
350
56B
  3
XCLIPFRAME
350
577
  0
ACDBDETAILVIEWSTYLE
  5
522
102
{ACAD_XDICTIONARY
360
5B2
102
}
102
{ACAD_REACTORS
330
521
102
}
330
521
100
AcDbModelDocViewStyle
 70
     0
  3
Imperial24
290
     0
100
AcDbDetailViewStyle
 70
     0
 71
     0
 90
        3
 71
     1
340
C
 62
   256
 40
0.24
340
0
 62
   256
 40
0.24
300

 40
0.36
280
     3
 71
     2
340
5
 90
       25
 62
   256
 71
     3
340
C
 62
   256
 40
0.24
 90
        1
 40
0.75
 90
        1
300
%<\AcVar ViewType \f "%tc1">% %<\AcVar ViewDetailId>%\PSCALE %<\AcVar ViewScale \f "%sn">%
 71
     4
340
5
 90
       25
 62
   256
340
5
 90
       25
 62
   256
280
     0
  0
LAYOUT
  5
527
102
{ACAD_REACTORS
330
526
102
}
330
526
100
AcDbPlotSettings
  1

  2
C:\ACAD-I\support\plotters\Default Windows System Printer.pc3
  4
A4
  6

 40
3.17499995
 41
3.17499995
 42
3.17500305
 43
3.17498779
 44
209.88865662
 45
297.05300903
 46
0.0
 47
0.0
 48
0.0
 49
0.0
140
0.0
141
0.0
142
1.0
143
3031.76013624
 70
 11952
 72
     0
 73
     1
 74
     0
  7
monochrome.ctb
 75
     0
147
0.00032984
 76
     0
 77
     2
 78
   300
148
49746.93821979
149
2116.06655754
100
AcDbLayout
  1
Model
 70
     1
 71
     0
 10
0.0
 20
0.0
 11
12.0
 21
9.0
 12
0.0
 22
0.0
 32
0.0
 14
0.0
 24
0.0
 34
0.0
 15
0.0
 25
0.0
 35
0.0
146
0.0
 13
0.0
 23
0.0
 33
0.0
 16
1.0
 26
0.0
 36
0.0
 17
0.0
 27
1.0
 37
0.0
 76
     0
330
2
1001
ACAD_PSEXT
1000
C:\ACAD-I\support\plotters\Default Windows System Printer.pc3
1000
Fiery PRO80 65-55C-KM PS3.0jp
1000
IP_10.230.204.212
1000

1070
     0
  0
LAYOUT
  5
528
102
{ACAD_REACTORS
330
526
102
}
330
526
100
AcDbPlotSettings
  1

  2
C:\ACAD-I\support\plotters\Default Windows System Printer.pc3
  4
A4
  6

 40
3.17499995
 41
3.17499995
 42
3.17500305
 43
3.17498779
 44
209.88865662
 45
297.05300903
 46
0.0
 47
0.0
 48
0.0
 49
0.0
140
0.0
141
0.0
142
1.0
143
1.0
 70
 15024
 72
     0
 73
     1
 74
     5
  7
monochrome.ctb
 75
    16
147
1.0
 76
     0
 77
     2
 78
   300
148
0.0
149
0.0
100
AcDbLayout
  1
レイアウト1
 70
     0
 71
     1
 10
0.0
 20
0.0
 11
12.0
 21
9.0
 12
0.0
 22
0.0
 32
0.0
 14
1.00000000E+20
 24
1.00000000E+20
 34
1.00000000E+20
 15
-1.00000000E+20
 25
-1.00000000E+20
 35
-1.00000000E+20
146
0.0
 13
0.0
 23
0.0
 33
0.0
 16
1.0
 26
0.0
 36
0.0
 17
0.0
 27
1.0
 37
0.0
 76
     0
330
7
1001
ACAD_PSEXT
1000
C:\ACAD-I\support\plotters\Default Windows System Printer.pc3
1000
Fiery PRO80 65-55C-KM PS3.0jp
1000
IP_10.230.204.212
1000

1070
     0
  0
MATERIAL
  5
4DF
102
{ACAD_XDICTIONARY
360
4E0
102
}
102
{ACAD_REACTORS
330
4D6
102
}
330
4D6
100
AcDbMaterial
  1
ByBlock
 72
     0
 43
0.02083333
 43
0.0
 43
0.0
 43
0.0
 43
0.0
 43
0.02083333
 43
0.0
 43
0.0
 43
0.0
 43
0.0
 43
1.0
 43
0.0
 43
0.0
 43
0.0
 43
0.0
 43
1.0
 77
     0
 47
0.02083333
 47
0.0
 47
0.0
 47
0.0
 47
0.0
 47
0.02083333
 47
0.0
 47
0.0
 47
0.0
 47
0.0
 47
1.0
 47
0.0
 47
0.0
 47
0.0
 47
0.0
 47
1.0
171
     0
 49
0.02083333
 49
0.0
 49
0.0
 49
0.0
 49
0.0
 49
0.02083333
 49
0.0
 49
0.0
 49
0.0
 49
0.0
 49
1.0
 49
0.0
 49
0.0
 49
0.0
 49
0.0
 49
1.0
175
     0
142
0.02083333
142
0.0
142
0.0
142
0.0
142
0.0
142
0.02083333
142
0.0
142
0.0
142
0.0
142
0.0
142
1.0
142
0.0
142
0.0
142
0.0
142
0.0
142
1.0
179
     0
144
0.02083333
144
0.0
144
0.0
144
0.0
144
0.0
144
0.02083333
144
0.0
144
0.0
144
0.0
144
0.0
144
1.0
144
0.0
144
0.0
144
0.0
144
0.0
144
1.0
147
0.02083333
147
0.0
147
0.0
147
0.0
147
0.0
147
0.02083333
147
0.0
147
0.0
147
0.0
147
0.0
147
1.0
147
0.0
147
0.0
147
0.0
147
0.0
147
1.0
  0
MATERIAL
  5
4D7
102
{ACAD_XDICTIONARY
360
4D8
102
}
102
{ACAD_REACTORS
330
4D6
102
}
330
4D6
100
AcDbMaterial
  1
ByLayer
 72
     0
 43
0.02083333
 43
0.0
 43
0.0
 43
0.0
 43
0.0
 43
0.02083333
 43
0.0
 43
0.0
 43
0.0
 43
0.0
 43
1.0
 43
0.0
 43
0.0
 43
0.0
 43
0.0
 43
1.0
 77
     0
 47
0.02083333
 47
0.0
 47
0.0
 47
0.0
 47
0.0
 47
0.02083333
 47
0.0
 47
0.0
 47
0.0
 47
0.0
 47
1.0
 47
0.0
 47
0.0
 47
0.0
 47
0.0
 47
1.0
171
     0
 49
0.02083333
 49
0.0
 49
0.0
 49
0.0
 49
0.0
 49
0.02083333
 49
0.0
 49
0.0
 49
0.0
 49
0.0
 49
1.0
 49
0.0
 49
0.0
 49
0.0
 49
0.0
 49
1.0
175
     0
142
0.02083333
142
0.0
142
0.0
142
0.0
142
0.0
142
0.02083333
142
0.0
142
0.0
142
0.0
142
0.0
142
1.0
142
0.0
142
0.0
142
0.0
142
0.0
142
1.0
179
     0
144
0.02083333
144
0.0
144
0.0
144
0.0
144
0.0
144
0.02083333
144
0.0
144
0.0
144
0.0
144
0.0
144
1.0
144
0.0
144
0.0
144
0.0
144
0.0
144
1.0
147
0.02083333
147
0.0
147
0.0
147
0.0
147
0.0
147
0.02083333
147
0.0
147
0.0
147
0.0
147
0.0
147
1.0
147
0.0
147
0.0
147
0.0
147
0.0
147
1.0
  0
MATERIAL
  5
4E7
102
{ACAD_XDICTIONARY
360
4E8
102
}
102
{ACAD_REACTORS
330
4D6
102
}
330
4D6
100
AcDbMaterial
  1
Global
 72
     0
 43
0.02083333
 43
0.0
 43
0.0
 43
0.0
 43
0.0
 43
0.02083333
 43
0.0
 43
0.0
 43
0.0
 43
0.0
 43
1.0
 43
0.0
 43
0.0
 43
0.0
 43
0.0
 43
1.0
 77
     0
 47
0.02083333
 47
0.0
 47
0.0
 47
0.0
 47
0.0
 47
0.02083333
 47
0.0
 47
0.0
 47
0.0
 47
0.0
 47
1.0
 47
0.0
 47
0.0
 47
0.0
 47
0.0
 47
1.0
171
     0
 49
0.02083333
 49
0.0
 49
0.0
 49
0.0
 49
0.0
 49
0.02083333
 49
0.0
 49
0.0
 49
0.0
 49
0.0
 49
1.0
 49
0.0
 49
0.0
 49
0.0
 49
0.0
 49
1.0
175
     0
142
0.02083333
142
0.0
142
0.0
142
0.0
142
0.0
142
0.02083333
142
0.0
142
0.0
142
0.0
142
0.0
142
1.0
142
0.0
142
0.0
142
0.0
142
0.0
142
1.0
179
     0
144
0.02083333
144
0.0
144
0.0
144
0.0
144
0.0
144
0.02083333
144
0.0
144
0.0
144
0.0
144
0.0
144
1.0
144
0.0
144
0.0
144
0.0
144
0.0
144
1.0
147
0.02083333
147
0.0
147
0.0
147
0.0
147
0.0
147
0.02083333
147
0.0
147
0.0
147
0.0
147
0.0
147
1.0
147
0.0
147
0.0
147
0.0
147
0.0
147
1.0
  0
MLEADERSTYLE
  5
51E
102
{ACAD_XDICTIONARY
360
5AE
102
}
102
{ACAD_REACTORS
330
51D
102
}
330
51D
100
AcDbMLeaderStyle
170
     2
171
     1
172
     0
 90
        2
 40
0.0
 41
0.0
173
     1
 91
-1056964608
340
E
 92
       -2
290
     1
 42
0.09
291
     1
 43
0.36
  3
Standard
 44
0.18
300

342
C
174
     1
178
     6
175
     1
176
     0
 93
-1056964608
 45
0.18
292
     0
297
     0
 46
0.18
 94
-1056964608
 47
1.0
 49
1.0
140
1.0
293
     1
141
0.0
294
     1
177
     0
142
1.0
295
     0
296
     0
143
0.125
1001
ACAD_MLEADERVER
1070
     2
  0
MLINESTYLE
  5
1B
102
{ACAD_REACTORS
330
19
102
}
330
19
100
AcDbMlineStyle
  2
STANDARD
 70
     0
  3

 62
   256
 51
90.0
 52
90.0
 71
     2
 49
0.5
 62
   256
  6
BYLAYER
 49
-0.5
 62
   256
  6
BYLAYER
  0
ACDBPLACEHOLDER
  5
4D5
102
{ACAD_REACTORS
330
4D4
102
}
330
4D4
  0
SCALE
  5
50C
102
{ACAD_REACTORS
330
50B
102
}
330
50B
100
AcDbScale
 70
     0
300
1:1
140
1.0
141
1.0
290
     1
  0
SCALE
  5
50D
102
{ACAD_REACTORS
330
50B
102
}
330
50B
100
AcDbScale
 70
     0
300
1/128" = 1'-0"
140
0.0078125
141
12.0
290
     0
  0
SCALE
  5
50E
102
{ACAD_REACTORS
330
50B
102
}
330
50B
100
AcDbScale
 70
     0
300
1/64" = 1'-0"
140
0.015625
141
12.0
290
     0
  0
SCALE
  5
50F
102
{ACAD_REACTORS
330
50B
102
}
330
50B
100
AcDbScale
 70
     0
300
1/32" = 1'-0"
140
0.03125
141
12.0
290
     0
  0
SCALE
  5
510
102
{ACAD_REACTORS
330
50B
102
}
330
50B
100
AcDbScale
 70
     0
300
1/16" = 1'-0"
140
0.0625
141
12.0
290
     0
  0
SCALE
  5
511
102
{ACAD_REACTORS
330
50B
102
}
330
50B
100
AcDbScale
 70
     0
300
3/32" = 1'-0"
140
0.09375
141
12.0
290
     0
  0
SCALE
  5
512
102
{ACAD_REACTORS
330
50B
102
}
330
50B
100
AcDbScale
 70
     0
300
1/8" = 1'-0"
140
0.125
141
12.0
290
     0
  0
SCALE
  5
513
102
{ACAD_REACTORS
330
50B
102
}
330
50B
100
AcDbScale
 70
     0
300
3/16" = 1'-0"
140
0.1875
141
12.0
290
     0
  0
SCALE
  5
514
102
{ACAD_REACTORS
330
50B
102
}
330
50B
100
AcDbScale
 70
     0
300
1/4" = 1'-0"
140
0.25
141
12.0
290
     0
  0
SCALE
  5
515
102
{ACAD_REACTORS
330
50B
102
}
330
50B
100
AcDbScale
 70
     0
300
3/8" = 1'-0"
140
0.375
141
12.0
290
     0
  0
SCALE
  5
516
102
{ACAD_REACTORS
330
50B
102
}
330
50B
100
AcDbScale
 70
     0
300
1/2" = 1'-0"
140
0.5
141
12.0
290
     0
  0
SCALE
  5
517
102
{ACAD_REACTORS
330
50B
102
}
330
50B
100
AcDbScale
 70
     0
300
3/4" = 1'-0"
140
0.75
141
12.0
290
     0
  0
SCALE
  5
518
102
{ACAD_REACTORS
330
50B
102
}
330
50B
100
AcDbScale
 70
     0
300
1" = 1'-0"
140
1.0
141
12.0
290
     0
  0
SCALE
  5
519
102
{ACAD_REACTORS
330
50B
102
}
330
50B
100
AcDbScale
 70
     0
300
1-1/2" = 1'-0"
140
1.5
141
12.0
290
     0
  0
SCALE
  5
51A
102
{ACAD_REACTORS
330
50B
102
}
330
50B
100
AcDbScale
 70
     0
300
3" = 1'-0"
140
3.0
141
12.0
290
     0
  0
SCALE
  5
51B
102
{ACAD_REACTORS
330
50B
102
}
330
50B
100
AcDbScale
 70
     0
300
6" = 1'-0"
140
6.0
141
12.0
290
     0
  0
SCALE
  5
51C
102
{ACAD_REACTORS
330
50B
102
}
330
50B
100
AcDbScale
 70
     0
300
1'-0" = 1'-0"
140
12.0
141
12.0
290
     0
  0
ACDBSECTIONVIEWSTYLE
  5
520
102
{ACAD_XDICTIONARY
360
5B0
102
}
102
{ACAD_REACTORS
330
51F
102
}
330
51F
100
AcDbModelDocViewStyle
 70
     0
  3
Imperial24
290
     0
100
AcDbSectionViewStyle
 70
     0
 71
     0
 90
      102
 71
     1
340
C
 62
   256
 40
5.0
340
0
340
0
 62
   256
 40
5.0
300
I, O, Q, S, X, Z
 40
10.0
 90
        0
 40
2.5
 90
        0
 71
     2
340
5
 90
       25
 62
   256
340
5
 90
       50
 62
   256
 40
5.0
 40
2.5
 40
5.0
 71
     3
340
C
 62
   256
 40
5.0
 90
        0
 40
15.0
 90
        1
300
%<\AcVar ViewSectionStartId>%-%<\AcVar ViewSectionEndId>% (%<\AcVar ViewScale \f "%sn">%)
 71
     4
 62
   256
 62
   257
300
ANSI31
 40
1.0
 90
        0
290
     0
290
     0
 90
        6
 40
0.0
 40
1.57079633
 40
0.26179939
 40
1.30899694
 40
-0.26179939
 40
1.83259571
  0
TABLESTYLE
  5
50A
102
{ACAD_XDICTIONARY
360
529
102
}
102
{ACAD_REACTORS
330
509
102
}
330
509
100
AcDbTableStyle
  3
Standard
 70
     0
 71
     0
 40
0.06
 41
0.06
280
     0
281
     0
  7
STANDARD
140
0.18
170
     2
 62
     0
 63
     7
283
     0
274
    -2
284
     1
 64
     0
275
    -2
285
     1
 65
     0
276
    -2
286
     1
 66
     0
277
    -2
287
     1
 67
     0
278
    -2
288
     1
 68
     0
279
    -2
289
     1
 69
     0
  7
STANDARD
140
0.25
170
     5
 62
     0
 63
     7
283
     0
274
    -2
284
     1
 64
     0
275
    -2
285
     1
 65
     0
276
    -2
286
     1
 66
     0
277
    -2
287
     1
 67
     0
278
    -2
288
     1
 68
     0
279
    -2
289
     1
 69
     0
  7
STANDARD
140
0.18
170
     5
 62
     0
 63
     7
283
     0
274
    -2
284
     1
 64
     0
275
    -2
285
     1
 65
     0
276
    -2
286
     1
 66
     0
277
    -2
287
     1
 67
     0
278
    -2
288
     1
 68
     0
279
    -2
289
     1
 69
     0
  0
VISUALSTYLE
  5
4F5
102
{ACAD_XDICTIONARY
360
587
102
}
102
{ACAD_REACTORS
330
4EF
102
}
330
4EF
100
AcDbVisualStyle
  2
2dWireframe
 70
     4
 71
     0
 72
     2
 73
     0
 90
        0
 40
-0.6
 41
-30.0
 62
     5
 63
     7
421
 16777215
 74
     1
 91
        4
 64
     7
 65
   257
 75
     1
175
     1
 42
1.0
 92
        0
 66
   257
 43
1.0
 76
     1
 77
     6
 78
     2
 67
     7
 79
     5
170
     0
171
     0
290
     0
174
     0
 93
        1
 44
0.0
173
     0
291
     0
 45
0.0
1001
ACAD
1000
AcDbSavedByObjectVersion
1070
     0
  0
VISUALSTYLE
  5
4F4
102
{ACAD_XDICTIONARY
360
585
102
}
102
{ACAD_REACTORS
330
4EF
102
}
330
4EF
100
AcDbVisualStyle
  2
Basic
 70
     7
 71
     1
 72
     0
 73
     1
 90
        0
 40
-0.6
 41
-30.0
 62
     5
 63
     7
421
 16777215
 74
     0
 91
        4
 64
     7
 65
   257
 75
     1
175
     1
 42
1.0
 92
        8
 66
     7
 43
1.0
 76
     1
 77
     6
 78
     2
 67
     7
 79
     5
170
     0
171
     0
290
     0
174
     0
 93
        1
 44
0.0
173
     0
291
     1
 45
0.0
1001
ACAD
1000
AcDbSavedByObjectVersion
1070
     0
  0
VISUALSTYLE
  5
4FB
102
{ACAD_XDICTIONARY
360
593
102
}
102
{ACAD_REACTORS
330
4EF
102
}
330
4EF
100
AcDbVisualStyle
  2
Brighten
 70
    12
 71
     2
 72
     2
 73
     0
 90
        0
 40
-0.6
 41
-30.0
 62
     5
 63
     7
421
 16777215
 74
     1
 91
        4
 64
     7
 65
   257
 75
     1
175
     1
 42
1.0
 92
        8
 66
     7
 43
1.0
 76
     1
 77
     6
 78
     2
 67
     7
 79
     5
170
     0
171
     0
290
     0
174
     0
 93
        1
 44
50.0
173
     0
291
     1
 45
0.0
1001
ACAD
1000
AcDbSavedByObjectVersion
1070
     0
  0
VISUALSTYLE
  5
4FF
102
{ACAD_XDICTIONARY
360
59B
102
}
102
{ACAD_REACTORS
330
4EF
102
}
330
4EF
100
AcDbVisualStyle
  2
ColorChange
 70
    16
 71
     2
 72
     2
 73
     3
 90
        0
 40
-0.6
 41
-30.0
 62
     5
 63
     8
421
  8421504
 74
     1
 91
        4
 64
     7
 65
   257
 75
     1
175
     1
 42
1.0
 92
        8
 66
     8
424
  8421504
 43
1.0
 76
     1
 77
     6
 78
     2
 67
     7
 79
     5
170
     0
171
     0
290
     0
174
     0
 93
        1
 44
0.0
173
     0
291
     1
 45
0.0
1001
ACAD
1000
AcDbSavedByObjectVersion
1070
     0
  0
VISUALSTYLE
  5
4F8
102
{ACAD_XDICTIONARY
360
58D
102
}
102
{ACAD_REACTORS
330
4EF
102
}
330
4EF
100
AcDbVisualStyle
  2
Conceptual
 70
     9
 71
     3
 72
     2
 73
     0
 90
        0
 40
-0.6
 41
-30.0
 62
     5
 63
     7
421
 16777215
 74
     2
 91
        2
 64
     7
 65
   257
 75
     1
175
     1
 42
179.0
 92
        8
 66
     7
 43
1.0
 76
     1
 77
     6
 78
     2
 67
     7
 79
     3
170
     0
171
     0
290
     0
174
     0
 93
        1
 44
0.0
173
     0
291
     0
 45
0.0
1001
ACAD
1000
AcDbSavedByObjectVersion
1070
     0
  0
VISUALSTYLE
  5
4FA
102
{ACAD_XDICTIONARY
360
591
102
}
102
{ACAD_REACTORS
330
4EF
102
}
330
4EF
100
AcDbVisualStyle
  2
Dim
 70
    11
 71
     2
 72
     2
 73
     0
 90
        0
 40
-0.6
 41
-30.0
 62
     5
 63
     7
421
 16777215
 74
     1
 91
        4
 64
     7
 65
   257
 75
     1
175
     1
 42
1.0
 92
        8
 66
     7
 43
1.0
 76
     1
 77
     6
 78
     2
 67
     7
 79
     5
170
     0
171
     0
290
     0
174
     0
 93
        1
 44
-50.0
173
     0
291
     1
 45
0.0
1001
ACAD
1000
AcDbSavedByObjectVersion
1070
     0
  0
VISUALSTYLE
  5
507
102
{ACAD_XDICTIONARY
360
5AB
102
}
102
{ACAD_REACTORS
330
4EF
102
}
330
4EF
100
AcDbVisualStyle
  2
EdgeColorOff
 70
    22
 71
     2
 72
     2
 73
     0
 90
        0
 40
-0.6
 41
-30.0
 62
     5
 63
     7
421
 16777215
 74
     1
 91
        4
 64
     7
 65
   257
 75
     1
175
     1
 42
1.0
 92
        8
 66
     7
 43
1.0
 76
     1
 77
     6
 78
     2
 67
     7
 79
     5
170
     0
171
     0
290
     0
174
     0
 93
        1
 44
0.0
173
     0
291
     1
 45
0.0
1001
ACAD
1000
AcDbSavedByObjectVersion
1070
     0
  0
VISUALSTYLE
  5
4FE
102
{ACAD_XDICTIONARY
360
599
102
}
102
{ACAD_REACTORS
330
4EF
102
}
330
4EF
100
AcDbVisualStyle
  2
Facepattern
 70
    15
 71
     2
 72
     2
 73
     0
 90
        0
 40
-0.6
 41
-30.0
 62
     5
 63
     7
421
 16777215
 74
     1
 91
        4
 64
     7
 65
   257
 75
     1
175
     1
 42
1.0
 92
        8
 66
     7
 43
1.0
 76
     1
 77
     6
 78
     2
 67
     7
 79
     5
170
     0
171
     0
290
     0
174
     0
 93
        1
 44
0.0
173
     0
291
     1
 45
0.0
1001
ACAD
1000
AcDbSavedByObjectVersion
1070
     0
  0
VISUALSTYLE
  5
4F0
102
{ACAD_XDICTIONARY
360
57D
102
}
102
{ACAD_REACTORS
330
4EF
102
}
330
4EF
100
AcDbVisualStyle
  2
Flat
 70
     0
 71
     2
 72
     1
 73
     1
 90
        2
 40
-0.6
 41
30.0
 62
     5
 63
     7
421
 16777215
 74
     0
 91
        0
 64
     7
 65
   257
 75
     1
175
     1
 42
1.0
 92
        8
 66
     7
 43
1.0
 76
     1
 77
     6
 78
     2
 67
     7
 79
     5
170
     0
171
     0
290
     0
174
     0
 93
       13
 44
0.0
173
     0
291
     1
 45
0.0
1001
ACAD
1000
AcDbSavedByObjectVersion
1070
     0
  0
VISUALSTYLE
  5
4F1
102
{ACAD_XDICTIONARY
360
57F
102
}
102
{ACAD_REACTORS
330
4EF
102
}
330
4EF
100
AcDbVisualStyle
  2
FlatWithEdges
 70
     1
 71
     2
 72
     1
 73
     1
 90
        2
 40
-0.6
 41
30.0
 62
     5
 63
     7
421
 16777215
 74
     1
 91
        0
 64
     7
 65
   257
 75
     1
175
     1
 42
1.0
 92
        0
 66
   257
 43
1.0
 76
     1
 77
     6
 78
     2
 67
     7
 79
     5
170
     0
171
     0
290
     0
174
     0
 93
       13
 44
0.0
173
     0
291
     1
 45
0.0
1001
ACAD
1000
AcDbSavedByObjectVersion
1070
     0
  0
VISUALSTYLE
  5
4F2
102
{ACAD_XDICTIONARY
360
581
102
}
102
{ACAD_REACTORS
330
4EF
102
}
330
4EF
100
AcDbVisualStyle
  2
Gouraud
 70
     2
 71
     2
 72
     2
 73
     1
 90
        2
 40
-0.6
 41
30.0
 62
     5
 63
     7
421
 16777215
 74
     0
 91
        0
 64
     7
 65
   257
 75
     1
175
     1
 42
1.0
 92
        0
 66
     7
 43
1.0
 76
     1
 77
     6
 78
     2
 67
     7
 79
     5
170
     0
171
     0
290
     0
174
     0
 93
       13
 44
0.0
173
     0
291
     1
 45
0.0
1001
ACAD
1000
AcDbSavedByObjectVersion
1070
     0
  0
VISUALSTYLE
  5
4F3
102
{ACAD_XDICTIONARY
360
583
102
}
102
{ACAD_REACTORS
330
4EF
102
}
330
4EF
100
AcDbVisualStyle
  2
GouraudWithEdges
 70
     3
 71
     2
 72
     2
 73
     1
 90
        2
 40
-0.6
 41
30.0
 62
     5
 63
     7
421
 16777215
 74
     1
 91
        0
 64
     7
 65
   257
 75
     1
175
     1
 42
1.0
 92
        0
 66
   257
 43
1.0
 76
     1
 77
     6
 78
     2
 67
     7
 79
     5
170
     0
171
     0
290
     0
174
     0
 93
       13
 44
0.0
173
     0
291
     1
 45
0.0
1001
ACAD
1000
AcDbSavedByObjectVersion
1070
     0
  0
VISUALSTYLE
  5
4F7
102
{ACAD_XDICTIONARY
360
58B
102
}
102
{ACAD_REACTORS
330
4EF
102
}
330
4EF
100
AcDbVisualStyle
  2
Hidden
 70
     6
 71
     1
 72
     2
 73
     2
 90
        0
 40
-0.6
 41
-30.0
 62
     5
 63
     7
421
 16777215
 74
     2
 91
        2
 64
     7
 65
   257
 75
     2
175
     1
 42
40.0
 92
        0
 66
   257
 43
1.0
 76
     1
 77
     6
 78
     2
 67
     7
 79
     3
170
     0
171
     0
290
     0
174
     0
 93
        1
 44
0.0
173
     0
291
     0
 45
0.0
1001
ACAD
1000
AcDbSavedByObjectVersion
1070
     0
  0
VISUALSTYLE
  5
505
102
{ACAD_XDICTIONARY
360
5A7
102
}
102
{ACAD_REACTORS
330
4EF
102
}
330
4EF
100
AcDbVisualStyle
  2
JitterOff
 70
    20
 71
     2
 72
     2
 73
     0
 90
        0
 40
-0.6
 41
-30.0
 62
     5
 63
     7
421
 16777215
 74
     1
 91
        4
 64
     7
 65
   257
 75
     1
175
     1
 42
1.0
 92
       10
 66
     7
 43
1.0
 76
     1
 77
     6
 78
     2
 67
     7
 79
     5
170
     0
171
     0
290
     0
174
     0
 93
        1
 44
0.0
173
     0
291
     1
 45
0.0
1001
ACAD
1000
AcDbSavedByObjectVersion
1070
     0
  0
VISUALSTYLE
  5
4FD
102
{ACAD_XDICTIONARY
360
597
102
}
102
{ACAD_REACTORS
330
4EF
102
}
330
4EF
100
AcDbVisualStyle
  2
Linepattern
 70
    14
 71
     2
 72
     2
 73
     0
 90
        0
 40
-0.6
 41
-30.0
 62
     5
 63
     7
421
 16777215
 74
     1
 91
        4
 64
     7
 65
   257
 75
     7
175
     7
 42
1.0
 92
        8
 66
     7
 43
1.0
 76
     1
 77
     6
 78
     2
 67
     7
 79
     5
170
     0
171
     0
290
     0
174
     0
 93
        1
 44
0.0
173
     0
291
     1
 45
0.0
1001
ACAD
1000
AcDbSavedByObjectVersion
1070
     0
  0
VISUALSTYLE
  5
506
102
{ACAD_XDICTIONARY
360
5A9
102
}
102
{ACAD_REACTORS
330
4EF
102
}
330
4EF
100
AcDbVisualStyle
  2
OverhangOff
 70
    21
 71
     2
 72
     2
 73
     0
 90
        0
 40
-0.6
 41
-30.0
 62
     5
 63
     7
421
 16777215
 74
     1
 91
        4
 64
     7
 65
   257
 75
     1
175
     1
 42
1.0
 92
        9
 66
     7
 43
1.0
 76
     1
 77
     6
 78
     2
 67
     7
 79
     5
170
     0
171
     0
290
     0
174
     0
 93
        1
 44
0.0
173
     0
291
     1
 45
0.0
1001
ACAD
1000
AcDbSavedByObjectVersion
1070
     0
  0
VISUALSTYLE
  5
4F9
102
{ACAD_XDICTIONARY
360
58F
102
}
102
{ACAD_REACTORS
330
4EF
102
}
330
4EF
100
AcDbVisualStyle
  2
Realistic
 70
     8
 71
     2
 72
     2
 73
     0
 90
        2
 40
-0.6
 41
30.0
 62
     5
 63
     7
421
 16777215
 74
     0
 91
        0
 64
     7
 65
   257
 75
     1
175
     1
 42
1.0
 92
        8
 66
   257
 43
1.0
 76
     1
 77
     6
 78
     2
 67
     7
 79
     3
170
     0
171
     0
290
     0
174
     0
 93
       13
 44
0.0
173
     0
291
     0
 45
0.0
1001
ACAD
1000
AcDbSavedByObjectVersion
1070
     0
  0
VISUALSTYLE
  5
504
102
{ACAD_XDICTIONARY
360
5A5
102
}
102
{ACAD_REACTORS
330
4EF
102
}
330
4EF
100
AcDbVisualStyle
  2
Shaded
 70
    27
 71
     2
 72
     2
 73
     1
 90
        2
 40
-0.6
 41
30.0
 62
     5
 63
     7
421
 16777215
 74
     0
 91
        4
 64
     7
 65
   257
 75
     1
175
     1
 42
1.0
 92
        8
 66
   257
 43
1.0
 76
     1
 77
     6
 78
     2
 67
     8
425
  7895160
 79
     3
170
     0
171
     0
290
     0
174
     0
 93
        5
 44
0.0
173
     0
291
     0
 45
0.0
1001
ACAD
1000
AcDbSavedByObjectVersion
1070
     0
  0
VISUALSTYLE
  5
503
102
{ACAD_XDICTIONARY
360
5A3
102
}
102
{ACAD_REACTORS
330
4EF
102
}
330
4EF
100
AcDbVisualStyle
  2
Shaded with edges
 70
    26
 71
     2
 72
     2
 73
     1
 90
        2
 40
-0.6
 41
30.0
 62
     5
 63
     7
421
 16777215
 74
     1
 91
       10
 64
     7
 65
   257
 75
     2
175
     1
 42
1.0
 92
        8
 66
   257
 43
1.0
 76
     1
 77
     6
 78
     2
 67
     7
 79
     3
170
     0
171
     0
290
     0
174
     0
 93
        5
 44
0.0
173
     0
291
     0
 45
0.0
1001
ACAD
1000
AcDbSavedByObjectVersion
1070
     0
  0
VISUALSTYLE
  5
500
102
{ACAD_XDICTIONARY
360
59D
102
}
102
{ACAD_REACTORS
330
4EF
102
}
330
4EF
100
AcDbVisualStyle
  2
Shades of Gray
 70
    23
 71
     2
 72
     2
 73
     3
 90
        0
 40
-0.6
 41
-30.0
 62
     5
 63
     7
421
 16777215
 74
     2
 91
        2
 64
     7
 65
     7
 75
     1
175
     1
 42
40.0
 92
        8
 66
     7
 43
1.0
 76
     1
 77
     6
 78
     2
 67
     7
 79
     3
170
     0
171
     0
290
     0
174
     0
 93
        1
 44
0.0
173
     0
291
     0
 45
0.0
1001
ACAD
1000
AcDbSavedByObjectVersion
1070
     0
  0
VISUALSTYLE
  5
501
102
{ACAD_XDICTIONARY
360
59F
102
}
102
{ACAD_REACTORS
330
4EF
102
}
330
4EF
100
AcDbVisualStyle
  2
Sketchy
 70
    24
 71
     1
 72
     2
 73
     2
 90
        0
 40
-0.6
 41
-30.0
 62
     5
 63
     7
421
 16777215
 74
     2
 91
        2
 64
     7
 65
     7
 75
     1
175
     1
 42
40.0
 92
       11
 66
     7
 43
1.0
 76
     1
 77
     6
 78
     2
 67
     7
 79
     6
170
     0
171
     0
290
     0
174
     0
 93
        1
 44
0.0
173
     0
291
     0
 45
0.0
1001
ACAD
1000
AcDbSavedByObjectVersion
1070
     0
  0
VISUALSTYLE
  5
4FC
102
{ACAD_XDICTIONARY
360
595
102
}
102
{ACAD_REACTORS
330
4EF
102
}
330
4EF
100
AcDbVisualStyle
  2
Thicken
 70
    13
 71
     2
 72
     2
 73
     0
 90
        0
 40
-0.6
 41
-30.0
 62
     5
 63
     7
421
 16777215
 74
     1
 91
        4
 64
     7
 65
   257
 75
     1
175
     1
 42
1.0
 92
       12
 66
     7
 43
1.0
 76
     1
 77
     6
 78
     2
 67
     7
 79
     5
170
     0
171
     0
290
     0
174
     0
 93
        1
 44
0.0
173
     0
291
     1
 45
0.0
1001
ACAD
1000
AcDbSavedByObjectVersion
1070
     0
  0
VISUALSTYLE
  5
4F6
102
{ACAD_XDICTIONARY
360
589
102
}
102
{ACAD_REACTORS
330
4EF
102
}
330
4EF
100
AcDbVisualStyle
  2
Wireframe
 70
     5
 71
     0
 72
     2
 73
     0
 90
        0
 40
-0.6
 41
-30.0
 62
     5
 63
     7
421
 16777215
 74
     1
 91
        4
 64
     7
 65
   257
 75
     1
175
     1
 42
1.0
 92
        0
 66
   257
 43
1.0
 76
     1
 77
     6
 78
     2
 67
     7
 79
     3
170
     0
171
     0
290
     0
174
     0
 93
        1
 44
0.0
173
     0
291
     0
 45
0.0
1001
ACAD
1000
AcDbSavedByObjectVersion
1070
     0
  0
VISUALSTYLE
  5
502
102
{ACAD_XDICTIONARY
360
5A1
102
}
102
{ACAD_REACTORS
330
4EF
102
}
330
4EF
100
AcDbVisualStyle
  2
X-Ray
 70
    25
 71
     2
 72
     2
 73
     1
 90
        1
 40
0.5
 41
-30.0
 62
     5
 63
     7
421
 16777215
 74
     1
 91
        0
 64
     7
 65
   257
 75
     1
175
     1
 42
1.0
 92
        8
 66
     7
 43
1.0
 76
     1
 77
     6
 78
     2
 67
     7
 79
     3
170
     0
171
     0
290
     0
174
     0
 93
       13
 44
0.0
173
     0
291
     0
 45
0.0
1001
ACAD
1000
AcDbSavedByObjectVersion
1070
     0
  0
DICTIONARYVAR
  5
56C
102
{ACAD_REACTORS
330
567
102
}
330
567
100
DictionaryVariables
280
     0
  1
1:1
  0
DICTIONARYVAR
  5
569
102
{ACAD_REACTORS
330
567
102
}
330
567
100
DictionaryVariables
280
     0
  1
STANDARD
  0
DICTIONARYVAR
  5
568
102
{ACAD_REACTORS
330
567
102
}
330
567
100
DictionaryVariables
280
     0
  1
STANDARD
  0
DICTIONARYVAR
  5
56A
102
{ACAD_REACTORS
330
567
102
}
330
567
100
DictionaryVariables
280
     0
  1
Imperial24
  0
DICTIONARYVAR
  5
56B
102
{ACAD_REACTORS
330
567
102
}
330
567
100
DictionaryVariables
280
     0
  1
Imperial24
  0
DICTIONARYVAR
  5
577
102
{ACAD_REACTORS
330
567
102
}
330
567
100
DictionaryVariables
280
     0
  1
2
  0
DICTIONARY
  5
5B2
330
522
100
AcDbDictionary
280
     1
281
     1
  3
ACAD_XREC_ROUNDTRIP
360
5B3
  0
DICTIONARY
  5
4E0
330
4DF
100
AcDbDictionary
280
     1
281
     1
  3
ACAD_XREC_ROUNDTRIP
360
57B
  3
BUMPTILE
360
4E2
  3
DIFFUSETILE
360
4E1
  3
OPACITYTILE
360
4E5
  3
REFLECTIONTILE
360
4E4
  3
REFRACTIONTILE
360
4E6
  3
SPECULARTILE
360
4E3
  0
DICTIONARY
  5
4D8
330
4D7
100
AcDbDictionary
280
     1
281
     1
  3
ACAD_XREC_ROUNDTRIP
360
57A
  3
BUMPTILE
360
4DA
  3
DIFFUSETILE
360
4D9
  3
OPACITYTILE
360
4DD
  3
REFLECTIONTILE
360
4DC
  3
REFRACTIONTILE
360
4DE
  3
SPECULARTILE
360
4DB
  0
DICTIONARY
  5
4E8
330
4E7
100
AcDbDictionary
280
     1
281
     1
  3
ACAD_XREC_ROUNDTRIP
360
57C
  3
BUMPTILE
360
4EA
  3
DIFFUSETILE
360
4E9
  3
OPACITYTILE
360
4ED
  3
REFLECTIONTILE
360
4EC
  3
REFRACTIONTILE
360
4EE
  3
SPECULARTILE
360
4EB
  0
DICTIONARY
  5
5AE
330
51E
100
AcDbDictionary
280
     1
281
     1
  3
ACAD_XREC_ROUNDTRIP
360
5AF
  0
DICTIONARY
  5
5B0
330
520
100
AcDbDictionary
280
     1
281
     1
  3
ACAD_XREC_ROUNDTRIP
360
5B1
  0
DICTIONARY
  5
529
330
50A
100
AcDbDictionary
280
     1
281
     1
  3
ACAD_ROUNDTRIP_2008_TABLESTYLE_CELLSTYLEMAP
360
578
  3
ACAD_XREC_ROUNDTRIP
360
5AD
  0
DICTIONARY
  5
587
330
4F5
100
AcDbDictionary
280
     1
281
     1
  3
ACAD_XREC_ROUNDTRIP
360
588
  0
DICTIONARY
  5
585
330
4F4
100
AcDbDictionary
280
     1
281
     1
  3
ACAD_XREC_ROUNDTRIP
360
586
  0
DICTIONARY
  5
593
330
4FB
100
AcDbDictionary
280
     1
281
     1
  3
ACAD_XREC_ROUNDTRIP
360
594
  0
DICTIONARY
  5
59B
330
4FF
100
AcDbDictionary
280
     1
281
     1
  3
ACAD_XREC_ROUNDTRIP
360
59C
  0
DICTIONARY
  5
58D
330
4F8
100
AcDbDictionary
280
     1
281
     1
  3
ACAD_XREC_ROUNDTRIP
360
58E
  0
DICTIONARY
  5
591
330
4FA
100
AcDbDictionary
280
     1
281
     1
  3
ACAD_XREC_ROUNDTRIP
360
592
  0
DICTIONARY
  5
5AB
330
507
100
AcDbDictionary
280
     1
281
     1
  3
ACAD_XREC_ROUNDTRIP
360
5AC
  0
DICTIONARY
  5
599
330
4FE
100
AcDbDictionary
280
     1
281
     1
  3
ACAD_XREC_ROUNDTRIP
360
59A
  0
DICTIONARY
  5
57D
330
4F0
100
AcDbDictionary
280
     1
281
     1
  3
ACAD_XREC_ROUNDTRIP
360
57E
  0
DICTIONARY
  5
57F
330
4F1
100
AcDbDictionary
280
     1
281
     1
  3
ACAD_XREC_ROUNDTRIP
360
580
  0
DICTIONARY
  5
581
330
4F2
100
AcDbDictionary
280
     1
281
     1
  3
ACAD_XREC_ROUNDTRIP
360
582
  0
DICTIONARY
  5
583
330
4F3
100
AcDbDictionary
280
     1
281
     1
  3
ACAD_XREC_ROUNDTRIP
360
584
  0
DICTIONARY
  5
58B
330
4F7
100
AcDbDictionary
280
     1
281
     1
  3
ACAD_XREC_ROUNDTRIP
360
58C
  0
DICTIONARY
  5
5A7
330
505
100
AcDbDictionary
280
     1
281
     1
  3
ACAD_XREC_ROUNDTRIP
360
5A8
  0
DICTIONARY
  5
597
330
4FD
100
AcDbDictionary
280
     1
281
     1
  3
ACAD_XREC_ROUNDTRIP
360
598
  0
DICTIONARY
  5
5A9
330
506
100
AcDbDictionary
280
     1
281
     1
  3
ACAD_XREC_ROUNDTRIP
360
5AA
  0
DICTIONARY
  5
58F
330
4F9
100
AcDbDictionary
280
     1
281
     1
  3
ACAD_XREC_ROUNDTRIP
360
590
  0
DICTIONARY
  5
5A5
330
504
100
AcDbDictionary
280
     1
281
     1
  3
ACAD_XREC_ROUNDTRIP
360
5A6
  0
DICTIONARY
  5
5A3
330
503
100
AcDbDictionary
280
     1
281
     1
  3
ACAD_XREC_ROUNDTRIP
360
5A4
  0
DICTIONARY
  5
59D
330
500
100
AcDbDictionary
280
     1
281
     1
  3
ACAD_XREC_ROUNDTRIP
360
59E
  0
DICTIONARY
  5
59F
330
501
100
AcDbDictionary
280
     1
281
     1
  3
ACAD_XREC_ROUNDTRIP
360
5A0
  0
DICTIONARY
  5
595
330
4FC
100
AcDbDictionary
280
     1
281
     1
  3
ACAD_XREC_ROUNDTRIP
360
596
  0
DICTIONARY
  5
589
330
4F6
100
AcDbDictionary
280
     1
281
     1
  3
ACAD_XREC_ROUNDTRIP
360
58A
  0
DICTIONARY
  5
5A1
330
502
100
AcDbDictionary
280
     1
281
     1
  3
ACAD_XREC_ROUNDTRIP
360
5A2
  0
XRECORD
  5
5B3
102
{ACAD_REACTORS
330
5B2
102
}
330
5B2
100
AcDbXrecord
280
     1
102
DISPLAYNAME
  1
Imperial24
102
FLAGS
 90
        0
  0
XRECORD
  5
57B
102
{ACAD_REACTORS
330
4E0
102
}
330
4E0
100
AcDbXrecord
280
     1
102
MATERIAL
148
0.0
149
0.0
149
0.0
 93
        0
 94
      127
282
     0
 72
     0
 77
     0
171
     0
175
     0
179
     0
273
     0
  0
XRECORD
  5
4E2
102
{ACAD_REACTORS
330
4E0
102
}
330
4E0
100
AcDbXrecord
280
     1
270
     1
271
     1
  0
XRECORD
  5
4E1
102
{ACAD_REACTORS
330
4E0
102
}
330
4E0
100
AcDbXrecord
280
     1
270
     1
271
     1
  0
XRECORD
  5
4E5
102
{ACAD_REACTORS
330
4E0
102
}
330
4E0
100
AcDbXrecord
280
     1
270
     1
271
     1
  0
XRECORD
  5
4E4
102
{ACAD_REACTORS
330
4E0
102
}
330
4E0
100
AcDbXrecord
280
     1
270
     1
271
     1
  0
XRECORD
  5
4E6
102
{ACAD_REACTORS
330
4E0
102
}
330
4E0
100
AcDbXrecord
280
     1
270
     1
271
     1
  0
XRECORD
  5
4E3
102
{ACAD_REACTORS
330
4E0
102
}
330
4E0
100
AcDbXrecord
280
     1
270
     1
271
     1
  0
XRECORD
  5
57A
102
{ACAD_REACTORS
330
4D8
102
}
330
4D8
100
AcDbXrecord
280
     1
102
MATERIAL
148
0.0
149
0.0
149
0.0
 93
        0
 94
      127
282
     0
 72
     0
 77
     0
171
     0
175
     0
179
     0
273
     0
  0
XRECORD
  5
4DA
102
{ACAD_REACTORS
330
4D8
102
}
330
4D8
100
AcDbXrecord
280
     1
270
     1
271
     1
  0
XRECORD
  5
4D9
102
{ACAD_REACTORS
330
4D8
102
}
330
4D8
100
AcDbXrecord
280
     1
270
     1
271
     1
  0
XRECORD
  5
4DD
102
{ACAD_REACTORS
330
4D8
102
}
330
4D8
100
AcDbXrecord
280
     1
270
     1
271
     1
  0
XRECORD
  5
4DC
102
{ACAD_REACTORS
330
4D8
102
}
330
4D8
100
AcDbXrecord
280
     1
270
     1
271
     1
  0
XRECORD
  5
4DE
102
{ACAD_REACTORS
330
4D8
102
}
330
4D8
100
AcDbXrecord
280
     1
270
     1
271
     1
  0
XRECORD
  5
4DB
102
{ACAD_REACTORS
330
4D8
102
}
330
4D8
100
AcDbXrecord
280
     1
270
     1
271
     1
  0
XRECORD
  5
57C
102
{ACAD_REACTORS
330
4E8
102
}
330
4E8
100
AcDbXrecord
280
     1
102
MATERIAL
148
0.0
149
0.0
149
0.0
 93
        0
 94
      127
282
     0
 72
     0
 77
     0
171
     0
175
     0
179
     0
273
     0
  0
XRECORD
  5
4EA
102
{ACAD_REACTORS
330
4E8
102
}
330
4E8
100
AcDbXrecord
280
     1
270
     1
271
     1
  0
XRECORD
  5
4E9
102
{ACAD_REACTORS
330
4E8
102
}
330
4E8
100
AcDbXrecord
280
     1
270
     1
271
     1
  0
XRECORD
  5
4ED
102
{ACAD_REACTORS
330
4E8
102
}
330
4E8
100
AcDbXrecord
280
     1
270
     1
271
     1
  0
XRECORD
  5
4EC
102
{ACAD_REACTORS
330
4E8
102
}
330
4E8
100
AcDbXrecord
280
     1
270
     1
271
     1
  0
XRECORD
  5
4EE
102
{ACAD_REACTORS
330
4E8
102
}
330
4E8
100
AcDbXrecord
280
     1
270
     1
271
     1
  0
XRECORD
  5
4EB
102
{ACAD_REACTORS
330
4E8
102
}
330
4E8
100
AcDbXrecord
280
     1
270
     1
271
     1
  0
XRECORD
  5
5AF
102
{ACAD_REACTORS
330
5AE
102
}
330
5AE
100
AcDbXrecord
280
     1
102
ACAD_ROUNDTRIP_2012_MLEADER_STYLE
298
     1
  0
XRECORD
  5
5B1
102
{ACAD_REACTORS
330
5B0
102
}
330
5B0
100
AcDbXrecord
280
     1
102
DISPLAYNAME
  1
Imperial24
102
FLAGS
 90
        0
  0
CELLSTYLEMAP
  5
578
102
{ACAD_REACTORS
330
529
102
}
330
529
100
AcDbCellStyleMap
 90
        3
300
CELLSTYLE
  1
TABLEFORMAT_BEGIN
 90
        5
170
     1
 91
        0
 92
    32768
 62
   257
 93
        1
300
CONTENTFORMAT
  1
CONTENTFORMAT_BEGIN
 90
        0
 91
        0
 92
      512
 93
        0
300

 40
0.0
140
1.0
 94
        5
 62
     0
340
C
144
0.25
309
CONTENTFORMAT_END
171
     0
 94
        0
309
TABLEFORMAT_END
  1
CELLSTYLE_BEGIN
 90
        1
 91
        1
300
_TITLE
309
CELLSTYLE_END
300
CELLSTYLE
  1
TABLEFORMAT_BEGIN
 90
        5
170
     1
 91
        0
 92
        0
 62
   257
 93
        1
300
CONTENTFORMAT
  1
CONTENTFORMAT_BEGIN
 90
        0
 91
        0
 92
      512
 93
        0
300

 40
0.0
140
1.0
 94
        5
 62
     0
340
C
144
0.18
309
CONTENTFORMAT_END
171
     0
 94
        0
309
TABLEFORMAT_END
  1
CELLSTYLE_BEGIN
 90
        2
 91
        1
300
_HEADER
309
CELLSTYLE_END
300
CELLSTYLE
  1
TABLEFORMAT_BEGIN
 90
        5
170
     1
 91
        0
 92
        0
 62
   257
 93
        1
300
CONTENTFORMAT
  1
CONTENTFORMAT_BEGIN
 90
        0
 91
        0
 92
      512
 93
        0
300

 40
0.0
140
1.0
 94
        2
 62
     0
340
C
144
0.18
309
CONTENTFORMAT_END
171
     0
 94
        0
309
TABLEFORMAT_END
  1
CELLSTYLE_BEGIN
 90
        3
 91
        2
300
_DATA
309
CELLSTYLE_END
  0
XRECORD
  5
5AD
102
{ACAD_REACTORS
330
529
102
}
330
529
100
AcDbXrecord
280
     1
102
ACAD_ROUNDTRIP_PRE2007_TABLESTYLE
 90
      512
 91
        0
  1

 92
      512
 93
        0
  2

 94
      512
 95
        0
  3

  0
XRECORD
  5
588
102
{ACAD_REACTORS
330
587
102
}
330
587
100
AcDbXrecord
280
     1
102
RTVSPost2010Prop28
280
     1
102
RTVSPost2010PropOp28
 70
     1
102
RTVSPost2010Prop29
280
     1
102
RTVSPost2010PropOp29
 70
     1
102
RTVSPost2010Prop30
280
     0
102
RTVSPost2010PropOp30
 70
     1
102
RTVSPost2010Prop31
280
     0
102
RTVSPost2010PropOp31
 70
     1
102
RTVSPost2010Prop32
280
     0
102
RTVSPost2010PropOp32
 70
     1
102
RTVSPost2010Prop33
280
     0
102
RTVSPost2010PropOp33
 70
     1
102
RTVSPost2010Prop34
280
     0
102
RTVSPost2010PropOp34
 70
     1
102
RTVSPost2010Prop35
280
     0
102
RTVSPost2010PropOp35
 70
     1
102
RTVSPost2010Prop36
280
     0
102
RTVSPost2010PropOp36
 70
     1
102
RTVSPost2010Prop37
 90
       50
102
RTVSPost2010PropOp37
 70
     1
102
RTVSPost2010Prop38
140
0.0
102
RTVSPost2010PropOp38
 70
     1
102
RTVSPost2010Prop39
140
1.0
102
RTVSPost2010PropOp39
 70
     1
102
RTVSPost2010Prop40
 90
        0
102
RTVSPost2010PropOp40
 70
     1
102
RTVSPost2010Prop41ColorIndex
 90
       18
102
RTVSPost2010Prop41ColorRGB
 90
        0
102
RTVSPost2010PropOp41
 70
     1
102
RTVSPost2010Prop42
 90
       50
102
RTVSPost2010PropOp42
 70
     1
102
RTVSPost2010Prop43
 90
        3
102
RTVSPost2010PropOp43
 70
     1
102
RTVSPost2010Prop44ColorIndex
 90
        5
102
RTVSPost2010Prop44ColorRGB
 90
      255
102
RTVSPost2010PropOp44
 70
     1
102
RTVSPost2010Prop45
280
     0
102
RTVSPost2010PropOp45
 70
     1
102
RTVSPost2010Prop46
 90
       50
102
RTVSPost2010PropOp46
 70
     1
102
RTVSPost2010Prop47
 90
       50
102
RTVSPost2010PropOp47
 70
     1
102
RTVSPost2010Prop48
 90
       50
102
RTVSPost2010PropOp48
 70
     1
102
RTVSPost2010Prop49
280
     0
102
RTVSPost2010PropOp49
 70
     1
102
RTVSPost2010Prop50
 90
       50
102
RTVSPost2010PropOp50
 70
     1
102
RTVSPost2010Prop51ColorIndex
 90
      256
102
RTVSPost2010Prop51ColorRGB
 90
-16777216
102
RTVSPost2010PropOp51
 70
     0
102
RTVSPost2010Prop52
140
1.0
102
RTVSPost2010PropOp52
 70
     0
102
RTVSPost2010Prop53
 90
        2
102
RTVSPost2010PropOp53
 70
     1
102
RTVSPost2010Prop54
  1
strokes_ogs.tif
102
RTVSPost2010PropOp54
 70
     1
102
RTVSPost2010Prop55
280
     0
102
RTVSPost2010PropOp55
 70
     1
102
RTVSPost2010Prop56
140
1.0
102
RTVSPost2010PropOp56
 70
     1
102
RTVSPost2010Prop57
140
1.0
102
RTVSPost2010PropOp57
 70
     1
102
RTVSPropertyOp0
 70
     1
102
RTVSPropertyOp1
 70
     1
102
RTVSPropertyOp2
 70
     1
102
RTVSPropertyOp3
 70
     1
102
RTVSPropertyOp4
 70
     1
102
RTVSPropertyOp5
 70
     1
102
RTVSPropertyOp6
 70
     1
102
RTVSPropertyOp7
 70
     1
102
RTVSPropertyOp8
 70
     1
102
RTVSPropertyOp9
 70
     1
102
RTVSPropertyOp10
 70
     1
102
RTVSPropertyOp11
 70
     1
102
RTVSPropertyOp12
 70
     1
102
RTVSPropertyOp13
 70
     1
102
RTVSPropertyOp14
 70
     1
102
RTVSPropertyOp15
 70
     1
102
RTVSPropertyOp16
 70
     1
102
RTVSPropertyOp17
 70
     1
102
RTVSPropertyOp18
 70
     1
102
RTVSPropertyOp19
 70
     1
102
RTVSPropertyOp20
 70
     1
102
RTVSPropertyOp21
 70
     1
102
RTVSPropertyOp22
 70
     1
102
RTVSPropertyOp23
 70
     1
102
RTVSPropertyOp24
 70
     1
102
RTVSPropertyOp25
 70
     1
102
RTVSPropertyOp26
 70
     1
102
RTVSPropertyOp27
 70
     1
102
RTVSPropertyOp28
 70
     1
102
RTVSPropertyOp29
 70
     1
102
RTVSPropertyOp30
 70
     1
102
RTVSPropertyOp31
 70
     1
102
RTVSPropertyOp32
 70
     1
102
RTVSPropertyOp33
 70
     1
102
RTVSPropertyOp34
 70
     1
102
RTVSPropertyOp35
 70
     1
102
RTVSPropertyOp36
 70
     1
102
RTVSPropertyOp37
 70
     1
102
RTVSPropertyOp38
 70
     1
102
RTVSPropertyOp39
 70
     1
102
RTVSPropertyOp40
 70
     1
102
RTVSPropertyOp41
 70
     1
102
RTVSPropertyOp42
 70
     1
102
RTVSPropertyOp43
 70
     1
102
RTVSPropertyOp44
 70
     1
102
RTVSPropertyOp45
 70
     1
102
RTVSPropertyOp46
 70
     1
102
RTVSPropertyOp47
 70
     1
102
RTVSPropertyOp48
 70
     1
102
RTVSPropertyOp49
 70
     1
102
RTVSPropertyOp50
 70
     1
102
RTVSPropertyOp51
 70
     0
102
RTVSPropertyOp52
 70
     0
102
RTVSPropertyOp53
 70
     1
102
RTVSPropertyOp54
 70
     1
102
RTVSPropertyOp55
 70
     1
102
RTVSPropertyOp56
 70
     1
102
RTVSPropertyOp57
 70
     1
102
RTVSPropertyOp58
 70
     1
102
RTVSPropertyOp59
 70
     1
102
RTVSPropertyOp60
 70
     1
102
RTVSPropertyOp61
 70
     1
102
RTVSPropertyOp62
 70
     1
  0
XRECORD
  5
586
102
{ACAD_REACTORS
330
585
102
}
330
585
100
AcDbXrecord
280
     1
102
RTVSPost2010Prop28
280
     0
102
RTVSPost2010PropOp28
 70
     1
102
RTVSPost2010Prop29
280
     1
102
RTVSPost2010PropOp29
 70
     1
102
RTVSPost2010Prop30
280
     1
102
RTVSPost2010PropOp30
 70
     1
102
RTVSPost2010Prop31
280
     0
102
RTVSPost2010PropOp31
 70
     1
102
RTVSPost2010Prop32
280
     0
102
RTVSPost2010PropOp32
 70
     1
102
RTVSPost2010Prop33
280
     0
102
RTVSPost2010PropOp33
 70
     1
102
RTVSPost2010Prop34
280
     0
102
RTVSPost2010PropOp34
 70
     1
102
RTVSPost2010Prop35
280
     0
102
RTVSPost2010PropOp35
 70
     1
102
RTVSPost2010Prop36
280
     0
102
RTVSPost2010PropOp36
 70
     1
102
RTVSPost2010Prop37
 90
       50
102
RTVSPost2010PropOp37
 70
     1
102
RTVSPost2010Prop38
140
0.0
102
RTVSPost2010PropOp38
 70
     1
102
RTVSPost2010Prop39
140
1.0
102
RTVSPost2010PropOp39
 70
     1
102
RTVSPost2010Prop40
 90
        0
102
RTVSPost2010PropOp40
 70
     1
102
RTVSPost2010Prop41ColorIndex
 90
       18
102
RTVSPost2010Prop41ColorRGB
 90
        0
102
RTVSPost2010PropOp41
 70
     1
102
RTVSPost2010Prop42
 90
       50
102
RTVSPost2010PropOp42
 70
     1
102
RTVSPost2010Prop43
 90
        3
102
RTVSPost2010PropOp43
 70
     1
102
RTVSPost2010Prop44ColorIndex
 90
        5
102
RTVSPost2010Prop44ColorRGB
 90
      255
102
RTVSPost2010PropOp44
 70
     1
102
RTVSPost2010Prop45
280
     0
102
RTVSPost2010PropOp45
 70
     1
102
RTVSPost2010Prop46
 90
       50
102
RTVSPost2010PropOp46
 70
     1
102
RTVSPost2010Prop47
 90
       50
102
RTVSPost2010PropOp47
 70
     1
102
RTVSPost2010Prop48
 90
       50
102
RTVSPost2010PropOp48
 70
     1
102
RTVSPost2010Prop49
280
     0
102
RTVSPost2010PropOp49
 70
     1
102
RTVSPost2010Prop50
 90
       50
102
RTVSPost2010PropOp50
 70
     1
102
RTVSPost2010Prop51ColorIndex
 90
      256
102
RTVSPost2010Prop51ColorRGB
 90
-16777216
102
RTVSPost2010PropOp51
 70
     0
102
RTVSPost2010Prop52
140
1.0
102
RTVSPost2010PropOp52
 70
     0
102
RTVSPost2010Prop53
 90
        2
102
RTVSPost2010PropOp53
 70
     1
102
RTVSPost2010Prop54
  1
strokes_ogs.tif
102
RTVSPost2010PropOp54
 70
     1
102
RTVSPost2010Prop55
280
     0
102
RTVSPost2010PropOp55
 70
     1
102
RTVSPost2010Prop56
140
1.0
102
RTVSPost2010PropOp56
 70
     1
102
RTVSPost2010Prop57
140
1.0
102
RTVSPost2010PropOp57
 70
     1
102
RTVSPropertyOp0
 70
     1
102
RTVSPropertyOp1
 70
     1
102
RTVSPropertyOp2
 70
     1
102
RTVSPropertyOp3
 70
     1
102
RTVSPropertyOp4
 70
     1
102
RTVSPropertyOp5
 70
     1
102
RTVSPropertyOp6
 70
     1
102
RTVSPropertyOp7
 70
     1
102
RTVSPropertyOp8
 70
     1
102
RTVSPropertyOp9
 70
     1
102
RTVSPropertyOp10
 70
     1
102
RTVSPropertyOp11
 70
     1
102
RTVSPropertyOp12
 70
     1
102
RTVSPropertyOp13
 70
     1
102
RTVSPropertyOp14
 70
     1
102
RTVSPropertyOp15
 70
     1
102
RTVSPropertyOp16
 70
     1
102
RTVSPropertyOp17
 70
     1
102
RTVSPropertyOp18
 70
     1
102
RTVSPropertyOp19
 70
     1
102
RTVSPropertyOp20
 70
     1
102
RTVSPropertyOp21
 70
     1
102
RTVSPropertyOp22
 70
     1
102
RTVSPropertyOp23
 70
     1
102
RTVSPropertyOp24
 70
     1
102
RTVSPropertyOp25
 70
     1
102
RTVSPropertyOp26
 70
     1
102
RTVSPropertyOp27
 70
     1
102
RTVSPropertyOp28
 70
     1
102
RTVSPropertyOp29
 70
     1
102
RTVSPropertyOp30
 70
     1
102
RTVSPropertyOp31
 70
     1
102
RTVSPropertyOp32
 70
     1
102
RTVSPropertyOp33
 70
     1
102
RTVSPropertyOp34
 70
     1
102
RTVSPropertyOp35
 70
     1
102
RTVSPropertyOp36
 70
     1
102
RTVSPropertyOp37
 70
     1
102
RTVSPropertyOp38
 70
     1
102
RTVSPropertyOp39
 70
     1
102
RTVSPropertyOp40
 70
     1
102
RTVSPropertyOp41
 70
     1
102
RTVSPropertyOp42
 70
     1
102
RTVSPropertyOp43
 70
     1
102
RTVSPropertyOp44
 70
     1
102
RTVSPropertyOp45
 70
     1
102
RTVSPropertyOp46
 70
     1
102
RTVSPropertyOp47
 70
     1
102
RTVSPropertyOp48
 70
     1
102
RTVSPropertyOp49
 70
     1
102
RTVSPropertyOp50
 70
     1
102
RTVSPropertyOp51
 70
     0
102
RTVSPropertyOp52
 70
     0
102
RTVSPropertyOp53
 70
     1
102
RTVSPropertyOp54
 70
     1
102
RTVSPropertyOp55
 70
     1
102
RTVSPropertyOp56
 70
     1
102
RTVSPropertyOp57
 70
     1
102
RTVSPropertyOp58
 70
     1
102
RTVSPropertyOp59
 70
     1
102
RTVSPropertyOp60
 70
     1
102
RTVSPropertyOp61
 70
     1
102
RTVSPropertyOp62
 70
     1
  0
XRECORD
  5
594
102
{ACAD_REACTORS
330
593
102
}
330
593
100
AcDbXrecord
280
     1
102
RTVSPost2010Prop28
280
     0
102
RTVSPost2010PropOp28
 70
     1
102
RTVSPost2010Prop29
280
     1
102
RTVSPost2010PropOp29
 70
     1
102
RTVSPost2010Prop30
280
     1
102
RTVSPost2010PropOp30
 70
     1
102
RTVSPost2010Prop31
280
     0
102
RTVSPost2010PropOp31
 70
     1
102
RTVSPost2010Prop32
280
     0
102
RTVSPost2010PropOp32
 70
     1
102
RTVSPost2010Prop33
280
     0
102
RTVSPost2010PropOp33
 70
     1
102
RTVSPost2010Prop34
280
     0
102
RTVSPost2010PropOp34
 70
     1
102
RTVSPost2010Prop35
280
     0
102
RTVSPost2010PropOp35
 70
     1
102
RTVSPost2010Prop36
280
     0
102
RTVSPost2010PropOp36
 70
     1
102
RTVSPost2010Prop37
 90
       50
102
RTVSPost2010PropOp37
 70
     1
102
RTVSPost2010Prop38
140
0.0
102
RTVSPost2010PropOp38
 70
     1
102
RTVSPost2010Prop39
140
1.0
102
RTVSPost2010PropOp39
 70
     1
102
RTVSPost2010Prop40
 90
        0
102
RTVSPost2010PropOp40
 70
     1
102
RTVSPost2010Prop41ColorIndex
 90
       18
102
RTVSPost2010Prop41ColorRGB
 90
        0
102
RTVSPost2010PropOp41
 70
     1
102
RTVSPost2010Prop42
 90
       50
102
RTVSPost2010PropOp42
 70
     1
102
RTVSPost2010Prop43
 90
        3
102
RTVSPost2010PropOp43
 70
     1
102
RTVSPost2010Prop44ColorIndex
 90
        5
102
RTVSPost2010Prop44ColorRGB
 90
      255
102
RTVSPost2010PropOp44
 70
     1
102
RTVSPost2010Prop45
280
     0
102
RTVSPost2010PropOp45
 70
     1
102
RTVSPost2010Prop46
 90
       50
102
RTVSPost2010PropOp46
 70
     1
102
RTVSPost2010Prop47
 90
       50
102
RTVSPost2010PropOp47
 70
     1
102
RTVSPost2010Prop48
 90
       50
102
RTVSPost2010PropOp48
 70
     1
102
RTVSPost2010Prop49
280
     0
102
RTVSPost2010PropOp49
 70
     1
102
RTVSPost2010Prop50
 90
       50
102
RTVSPost2010PropOp50
 70
     1
102
RTVSPost2010Prop51ColorIndex
 90
      256
102
RTVSPost2010Prop51ColorRGB
 90
-16777216
102
RTVSPost2010PropOp51
 70
     0
102
RTVSPost2010Prop52
140
1.0
102
RTVSPost2010PropOp52
 70
     0
102
RTVSPost2010Prop53
 90
        2
102
RTVSPost2010PropOp53
 70
     1
102
RTVSPost2010Prop54
  1
strokes_ogs.tif
102
RTVSPost2010PropOp54
 70
     1
102
RTVSPost2010Prop55
280
     0
102
RTVSPost2010PropOp55
 70
     1
102
RTVSPost2010Prop56
140
1.0
102
RTVSPost2010PropOp56
 70
     1
102
RTVSPost2010Prop57
140
1.0
102
RTVSPost2010PropOp57
 70
     1
102
RTVSPropertyOp0
 70
     1
102
RTVSPropertyOp1
 70
     1
102
RTVSPropertyOp2
 70
     1
102
RTVSPropertyOp3
 70
     1
102
RTVSPropertyOp4
 70
     1
102
RTVSPropertyOp5
 70
     1
102
RTVSPropertyOp6
 70
     1
102
RTVSPropertyOp7
 70
     1
102
RTVSPropertyOp8
 70
     1
102
RTVSPropertyOp9
 70
     1
102
RTVSPropertyOp10
 70
     1
102
RTVSPropertyOp11
 70
     1
102
RTVSPropertyOp12
 70
     1
102
RTVSPropertyOp13
 70
     1
102
RTVSPropertyOp14
 70
     1
102
RTVSPropertyOp15
 70
     1
102
RTVSPropertyOp16
 70
     1
102
RTVSPropertyOp17
 70
     1
102
RTVSPropertyOp18
 70
     1
102
RTVSPropertyOp19
 70
     1
102
RTVSPropertyOp20
 70
     1
102
RTVSPropertyOp21
 70
     1
102
RTVSPropertyOp22
 70
     1
102
RTVSPropertyOp23
 70
     1
102
RTVSPropertyOp24
 70
     1
102
RTVSPropertyOp25
 70
     1
102
RTVSPropertyOp26
 70
     1
102
RTVSPropertyOp27
 70
     1
102
RTVSPropertyOp28
 70
     1
102
RTVSPropertyOp29
 70
     1
102
RTVSPropertyOp30
 70
     1
102
RTVSPropertyOp31
 70
     1
102
RTVSPropertyOp32
 70
     1
102
RTVSPropertyOp33
 70
     1
102
RTVSPropertyOp34
 70
     1
102
RTVSPropertyOp35
 70
     1
102
RTVSPropertyOp36
 70
     1
102
RTVSPropertyOp37
 70
     1
102
RTVSPropertyOp38
 70
     1
102
RTVSPropertyOp39
 70
     1
102
RTVSPropertyOp40
 70
     1
102
RTVSPropertyOp41
 70
     1
102
RTVSPropertyOp42
 70
     1
102
RTVSPropertyOp43
 70
     1
102
RTVSPropertyOp44
 70
     1
102
RTVSPropertyOp45
 70
     1
102
RTVSPropertyOp46
 70
     1
102
RTVSPropertyOp47
 70
     1
102
RTVSPropertyOp48
 70
     1
102
RTVSPropertyOp49
 70
     1
102
RTVSPropertyOp50
 70
     1
102
RTVSPropertyOp51
 70
     0
102
RTVSPropertyOp52
 70
     0
102
RTVSPropertyOp53
 70
     1
102
RTVSPropertyOp54
 70
     1
102
RTVSPropertyOp55
 70
     1
102
RTVSPropertyOp56
 70
     1
102
RTVSPropertyOp57
 70
     1
102
RTVSPropertyOp58
 70
     1
102
RTVSPropertyOp59
 70
     1
102
RTVSPropertyOp60
 70
     1
102
RTVSPropertyOp61
 70
     1
102
RTVSPropertyOp62
 70
     1
  0
XRECORD
  5
59C
102
{ACAD_REACTORS
330
59B
102
}
330
59B
100
AcDbXrecord
280
     1
102
RTVSPost2010Prop28
280
     0
102
RTVSPost2010PropOp28
 70
     1
102
RTVSPost2010Prop29
280
     1
102
RTVSPost2010PropOp29
 70
     1
102
RTVSPost2010Prop30
280
     1
102
RTVSPost2010PropOp30
 70
     1
102
RTVSPost2010Prop31
280
     0
102
RTVSPost2010PropOp31
 70
     1
102
RTVSPost2010Prop32
280
     0
102
RTVSPost2010PropOp32
 70
     1
102
RTVSPost2010Prop33
280
     0
102
RTVSPost2010PropOp33
 70
     1
102
RTVSPost2010Prop34
280
     0
102
RTVSPost2010PropOp34
 70
     1
102
RTVSPost2010Prop35
280
     0
102
RTVSPost2010PropOp35
 70
     1
102
RTVSPost2010Prop36
280
     0
102
RTVSPost2010PropOp36
 70
     1
102
RTVSPost2010Prop37
 90
       50
102
RTVSPost2010PropOp37
 70
     1
102
RTVSPost2010Prop38
140
0.0
102
RTVSPost2010PropOp38
 70
     1
102
RTVSPost2010Prop39
140
1.0
102
RTVSPost2010PropOp39
 70
     1
102
RTVSPost2010Prop40
 90
        0
102
RTVSPost2010PropOp40
 70
     1
102
RTVSPost2010Prop41ColorIndex
 90
       18
102
RTVSPost2010Prop41ColorRGB
 90
        0
102
RTVSPost2010PropOp41
 70
     1
102
RTVSPost2010Prop42
 90
       50
102
RTVSPost2010PropOp42
 70
     1
102
RTVSPost2010Prop43
 90
        3
102
RTVSPost2010PropOp43
 70
     1
102
RTVSPost2010Prop44ColorIndex
 90
        5
102
RTVSPost2010Prop44ColorRGB
 90
      255
102
RTVSPost2010PropOp44
 70
     1
102
RTVSPost2010Prop45
280
     0
102
RTVSPost2010PropOp45
 70
     1
102
RTVSPost2010Prop46
 90
       50
102
RTVSPost2010PropOp46
 70
     1
102
RTVSPost2010Prop47
 90
       50
102
RTVSPost2010PropOp47
 70
     1
102
RTVSPost2010Prop48
 90
       50
102
RTVSPost2010PropOp48
 70
     1
102
RTVSPost2010Prop49
280
     0
102
RTVSPost2010PropOp49
 70
     1
102
RTVSPost2010Prop50
 90
       50
102
RTVSPost2010PropOp50
 70
     1
102
RTVSPost2010Prop51ColorIndex
 90
      256
102
RTVSPost2010Prop51ColorRGB
 90
-16777216
102
RTVSPost2010PropOp51
 70
     0
102
RTVSPost2010Prop52
140
1.0
102
RTVSPost2010PropOp52
 70
     0
102
RTVSPost2010Prop53
 90
        2
102
RTVSPost2010PropOp53
 70
     1
102
RTVSPost2010Prop54
  1
strokes_ogs.tif
102
RTVSPost2010PropOp54
 70
     1
102
RTVSPost2010Prop55
280
     0
102
RTVSPost2010PropOp55
 70
     1
102
RTVSPost2010Prop56
140
1.0
102
RTVSPost2010PropOp56
 70
     1
102
RTVSPost2010Prop57
140
1.0
102
RTVSPost2010PropOp57
 70
     1
102
RTVSPropertyOp0
 70
     1
102
RTVSPropertyOp1
 70
     1
102
RTVSPropertyOp2
 70
     1
102
RTVSPropertyOp3
 70
     1
102
RTVSPropertyOp4
 70
     1
102
RTVSPropertyOp5
 70
     1
102
RTVSPropertyOp6
 70
     1
102
RTVSPropertyOp7
 70
     1
102
RTVSPropertyOp8
 70
     1
102
RTVSPropertyOp9
 70
     1
102
RTVSPropertyOp10
 70
     1
102
RTVSPropertyOp11
 70
     1
102
RTVSPropertyOp12
 70
     1
102
RTVSPropertyOp13
 70
     1
102
RTVSPropertyOp14
 70
     1
102
RTVSPropertyOp15
 70
     1
102
RTVSPropertyOp16
 70
     1
102
RTVSPropertyOp17
 70
     1
102
RTVSPropertyOp18
 70
     1
102
RTVSPropertyOp19
 70
     1
102
RTVSPropertyOp20
 70
     1
102
RTVSPropertyOp21
 70
     1
102
RTVSPropertyOp22
 70
     1
102
RTVSPropertyOp23
 70
     1
102
RTVSPropertyOp24
 70
     1
102
RTVSPropertyOp25
 70
     1
102
RTVSPropertyOp26
 70
     1
102
RTVSPropertyOp27
 70
     1
102
RTVSPropertyOp28
 70
     1
102
RTVSPropertyOp29
 70
     1
102
RTVSPropertyOp30
 70
     1
102
RTVSPropertyOp31
 70
     1
102
RTVSPropertyOp32
 70
     1
102
RTVSPropertyOp33
 70
     1
102
RTVSPropertyOp34
 70
     1
102
RTVSPropertyOp35
 70
     1
102
RTVSPropertyOp36
 70
     1
102
RTVSPropertyOp37
 70
     1
102
RTVSPropertyOp38
 70
     1
102
RTVSPropertyOp39
 70
     1
102
RTVSPropertyOp40
 70
     1
102
RTVSPropertyOp41
 70
     1
102
RTVSPropertyOp42
 70
     1
102
RTVSPropertyOp43
 70
     1
102
RTVSPropertyOp44
 70
     1
102
RTVSPropertyOp45
 70
     1
102
RTVSPropertyOp46
 70
     1
102
RTVSPropertyOp47
 70
     1
102
RTVSPropertyOp48
 70
     1
102
RTVSPropertyOp49
 70
     1
102
RTVSPropertyOp50
 70
     1
102
RTVSPropertyOp51
 70
     0
102
RTVSPropertyOp52
 70
     0
102
RTVSPropertyOp53
 70
     1
102
RTVSPropertyOp54
 70
     1
102
RTVSPropertyOp55
 70
     1
102
RTVSPropertyOp56
 70
     1
102
RTVSPropertyOp57
 70
     1
102
RTVSPropertyOp58
 70
     1
102
RTVSPropertyOp59
 70
     1
102
RTVSPropertyOp60
 70
     1
102
RTVSPropertyOp61
 70
     1
102
RTVSPropertyOp62
 70
     1
  0
XRECORD
  5
58E
102
{ACAD_REACTORS
330
58D
102
}
330
58D
100
AcDbXrecord
280
     1
102
RTVSPost2010Prop28
280
     0
102
RTVSPost2010PropOp28
 70
     1
102
RTVSPost2010Prop29
280
     1
102
RTVSPost2010PropOp29
 70
     1
102
RTVSPost2010Prop30
280
     1
102
RTVSPost2010PropOp30
 70
     1
102
RTVSPost2010Prop31
280
     0
102
RTVSPost2010PropOp31
 70
     1
102
RTVSPost2010Prop32
280
     0
102
RTVSPost2010PropOp32
 70
     1
102
RTVSPost2010Prop33
280
     0
102
RTVSPost2010PropOp33
 70
     1
102
RTVSPost2010Prop34
280
     0
102
RTVSPost2010PropOp34
 70
     1
102
RTVSPost2010Prop35
280
     0
102
RTVSPost2010PropOp35
 70
     1
102
RTVSPost2010Prop36
280
     0
102
RTVSPost2010PropOp36
 70
     1
102
RTVSPost2010Prop37
 90
       50
102
RTVSPost2010PropOp37
 70
     1
102
RTVSPost2010Prop38
140
0.0
102
RTVSPost2010PropOp38
 70
     1
102
RTVSPost2010Prop39
140
1.0
102
RTVSPost2010PropOp39
 70
     1
102
RTVSPost2010Prop40
 90
        0
102
RTVSPost2010PropOp40
 70
     1
102
RTVSPost2010Prop41ColorIndex
 90
       18
102
RTVSPost2010Prop41ColorRGB
 90
        0
102
RTVSPost2010PropOp41
 70
     1
102
RTVSPost2010Prop42
 90
       50
102
RTVSPost2010PropOp42
 70
     1
102
RTVSPost2010Prop43
 90
        3
102
RTVSPost2010PropOp43
 70
     1
102
RTVSPost2010Prop44ColorIndex
 90
        5
102
RTVSPost2010Prop44ColorRGB
 90
      255
102
RTVSPost2010PropOp44
 70
     1
102
RTVSPost2010Prop45
280
     0
102
RTVSPost2010PropOp45
 70
     1
102
RTVSPost2010Prop46
 90
       50
102
RTVSPost2010PropOp46
 70
     1
102
RTVSPost2010Prop47
 90
       50
102
RTVSPost2010PropOp47
 70
     1
102
RTVSPost2010Prop48
 90
       50
102
RTVSPost2010PropOp48
 70
     1
102
RTVSPost2010Prop49
280
     0
102
RTVSPost2010PropOp49
 70
     1
102
RTVSPost2010Prop50
 90
       50
102
RTVSPost2010PropOp50
 70
     1
102
RTVSPost2010Prop51ColorIndex
 90
      256
102
RTVSPost2010Prop51ColorRGB
 90
-16777216
102
RTVSPost2010PropOp51
 70
     0
102
RTVSPost2010Prop52
140
1.0
102
RTVSPost2010PropOp52
 70
     0
102
RTVSPost2010Prop53
 90
        2
102
RTVSPost2010PropOp53
 70
     1
102
RTVSPost2010Prop54
  1
strokes_ogs.tif
102
RTVSPost2010PropOp54
 70
     1
102
RTVSPost2010Prop55
280
     0
102
RTVSPost2010PropOp55
 70
     1
102
RTVSPost2010Prop56
140
1.0
102
RTVSPost2010PropOp56
 70
     1
102
RTVSPost2010Prop57
140
1.0
102
RTVSPost2010PropOp57
 70
     1
102
RTVSPropertyOp0
 70
     1
102
RTVSPropertyOp1
 70
     1
102
RTVSPropertyOp2
 70
     1
102
RTVSPropertyOp3
 70
     1
102
RTVSPropertyOp4
 70
     1
102
RTVSPropertyOp5
 70
     1
102
RTVSPropertyOp6
 70
     1
102
RTVSPropertyOp7
 70
     1
102
RTVSPropertyOp8
 70
     1
102
RTVSPropertyOp9
 70
     1
102
RTVSPropertyOp10
 70
     1
102
RTVSPropertyOp11
 70
     1
102
RTVSPropertyOp12
 70
     1
102
RTVSPropertyOp13
 70
     1
102
RTVSPropertyOp14
 70
     1
102
RTVSPropertyOp15
 70
     1
102
RTVSPropertyOp16
 70
     1
102
RTVSPropertyOp17
 70
     1
102
RTVSPropertyOp18
 70
     1
102
RTVSPropertyOp19
 70
     1
102
RTVSPropertyOp20
 70
     1
102
RTVSPropertyOp21
 70
     1
102
RTVSPropertyOp22
 70
     1
102
RTVSPropertyOp23
 70
     1
102
RTVSPropertyOp24
 70
     1
102
RTVSPropertyOp25
 70
     1
102
RTVSPropertyOp26
 70
     1
102
RTVSPropertyOp27
 70
     1
102
RTVSPropertyOp28
 70
     1
102
RTVSPropertyOp29
 70
     1
102
RTVSPropertyOp30
 70
     1
102
RTVSPropertyOp31
 70
     1
102
RTVSPropertyOp32
 70
     1
102
RTVSPropertyOp33
 70
     1
102
RTVSPropertyOp34
 70
     1
102
RTVSPropertyOp35
 70
     1
102
RTVSPropertyOp36
 70
     1
102
RTVSPropertyOp37
 70
     1
102
RTVSPropertyOp38
 70
     1
102
RTVSPropertyOp39
 70
     1
102
RTVSPropertyOp40
 70
     1
102
RTVSPropertyOp41
 70
     1
102
RTVSPropertyOp42
 70
     1
102
RTVSPropertyOp43
 70
     1
102
RTVSPropertyOp44
 70
     1
102
RTVSPropertyOp45
 70
     1
102
RTVSPropertyOp46
 70
     1
102
RTVSPropertyOp47
 70
     1
102
RTVSPropertyOp48
 70
     1
102
RTVSPropertyOp49
 70
     1
102
RTVSPropertyOp50
 70
     1
102
RTVSPropertyOp51
 70
     0
102
RTVSPropertyOp52
 70
     0
102
RTVSPropertyOp53
 70
     1
102
RTVSPropertyOp54
 70
     1
102
RTVSPropertyOp55
 70
     1
102
RTVSPropertyOp56
 70
     1
102
RTVSPropertyOp57
 70
     1
102
RTVSPropertyOp58
 70
     1
102
RTVSPropertyOp59
 70
     1
102
RTVSPropertyOp60
 70
     1
102
RTVSPropertyOp61
 70
     1
102
RTVSPropertyOp62
 70
     1
  0
XRECORD
  5
592
102
{ACAD_REACTORS
330
591
102
}
330
591
100
AcDbXrecord
280
     1
102
RTVSPost2010Prop28
280
     0
102
RTVSPost2010PropOp28
 70
     1
102
RTVSPost2010Prop29
280
     1
102
RTVSPost2010PropOp29
 70
     1
102
RTVSPost2010Prop30
280
     1
102
RTVSPost2010PropOp30
 70
     1
102
RTVSPost2010Prop31
280
     0
102
RTVSPost2010PropOp31
 70
     1
102
RTVSPost2010Prop32
280
     0
102
RTVSPost2010PropOp32
 70
     1
102
RTVSPost2010Prop33
280
     0
102
RTVSPost2010PropOp33
 70
     1
102
RTVSPost2010Prop34
280
     0
102
RTVSPost2010PropOp34
 70
     1
102
RTVSPost2010Prop35
280
     0
102
RTVSPost2010PropOp35
 70
     1
102
RTVSPost2010Prop36
280
     0
102
RTVSPost2010PropOp36
 70
     1
102
RTVSPost2010Prop37
 90
       50
102
RTVSPost2010PropOp37
 70
     1
102
RTVSPost2010Prop38
140
0.0
102
RTVSPost2010PropOp38
 70
     1
102
RTVSPost2010Prop39
140
1.0
102
RTVSPost2010PropOp39
 70
     1
102
RTVSPost2010Prop40
 90
        0
102
RTVSPost2010PropOp40
 70
     1
102
RTVSPost2010Prop41ColorIndex
 90
       18
102
RTVSPost2010Prop41ColorRGB
 90
        0
102
RTVSPost2010PropOp41
 70
     1
102
RTVSPost2010Prop42
 90
       50
102
RTVSPost2010PropOp42
 70
     1
102
RTVSPost2010Prop43
 90
        3
102
RTVSPost2010PropOp43
 70
     1
102
RTVSPost2010Prop44ColorIndex
 90
        5
102
RTVSPost2010Prop44ColorRGB
 90
      255
102
RTVSPost2010PropOp44
 70
     1
102
RTVSPost2010Prop45
280
     0
102
RTVSPost2010PropOp45
 70
     1
102
RTVSPost2010Prop46
 90
       50
102
RTVSPost2010PropOp46
 70
     1
102
RTVSPost2010Prop47
 90
       50
102
RTVSPost2010PropOp47
 70
     1
102
RTVSPost2010Prop48
 90
       50
102
RTVSPost2010PropOp48
 70
     1
102
RTVSPost2010Prop49
280
     0
102
RTVSPost2010PropOp49
 70
     1
102
RTVSPost2010Prop50
 90
       50
102
RTVSPost2010PropOp50
 70
     1
102
RTVSPost2010Prop51ColorIndex
 90
      256
102
RTVSPost2010Prop51ColorRGB
 90
-16777216
102
RTVSPost2010PropOp51
 70
     0
102
RTVSPost2010Prop52
140
1.0
102
RTVSPost2010PropOp52
 70
     0
102
RTVSPost2010Prop53
 90
        2
102
RTVSPost2010PropOp53
 70
     1
102
RTVSPost2010Prop54
  1
strokes_ogs.tif
102
RTVSPost2010PropOp54
 70
     1
102
RTVSPost2010Prop55
280
     0
102
RTVSPost2010PropOp55
 70
     1
102
RTVSPost2010Prop56
140
1.0
102
RTVSPost2010PropOp56
 70
     1
102
RTVSPost2010Prop57
140
1.0
102
RTVSPost2010PropOp57
 70
     1
102
RTVSPropertyOp0
 70
     1
102
RTVSPropertyOp1
 70
     1
102
RTVSPropertyOp2
 70
     1
102
RTVSPropertyOp3
 70
     1
102
RTVSPropertyOp4
 70
     1
102
RTVSPropertyOp5
 70
     1
102
RTVSPropertyOp6
 70
     1
102
RTVSPropertyOp7
 70
     1
102
RTVSPropertyOp8
 70
     1
102
RTVSPropertyOp9
 70
     1
102
RTVSPropertyOp10
 70
     1
102
RTVSPropertyOp11
 70
     1
102
RTVSPropertyOp12
 70
     1
102
RTVSPropertyOp13
 70
     1
102
RTVSPropertyOp14
 70
     1
102
RTVSPropertyOp15
 70
     1
102
RTVSPropertyOp16
 70
     1
102
RTVSPropertyOp17
 70
     1
102
RTVSPropertyOp18
 70
     1
102
RTVSPropertyOp19
 70
     1
102
RTVSPropertyOp20
 70
     1
102
RTVSPropertyOp21
 70
     1
102
RTVSPropertyOp22
 70
     1
102
RTVSPropertyOp23
 70
     1
102
RTVSPropertyOp24
 70
     1
102
RTVSPropertyOp25
 70
     1
102
RTVSPropertyOp26
 70
     1
102
RTVSPropertyOp27
 70
     1
102
RTVSPropertyOp28
 70
     1
102
RTVSPropertyOp29
 70
     1
102
RTVSPropertyOp30
 70
     1
102
RTVSPropertyOp31
 70
     1
102
RTVSPropertyOp32
 70
     1
102
RTVSPropertyOp33
 70
     1
102
RTVSPropertyOp34
 70
     1
102
RTVSPropertyOp35
 70
     1
102
RTVSPropertyOp36
 70
     1
102
RTVSPropertyOp37
 70
     1
102
RTVSPropertyOp38
 70
     1
102
RTVSPropertyOp39
 70
     1
102
RTVSPropertyOp40
 70
     1
102
RTVSPropertyOp41
 70
     1
102
RTVSPropertyOp42
 70
     1
102
RTVSPropertyOp43
 70
     1
102
RTVSPropertyOp44
 70
     1
102
RTVSPropertyOp45
 70
     1
102
RTVSPropertyOp46
 70
     1
102
RTVSPropertyOp47
 70
     1
102
RTVSPropertyOp48
 70
     1
102
RTVSPropertyOp49
 70
     1
102
RTVSPropertyOp50
 70
     1
102
RTVSPropertyOp51
 70
     0
102
RTVSPropertyOp52
 70
     0
102
RTVSPropertyOp53
 70
     1
102
RTVSPropertyOp54
 70
     1
102
RTVSPropertyOp55
 70
     1
102
RTVSPropertyOp56
 70
     1
102
RTVSPropertyOp57
 70
     1
102
RTVSPropertyOp58
 70
     1
102
RTVSPropertyOp59
 70
     1
102
RTVSPropertyOp60
 70
     1
102
RTVSPropertyOp61
 70
     1
102
RTVSPropertyOp62
 70
     1
  0
XRECORD
  5
5AC
102
{ACAD_REACTORS
330
5AB
102
}
330
5AB
100
AcDbXrecord
280
     1
102
RTVSPost2010Prop28
280
     0
102
RTVSPost2010PropOp28
 70
     0
102
RTVSPost2010Prop29
280
     1
102
RTVSPost2010PropOp29
 70
     0
102
RTVSPost2010Prop30
280
     1
102
RTVSPost2010PropOp30
 70
     0
102
RTVSPost2010Prop31
280
     0
102
RTVSPost2010PropOp31
 70
     0
102
RTVSPost2010Prop32
280
     0
102
RTVSPost2010PropOp32
 70
     0
102
RTVSPost2010Prop33
280
     0
102
RTVSPost2010PropOp33
 70
     0
102
RTVSPost2010Prop34
280
     0
102
RTVSPost2010PropOp34
 70
     0
102
RTVSPost2010Prop35
280
     0
102
RTVSPost2010PropOp35
 70
     0
102
RTVSPost2010Prop36
280
     0
102
RTVSPost2010PropOp36
 70
     0
102
RTVSPost2010Prop37
 90
       50
102
RTVSPost2010PropOp37
 70
     0
102
RTVSPost2010Prop38
140
0.0
102
RTVSPost2010PropOp38
 70
     0
102
RTVSPost2010Prop39
140
1.0
102
RTVSPost2010PropOp39
 70
     0
102
RTVSPost2010Prop40
 90
        0
102
RTVSPost2010PropOp40
 70
     0
102
RTVSPost2010Prop41ColorIndex
 90
       18
102
RTVSPost2010Prop41ColorRGB
 90
        0
102
RTVSPost2010PropOp41
 70
     0
102
RTVSPost2010Prop42
 90
       50
102
RTVSPost2010PropOp42
 70
     0
102
RTVSPost2010Prop43
 90
        3
102
RTVSPost2010PropOp43
 70
     0
102
RTVSPost2010Prop44ColorIndex
 90
        5
102
RTVSPost2010Prop44ColorRGB
 90
      255
102
RTVSPost2010PropOp44
 70
     0
102
RTVSPost2010Prop45
280
     0
102
RTVSPost2010PropOp45
 70
     0
102
RTVSPost2010Prop46
 90
       50
102
RTVSPost2010PropOp46
 70
     0
102
RTVSPost2010Prop47
 90
       50
102
RTVSPost2010PropOp47
 70
     0
102
RTVSPost2010Prop48
 90
       50
102
RTVSPost2010PropOp48
 70
     0
102
RTVSPost2010Prop49
280
     0
102
RTVSPost2010PropOp49
 70
     0
102
RTVSPost2010Prop50
 90
       50
102
RTVSPost2010PropOp50
 70
     0
102
RTVSPost2010Prop51ColorIndex
 90
      256
102
RTVSPost2010Prop51ColorRGB
 90
-16777216
102
RTVSPost2010PropOp51
 70
     0
102
RTVSPost2010Prop52
140
1.0
102
RTVSPost2010PropOp52
 70
     0
102
RTVSPost2010Prop53
 90
        2
102
RTVSPost2010PropOp53
 70
     0
102
RTVSPost2010Prop54
  1
strokes_ogs.tif
102
RTVSPost2010PropOp54
 70
     0
102
RTVSPost2010Prop55
280
     0
102
RTVSPost2010PropOp55
 70
     0
102
RTVSPost2010Prop56
140
1.0
102
RTVSPost2010PropOp56
 70
     0
102
RTVSPost2010Prop57
140
1.0
102
RTVSPost2010PropOp57
 70
     0
102
RTVSPropertyOp0
 70
     0
102
RTVSPropertyOp1
 70
     0
102
RTVSPropertyOp2
 70
     0
102
RTVSPropertyOp3
 70
     0
102
RTVSPropertyOp4
 70
     0
102
RTVSPropertyOp5
 70
     0
102
RTVSPropertyOp6
 70
     0
102
RTVSPropertyOp7
 70
     0
102
RTVSPropertyOp8
 70
     0
102
RTVSPropertyOp9
 70
     0
102
RTVSPropertyOp10
 70
     0
102
RTVSPropertyOp11
 70
     0
102
RTVSPropertyOp12
 70
     0
102
RTVSPropertyOp13
 70
     0
102
RTVSPropertyOp14
 70
     2
102
RTVSPropertyOp15
 70
     0
102
RTVSPropertyOp16
 70
     0
102
RTVSPropertyOp17
 70
     0
102
RTVSPropertyOp18
 70
     0
102
RTVSPropertyOp19
 70
     0
102
RTVSPropertyOp20
 70
     0
102
RTVSPropertyOp21
 70
     0
102
RTVSPropertyOp22
 70
     0
102
RTVSPropertyOp23
 70
     0
102
RTVSPropertyOp24
 70
     0
102
RTVSPropertyOp25
 70
     0
102
RTVSPropertyOp26
 70
     0
102
RTVSPropertyOp27
 70
     0
102
RTVSPropertyOp28
 70
     0
102
RTVSPropertyOp29
 70
     0
102
RTVSPropertyOp30
 70
     0
102
RTVSPropertyOp31
 70
     0
102
RTVSPropertyOp32
 70
     0
102
RTVSPropertyOp33
 70
     0
102
RTVSPropertyOp34
 70
     0
102
RTVSPropertyOp35
 70
     0
102
RTVSPropertyOp36
 70
     0
102
RTVSPropertyOp37
 70
     0
102
RTVSPropertyOp38
 70
     0
102
RTVSPropertyOp39
 70
     0
102
RTVSPropertyOp40
 70
     0
102
RTVSPropertyOp41
 70
     0
102
RTVSPropertyOp42
 70
     0
102
RTVSPropertyOp43
 70
     0
102
RTVSPropertyOp44
 70
     0
102
RTVSPropertyOp45
 70
     0
102
RTVSPropertyOp46
 70
     0
102
RTVSPropertyOp47
 70
     0
102
RTVSPropertyOp48
 70
     0
102
RTVSPropertyOp49
 70
     0
102
RTVSPropertyOp50
 70
     0
102
RTVSPropertyOp51
 70
     0
102
RTVSPropertyOp52
 70
     0
102
RTVSPropertyOp53
 70
     0
102
RTVSPropertyOp54
 70
     0
102
RTVSPropertyOp55
 70
     0
102
RTVSPropertyOp56
 70
     0
102
RTVSPropertyOp57
 70
     0
102
RTVSPropertyOp58
 70
     0
102
RTVSPropertyOp59
 70
     0
102
RTVSPropertyOp60
 70
     0
102
RTVSPropertyOp61
 70
     0
102
RTVSPropertyOp62
 70
     0
  0
XRECORD
  5
59A
102
{ACAD_REACTORS
330
599
102
}
330
599
100
AcDbXrecord
280
     1
102
RTVSPost2010Prop28
280
     0
102
RTVSPost2010PropOp28
 70
     1
102
RTVSPost2010Prop29
280
     1
102
RTVSPost2010PropOp29
 70
     1
102
RTVSPost2010Prop30
280
     1
102
RTVSPost2010PropOp30
 70
     1
102
RTVSPost2010Prop31
280
     0
102
RTVSPost2010PropOp31
 70
     1
102
RTVSPost2010Prop32
280
     0
102
RTVSPost2010PropOp32
 70
     1
102
RTVSPost2010Prop33
280
     0
102
RTVSPost2010PropOp33
 70
     1
102
RTVSPost2010Prop34
280
     0
102
RTVSPost2010PropOp34
 70
     1
102
RTVSPost2010Prop35
280
     0
102
RTVSPost2010PropOp35
 70
     1
102
RTVSPost2010Prop36
280
     0
102
RTVSPost2010PropOp36
 70
     1
102
RTVSPost2010Prop37
 90
       50
102
RTVSPost2010PropOp37
 70
     1
102
RTVSPost2010Prop38
140
0.0
102
RTVSPost2010PropOp38
 70
     1
102
RTVSPost2010Prop39
140
1.0
102
RTVSPost2010PropOp39
 70
     1
102
RTVSPost2010Prop40
 90
        0
102
RTVSPost2010PropOp40
 70
     1
102
RTVSPost2010Prop41ColorIndex
 90
       18
102
RTVSPost2010Prop41ColorRGB
 90
        0
102
RTVSPost2010PropOp41
 70
     1
102
RTVSPost2010Prop42
 90
       50
102
RTVSPost2010PropOp42
 70
     1
102
RTVSPost2010Prop43
 90
        3
102
RTVSPost2010PropOp43
 70
     1
102
RTVSPost2010Prop44ColorIndex
 90
        5
102
RTVSPost2010Prop44ColorRGB
 90
      255
102
RTVSPost2010PropOp44
 70
     1
102
RTVSPost2010Prop45
280
     0
102
RTVSPost2010PropOp45
 70
     1
102
RTVSPost2010Prop46
 90
       50
102
RTVSPost2010PropOp46
 70
     1
102
RTVSPost2010Prop47
 90
       50
102
RTVSPost2010PropOp47
 70
     1
102
RTVSPost2010Prop48
 90
       50
102
RTVSPost2010PropOp48
 70
     1
102
RTVSPost2010Prop49
280
     0
102
RTVSPost2010PropOp49
 70
     1
102
RTVSPost2010Prop50
 90
       50
102
RTVSPost2010PropOp50
 70
     1
102
RTVSPost2010Prop51ColorIndex
 90
      256
102
RTVSPost2010Prop51ColorRGB
 90
-16777216
102
RTVSPost2010PropOp51
 70
     0
102
RTVSPost2010Prop52
140
1.0
102
RTVSPost2010PropOp52
 70
     0
102
RTVSPost2010Prop53
 90
        2
102
RTVSPost2010PropOp53
 70
     1
102
RTVSPost2010Prop54
  1
strokes_ogs.tif
102
RTVSPost2010PropOp54
 70
     1
102
RTVSPost2010Prop55
280
     0
102
RTVSPost2010PropOp55
 70
     1
102
RTVSPost2010Prop56
140
1.0
102
RTVSPost2010PropOp56
 70
     1
102
RTVSPost2010Prop57
140
1.0
102
RTVSPost2010PropOp57
 70
     1
102
RTVSPropertyOp0
 70
     1
102
RTVSPropertyOp1
 70
     1
102
RTVSPropertyOp2
 70
     1
102
RTVSPropertyOp3
 70
     1
102
RTVSPropertyOp4
 70
     1
102
RTVSPropertyOp5
 70
     1
102
RTVSPropertyOp6
 70
     1
102
RTVSPropertyOp7
 70
     1
102
RTVSPropertyOp8
 70
     1
102
RTVSPropertyOp9
 70
     1
102
RTVSPropertyOp10
 70
     1
102
RTVSPropertyOp11
 70
     1
102
RTVSPropertyOp12
 70
     1
102
RTVSPropertyOp13
 70
     1
102
RTVSPropertyOp14
 70
     1
102
RTVSPropertyOp15
 70
     1
102
RTVSPropertyOp16
 70
     1
102
RTVSPropertyOp17
 70
     1
102
RTVSPropertyOp18
 70
     1
102
RTVSPropertyOp19
 70
     1
102
RTVSPropertyOp20
 70
     1
102
RTVSPropertyOp21
 70
     1
102
RTVSPropertyOp22
 70
     1
102
RTVSPropertyOp23
 70
     1
102
RTVSPropertyOp24
 70
     1
102
RTVSPropertyOp25
 70
     1
102
RTVSPropertyOp26
 70
     1
102
RTVSPropertyOp27
 70
     1
102
RTVSPropertyOp28
 70
     1
102
RTVSPropertyOp29
 70
     1
102
RTVSPropertyOp30
 70
     1
102
RTVSPropertyOp31
 70
     1
102
RTVSPropertyOp32
 70
     1
102
RTVSPropertyOp33
 70
     1
102
RTVSPropertyOp34
 70
     1
102
RTVSPropertyOp35
 70
     1
102
RTVSPropertyOp36
 70
     1
102
RTVSPropertyOp37
 70
     1
102
RTVSPropertyOp38
 70
     1
102
RTVSPropertyOp39
 70
     1
102
RTVSPropertyOp40
 70
     1
102
RTVSPropertyOp41
 70
     1
102
RTVSPropertyOp42
 70
     1
102
RTVSPropertyOp43
 70
     1
102
RTVSPropertyOp44
 70
     1
102
RTVSPropertyOp45
 70
     1
102
RTVSPropertyOp46
 70
     1
102
RTVSPropertyOp47
 70
     1
102
RTVSPropertyOp48
 70
     1
102
RTVSPropertyOp49
 70
     1
102
RTVSPropertyOp50
 70
     1
102
RTVSPropertyOp51
 70
     0
102
RTVSPropertyOp52
 70
     0
102
RTVSPropertyOp53
 70
     1
102
RTVSPropertyOp54
 70
     1
102
RTVSPropertyOp55
 70
     1
102
RTVSPropertyOp56
 70
     1
102
RTVSPropertyOp57
 70
     1
102
RTVSPropertyOp58
 70
     1
102
RTVSPropertyOp59
 70
     1
102
RTVSPropertyOp60
 70
     1
102
RTVSPropertyOp61
 70
     1
102
RTVSPropertyOp62
 70
     1
  0
XRECORD
  5
57E
102
{ACAD_REACTORS
330
57D
102
}
330
57D
100
AcDbXrecord
280
     1
102
RTVSPost2010Prop28
280
     0
102
RTVSPost2010PropOp28
 70
     1
102
RTVSPost2010Prop29
280
     1
102
RTVSPost2010PropOp29
 70
     1
102
RTVSPost2010Prop30
280
     1
102
RTVSPost2010PropOp30
 70
     1
102
RTVSPost2010Prop31
280
     0
102
RTVSPost2010PropOp31
 70
     1
102
RTVSPost2010Prop32
280
     0
102
RTVSPost2010PropOp32
 70
     1
102
RTVSPost2010Prop33
280
     0
102
RTVSPost2010PropOp33
 70
     1
102
RTVSPost2010Prop34
280
     0
102
RTVSPost2010PropOp34
 70
     1
102
RTVSPost2010Prop35
280
     0
102
RTVSPost2010PropOp35
 70
     1
102
RTVSPost2010Prop36
280
     0
102
RTVSPost2010PropOp36
 70
     1
102
RTVSPost2010Prop37
 90
       50
102
RTVSPost2010PropOp37
 70
     1
102
RTVSPost2010Prop38
140
0.0
102
RTVSPost2010PropOp38
 70
     1
102
RTVSPost2010Prop39
140
1.0
102
RTVSPost2010PropOp39
 70
     1
102
RTVSPost2010Prop40
 90
        0
102
RTVSPost2010PropOp40
 70
     1
102
RTVSPost2010Prop41ColorIndex
 90
       18
102
RTVSPost2010Prop41ColorRGB
 90
        0
102
RTVSPost2010PropOp41
 70
     1
102
RTVSPost2010Prop42
 90
       50
102
RTVSPost2010PropOp42
 70
     1
102
RTVSPost2010Prop43
 90
        3
102
RTVSPost2010PropOp43
 70
     1
102
RTVSPost2010Prop44ColorIndex
 90
        5
102
RTVSPost2010Prop44ColorRGB
 90
      255
102
RTVSPost2010PropOp44
 70
     1
102
RTVSPost2010Prop45
280
     0
102
RTVSPost2010PropOp45
 70
     1
102
RTVSPost2010Prop46
 90
       50
102
RTVSPost2010PropOp46
 70
     1
102
RTVSPost2010Prop47
 90
       50
102
RTVSPost2010PropOp47
 70
     1
102
RTVSPost2010Prop48
 90
       50
102
RTVSPost2010PropOp48
 70
     1
102
RTVSPost2010Prop49
280
     0
102
RTVSPost2010PropOp49
 70
     1
102
RTVSPost2010Prop50
 90
       50
102
RTVSPost2010PropOp50
 70
     1
102
RTVSPost2010Prop51ColorIndex
 90
      256
102
RTVSPost2010Prop51ColorRGB
 90
-16777216
102
RTVSPost2010PropOp51
 70
     0
102
RTVSPost2010Prop52
140
1.0
102
RTVSPost2010PropOp52
 70
     0
102
RTVSPost2010Prop53
 90
        2
102
RTVSPost2010PropOp53
 70
     1
102
RTVSPost2010Prop54
  1
strokes_ogs.tif
102
RTVSPost2010PropOp54
 70
     1
102
RTVSPost2010Prop55
280
     0
102
RTVSPost2010PropOp55
 70
     1
102
RTVSPost2010Prop56
140
1.0
102
RTVSPost2010PropOp56
 70
     1
102
RTVSPost2010Prop57
140
1.0
102
RTVSPost2010PropOp57
 70
     1
102
RTVSPropertyOp0
 70
     1
102
RTVSPropertyOp1
 70
     1
102
RTVSPropertyOp2
 70
     1
102
RTVSPropertyOp3
 70
     1
102
RTVSPropertyOp4
 70
     1
102
RTVSPropertyOp5
 70
     1
102
RTVSPropertyOp6
 70
     1
102
RTVSPropertyOp7
 70
     1
102
RTVSPropertyOp8
 70
     1
102
RTVSPropertyOp9
 70
     1
102
RTVSPropertyOp10
 70
     1
102
RTVSPropertyOp11
 70
     1
102
RTVSPropertyOp12
 70
     1
102
RTVSPropertyOp13
 70
     1
102
RTVSPropertyOp14
 70
     1
102
RTVSPropertyOp15
 70
     1
102
RTVSPropertyOp16
 70
     1
102
RTVSPropertyOp17
 70
     1
102
RTVSPropertyOp18
 70
     1
102
RTVSPropertyOp19
 70
     1
102
RTVSPropertyOp20
 70
     1
102
RTVSPropertyOp21
 70
     1
102
RTVSPropertyOp22
 70
     1
102
RTVSPropertyOp23
 70
     1
102
RTVSPropertyOp24
 70
     1
102
RTVSPropertyOp25
 70
     1
102
RTVSPropertyOp26
 70
     1
102
RTVSPropertyOp27
 70
     1
102
RTVSPropertyOp28
 70
     1
102
RTVSPropertyOp29
 70
     1
102
RTVSPropertyOp30
 70
     1
102
RTVSPropertyOp31
 70
     1
102
RTVSPropertyOp32
 70
     1
102
RTVSPropertyOp33
 70
     1
102
RTVSPropertyOp34
 70
     1
102
RTVSPropertyOp35
 70
     1
102
RTVSPropertyOp36
 70
     1
102
RTVSPropertyOp37
 70
     1
102
RTVSPropertyOp38
 70
     1
102
RTVSPropertyOp39
 70
     1
102
RTVSPropertyOp40
 70
     1
102
RTVSPropertyOp41
 70
     1
102
RTVSPropertyOp42
 70
     1
102
RTVSPropertyOp43
 70
     1
102
RTVSPropertyOp44
 70
     1
102
RTVSPropertyOp45
 70
     1
102
RTVSPropertyOp46
 70
     1
102
RTVSPropertyOp47
 70
     1
102
RTVSPropertyOp48
 70
     1
102
RTVSPropertyOp49
 70
     1
102
RTVSPropertyOp50
 70
     1
102
RTVSPropertyOp51
 70
     0
102
RTVSPropertyOp52
 70
     0
102
RTVSPropertyOp53
 70
     1
102
RTVSPropertyOp54
 70
     1
102
RTVSPropertyOp55
 70
     1
102
RTVSPropertyOp56
 70
     1
102
RTVSPropertyOp57
 70
     1
102
RTVSPropertyOp58
 70
     1
102
RTVSPropertyOp59
 70
     1
102
RTVSPropertyOp60
 70
     1
102
RTVSPropertyOp61
 70
     1
102
RTVSPropertyOp62
 70
     1
  0
XRECORD
  5
580
102
{ACAD_REACTORS
330
57F
102
}
330
57F
100
AcDbXrecord
280
     1
102
RTVSPost2010Prop28
280
     0
102
RTVSPost2010PropOp28
 70
     1
102
RTVSPost2010Prop29
280
     1
102
RTVSPost2010PropOp29
 70
     1
102
RTVSPost2010Prop30
280
     1
102
RTVSPost2010PropOp30
 70
     1
102
RTVSPost2010Prop31
280
     0
102
RTVSPost2010PropOp31
 70
     1
102
RTVSPost2010Prop32
280
     0
102
RTVSPost2010PropOp32
 70
     1
102
RTVSPost2010Prop33
280
     0
102
RTVSPost2010PropOp33
 70
     1
102
RTVSPost2010Prop34
280
     0
102
RTVSPost2010PropOp34
 70
     1
102
RTVSPost2010Prop35
280
     0
102
RTVSPost2010PropOp35
 70
     1
102
RTVSPost2010Prop36
280
     0
102
RTVSPost2010PropOp36
 70
     1
102
RTVSPost2010Prop37
 90
       50
102
RTVSPost2010PropOp37
 70
     1
102
RTVSPost2010Prop38
140
0.0
102
RTVSPost2010PropOp38
 70
     1
102
RTVSPost2010Prop39
140
1.0
102
RTVSPost2010PropOp39
 70
     1
102
RTVSPost2010Prop40
 90
        0
102
RTVSPost2010PropOp40
 70
     1
102
RTVSPost2010Prop41ColorIndex
 90
       18
102
RTVSPost2010Prop41ColorRGB
 90
        0
102
RTVSPost2010PropOp41
 70
     1
102
RTVSPost2010Prop42
 90
       50
102
RTVSPost2010PropOp42
 70
     1
102
RTVSPost2010Prop43
 90
        3
102
RTVSPost2010PropOp43
 70
     1
102
RTVSPost2010Prop44ColorIndex
 90
        5
102
RTVSPost2010Prop44ColorRGB
 90
      255
102
RTVSPost2010PropOp44
 70
     1
102
RTVSPost2010Prop45
280
     0
102
RTVSPost2010PropOp45
 70
     1
102
RTVSPost2010Prop46
 90
       50
102
RTVSPost2010PropOp46
 70
     1
102
RTVSPost2010Prop47
 90
       50
102
RTVSPost2010PropOp47
 70
     1
102
RTVSPost2010Prop48
 90
       50
102
RTVSPost2010PropOp48
 70
     1
102
RTVSPost2010Prop49
280
     0
102
RTVSPost2010PropOp49
 70
     1
102
RTVSPost2010Prop50
 90
       50
102
RTVSPost2010PropOp50
 70
     1
102
RTVSPost2010Prop51ColorIndex
 90
      256
102
RTVSPost2010Prop51ColorRGB
 90
-16777216
102
RTVSPost2010PropOp51
 70
     0
102
RTVSPost2010Prop52
140
1.0
102
RTVSPost2010PropOp52
 70
     0
102
RTVSPost2010Prop53
 90
        2
102
RTVSPost2010PropOp53
 70
     1
102
RTVSPost2010Prop54
  1
strokes_ogs.tif
102
RTVSPost2010PropOp54
 70
     1
102
RTVSPost2010Prop55
280
     0
102
RTVSPost2010PropOp55
 70
     1
102
RTVSPost2010Prop56
140
1.0
102
RTVSPost2010PropOp56
 70
     1
102
RTVSPost2010Prop57
140
1.0
102
RTVSPost2010PropOp57
 70
     1
102
RTVSPropertyOp0
 70
     1
102
RTVSPropertyOp1
 70
     1
102
RTVSPropertyOp2
 70
     1
102
RTVSPropertyOp3
 70
     1
102
RTVSPropertyOp4
 70
     1
102
RTVSPropertyOp5
 70
     1
102
RTVSPropertyOp6
 70
     1
102
RTVSPropertyOp7
 70
     1
102
RTVSPropertyOp8
 70
     1
102
RTVSPropertyOp9
 70
     1
102
RTVSPropertyOp10
 70
     1
102
RTVSPropertyOp11
 70
     1
102
RTVSPropertyOp12
 70
     1
102
RTVSPropertyOp13
 70
     1
102
RTVSPropertyOp14
 70
     1
102
RTVSPropertyOp15
 70
     1
102
RTVSPropertyOp16
 70
     1
102
RTVSPropertyOp17
 70
     1
102
RTVSPropertyOp18
 70
     1
102
RTVSPropertyOp19
 70
     1
102
RTVSPropertyOp20
 70
     1
102
RTVSPropertyOp21
 70
     1
102
RTVSPropertyOp22
 70
     1
102
RTVSPropertyOp23
 70
     1
102
RTVSPropertyOp24
 70
     1
102
RTVSPropertyOp25
 70
     1
102
RTVSPropertyOp26
 70
     1
102
RTVSPropertyOp27
 70
     1
102
RTVSPropertyOp28
 70
     1
102
RTVSPropertyOp29
 70
     1
102
RTVSPropertyOp30
 70
     1
102
RTVSPropertyOp31
 70
     1
102
RTVSPropertyOp32
 70
     1
102
RTVSPropertyOp33
 70
     1
102
RTVSPropertyOp34
 70
     1
102
RTVSPropertyOp35
 70
     1
102
RTVSPropertyOp36
 70
     1
102
RTVSPropertyOp37
 70
     1
102
RTVSPropertyOp38
 70
     1
102
RTVSPropertyOp39
 70
     1
102
RTVSPropertyOp40
 70
     1
102
RTVSPropertyOp41
 70
     1
102
RTVSPropertyOp42
 70
     1
102
RTVSPropertyOp43
 70
     1
102
RTVSPropertyOp44
 70
     1
102
RTVSPropertyOp45
 70
     1
102
RTVSPropertyOp46
 70
     1
102
RTVSPropertyOp47
 70
     1
102
RTVSPropertyOp48
 70
     1
102
RTVSPropertyOp49
 70
     1
102
RTVSPropertyOp50
 70
     1
102
RTVSPropertyOp51
 70
     0
102
RTVSPropertyOp52
 70
     0
102
RTVSPropertyOp53
 70
     1
102
RTVSPropertyOp54
 70
     1
102
RTVSPropertyOp55
 70
     1
102
RTVSPropertyOp56
 70
     1
102
RTVSPropertyOp57
 70
     1
102
RTVSPropertyOp58
 70
     1
102
RTVSPropertyOp59
 70
     1
102
RTVSPropertyOp60
 70
     1
102
RTVSPropertyOp61
 70
     1
102
RTVSPropertyOp62
 70
     1
  0
XRECORD
  5
582
102
{ACAD_REACTORS
330
581
102
}
330
581
100
AcDbXrecord
280
     1
102
RTVSPost2010Prop28
280
     0
102
RTVSPost2010PropOp28
 70
     1
102
RTVSPost2010Prop29
280
     1
102
RTVSPost2010PropOp29
 70
     1
102
RTVSPost2010Prop30
280
     1
102
RTVSPost2010PropOp30
 70
     1
102
RTVSPost2010Prop31
280
     0
102
RTVSPost2010PropOp31
 70
     1
102
RTVSPost2010Prop32
280
     0
102
RTVSPost2010PropOp32
 70
     1
102
RTVSPost2010Prop33
280
     0
102
RTVSPost2010PropOp33
 70
     1
102
RTVSPost2010Prop34
280
     0
102
RTVSPost2010PropOp34
 70
     1
102
RTVSPost2010Prop35
280
     0
102
RTVSPost2010PropOp35
 70
     1
102
RTVSPost2010Prop36
280
     0
102
RTVSPost2010PropOp36
 70
     1
102
RTVSPost2010Prop37
 90
       50
102
RTVSPost2010PropOp37
 70
     1
102
RTVSPost2010Prop38
140
0.0
102
RTVSPost2010PropOp38
 70
     1
102
RTVSPost2010Prop39
140
1.0
102
RTVSPost2010PropOp39
 70
     1
102
RTVSPost2010Prop40
 90
        0
102
RTVSPost2010PropOp40
 70
     1
102
RTVSPost2010Prop41ColorIndex
 90
       18
102
RTVSPost2010Prop41ColorRGB
 90
        0
102
RTVSPost2010PropOp41
 70
     1
102
RTVSPost2010Prop42
 90
       50
102
RTVSPost2010PropOp42
 70
     1
102
RTVSPost2010Prop43
 90
        3
102
RTVSPost2010PropOp43
 70
     1
102
RTVSPost2010Prop44ColorIndex
 90
        5
102
RTVSPost2010Prop44ColorRGB
 90
      255
102
RTVSPost2010PropOp44
 70
     1
102
RTVSPost2010Prop45
280
     0
102
RTVSPost2010PropOp45
 70
     1
102
RTVSPost2010Prop46
 90
       50
102
RTVSPost2010PropOp46
 70
     1
102
RTVSPost2010Prop47
 90
       50
102
RTVSPost2010PropOp47
 70
     1
102
RTVSPost2010Prop48
 90
       50
102
RTVSPost2010PropOp48
 70
     1
102
RTVSPost2010Prop49
280
     0
102
RTVSPost2010PropOp49
 70
     1
102
RTVSPost2010Prop50
 90
       50
102
RTVSPost2010PropOp50
 70
     1
102
RTVSPost2010Prop51ColorIndex
 90
      256
102
RTVSPost2010Prop51ColorRGB
 90
-16777216
102
RTVSPost2010PropOp51
 70
     0
102
RTVSPost2010Prop52
140
1.0
102
RTVSPost2010PropOp52
 70
     0
102
RTVSPost2010Prop53
 90
        2
102
RTVSPost2010PropOp53
 70
     1
102
RTVSPost2010Prop54
  1
strokes_ogs.tif
102
RTVSPost2010PropOp54
 70
     1
102
RTVSPost2010Prop55
280
     0
102
RTVSPost2010PropOp55
 70
     1
102
RTVSPost2010Prop56
140
1.0
102
RTVSPost2010PropOp56
 70
     1
102
RTVSPost2010Prop57
140
1.0
102
RTVSPost2010PropOp57
 70
     1
102
RTVSPropertyOp0
 70
     1
102
RTVSPropertyOp1
 70
     1
102
RTVSPropertyOp2
 70
     1
102
RTVSPropertyOp3
 70
     1
102
RTVSPropertyOp4
 70
     1
102
RTVSPropertyOp5
 70
     1
102
RTVSPropertyOp6
 70
     1
102
RTVSPropertyOp7
 70
     1
102
RTVSPropertyOp8
 70
     1
102
RTVSPropertyOp9
 70
     1
102
RTVSPropertyOp10
 70
     1
102
RTVSPropertyOp11
 70
     1
102
RTVSPropertyOp12
 70
     1
102
RTVSPropertyOp13
 70
     1
102
RTVSPropertyOp14
 70
     1
102
RTVSPropertyOp15
 70
     1
102
RTVSPropertyOp16
 70
     1
102
RTVSPropertyOp17
 70
     1
102
RTVSPropertyOp18
 70
     1
102
RTVSPropertyOp19
 70
     1
102
RTVSPropertyOp20
 70
     1
102
RTVSPropertyOp21
 70
     1
102
RTVSPropertyOp22
 70
     1
102
RTVSPropertyOp23
 70
     1
102
RTVSPropertyOp24
 70
     1
102
RTVSPropertyOp25
 70
     1
102
RTVSPropertyOp26
 70
     1
102
RTVSPropertyOp27
 70
     1
102
RTVSPropertyOp28
 70
     1
102
RTVSPropertyOp29
 70
     1
102
RTVSPropertyOp30
 70
     1
102
RTVSPropertyOp31
 70
     1
102
RTVSPropertyOp32
 70
     1
102
RTVSPropertyOp33
 70
     1
102
RTVSPropertyOp34
 70
     1
102
RTVSPropertyOp35
 70
     1
102
RTVSPropertyOp36
 70
     1
102
RTVSPropertyOp37
 70
     1
102
RTVSPropertyOp38
 70
     1
102
RTVSPropertyOp39
 70
     1
102
RTVSPropertyOp40
 70
     1
102
RTVSPropertyOp41
 70
     1
102
RTVSPropertyOp42
 70
     1
102
RTVSPropertyOp43
 70
     1
102
RTVSPropertyOp44
 70
     1
102
RTVSPropertyOp45
 70
     1
102
RTVSPropertyOp46
 70
     1
102
RTVSPropertyOp47
 70
     1
102
RTVSPropertyOp48
 70
     1
102
RTVSPropertyOp49
 70
     1
102
RTVSPropertyOp50
 70
     1
102
RTVSPropertyOp51
 70
     0
102
RTVSPropertyOp52
 70
     0
102
RTVSPropertyOp53
 70
     1
102
RTVSPropertyOp54
 70
     1
102
RTVSPropertyOp55
 70
     1
102
RTVSPropertyOp56
 70
     1
102
RTVSPropertyOp57
 70
     1
102
RTVSPropertyOp58
 70
     1
102
RTVSPropertyOp59
 70
     1
102
RTVSPropertyOp60
 70
     1
102
RTVSPropertyOp61
 70
     1
102
RTVSPropertyOp62
 70
     1
  0
XRECORD
  5
584
102
{ACAD_REACTORS
330
583
102
}
330
583
100
AcDbXrecord
280
     1
102
RTVSPost2010Prop28
280
     0
102
RTVSPost2010PropOp28
 70
     1
102
RTVSPost2010Prop29
280
     1
102
RTVSPost2010PropOp29
 70
     1
102
RTVSPost2010Prop30
280
     1
102
RTVSPost2010PropOp30
 70
     1
102
RTVSPost2010Prop31
280
     0
102
RTVSPost2010PropOp31
 70
     1
102
RTVSPost2010Prop32
280
     0
102
RTVSPost2010PropOp32
 70
     1
102
RTVSPost2010Prop33
280
     0
102
RTVSPost2010PropOp33
 70
     1
102
RTVSPost2010Prop34
280
     0
102
RTVSPost2010PropOp34
 70
     1
102
RTVSPost2010Prop35
280
     0
102
RTVSPost2010PropOp35
 70
     1
102
RTVSPost2010Prop36
280
     0
102
RTVSPost2010PropOp36
 70
     1
102
RTVSPost2010Prop37
 90
       50
102
RTVSPost2010PropOp37
 70
     1
102
RTVSPost2010Prop38
140
0.0
102
RTVSPost2010PropOp38
 70
     1
102
RTVSPost2010Prop39
140
1.0
102
RTVSPost2010PropOp39
 70
     1
102
RTVSPost2010Prop40
 90
        0
102
RTVSPost2010PropOp40
 70
     1
102
RTVSPost2010Prop41ColorIndex
 90
       18
102
RTVSPost2010Prop41ColorRGB
 90
        0
102
RTVSPost2010PropOp41
 70
     1
102
RTVSPost2010Prop42
 90
       50
102
RTVSPost2010PropOp42
 70
     1
102
RTVSPost2010Prop43
 90
        3
102
RTVSPost2010PropOp43
 70
     1
102
RTVSPost2010Prop44ColorIndex
 90
        5
102
RTVSPost2010Prop44ColorRGB
 90
      255
102
RTVSPost2010PropOp44
 70
     1
102
RTVSPost2010Prop45
280
     0
102
RTVSPost2010PropOp45
 70
     1
102
RTVSPost2010Prop46
 90
       50
102
RTVSPost2010PropOp46
 70
     1
102
RTVSPost2010Prop47
 90
       50
102
RTVSPost2010PropOp47
 70
     1
102
RTVSPost2010Prop48
 90
       50
102
RTVSPost2010PropOp48
 70
     1
102
RTVSPost2010Prop49
280
     0
102
RTVSPost2010PropOp49
 70
     1
102
RTVSPost2010Prop50
 90
       50
102
RTVSPost2010PropOp50
 70
     1
102
RTVSPost2010Prop51ColorIndex
 90
      256
102
RTVSPost2010Prop51ColorRGB
 90
-16777216
102
RTVSPost2010PropOp51
 70
     0
102
RTVSPost2010Prop52
140
1.0
102
RTVSPost2010PropOp52
 70
     0
102
RTVSPost2010Prop53
 90
        2
102
RTVSPost2010PropOp53
 70
     1
102
RTVSPost2010Prop54
  1
strokes_ogs.tif
102
RTVSPost2010PropOp54
 70
     1
102
RTVSPost2010Prop55
280
     0
102
RTVSPost2010PropOp55
 70
     1
102
RTVSPost2010Prop56
140
1.0
102
RTVSPost2010PropOp56
 70
     1
102
RTVSPost2010Prop57
140
1.0
102
RTVSPost2010PropOp57
 70
     1
102
RTVSPropertyOp0
 70
     1
102
RTVSPropertyOp1
 70
     1
102
RTVSPropertyOp2
 70
     1
102
RTVSPropertyOp3
 70
     1
102
RTVSPropertyOp4
 70
     1
102
RTVSPropertyOp5
 70
     1
102
RTVSPropertyOp6
 70
     1
102
RTVSPropertyOp7
 70
     1
102
RTVSPropertyOp8
 70
     1
102
RTVSPropertyOp9
 70
     1
102
RTVSPropertyOp10
 70
     1
102
RTVSPropertyOp11
 70
     1
102
RTVSPropertyOp12
 70
     1
102
RTVSPropertyOp13
 70
     1
102
RTVSPropertyOp14
 70
     1
102
RTVSPropertyOp15
 70
     1
102
RTVSPropertyOp16
 70
     1
102
RTVSPropertyOp17
 70
     1
102
RTVSPropertyOp18
 70
     1
102
RTVSPropertyOp19
 70
     1
102
RTVSPropertyOp20
 70
     1
102
RTVSPropertyOp21
 70
     1
102
RTVSPropertyOp22
 70
     1
102
RTVSPropertyOp23
 70
     1
102
RTVSPropertyOp24
 70
     1
102
RTVSPropertyOp25
 70
     1
102
RTVSPropertyOp26
 70
     1
102
RTVSPropertyOp27
 70
     1
102
RTVSPropertyOp28
 70
     1
102
RTVSPropertyOp29
 70
     1
102
RTVSPropertyOp30
 70
     1
102
RTVSPropertyOp31
 70
     1
102
RTVSPropertyOp32
 70
     1
102
RTVSPropertyOp33
 70
     1
102
RTVSPropertyOp34
 70
     1
102
RTVSPropertyOp35
 70
     1
102
RTVSPropertyOp36
 70
     1
102
RTVSPropertyOp37
 70
     1
102
RTVSPropertyOp38
 70
     1
102
RTVSPropertyOp39
 70
     1
102
RTVSPropertyOp40
 70
     1
102
RTVSPropertyOp41
 70
     1
102
RTVSPropertyOp42
 70
     1
102
RTVSPropertyOp43
 70
     1
102
RTVSPropertyOp44
 70
     1
102
RTVSPropertyOp45
 70
     1
102
RTVSPropertyOp46
 70
     1
102
RTVSPropertyOp47
 70
     1
102
RTVSPropertyOp48
 70
     1
102
RTVSPropertyOp49
 70
     1
102
RTVSPropertyOp50
 70
     1
102
RTVSPropertyOp51
 70
     0
102
RTVSPropertyOp52
 70
     0
102
RTVSPropertyOp53
 70
     1
102
RTVSPropertyOp54
 70
     1
102
RTVSPropertyOp55
 70
     1
102
RTVSPropertyOp56
 70
     1
102
RTVSPropertyOp57
 70
     1
102
RTVSPropertyOp58
 70
     1
102
RTVSPropertyOp59
 70
     1
102
RTVSPropertyOp60
 70
     1
102
RTVSPropertyOp61
 70
     1
102
RTVSPropertyOp62
 70
     1
  0
XRECORD
  5
58C
102
{ACAD_REACTORS
330
58B
102
}
330
58B
100
AcDbXrecord
280
     1
102
RTVSPost2010Prop28
280
     0
102
RTVSPost2010PropOp28
 70
     1
102
RTVSPost2010Prop29
280
     1
102
RTVSPost2010PropOp29
 70
     1
102
RTVSPost2010Prop30
280
     1
102
RTVSPost2010PropOp30
 70
     1
102
RTVSPost2010Prop31
280
     0
102
RTVSPost2010PropOp31
 70
     1
102
RTVSPost2010Prop32
280
     0
102
RTVSPost2010PropOp32
 70
     1
102
RTVSPost2010Prop33
280
     0
102
RTVSPost2010PropOp33
 70
     1
102
RTVSPost2010Prop34
280
     0
102
RTVSPost2010PropOp34
 70
     1
102
RTVSPost2010Prop35
280
     0
102
RTVSPost2010PropOp35
 70
     1
102
RTVSPost2010Prop36
280
     0
102
RTVSPost2010PropOp36
 70
     1
102
RTVSPost2010Prop37
 90
       50
102
RTVSPost2010PropOp37
 70
     1
102
RTVSPost2010Prop38
140
0.0
102
RTVSPost2010PropOp38
 70
     1
102
RTVSPost2010Prop39
140
1.0
102
RTVSPost2010PropOp39
 70
     1
102
RTVSPost2010Prop40
 90
        0
102
RTVSPost2010PropOp40
 70
     1
102
RTVSPost2010Prop41ColorIndex
 90
       18
102
RTVSPost2010Prop41ColorRGB
 90
        0
102
RTVSPost2010PropOp41
 70
     1
102
RTVSPost2010Prop42
 90
       50
102
RTVSPost2010PropOp42
 70
     1
102
RTVSPost2010Prop43
 90
        3
102
RTVSPost2010PropOp43
 70
     1
102
RTVSPost2010Prop44ColorIndex
 90
        5
102
RTVSPost2010Prop44ColorRGB
 90
      255
102
RTVSPost2010PropOp44
 70
     1
102
RTVSPost2010Prop45
280
     0
102
RTVSPost2010PropOp45
 70
     1
102
RTVSPost2010Prop46
 90
       50
102
RTVSPost2010PropOp46
 70
     1
102
RTVSPost2010Prop47
 90
       50
102
RTVSPost2010PropOp47
 70
     1
102
RTVSPost2010Prop48
 90
       50
102
RTVSPost2010PropOp48
 70
     1
102
RTVSPost2010Prop49
280
     0
102
RTVSPost2010PropOp49
 70
     1
102
RTVSPost2010Prop50
 90
       50
102
RTVSPost2010PropOp50
 70
     1
102
RTVSPost2010Prop51ColorIndex
 90
      256
102
RTVSPost2010Prop51ColorRGB
 90
-16777216
102
RTVSPost2010PropOp51
 70
     0
102
RTVSPost2010Prop52
140
1.0
102
RTVSPost2010PropOp52
 70
     0
102
RTVSPost2010Prop53
 90
        2
102
RTVSPost2010PropOp53
 70
     1
102
RTVSPost2010Prop54
  1
strokes_ogs.tif
102
RTVSPost2010PropOp54
 70
     1
102
RTVSPost2010Prop55
280
     0
102
RTVSPost2010PropOp55
 70
     1
102
RTVSPost2010Prop56
140
1.0
102
RTVSPost2010PropOp56
 70
     1
102
RTVSPost2010Prop57
140
1.0
102
RTVSPost2010PropOp57
 70
     1
102
RTVSPropertyOp0
 70
     1
102
RTVSPropertyOp1
 70
     1
102
RTVSPropertyOp2
 70
     1
102
RTVSPropertyOp3
 70
     1
102
RTVSPropertyOp4
 70
     1
102
RTVSPropertyOp5
 70
     1
102
RTVSPropertyOp6
 70
     1
102
RTVSPropertyOp7
 70
     1
102
RTVSPropertyOp8
 70
     1
102
RTVSPropertyOp9
 70
     1
102
RTVSPropertyOp10
 70
     1
102
RTVSPropertyOp11
 70
     1
102
RTVSPropertyOp12
 70
     1
102
RTVSPropertyOp13
 70
     1
102
RTVSPropertyOp14
 70
     1
102
RTVSPropertyOp15
 70
     1
102
RTVSPropertyOp16
 70
     1
102
RTVSPropertyOp17
 70
     1
102
RTVSPropertyOp18
 70
     1
102
RTVSPropertyOp19
 70
     1
102
RTVSPropertyOp20
 70
     1
102
RTVSPropertyOp21
 70
     1
102
RTVSPropertyOp22
 70
     1
102
RTVSPropertyOp23
 70
     1
102
RTVSPropertyOp24
 70
     1
102
RTVSPropertyOp25
 70
     1
102
RTVSPropertyOp26
 70
     1
102
RTVSPropertyOp27
 70
     1
102
RTVSPropertyOp28
 70
     1
102
RTVSPropertyOp29
 70
     1
102
RTVSPropertyOp30
 70
     1
102
RTVSPropertyOp31
 70
     1
102
RTVSPropertyOp32
 70
     1
102
RTVSPropertyOp33
 70
     1
102
RTVSPropertyOp34
 70
     1
102
RTVSPropertyOp35
 70
     1
102
RTVSPropertyOp36
 70
     1
102
RTVSPropertyOp37
 70
     1
102
RTVSPropertyOp38
 70
     1
102
RTVSPropertyOp39
 70
     1
102
RTVSPropertyOp40
 70
     1
102
RTVSPropertyOp41
 70
     1
102
RTVSPropertyOp42
 70
     1
102
RTVSPropertyOp43
 70
     1
102
RTVSPropertyOp44
 70
     1
102
RTVSPropertyOp45
 70
     1
102
RTVSPropertyOp46
 70
     1
102
RTVSPropertyOp47
 70
     1
102
RTVSPropertyOp48
 70
     1
102
RTVSPropertyOp49
 70
     1
102
RTVSPropertyOp50
 70
     1
102
RTVSPropertyOp51
 70
     0
102
RTVSPropertyOp52
 70
     0
102
RTVSPropertyOp53
 70
     1
102
RTVSPropertyOp54
 70
     1
102
RTVSPropertyOp55
 70
     1
102
RTVSPropertyOp56
 70
     1
102
RTVSPropertyOp57
 70
     1
102
RTVSPropertyOp58
 70
     1
102
RTVSPropertyOp59
 70
     1
102
RTVSPropertyOp60
 70
     1
102
RTVSPropertyOp61
 70
     1
102
RTVSPropertyOp62
 70
     1
  0
XRECORD
  5
5A8
102
{ACAD_REACTORS
330
5A7
102
}
330
5A7
100
AcDbXrecord
280
     1
102
RTVSPost2010Prop28
280
     0
102
RTVSPost2010PropOp28
 70
     0
102
RTVSPost2010Prop29
280
     1
102
RTVSPost2010PropOp29
 70
     0
102
RTVSPost2010Prop30
280
     1
102
RTVSPost2010PropOp30
 70
     0
102
RTVSPost2010Prop31
280
     0
102
RTVSPost2010PropOp31
 70
     0
102
RTVSPost2010Prop32
280
     0
102
RTVSPost2010PropOp32
 70
     0
102
RTVSPost2010Prop33
280
     0
102
RTVSPost2010PropOp33
 70
     0
102
RTVSPost2010Prop34
280
     0
102
RTVSPost2010PropOp34
 70
     0
102
RTVSPost2010Prop35
280
     0
102
RTVSPost2010PropOp35
 70
     0
102
RTVSPost2010Prop36
280
     0
102
RTVSPost2010PropOp36
 70
     0
102
RTVSPost2010Prop37
 90
       50
102
RTVSPost2010PropOp37
 70
     0
102
RTVSPost2010Prop38
140
0.0
102
RTVSPost2010PropOp38
 70
     0
102
RTVSPost2010Prop39
140
1.0
102
RTVSPost2010PropOp39
 70
     0
102
RTVSPost2010Prop40
 90
        0
102
RTVSPost2010PropOp40
 70
     0
102
RTVSPost2010Prop41ColorIndex
 90
       18
102
RTVSPost2010Prop41ColorRGB
 90
        0
102
RTVSPost2010PropOp41
 70
     0
102
RTVSPost2010Prop42
 90
       50
102
RTVSPost2010PropOp42
 70
     0
102
RTVSPost2010Prop43
 90
        3
102
RTVSPost2010PropOp43
 70
     0
102
RTVSPost2010Prop44ColorIndex
 90
        5
102
RTVSPost2010Prop44ColorRGB
 90
      255
102
RTVSPost2010PropOp44
 70
     0
102
RTVSPost2010Prop45
280
     0
102
RTVSPost2010PropOp45
 70
     0
102
RTVSPost2010Prop46
 90
       50
102
RTVSPost2010PropOp46
 70
     0
102
RTVSPost2010Prop47
 90
       50
102
RTVSPost2010PropOp47
 70
     0
102
RTVSPost2010Prop48
 90
       50
102
RTVSPost2010PropOp48
 70
     0
102
RTVSPost2010Prop49
280
     0
102
RTVSPost2010PropOp49
 70
     0
102
RTVSPost2010Prop50
 90
       50
102
RTVSPost2010PropOp50
 70
     0
102
RTVSPost2010Prop51ColorIndex
 90
      256
102
RTVSPost2010Prop51ColorRGB
 90
-16777216
102
RTVSPost2010PropOp51
 70
     0
102
RTVSPost2010Prop52
140
1.0
102
RTVSPost2010PropOp52
 70
     0
102
RTVSPost2010Prop53
 90
        2
102
RTVSPost2010PropOp53
 70
     0
102
RTVSPost2010Prop54
  1
strokes_ogs.tif
102
RTVSPost2010PropOp54
 70
     0
102
RTVSPost2010Prop55
280
     0
102
RTVSPost2010PropOp55
 70
     0
102
RTVSPost2010Prop56
140
1.0
102
RTVSPost2010PropOp56
 70
     0
102
RTVSPost2010Prop57
140
1.0
102
RTVSPost2010PropOp57
 70
     0
102
RTVSPropertyOp0
 70
     0
102
RTVSPropertyOp1
 70
     0
102
RTVSPropertyOp2
 70
     0
102
RTVSPropertyOp3
 70
     0
102
RTVSPropertyOp4
 70
     0
102
RTVSPropertyOp5
 70
     0
102
RTVSPropertyOp6
 70
     0
102
RTVSPropertyOp7
 70
     0
102
RTVSPropertyOp8
 70
     0
102
RTVSPropertyOp9
 70
     0
102
RTVSPropertyOp10
 70
     0
102
RTVSPropertyOp11
 70
     0
102
RTVSPropertyOp12
 70
     0
102
RTVSPropertyOp13
 70
     0
102
RTVSPropertyOp14
 70
     2
102
RTVSPropertyOp15
 70
     0
102
RTVSPropertyOp16
 70
     0
102
RTVSPropertyOp17
 70
     0
102
RTVSPropertyOp18
 70
     0
102
RTVSPropertyOp19
 70
     0
102
RTVSPropertyOp20
 70
     0
102
RTVSPropertyOp21
 70
     0
102
RTVSPropertyOp22
 70
     0
102
RTVSPropertyOp23
 70
     0
102
RTVSPropertyOp24
 70
     0
102
RTVSPropertyOp25
 70
     0
102
RTVSPropertyOp26
 70
     0
102
RTVSPropertyOp27
 70
     0
102
RTVSPropertyOp28
 70
     0
102
RTVSPropertyOp29
 70
     0
102
RTVSPropertyOp30
 70
     0
102
RTVSPropertyOp31
 70
     0
102
RTVSPropertyOp32
 70
     0
102
RTVSPropertyOp33
 70
     0
102
RTVSPropertyOp34
 70
     0
102
RTVSPropertyOp35
 70
     0
102
RTVSPropertyOp36
 70
     0
102
RTVSPropertyOp37
 70
     0
102
RTVSPropertyOp38
 70
     0
102
RTVSPropertyOp39
 70
     0
102
RTVSPropertyOp40
 70
     0
102
RTVSPropertyOp41
 70
     0
102
RTVSPropertyOp42
 70
     0
102
RTVSPropertyOp43
 70
     0
102
RTVSPropertyOp44
 70
     0
102
RTVSPropertyOp45
 70
     0
102
RTVSPropertyOp46
 70
     0
102
RTVSPropertyOp47
 70
     0
102
RTVSPropertyOp48
 70
     0
102
RTVSPropertyOp49
 70
     0
102
RTVSPropertyOp50
 70
     0
102
RTVSPropertyOp51
 70
     0
102
RTVSPropertyOp52
 70
     0
102
RTVSPropertyOp53
 70
     0
102
RTVSPropertyOp54
 70
     0
102
RTVSPropertyOp55
 70
     0
102
RTVSPropertyOp56
 70
     0
102
RTVSPropertyOp57
 70
     0
102
RTVSPropertyOp58
 70
     0
102
RTVSPropertyOp59
 70
     0
102
RTVSPropertyOp60
 70
     0
102
RTVSPropertyOp61
 70
     0
102
RTVSPropertyOp62
 70
     0
  0
XRECORD
  5
598
102
{ACAD_REACTORS
330
597
102
}
330
597
100
AcDbXrecord
280
     1
102
RTVSPost2010Prop28
280
     0
102
RTVSPost2010PropOp28
 70
     1
102
RTVSPost2010Prop29
280
     1
102
RTVSPost2010PropOp29
 70
     1
102
RTVSPost2010Prop30
280
     1
102
RTVSPost2010PropOp30
 70
     1
102
RTVSPost2010Prop31
280
     0
102
RTVSPost2010PropOp31
 70
     1
102
RTVSPost2010Prop32
280
     0
102
RTVSPost2010PropOp32
 70
     1
102
RTVSPost2010Prop33
280
     0
102
RTVSPost2010PropOp33
 70
     1
102
RTVSPost2010Prop34
280
     0
102
RTVSPost2010PropOp34
 70
     1
102
RTVSPost2010Prop35
280
     0
102
RTVSPost2010PropOp35
 70
     1
102
RTVSPost2010Prop36
280
     0
102
RTVSPost2010PropOp36
 70
     1
102
RTVSPost2010Prop37
 90
       50
102
RTVSPost2010PropOp37
 70
     1
102
RTVSPost2010Prop38
140
0.0
102
RTVSPost2010PropOp38
 70
     1
102
RTVSPost2010Prop39
140
1.0
102
RTVSPost2010PropOp39
 70
     1
102
RTVSPost2010Prop40
 90
        0
102
RTVSPost2010PropOp40
 70
     1
102
RTVSPost2010Prop41ColorIndex
 90
       18
102
RTVSPost2010Prop41ColorRGB
 90
        0
102
RTVSPost2010PropOp41
 70
     1
102
RTVSPost2010Prop42
 90
       50
102
RTVSPost2010PropOp42
 70
     1
102
RTVSPost2010Prop43
 90
        3
102
RTVSPost2010PropOp43
 70
     1
102
RTVSPost2010Prop44ColorIndex
 90
        5
102
RTVSPost2010Prop44ColorRGB
 90
      255
102
RTVSPost2010PropOp44
 70
     1
102
RTVSPost2010Prop45
280
     0
102
RTVSPost2010PropOp45
 70
     1
102
RTVSPost2010Prop46
 90
       50
102
RTVSPost2010PropOp46
 70
     1
102
RTVSPost2010Prop47
 90
       50
102
RTVSPost2010PropOp47
 70
     1
102
RTVSPost2010Prop48
 90
       50
102
RTVSPost2010PropOp48
 70
     1
102
RTVSPost2010Prop49
280
     0
102
RTVSPost2010PropOp49
 70
     1
102
RTVSPost2010Prop50
 90
       50
102
RTVSPost2010PropOp50
 70
     1
102
RTVSPost2010Prop51ColorIndex
 90
      256
102
RTVSPost2010Prop51ColorRGB
 90
-16777216
102
RTVSPost2010PropOp51
 70
     0
102
RTVSPost2010Prop52
140
1.0
102
RTVSPost2010PropOp52
 70
     0
102
RTVSPost2010Prop53
 90
        2
102
RTVSPost2010PropOp53
 70
     1
102
RTVSPost2010Prop54
  1
strokes_ogs.tif
102
RTVSPost2010PropOp54
 70
     1
102
RTVSPost2010Prop55
280
     0
102
RTVSPost2010PropOp55
 70
     1
102
RTVSPost2010Prop56
140
1.0
102
RTVSPost2010PropOp56
 70
     1
102
RTVSPost2010Prop57
140
1.0
102
RTVSPost2010PropOp57
 70
     1
102
RTVSPropertyOp0
 70
     1
102
RTVSPropertyOp1
 70
     1
102
RTVSPropertyOp2
 70
     1
102
RTVSPropertyOp3
 70
     1
102
RTVSPropertyOp4
 70
     1
102
RTVSPropertyOp5
 70
     1
102
RTVSPropertyOp6
 70
     1
102
RTVSPropertyOp7
 70
     1
102
RTVSPropertyOp8
 70
     1
102
RTVSPropertyOp9
 70
     1
102
RTVSPropertyOp10
 70
     1
102
RTVSPropertyOp11
 70
     1
102
RTVSPropertyOp12
 70
     1
102
RTVSPropertyOp13
 70
     1
102
RTVSPropertyOp14
 70
     1
102
RTVSPropertyOp15
 70
     1
102
RTVSPropertyOp16
 70
     1
102
RTVSPropertyOp17
 70
     1
102
RTVSPropertyOp18
 70
     1
102
RTVSPropertyOp19
 70
     1
102
RTVSPropertyOp20
 70
     1
102
RTVSPropertyOp21
 70
     1
102
RTVSPropertyOp22
 70
     1
102
RTVSPropertyOp23
 70
     1
102
RTVSPropertyOp24
 70
     1
102
RTVSPropertyOp25
 70
     1
102
RTVSPropertyOp26
 70
     1
102
RTVSPropertyOp27
 70
     1
102
RTVSPropertyOp28
 70
     1
102
RTVSPropertyOp29
 70
     1
102
RTVSPropertyOp30
 70
     1
102
RTVSPropertyOp31
 70
     1
102
RTVSPropertyOp32
 70
     1
102
RTVSPropertyOp33
 70
     1
102
RTVSPropertyOp34
 70
     1
102
RTVSPropertyOp35
 70
     1
102
RTVSPropertyOp36
 70
     1
102
RTVSPropertyOp37
 70
     1
102
RTVSPropertyOp38
 70
     1
102
RTVSPropertyOp39
 70
     1
102
RTVSPropertyOp40
 70
     1
102
RTVSPropertyOp41
 70
     1
102
RTVSPropertyOp42
 70
     1
102
RTVSPropertyOp43
 70
     1
102
RTVSPropertyOp44
 70
     1
102
RTVSPropertyOp45
 70
     1
102
RTVSPropertyOp46
 70
     1
102
RTVSPropertyOp47
 70
     1
102
RTVSPropertyOp48
 70
     1
102
RTVSPropertyOp49
 70
     1
102
RTVSPropertyOp50
 70
     1
102
RTVSPropertyOp51
 70
     0
102
RTVSPropertyOp52
 70
     0
102
RTVSPropertyOp53
 70
     1
102
RTVSPropertyOp54
 70
     1
102
RTVSPropertyOp55
 70
     1
102
RTVSPropertyOp56
 70
     1
102
RTVSPropertyOp57
 70
     1
102
RTVSPropertyOp58
 70
     1
102
RTVSPropertyOp59
 70
     1
102
RTVSPropertyOp60
 70
     1
102
RTVSPropertyOp61
 70
     1
102
RTVSPropertyOp62
 70
     1
  0
XRECORD
  5
5AA
102
{ACAD_REACTORS
330
5A9
102
}
330
5A9
100
AcDbXrecord
280
     1
102
RTVSPost2010Prop28
280
     0
102
RTVSPost2010PropOp28
 70
     0
102
RTVSPost2010Prop29
280
     1
102
RTVSPost2010PropOp29
 70
     0
102
RTVSPost2010Prop30
280
     1
102
RTVSPost2010PropOp30
 70
     0
102
RTVSPost2010Prop31
280
     0
102
RTVSPost2010PropOp31
 70
     0
102
RTVSPost2010Prop32
280
     0
102
RTVSPost2010PropOp32
 70
     0
102
RTVSPost2010Prop33
280
     0
102
RTVSPost2010PropOp33
 70
     0
102
RTVSPost2010Prop34
280
     0
102
RTVSPost2010PropOp34
 70
     0
102
RTVSPost2010Prop35
280
     0
102
RTVSPost2010PropOp35
 70
     0
102
RTVSPost2010Prop36
280
     0
102
RTVSPost2010PropOp36
 70
     0
102
RTVSPost2010Prop37
 90
       50
102
RTVSPost2010PropOp37
 70
     0
102
RTVSPost2010Prop38
140
0.0
102
RTVSPost2010PropOp38
 70
     0
102
RTVSPost2010Prop39
140
1.0
102
RTVSPost2010PropOp39
 70
     0
102
RTVSPost2010Prop40
 90
        0
102
RTVSPost2010PropOp40
 70
     0
102
RTVSPost2010Prop41ColorIndex
 90
       18
102
RTVSPost2010Prop41ColorRGB
 90
        0
102
RTVSPost2010PropOp41
 70
     0
102
RTVSPost2010Prop42
 90
       50
102
RTVSPost2010PropOp42
 70
     0
102
RTVSPost2010Prop43
 90
        3
102
RTVSPost2010PropOp43
 70
     0
102
RTVSPost2010Prop44ColorIndex
 90
        5
102
RTVSPost2010Prop44ColorRGB
 90
      255
102
RTVSPost2010PropOp44
 70
     0
102
RTVSPost2010Prop45
280
     0
102
RTVSPost2010PropOp45
 70
     0
102
RTVSPost2010Prop46
 90
       50
102
RTVSPost2010PropOp46
 70
     0
102
RTVSPost2010Prop47
 90
       50
102
RTVSPost2010PropOp47
 70
     0
102
RTVSPost2010Prop48
 90
       50
102
RTVSPost2010PropOp48
 70
     0
102
RTVSPost2010Prop49
280
     0
102
RTVSPost2010PropOp49
 70
     0
102
RTVSPost2010Prop50
 90
       50
102
RTVSPost2010PropOp50
 70
     0
102
RTVSPost2010Prop51ColorIndex
 90
      256
102
RTVSPost2010Prop51ColorRGB
 90
-16777216
102
RTVSPost2010PropOp51
 70
     0
102
RTVSPost2010Prop52
140
1.0
102
RTVSPost2010PropOp52
 70
     0
102
RTVSPost2010Prop53
 90
        2
102
RTVSPost2010PropOp53
 70
     0
102
RTVSPost2010Prop54
  1
strokes_ogs.tif
102
RTVSPost2010PropOp54
 70
     0
102
RTVSPost2010Prop55
280
     0
102
RTVSPost2010PropOp55
 70
     0
102
RTVSPost2010Prop56
140
1.0
102
RTVSPost2010PropOp56
 70
     0
102
RTVSPost2010Prop57
140
1.0
102
RTVSPost2010PropOp57
 70
     0
102
RTVSPropertyOp0
 70
     0
102
RTVSPropertyOp1
 70
     0
102
RTVSPropertyOp2
 70
     0
102
RTVSPropertyOp3
 70
     0
102
RTVSPropertyOp4
 70
     0
102
RTVSPropertyOp5
 70
     0
102
RTVSPropertyOp6
 70
     0
102
RTVSPropertyOp7
 70
     0
102
RTVSPropertyOp8
 70
     0
102
RTVSPropertyOp9
 70
     0
102
RTVSPropertyOp10
 70
     0
102
RTVSPropertyOp11
 70
     0
102
RTVSPropertyOp12
 70
     0
102
RTVSPropertyOp13
 70
     0
102
RTVSPropertyOp14
 70
     2
102
RTVSPropertyOp15
 70
     0
102
RTVSPropertyOp16
 70
     0
102
RTVSPropertyOp17
 70
     0
102
RTVSPropertyOp18
 70
     0
102
RTVSPropertyOp19
 70
     0
102
RTVSPropertyOp20
 70
     0
102
RTVSPropertyOp21
 70
     0
102
RTVSPropertyOp22
 70
     0
102
RTVSPropertyOp23
 70
     0
102
RTVSPropertyOp24
 70
     0
102
RTVSPropertyOp25
 70
     0
102
RTVSPropertyOp26
 70
     0
102
RTVSPropertyOp27
 70
     0
102
RTVSPropertyOp28
 70
     0
102
RTVSPropertyOp29
 70
     0
102
RTVSPropertyOp30
 70
     0
102
RTVSPropertyOp31
 70
     0
102
RTVSPropertyOp32
 70
     0
102
RTVSPropertyOp33
 70
     0
102
RTVSPropertyOp34
 70
     0
102
RTVSPropertyOp35
 70
     0
102
RTVSPropertyOp36
 70
     0
102
RTVSPropertyOp37
 70
     0
102
RTVSPropertyOp38
 70
     0
102
RTVSPropertyOp39
 70
     0
102
RTVSPropertyOp40
 70
     0
102
RTVSPropertyOp41
 70
     0
102
RTVSPropertyOp42
 70
     0
102
RTVSPropertyOp43
 70
     0
102
RTVSPropertyOp44
 70
     0
102
RTVSPropertyOp45
 70
     0
102
RTVSPropertyOp46
 70
     0
102
RTVSPropertyOp47
 70
     0
102
RTVSPropertyOp48
 70
     0
102
RTVSPropertyOp49
 70
     0
102
RTVSPropertyOp50
 70
     0
102
RTVSPropertyOp51
 70
     0
102
RTVSPropertyOp52
 70
     0
102
RTVSPropertyOp53
 70
     0
102
RTVSPropertyOp54
 70
     0
102
RTVSPropertyOp55
 70
     0
102
RTVSPropertyOp56
 70
     0
102
RTVSPropertyOp57
 70
     0
102
RTVSPropertyOp58
 70
     0
102
RTVSPropertyOp59
 70
     0
102
RTVSPropertyOp60
 70
     0
102
RTVSPropertyOp61
 70
     0
102
RTVSPropertyOp62
 70
     0
  0
XRECORD
  5
590
102
{ACAD_REACTORS
330
58F
102
}
330
58F
100
AcDbXrecord
280
     1
102
RTVSPost2010Prop28
280
     0
102
RTVSPost2010PropOp28
 70
     1
102
RTVSPost2010Prop29
280
     1
102
RTVSPost2010PropOp29
 70
     1
102
RTVSPost2010Prop30
280
     1
102
RTVSPost2010PropOp30
 70
     1
102
RTVSPost2010Prop31
280
     0
102
RTVSPost2010PropOp31
 70
     1
102
RTVSPost2010Prop32
280
     0
102
RTVSPost2010PropOp32
 70
     1
102
RTVSPost2010Prop33
280
     0
102
RTVSPost2010PropOp33
 70
     1
102
RTVSPost2010Prop34
280
     0
102
RTVSPost2010PropOp34
 70
     1
102
RTVSPost2010Prop35
280
     0
102
RTVSPost2010PropOp35
 70
     1
102
RTVSPost2010Prop36
280
     0
102
RTVSPost2010PropOp36
 70
     1
102
RTVSPost2010Prop37
 90
       50
102
RTVSPost2010PropOp37
 70
     1
102
RTVSPost2010Prop38
140
0.0
102
RTVSPost2010PropOp38
 70
     1
102
RTVSPost2010Prop39
140
1.0
102
RTVSPost2010PropOp39
 70
     1
102
RTVSPost2010Prop40
 90
        0
102
RTVSPost2010PropOp40
 70
     1
102
RTVSPost2010Prop41ColorIndex
 90
       18
102
RTVSPost2010Prop41ColorRGB
 90
        0
102
RTVSPost2010PropOp41
 70
     1
102
RTVSPost2010Prop42
 90
       50
102
RTVSPost2010PropOp42
 70
     1
102
RTVSPost2010Prop43
 90
        3
102
RTVSPost2010PropOp43
 70
     1
102
RTVSPost2010Prop44ColorIndex
 90
        5
102
RTVSPost2010Prop44ColorRGB
 90
      255
102
RTVSPost2010PropOp44
 70
     1
102
RTVSPost2010Prop45
280
     0
102
RTVSPost2010PropOp45
 70
     1
102
RTVSPost2010Prop46
 90
       50
102
RTVSPost2010PropOp46
 70
     1
102
RTVSPost2010Prop47
 90
       50
102
RTVSPost2010PropOp47
 70
     1
102
RTVSPost2010Prop48
 90
       50
102
RTVSPost2010PropOp48
 70
     1
102
RTVSPost2010Prop49
280
     0
102
RTVSPost2010PropOp49
 70
     1
102
RTVSPost2010Prop50
 90
       50
102
RTVSPost2010PropOp50
 70
     1
102
RTVSPost2010Prop51ColorIndex
 90
      256
102
RTVSPost2010Prop51ColorRGB
 90
-16777216
102
RTVSPost2010PropOp51
 70
     0
102
RTVSPost2010Prop52
140
1.0
102
RTVSPost2010PropOp52
 70
     0
102
RTVSPost2010Prop53
 90
        2
102
RTVSPost2010PropOp53
 70
     1
102
RTVSPost2010Prop54
  1
strokes_ogs.tif
102
RTVSPost2010PropOp54
 70
     1
102
RTVSPost2010Prop55
280
     0
102
RTVSPost2010PropOp55
 70
     1
102
RTVSPost2010Prop56
140
1.0
102
RTVSPost2010PropOp56
 70
     1
102
RTVSPost2010Prop57
140
1.0
102
RTVSPost2010PropOp57
 70
     1
102
RTVSPropertyOp0
 70
     1
102
RTVSPropertyOp1
 70
     1
102
RTVSPropertyOp2
 70
     1
102
RTVSPropertyOp3
 70
     1
102
RTVSPropertyOp4
 70
     1
102
RTVSPropertyOp5
 70
     1
102
RTVSPropertyOp6
 70
     1
102
RTVSPropertyOp7
 70
     1
102
RTVSPropertyOp8
 70
     1
102
RTVSPropertyOp9
 70
     1
102
RTVSPropertyOp10
 70
     1
102
RTVSPropertyOp11
 70
     1
102
RTVSPropertyOp12
 70
     1
102
RTVSPropertyOp13
 70
     1
102
RTVSPropertyOp14
 70
     1
102
RTVSPropertyOp15
 70
     1
102
RTVSPropertyOp16
 70
     1
102
RTVSPropertyOp17
 70
     1
102
RTVSPropertyOp18
 70
     1
102
RTVSPropertyOp19
 70
     1
102
RTVSPropertyOp20
 70
     1
102
RTVSPropertyOp21
 70
     1
102
RTVSPropertyOp22
 70
     1
102
RTVSPropertyOp23
 70
     1
102
RTVSPropertyOp24
 70
     1
102
RTVSPropertyOp25
 70
     1
102
RTVSPropertyOp26
 70
     1
102
RTVSPropertyOp27
 70
     1
102
RTVSPropertyOp28
 70
     1
102
RTVSPropertyOp29
 70
     1
102
RTVSPropertyOp30
 70
     1
102
RTVSPropertyOp31
 70
     1
102
RTVSPropertyOp32
 70
     1
102
RTVSPropertyOp33
 70
     1
102
RTVSPropertyOp34
 70
     1
102
RTVSPropertyOp35
 70
     1
102
RTVSPropertyOp36
 70
     1
102
RTVSPropertyOp37
 70
     1
102
RTVSPropertyOp38
 70
     1
102
RTVSPropertyOp39
 70
     1
102
RTVSPropertyOp40
 70
     1
102
RTVSPropertyOp41
 70
     1
102
RTVSPropertyOp42
 70
     1
102
RTVSPropertyOp43
 70
     1
102
RTVSPropertyOp44
 70
     1
102
RTVSPropertyOp45
 70
     1
102
RTVSPropertyOp46
 70
     1
102
RTVSPropertyOp47
 70
     1
102
RTVSPropertyOp48
 70
     1
102
RTVSPropertyOp49
 70
     1
102
RTVSPropertyOp50
 70
     1
102
RTVSPropertyOp51
 70
     0
102
RTVSPropertyOp52
 70
     0
102
RTVSPropertyOp53
 70
     1
102
RTVSPropertyOp54
 70
     1
102
RTVSPropertyOp55
 70
     1
102
RTVSPropertyOp56
 70
     1
102
RTVSPropertyOp57
 70
     1
102
RTVSPropertyOp58
 70
     1
102
RTVSPropertyOp59
 70
     1
102
RTVSPropertyOp60
 70
     1
102
RTVSPropertyOp61
 70
     1
102
RTVSPropertyOp62
 70
     1
  0
XRECORD
  5
5A6
102
{ACAD_REACTORS
330
5A5
102
}
330
5A5
100
AcDbXrecord
280
     1
102
RTVSPost2010Prop28
280
     0
102
RTVSPost2010PropOp28
 70
     1
102
RTVSPost2010Prop29
280
     1
102
RTVSPost2010PropOp29
 70
     1
102
RTVSPost2010Prop30
280
     1
102
RTVSPost2010PropOp30
 70
     1
102
RTVSPost2010Prop31
280
     0
102
RTVSPost2010PropOp31
 70
     1
102
RTVSPost2010Prop32
280
     0
102
RTVSPost2010PropOp32
 70
     1
102
RTVSPost2010Prop33
280
     0
102
RTVSPost2010PropOp33
 70
     1
102
RTVSPost2010Prop34
280
     0
102
RTVSPost2010PropOp34
 70
     1
102
RTVSPost2010Prop35
280
     0
102
RTVSPost2010PropOp35
 70
     1
102
RTVSPost2010Prop36
280
     0
102
RTVSPost2010PropOp36
 70
     1
102
RTVSPost2010Prop37
 90
       50
102
RTVSPost2010PropOp37
 70
     1
102
RTVSPost2010Prop38
140
0.0
102
RTVSPost2010PropOp38
 70
     1
102
RTVSPost2010Prop39
140
1.0
102
RTVSPost2010PropOp39
 70
     1
102
RTVSPost2010Prop40
 90
        0
102
RTVSPost2010PropOp40
 70
     1
102
RTVSPost2010Prop41ColorIndex
 90
       18
102
RTVSPost2010Prop41ColorRGB
 90
        0
102
RTVSPost2010PropOp41
 70
     1
102
RTVSPost2010Prop42
 90
       50
102
RTVSPost2010PropOp42
 70
     1
102
RTVSPost2010Prop43
 90
        3
102
RTVSPost2010PropOp43
 70
     1
102
RTVSPost2010Prop44ColorIndex
 90
        5
102
RTVSPost2010Prop44ColorRGB
 90
      255
102
RTVSPost2010PropOp44
 70
     1
102
RTVSPost2010Prop45
280
     0
102
RTVSPost2010PropOp45
 70
     1
102
RTVSPost2010Prop46
 90
       50
102
RTVSPost2010PropOp46
 70
     1
102
RTVSPost2010Prop47
 90
       50
102
RTVSPost2010PropOp47
 70
     1
102
RTVSPost2010Prop48
 90
       50
102
RTVSPost2010PropOp48
 70
     1
102
RTVSPost2010Prop49
280
     0
102
RTVSPost2010PropOp49
 70
     1
102
RTVSPost2010Prop50
 90
       50
102
RTVSPost2010PropOp50
 70
     1
102
RTVSPost2010Prop51ColorIndex
 90
      256
102
RTVSPost2010Prop51ColorRGB
 90
-16777216
102
RTVSPost2010PropOp51
 70
     0
102
RTVSPost2010Prop52
140
1.0
102
RTVSPost2010PropOp52
 70
     0
102
RTVSPost2010Prop53
 90
        2
102
RTVSPost2010PropOp53
 70
     1
102
RTVSPost2010Prop54
  1
strokes_ogs.tif
102
RTVSPost2010PropOp54
 70
     1
102
RTVSPost2010Prop55
280
     0
102
RTVSPost2010PropOp55
 70
     1
102
RTVSPost2010Prop56
140
1.0
102
RTVSPost2010PropOp56
 70
     1
102
RTVSPost2010Prop57
140
1.0
102
RTVSPost2010PropOp57
 70
     1
102
RTVSPropertyOp0
 70
     1
102
RTVSPropertyOp1
 70
     1
102
RTVSPropertyOp2
 70
     1
102
RTVSPropertyOp3
 70
     1
102
RTVSPropertyOp4
 70
     1
102
RTVSPropertyOp5
 70
     1
102
RTVSPropertyOp6
 70
     1
102
RTVSPropertyOp7
 70
     1
102
RTVSPropertyOp8
 70
     1
102
RTVSPropertyOp9
 70
     1
102
RTVSPropertyOp10
 70
     1
102
RTVSPropertyOp11
 70
     1
102
RTVSPropertyOp12
 70
     1
102
RTVSPropertyOp13
 70
     1
102
RTVSPropertyOp14
 70
     1
102
RTVSPropertyOp15
 70
     1
102
RTVSPropertyOp16
 70
     1
102
RTVSPropertyOp17
 70
     1
102
RTVSPropertyOp18
 70
     1
102
RTVSPropertyOp19
 70
     1
102
RTVSPropertyOp20
 70
     1
102
RTVSPropertyOp21
 70
     1
102
RTVSPropertyOp22
 70
     1
102
RTVSPropertyOp23
 70
     1
102
RTVSPropertyOp24
 70
     1
102
RTVSPropertyOp25
 70
     1
102
RTVSPropertyOp26
 70
     1
102
RTVSPropertyOp27
 70
     1
102
RTVSPropertyOp28
 70
     1
102
RTVSPropertyOp29
 70
     1
102
RTVSPropertyOp30
 70
     1
102
RTVSPropertyOp31
 70
     1
102
RTVSPropertyOp32
 70
     1
102
RTVSPropertyOp33
 70
     1
102
RTVSPropertyOp34
 70
     1
102
RTVSPropertyOp35
 70
     1
102
RTVSPropertyOp36
 70
     1
102
RTVSPropertyOp37
 70
     1
102
RTVSPropertyOp38
 70
     1
102
RTVSPropertyOp39
 70
     1
102
RTVSPropertyOp40
 70
     1
102
RTVSPropertyOp41
 70
     1
102
RTVSPropertyOp42
 70
     1
102
RTVSPropertyOp43
 70
     1
102
RTVSPropertyOp44
 70
     1
102
RTVSPropertyOp45
 70
     1
102
RTVSPropertyOp46
 70
     1
102
RTVSPropertyOp47
 70
     1
102
RTVSPropertyOp48
 70
     1
102
RTVSPropertyOp49
 70
     1
102
RTVSPropertyOp50
 70
     1
102
RTVSPropertyOp51
 70
     0
102
RTVSPropertyOp52
 70
     0
102
RTVSPropertyOp53
 70
     1
102
RTVSPropertyOp54
 70
     1
102
RTVSPropertyOp55
 70
     1
102
RTVSPropertyOp56
 70
     1
102
RTVSPropertyOp57
 70
     1
102
RTVSPropertyOp58
 70
     1
102
RTVSPropertyOp59
 70
     1
102
RTVSPropertyOp60
 70
     1
102
RTVSPropertyOp61
 70
     1
102
RTVSPropertyOp62
 70
     1
  0
XRECORD
  5
5A4
102
{ACAD_REACTORS
330
5A3
102
}
330
5A3
100
AcDbXrecord
280
     1
102
RTVSPost2010Prop28
280
     0
102
RTVSPost2010PropOp28
 70
     1
102
RTVSPost2010Prop29
280
     1
102
RTVSPost2010PropOp29
 70
     1
102
RTVSPost2010Prop30
280
     1
102
RTVSPost2010PropOp30
 70
     1
102
RTVSPost2010Prop31
280
     0
102
RTVSPost2010PropOp31
 70
     1
102
RTVSPost2010Prop32
280
     0
102
RTVSPost2010PropOp32
 70
     1
102
RTVSPost2010Prop33
280
     0
102
RTVSPost2010PropOp33
 70
     1
102
RTVSPost2010Prop34
280
     0
102
RTVSPost2010PropOp34
 70
     1
102
RTVSPost2010Prop35
280
     0
102
RTVSPost2010PropOp35
 70
     1
102
RTVSPost2010Prop36
280
     0
102
RTVSPost2010PropOp36
 70
     1
102
RTVSPost2010Prop37
 90
       50
102
RTVSPost2010PropOp37
 70
     1
102
RTVSPost2010Prop38
140
0.0
102
RTVSPost2010PropOp38
 70
     1
102
RTVSPost2010Prop39
140
1.0
102
RTVSPost2010PropOp39
 70
     1
102
RTVSPost2010Prop40
 90
        0
102
RTVSPost2010PropOp40
 70
     1
102
RTVSPost2010Prop41ColorIndex
 90
       18
102
RTVSPost2010Prop41ColorRGB
 90
        0
102
RTVSPost2010PropOp41
 70
     1
102
RTVSPost2010Prop42
 90
       50
102
RTVSPost2010PropOp42
 70
     1
102
RTVSPost2010Prop43
 90
        3
102
RTVSPost2010PropOp43
 70
     1
102
RTVSPost2010Prop44ColorIndex
 90
        5
102
RTVSPost2010Prop44ColorRGB
 90
      255
102
RTVSPost2010PropOp44
 70
     1
102
RTVSPost2010Prop45
280
     0
102
RTVSPost2010PropOp45
 70
     1
102
RTVSPost2010Prop46
 90
       50
102
RTVSPost2010PropOp46
 70
     1
102
RTVSPost2010Prop47
 90
       50
102
RTVSPost2010PropOp47
 70
     1
102
RTVSPost2010Prop48
 90
       50
102
RTVSPost2010PropOp48
 70
     1
102
RTVSPost2010Prop49
280
     0
102
RTVSPost2010PropOp49
 70
     1
102
RTVSPost2010Prop50
 90
       50
102
RTVSPost2010PropOp50
 70
     1
102
RTVSPost2010Prop51ColorIndex
 90
      256
102
RTVSPost2010Prop51ColorRGB
 90
-16777216
102
RTVSPost2010PropOp51
 70
     0
102
RTVSPost2010Prop52
140
1.0
102
RTVSPost2010PropOp52
 70
     0
102
RTVSPost2010Prop53
 90
        2
102
RTVSPost2010PropOp53
 70
     1
102
RTVSPost2010Prop54
  1
strokes_ogs.tif
102
RTVSPost2010PropOp54
 70
     1
102
RTVSPost2010Prop55
280
     0
102
RTVSPost2010PropOp55
 70
     1
102
RTVSPost2010Prop56
140
1.0
102
RTVSPost2010PropOp56
 70
     1
102
RTVSPost2010Prop57
140
1.0
102
RTVSPost2010PropOp57
 70
     1
102
RTVSPropertyOp0
 70
     1
102
RTVSPropertyOp1
 70
     1
102
RTVSPropertyOp2
 70
     1
102
RTVSPropertyOp3
 70
     1
102
RTVSPropertyOp4
 70
     1
102
RTVSPropertyOp5
 70
     1
102
RTVSPropertyOp6
 70
     1
102
RTVSPropertyOp7
 70
     1
102
RTVSPropertyOp8
 70
     1
102
RTVSPropertyOp9
 70
     1
102
RTVSPropertyOp10
 70
     1
102
RTVSPropertyOp11
 70
     1
102
RTVSPropertyOp12
 70
     1
102
RTVSPropertyOp13
 70
     1
102
RTVSPropertyOp14
 70
     1
102
RTVSPropertyOp15
 70
     1
102
RTVSPropertyOp16
 70
     1
102
RTVSPropertyOp17
 70
     1
102
RTVSPropertyOp18
 70
     1
102
RTVSPropertyOp19
 70
     1
102
RTVSPropertyOp20
 70
     1
102
RTVSPropertyOp21
 70
     1
102
RTVSPropertyOp22
 70
     1
102
RTVSPropertyOp23
 70
     1
102
RTVSPropertyOp24
 70
     1
102
RTVSPropertyOp25
 70
     1
102
RTVSPropertyOp26
 70
     1
102
RTVSPropertyOp27
 70
     1
102
RTVSPropertyOp28
 70
     1
102
RTVSPropertyOp29
 70
     1
102
RTVSPropertyOp30
 70
     1
102
RTVSPropertyOp31
 70
     1
102
RTVSPropertyOp32
 70
     1
102
RTVSPropertyOp33
 70
     1
102
RTVSPropertyOp34
 70
     1
102
RTVSPropertyOp35
 70
     1
102
RTVSPropertyOp36
 70
     1
102
RTVSPropertyOp37
 70
     1
102
RTVSPropertyOp38
 70
     1
102
RTVSPropertyOp39
 70
     1
102
RTVSPropertyOp40
 70
     1
102
RTVSPropertyOp41
 70
     1
102
RTVSPropertyOp42
 70
     1
102
RTVSPropertyOp43
 70
     1
102
RTVSPropertyOp44
 70
     1
102
RTVSPropertyOp45
 70
     1
102
RTVSPropertyOp46
 70
     1
102
RTVSPropertyOp47
 70
     1
102
RTVSPropertyOp48
 70
     1
102
RTVSPropertyOp49
 70
     1
102
RTVSPropertyOp50
 70
     1
102
RTVSPropertyOp51
 70
     0
102
RTVSPropertyOp52
 70
     0
102
RTVSPropertyOp53
 70
     1
102
RTVSPropertyOp54
 70
     1
102
RTVSPropertyOp55
 70
     1
102
RTVSPropertyOp56
 70
     1
102
RTVSPropertyOp57
 70
     1
102
RTVSPropertyOp58
 70
     1
102
RTVSPropertyOp59
 70
     1
102
RTVSPropertyOp60
 70
     1
102
RTVSPropertyOp61
 70
     1
102
RTVSPropertyOp62
 70
     1
  0
XRECORD
  5
59E
102
{ACAD_REACTORS
330
59D
102
}
330
59D
100
AcDbXrecord
280
     1
102
RTVSPost2010Prop28
280
     0
102
RTVSPost2010PropOp28
 70
     1
102
RTVSPost2010Prop29
280
     1
102
RTVSPost2010PropOp29
 70
     1
102
RTVSPost2010Prop30
280
     1
102
RTVSPost2010PropOp30
 70
     1
102
RTVSPost2010Prop31
280
     0
102
RTVSPost2010PropOp31
 70
     1
102
RTVSPost2010Prop32
280
     0
102
RTVSPost2010PropOp32
 70
     1
102
RTVSPost2010Prop33
280
     0
102
RTVSPost2010PropOp33
 70
     1
102
RTVSPost2010Prop34
280
     0
102
RTVSPost2010PropOp34
 70
     1
102
RTVSPost2010Prop35
280
     0
102
RTVSPost2010PropOp35
 70
     1
102
RTVSPost2010Prop36
280
     0
102
RTVSPost2010PropOp36
 70
     1
102
RTVSPost2010Prop37
 90
       50
102
RTVSPost2010PropOp37
 70
     1
102
RTVSPost2010Prop38
140
0.0
102
RTVSPost2010PropOp38
 70
     1
102
RTVSPost2010Prop39
140
1.0
102
RTVSPost2010PropOp39
 70
     1
102
RTVSPost2010Prop40
 90
        0
102
RTVSPost2010PropOp40
 70
     1
102
RTVSPost2010Prop41ColorIndex
 90
       18
102
RTVSPost2010Prop41ColorRGB
 90
        0
102
RTVSPost2010PropOp41
 70
     1
102
RTVSPost2010Prop42
 90
       50
102
RTVSPost2010PropOp42
 70
     1
102
RTVSPost2010Prop43
 90
        3
102
RTVSPost2010PropOp43
 70
     1
102
RTVSPost2010Prop44ColorIndex
 90
        5
102
RTVSPost2010Prop44ColorRGB
 90
      255
102
RTVSPost2010PropOp44
 70
     1
102
RTVSPost2010Prop45
280
     0
102
RTVSPost2010PropOp45
 70
     1
102
RTVSPost2010Prop46
 90
       50
102
RTVSPost2010PropOp46
 70
     1
102
RTVSPost2010Prop47
 90
       50
102
RTVSPost2010PropOp47
 70
     1
102
RTVSPost2010Prop48
 90
       50
102
RTVSPost2010PropOp48
 70
     1
102
RTVSPost2010Prop49
280
     0
102
RTVSPost2010PropOp49
 70
     1
102
RTVSPost2010Prop50
 90
       50
102
RTVSPost2010PropOp50
 70
     1
102
RTVSPost2010Prop51ColorIndex
 90
      256
102
RTVSPost2010Prop51ColorRGB
 90
-16777216
102
RTVSPost2010PropOp51
 70
     0
102
RTVSPost2010Prop52
140
1.0
102
RTVSPost2010PropOp52
 70
     0
102
RTVSPost2010Prop53
 90
        2
102
RTVSPost2010PropOp53
 70
     1
102
RTVSPost2010Prop54
  1
strokes_ogs.tif
102
RTVSPost2010PropOp54
 70
     1
102
RTVSPost2010Prop55
280
     0
102
RTVSPost2010PropOp55
 70
     1
102
RTVSPost2010Prop56
140
1.0
102
RTVSPost2010PropOp56
 70
     1
102
RTVSPost2010Prop57
140
1.0
102
RTVSPost2010PropOp57
 70
     1
102
RTVSPropertyOp0
 70
     1
102
RTVSPropertyOp1
 70
     1
102
RTVSPropertyOp2
 70
     1
102
RTVSPropertyOp3
 70
     1
102
RTVSPropertyOp4
 70
     1
102
RTVSPropertyOp5
 70
     1
102
RTVSPropertyOp6
 70
     1
102
RTVSPropertyOp7
 70
     1
102
RTVSPropertyOp8
 70
     1
102
RTVSPropertyOp9
 70
     1
102
RTVSPropertyOp10
 70
     1
102
RTVSPropertyOp11
 70
     1
102
RTVSPropertyOp12
 70
     1
102
RTVSPropertyOp13
 70
     1
102
RTVSPropertyOp14
 70
     1
102
RTVSPropertyOp15
 70
     1
102
RTVSPropertyOp16
 70
     1
102
RTVSPropertyOp17
 70
     1
102
RTVSPropertyOp18
 70
     1
102
RTVSPropertyOp19
 70
     1
102
RTVSPropertyOp20
 70
     1
102
RTVSPropertyOp21
 70
     1
102
RTVSPropertyOp22
 70
     1
102
RTVSPropertyOp23
 70
     1
102
RTVSPropertyOp24
 70
     1
102
RTVSPropertyOp25
 70
     1
102
RTVSPropertyOp26
 70
     1
102
RTVSPropertyOp27
 70
     1
102
RTVSPropertyOp28
 70
     1
102
RTVSPropertyOp29
 70
     1
102
RTVSPropertyOp30
 70
     1
102
RTVSPropertyOp31
 70
     1
102
RTVSPropertyOp32
 70
     1
102
RTVSPropertyOp33
 70
     1
102
RTVSPropertyOp34
 70
     1
102
RTVSPropertyOp35
 70
     1
102
RTVSPropertyOp36
 70
     1
102
RTVSPropertyOp37
 70
     1
102
RTVSPropertyOp38
 70
     1
102
RTVSPropertyOp39
 70
     1
102
RTVSPropertyOp40
 70
     1
102
RTVSPropertyOp41
 70
     1
102
RTVSPropertyOp42
 70
     1
102
RTVSPropertyOp43
 70
     1
102
RTVSPropertyOp44
 70
     1
102
RTVSPropertyOp45
 70
     1
102
RTVSPropertyOp46
 70
     1
102
RTVSPropertyOp47
 70
     1
102
RTVSPropertyOp48
 70
     1
102
RTVSPropertyOp49
 70
     1
102
RTVSPropertyOp50
 70
     1
102
RTVSPropertyOp51
 70
     0
102
RTVSPropertyOp52
 70
     0
102
RTVSPropertyOp53
 70
     1
102
RTVSPropertyOp54
 70
     1
102
RTVSPropertyOp55
 70
     1
102
RTVSPropertyOp56
 70
     1
102
RTVSPropertyOp57
 70
     1
102
RTVSPropertyOp58
 70
     1
102
RTVSPropertyOp59
 70
     1
102
RTVSPropertyOp60
 70
     1
102
RTVSPropertyOp61
 70
     1
102
RTVSPropertyOp62
 70
     1
  0
XRECORD
  5
5A0
102
{ACAD_REACTORS
330
59F
102
}
330
59F
100
AcDbXrecord
280
     1
102
RTVSPost2010Prop28
280
     0
102
RTVSPost2010PropOp28
 70
     1
102
RTVSPost2010Prop29
280
     1
102
RTVSPost2010PropOp29
 70
     1
102
RTVSPost2010Prop30
280
     1
102
RTVSPost2010PropOp30
 70
     1
102
RTVSPost2010Prop31
280
     0
102
RTVSPost2010PropOp31
 70
     1
102
RTVSPost2010Prop32
280
     0
102
RTVSPost2010PropOp32
 70
     1
102
RTVSPost2010Prop33
280
     0
102
RTVSPost2010PropOp33
 70
     1
102
RTVSPost2010Prop34
280
     0
102
RTVSPost2010PropOp34
 70
     1
102
RTVSPost2010Prop35
280
     0
102
RTVSPost2010PropOp35
 70
     1
102
RTVSPost2010Prop36
280
     0
102
RTVSPost2010PropOp36
 70
     1
102
RTVSPost2010Prop37
 90
       50
102
RTVSPost2010PropOp37
 70
     1
102
RTVSPost2010Prop38
140
0.0
102
RTVSPost2010PropOp38
 70
     1
102
RTVSPost2010Prop39
140
1.0
102
RTVSPost2010PropOp39
 70
     1
102
RTVSPost2010Prop40
 90
        0
102
RTVSPost2010PropOp40
 70
     1
102
RTVSPost2010Prop41ColorIndex
 90
       18
102
RTVSPost2010Prop41ColorRGB
 90
        0
102
RTVSPost2010PropOp41
 70
     1
102
RTVSPost2010Prop42
 90
       50
102
RTVSPost2010PropOp42
 70
     1
102
RTVSPost2010Prop43
 90
        3
102
RTVSPost2010PropOp43
 70
     1
102
RTVSPost2010Prop44ColorIndex
 90
        5
102
RTVSPost2010Prop44ColorRGB
 90
      255
102
RTVSPost2010PropOp44
 70
     1
102
RTVSPost2010Prop45
280
     0
102
RTVSPost2010PropOp45
 70
     1
102
RTVSPost2010Prop46
 90
       50
102
RTVSPost2010PropOp46
 70
     1
102
RTVSPost2010Prop47
 90
       50
102
RTVSPost2010PropOp47
 70
     1
102
RTVSPost2010Prop48
 90
       50
102
RTVSPost2010PropOp48
 70
     1
102
RTVSPost2010Prop49
280
     0
102
RTVSPost2010PropOp49
 70
     1
102
RTVSPost2010Prop50
 90
       50
102
RTVSPost2010PropOp50
 70
     1
102
RTVSPost2010Prop51ColorIndex
 90
      256
102
RTVSPost2010Prop51ColorRGB
 90
-16777216
102
RTVSPost2010PropOp51
 70
     0
102
RTVSPost2010Prop52
140
1.0
102
RTVSPost2010PropOp52
 70
     0
102
RTVSPost2010Prop53
 90
        2
102
RTVSPost2010PropOp53
 70
     1
102
RTVSPost2010Prop54
  1
strokes_ogs.tif
102
RTVSPost2010PropOp54
 70
     1
102
RTVSPost2010Prop55
280
     0
102
RTVSPost2010PropOp55
 70
     1
102
RTVSPost2010Prop56
140
1.0
102
RTVSPost2010PropOp56
 70
     1
102
RTVSPost2010Prop57
140
1.0
102
RTVSPost2010PropOp57
 70
     1
102
RTVSPropertyOp0
 70
     1
102
RTVSPropertyOp1
 70
     1
102
RTVSPropertyOp2
 70
     1
102
RTVSPropertyOp3
 70
     1
102
RTVSPropertyOp4
 70
     1
102
RTVSPropertyOp5
 70
     1
102
RTVSPropertyOp6
 70
     1
102
RTVSPropertyOp7
 70
     1
102
RTVSPropertyOp8
 70
     1
102
RTVSPropertyOp9
 70
     1
102
RTVSPropertyOp10
 70
     1
102
RTVSPropertyOp11
 70
     1
102
RTVSPropertyOp12
 70
     1
102
RTVSPropertyOp13
 70
     1
102
RTVSPropertyOp14
 70
     1
102
RTVSPropertyOp15
 70
     1
102
RTVSPropertyOp16
 70
     1
102
RTVSPropertyOp17
 70
     1
102
RTVSPropertyOp18
 70
     1
102
RTVSPropertyOp19
 70
     1
102
RTVSPropertyOp20
 70
     1
102
RTVSPropertyOp21
 70
     1
102
RTVSPropertyOp22
 70
     1
102
RTVSPropertyOp23
 70
     1
102
RTVSPropertyOp24
 70
     1
102
RTVSPropertyOp25
 70
     1
102
RTVSPropertyOp26
 70
     1
102
RTVSPropertyOp27
 70
     1
102
RTVSPropertyOp28
 70
     1
102
RTVSPropertyOp29
 70
     1
102
RTVSPropertyOp30
 70
     1
102
RTVSPropertyOp31
 70
     1
102
RTVSPropertyOp32
 70
     1
102
RTVSPropertyOp33
 70
     1
102
RTVSPropertyOp34
 70
     1
102
RTVSPropertyOp35
 70
     1
102
RTVSPropertyOp36
 70
     1
102
RTVSPropertyOp37
 70
     1
102
RTVSPropertyOp38
 70
     1
102
RTVSPropertyOp39
 70
     1
102
RTVSPropertyOp40
 70
     1
102
RTVSPropertyOp41
 70
     1
102
RTVSPropertyOp42
 70
     1
102
RTVSPropertyOp43
 70
     1
102
RTVSPropertyOp44
 70
     1
102
RTVSPropertyOp45
 70
     1
102
RTVSPropertyOp46
 70
     1
102
RTVSPropertyOp47
 70
     1
102
RTVSPropertyOp48
 70
     1
102
RTVSPropertyOp49
 70
     1
102
RTVSPropertyOp50
 70
     1
102
RTVSPropertyOp51
 70
     0
102
RTVSPropertyOp52
 70
     0
102
RTVSPropertyOp53
 70
     1
102
RTVSPropertyOp54
 70
     1
102
RTVSPropertyOp55
 70
     1
102
RTVSPropertyOp56
 70
     1
102
RTVSPropertyOp57
 70
     1
102
RTVSPropertyOp58
 70
     1
102
RTVSPropertyOp59
 70
     1
102
RTVSPropertyOp60
 70
     1
102
RTVSPropertyOp61
 70
     1
102
RTVSPropertyOp62
 70
     1
  0
XRECORD
  5
596
102
{ACAD_REACTORS
330
595
102
}
330
595
100
AcDbXrecord
280
     1
102
RTVSPost2010Prop28
280
     0
102
RTVSPost2010PropOp28
 70
     1
102
RTVSPost2010Prop29
280
     1
102
RTVSPost2010PropOp29
 70
     1
102
RTVSPost2010Prop30
280
     1
102
RTVSPost2010PropOp30
 70
     1
102
RTVSPost2010Prop31
280
     0
102
RTVSPost2010PropOp31
 70
     1
102
RTVSPost2010Prop32
280
     0
102
RTVSPost2010PropOp32
 70
     1
102
RTVSPost2010Prop33
280
     0
102
RTVSPost2010PropOp33
 70
     1
102
RTVSPost2010Prop34
280
     0
102
RTVSPost2010PropOp34
 70
     1
102
RTVSPost2010Prop35
280
     0
102
RTVSPost2010PropOp35
 70
     1
102
RTVSPost2010Prop36
280
     0
102
RTVSPost2010PropOp36
 70
     1
102
RTVSPost2010Prop37
 90
       50
102
RTVSPost2010PropOp37
 70
     1
102
RTVSPost2010Prop38
140
0.0
102
RTVSPost2010PropOp38
 70
     1
102
RTVSPost2010Prop39
140
1.0
102
RTVSPost2010PropOp39
 70
     1
102
RTVSPost2010Prop40
 90
        0
102
RTVSPost2010PropOp40
 70
     1
102
RTVSPost2010Prop41ColorIndex
 90
       18
102
RTVSPost2010Prop41ColorRGB
 90
        0
102
RTVSPost2010PropOp41
 70
     1
102
RTVSPost2010Prop42
 90
       50
102
RTVSPost2010PropOp42
 70
     1
102
RTVSPost2010Prop43
 90
        3
102
RTVSPost2010PropOp43
 70
     1
102
RTVSPost2010Prop44ColorIndex
 90
        5
102
RTVSPost2010Prop44ColorRGB
 90
      255
102
RTVSPost2010PropOp44
 70
     1
102
RTVSPost2010Prop45
280
     0
102
RTVSPost2010PropOp45
 70
     1
102
RTVSPost2010Prop46
 90
       50
102
RTVSPost2010PropOp46
 70
     1
102
RTVSPost2010Prop47
 90
       50
102
RTVSPost2010PropOp47
 70
     1
102
RTVSPost2010Prop48
 90
       50
102
RTVSPost2010PropOp48
 70
     1
102
RTVSPost2010Prop49
280
     0
102
RTVSPost2010PropOp49
 70
     1
102
RTVSPost2010Prop50
 90
       50
102
RTVSPost2010PropOp50
 70
     1
102
RTVSPost2010Prop51ColorIndex
 90
      256
102
RTVSPost2010Prop51ColorRGB
 90
-16777216
102
RTVSPost2010PropOp51
 70
     0
102
RTVSPost2010Prop52
140
1.0
102
RTVSPost2010PropOp52
 70
     0
102
RTVSPost2010Prop53
 90
        2
102
RTVSPost2010PropOp53
 70
     1
102
RTVSPost2010Prop54
  1
strokes_ogs.tif
102
RTVSPost2010PropOp54
 70
     1
102
RTVSPost2010Prop55
280
     0
102
RTVSPost2010PropOp55
 70
     1
102
RTVSPost2010Prop56
140
1.0
102
RTVSPost2010PropOp56
 70
     1
102
RTVSPost2010Prop57
140
1.0
102
RTVSPost2010PropOp57
 70
     1
102
RTVSPropertyOp0
 70
     1
102
RTVSPropertyOp1
 70
     1
102
RTVSPropertyOp2
 70
     1
102
RTVSPropertyOp3
 70
     1
102
RTVSPropertyOp4
 70
     1
102
RTVSPropertyOp5
 70
     1
102
RTVSPropertyOp6
 70
     1
102
RTVSPropertyOp7
 70
     1
102
RTVSPropertyOp8
 70
     1
102
RTVSPropertyOp9
 70
     1
102
RTVSPropertyOp10
 70
     1
102
RTVSPropertyOp11
 70
     1
102
RTVSPropertyOp12
 70
     1
102
RTVSPropertyOp13
 70
     1
102
RTVSPropertyOp14
 70
     1
102
RTVSPropertyOp15
 70
     1
102
RTVSPropertyOp16
 70
     1
102
RTVSPropertyOp17
 70
     1
102
RTVSPropertyOp18
 70
     1
102
RTVSPropertyOp19
 70
     1
102
RTVSPropertyOp20
 70
     1
102
RTVSPropertyOp21
 70
     1
102
RTVSPropertyOp22
 70
     1
102
RTVSPropertyOp23
 70
     1
102
RTVSPropertyOp24
 70
     1
102
RTVSPropertyOp25
 70
     1
102
RTVSPropertyOp26
 70
     1
102
RTVSPropertyOp27
 70
     1
102
RTVSPropertyOp28
 70
     1
102
RTVSPropertyOp29
 70
     1
102
RTVSPropertyOp30
 70
     1
102
RTVSPropertyOp31
 70
     1
102
RTVSPropertyOp32
 70
     1
102
RTVSPropertyOp33
 70
     1
102
RTVSPropertyOp34
 70
     1
102
RTVSPropertyOp35
 70
     1
102
RTVSPropertyOp36
 70
     1
102
RTVSPropertyOp37
 70
     1
102
RTVSPropertyOp38
 70
     1
102
RTVSPropertyOp39
 70
     1
102
RTVSPropertyOp40
 70
     1
102
RTVSPropertyOp41
 70
     1
102
RTVSPropertyOp42
 70
     1
102
RTVSPropertyOp43
 70
     1
102
RTVSPropertyOp44
 70
     1
102
RTVSPropertyOp45
 70
     1
102
RTVSPropertyOp46
 70
     1
102
RTVSPropertyOp47
 70
     1
102
RTVSPropertyOp48
 70
     1
102
RTVSPropertyOp49
 70
     1
102
RTVSPropertyOp50
 70
     1
102
RTVSPropertyOp51
 70
     0
102
RTVSPropertyOp52
 70
     0
102
RTVSPropertyOp53
 70
     1
102
RTVSPropertyOp54
 70
     1
102
RTVSPropertyOp55
 70
     1
102
RTVSPropertyOp56
 70
     1
102
RTVSPropertyOp57
 70
     1
102
RTVSPropertyOp58
 70
     1
102
RTVSPropertyOp59
 70
     1
102
RTVSPropertyOp60
 70
     1
102
RTVSPropertyOp61
 70
     1
102
RTVSPropertyOp62
 70
     1
  0
XRECORD
  5
58A
102
{ACAD_REACTORS
330
589
102
}
330
589
100
AcDbXrecord
280
     1
102
RTVSPost2010Prop28
280
     0
102
RTVSPost2010PropOp28
 70
     1
102
RTVSPost2010Prop29
280
     1
102
RTVSPost2010PropOp29
 70
     1
102
RTVSPost2010Prop30
280
     1
102
RTVSPost2010PropOp30
 70
     1
102
RTVSPost2010Prop31
280
     0
102
RTVSPost2010PropOp31
 70
     1
102
RTVSPost2010Prop32
280
     0
102
RTVSPost2010PropOp32
 70
     1
102
RTVSPost2010Prop33
280
     0
102
RTVSPost2010PropOp33
 70
     1
102
RTVSPost2010Prop34
280
     0
102
RTVSPost2010PropOp34
 70
     1
102
RTVSPost2010Prop35
280
     0
102
RTVSPost2010PropOp35
 70
     1
102
RTVSPost2010Prop36
280
     0
102
RTVSPost2010PropOp36
 70
     1
102
RTVSPost2010Prop37
 90
       50
102
RTVSPost2010PropOp37
 70
     1
102
RTVSPost2010Prop38
140
0.0
102
RTVSPost2010PropOp38
 70
     1
102
RTVSPost2010Prop39
140
1.0
102
RTVSPost2010PropOp39
 70
     1
102
RTVSPost2010Prop40
 90
        0
102
RTVSPost2010PropOp40
 70
     1
102
RTVSPost2010Prop41ColorIndex
 90
       18
102
RTVSPost2010Prop41ColorRGB
 90
        0
102
RTVSPost2010PropOp41
 70
     1
102
RTVSPost2010Prop42
 90
       50
102
RTVSPost2010PropOp42
 70
     1
102
RTVSPost2010Prop43
 90
        3
102
RTVSPost2010PropOp43
 70
     1
102
RTVSPost2010Prop44ColorIndex
 90
        5
102
RTVSPost2010Prop44ColorRGB
 90
      255
102
RTVSPost2010PropOp44
 70
     1
102
RTVSPost2010Prop45
280
     0
102
RTVSPost2010PropOp45
 70
     1
102
RTVSPost2010Prop46
 90
       50
102
RTVSPost2010PropOp46
 70
     1
102
RTVSPost2010Prop47
 90
       50
102
RTVSPost2010PropOp47
 70
     1
102
RTVSPost2010Prop48
 90
       50
102
RTVSPost2010PropOp48
 70
     1
102
RTVSPost2010Prop49
280
     0
102
RTVSPost2010PropOp49
 70
     1
102
RTVSPost2010Prop50
 90
       50
102
RTVSPost2010PropOp50
 70
     1
102
RTVSPost2010Prop51ColorIndex
 90
      256
102
RTVSPost2010Prop51ColorRGB
 90
-16777216
102
RTVSPost2010PropOp51
 70
     0
102
RTVSPost2010Prop52
140
1.0
102
RTVSPost2010PropOp52
 70
     0
102
RTVSPost2010Prop53
 90
        2
102
RTVSPost2010PropOp53
 70
     1
102
RTVSPost2010Prop54
  1
strokes_ogs.tif
102
RTVSPost2010PropOp54
 70
     1
102
RTVSPost2010Prop55
280
     0
102
RTVSPost2010PropOp55
 70
     1
102
RTVSPost2010Prop56
140
1.0
102
RTVSPost2010PropOp56
 70
     1
102
RTVSPost2010Prop57
140
1.0
102
RTVSPost2010PropOp57
 70
     1
102
RTVSPropertyOp0
 70
     1
102
RTVSPropertyOp1
 70
     1
102
RTVSPropertyOp2
 70
     1
102
RTVSPropertyOp3
 70
     1
102
RTVSPropertyOp4
 70
     1
102
RTVSPropertyOp5
 70
     1
102
RTVSPropertyOp6
 70
     1
102
RTVSPropertyOp7
 70
     1
102
RTVSPropertyOp8
 70
     1
102
RTVSPropertyOp9
 70
     1
102
RTVSPropertyOp10
 70
     1
102
RTVSPropertyOp11
 70
     1
102
RTVSPropertyOp12
 70
     1
102
RTVSPropertyOp13
 70
     1
102
RTVSPropertyOp14
 70
     1
102
RTVSPropertyOp15
 70
     1
102
RTVSPropertyOp16
 70
     1
102
RTVSPropertyOp17
 70
     1
102
RTVSPropertyOp18
 70
     1
102
RTVSPropertyOp19
 70
     1
102
RTVSPropertyOp20
 70
     1
102
RTVSPropertyOp21
 70
     1
102
RTVSPropertyOp22
 70
     1
102
RTVSPropertyOp23
 70
     1
102
RTVSPropertyOp24
 70
     1
102
RTVSPropertyOp25
 70
     1
102
RTVSPropertyOp26
 70
     1
102
RTVSPropertyOp27
 70
     1
102
RTVSPropertyOp28
 70
     1
102
RTVSPropertyOp29
 70
     1
102
RTVSPropertyOp30
 70
     1
102
RTVSPropertyOp31
 70
     1
102
RTVSPropertyOp32
 70
     1
102
RTVSPropertyOp33
 70
     1
102
RTVSPropertyOp34
 70
     1
102
RTVSPropertyOp35
 70
     1
102
RTVSPropertyOp36
 70
     1
102
RTVSPropertyOp37
 70
     1
102
RTVSPropertyOp38
 70
     1
102
RTVSPropertyOp39
 70
     1
102
RTVSPropertyOp40
 70
     1
102
RTVSPropertyOp41
 70
     1
102
RTVSPropertyOp42
 70
     1
102
RTVSPropertyOp43
 70
     1
102
RTVSPropertyOp44
 70
     1
102
RTVSPropertyOp45
 70
     1
102
RTVSPropertyOp46
 70
     1
102
RTVSPropertyOp47
 70
     1
102
RTVSPropertyOp48
 70
     1
102
RTVSPropertyOp49
 70
     1
102
RTVSPropertyOp50
 70
     1
102
RTVSPropertyOp51
 70
     0
102
RTVSPropertyOp52
 70
     0
102
RTVSPropertyOp53
 70
     1
102
RTVSPropertyOp54
 70
     1
102
RTVSPropertyOp55
 70
     1
102
RTVSPropertyOp56
 70
     1
102
RTVSPropertyOp57
 70
     1
102
RTVSPropertyOp58
 70
     1
102
RTVSPropertyOp59
 70
     1
102
RTVSPropertyOp60
 70
     1
102
RTVSPropertyOp61
 70
     1
102
RTVSPropertyOp62
 70
     1
  0
XRECORD
  5
5A2
102
{ACAD_REACTORS
330
5A1
102
}
330
5A1
100
AcDbXrecord
280
     1
102
RTVSPost2010Prop28
280
     0
102
RTVSPost2010PropOp28
 70
     1
102
RTVSPost2010Prop29
280
     1
102
RTVSPost2010PropOp29
 70
     1
102
RTVSPost2010Prop30
280
     1
102
RTVSPost2010PropOp30
 70
     1
102
RTVSPost2010Prop31
280
     0
102
RTVSPost2010PropOp31
 70
     1
102
RTVSPost2010Prop32
280
     0
102
RTVSPost2010PropOp32
 70
     1
102
RTVSPost2010Prop33
280
     0
102
RTVSPost2010PropOp33
 70
     1
102
RTVSPost2010Prop34
280
     0
102
RTVSPost2010PropOp34
 70
     1
102
RTVSPost2010Prop35
280
     0
102
RTVSPost2010PropOp35
 70
     1
102
RTVSPost2010Prop36
280
     0
102
RTVSPost2010PropOp36
 70
     1
102
RTVSPost2010Prop37
 90
       50
102
RTVSPost2010PropOp37
 70
     1
102
RTVSPost2010Prop38
140
0.0
102
RTVSPost2010PropOp38
 70
     1
102
RTVSPost2010Prop39
140
1.0
102
RTVSPost2010PropOp39
 70
     1
102
RTVSPost2010Prop40
 90
        0
102
RTVSPost2010PropOp40
 70
     1
102
RTVSPost2010Prop41ColorIndex
 90
       18
102
RTVSPost2010Prop41ColorRGB
 90
        0
102
RTVSPost2010PropOp41
 70
     1
102
RTVSPost2010Prop42
 90
       50
102
RTVSPost2010PropOp42
 70
     1
102
RTVSPost2010Prop43
 90
        3
102
RTVSPost2010PropOp43
 70
     1
102
RTVSPost2010Prop44ColorIndex
 90
        5
102
RTVSPost2010Prop44ColorRGB
 90
      255
102
RTVSPost2010PropOp44
 70
     1
102
RTVSPost2010Prop45
280
     0
102
RTVSPost2010PropOp45
 70
     1
102
RTVSPost2010Prop46
 90
       50
102
RTVSPost2010PropOp46
 70
     1
102
RTVSPost2010Prop47
 90
       50
102
RTVSPost2010PropOp47
 70
     1
102
RTVSPost2010Prop48
 90
       50
102
RTVSPost2010PropOp48
 70
     1
102
RTVSPost2010Prop49
280
     0
102
RTVSPost2010PropOp49
 70
     1
102
RTVSPost2010Prop50
 90
       50
102
RTVSPost2010PropOp50
 70
     1
102
RTVSPost2010Prop51ColorIndex
 90
      256
102
RTVSPost2010Prop51ColorRGB
 90
-16777216
102
RTVSPost2010PropOp51
 70
     0
102
RTVSPost2010Prop52
140
1.0
102
RTVSPost2010PropOp52
 70
     0
102
RTVSPost2010Prop53
 90
        2
102
RTVSPost2010PropOp53
 70
     1
102
RTVSPost2010Prop54
  1
strokes_ogs.tif
102
RTVSPost2010PropOp54
 70
     1
102
RTVSPost2010Prop55
280
     0
102
RTVSPost2010PropOp55
 70
     1
102
RTVSPost2010Prop56
140
1.0
102
RTVSPost2010PropOp56
 70
     1
102
RTVSPost2010Prop57
140
1.0
102
RTVSPost2010PropOp57
 70
     1
102
RTVSPropertyOp0
 70
     1
102
RTVSPropertyOp1
 70
     1
102
RTVSPropertyOp2
 70
     1
102
RTVSPropertyOp3
 70
     1
102
RTVSPropertyOp4
 70
     1
102
RTVSPropertyOp5
 70
     1
102
RTVSPropertyOp6
 70
     1
102
RTVSPropertyOp7
 70
     1
102
RTVSPropertyOp8
 70
     1
102
RTVSPropertyOp9
 70
     1
102
RTVSPropertyOp10
 70
     1
102
RTVSPropertyOp11
 70
     1
102
RTVSPropertyOp12
 70
     1
102
RTVSPropertyOp13
 70
     1
102
RTVSPropertyOp14
 70
     1
102
RTVSPropertyOp15
 70
     1
102
RTVSPropertyOp16
 70
     1
102
RTVSPropertyOp17
 70
     1
102
RTVSPropertyOp18
 70
     1
102
RTVSPropertyOp19
 70
     1
102
RTVSPropertyOp20
 70
     1
102
RTVSPropertyOp21
 70
     1
102
RTVSPropertyOp22
 70
     1
102
RTVSPropertyOp23
 70
     1
102
RTVSPropertyOp24
 70
     1
102
RTVSPropertyOp25
 70
     1
102
RTVSPropertyOp26
 70
     1
102
RTVSPropertyOp27
 70
     1
102
RTVSPropertyOp28
 70
     1
102
RTVSPropertyOp29
 70
     1
102
RTVSPropertyOp30
 70
     1
102
RTVSPropertyOp31
 70
     1
102
RTVSPropertyOp32
 70
     1
102
RTVSPropertyOp33
 70
     1
102
RTVSPropertyOp34
 70
     1
102
RTVSPropertyOp35
 70
     1
102
RTVSPropertyOp36
 70
     1
102
RTVSPropertyOp37
 70
     1
102
RTVSPropertyOp38
 70
     1
102
RTVSPropertyOp39
 70
     1
102
RTVSPropertyOp40
 70
     1
102
RTVSPropertyOp41
 70
     1
102
RTVSPropertyOp42
 70
     1
102
RTVSPropertyOp43
 70
     1
102
RTVSPropertyOp44
 70
     1
102
RTVSPropertyOp45
 70
     1
102
RTVSPropertyOp46
 70
     1
102
RTVSPropertyOp47
 70
     1
102
RTVSPropertyOp48
 70
     1
102
RTVSPropertyOp49
 70
     1
102
RTVSPropertyOp50
 70
     1
102
RTVSPropertyOp51
 70
     0
102
RTVSPropertyOp52
 70
     0
102
RTVSPropertyOp53
 70
     1
102
RTVSPropertyOp54
 70
     1
102
RTVSPropertyOp55
 70
     1
102
RTVSPropertyOp56
 70
     1
102
RTVSPropertyOp57
 70
     1
102
RTVSPropertyOp58
 70
     1
102
RTVSPropertyOp59
 70
     1
102
RTVSPropertyOp60
 70
     1
102
RTVSPropertyOp61
 70
     1
102
RTVSPropertyOp62
 70
     1
  0
ENDSEC
  0
EOF
