  0
SECTION
  2
HEADER
  9
$ACADVER
  1
AC1018
  9
$ACADMAINTVER
 70
   104
  9
$DWGCODEPAGE
  3
ANSI_932
  9
$INSBASE
 10
0.0
 20
0.0
 30
0.0
  9
$EXTMIN
 10
-2.26513486
 20
-1.60161051
 30
0.0
  9
$EXTMAX
 10
29700.00034579
 20
21000.0002445
 30
0.0
  9
$LIMMIN
 10
0.0
 20
0.0
  9
$LIMMAX
 10
420.0
 20
330.0
  9
$ORTHOMODE
 70
     1
  9
$REGENMODE
 70
     1
  9
$FILLMODE
 70
     1
  9
$QTEXTMODE
 70
     0
  9
$MIRRTEXT
 70
     0
  9
$LTSCALE
 40
1.0
  9
$ATTMODE
 70
     1
  9
$TEXTSIZE
 40
0.2
  9
$TRACEWID
 40
0.05
  9
$TEXTSTYLE
  7
STANDARD
  9
$CLAYER
  8
0
  9
$CELTYPE
  6
BYLAYER
  9
$CECOLOR
 62
   256
  9
$CELTSCALE
 40
1.0
  9
$DISPSILH
 70
     1
  9
$DIMSCALE
 40
1.0
  9
$DIMASZ
 40
0.18
  9
$DIMEXO
 40
0.0625
  9
$DIMDLI
 40
0.38
  9
$DIMRND
 40
0.0
  9
$DIMDLE
 40
0.0
  9
$DIMEXE
 40
0.18
  9
$DIMTP
 40
0.0
  9
$DIMTM
 40
0.0
  9
$DIMTXT
 40
0.18
  9
$DIMCEN
 40
0.09
  9
$DIMTSZ
 40
0.0
  9
$DIMTOL
 70
     0
  9
$DIMLIM
 70
     0
  9
$DIMTIH
 70
     1
  9
$DIMTOH
 70
     1
  9
$DIMSE1
 70
     0
  9
$DIMSE2
 70
     0
  9
$DIMTAD
 70
     0
  9
$DIMZIN
 70
     0
  9
$DIMBLK
  1

  9
$DIMASO
 70
     1
  9
$DIMSHO
 70
     0
  9
$DIMPOST
  1

  9
$DIMAPOST
  1

  9
$DIMALT
 70
     0
  9
$DIMALTD
 70
     2
  9
$DIMALTF
 40
25.4
  9
$DIMLFAC
 40
1.0
  9
$DIMTOFL
 70
     0
  9
$DIMTVP
 40
0.0
  9
$DIMTIX
 70
     0
  9
$DIMSOXD
 70
     0
  9
$DIMSAH
 70
     0
  9
$DIMBLK1
  1

  9
$DIMBLK2
  1

  9
$DIMSTYLE
  2
STANDARD
  9
$DIMCLRD
 70
     0
  9
$DIMCLRE
 70
     0
  9
$DIMCLRT
 70
     0
  9
$DIMTFAC
 40
1.0
  9
$DIMGAP
 40
0.09
  9
$DIMJUST
 70
     0
  9
$DIMSD1
 70
     0
  9
$DIMSD2
 70
     0
  9
$DIMTOLJ
 70
     1
  9
$DIMTZIN
 70
     0
  9
$DIMALTZ
 70
     0
  9
$DIMALTTZ
 70
     0
  9
$DIMUPT
 70
     0
  9
$DIMDEC
 70
     4
  9
$DIMTDEC
 70
     4
  9
$DIMALTU
 70
     2
  9
$DIMALTTD
 70
     2
  9
$DIMTXSTY
  7
STANDARD
  9
$DIMAUNIT
 70
     0
  9
$DIMADEC
 70
     0
  9
$DIMALTRND
 40
0.0
  9
$DIMAZIN
 70
     0
  9
$DIMDSEP
 70
    46
  9
$DIMATFIT
 70
     3
  9
$DIMFRAC
 70
     0
  9
$DIMLDRBLK
  1

  9
$DIMLUNIT
 70
     2
  9
$DIMLWD
 70
    -2
  9
$DIMLWE
 70
    -2
  9
$DIMTMOVE
 70
     2
  9
$LUNITS
 70
     2
  9
$LUPREC
 70
     4
  9
$SKETCHINC
 40
0.1
  9
$FILLETRAD
 40
1.0
  9
$AUNITS
 70
     0
  9
$AUPREC
 70
     0
  9
$MENU
  1
WINAI
  9
$ELEVATION
 40
0.0
  9
$PELEVATION
 40
0.0
  9
$THICKNESS
 40
0.0
  9
$LIMCHECK
 70
     0
  9
$CHAMFERA
 40
0.0
  9
$CHAMFERB
 40
0.0
  9
$CHAMFERC
 40
0.0
  9
$CHAMFERD
 40
0.0
  9
$SKPOLY
 70
     0
  9
$TDCREATE
 40
2453046.712039931
  9
$TDUCREATE
 40
2453046.337039931
  9
$TDUPDATE
 40
2457185.494871898
  9
$TDUUPDATE
 40
2457185.119871898
  9
$TDINDWG
 40
0.0086915625
  9
$TDUSRTIMER
 40
0.0086915625
  9
$USRTIMER
 70
     1
  9
$ANGBASE
 50
0.0
  9
$ANGDIR
 70
     0
  9
$PDMODE
 70
     0
  9
$PDSIZE
 40
0.0
  9
$PLINEWID
 40
0.0
  9
$SPLFRAME
 70
     0
  9
$SPLINETYPE
 70
     6
  9
$SPLINESEGS
 70
     8
  9
$HANDSEED
  5
6B4F
  9
$SURFTAB1
 70
     6
  9
$SURFTAB2
 70
     6
  9
$SURFTYPE
 70
     6
  9
$SURFU
 70
     6
  9
$SURFV
 70
     6
  9
$UCSBASE
  2

  9
$UCSNAME
  2

  9
$UCSORG
 10
0.0
 20
0.0
 30
0.0
  9
$UCSXDIR
 10
1.0
 20
0.0
 30
0.0
  9
$UCSYDIR
 10
0.0
 20
1.0
 30
0.0
  9
$UCSORTHOREF
  2

  9
$UCSORTHOVIEW
 70
     0
  9
$UCSORGTOP
 10
0.0
 20
0.0
 30
0.0
  9
$UCSORGBOTTOM
 10
0.0
 20
0.0
 30
0.0
  9
$UCSORGLEFT
 10
0.0
 20
0.0
 30
0.0
  9
$UCSORGRIGHT
 10
0.0
 20
0.0
 30
0.0
  9
$UCSORGFRONT
 10
0.0
 20
0.0
 30
0.0
  9
$UCSORGBACK
 10
0.0
 20
0.0
 30
0.0
  9
$PUCSBASE
  2

  9
$PUCSNAME
  2

  9
$PUCSORG
 10
0.0
 20
0.0
 30
0.0
  9
$PUCSXDIR
 10
1.0
 20
0.0
 30
0.0
  9
$PUCSYDIR
 10
0.0
 20
1.0
 30
0.0
  9
$PUCSORTHOREF
  2

  9
$PUCSORTHOVIEW
 70
     0
  9
$PUCSORGTOP
 10
0.0
 20
0.0
 30
0.0
  9
$PUCSORGBOTTOM
 10
0.0
 20
0.0
 30
0.0
  9
$PUCSORGLEFT
 10
0.0
 20
0.0
 30
0.0
  9
$PUCSORGRIGHT
 10
0.0
 20
0.0
 30
0.0
  9
$PUCSORGFRONT
 10
0.0
 20
0.0
 30
0.0
  9
$PUCSORGBACK
 10
0.0
 20
0.0
 30
0.0
  9
$USERI1
 70
     0
  9
$USERI2
 70
     0
  9
$USERI3
 70
     0
  9
$USERI4
 70
     0
  9
$USERI5
 70
     0
  9
$USERR1
 40
0.0
  9
$USERR2
 40
0.0
  9
$USERR3
 40
0.0
  9
$USERR4
 40
0.0
  9
$USERR5
 40
0.0
  9
$WORLDVIEW
 70
     1
  9
$SHADEDGE
 70
     3
  9
$SHADEDIF
 70
    70
  9
$TILEMODE
 70
     1
  9
$MAXACTVP
 70
    16
  9
$PINSBASE
 10
0.0
 20
0.0
 30
0.0
  9
$PLIMCHECK
 70
     0
  9
$PEXTMIN
 10
1.00000000E+20
 20
1.00000000E+20
 30
1.00000000E+20
  9
$PEXTMAX
 10
-1.00000000E+20
 20
-1.00000000E+20
 30
-1.00000000E+20
  9
$PLIMMIN
 10
0.0
 20
0.0
  9
$PLIMMAX
 10
12.0
 20
9.0
  9
$UNITMODE
 70
     0
  9
$VISRETAIN
 70
     0
  9
$PLINEGEN
 70
     0
  9
$PSLTSCALE
 70
     0
  9
$TREEDEPTH
 70
  3020
  9
$CMLSTYLE
  2
STANDARD
  9
$CMLJUST
 70
     0
  9
$CMLSCALE
 40
1.0
  9
$PROXYGRAPHICS
 70
     1
  9
$MEASUREMENT
 70
     1
  9
$CELWEIGHT
370
    -1
  9
$ENDCAPS
280
     0
  9
$JOINSTYLE
280
     0
  9
$LWDISPLAY
290
     0
  9
$INSUNITS
 70
     0
  9
$HYPERLINKBASE
  1

  9
$STYLESHEET
  1

  9
$XEDIT
290
     1
  9
$CEPSNTYPE
380
     0
  9
$PSTYLEMODE
290
     1
  9
$FINGERPRINTGUID
  2
{6E2086E1-909B-4798-A623-24E542E3846C}
  9
$VERSIONGUID
  2
{95CFD8D5-7902-4218-A6CA-0A9CCFDA212D}
  9
$EXTNAMES
290
     1
  9
$PSVPSCALE
 40
0.0
  9
$OLESTARTUP
290
     0
  9
$SORTENTS
280
   127
  9
$INDEXCTL
280
     0
  9
$HIDETEXT
280
     0
  9
$XCLIPFRAME
290
     0
  9
$HALOGAP
280
     0
  9
$OBSCOLOR
 70
   257
  9
$OBSLTYPE
280
     0
  9
$INTERSECTIONDISPLAY
280
     0
  9
$INTERSECTIONCOLOR
 70
   257
  9
$DIMASSOC
280
     1
  9
$PROJECTNAME
  1

  0
ENDSEC
  0
SECTION
  2
CLASSES
  0
CLASS
  1
DICTIONARYVAR
  2
AcDbDictionaryVar
  3
ObjectDBX Classes
 90
        0
 91
        8
280
     0
281
     0
  0
CLASS
  1
ACDBDICTIONARYWDFLT
  2
AcDbDictionaryWithDefault
  3
ObjectDBX Classes
 90
        0
 91
        1
280
     0
281
     0
  0
CLASS
  1
MATERIAL
  2
AcDbMaterial
  3
ObjectDBX Classes
 90
     1153
 91
        3
280
     0
281
     0
  0
CLASS
  1
VISUALSTYLE
  2
AcDbVisualStyle
  3
ObjectDBX Classes
 90
     4095
 91
       24
280
     0
281
     0
  0
CLASS
  1
TABLESTYLE
  2
AcDbTableStyle
  3
ObjectDBX Classes
 90
     4095
 91
        1
280
     0
281
     0
  0
CLASS
  1
SCALE
  2
AcDbScale
  3
ObjectDBX Classes
 90
     1153
 91
       17
280
     0
281
     0
  0
CLASS
  1
MLEADERSTYLE
  2
AcDbMLeaderStyle
  3
ACDB_MLEADERSTYLE_CLASS
 90
     4095
 91
        1
280
     0
281
     0
  0
CLASS
  1
ACDBSECTIONVIEWSTYLE
  2
AcDbSectionViewStyle
  3
ObjectDBX Classes
 90
     1025
 91
        1
280
     0
281
     0
  0
CLASS
  1
ACDBDETAILVIEWSTYLE
  2
AcDbDetailViewStyle
  3
ObjectDBX Classes
 90
     1025
 91
        1
280
     0
281
     0
  0
CLASS
  1
CELLSTYLEMAP
  2
AcDbCellStyleMap
  3
ObjectDBX Classes
 90
     1152
 91
        2
280
     0
281
     0
  0
ENDSEC
  0
SECTION
  2
TABLES
  0
TABLE
  2
VPORT
  5
6279
330
0
100
AcDbSymbolTable
 70
     1
  0
VPORT
  5
6A6C
330
6279
100
AcDbSymbolTableRecord
100
AcDbViewportTableRecord
  2
*ACTIVE
 70
     0
 10
0.0
 20
0.0
 11
1.0
 21
1.0
 12
14848.86760547
 22
10499.199317
 13
0.0
 23
0.0
 14
1.0
 24
1.0
 15
10.0
 25
10.0
 16
0.0
 26
0.0
 36
1.0
 17
0.0
 27
0.0
 37
0.0
 40
22268.29616527
 41
1.34178905
 42
50.0
 43
0.0
 44
0.0
 50
0.0
 51
0.0
 71
     0
 72
   100
 73
     1
 74
     0
 75
     1
 76
     0
 77
     0
 78
     0
281
     0
 65
     1
110
0.0
120
0.0
130
0.0
111
1.0
121
0.0
131
0.0
112
0.0
122
1.0
132
0.0
 79
     0
146
0.0
1001
ACAD_NAV_VCDISPLAY
1070
     1
  0
ENDTAB
  0
TABLE
  2
LTYPE
  5
6276
330
0
100
AcDbSymbolTable
 70
     3
  0
LTYPE
  5
6282
330
6276
100
AcDbSymbolTableRecord
100
AcDbLinetypeTableRecord
  2
BYBLOCK
 70
     0
  3

 72
    65
 73
     0
 40
0.0
  0
LTYPE
  5
6283
330
6276
100
AcDbSymbolTableRecord
100
AcDbLinetypeTableRecord
  2
BYLAYER
 70
     0
  3

 72
    65
 73
     0
 40
0.0
  0
LTYPE
  5
6284
330
6276
100
AcDbSymbolTableRecord
100
AcDbLinetypeTableRecord
  2
CONTINUOUS
 70
     0
  3
Solid line
 72
    65
 73
     0
 40
0.0
  0
LTYPE
  5
628F
330
6276
100
AcDbSymbolTableRecord
100
AcDbLinetypeTableRecord
  2
ITTENSAP
 70
     0
  3

 72
    65
 73
     4
 40
5.5
 49
3.0
 74
     0
 49
-1.0
 74
     0
 49
0.5
 74
     0
 49
-1.0
 74
     0
  0
LTYPE
  5
62C3
330
6276
100
AcDbSymbolTableRecord
100
AcDbLinetypeTableRecord
  2
NITENSAP
 70
     0
  3

 72
    65
 73
     6
 40
7.5
 49
3.0
 74
     0
 49
-1.0
 74
     0
 49
0.5
 74
     0
 49
-1.5
 74
     0
 49
0.5
 74
     0
 49
-1.0
 74
     0
  0
ENDTAB
  0
TABLE
  2
LAYER
  5
6273
330
0
100
AcDbSymbolTable
 70
     7
  0
LAYER
  5
627F
330
6273
100
AcDbSymbolTableRecord
100
AcDbLayerTableRecord
  2
0
 70
     0
 62
     7
  6
CONTINUOUS
370
    -3
390
6A6F
  0
LAYER
  5
6292
330
6273
100
AcDbSymbolTableRecord
100
AcDbLayerTableRecord
  2
YKK_F1
 70
     0
 62
     7
  6
CONTINUOUS
370
    -3
390
6A6F
  0
LAYER
  5
6293
330
6273
100
AcDbSymbolTableRecord
100
AcDbLayerTableRecord
  2
YKK_F2
 70
     0
 62
     7
  6
CONTINUOUS
370
    -3
390
6A6F
  0
LAYER
  5
6294
330
6273
100
AcDbSymbolTableRecord
100
AcDbLayerTableRecord
  2
YKK_IN
 70
     0
 62
     1
  6
CONTINUOUS
370
    -3
390
6A6F
  0
LAYER
  5
6295
330
6273
100
AcDbSymbolTableRecord
100
AcDbLayerTableRecord
  2
YKK_N1
 70
     0
 62
     2
  6
CONTINUOUS
370
    -3
390
6A6F
  0
LAYER
  5
6296
330
6273
100
AcDbSymbolTableRecord
100
AcDbLayerTableRecord
  2
YKK_A1
 70
     0
 62
     4
  6
CONTINUOUS
370
    -3
390
6A6F
  0
LAYER
  5
6297
330
6273
100
AcDbSymbolTableRecord
100
AcDbLayerTableRecord
  2
YKK_A2
 70
     0
 62
     3
  6
CONTINUOUS
370
    -3
390
6A6F
  0
ENDTAB
  0
TABLE
  2
STYLE
  5
6274
330
0
100
AcDbSymbolTable
 70
     2
  0
STYLE
  5
6280
330
6274
100
AcDbSymbolTableRecord
100
AcDbTextStyleTableRecord
  2
STANDARD
 70
     0
 40
0.0
 41
1.0
 50
0.0
 71
     0
 42
0.2
  3
txt.shx
  4
bigfont.shx
  0
STYLE
  5
628D
330
6274
100
AcDbSymbolTableRecord
100
AcDbTextStyleTableRecord
  2
EXTFONT
 70
     0
 40
0.0
 41
1.0
 50
0.0
 71
     0
 42
3.5
  3
txt.shx
  4
EXTFONT.SHX
  0
ENDTAB
  0
TABLE
  2
VIEW
  5
6277
330
0
100
AcDbSymbolTable
 70
     0
  0
ENDTAB
  0
TABLE
  2
UCS
  5
6278
330
0
100
AcDbSymbolTable
 70
     0
  0
ENDTAB
  0
TABLE
  2
APPID
  5
627A
330
0
100
AcDbSymbolTable
 70
     5
  0
APPID
  5
6281
330
627A
100
AcDbSymbolTableRecord
100
AcDbRegAppTableRecord
  2
ACAD
 70
     0
  0
APPID
  5
6AFB
330
627A
100
AcDbSymbolTableRecord
100
AcDbRegAppTableRecord
  2
ACAD_MLEADERVER
 70
     0
  0
APPID
  5
6B0F
330
627A
100
AcDbSymbolTableRecord
100
AcDbRegAppTableRecord
  2
ACAD_PSEXT
 70
     0
  0
APPID
  5
6B10
330
627A
100
AcDbSymbolTableRecord
100
AcDbRegAppTableRecord
  2
ACAD_NAV_VCDISPLAY
 70
     0
  0
APPID
  5
6B11
330
627A
100
AcDbSymbolTableRecord
100
AcDbRegAppTableRecord
  2
YKK_AP_LOCKLAYER
 70
     0
  0
ENDTAB
  0
TABLE
  2
DIMSTYLE
  5
627B
330
0
100
AcDbSymbolTable
 70
     1
100
AcDbDimStyleTable
 71
     0
  0
DIMSTYLE
105
6291
330
627B
100
AcDbSymbolTableRecord
100
AcDbDimStyleTableRecord
  2
STANDARD
 70
     0
279
     2
340
6280
  0
ENDTAB
  0
TABLE
  2
BLOCK_RECORD
  5
6272
330
0
100
AcDbSymbolTable
 70
     0
  0
BLOCK_RECORD
  5
6288
330
6272
100
AcDbSymbolTableRecord
100
AcDbBlockTableRecord
  2
*MODEL_SPACE
340
6AC2
  0
BLOCK_RECORD
  5
6285
330
6272
100
AcDbSymbolTableRecord
100
AcDbBlockTableRecord
  2
*PAPER_SPACE
340
6AC3
  0
ENDTAB
  0
ENDSEC
  0
SECTION
  2
BLOCKS
  0
BLOCK
  5
629A
330
6288
100
AcDbEntity
  8
0
100
AcDbBlockBegin
  2
*MODEL_SPACE
 70
     0
 10
0.0
 20
0.0
 30
0.0
  3
*MODEL_SPACE
  1

  0
ENDBLK
  5
629B
330
6288
100
AcDbEntity
  8
0
100
AcDbBlockEnd
  0
BLOCK
  5
6298
330
6285
100
AcDbEntity
 67
     1
  8
0
100
AcDbBlockBegin
  2
*PAPER_SPACE
 70
     0
 10
0.0
 20
0.0
 30
0.0
  3
*PAPER_SPACE
  1

  0
ENDBLK
  5
6299
330
6285
100
AcDbEntity
 67
     1
  8
0
100
AcDbBlockEnd
  0
ENDSEC
  0
SECTION
  2
ENTITIES
  0
POINT
  5
2D
330
6288
100
AcDbEntity
  8
YKK_A2
100
AcDbPoint
 10
0.0
 20
0.0
 30
0.0
  0
POINT
  5
2E
330
6288
100
AcDbEntity
  8
YKK_A1
100
AcDbPoint
 10
0.0
 20
0.0
 30
0.0
  0
POINT
  5
2F
330
6288
100
AcDbEntity
  8
YKK_N1
100
AcDbPoint
 10
0.0
 20
0.0
 30
0.0
  0
POINT
  5
30
330
6288
100
AcDbEntity
  8
YKK_IN
100
AcDbPoint
 10
0.0
 20
0.0
 30
0.0
  0
POINT
  5
31
330
6288
100
AcDbEntity
  8
YKK_F2
100
AcDbPoint
 10
0.0
 20
0.0
 30
0.0
  0
POINT
  5
32
330
6288
100
AcDbEntity
  8
YKK_F1
100
AcDbPoint
 10
0.0
 20
0.0
 30
0.0
  0
LINE
  5
33
330
6288
100
AcDbEntity
  8
YKK_F1
100
AcDbLine
 10
0.0
 20
0.0
 30
0.0
 11
0.0
 21
21000.0
 31
0.0
  0
LINE
  5
34
330
6288
100
AcDbEntity
  8
YKK_F1
100
AcDbLine
 10
0.0
 20
0.0
 30
0.0
 11
29700.0
 21
0.0
 31
0.0
  0
LINE
  5
35
330
6288
100
AcDbEntity
  8
YKK_F1
100
AcDbLine
 10
0.0
 20
21000.0
 30
0.0
 11
29700.0
 21
21000.0
 31
0.0
  0
LINE
  5
36
330
6288
100
AcDbEntity
  8
YKK_F1
100
AcDbLine
 10
29700.0
 20
0.0
 30
0.0
 11
29700.0
 21
21000.0
 31
0.0
  0
TEXT
  5
37
330
6288
100
AcDbEntity
  8
YKK_F1
100
AcDbText
 10
759.96201
 20
1776.3159
 30
0.0
 40
100.0
  1
付記：
  7
EXTFONT
100
AcDbText
  0
TEXT
  5
39
330
6288
100
AcDbEntity
  8
YKK_F1
100
AcDbText
 10
1259.96201
 20
1200.376
 30
0.0
 40
250.0
  1
*
  7
EXTFONT
100
AcDbText
  0
TEXT
  5
3A
330
6288
100
AcDbEntity
  8
YKK_F1
100
AcDbText
 10
1259.96201
 20
699.6242
 30
0.0
 40
250.0
  1
*
  7
EXTFONT
100
AcDbText
  0
TEXT
  5
3B
330
6288
100
AcDbEntity
  8
YKK_F1
100
AcDbText
 10
1259.96201
 20
949.6242
 30
0.0
 40
250.0
  1
*
  7
EXTFONT
100
AcDbText
  0
TEXT
  5
3C
330
6288
100
AcDbEntity
  8
YKK_F1
100
AcDbText
 10
1259.96201
 20
1450.376
 30
0.0
 40
250.0
  1
*
  7
EXTFONT
100
AcDbText
  0
TEXT
  5
3D
330
6288
100
AcDbEntity
  8
YKK_F1
100
AcDbText
 10
1259.96201
 20
1701.3159
 30
0.0
 40
250.0
  1
*
  7
EXTFONT
100
AcDbText
  0
TEXT
  5
3E
330
6288
100
AcDbEntity
  8
YKK_F1
100
AcDbText
 10
10654.323
 20
1816.3159
 30
0.0
 40
100.0
  1
審査　　年　　月　　日
  7
EXTFONT
100
AcDbText
  0
TEXT
  5
3F
330
6288
100
AcDbEntity
  8
YKK_F1
100
AcDbText
 10
10654.323
 20
984.5488
 30
0.0
 40
100.0
  1
測量　　年　　月　　日
  7
EXTFONT
100
AcDbText
  0
TEXT
  5
40
330
6288
100
AcDbEntity
  8
YKK_F1
100
AcDbText
 10
10654.323
 20
1401.2782
 30
0.0
 40
100.0
  1
設計　　年　　月　　日
  7
EXTFONT
100
AcDbText
  0
TEXT
  5
41
330
6288
100
AcDbEntity
  8
0
100
AcDbText
 10
5650.039
 20
7482.9363
 30
0.0
 40
200.0
  1
＊
  7
EXTFONT
100
AcDbText
  0
TEXT
  5
42
330
6288
100
AcDbEntity
  8
0
100
AcDbText
 10
5850.039
 20
7957.9363
 30
0.0
 40
200.0
  1
＊
  7
EXTFONT
100
AcDbText
  0
TEXT
  5
43
330
6288
100
AcDbEntity
  8
0
100
AcDbText
 10
8950.039
 20
7482.9363
 30
0.0
 40
200.0
  1
＊
  7
EXTFONT
100
AcDbText
  0
TEXT
  5
44
330
6288
100
AcDbEntity
  8
0
100
AcDbText
 10
9250.039
 20
7732.9363
 30
0.0
 40
200.0
  1
＊
  7
EXTFONT
100
AcDbText
  0
TEXT
  5
45
330
6288
100
AcDbEntity
  8
0
100
AcDbText
 10
10300.039
 20
7482.9363
 30
0.0
 40
200.0
  1
＊
  7
EXTFONT
100
AcDbText
  0
TEXT
  5
46
330
6288
100
AcDbEntity
  8
0
100
AcDbText
 10
10500.039
 20
7957.9363
 30
0.0
 40
200.0
  1
＊
  7
EXTFONT
100
AcDbText
  0
TEXT
  5
47
330
6288
100
AcDbEntity
  8
0
100
AcDbText
 10
13600.039
 20
7482.9363
 30
0.0
 40
200.0
  1
＊
  7
EXTFONT
100
AcDbText
  0
TEXT
  5
48
330
6288
100
AcDbEntity
  8
0
100
AcDbText
 10
13900.039
 20
7732.9363
 30
0.0
 40
200.0
  1
＊
  7
EXTFONT
100
AcDbText
  0
TEXT
  5
49
330
6288
100
AcDbEntity
  8
0
100
AcDbText
 10
1009.77446
 20
20612.406
 30
0.0
 40
250.0
  1
ＢＳＤＧＡＳ６１　ステンレスパイプシャフトドア　ガスチャンバー　一般設置型・扉内設置型　枠見込３３（沖縄向け）
  7
EXTFONT
100
AcDbText
  0
TEXT
  5
4A
330
6288
100
AcDbEntity
  8
0
100
AcDbText
 10
9250.039
 20
13687.9363
 30
0.0
 40
200.0
  1
＊
  7
EXTFONT
100
AcDbText
  0
TEXT
  5
4B
330
6288
100
AcDbEntity
  8
0
100
AcDbText
 10
5650.039
 20
13437.9363
 30
0.0
 40
200.0
  1
＊
  7
EXTFONT
100
AcDbText
  0
TEXT
  5
4C
330
6288
100
AcDbEntity
  8
0
100
AcDbText
 10
8950.039
 20
13437.9363
 30
0.0
 40
200.0
  1
＊
  7
EXTFONT
100
AcDbText
  0
TEXT
  5
4D
330
6288
100
AcDbEntity
  8
0
100
AcDbText
 10
5850.039
 20
13912.9363
 30
0.0
 40
200.0
  1
＊
  7
EXTFONT
100
AcDbText
  0
TEXT
  5
4E
330
6288
100
AcDbEntity
  8
0
100
AcDbText
 10
13900.039
 20
13687.9363
 30
0.0
 40
200.0
  1
＊
  7
EXTFONT
100
AcDbText
  0
TEXT
  5
4F
330
6288
100
AcDbEntity
  8
0
100
AcDbText
 10
10300.039
 20
13437.9363
 30
0.0
 40
200.0
  1
＊
  7
EXTFONT
100
AcDbText
  0
TEXT
  5
50
330
6288
100
AcDbEntity
  8
0
100
AcDbText
 10
13600.039
 20
13437.9363
 30
0.0
 40
200.0
  1
＊
  7
EXTFONT
100
AcDbText
  0
TEXT
  5
51
330
6288
100
AcDbEntity
  8
0
100
AcDbText
 10
10500.039
 20
13912.9363
 30
0.0
 40
200.0
  1
＊
  7
EXTFONT
100
AcDbText
  0
TEXT
  5
52
330
6288
100
AcDbEntity
  8
0
100
AcDbText
 10
5650.039
 20
19392.9363
 30
0.0
 40
200.0
  1
＊
  7
EXTFONT
100
AcDbText
  0
TEXT
  5
53
330
6288
100
AcDbEntity
  8
0
100
AcDbText
 10
5850.039
 20
19867.9363
 30
0.0
 40
200.0
  1
＊
  7
EXTFONT
100
AcDbText
  0
TEXT
  5
54
330
6288
100
AcDbEntity
  8
0
100
AcDbText
 10
8950.039
 20
19392.9363
 30
0.0
 40
200.0
  1
＊
  7
EXTFONT
100
AcDbText
  0
TEXT
  5
55
330
6288
100
AcDbEntity
  8
0
100
AcDbText
 10
9250.039
 20
19642.9363
 30
0.0
 40
200.0
  1
＊
  7
EXTFONT
100
AcDbText
  0
TEXT
  5
56
330
6288
100
AcDbEntity
  8
0
100
AcDbText
 10
10300.039
 20
19392.9363
 30
0.0
 40
200.0
  1
＊
  7
EXTFONT
100
AcDbText
  0
TEXT
  5
57
330
6288
100
AcDbEntity
  8
0
100
AcDbText
 10
10500.039
 20
19867.9363
 30
0.0
 40
200.0
  1
＊
  7
EXTFONT
100
AcDbText
  0
TEXT
  5
58
330
6288
100
AcDbEntity
  8
0
100
AcDbText
 10
13600.039
 20
19392.9363
 30
0.0
 40
200.0
  1
＊
  7
EXTFONT
100
AcDbText
  0
TEXT
  5
59
330
6288
100
AcDbEntity
  8
0
100
AcDbText
 10
13900.039
 20
19642.9363
 30
0.0
 40
200.0
  1
＊
  7
EXTFONT
100
AcDbText
  0
TEXT
  5
5A
330
6288
100
AcDbEntity
  8
YKK_F1
100
AcDbText
 10
23900.08866667
 20
975.376
 30
0.0
 40
200.0
  1
建具表－（ＢＳＤＧＡＳ６１）
  7
EXTFONT
 72
     4
 11
25493.422
 21
1075.376
 31
0.0
100
AcDbText
  0
TEXT
  5
5B
330
6288
100
AcDbEntity
  8
YKK_F1
100
AcDbText
 10
23686.75533333
 20
1600.376
 30
0.0
 40
200.0
  1
(仮称)○\U+00D7ビル新築工事
  7
EXTFONT
 72
     4
 11
24993.422
 21
1700.376
 31
0.0
100
AcDbText
  0
TEXT
  5
5C
330
6288
100
AcDbEntity
  8
YKK_F1
100
AcDbText
 10
18546.807
 20
1067.4437
 30
0.0
 40
100.0
  1
担当者
  7
EXTFONT
100
AcDbText
  0
TEXT
  5
5D
330
6288
100
AcDbEntity
  8
YKK_F1
100
AcDbText
 10
18546.807
 20
1816.3159
 30
0.0
 40
100.0
  1
管理建築士
  7
EXTFONT
100
AcDbText
  0
TEXT
  5
5E
330
6288
100
AcDbEntity
  8
YKK_F1
100
AcDbText
 10
21544.55
 20
1816.3159
 30
0.0
 40
100.0
  1
設計No.
  7
EXTFONT
100
AcDbText
  0
TEXT
  5
5F
330
6288
100
AcDbEntity
  8
YKK_F1
100
AcDbText
 10
21544.55
 20
1317.2556
 30
0.0
 40
100.0
  1
縮尺
  7
EXTFONT
100
AcDbText
  0
TEXT
  5
60
330
6288
100
AcDbEntity
  8
YKK_F1
100
AcDbText
 10
23043.422
 20
1317.2556
 30
0.0
 40
100.0
  1
図面名
  7
EXTFONT
100
AcDbText
  0
TEXT
  5
61
330
6288
100
AcDbEntity
  8
YKK_F1
100
AcDbText
 10
23043.422
 20
1816.3159
 30
0.0
 40
100.0
  1
名称
  7
EXTFONT
100
AcDbText
  0
TEXT
  5
62
330
6288
100
AcDbEntity
  8
0
100
AcDbText
 10
14950.039
 20
7482.9363
 30
0.0
 40
200.0
  1
＊
  7
EXTFONT
100
AcDbText
  0
TEXT
  5
63
330
6288
100
AcDbEntity
  8
0
100
AcDbText
 10
15150.039
 20
7957.9363
 30
0.0
 40
200.0
  1
＊
  7
EXTFONT
100
AcDbText
  0
TEXT
  5
64
330
6288
100
AcDbEntity
  8
0
100
AcDbText
 10
18250.039
 20
7482.9363
 30
0.0
 40
200.0
  1
＊
  7
EXTFONT
100
AcDbText
  0
TEXT
  5
65
330
6288
100
AcDbEntity
  8
0
100
AcDbText
 10
18550.039
 20
7732.9363
 30
0.0
 40
200.0
  1
＊
  7
EXTFONT
100
AcDbText
  0
TEXT
  5
66
330
6288
100
AcDbEntity
  8
0
100
AcDbText
 10
19600.039
 20
7482.9363
 30
0.0
 40
200.0
  1
＊
  7
EXTFONT
100
AcDbText
  0
TEXT
  5
67
330
6288
100
AcDbEntity
  8
0
100
AcDbText
 10
19800.039
 20
7957.9363
 30
0.0
 40
200.0
  1
＊
  7
EXTFONT
100
AcDbText
  0
TEXT
  5
68
330
6288
100
AcDbEntity
  8
0
100
AcDbText
 10
22900.039
 20
7482.9363
 30
0.0
 40
200.0
  1
＊
  7
EXTFONT
100
AcDbText
  0
TEXT
  5
69
330
6288
100
AcDbEntity
  8
0
100
AcDbText
 10
23200.039
 20
7732.9363
 30
0.0
 40
200.0
  1
＊
  7
EXTFONT
100
AcDbText
  0
TEXT
  5
6A
330
6288
100
AcDbEntity
  8
0
100
AcDbText
 10
24250.039
 20
3777.9363
 30
0.0
 40
200.0
  1
＊
  7
EXTFONT
100
AcDbText
  0
TEXT
  5
6B
330
6288
100
AcDbEntity
  8
YKK_F1
100
AcDbText
 10
28617.37641269
 20
751.11699243
 30
0.0
 40
100.0
  1
枚の内
  7
EXTFONT
100
AcDbText
  0
TEXT
  5
6C
330
6288
100
AcDbEntity
  8
0
100
AcDbText
 10
24250.039
 20
2527.9363
 30
0.0
 40
200.0
  1
＊
  7
EXTFONT
100
AcDbText
  0
TEXT
  5
6D
330
6288
100
AcDbEntity
  8
0
100
AcDbText
 10
24250.039
 20
2277.9363
 30
0.0
 40
200.0
  1
＊
  7
EXTFONT
100
AcDbText
  0
TEXT
  5
6E
330
6288
100
AcDbEntity
  8
0
100
AcDbText
 10
24250.039
 20
2777.9363
 30
0.0
 40
200.0
  1
＊
  7
EXTFONT
100
AcDbText
  0
TEXT
  5
6F
330
6288
100
AcDbEntity
  8
0
100
AcDbText
 10
24250.039
 20
3277.9363
 30
0.0
 40
200.0
  1
＊
  7
EXTFONT
100
AcDbText
  0
TEXT
  5
70
330
6288
100
AcDbEntity
  8
0
100
AcDbText
 10
24250.039
 20
3027.9363
 30
0.0
 40
200.0
  1
＊
  7
EXTFONT
100
AcDbText
  0
TEXT
  5
71
330
6288
100
AcDbEntity
  8
0
100
AcDbText
 10
24250.039
 20
3527.9363
 30
0.0
 40
200.0
  1
＊
  7
EXTFONT
100
AcDbText
  0
TEXT
  5
72
330
6288
100
AcDbEntity
  8
YKK_F1
100
AcDbText
 10
26990.79
 20
1625.376
 30
0.0
 40
150.0
  1
工事設計図
  7
EXTFONT
100
AcDbText
  0
TEXT
  5
73
330
6288
100
AcDbEntity
  8
YKK_F1
100
AcDbText
 10
28040.79
 20
1816.3159
 30
0.0
 40
100.0
  1
図面No.
  7
EXTFONT
100
AcDbText
  0
TEXT
  5
74
330
6288
100
AcDbEntity
  8
0
100
AcDbText
 10
24250.039
 20
4027.9363
 30
0.0
 40
200.0
  1
＊
  7
EXTFONT
100
AcDbText
  0
TEXT
  5
75
330
6288
100
AcDbEntity
  8
0
100
AcDbText
 10
24250.039
 20
4277.9363
 30
0.0
 40
200.0
  1
＊
  7
EXTFONT
100
AcDbText
  0
TEXT
  5
76
330
6288
100
AcDbEntity
  8
0
100
AcDbText
 10
24250.039
 20
7482.9363
 30
0.0
 40
200.0
  1
＊
  7
EXTFONT
100
AcDbText
  0
TEXT
  5
77
330
6288
100
AcDbEntity
  8
0
100
AcDbText
 10
24450.039
 20
7957.9363
 30
0.0
 40
200.0
  1
＊
  7
EXTFONT
100
AcDbText
  0
TEXT
  5
78
330
6288
100
AcDbEntity
  8
0
100
AcDbText
 10
27550.039
 20
7482.9363
 30
0.0
 40
200.0
  1
＊
  7
EXTFONT
100
AcDbText
  0
TEXT
  5
79
330
6288
100
AcDbEntity
  8
0
100
AcDbText
 10
27850.039
 20
7732.9363
 30
0.0
 40
200.0
  1
＊
  7
EXTFONT
100
AcDbText
  0
TEXT
  5
7A
330
6288
100
AcDbEntity
  8
0
100
AcDbText
 10
18550.039
 20
13687.9363
 30
0.0
 40
200.0
  1
＊
  7
EXTFONT
100
AcDbText
  0
TEXT
  5
7B
330
6288
100
AcDbEntity
  8
0
100
AcDbText
 10
14950.039
 20
13437.9363
 30
0.0
 40
200.0
  1
＊
  7
EXTFONT
100
AcDbText
  0
TEXT
  5
7C
330
6288
100
AcDbEntity
  8
0
100
AcDbText
 10
18250.039
 20
13437.9363
 30
0.0
 40
200.0
  1
＊
  7
EXTFONT
100
AcDbText
  0
TEXT
  5
7D
330
6288
100
AcDbEntity
  8
0
100
AcDbText
 10
15150.039
 20
13912.9363
 30
0.0
 40
200.0
  1
＊
  7
EXTFONT
100
AcDbText
  0
TEXT
  5
7E
330
6288
100
AcDbEntity
  8
0
100
AcDbText
 10
23200.039
 20
13687.9363
 30
0.0
 40
200.0
  1
＊
  7
EXTFONT
100
AcDbText
  0
TEXT
  5
7F
330
6288
100
AcDbEntity
  8
0
100
AcDbText
 10
19600.039
 20
13437.9363
 30
0.0
 40
200.0
  1
＊
  7
EXTFONT
100
AcDbText
  0
TEXT
  5
80
330
6288
100
AcDbEntity
  8
0
100
AcDbText
 10
22900.039
 20
13437.9363
 30
0.0
 40
200.0
  1
＊
  7
EXTFONT
100
AcDbText
  0
TEXT
  5
81
330
6288
100
AcDbEntity
  8
0
100
AcDbText
 10
19800.039
 20
13912.9363
 30
0.0
 40
200.0
  1
＊
  7
EXTFONT
100
AcDbText
  0
TEXT
  5
82
330
6288
100
AcDbEntity
  8
0
100
AcDbText
 10
14950.039
 20
19392.9363
 30
0.0
 40
200.0
  1
＊
  7
EXTFONT
100
AcDbText
  0
TEXT
  5
83
330
6288
100
AcDbEntity
  8
0
100
AcDbText
 10
15150.039
 20
19867.9363
 30
0.0
 40
200.0
  1
＊
  7
EXTFONT
100
AcDbText
  0
TEXT
  5
84
330
6288
100
AcDbEntity
  8
0
100
AcDbText
 10
18250.039
 20
19392.9363
 30
0.0
 40
200.0
  1
＊
  7
EXTFONT
100
AcDbText
  0
TEXT
  5
85
330
6288
100
AcDbEntity
  8
0
100
AcDbText
 10
18550.039
 20
19642.9363
 30
0.0
 40
200.0
  1
＊
  7
EXTFONT
100
AcDbText
  0
TEXT
  5
86
330
6288
100
AcDbEntity
  8
0
100
AcDbText
 10
19600.039
 20
19392.9363
 30
0.0
 40
200.0
  1
＊
  7
EXTFONT
100
AcDbText
  0
TEXT
  5
87
330
6288
100
AcDbEntity
  8
0
100
AcDbText
 10
19800.039
 20
19867.9363
 30
0.0
 40
200.0
  1
＊
  7
EXTFONT
100
AcDbText
  0
TEXT
  5
88
330
6288
100
AcDbEntity
  8
0
100
AcDbText
 10
22900.039
 20
19392.9363
 30
0.0
 40
200.0
  1
＊
  7
EXTFONT
100
AcDbText
  0
TEXT
  5
89
330
6288
100
AcDbEntity
  8
0
100
AcDbText
 10
23200.039
 20
19642.9363
 30
0.0
 40
200.0
  1
＊
  7
EXTFONT
100
AcDbText
  0
TEXT
  5
8A
330
6288
100
AcDbEntity
  8
0
100
AcDbText
 10
27850.039
 20
13687.9363
 30
0.0
 40
200.0
  1
＊
  7
EXTFONT
100
AcDbText
  0
TEXT
  5
8B
330
6288
100
AcDbEntity
  8
0
100
AcDbText
 10
24250.039
 20
13437.9363
 30
0.0
 40
200.0
  1
＊
  7
EXTFONT
100
AcDbText
  0
TEXT
  5
8C
330
6288
100
AcDbEntity
  8
0
100
AcDbText
 10
27550.039
 20
13437.9363
 30
0.0
 40
200.0
  1
＊
  7
EXTFONT
100
AcDbText
  0
TEXT
  5
8D
330
6288
100
AcDbEntity
  8
0
100
AcDbText
 10
24450.039
 20
13912.9363
 30
0.0
 40
200.0
  1
＊
  7
EXTFONT
100
AcDbText
  0
TEXT
  5
8E
330
6288
100
AcDbEntity
  8
0
100
AcDbText
 10
24250.039
 20
19392.9363
 30
0.0
 40
200.0
  1
＊
  7
EXTFONT
100
AcDbText
  0
TEXT
  5
8F
330
6288
100
AcDbEntity
  8
0
100
AcDbText
 10
24450.039
 20
19867.9363
 30
0.0
 40
200.0
  1
＊
  7
EXTFONT
100
AcDbText
  0
TEXT
  5
90
330
6288
100
AcDbEntity
  8
0
100
AcDbText
 10
27550.039
 20
19392.9363
 30
0.0
 40
200.0
  1
＊
  7
EXTFONT
100
AcDbText
  0
TEXT
  5
91
330
6288
100
AcDbEntity
  8
0
100
AcDbText
 10
27850.039
 20
19642.9363
 30
0.0
 40
200.0
  1
＊
  7
EXTFONT
100
AcDbText
  0
LINE
  5
92
330
6288
100
AcDbEntity
  8
YKK_F1
  6
Continuous
100
AcDbLine
 10
659.77445
 20
20337.97
 30
0.0
 11
29040.229
 21
20337.97
 31
0.0
  0
LINE
  5
93
330
6288
100
AcDbEntity
  8
YKK_F1
  6
Continuous
100
AcDbLine
 10
672.18069
 20
20325.566
 30
0.0
 11
29027.821
 21
20325.566
 31
0.0
  0
LINE
  5
94
330
6288
100
AcDbEntity
  8
YKK_F1
  6
Continuous
100
AcDbLine
 10
685.15046
 20
20312.594
 30
0.0
 11
29015.417
 21
20312.594
 31
0.0
  0
LINE
  5
95
330
6288
100
AcDbEntity
  8
YKK_F1
  6
Continuous
100
AcDbLine
 10
697.5567
 20
20299.624
 30
0.0
 11
29002.445
 21
20299.624
 31
0.0
  0
LINE
  5
96
330
6288
100
AcDbEntity
  8
YKK_F1
  6
Continuous
100
AcDbLine
 10
509.77446
 20
20487.406
 30
0.0
 11
29190.79
 21
20487.406
 31
0.0
  0
LINE
  5
97
330
6288
100
AcDbEntity
  8
YKK_F1
  6
Continuous
100
AcDbLine
 10
709.96201
 20
20287.219
 30
0.0
 11
28990.039
 21
20287.219
 31
0.0
  0
LINE
  5
98
330
6288
100
AcDbEntity
  8
YKK_F1
  6
Continuous
100
AcDbLine
 10
900.039
 20
20117.9363
 30
0.0
 11
28800.039
 21
20117.9363
 31
0.0
  0
LINE
  5
99
330
6288
100
AcDbEntity
  8
YKK_F1
  6
Continuous
100
AcDbLine
 10
900.039
 20
13412.9363
 30
0.0
 11
28800.039
 21
13412.9363
 31
0.0
  0
LINE
  5
9A
330
6288
100
AcDbEntity
  8
YKK_F1
  6
Continuous
100
AcDbLine
 10
900.039
 20
13662.9363
 30
0.0
 11
28800.039
 21
13662.9363
 31
0.0
  0
LINE
  5
9B
330
6288
100
AcDbEntity
  8
YKK_F1
  6
Continuous
100
AcDbLine
 10
900.039
 20
19617.9363
 30
0.0
 11
28800.039
 21
19617.9363
 31
0.0
  0
LINE
  5
9C
330
6288
100
AcDbEntity
  8
YKK_F1
  6
Continuous
100
AcDbLine
 10
900.039
 20
19367.9363
 30
0.0
 11
28800.039
 21
19367.9363
 31
0.0
  0
LINE
  5
9D
330
6288
100
AcDbEntity
  8
YKK_F1
  6
Continuous
100
AcDbLine
 10
900.039
 20
14412.9363
 30
0.0
 11
28800.039
 21
14412.9363
 31
0.0
  0
LINE
  5
9E
330
6288
100
AcDbEntity
  8
YKK_F1
  6
Continuous
100
AcDbLine
 10
900.039
 20
14662.9363
 30
0.0
 11
28800.039
 21
14662.9363
 31
0.0
  0
LINE
  5
9F
330
6288
100
AcDbEntity
  8
YKK_F1
  6
Continuous
100
AcDbLine
 10
900.039
 20
14912.9363
 30
0.0
 11
28800.039
 21
14912.9363
 31
0.0
  0
LINE
  5
A0
330
6288
100
AcDbEntity
  8
YKK_F1
  6
Continuous
100
AcDbLine
 10
900.039
 20
15162.9363
 30
0.0
 11
28800.039
 21
15162.9363
 31
0.0
  0
LINE
  5
A1
330
6288
100
AcDbEntity
  8
YKK_F1
  6
Continuous
100
AcDbLine
 10
900.039
 20
15412.9363
 30
0.0
 11
28800.039
 21
15412.9363
 31
0.0
  0
LINE
  5
A2
330
6288
100
AcDbEntity
  8
YKK_F1
  6
Continuous
100
AcDbLine
 10
900.039
 20
15662.9363
 30
0.0
 11
28800.039
 21
15662.9363
 31
0.0
  0
LINE
  5
A3
330
6288
100
AcDbEntity
  8
YKK_F1
  6
Continuous
100
AcDbLine
 10
900.039
 20
15912.9363
 30
0.0
 11
28800.039
 21
15912.9363
 31
0.0
  0
LINE
  5
A4
330
6288
100
AcDbEntity
  8
YKK_F1
  6
Continuous
100
AcDbLine
 10
900.039
 20
16162.9363
 30
0.0
 11
28800.039
 21
16162.9363
 31
0.0
  0
LINE
  5
A5
330
6288
100
AcDbEntity
  8
YKK_F1
  6
Continuous
100
AcDbLine
 10
900.039
 20
16412.9363
 30
0.0
 11
28800.039
 21
16412.9363
 31
0.0
  0
LINE
  5
A6
330
6288
100
AcDbEntity
  8
YKK_F1
  6
Continuous
100
AcDbLine
 10
900.039
 20
14162.9363
 30
0.0
 11
28800.039
 21
14162.9363
 31
0.0
  0
LINE
  5
A7
330
6288
100
AcDbEntity
  8
YKK_F1
  6
Continuous
100
AcDbLine
 10
29190.79
 20
500.75202
 30
0.0
 11
509.77446
 21
500.75202
 31
0.0
  0
LINE
  5
A8
330
6288
100
AcDbEntity
  8
YKK_F1
  6
Continuous
100
AcDbLine
 10
29040.229
 20
650.18799
 30
0.0
 11
659.77445
 21
650.18799
 31
0.0
  0
LINE
  5
A9
330
6288
100
AcDbEntity
  8
YKK_F1
  6
Continuous
100
AcDbLine
 10
28990.039
 20
700.94001
 30
0.0
 11
709.96201
 21
700.94001
 31
0.0
  0
LINE
  5
AA
330
6288
100
AcDbEntity
  8
YKK_F1
  6
Continuous
100
AcDbLine
 10
29002.445
 20
687.97002
 30
0.0
 11
697.5567
 21
687.97002
 31
0.0
  0
LINE
  5
AB
330
6288
100
AcDbEntity
  8
YKK_F1
  6
Continuous
100
AcDbLine
 10
29015.417
 20
675.00009
 30
0.0
 11
685.15046
 21
675.00009
 31
0.0
  0
LINE
  5
AC
330
6288
100
AcDbEntity
  8
YKK_F1
  6
Continuous
100
AcDbLine
 10
29027.821
 20
662.59406
 30
0.0
 11
672.18069
 21
662.59406
 31
0.0
  0
LINE
  5
AD
330
6288
100
AcDbEntity
  8
YKK_F1
  6
Continuous
100
AcDbLine
 10
659.77445
 20
1949.4363
 30
0.0
 11
29040.229
 21
1949.4363
 31
0.0
  0
LINE
  5
AE
330
6288
100
AcDbEntity
  8
YKK_F1
  6
Continuous
100
AcDbLine
 10
900.039
 20
2252.9363
 30
0.0
 11
28800.039
 21
2252.9363
 31
0.0
  0
LINE
  5
AF
330
6288
100
AcDbEntity
  8
YKK_F1
  6
Continuous
100
AcDbLine
 10
900.039
 20
8207.9363
 30
0.0
 11
28800.039
 21
8207.9363
 31
0.0
  0
LINE
  5
B0
330
6288
100
AcDbEntity
  8
YKK_F1
  6
Continuous
100
AcDbLine
 10
900.039
 20
7707.9363
 30
0.0
 11
28800.039
 21
7707.9363
 31
0.0
  0
LINE
  5
B1
330
6288
100
AcDbEntity
  8
YKK_F1
  6
Continuous
100
AcDbLine
 10
900.039
 20
7457.9363
 30
0.0
 11
28800.039
 21
7457.9363
 31
0.0
  0
LINE
  5
B2
330
6288
100
AcDbEntity
  8
YKK_F1
  6
Continuous
100
AcDbLine
 10
900.039
 20
2502.9363
 30
0.0
 11
28800.039
 21
2502.9363
 31
0.0
  0
LINE
  5
B3
330
6288
100
AcDbEntity
  8
YKK_F1
  6
Continuous
100
AcDbLine
 10
900.039
 20
2752.9363
 30
0.0
 11
28800.039
 21
2752.9363
 31
0.0
  0
LINE
  5
B4
330
6288
100
AcDbEntity
  8
YKK_F1
  6
Continuous
100
AcDbLine
 10
900.039
 20
3002.9363
 30
0.0
 11
28800.039
 21
3002.9363
 31
0.0
  0
LINE
  5
B5
330
6288
100
AcDbEntity
  8
YKK_F1
  6
Continuous
100
AcDbLine
 10
900.039
 20
3252.9363
 30
0.0
 11
28800.039
 21
3252.9363
 31
0.0
  0
LINE
  5
B6
330
6288
100
AcDbEntity
  8
YKK_F1
  6
Continuous
100
AcDbLine
 10
900.039
 20
3502.9363
 30
0.0
 11
28800.039
 21
3502.9363
 31
0.0
  0
LINE
  5
B7
330
6288
100
AcDbEntity
  8
YKK_F1
  6
Continuous
100
AcDbLine
 10
900.039
 20
3752.9363
 30
0.0
 11
28800.039
 21
3752.9363
 31
0.0
  0
LINE
  5
B8
330
6288
100
AcDbEntity
  8
YKK_F1
  6
Continuous
100
AcDbLine
 10
900.039
 20
4002.9363
 30
0.0
 11
28800.039
 21
4002.9363
 31
0.0
  0
LINE
  5
B9
330
6288
100
AcDbEntity
  8
YKK_F1
  6
Continuous
100
AcDbLine
 10
900.039
 20
4252.9363
 30
0.0
 11
28800.039
 21
4252.9363
 31
0.0
  0
LINE
  5
BA
330
6288
100
AcDbEntity
  8
YKK_F1
  6
Continuous
100
AcDbLine
 10
900.039
 20
4502.9363
 30
0.0
 11
28800.039
 21
4502.9363
 31
0.0
  0
LINE
  5
BB
330
6288
100
AcDbEntity
  8
YKK_F1
  6
Continuous
100
AcDbLine
 10
900.039
 20
10457.9363
 30
0.0
 11
28800.039
 21
10457.9363
 31
0.0
  0
LINE
  5
BC
330
6288
100
AcDbEntity
  8
YKK_F1
  6
Continuous
100
AcDbLine
 10
900.039
 20
10207.9363
 30
0.0
 11
28800.039
 21
10207.9363
 31
0.0
  0
LINE
  5
BD
330
6288
100
AcDbEntity
  8
YKK_F1
  6
Continuous
100
AcDbLine
 10
900.039
 20
9957.9363
 30
0.0
 11
28800.039
 21
9957.9363
 31
0.0
  0
LINE
  5
BE
330
6288
100
AcDbEntity
  8
YKK_F1
  6
Continuous
100
AcDbLine
 10
900.039
 20
9707.9363
 30
0.0
 11
28800.039
 21
9707.9363
 31
0.0
  0
LINE
  5
BF
330
6288
100
AcDbEntity
  8
YKK_F1
  6
Continuous
100
AcDbLine
 10
900.039
 20
9457.9363
 30
0.0
 11
28800.039
 21
9457.9363
 31
0.0
  0
LINE
  5
C0
330
6288
100
AcDbEntity
  8
YKK_F1
  6
Continuous
100
AcDbLine
 10
900.039
 20
9207.9363
 30
0.0
 11
28800.039
 21
9207.9363
 31
0.0
  0
LINE
  5
C1
330
6288
100
AcDbEntity
  8
YKK_F1
  6
Continuous
100
AcDbLine
 10
900.039
 20
8957.9363
 30
0.0
 11
28800.039
 21
8957.9363
 31
0.0
  0
LINE
  5
C2
330
6288
100
AcDbEntity
  8
YKK_F1
  6
Continuous
100
AcDbLine
 10
900.039
 20
8707.9363
 30
0.0
 11
28800.039
 21
8707.9363
 31
0.0
  0
LINE
  5
C3
330
6288
100
AcDbEntity
  8
YKK_F1
  6
Continuous
100
AcDbLine
 10
900.039
 20
8457.9363
 30
0.0
 11
28800.039
 21
8457.9363
 31
0.0
  0
LINE
  5
C4
330
6288
100
AcDbEntity
  8
YKK_F1
  6
Continuous
100
AcDbLine
 10
10200.039
 20
2252.9363
 30
0.0
 11
10200.039
 21
20117.9363
 31
0.0
  0
LINE
  5
C5
330
6288
100
AcDbEntity
  8
YKK_F1
  6
Continuous
100
AcDbLine
 10
5550.039
 20
2252.9363
 30
0.0
 11
5550.039
 21
20117.9363
 31
0.0
  0
LINE
  5
C6
330
6288
100
AcDbEntity
  8
YKK_F1
  6
Continuous
100
AcDbLine
 10
509.77446
 20
500.75202
 30
0.0
 11
509.77446
 21
20487.406
 31
0.0
  0
LINE
  5
C7
330
6288
100
AcDbEntity
  8
YKK_F1
  6
Continuous
100
AcDbLine
 10
659.77445
 20
650.18799
 30
0.0
 11
659.77445
 21
20337.97
 31
0.0
  0
LINE
  5
C8
330
6288
100
AcDbEntity
  8
YKK_F1
  6
Continuous
100
AcDbLine
 10
672.18069
 20
662.59406
 30
0.0
 11
672.18069
 21
20325.566
 31
0.0
  0
LINE
  5
C9
330
6288
100
AcDbEntity
  8
YKK_F1
  6
Continuous
100
AcDbLine
 10
685.15046
 20
675.00009
 30
0.0
 11
685.15046
 21
20312.594
 31
0.0
  0
LINE
  5
CA
330
6288
100
AcDbEntity
  8
YKK_F1
  6
Continuous
100
AcDbLine
 10
697.5567
 20
687.97002
 30
0.0
 11
697.5567
 21
20299.624
 31
0.0
  0
LINE
  5
CB
330
6288
100
AcDbEntity
  8
YKK_F1
  6
Continuous
100
AcDbLine
 10
709.96201
 20
700.94001
 30
0.0
 11
709.96201
 21
20287.219
 31
0.0
  0
LINE
  5
CC
330
6288
100
AcDbEntity
  8
YKK_F1
  6
Continuous
100
AcDbLine
 10
900.039
 20
2252.9363
 30
0.0
 11
900.039
 21
20117.9363
 31
0.0
  0
LINE
  5
CD
330
6288
100
AcDbEntity
  8
YKK_F1
  6
Continuous
100
AcDbLine
 10
10604.323
 20
1701.3159
 30
0.0
 11
659.77445
 21
1701.3159
 31
0.0
  0
LINE
  5
CE
330
6288
100
AcDbEntity
  8
YKK_F1
  6
Continuous
100
AcDbLine
 10
10604.323
 20
1450.376
 30
0.0
 11
659.77445
 21
1450.376
 31
0.0
  0
LINE
  5
CF
330
6288
100
AcDbEntity
  8
YKK_F1
  6
Continuous
100
AcDbLine
 10
10604.323
 20
1200.5641
 30
0.0
 11
659.77445
 21
1200.5641
 31
0.0
  0
LINE
  5
D0
330
6288
100
AcDbEntity
  8
YKK_F1
  6
Continuous
100
AcDbLine
 10
10604.323
 20
950.75203
 30
0.0
 11
659.77445
 21
950.75203
 31
0.0
  0
TEXT
  5
D1
330
6288
100
AcDbEntity
  8
YKK_F1
  6
Continuous
100
AcDbText
 10
10820.301
 20
1583.4588
 30
0.0
 40
150.0
  1
**,**,**
100
AcDbText
  0
TEXT
  5
D3
330
6288
100
AcDbEntity
  8
YKK_F1
  6
Continuous
100
AcDbText
 10
10820.301
 20
1166.7294
 30
0.0
 40
150.0
  1
**,**,**
100
AcDbText
  0
TEXT
  5
D4
330
6288
100
AcDbEntity
  8
YKK_F1
  6
Continuous
100
AcDbText
 10
10820.301
 20
750.0
 30
0.0
 40
150.0
  1
**,**,**
100
AcDbText
  0
LINE
  5
D5
330
6288
100
AcDbEntity
  8
YKK_F1
  6
Continuous
100
AcDbLine
 10
12103.196
 20
1534.3986
 30
0.0
 11
10604.323
 21
1534.3986
 31
0.0
  0
LINE
  5
D6
330
6288
100
AcDbEntity
  8
YKK_F1
  6
Continuous
100
AcDbLine
 10
12103.196
 20
1117.6692
 30
0.0
 11
10604.323
 21
1117.6692
 31
0.0
  0
LINE
  5
D7
330
6288
100
AcDbEntity
  8
YKK_F1
  6
Continuous
100
AcDbLine
 10
10604.323
 20
1949.4363
 30
0.0
 11
10604.323
 21
650.18799
 31
0.0
  0
LINE
  5
D8
330
6288
100
AcDbEntity
  8
YKK_F1
  6
Continuous
100
AcDbLine
 10
12103.196
 20
1949.4363
 30
0.0
 11
12103.196
 21
650.18799
 31
0.0
  0
CIRCLE
  5
D9
330
6288
100
AcDbEntity
  8
YKK_F1
100
AcDbCircle
 10
5950.039
 20
7957.9363
 30
0.0
 40
233.3333333333333
  0
TEXT
  5
DA
330
6288
100
AcDbEntity
  8
YKK_F1
100
AcDbText
 10
5790.039
 20
7757.9363
 30
0.0
 40
160.0
  1
ＳＤ
  7
EXTFONT
100
AcDbText
  0
LINE
  5
DB
330
6288
100
AcDbEntity
  8
YKK_F1
  6
Continuous
100
AcDbLine
 10
5716.70566667
 20
7957.9363
 30
0.0
 11
6183.37233333
 21
7957.9363
 31
0.0
  0
TEXT
  5
DC
330
6288
100
AcDbEntity
  8
YKK_F1
100
AcDbText
 10
9670.039
 20
7732.9363
 30
0.0
 40
200.0
  1
箇所
  7
EXTFONT
100
AcDbText
  0
TEXT
  5
DD
330
6288
100
AcDbEntity
  8
YKK_F1
100
AcDbText
 10
2183.67067185
 20
15432.9363
 30
0.0
 40
200.0
  1
仕　　　　　　　上
  7
EXTFONT
 72
     1
 11
3237.00400518
 21
15432.9363
 31
0.0
100
AcDbText
  0
TEXT
  5
DE
330
6288
100
AcDbEntity
  8
YKK_F1
100
AcDbText
 10
2183.67067185
 20
14182.9363
 30
0.0
 40
200.0
  1
備　　　　　　　考
  7
EXTFONT
 72
     1
 11
3237.00400518
 21
14182.9363
 31
0.0
100
AcDbText
  0
TEXT
  5
DF
330
6288
100
AcDbEntity
  8
YKK_F1
100
AcDbText
 10
2183.67067185
 20
15682.9363
 30
0.0
 40
200.0
  1
材　質　・　仕　様
  7
EXTFONT
 72
     1
 11
3237.00400518
 21
15682.9363
 31
0.0
100
AcDbText
  0
TEXT
  5
E0
330
6288
100
AcDbEntity
  8
YKK_F1
100
AcDbText
 10
1817.00400518
 20
15182.9363
 30
0.0
 40
200.0
  1
ガラス・種類・ガラス押え
  7
EXTFONT
 72
     1
 11
3237.00400518
 21
15182.9363
 31
0.0
100
AcDbText
  0
TEXT
  5
E1
330
6288
100
AcDbEntity
  8
YKK_F1
100
AcDbText
 10
2063.67067185
 20
14932.9363
 30
0.0
 40
200.0
  1
建　　具　　金　　物
  7
EXTFONT
 72
     1
 11
3237.00400518
 21
14932.9363
 31
0.0
100
AcDbText
  0
TEXT
  5
E2
330
6288
100
AcDbEntity
  8
YKK_F1
100
AcDbText
 10
1937.00400518
 20
14682.9363
 30
0.0
 40
200.0
  1
(付　　属　　金　　物)
  7
EXTFONT
 72
     1
 11
3237.00400518
 21
14682.9363
 31
0.0
100
AcDbText
  0
TEXT
  5
E3
330
6288
100
AcDbEntity
  8
YKK_F1
100
AcDbText
 10
1283.67067185
 20
15932.9363
 30
0.0
 40
200.0
  1
寸法・見付・見込（枠見付・枠見込）
  7
EXTFONT
 72
     1
 11
3237.00400518
 21
15932.9363
 31
0.0
100
AcDbText
  0
TEXT
  5
E4
330
6288
100
AcDbEntity
  8
YKK_F1
100
AcDbText
 10
1703.67067185
 20
16182.9363
 30
0.0
 40
200.0
  1
型式・防音・エアタイト仕様
  7
EXTFONT
 72
     1
 11
3237.00400518
 21
16182.9363
 31
0.0
100
AcDbText
  0
TEXT
  5
E5
330
6288
100
AcDbEntity
  8
YKK_F1
100
AcDbText
 10
2183.67067185
 20
19387.9363
 30
0.0
 40
200.0
  1
使用箇所・防火仕様
  7
EXTFONT
 72
     1
 11
3237.00400518
 21
19387.9363
 31
0.0
100
AcDbText
  0
TEXT
  5
E6
330
6288
100
AcDbEntity
  8
YKK_F1
100
AcDbText
 10
2183.67067185
 20
19742.9363
 30
0.0
 40
200.0
  1
符　号　・　数　量
  7
EXTFONT
 72
     1
 11
3237.00400518
 21
19742.9363
 31
0.0
100
AcDbText
  0
TEXT
  5
E7
330
6288
100
AcDbEntity
  8
YKK_F1
100
AcDbText
 10
2190.33733852
 20
17810.4363
 30
0.0
 40
200.0
  1
姿　　　　　　　図
  7
EXTFONT
 72
     1
 11
3237.00400518
 21
17810.4363
 31
0.0
100
AcDbText
  0
TEXT
  5
E8
330
6288
100
AcDbEntity
  8
YKK_F1
100
AcDbText
 10
9670.039
 20
13687.9363
 30
0.0
 40
200.0
  1
箇所
  7
EXTFONT
100
AcDbText
  0
TEXT
  5
E9
330
6288
100
AcDbEntity
  8
YKK_F1
100
AcDbText
 10
5790.039
 20
13712.9363
 30
0.0
 40
160.0
  1
ＳＤ
  7
EXTFONT
100
AcDbText
  0
CIRCLE
  5
EA
330
6288
100
AcDbEntity
  8
YKK_F1
100
AcDbCircle
 10
5950.039
 20
13912.9363
 30
0.0
 40
233.3333333333333
  0
LINE
  5
EB
330
6288
100
AcDbEntity
  8
YKK_F1
  6
Continuous
100
AcDbLine
 10
5716.70566667
 20
13912.9363
 30
0.0
 11
6183.37233333
 21
13912.9363
 31
0.0
  0
LINE
  5
EC
330
6288
100
AcDbEntity
  8
YKK_F1
  6
Continuous
100
AcDbLine
 10
5716.70566667
 20
19867.9363
 30
0.0
 11
6183.37233333
 21
19867.9363
 31
0.0
  0
TEXT
  5
ED
330
6288
100
AcDbEntity
  8
YKK_F1
100
AcDbText
 10
5790.039
 20
19667.9363
 30
0.0
 40
160.0
  1
ＳＤ
  7
EXTFONT
100
AcDbText
  0
CIRCLE
  5
EE
330
6288
100
AcDbEntity
  8
YKK_F1
100
AcDbCircle
 10
5950.039
 20
19867.9363
 30
0.0
 40
233.3333333333333
  0
TEXT
  5
EF
330
6288
100
AcDbEntity
  8
YKK_F1
100
AcDbText
 10
9670.039
 20
19642.9363
 30
0.0
 40
200.0
  1
箇所
  7
EXTFONT
100
AcDbText
  0
LINE
  5
F0
330
6288
100
AcDbEntity
  8
YKK_F1
  6
Continuous
100
AcDbLine
 10
14850.039
 20
2252.9363
 30
0.0
 11
14850.039
 21
20117.9363
 31
0.0
  0
LINE
  5
F1
330
6288
100
AcDbEntity
  8
YKK_F1
  6
Continuous
100
AcDbLine
 10
19500.039
 20
2252.9363
 30
0.0
 11
19500.039
 21
20117.9363
 31
0.0
  0
LINE
  5
F2
330
6288
100
AcDbEntity
  8
YKK_F1
  6
Continuous
100
AcDbLine
 10
24150.039
 20
2252.9363
 30
0.0
 11
24150.039
 21
20117.9363
 31
0.0
  0
LINE
  5
F3
330
6288
100
AcDbEntity
  8
YKK_F1
  6
Continuous
100
AcDbLine
 10
28800.039
 20
2252.9363
 30
0.0
 11
28800.039
 21
20117.9363
 31
0.0
  0
LINE
  5
F4
330
6288
100
AcDbEntity
  8
YKK_F1
  6
Continuous
100
AcDbLine
 10
29190.79
 20
500.75202
 30
0.0
 11
29190.79
 21
20487.406
 31
0.0
  0
LINE
  5
F5
330
6288
100
AcDbEntity
  8
YKK_F1
  6
Continuous
100
AcDbLine
 10
29040.229
 20
650.18799
 30
0.0
 11
29040.229
 21
20337.97
 31
0.0
  0
LINE
  5
F6
330
6288
100
AcDbEntity
  8
YKK_F1
  6
Continuous
100
AcDbLine
 10
29002.445
 20
687.97002
 30
0.0
 11
29002.445
 21
20299.624
 31
0.0
  0
LINE
  5
F7
330
6288
100
AcDbEntity
  8
YKK_F1
  6
Continuous
100
AcDbLine
 10
29015.417
 20
675.00009
 30
0.0
 11
29015.417
 21
20312.594
 31
0.0
  0
LINE
  5
F8
330
6288
100
AcDbEntity
  8
YKK_F1
  6
Continuous
100
AcDbLine
 10
29027.821
 20
662.59406
 30
0.0
 11
29027.821
 21
20325.566
 31
0.0
  0
LINE
  5
F9
330
6288
100
AcDbEntity
  8
YKK_F1
  6
Continuous
100
AcDbLine
 10
28990.039
 20
700.94001
 30
0.0
 11
28990.039
 21
20287.219
 31
0.0
  0
LINE
  5
FA
330
6288
100
AcDbEntity
  8
YKK_F1
  6
Continuous
100
AcDbLine
 10
21494.55
 20
1450.376
 30
0.0
 11
27990.79
 21
1450.376
 31
0.0
  0
LINE
  5
FB
330
6288
100
AcDbEntity
  8
YKK_F1
  6
Continuous
100
AcDbLine
 10
21494.55
 20
1200.5641
 30
0.0
 11
18496.807
 21
1200.5641
 31
0.0
  0
LINE
  5
FC
330
6288
100
AcDbEntity
  8
YKK_F1
  6
Continuous
100
AcDbLine
 10
18496.807
 20
1949.4363
 30
0.0
 11
18496.807
 21
650.18799
 31
0.0
  0
LINE
  5
FD
330
6288
100
AcDbEntity
  8
YKK_F1
  6
Continuous
100
AcDbLine
 10
21494.55
 20
1949.4363
 30
0.0
 11
21494.55
 21
650.18799
 31
0.0
  0
LINE
  5
FE
330
6288
100
AcDbEntity
  8
YKK_F1
  6
Continuous
100
AcDbLine
 10
22594.174
 20
1351.128
 30
0.0
 11
21893.798
 21
800.75199
 31
0.0
  0
TEXT
  5
FF
330
6288
100
AcDbEntity
  8
YKK_F1
  6
Continuous
100
AcDbText
 10
21956.956
 20
1113.7219
 30
0.0
 40
150.0
  1
1
100
AcDbText
  0
TEXT
  5
100
330
6288
100
AcDbEntity
  8
YKK_F1
  6
Continuous
100
AcDbText
 10
22493.83502704
 20
866.53895907
 30
0.0
 40
150.0
  1
50
100
AcDbText
  0
LINE
  5
101
330
6288
100
AcDbEntity
  8
YKK_F1
  6
Continuous
100
AcDbLine
 10
22993.422
 20
1949.4363
 30
0.0
 11
22993.422
 21
650.18799
 31
0.0
  0
LINE
  5
102
330
6288
100
AcDbEntity
  8
YKK_F1
  6
Continuous
100
AcDbLine
 10
28890.228
 20
1651.1279
 30
0.0
 11
28090.604
 21
1001.504
 31
0.0
  0
LINE
  5
103
330
6288
100
AcDbEntity
  8
YKK_F1
  6
Continuous
100
AcDbLine
 10
27990.79
 20
1949.4363
 30
0.0
 11
27990.79
 21
650.18799
 31
0.0
  0
TEXT
  5
104
330
6288
100
AcDbEntity
  8
YKK_F1
100
AcDbText
 10
1283.67067185
 20
9977.9363
 30
0.0
 40
200.0
  1
寸法・見付・見込（枠見付・枠見込）
  7
EXTFONT
 72
     1
 11
3237.00400518
 21
9977.9363
 31
0.0
100
AcDbText
  0
TEXT
  5
105
330
6288
100
AcDbEntity
  8
YKK_F1
100
AcDbText
 10
2183.67067185
 20
9477.9363
 30
0.0
 40
200.0
  1
仕　　　　　　　上
  7
EXTFONT
 72
     1
 11
3237.00400518
 21
9477.9363
 31
0.0
100
AcDbText
  0
TEXT
  5
106
330
6288
100
AcDbEntity
  8
YKK_F1
100
AcDbText
 10
2183.67067185
 20
8227.9363
 30
0.0
 40
200.0
  1
備　　　　　　　考
  7
EXTFONT
 72
     1
 11
3237.00400518
 21
8227.9363
 31
0.0
100
AcDbText
  0
TEXT
  5
107
330
6288
100
AcDbEntity
  8
YKK_F1
100
AcDbText
 10
2183.67067185
 20
9727.9363
 30
0.0
 40
200.0
  1
材　質　・　仕　様
  7
EXTFONT
 72
     1
 11
3237.00400518
 21
9727.9363
 31
0.0
100
AcDbText
  0
TEXT
  5
108
330
6288
100
AcDbEntity
  8
YKK_F1
100
AcDbText
 10
1817.00400518
 20
9227.9363
 30
0.0
 40
200.0
  1
ガラス・種類・ガラス押え
  7
EXTFONT
 72
     1
 11
3237.00400518
 21
9227.9363
 31
0.0
100
AcDbText
  0
TEXT
  5
109
330
6288
100
AcDbEntity
  8
YKK_F1
100
AcDbText
 10
2063.67067185
 20
8977.9363
 30
0.0
 40
200.0
  1
建　　具　　金　　物
  7
EXTFONT
 72
     1
 11
3237.00400518
 21
8977.9363
 31
0.0
100
AcDbText
  0
TEXT
  5
10A
330
6288
100
AcDbEntity
  8
YKK_F1
100
AcDbText
 10
1937.00400518
 20
8727.9363
 30
0.0
 40
200.0
  1
(付　　属　　金　　物)
  7
EXTFONT
 72
     1
 11
3237.00400518
 21
8727.9363
 31
0.0
100
AcDbText
  0
TEXT
  5
10B
330
6288
100
AcDbEntity
  8
YKK_F1
100
AcDbText
 10
1703.67067185
 20
10227.9363
 30
0.0
 40
200.0
  1
型式・防音・エアタイト仕様
  7
EXTFONT
 72
     1
 11
3237.00400518
 21
10227.9363
 31
0.0
100
AcDbText
  0
TEXT
  5
10C
330
6288
100
AcDbEntity
  8
YKK_F1
100
AcDbText
 10
2183.67067185
 20
13432.9363
 30
0.0
 40
200.0
  1
使用箇所・防火仕様
  7
EXTFONT
 72
     1
 11
3237.00400518
 21
13432.9363
 31
0.0
100
AcDbText
  0
TEXT
  5
10D
330
6288
100
AcDbEntity
  8
YKK_F1
100
AcDbText
 10
2183.67067185
 20
13787.9363
 30
0.0
 40
200.0
  1
符　号　・　数　量
  7
EXTFONT
 72
     1
 11
3237.00400518
 21
13787.9363
 31
0.0
100
AcDbText
  0
TEXT
  5
10E
330
6288
100
AcDbEntity
  8
YKK_F1
100
AcDbText
 10
2190.33733852
 20
11855.4363
 30
0.0
 40
200.0
  1
姿　　　　　　　図
  7
EXTFONT
 72
     1
 11
3237.00400518
 21
11855.4363
 31
0.0
100
AcDbText
  0
TEXT
  5
10F
330
6288
100
AcDbEntity
  8
YKK_F1
100
AcDbText
 10
1283.67067185
 20
4022.9363
 30
0.0
 40
200.0
  1
寸法・見付・見込（枠見付・枠見込）
  7
EXTFONT
 72
     1
 11
3237.00400518
 21
4022.9363
 31
0.0
100
AcDbText
  0
TEXT
  5
110
330
6288
100
AcDbEntity
  8
YKK_F1
100
AcDbText
 10
2183.67067185
 20
3522.9363
 30
0.0
 40
200.0
  1
仕　　　　　　　上
  7
EXTFONT
 72
     1
 11
3237.00400518
 21
3522.9363
 31
0.0
100
AcDbText
  0
TEXT
  5
111
330
6288
100
AcDbEntity
  8
YKK_F1
100
AcDbText
 10
2183.67067185
 20
2272.9363
 30
0.0
 40
200.0
  1
備　　　　　　　考
  7
EXTFONT
 72
     1
 11
3237.00400518
 21
2272.9363
 31
0.0
100
AcDbText
  0
TEXT
  5
112
330
6288
100
AcDbEntity
  8
YKK_F1
100
AcDbText
 10
2183.67067185
 20
3772.9363
 30
0.0
 40
200.0
  1
材　質　・　仕　様
  7
EXTFONT
 72
     1
 11
3237.00400518
 21
3772.9363
 31
0.0
100
AcDbText
  0
TEXT
  5
113
330
6288
100
AcDbEntity
  8
YKK_F1
100
AcDbText
 10
1817.00400518
 20
3272.9363
 30
0.0
 40
200.0
  1
ガラス・種類・ガラス押え
  7
EXTFONT
 72
     1
 11
3237.00400518
 21
3272.9363
 31
0.0
100
AcDbText
  0
TEXT
  5
114
330
6288
100
AcDbEntity
  8
YKK_F1
100
AcDbText
 10
2063.67067185
 20
3022.9363
 30
0.0
 40
200.0
  1
建　　具　　金　　物
  7
EXTFONT
 72
     1
 11
3237.00400518
 21
3022.9363
 31
0.0
100
AcDbText
  0
TEXT
  5
115
330
6288
100
AcDbEntity
  8
YKK_F1
100
AcDbText
 10
1937.00400518
 20
2772.9363
 30
0.0
 40
200.0
  1
(付　　属　　金　　物)
  7
EXTFONT
 72
     1
 11
3237.00400518
 21
2772.9363
 31
0.0
100
AcDbText
  0
TEXT
  5
116
330
6288
100
AcDbEntity
  8
YKK_F1
100
AcDbText
 10
1703.67067185
 20
4272.9363
 30
0.0
 40
200.0
  1
型式・防音・エアタイト仕様
  7
EXTFONT
 72
     1
 11
3237.00400518
 21
4272.9363
 31
0.0
100
AcDbText
  0
TEXT
  5
117
330
6288
100
AcDbEntity
  8
YKK_F1
100
AcDbText
 10
2183.67067185
 20
7477.9363
 30
0.0
 40
200.0
  1
使用箇所・防火仕様
  7
EXTFONT
 72
     1
 11
3237.00400518
 21
7477.9363
 31
0.0
100
AcDbText
  0
TEXT
  5
118
330
6288
100
AcDbEntity
  8
YKK_F1
100
AcDbText
 10
2183.67067185
 20
7832.9363
 30
0.0
 40
200.0
  1
符　号　・　数　量
  7
EXTFONT
 72
     1
 11
3237.00400518
 21
7832.9363
 31
0.0
100
AcDbText
  0
TEXT
  5
119
330
6288
100
AcDbEntity
  8
YKK_F1
100
AcDbText
 10
2190.33733852
 20
5900.4363
 30
0.0
 40
200.0
  1
姿　　　　　　　図
  7
EXTFONT
 72
     1
 11
3237.00400518
 21
5900.4363
 31
0.0
100
AcDbText
  0
CIRCLE
  5
11A
330
6288
100
AcDbEntity
  8
YKK_F1
100
AcDbCircle
 10
10600.039
 20
7957.9363
 30
0.0
 40
233.3333333333333
  0
LINE
  5
11B
330
6288
100
AcDbEntity
  8
YKK_F1
  6
Continuous
100
AcDbLine
 10
10366.70566667
 20
7957.9363
 30
0.0
 11
10833.37233333
 21
7957.9363
 31
0.0
  0
TEXT
  5
11C
330
6288
100
AcDbEntity
  8
YKK_F1
100
AcDbText
 10
10440.039
 20
7757.9363
 30
0.0
 40
160.0
  1
ＳＤ
  7
EXTFONT
100
AcDbText
  0
TEXT
  5
11D
330
6288
100
AcDbEntity
  8
YKK_F1
100
AcDbText
 10
14320.039
 20
7732.9363
 30
0.0
 40
200.0
  1
箇所
  7
EXTFONT
100
AcDbText
  0
CIRCLE
  5
11E
330
6288
100
AcDbEntity
  8
YKK_F1
100
AcDbCircle
 10
10600.039
 20
13912.9363
 30
0.0
 40
233.3333333333333
  0
TEXT
  5
11F
330
6288
100
AcDbEntity
  8
YKK_F1
100
AcDbText
 10
10440.039
 20
13712.9363
 30
0.0
 40
160.0
  1
ＳＤ
  7
EXTFONT
100
AcDbText
  0
TEXT
  5
120
330
6288
100
AcDbEntity
  8
YKK_F1
100
AcDbText
 10
14320.039
 20
13687.9363
 30
0.0
 40
200.0
  1
箇所
  7
EXTFONT
100
AcDbText
  0
LINE
  5
121
330
6288
100
AcDbEntity
  8
YKK_F1
  6
Continuous
100
AcDbLine
 10
10366.70566667
 20
13912.9363
 30
0.0
 11
10833.37233333
 21
13912.9363
 31
0.0
  0
LINE
  5
122
330
6288
100
AcDbEntity
  8
YKK_F1
  6
Continuous
100
AcDbLine
 10
10366.70566667
 20
19867.9363
 30
0.0
 11
10833.37233333
 21
19867.9363
 31
0.0
  0
CIRCLE
  5
123
330
6288
100
AcDbEntity
  8
YKK_F1
100
AcDbCircle
 10
10600.039
 20
19867.9363
 30
0.0
 40
233.3333333333333
  0
TEXT
  5
124
330
6288
100
AcDbEntity
  8
YKK_F1
100
AcDbText
 10
10440.039
 20
19667.9363
 30
0.0
 40
160.0
  1
ＳＤ
  7
EXTFONT
100
AcDbText
  0
TEXT
  5
125
330
6288
100
AcDbEntity
  8
YKK_F1
100
AcDbText
 10
14320.039
 20
19642.9363
 30
0.0
 40
200.0
  1
箇所
  7
EXTFONT
100
AcDbText
  0
CIRCLE
  5
126
330
6288
100
AcDbEntity
  8
YKK_F1
100
AcDbCircle
 10
15250.039
 20
7957.9363
 30
0.0
 40
233.3333333333333
  0
TEXT
  5
127
330
6288
100
AcDbEntity
  8
YKK_F1
100
AcDbText
 10
15090.039
 20
7757.9363
 30
0.0
 40
160.0
  1
ＳＤ
  7
EXTFONT
100
AcDbText
  0
LINE
  5
128
330
6288
100
AcDbEntity
  8
YKK_F1
  6
Continuous
100
AcDbLine
 10
15016.70566667
 20
7957.9363
 30
0.0
 11
15483.37233333
 21
7957.9363
 31
0.0
  0
TEXT
  5
129
330
6288
100
AcDbEntity
  8
YKK_F1
100
AcDbText
 10
18970.039
 20
7732.9363
 30
0.0
 40
200.0
  1
箇所
  7
EXTFONT
100
AcDbText
  0
TEXT
  5
12A
330
6288
100
AcDbEntity
  8
YKK_F1
100
AcDbText
 10
18970.039
 20
13687.9363
 30
0.0
 40
200.0
  1
箇所
  7
EXTFONT
100
AcDbText
  0
TEXT
  5
12B
330
6288
100
AcDbEntity
  8
YKK_F1
100
AcDbText
 10
15090.039
 20
13712.9363
 30
0.0
 40
160.0
  1
ＳＤ
  7
EXTFONT
100
AcDbText
  0
CIRCLE
  5
12C
330
6288
100
AcDbEntity
  8
YKK_F1
100
AcDbCircle
 10
15250.039
 20
13912.9363
 30
0.0
 40
233.3333333333333
  0
LINE
  5
12D
330
6288
100
AcDbEntity
  8
YKK_F1
  6
Continuous
100
AcDbLine
 10
15016.70566667
 20
13912.9363
 30
0.0
 11
15483.37233333
 21
13912.9363
 31
0.0
  0
TEXT
  5
12E
330
6288
100
AcDbEntity
  8
YKK_F1
100
AcDbText
 10
15090.039
 20
19667.9363
 30
0.0
 40
160.0
  1
ＳＤ
  7
EXTFONT
100
AcDbText
  0
CIRCLE
  5
12F
330
6288
100
AcDbEntity
  8
YKK_F1
100
AcDbCircle
 10
15250.039
 20
19867.9363
 30
0.0
 40
233.3333333333333
  0
LINE
  5
130
330
6288
100
AcDbEntity
  8
YKK_F1
  6
Continuous
100
AcDbLine
 10
15016.70566667
 20
19867.9363
 30
0.0
 11
15483.37233333
 21
19867.9363
 31
0.0
  0
TEXT
  5
131
330
6288
100
AcDbEntity
  8
YKK_F1
100
AcDbText
 10
18970.039
 20
19642.9363
 30
0.0
 40
200.0
  1
箇所
  7
EXTFONT
100
AcDbText
  0
CIRCLE
  5
132
330
6288
100
AcDbEntity
  8
YKK_F1
100
AcDbCircle
 10
19900.039
 20
7957.9363
 30
0.0
 40
233.3333333333333
  0
LINE
  5
133
330
6288
100
AcDbEntity
  8
YKK_F1
  6
Continuous
100
AcDbLine
 10
19666.70566667
 20
7957.9363
 30
0.0
 11
20133.37233333
 21
7957.9363
 31
0.0
  0
TEXT
  5
134
330
6288
100
AcDbEntity
  8
YKK_F1
100
AcDbText
 10
19740.039
 20
7757.9363
 30
0.0
 40
160.0
  1
ＳＤ
  7
EXTFONT
100
AcDbText
  0
TEXT
  5
135
330
6288
100
AcDbEntity
  8
YKK_F1
100
AcDbText
 10
23620.039
 20
7732.9363
 30
0.0
 40
200.0
  1
箇所
  7
EXTFONT
100
AcDbText
  0
CIRCLE
  5
136
330
6288
100
AcDbEntity
  8
YKK_F1
100
AcDbCircle
 10
19900.039
 20
13912.9363
 30
0.0
 40
233.3333333333333
  0
TEXT
  5
137
330
6288
100
AcDbEntity
  8
YKK_F1
100
AcDbText
 10
19740.039
 20
13712.9363
 30
0.0
 40
160.0
  1
ＳＤ
  7
EXTFONT
100
AcDbText
  0
TEXT
  5
138
330
6288
100
AcDbEntity
  8
YKK_F1
100
AcDbText
 10
23620.039
 20
13687.9363
 30
0.0
 40
200.0
  1
箇所
  7
EXTFONT
100
AcDbText
  0
LINE
  5
139
330
6288
100
AcDbEntity
  8
YKK_F1
  6
Continuous
100
AcDbLine
 10
19666.70566667
 20
13912.9363
 30
0.0
 11
20133.37233333
 21
13912.9363
 31
0.0
  0
LINE
  5
13A
330
6288
100
AcDbEntity
  8
YKK_F1
  6
Continuous
100
AcDbLine
 10
19666.70566667
 20
19867.9363
 30
0.0
 11
20133.37233333
 21
19867.9363
 31
0.0
  0
CIRCLE
  5
13B
330
6288
100
AcDbEntity
  8
YKK_F1
100
AcDbCircle
 10
19900.039
 20
19867.9363
 30
0.0
 40
233.3333333333333
  0
TEXT
  5
13C
330
6288
100
AcDbEntity
  8
YKK_F1
100
AcDbText
 10
19740.039
 20
19667.9363
 30
0.0
 40
160.0
  1
ＳＤ
  7
EXTFONT
100
AcDbText
  0
TEXT
  5
13D
330
6288
100
AcDbEntity
  8
YKK_F1
100
AcDbText
 10
23620.039
 20
19642.9363
 30
0.0
 40
200.0
  1
箇所
  7
EXTFONT
100
AcDbText
  0
CIRCLE
  5
13E
330
6288
100
AcDbEntity
  8
YKK_F1
100
AcDbCircle
 10
24550.039
 20
7957.9363
 30
0.0
 40
233.3333333333333
  0
TEXT
  5
13F
330
6288
100
AcDbEntity
  8
YKK_F1
100
AcDbText
 10
24390.039
 20
7757.9363
 30
0.0
 40
160.0
  1
ＳＤ
  7
EXTFONT
100
AcDbText
  0
LINE
  5
140
330
6288
100
AcDbEntity
  8
YKK_F1
  6
Continuous
100
AcDbLine
 10
24316.70566667
 20
7957.9363
 30
0.0
 11
24783.37233333
 21
7957.9363
 31
0.0
  0
TEXT
  5
141
330
6288
100
AcDbEntity
  8
YKK_F1
100
AcDbText
 10
28270.039
 20
7732.9363
 30
0.0
 40
200.0
  1
箇所
  7
EXTFONT
100
AcDbText
  0
TEXT
  5
142
330
6288
100
AcDbEntity
  8
YKK_F1
100
AcDbText
 10
28270.039
 20
13687.9363
 30
0.0
 40
200.0
  1
箇所
  7
EXTFONT
100
AcDbText
  0
TEXT
  5
143
330
6288
100
AcDbEntity
  8
YKK_F1
100
AcDbText
 10
24390.039
 20
13712.9363
 30
0.0
 40
160.0
  1
ＳＤ
  7
EXTFONT
100
AcDbText
  0
CIRCLE
  5
144
330
6288
100
AcDbEntity
  8
YKK_F1
100
AcDbCircle
 10
24550.039
 20
13912.9363
 30
0.0
 40
233.3333333333333
  0
LINE
  5
145
330
6288
100
AcDbEntity
  8
YKK_F1
  6
Continuous
100
AcDbLine
 10
24316.70566667
 20
13912.9363
 30
0.0
 11
24783.37233333
 21
13912.9363
 31
0.0
  0
TEXT
  5
146
330
6288
100
AcDbEntity
  8
YKK_F1
100
AcDbText
 10
24390.039
 20
19667.9363
 30
0.0
 40
160.0
  1
ＳＤ
  7
EXTFONT
100
AcDbText
  0
CIRCLE
  5
147
330
6288
100
AcDbEntity
  8
YKK_F1
100
AcDbCircle
 10
24550.039
 20
19867.9363
 30
0.0
 40
233.3333333333333
  0
LINE
  5
148
330
6288
100
AcDbEntity
  8
YKK_F1
  6
Continuous
100
AcDbLine
 10
24316.70566667
 20
19867.9363
 30
0.0
 11
24783.37233333
 21
19867.9363
 31
0.0
  0
TEXT
  5
149
330
6288
100
AcDbEntity
  8
YKK_F1
100
AcDbText
 10
28270.039
 20
19642.9363
 30
0.0
 40
200.0
  1
箇所
  7
EXTFONT
100
AcDbText
  0
TEXT
  5
14A
330
6288
100
AcDbEntity
  8
0
100
AcDbText
 10
19600.039
 20
3777.9363
 30
0.0
 40
200.0
  1
＊
  7
EXTFONT
100
AcDbText
  0
TEXT
  5
14B
330
6288
100
AcDbEntity
  8
0
100
AcDbText
 10
19600.039
 20
2527.9363
 30
0.0
 40
200.0
  1
＊
  7
EXTFONT
100
AcDbText
  0
TEXT
  5
14C
330
6288
100
AcDbEntity
  8
0
100
AcDbText
 10
19600.039
 20
2277.9363
 30
0.0
 40
200.0
  1
＊
  7
EXTFONT
100
AcDbText
  0
TEXT
  5
14D
330
6288
100
AcDbEntity
  8
0
100
AcDbText
 10
19600.039
 20
2777.9363
 30
0.0
 40
200.0
  1
＊
  7
EXTFONT
100
AcDbText
  0
TEXT
  5
14E
330
6288
100
AcDbEntity
  8
0
100
AcDbText
 10
19600.039
 20
3027.9363
 30
0.0
 40
200.0
  1
＊
  7
EXTFONT
100
AcDbText
  0
TEXT
  5
14F
330
6288
100
AcDbEntity
  8
0
100
AcDbText
 10
19600.039
 20
3277.9363
 30
0.0
 40
200.0
  1
＊
  7
EXTFONT
100
AcDbText
  0
TEXT
  5
150
330
6288
100
AcDbEntity
  8
0
100
AcDbText
 10
19600.039
 20
3527.9363
 30
0.0
 40
200.0
  1
＊
  7
EXTFONT
100
AcDbText
  0
TEXT
  5
151
330
6288
100
AcDbEntity
  8
0
100
AcDbText
 10
19600.039
 20
4027.9363
 30
0.0
 40
200.0
  1
＊
  7
EXTFONT
100
AcDbText
  0
TEXT
  5
152
330
6288
100
AcDbEntity
  8
0
100
AcDbText
 10
19600.039
 20
4277.9363
 30
0.0
 40
200.0
  1
＊
  7
EXTFONT
100
AcDbText
  0
TEXT
  5
15C
330
6288
100
AcDbEntity
  8
0
100
AcDbText
 10
5650.039
 20
15687.9363
 30
0.0
 40
200.0
  1
ＳＵＳ３０４　２Ｂ・枠(扉)板厚1.5ミリ
  7
EXTFONT
100
AcDbText
  0
TEXT
  5
15D
330
6288
100
AcDbEntity
  8
0
100
AcDbText
 10
5650.039
 20
14437.9363
 30
0.0
 40
200.0
  1
平面ハンドル・ワイヤーストッパー
  7
EXTFONT
100
AcDbText
  0
TEXT
  5
15E
330
6288
100
AcDbEntity
  8
0
100
AcDbText
 10
5650.039
 20
14187.9363
 30
0.0
 40
200.0
  1
ＹＫＫＡＰ　ガスチャンバー同等品
  7
EXTFONT
100
AcDbText
  0
TEXT
  5
15F
330
6288
100
AcDbEntity
  8
0
100
AcDbText
 10
5650.039
 20
14687.9363
 30
0.0
 40
180.0
  1
＊
  7
EXTFONT
100
AcDbText
  0
TEXT
  5
160
330
6288
100
AcDbEntity
  8
0
100
AcDbText
 10
5650.039
 20
14937.9363
 30
0.0
 40
200.0
  1
ケースハンドル・旗丁番・戸当りゴム
  7
EXTFONT
100
AcDbText
  0
TEXT
  5
161
330
6288
100
AcDbEntity
  8
0
100
AcDbText
 10
5650.039
 20
15187.9363
 30
0.0
 40
200.0
  1
＊
  7
EXTFONT
100
AcDbText
  0
TEXT
  5
162
330
6288
100
AcDbEntity
  8
0
100
AcDbText
 10
5650.039
 20
15437.9363
 30
0.0
 40
200.0
  1
アクリル樹脂焼付塗装
  7
EXTFONT
100
AcDbText
  0
TEXT
  5
163
330
6288
100
AcDbEntity
  8
0
100
AcDbText
 10
5650.039
 20
15937.9363
 30
0.0
 40
200.0
  1
W=600 H=1,900 扉厚25(枠見込33)
 41
0.95
  7
EXTFONT
100
AcDbText
  0
TEXT
  5
164
330
6288
100
AcDbEntity
  8
0
100
AcDbText
 10
5650.039
 20
16187.9363
 30
0.0
 40
200.0
  1
一般設置型下段片開き
  7
EXTFONT
100
AcDbText
  0
TEXT
  5
16F
330
6288
100
AcDbEntity
  8
0
100
AcDbText
 10
10300.039
 20
15937.9363
 30
0.0
 40
200.0
  1
W=900 H=1,900 扉厚25(枠見込33)
 41
0.9
  7
EXTFONT
100
AcDbText
  0
TEXT
  5
174
330
6288
100
AcDbEntity
  8
0
100
AcDbText
 10
10300.039
 20
16187.9363
 30
0.0
 40
200.0
  1
二連一般設置型下段片開き
  7
EXTFONT
100
AcDbText
  0
TEXT
  5
30E4
330
6288
100
AcDbEntity
  8
0
100
AcDbText
 10
10300.039
 20
16437.9363
 30
0.0
 40
200.0
  1
2GC SAC
  7
EXTFONT
100
AcDbText
  0
TEXT
  5
30E6
330
6288
100
AcDbEntity
  8
0
100
AcDbText
 10
5650.039
 20
16437.9363
 30
0.0
 40
200.0
  1
2GC SAA
  7
EXTFONT
100
AcDbText
  0
TEXT
  5
6656
330
6288
100
AcDbEntity
  8
0
100
AcDbText
 10
5650.039
 20
3777.9363
 30
0.0
 40
200.0
  1
＊
  7
EXTFONT
100
AcDbText
  0
TEXT
  5
6657
330
6288
100
AcDbEntity
  8
0
100
AcDbText
 10
5650.039
 20
3027.9363
 30
0.0
 40
200.0
  1
＊
  7
EXTFONT
100
AcDbText
  0
TEXT
  5
6658
330
6288
100
AcDbEntity
  8
0
100
AcDbText
 10
5650.039
 20
2277.9363
 30
0.0
 40
200.0
  1
＊
  7
EXTFONT
100
AcDbText
  0
TEXT
  5
6659
330
6288
100
AcDbEntity
  8
0
100
AcDbText
 10
5650.039
 20
2527.9363
 30
0.0
 40
200.0
  1
＊
  7
EXTFONT
100
AcDbText
  0
TEXT
  5
665A
330
6288
100
AcDbEntity
  8
0
100
AcDbText
 10
5650.039
 20
2777.9363
 30
0.0
 40
200.0
  1
＊
  7
EXTFONT
100
AcDbText
  0
TEXT
  5
665B
330
6288
100
AcDbEntity
  8
0
100
AcDbText
 10
5650.039
 20
3277.9363
 30
0.0
 40
200.0
  1
＊
  7
EXTFONT
100
AcDbText
  0
TEXT
  5
665C
330
6288
100
AcDbEntity
  8
0
100
AcDbText
 10
5650.039
 20
3527.9363
 30
0.0
 40
200.0
  1
＊
  7
EXTFONT
100
AcDbText
  0
TEXT
  5
665D
330
6288
100
AcDbEntity
  8
0
100
AcDbText
 10
5650.039
 20
4277.9363
 30
0.0
 40
200.0
  1
＊
  7
EXTFONT
100
AcDbText
  0
TEXT
  5
665E
330
6288
100
AcDbEntity
  8
0
100
AcDbText
 10
5650.039
 20
4027.9363
 30
0.0
 40
200.0
  1
＊
  7
EXTFONT
100
AcDbText
  0
TEXT
  5
665F
330
6288
100
AcDbEntity
  8
0
100
AcDbText
 10
10300.039
 20
3777.9363
 30
0.0
 40
200.0
  1
＊
  7
EXTFONT
100
AcDbText
  0
TEXT
  5
6660
330
6288
100
AcDbEntity
  8
0
100
AcDbText
 10
10300.039
 20
3027.9363
 30
0.0
 40
200.0
  1
＊
  7
EXTFONT
100
AcDbText
  0
TEXT
  5
6661
330
6288
100
AcDbEntity
  8
0
100
AcDbText
 10
10300.039
 20
2277.9363
 30
0.0
 40
200.0
  1
＊
  7
EXTFONT
100
AcDbText
  0
TEXT
  5
6662
330
6288
100
AcDbEntity
  8
0
100
AcDbText
 10
10300.039
 20
2527.9363
 30
0.0
 40
200.0
  1
＊
  7
EXTFONT
100
AcDbText
  0
TEXT
  5
6663
330
6288
100
AcDbEntity
  8
0
100
AcDbText
 10
10300.039
 20
2777.9363
 30
0.0
 40
200.0
  1
＊
  7
EXTFONT
100
AcDbText
  0
TEXT
  5
6664
330
6288
100
AcDbEntity
  8
0
100
AcDbText
 10
10300.039
 20
3277.9363
 30
0.0
 40
200.0
  1
＊
  7
EXTFONT
100
AcDbText
  0
TEXT
  5
6665
330
6288
100
AcDbEntity
  8
0
100
AcDbText
 10
10300.039
 20
3527.9363
 30
0.0
 40
200.0
  1
＊
  7
EXTFONT
100
AcDbText
  0
TEXT
  5
6666
330
6288
100
AcDbEntity
  8
0
100
AcDbText
 10
10300.039
 20
4277.9363
 30
0.0
 40
200.0
  1
＊
  7
EXTFONT
100
AcDbText
  0
TEXT
  5
6667
330
6288
100
AcDbEntity
  8
0
100
AcDbText
 10
10300.039
 20
4027.9363
 30
0.0
 40
200.0
  1
＊
  7
EXTFONT
100
AcDbText
  0
TEXT
  5
6668
330
6288
100
AcDbEntity
  8
0
100
AcDbText
 10
14950.039
 20
3777.9363
 30
0.0
 40
200.0
  1
＊
  7
EXTFONT
100
AcDbText
  0
TEXT
  5
6669
330
6288
100
AcDbEntity
  8
0
100
AcDbText
 10
14950.039
 20
3027.9363
 30
0.0
 40
200.0
  1
＊
  7
EXTFONT
100
AcDbText
  0
TEXT
  5
666A
330
6288
100
AcDbEntity
  8
0
100
AcDbText
 10
14950.039
 20
2527.9363
 30
0.0
 40
200.0
  1
＊
  7
EXTFONT
100
AcDbText
  0
TEXT
  5
666B
330
6288
100
AcDbEntity
  8
0
100
AcDbText
 10
14950.039
 20
2277.9363
 30
0.0
 40
200.0
  1
＊
  7
EXTFONT
100
AcDbText
  0
TEXT
  5
666C
330
6288
100
AcDbEntity
  8
0
100
AcDbText
 10
14950.039
 20
2777.9363
 30
0.0
 40
200.0
  1
＊
  7
EXTFONT
100
AcDbText
  0
TEXT
  5
666D
330
6288
100
AcDbEntity
  8
0
100
AcDbText
 10
14950.039
 20
3277.9363
 30
0.0
 40
200.0
  1
＊
  7
EXTFONT
100
AcDbText
  0
TEXT
  5
666E
330
6288
100
AcDbEntity
  8
0
100
AcDbText
 10
14950.039
 20
3527.9363
 30
0.0
 40
200.0
  1
＊
  7
EXTFONT
100
AcDbText
  0
TEXT
  5
666F
330
6288
100
AcDbEntity
  8
0
100
AcDbText
 10
14950.039
 20
4277.9363
 30
0.0
 40
200.0
  1
＊
  7
EXTFONT
100
AcDbText
  0
TEXT
  5
6670
330
6288
100
AcDbEntity
  8
0
100
AcDbText
 10
14950.039
 20
4027.9363
 30
0.0
 40
200.0
  1
＊
  7
EXTFONT
100
AcDbText
  0
TEXT
  5
6683
330
6288
100
AcDbEntity
  8
0
100
AcDbText
 10
14950.039
 20
9732.9363
 30
0.0
 40
200.0
  1
＊
  7
EXTFONT
100
AcDbText
  0
TEXT
  5
6684
330
6288
100
AcDbEntity
  8
0
100
AcDbText
 10
19600.039
 20
9732.9363
 30
0.0
 40
200.0
  1
＊
  7
EXTFONT
100
AcDbText
  0
TEXT
  5
6685
330
6288
100
AcDbEntity
  8
0
100
AcDbText
 10
14950.039
 20
8982.9363
 30
0.0
 40
200.0
  1
＊
  7
EXTFONT
100
AcDbText
  0
TEXT
  5
6686
330
6288
100
AcDbEntity
  8
0
100
AcDbText
 10
14950.039
 20
8232.9363
 30
0.0
 40
200.0
  1
＊
  7
EXTFONT
100
AcDbText
  0
TEXT
  5
6687
330
6288
100
AcDbEntity
  8
0
100
AcDbText
 10
14950.039
 20
8482.9363
 30
0.0
 40
200.0
  1
＊
  7
EXTFONT
100
AcDbText
  0
TEXT
  5
6688
330
6288
100
AcDbEntity
  8
0
100
AcDbText
 10
14950.039
 20
8732.9363
 30
0.0
 40
200.0
  1
＊
  7
EXTFONT
100
AcDbText
  0
TEXT
  5
6689
330
6288
100
AcDbEntity
  8
0
100
AcDbText
 10
14950.039
 20
9232.9363
 30
0.0
 40
200.0
  1
＊
  7
EXTFONT
100
AcDbText
  0
TEXT
  5
668A
330
6288
100
AcDbEntity
  8
0
100
AcDbText
 10
14950.039
 20
9482.9363
 30
0.0
 40
200.0
  1
＊
  7
EXTFONT
100
AcDbText
  0
TEXT
  5
668B
330
6288
100
AcDbEntity
  8
0
100
AcDbText
 10
19600.039
 20
8982.9363
 30
0.0
 40
200.0
  1
＊
  7
EXTFONT
100
AcDbText
  0
TEXT
  5
668C
330
6288
100
AcDbEntity
  8
0
100
AcDbText
 10
19600.039
 20
8232.9363
 30
0.0
 40
200.0
  1
＊
  7
EXTFONT
100
AcDbText
  0
TEXT
  5
668D
330
6288
100
AcDbEntity
  8
0
100
AcDbText
 10
19600.039
 20
8482.9363
 30
0.0
 40
200.0
  1
＊
  7
EXTFONT
100
AcDbText
  0
TEXT
  5
668E
330
6288
100
AcDbEntity
  8
0
100
AcDbText
 10
19600.039
 20
8732.9363
 30
0.0
 40
200.0
  1
＊
  7
EXTFONT
100
AcDbText
  0
TEXT
  5
668F
330
6288
100
AcDbEntity
  8
0
100
AcDbText
 10
19600.039
 20
9232.9363
 30
0.0
 40
200.0
  1
＊
  7
EXTFONT
100
AcDbText
  0
TEXT
  5
6690
330
6288
100
AcDbEntity
  8
0
100
AcDbText
 10
19600.039
 20
9482.9363
 30
0.0
 40
200.0
  1
＊
  7
EXTFONT
100
AcDbText
  0
TEXT
  5
6691
330
6288
100
AcDbEntity
  8
0
100
AcDbText
 10
14950.039
 20
10232.9363
 30
0.0
 40
200.0
  1
＊
  7
EXTFONT
100
AcDbText
  0
TEXT
  5
6692
330
6288
100
AcDbEntity
  8
0
100
AcDbText
 10
14950.039
 20
9982.9363
 30
0.0
 40
200.0
  1
＊
  7
EXTFONT
100
AcDbText
  0
TEXT
  5
6693
330
6288
100
AcDbEntity
  8
0
100
AcDbText
 10
19600.039
 20
10232.9363
 30
0.0
 40
200.0
  1
＊
  7
EXTFONT
100
AcDbText
  0
TEXT
  5
6694
330
6288
100
AcDbEntity
  8
0
100
AcDbText
 10
19600.039
 20
9982.9363
 30
0.0
 40
200.0
  1
＊
  7
EXTFONT
100
AcDbText
  0
TEXT
  5
6695
330
6288
100
AcDbEntity
  8
0
100
AcDbText
 10
24250.039
 20
9732.9363
 30
0.0
 40
200.0
  1
＊
  7
EXTFONT
100
AcDbText
  0
TEXT
  5
6696
330
6288
100
AcDbEntity
  8
0
100
AcDbText
 10
24250.039
 20
8982.9363
 30
0.0
 40
200.0
  1
＊
  7
EXTFONT
100
AcDbText
  0
TEXT
  5
6697
330
6288
100
AcDbEntity
  8
0
100
AcDbText
 10
24250.039
 20
8232.9363
 30
0.0
 40
200.0
  1
＊
  7
EXTFONT
100
AcDbText
  0
TEXT
  5
6698
330
6288
100
AcDbEntity
  8
0
100
AcDbText
 10
24250.039
 20
8482.9363
 30
0.0
 40
200.0
  1
＊
  7
EXTFONT
100
AcDbText
  0
TEXT
  5
6699
330
6288
100
AcDbEntity
  8
0
100
AcDbText
 10
24250.039
 20
8732.9363
 30
0.0
 40
200.0
  1
＊
  7
EXTFONT
100
AcDbText
  0
TEXT
  5
669A
330
6288
100
AcDbEntity
  8
0
100
AcDbText
 10
24250.039
 20
9232.9363
 30
0.0
 40
200.0
  1
＊
  7
EXTFONT
100
AcDbText
  0
TEXT
  5
669B
330
6288
100
AcDbEntity
  8
0
100
AcDbText
 10
24250.039
 20
9482.9363
 30
0.0
 40
200.0
  1
＊
  7
EXTFONT
100
AcDbText
  0
TEXT
  5
669C
330
6288
100
AcDbEntity
  8
0
100
AcDbText
 10
24250.039
 20
10232.9363
 30
0.0
 40
200.0
  1
＊
  7
EXTFONT
100
AcDbText
  0
TEXT
  5
669D
330
6288
100
AcDbEntity
  8
0
100
AcDbText
 10
24250.039
 20
9982.9363
 30
0.0
 40
200.0
  1
＊
  7
EXTFONT
100
AcDbText
  0
TEXT
  5
669E
330
6288
100
AcDbEntity
  8
0
100
AcDbText
 10
19600.039
 20
14687.9363
 30
0.0
 40
200.0
  1
＊
  7
EXTFONT
100
AcDbText
  0
TEXT
  5
669F
330
6288
100
AcDbEntity
  8
0
100
AcDbText
 10
19600.039
 20
14187.9363
 30
0.0
 40
200.0
  1
＊
  7
EXTFONT
100
AcDbText
  0
TEXT
  5
66A0
330
6288
100
AcDbEntity
  8
0
100
AcDbText
 10
19600.039
 20
14437.9363
 30
0.0
 40
200.0
  1
＊
  7
EXTFONT
100
AcDbText
  0
TEXT
  5
66A1
330
6288
100
AcDbEntity
  8
0
100
AcDbText
 10
19600.039
 20
14937.9363
 30
0.0
 40
200.0
  1
＊
  7
EXTFONT
100
AcDbText
  0
TEXT
  5
66A2
330
6288
100
AcDbEntity
  8
0
100
AcDbText
 10
19600.039
 20
15437.9363
 30
0.0
 40
200.0
  1
＊
  7
EXTFONT
100
AcDbText
  0
TEXT
  5
66A3
330
6288
100
AcDbEntity
  8
0
100
AcDbText
 10
19600.039
 20
15187.9363
 30
0.0
 40
200.0
  1
＊
  7
EXTFONT
100
AcDbText
  0
TEXT
  5
66A4
330
6288
100
AcDbEntity
  8
0
100
AcDbText
 10
19600.039
 20
15937.9363
 30
0.0
 40
200.0
  1
＊
  7
EXTFONT
100
AcDbText
  0
TEXT
  5
66A5
330
6288
100
AcDbEntity
  8
0
100
AcDbText
 10
19600.039
 20
15687.9363
 30
0.0
 40
200.0
  1
＊
  7
EXTFONT
100
AcDbText
  0
TEXT
  5
66A6
330
6288
100
AcDbEntity
  8
0
100
AcDbText
 10
19600.039
 20
16187.9363
 30
0.0
 40
200.0
  1
＊
  7
EXTFONT
100
AcDbText
  0
TEXT
  5
66A7
330
6288
100
AcDbEntity
  8
0
100
AcDbText
 10
24250.039
 20
14687.9363
 30
0.0
 40
200.0
  1
＊
  7
EXTFONT
100
AcDbText
  0
TEXT
  5
66A8
330
6288
100
AcDbEntity
  8
0
100
AcDbText
 10
24250.039
 20
14187.9363
 30
0.0
 40
200.0
  1
＊
  7
EXTFONT
100
AcDbText
  0
TEXT
  5
66A9
330
6288
100
AcDbEntity
  8
0
100
AcDbText
 10
24250.039
 20
14437.9363
 30
0.0
 40
200.0
  1
＊
  7
EXTFONT
100
AcDbText
  0
TEXT
  5
66AA
330
6288
100
AcDbEntity
  8
0
100
AcDbText
 10
24250.039
 20
14937.9363
 30
0.0
 40
200.0
  1
＊
  7
EXTFONT
100
AcDbText
  0
TEXT
  5
66AB
330
6288
100
AcDbEntity
  8
0
100
AcDbText
 10
24250.039
 20
15437.9363
 30
0.0
 40
200.0
  1
＊
  7
EXTFONT
100
AcDbText
  0
TEXT
  5
66AC
330
6288
100
AcDbEntity
  8
0
100
AcDbText
 10
24250.039
 20
15187.9363
 30
0.0
 40
200.0
  1
＊
  7
EXTFONT
100
AcDbText
  0
TEXT
  5
66AD
330
6288
100
AcDbEntity
  8
0
100
AcDbText
 10
24250.039
 20
15937.9363
 30
0.0
 40
200.0
  1
＊
  7
EXTFONT
100
AcDbText
  0
TEXT
  5
66AE
330
6288
100
AcDbEntity
  8
0
100
AcDbText
 10
24250.039
 20
15687.9363
 30
0.0
 40
200.0
  1
＊
  7
EXTFONT
100
AcDbText
  0
TEXT
  5
66AF
330
6288
100
AcDbEntity
  8
0
100
AcDbText
 10
24250.039
 20
16187.9363
 30
0.0
 40
200.0
  1
＊
  7
EXTFONT
100
AcDbText
  0
TEXT
  5
66B0
330
6288
100
AcDbEntity
  8
0
100
AcDbText
 10
14950.039
 20
14437.9363
 30
0.0
 40
200.0
  1
＊
  7
EXTFONT
100
AcDbText
  0
TEXT
  5
66B1
330
6288
100
AcDbEntity
  8
0
100
AcDbText
 10
14950.039
 20
14187.9363
 30
0.0
 40
200.0
  1
＊
  7
EXTFONT
100
AcDbText
  0
TEXT
  5
66B2
330
6288
100
AcDbEntity
  8
0
100
AcDbText
 10
14950.039
 20
14937.9363
 30
0.0
 40
200.0
  1
＊
  7
EXTFONT
100
AcDbText
  0
TEXT
  5
66B3
330
6288
100
AcDbEntity
  8
0
100
AcDbText
 10
14950.039
 20
14687.9363
 30
0.0
 40
200.0
  1
＊
  7
EXTFONT
100
AcDbText
  0
TEXT
  5
66B4
330
6288
100
AcDbEntity
  8
0
100
AcDbText
 10
14950.039
 20
15187.9363
 30
0.0
 40
200.0
  1
＊
  7
EXTFONT
100
AcDbText
  0
TEXT
  5
66B5
330
6288
100
AcDbEntity
  8
0
100
AcDbText
 10
14950.039
 20
16187.9363
 30
0.0
 40
200.0
  1
＊
  7
EXTFONT
100
AcDbText
  0
TEXT
  5
66B6
330
6288
100
AcDbEntity
  8
0
100
AcDbText
 10
14950.039
 20
15687.9363
 30
0.0
 40
200.0
  1
＊
  7
EXTFONT
100
AcDbText
  0
TEXT
  5
66B7
330
6288
100
AcDbEntity
  8
0
100
AcDbText
 10
14950.039
 20
15437.9363
 30
0.0
 40
200.0
  1
＊
  7
EXTFONT
100
AcDbText
  0
TEXT
  5
66B8
330
6288
100
AcDbEntity
  8
0
100
AcDbText
 10
14950.039
 20
15937.9363
 30
0.0
 40
200.0
  1
＊
  7
EXTFONT
100
AcDbText
  0
LINE
  5
66CE
330
6288
100
AcDbEntity
  8
YKK_N1
  6
Continuous
100
AcDbLine
 10
13263.42612714
 20
12829.93598643
 30
0.0
 11
13263.42612714
 21
10929.93592539
 31
0.0
  0
LINE
  5
66CF
330
6288
100
AcDbEntity
  8
YKK_N1
  6
Continuous
100
AcDbLine
 10
8463.42606992
 20
12827.92682901
 30
0.0
 11
8463.42606992
 21
10927.92676798
 31
0.0
  0
LINE
  5
66D0
330
6288
100
AcDbEntity
  8
YKK_A1
100
AcDbLine
 10
8298.42600789
 20
10892.93636503
 30
0.0
 11
8298.42600789
 21
12862.92676247
 31
0.0
  0
LINE
  5
66D1
330
6288
100
AcDbEntity
  8
YKK_A1
100
AcDbLine
 10
7653.42915188
 20
12862.92676247
 30
0.0
 11
7653.42915188
 21
10892.93636503
 31
0.0
  0
LINE
  5
66D2
330
6288
100
AcDbEntity
  8
YKK_A1
100
AcDbLine
 10
7657.42913238
 20
10922.9362188
 30
0.0
 11
7657.42913238
 21
12787.92712805
 31
0.0
  0
LINE
  5
66D3
330
6288
100
AcDbEntity
  8
YKK_A1
100
AcDbLine
 10
7628.42927374
 20
10892.93636503
 30
0.0
 11
7628.42927374
 21
12862.92676247
 31
0.0
  0
LINE
  5
66D4
330
6288
100
AcDbEntity
  8
YKK_A1
  6
NITENSAP
100
AcDbLine
 10
8269.42614925
 20
11855.53167294
 30
0.0
 11
7657.42913238
 21
10922.9362188
 31
0.0
  0
LINE
  5
66D5
330
6288
100
AcDbEntity
  8
YKK_A1
100
AcDbLine
 10
8269.42614925
 20
11815.53186791
 30
0.0
 11
8269.42614925
 21
11100.93535116
 31
0.0
  0
LINE
  5
66D6
330
6288
100
AcDbEntity
  8
YKK_A1
100
AcDbLine
 10
8273.42612975
 20
11815.53186791
 30
0.0
 11
8273.42612975
 21
11100.93535116
 31
0.0
  0
LINE
  5
66D7
330
6288
100
AcDbEntity
  8
YKK_A1
100
AcDbLine
 10
12600.82609576
 20
12839.9362193
 30
0.0
 11
12600.82609576
 21
10919.93633374
 31
0.0
  0
LINE
  5
66D8
330
6288
100
AcDbEntity
  8
YKK_A1
100
AcDbLine
 10
12625.82609427
 20
10919.93633374
 30
0.0
 11
12625.82609427
 21
12839.9362193
 31
0.0
  0
LINE
  5
66D9
330
6288
100
AcDbEntity
  8
YKK_A1
100
AcDbLine
 10
12128.42612392
 20
10894.93633523
 30
0.0
 11
12128.42612392
 21
12864.93621781
 31
0.0
  0
LINE
  5
66DA
330
6288
100
AcDbEntity
  8
YKK_A1
100
AcDbLine
 10
12596.826096
 20
10924.93633344
 30
0.0
 11
12596.826096
 21
12789.93622228
 31
0.0
  0
LINE
  5
66DB
330
6288
100
AcDbEntity
  8
YKK_A1
100
AcDbLine
 10
12629.82609403
 20
10924.93633344
 30
0.0
 11
12629.82609403
 21
12789.93622228
 31
0.0
  0
LINE
  5
66DC
330
6288
100
AcDbEntity
  8
YKK_A1
100
AcDbLine
 10
13098.4260661
 20
12864.93621781
 30
0.0
 11
13098.4260661
 21
10894.93633523
 31
0.0
  0
LINE
  5
66DD
330
6288
100
AcDbEntity
  8
YKK_A1
  6
NITENSAP
100
AcDbLine
 10
13069.42606783
 20
11857.53627785
 30
0.0
 11
12629.82609403
 21
10924.93633344
 31
0.0
  0
LINE
  5
66DE
330
6288
100
AcDbEntity
  8
YKK_A1
  6
NITENSAP
100
AcDbLine
 10
12157.42612219
 20
11857.53627785
 30
0.0
 11
12596.826096
 21
10924.93633344
 31
0.0
  0
LINE
  5
66DF
330
6288
100
AcDbEntity
  8
YKK_A1
100
AcDbLine
 10
12153.42612243
 20
11817.53628023
 30
0.0
 11
12153.42612243
 21
11102.93632283
 31
0.0
  0
LINE
  5
66E0
330
6288
100
AcDbEntity
  8
YKK_A1
100
AcDbLine
 10
12157.42612219
 20
11817.53628023
 30
0.0
 11
12157.42612219
 21
11102.93632283
 31
0.0
  0
LINE
  5
66E1
330
6288
100
AcDbEntity
  8
YKK_A1
100
AcDbLine
 10
13069.42606783
 20
11817.53628023
 30
0.0
 11
13069.42606783
 21
11102.93632283
 31
0.0
  0
LINE
  5
66E2
330
6288
100
AcDbEntity
  8
YKK_A1
100
AcDbLine
 10
13073.42606759
 20
11817.53628023
 30
0.0
 11
13073.42606759
 21
11102.93632283
 31
0.0
  0
TEXT
  5
670E
330
6288
100
AcDbEntity
  8
YKK_N1
  6
Continuous
100
AcDbText
 10
7823.4259736
 20
10739.93636576
 30
0.0
 40
60.0
  1
W=600
 72
     4
 11
7963.4259736
 21
10769.93636576
 31
0.0
100
AcDbText
  0
LINE
  5
670F
330
6288
100
AcDbEntity
  8
YKK_N1
  6
Continuous
100
AcDbLine
 10
7663.42598123
 20
10852.93636576
 30
0.0
 11
7663.42598123
 21
10727.93636576
 31
0.0
  0
LINE
  5
6710
330
6288
100
AcDbEntity
  8
YKK_N1
  6
Continuous
100
AcDbLine
 10
8263.42596597
 20
10852.93636576
 30
0.0
 11
8263.42596597
 21
10727.93636576
 31
0.0
  0
LINE
  5
6711
330
6288
100
AcDbEntity
  8
YKK_N1
  6
Continuous
100
AcDbLine
 10
7663.42598123
 20
10727.93636576
 30
0.0
 11
8263.42596597
 21
10727.93636576
 31
0.0
  0
LINE
  5
6712
330
6288
100
AcDbEntity
  8
YKK_N1
100
AcDbLine
 10
7750.02853555
 20
10777.93636576
 30
0.0
 11
7750.02853555
 21
10677.93635695
 31
0.0
  0
LINE
  5
6713
330
6288
100
AcDbEntity
  8
YKK_N1
  6
Continuous
100
AcDbLine
 10
7663.42598123
 20
10727.93636576
 30
0.0
 11
7750.02853555
 21
10777.93636576
 31
0.0
  0
LINE
  5
6714
330
6288
100
AcDbEntity
  8
YKK_N1
  6
Continuous
100
AcDbLine
 10
7750.02853555
 20
10677.93635695
 30
0.0
 11
7663.42598123
 21
10727.93636576
 31
0.0
  0
LINE
  5
6715
330
6288
100
AcDbEntity
  8
YKK_N1
100
AcDbLine
 10
8176.82341165
 20
10777.93636576
 30
0.0
 11
8176.82341165
 21
10677.93635695
 31
0.0
  0
LINE
  5
6716
330
6288
100
AcDbEntity
  8
YKK_N1
  6
Continuous
100
AcDbLine
 10
8176.82341165
 20
10677.93635695
 30
0.0
 11
8263.42596597
 21
10727.93636576
 31
0.0
  0
LINE
  5
6717
330
6288
100
AcDbEntity
  8
YKK_N1
  6
Continuous
100
AcDbLine
 10
8263.42596597
 20
10727.93636576
 30
0.0
 11
8176.82341165
 21
10777.93636576
 31
0.0
  0
LINE
  5
6718
330
6288
100
AcDbEntity
  8
YKK_A1
100
AcDbLine
 10
8269.42614925
 20
10922.9362188
 30
0.0
 11
7657.42913238
 21
10922.9362188
 31
0.0
  0
LINE
  5
6719
330
6288
100
AcDbEntity
  8
YKK_A1
100
AcDbLine
 10
8273.42612975
 20
10917.93624317
 30
0.0
 11
7653.42915188
 21
10917.93624317
 31
0.0
  0
LINE
  5
671A
330
6288
100
AcDbEntity
  8
YKK_A1
100
AcDbLine
 10
7628.42927374
 20
10892.93636503
 30
0.0
 11
8298.42600789
 21
10892.93636503
 31
0.0
  0
LINE
  5
671B
330
6288
100
AcDbEntity
  8
YKK_A1
100
AcDbLine
 10
8244.42627111
 20
11016.93576061
 30
0.0
 11
7682.42901052
 21
11016.93576061
 31
0.0
  0
LINE
  5
671C
330
6288
100
AcDbEntity
  8
YKK_A1
100
AcDbLine
 10
7682.42901052
 20
10947.93609694
 30
0.0
 11
8244.42627111
 21
10947.93609694
 31
0.0
  0
LINE
  5
671D
330
6288
100
AcDbEntity
  8
YKK_A1
100
AcDbLine
 10
7682.42901052
 20
11016.93576061
 30
0.0
 11
7682.42901052
 21
10947.93609694
 31
0.0
  0
LINE
  5
671E
330
6288
100
AcDbEntity
  8
YKK_A1
100
AcDbLine
 10
7663.42927165
 20
10892.93636502
 30
0.0
 11
7663.42927165
 21
10903.07294929
 31
0.0
  0
LINE
  5
671F
330
6288
100
AcDbEntity
  8
YKK_N1
  6
Continuous
100
AcDbLine
 10
8338.42600889
 20
10927.92676798
 30
0.0
 11
8463.42606992
 21
10927.92676798
 31
0.0
  0
LINE
  5
6720
330
6288
100
AcDbEntity
  8
YKK_A1
100
AcDbLine
 10
8265.8261668
 20
11020.93574111
 30
0.0
 11
8265.8261668
 21
11100.93535116
 31
0.0
  0
LINE
  5
6721
330
6288
100
AcDbEntity
  8
YKK_A1
100
AcDbLine
 10
8276.82611318
 20
11100.93535116
 30
0.0
 11
8276.82611318
 21
11020.93574111
 31
0.0
  0
LINE
  5
6722
330
6288
100
AcDbEntity
  8
YKK_A1
100
AcDbLine
 10
8244.42627111
 20
10947.93609694
 30
0.0
 11
8244.42627111
 21
11016.93576061
 31
0.0
  0
LINE
  5
6723
330
6288
100
AcDbEntity
  8
YKK_A1
100
AcDbLine
 10
8269.42614925
 20
11020.93574111
 30
0.0
 11
8269.42614925
 21
10922.9362188
 31
0.0
  0
LINE
  5
6724
330
6288
100
AcDbEntity
  8
YKK_A1
100
AcDbLine
 10
8298.42600789
 20
10927.93636295
 30
0.0
 11
8288.37001472
 21
10927.93636295
 31
0.0
  0
LINE
  5
6725
330
6288
100
AcDbEntity
  8
YKK_A1
100
AcDbLine
 10
8276.82611318
 20
11020.93574111
 30
0.0
 11
8265.8261668
 21
11020.93574111
 31
0.0
  0
LINE
  5
6726
330
6288
100
AcDbEntity
  8
YKK_A1
100
AcDbLine
 10
8276.82611318
 20
11060.93554613
 30
0.0
 11
8265.8261668
 21
11060.93554613
 31
0.0
  0
LINE
  5
6727
330
6288
100
AcDbEntity
  8
YKK_A1
100
AcDbLine
 10
8265.8261668
 20
11100.93535116
 30
0.0
 11
8276.82611318
 21
11100.93535116
 31
0.0
  0
LINE
  5
6728
330
6288
100
AcDbEntity
  8
YKK_A1
100
AcDbLine
 10
8263.42600998
 20
10892.93636502
 30
0.0
 11
8263.42600998
 21
10902.09204239
 31
0.0
  0
LINE
  5
6729
330
6288
100
AcDbEntity
  8
YKK_A1
100
AcDbLine
 10
8273.42612975
 20
11020.93574111
 30
0.0
 11
8273.42612975
 21
10892.93636503
 31
0.0
  0
LINE
  5
672A
330
6288
100
AcDbEntity
  8
YKK_N1
  6
Continuous
100
AcDbLine
 10
8463.42606992
 20
10927.92676798
 30
0.0
 11
8413.42606992
 21
11014.5293223
 31
0.0
  0
LINE
  5
672B
330
6288
100
AcDbEntity
  8
YKK_N1
100
AcDbLine
 10
8413.42606992
 20
11014.5293223
 30
0.0
 11
8513.42607873
 21
11014.5293223
 31
0.0
  0
LINE
  5
672C
330
6288
100
AcDbEntity
  8
YKK_N1
  6
Continuous
100
AcDbLine
 10
8513.42607873
 20
11014.5293223
 30
0.0
 11
8463.42606992
 21
10927.92676798
 31
0.0
  0
LINE
  5
6775
330
6288
100
AcDbEntity
  8
YKK_N1
100
AcDbLine
 10
13213.42612714
 20
11016.53847971
 30
0.0
 11
13313.42613595
 21
11016.53847971
 31
0.0
  0
LINE
  5
6776
330
6288
100
AcDbEntity
  8
YKK_N1
  6
Continuous
100
AcDbLine
 10
13138.42606611
 20
10929.93592539
 30
0.0
 11
13263.42612714
 21
10929.93592539
 31
0.0
  0
LINE
  5
6777
330
6288
100
AcDbEntity
  8
YKK_N1
  6
Continuous
100
AcDbLine
 10
13263.42612714
 20
10929.93592539
 30
0.0
 11
13213.42612714
 21
11016.53847971
 31
0.0
  0
LINE
  5
6778
330
6288
100
AcDbEntity
  8
YKK_N1
  6
Continuous
100
AcDbLine
 10
13063.42596597
 20
10854.93633452
 30
0.0
 11
13063.42596597
 21
10729.93633452
 31
0.0
  0
TEXT
  5
6779
330
6288
100
AcDbEntity
  8
YKK_N1
  6
Continuous
100
AcDbText
 10
12473.4259736
 20
10741.93633452
 30
0.0
 40
60.0
  1
W=900
 72
     4
 11
12613.4259736
 21
10771.93633452
 31
0.0
100
AcDbText
  0
LINE
  5
677A
330
6288
100
AcDbEntity
  8
YKK_N1
  6
Continuous
100
AcDbLine
 10
12163.42598123
 20
10854.93633452
 30
0.0
 11
12163.42598123
 21
10729.93633452
 31
0.0
  0
LINE
  5
677B
330
6288
100
AcDbEntity
  8
YKK_N1
  6
Continuous
100
AcDbLine
 10
12163.42598123
 20
10729.93633452
 30
0.0
 11
13063.42596597
 21
10729.93633452
 31
0.0
  0
LINE
  5
677C
330
6288
100
AcDbEntity
  8
YKK_N1
  6
Continuous
100
AcDbLine
 10
12250.02853555
 20
10679.93632571
 30
0.0
 11
12163.42598123
 21
10729.93633452
 31
0.0
  0
LINE
  5
677D
330
6288
100
AcDbEntity
  8
YKK_N1
100
AcDbLine
 10
12250.02853555
 20
10779.93633452
 30
0.0
 11
12250.02853555
 21
10679.93632571
 31
0.0
  0
LINE
  5
677E
330
6288
100
AcDbEntity
  8
YKK_N1
  6
Continuous
100
AcDbLine
 10
12163.42598123
 20
10729.93633452
 30
0.0
 11
12250.02853555
 21
10779.93633452
 31
0.0
  0
LINE
  5
677F
330
6288
100
AcDbEntity
  8
YKK_N1
  6
Continuous
100
AcDbLine
 10
12976.82341165
 20
10679.93632571
 30
0.0
 11
13063.42596597
 21
10729.93633452
 31
0.0
  0
LINE
  5
6780
330
6288
100
AcDbEntity
  8
YKK_N1
  6
Continuous
100
AcDbLine
 10
13063.42596597
 20
10729.93633452
 30
0.0
 11
12976.82341165
 21
10779.93633452
 31
0.0
  0
LINE
  5
6781
330
6288
100
AcDbEntity
  8
YKK_N1
100
AcDbLine
 10
12976.82341165
 20
10779.93633452
 30
0.0
 11
12976.82341165
 21
10679.93632571
 31
0.0
  0
LINE
  5
6782
330
6288
100
AcDbEntity
  8
YKK_A1
100
AcDbLine
 10
12654.82609254
 20
10949.93633195
 30
0.0
 11
13044.42606932
 21
10949.93633195
 31
0.0
  0
LINE
  5
6783
330
6288
100
AcDbEntity
  8
YKK_A1
100
AcDbLine
 10
13044.42606932
 20
11018.93632784
 30
0.0
 11
12654.82609254
 21
11018.93632784
 31
0.0
  0
LINE
  5
6784
330
6288
100
AcDbEntity
  8
YKK_A1
100
AcDbLine
 10
13073.42606759
 20
10919.93633374
 30
0.0
 11
12153.42612243
 21
10919.93633374
 31
0.0
  0
LINE
  5
6785
330
6288
100
AcDbEntity
  8
YKK_A1
100
AcDbLine
 10
12128.42612392
 20
10894.93633523
 30
0.0
 11
13098.4260661
 21
10894.93633523
 31
0.0
  0
LINE
  5
6786
330
6288
100
AcDbEntity
  8
YKK_A1
100
AcDbLine
 10
13069.42606783
 20
10924.93633344
 30
0.0
 11
12629.82609403
 21
10924.93633344
 31
0.0
  0
LINE
  5
6787
330
6288
100
AcDbEntity
  8
YKK_A1
100
AcDbLine
 10
12157.42612219
 20
10924.93633344
 30
0.0
 11
12596.826096
 21
10924.93633344
 31
0.0
  0
LINE
  5
6788
330
6288
100
AcDbEntity
  8
YKK_A1
100
AcDbLine
 10
12571.82609749
 20
10949.93633195
 30
0.0
 11
12182.4261207
 21
10949.93633195
 31
0.0
  0
LINE
  5
6789
330
6288
100
AcDbEntity
  8
YKK_A1
100
AcDbLine
 10
12182.4261207
 20
11018.93632784
 30
0.0
 11
12571.82609749
 21
11018.93632784
 31
0.0
  0
LINE
  5
678A
330
6288
100
AcDbEntity
  8
YKK_A1
100
AcDbLine
 10
12160.82612199
 20
11022.9363276
 30
0.0
 11
12160.82612199
 21
11102.93632283
 31
0.0
  0
LINE
  5
678B
330
6288
100
AcDbEntity
  8
YKK_A1
100
AcDbLine
 10
12149.82612264
 20
11102.93632283
 30
0.0
 11
12149.82612264
 21
11022.9363276
 31
0.0
  0
LINE
  5
678C
330
6288
100
AcDbEntity
  8
YKK_A1
100
AcDbLine
 10
12157.42612219
 20
11022.9363276
 30
0.0
 11
12157.42612219
 21
10924.93633344
 31
0.0
  0
LINE
  5
678D
330
6288
100
AcDbEntity
  8
YKK_A1
100
AcDbLine
 10
12182.4261207
 20
10949.93633195
 30
0.0
 11
12182.4261207
 21
11018.93632784
 31
0.0
  0
LINE
  5
678E
330
6288
100
AcDbEntity
  8
YKK_A1
100
AcDbLine
 10
12149.82612264
 20
11022.9363276
 30
0.0
 11
12160.82612199
 21
11022.9363276
 31
0.0
  0
LINE
  5
678F
330
6288
100
AcDbEntity
  8
YKK_A1
100
AcDbLine
 10
12149.82612264
 20
11062.93632521
 30
0.0
 11
12160.82612199
 21
11062.93632521
 31
0.0
  0
LINE
  5
6790
330
6288
100
AcDbEntity
  8
YKK_A1
100
AcDbLine
 10
12160.82612199
 20
11102.93632283
 30
0.0
 11
12149.82612264
 21
11102.93632283
 31
0.0
  0
LINE
  5
6791
330
6288
100
AcDbEntity
  8
YKK_A1
100
AcDbLine
 10
12163.42612183
 20
10894.93633523
 30
0.0
 11
12163.42612183
 21
10904.70804756
 31
0.0
  0
LINE
  5
6792
330
6288
100
AcDbEntity
  8
YKK_A1
100
AcDbLine
 10
12153.42612243
 20
11022.9363276
 30
0.0
 11
12153.42612243
 21
10894.93633523
 31
0.0
  0
LINE
  5
6793
330
6288
100
AcDbEntity
  8
YKK_A1
100
AcDbLine
 10
12654.82609254
 20
11018.93632784
 30
0.0
 11
12654.82609254
 21
10949.93633195
 31
0.0
  0
LINE
  5
6794
330
6288
100
AcDbEntity
  8
YKK_A1
100
AcDbLine
 10
12571.82609749
 20
11018.93632784
 30
0.0
 11
12571.82609749
 21
10949.93633195
 31
0.0
  0
LINE
  5
6795
330
6288
100
AcDbEntity
  8
YKK_A1
100
AcDbLine
 10
13076.82606739
 20
11102.93632283
 30
0.0
 11
13076.82606739
 21
11022.9363276
 31
0.0
  0
LINE
  5
6796
330
6288
100
AcDbEntity
  8
YKK_A1
100
AcDbLine
 10
13065.82606805
 20
11022.9363276
 30
0.0
 11
13065.82606805
 21
11102.93632283
 31
0.0
  0
LINE
  5
6797
330
6288
100
AcDbEntity
  8
YKK_A1
100
AcDbLine
 10
13076.82606739
 20
11022.9363276
 30
0.0
 11
13065.82606805
 21
11022.9363276
 31
0.0
  0
LINE
  5
6798
330
6288
100
AcDbEntity
  8
YKK_A1
100
AcDbLine
 10
13044.42606932
 20
10949.93633195
 30
0.0
 11
13044.42606932
 21
11018.93632784
 31
0.0
  0
LINE
  5
6799
330
6288
100
AcDbEntity
  8
YKK_A1
100
AcDbLine
 10
13069.42606783
 20
11022.9363276
 30
0.0
 11
13069.42606783
 21
10924.93633344
 31
0.0
  0
LINE
  5
679A
330
6288
100
AcDbEntity
  8
YKK_A1
100
AcDbLine
 10
13098.4260661
 20
10929.93633314
 30
0.0
 11
13084.48550875
 21
10929.93633314
 31
0.0
  0
LINE
  5
679B
330
6288
100
AcDbEntity
  8
YKK_A1
100
AcDbLine
 10
13076.82606739
 20
11062.93632521
 30
0.0
 11
13065.82606805
 21
11062.93632521
 31
0.0
  0
LINE
  5
679C
330
6288
100
AcDbEntity
  8
YKK_A1
100
AcDbLine
 10
13065.82606805
 20
11102.93632283
 30
0.0
 11
13076.82606739
 21
11102.93632283
 31
0.0
  0
LINE
  5
679D
330
6288
100
AcDbEntity
  8
YKK_A1
100
AcDbLine
 10
13063.42606819
 20
10894.93633523
 30
0.0
 11
13063.42606819
 21
10908.34018378
 31
0.0
  0
LINE
  5
679E
330
6288
100
AcDbEntity
  8
YKK_A1
100
AcDbLine
 10
13073.42606759
 20
10894.93633523
 30
0.0
 11
13073.42606759
 21
11022.9363276
 31
0.0
  0
LINE
  5
67A2
330
6288
100
AcDbEntity
  8
YKK_N1
  6
Continuous
100
AcDbLine
 10
13313.42613595
 20
11016.53847971
 30
0.0
 11
13263.42612714
 21
10929.93592539
 31
0.0
  0
LINE
  5
67B4
330
6288
100
AcDbEntity
  8
YKK_N1
  6
Continuous
100
AcDbLine
 10
8463.42586965
 20
18817.93694087
 30
0.0
 11
8463.42586965
 21
16917.93687983
 31
0.0
  0
LINE
  5
67B5
330
6288
100
AcDbEntity
  8
YKK_A1
  6
NITENSAP
100
AcDbLine
 10
8269.42581259
 20
17469.93643899
 30
0.0
 11
7657.42584907
 21
16912.93647219
 31
0.0
  0
LINE
  5
67B6
330
6288
100
AcDbEntity
  8
YKK_A1
100
AcDbLine
 10
8273.42581235
 20
17848.9364164
 30
0.0
 11
8273.42581235
 21
17090.93646158
 31
0.0
  0
LINE
  5
67B7
330
6288
100
AcDbEntity
  8
YKK_A1
100
AcDbLine
 10
8269.42581259
 20
17848.9364164
 30
0.0
 11
8269.42581259
 21
17090.93646158
 31
0.0
  0
LINE
  5
67B8
330
6288
100
AcDbEntity
  8
YKK_A1
100
AcDbLine
 10
7657.42584907
 20
16912.93647219
 30
0.0
 11
7657.42584907
 21
18026.93640579
 31
0.0
  0
LINE
  5
67B9
330
6288
100
AcDbEntity
  8
YKK_A1
100
AcDbLine
 10
8298.42581086
 20
18852.93635656
 30
0.0
 11
8298.42581086
 21
16882.93647398
 31
0.0
  0
LINE
  5
67BA
330
6288
100
AcDbEntity
  8
YKK_A1
100
AcDbLine
 10
7628.42585079
 20
16882.93647398
 30
0.0
 11
7628.42585079
 21
18852.93635656
 31
0.0
  0
LINE
  5
67BB
330
6288
100
AcDbEntity
  8
YKK_A1
100
AcDbLine
 10
7653.4258493
 20
18852.93635656
 30
0.0
 11
7653.4258493
 21
16882.93647398
 31
0.0
  0
LINE
  5
67C4
330
6288
100
AcDbEntity
  8
YKK_A1
100
AcDbLine
 10
8269.42614925
 20
12609.92799569
 30
0.0
 11
8269.42614925
 21
11895.53147796
 31
0.0
  0
LINE
  5
67C5
330
6288
100
AcDbEntity
  8
YKK_A1
100
AcDbLine
 10
8273.42612975
 20
12609.92799569
 30
0.0
 11
8273.42612975
 21
11895.53147796
 31
0.0
  0
LINE
  5
67C6
330
6288
100
AcDbEntity
  8
YKK_A1
  6
NITENSAP
100
AcDbLine
 10
7657.42913238
 20
12787.92712805
 30
0.0
 11
8269.42614925
 21
11855.53167294
 31
0.0
  0
LINE
  5
67C7
330
6288
100
AcDbEntity
  8
YKK_A1
100
AcDbLine
 10
7716.42884479
 20
11842.73173533
 30
0.0
 11
7716.02884674
 21
11848.33170803
 31
0.0
  0
ARC
  5
67C8
330
6288
100
AcDbEntity
  8
YKK_A1
100
AcDbCircle
 10
7710.42887404
 20
11848.33170803
 30
0.0
 40
1.499992735785784
100
AcDbArc
 50
94.74198914
 51
175.55499267
  0
ARC
  5
67C9
330
6288
100
AcDbEntity
  8
YKK_A1
100
AcDbCircle
 10
7714.42885454
 20
11848.33170803
 30
0.0
 40
1.499992735785784
100
AcDbArc
 50
4.44499207
 51
85.25799561
  0
LINE
  5
67CA
330
6288
100
AcDbEntity
  8
YKK_A1
100
AcDbLine
 10
7714.62885356
 20
11849.73170121
 30
0.0
 11
7710.22887501
 21
11849.73170121
 31
0.0
  0
LINE
  5
67CB
330
6288
100
AcDbEntity
  8
YKK_A1
100
AcDbLine
 10
7708.82888184
 20
11848.33170803
 30
0.0
 11
7708.42888379
 21
11842.73173533
 31
0.0
  0
LINE
  5
67CC
330
6288
100
AcDbEntity
  8
YKK_A1
100
AcDbLine
 10
7695.42894715
 20
11826.73181332
 30
0.0
 11
7693.4289569
 21
11826.73181332
 31
0.0
  0
LINE
  5
67CD
330
6288
100
AcDbEntity
  8
YKK_A1
100
AcDbLine
 10
7695.42894715
 20
11827.93180747
 30
0.0
 11
7695.42894715
 21
11818.13185524
 31
0.0
  0
LINE
  5
67CE
330
6288
100
AcDbEntity
  8
YKK_A1
100
AcDbLine
 10
7707.62888769
 20
11823.13183087
 30
0.0
 11
7707.62888769
 21
11822.73183282
 31
0.0
  0
LINE
  5
67CF
330
6288
100
AcDbEntity
  8
YKK_A1
100
AcDbLine
 10
7693.4289569
 20
11827.93180747
 30
0.0
 11
7693.4289569
 21
11818.13185524
 31
0.0
  0
LINE
  5
67D0
330
6288
100
AcDbEntity
  8
YKK_A1
100
AcDbLine
 10
7695.42894715
 20
11819.13185036
 30
0.0
 11
7693.4289569
 21
11819.13185036
 31
0.0
  0
LINE
  5
67D1
330
6288
100
AcDbEntity
  8
YKK_A1
  6
ITTENSAP
100
AcDbLine
 10
7694.42895203
 20
11832.9317831
 30
0.0
 11
7694.42895203
 21
11812.93188059
 31
0.0
  0
ARC
  5
67D2
330
6288
100
AcDbEntity
  8
YKK_A1
100
AcDbCircle
 10
7957.62766909
 20
11822.73183282
 30
0.0
 40
249.9987915774328
100
AcDbArc
 50
180.0
 51
184.46598816
  0
ARC
  5
67D3
330
6288
100
AcDbEntity
  8
YKK_A1
100
AcDbCircle
 10
7712.42886429
 20
11822.93183184
 30
0.0
 40
7.499963337230585
100
AcDbArc
 50
128.68099976
 51
231.31898499
  0
ARC
  5
67D4
330
6288
100
AcDbEntity
  8
YKK_A1
100
AcDbCircle
 10
7712.42886429
 20
11822.93183184
 30
0.0
 40
7.499963337230585
100
AcDbArc
 50
308.68099976
 51
51.31898499
  0
ARC
  5
67D5
330
6288
100
AcDbEntity
  8
YKK_A1
100
AcDbCircle
 10
7467.23005949
 20
11822.73183282
 30
0.0
 40
249.9987915774328
100
AcDbArc
 50
355.53399658
 51
0.0
  0
LINE
  5
67D6
330
6288
100
AcDbEntity
  8
YKK_A1
100
AcDbLine
 10
7717.22884089
 20
11822.73183282
 30
0.0
 11
7717.22884089
 21
11823.13183087
 31
0.0
  0
ARC
  5
67D7
330
6288
100
AcDbEntity
  8
YKK_A1
100
AcDbCircle
 10
7957.62766909
 20
11823.13183087
 30
0.0
 40
249.9987915774328
100
AcDbArc
 50
175.53399658
 51
180.0
  0
ARC
  5
67D8
330
6288
100
AcDbEntity
  8
YKK_A1
100
AcDbCircle
 10
7467.23005949
 20
11823.13183087
 30
0.0
 40
249.9987915774328
100
AcDbArc
 50
0.0
 51
4.46598816
  0
LINE
  5
67D9
330
6288
100
AcDbEntity
  8
YKK_A1
  6
ITTENSAP
100
AcDbLine
 10
7657.42913238
 20
11822.93183184
 30
0.0
 11
7767.4285962
 21
11822.93183184
 31
0.0
  0
LINE
  5
67DA
330
6288
100
AcDbEntity
  8
YKK_A1
100
AcDbLine
 10
7710.22887501
 20
11796.13196248
 30
0.0
 11
7714.62885356
 21
11796.13196248
 31
0.0
  0
ARC
  5
67DB
330
6288
100
AcDbEntity
  8
YKK_A1
100
AcDbCircle
 10
7714.42885454
 20
11797.53195565
 30
0.0
 40
1.499992735785784
100
AcDbArc
 50
274.70399475
 51
355.51899719
  0
ARC
  5
67DC
330
6288
100
AcDbEntity
  8
YKK_A1
100
AcDbCircle
 10
7710.42887404
 20
11797.53195565
 30
0.0
 40
1.499992735785784
100
AcDbArc
 50
184.48098755
 51
265.29598999
  0
CIRCLE
  5
67DD
330
6288
100
AcDbEntity
  8
YKK_A1
100
AcDbCircle
 10
7712.42886429
 20
11822.93183184
 30
0.0
 40
37.99981369515762
  0
LINE
  5
67DE
330
6288
100
AcDbEntity
  8
YKK_A1
  6
ITTENSAP
100
AcDbLine
 10
7712.42886429
 20
11767.93209993
 30
0.0
 11
7712.42886429
 21
11877.93156375
 31
0.0
  0
LINE
  5
67DF
330
6288
100
AcDbEntity
  8
YKK_A1
100
AcDbLine
 10
7708.42888379
 20
11803.13192836
 30
0.0
 11
7708.82888184
 21
11797.53195565
 31
0.0
  0
LINE
  5
67E0
330
6288
100
AcDbEntity
  8
YKK_A1
100
AcDbLine
 10
7716.02884674
 20
11797.53195565
 30
0.0
 11
7716.42884479
 21
11803.13192836
 31
0.0
  0
CIRCLE
  5
67E1
330
6288
100
AcDbEntity
  8
YKK_A1
100
AcDbCircle
 10
7712.42886429
 20
11822.93183184
 30
0.0
 40
28.9998579638796
  0
CIRCLE
  5
67E2
330
6288
100
AcDbEntity
  8
YKK_A1
100
AcDbCircle
 10
7712.42886429
 20
11822.93183184
 30
0.0
 40
27.99986531282352
  0
TEXT
  5
67E3
330
6288
100
AcDbEntity
  8
YKK_N1
  6
Continuous
100
AcDbText
 10
8451.42607648
 20
11727.92679981
 30
0.0
 40
60.0
  1
H=1900
 50
90.0000025
 72
     4
 11
8421.42606992
 21
11877.9267985
 31
0.0
100
AcDbText
  0
LINE
  5
67E4
330
6288
100
AcDbEntity
  8
YKK_A1
100
AcDbLine
 10
8265.8261668
 20
11895.53147796
 30
0.0
 11
8276.82611318
 21
11895.53147796
 31
0.0
  0
LINE
  5
67E5
330
6288
100
AcDbEntity
  8
YKK_A1
100
AcDbLine
 10
8265.8261668
 20
11855.53167294
 30
0.0
 11
8276.82611318
 21
11855.53167294
 31
0.0
  0
LINE
  5
67E6
330
6288
100
AcDbEntity
  8
YKK_A1
100
AcDbLine
 10
8276.82611318
 20
11815.53186791
 30
0.0
 11
8265.8261668
 21
11815.53186791
 31
0.0
  0
LINE
  5
67E7
330
6288
100
AcDbEntity
  8
YKK_A1
100
AcDbLine
 10
8276.82611318
 20
11895.53147796
 30
0.0
 11
8276.82611318
 21
11815.53186791
 31
0.0
  0
LINE
  5
67E8
330
6288
100
AcDbEntity
  8
YKK_A1
100
AcDbLine
 10
8265.8261668
 20
11815.53186791
 30
0.0
 11
8265.8261668
 21
11895.53147796
 31
0.0
  0
LINE
  5
67E9
330
6288
100
AcDbEntity
  8
YKK_A1
100
AcDbLine
 10
7653.42915188
 20
12837.92688433
 30
0.0
 11
8273.42612975
 21
12837.92688433
 31
0.0
  0
LINE
  5
67EA
330
6288
100
AcDbEntity
  8
YKK_A1
100
AcDbLine
 10
8298.42600789
 20
12862.92676247
 30
0.0
 11
7628.42927374
 21
12862.92676247
 31
0.0
  0
LINE
  5
67EB
330
6288
100
AcDbEntity
  8
YKK_A1
100
AcDbLine
 10
7657.42913238
 20
12787.92712805
 30
0.0
 11
8269.42614925
 21
12787.92712805
 31
0.0
  0
CIRCLE
  5
67EC
330
6288
100
AcDbEntity
  8
YKK_A1
100
AcDbCircle
 10
7963.42764082
 20
12637.92785921
 30
0.0
 40
74.99963200527249
  0
LINE
  5
67ED
330
6288
100
AcDbEntity
  8
YKK_A1
100
AcDbLine
 10
7980.827556
 20
12837.92688433
 30
0.0
 11
7980.827556
 21
12787.92712805
 31
0.0
  0
LINE
  5
67EE
330
6288
100
AcDbEntity
  8
YKK_A1
100
AcDbLine
 10
7945.8277266
 20
12837.92688433
 30
0.0
 11
7945.8277266
 21
12787.92712805
 31
0.0
  0
LINE
  5
67EF
330
6288
100
AcDbEntity
  8
YKK_A1
100
AcDbLine
 10
8269.42614925
 20
12787.92712805
 30
0.0
 11
8269.42614925
 21
12689.92760574
 31
0.0
  0
LINE
  5
67F0
330
6288
100
AcDbEntity
  8
YKK_A1
100
AcDbLine
 10
8273.42612975
 20
12862.92676247
 30
0.0
 11
8273.42612975
 21
12689.92760574
 31
0.0
  0
LINE
  5
67F1
330
6288
100
AcDbEntity
  8
YKK_A1
100
AcDbLine
 10
8276.82611318
 20
12689.92760574
 30
0.0
 11
8265.8261668
 21
12689.92760574
 31
0.0
  0
LINE
  5
67F2
330
6288
100
AcDbEntity
  8
YKK_A1
100
AcDbLine
 10
8265.8261668
 20
12609.92799569
 30
0.0
 11
8276.82611318
 21
12609.92799569
 31
0.0
  0
LINE
  5
67F3
330
6288
100
AcDbEntity
  8
YKK_A1
100
AcDbLine
 10
8276.82611318
 20
12649.92780072
 30
0.0
 11
8265.8261668
 21
12649.92780072
 31
0.0
  0
LINE
  5
67F4
330
6288
100
AcDbEntity
  8
YKK_A1
100
AcDbLine
 10
8265.8261668
 20
12689.92760574
 30
0.0
 11
8265.8261668
 21
12609.92799569
 31
0.0
  0
LINE
  5
67F5
330
6288
100
AcDbEntity
  8
YKK_A1
100
AcDbLine
 10
8276.82611318
 20
12609.92799569
 30
0.0
 11
8276.82611318
 21
12689.92760574
 31
0.0
  0
LINE
  5
67F6
330
6288
100
AcDbEntity
  8
YKK_N1
  6
Continuous
100
AcDbLine
 10
8338.42600889
 20
12827.92682901
 30
0.0
 11
8463.42606992
 21
12827.92682901
 31
0.0
  0
LINE
  5
67F7
330
6288
100
AcDbEntity
  8
YKK_A1
100
AcDbLine
 10
8298.42600789
 20
12827.92676456
 30
0.0
 11
8290.66910832
 21
12827.92676456
 31
0.0
  0
LINE
  5
67F8
330
6288
100
AcDbEntity
  8
YKK_N1
100
AcDbLine
 10
8413.42606992
 20
12741.32427469
 30
0.0
 11
8513.42607873
 21
12741.32427469
 31
0.0
  0
LINE
  5
67F9
330
6288
100
AcDbEntity
  8
YKK_N1
  6
Continuous
100
AcDbLine
 10
8463.42606992
 20
12827.92682901
 30
0.0
 11
8413.42606992
 21
12741.32427469
 31
0.0
  0
LINE
  5
67FA
330
6288
100
AcDbEntity
  8
YKK_N1
  6
Continuous
100
AcDbLine
 10
8513.42607873
 20
12741.32427469
 30
0.0
 11
8463.42606992
 21
12827.92682901
 31
0.0
  0
LINE
  5
6830
330
6288
100
AcDbEntity
  8
YKK_N1
  6
Continuous
100
AcDbLine
 10
7663.42598123
 20
16682.93633052
 30
0.0
 11
8263.42596597
 21
16682.93633052
 31
0.0
  0
LINE
  5
6831
330
6288
100
AcDbEntity
  8
YKK_A1
100
AcDbLine
 10
7682.42584758
 20
16937.9364707
 30
0.0
 11
8244.42581408
 21
16937.9364707
 31
0.0
  0
LINE
  5
6832
330
6288
100
AcDbEntity
  8
YKK_A1
100
AcDbLine
 10
8244.42581408
 20
17006.93646659
 30
0.0
 11
7682.42584758
 21
17006.93646659
 31
0.0
  0
LINE
  5
6833
330
6288
100
AcDbEntity
  8
YKK_A1
100
AcDbLine
 10
8273.42581235
 20
16907.93647249
 30
0.0
 11
7653.4258493
 21
16907.93647249
 31
0.0
  0
LINE
  5
6834
330
6288
100
AcDbEntity
  8
YKK_A1
100
AcDbLine
 10
7628.42585079
 20
16882.93647398
 30
0.0
 11
8298.42581086
 21
16882.93647398
 31
0.0
  0
LINE
  5
6835
330
6288
100
AcDbEntity
  8
YKK_A1
100
AcDbLine
 10
8269.42581259
 20
16912.93647219
 30
0.0
 11
7657.42584907
 21
16912.93647219
 31
0.0
  0
TEXT
  5
6836
330
6288
100
AcDbEntity
  8
YKK_N1
  6
Continuous
100
AcDbText
 10
7823.4259736
 20
16694.93633052
 30
0.0
 40
60.0
  1
W=600
 72
     4
 11
7963.4259736
 21
16724.93633052
 31
0.0
100
AcDbText
  0
LINE
  5
6837
330
6288
100
AcDbEntity
  8
YKK_N1
  6
Continuous
100
AcDbLine
 10
7663.42598123
 20
16807.93633052
 30
0.0
 11
7663.42598123
 21
16682.93633052
 31
0.0
  0
LINE
  5
6838
330
6288
100
AcDbEntity
  8
YKK_N1
100
AcDbLine
 10
7750.02853555
 20
16732.93633052
 30
0.0
 11
7750.02853555
 21
16632.93632171
 31
0.0
  0
LINE
  5
6839
330
6288
100
AcDbEntity
  8
YKK_N1
  6
Continuous
100
AcDbLine
 10
7750.02853555
 20
16632.93632171
 30
0.0
 11
7663.42598123
 21
16682.93633052
 31
0.0
  0
LINE
  5
683A
330
6288
100
AcDbEntity
  8
YKK_N1
  6
Continuous
100
AcDbLine
 10
7663.42598123
 20
16682.93633052
 30
0.0
 11
7750.02853555
 21
16732.93633052
 31
0.0
  0
LINE
  5
683B
330
6288
100
AcDbEntity
  8
YKK_A1
100
AcDbLine
 10
7682.42584758
 20
17006.93646659
 30
0.0
 11
7682.42584758
 21
16937.9364707
 31
0.0
  0
LINE
  5
683C
330
6288
100
AcDbEntity
  8
YKK_A1
100
AcDbLine
 10
7663.42584871
 20
16882.93647398
 30
0.0
 11
7663.42584871
 21
16884.93647386
 31
0.0
  0
LINE
  5
683D
330
6288
100
AcDbEntity
  8
YKK_N1
  6
Continuous
100
AcDbLine
 10
8263.42596597
 20
16807.93633052
 30
0.0
 11
8263.42596597
 21
16682.93633052
 31
0.0
  0
LINE
  5
683E
330
6288
100
AcDbEntity
  8
YKK_N1
  6
Continuous
100
AcDbLine
 10
8263.42596597
 20
16682.93633052
 30
0.0
 11
8176.82341165
 21
16732.93633052
 31
0.0
  0
LINE
  5
683F
330
6288
100
AcDbEntity
  8
YKK_N1
  6
Continuous
100
AcDbLine
 10
8176.82341165
 20
16632.93632171
 30
0.0
 11
8263.42596597
 21
16682.93633052
 31
0.0
  0
LINE
  5
6840
330
6288
100
AcDbEntity
  8
YKK_N1
100
AcDbLine
 10
8176.82341165
 20
16732.93633052
 30
0.0
 11
8176.82341165
 21
16632.93632171
 31
0.0
  0
LINE
  5
6841
330
6288
100
AcDbEntity
  8
YKK_N1
  6
Continuous
100
AcDbLine
 10
8338.42580862
 20
16917.93687983
 30
0.0
 11
8463.42586965
 21
16917.93687983
 31
0.0
  0
LINE
  5
6842
330
6288
100
AcDbEntity
  8
YKK_A1
100
AcDbLine
 10
8265.8258128
 20
17090.93646158
 30
0.0
 11
8276.82581215
 21
17090.93646158
 31
0.0
  0
LINE
  5
6843
330
6288
100
AcDbEntity
  8
YKK_A1
100
AcDbLine
 10
8276.82581215
 20
17050.93646397
 30
0.0
 11
8265.8258128
 21
17050.93646397
 31
0.0
  0
LINE
  5
6844
330
6288
100
AcDbEntity
  8
YKK_A1
100
AcDbLine
 10
8276.82581215
 20
17010.93646635
 30
0.0
 11
8265.8258128
 21
17010.93646635
 31
0.0
  0
LINE
  5
6845
330
6288
100
AcDbEntity
  8
YKK_A1
100
AcDbLine
 10
8244.42581408
 20
16937.9364707
 30
0.0
 11
8244.42581408
 21
17006.93646659
 31
0.0
  0
LINE
  5
6846
330
6288
100
AcDbEntity
  8
YKK_A1
100
AcDbLine
 10
8263.42581295
 20
16882.93647398
 30
0.0
 11
8263.42581295
 21
16884.93647386
 31
0.0
  0
LINE
  5
6847
330
6288
100
AcDbEntity
  8
YKK_A1
100
AcDbLine
 10
8273.42581235
 20
16882.93647398
 30
0.0
 11
8273.42581235
 21
17010.93646635
 31
0.0
  0
LINE
  5
6848
330
6288
100
AcDbEntity
  8
YKK_A1
100
AcDbLine
 10
8269.42581259
 20
17010.93646635
 30
0.0
 11
8269.42581259
 21
16912.93647219
 31
0.0
  0
LINE
  5
6849
330
6288
100
AcDbEntity
  8
YKK_A1
100
AcDbLine
 10
8298.42581086
 20
16917.93647189
 30
0.0
 11
8294.96270385
 21
16917.93647189
 31
0.0
  0
LINE
  5
684A
330
6288
100
AcDbEntity
  8
YKK_A1
100
AcDbLine
 10
8276.82581215
 20
17090.93646158
 30
0.0
 11
8276.82581215
 21
17010.93646635
 31
0.0
  0
LINE
  5
684B
330
6288
100
AcDbEntity
  8
YKK_A1
100
AcDbLine
 10
8265.8258128
 20
17010.93646635
 30
0.0
 11
8265.8258128
 21
17090.93646158
 31
0.0
  0
LINE
  5
684C
330
6288
100
AcDbEntity
  8
YKK_N1
  6
Continuous
100
AcDbLine
 10
8513.42587846
 20
17004.53943416
 30
0.0
 11
8463.42586965
 21
16917.93687983
 31
0.0
  0
LINE
  5
684D
330
6288
100
AcDbEntity
  8
YKK_N1
100
AcDbLine
 10
8413.42586965
 20
17004.53943416
 30
0.0
 11
8513.42587846
 21
17004.53943416
 31
0.0
  0
LINE
  5
684E
330
6288
100
AcDbEntity
  8
YKK_N1
  6
Continuous
100
AcDbLine
 10
8463.42586965
 20
16917.93687983
 30
0.0
 11
8413.42586965
 21
17004.53943416
 31
0.0
  0
LINE
  5
6862
330
6288
100
AcDbEntity
  8
YKK_A1
100
AcDbLine
 10
8273.42581235
 20
17928.93641163
 30
0.0
 11
8273.42581235
 21
18852.93635656
 31
0.0
  0
LINE
  5
6863
330
6288
100
AcDbEntity
  8
YKK_A1
100
AcDbLine
 10
8193.42581712
 20
18713.93636484
 30
0.0
 11
8193.42581712
 21
18029.93640561
 31
0.0
  0
LINE
  5
6864
330
6288
100
AcDbEntity
  8
YKK_A1
100
AcDbLine
 10
8183.42581771
 20
18688.93636633
 30
0.0
 11
8183.42581771
 21
18029.93640561
 31
0.0
  0
LINE
  5
6865
330
6288
100
AcDbEntity
  8
YKK_A1
100
AcDbLine
 10
7733.42584454
 20
18029.93640561
 30
0.0
 11
7733.42584454
 21
18713.93636484
 31
0.0
  0
LINE
  5
6866
330
6288
100
AcDbEntity
  8
YKK_A1
100
AcDbLine
 10
7743.42584394
 20
18029.93640561
 30
0.0
 11
7743.42584394
 21
18688.93636633
 31
0.0
  0
LINE
  5
6867
330
6288
100
AcDbEntity
  8
YKK_A1
100
AcDbLine
 10
7657.42584907
 20
18026.93640579
 30
0.0
 11
8269.42581259
 21
18026.93640579
 31
0.0
  0
LINE
  5
6868
330
6288
100
AcDbEntity
  8
YKK_A1
  6
NITENSAP
100
AcDbLine
 10
7657.42584907
 20
18026.93640579
 30
0.0
 11
8269.42581259
 21
17469.93643899
 31
0.0
  0
ARC
  5
6869
330
6288
100
AcDbEntity
  8
YKK_A1
100
AcDbCircle
 10
7712.42584579
 20
17512.93643643
 30
0.0
 40
7.499999448165172
100
AcDbArc
 50
128.68099976
 51
231.31898499
  0
LINE
  5
686A
330
6288
100
AcDbEntity
  8
YKK_A1
100
AcDbLine
 10
7695.4258468
 20
17516.7364362
 30
0.0
 11
7693.42584692
 21
17516.7364362
 31
0.0
  0
LINE
  5
686B
330
6288
100
AcDbEntity
  8
YKK_A1
100
AcDbLine
 10
7693.42584692
 20
17517.93643613
 30
0.0
 11
7693.42584692
 21
17508.13643672
 31
0.0
  0
LINE
  5
686C
330
6288
100
AcDbEntity
  8
YKK_A1
100
AcDbLine
 10
7695.4258468
 20
17517.93643613
 30
0.0
 11
7695.4258468
 21
17508.13643672
 31
0.0
  0
LINE
  5
686D
330
6288
100
AcDbEntity
  8
YKK_A1
100
AcDbLine
 10
7695.4258468
 20
17509.13643666
 30
0.0
 11
7693.42584692
 21
17509.13643666
 31
0.0
  0
LINE
  5
686E
330
6288
100
AcDbEntity
  8
YKK_A1
  6
ITTENSAP
100
AcDbLine
 10
7694.42584686
 20
17522.93643583
 30
0.0
 11
7694.42584686
 21
17502.93643703
 31
0.0
  0
LINE
  5
686F
330
6288
100
AcDbEntity
  8
YKK_A1
100
AcDbLine
 10
7710.22584592
 20
17486.13643803
 30
0.0
 11
7714.62584566
 21
17486.13643803
 31
0.0
  0
ARC
  5
6870
330
6288
100
AcDbEntity
  8
YKK_A1
100
AcDbCircle
 10
7714.42584567
 20
17487.53643794
 30
0.0
 40
1.49999995797303
100
AcDbArc
 50
274.70399475
 51
355.51899719
  0
LINE
  5
6871
330
6288
100
AcDbEntity
  8
YKK_A1
100
AcDbLine
 10
7707.62584607
 20
17513.13643642
 30
0.0
 11
7707.62584607
 21
17512.73643644
 31
0.0
  0
ARC
  5
6872
330
6288
100
AcDbEntity
  8
YKK_A1
100
AcDbCircle
 10
7714.42584567
 20
17538.33643492
 30
0.0
 40
1.49999995797303
100
AcDbArc
 50
4.44499206
 51
85.25799561
  0
ARC
  5
6873
330
6288
100
AcDbEntity
  8
YKK_A1
100
AcDbCircle
 10
7710.42584591
 20
17487.53643794
 30
0.0
 40
1.49999995797303
100
AcDbArc
 50
184.48098755
 51
265.29598999
  0
ARC
  5
6874
330
6288
100
AcDbEntity
  8
YKK_A1
100
AcDbCircle
 10
7467.2258604
 20
17512.73643644
 30
0.0
 40
249.9999952753182
100
AcDbArc
 50
355.53399658
 51
0.0
  0
ARC
  5
6875
330
6288
100
AcDbEntity
  8
YKK_A1
100
AcDbCircle
 10
7712.42584579
 20
17512.93643643
 30
0.0
 40
7.499999448165172
100
AcDbArc
 50
308.68099976
 51
51.31898499
  0
ARC
  5
6876
330
6288
100
AcDbEntity
  8
YKK_A1
100
AcDbCircle
 10
7710.42584591
 20
17538.33643492
 30
0.0
 40
1.49999995797303
100
AcDbArc
 50
94.74198914
 51
175.55499268
  0
ARC
  5
6877
330
6288
100
AcDbEntity
  8
YKK_A1
100
AcDbCircle
 10
7957.62583117
 20
17513.13643642
 30
0.0
 40
249.9999952753182
100
AcDbArc
 50
175.53399658
 51
180.0
  0
ARC
  5
6878
330
6288
100
AcDbEntity
  8
YKK_A1
100
AcDbCircle
 10
7957.62583117
 20
17512.73643644
 30
0.0
 40
249.9999952753182
100
AcDbArc
 50
180.0
 51
184.46598816
  0
LINE
  5
6879
330
6288
100
AcDbEntity
  8
YKK_A1
100
AcDbLine
 10
7714.62584566
 20
17539.73643483
 30
0.0
 11
7710.22584592
 21
17539.73643483
 31
0.0
  0
LINE
  5
687A
330
6288
100
AcDbEntity
  8
YKK_A1
100
AcDbLine
 10
7708.825846
 20
17538.33643492
 30
0.0
 11
7708.42584603
 21
17532.73643525
 31
0.0
  0
LINE
  5
687B
330
6288
100
AcDbEntity
  8
YKK_A1
100
AcDbLine
 10
7708.42584603
 20
17493.13643761
 30
0.0
 11
7708.825846
 21
17487.53643794
 31
0.0
  0
ARC
  5
687C
330
6288
100
AcDbEntity
  8
YKK_A1
100
AcDbCircle
 10
7467.2258604
 20
17513.13643642
 30
0.0
 40
249.9999952753182
100
AcDbArc
 50
0.0
 51
4.46598816
  0
LINE
  5
687D
330
6288
100
AcDbEntity
  8
YKK_A1
100
AcDbLine
 10
7717.2258455
 20
17512.73643644
 30
0.0
 11
7717.2258455
 21
17513.13643642
 31
0.0
  0
LINE
  5
687E
330
6288
100
AcDbEntity
  8
YKK_A1
100
AcDbLine
 10
7716.02584557
 20
17487.53643794
 30
0.0
 11
7716.42584555
 21
17493.13643761
 31
0.0
  0
LINE
  5
687F
330
6288
100
AcDbEntity
  8
YKK_A1
100
AcDbLine
 10
7716.42584555
 20
17532.73643525
 30
0.0
 11
7716.02584557
 21
17538.33643492
 31
0.0
  0
CIRCLE
  5
6880
330
6288
100
AcDbEntity
  8
YKK_A1
100
AcDbCircle
 10
7712.42584579
 20
17512.93643643
 30
0.0
 40
28.99999759282533
  0
CIRCLE
  5
6881
330
6288
100
AcDbEntity
  8
YKK_A1
100
AcDbCircle
 10
7712.42584579
 20
17512.93643643
 30
0.0
 40
28.00000012698984
  0
CIRCLE
  5
6882
330
6288
100
AcDbEntity
  8
YKK_A1
100
AcDbCircle
 10
7712.42584579
 20
17512.93643643
 30
0.0
 40
37.99999665722356
  0
LINE
  5
6883
330
6288
100
AcDbEntity
  8
YKK_A1
  6
ITTENSAP
100
AcDbLine
 10
7712.42584579
 20
17457.93643971
 30
0.0
 11
7712.42584579
 21
17567.93643315
 31
0.0
  0
LINE
  5
6884
330
6288
100
AcDbEntity
  8
YKK_A1
  6
ITTENSAP
100
AcDbLine
 10
7657.42584907
 20
17512.93643643
 30
0.0
 11
7767.42584251
 21
17512.93643643
 31
0.0
  0
LINE
  5
6885
330
6288
100
AcDbEntity
  8
YKK_A1
100
AcDbLine
 10
7760.42584293
 20
18029.93640561
 30
0.0
 11
7760.42584293
 21
18044.93640472
 31
0.0
  0
LINE
  5
6886
330
6288
100
AcDbEntity
  8
YKK_A1
100
AcDbLine
 10
7743.42584394
 20
18029.93640561
 30
0.0
 11
7653.4258493
 21
18029.93640561
 31
0.0
  0
CIRCLE
  5
6887
330
6288
100
AcDbEntity
  8
YKK_A1
100
AcDbCircle
 10
7754.42584328
 20
18039.93640502
 30
0.0
 40
2.49999998692838
  0
LINE
  5
6888
330
6288
100
AcDbEntity
  8
YKK_A1
100
AcDbLine
 10
7743.42584394
 20
18029.93640561
 30
0.0
 11
7760.42584293
 21
18029.93640561
 31
0.0
  0
LINE
  5
6889
330
6288
100
AcDbEntity
  8
YKK_A1
100
AcDbLine
 10
7760.42584293
 20
18044.93640472
 30
0.0
 11
7743.42584394
 21
18044.93640472
 31
0.0
  0
TEXT
  5
688A
330
6288
100
AcDbEntity
  8
YKK_N1
  6
Continuous
100
AcDbText
 10
8451.42587621
 20
17717.93691166
 30
0.0
 40
60.0
  1
H=1900
 50
90.0000025
 72
     4
 11
8421.42586965
 21
17867.93691035
 31
0.0
100
AcDbText
  0
LINE
  5
688B
330
6288
100
AcDbEntity
  8
YKK_A1
100
AcDbLine
 10
8276.82581215
 20
17928.93641163
 30
0.0
 11
8265.8258128
 21
17928.93641163
 31
0.0
  0
LINE
  5
688C
330
6288
100
AcDbEntity
  8
YKK_A1
100
AcDbLine
 10
8269.42581259
 20
18026.93640579
 30
0.0
 11
8269.42581259
 21
17928.93641163
 31
0.0
  0
LINE
  5
688D
330
6288
100
AcDbEntity
  8
YKK_A1
100
AcDbLine
 10
8166.42581873
 20
18029.93640561
 30
0.0
 11
8166.42581873
 21
18044.93640472
 31
0.0
  0
CIRCLE
  5
688E
330
6288
100
AcDbEntity
  8
YKK_A1
100
AcDbCircle
 10
8172.42581837
 20
18039.93640502
 30
0.0
 40
2.49999998692838
  0
LINE
  5
688F
330
6288
100
AcDbEntity
  8
YKK_A1
100
AcDbLine
 10
8183.42581771
 20
18029.93640561
 30
0.0
 11
8166.42581873
 21
18029.93640561
 31
0.0
  0
LINE
  5
6890
330
6288
100
AcDbEntity
  8
YKK_A1
100
AcDbLine
 10
8166.42581873
 20
18044.93640472
 30
0.0
 11
8183.42581771
 21
18044.93640472
 31
0.0
  0
LINE
  5
6891
330
6288
100
AcDbEntity
  8
YKK_A1
100
AcDbLine
 10
8183.42581771
 20
18029.93640561
 30
0.0
 11
8273.42581235
 21
18029.93640561
 31
0.0
  0
LINE
  5
6892
330
6288
100
AcDbEntity
  8
YKK_A1
100
AcDbLine
 10
8276.82581215
 20
17888.93641402
 30
0.0
 11
8265.8258128
 21
17888.93641402
 31
0.0
  0
LINE
  5
6893
330
6288
100
AcDbEntity
  8
YKK_A1
100
AcDbLine
 10
8265.8258128
 20
17848.9364164
 30
0.0
 11
8276.82581215
 21
17848.9364164
 31
0.0
  0
LINE
  5
6894
330
6288
100
AcDbEntity
  8
YKK_A1
100
AcDbLine
 10
8276.82581215
 20
17848.9364164
 30
0.0
 11
8276.82581215
 21
17928.93641163
 31
0.0
  0
LINE
  5
6895
330
6288
100
AcDbEntity
  8
YKK_A1
100
AcDbLine
 10
8265.8258128
 20
17928.93641163
 30
0.0
 11
8265.8258128
 21
17848.9364164
 31
0.0
  0
LINE
  5
6896
330
6288
100
AcDbEntity
  8
YKK_A1
100
AcDbLine
 10
7653.4258493
 20
18827.93635805
 30
0.0
 11
8273.42581235
 21
18827.93635805
 31
0.0
  0
LINE
  5
6897
330
6288
100
AcDbEntity
  8
YKK_A1
100
AcDbLine
 10
7664.82584862
 20
18817.93635864
 30
0.0
 11
8261.82581304
 21
18817.93635864
 31
0.0
  0
LINE
  5
6898
330
6288
100
AcDbEntity
  8
YKK_A1
100
AcDbLine
 10
7733.42584454
 20
18688.93636633
 30
0.0
 11
8193.42581712
 21
18688.93636633
 31
0.0
  0
LINE
  5
6899
330
6288
100
AcDbEntity
  8
YKK_A1
100
AcDbLine
 10
8273.42581235
 20
18738.93636335
 30
0.0
 11
7653.4258493
 21
18738.93636335
 31
0.0
  0
LINE
  5
689A
330
6288
100
AcDbEntity
  8
YKK_A1
100
AcDbLine
 10
7653.4258493
 20
18713.93636484
 30
0.0
 11
8273.42581235
 21
18713.93636484
 31
0.0
  0
LINE
  5
689B
330
6288
100
AcDbEntity
  8
YKK_A1
100
AcDbLine
 10
8261.82581304
 20
18748.93636276
 30
0.0
 11
7664.82584862
 21
18748.93636276
 31
0.0
  0
LINE
  5
689C
330
6288
100
AcDbEntity
  8
YKK_A1
100
AcDbLine
 10
7664.82584862
 20
18748.93636276
 30
0.0
 11
7664.82584862
 21
18817.93635864
 31
0.0
  0
CIRCLE
  5
689D
330
6288
100
AcDbEntity
  8
YKK_A1
100
AcDbCircle
 10
7963.42583083
 20
18694.93636598
 30
0.0
 40
2.99999991596606
  0
LINE
  5
689E
330
6288
100
AcDbEntity
  8
YKK_N1
  6
Continuous
100
AcDbLine
 10
8338.42580862
 20
18817.93694087
 30
0.0
 11
8463.42586965
 21
18817.93694087
 31
0.0
  0
LINE
  5
689F
330
6288
100
AcDbEntity
  8
YKK_A1
100
AcDbLine
 10
8261.82581304
 20
18817.93635864
 30
0.0
 11
8261.82581304
 21
18748.93636276
 31
0.0
  0
LINE
  5
68A0
330
6288
100
AcDbEntity
  8
YKK_N1
  6
Continuous
100
AcDbLine
 10
8513.42587846
 20
18731.33438655
 30
0.0
 11
8463.42586965
 21
18817.93694087
 31
0.0
  0
LINE
  5
68A1
330
6288
100
AcDbEntity
  8
YKK_N1
  6
Continuous
100
AcDbLine
 10
8463.42586965
 20
18817.93694087
 30
0.0
 11
8413.42586965
 21
18731.33438655
 31
0.0
  0
LINE
  5
68A2
330
6288
100
AcDbEntity
  8
YKK_N1
100
AcDbLine
 10
8413.42586965
 20
18731.33438655
 30
0.0
 11
8513.42587846
 21
18731.33438655
 31
0.0
  0
LINE
  5
68A3
330
6288
100
AcDbEntity
  8
YKK_A1
100
AcDbLine
 10
8298.42581086
 20
18852.93635656
 30
0.0
 11
7628.42585079
 21
18852.93635656
 31
0.0
  0
LINE
  5
68BF
330
6288
100
AcDbEntity
  8
YKK_N1
  6
Continuous
100
AcDbLine
 10
13263.42594595
 20
18817.93636576
 30
0.0
 11
13263.42594595
 21
16917.93630472
 31
0.0
  0
LINE
  5
68C0
330
6288
100
AcDbEntity
  8
YKK_A1
100
AcDbLine
 10
12600.82591403
 20
18713.93612005
 30
0.0
 11
12600.82591403
 21
16907.93622769
 31
0.0
  0
LINE
  5
68C1
330
6288
100
AcDbEntity
  8
YKK_A1
100
AcDbLine
 10
12625.82591254
 20
16907.93622769
 30
0.0
 11
12625.82591254
 21
18713.93612005
 31
0.0
  0
LINE
  5
68C2
330
6288
100
AcDbEntity
  8
YKK_A1
100
AcDbLine
 10
12128.42594218
 20
16882.93622918
 30
0.0
 11
12128.42594218
 21
18852.93611176
 31
0.0
  0
LINE
  5
68C3
330
6288
100
AcDbEntity
  8
YKK_A1
100
AcDbLine
 10
13098.42588437
 20
18852.93611176
 30
0.0
 11
13098.42588437
 21
16882.93622918
 31
0.0
  0
LINE
  5
68C4
330
6288
100
AcDbEntity
  8
YKK_A1
  6
NITENSAP
100
AcDbLine
 10
12157.42594045
 20
17462.93619461
 30
0.0
 11
12596.82591426
 21
16912.93622739
 31
0.0
  0
LINE
  5
68C5
330
6288
100
AcDbEntity
  8
YKK_A1
  6
NITENSAP
100
AcDbLine
 10
13069.42588609
 20
17462.93619461
 30
0.0
 11
12629.8259123
 21
16912.93622739
 31
0.0
  0
LINE
  5
68C6
330
6288
100
AcDbEntity
  8
YKK_A1
100
AcDbLine
 10
12596.82591426
 20
16912.93622739
 30
0.0
 11
12596.82591426
 21
18012.93616183
 31
0.0
  0
LINE
  5
68C7
330
6288
100
AcDbEntity
  8
YKK_A1
100
AcDbLine
 10
12629.8259123
 20
16912.93622739
 30
0.0
 11
12629.8259123
 21
18012.93616183
 31
0.0
  0
LINE
  5
68C8
330
6288
100
AcDbEntity
  8
YKK_A1
100
AcDbLine
 10
12153.42594069
 20
17834.93617244
 30
0.0
 11
12153.42594069
 21
17090.93621678
 31
0.0
  0
LINE
  5
68C9
330
6288
100
AcDbEntity
  8
YKK_A1
100
AcDbLine
 10
12157.42594045
 20
17834.93617244
 30
0.0
 11
12157.42594045
 21
17090.93621678
 31
0.0
  0
LINE
  5
68CA
330
6288
100
AcDbEntity
  8
YKK_A1
100
AcDbLine
 10
13069.42588609
 20
17834.93617244
 30
0.0
 11
13069.42588609
 21
17090.93621678
 31
0.0
  0
LINE
  5
68CB
330
6288
100
AcDbEntity
  8
YKK_A1
100
AcDbLine
 10
13073.42588586
 20
17834.93617244
 30
0.0
 11
13073.42588586
 21
17090.93621678
 31
0.0
  0
LINE
  5
68CF
330
6288
100
AcDbEntity
  8
YKK_N1
  6
Continuous
100
AcDbLine
 10
13263.42612714
 20
12829.93598643
 30
0.0
 11
13213.42612714
 21
12743.33343211
 31
0.0
  0
LINE
  5
68D0
330
6288
100
AcDbEntity
  8
YKK_N1
100
AcDbLine
 10
13213.42612714
 20
12743.33343211
 30
0.0
 11
13313.42613595
 21
12743.33343211
 31
0.0
  0
LINE
  5
68D1
330
6288
100
AcDbEntity
  8
YKK_N1
  6
Continuous
100
AcDbLine
 10
13138.42606611
 20
12829.93598643
 30
0.0
 11
13263.42612714
 21
12829.93598643
 31
0.0
  0
TEXT
  5
68D2
330
6288
100
AcDbEntity
  8
YKK_N1
  6
Continuous
100
AcDbText
 10
13251.4261337
 20
11729.93595722
 30
0.0
 40
60.0
  1
H=1900
 50
90.0000025
 72
     4
 11
13221.42612714
 21
11879.93595591
 31
0.0
100
AcDbText
  0
LINE
  5
68D3
330
6288
100
AcDbEntity
  8
YKK_A1
100
AcDbLine
 10
13073.42606759
 20
12611.93623289
 30
0.0
 11
13073.42606759
 21
11897.53627547
 31
0.0
  0
LINE
  5
68D4
330
6288
100
AcDbEntity
  8
YKK_A1
100
AcDbLine
 10
13069.42606783
 20
12611.93623289
 30
0.0
 11
13069.42606783
 21
11897.53627547
 31
0.0
  0
LINE
  5
68D5
330
6288
100
AcDbEntity
  8
YKK_A1
  6
NITENSAP
100
AcDbLine
 10
12596.826096
 20
12789.93622228
 30
0.0
 11
12157.42612219
 21
11857.53627785
 31
0.0
  0
LINE
  5
68D6
330
6288
100
AcDbEntity
  8
YKK_A1
100
AcDbLine
 10
12157.42612219
 20
12611.93623289
 30
0.0
 11
12157.42612219
 21
11897.53627547
 31
0.0
  0
LINE
  5
68D7
330
6288
100
AcDbEntity
  8
YKK_A1
100
AcDbLine
 10
12153.42612243
 20
12611.93623289
 30
0.0
 11
12153.42612243
 21
11897.53627547
 31
0.0
  0
LINE
  5
68D8
330
6288
100
AcDbEntity
  8
YKK_A1
  6
NITENSAP
100
AcDbLine
 10
12629.82609403
 20
12789.93622228
 30
0.0
 11
13069.42606783
 21
11857.53627785
 31
0.0
  0
ARC
  5
68D9
330
6288
100
AcDbEntity
  8
YKK_A1
100
AcDbCircle
 10
12684.82609075
 20
11824.93627979
 30
0.0
 40
7.499999448165172
100
AcDbArc
 50
128.68099976
 51
231.31898499
  0
LINE
  5
68DA
330
6288
100
AcDbEntity
  8
YKK_A1
  6
ITTENSAP
100
AcDbLine
 10
12629.82609403
 20
11824.93627979
 30
0.0
 11
12739.82608748
 21
11824.93627979
 31
0.0
  0
CIRCLE
  5
68DB
330
6288
100
AcDbEntity
  8
YKK_A1
100
AcDbCircle
 10
12684.82609075
 20
11824.93627979
 30
0.0
 40
28.00000012698984
  0
CIRCLE
  5
68DC
330
6288
100
AcDbEntity
  8
YKK_A1
100
AcDbCircle
 10
12684.82609075
 20
11824.93627979
 30
0.0
 40
28.99999759282533
  0
CIRCLE
  5
68DD
330
6288
100
AcDbEntity
  8
YKK_A1
100
AcDbCircle
 10
12684.82609075
 20
11824.93627979
 30
0.0
 40
37.99999665722356
  0
LINE
  5
68DE
330
6288
100
AcDbEntity
  8
YKK_A1
100
AcDbLine
 10
12160.82612199
 20
11897.53627547
 30
0.0
 11
12160.82612199
 21
11817.53628023
 31
0.0
  0
LINE
  5
68DF
330
6288
100
AcDbEntity
  8
YKK_A1
100
AcDbLine
 10
12149.82612264
 20
11817.53628023
 30
0.0
 11
12149.82612264
 21
11897.53627547
 31
0.0
  0
LINE
  5
68E0
330
6288
100
AcDbEntity
  8
YKK_A1
100
AcDbLine
 10
12149.82612264
 20
11857.53627785
 30
0.0
 11
12160.82612199
 21
11857.53627785
 31
0.0
  0
LINE
  5
68E1
330
6288
100
AcDbEntity
  8
YKK_A1
100
AcDbLine
 10
12160.82612199
 20
11817.53628023
 30
0.0
 11
12149.82612264
 21
11817.53628023
 31
0.0
  0
LINE
  5
68E2
330
6288
100
AcDbEntity
  8
YKK_A1
100
AcDbLine
 10
12149.82612264
 20
11897.53627547
 30
0.0
 11
12160.82612199
 21
11897.53627547
 31
0.0
  0
LINE
  5
68E3
330
6288
100
AcDbEntity
  8
YKK_A1
  6
ITTENSAP
100
AcDbLine
 10
12666.82609183
 20
11834.9362792
 30
0.0
 11
12666.82609183
 21
11814.93628039
 31
0.0
  0
LINE
  5
68E4
330
6288
100
AcDbEntity
  8
YKK_A1
100
AcDbLine
 10
12667.82609177
 20
11821.13628002
 30
0.0
 11
12665.82609189
 21
11821.13628002
 31
0.0
  0
LINE
  5
68E5
330
6288
100
AcDbEntity
  8
YKK_A1
100
AcDbLine
 10
12667.82609177
 20
11828.73627957
 30
0.0
 11
12665.82609189
 21
11828.73627957
 31
0.0
  0
LINE
  5
68E6
330
6288
100
AcDbEntity
  8
YKK_A1
100
AcDbLine
 10
12667.82609177
 20
11829.9362795
 30
0.0
 11
12667.82609177
 21
11820.13628008
 31
0.0
  0
LINE
  5
68E7
330
6288
100
AcDbEntity
  8
YKK_A1
100
AcDbLine
 10
12665.82609189
 20
11829.9362795
 30
0.0
 11
12665.82609189
 21
11820.13628008
 31
0.0
  0
LINE
  5
68E8
330
6288
100
AcDbEntity
  8
YKK_A1
  6
ITTENSAP
100
AcDbLine
 10
12559.82609821
 20
11814.93628039
 30
0.0
 11
12559.82609821
 21
11834.9362792
 31
0.0
  0
LINE
  5
68E9
330
6288
100
AcDbEntity
  8
YKK_A1
100
AcDbLine
 10
12558.82609826
 20
11828.73627957
 30
0.0
 11
12560.82609815
 21
11828.73627957
 31
0.0
  0
LINE
  5
68EA
330
6288
100
AcDbEntity
  8
YKK_A1
100
AcDbLine
 10
12558.82609826
 20
11821.13628002
 30
0.0
 11
12560.82609815
 21
11821.13628002
 31
0.0
  0
LINE
  5
68EB
330
6288
100
AcDbEntity
  8
YKK_A1
100
AcDbLine
 10
12558.82609826
 20
11820.13628008
 30
0.0
 11
12558.82609826
 21
11829.9362795
 31
0.0
  0
LINE
  5
68EC
330
6288
100
AcDbEntity
  8
YKK_A1
100
AcDbLine
 10
12560.82609815
 20
11820.13628008
 30
0.0
 11
12560.82609815
 21
11829.9362795
 31
0.0
  0
ARC
  5
68ED
330
6288
100
AcDbEntity
  8
YKK_A1
100
AcDbCircle
 10
12787.22608465
 20
11824.73627981
 30
0.0
 40
249.9999952753182
100
AcDbArc
 50
180.0
 51
184.46598816
  0
ARC
  5
68EE
330
6288
100
AcDbEntity
  8
YKK_A1
100
AcDbCircle
 10
12787.22608465
 20
11825.13627978
 30
0.0
 40
249.9999952753182
100
AcDbArc
 50
175.53399658
 51
180.0
  0
ARC
  5
68EF
330
6288
100
AcDbEntity
  8
YKK_A1
100
AcDbCircle
 10
12539.8260994
 20
11850.33627828
 30
0.0
 40
1.49999995797303
100
AcDbArc
 50
94.74198914
 51
175.55499268
  0
ARC
  5
68F0
330
6288
100
AcDbEntity
  8
YKK_A1
100
AcDbCircle
 10
12544.02609915
 20
11850.33627828
 30
0.0
 40
1.49999995797303
100
AcDbArc
 50
4.44499207
 51
85.25799561
  0
ARC
  5
68F1
330
6288
100
AcDbEntity
  8
YKK_A1
100
AcDbCircle
 10
12296.62611389
 20
11825.13627978
 30
0.0
 40
249.9999952753182
100
AcDbArc
 50
0.0
 51
4.46598816
  0
ARC
  5
68F2
330
6288
100
AcDbEntity
  8
YKK_A1
100
AcDbCircle
 10
12296.62611389
 20
11824.73627981
 30
0.0
 40
249.9999952753182
100
AcDbArc
 50
355.53399658
 51
0.0
  0
ARC
  5
68F3
330
6288
100
AcDbEntity
  8
YKK_A1
100
AcDbCircle
 10
12541.82609928
 20
11824.93627979
 30
0.0
 40
7.499999448165172
100
AcDbArc
 50
128.68099976
 51
231.31898499
  0
ARC
  5
68F4
330
6288
100
AcDbEntity
  8
YKK_A1
100
AcDbCircle
 10
12541.82609928
 20
11824.93627979
 30
0.0
 40
7.499999448165172
100
AcDbArc
 50
308.68099976
 51
51.31898499
  0
LINE
  5
68F5
330
6288
100
AcDbEntity
  8
YKK_A1
100
AcDbLine
 10
12538.0260995
 20
11805.13628097
 30
0.0
 11
12538.42609948
 21
11799.53628131
 31
0.0
  0
LINE
  5
68F6
330
6288
100
AcDbEntity
  8
YKK_A1
100
AcDbLine
 10
12537.22609955
 20
11825.13627978
 30
0.0
 11
12537.22609955
 21
11824.73627981
 31
0.0
  0
LINE
  5
68F7
330
6288
100
AcDbEntity
  8
YKK_A1
100
AcDbLine
 10
12538.42609948
 20
11850.33627828
 30
0.0
 11
12538.0260995
 21
11844.73627861
 31
0.0
  0
LINE
  5
68F8
330
6288
100
AcDbEntity
  8
YKK_A1
100
AcDbLine
 10
12544.02609915
 20
11851.7362782
 30
0.0
 11
12539.8260994
 21
11851.7362782
 31
0.0
  0
LINE
  5
68F9
330
6288
100
AcDbEntity
  8
YKK_A1
100
AcDbLine
 10
12545.82609904
 20
11844.73627861
 30
0.0
 11
12545.42609906
 21
11850.33627828
 31
0.0
  0
LINE
  5
68FA
330
6288
100
AcDbEntity
  8
YKK_A1
100
AcDbLine
 10
12546.62609899
 20
11824.73627981
 30
0.0
 11
12546.62609899
 21
11825.13627978
 31
0.0
  0
LINE
  5
68FB
330
6288
100
AcDbEntity
  8
YKK_A1
100
AcDbLine
 10
12545.42609906
 20
11799.53628131
 30
0.0
 11
12545.82609904
 21
11805.13628097
 31
0.0
  0
LINE
  5
68FC
330
6288
100
AcDbEntity
  8
YKK_A1
  6
ITTENSAP
100
AcDbLine
 10
12486.82610256
 20
11824.93627979
 30
0.0
 11
12596.826096
 21
11824.93627979
 31
0.0
  0
LINE
  5
68FD
330
6288
100
AcDbEntity
  8
YKK_A1
100
AcDbLine
 10
12539.8260994
 20
11798.13628139
 30
0.0
 11
12544.02609915
 21
11798.13628139
 31
0.0
  0
CIRCLE
  5
68FE
330
6288
100
AcDbEntity
  8
YKK_A1
100
AcDbCircle
 10
12541.82609928
 20
11824.93627979
 30
0.0
 40
37.99999665722356
  0
CIRCLE
  5
68FF
330
6288
100
AcDbEntity
  8
YKK_A1
100
AcDbCircle
 10
12541.82609928
 20
11824.93627979
 30
0.0
 40
28.99999759282533
  0
CIRCLE
  5
6900
330
6288
100
AcDbEntity
  8
YKK_A1
100
AcDbCircle
 10
12541.82609928
 20
11824.93627979
 30
0.0
 40
28.00000012698984
  0
ARC
  5
6901
330
6288
100
AcDbEntity
  8
YKK_A1
100
AcDbCircle
 10
12539.8260994
 20
11799.53628131
 30
0.0
 40
1.49999995797303
100
AcDbArc
 50
184.48098755
 51
265.29598999
  0
ARC
  5
6902
330
6288
100
AcDbEntity
  8
YKK_A1
100
AcDbCircle
 10
12544.02609915
 20
11799.53628131
 30
0.0
 40
1.49999995797303
100
AcDbArc
 50
274.70399475
 51
355.51899719
  0
LINE
  5
6903
330
6288
100
AcDbEntity
  8
YKK_A1
  6
ITTENSAP
100
AcDbLine
 10
12541.82609928
 20
11769.93628307
 30
0.0
 11
12541.82609928
 21
11879.93627652
 31
0.0
  0
ARC
  5
6904
330
6288
100
AcDbEntity
  8
YKK_A1
100
AcDbCircle
 10
12684.82609075
 20
11824.93627979
 30
0.0
 40
7.499999448165172
100
AcDbArc
 50
308.68099976
 51
51.31898499
  0
ARC
  5
6905
330
6288
100
AcDbEntity
  8
YKK_A1
100
AcDbCircle
 10
12930.22607613
 20
11824.73627981
 30
0.0
 40
249.9999952753182
100
AcDbArc
 50
180.0
 51
184.46598816
  0
ARC
  5
6906
330
6288
100
AcDbEntity
  8
YKK_A1
100
AcDbCircle
 10
12930.22607613
 20
11825.13627978
 30
0.0
 40
249.9999952753182
100
AcDbArc
 50
175.53399658
 51
180.0
  0
ARC
  5
6907
330
6288
100
AcDbEntity
  8
YKK_A1
100
AcDbCircle
 10
12682.82609087
 20
11850.33627828
 30
0.0
 40
1.49999995797303
100
AcDbArc
 50
94.74198914
 51
175.55499268
  0
ARC
  5
6908
330
6288
100
AcDbEntity
  8
YKK_A1
100
AcDbCircle
 10
12687.02609062
 20
11850.33627828
 30
0.0
 40
1.49999995797303
100
AcDbArc
 50
4.44499207
 51
85.25799561
  0
ARC
  5
6909
330
6288
100
AcDbEntity
  8
YKK_A1
100
AcDbCircle
 10
12439.62610537
 20
11825.13627978
 30
0.0
 40
249.9999952753182
100
AcDbArc
 50
0.0
 51
4.46598816
  0
ARC
  5
690A
330
6288
100
AcDbEntity
  8
YKK_A1
100
AcDbCircle
 10
12439.62610537
 20
11824.73627981
 30
0.0
 40
249.9999952753182
100
AcDbArc
 50
355.53399658
 51
0.0
  0
LINE
  5
690B
330
6288
100
AcDbEntity
  8
YKK_A1
100
AcDbLine
 10
12681.02609098
 20
11805.13628097
 30
0.0
 11
12681.42609096
 21
11799.53628131
 31
0.0
  0
LINE
  5
690C
330
6288
100
AcDbEntity
  8
YKK_A1
100
AcDbLine
 10
12680.22609103
 20
11825.13627978
 30
0.0
 11
12680.22609103
 21
11824.73627981
 31
0.0
  0
LINE
  5
690D
330
6288
100
AcDbEntity
  8
YKK_A1
100
AcDbLine
 10
12681.42609096
 20
11850.33627828
 30
0.0
 11
12681.02609098
 21
11844.73627861
 31
0.0
  0
LINE
  5
690E
330
6288
100
AcDbEntity
  8
YKK_A1
100
AcDbLine
 10
12687.02609062
 20
11851.7362782
 30
0.0
 11
12682.82609087
 21
11851.7362782
 31
0.0
  0
LINE
  5
690F
330
6288
100
AcDbEntity
  8
YKK_A1
100
AcDbLine
 10
12688.82609052
 20
11844.73627861
 30
0.0
 11
12688.42609054
 21
11850.33627828
 31
0.0
  0
LINE
  5
6910
330
6288
100
AcDbEntity
  8
YKK_A1
100
AcDbLine
 10
12689.62609047
 20
11824.73627981
 30
0.0
 11
12689.62609047
 21
11825.13627978
 31
0.0
  0
LINE
  5
6911
330
6288
100
AcDbEntity
  8
YKK_A1
100
AcDbLine
 10
12688.42609054
 20
11799.53628131
 30
0.0
 11
12688.82609052
 21
11805.13628097
 31
0.0
  0
LINE
  5
6912
330
6288
100
AcDbEntity
  8
YKK_A1
100
AcDbLine
 10
12682.82609087
 20
11798.13628139
 30
0.0
 11
12687.02609062
 21
11798.13628139
 31
0.0
  0
ARC
  5
6913
330
6288
100
AcDbEntity
  8
YKK_A1
100
AcDbCircle
 10
12682.82609087
 20
11799.53628131
 30
0.0
 40
1.49999995797303
100
AcDbArc
 50
184.48098755
 51
265.29598999
  0
ARC
  5
6914
330
6288
100
AcDbEntity
  8
YKK_A1
100
AcDbCircle
 10
12687.02609062
 20
11799.53628131
 30
0.0
 40
1.49999995797303
100
AcDbArc
 50
274.70399475
 51
355.51899719
  0
LINE
  5
6915
330
6288
100
AcDbEntity
  8
YKK_A1
  6
ITTENSAP
100
AcDbLine
 10
12684.82609075
 20
11769.93628307
 30
0.0
 11
12684.82609075
 21
11879.93627652
 31
0.0
  0
LINE
  5
6916
330
6288
100
AcDbEntity
  8
YKK_A1
100
AcDbLine
 10
13076.82606739
 20
11817.53628023
 30
0.0
 11
13076.82606739
 21
11897.53627547
 31
0.0
  0
LINE
  5
6917
330
6288
100
AcDbEntity
  8
YKK_A1
100
AcDbLine
 10
13065.82606805
 20
11897.53627547
 30
0.0
 11
13065.82606805
 21
11817.53628023
 31
0.0
  0
LINE
  5
6918
330
6288
100
AcDbEntity
  8
YKK_A1
100
AcDbLine
 10
13076.82606739
 20
11857.53627785
 30
0.0
 11
13065.82606805
 21
11857.53627785
 31
0.0
  0
LINE
  5
6919
330
6288
100
AcDbEntity
  8
YKK_A1
100
AcDbLine
 10
13065.82606805
 20
11817.53628023
 30
0.0
 11
13076.82606739
 21
11817.53628023
 31
0.0
  0
LINE
  5
691A
330
6288
100
AcDbEntity
  8
YKK_A1
100
AcDbLine
 10
13076.82606739
 20
11897.53627547
 30
0.0
 11
13065.82606805
 21
11897.53627547
 31
0.0
  0
LINE
  5
691B
330
6288
100
AcDbEntity
  8
YKK_A1
100
AcDbLine
 10
13098.4260661
 20
12864.93621781
 30
0.0
 11
12128.42612392
 21
12864.93621781
 31
0.0
  0
LINE
  5
691C
330
6288
100
AcDbEntity
  8
YKK_A1
100
AcDbLine
 10
12153.42612243
 20
12839.9362193
 30
0.0
 11
13073.42606759
 21
12839.9362193
 31
0.0
  0
LINE
  5
691D
330
6288
100
AcDbEntity
  8
YKK_A1
100
AcDbLine
 10
12629.82609403
 20
12789.93622228
 30
0.0
 11
13069.42606783
 21
12789.93622228
 31
0.0
  0
CIRCLE
  5
691E
330
6288
100
AcDbEntity
  8
YKK_A1
100
AcDbCircle
 10
12377.22610909
 20
12679.93622883
 30
0.0
 40
74.99999311461178
  0
LINE
  5
691F
330
6288
100
AcDbEntity
  8
YKK_A1
100
AcDbLine
 10
12153.42612243
 20
12864.93621781
 30
0.0
 11
12153.42612243
 21
12691.93622812
 31
0.0
  0
LINE
  5
6920
330
6288
100
AcDbEntity
  8
YKK_A1
100
AcDbLine
 10
12157.42612219
 20
12789.93622228
 30
0.0
 11
12157.42612219
 21
12691.93622812
 31
0.0
  0
LINE
  5
6921
330
6288
100
AcDbEntity
  8
YKK_A1
100
AcDbLine
 10
12149.82612264
 20
12691.93622812
 30
0.0
 11
12160.82612199
 21
12691.93622812
 31
0.0
  0
LINE
  5
6922
330
6288
100
AcDbEntity
  8
YKK_A1
100
AcDbLine
 10
12149.82612264
 20
12651.9362305
 30
0.0
 11
12160.82612199
 21
12651.9362305
 31
0.0
  0
LINE
  5
6923
330
6288
100
AcDbEntity
  8
YKK_A1
100
AcDbLine
 10
12160.82612199
 20
12611.93623289
 30
0.0
 11
12149.82612264
 21
12611.93623289
 31
0.0
  0
LINE
  5
6924
330
6288
100
AcDbEntity
  8
YKK_A1
100
AcDbLine
 10
12160.82612199
 20
12691.93622812
 30
0.0
 11
12160.82612199
 21
12611.93623289
 31
0.0
  0
LINE
  5
6925
330
6288
100
AcDbEntity
  8
YKK_A1
100
AcDbLine
 10
12149.82612264
 20
12611.93623289
 30
0.0
 11
12149.82612264
 21
12691.93622812
 31
0.0
  0
LINE
  5
6926
330
6288
100
AcDbEntity
  8
YKK_A1
100
AcDbLine
 10
12596.826096
 20
12789.93622228
 30
0.0
 11
12157.42612219
 21
12789.93622228
 31
0.0
  0
LINE
  5
6927
330
6288
100
AcDbEntity
  8
YKK_A1
100
AcDbLine
 10
12394.62610805
 20
12839.9362193
 30
0.0
 11
12394.62610805
 21
12789.93622228
 31
0.0
  0
LINE
  5
6928
330
6288
100
AcDbEntity
  8
YKK_A1
100
AcDbLine
 10
12359.62611014
 20
12839.9362193
 30
0.0
 11
12359.62611014
 21
12789.93622228
 31
0.0
  0
LINE
  5
6929
330
6288
100
AcDbEntity
  8
YKK_A1
100
AcDbLine
 10
13073.42606759
 20
12691.93622812
 30
0.0
 11
13073.42606759
 21
12864.93621781
 31
0.0
  0
LINE
  5
692A
330
6288
100
AcDbEntity
  8
YKK_A1
100
AcDbLine
 10
13069.42606783
 20
12789.93622228
 30
0.0
 11
13069.42606783
 21
12691.93622812
 31
0.0
  0
CIRCLE
  5
692B
330
6288
100
AcDbEntity
  8
YKK_A1
100
AcDbCircle
 10
12849.62608093
 20
12679.93622883
 30
0.0
 40
74.99999311461178
  0
LINE
  5
692C
330
6288
100
AcDbEntity
  8
YKK_A1
100
AcDbLine
 10
13076.82606739
 20
12691.93622812
 30
0.0
 11
13065.82606805
 21
12691.93622812
 31
0.0
  0
LINE
  5
692D
330
6288
100
AcDbEntity
  8
YKK_A1
100
AcDbLine
 10
13076.82606739
 20
12651.9362305
 30
0.0
 11
13065.82606805
 21
12651.9362305
 31
0.0
  0
LINE
  5
692E
330
6288
100
AcDbEntity
  8
YKK_A1
100
AcDbLine
 10
13065.82606805
 20
12611.93623289
 30
0.0
 11
13076.82606739
 21
12611.93623289
 31
0.0
  0
LINE
  5
692F
330
6288
100
AcDbEntity
  8
YKK_A1
100
AcDbLine
 10
13076.82606739
 20
12611.93623289
 30
0.0
 11
13076.82606739
 21
12691.93622812
 31
0.0
  0
LINE
  5
6930
330
6288
100
AcDbEntity
  8
YKK_A1
100
AcDbLine
 10
13065.82606805
 20
12691.93622812
 30
0.0
 11
13065.82606805
 21
12611.93623289
 31
0.0
  0
LINE
  5
6931
330
6288
100
AcDbEntity
  8
YKK_A1
100
AcDbLine
 10
12867.22607988
 20
12839.9362193
 30
0.0
 11
12867.22607988
 21
12789.93622228
 31
0.0
  0
LINE
  5
6932
330
6288
100
AcDbEntity
  8
YKK_A1
100
AcDbLine
 10
12832.22608197
 20
12839.9362193
 30
0.0
 11
12832.22608197
 21
12789.93622228
 31
0.0
  0
LINE
  5
6933
330
6288
100
AcDbEntity
  8
YKK_A1
100
AcDbLine
 10
13098.4260661
 20
12829.93621989
 30
0.0
 11
13087.31042959
 21
12829.93621989
 31
0.0
  0
LINE
  5
6935
330
6288
100
AcDbEntity
  8
YKK_N1
  6
Continuous
100
AcDbLine
 10
13313.42613595
 20
12743.33343211
 30
0.0
 11
13263.42612714
 21
12829.93598643
 31
0.0
  0
LINE
  5
6976
330
6288
100
AcDbEntity
  8
YKK_N1
  6
Continuous
100
AcDbLine
 10
13138.42588491
 20
16917.93630472
 30
0.0
 11
13263.42594595
 21
16917.93630472
 31
0.0
  0
LINE
  5
6977
330
6288
100
AcDbEntity
  8
YKK_N1
  6
Continuous
100
AcDbLine
 10
13263.42594595
 20
16917.93630472
 30
0.0
 11
13213.42594595
 21
17004.53885904
 31
0.0
  0
LINE
  5
6978
330
6288
100
AcDbEntity
  8
YKK_N1
100
AcDbLine
 10
13213.42594595
 20
17004.53885904
 30
0.0
 11
13313.42595476
 21
17004.53885904
 31
0.0
  0
LINE
  5
6979
330
6288
100
AcDbEntity
  8
YKK_N1
  6
Continuous
100
AcDbLine
 10
12163.42598123
 20
16682.93636576
 30
0.0
 11
13063.42596597
 21
16682.93636576
 31
0.0
  0
TEXT
  5
697A
330
6288
100
AcDbEntity
  8
YKK_N1
  6
Continuous
100
AcDbText
 10
12473.4259736
 20
16694.93636576
 30
0.0
 40
60.0
  1
W=900
 72
     4
 11
12613.4259736
 21
16724.93636576
 31
0.0
100
AcDbText
  0
LINE
  5
697B
330
6288
100
AcDbEntity
  8
YKK_A1
100
AcDbLine
 10
13044.42588758
 20
17006.93622179
 30
0.0
 11
12654.82591081
 21
17006.93622179
 31
0.0
  0
LINE
  5
697C
330
6288
100
AcDbEntity
  8
YKK_A1
100
AcDbLine
 10
12654.82591081
 20
16937.9362259
 30
0.0
 11
13044.42588758
 21
16937.9362259
 31
0.0
  0
LINE
  5
697D
330
6288
100
AcDbEntity
  8
YKK_A1
100
AcDbLine
 10
13069.42588609
 20
16912.93622739
 30
0.0
 11
12629.8259123
 21
16912.93622739
 31
0.0
  0
LINE
  5
697E
330
6288
100
AcDbEntity
  8
YKK_A1
100
AcDbLine
 10
13073.42588586
 20
16907.93622769
 30
0.0
 11
12153.42594069
 21
16907.93622769
 31
0.0
  0
LINE
  5
697F
330
6288
100
AcDbEntity
  8
YKK_A1
100
AcDbLine
 10
12128.42594218
 20
16882.93622918
 30
0.0
 11
13098.42588437
 21
16882.93622918
 31
0.0
  0
LINE
  5
6980
330
6288
100
AcDbEntity
  8
YKK_N1
  6
Continuous
100
AcDbLine
 10
12163.42598123
 20
16807.93636576
 30
0.0
 11
12163.42598123
 21
16682.93636576
 31
0.0
  0
LINE
  5
6981
330
6288
100
AcDbEntity
  8
YKK_N1
  6
Continuous
100
AcDbLine
 10
12163.42598123
 20
16682.93636576
 30
0.0
 11
12250.02853555
 21
16732.93636576
 31
0.0
  0
LINE
  5
6982
330
6288
100
AcDbEntity
  8
YKK_N1
100
AcDbLine
 10
12250.02853555
 20
16732.93636576
 30
0.0
 11
12250.02853555
 21
16632.93635695
 31
0.0
  0
LINE
  5
6983
330
6288
100
AcDbEntity
  8
YKK_N1
  6
Continuous
100
AcDbLine
 10
12250.02853555
 20
16632.93635695
 30
0.0
 11
12163.42598123
 21
16682.93636576
 31
0.0
  0
LINE
  5
6984
330
6288
100
AcDbEntity
  8
YKK_A1
100
AcDbLine
 10
12157.42594045
 20
16912.93622739
 30
0.0
 11
12596.82591426
 21
16912.93622739
 31
0.0
  0
LINE
  5
6985
330
6288
100
AcDbEntity
  8
YKK_A1
100
AcDbLine
 10
12571.82591575
 20
16937.9362259
 30
0.0
 11
12182.42593896
 21
16937.9362259
 31
0.0
  0
LINE
  5
6986
330
6288
100
AcDbEntity
  8
YKK_A1
100
AcDbLine
 10
12182.42593896
 20
17006.93622179
 30
0.0
 11
12571.82591575
 21
17006.93622179
 31
0.0
  0
LINE
  5
6987
330
6288
100
AcDbEntity
  8
YKK_A1
100
AcDbLine
 10
12149.82594091
 20
17010.93622155
 30
0.0
 11
12149.82594091
 21
17090.93621678
 31
0.0
  0
LINE
  5
6988
330
6288
100
AcDbEntity
  8
YKK_A1
100
AcDbLine
 10
12160.82594025
 20
17090.93621678
 30
0.0
 11
12160.82594025
 21
17010.93622155
 31
0.0
  0
LINE
  5
6989
330
6288
100
AcDbEntity
  8
YKK_A1
100
AcDbLine
 10
12157.42594045
 20
17010.93622155
 30
0.0
 11
12157.42594045
 21
16912.93622739
 31
0.0
  0
LINE
  5
698A
330
6288
100
AcDbEntity
  8
YKK_A1
100
AcDbLine
 10
12182.42593896
 20
16937.9362259
 30
0.0
 11
12182.42593896
 21
17006.93622179
 31
0.0
  0
LINE
  5
698B
330
6288
100
AcDbEntity
  8
YKK_A1
100
AcDbLine
 10
12160.82594025
 20
17010.93622155
 30
0.0
 11
12149.82594091
 21
17010.93622155
 31
0.0
  0
LINE
  5
698C
330
6288
100
AcDbEntity
  8
YKK_A1
100
AcDbLine
 10
12160.82594025
 20
17050.93621917
 30
0.0
 11
12149.82594091
 21
17050.93621917
 31
0.0
  0
LINE
  5
698D
330
6288
100
AcDbEntity
  8
YKK_A1
100
AcDbLine
 10
12149.82594091
 20
17090.93621678
 30
0.0
 11
12160.82594025
 21
17090.93621678
 31
0.0
  0
LINE
  5
698E
330
6288
100
AcDbEntity
  8
YKK_A1
100
AcDbLine
 10
12163.4259401
 20
16882.93622918
 30
0.0
 11
12163.4259401
 21
16886.36715755
 31
0.0
  0
LINE
  5
698F
330
6288
100
AcDbEntity
  8
YKK_A1
100
AcDbLine
 10
12153.42594069
 20
17010.93622155
 30
0.0
 11
12153.42594069
 21
16882.93622918
 31
0.0
  0
LINE
  5
6990
330
6288
100
AcDbEntity
  8
YKK_A1
100
AcDbLine
 10
12654.82591081
 20
17006.93622179
 30
0.0
 11
12654.82591081
 21
16937.9362259
 31
0.0
  0
LINE
  5
6991
330
6288
100
AcDbEntity
  8
YKK_A1
100
AcDbLine
 10
12571.82591575
 20
17006.93622179
 30
0.0
 11
12571.82591575
 21
16937.9362259
 31
0.0
  0
LINE
  5
6992
330
6288
100
AcDbEntity
  8
YKK_N1
  6
Continuous
100
AcDbLine
 10
13063.42596597
 20
16807.93636576
 30
0.0
 11
13063.42596597
 21
16682.93636576
 31
0.0
  0
LINE
  5
6993
330
6288
100
AcDbEntity
  8
YKK_N1
100
AcDbLine
 10
12976.82341165
 20
16732.93636576
 30
0.0
 11
12976.82341165
 21
16632.93635695
 31
0.0
  0
LINE
  5
6994
330
6288
100
AcDbEntity
  8
YKK_N1
  6
Continuous
100
AcDbLine
 10
13063.42596597
 20
16682.93636576
 30
0.0
 11
12976.82341165
 21
16732.93636576
 31
0.0
  0
LINE
  5
6995
330
6288
100
AcDbEntity
  8
YKK_N1
  6
Continuous
100
AcDbLine
 10
12976.82341165
 20
16632.93635695
 30
0.0
 11
13063.42596597
 21
16682.93636576
 31
0.0
  0
LINE
  5
6996
330
6288
100
AcDbEntity
  8
YKK_A1
100
AcDbLine
 10
13065.82588631
 20
17010.93622155
 30
0.0
 11
13065.82588631
 21
17090.93621678
 31
0.0
  0
LINE
  5
6997
330
6288
100
AcDbEntity
  8
YKK_A1
100
AcDbLine
 10
13076.82588565
 20
17090.93621678
 30
0.0
 11
13076.82588565
 21
17010.93622155
 31
0.0
  0
LINE
  5
6998
330
6288
100
AcDbEntity
  8
YKK_A1
100
AcDbLine
 10
13069.42588609
 20
17010.93622155
 30
0.0
 11
13069.42588609
 21
16912.93622739
 31
0.0
  0
LINE
  5
6999
330
6288
100
AcDbEntity
  8
YKK_A1
100
AcDbLine
 10
13098.42588437
 20
16917.9362271
 30
0.0
 11
13086.55577111
 21
16917.9362271
 31
0.0
  0
LINE
  5
699A
330
6288
100
AcDbEntity
  8
YKK_A1
100
AcDbLine
 10
13076.82588565
 20
17010.93622155
 30
0.0
 11
13065.82588631
 21
17010.93622155
 31
0.0
  0
LINE
  5
699B
330
6288
100
AcDbEntity
  8
YKK_A1
100
AcDbLine
 10
13076.82588565
 20
17050.93621917
 30
0.0
 11
13065.82588631
 21
17050.93621917
 31
0.0
  0
LINE
  5
699C
330
6288
100
AcDbEntity
  8
YKK_A1
100
AcDbLine
 10
13044.42588758
 20
16937.9362259
 30
0.0
 11
13044.42588758
 21
17006.93622179
 31
0.0
  0
LINE
  5
699D
330
6288
100
AcDbEntity
  8
YKK_A1
100
AcDbLine
 10
13065.82588631
 20
17090.93621678
 30
0.0
 11
13076.82588565
 21
17090.93621678
 31
0.0
  0
LINE
  5
699E
330
6288
100
AcDbEntity
  8
YKK_A1
100
AcDbLine
 10
13063.42588645
 20
16882.93622918
 30
0.0
 11
13063.42588645
 21
16886.35669142
 31
0.0
  0
LINE
  5
699F
330
6288
100
AcDbEntity
  8
YKK_A1
100
AcDbLine
 10
13073.42588586
 20
16882.93622918
 30
0.0
 11
13073.42588586
 21
17010.93622155
 31
0.0
  0
LINE
  5
69A2
330
6288
100
AcDbEntity
  8
YKK_N1
  6
Continuous
100
AcDbLine
 10
13313.42595476
 20
17004.53885904
 30
0.0
 11
13263.42594595
 21
16917.93630472
 31
0.0
  0
LINE
  5
69B6
330
6288
100
AcDbEntity
  8
YKK_A1
100
AcDbLine
 10
13073.42588586
 20
17914.93616767
 30
0.0
 11
13073.42588586
 21
18852.93611176
 31
0.0
  0
LINE
  5
69B7
330
6288
100
AcDbEntity
  8
YKK_A1
100
AcDbLine
 10
12153.42594069
 20
18852.93611176
 30
0.0
 11
12153.42594069
 21
17914.93616767
 31
0.0
  0
TEXT
  5
69B8
330
6288
100
AcDbEntity
  8
YKK_N1
  6
Continuous
100
AcDbText
 10
13251.4259525
 20
17717.93633655
 30
0.0
 40
60.0
  1
H=1900
 50
90.0000025
 72
     4
 11
13221.42594595
 21
17867.93633524
 31
0.0
100
AcDbText
  0
LINE
  5
69B9
330
6288
100
AcDbEntity
  8
YKK_N1
  6
Continuous
100
AcDbLine
 10
13138.42588491
 20
18817.93636576
 30
0.0
 11
13263.42594595
 21
18817.93636576
 31
0.0
  0
LINE
  5
69BA
330
6288
100
AcDbEntity
  8
YKK_N1
100
AcDbLine
 10
13213.42594595
 20
18731.33381143
 30
0.0
 11
13313.42595476
 21
18731.33381143
 31
0.0
  0
LINE
  5
69BB
330
6288
100
AcDbEntity
  8
YKK_N1
  6
Continuous
100
AcDbLine
 10
13263.42594595
 20
18817.93636576
 30
0.0
 11
13213.42594595
 21
18731.33381143
 31
0.0
  0
LINE
  5
69BC
330
6288
100
AcDbEntity
  8
YKK_A1
100
AcDbLine
 10
13013.42588943
 20
18713.93612005
 30
0.0
 11
13013.42588943
 21
18015.93616165
 31
0.0
  0
LINE
  5
69BD
330
6288
100
AcDbEntity
  8
YKK_A1
100
AcDbLine
 10
13003.42589003
 20
18688.93612154
 30
0.0
 11
13003.42589003
 21
18015.93616165
 31
0.0
  0
LINE
  5
69BE
330
6288
100
AcDbEntity
  8
YKK_A1
100
AcDbLine
 10
12213.42593712
 20
18015.93616165
 30
0.0
 11
12213.42593712
 21
18713.93612005
 31
0.0
  0
LINE
  5
69BF
330
6288
100
AcDbEntity
  8
YKK_A1
100
AcDbLine
 10
12223.42593652
 20
18015.93616165
 30
0.0
 11
12223.42593652
 21
18688.93612154
 31
0.0
  0
LINE
  5
69C0
330
6288
100
AcDbEntity
  8
YKK_A1
100
AcDbLine
 10
12695.82590836
 20
18015.93616165
 30
0.0
 11
12695.82590836
 21
18688.93612154
 31
0.0
  0
LINE
  5
69C1
330
6288
100
AcDbEntity
  8
YKK_A1
100
AcDbLine
 10
12685.82590896
 20
18015.93616165
 30
0.0
 11
12685.82590896
 21
18713.93612005
 31
0.0
  0
LINE
  5
69C2
330
6288
100
AcDbEntity
  8
YKK_A1
100
AcDbLine
 10
12530.8259182
 20
18688.93612154
 30
0.0
 11
12530.8259182
 21
18015.93616165
 31
0.0
  0
LINE
  5
69C3
330
6288
100
AcDbEntity
  8
YKK_A1
100
AcDbLine
 10
12540.8259176
 20
18713.93612005
 30
0.0
 11
12540.8259176
 21
18015.93616165
 31
0.0
  0
LINE
  5
69C4
330
6288
100
AcDbEntity
  8
YKK_A1
100
AcDbLine
 10
12625.82591254
 20
18015.93616165
 30
0.0
 11
12685.82590896
 21
18015.93616165
 31
0.0
  0
ARC
  5
69C5
330
6288
100
AcDbEntity
  8
YKK_A1
100
AcDbCircle
 10
12684.82590902
 20
17512.93619163
 30
0.0
 40
7.499999448165172
100
AcDbArc
 50
128.68099976
 51
231.31898499
  0
CIRCLE
  5
69C6
330
6288
100
AcDbEntity
  8
YKK_A1
100
AcDbCircle
 10
12684.82590902
 20
17512.93619163
 30
0.0
 40
37.99999665722356
  0
LINE
  5
69C7
330
6288
100
AcDbEntity
  8
YKK_A1
  6
ITTENSAP
100
AcDbLine
 10
12629.8259123
 20
17512.93619163
 30
0.0
 11
12739.82590574
 21
17512.93619163
 31
0.0
  0
CIRCLE
  5
69C8
330
6288
100
AcDbEntity
  8
YKK_A1
100
AcDbCircle
 10
12684.82590902
 20
17512.93619163
 30
0.0
 40
28.00000012698984
  0
CIRCLE
  5
69C9
330
6288
100
AcDbEntity
  8
YKK_A1
100
AcDbCircle
 10
12684.82590902
 20
17512.93619163
 30
0.0
 40
28.99999759282533
  0
LINE
  5
69CA
330
6288
100
AcDbEntity
  8
YKK_A1
100
AcDbLine
 10
12629.8259123
 20
18012.93616183
 30
0.0
 11
13069.42588609
 21
18012.93616183
 31
0.0
  0
LINE
  5
69CB
330
6288
100
AcDbEntity
  8
YKK_A1
  6
NITENSAP
100
AcDbLine
 10
12629.8259123
 20
18012.93616183
 30
0.0
 11
13069.42588609
 21
17462.93619461
 31
0.0
  0
LINE
  5
69CC
330
6288
100
AcDbEntity
  8
YKK_A1
  6
NITENSAP
100
AcDbLine
 10
12596.82591426
 20
18012.93616183
 30
0.0
 11
12157.42594045
 21
17462.93619461
 31
0.0
  0
LINE
  5
69CD
330
6288
100
AcDbEntity
  8
YKK_A1
  6
ITTENSAP
100
AcDbLine
 10
12559.82591647
 20
17502.93619223
 30
0.0
 11
12559.82591647
 21
17522.93619103
 31
0.0
  0
LINE
  5
69CE
330
6288
100
AcDbEntity
  8
YKK_A1
100
AcDbLine
 10
12558.82591653
 20
17516.7361914
 30
0.0
 11
12560.82591641
 21
17516.7361914
 31
0.0
  0
LINE
  5
69CF
330
6288
100
AcDbEntity
  8
YKK_A1
100
AcDbLine
 10
12558.82591653
 20
17509.13619186
 30
0.0
 11
12560.82591641
 21
17509.13619186
 31
0.0
  0
LINE
  5
69D0
330
6288
100
AcDbEntity
  8
YKK_A1
100
AcDbLine
 10
12558.82591653
 20
17508.13619192
 30
0.0
 11
12558.82591653
 21
17517.93619133
 31
0.0
  0
LINE
  5
69D1
330
6288
100
AcDbEntity
  8
YKK_A1
100
AcDbLine
 10
12560.82591641
 20
17508.13619192
 30
0.0
 11
12560.82591641
 21
17517.93619133
 31
0.0
  0
LINE
  5
69D2
330
6288
100
AcDbEntity
  8
YKK_A1
  6
ITTENSAP
100
AcDbLine
 10
12666.82591009
 20
17522.93619103
 30
0.0
 11
12666.82591009
 21
17502.93619223
 31
0.0
  0
LINE
  5
69D3
330
6288
100
AcDbEntity
  8
YKK_A1
100
AcDbLine
 10
12667.82591003
 20
17509.13619186
 30
0.0
 11
12665.82591015
 21
17509.13619186
 31
0.0
  0
LINE
  5
69D4
330
6288
100
AcDbEntity
  8
YKK_A1
100
AcDbLine
 10
12667.82591003
 20
17516.7361914
 30
0.0
 11
12665.82591015
 21
17516.7361914
 31
0.0
  0
LINE
  5
69D5
330
6288
100
AcDbEntity
  8
YKK_A1
100
AcDbLine
 10
12667.82591003
 20
17517.93619133
 30
0.0
 11
12667.82591003
 21
17508.13619192
 31
0.0
  0
LINE
  5
69D6
330
6288
100
AcDbEntity
  8
YKK_A1
100
AcDbLine
 10
12665.82591015
 20
17517.93619133
 30
0.0
 11
12665.82591015
 21
17508.13619192
 31
0.0
  0
ARC
  5
69D7
330
6288
100
AcDbEntity
  8
YKK_A1
100
AcDbCircle
 10
12539.82591766
 20
17487.53619314
 30
0.0
 40
1.49999995797303
100
AcDbArc
 50
184.48098755
 51
265.29598999
  0
ARC
  5
69D8
330
6288
100
AcDbEntity
  8
YKK_A1
100
AcDbCircle
 10
12787.22590292
 20
17512.73619164
 30
0.0
 40
249.9999952753182
100
AcDbArc
 50
180.0
 51
184.46598816
  0
ARC
  5
69D9
330
6288
100
AcDbEntity
  8
YKK_A1
100
AcDbCircle
 10
12787.22590292
 20
17513.13619162
 30
0.0
 40
249.9999952753182
100
AcDbArc
 50
175.53399658
 51
180.0
  0
ARC
  5
69DA
330
6288
100
AcDbEntity
  8
YKK_A1
100
AcDbCircle
 10
12539.82591766
 20
17538.33619012
 30
0.0
 40
1.49999995797303
100
AcDbArc
 50
94.74198914
 51
175.55499268
  0
ARC
  5
69DB
330
6288
100
AcDbEntity
  8
YKK_A1
100
AcDbCircle
 10
12544.02591741
 20
17538.33619012
 30
0.0
 40
1.49999995797303
100
AcDbArc
 50
4.44499207
 51
85.25799561
  0
ARC
  5
69DC
330
6288
100
AcDbEntity
  8
YKK_A1
100
AcDbCircle
 10
12296.62593216
 20
17513.13619162
 30
0.0
 40
249.9999952753182
100
AcDbArc
 50
0.0
 51
4.46598816
  0
ARC
  5
69DD
330
6288
100
AcDbEntity
  8
YKK_A1
100
AcDbCircle
 10
12296.62593216
 20
17512.73619164
 30
0.0
 40
249.9999952753182
100
AcDbArc
 50
355.53399658
 51
0.0
  0
ARC
  5
69DE
330
6288
100
AcDbEntity
  8
YKK_A1
100
AcDbCircle
 10
12544.02591741
 20
17487.53619314
 30
0.0
 40
1.49999995797303
100
AcDbArc
 50
274.70399475
 51
355.51899719
  0
ARC
  5
69DF
330
6288
100
AcDbEntity
  8
YKK_A1
100
AcDbCircle
 10
12541.82591754
 20
17512.93619163
 30
0.0
 40
7.499999448165172
100
AcDbArc
 50
128.68099976
 51
231.31898499
  0
ARC
  5
69E0
330
6288
100
AcDbEntity
  8
YKK_A1
100
AcDbCircle
 10
12541.82591754
 20
17512.93619163
 30
0.0
 40
7.499999448165172
100
AcDbArc
 50
308.68099976
 51
51.31898499
  0
LINE
  5
69E1
330
6288
100
AcDbEntity
  8
YKK_A1
100
AcDbLine
 10
12539.82591766
 20
17486.13619323
 30
0.0
 11
12544.02591741
 21
17486.13619323
 31
0.0
  0
LINE
  5
69E2
330
6288
100
AcDbEntity
  8
YKK_A1
100
AcDbLine
 10
12538.02591777
 20
17493.13619281
 30
0.0
 11
12538.42591774
 21
17487.53619314
 31
0.0
  0
LINE
  5
69E3
330
6288
100
AcDbEntity
  8
YKK_A1
100
AcDbLine
 10
12537.22591782
 20
17513.13619162
 30
0.0
 11
12537.22591782
 21
17512.73619164
 31
0.0
  0
LINE
  5
69E4
330
6288
100
AcDbEntity
  8
YKK_A1
100
AcDbLine
 10
12538.42591774
 20
17538.33619012
 30
0.0
 11
12538.02591777
 21
17532.73619045
 31
0.0
  0
LINE
  5
69E5
330
6288
100
AcDbEntity
  8
YKK_A1
100
AcDbLine
 10
12544.02591741
 20
17539.73619003
 30
0.0
 11
12539.82591766
 21
17539.73619003
 31
0.0
  0
LINE
  5
69E6
330
6288
100
AcDbEntity
  8
YKK_A1
100
AcDbLine
 10
12545.8259173
 20
17532.73619045
 30
0.0
 11
12545.42591733
 21
17538.33619012
 31
0.0
  0
LINE
  5
69E7
330
6288
100
AcDbEntity
  8
YKK_A1
100
AcDbLine
 10
12546.62591726
 20
17512.73619164
 30
0.0
 11
12546.62591726
 21
17513.13619162
 31
0.0
  0
LINE
  5
69E8
330
6288
100
AcDbEntity
  8
YKK_A1
100
AcDbLine
 10
12545.42591733
 20
17487.53619314
 30
0.0
 11
12545.8259173
 21
17493.13619281
 31
0.0
  0
LINE
  5
69E9
330
6288
100
AcDbEntity
  8
YKK_A1
  6
ITTENSAP
100
AcDbLine
 10
12541.82591754
 20
17457.93619491
 30
0.0
 11
12541.82591754
 21
17567.93618835
 31
0.0
  0
CIRCLE
  5
69EA
330
6288
100
AcDbEntity
  8
YKK_A1
100
AcDbCircle
 10
12541.82591754
 20
17512.93619163
 30
0.0
 40
37.99999665722356
  0
CIRCLE
  5
69EB
330
6288
100
AcDbEntity
  8
YKK_A1
100
AcDbCircle
 10
12541.82591754
 20
17512.93619163
 30
0.0
 40
28.99999759282533
  0
CIRCLE
  5
69EC
330
6288
100
AcDbEntity
  8
YKK_A1
100
AcDbCircle
 10
12541.82591754
 20
17512.93619163
 30
0.0
 40
28.00000012698984
  0
LINE
  5
69ED
330
6288
100
AcDbEntity
  8
YKK_A1
  6
ITTENSAP
100
AcDbLine
 10
12486.82592082
 20
17512.93619163
 30
0.0
 11
12596.82591426
 21
17512.93619163
 31
0.0
  0
LINE
  5
69EE
330
6288
100
AcDbEntity
  8
YKK_A1
100
AcDbLine
 10
12596.82591426
 20
18012.93616183
 30
0.0
 11
12157.42594045
 21
18012.93616183
 31
0.0
  0
LINE
  5
69EF
330
6288
100
AcDbEntity
  8
YKK_A1
100
AcDbLine
 10
12153.42594069
 20
18015.93616165
 30
0.0
 11
12213.42593712
 21
18015.93616165
 31
0.0
  0
LINE
  5
69F0
330
6288
100
AcDbEntity
  8
YKK_A1
100
AcDbLine
 10
12240.42593551
 20
18030.93616076
 30
0.0
 11
12223.42593652
 21
18030.93616076
 31
0.0
  0
LINE
  5
69F1
330
6288
100
AcDbEntity
  8
YKK_A1
100
AcDbLine
 10
12240.42593551
 20
18015.93616165
 30
0.0
 11
12240.42593551
 21
18030.93616076
 31
0.0
  0
LINE
  5
69F2
330
6288
100
AcDbEntity
  8
YKK_A1
100
AcDbLine
 10
12223.42593652
 20
18015.93616165
 30
0.0
 11
12240.42593551
 21
18015.93616165
 31
0.0
  0
LINE
  5
69F3
330
6288
100
AcDbEntity
  8
YKK_A1
100
AcDbLine
 10
12213.42593712
 20
18015.93616165
 30
0.0
 11
12223.42593652
 21
18015.93616165
 31
0.0
  0
CIRCLE
  5
69F4
330
6288
100
AcDbEntity
  8
YKK_A1
100
AcDbCircle
 10
12234.42593586
 20
18025.93616105
 30
0.0
 40
2.49999998692838
  0
LINE
  5
69F5
330
6288
100
AcDbEntity
  8
YKK_A1
100
AcDbLine
 10
12149.82594091
 20
17914.93616767
 30
0.0
 11
12149.82594091
 21
17834.93617244
 31
0.0
  0
LINE
  5
69F6
330
6288
100
AcDbEntity
  8
YKK_A1
100
AcDbLine
 10
12160.82594025
 20
17834.93617244
 30
0.0
 11
12160.82594025
 21
17914.93616767
 31
0.0
  0
LINE
  5
69F7
330
6288
100
AcDbEntity
  8
YKK_A1
100
AcDbLine
 10
12149.82594091
 20
17834.93617244
 30
0.0
 11
12160.82594025
 21
17834.93617244
 31
0.0
  0
LINE
  5
69F8
330
6288
100
AcDbEntity
  8
YKK_A1
100
AcDbLine
 10
12160.82594025
 20
17874.93617005
 30
0.0
 11
12149.82594091
 21
17874.93617005
 31
0.0
  0
LINE
  5
69F9
330
6288
100
AcDbEntity
  8
YKK_A1
100
AcDbLine
 10
12160.82594025
 20
17914.93616767
 30
0.0
 11
12149.82594091
 21
17914.93616767
 31
0.0
  0
LINE
  5
69FA
330
6288
100
AcDbEntity
  8
YKK_A1
100
AcDbLine
 10
12157.42594045
 20
18012.93616183
 30
0.0
 11
12157.42594045
 21
17914.93616767
 31
0.0
  0
LINE
  5
69FB
330
6288
100
AcDbEntity
  8
YKK_A1
100
AcDbLine
 10
12530.8259182
 20
18015.93616165
 30
0.0
 11
12540.8259176
 21
18015.93616165
 31
0.0
  0
LINE
  5
69FC
330
6288
100
AcDbEntity
  8
YKK_A1
100
AcDbLine
 10
12513.82591921
 20
18015.93616165
 30
0.0
 11
12513.82591921
 21
18030.93616076
 31
0.0
  0
LINE
  5
69FD
330
6288
100
AcDbEntity
  8
YKK_A1
100
AcDbLine
 10
12513.82591921
 20
18030.93616076
 30
0.0
 11
12530.8259182
 21
18030.93616076
 31
0.0
  0
LINE
  5
69FE
330
6288
100
AcDbEntity
  8
YKK_A1
100
AcDbLine
 10
12530.8259182
 20
18015.93616165
 30
0.0
 11
12513.82591921
 21
18015.93616165
 31
0.0
  0
CIRCLE
  5
69FF
330
6288
100
AcDbEntity
  8
YKK_A1
100
AcDbCircle
 10
12519.82591885
 20
18025.93616105
 30
0.0
 40
2.49999998692838
  0
LINE
  5
6A00
330
6288
100
AcDbEntity
  8
YKK_A1
100
AcDbLine
 10
12540.8259176
 20
18015.93616165
 30
0.0
 11
12600.82591403
 21
18015.93616165
 31
0.0
  0
ARC
  5
6A01
330
6288
100
AcDbEntity
  8
YKK_A1
100
AcDbCircle
 10
12684.82590902
 20
17512.93619163
 30
0.0
 40
7.499999448165172
100
AcDbArc
 50
308.68099976
 51
51.31898499
  0
ARC
  5
6A02
330
6288
100
AcDbEntity
  8
YKK_A1
100
AcDbCircle
 10
12682.82590914
 20
17487.53619314
 30
0.0
 40
1.49999995797303
100
AcDbArc
 50
184.48098755
 51
265.29598999
  0
ARC
  5
6A03
330
6288
100
AcDbEntity
  8
YKK_A1
100
AcDbCircle
 10
12930.22589439
 20
17512.73619164
 30
0.0
 40
249.9999952753182
100
AcDbArc
 50
180.0
 51
184.46598816
  0
ARC
  5
6A04
330
6288
100
AcDbEntity
  8
YKK_A1
100
AcDbCircle
 10
12930.22589439
 20
17513.13619162
 30
0.0
 40
249.9999952753182
100
AcDbArc
 50
175.53399658
 51
180.0
  0
ARC
  5
6A05
330
6288
100
AcDbEntity
  8
YKK_A1
100
AcDbCircle
 10
12682.82590914
 20
17538.33619012
 30
0.0
 40
1.49999995797303
100
AcDbArc
 50
94.74198914
 51
175.55499268
  0
ARC
  5
6A06
330
6288
100
AcDbEntity
  8
YKK_A1
100
AcDbCircle
 10
12687.02590889
 20
17538.33619012
 30
0.0
 40
1.49999995797303
100
AcDbArc
 50
4.44499207
 51
85.25799561
  0
ARC
  5
6A07
330
6288
100
AcDbEntity
  8
YKK_A1
100
AcDbCircle
 10
12439.62592363
 20
17513.13619162
 30
0.0
 40
249.9999952753182
100
AcDbArc
 50
0.0
 51
4.46598816
  0
ARC
  5
6A08
330
6288
100
AcDbEntity
  8
YKK_A1
100
AcDbCircle
 10
12439.62592363
 20
17512.73619164
 30
0.0
 40
249.9999952753182
100
AcDbArc
 50
355.53399658
 51
0.0
  0
ARC
  5
6A09
330
6288
100
AcDbEntity
  8
YKK_A1
100
AcDbCircle
 10
12687.02590889
 20
17487.53619314
 30
0.0
 40
1.49999995797303
100
AcDbArc
 50
274.70399475
 51
355.51899719
  0
LINE
  5
6A0A
330
6288
100
AcDbEntity
  8
YKK_A1
100
AcDbLine
 10
12682.82590914
 20
17486.13619323
 30
0.0
 11
12687.02590889
 21
17486.13619323
 31
0.0
  0
LINE
  5
6A0B
330
6288
100
AcDbEntity
  8
YKK_A1
100
AcDbLine
 10
12681.02590925
 20
17493.13619281
 30
0.0
 11
12681.42590922
 21
17487.53619314
 31
0.0
  0
LINE
  5
6A0C
330
6288
100
AcDbEntity
  8
YKK_A1
100
AcDbLine
 10
12680.22590929
 20
17513.13619162
 30
0.0
 11
12680.22590929
 21
17512.73619164
 31
0.0
  0
LINE
  5
6A0D
330
6288
100
AcDbEntity
  8
YKK_A1
100
AcDbLine
 10
12681.42590922
 20
17538.33619012
 30
0.0
 11
12681.02590925
 21
17532.73619045
 31
0.0
  0
LINE
  5
6A0E
330
6288
100
AcDbEntity
  8
YKK_A1
100
AcDbLine
 10
12687.02590889
 20
17539.73619003
 30
0.0
 11
12682.82590914
 21
17539.73619003
 31
0.0
  0
LINE
  5
6A0F
330
6288
100
AcDbEntity
  8
YKK_A1
100
AcDbLine
 10
12688.82590878
 20
17532.73619045
 30
0.0
 11
12688.4259088
 21
17538.33619012
 31
0.0
  0
LINE
  5
6A10
330
6288
100
AcDbEntity
  8
YKK_A1
100
AcDbLine
 10
12689.62590873
 20
17512.73619164
 30
0.0
 11
12689.62590873
 21
17513.13619162
 31
0.0
  0
LINE
  5
6A11
330
6288
100
AcDbEntity
  8
YKK_A1
100
AcDbLine
 10
12688.4259088
 20
17487.53619314
 30
0.0
 11
12688.82590878
 21
17493.13619281
 31
0.0
  0
LINE
  5
6A12
330
6288
100
AcDbEntity
  8
YKK_A1
  6
ITTENSAP
100
AcDbLine
 10
12684.82590902
 20
17457.93619491
 30
0.0
 11
12684.82590902
 21
17567.93618835
 31
0.0
  0
LINE
  5
6A13
330
6288
100
AcDbEntity
  8
YKK_A1
100
AcDbLine
 10
12712.82590735
 20
18015.93616165
 30
0.0
 11
12712.82590735
 21
18030.93616076
 31
0.0
  0
LINE
  5
6A14
330
6288
100
AcDbEntity
  8
YKK_A1
100
AcDbLine
 10
12685.82590896
 20
18015.93616165
 30
0.0
 11
12695.82590836
 21
18015.93616165
 31
0.0
  0
CIRCLE
  5
6A15
330
6288
100
AcDbEntity
  8
YKK_A1
100
AcDbCircle
 10
12706.82590771
 20
18025.93616105
 30
0.0
 40
2.49999998692838
  0
LINE
  5
6A16
330
6288
100
AcDbEntity
  8
YKK_A1
100
AcDbLine
 10
12712.82590735
 20
18030.93616076
 30
0.0
 11
12695.82590836
 21
18030.93616076
 31
0.0
  0
LINE
  5
6A17
330
6288
100
AcDbEntity
  8
YKK_A1
100
AcDbLine
 10
12695.82590836
 20
18015.93616165
 30
0.0
 11
12712.82590735
 21
18015.93616165
 31
0.0
  0
LINE
  5
6A18
330
6288
100
AcDbEntity
  8
YKK_A1
100
AcDbLine
 10
12986.42589104
 20
18030.93616076
 30
0.0
 11
13003.42589003
 21
18030.93616076
 31
0.0
  0
LINE
  5
6A19
330
6288
100
AcDbEntity
  8
YKK_A1
100
AcDbLine
 10
12986.42589104
 20
18015.93616165
 30
0.0
 11
12986.42589104
 21
18030.93616076
 31
0.0
  0
LINE
  5
6A1A
330
6288
100
AcDbEntity
  8
YKK_A1
100
AcDbLine
 10
13003.42589003
 20
18015.93616165
 30
0.0
 11
12986.42589104
 21
18015.93616165
 31
0.0
  0
LINE
  5
6A1B
330
6288
100
AcDbEntity
  8
YKK_A1
100
AcDbLine
 10
13003.42589003
 20
18015.93616165
 30
0.0
 11
13013.42588943
 21
18015.93616165
 31
0.0
  0
CIRCLE
  5
6A1C
330
6288
100
AcDbEntity
  8
YKK_A1
100
AcDbCircle
 10
12992.42589068
 20
18025.93616105
 30
0.0
 40
2.49999998692838
  0
LINE
  5
6A1D
330
6288
100
AcDbEntity
  8
YKK_A1
100
AcDbLine
 10
13013.42588943
 20
18015.93616165
 30
0.0
 11
13073.42588586
 21
18015.93616165
 31
0.0
  0
LINE
  5
6A1E
330
6288
100
AcDbEntity
  8
YKK_A1
100
AcDbLine
 10
13065.82588631
 20
17914.93616767
 30
0.0
 11
13065.82588631
 21
17834.93617244
 31
0.0
  0
LINE
  5
6A1F
330
6288
100
AcDbEntity
  8
YKK_A1
100
AcDbLine
 10
13076.82588565
 20
17834.93617244
 30
0.0
 11
13076.82588565
 21
17914.93616767
 31
0.0
  0
LINE
  5
6A20
330
6288
100
AcDbEntity
  8
YKK_A1
100
AcDbLine
 10
13065.82588631
 20
17834.93617244
 30
0.0
 11
13076.82588565
 21
17834.93617244
 31
0.0
  0
LINE
  5
6A21
330
6288
100
AcDbEntity
  8
YKK_A1
100
AcDbLine
 10
13076.82588565
 20
17874.93617005
 30
0.0
 11
13065.82588631
 21
17874.93617005
 31
0.0
  0
LINE
  5
6A22
330
6288
100
AcDbEntity
  8
YKK_A1
100
AcDbLine
 10
13076.82588565
 20
17914.93616767
 30
0.0
 11
13065.82588631
 21
17914.93616767
 31
0.0
  0
LINE
  5
6A23
330
6288
100
AcDbEntity
  8
YKK_A1
100
AcDbLine
 10
13069.42588609
 20
18012.93616183
 30
0.0
 11
13069.42588609
 21
17914.93616767
 31
0.0
  0
LINE
  5
6A24
330
6288
100
AcDbEntity
  8
YKK_A1
100
AcDbLine
 10
12164.82594001
 20
18817.93611385
 30
0.0
 11
13061.82588655
 21
18817.93611385
 31
0.0
  0
LINE
  5
6A25
330
6288
100
AcDbEntity
  8
YKK_A1
100
AcDbLine
 10
13061.82588655
 20
18748.93611796
 30
0.0
 11
12164.82594001
 21
18748.93611796
 31
0.0
  0
LINE
  5
6A26
330
6288
100
AcDbEntity
  8
YKK_A1
100
AcDbLine
 10
12153.42594069
 20
18827.93611325
 30
0.0
 11
13073.42588586
 21
18827.93611325
 31
0.0
  0
LINE
  5
6A27
330
6288
100
AcDbEntity
  8
YKK_A1
100
AcDbLine
 10
13073.42588586
 20
18738.93611856
 30
0.0
 11
12153.42594069
 21
18738.93611856
 31
0.0
  0
LINE
  5
6A28
330
6288
100
AcDbEntity
  8
YKK_A1
100
AcDbLine
 10
12153.42594069
 20
18713.93612005
 30
0.0
 11
13073.42588586
 21
18713.93612005
 31
0.0
  0
LINE
  5
6A29
330
6288
100
AcDbEntity
  8
YKK_A1
100
AcDbLine
 10
12213.42593712
 20
18688.93612154
 30
0.0
 11
12540.8259176
 21
18688.93612154
 31
0.0
  0
CIRCLE
  5
6A2A
330
6288
100
AcDbEntity
  8
YKK_A1
100
AcDbCircle
 10
12377.22592735
 20
18694.93612118
 30
0.0
 40
2.99999991596606
  0
LINE
  5
6A2B
330
6288
100
AcDbEntity
  8
YKK_A1
100
AcDbLine
 10
12164.82594001
 20
18748.93611796
 30
0.0
 11
12164.82594001
 21
18817.93611385
 31
0.0
  0
LINE
  5
6A2C
330
6288
100
AcDbEntity
  8
YKK_A1
100
AcDbLine
 10
12685.82590896
 20
18688.93612154
 30
0.0
 11
13013.42588943
 21
18688.93612154
 31
0.0
  0
CIRCLE
  5
6A2D
330
6288
100
AcDbEntity
  8
YKK_A1
100
AcDbCircle
 10
12849.6258992
 20
18694.93612118
 30
0.0
 40
2.99999991596606
  0
LINE
  5
6A2E
330
6288
100
AcDbEntity
  8
YKK_A1
100
AcDbLine
 10
13061.82588655
 20
18817.93611385
 30
0.0
 11
13061.82588655
 21
18748.93611796
 31
0.0
  0
LINE
  5
6A37
330
6288
100
AcDbEntity
  8
YKK_N1
  6
Continuous
100
AcDbLine
 10
13313.42595476
 20
18731.33381143
 30
0.0
 11
13263.42594595
 21
18817.93636576
 31
0.0
  0
LINE
  5
6A41
330
6288
100
AcDbEntity
  8
YKK_A1
100
AcDbLine
 10
13098.42588437
 20
18852.93611176
 30
0.0
 11
12128.42594218
 21
18852.93611176
 31
0.0
  0
TEXT
  5
6A45
330
6288
100
AcDbEntity
  8
0
100
AcDbText
 10
10300.039
 20
14437.9363
 30
0.0
 40
200.0
  1
平面ハンドル・ワイヤーストッパー
  7
EXTFONT
100
AcDbText
  0
TEXT
  5
6A46
330
6288
100
AcDbEntity
  8
0
100
AcDbText
 10
10300.039
 20
14937.9363
 30
0.0
 40
200.0
  1
ケースハンドル・旗丁番・戸当りゴム
  7
EXTFONT
100
AcDbText
  0
TEXT
  5
6A47
330
6288
100
AcDbEntity
  8
0
100
AcDbText
 10
10300.039
 20
15437.9363
 30
0.0
 40
200.0
  1
アクリル樹脂焼付塗装
  7
EXTFONT
100
AcDbText
  0
TEXT
  5
6A48
330
6288
100
AcDbEntity
  8
0
100
AcDbText
 10
10300.039
 20
15687.9363
 30
0.0
 40
200.0
  1
ＳＵＳ３０４　２Ｂ・枠(扉)板厚1.5ミリ
  7
EXTFONT
100
AcDbText
  0
TEXT
  5
6A49
330
6288
100
AcDbEntity
  8
0
100
AcDbText
 10
10300.039
 20
14187.9363
 30
0.0
 40
200.0
  1
ＹＫＫＡＰ　ガスチャンバー同等品
  7
EXTFONT
100
AcDbText
  0
TEXT
  5
6A4A
330
6288
100
AcDbEntity
  8
0
100
AcDbText
 10
10300.039
 20
14687.9363
 30
0.0
 40
180.0
  1
丸落し
  7
EXTFONT
100
AcDbText
  0
TEXT
  5
6A4B
330
6288
100
AcDbEntity
  8
0
100
AcDbText
 10
10300.039
 20
15187.9363
 30
0.0
 40
200.0
  1
＊
  7
EXTFONT
100
AcDbText
  0
TEXT
  5
6A4C
330
6288
100
AcDbEntity
  8
0
100
AcDbText
 10
5650.039
 20
10482.9363
 30
0.0
 40
200.0
  1
2GC SBA
  7
EXTFONT
100
AcDbText
  0
TEXT
  5
6A4D
330
6288
100
AcDbEntity
  8
0
100
AcDbText
 10
10300.039
 20
10482.9363
 30
0.0
 40
200.0
  1
2GC SBC
  7
EXTFONT
100
AcDbText
  0
TEXT
  5
6A4E
330
6288
100
AcDbEntity
  8
0
100
AcDbText
 10
5650.039
 20
8482.9363
 30
0.0
 40
200.0
  1
平面ハンドル・ワイヤーストッパー
  7
EXTFONT
100
AcDbText
  0
TEXT
  5
6A4F
330
6288
100
AcDbEntity
  8
0
100
AcDbText
 10
5650.039
 20
8982.9363
 30
0.0
 40
200.0
  1
ケースハンドル・旗丁番・戸当りゴム
  7
EXTFONT
100
AcDbText
  0
TEXT
  5
6A50
330
6288
100
AcDbEntity
  8
0
100
AcDbText
 10
5650.039
 20
9482.9363
 30
0.0
 40
200.0
  1
アクリル樹脂焼付塗装
  7
EXTFONT
100
AcDbText
  0
TEXT
  5
6A51
330
6288
100
AcDbEntity
  8
0
100
AcDbText
 10
5650.039
 20
9732.9363
 30
0.0
 40
200.0
  1
ＳＵＳ３０４　２Ｂ・枠(扉)板厚1.5ミリ
  7
EXTFONT
100
AcDbText
  0
TEXT
  5
6A52
330
6288
100
AcDbEntity
  8
0
100
AcDbText
 10
5650.039
 20
10232.9363
 30
0.0
 40
200.0
  1
扉内設置型全面片開き
  7
EXTFONT
100
AcDbText
  0
TEXT
  5
6A53
330
6288
100
AcDbEntity
  8
0
100
AcDbText
 10
5650.039
 20
9982.9363
 30
0.0
 40
200.0
  1
W=600 H=1,900 扉厚25(枠見込33)
 41
0.95
  7
EXTFONT
100
AcDbText
  0
TEXT
  5
6A54
330
6288
100
AcDbEntity
  8
0
100
AcDbText
 10
5650.039
 20
8232.9363
 30
0.0
 40
200.0
  1
ＹＫＫＡＰ　ガスチャンバー同等品
  7
EXTFONT
100
AcDbText
  0
TEXT
  5
6A55
330
6288
100
AcDbEntity
  8
0
100
AcDbText
 10
5650.039
 20
8732.9363
 30
0.0
 40
180.0
  1
気密材
  7
EXTFONT
100
AcDbText
  0
TEXT
  5
6A56
330
6288
100
AcDbEntity
  8
0
100
AcDbText
 10
5650.039
 20
9232.9363
 30
0.0
 40
200.0
  1
＊
  7
EXTFONT
100
AcDbText
  0
TEXT
  5
6A57
330
6288
100
AcDbEntity
  8
0
100
AcDbText
 10
10300.039
 20
8232.9363
 30
0.0
 40
200.0
  1
ＹＫＫＡＰ　ガスチャンバー同等品
  7
EXTFONT
100
AcDbText
  0
TEXT
  5
6A58
330
6288
100
AcDbEntity
  8
0
100
AcDbText
 10
10300.039
 20
9732.9363
 30
0.0
 40
200.0
  1
ＳＵＳ３０４　２Ｂ・枠(扉)板厚1.5ミリ
  7
EXTFONT
100
AcDbText
  0
TEXT
  5
6A59
330
6288
100
AcDbEntity
  8
0
100
AcDbText
 10
10300.039
 20
9482.9363
 30
0.0
 40
200.0
  1
アクリル樹脂焼付塗装
  7
EXTFONT
100
AcDbText
  0
TEXT
  5
6A5A
330
6288
100
AcDbEntity
  8
0
100
AcDbText
 10
10300.039
 20
8982.9363
 30
0.0
 40
200.0
  1
ケースハンドル・旗丁番・戸当りゴム
  7
EXTFONT
100
AcDbText
  0
TEXT
  5
6A5B
330
6288
100
AcDbEntity
  8
0
100
AcDbText
 10
10300.039
 20
8482.9363
 30
0.0
 40
200.0
  1
平面ハンドル・ワイヤーストッパー
  7
EXTFONT
100
AcDbText
  0
TEXT
  5
6A5C
330
6288
100
AcDbEntity
  8
0
100
AcDbText
 10
10300.039
 20
10232.9363
 30
0.0
 40
200.0
  1
ニ連扉内設置型全面両開き
  7
EXTFONT
100
AcDbText
  0
TEXT
  5
6A5D
330
6288
100
AcDbEntity
  8
0
100
AcDbText
 10
10300.039
 20
9982.9363
 30
0.0
 40
200.0
  1
W=900 H=1,900 扉厚25(枠見込33)
 41
0.9
  7
EXTFONT
100
AcDbText
  0
TEXT
  5
6A5E
330
6288
100
AcDbEntity
  8
0
100
AcDbText
 10
10300.039
 20
8732.9363
 30
0.0
 40
180.0
  1
気密材・丸落し
  7
EXTFONT
100
AcDbText
  0
TEXT
  5
6A5F
330
6288
100
AcDbEntity
  8
0
100
AcDbText
 10
10300.039
 20
9232.9363
 30
0.0
 40
200.0
  1
＊
  7
EXTFONT
100
AcDbText
  0
ENDSEC
  0
SECTION
  2
OBJECTS
  0
DICTIONARY
  5
627D
330
0
100
AcDbDictionary
281
     1
  3
ACAD_CIP_PREVIOUS_PRODUCT_INFO
350
6B0E
  3
ACAD_COLOR
350
6AA2
  3
ACAD_DETAILVIEWSTYLE
350
6ABB
  3
ACAD_GROUP
350
627E
  3
ACAD_LAYOUT
350
6AC1
  3
ACAD_MATERIAL
350
6A70
  3
ACAD_MLEADERSTYLE
350
6AB7
  3
ACAD_MLINESTYLE
350
628B
  3
ACAD_PLOTSETTINGS
350
6AC0
  3
ACAD_PLOTSTYLENAME
350
6A6E
  3
ACAD_SCALELIST
350
6AA5
  3
ACAD_SECTIONVIEWSTYLE
350
6AB9
  3
ACAD_TABLESTYLE
350
6AA3
  3
ACAD_VISUALSTYLE
350
6A89
  3
ACDB_RECOMPOSE_DATA
350
6B14
  3
ACDBVARIABLEDICTIONARY
350
629C
  0
XRECORD
  5
6B0E
102
{ACAD_REACTORS
330
627D
102
}
330
627D
100
AcDbXrecord
280
     1
300
ACD
300
2014
300
86063ACD_2014_0F
  0
DICTIONARY
  5
6AA2
102
{ACAD_REACTORS
330
627D
102
}
330
627D
100
AcDbDictionary
281
     1
  0
DICTIONARY
  5
6ABB
102
{ACAD_REACTORS
330
627D
102
}
330
627D
100
AcDbDictionary
281
     1
  3
Imperial24
350
6ABC
  0
DICTIONARY
  5
627E
102
{ACAD_REACTORS
330
627D
102
}
330
627D
100
AcDbDictionary
281
     1
  0
DICTIONARY
  5
6AC1
102
{ACAD_REACTORS
330
627D
102
}
330
627D
100
AcDbDictionary
281
     1
  3
Model
350
6AC2
  3
レイアウト1
350
6AC3
  0
DICTIONARY
  5
6A70
102
{ACAD_REACTORS
330
627D
102
}
330
627D
100
AcDbDictionary
281
     1
  3
ByBlock
350
6A79
  3
ByLayer
350
6A71
  3
Global
350
6A81
  0
DICTIONARY
  5
6AB7
102
{ACAD_REACTORS
330
627D
102
}
330
627D
100
AcDbDictionary
281
     1
  3
Standard
350
6AB8
  0
DICTIONARY
  5
628B
102
{ACAD_REACTORS
330
627D
102
}
330
627D
100
AcDbDictionary
281
     1
  3
STANDARD
350
628C
  0
DICTIONARY
  5
6AC0
102
{ACAD_REACTORS
330
627D
102
}
330
627D
100
AcDbDictionary
281
     1
  0
ACDBDICTIONARYWDFLT
  5
6A6E
102
{ACAD_REACTORS
330
627D
102
}
330
627D
100
AcDbDictionary
281
     1
  3
Normal
350
6A6F
100
AcDbDictionaryWithDefault
340
6A6F
  0
DICTIONARY
  5
6AA5
102
{ACAD_REACTORS
330
627D
102
}
330
627D
100
AcDbDictionary
281
     1
  3
A0
350
6AA6
  3
A1
350
6AA7
  3
A2
350
6AA8
  3
A3
350
6AA9
  3
A4
350
6AAA
  3
A5
350
6AAB
  3
A6
350
6AAC
  3
A7
350
6AAD
  3
A8
350
6AAE
  3
A9
350
6AAF
  3
B0
350
6AB0
  3
B1
350
6AB1
  3
B2
350
6AB2
  3
B3
350
6AB3
  3
B4
350
6AB4
  3
B5
350
6AB5
  3
B6
350
6AB6
  0
DICTIONARY
  5
6AB9
102
{ACAD_REACTORS
330
627D
102
}
330
627D
100
AcDbDictionary
281
     1
  3
Imperial24
350
6ABA
  0
DICTIONARY
  5
6AA3
102
{ACAD_REACTORS
330
627D
102
}
330
627D
100
AcDbDictionary
281
     1
  3
Standard
350
6AA4
  0
DICTIONARY
  5
6A89
102
{ACAD_REACTORS
330
627D
102
}
330
627D
100
AcDbDictionary
281
     1
  3
2dWireframe
350
6A8F
  3
Basic
350
6A8E
  3
Brighten
350
6A95
  3
ColorChange
350
6A99
  3
Conceptual
350
6A92
  3
Dim
350
6A94
  3
EdgeColorOff
350
6AA1
  3
Facepattern
350
6A98
  3
Flat
350
6A8A
  3
FlatWithEdges
350
6A8B
  3
Gouraud
350
6A8C
  3
GouraudWithEdges
350
6A8D
  3
Hidden
350
6A91
  3
JitterOff
350
6A9F
  3
Linepattern
350
6A97
  3
OverhangOff
350
6AA0
  3
Realistic
350
6A93
  3
Shaded
350
6A9E
  3
Shaded with edges
350
6A9D
  3
Shades of Gray
350
6A9A
  3
Sketchy
350
6A9B
  3
Thicken
350
6A96
  3
Wireframe
350
6A90
  3
X-Ray
350
6A9C
  0
XRECORD
  5
6B14
102
{ACAD_REACTORS
330
627D
102
}
330
627D
100
AcDbXrecord
280
     1
 90
        1
330
6AA4
  0
DICTIONARY
  5
629C
102
{ACAD_REACTORS
330
627D
102
}
330
627D
100
AcDbDictionary
281
     1
  3
CANNOSCALE
350
6B06
  3
CMLEADERSTYLE
350
6B03
  3
CTABLESTYLE
350
6B02
  3
CVIEWDETAILSTYLE
350
6B04
  3
CVIEWSECTIONSTYLE
350
6B05
  3
DIMADEC
350
629D
  3
XCLIPFRAME
350
6B12
  0
ACDBDETAILVIEWSTYLE
  5
6ABC
102
{ACAD_XDICTIONARY
360
6B4D
102
}
102
{ACAD_REACTORS
330
6ABB
102
}
330
6ABB
100
AcDbModelDocViewStyle
 70
     0
  3
Imperial24
290
     0
100
AcDbDetailViewStyle
 70
     0
 71
     0
 90
        3
 71
     1
340
6280
 62
   256
 40
0.24
340
0
 62
   256
 40
0.24
300

 40
0.36
280
     3
 71
     2
340
6284
 90
       25
 62
   256
 71
     3
340
6280
 62
   256
 40
0.24
 90
        1
 40
0.75
 90
        1
300
%<\AcVar ViewType \f "%tc1">% %<\AcVar ViewDetailId>%\PSCALE %<\AcVar ViewScale \f "%sn">%
 71
     4
340
6284
 90
       25
 62
   256
340
6284
 90
       25
 62
   256
280
     0
  0
LAYOUT
  5
6AC2
102
{ACAD_REACTORS
330
6AC1
102
}
330
6AC1
100
AcDbPlotSettings
  1

  2
C:\ACAD-I\support\plotters\Default Windows System Printer.pc3
  4
A4
  6

 40
3.17499995
 41
3.17499995
 42
3.17500305
 43
3.17498779
 44
209.88865662
 45
297.05300903
 46
0.0
 47
0.0
 48
0.0
 49
0.0
140
0.0
141
0.0
142
1.0
143
3470.27941309
 70
 11952
 72
     0
 73
     1
 74
     0
  7
monochrome.ctb
 75
     0
147
0.00028816
 76
     0
 77
     2
 78
   300
148
96686.94016776
149
3061.11317225
100
AcDbLayout
  1
Model
 70
     1
 71
     0
 10
0.0
 20
0.0
 11
12.0
 21
9.0
 12
0.0
 22
0.0
 32
0.0
 14
0.0
 24
0.0
 34
0.0
 15
0.0
 25
0.0
 35
0.0
146
0.0
 13
0.0
 23
0.0
 33
0.0
 16
1.0
 26
0.0
 36
0.0
 17
0.0
 27
1.0
 37
0.0
 76
     0
330
6288
1001
ACAD_PSEXT
1000
C:\ACAD-I\support\plotters\Default Windows System Printer.pc3
1000
Fiery PRO80 65-55C-KM PS3.0jp
1000
IP_10.230.204.212
1000

1070
     0
  0
LAYOUT
  5
6AC3
102
{ACAD_REACTORS
330
6AC1
102
}
330
6AC1
100
AcDbPlotSettings
  1

  2
C:\ACAD-I\support\plotters\Default Windows System Printer.pc3
  4
A4
  6

 40
3.17499995
 41
3.17499995
 42
3.17500305
 43
3.17498779
 44
209.88865662
 45
297.05300903
 46
0.0
 47
0.0
 48
0.0
 49
0.0
140
0.0
141
0.0
142
1.0
143
1.0
 70
 15024
 72
     0
 73
     1
 74
     5
  7
monochrome.ctb
 75
    16
147
1.0
 76
     0
 77
     2
 78
   300
148
0.0
149
0.0
100
AcDbLayout
  1
レイアウト1
 70
     0
 71
     1
 10
0.0
 20
0.0
 11
12.0
 21
9.0
 12
0.0
 22
0.0
 32
0.0
 14
1.00000000E+20
 24
1.00000000E+20
 34
1.00000000E+20
 15
-1.00000000E+20
 25
-1.00000000E+20
 35
-1.00000000E+20
146
0.0
 13
0.0
 23
0.0
 33
0.0
 16
1.0
 26
0.0
 36
0.0
 17
0.0
 27
1.0
 37
0.0
 76
     0
330
6285
1001
ACAD_PSEXT
1000
C:\ACAD-I\support\plotters\Default Windows System Printer.pc3
1000
Fiery PRO80 65-55C-KM PS3.0jp
1000
IP_10.230.204.212
1000

1070
     0
  0
MATERIAL
  5
6A79
102
{ACAD_XDICTIONARY
360
6A7A
102
}
102
{ACAD_REACTORS
330
6A70
102
}
330
6A70
100
AcDbMaterial
  1
ByBlock
 72
     0
 43
0.02083333
 43
0.0
 43
0.0
 43
0.0
 43
0.0
 43
0.02083333
 43
0.0
 43
0.0
 43
0.0
 43
0.0
 43
1.0
 43
0.0
 43
0.0
 43
0.0
 43
0.0
 43
1.0
 77
     0
 47
0.02083333
 47
0.0
 47
0.0
 47
0.0
 47
0.0
 47
0.02083333
 47
0.0
 47
0.0
 47
0.0
 47
0.0
 47
1.0
 47
0.0
 47
0.0
 47
0.0
 47
0.0
 47
1.0
171
     0
 49
0.02083333
 49
0.0
 49
0.0
 49
0.0
 49
0.0
 49
0.02083333
 49
0.0
 49
0.0
 49
0.0
 49
0.0
 49
1.0
 49
0.0
 49
0.0
 49
0.0
 49
0.0
 49
1.0
175
     0
142
0.02083333
142
0.0
142
0.0
142
0.0
142
0.0
142
0.02083333
142
0.0
142
0.0
142
0.0
142
0.0
142
1.0
142
0.0
142
0.0
142
0.0
142
0.0
142
1.0
179
     0
144
0.02083333
144
0.0
144
0.0
144
0.0
144
0.0
144
0.02083333
144
0.0
144
0.0
144
0.0
144
0.0
144
1.0
144
0.0
144
0.0
144
0.0
144
0.0
144
1.0
147
0.02083333
147
0.0
147
0.0
147
0.0
147
0.0
147
0.02083333
147
0.0
147
0.0
147
0.0
147
0.0
147
1.0
147
0.0
147
0.0
147
0.0
147
0.0
147
1.0
  0
MATERIAL
  5
6A71
102
{ACAD_XDICTIONARY
360
6A72
102
}
102
{ACAD_REACTORS
330
6A70
102
}
330
6A70
100
AcDbMaterial
  1
ByLayer
 72
     0
 43
0.02083333
 43
0.0
 43
0.0
 43
0.0
 43
0.0
 43
0.02083333
 43
0.0
 43
0.0
 43
0.0
 43
0.0
 43
1.0
 43
0.0
 43
0.0
 43
0.0
 43
0.0
 43
1.0
 77
     0
 47
0.02083333
 47
0.0
 47
0.0
 47
0.0
 47
0.0
 47
0.02083333
 47
0.0
 47
0.0
 47
0.0
 47
0.0
 47
1.0
 47
0.0
 47
0.0
 47
0.0
 47
0.0
 47
1.0
171
     0
 49
0.02083333
 49
0.0
 49
0.0
 49
0.0
 49
0.0
 49
0.02083333
 49
0.0
 49
0.0
 49
0.0
 49
0.0
 49
1.0
 49
0.0
 49
0.0
 49
0.0
 49
0.0
 49
1.0
175
     0
142
0.02083333
142
0.0
142
0.0
142
0.0
142
0.0
142
0.02083333
142
0.0
142
0.0
142
0.0
142
0.0
142
1.0
142
0.0
142
0.0
142
0.0
142
0.0
142
1.0
179
     0
144
0.02083333
144
0.0
144
0.0
144
0.0
144
0.0
144
0.02083333
144
0.0
144
0.0
144
0.0
144
0.0
144
1.0
144
0.0
144
0.0
144
0.0
144
0.0
144
1.0
147
0.02083333
147
0.0
147
0.0
147
0.0
147
0.0
147
0.02083333
147
0.0
147
0.0
147
0.0
147
0.0
147
1.0
147
0.0
147
0.0
147
0.0
147
0.0
147
1.0
  0
MATERIAL
  5
6A81
102
{ACAD_XDICTIONARY
360
6A82
102
}
102
{ACAD_REACTORS
330
6A70
102
}
330
6A70
100
AcDbMaterial
  1
Global
 72
     0
 43
0.02083333
 43
0.0
 43
0.0
 43
0.0
 43
0.0
 43
0.02083333
 43
0.0
 43
0.0
 43
0.0
 43
0.0
 43
1.0
 43
0.0
 43
0.0
 43
0.0
 43
0.0
 43
1.0
 77
     0
 47
0.02083333
 47
0.0
 47
0.0
 47
0.0
 47
0.0
 47
0.02083333
 47
0.0
 47
0.0
 47
0.0
 47
0.0
 47
1.0
 47
0.0
 47
0.0
 47
0.0
 47
0.0
 47
1.0
171
     0
 49
0.02083333
 49
0.0
 49
0.0
 49
0.0
 49
0.0
 49
0.02083333
 49
0.0
 49
0.0
 49
0.0
 49
0.0
 49
1.0
 49
0.0
 49
0.0
 49
0.0
 49
0.0
 49
1.0
175
     0
142
0.02083333
142
0.0
142
0.0
142
0.0
142
0.0
142
0.02083333
142
0.0
142
0.0
142
0.0
142
0.0
142
1.0
142
0.0
142
0.0
142
0.0
142
0.0
142
1.0
179
     0
144
0.02083333
144
0.0
144
0.0
144
0.0
144
0.0
144
0.02083333
144
0.0
144
0.0
144
0.0
144
0.0
144
1.0
144
0.0
144
0.0
144
0.0
144
0.0
144
1.0
147
0.02083333
147
0.0
147
0.0
147
0.0
147
0.0
147
0.02083333
147
0.0
147
0.0
147
0.0
147
0.0
147
1.0
147
0.0
147
0.0
147
0.0
147
0.0
147
1.0
  0
MLEADERSTYLE
  5
6AB8
102
{ACAD_XDICTIONARY
360
6B49
102
}
102
{ACAD_REACTORS
330
6AB7
102
}
330
6AB7
100
AcDbMLeaderStyle
170
     2
171
     1
172
     0
 90
        2
 40
0.0
 41
0.0
173
     1
 91
-1056964608
340
6282
 92
       -2
290
     1
 42
0.09
291
     1
 43
0.36
  3
Standard
 44
0.18
300

342
6280
174
     1
178
     6
175
     1
176
     0
 93
-1056964608
 45
0.18
292
     0
297
     0
 46
0.18
 94
-1056964608
 47
1.0
 49
1.0
140
1.0
293
     1
141
0.0
294
     1
177
     0
142
1.0
295
     0
296
     0
143
0.125
1001
ACAD_MLEADERVER
1070
     2
  0
MLINESTYLE
  5
628C
102
{ACAD_REACTORS
330
628B
102
}
330
628B
100
AcDbMlineStyle
  2
STANDARD
 70
     0
  3

 62
   256
 51
90.0
 52
90.0
 71
     2
 49
0.5
 62
   256
  6
BYLAYER
 49
-0.5
 62
   256
  6
BYLAYER
  0
ACDBPLACEHOLDER
  5
6A6F
102
{ACAD_REACTORS
330
6A6E
102
}
330
6A6E
  0
SCALE
  5
6AA6
102
{ACAD_REACTORS
330
6AA5
102
}
330
6AA5
100
AcDbScale
 70
     0
300
1:1
140
1.0
141
1.0
290
     1
  0
SCALE
  5
6AA7
102
{ACAD_REACTORS
330
6AA5
102
}
330
6AA5
100
AcDbScale
 70
     0
300
1/128" = 1'-0"
140
0.0078125
141
12.0
290
     0
  0
SCALE
  5
6AA8
102
{ACAD_REACTORS
330
6AA5
102
}
330
6AA5
100
AcDbScale
 70
     0
300
1/64" = 1'-0"
140
0.015625
141
12.0
290
     0
  0
SCALE
  5
6AA9
102
{ACAD_REACTORS
330
6AA5
102
}
330
6AA5
100
AcDbScale
 70
     0
300
1/32" = 1'-0"
140
0.03125
141
12.0
290
     0
  0
SCALE
  5
6AAA
102
{ACAD_REACTORS
330
6AA5
102
}
330
6AA5
100
AcDbScale
 70
     0
300
1/16" = 1'-0"
140
0.0625
141
12.0
290
     0
  0
SCALE
  5
6AAB
102
{ACAD_REACTORS
330
6AA5
102
}
330
6AA5
100
AcDbScale
 70
     0
300
3/32" = 1'-0"
140
0.09375
141
12.0
290
     0
  0
SCALE
  5
6AAC
102
{ACAD_REACTORS
330
6AA5
102
}
330
6AA5
100
AcDbScale
 70
     0
300
1/8" = 1'-0"
140
0.125
141
12.0
290
     0
  0
SCALE
  5
6AAD
102
{ACAD_REACTORS
330
6AA5
102
}
330
6AA5
100
AcDbScale
 70
     0
300
3/16" = 1'-0"
140
0.1875
141
12.0
290
     0
  0
SCALE
  5
6AAE
102
{ACAD_REACTORS
330
6AA5
102
}
330
6AA5
100
AcDbScale
 70
     0
300
1/4" = 1'-0"
140
0.25
141
12.0
290
     0
  0
SCALE
  5
6AAF
102
{ACAD_REACTORS
330
6AA5
102
}
330
6AA5
100
AcDbScale
 70
     0
300
3/8" = 1'-0"
140
0.375
141
12.0
290
     0
  0
SCALE
  5
6AB0
102
{ACAD_REACTORS
330
6AA5
102
}
330
6AA5
100
AcDbScale
 70
     0
300
1/2" = 1'-0"
140
0.5
141
12.0
290
     0
  0
SCALE
  5
6AB1
102
{ACAD_REACTORS
330
6AA5
102
}
330
6AA5
100
AcDbScale
 70
     0
300
3/4" = 1'-0"
140
0.75
141
12.0
290
     0
  0
SCALE
  5
6AB2
102
{ACAD_REACTORS
330
6AA5
102
}
330
6AA5
100
AcDbScale
 70
     0
300
1" = 1'-0"
140
1.0
141
12.0
290
     0
  0
SCALE
  5
6AB3
102
{ACAD_REACTORS
330
6AA5
102
}
330
6AA5
100
AcDbScale
 70
     0
300
1-1/2" = 1'-0"
140
1.5
141
12.0
290
     0
  0
SCALE
  5
6AB4
102
{ACAD_REACTORS
330
6AA5
102
}
330
6AA5
100
AcDbScale
 70
     0
300
3" = 1'-0"
140
3.0
141
12.0
290
     0
  0
SCALE
  5
6AB5
102
{ACAD_REACTORS
330
6AA5
102
}
330
6AA5
100
AcDbScale
 70
     0
300
6" = 1'-0"
140
6.0
141
12.0
290
     0
  0
SCALE
  5
6AB6
102
{ACAD_REACTORS
330
6AA5
102
}
330
6AA5
100
AcDbScale
 70
     0
300
1'-0" = 1'-0"
140
12.0
141
12.0
290
     0
  0
ACDBSECTIONVIEWSTYLE
  5
6ABA
102
{ACAD_XDICTIONARY
360
6B4B
102
}
102
{ACAD_REACTORS
330
6AB9
102
}
330
6AB9
100
AcDbModelDocViewStyle
 70
     0
  3
Imperial24
290
     0
100
AcDbSectionViewStyle
 70
     0
 71
     0
 90
      102
 71
     1
340
6280
 62
   256
 40
5.0
340
0
340
0
 62
   256
 40
5.0
300
I, O, Q, S, X, Z
 40
10.0
 90
        0
 40
2.5
 90
        0
 71
     2
340
6284
 90
       25
 62
   256
340
6284
 90
       50
 62
   256
 40
5.0
 40
2.5
 40
5.0
 71
     3
340
6280
 62
   256
 40
5.0
 90
        0
 40
15.0
 90
        1
300
%<\AcVar ViewSectionStartId>%-%<\AcVar ViewSectionEndId>% (%<\AcVar ViewScale \f "%sn">%)
 71
     4
 62
   256
 62
   257
300
ANSI31
 40
1.0
 90
        0
290
     0
290
     0
 90
        6
 40
0.0
 40
1.57079633
 40
0.26179939
 40
1.30899694
 40
-0.26179939
 40
1.83259571
  0
TABLESTYLE
  5
6AA4
102
{ACAD_XDICTIONARY
360
6AC4
102
}
102
{ACAD_REACTORS
330
6AA3
102
}
330
6AA3
100
AcDbTableStyle
  3
Standard
 70
     0
 71
     0
 40
0.06
 41
0.06
280
     0
281
     0
  7
STANDARD
140
0.18
170
     2
 62
     0
 63
     7
283
     0
274
    -2
284
     1
 64
     0
275
    -2
285
     1
 65
     0
276
    -2
286
     1
 66
     0
277
    -2
287
     1
 67
     0
278
    -2
288
     1
 68
     0
279
    -2
289
     1
 69
     0
  7
STANDARD
140
0.25
170
     5
 62
     0
 63
     7
283
     0
274
    -2
284
     1
 64
     0
275
    -2
285
     1
 65
     0
276
    -2
286
     1
 66
     0
277
    -2
287
     1
 67
     0
278
    -2
288
     1
 68
     0
279
    -2
289
     1
 69
     0
  7
STANDARD
140
0.18
170
     5
 62
     0
 63
     7
283
     0
274
    -2
284
     1
 64
     0
275
    -2
285
     1
 65
     0
276
    -2
286
     1
 66
     0
277
    -2
287
     1
 67
     0
278
    -2
288
     1
 68
     0
279
    -2
289
     1
 69
     0
  0
VISUALSTYLE
  5
6A8F
102
{ACAD_XDICTIONARY
360
6B22
102
}
102
{ACAD_REACTORS
330
6A89
102
}
330
6A89
100
AcDbVisualStyle
  2
2dWireframe
 70
     4
 71
     0
 72
     2
 73
     0
 90
        0
 40
-0.6
 41
-30.0
 62
     5
 63
     7
421
 16777215
 74
     1
 91
        4
 64
     7
 65
   257
 75
     1
175
     1
 42
1.0
 92
        0
 66
   257
 43
1.0
 76
     1
 77
     6
 78
     2
 67
     7
 79
     5
170
     0
171
     0
290
     0
174
     0
 93
        1
 44
0.0
173
     0
291
     0
 45
0.0
1001
ACAD
1000
AcDbSavedByObjectVersion
1070
     0
  0
VISUALSTYLE
  5
6A8E
102
{ACAD_XDICTIONARY
360
6B20
102
}
102
{ACAD_REACTORS
330
6A89
102
}
330
6A89
100
AcDbVisualStyle
  2
Basic
 70
     7
 71
     1
 72
     0
 73
     1
 90
        0
 40
-0.6
 41
-30.0
 62
     5
 63
     7
421
 16777215
 74
     0
 91
        4
 64
     7
 65
   257
 75
     1
175
     1
 42
1.0
 92
        8
 66
     7
 43
1.0
 76
     1
 77
     6
 78
     2
 67
     7
 79
     5
170
     0
171
     0
290
     0
174
     0
 93
        1
 44
0.0
173
     0
291
     1
 45
0.0
1001
ACAD
1000
AcDbSavedByObjectVersion
1070
     0
  0
VISUALSTYLE
  5
6A95
102
{ACAD_XDICTIONARY
360
6B2E
102
}
102
{ACAD_REACTORS
330
6A89
102
}
330
6A89
100
AcDbVisualStyle
  2
Brighten
 70
    12
 71
     2
 72
     2
 73
     0
 90
        0
 40
-0.6
 41
-30.0
 62
     5
 63
     7
421
 16777215
 74
     1
 91
        4
 64
     7
 65
   257
 75
     1
175
     1
 42
1.0
 92
        8
 66
     7
 43
1.0
 76
     1
 77
     6
 78
     2
 67
     7
 79
     5
170
     0
171
     0
290
     0
174
     0
 93
        1
 44
50.0
173
     0
291
     1
 45
0.0
1001
ACAD
1000
AcDbSavedByObjectVersion
1070
     0
  0
VISUALSTYLE
  5
6A99
102
{ACAD_XDICTIONARY
360
6B36
102
}
102
{ACAD_REACTORS
330
6A89
102
}
330
6A89
100
AcDbVisualStyle
  2
ColorChange
 70
    16
 71
     2
 72
     2
 73
     3
 90
        0
 40
-0.6
 41
-30.0
 62
     5
 63
     8
421
  8421504
 74
     1
 91
        4
 64
     7
 65
   257
 75
     1
175
     1
 42
1.0
 92
        8
 66
     8
424
  8421504
 43
1.0
 76
     1
 77
     6
 78
     2
 67
     7
 79
     5
170
     0
171
     0
290
     0
174
     0
 93
        1
 44
0.0
173
     0
291
     1
 45
0.0
1001
ACAD
1000
AcDbSavedByObjectVersion
1070
     0
  0
VISUALSTYLE
  5
6A92
102
{ACAD_XDICTIONARY
360
6B28
102
}
102
{ACAD_REACTORS
330
6A89
102
}
330
6A89
100
AcDbVisualStyle
  2
Conceptual
 70
     9
 71
     3
 72
     2
 73
     0
 90
        0
 40
-0.6
 41
-30.0
 62
     5
 63
     7
421
 16777215
 74
     2
 91
        2
 64
     7
 65
   257
 75
     1
175
     1
 42
179.0
 92
        8
 66
     7
 43
1.0
 76
     1
 77
     6
 78
     2
 67
     7
 79
     3
170
     0
171
     0
290
     0
174
     0
 93
        1
 44
0.0
173
     0
291
     0
 45
0.0
1001
ACAD
1000
AcDbSavedByObjectVersion
1070
     0
  0
VISUALSTYLE
  5
6A94
102
{ACAD_XDICTIONARY
360
6B2C
102
}
102
{ACAD_REACTORS
330
6A89
102
}
330
6A89
100
AcDbVisualStyle
  2
Dim
 70
    11
 71
     2
 72
     2
 73
     0
 90
        0
 40
-0.6
 41
-30.0
 62
     5
 63
     7
421
 16777215
 74
     1
 91
        4
 64
     7
 65
   257
 75
     1
175
     1
 42
1.0
 92
        8
 66
     7
 43
1.0
 76
     1
 77
     6
 78
     2
 67
     7
 79
     5
170
     0
171
     0
290
     0
174
     0
 93
        1
 44
-50.0
173
     0
291
     1
 45
0.0
1001
ACAD
1000
AcDbSavedByObjectVersion
1070
     0
  0
VISUALSTYLE
  5
6AA1
102
{ACAD_XDICTIONARY
360
6B46
102
}
102
{ACAD_REACTORS
330
6A89
102
}
330
6A89
100
AcDbVisualStyle
  2
EdgeColorOff
 70
    22
 71
     2
 72
     2
 73
     0
 90
        0
 40
-0.6
 41
-30.0
 62
     5
 63
     7
421
 16777215
 74
     1
 91
        4
 64
     7
 65
   257
 75
     1
175
     1
 42
1.0
 92
        8
 66
     7
 43
1.0
 76
     1
 77
     6
 78
     2
 67
     7
 79
     5
170
     0
171
     0
290
     0
174
     0
 93
        1
 44
0.0
173
     0
291
     1
 45
0.0
1001
ACAD
1000
AcDbSavedByObjectVersion
1070
     0
  0
VISUALSTYLE
  5
6A98
102
{ACAD_XDICTIONARY
360
6B34
102
}
102
{ACAD_REACTORS
330
6A89
102
}
330
6A89
100
AcDbVisualStyle
  2
Facepattern
 70
    15
 71
     2
 72
     2
 73
     0
 90
        0
 40
-0.6
 41
-30.0
 62
     5
 63
     7
421
 16777215
 74
     1
 91
        4
 64
     7
 65
   257
 75
     1
175
     1
 42
1.0
 92
        8
 66
     7
 43
1.0
 76
     1
 77
     6
 78
     2
 67
     7
 79
     5
170
     0
171
     0
290
     0
174
     0
 93
        1
 44
0.0
173
     0
291
     1
 45
0.0
1001
ACAD
1000
AcDbSavedByObjectVersion
1070
     0
  0
VISUALSTYLE
  5
6A8A
102
{ACAD_XDICTIONARY
360
6B18
102
}
102
{ACAD_REACTORS
330
6A89
102
}
330
6A89
100
AcDbVisualStyle
  2
Flat
 70
     0
 71
     2
 72
     1
 73
     1
 90
        2
 40
-0.6
 41
30.0
 62
     5
 63
     7
421
 16777215
 74
     0
 91
        0
 64
     7
 65
   257
 75
     1
175
     1
 42
1.0
 92
        8
 66
     7
 43
1.0
 76
     1
 77
     6
 78
     2
 67
     7
 79
     5
170
     0
171
     0
290
     0
174
     0
 93
       13
 44
0.0
173
     0
291
     1
 45
0.0
1001
ACAD
1000
AcDbSavedByObjectVersion
1070
     0
  0
VISUALSTYLE
  5
6A8B
102
{ACAD_XDICTIONARY
360
6B1A
102
}
102
{ACAD_REACTORS
330
6A89
102
}
330
6A89
100
AcDbVisualStyle
  2
FlatWithEdges
 70
     1
 71
     2
 72
     1
 73
     1
 90
        2
 40
-0.6
 41
30.0
 62
     5
 63
     7
421
 16777215
 74
     1
 91
        0
 64
     7
 65
   257
 75
     1
175
     1
 42
1.0
 92
        0
 66
   257
 43
1.0
 76
     1
 77
     6
 78
     2
 67
     7
 79
     5
170
     0
171
     0
290
     0
174
     0
 93
       13
 44
0.0
173
     0
291
     1
 45
0.0
1001
ACAD
1000
AcDbSavedByObjectVersion
1070
     0
  0
VISUALSTYLE
  5
6A8C
102
{ACAD_XDICTIONARY
360
6B1C
102
}
102
{ACAD_REACTORS
330
6A89
102
}
330
6A89
100
AcDbVisualStyle
  2
Gouraud
 70
     2
 71
     2
 72
     2
 73
     1
 90
        2
 40
-0.6
 41
30.0
 62
     5
 63
     7
421
 16777215
 74
     0
 91
        0
 64
     7
 65
   257
 75
     1
175
     1
 42
1.0
 92
        0
 66
     7
 43
1.0
 76
     1
 77
     6
 78
     2
 67
     7
 79
     5
170
     0
171
     0
290
     0
174
     0
 93
       13
 44
0.0
173
     0
291
     1
 45
0.0
1001
ACAD
1000
AcDbSavedByObjectVersion
1070
     0
  0
VISUALSTYLE
  5
6A8D
102
{ACAD_XDICTIONARY
360
6B1E
102
}
102
{ACAD_REACTORS
330
6A89
102
}
330
6A89
100
AcDbVisualStyle
  2
GouraudWithEdges
 70
     3
 71
     2
 72
     2
 73
     1
 90
        2
 40
-0.6
 41
30.0
 62
     5
 63
     7
421
 16777215
 74
     1
 91
        0
 64
     7
 65
   257
 75
     1
175
     1
 42
1.0
 92
        0
 66
   257
 43
1.0
 76
     1
 77
     6
 78
     2
 67
     7
 79
     5
170
     0
171
     0
290
     0
174
     0
 93
       13
 44
0.0
173
     0
291
     1
 45
0.0
1001
ACAD
1000
AcDbSavedByObjectVersion
1070
     0
  0
VISUALSTYLE
  5
6A91
102
{ACAD_XDICTIONARY
360
6B26
102
}
102
{ACAD_REACTORS
330
6A89
102
}
330
6A89
100
AcDbVisualStyle
  2
Hidden
 70
     6
 71
     1
 72
     2
 73
     2
 90
        0
 40
-0.6
 41
-30.0
 62
     5
 63
     7
421
 16777215
 74
     2
 91
        2
 64
     7
 65
   257
 75
     2
175
     1
 42
40.0
 92
        0
 66
   257
 43
1.0
 76
     1
 77
     6
 78
     2
 67
     7
 79
     3
170
     0
171
     0
290
     0
174
     0
 93
        1
 44
0.0
173
     0
291
     0
 45
0.0
1001
ACAD
1000
AcDbSavedByObjectVersion
1070
     0
  0
VISUALSTYLE
  5
6A9F
102
{ACAD_XDICTIONARY
360
6B42
102
}
102
{ACAD_REACTORS
330
6A89
102
}
330
6A89
100
AcDbVisualStyle
  2
JitterOff
 70
    20
 71
     2
 72
     2
 73
     0
 90
        0
 40
-0.6
 41
-30.0
 62
     5
 63
     7
421
 16777215
 74
     1
 91
        4
 64
     7
 65
   257
 75
     1
175
     1
 42
1.0
 92
       10
 66
     7
 43
1.0
 76
     1
 77
     6
 78
     2
 67
     7
 79
     5
170
     0
171
     0
290
     0
174
     0
 93
        1
 44
0.0
173
     0
291
     1
 45
0.0
1001
ACAD
1000
AcDbSavedByObjectVersion
1070
     0
  0
VISUALSTYLE
  5
6A97
102
{ACAD_XDICTIONARY
360
6B32
102
}
102
{ACAD_REACTORS
330
6A89
102
}
330
6A89
100
AcDbVisualStyle
  2
Linepattern
 70
    14
 71
     2
 72
     2
 73
     0
 90
        0
 40
-0.6
 41
-30.0
 62
     5
 63
     7
421
 16777215
 74
     1
 91
        4
 64
     7
 65
   257
 75
     7
175
     7
 42
1.0
 92
        8
 66
     7
 43
1.0
 76
     1
 77
     6
 78
     2
 67
     7
 79
     5
170
     0
171
     0
290
     0
174
     0
 93
        1
 44
0.0
173
     0
291
     1
 45
0.0
1001
ACAD
1000
AcDbSavedByObjectVersion
1070
     0
  0
VISUALSTYLE
  5
6AA0
102
{ACAD_XDICTIONARY
360
6B44
102
}
102
{ACAD_REACTORS
330
6A89
102
}
330
6A89
100
AcDbVisualStyle
  2
OverhangOff
 70
    21
 71
     2
 72
     2
 73
     0
 90
        0
 40
-0.6
 41
-30.0
 62
     5
 63
     7
421
 16777215
 74
     1
 91
        4
 64
     7
 65
   257
 75
     1
175
     1
 42
1.0
 92
        9
 66
     7
 43
1.0
 76
     1
 77
     6
 78
     2
 67
     7
 79
     5
170
     0
171
     0
290
     0
174
     0
 93
        1
 44
0.0
173
     0
291
     1
 45
0.0
1001
ACAD
1000
AcDbSavedByObjectVersion
1070
     0
  0
VISUALSTYLE
  5
6A93
102
{ACAD_XDICTIONARY
360
6B2A
102
}
102
{ACAD_REACTORS
330
6A89
102
}
330
6A89
100
AcDbVisualStyle
  2
Realistic
 70
     8
 71
     2
 72
     2
 73
     0
 90
        2
 40
-0.6
 41
30.0
 62
     5
 63
     7
421
 16777215
 74
     0
 91
        0
 64
     7
 65
   257
 75
     1
175
     1
 42
1.0
 92
        8
 66
   257
 43
1.0
 76
     1
 77
     6
 78
     2
 67
     7
 79
     3
170
     0
171
     0
290
     0
174
     0
 93
       13
 44
0.0
173
     0
291
     0
 45
0.0
1001
ACAD
1000
AcDbSavedByObjectVersion
1070
     0
  0
VISUALSTYLE
  5
6A9E
102
{ACAD_XDICTIONARY
360
6B40
102
}
102
{ACAD_REACTORS
330
6A89
102
}
330
6A89
100
AcDbVisualStyle
  2
Shaded
 70
    27
 71
     2
 72
     2
 73
     1
 90
        2
 40
-0.6
 41
30.0
 62
     5
 63
     7
421
 16777215
 74
     0
 91
        4
 64
     7
 65
   257
 75
     1
175
     1
 42
1.0
 92
        8
 66
   257
 43
1.0
 76
     1
 77
     6
 78
     2
 67
     8
425
  7895160
 79
     3
170
     0
171
     0
290
     0
174
     0
 93
        5
 44
0.0
173
     0
291
     0
 45
0.0
1001
ACAD
1000
AcDbSavedByObjectVersion
1070
     0
  0
VISUALSTYLE
  5
6A9D
102
{ACAD_XDICTIONARY
360
6B3E
102
}
102
{ACAD_REACTORS
330
6A89
102
}
330
6A89
100
AcDbVisualStyle
  2
Shaded with edges
 70
    26
 71
     2
 72
     2
 73
     1
 90
        2
 40
-0.6
 41
30.0
 62
     5
 63
     7
421
 16777215
 74
     1
 91
       10
 64
     7
 65
   257
 75
     2
175
     1
 42
1.0
 92
        8
 66
   257
 43
1.0
 76
     1
 77
     6
 78
     2
 67
     7
 79
     3
170
     0
171
     0
290
     0
174
     0
 93
        5
 44
0.0
173
     0
291
     0
 45
0.0
1001
ACAD
1000
AcDbSavedByObjectVersion
1070
     0
  0
VISUALSTYLE
  5
6A9A
102
{ACAD_XDICTIONARY
360
6B38
102
}
102
{ACAD_REACTORS
330
6A89
102
}
330
6A89
100
AcDbVisualStyle
  2
Shades of Gray
 70
    23
 71
     2
 72
     2
 73
     3
 90
        0
 40
-0.6
 41
-30.0
 62
     5
 63
     7
421
 16777215
 74
     2
 91
        2
 64
     7
 65
     7
 75
     1
175
     1
 42
40.0
 92
        8
 66
     7
 43
1.0
 76
     1
 77
     6
 78
     2
 67
     7
 79
     3
170
     0
171
     0
290
     0
174
     0
 93
        1
 44
0.0
173
     0
291
     0
 45
0.0
1001
ACAD
1000
AcDbSavedByObjectVersion
1070
     0
  0
VISUALSTYLE
  5
6A9B
102
{ACAD_XDICTIONARY
360
6B3A
102
}
102
{ACAD_REACTORS
330
6A89
102
}
330
6A89
100
AcDbVisualStyle
  2
Sketchy
 70
    24
 71
     1
 72
     2
 73
     2
 90
        0
 40
-0.6
 41
-30.0
 62
     5
 63
     7
421
 16777215
 74
     2
 91
        2
 64
     7
 65
     7
 75
     1
175
     1
 42
40.0
 92
       11
 66
     7
 43
1.0
 76
     1
 77
     6
 78
     2
 67
     7
 79
     6
170
     0
171
     0
290
     0
174
     0
 93
        1
 44
0.0
173
     0
291
     0
 45
0.0
1001
ACAD
1000
AcDbSavedByObjectVersion
1070
     0
  0
VISUALSTYLE
  5
6A96
102
{ACAD_XDICTIONARY
360
6B30
102
}
102
{ACAD_REACTORS
330
6A89
102
}
330
6A89
100
AcDbVisualStyle
  2
Thicken
 70
    13
 71
     2
 72
     2
 73
     0
 90
        0
 40
-0.6
 41
-30.0
 62
     5
 63
     7
421
 16777215
 74
     1
 91
        4
 64
     7
 65
   257
 75
     1
175
     1
 42
1.0
 92
       12
 66
     7
 43
1.0
 76
     1
 77
     6
 78
     2
 67
     7
 79
     5
170
     0
171
     0
290
     0
174
     0
 93
        1
 44
0.0
173
     0
291
     1
 45
0.0
1001
ACAD
1000
AcDbSavedByObjectVersion
1070
     0
  0
VISUALSTYLE
  5
6A90
102
{ACAD_XDICTIONARY
360
6B24
102
}
102
{ACAD_REACTORS
330
6A89
102
}
330
6A89
100
AcDbVisualStyle
  2
Wireframe
 70
     5
 71
     0
 72
     2
 73
     0
 90
        0
 40
-0.6
 41
-30.0
 62
     5
 63
     7
421
 16777215
 74
     1
 91
        4
 64
     7
 65
   257
 75
     1
175
     1
 42
1.0
 92
        0
 66
   257
 43
1.0
 76
     1
 77
     6
 78
     2
 67
     7
 79
     3
170
     0
171
     0
290
     0
174
     0
 93
        1
 44
0.0
173
     0
291
     0
 45
0.0
1001
ACAD
1000
AcDbSavedByObjectVersion
1070
     0
  0
VISUALSTYLE
  5
6A9C
102
{ACAD_XDICTIONARY
360
6B3C
102
}
102
{ACAD_REACTORS
330
6A89
102
}
330
6A89
100
AcDbVisualStyle
  2
X-Ray
 70
    25
 71
     2
 72
     2
 73
     1
 90
        1
 40
0.5
 41
-30.0
 62
     5
 63
     7
421
 16777215
 74
     1
 91
        0
 64
     7
 65
   257
 75
     1
175
     1
 42
1.0
 92
        8
 66
     7
 43
1.0
 76
     1
 77
     6
 78
     2
 67
     7
 79
     3
170
     0
171
     0
290
     0
174
     0
 93
       13
 44
0.0
173
     0
291
     0
 45
0.0
1001
ACAD
1000
AcDbSavedByObjectVersion
1070
     0
  0
DICTIONARYVAR
  5
6B06
102
{ACAD_REACTORS
330
629C
102
}
330
629C
100
DictionaryVariables
280
     0
  1
1:1
  0
DICTIONARYVAR
  5
6B03
102
{ACAD_REACTORS
330
629C
102
}
330
629C
100
DictionaryVariables
280
     0
  1
STANDARD
  0
DICTIONARYVAR
  5
6B02
102
{ACAD_REACTORS
330
629C
102
}
330
629C
100
DictionaryVariables
280
     0
  1
STANDARD
  0
DICTIONARYVAR
  5
6B04
102
{ACAD_REACTORS
330
629C
102
}
330
629C
100
DictionaryVariables
280
     0
  1
Imperial24
  0
DICTIONARYVAR
  5
6B05
102
{ACAD_REACTORS
330
629C
102
}
330
629C
100
DictionaryVariables
280
     0
  1
Imperial24
  0
DICTIONARYVAR
  5
629D
102
{ACAD_REACTORS
330
629C
102
}
330
629C
100
DictionaryVariables
280
     0
  1
0
  0
DICTIONARYVAR
  5
6B12
102
{ACAD_REACTORS
330
629C
102
}
330
629C
100
DictionaryVariables
280
     0
  1
2
  0
DICTIONARY
  5
6B4D
330
6ABC
100
AcDbDictionary
280
     1
281
     1
  3
ACAD_XREC_ROUNDTRIP
360
6B4E
  0
DICTIONARY
  5
6A7A
330
6A79
100
AcDbDictionary
280
     1
281
     1
  3
ACAD_XREC_ROUNDTRIP
360
6B16
  3
BUMPTILE
360
6A7C
  3
DIFFUSETILE
360
6A7B
  3
OPACITYTILE
360
6A7F
  3
REFLECTIONTILE
360
6A7E
  3
REFRACTIONTILE
360
6A80
  3
SPECULARTILE
360
6A7D
  0
DICTIONARY
  5
6A72
330
6A71
100
AcDbDictionary
280
     1
281
     1
  3
ACAD_XREC_ROUNDTRIP
360
6B15
  3
BUMPTILE
360
6A74
  3
DIFFUSETILE
360
6A73
  3
OPACITYTILE
360
6A77
  3
REFLECTIONTILE
360
6A76
  3
REFRACTIONTILE
360
6A78
  3
SPECULARTILE
360
6A75
  0
DICTIONARY
  5
6A82
330
6A81
100
AcDbDictionary
280
     1
281
     1
  3
ACAD_XREC_ROUNDTRIP
360
6B17
  3
BUMPTILE
360
6A84
  3
DIFFUSETILE
360
6A83
  3
OPACITYTILE
360
6A87
  3
REFLECTIONTILE
360
6A86
  3
REFRACTIONTILE
360
6A88
  3
SPECULARTILE
360
6A85
  0
DICTIONARY
  5
6B49
330
6AB8
100
AcDbDictionary
280
     1
281
     1
  3
ACAD_XREC_ROUNDTRIP
360
6B4A
  0
DICTIONARY
  5
6B4B
330
6ABA
100
AcDbDictionary
280
     1
281
     1
  3
ACAD_XREC_ROUNDTRIP
360
6B4C
  0
DICTIONARY
  5
6AC4
330
6AA4
100
AcDbDictionary
280
     1
281
     1
  3
ACAD_ROUNDTRIP_2008_TABLESTYLE_CELLSTYLEMAP
360
6B13
  3
ACAD_XREC_ROUNDTRIP
360
6B48
  0
DICTIONARY
  5
6B22
330
6A8F
100
AcDbDictionary
280
     1
281
     1
  3
ACAD_XREC_ROUNDTRIP
360
6B23
  0
DICTIONARY
  5
6B20
330
6A8E
100
AcDbDictionary
280
     1
281
     1
  3
ACAD_XREC_ROUNDTRIP
360
6B21
  0
DICTIONARY
  5
6B2E
330
6A95
100
AcDbDictionary
280
     1
281
     1
  3
ACAD_XREC_ROUNDTRIP
360
6B2F
  0
DICTIONARY
  5
6B36
330
6A99
100
AcDbDictionary
280
     1
281
     1
  3
ACAD_XREC_ROUNDTRIP
360
6B37
  0
DICTIONARY
  5
6B28
330
6A92
100
AcDbDictionary
280
     1
281
     1
  3
ACAD_XREC_ROUNDTRIP
360
6B29
  0
DICTIONARY
  5
6B2C
330
6A94
100
AcDbDictionary
280
     1
281
     1
  3
ACAD_XREC_ROUNDTRIP
360
6B2D
  0
DICTIONARY
  5
6B46
330
6AA1
100
AcDbDictionary
280
     1
281
     1
  3
ACAD_XREC_ROUNDTRIP
360
6B47
  0
DICTIONARY
  5
6B34
330
6A98
100
AcDbDictionary
280
     1
281
     1
  3
ACAD_XREC_ROUNDTRIP
360
6B35
  0
DICTIONARY
  5
6B18
330
6A8A
100
AcDbDictionary
280
     1
281
     1
  3
ACAD_XREC_ROUNDTRIP
360
6B19
  0
DICTIONARY
  5
6B1A
330
6A8B
100
AcDbDictionary
280
     1
281
     1
  3
ACAD_XREC_ROUNDTRIP
360
6B1B
  0
DICTIONARY
  5
6B1C
330
6A8C
100
AcDbDictionary
280
     1
281
     1
  3
ACAD_XREC_ROUNDTRIP
360
6B1D
  0
DICTIONARY
  5
6B1E
330
6A8D
100
AcDbDictionary
280
     1
281
     1
  3
ACAD_XREC_ROUNDTRIP
360
6B1F
  0
DICTIONARY
  5
6B26
330
6A91
100
AcDbDictionary
280
     1
281
     1
  3
ACAD_XREC_ROUNDTRIP
360
6B27
  0
DICTIONARY
  5
6B42
330
6A9F
100
AcDbDictionary
280
     1
281
     1
  3
ACAD_XREC_ROUNDTRIP
360
6B43
  0
DICTIONARY
  5
6B32
330
6A97
100
AcDbDictionary
280
     1
281
     1
  3
ACAD_XREC_ROUNDTRIP
360
6B33
  0
DICTIONARY
  5
6B44
330
6AA0
100
AcDbDictionary
280
     1
281
     1
  3
ACAD_XREC_ROUNDTRIP
360
6B45
  0
DICTIONARY
  5
6B2A
330
6A93
100
AcDbDictionary
280
     1
281
     1
  3
ACAD_XREC_ROUNDTRIP
360
6B2B
  0
DICTIONARY
  5
6B40
330
6A9E
100
AcDbDictionary
280
     1
281
     1
  3
ACAD_XREC_ROUNDTRIP
360
6B41
  0
DICTIONARY
  5
6B3E
330
6A9D
100
AcDbDictionary
280
     1
281
     1
  3
ACAD_XREC_ROUNDTRIP
360
6B3F
  0
DICTIONARY
  5
6B38
330
6A9A
100
AcDbDictionary
280
     1
281
     1
  3
ACAD_XREC_ROUNDTRIP
360
6B39
  0
DICTIONARY
  5
6B3A
330
6A9B
100
AcDbDictionary
280
     1
281
     1
  3
ACAD_XREC_ROUNDTRIP
360
6B3B
  0
DICTIONARY
  5
6B30
330
6A96
100
AcDbDictionary
280
     1
281
     1
  3
ACAD_XREC_ROUNDTRIP
360
6B31
  0
DICTIONARY
  5
6B24
330
6A90
100
AcDbDictionary
280
     1
281
     1
  3
ACAD_XREC_ROUNDTRIP
360
6B25
  0
DICTIONARY
  5
6B3C
330
6A9C
100
AcDbDictionary
280
     1
281
     1
  3
ACAD_XREC_ROUNDTRIP
360
6B3D
  0
XRECORD
  5
6B4E
102
{ACAD_REACTORS
330
6B4D
102
}
330
6B4D
100
AcDbXrecord
280
     1
102
DISPLAYNAME
  1
Imperial24
102
FLAGS
 90
        0
  0
XRECORD
  5
6B16
102
{ACAD_REACTORS
330
6A7A
102
}
330
6A7A
100
AcDbXrecord
280
     1
102
MATERIAL
148
0.0
149
0.0
149
0.0
 93
        0
 94
      127
282
     0
 72
     0
 77
     0
171
     0
175
     0
179
     0
273
     0
  0
XRECORD
  5
6A7C
102
{ACAD_REACTORS
330
6A7A
102
}
330
6A7A
100
AcDbXrecord
280
     1
270
     1
271
     1
  0
XRECORD
  5
6A7B
102
{ACAD_REACTORS
330
6A7A
102
}
330
6A7A
100
AcDbXrecord
280
     1
270
     1
271
     1
  0
XRECORD
  5
6A7F
102
{ACAD_REACTORS
330
6A7A
102
}
330
6A7A
100
AcDbXrecord
280
     1
270
     1
271
     1
  0
XRECORD
  5
6A7E
102
{ACAD_REACTORS
330
6A7A
102
}
330
6A7A
100
AcDbXrecord
280
     1
270
     1
271
     1
  0
XRECORD
  5
6A80
102
{ACAD_REACTORS
330
6A7A
102
}
330
6A7A
100
AcDbXrecord
280
     1
270
     1
271
     1
  0
XRECORD
  5
6A7D
102
{ACAD_REACTORS
330
6A7A
102
}
330
6A7A
100
AcDbXrecord
280
     1
270
     1
271
     1
  0
XRECORD
  5
6B15
102
{ACAD_REACTORS
330
6A72
102
}
330
6A72
100
AcDbXrecord
280
     1
102
MATERIAL
148
0.0
149
0.0
149
0.0
 93
        0
 94
      127
282
     0
 72
     0
 77
     0
171
     0
175
     0
179
     0
273
     0
  0
XRECORD
  5
6A74
102
{ACAD_REACTORS
330
6A72
102
}
330
6A72
100
AcDbXrecord
280
     1
270
     1
271
     1
  0
XRECORD
  5
6A73
102
{ACAD_REACTORS
330
6A72
102
}
330
6A72
100
AcDbXrecord
280
     1
270
     1
271
     1
  0
XRECORD
  5
6A77
102
{ACAD_REACTORS
330
6A72
102
}
330
6A72
100
AcDbXrecord
280
     1
270
     1
271
     1
  0
XRECORD
  5
6A76
102
{ACAD_REACTORS
330
6A72
102
}
330
6A72
100
AcDbXrecord
280
     1
270
     1
271
     1
  0
XRECORD
  5
6A78
102
{ACAD_REACTORS
330
6A72
102
}
330
6A72
100
AcDbXrecord
280
     1
270
     1
271
     1
  0
XRECORD
  5
6A75
102
{ACAD_REACTORS
330
6A72
102
}
330
6A72
100
AcDbXrecord
280
     1
270
     1
271
     1
  0
XRECORD
  5
6B17
102
{ACAD_REACTORS
330
6A82
102
}
330
6A82
100
AcDbXrecord
280
     1
102
MATERIAL
148
0.0
149
0.0
149
0.0
 93
        0
 94
      127
282
     0
 72
     0
 77
     0
171
     0
175
     0
179
     0
273
     0
  0
XRECORD
  5
6A84
102
{ACAD_REACTORS
330
6A82
102
}
330
6A82
100
AcDbXrecord
280
     1
270
     1
271
     1
  0
XRECORD
  5
6A83
102
{ACAD_REACTORS
330
6A82
102
}
330
6A82
100
AcDbXrecord
280
     1
270
     1
271
     1
  0
XRECORD
  5
6A87
102
{ACAD_REACTORS
330
6A82
102
}
330
6A82
100
AcDbXrecord
280
     1
270
     1
271
     1
  0
XRECORD
  5
6A86
102
{ACAD_REACTORS
330
6A82
102
}
330
6A82
100
AcDbXrecord
280
     1
270
     1
271
     1
  0
XRECORD
  5
6A88
102
{ACAD_REACTORS
330
6A82
102
}
330
6A82
100
AcDbXrecord
280
     1
270
     1
271
     1
  0
XRECORD
  5
6A85
102
{ACAD_REACTORS
330
6A82
102
}
330
6A82
100
AcDbXrecord
280
     1
270
     1
271
     1
  0
XRECORD
  5
6B4A
102
{ACAD_REACTORS
330
6B49
102
}
330
6B49
100
AcDbXrecord
280
     1
102
ACAD_ROUNDTRIP_2012_MLEADER_STYLE
298
     1
  0
XRECORD
  5
6B4C
102
{ACAD_REACTORS
330
6B4B
102
}
330
6B4B
100
AcDbXrecord
280
     1
102
DISPLAYNAME
  1
Imperial24
102
FLAGS
 90
        0
  0
CELLSTYLEMAP
  5
6B13
102
{ACAD_REACTORS
330
6AC4
102
}
330
6AC4
100
AcDbCellStyleMap
 90
        3
300
CELLSTYLE
  1
TABLEFORMAT_BEGIN
 90
        5
170
     1
 91
        0
 92
    32768
 62
   257
 93
        1
300
CONTENTFORMAT
  1
CONTENTFORMAT_BEGIN
 90
        0
 91
        0
 92
      512
 93
        0
300

 40
0.0
140
1.0
 94
        5
 62
     0
340
6280
144
0.25
309
CONTENTFORMAT_END
171
     0
 94
        0
309
TABLEFORMAT_END
  1
CELLSTYLE_BEGIN
 90
        1
 91
        1
300
_TITLE
309
CELLSTYLE_END
300
CELLSTYLE
  1
TABLEFORMAT_BEGIN
 90
        5
170
     1
 91
        0
 92
        0
 62
   257
 93
        1
300
CONTENTFORMAT
  1
CONTENTFORMAT_BEGIN
 90
        0
 91
        0
 92
      512
 93
        0
300

 40
0.0
140
1.0
 94
        5
 62
     0
340
6280
144
0.18
309
CONTENTFORMAT_END
171
     0
 94
        0
309
TABLEFORMAT_END
  1
CELLSTYLE_BEGIN
 90
        2
 91
        1
300
_HEADER
309
CELLSTYLE_END
300
CELLSTYLE
  1
TABLEFORMAT_BEGIN
 90
        5
170
     1
 91
        0
 92
        0
 62
   257
 93
        1
300
CONTENTFORMAT
  1
CONTENTFORMAT_BEGIN
 90
        0
 91
        0
 92
      512
 93
        0
300

 40
0.0
140
1.0
 94
        2
 62
     0
340
6280
144
0.18
309
CONTENTFORMAT_END
171
     0
 94
        0
309
TABLEFORMAT_END
  1
CELLSTYLE_BEGIN
 90
        3
 91
        2
300
_DATA
309
CELLSTYLE_END
  0
XRECORD
  5
6B48
102
{ACAD_REACTORS
330
6AC4
102
}
330
6AC4
100
AcDbXrecord
280
     1
102
ACAD_ROUNDTRIP_PRE2007_TABLESTYLE
 90
      512
 91
        0
  1

 92
      512
 93
        0
  2

 94
      512
 95
        0
  3

  0
XRECORD
  5
6B23
102
{ACAD_REACTORS
330
6B22
102
}
330
6B22
100
AcDbXrecord
280
     1
102
RTVSPost2010Prop28
280
     1
102
RTVSPost2010PropOp28
 70
     1
102
RTVSPost2010Prop29
280
     1
102
RTVSPost2010PropOp29
 70
     1
102
RTVSPost2010Prop30
280
     0
102
RTVSPost2010PropOp30
 70
     1
102
RTVSPost2010Prop31
280
     0
102
RTVSPost2010PropOp31
 70
     1
102
RTVSPost2010Prop32
280
     0
102
RTVSPost2010PropOp32
 70
     1
102
RTVSPost2010Prop33
280
     0
102
RTVSPost2010PropOp33
 70
     1
102
RTVSPost2010Prop34
280
     0
102
RTVSPost2010PropOp34
 70
     1
102
RTVSPost2010Prop35
280
     0
102
RTVSPost2010PropOp35
 70
     1
102
RTVSPost2010Prop36
280
     0
102
RTVSPost2010PropOp36
 70
     1
102
RTVSPost2010Prop37
 90
       50
102
RTVSPost2010PropOp37
 70
     1
102
RTVSPost2010Prop38
140
0.0
102
RTVSPost2010PropOp38
 70
     1
102
RTVSPost2010Prop39
140
1.0
102
RTVSPost2010PropOp39
 70
     1
102
RTVSPost2010Prop40
 90
        0
102
RTVSPost2010PropOp40
 70
     1
102
RTVSPost2010Prop41ColorIndex
 90
       18
102
RTVSPost2010Prop41ColorRGB
 90
        0
102
RTVSPost2010PropOp41
 70
     1
102
RTVSPost2010Prop42
 90
       50
102
RTVSPost2010PropOp42
 70
     1
102
RTVSPost2010Prop43
 90
        3
102
RTVSPost2010PropOp43
 70
     1
102
RTVSPost2010Prop44ColorIndex
 90
        5
102
RTVSPost2010Prop44ColorRGB
 90
      255
102
RTVSPost2010PropOp44
 70
     1
102
RTVSPost2010Prop45
280
     0
102
RTVSPost2010PropOp45
 70
     1
102
RTVSPost2010Prop46
 90
       50
102
RTVSPost2010PropOp46
 70
     1
102
RTVSPost2010Prop47
 90
       50
102
RTVSPost2010PropOp47
 70
     1
102
RTVSPost2010Prop48
 90
       50
102
RTVSPost2010PropOp48
 70
     1
102
RTVSPost2010Prop49
280
     0
102
RTVSPost2010PropOp49
 70
     1
102
RTVSPost2010Prop50
 90
       50
102
RTVSPost2010PropOp50
 70
     1
102
RTVSPost2010Prop51ColorIndex
 90
      256
102
RTVSPost2010Prop51ColorRGB
 90
-16777216
102
RTVSPost2010PropOp51
 70
     0
102
RTVSPost2010Prop52
140
1.0
102
RTVSPost2010PropOp52
 70
     0
102
RTVSPost2010Prop53
 90
        2
102
RTVSPost2010PropOp53
 70
     1
102
RTVSPost2010Prop54
  1
strokes_ogs.tif
102
RTVSPost2010PropOp54
 70
     1
102
RTVSPost2010Prop55
280
     0
102
RTVSPost2010PropOp55
 70
     1
102
RTVSPost2010Prop56
140
1.0
102
RTVSPost2010PropOp56
 70
     1
102
RTVSPost2010Prop57
140
1.0
102
RTVSPost2010PropOp57
 70
     1
102
RTVSPropertyOp0
 70
     1
102
RTVSPropertyOp1
 70
     1
102
RTVSPropertyOp2
 70
     1
102
RTVSPropertyOp3
 70
     1
102
RTVSPropertyOp4
 70
     1
102
RTVSPropertyOp5
 70
     1
102
RTVSPropertyOp6
 70
     1
102
RTVSPropertyOp7
 70
     1
102
RTVSPropertyOp8
 70
     1
102
RTVSPropertyOp9
 70
     1
102
RTVSPropertyOp10
 70
     1
102
RTVSPropertyOp11
 70
     1
102
RTVSPropertyOp12
 70
     1
102
RTVSPropertyOp13
 70
     1
102
RTVSPropertyOp14
 70
     1
102
RTVSPropertyOp15
 70
     1
102
RTVSPropertyOp16
 70
     1
102
RTVSPropertyOp17
 70
     1
102
RTVSPropertyOp18
 70
     1
102
RTVSPropertyOp19
 70
     1
102
RTVSPropertyOp20
 70
     1
102
RTVSPropertyOp21
 70
     1
102
RTVSPropertyOp22
 70
     1
102
RTVSPropertyOp23
 70
     1
102
RTVSPropertyOp24
 70
     1
102
RTVSPropertyOp25
 70
     1
102
RTVSPropertyOp26
 70
     1
102
RTVSPropertyOp27
 70
     1
102
RTVSPropertyOp28
 70
     1
102
RTVSPropertyOp29
 70
     1
102
RTVSPropertyOp30
 70
     1
102
RTVSPropertyOp31
 70
     1
102
RTVSPropertyOp32
 70
     1
102
RTVSPropertyOp33
 70
     1
102
RTVSPropertyOp34
 70
     1
102
RTVSPropertyOp35
 70
     1
102
RTVSPropertyOp36
 70
     1
102
RTVSPropertyOp37
 70
     1
102
RTVSPropertyOp38
 70
     1
102
RTVSPropertyOp39
 70
     1
102
RTVSPropertyOp40
 70
     1
102
RTVSPropertyOp41
 70
     1
102
RTVSPropertyOp42
 70
     1
102
RTVSPropertyOp43
 70
     1
102
RTVSPropertyOp44
 70
     1
102
RTVSPropertyOp45
 70
     1
102
RTVSPropertyOp46
 70
     1
102
RTVSPropertyOp47
 70
     1
102
RTVSPropertyOp48
 70
     1
102
RTVSPropertyOp49
 70
     1
102
RTVSPropertyOp50
 70
     1
102
RTVSPropertyOp51
 70
     0
102
RTVSPropertyOp52
 70
     0
102
RTVSPropertyOp53
 70
     1
102
RTVSPropertyOp54
 70
     1
102
RTVSPropertyOp55
 70
     1
102
RTVSPropertyOp56
 70
     1
102
RTVSPropertyOp57
 70
     1
102
RTVSPropertyOp58
 70
     1
102
RTVSPropertyOp59
 70
     1
102
RTVSPropertyOp60
 70
     1
102
RTVSPropertyOp61
 70
     1
102
RTVSPropertyOp62
 70
     1
  0
XRECORD
  5
6B21
102
{ACAD_REACTORS
330
6B20
102
}
330
6B20
100
AcDbXrecord
280
     1
102
RTVSPost2010Prop28
280
     0
102
RTVSPost2010PropOp28
 70
     1
102
RTVSPost2010Prop29
280
     1
102
RTVSPost2010PropOp29
 70
     1
102
RTVSPost2010Prop30
280
     1
102
RTVSPost2010PropOp30
 70
     1
102
RTVSPost2010Prop31
280
     0
102
RTVSPost2010PropOp31
 70
     1
102
RTVSPost2010Prop32
280
     0
102
RTVSPost2010PropOp32
 70
     1
102
RTVSPost2010Prop33
280
     0
102
RTVSPost2010PropOp33
 70
     1
102
RTVSPost2010Prop34
280
     0
102
RTVSPost2010PropOp34
 70
     1
102
RTVSPost2010Prop35
280
     0
102
RTVSPost2010PropOp35
 70
     1
102
RTVSPost2010Prop36
280
     0
102
RTVSPost2010PropOp36
 70
     1
102
RTVSPost2010Prop37
 90
       50
102
RTVSPost2010PropOp37
 70
     1
102
RTVSPost2010Prop38
140
0.0
102
RTVSPost2010PropOp38
 70
     1
102
RTVSPost2010Prop39
140
1.0
102
RTVSPost2010PropOp39
 70
     1
102
RTVSPost2010Prop40
 90
        0
102
RTVSPost2010PropOp40
 70
     1
102
RTVSPost2010Prop41ColorIndex
 90
       18
102
RTVSPost2010Prop41ColorRGB
 90
        0
102
RTVSPost2010PropOp41
 70
     1
102
RTVSPost2010Prop42
 90
       50
102
RTVSPost2010PropOp42
 70
     1
102
RTVSPost2010Prop43
 90
        3
102
RTVSPost2010PropOp43
 70
     1
102
RTVSPost2010Prop44ColorIndex
 90
        5
102
RTVSPost2010Prop44ColorRGB
 90
      255
102
RTVSPost2010PropOp44
 70
     1
102
RTVSPost2010Prop45
280
     0
102
RTVSPost2010PropOp45
 70
     1
102
RTVSPost2010Prop46
 90
       50
102
RTVSPost2010PropOp46
 70
     1
102
RTVSPost2010Prop47
 90
       50
102
RTVSPost2010PropOp47
 70
     1
102
RTVSPost2010Prop48
 90
       50
102
RTVSPost2010PropOp48
 70
     1
102
RTVSPost2010Prop49
280
     0
102
RTVSPost2010PropOp49
 70
     1
102
RTVSPost2010Prop50
 90
       50
102
RTVSPost2010PropOp50
 70
     1
102
RTVSPost2010Prop51ColorIndex
 90
      256
102
RTVSPost2010Prop51ColorRGB
 90
-16777216
102
RTVSPost2010PropOp51
 70
     0
102
RTVSPost2010Prop52
140
1.0
102
RTVSPost2010PropOp52
 70
     0
102
RTVSPost2010Prop53
 90
        2
102
RTVSPost2010PropOp53
 70
     1
102
RTVSPost2010Prop54
  1
strokes_ogs.tif
102
RTVSPost2010PropOp54
 70
     1
102
RTVSPost2010Prop55
280
     0
102
RTVSPost2010PropOp55
 70
     1
102
RTVSPost2010Prop56
140
1.0
102
RTVSPost2010PropOp56
 70
     1
102
RTVSPost2010Prop57
140
1.0
102
RTVSPost2010PropOp57
 70
     1
102
RTVSPropertyOp0
 70
     1
102
RTVSPropertyOp1
 70
     1
102
RTVSPropertyOp2
 70
     1
102
RTVSPropertyOp3
 70
     1
102
RTVSPropertyOp4
 70
     1
102
RTVSPropertyOp5
 70
     1
102
RTVSPropertyOp6
 70
     1
102
RTVSPropertyOp7
 70
     1
102
RTVSPropertyOp8
 70
     1
102
RTVSPropertyOp9
 70
     1
102
RTVSPropertyOp10
 70
     1
102
RTVSPropertyOp11
 70
     1
102
RTVSPropertyOp12
 70
     1
102
RTVSPropertyOp13
 70
     1
102
RTVSPropertyOp14
 70
     1
102
RTVSPropertyOp15
 70
     1
102
RTVSPropertyOp16
 70
     1
102
RTVSPropertyOp17
 70
     1
102
RTVSPropertyOp18
 70
     1
102
RTVSPropertyOp19
 70
     1
102
RTVSPropertyOp20
 70
     1
102
RTVSPropertyOp21
 70
     1
102
RTVSPropertyOp22
 70
     1
102
RTVSPropertyOp23
 70
     1
102
RTVSPropertyOp24
 70
     1
102
RTVSPropertyOp25
 70
     1
102
RTVSPropertyOp26
 70
     1
102
RTVSPropertyOp27
 70
     1
102
RTVSPropertyOp28
 70
     1
102
RTVSPropertyOp29
 70
     1
102
RTVSPropertyOp30
 70
     1
102
RTVSPropertyOp31
 70
     1
102
RTVSPropertyOp32
 70
     1
102
RTVSPropertyOp33
 70
     1
102
RTVSPropertyOp34
 70
     1
102
RTVSPropertyOp35
 70
     1
102
RTVSPropertyOp36
 70
     1
102
RTVSPropertyOp37
 70
     1
102
RTVSPropertyOp38
 70
     1
102
RTVSPropertyOp39
 70
     1
102
RTVSPropertyOp40
 70
     1
102
RTVSPropertyOp41
 70
     1
102
RTVSPropertyOp42
 70
     1
102
RTVSPropertyOp43
 70
     1
102
RTVSPropertyOp44
 70
     1
102
RTVSPropertyOp45
 70
     1
102
RTVSPropertyOp46
 70
     1
102
RTVSPropertyOp47
 70
     1
102
RTVSPropertyOp48
 70
     1
102
RTVSPropertyOp49
 70
     1
102
RTVSPropertyOp50
 70
     1
102
RTVSPropertyOp51
 70
     0
102
RTVSPropertyOp52
 70
     0
102
RTVSPropertyOp53
 70
     1
102
RTVSPropertyOp54
 70
     1
102
RTVSPropertyOp55
 70
     1
102
RTVSPropertyOp56
 70
     1
102
RTVSPropertyOp57
 70
     1
102
RTVSPropertyOp58
 70
     1
102
RTVSPropertyOp59
 70
     1
102
RTVSPropertyOp60
 70
     1
102
RTVSPropertyOp61
 70
     1
102
RTVSPropertyOp62
 70
     1
  0
XRECORD
  5
6B2F
102
{ACAD_REACTORS
330
6B2E
102
}
330
6B2E
100
AcDbXrecord
280
     1
102
RTVSPost2010Prop28
280
     0
102
RTVSPost2010PropOp28
 70
     1
102
RTVSPost2010Prop29
280
     1
102
RTVSPost2010PropOp29
 70
     1
102
RTVSPost2010Prop30
280
     1
102
RTVSPost2010PropOp30
 70
     1
102
RTVSPost2010Prop31
280
     0
102
RTVSPost2010PropOp31
 70
     1
102
RTVSPost2010Prop32
280
     0
102
RTVSPost2010PropOp32
 70
     1
102
RTVSPost2010Prop33
280
     0
102
RTVSPost2010PropOp33
 70
     1
102
RTVSPost2010Prop34
280
     0
102
RTVSPost2010PropOp34
 70
     1
102
RTVSPost2010Prop35
280
     0
102
RTVSPost2010PropOp35
 70
     1
102
RTVSPost2010Prop36
280
     0
102
RTVSPost2010PropOp36
 70
     1
102
RTVSPost2010Prop37
 90
       50
102
RTVSPost2010PropOp37
 70
     1
102
RTVSPost2010Prop38
140
0.0
102
RTVSPost2010PropOp38
 70
     1
102
RTVSPost2010Prop39
140
1.0
102
RTVSPost2010PropOp39
 70
     1
102
RTVSPost2010Prop40
 90
        0
102
RTVSPost2010PropOp40
 70
     1
102
RTVSPost2010Prop41ColorIndex
 90
       18
102
RTVSPost2010Prop41ColorRGB
 90
        0
102
RTVSPost2010PropOp41
 70
     1
102
RTVSPost2010Prop42
 90
       50
102
RTVSPost2010PropOp42
 70
     1
102
RTVSPost2010Prop43
 90
        3
102
RTVSPost2010PropOp43
 70
     1
102
RTVSPost2010Prop44ColorIndex
 90
        5
102
RTVSPost2010Prop44ColorRGB
 90
      255
102
RTVSPost2010PropOp44
 70
     1
102
RTVSPost2010Prop45
280
     0
102
RTVSPost2010PropOp45
 70
     1
102
RTVSPost2010Prop46
 90
       50
102
RTVSPost2010PropOp46
 70
     1
102
RTVSPost2010Prop47
 90
       50
102
RTVSPost2010PropOp47
 70
     1
102
RTVSPost2010Prop48
 90
       50
102
RTVSPost2010PropOp48
 70
     1
102
RTVSPost2010Prop49
280
     0
102
RTVSPost2010PropOp49
 70
     1
102
RTVSPost2010Prop50
 90
       50
102
RTVSPost2010PropOp50
 70
     1
102
RTVSPost2010Prop51ColorIndex
 90
      256
102
RTVSPost2010Prop51ColorRGB
 90
-16777216
102
RTVSPost2010PropOp51
 70
     0
102
RTVSPost2010Prop52
140
1.0
102
RTVSPost2010PropOp52
 70
     0
102
RTVSPost2010Prop53
 90
        2
102
RTVSPost2010PropOp53
 70
     1
102
RTVSPost2010Prop54
  1
strokes_ogs.tif
102
RTVSPost2010PropOp54
 70
     1
102
RTVSPost2010Prop55
280
     0
102
RTVSPost2010PropOp55
 70
     1
102
RTVSPost2010Prop56
140
1.0
102
RTVSPost2010PropOp56
 70
     1
102
RTVSPost2010Prop57
140
1.0
102
RTVSPost2010PropOp57
 70
     1
102
RTVSPropertyOp0
 70
     1
102
RTVSPropertyOp1
 70
     1
102
RTVSPropertyOp2
 70
     1
102
RTVSPropertyOp3
 70
     1
102
RTVSPropertyOp4
 70
     1
102
RTVSPropertyOp5
 70
     1
102
RTVSPropertyOp6
 70
     1
102
RTVSPropertyOp7
 70
     1
102
RTVSPropertyOp8
 70
     1
102
RTVSPropertyOp9
 70
     1
102
RTVSPropertyOp10
 70
     1
102
RTVSPropertyOp11
 70
     1
102
RTVSPropertyOp12
 70
     1
102
RTVSPropertyOp13
 70
     1
102
RTVSPropertyOp14
 70
     1
102
RTVSPropertyOp15
 70
     1
102
RTVSPropertyOp16
 70
     1
102
RTVSPropertyOp17
 70
     1
102
RTVSPropertyOp18
 70
     1
102
RTVSPropertyOp19
 70
     1
102
RTVSPropertyOp20
 70
     1
102
RTVSPropertyOp21
 70
     1
102
RTVSPropertyOp22
 70
     1
102
RTVSPropertyOp23
 70
     1
102
RTVSPropertyOp24
 70
     1
102
RTVSPropertyOp25
 70
     1
102
RTVSPropertyOp26
 70
     1
102
RTVSPropertyOp27
 70
     1
102
RTVSPropertyOp28
 70
     1
102
RTVSPropertyOp29
 70
     1
102
RTVSPropertyOp30
 70
     1
102
RTVSPropertyOp31
 70
     1
102
RTVSPropertyOp32
 70
     1
102
RTVSPropertyOp33
 70
     1
102
RTVSPropertyOp34
 70
     1
102
RTVSPropertyOp35
 70
     1
102
RTVSPropertyOp36
 70
     1
102
RTVSPropertyOp37
 70
     1
102
RTVSPropertyOp38
 70
     1
102
RTVSPropertyOp39
 70
     1
102
RTVSPropertyOp40
 70
     1
102
RTVSPropertyOp41
 70
     1
102
RTVSPropertyOp42
 70
     1
102
RTVSPropertyOp43
 70
     1
102
RTVSPropertyOp44
 70
     1
102
RTVSPropertyOp45
 70
     1
102
RTVSPropertyOp46
 70
     1
102
RTVSPropertyOp47
 70
     1
102
RTVSPropertyOp48
 70
     1
102
RTVSPropertyOp49
 70
     1
102
RTVSPropertyOp50
 70
     1
102
RTVSPropertyOp51
 70
     0
102
RTVSPropertyOp52
 70
     0
102
RTVSPropertyOp53
 70
     1
102
RTVSPropertyOp54
 70
     1
102
RTVSPropertyOp55
 70
     1
102
RTVSPropertyOp56
 70
     1
102
RTVSPropertyOp57
 70
     1
102
RTVSPropertyOp58
 70
     1
102
RTVSPropertyOp59
 70
     1
102
RTVSPropertyOp60
 70
     1
102
RTVSPropertyOp61
 70
     1
102
RTVSPropertyOp62
 70
     1
  0
XRECORD
  5
6B37
102
{ACAD_REACTORS
330
6B36
102
}
330
6B36
100
AcDbXrecord
280
     1
102
RTVSPost2010Prop28
280
     0
102
RTVSPost2010PropOp28
 70
     1
102
RTVSPost2010Prop29
280
     1
102
RTVSPost2010PropOp29
 70
     1
102
RTVSPost2010Prop30
280
     1
102
RTVSPost2010PropOp30
 70
     1
102
RTVSPost2010Prop31
280
     0
102
RTVSPost2010PropOp31
 70
     1
102
RTVSPost2010Prop32
280
     0
102
RTVSPost2010PropOp32
 70
     1
102
RTVSPost2010Prop33
280
     0
102
RTVSPost2010PropOp33
 70
     1
102
RTVSPost2010Prop34
280
     0
102
RTVSPost2010PropOp34
 70
     1
102
RTVSPost2010Prop35
280
     0
102
RTVSPost2010PropOp35
 70
     1
102
RTVSPost2010Prop36
280
     0
102
RTVSPost2010PropOp36
 70
     1
102
RTVSPost2010Prop37
 90
       50
102
RTVSPost2010PropOp37
 70
     1
102
RTVSPost2010Prop38
140
0.0
102
RTVSPost2010PropOp38
 70
     1
102
RTVSPost2010Prop39
140
1.0
102
RTVSPost2010PropOp39
 70
     1
102
RTVSPost2010Prop40
 90
        0
102
RTVSPost2010PropOp40
 70
     1
102
RTVSPost2010Prop41ColorIndex
 90
       18
102
RTVSPost2010Prop41ColorRGB
 90
        0
102
RTVSPost2010PropOp41
 70
     1
102
RTVSPost2010Prop42
 90
       50
102
RTVSPost2010PropOp42
 70
     1
102
RTVSPost2010Prop43
 90
        3
102
RTVSPost2010PropOp43
 70
     1
102
RTVSPost2010Prop44ColorIndex
 90
        5
102
RTVSPost2010Prop44ColorRGB
 90
      255
102
RTVSPost2010PropOp44
 70
     1
102
RTVSPost2010Prop45
280
     0
102
RTVSPost2010PropOp45
 70
     1
102
RTVSPost2010Prop46
 90
       50
102
RTVSPost2010PropOp46
 70
     1
102
RTVSPost2010Prop47
 90
       50
102
RTVSPost2010PropOp47
 70
     1
102
RTVSPost2010Prop48
 90
       50
102
RTVSPost2010PropOp48
 70
     1
102
RTVSPost2010Prop49
280
     0
102
RTVSPost2010PropOp49
 70
     1
102
RTVSPost2010Prop50
 90
       50
102
RTVSPost2010PropOp50
 70
     1
102
RTVSPost2010Prop51ColorIndex
 90
      256
102
RTVSPost2010Prop51ColorRGB
 90
-16777216
102
RTVSPost2010PropOp51
 70
     0
102
RTVSPost2010Prop52
140
1.0
102
RTVSPost2010PropOp52
 70
     0
102
RTVSPost2010Prop53
 90
        2
102
RTVSPost2010PropOp53
 70
     1
102
RTVSPost2010Prop54
  1
strokes_ogs.tif
102
RTVSPost2010PropOp54
 70
     1
102
RTVSPost2010Prop55
280
     0
102
RTVSPost2010PropOp55
 70
     1
102
RTVSPost2010Prop56
140
1.0
102
RTVSPost2010PropOp56
 70
     1
102
RTVSPost2010Prop57
140
1.0
102
RTVSPost2010PropOp57
 70
     1
102
RTVSPropertyOp0
 70
     1
102
RTVSPropertyOp1
 70
     1
102
RTVSPropertyOp2
 70
     1
102
RTVSPropertyOp3
 70
     1
102
RTVSPropertyOp4
 70
     1
102
RTVSPropertyOp5
 70
     1
102
RTVSPropertyOp6
 70
     1
102
RTVSPropertyOp7
 70
     1
102
RTVSPropertyOp8
 70
     1
102
RTVSPropertyOp9
 70
     1
102
RTVSPropertyOp10
 70
     1
102
RTVSPropertyOp11
 70
     1
102
RTVSPropertyOp12
 70
     1
102
RTVSPropertyOp13
 70
     1
102
RTVSPropertyOp14
 70
     1
102
RTVSPropertyOp15
 70
     1
102
RTVSPropertyOp16
 70
     1
102
RTVSPropertyOp17
 70
     1
102
RTVSPropertyOp18
 70
     1
102
RTVSPropertyOp19
 70
     1
102
RTVSPropertyOp20
 70
     1
102
RTVSPropertyOp21
 70
     1
102
RTVSPropertyOp22
 70
     1
102
RTVSPropertyOp23
 70
     1
102
RTVSPropertyOp24
 70
     1
102
RTVSPropertyOp25
 70
     1
102
RTVSPropertyOp26
 70
     1
102
RTVSPropertyOp27
 70
     1
102
RTVSPropertyOp28
 70
     1
102
RTVSPropertyOp29
 70
     1
102
RTVSPropertyOp30
 70
     1
102
RTVSPropertyOp31
 70
     1
102
RTVSPropertyOp32
 70
     1
102
RTVSPropertyOp33
 70
     1
102
RTVSPropertyOp34
 70
     1
102
RTVSPropertyOp35
 70
     1
102
RTVSPropertyOp36
 70
     1
102
RTVSPropertyOp37
 70
     1
102
RTVSPropertyOp38
 70
     1
102
RTVSPropertyOp39
 70
     1
102
RTVSPropertyOp40
 70
     1
102
RTVSPropertyOp41
 70
     1
102
RTVSPropertyOp42
 70
     1
102
RTVSPropertyOp43
 70
     1
102
RTVSPropertyOp44
 70
     1
102
RTVSPropertyOp45
 70
     1
102
RTVSPropertyOp46
 70
     1
102
RTVSPropertyOp47
 70
     1
102
RTVSPropertyOp48
 70
     1
102
RTVSPropertyOp49
 70
     1
102
RTVSPropertyOp50
 70
     1
102
RTVSPropertyOp51
 70
     0
102
RTVSPropertyOp52
 70
     0
102
RTVSPropertyOp53
 70
     1
102
RTVSPropertyOp54
 70
     1
102
RTVSPropertyOp55
 70
     1
102
RTVSPropertyOp56
 70
     1
102
RTVSPropertyOp57
 70
     1
102
RTVSPropertyOp58
 70
     1
102
RTVSPropertyOp59
 70
     1
102
RTVSPropertyOp60
 70
     1
102
RTVSPropertyOp61
 70
     1
102
RTVSPropertyOp62
 70
     1
  0
XRECORD
  5
6B29
102
{ACAD_REACTORS
330
6B28
102
}
330
6B28
100
AcDbXrecord
280
     1
102
RTVSPost2010Prop28
280
     0
102
RTVSPost2010PropOp28
 70
     1
102
RTVSPost2010Prop29
280
     1
102
RTVSPost2010PropOp29
 70
     1
102
RTVSPost2010Prop30
280
     1
102
RTVSPost2010PropOp30
 70
     1
102
RTVSPost2010Prop31
280
     0
102
RTVSPost2010PropOp31
 70
     1
102
RTVSPost2010Prop32
280
     0
102
RTVSPost2010PropOp32
 70
     1
102
RTVSPost2010Prop33
280
     0
102
RTVSPost2010PropOp33
 70
     1
102
RTVSPost2010Prop34
280
     0
102
RTVSPost2010PropOp34
 70
     1
102
RTVSPost2010Prop35
280
     0
102
RTVSPost2010PropOp35
 70
     1
102
RTVSPost2010Prop36
280
     0
102
RTVSPost2010PropOp36
 70
     1
102
RTVSPost2010Prop37
 90
       50
102
RTVSPost2010PropOp37
 70
     1
102
RTVSPost2010Prop38
140
0.0
102
RTVSPost2010PropOp38
 70
     1
102
RTVSPost2010Prop39
140
1.0
102
RTVSPost2010PropOp39
 70
     1
102
RTVSPost2010Prop40
 90
        0
102
RTVSPost2010PropOp40
 70
     1
102
RTVSPost2010Prop41ColorIndex
 90
       18
102
RTVSPost2010Prop41ColorRGB
 90
        0
102
RTVSPost2010PropOp41
 70
     1
102
RTVSPost2010Prop42
 90
       50
102
RTVSPost2010PropOp42
 70
     1
102
RTVSPost2010Prop43
 90
        3
102
RTVSPost2010PropOp43
 70
     1
102
RTVSPost2010Prop44ColorIndex
 90
        5
102
RTVSPost2010Prop44ColorRGB
 90
      255
102
RTVSPost2010PropOp44
 70
     1
102
RTVSPost2010Prop45
280
     0
102
RTVSPost2010PropOp45
 70
     1
102
RTVSPost2010Prop46
 90
       50
102
RTVSPost2010PropOp46
 70
     1
102
RTVSPost2010Prop47
 90
       50
102
RTVSPost2010PropOp47
 70
     1
102
RTVSPost2010Prop48
 90
       50
102
RTVSPost2010PropOp48
 70
     1
102
RTVSPost2010Prop49
280
     0
102
RTVSPost2010PropOp49
 70
     1
102
RTVSPost2010Prop50
 90
       50
102
RTVSPost2010PropOp50
 70
     1
102
RTVSPost2010Prop51ColorIndex
 90
      256
102
RTVSPost2010Prop51ColorRGB
 90
-16777216
102
RTVSPost2010PropOp51
 70
     0
102
RTVSPost2010Prop52
140
1.0
102
RTVSPost2010PropOp52
 70
     0
102
RTVSPost2010Prop53
 90
        2
102
RTVSPost2010PropOp53
 70
     1
102
RTVSPost2010Prop54
  1
strokes_ogs.tif
102
RTVSPost2010PropOp54
 70
     1
102
RTVSPost2010Prop55
280
     0
102
RTVSPost2010PropOp55
 70
     1
102
RTVSPost2010Prop56
140
1.0
102
RTVSPost2010PropOp56
 70
     1
102
RTVSPost2010Prop57
140
1.0
102
RTVSPost2010PropOp57
 70
     1
102
RTVSPropertyOp0
 70
     1
102
RTVSPropertyOp1
 70
     1
102
RTVSPropertyOp2
 70
     1
102
RTVSPropertyOp3
 70
     1
102
RTVSPropertyOp4
 70
     1
102
RTVSPropertyOp5
 70
     1
102
RTVSPropertyOp6
 70
     1
102
RTVSPropertyOp7
 70
     1
102
RTVSPropertyOp8
 70
     1
102
RTVSPropertyOp9
 70
     1
102
RTVSPropertyOp10
 70
     1
102
RTVSPropertyOp11
 70
     1
102
RTVSPropertyOp12
 70
     1
102
RTVSPropertyOp13
 70
     1
102
RTVSPropertyOp14
 70
     1
102
RTVSPropertyOp15
 70
     1
102
RTVSPropertyOp16
 70
     1
102
RTVSPropertyOp17
 70
     1
102
RTVSPropertyOp18
 70
     1
102
RTVSPropertyOp19
 70
     1
102
RTVSPropertyOp20
 70
     1
102
RTVSPropertyOp21
 70
     1
102
RTVSPropertyOp22
 70
     1
102
RTVSPropertyOp23
 70
     1
102
RTVSPropertyOp24
 70
     1
102
RTVSPropertyOp25
 70
     1
102
RTVSPropertyOp26
 70
     1
102
RTVSPropertyOp27
 70
     1
102
RTVSPropertyOp28
 70
     1
102
RTVSPropertyOp29
 70
     1
102
RTVSPropertyOp30
 70
     1
102
RTVSPropertyOp31
 70
     1
102
RTVSPropertyOp32
 70
     1
102
RTVSPropertyOp33
 70
     1
102
RTVSPropertyOp34
 70
     1
102
RTVSPropertyOp35
 70
     1
102
RTVSPropertyOp36
 70
     1
102
RTVSPropertyOp37
 70
     1
102
RTVSPropertyOp38
 70
     1
102
RTVSPropertyOp39
 70
     1
102
RTVSPropertyOp40
 70
     1
102
RTVSPropertyOp41
 70
     1
102
RTVSPropertyOp42
 70
     1
102
RTVSPropertyOp43
 70
     1
102
RTVSPropertyOp44
 70
     1
102
RTVSPropertyOp45
 70
     1
102
RTVSPropertyOp46
 70
     1
102
RTVSPropertyOp47
 70
     1
102
RTVSPropertyOp48
 70
     1
102
RTVSPropertyOp49
 70
     1
102
RTVSPropertyOp50
 70
     1
102
RTVSPropertyOp51
 70
     0
102
RTVSPropertyOp52
 70
     0
102
RTVSPropertyOp53
 70
     1
102
RTVSPropertyOp54
 70
     1
102
RTVSPropertyOp55
 70
     1
102
RTVSPropertyOp56
 70
     1
102
RTVSPropertyOp57
 70
     1
102
RTVSPropertyOp58
 70
     1
102
RTVSPropertyOp59
 70
     1
102
RTVSPropertyOp60
 70
     1
102
RTVSPropertyOp61
 70
     1
102
RTVSPropertyOp62
 70
     1
  0
XRECORD
  5
6B2D
102
{ACAD_REACTORS
330
6B2C
102
}
330
6B2C
100
AcDbXrecord
280
     1
102
RTVSPost2010Prop28
280
     0
102
RTVSPost2010PropOp28
 70
     1
102
RTVSPost2010Prop29
280
     1
102
RTVSPost2010PropOp29
 70
     1
102
RTVSPost2010Prop30
280
     1
102
RTVSPost2010PropOp30
 70
     1
102
RTVSPost2010Prop31
280
     0
102
RTVSPost2010PropOp31
 70
     1
102
RTVSPost2010Prop32
280
     0
102
RTVSPost2010PropOp32
 70
     1
102
RTVSPost2010Prop33
280
     0
102
RTVSPost2010PropOp33
 70
     1
102
RTVSPost2010Prop34
280
     0
102
RTVSPost2010PropOp34
 70
     1
102
RTVSPost2010Prop35
280
     0
102
RTVSPost2010PropOp35
 70
     1
102
RTVSPost2010Prop36
280
     0
102
RTVSPost2010PropOp36
 70
     1
102
RTVSPost2010Prop37
 90
       50
102
RTVSPost2010PropOp37
 70
     1
102
RTVSPost2010Prop38
140
0.0
102
RTVSPost2010PropOp38
 70
     1
102
RTVSPost2010Prop39
140
1.0
102
RTVSPost2010PropOp39
 70
     1
102
RTVSPost2010Prop40
 90
        0
102
RTVSPost2010PropOp40
 70
     1
102
RTVSPost2010Prop41ColorIndex
 90
       18
102
RTVSPost2010Prop41ColorRGB
 90
        0
102
RTVSPost2010PropOp41
 70
     1
102
RTVSPost2010Prop42
 90
       50
102
RTVSPost2010PropOp42
 70
     1
102
RTVSPost2010Prop43
 90
        3
102
RTVSPost2010PropOp43
 70
     1
102
RTVSPost2010Prop44ColorIndex
 90
        5
102
RTVSPost2010Prop44ColorRGB
 90
      255
102
RTVSPost2010PropOp44
 70
     1
102
RTVSPost2010Prop45
280
     0
102
RTVSPost2010PropOp45
 70
     1
102
RTVSPost2010Prop46
 90
       50
102
RTVSPost2010PropOp46
 70
     1
102
RTVSPost2010Prop47
 90
       50
102
RTVSPost2010PropOp47
 70
     1
102
RTVSPost2010Prop48
 90
       50
102
RTVSPost2010PropOp48
 70
     1
102
RTVSPost2010Prop49
280
     0
102
RTVSPost2010PropOp49
 70
     1
102
RTVSPost2010Prop50
 90
       50
102
RTVSPost2010PropOp50
 70
     1
102
RTVSPost2010Prop51ColorIndex
 90
      256
102
RTVSPost2010Prop51ColorRGB
 90
-16777216
102
RTVSPost2010PropOp51
 70
     0
102
RTVSPost2010Prop52
140
1.0
102
RTVSPost2010PropOp52
 70
     0
102
RTVSPost2010Prop53
 90
        2
102
RTVSPost2010PropOp53
 70
     1
102
RTVSPost2010Prop54
  1
strokes_ogs.tif
102
RTVSPost2010PropOp54
 70
     1
102
RTVSPost2010Prop55
280
     0
102
RTVSPost2010PropOp55
 70
     1
102
RTVSPost2010Prop56
140
1.0
102
RTVSPost2010PropOp56
 70
     1
102
RTVSPost2010Prop57
140
1.0
102
RTVSPost2010PropOp57
 70
     1
102
RTVSPropertyOp0
 70
     1
102
RTVSPropertyOp1
 70
     1
102
RTVSPropertyOp2
 70
     1
102
RTVSPropertyOp3
 70
     1
102
RTVSPropertyOp4
 70
     1
102
RTVSPropertyOp5
 70
     1
102
RTVSPropertyOp6
 70
     1
102
RTVSPropertyOp7
 70
     1
102
RTVSPropertyOp8
 70
     1
102
RTVSPropertyOp9
 70
     1
102
RTVSPropertyOp10
 70
     1
102
RTVSPropertyOp11
 70
     1
102
RTVSPropertyOp12
 70
     1
102
RTVSPropertyOp13
 70
     1
102
RTVSPropertyOp14
 70
     1
102
RTVSPropertyOp15
 70
     1
102
RTVSPropertyOp16
 70
     1
102
RTVSPropertyOp17
 70
     1
102
RTVSPropertyOp18
 70
     1
102
RTVSPropertyOp19
 70
     1
102
RTVSPropertyOp20
 70
     1
102
RTVSPropertyOp21
 70
     1
102
RTVSPropertyOp22
 70
     1
102
RTVSPropertyOp23
 70
     1
102
RTVSPropertyOp24
 70
     1
102
RTVSPropertyOp25
 70
     1
102
RTVSPropertyOp26
 70
     1
102
RTVSPropertyOp27
 70
     1
102
RTVSPropertyOp28
 70
     1
102
RTVSPropertyOp29
 70
     1
102
RTVSPropertyOp30
 70
     1
102
RTVSPropertyOp31
 70
     1
102
RTVSPropertyOp32
 70
     1
102
RTVSPropertyOp33
 70
     1
102
RTVSPropertyOp34
 70
     1
102
RTVSPropertyOp35
 70
     1
102
RTVSPropertyOp36
 70
     1
102
RTVSPropertyOp37
 70
     1
102
RTVSPropertyOp38
 70
     1
102
RTVSPropertyOp39
 70
     1
102
RTVSPropertyOp40
 70
     1
102
RTVSPropertyOp41
 70
     1
102
RTVSPropertyOp42
 70
     1
102
RTVSPropertyOp43
 70
     1
102
RTVSPropertyOp44
 70
     1
102
RTVSPropertyOp45
 70
     1
102
RTVSPropertyOp46
 70
     1
102
RTVSPropertyOp47
 70
     1
102
RTVSPropertyOp48
 70
     1
102
RTVSPropertyOp49
 70
     1
102
RTVSPropertyOp50
 70
     1
102
RTVSPropertyOp51
 70
     0
102
RTVSPropertyOp52
 70
     0
102
RTVSPropertyOp53
 70
     1
102
RTVSPropertyOp54
 70
     1
102
RTVSPropertyOp55
 70
     1
102
RTVSPropertyOp56
 70
     1
102
RTVSPropertyOp57
 70
     1
102
RTVSPropertyOp58
 70
     1
102
RTVSPropertyOp59
 70
     1
102
RTVSPropertyOp60
 70
     1
102
RTVSPropertyOp61
 70
     1
102
RTVSPropertyOp62
 70
     1
  0
XRECORD
  5
6B47
102
{ACAD_REACTORS
330
6B46
102
}
330
6B46
100
AcDbXrecord
280
     1
102
RTVSPost2010Prop28
280
     0
102
RTVSPost2010PropOp28
 70
     0
102
RTVSPost2010Prop29
280
     1
102
RTVSPost2010PropOp29
 70
     0
102
RTVSPost2010Prop30
280
     1
102
RTVSPost2010PropOp30
 70
     0
102
RTVSPost2010Prop31
280
     0
102
RTVSPost2010PropOp31
 70
     0
102
RTVSPost2010Prop32
280
     0
102
RTVSPost2010PropOp32
 70
     0
102
RTVSPost2010Prop33
280
     0
102
RTVSPost2010PropOp33
 70
     0
102
RTVSPost2010Prop34
280
     0
102
RTVSPost2010PropOp34
 70
     0
102
RTVSPost2010Prop35
280
     0
102
RTVSPost2010PropOp35
 70
     0
102
RTVSPost2010Prop36
280
     0
102
RTVSPost2010PropOp36
 70
     0
102
RTVSPost2010Prop37
 90
       50
102
RTVSPost2010PropOp37
 70
     0
102
RTVSPost2010Prop38
140
0.0
102
RTVSPost2010PropOp38
 70
     0
102
RTVSPost2010Prop39
140
1.0
102
RTVSPost2010PropOp39
 70
     0
102
RTVSPost2010Prop40
 90
        0
102
RTVSPost2010PropOp40
 70
     0
102
RTVSPost2010Prop41ColorIndex
 90
       18
102
RTVSPost2010Prop41ColorRGB
 90
        0
102
RTVSPost2010PropOp41
 70
     0
102
RTVSPost2010Prop42
 90
       50
102
RTVSPost2010PropOp42
 70
     0
102
RTVSPost2010Prop43
 90
        3
102
RTVSPost2010PropOp43
 70
     0
102
RTVSPost2010Prop44ColorIndex
 90
        5
102
RTVSPost2010Prop44ColorRGB
 90
      255
102
RTVSPost2010PropOp44
 70
     0
102
RTVSPost2010Prop45
280
     0
102
RTVSPost2010PropOp45
 70
     0
102
RTVSPost2010Prop46
 90
       50
102
RTVSPost2010PropOp46
 70
     0
102
RTVSPost2010Prop47
 90
       50
102
RTVSPost2010PropOp47
 70
     0
102
RTVSPost2010Prop48
 90
       50
102
RTVSPost2010PropOp48
 70
     0
102
RTVSPost2010Prop49
280
     0
102
RTVSPost2010PropOp49
 70
     0
102
RTVSPost2010Prop50
 90
       50
102
RTVSPost2010PropOp50
 70
     0
102
RTVSPost2010Prop51ColorIndex
 90
      256
102
RTVSPost2010Prop51ColorRGB
 90
-16777216
102
RTVSPost2010PropOp51
 70
     0
102
RTVSPost2010Prop52
140
1.0
102
RTVSPost2010PropOp52
 70
     0
102
RTVSPost2010Prop53
 90
        2
102
RTVSPost2010PropOp53
 70
     0
102
RTVSPost2010Prop54
  1
strokes_ogs.tif
102
RTVSPost2010PropOp54
 70
     0
102
RTVSPost2010Prop55
280
     0
102
RTVSPost2010PropOp55
 70
     0
102
RTVSPost2010Prop56
140
1.0
102
RTVSPost2010PropOp56
 70
     0
102
RTVSPost2010Prop57
140
1.0
102
RTVSPost2010PropOp57
 70
     0
102
RTVSPropertyOp0
 70
     0
102
RTVSPropertyOp1
 70
     0
102
RTVSPropertyOp2
 70
     0
102
RTVSPropertyOp3
 70
     0
102
RTVSPropertyOp4
 70
     0
102
RTVSPropertyOp5
 70
     0
102
RTVSPropertyOp6
 70
     0
102
RTVSPropertyOp7
 70
     0
102
RTVSPropertyOp8
 70
     0
102
RTVSPropertyOp9
 70
     0
102
RTVSPropertyOp10
 70
     0
102
RTVSPropertyOp11
 70
     0
102
RTVSPropertyOp12
 70
     0
102
RTVSPropertyOp13
 70
     0
102
RTVSPropertyOp14
 70
     2
102
RTVSPropertyOp15
 70
     0
102
RTVSPropertyOp16
 70
     0
102
RTVSPropertyOp17
 70
     0
102
RTVSPropertyOp18
 70
     0
102
RTVSPropertyOp19
 70
     0
102
RTVSPropertyOp20
 70
     0
102
RTVSPropertyOp21
 70
     0
102
RTVSPropertyOp22
 70
     0
102
RTVSPropertyOp23
 70
     0
102
RTVSPropertyOp24
 70
     0
102
RTVSPropertyOp25
 70
     0
102
RTVSPropertyOp26
 70
     0
102
RTVSPropertyOp27
 70
     0
102
RTVSPropertyOp28
 70
     0
102
RTVSPropertyOp29
 70
     0
102
RTVSPropertyOp30
 70
     0
102
RTVSPropertyOp31
 70
     0
102
RTVSPropertyOp32
 70
     0
102
RTVSPropertyOp33
 70
     0
102
RTVSPropertyOp34
 70
     0
102
RTVSPropertyOp35
 70
     0
102
RTVSPropertyOp36
 70
     0
102
RTVSPropertyOp37
 70
     0
102
RTVSPropertyOp38
 70
     0
102
RTVSPropertyOp39
 70
     0
102
RTVSPropertyOp40
 70
     0
102
RTVSPropertyOp41
 70
     0
102
RTVSPropertyOp42
 70
     0
102
RTVSPropertyOp43
 70
     0
102
RTVSPropertyOp44
 70
     0
102
RTVSPropertyOp45
 70
     0
102
RTVSPropertyOp46
 70
     0
102
RTVSPropertyOp47
 70
     0
102
RTVSPropertyOp48
 70
     0
102
RTVSPropertyOp49
 70
     0
102
RTVSPropertyOp50
 70
     0
102
RTVSPropertyOp51
 70
     0
102
RTVSPropertyOp52
 70
     0
102
RTVSPropertyOp53
 70
     0
102
RTVSPropertyOp54
 70
     0
102
RTVSPropertyOp55
 70
     0
102
RTVSPropertyOp56
 70
     0
102
RTVSPropertyOp57
 70
     0
102
RTVSPropertyOp58
 70
     0
102
RTVSPropertyOp59
 70
     0
102
RTVSPropertyOp60
 70
     0
102
RTVSPropertyOp61
 70
     0
102
RTVSPropertyOp62
 70
     0
  0
XRECORD
  5
6B35
102
{ACAD_REACTORS
330
6B34
102
}
330
6B34
100
AcDbXrecord
280
     1
102
RTVSPost2010Prop28
280
     0
102
RTVSPost2010PropOp28
 70
     1
102
RTVSPost2010Prop29
280
     1
102
RTVSPost2010PropOp29
 70
     1
102
RTVSPost2010Prop30
280
     1
102
RTVSPost2010PropOp30
 70
     1
102
RTVSPost2010Prop31
280
     0
102
RTVSPost2010PropOp31
 70
     1
102
RTVSPost2010Prop32
280
     0
102
RTVSPost2010PropOp32
 70
     1
102
RTVSPost2010Prop33
280
     0
102
RTVSPost2010PropOp33
 70
     1
102
RTVSPost2010Prop34
280
     0
102
RTVSPost2010PropOp34
 70
     1
102
RTVSPost2010Prop35
280
     0
102
RTVSPost2010PropOp35
 70
     1
102
RTVSPost2010Prop36
280
     0
102
RTVSPost2010PropOp36
 70
     1
102
RTVSPost2010Prop37
 90
       50
102
RTVSPost2010PropOp37
 70
     1
102
RTVSPost2010Prop38
140
0.0
102
RTVSPost2010PropOp38
 70
     1
102
RTVSPost2010Prop39
140
1.0
102
RTVSPost2010PropOp39
 70
     1
102
RTVSPost2010Prop40
 90
        0
102
RTVSPost2010PropOp40
 70
     1
102
RTVSPost2010Prop41ColorIndex
 90
       18
102
RTVSPost2010Prop41ColorRGB
 90
        0
102
RTVSPost2010PropOp41
 70
     1
102
RTVSPost2010Prop42
 90
       50
102
RTVSPost2010PropOp42
 70
     1
102
RTVSPost2010Prop43
 90
        3
102
RTVSPost2010PropOp43
 70
     1
102
RTVSPost2010Prop44ColorIndex
 90
        5
102
RTVSPost2010Prop44ColorRGB
 90
      255
102
RTVSPost2010PropOp44
 70
     1
102
RTVSPost2010Prop45
280
     0
102
RTVSPost2010PropOp45
 70
     1
102
RTVSPost2010Prop46
 90
       50
102
RTVSPost2010PropOp46
 70
     1
102
RTVSPost2010Prop47
 90
       50
102
RTVSPost2010PropOp47
 70
     1
102
RTVSPost2010Prop48
 90
       50
102
RTVSPost2010PropOp48
 70
     1
102
RTVSPost2010Prop49
280
     0
102
RTVSPost2010PropOp49
 70
     1
102
RTVSPost2010Prop50
 90
       50
102
RTVSPost2010PropOp50
 70
     1
102
RTVSPost2010Prop51ColorIndex
 90
      256
102
RTVSPost2010Prop51ColorRGB
 90
-16777216
102
RTVSPost2010PropOp51
 70
     0
102
RTVSPost2010Prop52
140
1.0
102
RTVSPost2010PropOp52
 70
     0
102
RTVSPost2010Prop53
 90
        2
102
RTVSPost2010PropOp53
 70
     1
102
RTVSPost2010Prop54
  1
strokes_ogs.tif
102
RTVSPost2010PropOp54
 70
     1
102
RTVSPost2010Prop55
280
     0
102
RTVSPost2010PropOp55
 70
     1
102
RTVSPost2010Prop56
140
1.0
102
RTVSPost2010PropOp56
 70
     1
102
RTVSPost2010Prop57
140
1.0
102
RTVSPost2010PropOp57
 70
     1
102
RTVSPropertyOp0
 70
     1
102
RTVSPropertyOp1
 70
     1
102
RTVSPropertyOp2
 70
     1
102
RTVSPropertyOp3
 70
     1
102
RTVSPropertyOp4
 70
     1
102
RTVSPropertyOp5
 70
     1
102
RTVSPropertyOp6
 70
     1
102
RTVSPropertyOp7
 70
     1
102
RTVSPropertyOp8
 70
     1
102
RTVSPropertyOp9
 70
     1
102
RTVSPropertyOp10
 70
     1
102
RTVSPropertyOp11
 70
     1
102
RTVSPropertyOp12
 70
     1
102
RTVSPropertyOp13
 70
     1
102
RTVSPropertyOp14
 70
     1
102
RTVSPropertyOp15
 70
     1
102
RTVSPropertyOp16
 70
     1
102
RTVSPropertyOp17
 70
     1
102
RTVSPropertyOp18
 70
     1
102
RTVSPropertyOp19
 70
     1
102
RTVSPropertyOp20
 70
     1
102
RTVSPropertyOp21
 70
     1
102
RTVSPropertyOp22
 70
     1
102
RTVSPropertyOp23
 70
     1
102
RTVSPropertyOp24
 70
     1
102
RTVSPropertyOp25
 70
     1
102
RTVSPropertyOp26
 70
     1
102
RTVSPropertyOp27
 70
     1
102
RTVSPropertyOp28
 70
     1
102
RTVSPropertyOp29
 70
     1
102
RTVSPropertyOp30
 70
     1
102
RTVSPropertyOp31
 70
     1
102
RTVSPropertyOp32
 70
     1
102
RTVSPropertyOp33
 70
     1
102
RTVSPropertyOp34
 70
     1
102
RTVSPropertyOp35
 70
     1
102
RTVSPropertyOp36
 70
     1
102
RTVSPropertyOp37
 70
     1
102
RTVSPropertyOp38
 70
     1
102
RTVSPropertyOp39
 70
     1
102
RTVSPropertyOp40
 70
     1
102
RTVSPropertyOp41
 70
     1
102
RTVSPropertyOp42
 70
     1
102
RTVSPropertyOp43
 70
     1
102
RTVSPropertyOp44
 70
     1
102
RTVSPropertyOp45
 70
     1
102
RTVSPropertyOp46
 70
     1
102
RTVSPropertyOp47
 70
     1
102
RTVSPropertyOp48
 70
     1
102
RTVSPropertyOp49
 70
     1
102
RTVSPropertyOp50
 70
     1
102
RTVSPropertyOp51
 70
     0
102
RTVSPropertyOp52
 70
     0
102
RTVSPropertyOp53
 70
     1
102
RTVSPropertyOp54
 70
     1
102
RTVSPropertyOp55
 70
     1
102
RTVSPropertyOp56
 70
     1
102
RTVSPropertyOp57
 70
     1
102
RTVSPropertyOp58
 70
     1
102
RTVSPropertyOp59
 70
     1
102
RTVSPropertyOp60
 70
     1
102
RTVSPropertyOp61
 70
     1
102
RTVSPropertyOp62
 70
     1
  0
XRECORD
  5
6B19
102
{ACAD_REACTORS
330
6B18
102
}
330
6B18
100
AcDbXrecord
280
     1
102
RTVSPost2010Prop28
280
     0
102
RTVSPost2010PropOp28
 70
     1
102
RTVSPost2010Prop29
280
     1
102
RTVSPost2010PropOp29
 70
     1
102
RTVSPost2010Prop30
280
     1
102
RTVSPost2010PropOp30
 70
     1
102
RTVSPost2010Prop31
280
     0
102
RTVSPost2010PropOp31
 70
     1
102
RTVSPost2010Prop32
280
     0
102
RTVSPost2010PropOp32
 70
     1
102
RTVSPost2010Prop33
280
     0
102
RTVSPost2010PropOp33
 70
     1
102
RTVSPost2010Prop34
280
     0
102
RTVSPost2010PropOp34
 70
     1
102
RTVSPost2010Prop35
280
     0
102
RTVSPost2010PropOp35
 70
     1
102
RTVSPost2010Prop36
280
     0
102
RTVSPost2010PropOp36
 70
     1
102
RTVSPost2010Prop37
 90
       50
102
RTVSPost2010PropOp37
 70
     1
102
RTVSPost2010Prop38
140
0.0
102
RTVSPost2010PropOp38
 70
     1
102
RTVSPost2010Prop39
140
1.0
102
RTVSPost2010PropOp39
 70
     1
102
RTVSPost2010Prop40
 90
        0
102
RTVSPost2010PropOp40
 70
     1
102
RTVSPost2010Prop41ColorIndex
 90
       18
102
RTVSPost2010Prop41ColorRGB
 90
        0
102
RTVSPost2010PropOp41
 70
     1
102
RTVSPost2010Prop42
 90
       50
102
RTVSPost2010PropOp42
 70
     1
102
RTVSPost2010Prop43
 90
        3
102
RTVSPost2010PropOp43
 70
     1
102
RTVSPost2010Prop44ColorIndex
 90
        5
102
RTVSPost2010Prop44ColorRGB
 90
      255
102
RTVSPost2010PropOp44
 70
     1
102
RTVSPost2010Prop45
280
     0
102
RTVSPost2010PropOp45
 70
     1
102
RTVSPost2010Prop46
 90
       50
102
RTVSPost2010PropOp46
 70
     1
102
RTVSPost2010Prop47
 90
       50
102
RTVSPost2010PropOp47
 70
     1
102
RTVSPost2010Prop48
 90
       50
102
RTVSPost2010PropOp48
 70
     1
102
RTVSPost2010Prop49
280
     0
102
RTVSPost2010PropOp49
 70
     1
102
RTVSPost2010Prop50
 90
       50
102
RTVSPost2010PropOp50
 70
     1
102
RTVSPost2010Prop51ColorIndex
 90
      256
102
RTVSPost2010Prop51ColorRGB
 90
-16777216
102
RTVSPost2010PropOp51
 70
     0
102
RTVSPost2010Prop52
140
1.0
102
RTVSPost2010PropOp52
 70
     0
102
RTVSPost2010Prop53
 90
        2
102
RTVSPost2010PropOp53
 70
     1
102
RTVSPost2010Prop54
  1
strokes_ogs.tif
102
RTVSPost2010PropOp54
 70
     1
102
RTVSPost2010Prop55
280
     0
102
RTVSPost2010PropOp55
 70
     1
102
RTVSPost2010Prop56
140
1.0
102
RTVSPost2010PropOp56
 70
     1
102
RTVSPost2010Prop57
140
1.0
102
RTVSPost2010PropOp57
 70
     1
102
RTVSPropertyOp0
 70
     1
102
RTVSPropertyOp1
 70
     1
102
RTVSPropertyOp2
 70
     1
102
RTVSPropertyOp3
 70
     1
102
RTVSPropertyOp4
 70
     1
102
RTVSPropertyOp5
 70
     1
102
RTVSPropertyOp6
 70
     1
102
RTVSPropertyOp7
 70
     1
102
RTVSPropertyOp8
 70
     1
102
RTVSPropertyOp9
 70
     1
102
RTVSPropertyOp10
 70
     1
102
RTVSPropertyOp11
 70
     1
102
RTVSPropertyOp12
 70
     1
102
RTVSPropertyOp13
 70
     1
102
RTVSPropertyOp14
 70
     1
102
RTVSPropertyOp15
 70
     1
102
RTVSPropertyOp16
 70
     1
102
RTVSPropertyOp17
 70
     1
102
RTVSPropertyOp18
 70
     1
102
RTVSPropertyOp19
 70
     1
102
RTVSPropertyOp20
 70
     1
102
RTVSPropertyOp21
 70
     1
102
RTVSPropertyOp22
 70
     1
102
RTVSPropertyOp23
 70
     1
102
RTVSPropertyOp24
 70
     1
102
RTVSPropertyOp25
 70
     1
102
RTVSPropertyOp26
 70
     1
102
RTVSPropertyOp27
 70
     1
102
RTVSPropertyOp28
 70
     1
102
RTVSPropertyOp29
 70
     1
102
RTVSPropertyOp30
 70
     1
102
RTVSPropertyOp31
 70
     1
102
RTVSPropertyOp32
 70
     1
102
RTVSPropertyOp33
 70
     1
102
RTVSPropertyOp34
 70
     1
102
RTVSPropertyOp35
 70
     1
102
RTVSPropertyOp36
 70
     1
102
RTVSPropertyOp37
 70
     1
102
RTVSPropertyOp38
 70
     1
102
RTVSPropertyOp39
 70
     1
102
RTVSPropertyOp40
 70
     1
102
RTVSPropertyOp41
 70
     1
102
RTVSPropertyOp42
 70
     1
102
RTVSPropertyOp43
 70
     1
102
RTVSPropertyOp44
 70
     1
102
RTVSPropertyOp45
 70
     1
102
RTVSPropertyOp46
 70
     1
102
RTVSPropertyOp47
 70
     1
102
RTVSPropertyOp48
 70
     1
102
RTVSPropertyOp49
 70
     1
102
RTVSPropertyOp50
 70
     1
102
RTVSPropertyOp51
 70
     0
102
RTVSPropertyOp52
 70
     0
102
RTVSPropertyOp53
 70
     1
102
RTVSPropertyOp54
 70
     1
102
RTVSPropertyOp55
 70
     1
102
RTVSPropertyOp56
 70
     1
102
RTVSPropertyOp57
 70
     1
102
RTVSPropertyOp58
 70
     1
102
RTVSPropertyOp59
 70
     1
102
RTVSPropertyOp60
 70
     1
102
RTVSPropertyOp61
 70
     1
102
RTVSPropertyOp62
 70
     1
  0
XRECORD
  5
6B1B
102
{ACAD_REACTORS
330
6B1A
102
}
330
6B1A
100
AcDbXrecord
280
     1
102
RTVSPost2010Prop28
280
     0
102
RTVSPost2010PropOp28
 70
     1
102
RTVSPost2010Prop29
280
     1
102
RTVSPost2010PropOp29
 70
     1
102
RTVSPost2010Prop30
280
     1
102
RTVSPost2010PropOp30
 70
     1
102
RTVSPost2010Prop31
280
     0
102
RTVSPost2010PropOp31
 70
     1
102
RTVSPost2010Prop32
280
     0
102
RTVSPost2010PropOp32
 70
     1
102
RTVSPost2010Prop33
280
     0
102
RTVSPost2010PropOp33
 70
     1
102
RTVSPost2010Prop34
280
     0
102
RTVSPost2010PropOp34
 70
     1
102
RTVSPost2010Prop35
280
     0
102
RTVSPost2010PropOp35
 70
     1
102
RTVSPost2010Prop36
280
     0
102
RTVSPost2010PropOp36
 70
     1
102
RTVSPost2010Prop37
 90
       50
102
RTVSPost2010PropOp37
 70
     1
102
RTVSPost2010Prop38
140
0.0
102
RTVSPost2010PropOp38
 70
     1
102
RTVSPost2010Prop39
140
1.0
102
RTVSPost2010PropOp39
 70
     1
102
RTVSPost2010Prop40
 90
        0
102
RTVSPost2010PropOp40
 70
     1
102
RTVSPost2010Prop41ColorIndex
 90
       18
102
RTVSPost2010Prop41ColorRGB
 90
        0
102
RTVSPost2010PropOp41
 70
     1
102
RTVSPost2010Prop42
 90
       50
102
RTVSPost2010PropOp42
 70
     1
102
RTVSPost2010Prop43
 90
        3
102
RTVSPost2010PropOp43
 70
     1
102
RTVSPost2010Prop44ColorIndex
 90
        5
102
RTVSPost2010Prop44ColorRGB
 90
      255
102
RTVSPost2010PropOp44
 70
     1
102
RTVSPost2010Prop45
280
     0
102
RTVSPost2010PropOp45
 70
     1
102
RTVSPost2010Prop46
 90
       50
102
RTVSPost2010PropOp46
 70
     1
102
RTVSPost2010Prop47
 90
       50
102
RTVSPost2010PropOp47
 70
     1
102
RTVSPost2010Prop48
 90
       50
102
RTVSPost2010PropOp48
 70
     1
102
RTVSPost2010Prop49
280
     0
102
RTVSPost2010PropOp49
 70
     1
102
RTVSPost2010Prop50
 90
       50
102
RTVSPost2010PropOp50
 70
     1
102
RTVSPost2010Prop51ColorIndex
 90
      256
102
RTVSPost2010Prop51ColorRGB
 90
-16777216
102
RTVSPost2010PropOp51
 70
     0
102
RTVSPost2010Prop52
140
1.0
102
RTVSPost2010PropOp52
 70
     0
102
RTVSPost2010Prop53
 90
        2
102
RTVSPost2010PropOp53
 70
     1
102
RTVSPost2010Prop54
  1
strokes_ogs.tif
102
RTVSPost2010PropOp54
 70
     1
102
RTVSPost2010Prop55
280
     0
102
RTVSPost2010PropOp55
 70
     1
102
RTVSPost2010Prop56
140
1.0
102
RTVSPost2010PropOp56
 70
     1
102
RTVSPost2010Prop57
140
1.0
102
RTVSPost2010PropOp57
 70
     1
102
RTVSPropertyOp0
 70
     1
102
RTVSPropertyOp1
 70
     1
102
RTVSPropertyOp2
 70
     1
102
RTVSPropertyOp3
 70
     1
102
RTVSPropertyOp4
 70
     1
102
RTVSPropertyOp5
 70
     1
102
RTVSPropertyOp6
 70
     1
102
RTVSPropertyOp7
 70
     1
102
RTVSPropertyOp8
 70
     1
102
RTVSPropertyOp9
 70
     1
102
RTVSPropertyOp10
 70
     1
102
RTVSPropertyOp11
 70
     1
102
RTVSPropertyOp12
 70
     1
102
RTVSPropertyOp13
 70
     1
102
RTVSPropertyOp14
 70
     1
102
RTVSPropertyOp15
 70
     1
102
RTVSPropertyOp16
 70
     1
102
RTVSPropertyOp17
 70
     1
102
RTVSPropertyOp18
 70
     1
102
RTVSPropertyOp19
 70
     1
102
RTVSPropertyOp20
 70
     1
102
RTVSPropertyOp21
 70
     1
102
RTVSPropertyOp22
 70
     1
102
RTVSPropertyOp23
 70
     1
102
RTVSPropertyOp24
 70
     1
102
RTVSPropertyOp25
 70
     1
102
RTVSPropertyOp26
 70
     1
102
RTVSPropertyOp27
 70
     1
102
RTVSPropertyOp28
 70
     1
102
RTVSPropertyOp29
 70
     1
102
RTVSPropertyOp30
 70
     1
102
RTVSPropertyOp31
 70
     1
102
RTVSPropertyOp32
 70
     1
102
RTVSPropertyOp33
 70
     1
102
RTVSPropertyOp34
 70
     1
102
RTVSPropertyOp35
 70
     1
102
RTVSPropertyOp36
 70
     1
102
RTVSPropertyOp37
 70
     1
102
RTVSPropertyOp38
 70
     1
102
RTVSPropertyOp39
 70
     1
102
RTVSPropertyOp40
 70
     1
102
RTVSPropertyOp41
 70
     1
102
RTVSPropertyOp42
 70
     1
102
RTVSPropertyOp43
 70
     1
102
RTVSPropertyOp44
 70
     1
102
RTVSPropertyOp45
 70
     1
102
RTVSPropertyOp46
 70
     1
102
RTVSPropertyOp47
 70
     1
102
RTVSPropertyOp48
 70
     1
102
RTVSPropertyOp49
 70
     1
102
RTVSPropertyOp50
 70
     1
102
RTVSPropertyOp51
 70
     0
102
RTVSPropertyOp52
 70
     0
102
RTVSPropertyOp53
 70
     1
102
RTVSPropertyOp54
 70
     1
102
RTVSPropertyOp55
 70
     1
102
RTVSPropertyOp56
 70
     1
102
RTVSPropertyOp57
 70
     1
102
RTVSPropertyOp58
 70
     1
102
RTVSPropertyOp59
 70
     1
102
RTVSPropertyOp60
 70
     1
102
RTVSPropertyOp61
 70
     1
102
RTVSPropertyOp62
 70
     1
  0
XRECORD
  5
6B1D
102
{ACAD_REACTORS
330
6B1C
102
}
330
6B1C
100
AcDbXrecord
280
     1
102
RTVSPost2010Prop28
280
     0
102
RTVSPost2010PropOp28
 70
     1
102
RTVSPost2010Prop29
280
     1
102
RTVSPost2010PropOp29
 70
     1
102
RTVSPost2010Prop30
280
     1
102
RTVSPost2010PropOp30
 70
     1
102
RTVSPost2010Prop31
280
     0
102
RTVSPost2010PropOp31
 70
     1
102
RTVSPost2010Prop32
280
     0
102
RTVSPost2010PropOp32
 70
     1
102
RTVSPost2010Prop33
280
     0
102
RTVSPost2010PropOp33
 70
     1
102
RTVSPost2010Prop34
280
     0
102
RTVSPost2010PropOp34
 70
     1
102
RTVSPost2010Prop35
280
     0
102
RTVSPost2010PropOp35
 70
     1
102
RTVSPost2010Prop36
280
     0
102
RTVSPost2010PropOp36
 70
     1
102
RTVSPost2010Prop37
 90
       50
102
RTVSPost2010PropOp37
 70
     1
102
RTVSPost2010Prop38
140
0.0
102
RTVSPost2010PropOp38
 70
     1
102
RTVSPost2010Prop39
140
1.0
102
RTVSPost2010PropOp39
 70
     1
102
RTVSPost2010Prop40
 90
        0
102
RTVSPost2010PropOp40
 70
     1
102
RTVSPost2010Prop41ColorIndex
 90
       18
102
RTVSPost2010Prop41ColorRGB
 90
        0
102
RTVSPost2010PropOp41
 70
     1
102
RTVSPost2010Prop42
 90
       50
102
RTVSPost2010PropOp42
 70
     1
102
RTVSPost2010Prop43
 90
        3
102
RTVSPost2010PropOp43
 70
     1
102
RTVSPost2010Prop44ColorIndex
 90
        5
102
RTVSPost2010Prop44ColorRGB
 90
      255
102
RTVSPost2010PropOp44
 70
     1
102
RTVSPost2010Prop45
280
     0
102
RTVSPost2010PropOp45
 70
     1
102
RTVSPost2010Prop46
 90
       50
102
RTVSPost2010PropOp46
 70
     1
102
RTVSPost2010Prop47
 90
       50
102
RTVSPost2010PropOp47
 70
     1
102
RTVSPost2010Prop48
 90
       50
102
RTVSPost2010PropOp48
 70
     1
102
RTVSPost2010Prop49
280
     0
102
RTVSPost2010PropOp49
 70
     1
102
RTVSPost2010Prop50
 90
       50
102
RTVSPost2010PropOp50
 70
     1
102
RTVSPost2010Prop51ColorIndex
 90
      256
102
RTVSPost2010Prop51ColorRGB
 90
-16777216
102
RTVSPost2010PropOp51
 70
     0
102
RTVSPost2010Prop52
140
1.0
102
RTVSPost2010PropOp52
 70
     0
102
RTVSPost2010Prop53
 90
        2
102
RTVSPost2010PropOp53
 70
     1
102
RTVSPost2010Prop54
  1
strokes_ogs.tif
102
RTVSPost2010PropOp54
 70
     1
102
RTVSPost2010Prop55
280
     0
102
RTVSPost2010PropOp55
 70
     1
102
RTVSPost2010Prop56
140
1.0
102
RTVSPost2010PropOp56
 70
     1
102
RTVSPost2010Prop57
140
1.0
102
RTVSPost2010PropOp57
 70
     1
102
RTVSPropertyOp0
 70
     1
102
RTVSPropertyOp1
 70
     1
102
RTVSPropertyOp2
 70
     1
102
RTVSPropertyOp3
 70
     1
102
RTVSPropertyOp4
 70
     1
102
RTVSPropertyOp5
 70
     1
102
RTVSPropertyOp6
 70
     1
102
RTVSPropertyOp7
 70
     1
102
RTVSPropertyOp8
 70
     1
102
RTVSPropertyOp9
 70
     1
102
RTVSPropertyOp10
 70
     1
102
RTVSPropertyOp11
 70
     1
102
RTVSPropertyOp12
 70
     1
102
RTVSPropertyOp13
 70
     1
102
RTVSPropertyOp14
 70
     1
102
RTVSPropertyOp15
 70
     1
102
RTVSPropertyOp16
 70
     1
102
RTVSPropertyOp17
 70
     1
102
RTVSPropertyOp18
 70
     1
102
RTVSPropertyOp19
 70
     1
102
RTVSPropertyOp20
 70
     1
102
RTVSPropertyOp21
 70
     1
102
RTVSPropertyOp22
 70
     1
102
RTVSPropertyOp23
 70
     1
102
RTVSPropertyOp24
 70
     1
102
RTVSPropertyOp25
 70
     1
102
RTVSPropertyOp26
 70
     1
102
RTVSPropertyOp27
 70
     1
102
RTVSPropertyOp28
 70
     1
102
RTVSPropertyOp29
 70
     1
102
RTVSPropertyOp30
 70
     1
102
RTVSPropertyOp31
 70
     1
102
RTVSPropertyOp32
 70
     1
102
RTVSPropertyOp33
 70
     1
102
RTVSPropertyOp34
 70
     1
102
RTVSPropertyOp35
 70
     1
102
RTVSPropertyOp36
 70
     1
102
RTVSPropertyOp37
 70
     1
102
RTVSPropertyOp38
 70
     1
102
RTVSPropertyOp39
 70
     1
102
RTVSPropertyOp40
 70
     1
102
RTVSPropertyOp41
 70
     1
102
RTVSPropertyOp42
 70
     1
102
RTVSPropertyOp43
 70
     1
102
RTVSPropertyOp44
 70
     1
102
RTVSPropertyOp45
 70
     1
102
RTVSPropertyOp46
 70
     1
102
RTVSPropertyOp47
 70
     1
102
RTVSPropertyOp48
 70
     1
102
RTVSPropertyOp49
 70
     1
102
RTVSPropertyOp50
 70
     1
102
RTVSPropertyOp51
 70
     0
102
RTVSPropertyOp52
 70
     0
102
RTVSPropertyOp53
 70
     1
102
RTVSPropertyOp54
 70
     1
102
RTVSPropertyOp55
 70
     1
102
RTVSPropertyOp56
 70
     1
102
RTVSPropertyOp57
 70
     1
102
RTVSPropertyOp58
 70
     1
102
RTVSPropertyOp59
 70
     1
102
RTVSPropertyOp60
 70
     1
102
RTVSPropertyOp61
 70
     1
102
RTVSPropertyOp62
 70
     1
  0
XRECORD
  5
6B1F
102
{ACAD_REACTORS
330
6B1E
102
}
330
6B1E
100
AcDbXrecord
280
     1
102
RTVSPost2010Prop28
280
     0
102
RTVSPost2010PropOp28
 70
     1
102
RTVSPost2010Prop29
280
     1
102
RTVSPost2010PropOp29
 70
     1
102
RTVSPost2010Prop30
280
     1
102
RTVSPost2010PropOp30
 70
     1
102
RTVSPost2010Prop31
280
     0
102
RTVSPost2010PropOp31
 70
     1
102
RTVSPost2010Prop32
280
     0
102
RTVSPost2010PropOp32
 70
     1
102
RTVSPost2010Prop33
280
     0
102
RTVSPost2010PropOp33
 70
     1
102
RTVSPost2010Prop34
280
     0
102
RTVSPost2010PropOp34
 70
     1
102
RTVSPost2010Prop35
280
     0
102
RTVSPost2010PropOp35
 70
     1
102
RTVSPost2010Prop36
280
     0
102
RTVSPost2010PropOp36
 70
     1
102
RTVSPost2010Prop37
 90
       50
102
RTVSPost2010PropOp37
 70
     1
102
RTVSPost2010Prop38
140
0.0
102
RTVSPost2010PropOp38
 70
     1
102
RTVSPost2010Prop39
140
1.0
102
RTVSPost2010PropOp39
 70
     1
102
RTVSPost2010Prop40
 90
        0
102
RTVSPost2010PropOp40
 70
     1
102
RTVSPost2010Prop41ColorIndex
 90
       18
102
RTVSPost2010Prop41ColorRGB
 90
        0
102
RTVSPost2010PropOp41
 70
     1
102
RTVSPost2010Prop42
 90
       50
102
RTVSPost2010PropOp42
 70
     1
102
RTVSPost2010Prop43
 90
        3
102
RTVSPost2010PropOp43
 70
     1
102
RTVSPost2010Prop44ColorIndex
 90
        5
102
RTVSPost2010Prop44ColorRGB
 90
      255
102
RTVSPost2010PropOp44
 70
     1
102
RTVSPost2010Prop45
280
     0
102
RTVSPost2010PropOp45
 70
     1
102
RTVSPost2010Prop46
 90
       50
102
RTVSPost2010PropOp46
 70
     1
102
RTVSPost2010Prop47
 90
       50
102
RTVSPost2010PropOp47
 70
     1
102
RTVSPost2010Prop48
 90
       50
102
RTVSPost2010PropOp48
 70
     1
102
RTVSPost2010Prop49
280
     0
102
RTVSPost2010PropOp49
 70
     1
102
RTVSPost2010Prop50
 90
       50
102
RTVSPost2010PropOp50
 70
     1
102
RTVSPost2010Prop51ColorIndex
 90
      256
102
RTVSPost2010Prop51ColorRGB
 90
-16777216
102
RTVSPost2010PropOp51
 70
     0
102
RTVSPost2010Prop52
140
1.0
102
RTVSPost2010PropOp52
 70
     0
102
RTVSPost2010Prop53
 90
        2
102
RTVSPost2010PropOp53
 70
     1
102
RTVSPost2010Prop54
  1
strokes_ogs.tif
102
RTVSPost2010PropOp54
 70
     1
102
RTVSPost2010Prop55
280
     0
102
RTVSPost2010PropOp55
 70
     1
102
RTVSPost2010Prop56
140
1.0
102
RTVSPost2010PropOp56
 70
     1
102
RTVSPost2010Prop57
140
1.0
102
RTVSPost2010PropOp57
 70
     1
102
RTVSPropertyOp0
 70
     1
102
RTVSPropertyOp1
 70
     1
102
RTVSPropertyOp2
 70
     1
102
RTVSPropertyOp3
 70
     1
102
RTVSPropertyOp4
 70
     1
102
RTVSPropertyOp5
 70
     1
102
RTVSPropertyOp6
 70
     1
102
RTVSPropertyOp7
 70
     1
102
RTVSPropertyOp8
 70
     1
102
RTVSPropertyOp9
 70
     1
102
RTVSPropertyOp10
 70
     1
102
RTVSPropertyOp11
 70
     1
102
RTVSPropertyOp12
 70
     1
102
RTVSPropertyOp13
 70
     1
102
RTVSPropertyOp14
 70
     1
102
RTVSPropertyOp15
 70
     1
102
RTVSPropertyOp16
 70
     1
102
RTVSPropertyOp17
 70
     1
102
RTVSPropertyOp18
 70
     1
102
RTVSPropertyOp19
 70
     1
102
RTVSPropertyOp20
 70
     1
102
RTVSPropertyOp21
 70
     1
102
RTVSPropertyOp22
 70
     1
102
RTVSPropertyOp23
 70
     1
102
RTVSPropertyOp24
 70
     1
102
RTVSPropertyOp25
 70
     1
102
RTVSPropertyOp26
 70
     1
102
RTVSPropertyOp27
 70
     1
102
RTVSPropertyOp28
 70
     1
102
RTVSPropertyOp29
 70
     1
102
RTVSPropertyOp30
 70
     1
102
RTVSPropertyOp31
 70
     1
102
RTVSPropertyOp32
 70
     1
102
RTVSPropertyOp33
 70
     1
102
RTVSPropertyOp34
 70
     1
102
RTVSPropertyOp35
 70
     1
102
RTVSPropertyOp36
 70
     1
102
RTVSPropertyOp37
 70
     1
102
RTVSPropertyOp38
 70
     1
102
RTVSPropertyOp39
 70
     1
102
RTVSPropertyOp40
 70
     1
102
RTVSPropertyOp41
 70
     1
102
RTVSPropertyOp42
 70
     1
102
RTVSPropertyOp43
 70
     1
102
RTVSPropertyOp44
 70
     1
102
RTVSPropertyOp45
 70
     1
102
RTVSPropertyOp46
 70
     1
102
RTVSPropertyOp47
 70
     1
102
RTVSPropertyOp48
 70
     1
102
RTVSPropertyOp49
 70
     1
102
RTVSPropertyOp50
 70
     1
102
RTVSPropertyOp51
 70
     0
102
RTVSPropertyOp52
 70
     0
102
RTVSPropertyOp53
 70
     1
102
RTVSPropertyOp54
 70
     1
102
RTVSPropertyOp55
 70
     1
102
RTVSPropertyOp56
 70
     1
102
RTVSPropertyOp57
 70
     1
102
RTVSPropertyOp58
 70
     1
102
RTVSPropertyOp59
 70
     1
102
RTVSPropertyOp60
 70
     1
102
RTVSPropertyOp61
 70
     1
102
RTVSPropertyOp62
 70
     1
  0
XRECORD
  5
6B27
102
{ACAD_REACTORS
330
6B26
102
}
330
6B26
100
AcDbXrecord
280
     1
102
RTVSPost2010Prop28
280
     0
102
RTVSPost2010PropOp28
 70
     1
102
RTVSPost2010Prop29
280
     1
102
RTVSPost2010PropOp29
 70
     1
102
RTVSPost2010Prop30
280
     1
102
RTVSPost2010PropOp30
 70
     1
102
RTVSPost2010Prop31
280
     0
102
RTVSPost2010PropOp31
 70
     1
102
RTVSPost2010Prop32
280
     0
102
RTVSPost2010PropOp32
 70
     1
102
RTVSPost2010Prop33
280
     0
102
RTVSPost2010PropOp33
 70
     1
102
RTVSPost2010Prop34
280
     0
102
RTVSPost2010PropOp34
 70
     1
102
RTVSPost2010Prop35
280
     0
102
RTVSPost2010PropOp35
 70
     1
102
RTVSPost2010Prop36
280
     0
102
RTVSPost2010PropOp36
 70
     1
102
RTVSPost2010Prop37
 90
       50
102
RTVSPost2010PropOp37
 70
     1
102
RTVSPost2010Prop38
140
0.0
102
RTVSPost2010PropOp38
 70
     1
102
RTVSPost2010Prop39
140
1.0
102
RTVSPost2010PropOp39
 70
     1
102
RTVSPost2010Prop40
 90
        0
102
RTVSPost2010PropOp40
 70
     1
102
RTVSPost2010Prop41ColorIndex
 90
       18
102
RTVSPost2010Prop41ColorRGB
 90
        0
102
RTVSPost2010PropOp41
 70
     1
102
RTVSPost2010Prop42
 90
       50
102
RTVSPost2010PropOp42
 70
     1
102
RTVSPost2010Prop43
 90
        3
102
RTVSPost2010PropOp43
 70
     1
102
RTVSPost2010Prop44ColorIndex
 90
        5
102
RTVSPost2010Prop44ColorRGB
 90
      255
102
RTVSPost2010PropOp44
 70
     1
102
RTVSPost2010Prop45
280
     0
102
RTVSPost2010PropOp45
 70
     1
102
RTVSPost2010Prop46
 90
       50
102
RTVSPost2010PropOp46
 70
     1
102
RTVSPost2010Prop47
 90
       50
102
RTVSPost2010PropOp47
 70
     1
102
RTVSPost2010Prop48
 90
       50
102
RTVSPost2010PropOp48
 70
     1
102
RTVSPost2010Prop49
280
     0
102
RTVSPost2010PropOp49
 70
     1
102
RTVSPost2010Prop50
 90
       50
102
RTVSPost2010PropOp50
 70
     1
102
RTVSPost2010Prop51ColorIndex
 90
      256
102
RTVSPost2010Prop51ColorRGB
 90
-16777216
102
RTVSPost2010PropOp51
 70
     0
102
RTVSPost2010Prop52
140
1.0
102
RTVSPost2010PropOp52
 70
     0
102
RTVSPost2010Prop53
 90
        2
102
RTVSPost2010PropOp53
 70
     1
102
RTVSPost2010Prop54
  1
strokes_ogs.tif
102
RTVSPost2010PropOp54
 70
     1
102
RTVSPost2010Prop55
280
     0
102
RTVSPost2010PropOp55
 70
     1
102
RTVSPost2010Prop56
140
1.0
102
RTVSPost2010PropOp56
 70
     1
102
RTVSPost2010Prop57
140
1.0
102
RTVSPost2010PropOp57
 70
     1
102
RTVSPropertyOp0
 70
     1
102
RTVSPropertyOp1
 70
     1
102
RTVSPropertyOp2
 70
     1
102
RTVSPropertyOp3
 70
     1
102
RTVSPropertyOp4
 70
     1
102
RTVSPropertyOp5
 70
     1
102
RTVSPropertyOp6
 70
     1
102
RTVSPropertyOp7
 70
     1
102
RTVSPropertyOp8
 70
     1
102
RTVSPropertyOp9
 70
     1
102
RTVSPropertyOp10
 70
     1
102
RTVSPropertyOp11
 70
     1
102
RTVSPropertyOp12
 70
     1
102
RTVSPropertyOp13
 70
     1
102
RTVSPropertyOp14
 70
     1
102
RTVSPropertyOp15
 70
     1
102
RTVSPropertyOp16
 70
     1
102
RTVSPropertyOp17
 70
     1
102
RTVSPropertyOp18
 70
     1
102
RTVSPropertyOp19
 70
     1
102
RTVSPropertyOp20
 70
     1
102
RTVSPropertyOp21
 70
     1
102
RTVSPropertyOp22
 70
     1
102
RTVSPropertyOp23
 70
     1
102
RTVSPropertyOp24
 70
     1
102
RTVSPropertyOp25
 70
     1
102
RTVSPropertyOp26
 70
     1
102
RTVSPropertyOp27
 70
     1
102
RTVSPropertyOp28
 70
     1
102
RTVSPropertyOp29
 70
     1
102
RTVSPropertyOp30
 70
     1
102
RTVSPropertyOp31
 70
     1
102
RTVSPropertyOp32
 70
     1
102
RTVSPropertyOp33
 70
     1
102
RTVSPropertyOp34
 70
     1
102
RTVSPropertyOp35
 70
     1
102
RTVSPropertyOp36
 70
     1
102
RTVSPropertyOp37
 70
     1
102
RTVSPropertyOp38
 70
     1
102
RTVSPropertyOp39
 70
     1
102
RTVSPropertyOp40
 70
     1
102
RTVSPropertyOp41
 70
     1
102
RTVSPropertyOp42
 70
     1
102
RTVSPropertyOp43
 70
     1
102
RTVSPropertyOp44
 70
     1
102
RTVSPropertyOp45
 70
     1
102
RTVSPropertyOp46
 70
     1
102
RTVSPropertyOp47
 70
     1
102
RTVSPropertyOp48
 70
     1
102
RTVSPropertyOp49
 70
     1
102
RTVSPropertyOp50
 70
     1
102
RTVSPropertyOp51
 70
     0
102
RTVSPropertyOp52
 70
     0
102
RTVSPropertyOp53
 70
     1
102
RTVSPropertyOp54
 70
     1
102
RTVSPropertyOp55
 70
     1
102
RTVSPropertyOp56
 70
     1
102
RTVSPropertyOp57
 70
     1
102
RTVSPropertyOp58
 70
     1
102
RTVSPropertyOp59
 70
     1
102
RTVSPropertyOp60
 70
     1
102
RTVSPropertyOp61
 70
     1
102
RTVSPropertyOp62
 70
     1
  0
XRECORD
  5
6B43
102
{ACAD_REACTORS
330
6B42
102
}
330
6B42
100
AcDbXrecord
280
     1
102
RTVSPost2010Prop28
280
     0
102
RTVSPost2010PropOp28
 70
     0
102
RTVSPost2010Prop29
280
     1
102
RTVSPost2010PropOp29
 70
     0
102
RTVSPost2010Prop30
280
     1
102
RTVSPost2010PropOp30
 70
     0
102
RTVSPost2010Prop31
280
     0
102
RTVSPost2010PropOp31
 70
     0
102
RTVSPost2010Prop32
280
     0
102
RTVSPost2010PropOp32
 70
     0
102
RTVSPost2010Prop33
280
     0
102
RTVSPost2010PropOp33
 70
     0
102
RTVSPost2010Prop34
280
     0
102
RTVSPost2010PropOp34
 70
     0
102
RTVSPost2010Prop35
280
     0
102
RTVSPost2010PropOp35
 70
     0
102
RTVSPost2010Prop36
280
     0
102
RTVSPost2010PropOp36
 70
     0
102
RTVSPost2010Prop37
 90
       50
102
RTVSPost2010PropOp37
 70
     0
102
RTVSPost2010Prop38
140
0.0
102
RTVSPost2010PropOp38
 70
     0
102
RTVSPost2010Prop39
140
1.0
102
RTVSPost2010PropOp39
 70
     0
102
RTVSPost2010Prop40
 90
        0
102
RTVSPost2010PropOp40
 70
     0
102
RTVSPost2010Prop41ColorIndex
 90
       18
102
RTVSPost2010Prop41ColorRGB
 90
        0
102
RTVSPost2010PropOp41
 70
     0
102
RTVSPost2010Prop42
 90
       50
102
RTVSPost2010PropOp42
 70
     0
102
RTVSPost2010Prop43
 90
        3
102
RTVSPost2010PropOp43
 70
     0
102
RTVSPost2010Prop44ColorIndex
 90
        5
102
RTVSPost2010Prop44ColorRGB
 90
      255
102
RTVSPost2010PropOp44
 70
     0
102
RTVSPost2010Prop45
280
     0
102
RTVSPost2010PropOp45
 70
     0
102
RTVSPost2010Prop46
 90
       50
102
RTVSPost2010PropOp46
 70
     0
102
RTVSPost2010Prop47
 90
       50
102
RTVSPost2010PropOp47
 70
     0
102
RTVSPost2010Prop48
 90
       50
102
RTVSPost2010PropOp48
 70
     0
102
RTVSPost2010Prop49
280
     0
102
RTVSPost2010PropOp49
 70
     0
102
RTVSPost2010Prop50
 90
       50
102
RTVSPost2010PropOp50
 70
     0
102
RTVSPost2010Prop51ColorIndex
 90
      256
102
RTVSPost2010Prop51ColorRGB
 90
-16777216
102
RTVSPost2010PropOp51
 70
     0
102
RTVSPost2010Prop52
140
1.0
102
RTVSPost2010PropOp52
 70
     0
102
RTVSPost2010Prop53
 90
        2
102
RTVSPost2010PropOp53
 70
     0
102
RTVSPost2010Prop54
  1
strokes_ogs.tif
102
RTVSPost2010PropOp54
 70
     0
102
RTVSPost2010Prop55
280
     0
102
RTVSPost2010PropOp55
 70
     0
102
RTVSPost2010Prop56
140
1.0
102
RTVSPost2010PropOp56
 70
     0
102
RTVSPost2010Prop57
140
1.0
102
RTVSPost2010PropOp57
 70
     0
102
RTVSPropertyOp0
 70
     0
102
RTVSPropertyOp1
 70
     0
102
RTVSPropertyOp2
 70
     0
102
RTVSPropertyOp3
 70
     0
102
RTVSPropertyOp4
 70
     0
102
RTVSPropertyOp5
 70
     0
102
RTVSPropertyOp6
 70
     0
102
RTVSPropertyOp7
 70
     0
102
RTVSPropertyOp8
 70
     0
102
RTVSPropertyOp9
 70
     0
102
RTVSPropertyOp10
 70
     0
102
RTVSPropertyOp11
 70
     0
102
RTVSPropertyOp12
 70
     0
102
RTVSPropertyOp13
 70
     0
102
RTVSPropertyOp14
 70
     2
102
RTVSPropertyOp15
 70
     0
102
RTVSPropertyOp16
 70
     0
102
RTVSPropertyOp17
 70
     0
102
RTVSPropertyOp18
 70
     0
102
RTVSPropertyOp19
 70
     0
102
RTVSPropertyOp20
 70
     0
102
RTVSPropertyOp21
 70
     0
102
RTVSPropertyOp22
 70
     0
102
RTVSPropertyOp23
 70
     0
102
RTVSPropertyOp24
 70
     0
102
RTVSPropertyOp25
 70
     0
102
RTVSPropertyOp26
 70
     0
102
RTVSPropertyOp27
 70
     0
102
RTVSPropertyOp28
 70
     0
102
RTVSPropertyOp29
 70
     0
102
RTVSPropertyOp30
 70
     0
102
RTVSPropertyOp31
 70
     0
102
RTVSPropertyOp32
 70
     0
102
RTVSPropertyOp33
 70
     0
102
RTVSPropertyOp34
 70
     0
102
RTVSPropertyOp35
 70
     0
102
RTVSPropertyOp36
 70
     0
102
RTVSPropertyOp37
 70
     0
102
RTVSPropertyOp38
 70
     0
102
RTVSPropertyOp39
 70
     0
102
RTVSPropertyOp40
 70
     0
102
RTVSPropertyOp41
 70
     0
102
RTVSPropertyOp42
 70
     0
102
RTVSPropertyOp43
 70
     0
102
RTVSPropertyOp44
 70
     0
102
RTVSPropertyOp45
 70
     0
102
RTVSPropertyOp46
 70
     0
102
RTVSPropertyOp47
 70
     0
102
RTVSPropertyOp48
 70
     0
102
RTVSPropertyOp49
 70
     0
102
RTVSPropertyOp50
 70
     0
102
RTVSPropertyOp51
 70
     0
102
RTVSPropertyOp52
 70
     0
102
RTVSPropertyOp53
 70
     0
102
RTVSPropertyOp54
 70
     0
102
RTVSPropertyOp55
 70
     0
102
RTVSPropertyOp56
 70
     0
102
RTVSPropertyOp57
 70
     0
102
RTVSPropertyOp58
 70
     0
102
RTVSPropertyOp59
 70
     0
102
RTVSPropertyOp60
 70
     0
102
RTVSPropertyOp61
 70
     0
102
RTVSPropertyOp62
 70
     0
  0
XRECORD
  5
6B33
102
{ACAD_REACTORS
330
6B32
102
}
330
6B32
100
AcDbXrecord
280
     1
102
RTVSPost2010Prop28
280
     0
102
RTVSPost2010PropOp28
 70
     1
102
RTVSPost2010Prop29
280
     1
102
RTVSPost2010PropOp29
 70
     1
102
RTVSPost2010Prop30
280
     1
102
RTVSPost2010PropOp30
 70
     1
102
RTVSPost2010Prop31
280
     0
102
RTVSPost2010PropOp31
 70
     1
102
RTVSPost2010Prop32
280
     0
102
RTVSPost2010PropOp32
 70
     1
102
RTVSPost2010Prop33
280
     0
102
RTVSPost2010PropOp33
 70
     1
102
RTVSPost2010Prop34
280
     0
102
RTVSPost2010PropOp34
 70
     1
102
RTVSPost2010Prop35
280
     0
102
RTVSPost2010PropOp35
 70
     1
102
RTVSPost2010Prop36
280
     0
102
RTVSPost2010PropOp36
 70
     1
102
RTVSPost2010Prop37
 90
       50
102
RTVSPost2010PropOp37
 70
     1
102
RTVSPost2010Prop38
140
0.0
102
RTVSPost2010PropOp38
 70
     1
102
RTVSPost2010Prop39
140
1.0
102
RTVSPost2010PropOp39
 70
     1
102
RTVSPost2010Prop40
 90
        0
102
RTVSPost2010PropOp40
 70
     1
102
RTVSPost2010Prop41ColorIndex
 90
       18
102
RTVSPost2010Prop41ColorRGB
 90
        0
102
RTVSPost2010PropOp41
 70
     1
102
RTVSPost2010Prop42
 90
       50
102
RTVSPost2010PropOp42
 70
     1
102
RTVSPost2010Prop43
 90
        3
102
RTVSPost2010PropOp43
 70
     1
102
RTVSPost2010Prop44ColorIndex
 90
        5
102
RTVSPost2010Prop44ColorRGB
 90
      255
102
RTVSPost2010PropOp44
 70
     1
102
RTVSPost2010Prop45
280
     0
102
RTVSPost2010PropOp45
 70
     1
102
RTVSPost2010Prop46
 90
       50
102
RTVSPost2010PropOp46
 70
     1
102
RTVSPost2010Prop47
 90
       50
102
RTVSPost2010PropOp47
 70
     1
102
RTVSPost2010Prop48
 90
       50
102
RTVSPost2010PropOp48
 70
     1
102
RTVSPost2010Prop49
280
     0
102
RTVSPost2010PropOp49
 70
     1
102
RTVSPost2010Prop50
 90
       50
102
RTVSPost2010PropOp50
 70
     1
102
RTVSPost2010Prop51ColorIndex
 90
      256
102
RTVSPost2010Prop51ColorRGB
 90
-16777216
102
RTVSPost2010PropOp51
 70
     0
102
RTVSPost2010Prop52
140
1.0
102
RTVSPost2010PropOp52
 70
     0
102
RTVSPost2010Prop53
 90
        2
102
RTVSPost2010PropOp53
 70
     1
102
RTVSPost2010Prop54
  1
strokes_ogs.tif
102
RTVSPost2010PropOp54
 70
     1
102
RTVSPost2010Prop55
280
     0
102
RTVSPost2010PropOp55
 70
     1
102
RTVSPost2010Prop56
140
1.0
102
RTVSPost2010PropOp56
 70
     1
102
RTVSPost2010Prop57
140
1.0
102
RTVSPost2010PropOp57
 70
     1
102
RTVSPropertyOp0
 70
     1
102
RTVSPropertyOp1
 70
     1
102
RTVSPropertyOp2
 70
     1
102
RTVSPropertyOp3
 70
     1
102
RTVSPropertyOp4
 70
     1
102
RTVSPropertyOp5
 70
     1
102
RTVSPropertyOp6
 70
     1
102
RTVSPropertyOp7
 70
     1
102
RTVSPropertyOp8
 70
     1
102
RTVSPropertyOp9
 70
     1
102
RTVSPropertyOp10
 70
     1
102
RTVSPropertyOp11
 70
     1
102
RTVSPropertyOp12
 70
     1
102
RTVSPropertyOp13
 70
     1
102
RTVSPropertyOp14
 70
     1
102
RTVSPropertyOp15
 70
     1
102
RTVSPropertyOp16
 70
     1
102
RTVSPropertyOp17
 70
     1
102
RTVSPropertyOp18
 70
     1
102
RTVSPropertyOp19
 70
     1
102
RTVSPropertyOp20
 70
     1
102
RTVSPropertyOp21
 70
     1
102
RTVSPropertyOp22
 70
     1
102
RTVSPropertyOp23
 70
     1
102
RTVSPropertyOp24
 70
     1
102
RTVSPropertyOp25
 70
     1
102
RTVSPropertyOp26
 70
     1
102
RTVSPropertyOp27
 70
     1
102
RTVSPropertyOp28
 70
     1
102
RTVSPropertyOp29
 70
     1
102
RTVSPropertyOp30
 70
     1
102
RTVSPropertyOp31
 70
     1
102
RTVSPropertyOp32
 70
     1
102
RTVSPropertyOp33
 70
     1
102
RTVSPropertyOp34
 70
     1
102
RTVSPropertyOp35
 70
     1
102
RTVSPropertyOp36
 70
     1
102
RTVSPropertyOp37
 70
     1
102
RTVSPropertyOp38
 70
     1
102
RTVSPropertyOp39
 70
     1
102
RTVSPropertyOp40
 70
     1
102
RTVSPropertyOp41
 70
     1
102
RTVSPropertyOp42
 70
     1
102
RTVSPropertyOp43
 70
     1
102
RTVSPropertyOp44
 70
     1
102
RTVSPropertyOp45
 70
     1
102
RTVSPropertyOp46
 70
     1
102
RTVSPropertyOp47
 70
     1
102
RTVSPropertyOp48
 70
     1
102
RTVSPropertyOp49
 70
     1
102
RTVSPropertyOp50
 70
     1
102
RTVSPropertyOp51
 70
     0
102
RTVSPropertyOp52
 70
     0
102
RTVSPropertyOp53
 70
     1
102
RTVSPropertyOp54
 70
     1
102
RTVSPropertyOp55
 70
     1
102
RTVSPropertyOp56
 70
     1
102
RTVSPropertyOp57
 70
     1
102
RTVSPropertyOp58
 70
     1
102
RTVSPropertyOp59
 70
     1
102
RTVSPropertyOp60
 70
     1
102
RTVSPropertyOp61
 70
     1
102
RTVSPropertyOp62
 70
     1
  0
XRECORD
  5
6B45
102
{ACAD_REACTORS
330
6B44
102
}
330
6B44
100
AcDbXrecord
280
     1
102
RTVSPost2010Prop28
280
     0
102
RTVSPost2010PropOp28
 70
     0
102
RTVSPost2010Prop29
280
     1
102
RTVSPost2010PropOp29
 70
     0
102
RTVSPost2010Prop30
280
     1
102
RTVSPost2010PropOp30
 70
     0
102
RTVSPost2010Prop31
280
     0
102
RTVSPost2010PropOp31
 70
     0
102
RTVSPost2010Prop32
280
     0
102
RTVSPost2010PropOp32
 70
     0
102
RTVSPost2010Prop33
280
     0
102
RTVSPost2010PropOp33
 70
     0
102
RTVSPost2010Prop34
280
     0
102
RTVSPost2010PropOp34
 70
     0
102
RTVSPost2010Prop35
280
     0
102
RTVSPost2010PropOp35
 70
     0
102
RTVSPost2010Prop36
280
     0
102
RTVSPost2010PropOp36
 70
     0
102
RTVSPost2010Prop37
 90
       50
102
RTVSPost2010PropOp37
 70
     0
102
RTVSPost2010Prop38
140
0.0
102
RTVSPost2010PropOp38
 70
     0
102
RTVSPost2010Prop39
140
1.0
102
RTVSPost2010PropOp39
 70
     0
102
RTVSPost2010Prop40
 90
        0
102
RTVSPost2010PropOp40
 70
     0
102
RTVSPost2010Prop41ColorIndex
 90
       18
102
RTVSPost2010Prop41ColorRGB
 90
        0
102
RTVSPost2010PropOp41
 70
     0
102
RTVSPost2010Prop42
 90
       50
102
RTVSPost2010PropOp42
 70
     0
102
RTVSPost2010Prop43
 90
        3
102
RTVSPost2010PropOp43
 70
     0
102
RTVSPost2010Prop44ColorIndex
 90
        5
102
RTVSPost2010Prop44ColorRGB
 90
      255
102
RTVSPost2010PropOp44
 70
     0
102
RTVSPost2010Prop45
280
     0
102
RTVSPost2010PropOp45
 70
     0
102
RTVSPost2010Prop46
 90
       50
102
RTVSPost2010PropOp46
 70
     0
102
RTVSPost2010Prop47
 90
       50
102
RTVSPost2010PropOp47
 70
     0
102
RTVSPost2010Prop48
 90
       50
102
RTVSPost2010PropOp48
 70
     0
102
RTVSPost2010Prop49
280
     0
102
RTVSPost2010PropOp49
 70
     0
102
RTVSPost2010Prop50
 90
       50
102
RTVSPost2010PropOp50
 70
     0
102
RTVSPost2010Prop51ColorIndex
 90
      256
102
RTVSPost2010Prop51ColorRGB
 90
-16777216
102
RTVSPost2010PropOp51
 70
     0
102
RTVSPost2010Prop52
140
1.0
102
RTVSPost2010PropOp52
 70
     0
102
RTVSPost2010Prop53
 90
        2
102
RTVSPost2010PropOp53
 70
     0
102
RTVSPost2010Prop54
  1
strokes_ogs.tif
102
RTVSPost2010PropOp54
 70
     0
102
RTVSPost2010Prop55
280
     0
102
RTVSPost2010PropOp55
 70
     0
102
RTVSPost2010Prop56
140
1.0
102
RTVSPost2010PropOp56
 70
     0
102
RTVSPost2010Prop57
140
1.0
102
RTVSPost2010PropOp57
 70
     0
102
RTVSPropertyOp0
 70
     0
102
RTVSPropertyOp1
 70
     0
102
RTVSPropertyOp2
 70
     0
102
RTVSPropertyOp3
 70
     0
102
RTVSPropertyOp4
 70
     0
102
RTVSPropertyOp5
 70
     0
102
RTVSPropertyOp6
 70
     0
102
RTVSPropertyOp7
 70
     0
102
RTVSPropertyOp8
 70
     0
102
RTVSPropertyOp9
 70
     0
102
RTVSPropertyOp10
 70
     0
102
RTVSPropertyOp11
 70
     0
102
RTVSPropertyOp12
 70
     0
102
RTVSPropertyOp13
 70
     0
102
RTVSPropertyOp14
 70
     2
102
RTVSPropertyOp15
 70
     0
102
RTVSPropertyOp16
 70
     0
102
RTVSPropertyOp17
 70
     0
102
RTVSPropertyOp18
 70
     0
102
RTVSPropertyOp19
 70
     0
102
RTVSPropertyOp20
 70
     0
102
RTVSPropertyOp21
 70
     0
102
RTVSPropertyOp22
 70
     0
102
RTVSPropertyOp23
 70
     0
102
RTVSPropertyOp24
 70
     0
102
RTVSPropertyOp25
 70
     0
102
RTVSPropertyOp26
 70
     0
102
RTVSPropertyOp27
 70
     0
102
RTVSPropertyOp28
 70
     0
102
RTVSPropertyOp29
 70
     0
102
RTVSPropertyOp30
 70
     0
102
RTVSPropertyOp31
 70
     0
102
RTVSPropertyOp32
 70
     0
102
RTVSPropertyOp33
 70
     0
102
RTVSPropertyOp34
 70
     0
102
RTVSPropertyOp35
 70
     0
102
RTVSPropertyOp36
 70
     0
102
RTVSPropertyOp37
 70
     0
102
RTVSPropertyOp38
 70
     0
102
RTVSPropertyOp39
 70
     0
102
RTVSPropertyOp40
 70
     0
102
RTVSPropertyOp41
 70
     0
102
RTVSPropertyOp42
 70
     0
102
RTVSPropertyOp43
 70
     0
102
RTVSPropertyOp44
 70
     0
102
RTVSPropertyOp45
 70
     0
102
RTVSPropertyOp46
 70
     0
102
RTVSPropertyOp47
 70
     0
102
RTVSPropertyOp48
 70
     0
102
RTVSPropertyOp49
 70
     0
102
RTVSPropertyOp50
 70
     0
102
RTVSPropertyOp51
 70
     0
102
RTVSPropertyOp52
 70
     0
102
RTVSPropertyOp53
 70
     0
102
RTVSPropertyOp54
 70
     0
102
RTVSPropertyOp55
 70
     0
102
RTVSPropertyOp56
 70
     0
102
RTVSPropertyOp57
 70
     0
102
RTVSPropertyOp58
 70
     0
102
RTVSPropertyOp59
 70
     0
102
RTVSPropertyOp60
 70
     0
102
RTVSPropertyOp61
 70
     0
102
RTVSPropertyOp62
 70
     0
  0
XRECORD
  5
6B2B
102
{ACAD_REACTORS
330
6B2A
102
}
330
6B2A
100
AcDbXrecord
280
     1
102
RTVSPost2010Prop28
280
     0
102
RTVSPost2010PropOp28
 70
     1
102
RTVSPost2010Prop29
280
     1
102
RTVSPost2010PropOp29
 70
     1
102
RTVSPost2010Prop30
280
     1
102
RTVSPost2010PropOp30
 70
     1
102
RTVSPost2010Prop31
280
     0
102
RTVSPost2010PropOp31
 70
     1
102
RTVSPost2010Prop32
280
     0
102
RTVSPost2010PropOp32
 70
     1
102
RTVSPost2010Prop33
280
     0
102
RTVSPost2010PropOp33
 70
     1
102
RTVSPost2010Prop34
280
     0
102
RTVSPost2010PropOp34
 70
     1
102
RTVSPost2010Prop35
280
     0
102
RTVSPost2010PropOp35
 70
     1
102
RTVSPost2010Prop36
280
     0
102
RTVSPost2010PropOp36
 70
     1
102
RTVSPost2010Prop37
 90
       50
102
RTVSPost2010PropOp37
 70
     1
102
RTVSPost2010Prop38
140
0.0
102
RTVSPost2010PropOp38
 70
     1
102
RTVSPost2010Prop39
140
1.0
102
RTVSPost2010PropOp39
 70
     1
102
RTVSPost2010Prop40
 90
        0
102
RTVSPost2010PropOp40
 70
     1
102
RTVSPost2010Prop41ColorIndex
 90
       18
102
RTVSPost2010Prop41ColorRGB
 90
        0
102
RTVSPost2010PropOp41
 70
     1
102
RTVSPost2010Prop42
 90
       50
102
RTVSPost2010PropOp42
 70
     1
102
RTVSPost2010Prop43
 90
        3
102
RTVSPost2010PropOp43
 70
     1
102
RTVSPost2010Prop44ColorIndex
 90
        5
102
RTVSPost2010Prop44ColorRGB
 90
      255
102
RTVSPost2010PropOp44
 70
     1
102
RTVSPost2010Prop45
280
     0
102
RTVSPost2010PropOp45
 70
     1
102
RTVSPost2010Prop46
 90
       50
102
RTVSPost2010PropOp46
 70
     1
102
RTVSPost2010Prop47
 90
       50
102
RTVSPost2010PropOp47
 70
     1
102
RTVSPost2010Prop48
 90
       50
102
RTVSPost2010PropOp48
 70
     1
102
RTVSPost2010Prop49
280
     0
102
RTVSPost2010PropOp49
 70
     1
102
RTVSPost2010Prop50
 90
       50
102
RTVSPost2010PropOp50
 70
     1
102
RTVSPost2010Prop51ColorIndex
 90
      256
102
RTVSPost2010Prop51ColorRGB
 90
-16777216
102
RTVSPost2010PropOp51
 70
     0
102
RTVSPost2010Prop52
140
1.0
102
RTVSPost2010PropOp52
 70
     0
102
RTVSPost2010Prop53
 90
        2
102
RTVSPost2010PropOp53
 70
     1
102
RTVSPost2010Prop54
  1
strokes_ogs.tif
102
RTVSPost2010PropOp54
 70
     1
102
RTVSPost2010Prop55
280
     0
102
RTVSPost2010PropOp55
 70
     1
102
RTVSPost2010Prop56
140
1.0
102
RTVSPost2010PropOp56
 70
     1
102
RTVSPost2010Prop57
140
1.0
102
RTVSPost2010PropOp57
 70
     1
102
RTVSPropertyOp0
 70
     1
102
RTVSPropertyOp1
 70
     1
102
RTVSPropertyOp2
 70
     1
102
RTVSPropertyOp3
 70
     1
102
RTVSPropertyOp4
 70
     1
102
RTVSPropertyOp5
 70
     1
102
RTVSPropertyOp6
 70
     1
102
RTVSPropertyOp7
 70
     1
102
RTVSPropertyOp8
 70
     1
102
RTVSPropertyOp9
 70
     1
102
RTVSPropertyOp10
 70
     1
102
RTVSPropertyOp11
 70
     1
102
RTVSPropertyOp12
 70
     1
102
RTVSPropertyOp13
 70
     1
102
RTVSPropertyOp14
 70
     1
102
RTVSPropertyOp15
 70
     1
102
RTVSPropertyOp16
 70
     1
102
RTVSPropertyOp17
 70
     1
102
RTVSPropertyOp18
 70
     1
102
RTVSPropertyOp19
 70
     1
102
RTVSPropertyOp20
 70
     1
102
RTVSPropertyOp21
 70
     1
102
RTVSPropertyOp22
 70
     1
102
RTVSPropertyOp23
 70
     1
102
RTVSPropertyOp24
 70
     1
102
RTVSPropertyOp25
 70
     1
102
RTVSPropertyOp26
 70
     1
102
RTVSPropertyOp27
 70
     1
102
RTVSPropertyOp28
 70
     1
102
RTVSPropertyOp29
 70
     1
102
RTVSPropertyOp30
 70
     1
102
RTVSPropertyOp31
 70
     1
102
RTVSPropertyOp32
 70
     1
102
RTVSPropertyOp33
 70
     1
102
RTVSPropertyOp34
 70
     1
102
RTVSPropertyOp35
 70
     1
102
RTVSPropertyOp36
 70
     1
102
RTVSPropertyOp37
 70
     1
102
RTVSPropertyOp38
 70
     1
102
RTVSPropertyOp39
 70
     1
102
RTVSPropertyOp40
 70
     1
102
RTVSPropertyOp41
 70
     1
102
RTVSPropertyOp42
 70
     1
102
RTVSPropertyOp43
 70
     1
102
RTVSPropertyOp44
 70
     1
102
RTVSPropertyOp45
 70
     1
102
RTVSPropertyOp46
 70
     1
102
RTVSPropertyOp47
 70
     1
102
RTVSPropertyOp48
 70
     1
102
RTVSPropertyOp49
 70
     1
102
RTVSPropertyOp50
 70
     1
102
RTVSPropertyOp51
 70
     0
102
RTVSPropertyOp52
 70
     0
102
RTVSPropertyOp53
 70
     1
102
RTVSPropertyOp54
 70
     1
102
RTVSPropertyOp55
 70
     1
102
RTVSPropertyOp56
 70
     1
102
RTVSPropertyOp57
 70
     1
102
RTVSPropertyOp58
 70
     1
102
RTVSPropertyOp59
 70
     1
102
RTVSPropertyOp60
 70
     1
102
RTVSPropertyOp61
 70
     1
102
RTVSPropertyOp62
 70
     1
  0
XRECORD
  5
6B41
102
{ACAD_REACTORS
330
6B40
102
}
330
6B40
100
AcDbXrecord
280
     1
102
RTVSPost2010Prop28
280
     0
102
RTVSPost2010PropOp28
 70
     1
102
RTVSPost2010Prop29
280
     1
102
RTVSPost2010PropOp29
 70
     1
102
RTVSPost2010Prop30
280
     1
102
RTVSPost2010PropOp30
 70
     1
102
RTVSPost2010Prop31
280
     0
102
RTVSPost2010PropOp31
 70
     1
102
RTVSPost2010Prop32
280
     0
102
RTVSPost2010PropOp32
 70
     1
102
RTVSPost2010Prop33
280
     0
102
RTVSPost2010PropOp33
 70
     1
102
RTVSPost2010Prop34
280
     0
102
RTVSPost2010PropOp34
 70
     1
102
RTVSPost2010Prop35
280
     0
102
RTVSPost2010PropOp35
 70
     1
102
RTVSPost2010Prop36
280
     0
102
RTVSPost2010PropOp36
 70
     1
102
RTVSPost2010Prop37
 90
       50
102
RTVSPost2010PropOp37
 70
     1
102
RTVSPost2010Prop38
140
0.0
102
RTVSPost2010PropOp38
 70
     1
102
RTVSPost2010Prop39
140
1.0
102
RTVSPost2010PropOp39
 70
     1
102
RTVSPost2010Prop40
 90
        0
102
RTVSPost2010PropOp40
 70
     1
102
RTVSPost2010Prop41ColorIndex
 90
       18
102
RTVSPost2010Prop41ColorRGB
 90
        0
102
RTVSPost2010PropOp41
 70
     1
102
RTVSPost2010Prop42
 90
       50
102
RTVSPost2010PropOp42
 70
     1
102
RTVSPost2010Prop43
 90
        3
102
RTVSPost2010PropOp43
 70
     1
102
RTVSPost2010Prop44ColorIndex
 90
        5
102
RTVSPost2010Prop44ColorRGB
 90
      255
102
RTVSPost2010PropOp44
 70
     1
102
RTVSPost2010Prop45
280
     0
102
RTVSPost2010PropOp45
 70
     1
102
RTVSPost2010Prop46
 90
       50
102
RTVSPost2010PropOp46
 70
     1
102
RTVSPost2010Prop47
 90
       50
102
RTVSPost2010PropOp47
 70
     1
102
RTVSPost2010Prop48
 90
       50
102
RTVSPost2010PropOp48
 70
     1
102
RTVSPost2010Prop49
280
     0
102
RTVSPost2010PropOp49
 70
     1
102
RTVSPost2010Prop50
 90
       50
102
RTVSPost2010PropOp50
 70
     1
102
RTVSPost2010Prop51ColorIndex
 90
      256
102
RTVSPost2010Prop51ColorRGB
 90
-16777216
102
RTVSPost2010PropOp51
 70
     0
102
RTVSPost2010Prop52
140
1.0
102
RTVSPost2010PropOp52
 70
     0
102
RTVSPost2010Prop53
 90
        2
102
RTVSPost2010PropOp53
 70
     1
102
RTVSPost2010Prop54
  1
strokes_ogs.tif
102
RTVSPost2010PropOp54
 70
     1
102
RTVSPost2010Prop55
280
     0
102
RTVSPost2010PropOp55
 70
     1
102
RTVSPost2010Prop56
140
1.0
102
RTVSPost2010PropOp56
 70
     1
102
RTVSPost2010Prop57
140
1.0
102
RTVSPost2010PropOp57
 70
     1
102
RTVSPropertyOp0
 70
     1
102
RTVSPropertyOp1
 70
     1
102
RTVSPropertyOp2
 70
     1
102
RTVSPropertyOp3
 70
     1
102
RTVSPropertyOp4
 70
     1
102
RTVSPropertyOp5
 70
     1
102
RTVSPropertyOp6
 70
     1
102
RTVSPropertyOp7
 70
     1
102
RTVSPropertyOp8
 70
     1
102
RTVSPropertyOp9
 70
     1
102
RTVSPropertyOp10
 70
     1
102
RTVSPropertyOp11
 70
     1
102
RTVSPropertyOp12
 70
     1
102
RTVSPropertyOp13
 70
     1
102
RTVSPropertyOp14
 70
     1
102
RTVSPropertyOp15
 70
     1
102
RTVSPropertyOp16
 70
     1
102
RTVSPropertyOp17
 70
     1
102
RTVSPropertyOp18
 70
     1
102
RTVSPropertyOp19
 70
     1
102
RTVSPropertyOp20
 70
     1
102
RTVSPropertyOp21
 70
     1
102
RTVSPropertyOp22
 70
     1
102
RTVSPropertyOp23
 70
     1
102
RTVSPropertyOp24
 70
     1
102
RTVSPropertyOp25
 70
     1
102
RTVSPropertyOp26
 70
     1
102
RTVSPropertyOp27
 70
     1
102
RTVSPropertyOp28
 70
     1
102
RTVSPropertyOp29
 70
     1
102
RTVSPropertyOp30
 70
     1
102
RTVSPropertyOp31
 70
     1
102
RTVSPropertyOp32
 70
     1
102
RTVSPropertyOp33
 70
     1
102
RTVSPropertyOp34
 70
     1
102
RTVSPropertyOp35
 70
     1
102
RTVSPropertyOp36
 70
     1
102
RTVSPropertyOp37
 70
     1
102
RTVSPropertyOp38
 70
     1
102
RTVSPropertyOp39
 70
     1
102
RTVSPropertyOp40
 70
     1
102
RTVSPropertyOp41
 70
     1
102
RTVSPropertyOp42
 70
     1
102
RTVSPropertyOp43
 70
     1
102
RTVSPropertyOp44
 70
     1
102
RTVSPropertyOp45
 70
     1
102
RTVSPropertyOp46
 70
     1
102
RTVSPropertyOp47
 70
     1
102
RTVSPropertyOp48
 70
     1
102
RTVSPropertyOp49
 70
     1
102
RTVSPropertyOp50
 70
     1
102
RTVSPropertyOp51
 70
     0
102
RTVSPropertyOp52
 70
     0
102
RTVSPropertyOp53
 70
     1
102
RTVSPropertyOp54
 70
     1
102
RTVSPropertyOp55
 70
     1
102
RTVSPropertyOp56
 70
     1
102
RTVSPropertyOp57
 70
     1
102
RTVSPropertyOp58
 70
     1
102
RTVSPropertyOp59
 70
     1
102
RTVSPropertyOp60
 70
     1
102
RTVSPropertyOp61
 70
     1
102
RTVSPropertyOp62
 70
     1
  0
XRECORD
  5
6B3F
102
{ACAD_REACTORS
330
6B3E
102
}
330
6B3E
100
AcDbXrecord
280
     1
102
RTVSPost2010Prop28
280
     0
102
RTVSPost2010PropOp28
 70
     1
102
RTVSPost2010Prop29
280
     1
102
RTVSPost2010PropOp29
 70
     1
102
RTVSPost2010Prop30
280
     1
102
RTVSPost2010PropOp30
 70
     1
102
RTVSPost2010Prop31
280
     0
102
RTVSPost2010PropOp31
 70
     1
102
RTVSPost2010Prop32
280
     0
102
RTVSPost2010PropOp32
 70
     1
102
RTVSPost2010Prop33
280
     0
102
RTVSPost2010PropOp33
 70
     1
102
RTVSPost2010Prop34
280
     0
102
RTVSPost2010PropOp34
 70
     1
102
RTVSPost2010Prop35
280
     0
102
RTVSPost2010PropOp35
 70
     1
102
RTVSPost2010Prop36
280
     0
102
RTVSPost2010PropOp36
 70
     1
102
RTVSPost2010Prop37
 90
       50
102
RTVSPost2010PropOp37
 70
     1
102
RTVSPost2010Prop38
140
0.0
102
RTVSPost2010PropOp38
 70
     1
102
RTVSPost2010Prop39
140
1.0
102
RTVSPost2010PropOp39
 70
     1
102
RTVSPost2010Prop40
 90
        0
102
RTVSPost2010PropOp40
 70
     1
102
RTVSPost2010Prop41ColorIndex
 90
       18
102
RTVSPost2010Prop41ColorRGB
 90
        0
102
RTVSPost2010PropOp41
 70
     1
102
RTVSPost2010Prop42
 90
       50
102
RTVSPost2010PropOp42
 70
     1
102
RTVSPost2010Prop43
 90
        3
102
RTVSPost2010PropOp43
 70
     1
102
RTVSPost2010Prop44ColorIndex
 90
        5
102
RTVSPost2010Prop44ColorRGB
 90
      255
102
RTVSPost2010PropOp44
 70
     1
102
RTVSPost2010Prop45
280
     0
102
RTVSPost2010PropOp45
 70
     1
102
RTVSPost2010Prop46
 90
       50
102
RTVSPost2010PropOp46
 70
     1
102
RTVSPost2010Prop47
 90
       50
102
RTVSPost2010PropOp47
 70
     1
102
RTVSPost2010Prop48
 90
       50
102
RTVSPost2010PropOp48
 70
     1
102
RTVSPost2010Prop49
280
     0
102
RTVSPost2010PropOp49
 70
     1
102
RTVSPost2010Prop50
 90
       50
102
RTVSPost2010PropOp50
 70
     1
102
RTVSPost2010Prop51ColorIndex
 90
      256
102
RTVSPost2010Prop51ColorRGB
 90
-16777216
102
RTVSPost2010PropOp51
 70
     0
102
RTVSPost2010Prop52
140
1.0
102
RTVSPost2010PropOp52
 70
     0
102
RTVSPost2010Prop53
 90
        2
102
RTVSPost2010PropOp53
 70
     1
102
RTVSPost2010Prop54
  1
strokes_ogs.tif
102
RTVSPost2010PropOp54
 70
     1
102
RTVSPost2010Prop55
280
     0
102
RTVSPost2010PropOp55
 70
     1
102
RTVSPost2010Prop56
140
1.0
102
RTVSPost2010PropOp56
 70
     1
102
RTVSPost2010Prop57
140
1.0
102
RTVSPost2010PropOp57
 70
     1
102
RTVSPropertyOp0
 70
     1
102
RTVSPropertyOp1
 70
     1
102
RTVSPropertyOp2
 70
     1
102
RTVSPropertyOp3
 70
     1
102
RTVSPropertyOp4
 70
     1
102
RTVSPropertyOp5
 70
     1
102
RTVSPropertyOp6
 70
     1
102
RTVSPropertyOp7
 70
     1
102
RTVSPropertyOp8
 70
     1
102
RTVSPropertyOp9
 70
     1
102
RTVSPropertyOp10
 70
     1
102
RTVSPropertyOp11
 70
     1
102
RTVSPropertyOp12
 70
     1
102
RTVSPropertyOp13
 70
     1
102
RTVSPropertyOp14
 70
     1
102
RTVSPropertyOp15
 70
     1
102
RTVSPropertyOp16
 70
     1
102
RTVSPropertyOp17
 70
     1
102
RTVSPropertyOp18
 70
     1
102
RTVSPropertyOp19
 70
     1
102
RTVSPropertyOp20
 70
     1
102
RTVSPropertyOp21
 70
     1
102
RTVSPropertyOp22
 70
     1
102
RTVSPropertyOp23
 70
     1
102
RTVSPropertyOp24
 70
     1
102
RTVSPropertyOp25
 70
     1
102
RTVSPropertyOp26
 70
     1
102
RTVSPropertyOp27
 70
     1
102
RTVSPropertyOp28
 70
     1
102
RTVSPropertyOp29
 70
     1
102
RTVSPropertyOp30
 70
     1
102
RTVSPropertyOp31
 70
     1
102
RTVSPropertyOp32
 70
     1
102
RTVSPropertyOp33
 70
     1
102
RTVSPropertyOp34
 70
     1
102
RTVSPropertyOp35
 70
     1
102
RTVSPropertyOp36
 70
     1
102
RTVSPropertyOp37
 70
     1
102
RTVSPropertyOp38
 70
     1
102
RTVSPropertyOp39
 70
     1
102
RTVSPropertyOp40
 70
     1
102
RTVSPropertyOp41
 70
     1
102
RTVSPropertyOp42
 70
     1
102
RTVSPropertyOp43
 70
     1
102
RTVSPropertyOp44
 70
     1
102
RTVSPropertyOp45
 70
     1
102
RTVSPropertyOp46
 70
     1
102
RTVSPropertyOp47
 70
     1
102
RTVSPropertyOp48
 70
     1
102
RTVSPropertyOp49
 70
     1
102
RTVSPropertyOp50
 70
     1
102
RTVSPropertyOp51
 70
     0
102
RTVSPropertyOp52
 70
     0
102
RTVSPropertyOp53
 70
     1
102
RTVSPropertyOp54
 70
     1
102
RTVSPropertyOp55
 70
     1
102
RTVSPropertyOp56
 70
     1
102
RTVSPropertyOp57
 70
     1
102
RTVSPropertyOp58
 70
     1
102
RTVSPropertyOp59
 70
     1
102
RTVSPropertyOp60
 70
     1
102
RTVSPropertyOp61
 70
     1
102
RTVSPropertyOp62
 70
     1
  0
XRECORD
  5
6B39
102
{ACAD_REACTORS
330
6B38
102
}
330
6B38
100
AcDbXrecord
280
     1
102
RTVSPost2010Prop28
280
     0
102
RTVSPost2010PropOp28
 70
     1
102
RTVSPost2010Prop29
280
     1
102
RTVSPost2010PropOp29
 70
     1
102
RTVSPost2010Prop30
280
     1
102
RTVSPost2010PropOp30
 70
     1
102
RTVSPost2010Prop31
280
     0
102
RTVSPost2010PropOp31
 70
     1
102
RTVSPost2010Prop32
280
     0
102
RTVSPost2010PropOp32
 70
     1
102
RTVSPost2010Prop33
280
     0
102
RTVSPost2010PropOp33
 70
     1
102
RTVSPost2010Prop34
280
     0
102
RTVSPost2010PropOp34
 70
     1
102
RTVSPost2010Prop35
280
     0
102
RTVSPost2010PropOp35
 70
     1
102
RTVSPost2010Prop36
280
     0
102
RTVSPost2010PropOp36
 70
     1
102
RTVSPost2010Prop37
 90
       50
102
RTVSPost2010PropOp37
 70
     1
102
RTVSPost2010Prop38
140
0.0
102
RTVSPost2010PropOp38
 70
     1
102
RTVSPost2010Prop39
140
1.0
102
RTVSPost2010PropOp39
 70
     1
102
RTVSPost2010Prop40
 90
        0
102
RTVSPost2010PropOp40
 70
     1
102
RTVSPost2010Prop41ColorIndex
 90
       18
102
RTVSPost2010Prop41ColorRGB
 90
        0
102
RTVSPost2010PropOp41
 70
     1
102
RTVSPost2010Prop42
 90
       50
102
RTVSPost2010PropOp42
 70
     1
102
RTVSPost2010Prop43
 90
        3
102
RTVSPost2010PropOp43
 70
     1
102
RTVSPost2010Prop44ColorIndex
 90
        5
102
RTVSPost2010Prop44ColorRGB
 90
      255
102
RTVSPost2010PropOp44
 70
     1
102
RTVSPost2010Prop45
280
     0
102
RTVSPost2010PropOp45
 70
     1
102
RTVSPost2010Prop46
 90
       50
102
RTVSPost2010PropOp46
 70
     1
102
RTVSPost2010Prop47
 90
       50
102
RTVSPost2010PropOp47
 70
     1
102
RTVSPost2010Prop48
 90
       50
102
RTVSPost2010PropOp48
 70
     1
102
RTVSPost2010Prop49
280
     0
102
RTVSPost2010PropOp49
 70
     1
102
RTVSPost2010Prop50
 90
       50
102
RTVSPost2010PropOp50
 70
     1
102
RTVSPost2010Prop51ColorIndex
 90
      256
102
RTVSPost2010Prop51ColorRGB
 90
-16777216
102
RTVSPost2010PropOp51
 70
     0
102
RTVSPost2010Prop52
140
1.0
102
RTVSPost2010PropOp52
 70
     0
102
RTVSPost2010Prop53
 90
        2
102
RTVSPost2010PropOp53
 70
     1
102
RTVSPost2010Prop54
  1
strokes_ogs.tif
102
RTVSPost2010PropOp54
 70
     1
102
RTVSPost2010Prop55
280
     0
102
RTVSPost2010PropOp55
 70
     1
102
RTVSPost2010Prop56
140
1.0
102
RTVSPost2010PropOp56
 70
     1
102
RTVSPost2010Prop57
140
1.0
102
RTVSPost2010PropOp57
 70
     1
102
RTVSPropertyOp0
 70
     1
102
RTVSPropertyOp1
 70
     1
102
RTVSPropertyOp2
 70
     1
102
RTVSPropertyOp3
 70
     1
102
RTVSPropertyOp4
 70
     1
102
RTVSPropertyOp5
 70
     1
102
RTVSPropertyOp6
 70
     1
102
RTVSPropertyOp7
 70
     1
102
RTVSPropertyOp8
 70
     1
102
RTVSPropertyOp9
 70
     1
102
RTVSPropertyOp10
 70
     1
102
RTVSPropertyOp11
 70
     1
102
RTVSPropertyOp12
 70
     1
102
RTVSPropertyOp13
 70
     1
102
RTVSPropertyOp14
 70
     1
102
RTVSPropertyOp15
 70
     1
102
RTVSPropertyOp16
 70
     1
102
RTVSPropertyOp17
 70
     1
102
RTVSPropertyOp18
 70
     1
102
RTVSPropertyOp19
 70
     1
102
RTVSPropertyOp20
 70
     1
102
RTVSPropertyOp21
 70
     1
102
RTVSPropertyOp22
 70
     1
102
RTVSPropertyOp23
 70
     1
102
RTVSPropertyOp24
 70
     1
102
RTVSPropertyOp25
 70
     1
102
RTVSPropertyOp26
 70
     1
102
RTVSPropertyOp27
 70
     1
102
RTVSPropertyOp28
 70
     1
102
RTVSPropertyOp29
 70
     1
102
RTVSPropertyOp30
 70
     1
102
RTVSPropertyOp31
 70
     1
102
RTVSPropertyOp32
 70
     1
102
RTVSPropertyOp33
 70
     1
102
RTVSPropertyOp34
 70
     1
102
RTVSPropertyOp35
 70
     1
102
RTVSPropertyOp36
 70
     1
102
RTVSPropertyOp37
 70
     1
102
RTVSPropertyOp38
 70
     1
102
RTVSPropertyOp39
 70
     1
102
RTVSPropertyOp40
 70
     1
102
RTVSPropertyOp41
 70
     1
102
RTVSPropertyOp42
 70
     1
102
RTVSPropertyOp43
 70
     1
102
RTVSPropertyOp44
 70
     1
102
RTVSPropertyOp45
 70
     1
102
RTVSPropertyOp46
 70
     1
102
RTVSPropertyOp47
 70
     1
102
RTVSPropertyOp48
 70
     1
102
RTVSPropertyOp49
 70
     1
102
RTVSPropertyOp50
 70
     1
102
RTVSPropertyOp51
 70
     0
102
RTVSPropertyOp52
 70
     0
102
RTVSPropertyOp53
 70
     1
102
RTVSPropertyOp54
 70
     1
102
RTVSPropertyOp55
 70
     1
102
RTVSPropertyOp56
 70
     1
102
RTVSPropertyOp57
 70
     1
102
RTVSPropertyOp58
 70
     1
102
RTVSPropertyOp59
 70
     1
102
RTVSPropertyOp60
 70
     1
102
RTVSPropertyOp61
 70
     1
102
RTVSPropertyOp62
 70
     1
  0
XRECORD
  5
6B3B
102
{ACAD_REACTORS
330
6B3A
102
}
330
6B3A
100
AcDbXrecord
280
     1
102
RTVSPost2010Prop28
280
     0
102
RTVSPost2010PropOp28
 70
     1
102
RTVSPost2010Prop29
280
     1
102
RTVSPost2010PropOp29
 70
     1
102
RTVSPost2010Prop30
280
     1
102
RTVSPost2010PropOp30
 70
     1
102
RTVSPost2010Prop31
280
     0
102
RTVSPost2010PropOp31
 70
     1
102
RTVSPost2010Prop32
280
     0
102
RTVSPost2010PropOp32
 70
     1
102
RTVSPost2010Prop33
280
     0
102
RTVSPost2010PropOp33
 70
     1
102
RTVSPost2010Prop34
280
     0
102
RTVSPost2010PropOp34
 70
     1
102
RTVSPost2010Prop35
280
     0
102
RTVSPost2010PropOp35
 70
     1
102
RTVSPost2010Prop36
280
     0
102
RTVSPost2010PropOp36
 70
     1
102
RTVSPost2010Prop37
 90
       50
102
RTVSPost2010PropOp37
 70
     1
102
RTVSPost2010Prop38
140
0.0
102
RTVSPost2010PropOp38
 70
     1
102
RTVSPost2010Prop39
140
1.0
102
RTVSPost2010PropOp39
 70
     1
102
RTVSPost2010Prop40
 90
        0
102
RTVSPost2010PropOp40
 70
     1
102
RTVSPost2010Prop41ColorIndex
 90
       18
102
RTVSPost2010Prop41ColorRGB
 90
        0
102
RTVSPost2010PropOp41
 70
     1
102
RTVSPost2010Prop42
 90
       50
102
RTVSPost2010PropOp42
 70
     1
102
RTVSPost2010Prop43
 90
        3
102
RTVSPost2010PropOp43
 70
     1
102
RTVSPost2010Prop44ColorIndex
 90
        5
102
RTVSPost2010Prop44ColorRGB
 90
      255
102
RTVSPost2010PropOp44
 70
     1
102
RTVSPost2010Prop45
280
     0
102
RTVSPost2010PropOp45
 70
     1
102
RTVSPost2010Prop46
 90
       50
102
RTVSPost2010PropOp46
 70
     1
102
RTVSPost2010Prop47
 90
       50
102
RTVSPost2010PropOp47
 70
     1
102
RTVSPost2010Prop48
 90
       50
102
RTVSPost2010PropOp48
 70
     1
102
RTVSPost2010Prop49
280
     0
102
RTVSPost2010PropOp49
 70
     1
102
RTVSPost2010Prop50
 90
       50
102
RTVSPost2010PropOp50
 70
     1
102
RTVSPost2010Prop51ColorIndex
 90
      256
102
RTVSPost2010Prop51ColorRGB
 90
-16777216
102
RTVSPost2010PropOp51
 70
     0
102
RTVSPost2010Prop52
140
1.0
102
RTVSPost2010PropOp52
 70
     0
102
RTVSPost2010Prop53
 90
        2
102
RTVSPost2010PropOp53
 70
     1
102
RTVSPost2010Prop54
  1
strokes_ogs.tif
102
RTVSPost2010PropOp54
 70
     1
102
RTVSPost2010Prop55
280
     0
102
RTVSPost2010PropOp55
 70
     1
102
RTVSPost2010Prop56
140
1.0
102
RTVSPost2010PropOp56
 70
     1
102
RTVSPost2010Prop57
140
1.0
102
RTVSPost2010PropOp57
 70
     1
102
RTVSPropertyOp0
 70
     1
102
RTVSPropertyOp1
 70
     1
102
RTVSPropertyOp2
 70
     1
102
RTVSPropertyOp3
 70
     1
102
RTVSPropertyOp4
 70
     1
102
RTVSPropertyOp5
 70
     1
102
RTVSPropertyOp6
 70
     1
102
RTVSPropertyOp7
 70
     1
102
RTVSPropertyOp8
 70
     1
102
RTVSPropertyOp9
 70
     1
102
RTVSPropertyOp10
 70
     1
102
RTVSPropertyOp11
 70
     1
102
RTVSPropertyOp12
 70
     1
102
RTVSPropertyOp13
 70
     1
102
RTVSPropertyOp14
 70
     1
102
RTVSPropertyOp15
 70
     1
102
RTVSPropertyOp16
 70
     1
102
RTVSPropertyOp17
 70
     1
102
RTVSPropertyOp18
 70
     1
102
RTVSPropertyOp19
 70
     1
102
RTVSPropertyOp20
 70
     1
102
RTVSPropertyOp21
 70
     1
102
RTVSPropertyOp22
 70
     1
102
RTVSPropertyOp23
 70
     1
102
RTVSPropertyOp24
 70
     1
102
RTVSPropertyOp25
 70
     1
102
RTVSPropertyOp26
 70
     1
102
RTVSPropertyOp27
 70
     1
102
RTVSPropertyOp28
 70
     1
102
RTVSPropertyOp29
 70
     1
102
RTVSPropertyOp30
 70
     1
102
RTVSPropertyOp31
 70
     1
102
RTVSPropertyOp32
 70
     1
102
RTVSPropertyOp33
 70
     1
102
RTVSPropertyOp34
 70
     1
102
RTVSPropertyOp35
 70
     1
102
RTVSPropertyOp36
 70
     1
102
RTVSPropertyOp37
 70
     1
102
RTVSPropertyOp38
 70
     1
102
RTVSPropertyOp39
 70
     1
102
RTVSPropertyOp40
 70
     1
102
RTVSPropertyOp41
 70
     1
102
RTVSPropertyOp42
 70
     1
102
RTVSPropertyOp43
 70
     1
102
RTVSPropertyOp44
 70
     1
102
RTVSPropertyOp45
 70
     1
102
RTVSPropertyOp46
 70
     1
102
RTVSPropertyOp47
 70
     1
102
RTVSPropertyOp48
 70
     1
102
RTVSPropertyOp49
 70
     1
102
RTVSPropertyOp50
 70
     1
102
RTVSPropertyOp51
 70
     0
102
RTVSPropertyOp52
 70
     0
102
RTVSPropertyOp53
 70
     1
102
RTVSPropertyOp54
 70
     1
102
RTVSPropertyOp55
 70
     1
102
RTVSPropertyOp56
 70
     1
102
RTVSPropertyOp57
 70
     1
102
RTVSPropertyOp58
 70
     1
102
RTVSPropertyOp59
 70
     1
102
RTVSPropertyOp60
 70
     1
102
RTVSPropertyOp61
 70
     1
102
RTVSPropertyOp62
 70
     1
  0
XRECORD
  5
6B31
102
{ACAD_REACTORS
330
6B30
102
}
330
6B30
100
AcDbXrecord
280
     1
102
RTVSPost2010Prop28
280
     0
102
RTVSPost2010PropOp28
 70
     1
102
RTVSPost2010Prop29
280
     1
102
RTVSPost2010PropOp29
 70
     1
102
RTVSPost2010Prop30
280
     1
102
RTVSPost2010PropOp30
 70
     1
102
RTVSPost2010Prop31
280
     0
102
RTVSPost2010PropOp31
 70
     1
102
RTVSPost2010Prop32
280
     0
102
RTVSPost2010PropOp32
 70
     1
102
RTVSPost2010Prop33
280
     0
102
RTVSPost2010PropOp33
 70
     1
102
RTVSPost2010Prop34
280
     0
102
RTVSPost2010PropOp34
 70
     1
102
RTVSPost2010Prop35
280
     0
102
RTVSPost2010PropOp35
 70
     1
102
RTVSPost2010Prop36
280
     0
102
RTVSPost2010PropOp36
 70
     1
102
RTVSPost2010Prop37
 90
       50
102
RTVSPost2010PropOp37
 70
     1
102
RTVSPost2010Prop38
140
0.0
102
RTVSPost2010PropOp38
 70
     1
102
RTVSPost2010Prop39
140
1.0
102
RTVSPost2010PropOp39
 70
     1
102
RTVSPost2010Prop40
 90
        0
102
RTVSPost2010PropOp40
 70
     1
102
RTVSPost2010Prop41ColorIndex
 90
       18
102
RTVSPost2010Prop41ColorRGB
 90
        0
102
RTVSPost2010PropOp41
 70
     1
102
RTVSPost2010Prop42
 90
       50
102
RTVSPost2010PropOp42
 70
     1
102
RTVSPost2010Prop43
 90
        3
102
RTVSPost2010PropOp43
 70
     1
102
RTVSPost2010Prop44ColorIndex
 90
        5
102
RTVSPost2010Prop44ColorRGB
 90
      255
102
RTVSPost2010PropOp44
 70
     1
102
RTVSPost2010Prop45
280
     0
102
RTVSPost2010PropOp45
 70
     1
102
RTVSPost2010Prop46
 90
       50
102
RTVSPost2010PropOp46
 70
     1
102
RTVSPost2010Prop47
 90
       50
102
RTVSPost2010PropOp47
 70
     1
102
RTVSPost2010Prop48
 90
       50
102
RTVSPost2010PropOp48
 70
     1
102
RTVSPost2010Prop49
280
     0
102
RTVSPost2010PropOp49
 70
     1
102
RTVSPost2010Prop50
 90
       50
102
RTVSPost2010PropOp50
 70
     1
102
RTVSPost2010Prop51ColorIndex
 90
      256
102
RTVSPost2010Prop51ColorRGB
 90
-16777216
102
RTVSPost2010PropOp51
 70
     0
102
RTVSPost2010Prop52
140
1.0
102
RTVSPost2010PropOp52
 70
     0
102
RTVSPost2010Prop53
 90
        2
102
RTVSPost2010PropOp53
 70
     1
102
RTVSPost2010Prop54
  1
strokes_ogs.tif
102
RTVSPost2010PropOp54
 70
     1
102
RTVSPost2010Prop55
280
     0
102
RTVSPost2010PropOp55
 70
     1
102
RTVSPost2010Prop56
140
1.0
102
RTVSPost2010PropOp56
 70
     1
102
RTVSPost2010Prop57
140
1.0
102
RTVSPost2010PropOp57
 70
     1
102
RTVSPropertyOp0
 70
     1
102
RTVSPropertyOp1
 70
     1
102
RTVSPropertyOp2
 70
     1
102
RTVSPropertyOp3
 70
     1
102
RTVSPropertyOp4
 70
     1
102
RTVSPropertyOp5
 70
     1
102
RTVSPropertyOp6
 70
     1
102
RTVSPropertyOp7
 70
     1
102
RTVSPropertyOp8
 70
     1
102
RTVSPropertyOp9
 70
     1
102
RTVSPropertyOp10
 70
     1
102
RTVSPropertyOp11
 70
     1
102
RTVSPropertyOp12
 70
     1
102
RTVSPropertyOp13
 70
     1
102
RTVSPropertyOp14
 70
     1
102
RTVSPropertyOp15
 70
     1
102
RTVSPropertyOp16
 70
     1
102
RTVSPropertyOp17
 70
     1
102
RTVSPropertyOp18
 70
     1
102
RTVSPropertyOp19
 70
     1
102
RTVSPropertyOp20
 70
     1
102
RTVSPropertyOp21
 70
     1
102
RTVSPropertyOp22
 70
     1
102
RTVSPropertyOp23
 70
     1
102
RTVSPropertyOp24
 70
     1
102
RTVSPropertyOp25
 70
     1
102
RTVSPropertyOp26
 70
     1
102
RTVSPropertyOp27
 70
     1
102
RTVSPropertyOp28
 70
     1
102
RTVSPropertyOp29
 70
     1
102
RTVSPropertyOp30
 70
     1
102
RTVSPropertyOp31
 70
     1
102
RTVSPropertyOp32
 70
     1
102
RTVSPropertyOp33
 70
     1
102
RTVSPropertyOp34
 70
     1
102
RTVSPropertyOp35
 70
     1
102
RTVSPropertyOp36
 70
     1
102
RTVSPropertyOp37
 70
     1
102
RTVSPropertyOp38
 70
     1
102
RTVSPropertyOp39
 70
     1
102
RTVSPropertyOp40
 70
     1
102
RTVSPropertyOp41
 70
     1
102
RTVSPropertyOp42
 70
     1
102
RTVSPropertyOp43
 70
     1
102
RTVSPropertyOp44
 70
     1
102
RTVSPropertyOp45
 70
     1
102
RTVSPropertyOp46
 70
     1
102
RTVSPropertyOp47
 70
     1
102
RTVSPropertyOp48
 70
     1
102
RTVSPropertyOp49
 70
     1
102
RTVSPropertyOp50
 70
     1
102
RTVSPropertyOp51
 70
     0
102
RTVSPropertyOp52
 70
     0
102
RTVSPropertyOp53
 70
     1
102
RTVSPropertyOp54
 70
     1
102
RTVSPropertyOp55
 70
     1
102
RTVSPropertyOp56
 70
     1
102
RTVSPropertyOp57
 70
     1
102
RTVSPropertyOp58
 70
     1
102
RTVSPropertyOp59
 70
     1
102
RTVSPropertyOp60
 70
     1
102
RTVSPropertyOp61
 70
     1
102
RTVSPropertyOp62
 70
     1
  0
XRECORD
  5
6B25
102
{ACAD_REACTORS
330
6B24
102
}
330
6B24
100
AcDbXrecord
280
     1
102
RTVSPost2010Prop28
280
     0
102
RTVSPost2010PropOp28
 70
     1
102
RTVSPost2010Prop29
280
     1
102
RTVSPost2010PropOp29
 70
     1
102
RTVSPost2010Prop30
280
     1
102
RTVSPost2010PropOp30
 70
     1
102
RTVSPost2010Prop31
280
     0
102
RTVSPost2010PropOp31
 70
     1
102
RTVSPost2010Prop32
280
     0
102
RTVSPost2010PropOp32
 70
     1
102
RTVSPost2010Prop33
280
     0
102
RTVSPost2010PropOp33
 70
     1
102
RTVSPost2010Prop34
280
     0
102
RTVSPost2010PropOp34
 70
     1
102
RTVSPost2010Prop35
280
     0
102
RTVSPost2010PropOp35
 70
     1
102
RTVSPost2010Prop36
280
     0
102
RTVSPost2010PropOp36
 70
     1
102
RTVSPost2010Prop37
 90
       50
102
RTVSPost2010PropOp37
 70
     1
102
RTVSPost2010Prop38
140
0.0
102
RTVSPost2010PropOp38
 70
     1
102
RTVSPost2010Prop39
140
1.0
102
RTVSPost2010PropOp39
 70
     1
102
RTVSPost2010Prop40
 90
        0
102
RTVSPost2010PropOp40
 70
     1
102
RTVSPost2010Prop41ColorIndex
 90
       18
102
RTVSPost2010Prop41ColorRGB
 90
        0
102
RTVSPost2010PropOp41
 70
     1
102
RTVSPost2010Prop42
 90
       50
102
RTVSPost2010PropOp42
 70
     1
102
RTVSPost2010Prop43
 90
        3
102
RTVSPost2010PropOp43
 70
     1
102
RTVSPost2010Prop44ColorIndex
 90
        5
102
RTVSPost2010Prop44ColorRGB
 90
      255
102
RTVSPost2010PropOp44
 70
     1
102
RTVSPost2010Prop45
280
     0
102
RTVSPost2010PropOp45
 70
     1
102
RTVSPost2010Prop46
 90
       50
102
RTVSPost2010PropOp46
 70
     1
102
RTVSPost2010Prop47
 90
       50
102
RTVSPost2010PropOp47
 70
     1
102
RTVSPost2010Prop48
 90
       50
102
RTVSPost2010PropOp48
 70
     1
102
RTVSPost2010Prop49
280
     0
102
RTVSPost2010PropOp49
 70
     1
102
RTVSPost2010Prop50
 90
       50
102
RTVSPost2010PropOp50
 70
     1
102
RTVSPost2010Prop51ColorIndex
 90
      256
102
RTVSPost2010Prop51ColorRGB
 90
-16777216
102
RTVSPost2010PropOp51
 70
     0
102
RTVSPost2010Prop52
140
1.0
102
RTVSPost2010PropOp52
 70
     0
102
RTVSPost2010Prop53
 90
        2
102
RTVSPost2010PropOp53
 70
     1
102
RTVSPost2010Prop54
  1
strokes_ogs.tif
102
RTVSPost2010PropOp54
 70
     1
102
RTVSPost2010Prop55
280
     0
102
RTVSPost2010PropOp55
 70
     1
102
RTVSPost2010Prop56
140
1.0
102
RTVSPost2010PropOp56
 70
     1
102
RTVSPost2010Prop57
140
1.0
102
RTVSPost2010PropOp57
 70
     1
102
RTVSPropertyOp0
 70
     1
102
RTVSPropertyOp1
 70
     1
102
RTVSPropertyOp2
 70
     1
102
RTVSPropertyOp3
 70
     1
102
RTVSPropertyOp4
 70
     1
102
RTVSPropertyOp5
 70
     1
102
RTVSPropertyOp6
 70
     1
102
RTVSPropertyOp7
 70
     1
102
RTVSPropertyOp8
 70
     1
102
RTVSPropertyOp9
 70
     1
102
RTVSPropertyOp10
 70
     1
102
RTVSPropertyOp11
 70
     1
102
RTVSPropertyOp12
 70
     1
102
RTVSPropertyOp13
 70
     1
102
RTVSPropertyOp14
 70
     1
102
RTVSPropertyOp15
 70
     1
102
RTVSPropertyOp16
 70
     1
102
RTVSPropertyOp17
 70
     1
102
RTVSPropertyOp18
 70
     1
102
RTVSPropertyOp19
 70
     1
102
RTVSPropertyOp20
 70
     1
102
RTVSPropertyOp21
 70
     1
102
RTVSPropertyOp22
 70
     1
102
RTVSPropertyOp23
 70
     1
102
RTVSPropertyOp24
 70
     1
102
RTVSPropertyOp25
 70
     1
102
RTVSPropertyOp26
 70
     1
102
RTVSPropertyOp27
 70
     1
102
RTVSPropertyOp28
 70
     1
102
RTVSPropertyOp29
 70
     1
102
RTVSPropertyOp30
 70
     1
102
RTVSPropertyOp31
 70
     1
102
RTVSPropertyOp32
 70
     1
102
RTVSPropertyOp33
 70
     1
102
RTVSPropertyOp34
 70
     1
102
RTVSPropertyOp35
 70
     1
102
RTVSPropertyOp36
 70
     1
102
RTVSPropertyOp37
 70
     1
102
RTVSPropertyOp38
 70
     1
102
RTVSPropertyOp39
 70
     1
102
RTVSPropertyOp40
 70
     1
102
RTVSPropertyOp41
 70
     1
102
RTVSPropertyOp42
 70
     1
102
RTVSPropertyOp43
 70
     1
102
RTVSPropertyOp44
 70
     1
102
RTVSPropertyOp45
 70
     1
102
RTVSPropertyOp46
 70
     1
102
RTVSPropertyOp47
 70
     1
102
RTVSPropertyOp48
 70
     1
102
RTVSPropertyOp49
 70
     1
102
RTVSPropertyOp50
 70
     1
102
RTVSPropertyOp51
 70
     0
102
RTVSPropertyOp52
 70
     0
102
RTVSPropertyOp53
 70
     1
102
RTVSPropertyOp54
 70
     1
102
RTVSPropertyOp55
 70
     1
102
RTVSPropertyOp56
 70
     1
102
RTVSPropertyOp57
 70
     1
102
RTVSPropertyOp58
 70
     1
102
RTVSPropertyOp59
 70
     1
102
RTVSPropertyOp60
 70
     1
102
RTVSPropertyOp61
 70
     1
102
RTVSPropertyOp62
 70
     1
  0
XRECORD
  5
6B3D
102
{ACAD_REACTORS
330
6B3C
102
}
330
6B3C
100
AcDbXrecord
280
     1
102
RTVSPost2010Prop28
280
     0
102
RTVSPost2010PropOp28
 70
     1
102
RTVSPost2010Prop29
280
     1
102
RTVSPost2010PropOp29
 70
     1
102
RTVSPost2010Prop30
280
     1
102
RTVSPost2010PropOp30
 70
     1
102
RTVSPost2010Prop31
280
     0
102
RTVSPost2010PropOp31
 70
     1
102
RTVSPost2010Prop32
280
     0
102
RTVSPost2010PropOp32
 70
     1
102
RTVSPost2010Prop33
280
     0
102
RTVSPost2010PropOp33
 70
     1
102
RTVSPost2010Prop34
280
     0
102
RTVSPost2010PropOp34
 70
     1
102
RTVSPost2010Prop35
280
     0
102
RTVSPost2010PropOp35
 70
     1
102
RTVSPost2010Prop36
280
     0
102
RTVSPost2010PropOp36
 70
     1
102
RTVSPost2010Prop37
 90
       50
102
RTVSPost2010PropOp37
 70
     1
102
RTVSPost2010Prop38
140
0.0
102
RTVSPost2010PropOp38
 70
     1
102
RTVSPost2010Prop39
140
1.0
102
RTVSPost2010PropOp39
 70
     1
102
RTVSPost2010Prop40
 90
        0
102
RTVSPost2010PropOp40
 70
     1
102
RTVSPost2010Prop41ColorIndex
 90
       18
102
RTVSPost2010Prop41ColorRGB
 90
        0
102
RTVSPost2010PropOp41
 70
     1
102
RTVSPost2010Prop42
 90
       50
102
RTVSPost2010PropOp42
 70
     1
102
RTVSPost2010Prop43
 90
        3
102
RTVSPost2010PropOp43
 70
     1
102
RTVSPost2010Prop44ColorIndex
 90
        5
102
RTVSPost2010Prop44ColorRGB
 90
      255
102
RTVSPost2010PropOp44
 70
     1
102
RTVSPost2010Prop45
280
     0
102
RTVSPost2010PropOp45
 70
     1
102
RTVSPost2010Prop46
 90
       50
102
RTVSPost2010PropOp46
 70
     1
102
RTVSPost2010Prop47
 90
       50
102
RTVSPost2010PropOp47
 70
     1
102
RTVSPost2010Prop48
 90
       50
102
RTVSPost2010PropOp48
 70
     1
102
RTVSPost2010Prop49
280
     0
102
RTVSPost2010PropOp49
 70
     1
102
RTVSPost2010Prop50
 90
       50
102
RTVSPost2010PropOp50
 70
     1
102
RTVSPost2010Prop51ColorIndex
 90
      256
102
RTVSPost2010Prop51ColorRGB
 90
-16777216
102
RTVSPost2010PropOp51
 70
     0
102
RTVSPost2010Prop52
140
1.0
102
RTVSPost2010PropOp52
 70
     0
102
RTVSPost2010Prop53
 90
        2
102
RTVSPost2010PropOp53
 70
     1
102
RTVSPost2010Prop54
  1
strokes_ogs.tif
102
RTVSPost2010PropOp54
 70
     1
102
RTVSPost2010Prop55
280
     0
102
RTVSPost2010PropOp55
 70
     1
102
RTVSPost2010Prop56
140
1.0
102
RTVSPost2010PropOp56
 70
     1
102
RTVSPost2010Prop57
140
1.0
102
RTVSPost2010PropOp57
 70
     1
102
RTVSPropertyOp0
 70
     1
102
RTVSPropertyOp1
 70
     1
102
RTVSPropertyOp2
 70
     1
102
RTVSPropertyOp3
 70
     1
102
RTVSPropertyOp4
 70
     1
102
RTVSPropertyOp5
 70
     1
102
RTVSPropertyOp6
 70
     1
102
RTVSPropertyOp7
 70
     1
102
RTVSPropertyOp8
 70
     1
102
RTVSPropertyOp9
 70
     1
102
RTVSPropertyOp10
 70
     1
102
RTVSPropertyOp11
 70
     1
102
RTVSPropertyOp12
 70
     1
102
RTVSPropertyOp13
 70
     1
102
RTVSPropertyOp14
 70
     1
102
RTVSPropertyOp15
 70
     1
102
RTVSPropertyOp16
 70
     1
102
RTVSPropertyOp17
 70
     1
102
RTVSPropertyOp18
 70
     1
102
RTVSPropertyOp19
 70
     1
102
RTVSPropertyOp20
 70
     1
102
RTVSPropertyOp21
 70
     1
102
RTVSPropertyOp22
 70
     1
102
RTVSPropertyOp23
 70
     1
102
RTVSPropertyOp24
 70
     1
102
RTVSPropertyOp25
 70
     1
102
RTVSPropertyOp26
 70
     1
102
RTVSPropertyOp27
 70
     1
102
RTVSPropertyOp28
 70
     1
102
RTVSPropertyOp29
 70
     1
102
RTVSPropertyOp30
 70
     1
102
RTVSPropertyOp31
 70
     1
102
RTVSPropertyOp32
 70
     1
102
RTVSPropertyOp33
 70
     1
102
RTVSPropertyOp34
 70
     1
102
RTVSPropertyOp35
 70
     1
102
RTVSPropertyOp36
 70
     1
102
RTVSPropertyOp37
 70
     1
102
RTVSPropertyOp38
 70
     1
102
RTVSPropertyOp39
 70
     1
102
RTVSPropertyOp40
 70
     1
102
RTVSPropertyOp41
 70
     1
102
RTVSPropertyOp42
 70
     1
102
RTVSPropertyOp43
 70
     1
102
RTVSPropertyOp44
 70
     1
102
RTVSPropertyOp45
 70
     1
102
RTVSPropertyOp46
 70
     1
102
RTVSPropertyOp47
 70
     1
102
RTVSPropertyOp48
 70
     1
102
RTVSPropertyOp49
 70
     1
102
RTVSPropertyOp50
 70
     1
102
RTVSPropertyOp51
 70
     0
102
RTVSPropertyOp52
 70
     0
102
RTVSPropertyOp53
 70
     1
102
RTVSPropertyOp54
 70
     1
102
RTVSPropertyOp55
 70
     1
102
RTVSPropertyOp56
 70
     1
102
RTVSPropertyOp57
 70
     1
102
RTVSPropertyOp58
 70
     1
102
RTVSPropertyOp59
 70
     1
102
RTVSPropertyOp60
 70
     1
102
RTVSPropertyOp61
 70
     1
102
RTVSPropertyOp62
 70
     1
  0
ENDSEC
  0
EOF
