  0
SECTION
  2
HEADER
  9
$ACADVER
  1
AC1018
  9
$ACADMAINTVER
 70
   104
  9
$DWGCODEPAGE
  3
ANSI_932
  9
$INSBASE
 10
0.0
 20
0.0
 30
0.0
  9
$EXTMIN
 10
-0.19078987
 20
-0.35178113
 30
0.0
  9
$EXTMAX
 10
29702.13608439
 20
21001.23295642
 30
0.0
  9
$LIMMIN
 10
0.0
 20
0.0
  9
$LIMMAX
 10
420.0
 20
330.0
  9
$ORTHOMODE
 70
     1
  9
$REGENMODE
 70
     1
  9
$FILLMODE
 70
     1
  9
$QTEXTMODE
 70
     0
  9
$MIRRTEXT
 70
     0
  9
$LTSCALE
 40
1.0
  9
$ATTMODE
 70
     1
  9
$TEXTSIZE
 40
0.2
  9
$TRACEWID
 40
0.05
  9
$TEXTSTYLE
  7
STANDARD
  9
$CLAYER
  8
0
  9
$CELTYPE
  6
BYLAYER
  9
$CECOLOR
 62
   256
  9
$CELTSCALE
 40
1.0
  9
$DISPSILH
 70
     1
  9
$DIMSCALE
 40
1.0
  9
$DIMASZ
 40
0.18
  9
$DIMEXO
 40
0.0625
  9
$DIMDLI
 40
0.38
  9
$DIMRND
 40
0.0
  9
$DIMDLE
 40
0.0
  9
$DIMEXE
 40
0.18
  9
$DIMTP
 40
0.0
  9
$DIMTM
 40
0.0
  9
$DIMTXT
 40
0.18
  9
$DIMCEN
 40
0.09
  9
$DIMTSZ
 40
0.0
  9
$DIMTOL
 70
     0
  9
$DIMLIM
 70
     0
  9
$DIMTIH
 70
     1
  9
$DIMTOH
 70
     1
  9
$DIMSE1
 70
     0
  9
$DIMSE2
 70
     0
  9
$DIMTAD
 70
     0
  9
$DIMZIN
 70
     0
  9
$DIMBLK
  1

  9
$DIMASO
 70
     1
  9
$DIMSHO
 70
     0
  9
$DIMPOST
  1

  9
$DIMAPOST
  1

  9
$DIMALT
 70
     0
  9
$DIMALTD
 70
     2
  9
$DIMALTF
 40
25.4
  9
$DIMLFAC
 40
1.0
  9
$DIMTOFL
 70
     0
  9
$DIMTVP
 40
0.0
  9
$DIMTIX
 70
     0
  9
$DIMSOXD
 70
     0
  9
$DIMSAH
 70
     0
  9
$DIMBLK1
  1

  9
$DIMBLK2
  1

  9
$DIMSTYLE
  2
STANDARD
  9
$DIMCLRD
 70
     0
  9
$DIMCLRE
 70
     0
  9
$DIMCLRT
 70
     0
  9
$DIMTFAC
 40
1.0
  9
$DIMGAP
 40
0.09
  9
$DIMJUST
 70
     0
  9
$DIMSD1
 70
     0
  9
$DIMSD2
 70
     0
  9
$DIMTOLJ
 70
     1
  9
$DIMTZIN
 70
     0
  9
$DIMALTZ
 70
     0
  9
$DIMALTTZ
 70
     0
  9
$DIMUPT
 70
     0
  9
$DIMDEC
 70
     4
  9
$DIMTDEC
 70
     4
  9
$DIMALTU
 70
     2
  9
$DIMALTTD
 70
     2
  9
$DIMTXSTY
  7
STANDARD
  9
$DIMAUNIT
 70
     0
  9
$DIMADEC
 70
     0
  9
$DIMALTRND
 40
0.0
  9
$DIMAZIN
 70
     0
  9
$DIMDSEP
 70
    46
  9
$DIMATFIT
 70
     3
  9
$DIMFRAC
 70
     0
  9
$DIMLDRBLK
  1

  9
$DIMLUNIT
 70
     2
  9
$DIMLWD
 70
    -2
  9
$DIMLWE
 70
    -2
  9
$DIMTMOVE
 70
     2
  9
$LUNITS
 70
     2
  9
$LUPREC
 70
     4
  9
$SKETCHINC
 40
0.1
  9
$FILLETRAD
 40
1.0
  9
$AUNITS
 70
     0
  9
$AUPREC
 70
     0
  9
$MENU
  1
ACAD
  9
$ELEVATION
 40
0.0
  9
$PELEVATION
 40
0.0
  9
$THICKNESS
 40
0.0
  9
$LIMCHECK
 70
     0
  9
$CHAMFERA
 40
0.0
  9
$CHAMFERB
 40
0.0
  9
$CHAMFERC
 40
0.0
  9
$CHAMFERD
 40
0.0
  9
$SKPOLY
 70
     0
  9
$TDCREATE
 40
2453046.712062894
  9
$TDUCREATE
 40
2453046.337062894
  9
$TDUPDATE
 40
2457185.494878599
  9
$TDUUPDATE
 40
2457185.119878599
  9
$TDINDWG
 40
0.0984784375
  9
$TDUSRTIMER
 40
0.0984784375
  9
$USRTIMER
 70
     1
  9
$ANGBASE
 50
0.0
  9
$ANGDIR
 70
     0
  9
$PDMODE
 70
     0
  9
$PDSIZE
 40
0.0
  9
$PLINEWID
 40
0.0
  9
$SPLFRAME
 70
     0
  9
$SPLINETYPE
 70
     6
  9
$SPLINESEGS
 70
     8
  9
$HANDSEED
  5
52F
  9
$SURFTAB1
 70
     6
  9
$SURFTAB2
 70
     6
  9
$SURFTYPE
 70
     6
  9
$SURFU
 70
     6
  9
$SURFV
 70
     6
  9
$UCSBASE
  2

  9
$UCSNAME
  2

  9
$UCSORG
 10
0.0
 20
0.0
 30
0.0
  9
$UCSXDIR
 10
1.0
 20
0.0
 30
0.0
  9
$UCSYDIR
 10
0.0
 20
1.0
 30
0.0
  9
$UCSORTHOREF
  2

  9
$UCSORTHOVIEW
 70
     0
  9
$UCSORGTOP
 10
0.0
 20
0.0
 30
0.0
  9
$UCSORGBOTTOM
 10
0.0
 20
0.0
 30
0.0
  9
$UCSORGLEFT
 10
0.0
 20
0.0
 30
0.0
  9
$UCSORGRIGHT
 10
0.0
 20
0.0
 30
0.0
  9
$UCSORGFRONT
 10
0.0
 20
0.0
 30
0.0
  9
$UCSORGBACK
 10
0.0
 20
0.0
 30
0.0
  9
$PUCSBASE
  2

  9
$PUCSNAME
  2

  9
$PUCSORG
 10
0.0
 20
0.0
 30
0.0
  9
$PUCSXDIR
 10
1.0
 20
0.0
 30
0.0
  9
$PUCSYDIR
 10
0.0
 20
1.0
 30
0.0
  9
$PUCSORTHOREF
  2

  9
$PUCSORTHOVIEW
 70
     0
  9
$PUCSORGTOP
 10
0.0
 20
0.0
 30
0.0
  9
$PUCSORGBOTTOM
 10
0.0
 20
0.0
 30
0.0
  9
$PUCSORGLEFT
 10
0.0
 20
0.0
 30
0.0
  9
$PUCSORGRIGHT
 10
0.0
 20
0.0
 30
0.0
  9
$PUCSORGFRONT
 10
0.0
 20
0.0
 30
0.0
  9
$PUCSORGBACK
 10
0.0
 20
0.0
 30
0.0
  9
$USERI1
 70
     0
  9
$USERI2
 70
     0
  9
$USERI3
 70
     0
  9
$USERI4
 70
     0
  9
$USERI5
 70
     0
  9
$USERR1
 40
0.0
  9
$USERR2
 40
0.0
  9
$USERR3
 40
0.0
  9
$USERR4
 40
0.0
  9
$USERR5
 40
0.0
  9
$WORLDVIEW
 70
     1
  9
$SHADEDGE
 70
     3
  9
$SHADEDIF
 70
    70
  9
$TILEMODE
 70
     1
  9
$MAXACTVP
 70
    16
  9
$PINSBASE
 10
0.0
 20
0.0
 30
0.0
  9
$PLIMCHECK
 70
     0
  9
$PEXTMIN
 10
1.00000000E+20
 20
1.00000000E+20
 30
1.00000000E+20
  9
$PEXTMAX
 10
-1.00000000E+20
 20
-1.00000000E+20
 30
-1.00000000E+20
  9
$PLIMMIN
 10
0.0
 20
0.0
  9
$PLIMMAX
 10
12.0
 20
9.0
  9
$UNITMODE
 70
     0
  9
$VISRETAIN
 70
     0
  9
$PLINEGEN
 70
     0
  9
$PSLTSCALE
 70
     0
  9
$TREEDEPTH
 70
  3020
  9
$CMLSTYLE
  2
STANDARD
  9
$CMLJUST
 70
     0
  9
$CMLSCALE
 40
1.0
  9
$PROXYGRAPHICS
 70
     1
  9
$MEASUREMENT
 70
     1
  9
$CELWEIGHT
370
    -1
  9
$ENDCAPS
280
     0
  9
$JOINSTYLE
280
     0
  9
$LWDISPLAY
290
     0
  9
$INSUNITS
 70
     0
  9
$HYPERLINKBASE
  1

  9
$STYLESHEET
  1

  9
$XEDIT
290
     1
  9
$CEPSNTYPE
380
     0
  9
$PSTYLEMODE
290
     1
  9
$FINGERPRINTGUID
  2
{1D906F7F-8638-4302-B2C9-605920725707}
  9
$VERSIONGUID
  2
{9664FC68-EF84-4B54-8D30-E8767779A922}
  9
$EXTNAMES
290
     1
  9
$PSVPSCALE
 40
0.0
  9
$OLESTARTUP
290
     0
  9
$SORTENTS
280
   127
  9
$INDEXCTL
280
     0
  9
$HIDETEXT
280
     0
  9
$XCLIPFRAME
290
     0
  9
$HALOGAP
280
     0
  9
$OBSCOLOR
 70
   257
  9
$OBSLTYPE
280
     0
  9
$INTERSECTIONDISPLAY
280
     0
  9
$INTERSECTIONCOLOR
 70
   257
  9
$DIMASSOC
280
     1
  9
$PROJECTNAME
  1

  0
ENDSEC
  0
SECTION
  2
CLASSES
  0
CLASS
  1
DICTIONARYVAR
  2
AcDbDictionaryVar
  3
ObjectDBX Classes
 90
        0
 91
        7
280
     0
281
     0
  0
CLASS
  1
ACDBDICTIONARYWDFLT
  2
AcDbDictionaryWithDefault
  3
ObjectDBX Classes
 90
        0
 91
        1
280
     0
281
     0
  0
CLASS
  1
MATERIAL
  2
AcDbMaterial
  3
ObjectDBX Classes
 90
     1153
 91
        3
280
     0
281
     0
  0
CLASS
  1
VISUALSTYLE
  2
AcDbVisualStyle
  3
ObjectDBX Classes
 90
     4095
 91
       24
280
     0
281
     0
  0
CLASS
  1
TABLESTYLE
  2
AcDbTableStyle
  3
ObjectDBX Classes
 90
     4095
 91
        1
280
     0
281
     0
  0
CLASS
  1
SCALE
  2
AcDbScale
  3
ObjectDBX Classes
 90
     1153
 91
       17
280
     0
281
     0
  0
CLASS
  1
MLEADERSTYLE
  2
AcDbMLeaderStyle
  3
ACDB_MLEADERSTYLE_CLASS
 90
     4095
 91
        1
280
     0
281
     0
  0
CLASS
  1
ACDBSECTIONVIEWSTYLE
  2
AcDbSectionViewStyle
  3
ObjectDBX Classes
 90
     1025
 91
        1
280
     0
281
     0
  0
CLASS
  1
ACDBDETAILVIEWSTYLE
  2
AcDbDetailViewStyle
  3
ObjectDBX Classes
 90
     1025
 91
        1
280
     0
281
     0
  0
CLASS
  1
CELLSTYLEMAP
  2
AcDbCellStyleMap
  3
ObjectDBX Classes
 90
     1152
 91
        2
280
     0
281
     0
  0
ENDSEC
  0
SECTION
  2
TABLES
  0
TABLE
  2
VPORT
  5
12
330
0
100
AcDbSymbolTable
 70
     1
  0
VPORT
  5
44B
330
12
100
AcDbSymbolTableRecord
100
AcDbViewportTableRecord
  2
*ACTIVE
 70
     0
 10
0.0
 20
0.0
 11
1.0
 21
1.0
 12
14850.97264726
 22
10500.44058765
 13
0.0
 23
0.0
 14
1.0
 24
1.0
 15
10.0
 25
10.0
 16
0.0
 26
0.0
 36
1.0
 17
0.0
 27
0.0
 37
0.0
 40
22268.34219311
 41
1.34178905
 42
50.0
 43
0.0
 44
0.0
 50
0.0
 51
0.0
 71
     0
 72
   100
 73
     1
 74
     0
 75
     0
 76
     0
 77
     0
 78
     0
281
     0
 65
     1
110
0.0
120
0.0
130
0.0
111
1.0
121
0.0
131
0.0
112
0.0
122
1.0
132
0.0
 79
     0
146
0.0
1001
ACAD_NAV_VCDISPLAY
1070
     1
  0
ENDTAB
  0
TABLE
  2
LTYPE
  5
D
330
0
100
AcDbSymbolTable
 70
     4
  0
LTYPE
  5
E
330
D
100
AcDbSymbolTableRecord
100
AcDbLinetypeTableRecord
  2
BYBLOCK
 70
     0
  3

 72
    65
 73
     0
 40
0.0
  0
LTYPE
  5
F
330
D
100
AcDbSymbolTableRecord
100
AcDbLinetypeTableRecord
  2
BYLAYER
 70
     0
  3

 72
    65
 73
     0
 40
0.0
  0
LTYPE
  5
5
330
D
100
AcDbSymbolTableRecord
100
AcDbLinetypeTableRecord
  2
CONTINUOUS
 70
     0
  3
Solid line
 72
    65
 73
     0
 40
0.0
  0
LTYPE
  5
195
330
D
100
AcDbSymbolTableRecord
100
AcDbLinetypeTableRecord
  2
ITTENSAP
 70
     0
  3

 72
    65
 73
     4
 40
5.5
 49
3.0
 74
     0
 49
-1.0
 74
     0
 49
0.5
 74
     0
 49
-1.0
 74
     0
  0
LTYPE
  5
DE
330
D
100
AcDbSymbolTableRecord
100
AcDbLinetypeTableRecord
  2
NITENSAP
 70
     0
  3

 72
    65
 73
     6
 40
7.5
 49
3.0
 74
     0
 49
-1.0
 74
     0
 49
0.5
 74
     0
 49
-1.5
 74
     0
 49
0.5
 74
     0
 49
-1.0
 74
     0
  0
LTYPE
  5
F0
330
D
100
AcDbSymbolTableRecord
100
AcDbLinetypeTableRecord
  2
YCENTER_1
 70
     0
  3
中心線尺度1--- － --- － ---
 72
    65
 73
     4
 40
13.0
 49
10.0
 74
     0
 49
-1.0
 74
     0
 49
1.0
 74
     0
 49
-1.0
 74
     0
  0
ENDTAB
  0
TABLE
  2
LAYER
  5
A
330
0
100
AcDbSymbolTable
 70
     7
  0
LAYER
  5
4
330
A
100
AcDbSymbolTableRecord
100
AcDbLayerTableRecord
  2
0
 70
     0
 62
     7
  6
CONTINUOUS
370
    -3
390
44E
  0
LAYER
  5
1E
330
A
100
AcDbSymbolTableRecord
100
AcDbLayerTableRecord
  2
YKK_F1
 70
     0
 62
     7
  6
CONTINUOUS
370
    -3
390
44E
  0
LAYER
  5
66
330
A
100
AcDbSymbolTableRecord
100
AcDbLayerTableRecord
  2
YKK_F2
 70
     0
 62
     7
  6
CONTINUOUS
370
    -3
390
44E
  0
LAYER
  5
68
330
A
100
AcDbSymbolTableRecord
100
AcDbLayerTableRecord
  2
YKK_IN
 70
     0
 62
     1
  6
CONTINUOUS
370
    -3
390
44E
  0
LAYER
  5
6A
330
A
100
AcDbSymbolTableRecord
100
AcDbLayerTableRecord
  2
YKK_N1
 70
     0
 62
     2
  6
CONTINUOUS
370
    -3
390
44E
  0
LAYER
  5
6C
330
A
100
AcDbSymbolTableRecord
100
AcDbLayerTableRecord
  2
YKK_A1
 70
     0
 62
     4
  6
CONTINUOUS
370
    -3
390
44E
  0
LAYER
  5
6E
330
A
100
AcDbSymbolTableRecord
100
AcDbLayerTableRecord
  2
YKK_A2
 70
     0
 62
     3
  6
CONTINUOUS
370
    -3
390
44E
  0
ENDTAB
  0
TABLE
  2
STYLE
  5
B
330
0
100
AcDbSymbolTable
 70
     2
  0
STYLE
  5
C
330
B
100
AcDbSymbolTableRecord
100
AcDbTextStyleTableRecord
  2
STANDARD
 70
     0
 40
0.0
 41
1.0
 50
0.0
 71
     0
 42
0.2
  3
txt.shx
  4
bigfont.shx
  0
STYLE
  5
53
330
B
100
AcDbSymbolTableRecord
100
AcDbTextStyleTableRecord
  2
EXTFONT
 70
     0
 40
0.0
 41
1.0
 50
0.0
 71
     0
 42
3.5
  3
txt.shx
  4
EXTFONT.SHX
  0
ENDTAB
  0
TABLE
  2
VIEW
  5
10
330
0
100
AcDbSymbolTable
 70
     0
  0
ENDTAB
  0
TABLE
  2
UCS
  5
11
330
0
100
AcDbSymbolTable
 70
     0
  0
ENDTAB
  0
TABLE
  2
APPID
  5
14
330
0
100
AcDbSymbolTable
 70
     5
  0
APPID
  5
15
330
14
100
AcDbSymbolTableRecord
100
AcDbRegAppTableRecord
  2
ACAD
 70
     0
  0
APPID
  5
4DA
330
14
100
AcDbSymbolTableRecord
100
AcDbRegAppTableRecord
  2
ACAD_MLEADERVER
 70
     0
  0
APPID
  5
4EF
330
14
100
AcDbSymbolTableRecord
100
AcDbRegAppTableRecord
  2
ACAD_PSEXT
 70
     0
  0
APPID
  5
4F0
330
14
100
AcDbSymbolTableRecord
100
AcDbRegAppTableRecord
  2
ACAD_NAV_VCDISPLAY
 70
     0
  0
APPID
  5
4F1
330
14
100
AcDbSymbolTableRecord
100
AcDbRegAppTableRecord
  2
YKK_AP_LOCKLAYER
 70
     0
  0
ENDTAB
  0
TABLE
  2
DIMSTYLE
  5
16
330
0
100
AcDbSymbolTable
 70
     1
100
AcDbDimStyleTable
 71
     0
  0
DIMSTYLE
105
1C
330
16
100
AcDbSymbolTableRecord
100
AcDbDimStyleTableRecord
  2
STANDARD
 70
     0
279
     2
340
C
  0
ENDTAB
  0
TABLE
  2
BLOCK_RECORD
  5
1
330
0
100
AcDbSymbolTable
 70
     0
  0
BLOCK_RECORD
  5
2
330
1
100
AcDbSymbolTableRecord
100
AcDbBlockTableRecord
  2
*MODEL_SPACE
340
4A1
  0
BLOCK_RECORD
  5
7
330
1
100
AcDbSymbolTableRecord
100
AcDbBlockTableRecord
  2
*PAPER_SPACE
340
4A2
  0
ENDTAB
  0
ENDSEC
  0
SECTION
  2
BLOCKS
  0
BLOCK
  5
3
330
2
100
AcDbEntity
  8
0
100
AcDbBlockBegin
  2
*MODEL_SPACE
 70
     0
 10
0.0
 20
0.0
 30
0.0
  3
*MODEL_SPACE
  1

  0
ENDBLK
  5
6
330
2
100
AcDbEntity
  8
0
100
AcDbBlockEnd
  0
BLOCK
  5
8
330
7
100
AcDbEntity
 67
     1
  8
0
100
AcDbBlockBegin
  2
*PAPER_SPACE
 70
     0
 10
0.0
 20
0.0
 30
0.0
  3
*PAPER_SPACE
  1

  0
ENDBLK
  5
9
330
7
100
AcDbEntity
 67
     1
  8
0
100
AcDbBlockEnd
  0
ENDSEC
  0
SECTION
  2
ENTITIES
  0
LINE
  5
1D
330
2
100
AcDbEntity
  8
YKK_F1
  6
Continuous
100
AcDbLine
 10
900.039
 20
8457.9363
 30
0.0
 11
28800.039
 21
8457.9363
 31
0.0
  0
LINE
  5
1F
330
2
100
AcDbEntity
  8
YKK_F1
  6
Continuous
100
AcDbLine
 10
900.039
 20
8707.9363
 30
0.0
 11
28800.039
 21
8707.9363
 31
0.0
  0
LINE
  5
20
330
2
100
AcDbEntity
  8
YKK_F1
  6
Continuous
100
AcDbLine
 10
900.039
 20
8957.9363
 30
0.0
 11
28800.039
 21
8957.9363
 31
0.0
  0
LINE
  5
21
330
2
100
AcDbEntity
  8
YKK_F1
  6
Continuous
100
AcDbLine
 10
900.039
 20
9207.9363
 30
0.0
 11
28800.039
 21
9207.9363
 31
0.0
  0
LINE
  5
22
330
2
100
AcDbEntity
  8
YKK_F1
  6
Continuous
100
AcDbLine
 10
900.039
 20
9457.9363
 30
0.0
 11
28800.039
 21
9457.9363
 31
0.0
  0
LINE
  5
23
330
2
100
AcDbEntity
  8
YKK_F1
  6
Continuous
100
AcDbLine
 10
900.039
 20
9707.9363
 30
0.0
 11
28800.039
 21
9707.9363
 31
0.0
  0
LINE
  5
24
330
2
100
AcDbEntity
  8
YKK_F1
  6
Continuous
100
AcDbLine
 10
900.039
 20
9957.9363
 30
0.0
 11
28800.039
 21
9957.9363
 31
0.0
  0
LINE
  5
25
330
2
100
AcDbEntity
  8
YKK_F1
  6
Continuous
100
AcDbLine
 10
900.039
 20
10207.9363
 30
0.0
 11
28800.039
 21
10207.9363
 31
0.0
  0
LINE
  5
26
330
2
100
AcDbEntity
  8
YKK_F1
  6
Continuous
100
AcDbLine
 10
900.039
 20
10457.9363
 30
0.0
 11
28800.039
 21
10457.9363
 31
0.0
  0
LINE
  5
27
330
2
100
AcDbEntity
  8
YKK_F1
  6
Continuous
100
AcDbLine
 10
900.039
 20
4502.9363
 30
0.0
 11
28800.039
 21
4502.9363
 31
0.0
  0
LINE
  5
28
330
2
100
AcDbEntity
  8
YKK_F1
  6
Continuous
100
AcDbLine
 10
900.039
 20
4252.9363
 30
0.0
 11
28800.039
 21
4252.9363
 31
0.0
  0
LINE
  5
29
330
2
100
AcDbEntity
  8
YKK_F1
  6
Continuous
100
AcDbLine
 10
900.039
 20
4002.9363
 30
0.0
 11
28800.039
 21
4002.9363
 31
0.0
  0
LINE
  5
2A
330
2
100
AcDbEntity
  8
YKK_F1
  6
Continuous
100
AcDbLine
 10
900.039
 20
3752.9363
 30
0.0
 11
28800.039
 21
3752.9363
 31
0.0
  0
LINE
  5
2B
330
2
100
AcDbEntity
  8
YKK_F1
  6
Continuous
100
AcDbLine
 10
900.039
 20
3502.9363
 30
0.0
 11
28800.039
 21
3502.9363
 31
0.0
  0
LINE
  5
2C
330
2
100
AcDbEntity
  8
YKK_F1
  6
Continuous
100
AcDbLine
 10
900.039
 20
3252.9363
 30
0.0
 11
28800.039
 21
3252.9363
 31
0.0
  0
LINE
  5
2D
330
2
100
AcDbEntity
  8
YKK_F1
  6
Continuous
100
AcDbLine
 10
900.039
 20
3002.9363
 30
0.0
 11
28800.039
 21
3002.9363
 31
0.0
  0
LINE
  5
2E
330
2
100
AcDbEntity
  8
YKK_F1
  6
Continuous
100
AcDbLine
 10
900.039
 20
2752.9363
 30
0.0
 11
28800.039
 21
2752.9363
 31
0.0
  0
LINE
  5
2F
330
2
100
AcDbEntity
  8
YKK_F1
  6
Continuous
100
AcDbLine
 10
900.039
 20
2502.9363
 30
0.0
 11
28800.039
 21
2502.9363
 31
0.0
  0
LINE
  5
30
330
2
100
AcDbEntity
  8
YKK_F1
  6
Continuous
100
AcDbLine
 10
900.039
 20
7457.9363
 30
0.0
 11
28800.039
 21
7457.9363
 31
0.0
  0
LINE
  5
31
330
2
100
AcDbEntity
  8
YKK_F1
  6
Continuous
100
AcDbLine
 10
900.039
 20
7707.9363
 30
0.0
 11
28800.039
 21
7707.9363
 31
0.0
  0
LINE
  5
32
330
2
100
AcDbEntity
  8
YKK_F1
  6
Continuous
100
AcDbLine
 10
900.039
 20
8207.9363
 30
0.0
 11
28800.039
 21
8207.9363
 31
0.0
  0
LINE
  5
33
330
2
100
AcDbEntity
  8
YKK_F1
  6
Continuous
100
AcDbLine
 10
900.039
 20
2252.9363
 30
0.0
 11
28800.039
 21
2252.9363
 31
0.0
  0
LINE
  5
34
330
2
100
AcDbEntity
  8
YKK_F1
  6
Continuous
100
AcDbLine
 10
659.77445
 20
1949.4363
 30
0.0
 11
29040.229
 21
1949.4363
 31
0.0
  0
LINE
  5
35
330
2
100
AcDbEntity
  8
YKK_F1
  6
Continuous
100
AcDbLine
 10
29027.821
 20
662.59406
 30
0.0
 11
672.18069
 21
662.59406
 31
0.0
  0
LINE
  5
36
330
2
100
AcDbEntity
  8
YKK_F1
  6
Continuous
100
AcDbLine
 10
29015.417
 20
675.00009
 30
0.0
 11
685.15046
 21
675.00009
 31
0.0
  0
LINE
  5
37
330
2
100
AcDbEntity
  8
YKK_F1
  6
Continuous
100
AcDbLine
 10
29002.445
 20
687.97002
 30
0.0
 11
697.5567
 21
687.97002
 31
0.0
  0
LINE
  5
38
330
2
100
AcDbEntity
  8
YKK_F1
  6
Continuous
100
AcDbLine
 10
28990.039
 20
700.94001
 30
0.0
 11
709.96201
 21
700.94001
 31
0.0
  0
LINE
  5
39
330
2
100
AcDbEntity
  8
YKK_F1
  6
Continuous
100
AcDbLine
 10
29040.229
 20
650.18799
 30
0.0
 11
659.77445
 21
650.18799
 31
0.0
  0
LINE
  5
3A
330
2
100
AcDbEntity
  8
YKK_F1
  6
Continuous
100
AcDbLine
 10
29190.79
 20
500.75202
 30
0.0
 11
509.77446
 21
500.75202
 31
0.0
  0
LINE
  5
3B
330
2
100
AcDbEntity
  8
YKK_F1
  6
Continuous
100
AcDbLine
 10
900.039
 20
14162.9363
 30
0.0
 11
28800.039
 21
14162.9363
 31
0.0
  0
LINE
  5
3C
330
2
100
AcDbEntity
  8
YKK_F1
  6
Continuous
100
AcDbLine
 10
900.039
 20
16412.9363
 30
0.0
 11
28800.039
 21
16412.9363
 31
0.0
  0
LINE
  5
3D
330
2
100
AcDbEntity
  8
YKK_F1
  6
Continuous
100
AcDbLine
 10
900.039
 20
16162.9363
 30
0.0
 11
28800.039
 21
16162.9363
 31
0.0
  0
LINE
  5
3E
330
2
100
AcDbEntity
  8
YKK_F1
  6
Continuous
100
AcDbLine
 10
900.039
 20
15912.9363
 30
0.0
 11
28800.039
 21
15912.9363
 31
0.0
  0
LINE
  5
3F
330
2
100
AcDbEntity
  8
YKK_F1
  6
Continuous
100
AcDbLine
 10
900.039
 20
15662.9363
 30
0.0
 11
28800.039
 21
15662.9363
 31
0.0
  0
LINE
  5
40
330
2
100
AcDbEntity
  8
YKK_F1
  6
Continuous
100
AcDbLine
 10
900.039
 20
15412.9363
 30
0.0
 11
28800.039
 21
15412.9363
 31
0.0
  0
LINE
  5
41
330
2
100
AcDbEntity
  8
YKK_F1
  6
Continuous
100
AcDbLine
 10
900.039
 20
15162.9363
 30
0.0
 11
28800.039
 21
15162.9363
 31
0.0
  0
LINE
  5
42
330
2
100
AcDbEntity
  8
YKK_F1
  6
Continuous
100
AcDbLine
 10
900.039
 20
14912.9363
 30
0.0
 11
28800.039
 21
14912.9363
 31
0.0
  0
LINE
  5
43
330
2
100
AcDbEntity
  8
YKK_F1
  6
Continuous
100
AcDbLine
 10
900.039
 20
14662.9363
 30
0.0
 11
28800.039
 21
14662.9363
 31
0.0
  0
LINE
  5
44
330
2
100
AcDbEntity
  8
YKK_F1
  6
Continuous
100
AcDbLine
 10
900.039
 20
14412.9363
 30
0.0
 11
28800.039
 21
14412.9363
 31
0.0
  0
LINE
  5
45
330
2
100
AcDbEntity
  8
YKK_F1
  6
Continuous
100
AcDbLine
 10
900.039
 20
19367.9363
 30
0.0
 11
28800.039
 21
19367.9363
 31
0.0
  0
LINE
  5
46
330
2
100
AcDbEntity
  8
YKK_F1
  6
Continuous
100
AcDbLine
 10
900.039
 20
19617.9363
 30
0.0
 11
28800.039
 21
19617.9363
 31
0.0
  0
LINE
  5
47
330
2
100
AcDbEntity
  8
YKK_F1
  6
Continuous
100
AcDbLine
 10
900.039
 20
13662.9363
 30
0.0
 11
28800.039
 21
13662.9363
 31
0.0
  0
LINE
  5
48
330
2
100
AcDbEntity
  8
YKK_F1
  6
Continuous
100
AcDbLine
 10
900.039
 20
13412.9363
 30
0.0
 11
28800.039
 21
13412.9363
 31
0.0
  0
LINE
  5
49
330
2
100
AcDbEntity
  8
YKK_F1
  6
Continuous
100
AcDbLine
 10
900.039
 20
20117.9363
 30
0.0
 11
28800.039
 21
20117.9363
 31
0.0
  0
LINE
  5
4A
330
2
100
AcDbEntity
  8
YKK_F1
  6
Continuous
100
AcDbLine
 10
709.96201
 20
20287.219
 30
0.0
 11
28990.039
 21
20287.219
 31
0.0
  0
LINE
  5
4B
330
2
100
AcDbEntity
  8
YKK_F1
  6
Continuous
100
AcDbLine
 10
509.77446
 20
20487.406
 30
0.0
 11
29190.79
 21
20487.406
 31
0.0
  0
LINE
  5
4C
330
2
100
AcDbEntity
  8
YKK_F1
  6
Continuous
100
AcDbLine
 10
697.5567
 20
20299.624
 30
0.0
 11
29002.445
 21
20299.624
 31
0.0
  0
LINE
  5
4D
330
2
100
AcDbEntity
  8
YKK_F1
  6
Continuous
100
AcDbLine
 10
685.15046
 20
20312.594
 30
0.0
 11
29015.417
 21
20312.594
 31
0.0
  0
LINE
  5
4E
330
2
100
AcDbEntity
  8
YKK_F1
  6
Continuous
100
AcDbLine
 10
672.18069
 20
20325.566
 30
0.0
 11
29027.821
 21
20325.566
 31
0.0
  0
LINE
  5
4F
330
2
100
AcDbEntity
  8
YKK_F1
  6
Continuous
100
AcDbLine
 10
659.77445
 20
20337.97
 30
0.0
 11
29040.229
 21
20337.97
 31
0.0
  0
LINE
  5
50
330
2
100
AcDbEntity
  8
YKK_F1
100
AcDbLine
 10
0.0
 20
21000.0
 30
0.0
 11
29700.0
 21
21000.0
 31
0.0
  0
LINE
  5
51
330
2
100
AcDbEntity
  8
YKK_F1
100
AcDbLine
 10
0.0
 20
0.0
 30
0.0
 11
29700.0
 21
0.0
 31
0.0
  0
TEXT
  5
52
330
2
100
AcDbEntity
  8
0
100
AcDbText
 10
5650.039
 20
10482.9363
 30
0.0
 40
180.0
  1
2PT NAA/UMR(UML)
  7
EXTFONT
100
AcDbText
  0
LINE
  5
54
330
2
100
AcDbEntity
  8
YKK_F1
  6
Continuous
100
AcDbLine
 10
900.039
 20
2252.9363
 30
0.0
 11
900.039
 21
20117.9363
 31
0.0
  0
LINE
  5
55
330
2
100
AcDbEntity
  8
YKK_F1
  6
Continuous
100
AcDbLine
 10
709.96201
 20
700.94001
 30
0.0
 11
709.96201
 21
20287.219
 31
0.0
  0
LINE
  5
56
330
2
100
AcDbEntity
  8
YKK_F1
  6
Continuous
100
AcDbLine
 10
697.5567
 20
687.97002
 30
0.0
 11
697.5567
 21
20299.624
 31
0.0
  0
LINE
  5
57
330
2
100
AcDbEntity
  8
YKK_F1
  6
Continuous
100
AcDbLine
 10
685.15046
 20
675.00009
 30
0.0
 11
685.15046
 21
20312.594
 31
0.0
  0
LINE
  5
58
330
2
100
AcDbEntity
  8
YKK_F1
  6
Continuous
100
AcDbLine
 10
672.18069
 20
662.59406
 30
0.0
 11
672.18069
 21
20325.566
 31
0.0
  0
LINE
  5
59
330
2
100
AcDbEntity
  8
YKK_F1
  6
Continuous
100
AcDbLine
 10
659.77445
 20
650.18799
 30
0.0
 11
659.77445
 21
20337.97
 31
0.0
  0
LINE
  5
5A
330
2
100
AcDbEntity
  8
YKK_F1
  6
Continuous
100
AcDbLine
 10
509.77446
 20
500.75202
 30
0.0
 11
509.77446
 21
20487.406
 31
0.0
  0
LINE
  5
5B
330
2
100
AcDbEntity
  8
YKK_F1
  6
Continuous
100
AcDbLine
 10
5550.039
 20
2252.9363
 30
0.0
 11
5550.039
 21
20117.9363
 31
0.0
  0
LINE
  5
5C
330
2
100
AcDbEntity
  8
YKK_F1
  6
Continuous
100
AcDbLine
 10
10200.039
 20
2252.9363
 30
0.0
 11
10200.039
 21
20117.9363
 31
0.0
  0
LINE
  5
5D
330
2
100
AcDbEntity
  8
YKK_F1
100
AcDbLine
 10
0.0
 20
0.0
 30
0.0
 11
0.0
 21
21000.0
 31
0.0
  0
LINE
  5
5E
330
2
100
AcDbEntity
  8
YKK_F1
  6
Continuous
100
AcDbLine
 10
10604.323
 20
950.75203
 30
0.0
 11
659.77445
 21
950.75203
 31
0.0
  0
LINE
  5
5F
330
2
100
AcDbEntity
  8
YKK_F1
  6
Continuous
100
AcDbLine
 10
10604.323
 20
1200.5641
 30
0.0
 11
659.77445
 21
1200.5641
 31
0.0
  0
LINE
  5
60
330
2
100
AcDbEntity
  8
YKK_F1
  6
Continuous
100
AcDbLine
 10
10604.323
 20
1450.376
 30
0.0
 11
659.77445
 21
1450.376
 31
0.0
  0
LINE
  5
61
330
2
100
AcDbEntity
  8
YKK_F1
  6
Continuous
100
AcDbLine
 10
10604.323
 20
1701.3159
 30
0.0
 11
659.77445
 21
1701.3159
 31
0.0
  0
TEXT
  5
62
330
2
100
AcDbEntity
  8
YKK_F1
100
AcDbText
 10
2183.67067185
 20
3772.9363
 30
0.0
 40
200.0
  1
材　質　・　仕　様
  7
EXTFONT
 72
     1
 11
3237.00400518
 21
3772.9363
 31
0.0
100
AcDbText
  0
TEXT
  5
63
330
2
100
AcDbEntity
  8
YKK_F1
100
AcDbText
 10
759.96201
 20
1776.3159
 30
0.0
 40
100.0
  1
付記：
  7
EXTFONT
100
AcDbText
  0
POINT
  5
64
330
2
100
AcDbEntity
  8
YKK_F1
100
AcDbPoint
 10
0.0
 20
0.0
 30
0.0
  0
POINT
  5
65
330
2
100
AcDbEntity
  8
YKK_F2
100
AcDbPoint
 10
0.0
 20
0.0
 30
0.0
  0
POINT
  5
67
330
2
100
AcDbEntity
  8
YKK_IN
100
AcDbPoint
 10
0.0
 20
0.0
 30
0.0
  0
POINT
  5
69
330
2
100
AcDbEntity
  8
YKK_N1
100
AcDbPoint
 10
0.0
 20
0.0
 30
0.0
  0
POINT
  5
6B
330
2
100
AcDbEntity
  8
YKK_A1
100
AcDbPoint
 10
0.0
 20
0.0
 30
0.0
  0
POINT
  5
6D
330
2
100
AcDbEntity
  8
YKK_A2
100
AcDbPoint
 10
0.0
 20
0.0
 30
0.0
  0
TEXT
  5
6F
330
2
100
AcDbEntity
  8
YKK_F1
100
AcDbText
 10
1937.00400518
 20
2772.9363
 30
0.0
 40
200.0
  1
(付　　属　　金　　物)
  7
EXTFONT
 72
     1
 11
3237.00400518
 21
2772.9363
 31
0.0
100
AcDbText
  0
TEXT
  5
70
330
2
100
AcDbEntity
  8
YKK_F1
100
AcDbText
 10
2063.67067185
 20
3022.9363
 30
0.0
 40
200.0
  1
建　　具　　金　　物
  7
EXTFONT
 72
     1
 11
3237.00400518
 21
3022.9363
 31
0.0
100
AcDbText
  0
TEXT
  5
71
330
2
100
AcDbEntity
  8
YKK_F1
100
AcDbText
 10
1817.00400518
 20
3272.9363
 30
0.0
 40
200.0
  1
ガラス・種類・ガラス押え
  7
EXTFONT
 72
     1
 11
3237.00400518
 21
3272.9363
 31
0.0
100
AcDbText
  0
TEXT
  5
72
330
2
100
AcDbEntity
  8
YKK_F1
100
AcDbText
 10
2183.67067185
 20
2272.9363
 30
0.0
 40
200.0
  1
備　　　　　　　考
  7
EXTFONT
 72
     1
 11
3237.00400518
 21
2272.9363
 31
0.0
100
AcDbText
  0
TEXT
  5
73
330
2
100
AcDbEntity
  8
YKK_F1
100
AcDbText
 10
2183.67067185
 20
3522.9363
 30
0.0
 40
200.0
  1
仕　　　　　　　上
  7
EXTFONT
 72
     1
 11
3237.00400518
 21
3522.9363
 31
0.0
100
AcDbText
  0
TEXT
  5
74
330
2
100
AcDbEntity
  8
YKK_F1
100
AcDbText
 10
1259.96201
 20
949.6242
 30
0.0
 40
250.0
  1
*
  7
EXTFONT
100
AcDbText
  0
TEXT
  5
75
330
2
100
AcDbEntity
  8
YKK_F1
100
AcDbText
 10
1259.96201
 20
699.6242
 30
0.0
 40
250.0
  1
*
  7
EXTFONT
100
AcDbText
  0
TEXT
  5
76
330
2
100
AcDbEntity
  8
YKK_F1
100
AcDbText
 10
1259.96201
 20
1200.376
 30
0.0
 40
250.0
  1
*
  7
EXTFONT
100
AcDbText
  0
TEXT
  5
77
330
2
100
AcDbEntity
  8
YKK_F1
100
AcDbText
 10
1259.96201
 20
1701.3159
 30
0.0
 40
250.0
  1
*
  7
EXTFONT
100
AcDbText
  0
TEXT
  5
78
330
2
100
AcDbEntity
  8
YKK_F1
100
AcDbText
 10
1259.96201
 20
1450.376
 30
0.0
 40
250.0
  1
*
  7
EXTFONT
100
AcDbText
  0
TEXT
  5
79
330
2
100
AcDbEntity
  8
YKK_F1
100
AcDbText
 10
2190.33733852
 20
5900.4363
 30
0.0
 40
200.0
  1
姿　　　　　　　図
  7
EXTFONT
 72
     1
 11
3237.00400518
 21
5900.4363
 31
0.0
100
AcDbText
  0
TEXT
  5
7A
330
2
100
AcDbEntity
  8
YKK_F1
100
AcDbText
 10
1703.67067185
 20
4272.9363
 30
0.0
 40
200.0
  1
型式・防音・エアタイト仕様
  7
EXTFONT
 72
     1
 11
3237.00400518
 21
4272.9363
 31
0.0
100
AcDbText
  0
TEXT
  5
7B
330
2
100
AcDbEntity
  8
YKK_F1
100
AcDbText
 10
1283.67067185
 20
4022.9363
 30
0.0
 40
200.0
  1
寸法・見付・見込（枠見付・枠見込）
  7
EXTFONT
 72
     1
 11
3237.00400518
 21
4022.9363
 31
0.0
100
AcDbText
  0
TEXT
  5
7C
330
2
100
AcDbEntity
  8
YKK_F1
100
AcDbText
 10
2183.67067185
 20
7832.9363
 30
0.0
 40
200.0
  1
符　号　・　数　量
  7
EXTFONT
 72
     1
 11
3237.00400518
 21
7832.9363
 31
0.0
100
AcDbText
  0
TEXT
  5
7D
330
2
100
AcDbEntity
  8
YKK_F1
100
AcDbText
 10
2183.67067185
 20
7477.9363
 30
0.0
 40
200.0
  1
使用箇所・防火仕様
  7
EXTFONT
 72
     1
 11
3237.00400518
 21
7477.9363
 31
0.0
100
AcDbText
  0
TEXT
  5
7E
330
2
100
AcDbEntity
  8
YKK_F1
100
AcDbText
 10
1703.67067185
 20
10227.9363
 30
0.0
 40
200.0
  1
型式・防音・エアタイト仕様
  7
EXTFONT
 72
     1
 11
3237.00400518
 21
10227.9363
 31
0.0
100
AcDbText
  0
TEXT
  5
7F
330
2
100
AcDbEntity
  8
YKK_F1
100
AcDbText
 10
1937.00400518
 20
8727.9363
 30
0.0
 40
200.0
  1
(付　　属　　金　　物)
  7
EXTFONT
 72
     1
 11
3237.00400518
 21
8727.9363
 31
0.0
100
AcDbText
  0
TEXT
  5
80
330
2
100
AcDbEntity
  8
YKK_F1
100
AcDbText
 10
2063.67067185
 20
8977.9363
 30
0.0
 40
200.0
  1
建　　具　　金　　物
  7
EXTFONT
 72
     1
 11
3237.00400518
 21
8977.9363
 31
0.0
100
AcDbText
  0
TEXT
  5
81
330
2
100
AcDbEntity
  8
YKK_F1
100
AcDbText
 10
1817.00400518
 20
9227.9363
 30
0.0
 40
200.0
  1
ガラス・種類・ガラス押え
  7
EXTFONT
 72
     1
 11
3237.00400518
 21
9227.9363
 31
0.0
100
AcDbText
  0
TEXT
  5
82
330
2
100
AcDbEntity
  8
YKK_F1
100
AcDbText
 10
2183.67067185
 20
9727.9363
 30
0.0
 40
200.0
  1
材　質　・　仕　様
  7
EXTFONT
 72
     1
 11
3237.00400518
 21
9727.9363
 31
0.0
100
AcDbText
  0
TEXT
  5
83
330
2
100
AcDbEntity
  8
YKK_F1
100
AcDbText
 10
2183.67067185
 20
8227.9363
 30
0.0
 40
200.0
  1
備　　　　　　　考
  7
EXTFONT
 72
     1
 11
3237.00400518
 21
8227.9363
 31
0.0
100
AcDbText
  0
TEXT
  5
84
330
2
100
AcDbEntity
  8
YKK_F1
100
AcDbText
 10
2183.67067185
 20
9477.9363
 30
0.0
 40
200.0
  1
仕　　　　　　　上
  7
EXTFONT
 72
     1
 11
3237.00400518
 21
9477.9363
 31
0.0
100
AcDbText
  0
TEXT
  5
85
330
2
100
AcDbEntity
  8
YKK_F1
100
AcDbText
 10
1283.67067185
 20
9977.9363
 30
0.0
 40
200.0
  1
寸法・見付・見込（枠見付・枠見込）
  7
EXTFONT
 72
     1
 11
3237.00400518
 21
9977.9363
 31
0.0
100
AcDbText
  0
TEXT
  5
86
330
2
100
AcDbEntity
  8
0
100
AcDbText
 10
10300.039
 20
3777.9363
 30
0.0
 40
200.0
  1
＊
  7
EXTFONT
100
AcDbText
  0
TEXT
  5
87
330
2
100
AcDbEntity
  8
0
100
AcDbText
 10
5650.039
 20
3777.9363
 30
0.0
 40
200.0
  1
＊
  7
EXTFONT
100
AcDbText
  0
TEXT
  5
88
330
2
100
AcDbEntity
  8
0
100
AcDbText
 10
5650.039
 20
3027.9363
 30
0.0
 40
200.0
  1
＊
  7
EXTFONT
100
AcDbText
  0
TEXT
  5
89
330
2
100
AcDbEntity
  8
0
100
AcDbText
 10
5650.039
 20
2527.9363
 30
0.0
 40
200.0
  1
＊
  7
EXTFONT
100
AcDbText
  0
TEXT
  5
8A
330
2
100
AcDbEntity
  8
0
100
AcDbText
 10
5650.039
 20
2277.9363
 30
0.0
 40
200.0
  1
＊
  7
EXTFONT
100
AcDbText
  0
TEXT
  5
8B
330
2
100
AcDbEntity
  8
0
100
AcDbText
 10
5650.039
 20
2777.9363
 30
0.0
 40
200.0
  1
＊
  7
EXTFONT
100
AcDbText
  0
TEXT
  5
8C
330
2
100
AcDbEntity
  8
0
100
AcDbText
 10
5650.039
 20
3277.9363
 30
0.0
 40
200.0
  1
＊
  7
EXTFONT
100
AcDbText
  0
TEXT
  5
8D
330
2
100
AcDbEntity
  8
0
100
AcDbText
 10
5650.039
 20
3277.9363
 30
0.0
 40
200.0
  1
＊
  7
EXTFONT
100
AcDbText
  0
TEXT
  5
8E
330
2
100
AcDbEntity
  8
0
100
AcDbText
 10
5650.039
 20
3527.9363
 30
0.0
 40
200.0
  1
＊
  7
EXTFONT
100
AcDbText
  0
LINE
  5
8F
330
2
100
AcDbEntity
  8
YKK_F1
  6
Continuous
100
AcDbLine
 10
12103.196
 20
1949.4363
 30
0.0
 11
12103.196
 21
650.18799
 31
0.0
  0
LINE
  5
90
330
2
100
AcDbEntity
  8
YKK_F1
  6
Continuous
100
AcDbLine
 10
10604.323
 20
1949.4363
 30
0.0
 11
10604.323
 21
650.18799
 31
0.0
  0
LINE
  5
91
330
2
100
AcDbEntity
  8
YKK_F1
  6
Continuous
100
AcDbLine
 10
12103.196
 20
1117.6692
 30
0.0
 11
10604.323
 21
1117.6692
 31
0.0
  0
LINE
  5
92
330
2
100
AcDbEntity
  8
YKK_F1
  6
Continuous
100
AcDbLine
 10
12103.196
 20
1534.3986
 30
0.0
 11
10604.323
 21
1534.3986
 31
0.0
  0
TEXT
  5
93
330
2
100
AcDbEntity
  8
YKK_F1
  6
Continuous
100
AcDbText
 10
10820.301
 20
750.0
 30
0.0
 40
150.0
  1
**,**,**
100
AcDbText
  0
TEXT
  5
94
330
2
100
AcDbEntity
  8
YKK_F1
  6
Continuous
100
AcDbText
 10
10820.301
 20
1166.7294
 30
0.0
 40
150.0
  1
**,**,**
100
AcDbText
  0
TEXT
  5
95
330
2
100
AcDbEntity
  8
YKK_F1
  6
Continuous
100
AcDbText
 10
10820.301
 20
1583.4588
 30
0.0
 40
150.0
  1
**,**,**
100
AcDbText
  0
TEXT
  5
96
330
2
100
AcDbEntity
  8
YKK_F1
100
AcDbText
 10
10654.323
 20
1401.2782
 30
0.0
 40
100.0
  1
設計　　年　　月　　日
  7
EXTFONT
100
AcDbText
  0
TEXT
  5
97
330
2
100
AcDbEntity
  8
YKK_F1
100
AcDbText
 10
10654.323
 20
984.5488
 30
0.0
 40
100.0
  1
測量　　年　　月　　日
  7
EXTFONT
100
AcDbText
  0
TEXT
  5
98
330
2
100
AcDbEntity
  8
YKK_F1
100
AcDbText
 10
10654.323
 20
1816.3159
 30
0.0
 40
100.0
  1
審査　　年　　月　　日
  7
EXTFONT
100
AcDbText
  0
TEXT
  5
99
330
2
100
AcDbEntity
  8
0
100
AcDbText
 10
10300.039
 20
3027.9363
 30
0.0
 40
200.0
  1
＊
  7
EXTFONT
100
AcDbText
  0
TEXT
  5
9A
330
2
100
AcDbEntity
  8
0
100
AcDbText
 10
10300.039
 20
2527.9363
 30
0.0
 40
200.0
  1
＊
  7
EXTFONT
100
AcDbText
  0
TEXT
  5
9B
330
2
100
AcDbEntity
  8
0
100
AcDbText
 10
10300.039
 20
2277.9363
 30
0.0
 40
200.0
  1
＊
  7
EXTFONT
100
AcDbText
  0
TEXT
  5
9C
330
2
100
AcDbEntity
  8
0
100
AcDbText
 10
10300.039
 20
2777.9363
 30
0.0
 40
200.0
  1
＊
  7
EXTFONT
100
AcDbText
  0
TEXT
  5
9D
330
2
100
AcDbEntity
  8
0
100
AcDbText
 10
10300.039
 20
3277.9363
 30
0.0
 40
200.0
  1
＊
  7
EXTFONT
100
AcDbText
  0
TEXT
  5
9E
330
2
100
AcDbEntity
  8
0
100
AcDbText
 10
10300.039
 20
3527.9363
 30
0.0
 40
200.0
  1
＊
  7
EXTFONT
100
AcDbText
  0
TEXT
  5
9F
330
2
100
AcDbEntity
  8
0
100
AcDbText
 10
5650.039
 20
4277.9363
 30
0.0
 40
200.0
  1
＊
  7
EXTFONT
100
AcDbText
  0
TEXT
  5
A0
330
2
100
AcDbEntity
  8
0
100
AcDbText
 10
5650.039
 20
4027.9363
 30
0.0
 40
200.0
  1
＊
  7
EXTFONT
100
AcDbText
  0
TEXT
  5
A1
330
2
100
AcDbEntity
  8
0
100
AcDbText
 10
5650.039
 20
9982.9363
 30
0.0
 40
190.0
  1
W=550 H=2000 扉厚25(枠見込33)
  7
EXTFONT
100
AcDbText
  0
TEXT
  5
A2
330
2
100
AcDbEntity
  8
0
100
AcDbText
 10
5650.039
 20
10232.9363
 30
0.0
 40
180.0
  1
上段M/B付点検口片開き
  7
EXTFONT
100
AcDbText
  0
TEXT
  5
A3
330
2
100
AcDbEntity
  8
0
100
AcDbText
 10
5650.039
 20
9482.9363
 30
0.0
 40
190.0
  1
防錆塗装・カチオン電着塗装・吹付け塗装
  7
EXTFONT
100
AcDbText
  0
TEXT
  5
A4
330
2
100
AcDbEntity
  8
0
100
AcDbText
 10
5650.039
 20
9732.9363
 30
0.0
 40
180.0
  1
溶融亜鉛メッキ鋼板・枠(扉)板厚1.2ミリ
  7
EXTFONT
100
AcDbText
  0
TEXT
  5
A5
330
2
100
AcDbEntity
  8
0
100
AcDbText
 10
5650.039
 20
8232.9363
 30
0.0
 40
200.0
  1
ＹＫＫＡＰ　点検口　同等品
  7
EXTFONT
100
AcDbText
  0
TEXT
  5
A6
330
2
100
AcDbEntity
  8
0
100
AcDbText
 10
5650.039
 20
8482.9363
 30
0.0
 40
200.0
  1
煽り止めチェーン・本締錠
  7
EXTFONT
100
AcDbText
  0
TEXT
  5
A7
330
2
100
AcDbEntity
  8
0
100
AcDbText
 10
5650.039
 20
8732.9363
 30
0.0
 40
140.0
  1
ケースハンドル･ピボットヒンジﾞ・自閉式スプリング丁番・
  7
EXTFONT
100
AcDbText
  0
TEXT
  5
A8
330
2
100
AcDbEntity
  8
0
100
AcDbText
 10
5650.039
 20
8982.9363
 30
0.0
 40
200.0
  1
平面ハンドル・旗丁番・戸当りゴム
  7
EXTFONT
100
AcDbText
  0
CIRCLE
  5
A9
330
2
100
AcDbEntity
  8
YKK_F1
100
AcDbCircle
 10
5950.039
 20
7957.9363
 30
0.0
 40
233.3333333333333
  0
TEXT
  5
AA
330
2
100
AcDbEntity
  8
0
100
AcDbText
 10
5850.039
 20
7957.9363
 30
0.0
 40
200.0
  1
＊
  7
EXTFONT
100
AcDbText
  0
LINE
  5
AB
330
2
100
AcDbEntity
  8
YKK_F1
  6
Continuous
100
AcDbLine
 10
5716.70566667
 20
7957.9363
 30
0.0
 11
6183.37233333
 21
7957.9363
 31
0.0
  0
TEXT
  5
AC
330
2
100
AcDbEntity
  8
0
100
AcDbText
 10
5650.039
 20
7482.9363
 30
0.0
 40
200.0
  1
＊
  7
EXTFONT
100
AcDbText
  0
TEXT
  5
AD
330
2
100
AcDbEntity
  8
YKK_F1
100
AcDbText
 10
5790.039
 20
7757.9363
 30
0.0
 40
160.0
  1
ＳＤ
  7
EXTFONT
100
AcDbText
  0
TEXT
  5
AE
330
2
100
AcDbEntity
  8
0
100
AcDbText
 10
5650.039
 20
9232.9363
 30
0.0
 40
200.0
  1
＊
  7
EXTFONT
100
AcDbText
  0
TEXT
  5
AF
330
2
100
AcDbEntity
  8
0
100
AcDbText
 10
8950.039
 20
7482.9363
 30
0.0
 40
200.0
  1
＊
  7
EXTFONT
100
AcDbText
  0
TEXT
  5
B0
330
2
100
AcDbEntity
  8
0
100
AcDbText
 10
9250.039
 20
7732.9363
 30
0.0
 40
200.0
  1
＊
  7
EXTFONT
100
AcDbText
  0
TEXT
  5
B1
330
2
100
AcDbEntity
  8
YKK_F1
100
AcDbText
 10
9670.039
 20
7732.9363
 30
0.0
 40
200.0
  1
箇所
  7
EXTFONT
100
AcDbText
  0
TEXT
  5
B2
330
2
100
AcDbEntity
  8
0
100
AcDbText
 10
10300.039
 20
4277.9363
 30
0.0
 40
200.0
  1
＊
  7
EXTFONT
100
AcDbText
  0
TEXT
  5
B3
330
2
100
AcDbEntity
  8
0
100
AcDbText
 10
10300.039
 20
4027.9363
 30
0.0
 40
200.0
  1
＊
  7
EXTFONT
100
AcDbText
  0
TEXT
  5
B4
330
2
100
AcDbEntity
  8
0
100
AcDbText
 10
10300.039
 20
8732.9363
 30
0.0
 40
200.0
  1
＊
  7
EXTFONT
100
AcDbText
  0
CIRCLE
  5
B5
330
2
100
AcDbEntity
  8
YKK_F1
100
AcDbCircle
 10
10600.039
 20
7957.9363
 30
0.0
 40
233.3333333333333
  0
TEXT
  5
B6
330
2
100
AcDbEntity
  8
0
100
AcDbText
 10
10500.039
 20
7957.9363
 30
0.0
 40
200.0
  1
＊
  7
EXTFONT
100
AcDbText
  0
LINE
  5
B7
330
2
100
AcDbEntity
  8
YKK_F1
  6
Continuous
100
AcDbLine
 10
10366.70566667
 20
7957.9363
 30
0.0
 11
10833.37233333
 21
7957.9363
 31
0.0
  0
TEXT
  5
B8
330
2
100
AcDbEntity
  8
0
100
AcDbText
 10
10300.039
 20
7482.9363
 30
0.0
 40
200.0
  1
＊
  7
EXTFONT
100
AcDbText
  0
TEXT
  5
B9
330
2
100
AcDbEntity
  8
YKK_F1
100
AcDbText
 10
10440.039
 20
7757.9363
 30
0.0
 40
160.0
  1
ＳＤ
  7
EXTFONT
100
AcDbText
  0
TEXT
  5
BA
330
2
100
AcDbEntity
  8
0
100
AcDbText
 10
10300.039
 20
8232.9363
 30
0.0
 40
200.0
  1
＊
  7
EXTFONT
100
AcDbText
  0
TEXT
  5
BB
330
2
100
AcDbEntity
  8
0
100
AcDbText
 10
10300.039
 20
8482.9363
 30
0.0
 40
200.0
  1
＊
  7
EXTFONT
100
AcDbText
  0
TEXT
  5
BC
330
2
100
AcDbEntity
  8
0
100
AcDbText
 10
10300.039
 20
8982.9363
 30
0.0
 40
200.0
  1
＊
  7
EXTFONT
100
AcDbText
  0
TEXT
  5
BD
330
2
100
AcDbEntity
  8
0
100
AcDbText
 10
10300.039
 20
9482.9363
 30
0.0
 40
200.0
  1
＊
  7
EXTFONT
100
AcDbText
  0
TEXT
  5
BE
330
2
100
AcDbEntity
  8
0
100
AcDbText
 10
10300.039
 20
9232.9363
 30
0.0
 40
200.0
  1
＊
  7
EXTFONT
100
AcDbText
  0
TEXT
  5
BF
330
2
100
AcDbEntity
  8
0
100
AcDbText
 10
10300.039
 20
9982.9363
 30
0.0
 40
200.0
  1
＊
  7
EXTFONT
100
AcDbText
  0
TEXT
  5
C0
330
2
100
AcDbEntity
  8
0
100
AcDbText
 10
10300.039
 20
9732.9363
 30
0.0
 40
200.0
  1
＊
  7
EXTFONT
100
AcDbText
  0
TEXT
  5
C1
330
2
100
AcDbEntity
  8
0
100
AcDbText
 10
10300.039
 20
10232.9363
 30
0.0
 40
200.0
  1
＊
  7
EXTFONT
100
AcDbText
  0
TEXT
  5
C2
330
2
100
AcDbEntity
  8
0
100
AcDbText
 10
13600.039
 20
7482.9363
 30
0.0
 40
200.0
  1
＊
  7
EXTFONT
100
AcDbText
  0
TEXT
  5
C3
330
2
100
AcDbEntity
  8
0
100
AcDbText
 10
13900.039
 20
7732.9363
 30
0.0
 40
200.0
  1
＊
  7
EXTFONT
100
AcDbText
  0
TEXT
  5
C4
330
2
100
AcDbEntity
  8
YKK_F1
100
AcDbText
 10
14320.039
 20
7732.9363
 30
0.0
 40
200.0
  1
箇所
  7
EXTFONT
100
AcDbText
  0
TEXT
  5
C5
330
2
100
AcDbEntity
  8
0
100
AcDbText
 10
1009.77446
 20
20612.406
 30
0.0
 40
250.0
  1
ＢＳＤＧＡＳ６２　ステンレスパイプシャフトドア　点検口　枠見込３３（沖縄向け）
  7
EXTFONT
100
AcDbText
  0
TEXT
  5
C6
330
2
100
AcDbEntity
  8
YKK_F1
100
AcDbText
 10
2190.33733852
 20
11855.4363
 30
0.0
 40
200.0
  1
姿　　　　　　　図
  7
EXTFONT
 72
     1
 11
3237.00400518
 21
11855.4363
 31
0.0
100
AcDbText
  0
TEXT
  5
C7
330
2
100
AcDbEntity
  8
YKK_F1
100
AcDbText
 10
2183.67067185
 20
13432.9363
 30
0.0
 40
200.0
  1
使用箇所・防火仕様
  7
EXTFONT
 72
     1
 11
3237.00400518
 21
13432.9363
 31
0.0
100
AcDbText
  0
TEXT
  5
C8
330
2
100
AcDbEntity
  8
YKK_F1
100
AcDbText
 10
2183.67067185
 20
13787.9363
 30
0.0
 40
200.0
  1
符　号　・　数　量
  7
EXTFONT
 72
     1
 11
3237.00400518
 21
13787.9363
 31
0.0
100
AcDbText
  0
TEXT
  5
C9
330
2
100
AcDbEntity
  8
YKK_F1
100
AcDbText
 10
1703.67067185
 20
16182.9363
 30
0.0
 40
200.0
  1
型式・防音・エアタイト仕様
  7
EXTFONT
 72
     1
 11
3237.00400518
 21
16182.9363
 31
0.0
100
AcDbText
  0
TEXT
  5
CA
330
2
100
AcDbEntity
  8
YKK_F1
100
AcDbText
 10
1283.67067185
 20
15932.9363
 30
0.0
 40
200.0
  1
寸法・見付・見込（枠見付・枠見込）
  7
EXTFONT
 72
     1
 11
3237.00400518
 21
15932.9363
 31
0.0
100
AcDbText
  0
TEXT
  5
CB
330
2
100
AcDbEntity
  8
YKK_F1
100
AcDbText
 10
1937.00400518
 20
14682.9363
 30
0.0
 40
200.0
  1
(付　　属　　金　　物)
  7
EXTFONT
 72
     1
 11
3237.00400518
 21
14682.9363
 31
0.0
100
AcDbText
  0
TEXT
  5
CC
330
2
100
AcDbEntity
  8
YKK_F1
100
AcDbText
 10
2063.67067185
 20
14932.9363
 30
0.0
 40
200.0
  1
建　　具　　金　　物
  7
EXTFONT
 72
     1
 11
3237.00400518
 21
14932.9363
 31
0.0
100
AcDbText
  0
TEXT
  5
CD
330
2
100
AcDbEntity
  8
YKK_F1
100
AcDbText
 10
1817.00400518
 20
15182.9363
 30
0.0
 40
200.0
  1
ガラス・種類・ガラス押え
  7
EXTFONT
 72
     1
 11
3237.00400518
 21
15182.9363
 31
0.0
100
AcDbText
  0
TEXT
  5
CE
330
2
100
AcDbEntity
  8
YKK_F1
100
AcDbText
 10
2183.67067185
 20
15682.9363
 30
0.0
 40
200.0
  1
材　質　・　仕　様
  7
EXTFONT
 72
     1
 11
3237.00400518
 21
15682.9363
 31
0.0
100
AcDbText
  0
TEXT
  5
CF
330
2
100
AcDbEntity
  8
YKK_F1
100
AcDbText
 10
2183.67067185
 20
14182.9363
 30
0.0
 40
200.0
  1
備　　　　　　　考
  7
EXTFONT
 72
     1
 11
3237.00400518
 21
14182.9363
 31
0.0
100
AcDbText
  0
TEXT
  5
D0
330
2
100
AcDbEntity
  8
YKK_F1
100
AcDbText
 10
2183.67067185
 20
15432.9363
 30
0.0
 40
200.0
  1
仕　　　　　　　上
  7
EXTFONT
 72
     1
 11
3237.00400518
 21
15432.9363
 31
0.0
100
AcDbText
  0
TEXT
  5
D1
330
2
100
AcDbEntity
  8
YKK_F1
100
AcDbText
 10
2190.33733852
 20
17810.4363
 30
0.0
 40
200.0
  1
姿　　　　　　　図
  7
EXTFONT
 72
     1
 11
3237.00400518
 21
17810.4363
 31
0.0
100
AcDbText
  0
TEXT
  5
D2
330
2
100
AcDbEntity
  8
YKK_F1
100
AcDbText
 10
2183.67067185
 20
19742.9363
 30
0.0
 40
200.0
  1
符　号　・　数　量
  7
EXTFONT
 72
     1
 11
3237.00400518
 21
19742.9363
 31
0.0
100
AcDbText
  0
TEXT
  5
D3
330
2
100
AcDbEntity
  8
YKK_F1
100
AcDbText
 10
2183.67067185
 20
19387.9363
 30
0.0
 40
200.0
  1
使用箇所・防火仕様
  7
EXTFONT
 72
     1
 11
3237.00400518
 21
19387.9363
 31
0.0
100
AcDbText
  0
LINE
  5
D4
330
2
100
AcDbEntity
  8
YKK_N1
  6
Continuous
100
AcDbLine
 10
12812.53157594
 20
17145.53869701
 30
0.0
 11
12762.53156713
 21
17058.93614269
 31
0.0
  0
LINE
  5
D5
330
2
100
AcDbEntity
  8
YKK_N1
  6
Continuous
100
AcDbLine
 10
12762.53156713
 20
17058.93614269
 30
0.0
 11
12712.53156713
 21
17145.53869701
 31
0.0
  0
LINE
  5
D6
330
2
100
AcDbEntity
  8
YKK_A1
100
AcDbLine
 10
12533.53109614
 20
17151.90543835
 30
0.0
 11
12533.53109614
 21
17053.90384673
 31
0.0
  0
LINE
  5
D7
330
2
100
AcDbEntity
  8
YKK_A1
100
AcDbLine
 10
12537.5311611
 20
17151.90543835
 30
0.0
 11
12537.5311611
 21
17023.90335951
 31
0.0
  0
LINE
  5
D8
330
2
100
AcDbEntity
  8
YKK_N1
  6
Continuous
100
AcDbLine
 10
12762.53156713
 20
18958.93626476
 30
0.0
 11
12762.53156713
 21
17058.93614269
 31
0.0
  0
LINE
  5
D9
330
2
100
AcDbEntity
  8
YKK_A1
100
AcDbLine
 10
12562.53156713
 20
17023.90335951
 30
0.0
 11
12562.53156713
 21
18993.93535413
 31
0.0
  0
LINE
  5
DA
330
2
100
AcDbEntity
  8
YKK_A1
100
AcDbLine
 10
11892.5206857
 20
17023.90335951
 30
0.0
 11
11892.5206857
 21
18993.93535413
 31
0.0
  0
LINE
  5
DB
330
2
100
AcDbEntity
  8
YKK_A1
100
AcDbLine
 10
11921.52115669
 20
17053.90384673
 30
0.0
 11
11921.52115669
 21
18965.93489939
 31
0.0
  0
LINE
  5
DC
330
2
100
AcDbEntity
  8
YKK_A1
100
AcDbLine
 10
11917.52109173
 20
18993.93535413
 30
0.0
 11
11917.52109173
 21
17023.90335951
 31
0.0
  0
LINE
  5
DD
330
2
100
AcDbEntity
  8
YKK_A1
  6
NITENSAP
100
AcDbLine
 10
12533.53109614
 20
18009.91937306
 30
0.0
 11
11921.52115669
 21
17053.90384673
 31
0.0
  0
LINE
  5
DF
330
2
100
AcDbEntity
  8
YKK_N1
  6
Continuous
100
AcDbLine
 10
8162.53154923
 20
17145.53869701
 30
0.0
 11
8112.53154042
 21
17058.93614269
 31
0.0
  0
LINE
  5
E0
330
2
100
AcDbEntity
  8
YKK_A1
100
AcDbLine
 10
7883.53106944
 20
17151.91355881
 30
0.0
 11
7883.53106944
 21
17053.9119672
 31
0.0
  0
LINE
  5
E1
330
2
100
AcDbEntity
  8
YKK_A1
100
AcDbLine
 10
7887.5311344
 20
17151.91355881
 30
0.0
 11
7887.5311344
 21
17023.91147997
 31
0.0
  0
LINE
  5
E2
330
2
100
AcDbEntity
  8
YKK_N1
  6
Continuous
100
AcDbLine
 10
8112.53154042
 20
17058.93614269
 30
0.0
 11
8062.53154042
 21
17145.53869701
 31
0.0
  0
LINE
  5
E3
330
2
100
AcDbEntity
  8
YKK_A1
  6
NITENSAP
100
AcDbLine
 10
7883.53106944
 20
17759.92343329
 30
0.0
 11
7271.52112999
 21
17053.9119672
 31
0.0
  0
LINE
  5
E4
330
2
100
AcDbEntity
  8
YKK_N1
  6
Continuous
100
AcDbLine
 10
8112.53154042
 20
18458.93626476
 30
0.0
 11
8112.53154042
 21
17058.93614269
 31
0.0
  0
LINE
  5
E5
330
2
100
AcDbEntity
  8
YKK_A1
100
AcDbLine
 10
7912.53154042
 20
17023.91147997
 30
0.0
 11
7912.53154042
 21
18493.93535413
 31
0.0
  0
LINE
  5
E6
330
2
100
AcDbEntity
  8
YKK_A1
100
AcDbLine
 10
7271.52112999
 20
17053.9119672
 30
0.0
 11
7271.52112999
 21
18465.93489939
 31
0.0
  0
LINE
  5
E7
330
2
100
AcDbEntity
  8
YKK_A1
100
AcDbLine
 10
7242.520659
 20
17023.91147997
 30
0.0
 11
7242.520659
 21
18493.93535413
 31
0.0
  0
LINE
  5
E8
330
2
100
AcDbEntity
  8
YKK_A1
100
AcDbLine
 10
7267.52106502
 20
18493.93535413
 30
0.0
 11
7267.52106502
 21
17023.91147997
 31
0.0
  0
CIRCLE
  5
E9
330
2
100
AcDbEntity
  8
YKK_F1
100
AcDbCircle
 10
5950.039
 20
13912.9363
 30
0.0
 40
233.3333333333333
  0
TEXT
  5
EA
330
2
100
AcDbEntity
  8
YKK_F1
100
AcDbText
 10
5790.039
 20
13712.9363
 30
0.0
 40
160.0
  1
ＳＤ
  7
EXTFONT
100
AcDbText
  0
TEXT
  5
EB
330
2
100
AcDbEntity
  8
YKK_F1
100
AcDbText
 10
9670.039
 20
13687.9363
 30
0.0
 40
200.0
  1
箇所
  7
EXTFONT
100
AcDbText
  0
TEXT
  5
EC
330
2
100
AcDbEntity
  8
0
100
AcDbText
 10
9250.039
 20
13687.9363
 30
0.0
 40
200.0
  1
＊
  7
EXTFONT
100
AcDbText
  0
LINE
  5
ED
330
2
100
AcDbEntity
  8
YKK_A1
  6
Continuous
 48
1.5
100
AcDbLine
 10
7858.51970235
 20
11098.93614409
 30
0.0
 11
7858.51970235
 21
12585.93605546
 31
0.0
  0
LINE
  5
EE
330
2
100
AcDbEntity
  8
YKK_A1
  6
Continuous
 48
1.5
100
AcDbLine
 10
7296.51973585
 20
12585.93605546
 30
0.0
 11
7296.51973585
 21
11098.93614409
 31
0.0
  0
LINE
  5
EF
330
2
100
AcDbEntity
  8
YKK_A1
  6
YCENTER_1
 48
1.5
100
AcDbLine
 10
7296.51985468
 20
12585.9361705
 30
0.0
 11
7858.51982118
 21
11842.43621481
 31
0.0
  0
LINE
  5
F1
330
2
100
AcDbEntity
  8
YKK_A1
  6
Continuous
 48
1.5
100
AcDbLine
 10
7887.51970062
 20
11068.93614588
 30
0.0
 11
7887.51970062
 21
13138.9360225
 31
0.0
  0
LINE
  5
F2
330
2
100
AcDbEntity
  8
YKK_A1
  6
Continuous
 48
1.5
100
AcDbLine
 10
7267.51973758
 20
13138.9360225
 30
0.0
 11
7267.51973758
 21
11068.93614588
 31
0.0
  0
LINE
  5
F3
330
2
100
AcDbEntity
  8
YKK_A1
  6
Continuous
 48
1.5
100
AcDbLine
 10
7292.51973609
 20
13138.9360225
 30
0.0
 11
7292.51973609
 21
11068.93614588
 31
0.0
  0
LINE
  5
F4
330
2
100
AcDbEntity
  8
YKK_A1
  6
Continuous
 48
1.5
100
AcDbLine
 10
7862.51970211
 20
11068.93614588
 30
0.0
 11
7862.51970211
 21
13113.93602399
 31
0.0
  0
LINE
  5
F5
330
2
100
AcDbEntity
  8
YKK_A1
  6
YCENTER_1
 48
1.5
100
AcDbLine
 10
7296.51985468
 20
11098.93625913
 30
0.0
 11
7858.51982118
 21
11842.43621481
 31
0.0
  0
LINE
  5
F6
330
2
100
AcDbEntity
  8
YKK_N1
  6
Continuous
100
AcDbLine
 10
7389.12233703
 20
10818.93616759
 30
0.0
 11
7302.51978271
 21
10868.9361764
 31
0.0
  0
LINE
  5
F7
330
2
100
AcDbEntity
  8
YKK_N1
  6
Continuous
100
AcDbLine
 10
7302.51978271
 20
10868.9361764
 30
0.0
 11
7389.12233703
 21
10918.9361764
 31
0.0
  0
LINE
  5
F8
330
2
100
AcDbEntity
  8
YKK_A1
  6
Continuous
 48
1.5
100
AcDbLine
 10
7292.51973609
 20
11093.93614439
 30
0.0
 11
7862.51970211
 21
11093.93614439
 31
0.0
  0
LINE
  5
F9
330
2
100
AcDbEntity
  8
YKK_A1
  6
Continuous
 48
1.5
100
AcDbLine
 10
7296.51973585
 20
11098.93614409
 30
0.0
 11
7858.51970235
 21
11098.93614409
 31
0.0
  0
LINE
  5
FA
330
2
100
AcDbEntity
  8
YKK_A1
  6
Continuous
 48
1.5
100
AcDbLine
 10
7267.51973758
 20
11068.93614588
 30
0.0
 11
7887.51970062
 21
11068.93614588
 31
0.0
  0
LINE
  5
FB
330
2
100
AcDbEntity
  8
YKK_N1
  6
Continuous
100
AcDbLine
 10
7302.51978271
 20
10868.9361764
 30
0.0
 11
7852.51978271
 21
10868.9361764
 31
0.0
  0
LINE
  5
FC
330
2
100
AcDbEntity
  8
YKK_N1
  6
Continuous
100
AcDbLine
 10
7302.51978271
 20
10993.93614588
 30
0.0
 11
7302.51978271
 21
10868.9361764
 31
0.0
  0
LINE
  5
FD
330
2
100
AcDbEntity
  8
YKK_N1
  6
Continuous
100
AcDbLine
 10
7852.51973693
 20
10868.9361764
 30
0.0
 11
7765.91718261
 21
10918.9361764
 31
0.0
  0
LINE
  5
FE
330
2
100
AcDbEntity
  8
YKK_N1
100
AcDbLine
 10
7765.91718261
 20
10918.9361764
 30
0.0
 11
7765.91718261
 21
10818.93616759
 31
0.0
  0
LINE
  5
FF
330
2
100
AcDbEntity
  8
YKK_N1
  6
Continuous
100
AcDbLine
 10
7852.51978271
 20
10993.93614588
 30
0.0
 11
7852.51978271
 21
10868.9361764
 31
0.0
  0
LINE
  5
100
330
2
100
AcDbEntity
  8
YKK_N1
100
AcDbLine
 10
7389.12233703
 20
10918.9361764
 30
0.0
 11
7389.12233703
 21
10818.93616759
 31
0.0
  0
TEXT
  5
101
330
2
100
AcDbEntity
  8
YKK_N1
  6
Continuous
100
AcDbText
 10
7432.51982085
 20
10880.9361764
 30
0.0
 40
60.0
  1
W=550
 72
     4
 11
7577.51982085
 21
10910.9361764
 31
0.0
100
AcDbText
  0
LINE
  5
102
330
2
100
AcDbEntity
  8
YKK_N1
  6
Continuous
100
AcDbLine
 10
7765.91718261
 20
10818.93616759
 30
0.0
 11
7852.51973693
 21
10868.9361764
 31
0.0
  0
LINE
  5
103
330
2
100
AcDbEntity
  8
YKK_A2
  6
Continuous
 48
1.5
100
AcDbLine
 10
7340.5198418
 20
11854.93614172
 30
0.0
 11
7362.51984049
 21
11854.93614172
 31
0.0
  0
LINE
  5
104
330
2
100
AcDbEntity
  8
YKK_A2
  6
Continuous
 48
1.5
100
AcDbLine
 10
7363.01984046
 20
11856.43614163
 30
0.0
 11
7340.01984183
 21
11856.43614163
 31
0.0
  0
LINE
  5
105
330
2
100
AcDbEntity
  8
YKK_A2
  6
Continuous
 48
1.5
100
AcDbLine
 10
7340.5198418
 20
11742.93614839
 30
0.0
 11
7362.51984049
 21
11742.93614839
 31
0.0
  0
LINE
  5
106
330
2
100
AcDbEntity
  8
YKK_A2
  6
Continuous
 48
1.5
100
AcDbLine
 10
7340.01984183
 20
11741.43614848
 30
0.0
 11
7363.01984046
 21
11741.43614848
 31
0.0
  0
ARC
  5
107
330
2
100
AcDbEntity
  8
YKK_A2
  6
Continuous
 48
1.5
100
AcDbCircle
 10
7348.01984136
 20
11765.43614705
 30
0.0
 40
5.499999672174453
100
AcDbArc
 50
90.0
 51
270.0
  0
LINE
  5
108
330
2
100
AcDbEntity
  8
YKK_A2
  6
Continuous
 48
1.5
100
AcDbLine
 10
7339.51984186
 20
11743.93614833
 30
0.0
 11
7339.51984186
 21
11853.93614178
 31
0.0
  0
LINE
  5
109
330
2
100
AcDbEntity
  8
YKK_A2
  6
Continuous
 48
1.5
100
AcDbLine
 10
7338.01984195
 20
11854.43614175
 30
0.0
 11
7338.01984195
 21
11743.43614836
 31
0.0
  0
ARC
  5
10A
330
2
100
AcDbEntity
  8
YKK_A2
  6
Continuous
 48
1.5
100
AcDbCircle
 10
7340.5198418
 20
11743.93614833
 30
0.0
 40
0.9999999403953561
100
AcDbArc
 50
180.0
 51
270.0
  0
ARC
  5
10B
330
2
100
AcDbEntity
  8
YKK_A2
  6
Continuous
 48
1.5
100
AcDbCircle
 10
7340.01984183
 20
11743.43614836
 30
0.0
 40
1.99999988079071
100
AcDbArc
 50
180.0
 51
270.0
  0
LINE
  5
10C
330
2
100
AcDbEntity
  8
YKK_A2
  6
Continuous
 48
1.5
100
AcDbLine
 10
7363.51984043
 20
11743.93614833
 30
0.0
 11
7363.51984043
 21
11853.93614178
 31
0.0
  0
LINE
  5
10D
330
2
100
AcDbEntity
  8
YKK_A2
  6
Continuous
 48
1.5
100
AcDbLine
 10
7343.51984162
 20
11841.93614249
 30
0.0
 11
7359.51984067
 21
11841.93614249
 31
0.0
  0
LINE
  5
10E
330
2
100
AcDbEntity
  8
YKK_A2
  6
Continuous
 48
1.5
100
AcDbLine
 10
7343.51984162
 20
11841.93614249
 30
0.0
 11
7343.51984162
 21
11781.93614607
 31
0.0
  0
LINE
  5
10F
330
2
100
AcDbEntity
  8
YKK_A2
  6
Continuous
 48
1.5
100
AcDbLine
 10
7359.51984067
 20
11841.93614249
 30
0.0
 11
7359.51984067
 21
11781.93614607
 31
0.0
  0
LINE
  5
110
330
2
100
AcDbEntity
  8
YKK_A2
  6
Continuous
 48
1.5
100
AcDbLine
 10
7365.01984034
 20
11743.43614836
 30
0.0
 11
7365.01984034
 21
11854.43614175
 31
0.0
  0
LINE
  5
111
330
2
100
AcDbEntity
  8
YKK_A2
  6
Continuous
 48
1.5
100
AcDbLine
 10
7355.01984094
 20
11769.93614678
 30
0.0
 11
7348.01984136
 21
11769.93614678
 31
0.0
  0
LINE
  5
112
330
2
100
AcDbEntity
  8
YKK_A2
  6
Continuous
 48
1.5
100
AcDbLine
 10
7348.01984136
 20
11760.93614732
 30
0.0
 11
7355.01984094
 21
11760.93614732
 31
0.0
  0
LINE
  5
113
330
2
100
AcDbEntity
  8
YKK_A2
  6
Continuous
 48
1.5
100
AcDbLine
 10
7355.01984094
 20
11770.93614672
 30
0.0
 11
7348.01984136
 21
11770.93614672
 31
0.0
  0
LINE
  5
114
330
2
100
AcDbEntity
  8
YKK_A2
  6
Continuous
 48
1.5
100
AcDbLine
 10
7348.01984136
 20
11759.93614738
 30
0.0
 11
7355.01984094
 21
11759.93614738
 31
0.0
  0
CIRCLE
  5
115
330
2
100
AcDbEntity
  8
YKK_A2
  6
Continuous
 48
1.5
100
AcDbCircle
 10
7351.51984115
 20
11755.68614763
 30
0.0
 40
1.749999895691871
  0
ARC
  5
116
330
2
100
AcDbEntity
  8
YKK_A2
  6
Continuous
 48
1.5
100
AcDbCircle
 10
7362.51984049
 20
11743.93614833
 30
0.0
 40
0.9999999403953561
100
AcDbArc
 50
270.0
 51
0.0
  0
ARC
  5
117
330
2
100
AcDbEntity
  8
YKK_A2
  6
Continuous
 48
1.5
100
AcDbCircle
 10
7363.01984046
 20
11743.43614836
 30
0.0
 40
1.99999988079071
100
AcDbArc
 50
270.0
 51
0.0
  0
ARC
  5
118
330
2
100
AcDbEntity
  8
YKK_A2
  6
Continuous
 48
1.5
100
AcDbCircle
 10
7355.01984094
 20
11765.43614705
 30
0.0
 40
4.499999731779097
100
AcDbArc
 50
270.0
 51
90.0
  0
ARC
  5
119
330
2
100
AcDbEntity
  8
YKK_A2
  6
Continuous
 48
1.5
100
AcDbCircle
 10
7348.01984136
 20
11765.43614705
 30
0.0
 40
4.499999731779097
100
AcDbArc
 50
90.0
 51
270.0
  0
ARC
  5
11A
330
2
100
AcDbEntity
  8
YKK_A2
  6
Continuous
 48
1.5
100
AcDbCircle
 10
7355.01984094
 20
11765.43614705
 30
0.0
 40
5.499999672174453
100
AcDbArc
 50
270.0
 51
90.0
  0
ARC
  5
11B
330
2
100
AcDbEntity
  8
YKK_A2
  6
Continuous
 48
1.5
100
AcDbCircle
 10
7351.51984115
 20
11781.93614607
 30
0.0
 40
7.999999523162841
100
AcDbArc
 50
180.0
 51
0.0
  0
ARC
  5
11C
330
2
100
AcDbEntity
  8
YKK_A2
  6
Continuous
 48
1.5
100
AcDbCircle
 10
7340.5198418
 20
11853.93614178
 30
0.0
 40
0.9999999403953561
100
AcDbArc
 50
90.0
 51
180.0
  0
ARC
  5
11D
330
2
100
AcDbEntity
  8
YKK_A2
  6
Continuous
 48
1.5
100
AcDbCircle
 10
7340.01984183
 20
11854.43614175
 30
0.0
 40
1.99999988079071
100
AcDbArc
 50
90.0
 51
180.0
  0
ARC
  5
11E
330
2
100
AcDbEntity
  8
YKK_A2
  6
Continuous
 48
1.5
100
AcDbCircle
 10
7362.51984049
 20
11853.93614178
 30
0.0
 40
0.9999999403953561
100
AcDbArc
 50
0.0
 51
90.0
  0
ARC
  5
11F
330
2
100
AcDbEntity
  8
YKK_A2
  6
Continuous
 48
1.5
100
AcDbCircle
 10
7363.01984046
 20
11854.43614175
 30
0.0
 40
1.99999988079071
100
AcDbArc
 50
0.0
 51
90.0
  0
LINE
  5
120
330
2
100
AcDbEntity
  8
YKK_A2
  6
YCENTER_1
 48
1.5
100
AcDbLine
 10
7326.3610955
 20
11798.93614506
 30
0.0
 11
7375.03536828
 21
11798.93614506
 31
0.0
  0
TEXT
  5
121
330
2
100
AcDbEntity
  8
0
100
AcDbText
 10
5650.039
 20
13437.9363
 30
0.0
 40
200.0
  1
＊
  7
EXTFONT
100
AcDbText
  0
LINE
  5
122
330
2
100
AcDbEntity
  8
YKK_A1
  6
YCENTER_1
 48
1.5
100
AcDbLine
 10
7577.51985158
 20
12798.93615948
 30
0.0
 11
7577.51985158
 21
13028.93614279
 31
0.0
  0
LINE
  5
123
330
2
100
AcDbEntity
  8
YKK_A1
  6
Continuous
 48
1.5
100
AcDbLine
 10
7502.51985605
 20
12988.93614667
 30
0.0
 11
7502.51985605
 21
12838.93615561
 31
0.0
  0
LINE
  5
124
330
2
100
AcDbEntity
  8
YKK_A1
  6
Continuous
 48
1.5
100
AcDbLine
 10
7652.51984711
 20
12838.93615561
 30
0.0
 11
7652.51984711
 21
12988.93614667
 31
0.0
  0
LINE
  5
125
330
2
100
AcDbEntity
  8
YKK_A1
  6
YCENTER_1
 48
1.5
100
AcDbLine
 10
7287.51984406
 20
12643.93612567
 30
0.0
 11
7317.51984108
 21
12643.93612567
 31
0.0
  0
LINE
  5
126
330
2
100
AcDbEntity
  8
YKK_A1
  6
YCENTER_1
 48
1.5
100
AcDbLine
 10
7287.51984406
 20
12863.93615033
 30
0.0
 11
7317.51984108
 21
12863.93615033
 31
0.0
  0
LINE
  5
127
330
2
100
AcDbEntity
  8
YKK_A1
  6
Continuous
 48
1.5
100
AcDbLine
 10
7296.51973585
 20
12585.93605546
 30
0.0
 11
7858.51970235
 21
12585.93605546
 31
0.0
  0
LINE
  5
128
330
2
100
AcDbEntity
  8
YKK_A1
  6
Continuous
 48
1.5
100
AcDbLine
 10
7292.51973609
 20
12588.93605528
 30
0.0
 11
7862.51970211
 21
12588.93605528
 31
0.0
  0
LINE
  5
129
330
2
100
AcDbEntity
  8
YKK_A1
  6
Continuous
 48
1.5
100
AcDbLine
 10
7292.51973609
 20
12613.93605379
 30
0.0
 11
7862.51970211
 21
12613.93605379
 31
0.0
  0
CIRCLE
  5
12A
330
2
100
AcDbEntity
  8
YKK_A1
  6
Continuous
 48
1.5
100
AcDbCircle
 10
7302.51984257
 20
12643.93612567
 30
0.0
 40
4.999999701976776
  0
LINE
  5
12B
330
2
100
AcDbEntity
  8
YKK_A1
  6
YCENTER_1
 48
1.5
100
AcDbLine
 10
7302.51984257
 20
12628.93612716
 30
0.0
 11
7302.51984257
 21
12658.93612418
 31
0.0
  0
CIRCLE
  5
12C
330
2
100
AcDbEntity
  8
YKK_A1
  6
Continuous
 48
1.5
100
AcDbCircle
 10
7302.51984257
 20
12863.93615033
 30
0.0
 40
4.999999701976776
  0
LINE
  5
12D
330
2
100
AcDbEntity
  8
YKK_A1
  6
YCENTER_1
 48
1.5
100
AcDbLine
 10
7302.51984257
 20
12848.93615182
 30
0.0
 11
7302.51984257
 21
12878.93614884
 31
0.0
  0
LINE
  5
12E
330
2
100
AcDbEntity
  8
YKK_A1
  6
Continuous
 48
1.5
100
AcDbLine
 10
7502.51985605
 20
12838.93615561
 30
0.0
 11
7652.51984711
 21
12838.93615561
 31
0.0
  0
LINE
  5
12F
330
2
100
AcDbEntity
  8
YKK_A1
  6
YCENTER_1
 48
1.5
100
AcDbLine
 10
7462.51985992
 20
12913.93615114
 30
0.0
 11
7692.51984324
 21
12913.93615114
 31
0.0
  0
LINE
  5
130
330
2
100
AcDbEntity
  8
YKK_A1
  6
YCENTER_1
 48
1.5
100
AcDbLine
 10
7867.51983179
 20
12643.93612567
 30
0.0
 11
7837.51983477
 21
12643.93612567
 31
0.0
  0
LINE
  5
131
330
2
100
AcDbEntity
  8
YKK_A1
  6
YCENTER_1
 48
1.5
100
AcDbLine
 10
7852.51983328
 20
12628.93612716
 30
0.0
 11
7852.51983328
 21
12658.93612418
 31
0.0
  0
CIRCLE
  5
132
330
2
100
AcDbEntity
  8
YKK_A1
  6
Continuous
 48
1.5
100
AcDbCircle
 10
7852.51983328
 20
12643.93612567
 30
0.0
 40
4.999999701976776
  0
LINE
  5
133
330
2
100
AcDbEntity
  8
YKK_A1
  6
YCENTER_1
 48
1.5
100
AcDbLine
 10
7867.51983179
 20
12863.93615033
 30
0.0
 11
7837.51983477
 21
12863.93615033
 31
0.0
  0
LINE
  5
134
330
2
100
AcDbEntity
  8
YKK_A1
  6
YCENTER_1
 48
1.5
100
AcDbLine
 10
7852.51983328
 20
12848.93615182
 30
0.0
 11
7852.51983328
 21
12878.93614884
 31
0.0
  0
CIRCLE
  5
135
330
2
100
AcDbEntity
  8
YKK_A1
  6
Continuous
 48
1.5
100
AcDbCircle
 10
7852.51983328
 20
12863.93615033
 30
0.0
 40
4.999999701976776
  0
LINE
  5
136
330
2
100
AcDbEntity
  8
YKK_A1
  6
YCENTER_1
 48
1.5
100
AcDbLine
 10
7287.51984406
 20
13083.93615361
 30
0.0
 11
7317.51984108
 21
13083.93615361
 31
0.0
  0
LINE
  5
137
330
2
100
AcDbEntity
  8
YKK_A1
  6
Continuous
 48
1.5
100
AcDbLine
 10
7887.51970062
 20
13138.9360225
 30
0.0
 11
7267.51973758
 21
13138.9360225
 31
0.0
  0
LINE
  5
138
330
2
100
AcDbEntity
  8
YKK_A1
  6
Continuous
 48
1.5
100
AcDbLine
 10
7862.51970211
 20
13113.93602399
 30
0.0
 11
7292.51973609
 21
13113.93602399
 31
0.0
  0
CIRCLE
  5
139
330
2
100
AcDbEntity
  8
YKK_A1
  6
Continuous
 48
1.5
100
AcDbCircle
 10
7302.51984257
 20
13083.93615361
 30
0.0
 40
4.999999701976776
  0
LINE
  5
13A
330
2
100
AcDbEntity
  8
YKK_A1
  6
YCENTER_1
 48
1.5
100
AcDbLine
 10
7302.51984257
 20
13068.9361551
 30
0.0
 11
7302.51984257
 21
13098.93615212
 31
0.0
  0
LINE
  5
13B
330
2
100
AcDbEntity
  8
YKK_A1
  6
Continuous
 48
1.5
100
AcDbLine
 10
7652.51984711
 20
12988.93614667
 30
0.0
 11
7502.51985605
 21
12988.93614667
 31
0.0
  0
LINE
  5
13C
330
2
100
AcDbEntity
  8
YKK_A1
  6
YCENTER_1
 48
1.5
100
AcDbLine
 10
7867.51983179
 20
13083.93615361
 30
0.0
 11
7837.51983477
 21
13083.93615361
 31
0.0
  0
LINE
  5
13D
330
2
100
AcDbEntity
  8
YKK_A1
  6
YCENTER_1
 48
1.5
100
AcDbLine
 10
7852.51983328
 20
13068.9361551
 30
0.0
 11
7852.51983328
 21
13098.93615212
 31
0.0
  0
CIRCLE
  5
13E
330
2
100
AcDbEntity
  8
YKK_A1
  6
Continuous
 48
1.5
100
AcDbCircle
 10
7852.51983328
 20
13083.93615361
 30
0.0
 40
4.999999701976776
  0
LINE
  5
13F
330
2
100
AcDbEntity
  8
YKK_N1
  6
Continuous
100
AcDbLine
 10
8087.51973114
 20
13103.93614269
 30
0.0
 11
8087.51973114
 21
11103.93614269
 31
0.0
  0
TEXT
  5
140
330
2
100
AcDbEntity
  8
YKK_N1
  6
Continuous
100
AcDbText
 10
8075.51973792
 20
11948.93620504
 30
0.0
 40
60.0
  1
H=2000
 50
90.0000025
 72
     4
 11
8045.51973114
 21
12103.93620373
 31
0.0
100
AcDbText
  0
LINE
  5
141
330
2
100
AcDbEntity
  8
YKK_N1
  6
Continuous
100
AcDbLine
 10
8137.51970943
 20
11190.53869701
 30
0.0
 11
8087.51970062
 21
11103.93614269
 31
0.0
  0
LINE
  5
142
330
2
100
AcDbEntity
  8
YKK_N1
  6
Continuous
100
AcDbLine
 10
7962.51970062
 20
11103.93614269
 30
0.0
 11
8087.51973114
 21
11103.93614269
 31
0.0
  0
LINE
  5
143
330
2
100
AcDbEntity
  8
YKK_N1
  6
Continuous
100
AcDbLine
 10
8087.51970062
 20
11103.93614269
 30
0.0
 11
8037.51970062
 21
11190.53869701
 31
0.0
  0
LINE
  5
144
330
2
100
AcDbEntity
  8
YKK_N1
100
AcDbLine
 10
8037.51970062
 20
11190.53869701
 30
0.0
 11
8137.51970943
 21
11190.53869701
 31
0.0
  0
TEXT
  5
145
330
2
100
AcDbEntity
  8
0
100
AcDbText
 10
8950.039
 20
13437.9363
 30
0.0
 40
200.0
  1
＊
  7
EXTFONT
100
AcDbText
  0
LINE
  5
146
330
2
100
AcDbEntity
  8
YKK_N1
  6
Continuous
100
AcDbLine
 10
8137.51970943
 20
13017.33358837
 30
0.0
 11
8087.51970062
 21
13103.93614269
 31
0.0
  0
LINE
  5
147
330
2
100
AcDbEntity
  8
YKK_N1
  6
Continuous
100
AcDbLine
 10
7962.51970062
 20
13103.93614269
 30
0.0
 11
8087.51973114
 21
13103.93614269
 31
0.0
  0
LINE
  5
148
330
2
100
AcDbEntity
  8
YKK_N1
100
AcDbLine
 10
8037.51970062
 20
13017.33358837
 30
0.0
 11
8137.51970943
 21
13017.33358837
 31
0.0
  0
LINE
  5
149
330
2
100
AcDbEntity
  8
YKK_N1
  6
Continuous
100
AcDbLine
 10
8087.51970062
 20
13103.93614269
 30
0.0
 11
8037.51970062
 21
13017.33358837
 31
0.0
  0
TEXT
  5
14A
330
2
100
AcDbEntity
  8
0
100
AcDbText
 10
5650.039
 20
15937.9363
 30
0.0
 40
190.0
  1
W=600 H=1400 扉厚25(枠見込33)
  7
EXTFONT
100
AcDbText
  0
TEXT
  5
14B
330
2
100
AcDbEntity
  8
0
100
AcDbText
 10
5650.039
 20
14687.9363
 30
0.0
 40
140.0
  1
ケースハンドル･ピボットヒンジﾞ・自閉式スプリング丁番・
  7
EXTFONT
100
AcDbText
  0
TEXT
  5
14C
330
2
100
AcDbEntity
  8
0
100
AcDbText
 10
5650.039
 20
14437.9363
 30
0.0
 40
200.0
  1
煽り止めチェーン・本締錠
  7
EXTFONT
100
AcDbText
  0
TEXT
  5
14D
330
2
100
AcDbEntity
  8
0
100
AcDbText
 10
5650.039
 20
15437.9363
 30
0.0
 40
190.0
  1
防錆塗装・カチオン電着塗装・吹付け塗装
  7
EXTFONT
100
AcDbText
  0
TEXT
  5
14E
330
2
100
AcDbEntity
  8
0
100
AcDbText
 10
5650.039
 20
15687.9363
 30
0.0
 40
180.0
  1
溶融亜鉛メッキ鋼板・枠(扉)板厚1.2ミリ
  7
EXTFONT
100
AcDbText
  0
LINE
  5
14F
330
2
100
AcDbEntity
  8
YKK_A1
100
AcDbLine
 10
7242.520659
 20
17023.91147997
 30
0.0
 11
7912.53154042
 21
17023.91147997
 31
0.0
  0
TEXT
  5
150
330
2
100
AcDbEntity
  8
0
100
AcDbText
 10
5650.039
 20
14937.9363
 30
0.0
 40
200.0
  1
平面ハンドル・旗丁番・戸当りゴム
  7
EXTFONT
100
AcDbText
  0
TEXT
  5
151
330
2
100
AcDbEntity
  8
0
100
AcDbText
 10
5650.039
 20
14187.9363
 30
0.0
 40
200.0
  1
ＹＫＫＡＰ　点検口　同等品
  7
EXTFONT
100
AcDbText
  0
LINE
  5
152
330
2
100
AcDbEntity
  8
YKK_F1
  6
Continuous
100
AcDbLine
 10
5716.70566667
 20
13912.9363
 30
0.0
 11
6183.37233333
 21
13912.9363
 31
0.0
  0
TEXT
  5
153
330
2
100
AcDbEntity
  8
0
100
AcDbText
 10
5850.039
 20
13912.9363
 30
0.0
 40
200.0
  1
＊
  7
EXTFONT
100
AcDbText
  0
TEXT
  5
154
330
2
100
AcDbEntity
  8
0
100
AcDbText
 10
5650.039
 20
15187.9363
 30
0.0
 40
200.0
  1
＊
  7
EXTFONT
100
AcDbText
  0
TEXT
  5
155
330
2
100
AcDbEntity
  8
0
100
AcDbText
 10
5650.039
 20
16187.9363
 30
0.0
 40
180.0
  1
点検口片開き
  7
EXTFONT
100
AcDbText
  0
TEXT
  5
156
330
2
100
AcDbEntity
  8
0
100
AcDbText
 10
5650.039
 20
16437.9363
 30
0.0
 40
180.0
  1
2PT SAA
  7
EXTFONT
100
AcDbText
  0
LINE
  5
157
330
2
100
AcDbEntity
  8
YKK_A1
100
AcDbLine
 10
7887.5311344
 20
17048.91188599
 30
0.0
 11
7267.52106502
 21
17048.91188599
 31
0.0
  0
LINE
  5
158
330
2
100
AcDbEntity
  8
YKK_A1
100
AcDbLine
 10
7883.53106944
 20
17053.9119672
 30
0.0
 11
7271.52112999
 21
17053.9119672
 31
0.0
  0
LINE
  5
159
330
2
100
AcDbEntity
  8
YKK_N1
  6
Continuous
100
AcDbLine
 10
7364.1223027
 20
16773.91147116
 30
0.0
 11
7277.51974838
 21
16823.91147997
 31
0.0
  0
LINE
  5
15A
330
2
100
AcDbEntity
  8
YKK_N1
  6
Continuous
100
AcDbLine
 10
7277.51974838
 20
16823.91147997
 30
0.0
 11
7364.1223027
 21
16873.91147997
 31
0.0
  0
LINE
  5
15B
330
2
100
AcDbEntity
  8
YKK_N1
  6
Continuous
100
AcDbLine
 10
7277.51974838
 20
16823.91147997
 30
0.0
 11
7877.51981704
 21
16823.91147997
 31
0.0
  0
LINE
  5
15C
330
2
100
AcDbEntity
  8
YKK_A1
100
AcDbLine
 10
7277.51974838
 20
17023.91147997
 30
0.0
 11
7277.51974838
 21
17032.49983554
 31
0.0
  0
LINE
  5
15D
330
2
100
AcDbEntity
  8
YKK_N1
  6
Continuous
100
AcDbLine
 10
7277.51974838
 20
16948.91147997
 30
0.0
 11
7277.51974838
 21
16823.91147997
 31
0.0
  0
TEXT
  5
15E
330
2
100
AcDbEntity
  8
YKK_N1
  6
Continuous
100
AcDbText
 10
7457.44494541
 20
16835.91147997
 30
0.0
 40
60.0
  1
W=600
 72
     4
 11
7597.44494541
 21
16865.91147997
 31
0.0
100
AcDbText
  0
LINE
  5
15F
330
2
100
AcDbEntity
  8
YKK_N1
100
AcDbLine
 10
7364.1223027
 20
16873.91147997
 30
0.0
 11
7364.1223027
 21
16773.91147116
 31
0.0
  0
LINE
  5
160
330
2
100
AcDbEntity
  8
YKK_A1
100
AcDbLine
 10
7877.53245105
 20
17023.91147997
 30
0.0
 11
7877.53245105
 21
17026.88433025
 31
0.0
  0
LINE
  5
161
330
2
100
AcDbEntity
  8
YKK_N1
  6
Continuous
100
AcDbLine
 10
7877.51981704
 20
16948.91147997
 30
0.0
 11
7877.51981704
 21
16823.91147997
 31
0.0
  0
LINE
  5
162
330
2
100
AcDbEntity
  8
YKK_N1
100
AcDbLine
 10
7790.91726272
 20
16873.91147997
 30
0.0
 11
7790.91726272
 21
16773.91147116
 31
0.0
  0
LINE
  5
163
330
2
100
AcDbEntity
  8
YKK_N1
  6
Continuous
100
AcDbLine
 10
7790.91726272
 20
16773.91147116
 30
0.0
 11
7877.51981704
 21
16823.91147997
 31
0.0
  0
LINE
  5
164
330
2
100
AcDbEntity
  8
YKK_N1
  6
Continuous
100
AcDbLine
 10
7877.51981704
 20
16823.91147997
 30
0.0
 11
7790.91726272
 21
16873.91147997
 31
0.0
  0
LINE
  5
165
330
2
100
AcDbEntity
  8
YKK_A1
100
AcDbLine
 10
7912.53154042
 20
17058.91056934
 30
0.0
 11
7905.10250634
 21
17058.91056934
 31
0.0
  0
LINE
  5
166
330
2
100
AcDbEntity
  8
YKK_N1
  6
Continuous
100
AcDbLine
 10
7987.53154042
 20
17058.93614269
 30
0.0
 11
8112.53154042
 21
17058.93614269
 31
0.0
  0
TEXT
  5
167
330
2
100
AcDbEntity
  8
YKK_F1
100
AcDbText
 10
14320.039
 20
13687.9363
 30
0.0
 40
200.0
  1
箇所
  7
EXTFONT
100
AcDbText
  0
TEXT
  5
168
330
2
100
AcDbEntity
  8
YKK_F1
100
AcDbText
 10
10440.039
 20
13712.9363
 30
0.0
 40
160.0
  1
ＳＤ
  7
EXTFONT
100
AcDbText
  0
CIRCLE
  5
169
330
2
100
AcDbEntity
  8
YKK_F1
100
AcDbCircle
 10
10600.039
 20
13912.9363
 30
0.0
 40
233.3333333333333
  0
TEXT
  5
16A
330
2
100
AcDbEntity
  8
0
100
AcDbText
 10
13900.039
 20
13687.9363
 30
0.0
 40
200.0
  1
＊
  7
EXTFONT
100
AcDbText
  0
TEXT
  5
16B
330
2
100
AcDbEntity
  8
0
100
AcDbText
 10
10300.039
 20
13437.9363
 30
0.0
 40
200.0
  1
＊
  7
EXTFONT
100
AcDbText
  0
TEXT
  5
16C
330
2
100
AcDbEntity
  8
0
100
AcDbText
 10
13600.039
 20
13437.9363
 30
0.0
 40
200.0
  1
＊
  7
EXTFONT
100
AcDbText
  0
TEXT
  5
16D
330
2
100
AcDbEntity
  8
0
100
AcDbText
 10
10300.039
 20
15937.9363
 30
0.0
 40
190.0
  1
W=600 H=1900 扉厚25(枠見込33)
  7
EXTFONT
100
AcDbText
  0
TEXT
  5
16E
330
2
100
AcDbEntity
  8
0
100
AcDbText
 10
10300.039
 20
14437.9363
 30
0.0
 40
200.0
  1
煽り止めチェーン・本締錠
  7
EXTFONT
100
AcDbText
  0
TEXT
  5
16F
330
2
100
AcDbEntity
  8
0
100
AcDbText
 10
10300.039
 20
14687.9363
 30
0.0
 40
140.0
  1
ケースハンドル･ピボットヒンジﾞ・自閉式スプリング丁番・
  7
EXTFONT
100
AcDbText
  0
TEXT
  5
170
330
2
100
AcDbEntity
  8
0
100
AcDbText
 10
10300.039
 20
14937.9363
 30
0.0
 40
200.0
  1
平面ハンドル・旗丁番・戸当りゴム
  7
EXTFONT
100
AcDbText
  0
TEXT
  5
171
330
2
100
AcDbEntity
  8
0
100
AcDbText
 10
10300.039
 20
15437.9363
 30
0.0
 40
190.0
  1
防錆塗装・カチオン電着塗装・吹付け塗装
  7
EXTFONT
100
AcDbText
  0
TEXT
  5
172
330
2
100
AcDbEntity
  8
0
100
AcDbText
 10
10300.039
 20
15687.9363
 30
0.0
 40
180.0
  1
溶融亜鉛メッキ鋼板・枠(扉)板厚1.2ミリ
  7
EXTFONT
100
AcDbText
  0
TEXT
  5
173
330
2
100
AcDbEntity
  8
0
100
AcDbText
 10
10300.039
 20
14187.9363
 30
0.0
 40
200.0
  1
ＹＫＫＡＰ　点検口　同等品
  7
EXTFONT
100
AcDbText
  0
LINE
  5
174
330
2
100
AcDbEntity
  8
YKK_A1
100
AcDbLine
 10
12533.53109614
 20
17053.90384673
 30
0.0
 11
11921.52115669
 21
17053.90384673
 31
0.0
  0
LINE
  5
175
330
2
100
AcDbEntity
  8
YKK_A1
100
AcDbLine
 10
12537.5311611
 20
17048.90376553
 30
0.0
 11
11917.52109173
 21
17048.90376553
 31
0.0
  0
LINE
  5
176
330
2
100
AcDbEntity
  8
YKK_A1
100
AcDbLine
 10
11892.5206857
 20
17023.90335951
 30
0.0
 11
12562.53156713
 21
17023.90335951
 31
0.0
  0
LINE
  5
177
330
2
100
AcDbEntity
  8
YKK_F1
  6
Continuous
100
AcDbLine
 10
10366.70566667
 20
13912.9363
 30
0.0
 11
10833.37233333
 21
13912.9363
 31
0.0
  0
TEXT
  5
178
330
2
100
AcDbEntity
  8
0
100
AcDbText
 10
10500.039
 20
13912.9363
 30
0.0
 40
200.0
  1
＊
  7
EXTFONT
100
AcDbText
  0
TEXT
  5
179
330
2
100
AcDbEntity
  8
0
100
AcDbText
 10
10300.039
 20
15187.9363
 30
0.0
 40
200.0
  1
＊
  7
EXTFONT
100
AcDbText
  0
TEXT
  5
17A
330
2
100
AcDbEntity
  8
0
100
AcDbText
 10
10300.039
 20
16187.9363
 30
0.0
 40
180.0
  1
点検口片開き
  7
EXTFONT
100
AcDbText
  0
TEXT
  5
17B
330
2
100
AcDbEntity
  8
0
100
AcDbText
 10
10300.039
 20
16437.9363
 30
0.0
 40
180.0
  1
2PT SAA
  7
EXTFONT
100
AcDbText
  0
LINE
  5
17C
330
2
100
AcDbEntity
  8
YKK_N1
  6
Continuous
100
AcDbLine
 10
12014.1223294
 20
16773.9033507
 30
0.0
 11
11927.51977508
 21
16823.90335951
 31
0.0
  0
LINE
  5
17D
330
2
100
AcDbEntity
  8
YKK_N1
  6
Continuous
100
AcDbLine
 10
11927.51977508
 20
16823.90335951
 30
0.0
 11
12014.1223294
 21
16873.90335951
 31
0.0
  0
LINE
  5
17E
330
2
100
AcDbEntity
  8
YKK_N1
  6
Continuous
100
AcDbLine
 10
11927.51977508
 20
16823.90335951
 30
0.0
 11
12527.51984374
 21
16823.90335951
 31
0.0
  0
LINE
  5
17F
330
2
100
AcDbEntity
  8
YKK_A1
100
AcDbLine
 10
11927.51977508
 20
17023.90335951
 30
0.0
 11
11927.51977508
 21
17032.49171508
 31
0.0
  0
LINE
  5
180
330
2
100
AcDbEntity
  8
YKK_N1
  6
Continuous
100
AcDbLine
 10
11927.51977508
 20
16948.90335951
 30
0.0
 11
11927.51977508
 21
16823.90335951
 31
0.0
  0
TEXT
  5
181
330
2
100
AcDbEntity
  8
YKK_N1
  6
Continuous
100
AcDbText
 10
12107.44497211
 20
16835.90335951
 30
0.0
 40
60.0
  1
W=600
 72
     4
 11
12247.44497211
 21
16865.90335951
 31
0.0
100
AcDbText
  0
LINE
  5
182
330
2
100
AcDbEntity
  8
YKK_N1
100
AcDbLine
 10
12014.1223294
 20
16873.90335951
 30
0.0
 11
12014.1223294
 21
16773.9033507
 31
0.0
  0
LINE
  5
183
330
2
100
AcDbEntity
  8
YKK_A1
100
AcDbLine
 10
12527.53247775
 20
17023.90335951
 30
0.0
 11
12527.53247775
 21
17026.87620978
 31
0.0
  0
LINE
  5
184
330
2
100
AcDbEntity
  8
YKK_N1
  6
Continuous
100
AcDbLine
 10
12440.91728942
 20
16773.9033507
 30
0.0
 11
12527.51984374
 21
16823.90335951
 31
0.0
  0
LINE
  5
185
330
2
100
AcDbEntity
  8
YKK_N1
100
AcDbLine
 10
12440.91728942
 20
16873.90335951
 30
0.0
 11
12440.91728942
 21
16773.9033507
 31
0.0
  0
LINE
  5
186
330
2
100
AcDbEntity
  8
YKK_N1
  6
Continuous
100
AcDbLine
 10
12527.51984374
 20
16823.90335951
 30
0.0
 11
12440.91728942
 21
16873.90335951
 31
0.0
  0
LINE
  5
187
330
2
100
AcDbEntity
  8
YKK_N1
  6
Continuous
100
AcDbLine
 10
12527.51984374
 20
16948.90335951
 30
0.0
 11
12527.51984374
 21
16823.90335951
 31
0.0
  0
LINE
  5
188
330
2
100
AcDbEntity
  8
YKK_A1
100
AcDbLine
 10
12562.53156713
 20
17058.90244888
 30
0.0
 11
12555.10253304
 21
17058.90244888
 31
0.0
  0
LINE
  5
189
330
2
100
AcDbEntity
  8
YKK_N1
  6
Continuous
100
AcDbLine
 10
12637.53156713
 20
17058.93614269
 30
0.0
 11
12762.53156713
 21
17058.93614269
 31
0.0
  0
LINE
  5
18A
330
2
100
AcDbEntity
  8
YKK_A2
100
AcDbLine
 10
7879.93101097
 20
18287.9320085
 30
0.0
 11
7890.93118962
 21
18287.9320085
 31
0.0
  0
LINE
  5
18B
330
2
100
AcDbEntity
  8
YKK_A2
100
AcDbLine
 10
7890.93118962
 20
18327.93265814
 30
0.0
 11
7879.93101097
 21
18327.93265814
 31
0.0
  0
LINE
  5
18C
330
2
100
AcDbEntity
  8
YKK_A2
100
AcDbLine
 10
7890.93118962
 20
18367.93330778
 30
0.0
 11
7879.93101097
 21
18367.93330778
 31
0.0
  0
LINE
  5
18D
330
2
100
AcDbEntity
  8
YKK_A2
100
AcDbLine
 10
7890.93118962
 20
17151.91355881
 30
0.0
 11
7879.93101097
 21
17151.91355881
 31
0.0
  0
LINE
  5
18E
330
2
100
AcDbEntity
  8
YKK_A2
100
AcDbLine
 10
7890.93118962
 20
17191.91420845
 30
0.0
 11
7879.93101097
 21
17191.91420845
 31
0.0
  0
LINE
  5
18F
330
2
100
AcDbEntity
  8
YKK_A2
100
AcDbLine
 10
7879.93101097
 20
17231.91485808
 30
0.0
 11
7890.93118962
 21
17231.91485808
 31
0.0
  0
LINE
  5
190
330
2
100
AcDbEntity
  8
YKK_A1
100
AcDbLine
 10
7912.53154042
 20
18493.93535413
 30
0.0
 11
7242.520659
 21
18493.93535413
 31
0.0
  0
LINE
  5
191
330
2
100
AcDbEntity
  8
YKK_A1
  6
NITENSAP
100
AcDbLine
 10
7271.52112999
 20
18465.93489939
 30
0.0
 11
7883.53106944
 21
17759.92343329
 31
0.0
  0
LINE
  5
192
330
2
100
AcDbEntity
  8
YKK_A1
100
AcDbLine
 10
7887.5311344
 20
18287.9320085
 30
0.0
 11
7887.5311344
 21
17231.91485808
 31
0.0
  0
LINE
  5
193
330
2
100
AcDbEntity
  8
YKK_A1
100
AcDbLine
 10
7883.53106944
 20
18287.9320085
 30
0.0
 11
7883.53106944
 21
17231.91485808
 31
0.0
  0
LINE
  5
194
330
2
100
AcDbEntity
  8
YKK_A2
  6
ITTENSAP
100
AcDbLine
 10
7276.52121119
 20
17759.92343329
 30
0.0
 11
7376.52283529
 21
17759.92343329
 31
0.0
  0
LINE
  5
196
330
2
100
AcDbEntity
  8
YKK_A2
100
AcDbLine
 10
7879.93101097
 20
17151.91355881
 30
0.0
 11
7879.93101097
 21
17231.91485808
 31
0.0
  0
LINE
  5
197
330
2
100
AcDbEntity
  8
YKK_A2
100
AcDbLine
 10
7318.52189331
 20
17802.92413165
 30
0.0
 11
7334.52215317
 21
17802.92413165
 31
0.0
  0
LINE
  5
198
330
2
100
AcDbEntity
  8
YKK_A2
100
AcDbLine
 10
7337.52220189
 20
17815.92434279
 30
0.0
 11
7315.52184459
 21
17815.92434279
 31
0.0
  0
LINE
  5
199
330
2
100
AcDbEntity
  8
YKK_A2
100
AcDbLine
 10
7337.92220839
 20
17817.32436552
 30
0.0
 11
7314.92183484
 21
17817.32436552
 31
0.0
  0
ARC
  5
19A
330
2
100
AcDbEntity
  8
YKK_A2
100
AcDbCircle
 10
7314.92183484
 20
17815.32433304
 30
0.0
 40
2.000032488076468
100
AcDbArc
 50
90.0
 51
180.0
  0
ARC
  5
19B
330
2
100
AcDbEntity
  8
YKK_A2
100
AcDbCircle
 10
7315.52184459
 20
17814.92432654
 30
0.0
 40
1.000016244048233
100
AcDbArc
 50
90.0
 51
180.0
  0
ARC
  5
19C
330
2
100
AcDbEntity
  8
YKK_A2
100
AcDbCircle
 10
7337.52220189
 20
17814.92432654
 30
0.0
 40
1.000016244048233
100
AcDbArc
 50
0.0
 51
90.0
  0
ARC
  5
19D
330
2
100
AcDbEntity
  8
YKK_A2
100
AcDbCircle
 10
7337.92220839
 20
17815.32433304
 30
0.0
 40
2.000032488076468
100
AcDbArc
 50
0.0
 51
90.0
  0
LINE
  5
19E
330
2
100
AcDbEntity
  8
YKK_A2
100
AcDbLine
 10
7329.92207846
 20
17731.92297855
 30
0.0
 11
7322.92196477
 21
17731.92297855
 31
0.0
  0
LINE
  5
19F
330
2
100
AcDbEntity
  8
YKK_A2
100
AcDbLine
 10
7322.92196477
 20
17720.9227999
 30
0.0
 11
7329.92207846
 21
17720.9227999
 31
0.0
  0
LINE
  5
1A0
330
2
100
AcDbEntity
  8
YKK_A2
100
AcDbLine
 10
7322.92196477
 20
17721.92281614
 30
0.0
 11
7329.92207846
 21
17721.92281614
 31
0.0
  0
LINE
  5
1A1
330
2
100
AcDbEntity
  8
YKK_A2
100
AcDbLine
 10
7329.92207846
 20
17730.92296231
 30
0.0
 11
7322.92196477
 21
17730.92296231
 31
0.0
  0
CIRCLE
  5
1A2
330
2
100
AcDbEntity
  8
YKK_A2
100
AcDbCircle
 10
7326.52202324
 20
17716.72273169
 30
0.0
 40
1.750028533866143
  0
LINE
  5
1A3
330
2
100
AcDbEntity
  8
YKK_A2
100
AcDbLine
 10
7315.52184459
 20
17703.9225238
 30
0.0
 11
7337.52220189
 21
17703.9225238
 31
0.0
  0
LINE
  5
1A4
330
2
100
AcDbEntity
  8
YKK_A2
100
AcDbLine
 10
7314.92183484
 20
17702.32249782
 30
0.0
 11
7337.92220839
 21
17702.32249782
 31
0.0
  0
ARC
  5
1A5
330
2
100
AcDbEntity
  8
YKK_A2
100
AcDbCircle
 10
7315.52184459
 20
17704.92254004
 30
0.0
 40
1.000016244048233
100
AcDbArc
 50
180.0
 51
270.0
  0
ARC
  5
1A6
330
2
100
AcDbEntity
  8
YKK_A2
100
AcDbCircle
 10
7314.92183484
 20
17704.3225303
 30
0.0
 40
2.000032488076468
100
AcDbArc
 50
180.0
 51
270.0
  0
ARC
  5
1A7
330
2
100
AcDbEntity
  8
YKK_A2
100
AcDbCircle
 10
7337.52220189
 20
17704.92254004
 30
0.0
 40
1.000016244048233
100
AcDbArc
 50
270.0
 51
0.0
  0
ARC
  5
1A8
330
2
100
AcDbEntity
  8
YKK_A2
100
AcDbCircle
 10
7337.92220839
 20
17704.3225303
 30
0.0
 40
2.000032488076468
100
AcDbArc
 50
270.0
 51
0.0
  0
LINE
  5
1A9
330
2
100
AcDbEntity
  8
YKK_A2
100
AcDbLine
 10
7318.52189331
 20
17742.9231572
 30
0.0
 11
7318.52189331
 21
17802.92413165
 31
0.0
  0
LINE
  5
1AA
330
2
100
AcDbEntity
  8
YKK_A2
100
AcDbLine
 10
7334.52215317
 20
17802.92413165
 30
0.0
 11
7334.52215317
 21
17742.9231572
 31
0.0
  0
LINE
  5
1AB
330
2
100
AcDbEntity
  8
YKK_A2
100
AcDbLine
 10
7314.52182835
 20
17814.92432654
 30
0.0
 11
7314.52182835
 21
17704.92254004
 31
0.0
  0
LINE
  5
1AC
330
2
100
AcDbEntity
  8
YKK_A2
100
AcDbLine
 10
7312.92180236
 20
17815.32433304
 30
0.0
 11
7312.92180236
 21
17704.3225303
 31
0.0
  0
LINE
  5
1AD
330
2
100
AcDbEntity
  8
YKK_A2
  6
ITTENSAP
100
AcDbLine
 10
7326.52202324
 20
17857.32501516
 30
0.0
 11
7326.52202324
 21
17662.52185143
 31
0.0
  0
LINE
  5
1AE
330
2
100
AcDbEntity
  8
YKK_A2
100
AcDbLine
 10
7338.52221813
 20
17704.92254004
 30
0.0
 11
7338.52221813
 21
17814.92432654
 31
0.0
  0
LINE
  5
1AF
330
2
100
AcDbEntity
  8
YKK_A2
100
AcDbLine
 10
7339.92224087
 20
17704.3225303
 30
0.0
 11
7339.92224087
 21
17815.32433304
 31
0.0
  0
LINE
  5
1B0
330
2
100
AcDbEntity
  8
YKK_A1
100
AcDbLine
 10
7271.52112999
 20
18465.93489939
 30
0.0
 11
7883.53106944
 21
18465.93489939
 31
0.0
  0
LINE
  5
1B1
330
2
100
AcDbEntity
  8
YKK_A1
100
AcDbLine
 10
7267.52106502
 20
18468.93494811
 30
0.0
 11
7887.5311344
 21
18468.93494811
 31
0.0
  0
LINE
  5
1B2
330
2
100
AcDbEntity
  8
YKK_A2
100
AcDbLine
 10
7879.93101097
 20
18367.93330778
 30
0.0
 11
7879.93101097
 21
18287.9320085
 31
0.0
  0
LINE
  5
1B3
330
2
100
AcDbEntity
  8
YKK_A1
100
AcDbLine
 10
7883.53106944
 20
18465.93489939
 30
0.0
 11
7883.53106944
 21
18367.93330778
 31
0.0
  0
LINE
  5
1B4
330
2
100
AcDbEntity
  8
YKK_A1
100
AcDbLine
 10
7887.5311344
 20
18493.93535413
 30
0.0
 11
7887.5311344
 21
18367.93330778
 31
0.0
  0
TEXT
  5
1B5
330
2
100
AcDbEntity
  8
0
100
AcDbText
 10
5650.039
 20
19392.9363
 30
0.0
 40
200.0
  1
＊
  7
EXTFONT
100
AcDbText
  0
CIRCLE
  5
1B6
330
2
100
AcDbEntity
  8
YKK_F1
100
AcDbCircle
 10
5950.039
 20
19867.9363
 30
0.0
 40
233.3333333333333
  0
LINE
  5
1B7
330
2
100
AcDbEntity
  8
YKK_F1
  6
Continuous
100
AcDbLine
 10
5716.70566667
 20
19867.9363
 30
0.0
 11
6183.37233333
 21
19867.9363
 31
0.0
  0
TEXT
  5
1B8
330
2
100
AcDbEntity
  8
0
100
AcDbText
 10
5850.039
 20
19867.9363
 30
0.0
 40
200.0
  1
＊
  7
EXTFONT
100
AcDbText
  0
TEXT
  5
1B9
330
2
100
AcDbEntity
  8
YKK_F1
100
AcDbText
 10
5790.039
 20
19667.9363
 30
0.0
 40
160.0
  1
ＳＤ
  7
EXTFONT
100
AcDbText
  0
TEXT
  5
1BA
330
2
100
AcDbEntity
  8
YKK_N1
  6
Continuous
100
AcDbText
 10
8100.53154698
 20
17608.93620504
 30
0.0
 40
60.0
  1
H=1400
 50
90.0000025
 72
     4
 11
8070.53154042
 21
17758.93620373
 31
0.0
100
AcDbText
  0
LINE
  5
1BB
330
2
100
AcDbEntity
  8
YKK_A2
100
AcDbLine
 10
7890.93118962
 20
17231.91485808
 30
0.0
 11
7890.93118962
 21
17151.91355881
 31
0.0
  0
LINE
  5
1BC
330
2
100
AcDbEntity
  8
YKK_N1
100
AcDbLine
 10
8062.53154042
 20
17145.53869701
 30
0.0
 11
8162.53154923
 21
17145.53869701
 31
0.0
  0
LINE
  5
1BD
330
2
100
AcDbEntity
  8
YKK_A2
100
AcDbLine
 10
7890.93118962
 20
18287.9320085
 30
0.0
 11
7890.93118962
 21
18367.93330778
 31
0.0
  0
LINE
  5
1BE
330
2
100
AcDbEntity
  8
YKK_N1
  6
Continuous
100
AcDbLine
 10
8162.53154923
 20
18372.33371044
 30
0.0
 11
8112.53154042
 21
18458.93626476
 31
0.0
  0
LINE
  5
1BF
330
2
100
AcDbEntity
  8
YKK_A1
100
AcDbLine
 10
7912.53154042
 20
18458.93626476
 30
0.0
 11
7908.77310351
 21
18458.93626476
 31
0.0
  0
LINE
  5
1C0
330
2
100
AcDbEntity
  8
YKK_N1
  6
Continuous
100
AcDbLine
 10
8112.53154042
 20
18458.93626476
 30
0.0
 11
8062.53154042
 21
18372.33371044
 31
0.0
  0
LINE
  5
1C1
330
2
100
AcDbEntity
  8
YKK_N1
  6
Continuous
100
AcDbLine
 10
7987.53154042
 20
18458.93626476
 30
0.0
 11
8112.53154042
 21
18458.93626476
 31
0.0
  0
LINE
  5
1C2
330
2
100
AcDbEntity
  8
YKK_N1
100
AcDbLine
 10
8062.53154042
 20
18372.33371044
 30
0.0
 11
8162.53154923
 21
18372.33371044
 31
0.0
  0
TEXT
  5
1C3
330
2
100
AcDbEntity
  8
0
100
AcDbText
 10
8950.039
 20
19392.9363
 30
0.0
 40
200.0
  1
＊
  7
EXTFONT
100
AcDbText
  0
TEXT
  5
1C4
330
2
100
AcDbEntity
  8
0
100
AcDbText
 10
9250.039
 20
19642.9363
 30
0.0
 40
200.0
  1
＊
  7
EXTFONT
100
AcDbText
  0
TEXT
  5
1C5
330
2
100
AcDbEntity
  8
YKK_F1
100
AcDbText
 10
9670.039
 20
19642.9363
 30
0.0
 40
200.0
  1
箇所
  7
EXTFONT
100
AcDbText
  0
LINE
  5
1C6
330
2
100
AcDbEntity
  8
YKK_A1
100
AcDbLine
 10
11917.52109173
 20
18968.93494811
 30
0.0
 11
12537.5311611
 21
18968.93494811
 31
0.0
  0
LINE
  5
1C7
330
2
100
AcDbEntity
  8
YKK_A1
100
AcDbLine
 10
11921.52115669
 20
18965.93489939
 30
0.0
 11
12533.53109614
 21
18965.93489939
 31
0.0
  0
LINE
  5
1C8
330
2
100
AcDbEntity
  8
YKK_A1
100
AcDbLine
 10
12562.53156713
 20
18993.93535413
 30
0.0
 11
11892.5206857
 21
18993.93535413
 31
0.0
  0
LINE
  5
1C9
330
2
100
AcDbEntity
  8
YKK_A1
  6
NITENSAP
100
AcDbLine
 10
11921.52115669
 20
18965.93489939
 30
0.0
 11
12533.53109614
 21
18009.91937306
 31
0.0
  0
LINE
  5
1CA
330
2
100
AcDbEntity
  8
YKK_A2
  6
ITTENSAP
100
AcDbLine
 10
11926.5212379
 20
18008.91935682
 30
0.0
 11
12026.52286199
 21
18008.91935682
 31
0.0
  0
LINE
  5
1CB
330
2
100
AcDbEntity
  8
YKK_A2
100
AcDbLine
 10
11964.52185505
 20
18063.92025007
 30
0.0
 11
11964.52185505
 21
17953.91846357
 31
0.0
  0
LINE
  5
1CC
330
2
100
AcDbEntity
  8
YKK_A2
100
AcDbLine
 10
11989.92226757
 20
17953.31845383
 30
0.0
 11
11989.92226757
 21
18064.32025657
 31
0.0
  0
LINE
  5
1CD
330
2
100
AcDbEntity
  8
YKK_A2
100
AcDbLine
 10
11962.92182907
 20
18064.32025657
 30
0.0
 11
11962.92182907
 21
17953.31845383
 31
0.0
  0
LINE
  5
1CE
330
2
100
AcDbEntity
  8
YKK_A2
100
AcDbLine
 10
11988.52224483
 20
17953.91846357
 30
0.0
 11
11988.52224483
 21
18063.92025007
 31
0.0
  0
LINE
  5
1CF
330
2
100
AcDbEntity
  8
YKK_A2
  6
ITTENSAP
100
AcDbLine
 10
11976.52204994
 20
18106.52094194
 30
0.0
 11
11976.52204994
 21
17911.51777495
 31
0.0
  0
ARC
  5
1D0
330
2
100
AcDbEntity
  8
YKK_A2
100
AcDbCircle
 10
11965.52187129
 20
17953.91846357
 30
0.0
 40
1.000016244048233
100
AcDbArc
 50
180.0
 51
270.0
  0
ARC
  5
1D1
330
2
100
AcDbEntity
  8
YKK_A2
100
AcDbCircle
 10
11964.92186155
 20
17953.31845383
 30
0.0
 40
2.000032488076468
100
AcDbArc
 50
180.0
 51
270.0
  0
ARC
  5
1D2
330
2
100
AcDbEntity
  8
YKK_A2
100
AcDbCircle
 10
11987.92223509
 20
17953.31845383
 30
0.0
 40
2.000032488076468
100
AcDbArc
 50
270.0
 51
0.0
  0
ARC
  5
1D3
330
2
100
AcDbEntity
  8
YKK_A2
100
AcDbCircle
 10
11987.52222859
 20
17953.91846357
 30
0.0
 40
1.000016244048233
100
AcDbArc
 50
270.0
 51
0.0
  0
LINE
  5
1D4
330
2
100
AcDbEntity
  8
YKK_A2
100
AcDbLine
 10
11964.92186155
 20
17951.51842459
 30
0.0
 11
11987.92223509
 21
17951.51842459
 31
0.0
  0
LINE
  5
1D5
330
2
100
AcDbEntity
  8
YKK_A2
100
AcDbLine
 10
11965.52187129
 20
17952.91844733
 30
0.0
 11
11987.52222859
 21
17952.91844733
 31
0.0
  0
LINE
  5
1D6
330
2
100
AcDbEntity
  8
YKK_A2
100
AcDbLine
 10
11984.52217987
 20
18051.92005518
 30
0.0
 11
11984.52217987
 21
17991.91908072
 31
0.0
  0
LINE
  5
1D7
330
2
100
AcDbEntity
  8
YKK_A2
100
AcDbLine
 10
11968.52192002
 20
17991.91908072
 30
0.0
 11
11968.52192002
 21
18051.92005518
 31
0.0
  0
CIRCLE
  5
1D8
330
2
100
AcDbEntity
  8
YKK_A2
100
AcDbCircle
 10
11976.52204994
 20
17965.71865521
 30
0.0
 40
1.750028533866143
  0
LINE
  5
1D9
330
2
100
AcDbEntity
  8
YKK_A2
100
AcDbLine
 10
11972.92199148
 20
17970.91873967
 30
0.0
 11
11979.92210516
 21
17970.91873967
 31
0.0
  0
LINE
  5
1DA
330
2
100
AcDbEntity
  8
YKK_A2
100
AcDbLine
 10
11979.92210516
 20
17979.91888583
 30
0.0
 11
11972.92199148
 21
17979.91888583
 31
0.0
  0
LINE
  5
1DB
330
2
100
AcDbEntity
  8
YKK_A2
100
AcDbLine
 10
11972.92199148
 20
17969.91872342
 30
0.0
 11
11979.92210516
 21
17969.91872342
 31
0.0
  0
LINE
  5
1DC
330
2
100
AcDbEntity
  8
YKK_A2
100
AcDbLine
 10
11979.92210516
 20
17980.91890207
 30
0.0
 11
11972.92199148
 21
17980.91890207
 31
0.0
  0
LINE
  5
1DD
330
2
100
AcDbEntity
  8
YKK_A2
100
AcDbLine
 10
11968.52192002
 20
18051.92005518
 30
0.0
 11
11984.52217987
 21
18051.92005518
 31
0.0
  0
ARC
  5
1DE
330
2
100
AcDbEntity
  8
YKK_A2
100
AcDbCircle
 10
11965.52187129
 20
18063.92025007
 30
0.0
 40
1.000016244048233
100
AcDbArc
 50
90.0
 51
180.0
  0
LINE
  5
1DF
330
2
100
AcDbEntity
  8
YKK_A2
100
AcDbLine
 10
11987.52222859
 20
18064.92026631
 30
0.0
 11
11965.52187129
 21
18064.92026631
 31
0.0
  0
ARC
  5
1E0
330
2
100
AcDbEntity
  8
YKK_A2
100
AcDbCircle
 10
11964.92186155
 20
18064.32025657
 30
0.0
 40
2.000032488076468
100
AcDbArc
 50
90.0
 51
180.0
  0
ARC
  5
1E1
330
2
100
AcDbEntity
  8
YKK_A2
100
AcDbCircle
 10
11987.92223509
 20
18064.32025657
 30
0.0
 40
2.000032488076468
100
AcDbArc
 50
0.0
 51
90.0
  0
ARC
  5
1E2
330
2
100
AcDbEntity
  8
YKK_A2
100
AcDbCircle
 10
11987.52222859
 20
18063.92025007
 30
0.0
 40
1.000016244048233
100
AcDbArc
 50
0.0
 51
90.0
  0
LINE
  5
1E3
330
2
100
AcDbEntity
  8
YKK_A2
100
AcDbLine
 10
11987.92223509
 20
18066.5202923
 30
0.0
 11
11964.92186155
 21
18066.5202923
 31
0.0
  0
TEXT
  5
1E4
330
2
100
AcDbEntity
  8
0
100
AcDbText
 10
10300.039
 20
19392.9363
 30
0.0
 40
200.0
  1
＊
  7
EXTFONT
100
AcDbText
  0
CIRCLE
  5
1E5
330
2
100
AcDbEntity
  8
YKK_F1
100
AcDbCircle
 10
10600.039
 20
19867.9363
 30
0.0
 40
233.3333333333333
  0
LINE
  5
1E6
330
2
100
AcDbEntity
  8
YKK_F1
  6
Continuous
100
AcDbLine
 10
10366.70566667
 20
19867.9363
 30
0.0
 11
10833.37233333
 21
19867.9363
 31
0.0
  0
TEXT
  5
1E7
330
2
100
AcDbEntity
  8
0
100
AcDbText
 10
10500.039
 20
19867.9363
 30
0.0
 40
200.0
  1
＊
  7
EXTFONT
100
AcDbText
  0
TEXT
  5
1E8
330
2
100
AcDbEntity
  8
YKK_F1
100
AcDbText
 10
10440.039
 20
19667.9363
 30
0.0
 40
160.0
  1
ＳＤ
  7
EXTFONT
100
AcDbText
  0
LINE
  5
1E9
330
2
100
AcDbEntity
  8
YKK_A1
100
AcDbLine
 10
12537.5311611
 20
18787.9320085
 30
0.0
 11
12537.5311611
 21
18049.9200227
 31
0.0
  0
LINE
  5
1EA
330
2
100
AcDbEntity
  8
YKK_A1
100
AcDbLine
 10
12533.53109614
 20
18787.9320085
 30
0.0
 11
12533.53109614
 21
18049.9200227
 31
0.0
  0
TEXT
  5
1EB
330
2
100
AcDbEntity
  8
YKK_N1
  6
Continuous
100
AcDbText
 10
12750.53157368
 20
17858.93620504
 30
0.0
 40
60.0
  1
H=1900
 50
90.0000025
 72
     4
 11
12720.53156713
 21
18008.93620373
 31
0.0
100
AcDbText
  0
LINE
  5
1EC
330
2
100
AcDbEntity
  8
YKK_A1
100
AcDbLine
 10
12533.53109614
 20
17969.91872342
 30
0.0
 11
12533.53109614
 21
17231.90673762
 31
0.0
  0
LINE
  5
1ED
330
2
100
AcDbEntity
  8
YKK_A1
100
AcDbLine
 10
12537.5311611
 20
17969.91872342
 30
0.0
 11
12537.5311611
 21
17231.90673762
 31
0.0
  0
LINE
  5
1EE
330
2
100
AcDbEntity
  8
YKK_A2
100
AcDbLine
 10
12529.93103767
 20
17151.90543835
 30
0.0
 11
12529.93103767
 21
17231.90673762
 31
0.0
  0
LINE
  5
1EF
330
2
100
AcDbEntity
  8
YKK_A2
100
AcDbLine
 10
12540.93121632
 20
17231.90673762
 30
0.0
 11
12540.93121632
 21
17151.90543835
 31
0.0
  0
LINE
  5
1F0
330
2
100
AcDbEntity
  8
YKK_A2
100
AcDbLine
 10
12540.93121632
 20
17151.90543835
 30
0.0
 11
12529.93103767
 21
17151.90543835
 31
0.0
  0
LINE
  5
1F1
330
2
100
AcDbEntity
  8
YKK_A2
100
AcDbLine
 10
12540.93121632
 20
17191.90608798
 30
0.0
 11
12529.93103767
 21
17191.90608798
 31
0.0
  0
LINE
  5
1F2
330
2
100
AcDbEntity
  8
YKK_A2
100
AcDbLine
 10
12529.93103767
 20
17231.90673762
 30
0.0
 11
12540.93121632
 21
17231.90673762
 31
0.0
  0
LINE
  5
1F3
330
2
100
AcDbEntity
  8
YKK_N1
100
AcDbLine
 10
12712.53156713
 20
17145.53869701
 30
0.0
 11
12812.53157594
 21
17145.53869701
 31
0.0
  0
LINE
  5
1F4
330
2
100
AcDbEntity
  8
YKK_A1
100
AcDbLine
 10
12540.93121632
 20
18049.9200227
 30
0.0
 11
12540.93121632
 21
17969.91872342
 31
0.0
  0
LINE
  5
1F5
330
2
100
AcDbEntity
  8
YKK_A1
100
AcDbLine
 10
12529.93103767
 20
17969.91872342
 30
0.0
 11
12529.93103767
 21
18049.9200227
 31
0.0
  0
LINE
  5
1F6
330
2
100
AcDbEntity
  8
YKK_A1
100
AcDbLine
 10
12540.93121632
 20
17969.91872342
 30
0.0
 11
12529.93103767
 21
17969.91872342
 31
0.0
  0
LINE
  5
1F7
330
2
100
AcDbEntity
  8
YKK_A1
100
AcDbLine
 10
12529.93103767
 20
18009.91937306
 30
0.0
 11
12540.93121632
 21
18009.91937306
 31
0.0
  0
LINE
  5
1F8
330
2
100
AcDbEntity
  8
YKK_A1
100
AcDbLine
 10
12529.93103767
 20
18049.9200227
 30
0.0
 11
12540.93121632
 21
18049.9200227
 31
0.0
  0
TEXT
  5
1F9
330
2
100
AcDbEntity
  8
0
100
AcDbText
 10
13600.039
 20
19392.9363
 30
0.0
 40
200.0
  1
＊
  7
EXTFONT
100
AcDbText
  0
LINE
  5
1FA
330
2
100
AcDbEntity
  8
YKK_A2
100
AcDbLine
 10
12540.93121632
 20
18827.93265814
 30
0.0
 11
12529.93103767
 21
18827.93265814
 31
0.0
  0
LINE
  5
1FB
330
2
100
AcDbEntity
  8
YKK_A2
100
AcDbLine
 10
12540.93121632
 20
18867.93330778
 30
0.0
 11
12529.93103767
 21
18867.93330778
 31
0.0
  0
LINE
  5
1FC
330
2
100
AcDbEntity
  8
YKK_A2
100
AcDbLine
 10
12529.93103767
 20
18787.9320085
 30
0.0
 11
12540.93121632
 21
18787.9320085
 31
0.0
  0
LINE
  5
1FD
330
2
100
AcDbEntity
  8
YKK_A2
100
AcDbLine
 10
12529.93103767
 20
18867.93330778
 30
0.0
 11
12529.93103767
 21
18787.9320085
 31
0.0
  0
LINE
  5
1FE
330
2
100
AcDbEntity
  8
YKK_A2
100
AcDbLine
 10
12540.93121632
 20
18787.9320085
 30
0.0
 11
12540.93121632
 21
18867.93330778
 31
0.0
  0
LINE
  5
1FF
330
2
100
AcDbEntity
  8
YKK_A1
100
AcDbLine
 10
12562.53156713
 20
18958.93626476
 30
0.0
 11
12558.77313021
 21
18958.93626476
 31
0.0
  0
LINE
  5
200
330
2
100
AcDbEntity
  8
YKK_N1
  6
Continuous
100
AcDbLine
 10
12637.53156713
 20
18958.93626476
 30
0.0
 11
12762.53156713
 21
18958.93626476
 31
0.0
  0
LINE
  5
201
330
2
100
AcDbEntity
  8
YKK_N1
100
AcDbLine
 10
12712.53156713
 20
18872.33371044
 30
0.0
 11
12812.53157594
 21
18872.33371044
 31
0.0
  0
LINE
  5
202
330
2
100
AcDbEntity
  8
YKK_A1
100
AcDbLine
 10
12533.53109614
 20
18965.93489939
 30
0.0
 11
12533.53109614
 21
18867.93330778
 31
0.0
  0
LINE
  5
203
330
2
100
AcDbEntity
  8
YKK_A1
100
AcDbLine
 10
12537.5311611
 20
18993.93535413
 30
0.0
 11
12537.5311611
 21
18867.93330778
 31
0.0
  0
LINE
  5
204
330
2
100
AcDbEntity
  8
YKK_N1
  6
Continuous
100
AcDbLine
 10
12762.53156713
 20
18958.93626476
 30
0.0
 11
12712.53156713
 21
18872.33371044
 31
0.0
  0
LINE
  5
205
330
2
100
AcDbEntity
  8
YKK_N1
  6
Continuous
100
AcDbLine
 10
12812.53157594
 20
18872.33371044
 30
0.0
 11
12762.53156713
 21
18958.93626476
 31
0.0
  0
TEXT
  5
206
330
2
100
AcDbEntity
  8
0
100
AcDbText
 10
13900.039
 20
19642.9363
 30
0.0
 40
200.0
  1
＊
  7
EXTFONT
100
AcDbText
  0
TEXT
  5
207
330
2
100
AcDbEntity
  8
YKK_F1
100
AcDbText
 10
14320.039
 20
19642.9363
 30
0.0
 40
200.0
  1
箇所
  7
EXTFONT
100
AcDbText
  0
LINE
  5
208
330
2
100
AcDbEntity
  8
YKK_F1
  6
Continuous
100
AcDbLine
 10
28990.039
 20
700.94001
 30
0.0
 11
28990.039
 21
20287.219
 31
0.0
  0
LINE
  5
209
330
2
100
AcDbEntity
  8
YKK_F1
  6
Continuous
100
AcDbLine
 10
29027.821
 20
662.59406
 30
0.0
 11
29027.821
 21
20325.566
 31
0.0
  0
LINE
  5
20A
330
2
100
AcDbEntity
  8
YKK_F1
  6
Continuous
100
AcDbLine
 10
29015.417
 20
675.00009
 30
0.0
 11
29015.417
 21
20312.594
 31
0.0
  0
LINE
  5
20B
330
2
100
AcDbEntity
  8
YKK_F1
  6
Continuous
100
AcDbLine
 10
29002.445
 20
687.97002
 30
0.0
 11
29002.445
 21
20299.624
 31
0.0
  0
LINE
  5
20C
330
2
100
AcDbEntity
  8
YKK_F1
  6
Continuous
100
AcDbLine
 10
29040.229
 20
650.18799
 30
0.0
 11
29040.229
 21
20337.97
 31
0.0
  0
LINE
  5
20D
330
2
100
AcDbEntity
  8
YKK_F1
  6
Continuous
100
AcDbLine
 10
29190.79
 20
500.75202
 30
0.0
 11
29190.79
 21
20487.406
 31
0.0
  0
LINE
  5
20E
330
2
100
AcDbEntity
  8
YKK_F1
  6
Continuous
100
AcDbLine
 10
28800.039
 20
2252.9363
 30
0.0
 11
28800.039
 21
20117.9363
 31
0.0
  0
LINE
  5
20F
330
2
100
AcDbEntity
  8
YKK_F1
  6
Continuous
100
AcDbLine
 10
24150.039
 20
2252.9363
 30
0.0
 11
24150.039
 21
20117.9363
 31
0.0
  0
LINE
  5
210
330
2
100
AcDbEntity
  8
YKK_F1
  6
Continuous
100
AcDbLine
 10
19500.039
 20
2252.9363
 30
0.0
 11
19500.039
 21
20117.9363
 31
0.0
  0
LINE
  5
211
330
2
100
AcDbEntity
  8
YKK_F1
  6
Continuous
100
AcDbLine
 10
14850.039
 20
2252.9363
 30
0.0
 11
14850.039
 21
20117.9363
 31
0.0
  0
LINE
  5
212
330
2
100
AcDbEntity
  8
YKK_F1
100
AcDbLine
 10
29700.0
 20
0.0
 30
0.0
 11
29700.0
 21
21000.0
 31
0.0
  0
LINE
  5
213
330
2
100
AcDbEntity
  8
YKK_F1
  6
Continuous
100
AcDbLine
 10
21494.55
 20
1450.376
 30
0.0
 11
27990.79
 21
1450.376
 31
0.0
  0
TEXT
  5
214
330
2
100
AcDbEntity
  8
YKK_F1
100
AcDbText
 10
23686.75533333
 20
1600.376
 30
0.0
 40
200.0
  1
(仮称)○\U+00D7ビル新築工事
  7
EXTFONT
 72
     4
 11
24993.422
 21
1700.376
 31
0.0
100
AcDbText
  0
TEXT
  5
215
330
2
100
AcDbEntity
  8
YKK_F1
100
AcDbText
 10
23900.08866667
 20
975.376
 30
0.0
 40
200.0
  1
建具表－（ＢＳＤＧＡＳ６２）
  7
EXTFONT
 72
     4
 11
25493.422
 21
1075.376
 31
0.0
100
AcDbText
  0
TEXT
  5
216
330
2
100
AcDbEntity
  8
0
100
AcDbText
 10
14950.039
 20
3777.9363
 30
0.0
 40
200.0
  1
＊
  7
EXTFONT
100
AcDbText
  0
TEXT
  5
217
330
2
100
AcDbEntity
  8
0
100
AcDbText
 10
19600.039
 20
3777.9363
 30
0.0
 40
200.0
  1
＊
  7
EXTFONT
100
AcDbText
  0
LINE
  5
218
330
2
100
AcDbEntity
  8
YKK_F1
  6
Continuous
100
AcDbLine
 10
21494.55
 20
1200.5641
 30
0.0
 11
18496.807
 21
1200.5641
 31
0.0
  0
LINE
  5
219
330
2
100
AcDbEntity
  8
YKK_F1
  6
Continuous
100
AcDbLine
 10
18496.807
 20
1949.4363
 30
0.0
 11
18496.807
 21
650.18799
 31
0.0
  0
TEXT
  5
21A
330
2
100
AcDbEntity
  8
0
100
AcDbText
 10
14950.039
 20
3027.9363
 30
0.0
 40
200.0
  1
＊
  7
EXTFONT
100
AcDbText
  0
TEXT
  5
21B
330
2
100
AcDbEntity
  8
0
100
AcDbText
 10
14950.039
 20
2277.9363
 30
0.0
 40
200.0
  1
＊
  7
EXTFONT
100
AcDbText
  0
TEXT
  5
21C
330
2
100
AcDbEntity
  8
0
100
AcDbText
 10
14950.039
 20
2527.9363
 30
0.0
 40
200.0
  1
＊
  7
EXTFONT
100
AcDbText
  0
TEXT
  5
21D
330
2
100
AcDbEntity
  8
0
100
AcDbText
 10
14950.039
 20
2777.9363
 30
0.0
 40
200.0
  1
＊
  7
EXTFONT
100
AcDbText
  0
TEXT
  5
21E
330
2
100
AcDbEntity
  8
0
100
AcDbText
 10
14950.039
 20
3277.9363
 30
0.0
 40
200.0
  1
＊
  7
EXTFONT
100
AcDbText
  0
TEXT
  5
21F
330
2
100
AcDbEntity
  8
0
100
AcDbText
 10
14950.039
 20
3277.9363
 30
0.0
 40
200.0
  1
＊
  7
EXTFONT
100
AcDbText
  0
TEXT
  5
220
330
2
100
AcDbEntity
  8
0
100
AcDbText
 10
14950.039
 20
3527.9363
 30
0.0
 40
200.0
  1
＊
  7
EXTFONT
100
AcDbText
  0
TEXT
  5
221
330
2
100
AcDbEntity
  8
YKK_F1
100
AcDbText
 10
18546.807
 20
1067.4437
 30
0.0
 40
100.0
  1
担当者
  7
EXTFONT
100
AcDbText
  0
TEXT
  5
222
330
2
100
AcDbEntity
  8
YKK_F1
100
AcDbText
 10
18546.807
 20
1816.3159
 30
0.0
 40
100.0
  1
管理建築士
  7
EXTFONT
100
AcDbText
  0
LINE
  5
223
330
2
100
AcDbEntity
  8
YKK_F1
  6
Continuous
100
AcDbLine
 10
22993.422
 20
1949.4363
 30
0.0
 11
22993.422
 21
650.18799
 31
0.0
  0
LINE
  5
224
330
2
100
AcDbEntity
  8
YKK_F1
  6
Continuous
100
AcDbLine
 10
21494.55
 20
1949.4363
 30
0.0
 11
21494.55
 21
650.18799
 31
0.0
  0
TEXT
  5
225
330
2
100
AcDbEntity
  8
YKK_F1
100
AcDbText
 10
21544.55
 20
1816.3159
 30
0.0
 40
100.0
  1
設計No.
  7
EXTFONT
100
AcDbText
  0
TEXT
  5
226
330
2
100
AcDbEntity
  8
YKK_F1
100
AcDbText
 10
21544.55
 20
1317.2556
 30
0.0
 40
100.0
  1
縮尺
  7
EXTFONT
100
AcDbText
  0
TEXT
  5
227
330
2
100
AcDbEntity
  8
0
100
AcDbText
 10
19600.039
 20
3027.9363
 30
0.0
 40
200.0
  1
＊
  7
EXTFONT
100
AcDbText
  0
TEXT
  5
228
330
2
100
AcDbEntity
  8
0
100
AcDbText
 10
19600.039
 20
2277.9363
 30
0.0
 40
200.0
  1
＊
  7
EXTFONT
100
AcDbText
  0
TEXT
  5
229
330
2
100
AcDbEntity
  8
0
100
AcDbText
 10
19600.039
 20
2527.9363
 30
0.0
 40
200.0
  1
＊
  7
EXTFONT
100
AcDbText
  0
TEXT
  5
22A
330
2
100
AcDbEntity
  8
0
100
AcDbText
 10
19600.039
 20
2777.9363
 30
0.0
 40
200.0
  1
＊
  7
EXTFONT
100
AcDbText
  0
TEXT
  5
22B
330
2
100
AcDbEntity
  8
0
100
AcDbText
 10
19600.039
 20
3277.9363
 30
0.0
 40
200.0
  1
＊
  7
EXTFONT
100
AcDbText
  0
TEXT
  5
22C
330
2
100
AcDbEntity
  8
0
100
AcDbText
 10
19600.039
 20
3527.9363
 30
0.0
 40
200.0
  1
＊
  7
EXTFONT
100
AcDbText
  0
LINE
  5
22D
330
2
100
AcDbEntity
  8
YKK_F1
  6
Continuous
100
AcDbLine
 10
22594.174
 20
1351.128
 30
0.0
 11
21893.798
 21
800.75199
 31
0.0
  0
TEXT
  5
22E
330
2
100
AcDbEntity
  8
YKK_F1
  6
Continuous
100
AcDbText
 10
21956.956
 20
1113.7219
 30
0.0
 40
150.0
  1
1
100
AcDbText
  0
TEXT
  5
22F
330
2
100
AcDbEntity
  8
YKK_F1
  6
Continuous
100
AcDbText
 10
22493.83502704
 20
866.53895907
 30
0.0
 40
150.0
  1
50
100
AcDbText
  0
TEXT
  5
230
330
2
100
AcDbEntity
  8
YKK_F1
100
AcDbText
 10
23043.422
 20
1317.2556
 30
0.0
 40
100.0
  1
図面名
  7
EXTFONT
100
AcDbText
  0
TEXT
  5
231
330
2
100
AcDbEntity
  8
YKK_F1
100
AcDbText
 10
23043.422
 20
1816.3159
 30
0.0
 40
100.0
  1
名称
  7
EXTFONT
100
AcDbText
  0
TEXT
  5
232
330
2
100
AcDbEntity
  8
0
100
AcDbText
 10
14950.039
 20
4277.9363
 30
0.0
 40
200.0
  1
＊
  7
EXTFONT
100
AcDbText
  0
TEXT
  5
233
330
2
100
AcDbEntity
  8
0
100
AcDbText
 10
14950.039
 20
4027.9363
 30
0.0
 40
200.0
  1
＊
  7
EXTFONT
100
AcDbText
  0
TEXT
  5
234
330
2
100
AcDbEntity
  8
0
100
AcDbText
 10
14950.039
 20
8732.9363
 30
0.0
 40
200.0
  1
＊
  7
EXTFONT
100
AcDbText
  0
CIRCLE
  5
235
330
2
100
AcDbEntity
  8
YKK_F1
100
AcDbCircle
 10
15250.039
 20
7957.9363
 30
0.0
 40
233.3333333333333
  0
TEXT
  5
236
330
2
100
AcDbEntity
  8
0
100
AcDbText
 10
15150.039
 20
7957.9363
 30
0.0
 40
200.0
  1
＊
  7
EXTFONT
100
AcDbText
  0
LINE
  5
237
330
2
100
AcDbEntity
  8
YKK_F1
  6
Continuous
100
AcDbLine
 10
15016.70566667
 20
7957.9363
 30
0.0
 11
15483.37233333
 21
7957.9363
 31
0.0
  0
TEXT
  5
238
330
2
100
AcDbEntity
  8
0
100
AcDbText
 10
14950.039
 20
7482.9363
 30
0.0
 40
200.0
  1
＊
  7
EXTFONT
100
AcDbText
  0
TEXT
  5
239
330
2
100
AcDbEntity
  8
YKK_F1
100
AcDbText
 10
15090.039
 20
7757.9363
 30
0.0
 40
160.0
  1
ＳＤ
  7
EXTFONT
100
AcDbText
  0
TEXT
  5
23A
330
2
100
AcDbEntity
  8
0
100
AcDbText
 10
14950.039
 20
8232.9363
 30
0.0
 40
200.0
  1
＊
  7
EXTFONT
100
AcDbText
  0
TEXT
  5
23B
330
2
100
AcDbEntity
  8
0
100
AcDbText
 10
14950.039
 20
8482.9363
 30
0.0
 40
200.0
  1
＊
  7
EXTFONT
100
AcDbText
  0
TEXT
  5
23C
330
2
100
AcDbEntity
  8
0
100
AcDbText
 10
14950.039
 20
8982.9363
 30
0.0
 40
200.0
  1
＊
  7
EXTFONT
100
AcDbText
  0
TEXT
  5
23D
330
2
100
AcDbEntity
  8
0
100
AcDbText
 10
14950.039
 20
9482.9363
 30
0.0
 40
200.0
  1
＊
  7
EXTFONT
100
AcDbText
  0
TEXT
  5
23E
330
2
100
AcDbEntity
  8
0
100
AcDbText
 10
14950.039
 20
9232.9363
 30
0.0
 40
200.0
  1
＊
  7
EXTFONT
100
AcDbText
  0
TEXT
  5
23F
330
2
100
AcDbEntity
  8
0
100
AcDbText
 10
14950.039
 20
9232.9363
 30
0.0
 40
200.0
  1
＊
  7
EXTFONT
100
AcDbText
  0
TEXT
  5
240
330
2
100
AcDbEntity
  8
0
100
AcDbText
 10
14950.039
 20
9982.9363
 30
0.0
 40
200.0
  1
＊
  7
EXTFONT
100
AcDbText
  0
TEXT
  5
241
330
2
100
AcDbEntity
  8
0
100
AcDbText
 10
14950.039
 20
9732.9363
 30
0.0
 40
200.0
  1
＊
  7
EXTFONT
100
AcDbText
  0
TEXT
  5
242
330
2
100
AcDbEntity
  8
0
100
AcDbText
 10
14950.039
 20
10232.9363
 30
0.0
 40
200.0
  1
＊
  7
EXTFONT
100
AcDbText
  0
TEXT
  5
243
330
2
100
AcDbEntity
  8
0
100
AcDbText
 10
18250.039
 20
7482.9363
 30
0.0
 40
200.0
  1
＊
  7
EXTFONT
100
AcDbText
  0
TEXT
  5
244
330
2
100
AcDbEntity
  8
0
100
AcDbText
 10
18550.039
 20
7732.9363
 30
0.0
 40
200.0
  1
＊
  7
EXTFONT
100
AcDbText
  0
TEXT
  5
245
330
2
100
AcDbEntity
  8
YKK_F1
100
AcDbText
 10
18970.039
 20
7732.9363
 30
0.0
 40
200.0
  1
箇所
  7
EXTFONT
100
AcDbText
  0
TEXT
  5
246
330
2
100
AcDbEntity
  8
0
100
AcDbText
 10
19600.039
 20
4277.9363
 30
0.0
 40
200.0
  1
＊
  7
EXTFONT
100
AcDbText
  0
TEXT
  5
247
330
2
100
AcDbEntity
  8
0
100
AcDbText
 10
19600.039
 20
4027.9363
 30
0.0
 40
200.0
  1
＊
  7
EXTFONT
100
AcDbText
  0
TEXT
  5
248
330
2
100
AcDbEntity
  8
0
100
AcDbText
 10
19600.039
 20
8732.9363
 30
0.0
 40
200.0
  1
＊
  7
EXTFONT
100
AcDbText
  0
CIRCLE
  5
249
330
2
100
AcDbEntity
  8
YKK_F1
100
AcDbCircle
 10
19900.039
 20
7957.9363
 30
0.0
 40
233.3333333333333
  0
TEXT
  5
24A
330
2
100
AcDbEntity
  8
0
100
AcDbText
 10
19800.039
 20
7957.9363
 30
0.0
 40
200.0
  1
＊
  7
EXTFONT
100
AcDbText
  0
LINE
  5
24B
330
2
100
AcDbEntity
  8
YKK_F1
  6
Continuous
100
AcDbLine
 10
19666.70566667
 20
7957.9363
 30
0.0
 11
20133.37233333
 21
7957.9363
 31
0.0
  0
TEXT
  5
24C
330
2
100
AcDbEntity
  8
0
100
AcDbText
 10
19600.039
 20
7482.9363
 30
0.0
 40
200.0
  1
＊
  7
EXTFONT
100
AcDbText
  0
TEXT
  5
24D
330
2
100
AcDbEntity
  8
YKK_F1
100
AcDbText
 10
19740.039
 20
7757.9363
 30
0.0
 40
160.0
  1
ＳＤ
  7
EXTFONT
100
AcDbText
  0
TEXT
  5
24E
330
2
100
AcDbEntity
  8
0
100
AcDbText
 10
19600.039
 20
8232.9363
 30
0.0
 40
200.0
  1
＊
  7
EXTFONT
100
AcDbText
  0
TEXT
  5
24F
330
2
100
AcDbEntity
  8
0
100
AcDbText
 10
19600.039
 20
8482.9363
 30
0.0
 40
200.0
  1
＊
  7
EXTFONT
100
AcDbText
  0
TEXT
  5
250
330
2
100
AcDbEntity
  8
0
100
AcDbText
 10
19600.039
 20
8982.9363
 30
0.0
 40
200.0
  1
＊
  7
EXTFONT
100
AcDbText
  0
TEXT
  5
251
330
2
100
AcDbEntity
  8
0
100
AcDbText
 10
19600.039
 20
9482.9363
 30
0.0
 40
200.0
  1
＊
  7
EXTFONT
100
AcDbText
  0
TEXT
  5
252
330
2
100
AcDbEntity
  8
0
100
AcDbText
 10
19600.039
 20
9232.9363
 30
0.0
 40
200.0
  1
＊
  7
EXTFONT
100
AcDbText
  0
TEXT
  5
253
330
2
100
AcDbEntity
  8
0
100
AcDbText
 10
19600.039
 20
9982.9363
 30
0.0
 40
200.0
  1
＊
  7
EXTFONT
100
AcDbText
  0
TEXT
  5
254
330
2
100
AcDbEntity
  8
0
100
AcDbText
 10
19600.039
 20
9732.9363
 30
0.0
 40
200.0
  1
＊
  7
EXTFONT
100
AcDbText
  0
TEXT
  5
255
330
2
100
AcDbEntity
  8
0
100
AcDbText
 10
19600.039
 20
10232.9363
 30
0.0
 40
200.0
  1
＊
  7
EXTFONT
100
AcDbText
  0
TEXT
  5
256
330
2
100
AcDbEntity
  8
0
100
AcDbText
 10
22900.039
 20
7482.9363
 30
0.0
 40
200.0
  1
＊
  7
EXTFONT
100
AcDbText
  0
TEXT
  5
257
330
2
100
AcDbEntity
  8
0
100
AcDbText
 10
23200.039
 20
7732.9363
 30
0.0
 40
200.0
  1
＊
  7
EXTFONT
100
AcDbText
  0
TEXT
  5
258
330
2
100
AcDbEntity
  8
YKK_F1
100
AcDbText
 10
23620.039
 20
7732.9363
 30
0.0
 40
200.0
  1
箇所
  7
EXTFONT
100
AcDbText
  0
TEXT
  5
259
330
2
100
AcDbEntity
  8
0
100
AcDbText
 10
24250.039
 20
3777.9363
 30
0.0
 40
200.0
  1
＊
  7
EXTFONT
100
AcDbText
  0
LINE
  5
25A
330
2
100
AcDbEntity
  8
YKK_F1
  6
Continuous
100
AcDbLine
 10
28890.228
 20
1651.1279
 30
0.0
 11
28090.604
 21
1001.504
 31
0.0
  0
TEXT
  5
25B
330
2
100
AcDbEntity
  8
YKK_F1
100
AcDbText
 10
28617.37641269
 20
751.11699243
 30
0.0
 40
100.0
  1
枚の内
  7
EXTFONT
100
AcDbText
  0
LINE
  5
25C
330
2
100
AcDbEntity
  8
YKK_F1
  6
Continuous
100
AcDbLine
 10
27990.79
 20
1949.4363
 30
0.0
 11
27990.79
 21
650.18799
 31
0.0
  0
TEXT
  5
25D
330
2
100
AcDbEntity
  8
0
100
AcDbText
 10
24250.039
 20
3027.9363
 30
0.0
 40
200.0
  1
＊
  7
EXTFONT
100
AcDbText
  0
TEXT
  5
25E
330
2
100
AcDbEntity
  8
0
100
AcDbText
 10
24250.039
 20
2277.9363
 30
0.0
 40
200.0
  1
＊
  7
EXTFONT
100
AcDbText
  0
TEXT
  5
25F
330
2
100
AcDbEntity
  8
0
100
AcDbText
 10
24250.039
 20
2527.9363
 30
0.0
 40
200.0
  1
＊
  7
EXTFONT
100
AcDbText
  0
TEXT
  5
260
330
2
100
AcDbEntity
  8
0
100
AcDbText
 10
24250.039
 20
2777.9363
 30
0.0
 40
200.0
  1
＊
  7
EXTFONT
100
AcDbText
  0
TEXT
  5
261
330
2
100
AcDbEntity
  8
0
100
AcDbText
 10
24250.039
 20
3277.9363
 30
0.0
 40
200.0
  1
＊
  7
EXTFONT
100
AcDbText
  0
TEXT
  5
262
330
2
100
AcDbEntity
  8
0
100
AcDbText
 10
24250.039
 20
3527.9363
 30
0.0
 40
200.0
  1
＊
  7
EXTFONT
100
AcDbText
  0
TEXT
  5
263
330
2
100
AcDbEntity
  8
YKK_F1
100
AcDbText
 10
26990.79
 20
1625.376
 30
0.0
 40
150.0
  1
工事設計図
  7
EXTFONT
100
AcDbText
  0
TEXT
  5
264
330
2
100
AcDbEntity
  8
YKK_F1
100
AcDbText
 10
28040.79
 20
1816.3159
 30
0.0
 40
100.0
  1
図面No.
  7
EXTFONT
100
AcDbText
  0
TEXT
  5
265
330
2
100
AcDbEntity
  8
0
100
AcDbText
 10
24250.039
 20
4277.9363
 30
0.0
 40
200.0
  1
＊
  7
EXTFONT
100
AcDbText
  0
TEXT
  5
266
330
2
100
AcDbEntity
  8
0
100
AcDbText
 10
24250.039
 20
4027.9363
 30
0.0
 40
200.0
  1
＊
  7
EXTFONT
100
AcDbText
  0
TEXT
  5
267
330
2
100
AcDbEntity
  8
0
100
AcDbText
 10
24250.039
 20
8732.9363
 30
0.0
 40
200.0
  1
＊
  7
EXTFONT
100
AcDbText
  0
CIRCLE
  5
268
330
2
100
AcDbEntity
  8
YKK_F1
100
AcDbCircle
 10
24550.039
 20
7957.9363
 30
0.0
 40
233.3333333333333
  0
TEXT
  5
269
330
2
100
AcDbEntity
  8
0
100
AcDbText
 10
24450.039
 20
7957.9363
 30
0.0
 40
200.0
  1
＊
  7
EXTFONT
100
AcDbText
  0
LINE
  5
26A
330
2
100
AcDbEntity
  8
YKK_F1
  6
Continuous
100
AcDbLine
 10
24316.70566667
 20
7957.9363
 30
0.0
 11
24783.37233333
 21
7957.9363
 31
0.0
  0
TEXT
  5
26B
330
2
100
AcDbEntity
  8
0
100
AcDbText
 10
24250.039
 20
7482.9363
 30
0.0
 40
200.0
  1
＊
  7
EXTFONT
100
AcDbText
  0
TEXT
  5
26C
330
2
100
AcDbEntity
  8
YKK_F1
100
AcDbText
 10
24390.039
 20
7757.9363
 30
0.0
 40
160.0
  1
ＳＤ
  7
EXTFONT
100
AcDbText
  0
TEXT
  5
26D
330
2
100
AcDbEntity
  8
0
100
AcDbText
 10
24250.039
 20
8232.9363
 30
0.0
 40
200.0
  1
＊
  7
EXTFONT
100
AcDbText
  0
TEXT
  5
26E
330
2
100
AcDbEntity
  8
0
100
AcDbText
 10
24250.039
 20
8482.9363
 30
0.0
 40
200.0
  1
＊
  7
EXTFONT
100
AcDbText
  0
TEXT
  5
26F
330
2
100
AcDbEntity
  8
0
100
AcDbText
 10
24250.039
 20
8982.9363
 30
0.0
 40
200.0
  1
＊
  7
EXTFONT
100
AcDbText
  0
TEXT
  5
270
330
2
100
AcDbEntity
  8
0
100
AcDbText
 10
24250.039
 20
9482.9363
 30
0.0
 40
200.0
  1
＊
  7
EXTFONT
100
AcDbText
  0
TEXT
  5
271
330
2
100
AcDbEntity
  8
0
100
AcDbText
 10
24250.039
 20
9232.9363
 30
0.0
 40
200.0
  1
＊
  7
EXTFONT
100
AcDbText
  0
TEXT
  5
272
330
2
100
AcDbEntity
  8
0
100
AcDbText
 10
24250.039
 20
9982.9363
 30
0.0
 40
200.0
  1
＊
  7
EXTFONT
100
AcDbText
  0
TEXT
  5
273
330
2
100
AcDbEntity
  8
0
100
AcDbText
 10
24250.039
 20
9732.9363
 30
0.0
 40
200.0
  1
＊
  7
EXTFONT
100
AcDbText
  0
TEXT
  5
274
330
2
100
AcDbEntity
  8
0
100
AcDbText
 10
24250.039
 20
10232.9363
 30
0.0
 40
200.0
  1
＊
  7
EXTFONT
100
AcDbText
  0
TEXT
  5
275
330
2
100
AcDbEntity
  8
0
100
AcDbText
 10
27550.039
 20
7482.9363
 30
0.0
 40
200.0
  1
＊
  7
EXTFONT
100
AcDbText
  0
TEXT
  5
276
330
2
100
AcDbEntity
  8
0
100
AcDbText
 10
27850.039
 20
7732.9363
 30
0.0
 40
200.0
  1
＊
  7
EXTFONT
100
AcDbText
  0
TEXT
  5
277
330
2
100
AcDbEntity
  8
YKK_F1
100
AcDbText
 10
28270.039
 20
7732.9363
 30
0.0
 40
200.0
  1
箇所
  7
EXTFONT
100
AcDbText
  0
LINE
  5
278
330
2
100
AcDbEntity
  8
YKK_A1
100
AcDbLine
 10
22017.79398017
 20
17156.9362287
 30
0.0
 11
22017.79398017
 21
17058.93623454
 31
0.0
  0
LINE
  5
279
330
2
100
AcDbEntity
  8
YKK_A1
100
AcDbLine
 10
22021.79397993
 20
17156.9362287
 30
0.0
 11
22021.79397993
 21
17028.93623633
 31
0.0
  0
LINE
  5
27A
330
2
100
AcDbEntity
  8
YKK_A1
100
AcDbLine
 10
22046.79397844
 20
17028.93623633
 30
0.0
 11
22046.79397844
 21
18998.93611891
 31
0.0
  0
LINE
  5
27B
330
2
100
AcDbEntity
  8
YKK_A1
100
AcDbLine
 10
21105.79403453
 20
17156.9362287
 30
0.0
 11
21105.79403453
 21
17058.93623454
 31
0.0
  0
LINE
  5
27C
330
2
100
AcDbEntity
  8
YKK_A1
100
AcDbLine
 10
21101.79403477
 20
17156.9362287
 30
0.0
 11
21101.79403477
 21
17028.93623633
 31
0.0
  0
LINE
  5
27D
330
2
100
AcDbEntity
  8
YKK_A1
  6
NITENSAP
100
AcDbLine
 10
21105.79403453
 20
18014.93617756
 30
0.0
 11
21558.79400753
 21
17058.93623454
 31
0.0
  0
LINE
  5
27E
330
2
100
AcDbEntity
  8
YKK_A1
100
AcDbLine
 10
21076.79403626
 20
17028.93623633
 30
0.0
 11
21076.79403626
 21
18998.93611891
 31
0.0
  0
LINE
  5
27F
330
2
100
AcDbEntity
  8
YKK_A1
100
AcDbLine
 10
21579.99400627
 20
17058.93623454
 30
0.0
 11
21579.99400627
 21
18970.93612058
 31
0.0
  0
LINE
  5
280
330
2
100
AcDbEntity
  8
YKK_A1
100
AcDbLine
 10
21551.99400794
 20
18970.93612058
 30
0.0
 11
21551.99400794
 21
17058.93623454
 31
0.0
  0
LINE
  5
281
330
2
100
AcDbEntity
  8
YKK_A1
  6
NITENSAP
100
AcDbLine
 10
22017.79398017
 20
18014.93617756
 30
0.0
 11
21564.79400717
 21
17058.93623454
 31
0.0
  0
LINE
  5
282
330
2
100
AcDbEntity
  8
YKK_A1
100
AcDbLine
 10
17367.79387391
 20
17156.93639152
 30
0.0
 11
17367.79387391
 21
17058.93639736
 31
0.0
  0
LINE
  5
283
330
2
100
AcDbEntity
  8
YKK_A1
100
AcDbLine
 10
17371.79387368
 20
17156.93639152
 30
0.0
 11
17371.79387368
 21
17028.93639915
 31
0.0
  0
LINE
  5
284
330
2
100
AcDbEntity
  8
YKK_A1
100
AcDbLine
 10
17396.79387218
 20
17028.93639915
 30
0.0
 11
17396.79387218
 21
18248.93632643
 31
0.0
  0
LINE
  5
285
330
2
100
AcDbEntity
  8
YKK_A1
100
AcDbLine
 10
16455.79392827
 20
17156.93639152
 30
0.0
 11
16455.79392827
 21
17058.93639736
 31
0.0
  0
LINE
  5
286
330
2
100
AcDbEntity
  8
YKK_A1
100
AcDbLine
 10
16451.79392851
 20
17156.93639152
 30
0.0
 11
16451.79392851
 21
17028.93639915
 31
0.0
  0
LINE
  5
287
330
2
100
AcDbEntity
  8
YKK_A1
  6
NITENSAP
100
AcDbLine
 10
16455.79392827
 20
17639.93636273
 30
0.0
 11
16908.79390127
 21
17058.93639736
 31
0.0
  0
LINE
  5
288
330
2
100
AcDbEntity
  8
YKK_A1
100
AcDbLine
 10
16426.79393
 20
17028.93639915
 30
0.0
 11
16426.79393
 21
18248.93632643
 31
0.0
  0
LINE
  5
289
330
2
100
AcDbEntity
  8
YKK_A1
100
AcDbLine
 10
16901.99390168
 20
18220.9363281
 30
0.0
 11
16901.99390168
 21
17058.93639736
 31
0.0
  0
LINE
  5
28A
330
2
100
AcDbEntity
  8
YKK_A1
100
AcDbLine
 10
16929.99390001
 20
17058.93639736
 30
0.0
 11
16929.99390001
 21
18220.9363281
 31
0.0
  0
LINE
  5
28B
330
2
100
AcDbEntity
  8
YKK_A1
  6
NITENSAP
100
AcDbLine
 10
17367.79387391
 20
17639.93636273
 30
0.0
 11
16914.79390091
 21
17058.93639736
 31
0.0
  0
CIRCLE
  5
28C
330
2
100
AcDbEntity
  8
YKK_F1
100
AcDbCircle
 10
15250.039
 20
13912.9363
 30
0.0
 40
233.3333333333333
  0
TEXT
  5
28D
330
2
100
AcDbEntity
  8
YKK_F1
100
AcDbText
 10
15090.039
 20
13712.9363
 30
0.0
 40
160.0
  1
ＳＤ
  7
EXTFONT
100
AcDbText
  0
TEXT
  5
28E
330
2
100
AcDbEntity
  8
YKK_F1
100
AcDbText
 10
18970.039
 20
13687.9363
 30
0.0
 40
200.0
  1
箇所
  7
EXTFONT
100
AcDbText
  0
TEXT
  5
28F
330
2
100
AcDbEntity
  8
0
100
AcDbText
 10
18550.039
 20
13687.9363
 30
0.0
 40
200.0
  1
＊
  7
EXTFONT
100
AcDbText
  0
TEXT
  5
290
330
2
100
AcDbEntity
  8
0
100
AcDbText
 10
14950.039
 20
13437.9363
 30
0.0
 40
200.0
  1
＊
  7
EXTFONT
100
AcDbText
  0
TEXT
  5
291
330
2
100
AcDbEntity
  8
0
100
AcDbText
 10
18250.039
 20
13437.9363
 30
0.0
 40
200.0
  1
＊
  7
EXTFONT
100
AcDbText
  0
TEXT
  5
292
330
2
100
AcDbEntity
  8
0
100
AcDbText
 10
14950.039
 20
15937.9363
 30
0.0
 40
190.0
  1
W=900 H=1150 扉厚25(枠見込33)
  7
EXTFONT
100
AcDbText
  0
TEXT
  5
293
330
2
100
AcDbEntity
  8
0
100
AcDbText
 10
14950.039
 20
14437.9363
 30
0.0
 40
200.0
  1
煽り止めチェーン・本締錠
  7
EXTFONT
100
AcDbText
  0
TEXT
  5
294
330
2
100
AcDbEntity
  8
0
100
AcDbText
 10
14950.039
 20
14687.9363
 30
0.0
 40
140.0
  1
ケースハンドル･ピボットヒンジﾞ・自閉式スプリング丁番・
  7
EXTFONT
100
AcDbText
  0
TEXT
  5
295
330
2
100
AcDbEntity
  8
0
100
AcDbText
 10
14950.039
 20
14937.9363
 30
0.0
 40
180.0
  1
平面ハンドル・旗丁番・戸当りゴム・丸落し
  7
EXTFONT
100
AcDbText
  0
TEXT
  5
296
330
2
100
AcDbEntity
  8
0
100
AcDbText
 10
14950.039
 20
15437.9363
 30
0.0
 40
190.0
  1
防錆塗装・カチオン電着塗装・吹付け塗装
  7
EXTFONT
100
AcDbText
  0
TEXT
  5
297
330
2
100
AcDbEntity
  8
0
100
AcDbText
 10
14950.039
 20
15687.9363
 30
0.0
 40
180.0
  1
溶融亜鉛メッキ鋼板・枠(扉)板厚1.2ミリ
  7
EXTFONT
100
AcDbText
  0
LINE
  5
298
330
2
100
AcDbEntity
  8
YKK_N1
  6
Continuous
100
AcDbLine
 10
16461.79392792
 20
16828.93639915
 30
0.0
 11
17361.79391266
 21
16828.93639915
 31
0.0
  0
LINE
  5
299
330
2
100
AcDbEntity
  8
YKK_A1
100
AcDbLine
 10
17367.79387391
 20
17058.93639736
 30
0.0
 11
16455.79392827
 21
17058.93639736
 31
0.0
  0
LINE
  5
29A
330
2
100
AcDbEntity
  8
YKK_A1
100
AcDbLine
 10
17371.79387368
 20
17053.93639766
 30
0.0
 11
16451.79392851
 21
17053.93639766
 31
0.0
  0
LINE
  5
29B
330
2
100
AcDbEntity
  8
YKK_A1
100
AcDbLine
 10
16426.79393
 20
17028.93639915
 30
0.0
 11
17396.79387218
 21
17028.93639915
 31
0.0
  0
TEXT
  5
29C
330
2
100
AcDbEntity
  8
0
100
AcDbText
 10
14950.039
 20
14187.9363
 30
0.0
 40
200.0
  1
ＹＫＫＡＰ　点検口　同等品
  7
EXTFONT
100
AcDbText
  0
LINE
  5
29D
330
2
100
AcDbEntity
  8
YKK_F1
  6
Continuous
100
AcDbLine
 10
15016.70566667
 20
13912.9363
 30
0.0
 11
15483.37233333
 21
13912.9363
 31
0.0
  0
TEXT
  5
29E
330
2
100
AcDbEntity
  8
0
100
AcDbText
 10
15150.039
 20
13912.9363
 30
0.0
 40
200.0
  1
＊
  7
EXTFONT
100
AcDbText
  0
TEXT
  5
29F
330
2
100
AcDbEntity
  8
0
100
AcDbText
 10
14950.039
 20
15187.9363
 30
0.0
 40
200.0
  1
＊
  7
EXTFONT
100
AcDbText
  0
TEXT
  5
2A0
330
2
100
AcDbEntity
  8
0
100
AcDbText
 10
14950.039
 20
16187.9363
 30
0.0
 40
180.0
  1
点検口両開き
  7
EXTFONT
100
AcDbText
  0
TEXT
  5
2A1
330
2
100
AcDbEntity
  8
0
100
AcDbText
 10
14950.039
 20
16437.9363
 30
0.0
 40
180.0
  1
2PT SAB
  7
EXTFONT
100
AcDbText
  0
LINE
  5
2A2
330
2
100
AcDbEntity
  8
YKK_A1
100
AcDbLine
 10
16461.79392792
 20
17028.93639915
 30
0.0
 11
16461.79392792
 21
17038.10804585
 31
0.0
  0
LINE
  5
2A3
330
2
100
AcDbEntity
  8
YKK_N1
  6
Continuous
100
AcDbLine
 10
16548.39648224
 20
16778.93639034
 30
0.0
 11
16461.79392792
 21
16828.93639915
 31
0.0
  0
LINE
  5
2A4
330
2
100
AcDbEntity
  8
YKK_N1
  6
Continuous
100
AcDbLine
 10
16461.79392792
 20
16953.93639915
 30
0.0
 11
16461.79392792
 21
16828.93639915
 31
0.0
  0
LINE
  5
2A5
330
2
100
AcDbEntity
  8
YKK_N1
  6
Continuous
100
AcDbLine
 10
16461.79392792
 20
16828.93639915
 30
0.0
 11
16548.39648224
 21
16878.93639915
 31
0.0
  0
LINE
  5
2A6
330
2
100
AcDbEntity
  8
YKK_N1
100
AcDbLine
 10
16548.39648224
 20
16878.93639915
 30
0.0
 11
16548.39648224
 21
16778.93639034
 31
0.0
  0
TEXT
  5
2A7
330
2
100
AcDbEntity
  8
YKK_N1
  6
Continuous
100
AcDbText
 10
16771.79392029
 20
16840.93639915
 30
0.0
 40
60.0
  1
W=900
 72
     4
 11
16911.79392029
 21
16870.93639915
 31
0.0
100
AcDbText
  0
LINE
  5
2A8
330
2
100
AcDbEntity
  8
YKK_A1
100
AcDbLine
 10
16908.79390127
 20
17053.93639766
 30
0.0
 11
16908.79390127
 21
17058.93639736
 31
0.0
  0
LINE
  5
2A9
330
2
100
AcDbEntity
  8
YKK_A1
100
AcDbLine
 10
16914.79390091
 20
17058.93639736
 30
0.0
 11
16914.79390091
 21
17053.93639766
 31
0.0
  0
LINE
  5
2AA
330
2
100
AcDbEntity
  8
YKK_A1
100
AcDbLine
 10
17361.79387427
 20
17028.93639915
 30
0.0
 11
17361.79387427
 21
17035.33861556
 31
0.0
  0
LINE
  5
2AB
330
2
100
AcDbEntity
  8
YKK_N1
  6
Continuous
100
AcDbLine
 10
17275.19135834
 20
16778.93639034
 30
0.0
 11
17361.79391266
 21
16828.93639915
 31
0.0
  0
LINE
  5
2AC
330
2
100
AcDbEntity
  8
YKK_N1
  6
Continuous
100
AcDbLine
 10
17361.79391266
 20
16953.93639915
 30
0.0
 11
17361.79391266
 21
16828.93639915
 31
0.0
  0
LINE
  5
2AD
330
2
100
AcDbEntity
  8
YKK_N1
  6
Continuous
100
AcDbLine
 10
17361.79391266
 20
16828.93639915
 30
0.0
 11
17275.19135834
 21
16878.93639915
 31
0.0
  0
LINE
  5
2AE
330
2
100
AcDbEntity
  8
YKK_N1
100
AcDbLine
 10
17275.19135834
 20
16878.93639915
 30
0.0
 11
17275.19135834
 21
16778.93639034
 31
0.0
  0
TEXT
  5
2AF
330
2
100
AcDbEntity
  8
YKK_F1
100
AcDbText
 10
23620.039
 20
13687.9363
 30
0.0
 40
200.0
  1
箇所
  7
EXTFONT
100
AcDbText
  0
TEXT
  5
2B0
330
2
100
AcDbEntity
  8
YKK_F1
100
AcDbText
 10
19740.039
 20
13712.9363
 30
0.0
 40
160.0
  1
ＳＤ
  7
EXTFONT
100
AcDbText
  0
CIRCLE
  5
2B1
330
2
100
AcDbEntity
  8
YKK_F1
100
AcDbCircle
 10
19900.039
 20
13912.9363
 30
0.0
 40
233.3333333333333
  0
TEXT
  5
2B2
330
2
100
AcDbEntity
  8
0
100
AcDbText
 10
23200.039
 20
13687.9363
 30
0.0
 40
200.0
  1
＊
  7
EXTFONT
100
AcDbText
  0
TEXT
  5
2B3
330
2
100
AcDbEntity
  8
0
100
AcDbText
 10
19600.039
 20
13437.9363
 30
0.0
 40
200.0
  1
＊
  7
EXTFONT
100
AcDbText
  0
TEXT
  5
2B4
330
2
100
AcDbEntity
  8
0
100
AcDbText
 10
22900.039
 20
13437.9363
 30
0.0
 40
200.0
  1
＊
  7
EXTFONT
100
AcDbText
  0
TEXT
  5
2B5
330
2
100
AcDbEntity
  8
0
100
AcDbText
 10
19600.039
 20
15937.9363
 30
0.0
 40
190.0
  1
W=900 H=1900 扉厚25(枠見込33)
  7
EXTFONT
100
AcDbText
  0
TEXT
  5
2B6
330
2
100
AcDbEntity
  8
0
100
AcDbText
 10
19600.039
 20
14437.9363
 30
0.0
 40
200.0
  1
煽り止めチェーン・本締錠
  7
EXTFONT
100
AcDbText
  0
TEXT
  5
2B7
330
2
100
AcDbEntity
  8
0
100
AcDbText
 10
19600.039
 20
14687.9363
 30
0.0
 40
140.0
  1
ケースハンドル･ピボットヒンジﾞ・自閉式スプリング丁番・
  7
EXTFONT
100
AcDbText
  0
TEXT
  5
2B8
330
2
100
AcDbEntity
  8
0
100
AcDbText
 10
19600.039
 20
14937.9363
 30
0.0
 40
180.0
  1
平面ハンドル・旗丁番・戸当りゴム・丸落し
  7
EXTFONT
100
AcDbText
  0
TEXT
  5
2B9
330
2
100
AcDbEntity
  8
0
100
AcDbText
 10
19600.039
 20
15437.9363
 30
0.0
 40
190.0
  1
防錆塗装・カチオン電着塗装・吹付け塗装
  7
EXTFONT
100
AcDbText
  0
TEXT
  5
2BA
330
2
100
AcDbEntity
  8
0
100
AcDbText
 10
19600.039
 20
15687.9363
 30
0.0
 40
180.0
  1
溶融亜鉛メッキ鋼板・枠(扉)板厚1.2ミリ
  7
EXTFONT
100
AcDbText
  0
LINE
  5
2BB
330
2
100
AcDbEntity
  8
YKK_N1
  6
Continuous
100
AcDbLine
 10
21111.79403417
 20
16828.93623633
 30
0.0
 11
22011.79401892
 21
16828.93623633
 31
0.0
  0
LINE
  5
2BC
330
2
100
AcDbEntity
  8
YKK_A1
100
AcDbLine
 10
22017.79398017
 20
17058.93623454
 30
0.0
 11
21105.79403453
 21
17058.93623454
 31
0.0
  0
LINE
  5
2BD
330
2
100
AcDbEntity
  8
YKK_A1
100
AcDbLine
 10
21076.79403626
 20
17028.93623633
 30
0.0
 11
22046.79397844
 21
17028.93623633
 31
0.0
  0
LINE
  5
2BE
330
2
100
AcDbEntity
  8
YKK_A1
100
AcDbLine
 10
22021.79397993
 20
17053.93623484
 30
0.0
 11
21101.79403477
 21
17053.93623484
 31
0.0
  0
TEXT
  5
2BF
330
2
100
AcDbEntity
  8
0
100
AcDbText
 10
19600.039
 20
14187.9363
 30
0.0
 40
200.0
  1
ＹＫＫＡＰ　点検口　同等品
  7
EXTFONT
100
AcDbText
  0
LINE
  5
2C0
330
2
100
AcDbEntity
  8
YKK_F1
  6
Continuous
100
AcDbLine
 10
19666.70566667
 20
13912.9363
 30
0.0
 11
20133.37233333
 21
13912.9363
 31
0.0
  0
TEXT
  5
2C1
330
2
100
AcDbEntity
  8
0
100
AcDbText
 10
19800.039
 20
13912.9363
 30
0.0
 40
200.0
  1
＊
  7
EXTFONT
100
AcDbText
  0
TEXT
  5
2C2
330
2
100
AcDbEntity
  8
0
100
AcDbText
 10
19600.039
 20
15187.9363
 30
0.0
 40
200.0
  1
＊
  7
EXTFONT
100
AcDbText
  0
TEXT
  5
2C3
330
2
100
AcDbEntity
  8
0
100
AcDbText
 10
19600.039
 20
16187.9363
 30
0.0
 40
180.0
  1
点検口両開き
  7
EXTFONT
100
AcDbText
  0
TEXT
  5
2C4
330
2
100
AcDbEntity
  8
0
100
AcDbText
 10
19600.039
 20
16437.9363
 30
0.0
 40
180.0
  1
2PT SAB
  7
EXTFONT
100
AcDbText
  0
LINE
  5
2C5
330
2
100
AcDbEntity
  8
YKK_A1
100
AcDbLine
 10
21111.79403417
 20
17028.93623633
 30
0.0
 11
21111.79403417
 21
17038.10788304
 31
0.0
  0
LINE
  5
2C6
330
2
100
AcDbEntity
  8
YKK_N1
  6
Continuous
100
AcDbLine
 10
21198.3965885
 20
16778.93622752
 30
0.0
 11
21111.79403417
 21
16828.93623633
 31
0.0
  0
LINE
  5
2C7
330
2
100
AcDbEntity
  8
YKK_N1
  6
Continuous
100
AcDbLine
 10
21111.79403417
 20
16828.93623633
 30
0.0
 11
21198.3965885
 21
16878.93623633
 31
0.0
  0
LINE
  5
2C8
330
2
100
AcDbEntity
  8
YKK_N1
  6
Continuous
100
AcDbLine
 10
21111.79403417
 20
16953.93623633
 30
0.0
 11
21111.79403417
 21
16828.93623633
 31
0.0
  0
LINE
  5
2C9
330
2
100
AcDbEntity
  8
YKK_N1
100
AcDbLine
 10
21198.3965885
 20
16878.93623633
 30
0.0
 11
21198.3965885
 21
16778.93622752
 31
0.0
  0
TEXT
  5
2CA
330
2
100
AcDbEntity
  8
YKK_N1
  6
Continuous
100
AcDbText
 10
21421.79402654
 20
16840.93623633
 30
0.0
 40
60.0
  1
W=900
 72
     4
 11
21561.79402654
 21
16870.93623633
 31
0.0
100
AcDbText
  0
LINE
  5
2CB
330
2
100
AcDbEntity
  8
YKK_A1
100
AcDbLine
 10
21558.79400753
 20
17053.93623484
 30
0.0
 11
21558.79400753
 21
17058.93623454
 31
0.0
  0
LINE
  5
2CC
330
2
100
AcDbEntity
  8
YKK_A1
100
AcDbLine
 10
21564.79400717
 20
17058.93623454
 30
0.0
 11
21564.79400717
 21
17053.93623484
 31
0.0
  0
LINE
  5
2CD
330
2
100
AcDbEntity
  8
YKK_A1
100
AcDbLine
 10
22011.79398053
 20
17028.93623633
 30
0.0
 11
22011.79398053
 21
17034.52683968
 31
0.0
  0
LINE
  5
2CE
330
2
100
AcDbEntity
  8
YKK_N1
  6
Continuous
100
AcDbLine
 10
21925.19146459
 20
16778.93622752
 30
0.0
 11
22011.79401892
 21
16828.93623633
 31
0.0
  0
LINE
  5
2CF
330
2
100
AcDbEntity
  8
YKK_N1
  6
Continuous
100
AcDbLine
 10
22011.79401892
 20
16953.93623633
 30
0.0
 11
22011.79401892
 21
16828.93623633
 31
0.0
  0
LINE
  5
2D0
330
2
100
AcDbEntity
  8
YKK_N1
  6
Continuous
100
AcDbLine
 10
22011.79401892
 20
16828.93623633
 30
0.0
 11
21925.19146459
 21
16878.93623633
 31
0.0
  0
LINE
  5
2D1
330
2
100
AcDbEntity
  8
YKK_N1
100
AcDbLine
 10
21925.19146459
 20
16878.93623633
 30
0.0
 11
21925.19146459
 21
16778.93622752
 31
0.0
  0
LINE
  5
2D2
330
2
100
AcDbEntity
  8
YKK_A1
  6
NITENSAP
100
AcDbLine
 10
16914.79390091
 20
18220.9363281
 30
0.0
 11
17367.79387391
 21
17639.93636273
 31
0.0
  0
LINE
  5
2D3
330
2
100
AcDbEntity
  8
YKK_A1
100
AcDbLine
 10
17396.79387218
 20
18248.93632643
 30
0.0
 11
16426.79393
 21
18248.93632643
 31
0.0
  0
LINE
  5
2D4
330
2
100
AcDbEntity
  8
YKK_A1
100
AcDbLine
 10
16455.79392827
 20
18220.9363281
 30
0.0
 11
17367.79387391
 21
18220.9363281
 31
0.0
  0
LINE
  5
2D5
330
2
100
AcDbEntity
  8
YKK_A1
100
AcDbLine
 10
16451.79392851
 20
18223.93632792
 30
0.0
 11
17371.79387368
 21
18223.93632792
 31
0.0
  0
LINE
  5
2D6
330
2
100
AcDbEntity
  8
YKK_A1
100
AcDbLine
 10
16451.79392851
 20
18042.93633871
 30
0.0
 11
16451.79392851
 21
17236.93638675
 31
0.0
  0
LINE
  5
2D7
330
2
100
AcDbEntity
  8
YKK_A1
100
AcDbLine
 10
16455.79392827
 20
18042.93633871
 30
0.0
 11
16455.79392827
 21
17236.93638675
 31
0.0
  0
LINE
  5
2D8
330
2
100
AcDbEntity
  8
YKK_A1
  6
NITENSAP
100
AcDbLine
 10
16908.79390127
 20
18220.9363281
 30
0.0
 11
16455.79392827
 21
17639.93636273
 31
0.0
  0
LINE
  5
2D9
330
2
100
AcDbEntity
  8
YKK_A2
100
AcDbLine
 10
16459.19392807
 20
17236.93638675
 30
0.0
 11
16448.19392873
 21
17236.93638675
 31
0.0
  0
LINE
  5
2DA
330
2
100
AcDbEntity
  8
YKK_A2
100
AcDbLine
 10
16448.19392873
 20
17156.93639152
 30
0.0
 11
16459.19392807
 21
17156.93639152
 31
0.0
  0
LINE
  5
2DB
330
2
100
AcDbEntity
  8
YKK_A2
100
AcDbLine
 10
16448.19392873
 20
17196.93638914
 30
0.0
 11
16459.19392807
 21
17196.93638914
 31
0.0
  0
LINE
  5
2DC
330
2
100
AcDbEntity
  8
YKK_A2
100
AcDbLine
 10
16459.19392807
 20
17156.93639152
 30
0.0
 11
16459.19392807
 21
17236.93638675
 31
0.0
  0
LINE
  5
2DD
330
2
100
AcDbEntity
  8
YKK_A2
100
AcDbLine
 10
16448.19392873
 20
17236.93638675
 30
0.0
 11
16448.19392873
 21
17156.93639152
 31
0.0
  0
LINE
  5
2DE
330
2
100
AcDbEntity
  8
YKK_A2
  6
ITTENSAP
100
AcDbLine
 10
16915.99390084
 20
17639.93636273
 30
0.0
 11
17025.99389429
 21
17639.93636273
 31
0.0
  0
LINE
  5
2DF
330
2
100
AcDbEntity
  8
YKK_A2
  6
ITTENSAP
100
AcDbLine
 10
16919.79390062
 20
17639.93636273
 30
0.0
 11
17019.79389466
 21
17639.93636273
 31
0.0
  0
LINE
  5
2E0
330
2
100
AcDbEntity
  8
YKK_A2
100
AcDbLine
 10
16951.9938987
 20
17644.83534192
 30
0.0
 11
16951.9938987
 21
17635.03738354
 31
0.0
  0
LINE
  5
2E1
330
2
100
AcDbEntity
  8
YKK_A2
100
AcDbLine
 10
16953.99389858
 20
17644.83534192
 30
0.0
 11
16953.99389858
 21
17635.03738354
 31
0.0
  0
LINE
  5
2E2
330
2
100
AcDbEntity
  8
YKK_A2
100
AcDbLine
 10
16953.99389858
 20
17643.80934585
 30
0.0
 11
16951.9938987
 21
17643.80934585
 31
0.0
  0
LINE
  5
2E3
330
2
100
AcDbEntity
  8
YKK_A2
100
AcDbLine
 10
16953.99389858
 20
17636.06337962
 30
0.0
 11
16951.9938987
 21
17636.06337962
 31
0.0
  0
ARC
  5
2E4
330
2
100
AcDbEntity
  8
YKK_A2
100
AcDbCircle
 10
16968.94770069
 20
17665.30163222
 30
0.0
 40
1.499999910598234
100
AcDbArc
 50
94.742321
 51
175.55526553
  0
ARC
  5
2E5
330
2
100
AcDbEntity
  8
YKK_A2
100
AcDbCircle
 10
17216.24388295
 20
17640.19507472
 30
0.0
 40
249.9999850988646
100
AcDbArc
 50
175.53441592
 51
180.0
  0
ARC
  5
2E6
330
2
100
AcDbEntity
  8
YKK_A2
100
AcDbCircle
 10
16970.99389756
 20
17639.93636273
 30
0.0
 40
7.499999552965164
100
AcDbArc
 50
308.680815
 51
51.319185
  0
ARC
  5
2E7
330
2
100
AcDbEntity
  8
YKK_A2
100
AcDbCircle
 10
16952.99389864
 20
17639.93636273
 30
0.0
 40
4.999999701976488
100
AcDbArc
 50
101.53695903
 51
258.46304097
  0
LINE
  5
2E8
330
2
100
AcDbEntity
  8
YKK_A2
100
AcDbLine
 10
16973.1641064
 20
17666.79649702
 30
0.0
 11
16968.82368873
 21
17666.79649702
 31
0.0
  0
ARC
  5
2E9
330
2
100
AcDbEntity
  8
YKK_A2
100
AcDbCircle
 10
16970.99389756
 20
17639.93636273
 30
0.0
 40
7.499999552965164
100
AcDbArc
 50
128.680815
 51
231.319185
  0
ARC
  5
2EA
330
2
100
AcDbEntity
  8
YKK_A2
100
AcDbCircle
 10
16725.74391218
 20
17640.19507472
 30
0.0
 40
249.9999850988646
100
AcDbArc
 50
0.0
 51
4.46558408
  0
ARC
  5
2EB
330
2
100
AcDbEntity
  8
YKK_A2
100
AcDbCircle
 10
16973.04009444
 20
17665.30163222
 30
0.0
 40
1.499999910598234
100
AcDbArc
 50
4.44473447
 51
85.257679
  0
ARC
  5
2EC
330
2
100
AcDbEntity
  8
YKK_A2
100
AcDbCircle
 10
16952.99389864
 20
17639.93636273
 30
0.0
 40
4.999999701976488
100
AcDbArc
 50
281.53695903
 51
78.46304097
  0
LINE
  5
2ED
330
2
100
AcDbEntity
  8
YKK_A2
100
AcDbLine
 10
16967.45221195
 20
17665.41787841
 30
0.0
 11
16967.0028273
 21
17659.66013908
 31
0.0
  0
LINE
  5
2EE
330
2
100
AcDbEntity
  8
YKK_A2
100
AcDbLine
 10
16966.24389785
 20
17640.19507472
 30
0.0
 11
16966.24389785
 21
17639.67765075
 31
0.0
  0
LINE
  5
2EF
330
2
100
AcDbEntity
  8
YKK_A2
100
AcDbLine
 10
16975.74389728
 20
17639.67765075
 30
0.0
 11
16975.74389728
 21
17640.19507472
 31
0.0
  0
LINE
  5
2F0
330
2
100
AcDbEntity
  8
YKK_A2
100
AcDbLine
 10
16974.98496783
 20
17659.66013908
 30
0.0
 11
16974.53558318
 21
17665.41787841
 31
0.0
  0
LINE
  5
2F1
330
2
100
AcDbEntity
  8
YKK_A2
100
AcDbLine
 10
16967.0028273
 20
17620.21258638
 30
0.0
 11
16967.45228564
 21
17614.45390298
 31
0.0
  0
LINE
  5
2F2
330
2
100
AcDbEntity
  8
YKK_A2
100
AcDbLine
 10
16968.82468886
 20
17613.07614581
 30
0.0
 11
16973.16310627
 21
17613.07614581
 31
0.0
  0
ARC
  5
2F3
330
2
100
AcDbEntity
  8
YKK_A2
100
AcDbCircle
 10
16968.94770069
 20
17614.57109324
 30
0.0
 40
1.499999910567033
100
AcDbArc
 50
184.48090478
 51
265.29601127
  0
ARC
  5
2F4
330
2
100
AcDbEntity
  8
YKK_A2
100
AcDbCircle
 10
16973.04009444
 20
17614.57109324
 30
0.0
 40
1.499999910567033
100
AcDbArc
 50
274.70398873
 51
355.51909522
  0
LINE
  5
2F5
330
2
100
AcDbEntity
  8
YKK_A2
100
AcDbLine
 10
16974.53550949
 20
17614.45390298
 30
0.0
 11
16974.98496783
 21
17620.21258638
 31
0.0
  0
CIRCLE
  5
2F6
330
2
100
AcDbEntity
  8
YKK_A2
100
AcDbCircle
 10
16970.99389756
 20
17639.93636273
 30
0.0
 40
37.9999977350235
  0
CIRCLE
  5
2F7
330
2
100
AcDbEntity
  8
YKK_A2
100
AcDbCircle
 10
16970.99389756
 20
17639.93636273
 30
0.0
 40
27.99999833106996
  0
CIRCLE
  5
2F8
330
2
100
AcDbEntity
  8
YKK_A2
100
AcDbCircle
 10
16970.99389756
 20
17639.93636273
 30
0.0
 40
28.9999982714653
  0
ARC
  5
2F9
330
2
100
AcDbEntity
  8
YKK_A2
100
AcDbCircle
 10
17216.24388295
 20
17639.67765075
 30
0.0
 40
249.9999850988182
100
AcDbArc
 50
180.0
 51
184.46558408
  0
ARC
  5
2FA
330
2
100
AcDbEntity
  8
YKK_A2
100
AcDbCircle
 10
16725.74391218
 20
17639.67765075
 30
0.0
 40
249.9999850988182
100
AcDbArc
 50
355.53441592
 51
0.0
  0
LINE
  5
2FB
330
2
100
AcDbEntity
  8
YKK_A2
  6
ITTENSAP
100
AcDbLine
 10
16970.99389756
 20
17584.93636601
 30
0.0
 11
16970.99389756
 21
17694.93635945
 31
0.0
  0
LINE
  5
2FC
330
2
100
AcDbEntity
  8
YKK_A2
100
AcDbLine
 10
16459.19392807
 20
18122.93633394
 30
0.0
 11
16459.19392807
 21
18042.93633871
 31
0.0
  0
LINE
  5
2FD
330
2
100
AcDbEntity
  8
YKK_A2
100
AcDbLine
 10
16448.19392873
 20
18122.93633394
 30
0.0
 11
16459.19392807
 21
18122.93633394
 31
0.0
  0
LINE
  5
2FE
330
2
100
AcDbEntity
  8
YKK_A2
100
AcDbLine
 10
16448.19392873
 20
18042.93633871
 30
0.0
 11
16448.19392873
 21
18122.93633394
 31
0.0
  0
LINE
  5
2FF
330
2
100
AcDbEntity
  8
YKK_A2
100
AcDbLine
 10
16459.19392807
 20
18042.93633871
 30
0.0
 11
16448.19392873
 21
18042.93633871
 31
0.0
  0
LINE
  5
300
330
2
100
AcDbEntity
  8
YKK_A2
100
AcDbLine
 10
16448.19392873
 20
18082.93633633
 30
0.0
 11
16459.19392807
 21
18082.93633633
 31
0.0
  0
LINE
  5
301
330
2
100
AcDbEntity
  8
YKK_A1
100
AcDbLine
 10
16451.79392851
 20
18248.93632643
 30
0.0
 11
16451.79392851
 21
18122.93633394
 31
0.0
  0
LINE
  5
302
330
2
100
AcDbEntity
  8
YKK_A1
100
AcDbLine
 10
16455.79392827
 20
18220.9363281
 30
0.0
 11
16455.79392827
 21
18122.93633394
 31
0.0
  0
TEXT
  5
303
330
2
100
AcDbEntity
  8
0
100
AcDbText
 10
14950.039
 20
19392.9363
 30
0.0
 40
200.0
  1
＊
  7
EXTFONT
100
AcDbText
  0
LINE
  5
304
330
2
100
AcDbEntity
  8
YKK_F1
  6
Continuous
100
AcDbLine
 10
15016.70566667
 20
19867.9363
 30
0.0
 11
15483.37233333
 21
19867.9363
 31
0.0
  0
CIRCLE
  5
305
330
2
100
AcDbEntity
  8
YKK_F1
100
AcDbCircle
 10
15250.039
 20
19867.9363
 30
0.0
 40
233.3333333333333
  0
TEXT
  5
306
330
2
100
AcDbEntity
  8
0
100
AcDbText
 10
15150.039
 20
19867.9363
 30
0.0
 40
200.0
  1
＊
  7
EXTFONT
100
AcDbText
  0
TEXT
  5
307
330
2
100
AcDbEntity
  8
YKK_F1
100
AcDbText
 10
15090.039
 20
19667.9363
 30
0.0
 40
160.0
  1
ＳＤ
  7
EXTFONT
100
AcDbText
  0
LINE
  5
308
330
2
100
AcDbEntity
  8
YKK_A1
100
AcDbLine
 10
17371.79387368
 20
18042.93633871
 30
0.0
 11
17371.79387368
 21
17236.93638675
 31
0.0
  0
LINE
  5
309
330
2
100
AcDbEntity
  8
YKK_A1
100
AcDbLine
 10
17367.79387391
 20
18042.93633871
 30
0.0
 11
17367.79387391
 21
17236.93638675
 31
0.0
  0
LINE
  5
30A
330
2
100
AcDbEntity
  8
YKK_N1
  6
Continuous
100
AcDbLine
 10
17596.79393322
 20
18213.93632852
 30
0.0
 11
17596.79393322
 21
17063.93626748
 31
0.0
  0
LINE
  5
30B
330
2
100
AcDbEntity
  8
YKK_A2
100
AcDbLine
 10
17364.19387413
 20
17236.93638675
 30
0.0
 11
17375.19387347
 21
17236.93638675
 31
0.0
  0
LINE
  5
30C
330
2
100
AcDbEntity
  8
YKK_A2
100
AcDbLine
 10
17375.19387347
 20
17156.93639152
 30
0.0
 11
17364.19387413
 21
17156.93639152
 31
0.0
  0
LINE
  5
30D
330
2
100
AcDbEntity
  8
YKK_A2
100
AcDbLine
 10
17375.19387347
 20
17196.93638914
 30
0.0
 11
17364.19387413
 21
17196.93638914
 31
0.0
  0
LINE
  5
30E
330
2
100
AcDbEntity
  8
YKK_A2
100
AcDbLine
 10
17364.19387413
 20
17156.93639152
 30
0.0
 11
17364.19387413
 21
17236.93638675
 31
0.0
  0
LINE
  5
30F
330
2
100
AcDbEntity
  8
YKK_A2
100
AcDbLine
 10
17375.19387347
 20
17236.93638675
 30
0.0
 11
17375.19387347
 21
17156.93639152
 31
0.0
  0
LINE
  5
310
330
2
100
AcDbEntity
  8
YKK_A1
100
AcDbLine
 10
17396.79387218
 20
17063.93639706
 30
0.0
 11
17387.89395346
 21
17063.93639706
 31
0.0
  0
LINE
  5
311
330
2
100
AcDbEntity
  8
YKK_N1
  6
Continuous
100
AcDbLine
 10
17596.79393322
 20
17063.93626748
 30
0.0
 11
17546.79393322
 21
17150.5388218
 31
0.0
  0
LINE
  5
312
330
2
100
AcDbEntity
  8
YKK_N1
  6
Continuous
100
AcDbLine
 10
17646.79394203
 20
17150.5388218
 30
0.0
 11
17596.79393322
 21
17063.93626748
 31
0.0
  0
LINE
  5
313
330
2
100
AcDbEntity
  8
YKK_N1
100
AcDbLine
 10
17546.79393322
 20
17150.5388218
 30
0.0
 11
17646.79394203
 21
17150.5388218
 31
0.0
  0
LINE
  5
314
330
2
100
AcDbEntity
  8
YKK_N1
  6
Continuous
100
AcDbLine
 10
17471.79387218
 20
17063.93626748
 30
0.0
 11
17596.79393322
 21
17063.93626748
 31
0.0
  0
TEXT
  5
315
330
2
100
AcDbEntity
  8
YKK_N1
  6
Continuous
100
AcDbText
 10
17584.79393956
 20
17500.8864216
 30
0.0
 40
60.0
  1
H=1150
 50
90.0000025
 72
     4
 11
17554.79393322
 21
17645.88642029
 31
0.0
100
AcDbText
  0
LINE
  5
316
330
2
100
AcDbEntity
  8
YKK_A2
100
AcDbLine
 10
17364.19387413
 20
18122.93633394
 30
0.0
 11
17364.19387413
 21
18042.93633871
 31
0.0
  0
LINE
  5
317
330
2
100
AcDbEntity
  8
YKK_A2
100
AcDbLine
 10
17375.19387347
 20
18122.93633394
 30
0.0
 11
17364.19387413
 21
18122.93633394
 31
0.0
  0
LINE
  5
318
330
2
100
AcDbEntity
  8
YKK_A2
100
AcDbLine
 10
17375.19387347
 20
18042.93633871
 30
0.0
 11
17375.19387347
 21
18122.93633394
 31
0.0
  0
LINE
  5
319
330
2
100
AcDbEntity
  8
YKK_A2
100
AcDbLine
 10
17364.19387413
 20
18042.93633871
 30
0.0
 11
17375.19387347
 21
18042.93633871
 31
0.0
  0
LINE
  5
31A
330
2
100
AcDbEntity
  8
YKK_A2
100
AcDbLine
 10
17375.19387347
 20
18082.93633633
 30
0.0
 11
17364.19387413
 21
18082.93633633
 31
0.0
  0
LINE
  5
31B
330
2
100
AcDbEntity
  8
YKK_A1
100
AcDbLine
 10
17396.79387218
 20
18213.93632852
 30
0.0
 11
17382.81313105
 21
18213.93632852
 31
0.0
  0
LINE
  5
31C
330
2
100
AcDbEntity
  8
YKK_A1
100
AcDbLine
 10
17371.79387368
 20
18248.93632643
 30
0.0
 11
17371.79387368
 21
18122.93633394
 31
0.0
  0
LINE
  5
31D
330
2
100
AcDbEntity
  8
YKK_A1
100
AcDbLine
 10
17367.79387391
 20
18220.9363281
 30
0.0
 11
17367.79387391
 21
18122.93633394
 31
0.0
  0
LINE
  5
31E
330
2
100
AcDbEntity
  8
YKK_N1
  6
Continuous
100
AcDbLine
 10
17596.79393322
 20
18213.93632852
 30
0.0
 11
17546.79393322
 21
18127.3337742
 31
0.0
  0
LINE
  5
31F
330
2
100
AcDbEntity
  8
YKK_N1
  6
Continuous
100
AcDbLine
 10
17646.79394203
 20
18127.3337742
 30
0.0
 11
17596.79393322
 21
18213.93632852
 31
0.0
  0
LINE
  5
320
330
2
100
AcDbEntity
  8
YKK_N1
100
AcDbLine
 10
17546.79393322
 20
18127.3337742
 30
0.0
 11
17646.79394203
 21
18127.3337742
 31
0.0
  0
LINE
  5
321
330
2
100
AcDbEntity
  8
YKK_N1
  6
Continuous
100
AcDbLine
 10
17471.79387218
 20
18213.93632852
 30
0.0
 11
17596.79393322
 21
18213.93632852
 31
0.0
  0
TEXT
  5
322
330
2
100
AcDbEntity
  8
0
100
AcDbText
 10
18250.039
 20
19392.9363
 30
0.0
 40
200.0
  1
＊
  7
EXTFONT
100
AcDbText
  0
TEXT
  5
323
330
2
100
AcDbEntity
  8
0
100
AcDbText
 10
18550.039
 20
19642.9363
 30
0.0
 40
200.0
  1
＊
  7
EXTFONT
100
AcDbText
  0
TEXT
  5
324
330
2
100
AcDbEntity
  8
YKK_F1
100
AcDbText
 10
18970.039
 20
19642.9363
 30
0.0
 40
200.0
  1
箇所
  7
EXTFONT
100
AcDbText
  0
LINE
  5
325
330
2
100
AcDbEntity
  8
YKK_A1
  6
NITENSAP
100
AcDbLine
 10
21564.79400717
 20
18970.93612058
 30
0.0
 11
22017.79398017
 21
18014.93617756
 31
0.0
  0
LINE
  5
326
330
2
100
AcDbEntity
  8
YKK_A1
100
AcDbLine
 10
22046.79397844
 20
18998.93611891
 30
0.0
 11
21076.79403626
 21
18998.93611891
 31
0.0
  0
LINE
  5
327
330
2
100
AcDbEntity
  8
YKK_A1
100
AcDbLine
 10
21105.79403453
 20
18970.93612058
 30
0.0
 11
22017.79398017
 21
18970.93612058
 31
0.0
  0
LINE
  5
328
330
2
100
AcDbEntity
  8
YKK_A1
100
AcDbLine
 10
21101.79403477
 20
18973.9361204
 30
0.0
 11
22021.79397993
 21
18973.9361204
 31
0.0
  0
LINE
  5
329
330
2
100
AcDbEntity
  8
YKK_A1
  6
NITENSAP
100
AcDbLine
 10
21558.79400753
 20
18970.93612058
 30
0.0
 11
21105.79403453
 21
18014.93617756
 31
0.0
  0
LINE
  5
32A
330
2
100
AcDbEntity
  8
YKK_A1
100
AcDbLine
 10
21101.79403477
 20
18792.93613119
 30
0.0
 11
21101.79403477
 21
18054.93617518
 31
0.0
  0
LINE
  5
32B
330
2
100
AcDbEntity
  8
YKK_A1
100
AcDbLine
 10
21105.79403453
 20
18792.93613119
 30
0.0
 11
21105.79403453
 21
18054.93617518
 31
0.0
  0
LINE
  5
32C
330
2
100
AcDbEntity
  8
YKK_A1
100
AcDbLine
 10
21101.79403477
 20
17974.93617994
 30
0.0
 11
21101.79403477
 21
17236.93622393
 31
0.0
  0
LINE
  5
32D
330
2
100
AcDbEntity
  8
YKK_A1
100
AcDbLine
 10
21105.79403453
 20
17974.93617994
 30
0.0
 11
21105.79403453
 21
17236.93622393
 31
0.0
  0
LINE
  5
32E
330
2
100
AcDbEntity
  8
YKK_A2
100
AcDbLine
 10
21109.19403433
 20
17236.93622393
 30
0.0
 11
21098.19403498
 21
17236.93622393
 31
0.0
  0
LINE
  5
32F
330
2
100
AcDbEntity
  8
YKK_A2
100
AcDbLine
 10
21098.19403498
 20
17156.9362287
 30
0.0
 11
21109.19403433
 21
17156.9362287
 31
0.0
  0
LINE
  5
330
330
2
100
AcDbEntity
  8
YKK_A2
100
AcDbLine
 10
21098.19403498
 20
17196.93622632
 30
0.0
 11
21109.19403433
 21
17196.93622632
 31
0.0
  0
LINE
  5
331
330
2
100
AcDbEntity
  8
YKK_A2
100
AcDbLine
 10
21109.19403433
 20
17156.9362287
 30
0.0
 11
21109.19403433
 21
17236.93622393
 31
0.0
  0
LINE
  5
332
330
2
100
AcDbEntity
  8
YKK_A2
100
AcDbLine
 10
21098.19403498
 20
17236.93622393
 30
0.0
 11
21098.19403498
 21
17156.9362287
 31
0.0
  0
LINE
  5
333
330
2
100
AcDbEntity
  8
YKK_A2
100
AcDbLine
 10
21098.19403498
 20
18054.93617518
 30
0.0
 11
21109.19403433
 21
18054.93617518
 31
0.0
  0
LINE
  5
334
330
2
100
AcDbEntity
  8
YKK_A2
100
AcDbLine
 10
21109.19403433
 20
17974.93617994
 30
0.0
 11
21098.19403498
 21
17974.93617994
 31
0.0
  0
LINE
  5
335
330
2
100
AcDbEntity
  8
YKK_A2
100
AcDbLine
 10
21098.19403498
 20
18014.93617756
 30
0.0
 11
21109.19403433
 21
18014.93617756
 31
0.0
  0
LINE
  5
336
330
2
100
AcDbEntity
  8
YKK_A2
100
AcDbLine
 10
21109.19403433
 20
18054.93617518
 30
0.0
 11
21109.19403433
 21
17974.93617994
 31
0.0
  0
LINE
  5
337
330
2
100
AcDbEntity
  8
YKK_A2
100
AcDbLine
 10
21098.19403498
 20
17974.93617994
 30
0.0
 11
21098.19403498
 21
18054.93617518
 31
0.0
  0
LINE
  5
338
330
2
100
AcDbEntity
  8
YKK_A2
100
AcDbLine
 10
21603.99400484
 20
18018.80916068
 30
0.0
 11
21601.99400496
 21
18018.80916068
 31
0.0
  0
ARC
  5
339
330
2
100
AcDbEntity
  8
YKK_A2
100
AcDbCircle
 10
21618.94780695
 20
18040.30144705
 30
0.0
 40
1.499999910598234
100
AcDbArc
 50
94.742321
 51
175.55526553
  0
LINE
  5
33A
330
2
100
AcDbEntity
  8
YKK_A2
100
AcDbLine
 10
21623.16421266
 20
18041.79631185
 30
0.0
 11
21618.82379499
 21
18041.79631185
 31
0.0
  0
ARC
  5
33B
330
2
100
AcDbEntity
  8
YKK_A2
100
AcDbCircle
 10
21623.0402007
 20
18040.30144705
 30
0.0
 40
1.499999910598234
100
AcDbArc
 50
4.44473447
 51
85.257679
  0
LINE
  5
33C
330
2
100
AcDbEntity
  8
YKK_A2
100
AcDbLine
 10
21617.45231821
 20
18040.41769324
 30
0.0
 11
21617.00293356
 21
18034.65995391
 31
0.0
  0
LINE
  5
33D
330
2
100
AcDbEntity
  8
YKK_A2
100
AcDbLine
 10
21624.98507409
 20
18034.65995391
 30
0.0
 11
21624.53568944
 21
18040.41769324
 31
0.0
  0
LINE
  5
33E
330
2
100
AcDbEntity
  8
YKK_A2
  6
ITTENSAP
100
AcDbLine
 10
21569.79400688
 20
18014.93617756
 30
0.0
 11
21669.79400091
 21
18014.93617756
 31
0.0
  0
LINE
  5
33F
330
2
100
AcDbEntity
  8
YKK_A2
  6
ITTENSAP
100
AcDbLine
 10
21565.9940071
 20
18014.93617756
 30
0.0
 11
21675.99400055
 21
18014.93617756
 31
0.0
  0
ARC
  5
340
330
2
100
AcDbEntity
  8
YKK_A2
100
AcDbCircle
 10
21866.24398921
 20
18014.67746558
 30
0.0
 40
249.9999850988182
100
AcDbArc
 50
180.0
 51
184.46558408
  0
LINE
  5
341
330
2
100
AcDbEntity
  8
YKK_A2
100
AcDbLine
 10
21603.99400484
 20
18011.06319444
 30
0.0
 11
21601.99400496
 21
18011.06319444
 31
0.0
  0
LINE
  5
342
330
2
100
AcDbEntity
  8
YKK_A2
100
AcDbLine
 10
21617.00293356
 20
17995.21240121
 30
0.0
 11
21617.45239189
 21
17989.45371781
 31
0.0
  0
LINE
  5
343
330
2
100
AcDbEntity
  8
YKK_A2
100
AcDbLine
 10
21618.82479512
 20
17988.07596064
 30
0.0
 11
21623.16321253
 21
17988.07596064
 31
0.0
  0
ARC
  5
344
330
2
100
AcDbEntity
  8
YKK_A2
100
AcDbCircle
 10
21618.94780695
 20
17989.57090807
 30
0.0
 40
1.499999910567033
100
AcDbArc
 50
184.48090478
 51
265.29601127
  0
ARC
  5
345
330
2
100
AcDbEntity
  8
YKK_A2
100
AcDbCircle
 10
21375.74401844
 20
18014.67746558
 30
0.0
 40
249.9999850988182
100
AcDbArc
 50
355.53441592
 51
0.0
  0
ARC
  5
346
330
2
100
AcDbEntity
  8
YKK_A2
100
AcDbCircle
 10
21623.0402007
 20
17989.57090807
 30
0.0
 40
1.499999910567033
100
AcDbArc
 50
274.70398873
 51
355.51909522
  0
LINE
  5
347
330
2
100
AcDbEntity
  8
YKK_A2
100
AcDbLine
 10
21616.24400411
 20
18015.19488954
 30
0.0
 11
21616.24400411
 21
18014.67746558
 31
0.0
  0
LINE
  5
348
330
2
100
AcDbEntity
  8
YKK_A2
100
AcDbLine
 10
21624.53561575
 20
17989.45371781
 30
0.0
 11
21624.98507409
 21
17995.21240121
 31
0.0
  0
LINE
  5
349
330
2
100
AcDbEntity
  8
YKK_A2
100
AcDbLine
 10
21625.74400354
 20
18014.67746558
 30
0.0
 11
21625.74400354
 21
18015.19488954
 31
0.0
  0
LINE
  5
34A
330
2
100
AcDbEntity
  8
YKK_A2
100
AcDbLine
 10
21601.99400496
 20
18019.83515675
 30
0.0
 11
21601.99400496
 21
18010.03719837
 31
0.0
  0
LINE
  5
34B
330
2
100
AcDbEntity
  8
YKK_A2
100
AcDbLine
 10
21603.99400484
 20
18019.83515675
 30
0.0
 11
21603.99400484
 21
18010.03719837
 31
0.0
  0
CIRCLE
  5
34C
330
2
100
AcDbEntity
  8
YKK_A2
100
AcDbCircle
 10
21620.99400382
 20
18014.93617756
 30
0.0
 40
27.99999833106996
  0
LINE
  5
34D
330
2
100
AcDbEntity
  8
YKK_A2
  6
ITTENSAP
100
AcDbLine
 10
21620.99400382
 20
17959.93618084
 30
0.0
 11
21620.99400382
 21
18069.93617428
 31
0.0
  0
ARC
  5
34E
330
2
100
AcDbEntity
  8
YKK_A2
100
AcDbCircle
 10
21866.24398921
 20
18015.19488954
 30
0.0
 40
249.9999850988646
100
AcDbArc
 50
175.53441592
 51
180.0
  0
ARC
  5
34F
330
2
100
AcDbEntity
  8
YKK_A2
100
AcDbCircle
 10
21620.99400382
 20
18014.93617756
 30
0.0
 40
7.499999552965164
100
AcDbArc
 50
308.680815
 51
51.319185
  0
ARC
  5
350
330
2
100
AcDbEntity
  8
YKK_A2
100
AcDbCircle
 10
21602.9940049
 20
18014.93617756
 30
0.0
 40
4.999999701976488
100
AcDbArc
 50
101.53695903
 51
258.46304097
  0
ARC
  5
351
330
2
100
AcDbEntity
  8
YKK_A2
100
AcDbCircle
 10
21620.99400382
 20
18014.93617756
 30
0.0
 40
7.499999552965164
100
AcDbArc
 50
128.680815
 51
231.319185
  0
ARC
  5
352
330
2
100
AcDbEntity
  8
YKK_A2
100
AcDbCircle
 10
21375.74401844
 20
18015.19488954
 30
0.0
 40
249.9999850988646
100
AcDbArc
 50
0.0
 51
4.46558408
  0
ARC
  5
353
330
2
100
AcDbEntity
  8
YKK_A2
100
AcDbCircle
 10
21602.9940049
 20
18014.93617756
 30
0.0
 40
4.999999701976488
100
AcDbArc
 50
281.53695903
 51
78.46304097
  0
CIRCLE
  5
354
330
2
100
AcDbEntity
  8
YKK_A2
100
AcDbCircle
 10
21620.99400382
 20
18014.93617756
 30
0.0
 40
37.9999977350235
  0
CIRCLE
  5
355
330
2
100
AcDbEntity
  8
YKK_A2
100
AcDbCircle
 10
21620.99400382
 20
18014.93617756
 30
0.0
 40
28.9999982714653
  0
TEXT
  5
356
330
2
100
AcDbEntity
  8
0
100
AcDbText
 10
19600.039
 20
19392.9363
 30
0.0
 40
200.0
  1
＊
  7
EXTFONT
100
AcDbText
  0
CIRCLE
  5
357
330
2
100
AcDbEntity
  8
YKK_F1
100
AcDbCircle
 10
19900.039
 20
19867.9363
 30
0.0
 40
233.3333333333333
  0
LINE
  5
358
330
2
100
AcDbEntity
  8
YKK_F1
  6
Continuous
100
AcDbLine
 10
19666.70566667
 20
19867.9363
 30
0.0
 11
20133.37233333
 21
19867.9363
 31
0.0
  0
TEXT
  5
359
330
2
100
AcDbEntity
  8
0
100
AcDbText
 10
19800.039
 20
19867.9363
 30
0.0
 40
200.0
  1
＊
  7
EXTFONT
100
AcDbText
  0
TEXT
  5
35A
330
2
100
AcDbEntity
  8
YKK_F1
100
AcDbText
 10
19740.039
 20
19667.9363
 30
0.0
 40
160.0
  1
ＳＤ
  7
EXTFONT
100
AcDbText
  0
LINE
  5
35B
330
2
100
AcDbEntity
  8
YKK_A2
100
AcDbLine
 10
21098.19403498
 20
18872.93612642
 30
0.0
 11
21109.19403433
 21
18872.93612642
 31
0.0
  0
LINE
  5
35C
330
2
100
AcDbEntity
  8
YKK_A2
100
AcDbLine
 10
21098.19403498
 20
18832.9361288
 30
0.0
 11
21109.19403433
 21
18832.9361288
 31
0.0
  0
LINE
  5
35D
330
2
100
AcDbEntity
  8
YKK_A2
100
AcDbLine
 10
21109.19403433
 20
18792.93613119
 30
0.0
 11
21098.19403498
 21
18792.93613119
 31
0.0
  0
LINE
  5
35E
330
2
100
AcDbEntity
  8
YKK_A2
100
AcDbLine
 10
21109.19403433
 20
18872.93612642
 30
0.0
 11
21109.19403433
 21
18792.93613119
 31
0.0
  0
LINE
  5
35F
330
2
100
AcDbEntity
  8
YKK_A2
100
AcDbLine
 10
21098.19403498
 20
18792.93613119
 30
0.0
 11
21098.19403498
 21
18872.93612642
 31
0.0
  0
LINE
  5
360
330
2
100
AcDbEntity
  8
YKK_A1
100
AcDbLine
 10
21105.79403453
 20
18970.93612058
 30
0.0
 11
21105.79403453
 21
18872.93612642
 31
0.0
  0
LINE
  5
361
330
2
100
AcDbEntity
  8
YKK_A1
100
AcDbLine
 10
21101.79403477
 20
18998.93611891
 30
0.0
 11
21101.79403477
 21
18872.93612642
 31
0.0
  0
LINE
  5
362
330
2
100
AcDbEntity
  8
YKK_N1
  6
Continuous
100
AcDbLine
 10
22246.79403948
 20
18963.93629528
 30
0.0
 11
22246.79403948
 21
17063.93623424
 31
0.0
  0
LINE
  5
363
330
2
100
AcDbEntity
  8
YKK_A1
100
AcDbLine
 10
22017.79398017
 20
18792.93613119
 30
0.0
 11
22017.79398017
 21
18054.93617518
 31
0.0
  0
LINE
  5
364
330
2
100
AcDbEntity
  8
YKK_A1
100
AcDbLine
 10
22021.79397993
 20
18792.93613119
 30
0.0
 11
22021.79397993
 21
18054.93617518
 31
0.0
  0
LINE
  5
365
330
2
100
AcDbEntity
  8
YKK_A1
100
AcDbLine
 10
22017.79398017
 20
17974.93617994
 30
0.0
 11
22017.79398017
 21
17236.93622393
 31
0.0
  0
LINE
  5
366
330
2
100
AcDbEntity
  8
YKK_A1
100
AcDbLine
 10
22021.79397993
 20
17974.93617994
 30
0.0
 11
22021.79397993
 21
17236.93622393
 31
0.0
  0
TEXT
  5
367
330
2
100
AcDbEntity
  8
YKK_N1
  6
Continuous
100
AcDbText
 10
22234.79404604
 20
17863.93626607
 30
0.0
 40
60.0
  1
H=1900
 50
90.0000025
 72
     4
 11
22204.79403948
 21
18013.93626476
 31
0.0
100
AcDbText
  0
LINE
  5
368
330
2
100
AcDbEntity
  8
YKK_A2
100
AcDbLine
 10
22014.19398039
 20
17236.93622393
 30
0.0
 11
22025.19397973
 21
17236.93622393
 31
0.0
  0
LINE
  5
369
330
2
100
AcDbEntity
  8
YKK_A2
100
AcDbLine
 10
22025.19397973
 20
17156.9362287
 30
0.0
 11
22014.19398039
 21
17156.9362287
 31
0.0
  0
LINE
  5
36A
330
2
100
AcDbEntity
  8
YKK_A2
100
AcDbLine
 10
22025.19397973
 20
17196.93622632
 30
0.0
 11
22014.19398039
 21
17196.93622632
 31
0.0
  0
LINE
  5
36B
330
2
100
AcDbEntity
  8
YKK_A2
100
AcDbLine
 10
22014.19398039
 20
17156.9362287
 30
0.0
 11
22014.19398039
 21
17236.93622393
 31
0.0
  0
LINE
  5
36C
330
2
100
AcDbEntity
  8
YKK_A2
100
AcDbLine
 10
22025.19397973
 20
17236.93622393
 30
0.0
 11
22025.19397973
 21
17156.9362287
 31
0.0
  0
LINE
  5
36D
330
2
100
AcDbEntity
  8
YKK_A1
100
AcDbLine
 10
22046.79397844
 20
17063.93623424
 30
0.0
 11
22037.89405972
 21
17063.93623424
 31
0.0
  0
LINE
  5
36E
330
2
100
AcDbEntity
  8
YKK_N1
  6
Continuous
100
AcDbLine
 10
22296.79404829
 20
17150.53878857
 30
0.0
 11
22246.79403948
 21
17063.93623424
 31
0.0
  0
LINE
  5
36F
330
2
100
AcDbEntity
  8
YKK_N1
100
AcDbLine
 10
22196.79403948
 20
17150.53878857
 30
0.0
 11
22296.79404829
 21
17150.53878857
 31
0.0
  0
LINE
  5
370
330
2
100
AcDbEntity
  8
YKK_N1
  6
Continuous
100
AcDbLine
 10
22121.79397844
 20
17063.93623424
 30
0.0
 11
22246.79403948
 21
17063.93623424
 31
0.0
  0
LINE
  5
371
330
2
100
AcDbEntity
  8
YKK_N1
  6
Continuous
100
AcDbLine
 10
22246.79403948
 20
17063.93623424
 30
0.0
 11
22196.79403948
 21
17150.53878857
 31
0.0
  0
LINE
  5
372
330
2
100
AcDbEntity
  8
YKK_A2
100
AcDbLine
 10
22025.19397973
 20
18054.93617518
 30
0.0
 11
22014.19398039
 21
18054.93617518
 31
0.0
  0
LINE
  5
373
330
2
100
AcDbEntity
  8
YKK_A2
100
AcDbLine
 10
22014.19398039
 20
17974.93617994
 30
0.0
 11
22025.19397973
 21
17974.93617994
 31
0.0
  0
LINE
  5
374
330
2
100
AcDbEntity
  8
YKK_A2
100
AcDbLine
 10
22025.19397973
 20
18014.93617756
 30
0.0
 11
22014.19398039
 21
18014.93617756
 31
0.0
  0
LINE
  5
375
330
2
100
AcDbEntity
  8
YKK_A2
100
AcDbLine
 10
22014.19398039
 20
18054.93617518
 30
0.0
 11
22014.19398039
 21
17974.93617994
 31
0.0
  0
LINE
  5
376
330
2
100
AcDbEntity
  8
YKK_A2
100
AcDbLine
 10
22025.19397973
 20
17974.93617994
 30
0.0
 11
22025.19397973
 21
18054.93617518
 31
0.0
  0
TEXT
  5
377
330
2
100
AcDbEntity
  8
0
100
AcDbText
 10
22900.039
 20
19392.9363
 30
0.0
 40
200.0
  1
＊
  7
EXTFONT
100
AcDbText
  0
LINE
  5
378
330
2
100
AcDbEntity
  8
YKK_A2
100
AcDbLine
 10
22025.19397973
 20
18872.93612642
 30
0.0
 11
22014.19398039
 21
18872.93612642
 31
0.0
  0
LINE
  5
379
330
2
100
AcDbEntity
  8
YKK_A2
100
AcDbLine
 10
22025.19397973
 20
18832.9361288
 30
0.0
 11
22014.19398039
 21
18832.9361288
 31
0.0
  0
LINE
  5
37A
330
2
100
AcDbEntity
  8
YKK_A2
100
AcDbLine
 10
22014.19398039
 20
18792.93613119
 30
0.0
 11
22025.19397973
 21
18792.93613119
 31
0.0
  0
LINE
  5
37B
330
2
100
AcDbEntity
  8
YKK_A2
100
AcDbLine
 10
22014.19398039
 20
18872.93612642
 30
0.0
 11
22014.19398039
 21
18792.93613119
 31
0.0
  0
LINE
  5
37C
330
2
100
AcDbEntity
  8
YKK_A2
100
AcDbLine
 10
22025.19397973
 20
18792.93613119
 30
0.0
 11
22025.19397973
 21
18872.93612642
 31
0.0
  0
LINE
  5
37D
330
2
100
AcDbEntity
  8
YKK_A1
100
AcDbLine
 10
22046.79397844
 20
18963.93612099
 30
0.0
 11
22032.81323731
 21
18963.93612099
 31
0.0
  0
LINE
  5
37E
330
2
100
AcDbEntity
  8
YKK_A1
100
AcDbLine
 10
22017.79398017
 20
18970.93612058
 30
0.0
 11
22017.79398017
 21
18872.93612642
 31
0.0
  0
LINE
  5
37F
330
2
100
AcDbEntity
  8
YKK_A1
100
AcDbLine
 10
22021.79397993
 20
18998.93611891
 30
0.0
 11
22021.79397993
 21
18872.93612642
 31
0.0
  0
LINE
  5
380
330
2
100
AcDbEntity
  8
YKK_N1
  6
Continuous
100
AcDbLine
 10
22121.79397844
 20
18963.93629528
 30
0.0
 11
22246.79403948
 21
18963.93629528
 31
0.0
  0
LINE
  5
381
330
2
100
AcDbEntity
  8
YKK_N1
100
AcDbLine
 10
22196.79403948
 20
18877.33374096
 30
0.0
 11
22296.79404829
 21
18877.33374096
 31
0.0
  0
LINE
  5
382
330
2
100
AcDbEntity
  8
YKK_N1
  6
Continuous
100
AcDbLine
 10
22296.79404829
 20
18877.33374096
 30
0.0
 11
22246.79403948
 21
18963.93629528
 31
0.0
  0
LINE
  5
383
330
2
100
AcDbEntity
  8
YKK_N1
  6
Continuous
100
AcDbLine
 10
22246.79403948
 20
18963.93629528
 30
0.0
 11
22196.79403948
 21
18877.33374096
 31
0.0
  0
TEXT
  5
384
330
2
100
AcDbEntity
  8
0
100
AcDbText
 10
23200.039
 20
19642.9363
 30
0.0
 40
200.0
  1
＊
  7
EXTFONT
100
AcDbText
  0
TEXT
  5
385
330
2
100
AcDbEntity
  8
YKK_F1
100
AcDbText
 10
23620.039
 20
19642.9363
 30
0.0
 40
200.0
  1
箇所
  7
EXTFONT
100
AcDbText
  0
LINE
  5
386
330
2
100
AcDbEntity
  8
YKK_A1
  6
Continuous
 48
1.5
100
AcDbLine
 10
26771.7940157
 20
17028.93608955
 30
0.0
 11
26771.7940157
 21
17158.93609149
 31
0.0
  0
LINE
  5
387
330
2
100
AcDbEntity
  8
YKK_A1
  6
Continuous
 48
1.5
100
AcDbLine
 10
26767.79401564
 20
17058.93609
 30
0.0
 11
26767.79401564
 21
17158.93609149
 31
0.0
  0
LINE
  5
388
330
2
100
AcDbEntity
  8
YKK_A1
  6
Continuous
 48
1.5
100
AcDbLine
 10
25651.79399901
 20
17158.93609149
 30
0.0
 11
25651.79399901
 21
17028.93608955
 31
0.0
  0
LINE
  5
389
330
2
100
AcDbEntity
  8
YKK_A1
  6
Continuous
 48
1.5
100
AcDbLine
 10
25655.79399907
 20
17058.93609
 30
0.0
 11
25655.79399907
 21
17158.93609149
 31
0.0
  0
LINE
  5
38A
330
2
100
AcDbEntity
  8
YKK_A1
  6
YCENTER_1
 48
1.5
100
AcDbLine
 10
26195.29400711
 20
17058.93609
 30
0.0
 11
25655.79399907
 21
18014.93610425
 31
0.0
  0
LINE
  5
38B
330
2
100
AcDbEntity
  8
YKK_A1
  6
YCENTER_1
 48
1.5
100
AcDbLine
 10
26228.2940076
 20
17058.93609
 30
0.0
 11
26767.79401564
 21
18014.93610425
 31
0.0
  0
LINE
  5
38C
330
2
100
AcDbEntity
  8
YKK_A1
  6
Continuous
 48
1.5
100
AcDbLine
 10
26199.29400717
 20
18973.93611854
 30
0.0
 11
26199.29400717
 21
17053.93608993
 31
0.0
  0
LINE
  5
38D
330
2
100
AcDbEntity
  8
YKK_A1
  6
Continuous
 48
1.5
100
AcDbLine
 10
26195.29400711
 20
18970.93611849
 30
0.0
 11
26195.29400711
 21
17058.93609
 31
0.0
  0
LINE
  5
38E
330
2
100
AcDbEntity
  8
YKK_A1
  6
Continuous
 48
1.5
100
AcDbLine
 10
26224.29400754
 20
18973.93611854
 30
0.0
 11
26224.29400754
 21
17053.93608993
 31
0.0
  0
LINE
  5
38F
330
2
100
AcDbEntity
  8
YKK_A1
  6
Continuous
 48
1.5
100
AcDbLine
 10
26228.2940076
 20
18970.93611849
 30
0.0
 11
26228.2940076
 21
17058.93609
 31
0.0
  0
LINE
  5
390
330
2
100
AcDbEntity
  8
YKK_A1
  6
Continuous
 48
1.5
100
AcDbLine
 10
26796.79401607
 20
17028.93608955
 30
0.0
 11
26796.79401607
 21
18998.93611891
 31
0.0
  0
LINE
  5
391
330
2
100
AcDbEntity
  8
YKK_A1
  6
Continuous
 48
1.5
100
AcDbLine
 10
25626.79399863
 20
18998.93611891
 30
0.0
 11
25626.79399863
 21
17028.93608955
 31
0.0
  0
CIRCLE
  5
392
330
2
100
AcDbEntity
  8
YKK_F1
100
AcDbCircle
 10
24550.039
 20
13912.9363
 30
0.0
 40
233.3333333333333
  0
TEXT
  5
393
330
2
100
AcDbEntity
  8
YKK_F1
100
AcDbText
 10
24390.039
 20
13712.9363
 30
0.0
 40
160.0
  1
ＳＤ
  7
EXTFONT
100
AcDbText
  0
TEXT
  5
394
330
2
100
AcDbEntity
  8
YKK_F1
100
AcDbText
 10
28270.039
 20
13687.9363
 30
0.0
 40
200.0
  1
箇所
  7
EXTFONT
100
AcDbText
  0
TEXT
  5
395
330
2
100
AcDbEntity
  8
0
100
AcDbText
 10
27850.039
 20
13687.9363
 30
0.0
 40
200.0
  1
＊
  7
EXTFONT
100
AcDbText
  0
TEXT
  5
396
330
2
100
AcDbEntity
  8
0
100
AcDbText
 10
24250.039
 20
13437.9363
 30
0.0
 40
200.0
  1
＊
  7
EXTFONT
100
AcDbText
  0
TEXT
  5
397
330
2
100
AcDbEntity
  8
0
100
AcDbText
 10
27550.039
 20
13437.9363
 30
0.0
 40
200.0
  1
＊
  7
EXTFONT
100
AcDbText
  0
TEXT
  5
398
330
2
100
AcDbEntity
  8
0
100
AcDbText
 10
24250.039
 20
15937.9363
 30
0.0
 40
190.0
  1
W=1100 H=1900 扉厚25(枠見込33)
  7
EXTFONT
100
AcDbText
  0
TEXT
  5
399
330
2
100
AcDbEntity
  8
0
100
AcDbText
 10
24250.039
 20
15437.9363
 30
0.0
 40
190.0
  1
防錆塗装・カチオン電着塗装・吹付け塗装
  7
EXTFONT
100
AcDbText
  0
TEXT
  5
39A
330
2
100
AcDbEntity
  8
0
100
AcDbText
 10
24250.039
 20
15687.9363
 30
0.0
 40
180.0
  1
溶融亜鉛メッキ鋼板・枠(扉)板厚1.2ミリ
  7
EXTFONT
100
AcDbText
  0
TEXT
  5
39B
330
2
100
AcDbEntity
  8
0
100
AcDbText
 10
24250.039
 20
14187.9363
 30
0.0
 40
200.0
  1
ＹＫＫＡＰ　点検口　同等品
  7
EXTFONT
100
AcDbText
  0
TEXT
  5
39C
330
2
100
AcDbEntity
  8
0
100
AcDbText
 10
24250.039
 20
14937.9363
 30
0.0
 40
180.0
  1
平面ハンドル・旗丁番・戸当りゴム・丸落し
  7
EXTFONT
100
AcDbText
  0
TEXT
  5
39D
330
2
100
AcDbEntity
  8
0
100
AcDbText
 10
24250.039
 20
14437.9363
 30
0.0
 40
200.0
  1
煽り止めチェーン・本締錠
  7
EXTFONT
100
AcDbText
  0
TEXT
  5
39E
330
2
100
AcDbEntity
  8
0
100
AcDbText
 10
24250.039
 20
14687.9363
 30
0.0
 40
140.0
  1
ケースハンドル･ピボットヒンジﾞ・自閉式スプリング丁番・
  7
EXTFONT
100
AcDbText
  0
LINE
  5
39F
330
2
100
AcDbEntity
  8
YKK_A1
  6
Continuous
 48
1.5
100
AcDbLine
 10
26228.2940076
 20
17058.93609
 30
0.0
 11
26767.79401564
 21
17058.93609
 31
0.0
  0
LINE
  5
3A0
330
2
100
AcDbEntity
  8
YKK_N1
  6
Continuous
100
AcDbLine
 10
25661.79400287
 20
16828.93612007
 30
0.0
 11
26761.79400287
 21
16828.93612007
 31
0.0
  0
LINE
  5
3A1
330
2
100
AcDbEntity
  8
YKK_A1
  6
Continuous
 48
1.5
100
AcDbLine
 10
25651.79399901
 20
17053.93608993
 30
0.0
 11
26771.7940157
 21
17053.93608993
 31
0.0
  0
LINE
  5
3A2
330
2
100
AcDbEntity
  8
YKK_A1
  6
Continuous
 48
1.5
100
AcDbLine
 10
25626.79399863
 20
17028.93608955
 30
0.0
 11
26796.79401607
 21
17028.93608955
 31
0.0
  0
LINE
  5
3A3
330
2
100
AcDbEntity
  8
YKK_F1
  6
Continuous
100
AcDbLine
 10
24316.70566667
 20
13912.9363
 30
0.0
 11
24783.37233333
 21
13912.9363
 31
0.0
  0
TEXT
  5
3A4
330
2
100
AcDbEntity
  8
0
100
AcDbText
 10
24450.039
 20
13912.9363
 30
0.0
 40
200.0
  1
＊
  7
EXTFONT
100
AcDbText
  0
TEXT
  5
3A5
330
2
100
AcDbEntity
  8
0
100
AcDbText
 10
24250.039
 20
15187.9363
 30
0.0
 40
200.0
  1
＊
  7
EXTFONT
100
AcDbText
  0
TEXT
  5
3A6
330
2
100
AcDbEntity
  8
0
100
AcDbText
 10
24250.039
 20
16187.9363
 30
0.0
 40
180.0
  1
点検口両開き
  7
EXTFONT
100
AcDbText
  0
TEXT
  5
3A7
330
2
100
AcDbEntity
  8
0
100
AcDbText
 10
24250.039
 20
16437.9363
 30
0.0
 40
180.0
  1
2PT NAB/W
  7
EXTFONT
100
AcDbText
  0
LINE
  5
3A8
330
2
100
AcDbEntity
  8
YKK_A1
  6
Continuous
 48
1.5
100
AcDbLine
 10
26195.29400711
 20
17058.93609
 30
0.0
 11
25655.79399907
 21
17058.93609
 31
0.0
  0
LINE
  5
3A9
330
2
100
AcDbEntity
  8
YKK_N1
100
AcDbLine
 10
25748.39655719
 20
16878.93612007
 30
0.0
 11
25748.39655719
 21
16778.93611126
 31
0.0
  0
LINE
  5
3AA
330
2
100
AcDbEntity
  8
YKK_N1
  6
Continuous
100
AcDbLine
 10
25661.79400287
 20
16953.93608955
 30
0.0
 11
25661.79400287
 21
16828.93612007
 31
0.0
  0
LINE
  5
3AB
330
2
100
AcDbEntity
  8
YKK_N1
  6
Continuous
100
AcDbLine
 10
25661.79400287
 20
16828.93612007
 30
0.0
 11
25748.39655719
 21
16878.93612007
 31
0.0
  0
LINE
  5
3AC
330
2
100
AcDbEntity
  8
YKK_N1
  6
Continuous
100
AcDbLine
 10
25748.39655719
 20
16778.93611126
 30
0.0
 11
25661.79400287
 21
16828.93612007
 31
0.0
  0
TEXT
  5
3AD
330
2
100
AcDbEntity
  8
YKK_N1
  6
Continuous
100
AcDbText
 10
26061.79404101
 20
16840.93612007
 30
0.0
 40
60.0
  1
W=1100
 72
     4
 11
26211.79404101
 21
16870.93612007
 31
0.0
100
AcDbText
  0
LINE
  5
3AE
330
2
100
AcDbEntity
  8
YKK_N1
  6
Continuous
100
AcDbLine
 10
26761.7939571
 20
16828.93612007
 30
0.0
 11
26675.19140277
 21
16878.93612007
 31
0.0
  0
LINE
  5
3AF
330
2
100
AcDbEntity
  8
YKK_N1
  6
Continuous
100
AcDbLine
 10
26675.19140277
 20
16778.93611126
 30
0.0
 11
26761.7939571
 21
16828.93612007
 31
0.0
  0
LINE
  5
3B0
330
2
100
AcDbEntity
  8
YKK_N1
100
AcDbLine
 10
26675.19140277
 20
16878.93612007
 30
0.0
 11
26675.19140277
 21
16778.93611126
 31
0.0
  0
LINE
  5
3B1
330
2
100
AcDbEntity
  8
YKK_N1
  6
Continuous
100
AcDbLine
 10
26761.79400287
 20
16953.93608955
 30
0.0
 11
26761.79400287
 21
16828.93612007
 31
0.0
  0
LINE
  5
3B2
330
2
100
AcDbEntity
  8
YKK_A1
  6
Continuous
 48
1.5
100
AcDbLine
 10
26228.2940076
 20
18970.93611849
 30
0.0
 11
26767.79401564
 21
18970.93611849
 31
0.0
  0
LINE
  5
3B3
330
2
100
AcDbEntity
  8
YKK_A1
  6
Continuous
 48
1.5
100
AcDbLine
 10
26771.7940157
 20
18973.93611854
 30
0.0
 11
25651.79399901
 21
18973.93611854
 31
0.0
  0
LINE
  5
3B4
330
2
100
AcDbEntity
  8
YKK_A1
  6
YCENTER_1
 48
1.5
100
AcDbLine
 10
26228.2940076
 20
18970.93611849
 30
0.0
 11
26767.79401564
 21
18014.93610425
 31
0.0
  0
LINE
  5
3B5
330
2
100
AcDbEntity
  8
YKK_A1
  6
Continuous
 48
1.5
100
AcDbLine
 10
26796.79401607
 20
18998.93611891
 30
0.0
 11
25626.79399863
 21
18998.93611891
 31
0.0
  0
LINE
  5
3B6
330
2
100
AcDbEntity
  8
YKK_A1
  6
YCENTER_1
 48
1.5
100
AcDbLine
 10
26195.29400711
 20
18970.93611849
 30
0.0
 11
25655.79399907
 21
18014.93610425
 31
0.0
  0
LINE
  5
3B7
330
2
100
AcDbEntity
  8
YKK_A1
  6
Continuous
 48
1.5
100
AcDbLine
 10
25651.79399901
 20
18052.93610481
 30
0.0
 11
25651.79399901
 21
18794.93611587
 31
0.0
  0
LINE
  5
3B8
330
2
100
AcDbEntity
  8
YKK_A1
  6
Continuous
 48
1.5
100
AcDbLine
 10
25655.79399907
 20
18052.93610481
 30
0.0
 11
25655.79399907
 21
18794.93611587
 31
0.0
  0
LINE
  5
3B9
330
2
100
AcDbEntity
  8
YKK_A1
  6
Continuous
 48
1.5
100
AcDbLine
 10
25655.79399907
 20
17976.93610368
 30
0.0
 11
25655.79399907
 21
17234.93609262
 31
0.0
  0
LINE
  5
3BA
330
2
100
AcDbEntity
  8
YKK_A1
  6
Continuous
 48
1.5
100
AcDbLine
 10
25651.79399901
 20
17976.93610368
 30
0.0
 11
25651.79399901
 21
17234.93609262
 31
0.0
  0
LINE
  5
3BB
330
2
100
AcDbEntity
  8
YKK_A2
  6
Continuous
 48
1.5
100
AcDbLine
 10
25658.79399911
 20
17196.93609206
 30
0.0
 11
25648.79399896
 21
17196.93609206
 31
0.0
  0
LINE
  5
3BC
330
2
100
AcDbEntity
  8
YKK_A2
  6
Continuous
 48
1.5
100
AcDbLine
 10
25648.79399896
 20
17158.93609149
 30
0.0
 11
25648.79399896
 21
17234.93609262
 31
0.0
  0
LINE
  5
3BD
330
2
100
AcDbEntity
  8
YKK_A2
  6
Continuous
 48
1.5
100
AcDbLine
 10
25648.79399896
 20
17234.93609262
 30
0.0
 11
25658.79399911
 21
17234.93609262
 31
0.0
  0
LINE
  5
3BE
330
2
100
AcDbEntity
  8
YKK_A2
  6
Continuous
 48
1.5
100
AcDbLine
 10
25658.79399911
 20
17234.93609262
 30
0.0
 11
25658.79399911
 21
17158.93609149
 31
0.0
  0
LINE
  5
3BF
330
2
100
AcDbEntity
  8
YKK_A2
  6
Continuous
 48
1.5
100
AcDbLine
 10
25658.79399911
 20
17158.93609149
 30
0.0
 11
25648.79399896
 21
17158.93609149
 31
0.0
  0
LINE
  5
3C0
330
2
100
AcDbEntity
  8
YKK_A2
  6
Continuous
 48
1.5
100
AcDbLine
 10
25658.79399911
 20
18014.93610425
 30
0.0
 11
25648.79399896
 21
18014.93610425
 31
0.0
  0
LINE
  5
3C1
330
2
100
AcDbEntity
  8
YKK_A2
  6
Continuous
 48
1.5
100
AcDbLine
 10
25648.79399896
 20
17976.93610368
 30
0.0
 11
25648.79399896
 21
18052.93610481
 31
0.0
  0
LINE
  5
3C2
330
2
100
AcDbEntity
  8
YKK_A2
  6
Continuous
 48
1.5
100
AcDbLine
 10
25648.79399896
 20
18052.93610481
 30
0.0
 11
25658.79399911
 21
18052.93610481
 31
0.0
  0
LINE
  5
3C3
330
2
100
AcDbEntity
  8
YKK_A2
  6
Continuous
 48
1.5
100
AcDbLine
 10
25658.79399911
 20
18052.93610481
 30
0.0
 11
25658.79399911
 21
17976.93610368
 31
0.0
  0
LINE
  5
3C4
330
2
100
AcDbEntity
  8
YKK_A2
  6
Continuous
 48
1.5
100
AcDbLine
 10
25658.79399911
 20
17976.93610368
 30
0.0
 11
25648.79399896
 21
17976.93610368
 31
0.0
  0
LINE
  5
3C5
330
2
100
AcDbEntity
  8
YKK_A2
  6
YCENTER_1
 48
1.5
100
AcDbLine
 10
26193.29400648
 20
18008.93610416
 30
0.0
 11
26087.29400609
 21
18008.93610416
 31
0.0
  0
LINE
  5
3C6
330
2
100
AcDbEntity
  8
YKK_A2
  6
Continuous
 48
1.5
100
AcDbLine
 10
26129.29400612
 20
17952.93610332
 30
0.0
 11
26151.29400645
 21
17952.93610332
 31
0.0
  0
LINE
  5
3C7
330
2
100
AcDbEntity
  8
YKK_A2
  6
Continuous
 48
1.5
100
AcDbLine
 10
26129.29400612
 20
18064.93610499
 30
0.0
 11
26151.29400645
 21
18064.93610499
 31
0.0
  0
LINE
  5
3C8
330
2
100
AcDbEntity
  8
YKK_A2
  6
Continuous
 48
1.5
100
AcDbLine
 10
26132.29400617
 20
18051.9361048
 30
0.0
 11
26148.29400641
 21
18051.9361048
 31
0.0
  0
LINE
  5
3C9
330
2
100
AcDbEntity
  8
YKK_A2
  6
Continuous
 48
1.5
100
AcDbLine
 10
26151.79400646
 20
18066.43610501
 30
0.0
 11
26128.79400612
 21
18066.43610501
 31
0.0
  0
LINE
  5
3CA
330
2
100
AcDbEntity
  8
YKK_A2
  6
Continuous
 48
1.5
100
AcDbLine
 10
26128.79400612
 20
17951.4361033
 30
0.0
 11
26151.79400646
 21
17951.4361033
 31
0.0
  0
ARC
  5
3CB
330
2
100
AcDbEntity
  8
YKK_A2
  6
Continuous
 48
1.5
100
AcDbCircle
 10
26143.79400634
 20
17975.43610366
 30
0.0
 40
4.500000067055224
100
AcDbArc
 50
270.0
 51
90.0
  0
ARC
  5
3CC
330
2
100
AcDbEntity
  8
YKK_A2
  6
Continuous
 48
1.5
100
AcDbCircle
 10
26143.79400634
 20
17975.43610366
 30
0.0
 40
5.500000081956385
100
AcDbArc
 50
270.0
 51
90.0
  0
ARC
  5
3CD
330
2
100
AcDbEntity
  8
YKK_A2
  6
Continuous
 48
1.5
100
AcDbCircle
 10
26140.29400629
 20
17991.9361039
 30
0.0
 40
8.000000119209289
100
AcDbArc
 50
180.0
 51
0.0
  0
LINE
  5
3CE
330
2
100
AcDbEntity
  8
YKK_A2
  6
YCENTER_1
 48
1.5
100
AcDbLine
 10
26140.29400629
 20
17955.93610396
 30
0.0
 11
26140.29400629
 21
18061.93610435
 31
0.0
  0
LINE
  5
3CF
330
2
100
AcDbEntity
  8
YKK_A2
  6
Continuous
 48
1.5
100
AcDbLine
 10
26128.29400611
 20
17953.93610334
 30
0.0
 11
26128.29400611
 21
18063.93610498
 31
0.0
  0
LINE
  5
3D0
330
2
100
AcDbEntity
  8
YKK_A2
  6
Continuous
 48
1.5
100
AcDbLine
 10
26132.29400617
 20
18051.9361048
 30
0.0
 11
26132.29400617
 21
17991.9361039
 31
0.0
  0
LINE
  5
3D1
330
2
100
AcDbEntity
  8
YKK_A2
  6
Continuous
 48
1.5
100
AcDbLine
 10
26126.79400609
 20
18064.43610498
 30
0.0
 11
26126.79400609
 21
17953.43610333
 31
0.0
  0
LINE
  5
3D2
330
2
100
AcDbEntity
  8
YKK_A2
  6
Continuous
 48
1.5
100
AcDbLine
 10
26143.79400634
 20
17979.93610372
 30
0.0
 11
26136.79400623
 21
17979.93610372
 31
0.0
  0
LINE
  5
3D3
330
2
100
AcDbEntity
  8
YKK_A2
  6
Continuous
 48
1.5
100
AcDbLine
 10
26136.79400623
 20
17970.93610359
 30
0.0
 11
26143.79400634
 21
17970.93610359
 31
0.0
  0
LINE
  5
3D4
330
2
100
AcDbEntity
  8
YKK_A2
  6
Continuous
 48
1.5
100
AcDbLine
 10
26143.79400634
 20
17980.93610374
 30
0.0
 11
26136.79400623
 21
17980.93610374
 31
0.0
  0
LINE
  5
3D5
330
2
100
AcDbEntity
  8
YKK_A2
  6
Continuous
 48
1.5
100
AcDbLine
 10
26136.79400623
 20
17969.93610358
 30
0.0
 11
26143.79400634
 21
17969.93610358
 31
0.0
  0
CIRCLE
  5
3D6
330
2
100
AcDbEntity
  8
YKK_A2
  6
Continuous
 48
1.5
100
AcDbCircle
 10
26140.29400629
 20
17965.68610351
 30
0.0
 40
1.750000026077032
  0
ARC
  5
3D7
330
2
100
AcDbEntity
  8
YKK_A2
  6
Continuous
 48
1.5
100
AcDbCircle
 10
26129.29400612
 20
18063.93610498
 30
0.0
 40
1.000000014901162
100
AcDbArc
 50
90.0
 51
180.0
  0
ARC
  5
3D8
330
2
100
AcDbEntity
  8
YKK_A2
  6
Continuous
 48
1.5
100
AcDbCircle
 10
26129.29400612
 20
17953.93610334
 30
0.0
 40
1.000000014901162
100
AcDbArc
 50
180.0
 51
270.0
  0
ARC
  5
3D9
330
2
100
AcDbEntity
  8
YKK_A2
  6
Continuous
 48
1.5
100
AcDbCircle
 10
26128.79400612
 20
18064.43610498
 30
0.0
 40
2.000000029802321
100
AcDbArc
 50
90.0
 51
180.0
  0
ARC
  5
3DA
330
2
100
AcDbEntity
  8
YKK_A2
  6
Continuous
 48
1.5
100
AcDbCircle
 10
26128.79400612
 20
17953.43610333
 30
0.0
 40
2.000000029802321
100
AcDbArc
 50
180.0
 51
270.0
  0
ARC
  5
3DB
330
2
100
AcDbEntity
  8
YKK_A2
  6
Continuous
 48
1.5
100
AcDbCircle
 10
26136.79400623
 20
17975.43610366
 30
0.0
 40
4.500000067055224
100
AcDbArc
 50
90.0
 51
270.0
  0
ARC
  5
3DC
330
2
100
AcDbEntity
  8
YKK_A2
  6
Continuous
 48
1.5
100
AcDbCircle
 10
26136.79400623
 20
17975.43610366
 30
0.0
 40
5.500000081956385
100
AcDbArc
 50
90.0
 51
270.0
  0
LINE
  5
3DD
330
2
100
AcDbEntity
  8
YKK_A2
  6
Continuous
 48
1.5
100
AcDbLine
 10
26152.29400647
 20
17953.93610334
 30
0.0
 11
26152.29400647
 21
18063.93610498
 31
0.0
  0
LINE
  5
3DE
330
2
100
AcDbEntity
  8
YKK_A2
  6
Continuous
 48
1.5
100
AcDbLine
 10
26148.29400641
 20
18051.9361048
 30
0.0
 11
26148.29400641
 21
17991.9361039
 31
0.0
  0
LINE
  5
3DF
330
2
100
AcDbEntity
  8
YKK_A2
  6
Continuous
 48
1.5
100
AcDbLine
 10
26153.79400649
 20
17953.43610333
 30
0.0
 11
26153.79400649
 21
18064.43610498
 31
0.0
  0
ARC
  5
3E0
330
2
100
AcDbEntity
  8
YKK_A2
  6
Continuous
 48
1.5
100
AcDbCircle
 10
26151.29400645
 20
17953.93610334
 30
0.0
 40
1.000000014901162
100
AcDbArc
 50
270.0
 51
0.0
  0
ARC
  5
3E1
330
2
100
AcDbEntity
  8
YKK_A2
  6
Continuous
 48
1.5
100
AcDbCircle
 10
26151.29400645
 20
18063.93610498
 30
0.0
 40
1.000000014901162
100
AcDbArc
 50
0.0
 51
90.0
  0
ARC
  5
3E2
330
2
100
AcDbEntity
  8
YKK_A2
  6
Continuous
 48
1.5
100
AcDbCircle
 10
26151.79400646
 20
17953.43610333
 30
0.0
 40
2.000000029802321
100
AcDbArc
 50
270.0
 51
0.0
  0
ARC
  5
3E3
330
2
100
AcDbEntity
  8
YKK_A2
  6
Continuous
 48
1.5
100
AcDbCircle
 10
26151.79400646
 20
18064.43610498
 30
0.0
 40
2.000000029802321
100
AcDbArc
 50
0.0
 51
90.0
  0
LINE
  5
3E4
330
2
100
AcDbEntity
  8
YKK_A2
  6
YCENTER_1
 48
1.5
100
AcDbLine
 10
26283.29400842
 20
17955.93610396
 30
0.0
 11
26283.29400842
 21
18061.93610435
 31
0.0
  0
LINE
  5
3E5
330
2
100
AcDbEntity
  8
YKK_A2
  6
YCENTER_1
 48
1.5
100
AcDbLine
 10
26228.2940076
 20
18008.93610416
 30
0.0
 11
26338.50820596
 21
18008.93610416
 31
0.0
  0
LINE
  5
3E6
330
2
100
AcDbEntity
  8
YKK_A2
  6
Continuous
 48
1.5
100
AcDbLine
 10
26295.2940086
 20
17953.93610334
 30
0.0
 11
26295.2940086
 21
18063.93610498
 31
0.0
  0
LINE
  5
3E7
330
2
100
AcDbEntity
  8
YKK_A2
  6
Continuous
 48
1.5
100
AcDbLine
 10
26271.29400824
 20
17953.93610334
 30
0.0
 11
26271.29400824
 21
18063.93610498
 31
0.0
  0
LINE
  5
3E8
330
2
100
AcDbEntity
  8
YKK_A2
  6
Continuous
 48
1.5
100
AcDbLine
 10
26294.29400858
 20
17952.93610332
 30
0.0
 11
26272.29400825
 21
17952.93610332
 31
0.0
  0
LINE
  5
3E9
330
2
100
AcDbEntity
  8
YKK_A2
  6
Continuous
 48
1.5
100
AcDbLine
 10
26294.29400858
 20
18064.93610499
 30
0.0
 11
26272.29400825
 21
18064.93610499
 31
0.0
  0
LINE
  5
3EA
330
2
100
AcDbEntity
  8
YKK_A2
  6
Continuous
 48
1.5
100
AcDbLine
 10
26291.29400854
 20
18051.9361048
 30
0.0
 11
26275.2940083
 21
18051.9361048
 31
0.0
  0
LINE
  5
3EB
330
2
100
AcDbEntity
  8
YKK_A2
  6
Continuous
 48
1.5
100
AcDbLine
 10
26291.29400854
 20
18051.9361048
 30
0.0
 11
26291.29400854
 21
17991.9361039
 31
0.0
  0
LINE
  5
3EC
330
2
100
AcDbEntity
  8
YKK_A2
  6
Continuous
 48
1.5
100
AcDbLine
 10
26275.2940083
 20
18051.9361048
 30
0.0
 11
26275.2940083
 21
17991.9361039
 31
0.0
  0
LINE
  5
3ED
330
2
100
AcDbEntity
  8
YKK_A2
  6
Continuous
 48
1.5
100
AcDbLine
 10
26269.79400822
 20
17953.43610333
 30
0.0
 11
26269.79400822
 21
18064.43610498
 31
0.0
  0
LINE
  5
3EE
330
2
100
AcDbEntity
  8
YKK_A2
  6
Continuous
 48
1.5
100
AcDbLine
 10
26271.79400825
 20
18066.43610501
 30
0.0
 11
26294.79400859
 21
18066.43610501
 31
0.0
  0
LINE
  5
3EF
330
2
100
AcDbEntity
  8
YKK_A2
  6
Continuous
 48
1.5
100
AcDbLine
 10
26296.79400862
 20
18064.43610498
 30
0.0
 11
26296.79400862
 21
17953.43610333
 31
0.0
  0
LINE
  5
3F0
330
2
100
AcDbEntity
  8
YKK_A2
  6
Continuous
 48
1.5
100
AcDbLine
 10
26294.79400859
 20
17951.4361033
 30
0.0
 11
26271.79400825
 21
17951.4361033
 31
0.0
  0
LINE
  5
3F1
330
2
100
AcDbEntity
  8
YKK_A2
  6
Continuous
 48
1.5
100
AcDbLine
 10
26279.79400837
 20
17979.93610372
 30
0.0
 11
26286.79400847
 21
17979.93610372
 31
0.0
  0
LINE
  5
3F2
330
2
100
AcDbEntity
  8
YKK_A2
  6
Continuous
 48
1.5
100
AcDbLine
 10
26286.79400847
 20
17970.93610359
 30
0.0
 11
26279.79400837
 21
17970.93610359
 31
0.0
  0
LINE
  5
3F3
330
2
100
AcDbEntity
  8
YKK_A2
  6
Continuous
 48
1.5
100
AcDbLine
 10
26279.79400837
 20
17980.93610374
 30
0.0
 11
26286.79400847
 21
17980.93610374
 31
0.0
  0
LINE
  5
3F4
330
2
100
AcDbEntity
  8
YKK_A2
  6
Continuous
 48
1.5
100
AcDbLine
 10
26286.79400847
 20
17969.93610358
 30
0.0
 11
26279.79400837
 21
17969.93610358
 31
0.0
  0
CIRCLE
  5
3F5
330
2
100
AcDbEntity
  8
YKK_A2
  6
Continuous
 48
1.5
100
AcDbCircle
 10
26283.29400842
 20
17965.68610351
 30
0.0
 40
1.750000026077032
  0
ARC
  5
3F6
330
2
100
AcDbEntity
  8
YKK_A2
  6
Continuous
 48
1.5
100
AcDbCircle
 10
26294.29400858
 20
18063.93610498
 30
0.0
 40
1.000000014901162
100
AcDbArc
 50
0.0
 51
90.0
  0
ARC
  5
3F7
330
2
100
AcDbEntity
  8
YKK_A2
  6
Continuous
 48
1.5
100
AcDbCircle
 10
26294.29400858
 20
17953.93610334
 30
0.0
 40
1.000000014901162
100
AcDbArc
 50
270.0
 51
0.0
  0
ARC
  5
3F8
330
2
100
AcDbEntity
  8
YKK_A2
  6
Continuous
 48
1.5
100
AcDbCircle
 10
26272.29400825
 20
17953.93610334
 30
0.0
 40
1.000000014901162
100
AcDbArc
 50
180.0
 51
270.0
  0
ARC
  5
3F9
330
2
100
AcDbEntity
  8
YKK_A2
  6
Continuous
 48
1.5
100
AcDbCircle
 10
26272.29400825
 20
18063.93610498
 30
0.0
 40
1.000000014901162
100
AcDbArc
 50
90.0
 51
180.0
  0
ARC
  5
3FA
330
2
100
AcDbEntity
  8
YKK_A2
  6
Continuous
 48
1.5
100
AcDbCircle
 10
26294.79400859
 20
18064.43610498
 30
0.0
 40
2.000000029802321
100
AcDbArc
 50
0.0
 51
90.0
  0
ARC
  5
3FB
330
2
100
AcDbEntity
  8
YKK_A2
  6
Continuous
 48
1.5
100
AcDbCircle
 10
26294.79400859
 20
17953.43610333
 30
0.0
 40
2.000000029802321
100
AcDbArc
 50
270.0
 51
0.0
  0
ARC
  5
3FC
330
2
100
AcDbEntity
  8
YKK_A2
  6
Continuous
 48
1.5
100
AcDbCircle
 10
26271.79400825
 20
17953.43610333
 30
0.0
 40
2.000000029802321
100
AcDbArc
 50
180.0
 51
270.0
  0
ARC
  5
3FD
330
2
100
AcDbEntity
  8
YKK_A2
  6
Continuous
 48
1.5
100
AcDbCircle
 10
26271.79400825
 20
18064.43610498
 30
0.0
 40
2.000000029802321
100
AcDbArc
 50
90.0
 51
180.0
  0
ARC
  5
3FE
330
2
100
AcDbEntity
  8
YKK_A2
  6
Continuous
 48
1.5
100
AcDbCircle
 10
26279.79400837
 20
17975.43610366
 30
0.0
 40
4.500000067055224
100
AcDbArc
 50
90.0
 51
270.0
  0
ARC
  5
3FF
330
2
100
AcDbEntity
  8
YKK_A2
  6
Continuous
 48
1.5
100
AcDbCircle
 10
26286.79400847
 20
17975.43610366
 30
0.0
 40
4.500000067055224
100
AcDbArc
 50
270.0
 51
90.0
  0
ARC
  5
400
330
2
100
AcDbEntity
  8
YKK_A2
  6
Continuous
 48
1.5
100
AcDbCircle
 10
26279.79400837
 20
17975.43610366
 30
0.0
 40
5.500000081956385
100
AcDbArc
 50
90.0
 51
270.0
  0
ARC
  5
401
330
2
100
AcDbEntity
  8
YKK_A2
  6
Continuous
 48
1.5
100
AcDbCircle
 10
26286.79400847
 20
17975.43610366
 30
0.0
 40
5.500000081956385
100
AcDbArc
 50
270.0
 51
90.0
  0
ARC
  5
402
330
2
100
AcDbEntity
  8
YKK_A2
  6
Continuous
 48
1.5
100
AcDbCircle
 10
26283.29400842
 20
17991.9361039
 30
0.0
 40
8.000000119209289
100
AcDbArc
 50
180.0
 51
0.0
  0
TEXT
  5
403
330
2
100
AcDbEntity
  8
0
100
AcDbText
 10
24250.039
 20
19392.9363
 30
0.0
 40
200.0
  1
＊
  7
EXTFONT
100
AcDbText
  0
LINE
  5
404
330
2
100
AcDbEntity
  8
YKK_F1
  6
Continuous
100
AcDbLine
 10
24316.70566667
 20
19867.9363
 30
0.0
 11
24783.37233333
 21
19867.9363
 31
0.0
  0
CIRCLE
  5
405
330
2
100
AcDbEntity
  8
YKK_F1
100
AcDbCircle
 10
24550.039
 20
19867.9363
 30
0.0
 40
233.3333333333333
  0
TEXT
  5
406
330
2
100
AcDbEntity
  8
0
100
AcDbText
 10
24450.039
 20
19867.9363
 30
0.0
 40
200.0
  1
＊
  7
EXTFONT
100
AcDbText
  0
TEXT
  5
407
330
2
100
AcDbEntity
  8
YKK_F1
100
AcDbText
 10
24390.039
 20
19667.9363
 30
0.0
 40
160.0
  1
ＳＤ
  7
EXTFONT
100
AcDbText
  0
LINE
  5
408
330
2
100
AcDbEntity
  8
YKK_A1
  6
Continuous
 48
1.5
100
AcDbLine
 10
26195.29400711
 20
18970.93611849
 30
0.0
 11
25655.79399907
 21
18970.93611849
 31
0.0
  0
LINE
  5
409
330
2
100
AcDbEntity
  8
YKK_A1
  6
Continuous
 48
1.5
100
AcDbLine
 10
25651.79399901
 20
18998.93611891
 30
0.0
 11
25651.79399901
 21
18870.936117
 31
0.0
  0
LINE
  5
40A
330
2
100
AcDbEntity
  8
YKK_A1
  6
Continuous
 48
1.5
100
AcDbLine
 10
25655.79399907
 20
18870.936117
 30
0.0
 11
25655.79399907
 21
18970.93611849
 31
0.0
  0
LINE
  5
40B
330
2
100
AcDbEntity
  8
YKK_A2
  6
Continuous
 48
1.5
100
AcDbLine
 10
25658.79399911
 20
18832.93611644
 30
0.0
 11
25648.79399896
 21
18832.93611644
 31
0.0
  0
LINE
  5
40C
330
2
100
AcDbEntity
  8
YKK_A2
  6
Continuous
 48
1.5
100
AcDbLine
 10
25648.79399896
 20
18870.936117
 30
0.0
 11
25648.79399896
 21
18794.93611587
 31
0.0
  0
LINE
  5
40D
330
2
100
AcDbEntity
  8
YKK_A2
  6
Continuous
 48
1.5
100
AcDbLine
 10
25648.79399896
 20
18794.93611587
 30
0.0
 11
25658.79399911
 21
18794.93611587
 31
0.0
  0
LINE
  5
40E
330
2
100
AcDbEntity
  8
YKK_A2
  6
Continuous
 48
1.5
100
AcDbLine
 10
25658.79399911
 20
18794.93611587
 30
0.0
 11
25658.79399911
 21
18870.936117
 31
0.0
  0
LINE
  5
40F
330
2
100
AcDbEntity
  8
YKK_A2
  6
Continuous
 48
1.5
100
AcDbLine
 10
25658.79399911
 20
18870.936117
 30
0.0
 11
25648.79399896
 21
18870.936117
 31
0.0
  0
LINE
  5
410
330
2
100
AcDbEntity
  8
YKK_A1
  6
Continuous
 48
1.5
100
AcDbLine
 10
26771.7940157
 20
18052.93610481
 30
0.0
 11
26771.7940157
 21
18794.93611587
 31
0.0
  0
LINE
  5
411
330
2
100
AcDbEntity
  8
YKK_A1
  6
Continuous
 48
1.5
100
AcDbLine
 10
26767.79401564
 20
18052.93610481
 30
0.0
 11
26767.79401564
 21
18794.93611587
 31
0.0
  0
LINE
  5
412
330
2
100
AcDbEntity
  8
YKK_N1
  6
Continuous
100
AcDbLine
 10
26996.79404659
 20
18963.93599684
 30
0.0
 11
26996.79404659
 21
17063.93599684
 31
0.0
  0
TEXT
  5
413
330
2
100
AcDbEntity
  8
YKK_N1
  6
Continuous
100
AcDbText
 10
26984.79405314
 20
17863.93605918
 30
0.0
 40
60.0
  1
H=1900
 50
90.0000025
 72
     4
 11
26954.79404659
 21
18013.93605787
 31
0.0
100
AcDbText
  0
LINE
  5
414
330
2
100
AcDbEntity
  8
YKK_A1
  6
Continuous
 48
1.5
100
AcDbLine
 10
26771.7940157
 20
17976.93610368
 30
0.0
 11
26771.7940157
 21
17234.93609262
 31
0.0
  0
LINE
  5
415
330
2
100
AcDbEntity
  8
YKK_A1
  6
Continuous
 48
1.5
100
AcDbLine
 10
26767.79401564
 20
17976.93610368
 30
0.0
 11
26767.79401564
 21
17234.93609262
 31
0.0
  0
LINE
  5
416
330
2
100
AcDbEntity
  8
YKK_N1
100
AcDbLine
 10
26946.79401607
 20
17150.53855116
 30
0.0
 11
27046.79402488
 21
17150.53855116
 31
0.0
  0
LINE
  5
417
330
2
100
AcDbEntity
  8
YKK_N1
  6
Continuous
100
AcDbLine
 10
27046.79402488
 20
17150.53855116
 30
0.0
 11
26996.79401607
 21
17063.93599684
 31
0.0
  0
LINE
  5
418
330
2
100
AcDbEntity
  8
YKK_N1
  6
Continuous
100
AcDbLine
 10
26871.79401607
 20
17063.93599684
 30
0.0
 11
26996.79404659
 21
17063.93599684
 31
0.0
  0
LINE
  5
419
330
2
100
AcDbEntity
  8
YKK_N1
  6
Continuous
100
AcDbLine
 10
26996.79401607
 20
17063.93599684
 30
0.0
 11
26946.79401607
 21
17150.53855116
 31
0.0
  0
LINE
  5
41A
330
2
100
AcDbEntity
  8
YKK_A2
  6
Continuous
 48
1.5
100
AcDbLine
 10
26764.79401559
 20
17196.93609206
 30
0.0
 11
26774.79401574
 21
17196.93609206
 31
0.0
  0
LINE
  5
41B
330
2
100
AcDbEntity
  8
YKK_A2
  6
Continuous
 48
1.5
100
AcDbLine
 10
26774.79401574
 20
17158.93609149
 30
0.0
 11
26774.79401574
 21
17234.93609262
 31
0.0
  0
LINE
  5
41C
330
2
100
AcDbEntity
  8
YKK_A2
  6
Continuous
 48
1.5
100
AcDbLine
 10
26774.79401574
 20
17234.93609262
 30
0.0
 11
26764.79401559
 21
17234.93609262
 31
0.0
  0
LINE
  5
41D
330
2
100
AcDbEntity
  8
YKK_A2
  6
Continuous
 48
1.5
100
AcDbLine
 10
26764.79401559
 20
17234.93609262
 30
0.0
 11
26764.79401559
 21
17158.93609149
 31
0.0
  0
LINE
  5
41E
330
2
100
AcDbEntity
  8
YKK_A2
  6
Continuous
 48
1.5
100
AcDbLine
 10
26764.79401559
 20
17158.93609149
 30
0.0
 11
26774.79401574
 21
17158.93609149
 31
0.0
  0
LINE
  5
41F
330
2
100
AcDbEntity
  8
YKK_A2
  6
Continuous
 48
1.5
100
AcDbLine
 10
26764.79401559
 20
18014.93610425
 30
0.0
 11
26774.79401574
 21
18014.93610425
 31
0.0
  0
LINE
  5
420
330
2
100
AcDbEntity
  8
YKK_A2
  6
Continuous
 48
1.5
100
AcDbLine
 10
26774.79401574
 20
17976.93610368
 30
0.0
 11
26774.79401574
 21
18052.93610481
 31
0.0
  0
LINE
  5
421
330
2
100
AcDbEntity
  8
YKK_A2
  6
Continuous
 48
1.5
100
AcDbLine
 10
26774.79401574
 20
18052.93610481
 30
0.0
 11
26764.79401559
 21
18052.93610481
 31
0.0
  0
LINE
  5
422
330
2
100
AcDbEntity
  8
YKK_A2
  6
Continuous
 48
1.5
100
AcDbLine
 10
26764.79401559
 20
18052.93610481
 30
0.0
 11
26764.79401559
 21
17976.93610368
 31
0.0
  0
LINE
  5
423
330
2
100
AcDbEntity
  8
YKK_A2
  6
Continuous
 48
1.5
100
AcDbLine
 10
26764.79401559
 20
17976.93610368
 30
0.0
 11
26774.79401574
 21
17976.93610368
 31
0.0
  0
TEXT
  5
424
330
2
100
AcDbEntity
  8
0
100
AcDbText
 10
27550.039
 20
19392.9363
 30
0.0
 40
200.0
  1
＊
  7
EXTFONT
100
AcDbText
  0
LINE
  5
425
330
2
100
AcDbEntity
  8
YKK_N1
100
AcDbLine
 10
26946.79401607
 20
18877.33344252
 30
0.0
 11
27046.79402488
 21
18877.33344252
 31
0.0
  0
LINE
  5
426
330
2
100
AcDbEntity
  8
YKK_N1
  6
Continuous
100
AcDbLine
 10
27046.79402488
 20
18877.33344252
 30
0.0
 11
26996.79401607
 21
18963.93599684
 31
0.0
  0
LINE
  5
427
330
2
100
AcDbEntity
  8
YKK_N1
  6
Continuous
100
AcDbLine
 10
26871.79401607
 20
18963.93599684
 30
0.0
 11
26996.79404659
 21
18963.93599684
 31
0.0
  0
LINE
  5
428
330
2
100
AcDbEntity
  8
YKK_N1
  6
Continuous
100
AcDbLine
 10
26996.79401607
 20
18963.93599684
 30
0.0
 11
26946.79401607
 21
18877.33344252
 31
0.0
  0
LINE
  5
429
330
2
100
AcDbEntity
  8
YKK_A1
  6
Continuous
 48
1.5
100
AcDbLine
 10
26771.7940157
 20
18870.936117
 30
0.0
 11
26771.7940157
 21
18998.93611891
 31
0.0
  0
LINE
  5
42A
330
2
100
AcDbEntity
  8
YKK_A1
  6
Continuous
 48
1.5
100
AcDbLine
 10
26767.79401564
 20
18870.936117
 30
0.0
 11
26767.79401564
 21
18970.93611849
 31
0.0
  0
LINE
  5
42B
330
2
100
AcDbEntity
  8
YKK_A2
  6
Continuous
 48
1.5
100
AcDbLine
 10
26764.79401559
 20
18832.93611644
 30
0.0
 11
26774.79401574
 21
18832.93611644
 31
0.0
  0
LINE
  5
42C
330
2
100
AcDbEntity
  8
YKK_A2
  6
Continuous
 48
1.5
100
AcDbLine
 10
26774.79401574
 20
18870.936117
 30
0.0
 11
26774.79401574
 21
18794.93611587
 31
0.0
  0
LINE
  5
42D
330
2
100
AcDbEntity
  8
YKK_A2
  6
Continuous
 48
1.5
100
AcDbLine
 10
26774.79401574
 20
18794.93611587
 30
0.0
 11
26764.79401559
 21
18794.93611587
 31
0.0
  0
LINE
  5
42E
330
2
100
AcDbEntity
  8
YKK_A2
  6
Continuous
 48
1.5
100
AcDbLine
 10
26764.79401559
 20
18794.93611587
 30
0.0
 11
26764.79401559
 21
18870.936117
 31
0.0
  0
LINE
  5
42F
330
2
100
AcDbEntity
  8
YKK_A2
  6
Continuous
 48
1.5
100
AcDbLine
 10
26764.79401559
 20
18870.936117
 30
0.0
 11
26774.79401574
 21
18870.936117
 31
0.0
  0
TEXT
  5
430
330
2
100
AcDbEntity
  8
0
100
AcDbText
 10
27850.039
 20
19642.9363
 30
0.0
 40
200.0
  1
＊
  7
EXTFONT
100
AcDbText
  0
TEXT
  5
431
330
2
100
AcDbEntity
  8
YKK_F1
100
AcDbText
 10
28270.039
 20
19642.9363
 30
0.0
 40
200.0
  1
箇所
  7
EXTFONT
100
AcDbText
  0
ENDSEC
  0
SECTION
  2
OBJECTS
  0
DICTIONARY
  5
1A
330
0
100
AcDbDictionary
281
     1
  3
ACAD_CIP_PREVIOUS_PRODUCT_INFO
350
4EE
  3
ACAD_COLOR
350
481
  3
ACAD_DETAILVIEWSTYLE
350
49A
  3
ACAD_GROUP
350
18
  3
ACAD_LAYOUT
350
4A0
  3
ACAD_MATERIAL
350
44F
  3
ACAD_MLEADERSTYLE
350
496
  3
ACAD_MLINESTYLE
350
19
  3
ACAD_PLOTSETTINGS
350
49F
  3
ACAD_PLOTSTYLENAME
350
44D
  3
ACAD_SCALELIST
350
484
  3
ACAD_SECTIONVIEWSTYLE
350
498
  3
ACAD_TABLESTYLE
350
482
  3
ACAD_VISUALSTYLE
350
468
  3
ACDB_RECOMPOSE_DATA
350
4F4
  3
AcDbVariableDictionary
350
4E1
  0
XRECORD
  5
4EE
102
{ACAD_REACTORS
330
1A
102
}
330
1A
100
AcDbXrecord
280
     1
300
ACD
300
2014
300
86063ACD_2014_0F
  0
DICTIONARY
  5
481
102
{ACAD_REACTORS
330
1A
102
}
330
1A
100
AcDbDictionary
281
     1
  0
DICTIONARY
  5
49A
102
{ACAD_REACTORS
330
1A
102
}
330
1A
100
AcDbDictionary
281
     1
  3
Imperial24
350
49B
  0
DICTIONARY
  5
18
102
{ACAD_REACTORS
330
1A
102
}
330
1A
100
AcDbDictionary
281
     1
  0
DICTIONARY
  5
4A0
102
{ACAD_REACTORS
330
1A
102
}
330
1A
100
AcDbDictionary
281
     1
  3
Model
350
4A1
  3
レイアウト1
350
4A2
  0
DICTIONARY
  5
44F
102
{ACAD_REACTORS
330
1A
102
}
330
1A
100
AcDbDictionary
281
     1
  3
ByBlock
350
458
  3
ByLayer
350
450
  3
Global
350
460
  0
DICTIONARY
  5
496
102
{ACAD_REACTORS
330
1A
102
}
330
1A
100
AcDbDictionary
281
     1
  3
Standard
350
497
  0
DICTIONARY
  5
19
102
{ACAD_REACTORS
330
1A
102
}
330
1A
100
AcDbDictionary
281
     1
  3
STANDARD
350
1B
  0
DICTIONARY
  5
49F
102
{ACAD_REACTORS
330
1A
102
}
330
1A
100
AcDbDictionary
281
     1
  0
ACDBDICTIONARYWDFLT
  5
44D
102
{ACAD_REACTORS
330
1A
102
}
330
1A
100
AcDbDictionary
281
     1
  3
Normal
350
44E
100
AcDbDictionaryWithDefault
340
44E
  0
DICTIONARY
  5
484
102
{ACAD_REACTORS
330
1A
102
}
330
1A
100
AcDbDictionary
281
     1
  3
A0
350
485
  3
A1
350
486
  3
A2
350
487
  3
A3
350
488
  3
A4
350
489
  3
A5
350
48A
  3
A6
350
48B
  3
A7
350
48C
  3
A8
350
48D
  3
A9
350
48E
  3
B0
350
48F
  3
B1
350
490
  3
B2
350
491
  3
B3
350
492
  3
B4
350
493
  3
B5
350
494
  3
B6
350
495
  0
DICTIONARY
  5
498
102
{ACAD_REACTORS
330
1A
102
}
330
1A
100
AcDbDictionary
281
     1
  3
Imperial24
350
499
  0
DICTIONARY
  5
482
102
{ACAD_REACTORS
330
1A
102
}
330
1A
100
AcDbDictionary
281
     1
  3
Standard
350
483
  0
DICTIONARY
  5
468
102
{ACAD_REACTORS
330
1A
102
}
330
1A
100
AcDbDictionary
281
     1
  3
2dWireframe
350
46E
  3
Basic
350
46D
  3
Brighten
350
474
  3
ColorChange
350
478
  3
Conceptual
350
471
  3
Dim
350
473
  3
EdgeColorOff
350
480
  3
Facepattern
350
477
  3
Flat
350
469
  3
FlatWithEdges
350
46A
  3
Gouraud
350
46B
  3
GouraudWithEdges
350
46C
  3
Hidden
350
470
  3
JitterOff
350
47E
  3
Linepattern
350
476
  3
OverhangOff
350
47F
  3
Realistic
350
472
  3
Shaded
350
47D
  3
Shaded with edges
350
47C
  3
Shades of Gray
350
479
  3
Sketchy
350
47A
  3
Thicken
350
475
  3
Wireframe
350
46F
  3
X-Ray
350
47B
  0
XRECORD
  5
4F4
102
{ACAD_REACTORS
330
1A
102
}
330
1A
100
AcDbXrecord
280
     1
 90
        1
330
483
  0
DICTIONARY
  5
4E1
102
{ACAD_REACTORS
330
1A
102
}
330
1A
100
AcDbDictionary
281
     1
  3
CANNOSCALE
350
4E6
  3
CMLEADERSTYLE
350
4E3
  3
CTABLESTYLE
350
4E2
  3
CVIEWDETAILSTYLE
350
4E4
  3
CVIEWSECTIONSTYLE
350
4E5
  3
XCLIPFRAME
350
4F2
  0
ACDBDETAILVIEWSTYLE
  5
49B
102
{ACAD_XDICTIONARY
360
52D
102
}
102
{ACAD_REACTORS
330
49A
102
}
330
49A
100
AcDbModelDocViewStyle
 70
     0
  3
Imperial24
290
     0
100
AcDbDetailViewStyle
 70
     0
 71
     0
 90
        3
 71
     1
340
C
 62
   256
 40
0.24
340
0
 62
   256
 40
0.24
300

 40
0.36
280
     3
 71
     2
340
5
 90
       25
 62
   256
 71
     3
340
C
 62
   256
 40
0.24
 90
        1
 40
0.75
 90
        1
300
%<\AcVar ViewType \f "%tc1">% %<\AcVar ViewDetailId>%\PSCALE %<\AcVar ViewScale \f "%sn">%
 71
     4
340
5
 90
       25
 62
   256
340
5
 90
       25
 62
   256
280
     0
  0
LAYOUT
  5
4A1
102
{ACAD_REACTORS
330
4A0
102
}
330
4A0
100
AcDbPlotSettings
  1

  2
C:\ACAD-I\support\plotters\Default Windows System Printer.pc3
  4
A4
  6

 40
3.17499995
 41
3.17499995
 42
3.17500305
 43
3.17498779
 44
209.88865662
 45
297.05300903
 46
0.0
 47
0.0
 48
0.0
 49
0.0
140
0.0
141
0.0
142
1.0
143
3183.24838266
 70
 11952
 72
     0
 73
     1
 74
     0
  7
monochrome.ctb
 75
     0
147
0.00031414
 76
     0
 77
     2
 78
   300
148
57496.09279175
149
2222.61049943
100
AcDbLayout
  1
Model
 70
     1
 71
     0
 10
0.0
 20
0.0
 11
12.0
 21
9.0
 12
0.0
 22
0.0
 32
0.0
 14
0.0
 24
0.0
 34
0.0
 15
0.0
 25
0.0
 35
0.0
146
0.0
 13
0.0
 23
0.0
 33
0.0
 16
1.0
 26
0.0
 36
0.0
 17
0.0
 27
1.0
 37
0.0
 76
     0
330
2
1001
ACAD_PSEXT
1000
C:\ACAD-I\support\plotters\Default Windows System Printer.pc3
1000
Fiery PRO80 65-55C-KM PS3.0jp
1000
IP_10.230.204.212
1000

1070
     0
  0
LAYOUT
  5
4A2
102
{ACAD_REACTORS
330
4A0
102
}
330
4A0
100
AcDbPlotSettings
  1

  2
C:\ACAD-I\support\plotters\Default Windows System Printer.pc3
  4
A4
  6

 40
3.17499995
 41
3.17499995
 42
3.17500305
 43
3.17498779
 44
209.88865662
 45
297.05300903
 46
0.0
 47
0.0
 48
0.0
 49
0.0
140
0.0
141
0.0
142
1.0
143
1.0
 70
 15024
 72
     0
 73
     1
 74
     5
  7
monochrome.ctb
 75
    16
147
1.0
 76
     0
 77
     2
 78
   300
148
0.0
149
0.0
100
AcDbLayout
  1
レイアウト1
 70
     0
 71
     1
 10
0.0
 20
0.0
 11
12.0
 21
9.0
 12
0.0
 22
0.0
 32
0.0
 14
1.00000000E+20
 24
1.00000000E+20
 34
1.00000000E+20
 15
-1.00000000E+20
 25
-1.00000000E+20
 35
-1.00000000E+20
146
0.0
 13
0.0
 23
0.0
 33
0.0
 16
1.0
 26
0.0
 36
0.0
 17
0.0
 27
1.0
 37
0.0
 76
     0
330
7
1001
ACAD_PSEXT
1000
C:\ACAD-I\support\plotters\Default Windows System Printer.pc3
1000
Fiery PRO80 65-55C-KM PS3.0jp
1000
IP_10.230.204.212
1000

1070
     0
  0
MATERIAL
  5
458
102
{ACAD_XDICTIONARY
360
459
102
}
102
{ACAD_REACTORS
330
44F
102
}
330
44F
100
AcDbMaterial
  1
ByBlock
 72
     0
 43
0.02083333
 43
0.0
 43
0.0
 43
0.0
 43
0.0
 43
0.02083333
 43
0.0
 43
0.0
 43
0.0
 43
0.0
 43
1.0
 43
0.0
 43
0.0
 43
0.0
 43
0.0
 43
1.0
 77
     0
 47
0.02083333
 47
0.0
 47
0.0
 47
0.0
 47
0.0
 47
0.02083333
 47
0.0
 47
0.0
 47
0.0
 47
0.0
 47
1.0
 47
0.0
 47
0.0
 47
0.0
 47
0.0
 47
1.0
171
     0
 49
0.02083333
 49
0.0
 49
0.0
 49
0.0
 49
0.0
 49
0.02083333
 49
0.0
 49
0.0
 49
0.0
 49
0.0
 49
1.0
 49
0.0
 49
0.0
 49
0.0
 49
0.0
 49
1.0
175
     0
142
0.02083333
142
0.0
142
0.0
142
0.0
142
0.0
142
0.02083333
142
0.0
142
0.0
142
0.0
142
0.0
142
1.0
142
0.0
142
0.0
142
0.0
142
0.0
142
1.0
179
     0
144
0.02083333
144
0.0
144
0.0
144
0.0
144
0.0
144
0.02083333
144
0.0
144
0.0
144
0.0
144
0.0
144
1.0
144
0.0
144
0.0
144
0.0
144
0.0
144
1.0
147
0.02083333
147
0.0
147
0.0
147
0.0
147
0.0
147
0.02083333
147
0.0
147
0.0
147
0.0
147
0.0
147
1.0
147
0.0
147
0.0
147
0.0
147
0.0
147
1.0
  0
MATERIAL
  5
450
102
{ACAD_XDICTIONARY
360
451
102
}
102
{ACAD_REACTORS
330
44F
102
}
330
44F
100
AcDbMaterial
  1
ByLayer
 72
     0
 43
0.02083333
 43
0.0
 43
0.0
 43
0.0
 43
0.0
 43
0.02083333
 43
0.0
 43
0.0
 43
0.0
 43
0.0
 43
1.0
 43
0.0
 43
0.0
 43
0.0
 43
0.0
 43
1.0
 77
     0
 47
0.02083333
 47
0.0
 47
0.0
 47
0.0
 47
0.0
 47
0.02083333
 47
0.0
 47
0.0
 47
0.0
 47
0.0
 47
1.0
 47
0.0
 47
0.0
 47
0.0
 47
0.0
 47
1.0
171
     0
 49
0.02083333
 49
0.0
 49
0.0
 49
0.0
 49
0.0
 49
0.02083333
 49
0.0
 49
0.0
 49
0.0
 49
0.0
 49
1.0
 49
0.0
 49
0.0
 49
0.0
 49
0.0
 49
1.0
175
     0
142
0.02083333
142
0.0
142
0.0
142
0.0
142
0.0
142
0.02083333
142
0.0
142
0.0
142
0.0
142
0.0
142
1.0
142
0.0
142
0.0
142
0.0
142
0.0
142
1.0
179
     0
144
0.02083333
144
0.0
144
0.0
144
0.0
144
0.0
144
0.02083333
144
0.0
144
0.0
144
0.0
144
0.0
144
1.0
144
0.0
144
0.0
144
0.0
144
0.0
144
1.0
147
0.02083333
147
0.0
147
0.0
147
0.0
147
0.0
147
0.02083333
147
0.0
147
0.0
147
0.0
147
0.0
147
1.0
147
0.0
147
0.0
147
0.0
147
0.0
147
1.0
  0
MATERIAL
  5
460
102
{ACAD_XDICTIONARY
360
461
102
}
102
{ACAD_REACTORS
330
44F
102
}
330
44F
100
AcDbMaterial
  1
Global
 72
     0
 43
0.02083333
 43
0.0
 43
0.0
 43
0.0
 43
0.0
 43
0.02083333
 43
0.0
 43
0.0
 43
0.0
 43
0.0
 43
1.0
 43
0.0
 43
0.0
 43
0.0
 43
0.0
 43
1.0
 77
     0
 47
0.02083333
 47
0.0
 47
0.0
 47
0.0
 47
0.0
 47
0.02083333
 47
0.0
 47
0.0
 47
0.0
 47
0.0
 47
1.0
 47
0.0
 47
0.0
 47
0.0
 47
0.0
 47
1.0
171
     0
 49
0.02083333
 49
0.0
 49
0.0
 49
0.0
 49
0.0
 49
0.02083333
 49
0.0
 49
0.0
 49
0.0
 49
0.0
 49
1.0
 49
0.0
 49
0.0
 49
0.0
 49
0.0
 49
1.0
175
     0
142
0.02083333
142
0.0
142
0.0
142
0.0
142
0.0
142
0.02083333
142
0.0
142
0.0
142
0.0
142
0.0
142
1.0
142
0.0
142
0.0
142
0.0
142
0.0
142
1.0
179
     0
144
0.02083333
144
0.0
144
0.0
144
0.0
144
0.0
144
0.02083333
144
0.0
144
0.0
144
0.0
144
0.0
144
1.0
144
0.0
144
0.0
144
0.0
144
0.0
144
1.0
147
0.02083333
147
0.0
147
0.0
147
0.0
147
0.0
147
0.02083333
147
0.0
147
0.0
147
0.0
147
0.0
147
1.0
147
0.0
147
0.0
147
0.0
147
0.0
147
1.0
  0
MLEADERSTYLE
  5
497
102
{ACAD_XDICTIONARY
360
529
102
}
102
{ACAD_REACTORS
330
496
102
}
330
496
100
AcDbMLeaderStyle
170
     2
171
     1
172
     0
 90
        2
 40
0.0
 41
0.0
173
     1
 91
-1056964608
340
E
 92
       -2
290
     1
 42
0.09
291
     1
 43
0.36
  3
Standard
 44
0.18
300

342
C
174
     1
178
     6
175
     1
176
     0
 93
-1056964608
 45
0.18
292
     0
297
     0
 46
0.18
 94
-1056964608
 47
1.0
 49
1.0
140
1.0
293
     1
141
0.0
294
     1
177
     0
142
1.0
295
     0
296
     0
143
0.125
1001
ACAD_MLEADERVER
1070
     2
  0
MLINESTYLE
  5
1B
102
{ACAD_REACTORS
330
19
102
}
330
19
100
AcDbMlineStyle
  2
STANDARD
 70
     0
  3

 62
   256
 51
90.0
 52
90.0
 71
     2
 49
0.5
 62
   256
  6
BYLAYER
 49
-0.5
 62
   256
  6
BYLAYER
  0
ACDBPLACEHOLDER
  5
44E
102
{ACAD_REACTORS
330
44D
102
}
330
44D
  0
SCALE
  5
485
102
{ACAD_REACTORS
330
484
102
}
330
484
100
AcDbScale
 70
     0
300
1:1
140
1.0
141
1.0
290
     1
  0
SCALE
  5
486
102
{ACAD_REACTORS
330
484
102
}
330
484
100
AcDbScale
 70
     0
300
1/128" = 1'-0"
140
0.0078125
141
12.0
290
     0
  0
SCALE
  5
487
102
{ACAD_REACTORS
330
484
102
}
330
484
100
AcDbScale
 70
     0
300
1/64" = 1'-0"
140
0.015625
141
12.0
290
     0
  0
SCALE
  5
488
102
{ACAD_REACTORS
330
484
102
}
330
484
100
AcDbScale
 70
     0
300
1/32" = 1'-0"
140
0.03125
141
12.0
290
     0
  0
SCALE
  5
489
102
{ACAD_REACTORS
330
484
102
}
330
484
100
AcDbScale
 70
     0
300
1/16" = 1'-0"
140
0.0625
141
12.0
290
     0
  0
SCALE
  5
48A
102
{ACAD_REACTORS
330
484
102
}
330
484
100
AcDbScale
 70
     0
300
3/32" = 1'-0"
140
0.09375
141
12.0
290
     0
  0
SCALE
  5
48B
102
{ACAD_REACTORS
330
484
102
}
330
484
100
AcDbScale
 70
     0
300
1/8" = 1'-0"
140
0.125
141
12.0
290
     0
  0
SCALE
  5
48C
102
{ACAD_REACTORS
330
484
102
}
330
484
100
AcDbScale
 70
     0
300
3/16" = 1'-0"
140
0.1875
141
12.0
290
     0
  0
SCALE
  5
48D
102
{ACAD_REACTORS
330
484
102
}
330
484
100
AcDbScale
 70
     0
300
1/4" = 1'-0"
140
0.25
141
12.0
290
     0
  0
SCALE
  5
48E
102
{ACAD_REACTORS
330
484
102
}
330
484
100
AcDbScale
 70
     0
300
3/8" = 1'-0"
140
0.375
141
12.0
290
     0
  0
SCALE
  5
48F
102
{ACAD_REACTORS
330
484
102
}
330
484
100
AcDbScale
 70
     0
300
1/2" = 1'-0"
140
0.5
141
12.0
290
     0
  0
SCALE
  5
490
102
{ACAD_REACTORS
330
484
102
}
330
484
100
AcDbScale
 70
     0
300
3/4" = 1'-0"
140
0.75
141
12.0
290
     0
  0
SCALE
  5
491
102
{ACAD_REACTORS
330
484
102
}
330
484
100
AcDbScale
 70
     0
300
1" = 1'-0"
140
1.0
141
12.0
290
     0
  0
SCALE
  5
492
102
{ACAD_REACTORS
330
484
102
}
330
484
100
AcDbScale
 70
     0
300
1-1/2" = 1'-0"
140
1.5
141
12.0
290
     0
  0
SCALE
  5
493
102
{ACAD_REACTORS
330
484
102
}
330
484
100
AcDbScale
 70
     0
300
3" = 1'-0"
140
3.0
141
12.0
290
     0
  0
SCALE
  5
494
102
{ACAD_REACTORS
330
484
102
}
330
484
100
AcDbScale
 70
     0
300
6" = 1'-0"
140
6.0
141
12.0
290
     0
  0
SCALE
  5
495
102
{ACAD_REACTORS
330
484
102
}
330
484
100
AcDbScale
 70
     0
300
1'-0" = 1'-0"
140
12.0
141
12.0
290
     0
  0
ACDBSECTIONVIEWSTYLE
  5
499
102
{ACAD_XDICTIONARY
360
52B
102
}
102
{ACAD_REACTORS
330
498
102
}
330
498
100
AcDbModelDocViewStyle
 70
     0
  3
Imperial24
290
     0
100
AcDbSectionViewStyle
 70
     0
 71
     0
 90
      102
 71
     1
340
C
 62
   256
 40
5.0
340
0
340
0
 62
   256
 40
5.0
300
I, O, Q, S, X, Z
 40
10.0
 90
        0
 40
2.5
 90
        0
 71
     2
340
5
 90
       25
 62
   256
340
5
 90
       50
 62
   256
 40
5.0
 40
2.5
 40
5.0
 71
     3
340
C
 62
   256
 40
5.0
 90
        0
 40
15.0
 90
        1
300
%<\AcVar ViewSectionStartId>%-%<\AcVar ViewSectionEndId>% (%<\AcVar ViewScale \f "%sn">%)
 71
     4
 62
   256
 62
   257
300
ANSI31
 40
1.0
 90
        0
290
     0
290
     0
 90
        6
 40
0.0
 40
1.57079633
 40
0.26179939
 40
1.30899694
 40
-0.26179939
 40
1.83259571
  0
TABLESTYLE
  5
483
102
{ACAD_XDICTIONARY
360
4A3
102
}
102
{ACAD_REACTORS
330
482
102
}
330
482
100
AcDbTableStyle
  3
Standard
 70
     0
 71
     0
 40
0.06
 41
0.06
280
     0
281
     0
  7
STANDARD
140
0.18
170
     2
 62
     0
 63
     7
283
     0
274
    -2
284
     1
 64
     0
275
    -2
285
     1
 65
     0
276
    -2
286
     1
 66
     0
277
    -2
287
     1
 67
     0
278
    -2
288
     1
 68
     0
279
    -2
289
     1
 69
     0
  7
STANDARD
140
0.25
170
     5
 62
     0
 63
     7
283
     0
274
    -2
284
     1
 64
     0
275
    -2
285
     1
 65
     0
276
    -2
286
     1
 66
     0
277
    -2
287
     1
 67
     0
278
    -2
288
     1
 68
     0
279
    -2
289
     1
 69
     0
  7
STANDARD
140
0.18
170
     5
 62
     0
 63
     7
283
     0
274
    -2
284
     1
 64
     0
275
    -2
285
     1
 65
     0
276
    -2
286
     1
 66
     0
277
    -2
287
     1
 67
     0
278
    -2
288
     1
 68
     0
279
    -2
289
     1
 69
     0
  0
VISUALSTYLE
  5
46E
102
{ACAD_XDICTIONARY
360
502
102
}
102
{ACAD_REACTORS
330
468
102
}
330
468
100
AcDbVisualStyle
  2
2dWireframe
 70
     4
 71
     0
 72
     2
 73
     0
 90
        0
 40
-0.6
 41
-30.0
 62
     5
 63
     7
421
 16777215
 74
     1
 91
        4
 64
     7
 65
   257
 75
     1
175
     1
 42
1.0
 92
        0
 66
   257
 43
1.0
 76
     1
 77
     6
 78
     2
 67
     7
 79
     5
170
     0
171
     0
290
     0
174
     0
 93
        1
 44
0.0
173
     0
291
     0
 45
0.0
1001
ACAD
1000
AcDbSavedByObjectVersion
1070
     0
  0
VISUALSTYLE
  5
46D
102
{ACAD_XDICTIONARY
360
500
102
}
102
{ACAD_REACTORS
330
468
102
}
330
468
100
AcDbVisualStyle
  2
Basic
 70
     7
 71
     1
 72
     0
 73
     1
 90
        0
 40
-0.6
 41
-30.0
 62
     5
 63
     7
421
 16777215
 74
     0
 91
        4
 64
     7
 65
   257
 75
     1
175
     1
 42
1.0
 92
        8
 66
     7
 43
1.0
 76
     1
 77
     6
 78
     2
 67
     7
 79
     5
170
     0
171
     0
290
     0
174
     0
 93
        1
 44
0.0
173
     0
291
     1
 45
0.0
1001
ACAD
1000
AcDbSavedByObjectVersion
1070
     0
  0
VISUALSTYLE
  5
474
102
{ACAD_XDICTIONARY
360
50E
102
}
102
{ACAD_REACTORS
330
468
102
}
330
468
100
AcDbVisualStyle
  2
Brighten
 70
    12
 71
     2
 72
     2
 73
     0
 90
        0
 40
-0.6
 41
-30.0
 62
     5
 63
     7
421
 16777215
 74
     1
 91
        4
 64
     7
 65
   257
 75
     1
175
     1
 42
1.0
 92
        8
 66
     7
 43
1.0
 76
     1
 77
     6
 78
     2
 67
     7
 79
     5
170
     0
171
     0
290
     0
174
     0
 93
        1
 44
50.0
173
     0
291
     1
 45
0.0
1001
ACAD
1000
AcDbSavedByObjectVersion
1070
     0
  0
VISUALSTYLE
  5
478
102
{ACAD_XDICTIONARY
360
516
102
}
102
{ACAD_REACTORS
330
468
102
}
330
468
100
AcDbVisualStyle
  2
ColorChange
 70
    16
 71
     2
 72
     2
 73
     3
 90
        0
 40
-0.6
 41
-30.0
 62
     5
 63
     8
421
  8421504
 74
     1
 91
        4
 64
     7
 65
   257
 75
     1
175
     1
 42
1.0
 92
        8
 66
     8
424
  8421504
 43
1.0
 76
     1
 77
     6
 78
     2
 67
     7
 79
     5
170
     0
171
     0
290
     0
174
     0
 93
        1
 44
0.0
173
     0
291
     1
 45
0.0
1001
ACAD
1000
AcDbSavedByObjectVersion
1070
     0
  0
VISUALSTYLE
  5
471
102
{ACAD_XDICTIONARY
360
508
102
}
102
{ACAD_REACTORS
330
468
102
}
330
468
100
AcDbVisualStyle
  2
Conceptual
 70
     9
 71
     3
 72
     2
 73
     0
 90
        0
 40
-0.6
 41
-30.0
 62
     5
 63
     7
421
 16777215
 74
     2
 91
        2
 64
     7
 65
   257
 75
     1
175
     1
 42
179.0
 92
        8
 66
     7
 43
1.0
 76
     1
 77
     6
 78
     2
 67
     7
 79
     3
170
     0
171
     0
290
     0
174
     0
 93
        1
 44
0.0
173
     0
291
     0
 45
0.0
1001
ACAD
1000
AcDbSavedByObjectVersion
1070
     0
  0
VISUALSTYLE
  5
473
102
{ACAD_XDICTIONARY
360
50C
102
}
102
{ACAD_REACTORS
330
468
102
}
330
468
100
AcDbVisualStyle
  2
Dim
 70
    11
 71
     2
 72
     2
 73
     0
 90
        0
 40
-0.6
 41
-30.0
 62
     5
 63
     7
421
 16777215
 74
     1
 91
        4
 64
     7
 65
   257
 75
     1
175
     1
 42
1.0
 92
        8
 66
     7
 43
1.0
 76
     1
 77
     6
 78
     2
 67
     7
 79
     5
170
     0
171
     0
290
     0
174
     0
 93
        1
 44
-50.0
173
     0
291
     1
 45
0.0
1001
ACAD
1000
AcDbSavedByObjectVersion
1070
     0
  0
VISUALSTYLE
  5
480
102
{ACAD_XDICTIONARY
360
526
102
}
102
{ACAD_REACTORS
330
468
102
}
330
468
100
AcDbVisualStyle
  2
EdgeColorOff
 70
    22
 71
     2
 72
     2
 73
     0
 90
        0
 40
-0.6
 41
-30.0
 62
     5
 63
     7
421
 16777215
 74
     1
 91
        4
 64
     7
 65
   257
 75
     1
175
     1
 42
1.0
 92
        8
 66
     7
 43
1.0
 76
     1
 77
     6
 78
     2
 67
     7
 79
     5
170
     0
171
     0
290
     0
174
     0
 93
        1
 44
0.0
173
     0
291
     1
 45
0.0
1001
ACAD
1000
AcDbSavedByObjectVersion
1070
     0
  0
VISUALSTYLE
  5
477
102
{ACAD_XDICTIONARY
360
514
102
}
102
{ACAD_REACTORS
330
468
102
}
330
468
100
AcDbVisualStyle
  2
Facepattern
 70
    15
 71
     2
 72
     2
 73
     0
 90
        0
 40
-0.6
 41
-30.0
 62
     5
 63
     7
421
 16777215
 74
     1
 91
        4
 64
     7
 65
   257
 75
     1
175
     1
 42
1.0
 92
        8
 66
     7
 43
1.0
 76
     1
 77
     6
 78
     2
 67
     7
 79
     5
170
     0
171
     0
290
     0
174
     0
 93
        1
 44
0.0
173
     0
291
     1
 45
0.0
1001
ACAD
1000
AcDbSavedByObjectVersion
1070
     0
  0
VISUALSTYLE
  5
469
102
{ACAD_XDICTIONARY
360
4F8
102
}
102
{ACAD_REACTORS
330
468
102
}
330
468
100
AcDbVisualStyle
  2
Flat
 70
     0
 71
     2
 72
     1
 73
     1
 90
        2
 40
-0.6
 41
30.0
 62
     5
 63
     7
421
 16777215
 74
     0
 91
        0
 64
     7
 65
   257
 75
     1
175
     1
 42
1.0
 92
        8
 66
     7
 43
1.0
 76
     1
 77
     6
 78
     2
 67
     7
 79
     5
170
     0
171
     0
290
     0
174
     0
 93
       13
 44
0.0
173
     0
291
     1
 45
0.0
1001
ACAD
1000
AcDbSavedByObjectVersion
1070
     0
  0
VISUALSTYLE
  5
46A
102
{ACAD_XDICTIONARY
360
4FA
102
}
102
{ACAD_REACTORS
330
468
102
}
330
468
100
AcDbVisualStyle
  2
FlatWithEdges
 70
     1
 71
     2
 72
     1
 73
     1
 90
        2
 40
-0.6
 41
30.0
 62
     5
 63
     7
421
 16777215
 74
     1
 91
        0
 64
     7
 65
   257
 75
     1
175
     1
 42
1.0
 92
        0
 66
   257
 43
1.0
 76
     1
 77
     6
 78
     2
 67
     7
 79
     5
170
     0
171
     0
290
     0
174
     0
 93
       13
 44
0.0
173
     0
291
     1
 45
0.0
1001
ACAD
1000
AcDbSavedByObjectVersion
1070
     0
  0
VISUALSTYLE
  5
46B
102
{ACAD_XDICTIONARY
360
4FC
102
}
102
{ACAD_REACTORS
330
468
102
}
330
468
100
AcDbVisualStyle
  2
Gouraud
 70
     2
 71
     2
 72
     2
 73
     1
 90
        2
 40
-0.6
 41
30.0
 62
     5
 63
     7
421
 16777215
 74
     0
 91
        0
 64
     7
 65
   257
 75
     1
175
     1
 42
1.0
 92
        0
 66
     7
 43
1.0
 76
     1
 77
     6
 78
     2
 67
     7
 79
     5
170
     0
171
     0
290
     0
174
     0
 93
       13
 44
0.0
173
     0
291
     1
 45
0.0
1001
ACAD
1000
AcDbSavedByObjectVersion
1070
     0
  0
VISUALSTYLE
  5
46C
102
{ACAD_XDICTIONARY
360
4FE
102
}
102
{ACAD_REACTORS
330
468
102
}
330
468
100
AcDbVisualStyle
  2
GouraudWithEdges
 70
     3
 71
     2
 72
     2
 73
     1
 90
        2
 40
-0.6
 41
30.0
 62
     5
 63
     7
421
 16777215
 74
     1
 91
        0
 64
     7
 65
   257
 75
     1
175
     1
 42
1.0
 92
        0
 66
   257
 43
1.0
 76
     1
 77
     6
 78
     2
 67
     7
 79
     5
170
     0
171
     0
290
     0
174
     0
 93
       13
 44
0.0
173
     0
291
     1
 45
0.0
1001
ACAD
1000
AcDbSavedByObjectVersion
1070
     0
  0
VISUALSTYLE
  5
470
102
{ACAD_XDICTIONARY
360
506
102
}
102
{ACAD_REACTORS
330
468
102
}
330
468
100
AcDbVisualStyle
  2
Hidden
 70
     6
 71
     1
 72
     2
 73
     2
 90
        0
 40
-0.6
 41
-30.0
 62
     5
 63
     7
421
 16777215
 74
     2
 91
        2
 64
     7
 65
   257
 75
     2
175
     1
 42
40.0
 92
        0
 66
   257
 43
1.0
 76
     1
 77
     6
 78
     2
 67
     7
 79
     3
170
     0
171
     0
290
     0
174
     0
 93
        1
 44
0.0
173
     0
291
     0
 45
0.0
1001
ACAD
1000
AcDbSavedByObjectVersion
1070
     0
  0
VISUALSTYLE
  5
47E
102
{ACAD_XDICTIONARY
360
522
102
}
102
{ACAD_REACTORS
330
468
102
}
330
468
100
AcDbVisualStyle
  2
JitterOff
 70
    20
 71
     2
 72
     2
 73
     0
 90
        0
 40
-0.6
 41
-30.0
 62
     5
 63
     7
421
 16777215
 74
     1
 91
        4
 64
     7
 65
   257
 75
     1
175
     1
 42
1.0
 92
       10
 66
     7
 43
1.0
 76
     1
 77
     6
 78
     2
 67
     7
 79
     5
170
     0
171
     0
290
     0
174
     0
 93
        1
 44
0.0
173
     0
291
     1
 45
0.0
1001
ACAD
1000
AcDbSavedByObjectVersion
1070
     0
  0
VISUALSTYLE
  5
476
102
{ACAD_XDICTIONARY
360
512
102
}
102
{ACAD_REACTORS
330
468
102
}
330
468
100
AcDbVisualStyle
  2
Linepattern
 70
    14
 71
     2
 72
     2
 73
     0
 90
        0
 40
-0.6
 41
-30.0
 62
     5
 63
     7
421
 16777215
 74
     1
 91
        4
 64
     7
 65
   257
 75
     7
175
     7
 42
1.0
 92
        8
 66
     7
 43
1.0
 76
     1
 77
     6
 78
     2
 67
     7
 79
     5
170
     0
171
     0
290
     0
174
     0
 93
        1
 44
0.0
173
     0
291
     1
 45
0.0
1001
ACAD
1000
AcDbSavedByObjectVersion
1070
     0
  0
VISUALSTYLE
  5
47F
102
{ACAD_XDICTIONARY
360
524
102
}
102
{ACAD_REACTORS
330
468
102
}
330
468
100
AcDbVisualStyle
  2
OverhangOff
 70
    21
 71
     2
 72
     2
 73
     0
 90
        0
 40
-0.6
 41
-30.0
 62
     5
 63
     7
421
 16777215
 74
     1
 91
        4
 64
     7
 65
   257
 75
     1
175
     1
 42
1.0
 92
        9
 66
     7
 43
1.0
 76
     1
 77
     6
 78
     2
 67
     7
 79
     5
170
     0
171
     0
290
     0
174
     0
 93
        1
 44
0.0
173
     0
291
     1
 45
0.0
1001
ACAD
1000
AcDbSavedByObjectVersion
1070
     0
  0
VISUALSTYLE
  5
472
102
{ACAD_XDICTIONARY
360
50A
102
}
102
{ACAD_REACTORS
330
468
102
}
330
468
100
AcDbVisualStyle
  2
Realistic
 70
     8
 71
     2
 72
     2
 73
     0
 90
        2
 40
-0.6
 41
30.0
 62
     5
 63
     7
421
 16777215
 74
     0
 91
        0
 64
     7
 65
   257
 75
     1
175
     1
 42
1.0
 92
        8
 66
   257
 43
1.0
 76
     1
 77
     6
 78
     2
 67
     7
 79
     3
170
     0
171
     0
290
     0
174
     0
 93
       13
 44
0.0
173
     0
291
     0
 45
0.0
1001
ACAD
1000
AcDbSavedByObjectVersion
1070
     0
  0
VISUALSTYLE
  5
47D
102
{ACAD_XDICTIONARY
360
520
102
}
102
{ACAD_REACTORS
330
468
102
}
330
468
100
AcDbVisualStyle
  2
Shaded
 70
    27
 71
     2
 72
     2
 73
     1
 90
        2
 40
-0.6
 41
30.0
 62
     5
 63
     7
421
 16777215
 74
     0
 91
        4
 64
     7
 65
   257
 75
     1
175
     1
 42
1.0
 92
        8
 66
   257
 43
1.0
 76
     1
 77
     6
 78
     2
 67
     8
425
  7895160
 79
     3
170
     0
171
     0
290
     0
174
     0
 93
        5
 44
0.0
173
     0
291
     0
 45
0.0
1001
ACAD
1000
AcDbSavedByObjectVersion
1070
     0
  0
VISUALSTYLE
  5
47C
102
{ACAD_XDICTIONARY
360
51E
102
}
102
{ACAD_REACTORS
330
468
102
}
330
468
100
AcDbVisualStyle
  2
Shaded with edges
 70
    26
 71
     2
 72
     2
 73
     1
 90
        2
 40
-0.6
 41
30.0
 62
     5
 63
     7
421
 16777215
 74
     1
 91
       10
 64
     7
 65
   257
 75
     2
175
     1
 42
1.0
 92
        8
 66
   257
 43
1.0
 76
     1
 77
     6
 78
     2
 67
     7
 79
     3
170
     0
171
     0
290
     0
174
     0
 93
        5
 44
0.0
173
     0
291
     0
 45
0.0
1001
ACAD
1000
AcDbSavedByObjectVersion
1070
     0
  0
VISUALSTYLE
  5
479
102
{ACAD_XDICTIONARY
360
518
102
}
102
{ACAD_REACTORS
330
468
102
}
330
468
100
AcDbVisualStyle
  2
Shades of Gray
 70
    23
 71
     2
 72
     2
 73
     3
 90
        0
 40
-0.6
 41
-30.0
 62
     5
 63
     7
421
 16777215
 74
     2
 91
        2
 64
     7
 65
     7
 75
     1
175
     1
 42
40.0
 92
        8
 66
     7
 43
1.0
 76
     1
 77
     6
 78
     2
 67
     7
 79
     3
170
     0
171
     0
290
     0
174
     0
 93
        1
 44
0.0
173
     0
291
     0
 45
0.0
1001
ACAD
1000
AcDbSavedByObjectVersion
1070
     0
  0
VISUALSTYLE
  5
47A
102
{ACAD_XDICTIONARY
360
51A
102
}
102
{ACAD_REACTORS
330
468
102
}
330
468
100
AcDbVisualStyle
  2
Sketchy
 70
    24
 71
     1
 72
     2
 73
     2
 90
        0
 40
-0.6
 41
-30.0
 62
     5
 63
     7
421
 16777215
 74
     2
 91
        2
 64
     7
 65
     7
 75
     1
175
     1
 42
40.0
 92
       11
 66
     7
 43
1.0
 76
     1
 77
     6
 78
     2
 67
     7
 79
     6
170
     0
171
     0
290
     0
174
     0
 93
        1
 44
0.0
173
     0
291
     0
 45
0.0
1001
ACAD
1000
AcDbSavedByObjectVersion
1070
     0
  0
VISUALSTYLE
  5
475
102
{ACAD_XDICTIONARY
360
510
102
}
102
{ACAD_REACTORS
330
468
102
}
330
468
100
AcDbVisualStyle
  2
Thicken
 70
    13
 71
     2
 72
     2
 73
     0
 90
        0
 40
-0.6
 41
-30.0
 62
     5
 63
     7
421
 16777215
 74
     1
 91
        4
 64
     7
 65
   257
 75
     1
175
     1
 42
1.0
 92
       12
 66
     7
 43
1.0
 76
     1
 77
     6
 78
     2
 67
     7
 79
     5
170
     0
171
     0
290
     0
174
     0
 93
        1
 44
0.0
173
     0
291
     1
 45
0.0
1001
ACAD
1000
AcDbSavedByObjectVersion
1070
     0
  0
VISUALSTYLE
  5
46F
102
{ACAD_XDICTIONARY
360
504
102
}
102
{ACAD_REACTORS
330
468
102
}
330
468
100
AcDbVisualStyle
  2
Wireframe
 70
     5
 71
     0
 72
     2
 73
     0
 90
        0
 40
-0.6
 41
-30.0
 62
     5
 63
     7
421
 16777215
 74
     1
 91
        4
 64
     7
 65
   257
 75
     1
175
     1
 42
1.0
 92
        0
 66
   257
 43
1.0
 76
     1
 77
     6
 78
     2
 67
     7
 79
     3
170
     0
171
     0
290
     0
174
     0
 93
        1
 44
0.0
173
     0
291
     0
 45
0.0
1001
ACAD
1000
AcDbSavedByObjectVersion
1070
     0
  0
VISUALSTYLE
  5
47B
102
{ACAD_XDICTIONARY
360
51C
102
}
102
{ACAD_REACTORS
330
468
102
}
330
468
100
AcDbVisualStyle
  2
X-Ray
 70
    25
 71
     2
 72
     2
 73
     1
 90
        1
 40
0.5
 41
-30.0
 62
     5
 63
     7
421
 16777215
 74
     1
 91
        0
 64
     7
 65
   257
 75
     1
175
     1
 42
1.0
 92
        8
 66
     7
 43
1.0
 76
     1
 77
     6
 78
     2
 67
     7
 79
     3
170
     0
171
     0
290
     0
174
     0
 93
       13
 44
0.0
173
     0
291
     0
 45
0.0
1001
ACAD
1000
AcDbSavedByObjectVersion
1070
     0
  0
DICTIONARYVAR
  5
4E6
102
{ACAD_REACTORS
330
4E1
102
}
330
4E1
100
DictionaryVariables
280
     0
  1
1:1
  0
DICTIONARYVAR
  5
4E3
102
{ACAD_REACTORS
330
4E1
102
}
330
4E1
100
DictionaryVariables
280
     0
  1
STANDARD
  0
DICTIONARYVAR
  5
4E2
102
{ACAD_REACTORS
330
4E1
102
}
330
4E1
100
DictionaryVariables
280
     0
  1
STANDARD
  0
DICTIONARYVAR
  5
4E4
102
{ACAD_REACTORS
330
4E1
102
}
330
4E1
100
DictionaryVariables
280
     0
  1
Imperial24
  0
DICTIONARYVAR
  5
4E5
102
{ACAD_REACTORS
330
4E1
102
}
330
4E1
100
DictionaryVariables
280
     0
  1
Imperial24
  0
DICTIONARYVAR
  5
4F2
102
{ACAD_REACTORS
330
4E1
102
}
330
4E1
100
DictionaryVariables
280
     0
  1
2
  0
DICTIONARY
  5
52D
330
49B
100
AcDbDictionary
280
     1
281
     1
  3
ACAD_XREC_ROUNDTRIP
360
52E
  0
DICTIONARY
  5
459
330
458
100
AcDbDictionary
280
     1
281
     1
  3
ACAD_XREC_ROUNDTRIP
360
4F6
  3
BUMPTILE
360
45B
  3
DIFFUSETILE
360
45A
  3
OPACITYTILE
360
45E
  3
REFLECTIONTILE
360
45D
  3
REFRACTIONTILE
360
45F
  3
SPECULARTILE
360
45C
  0
DICTIONARY
  5
451
330
450
100
AcDbDictionary
280
     1
281
     1
  3
ACAD_XREC_ROUNDTRIP
360
4F5
  3
BUMPTILE
360
453
  3
DIFFUSETILE
360
452
  3
OPACITYTILE
360
456
  3
REFLECTIONTILE
360
455
  3
REFRACTIONTILE
360
457
  3
SPECULARTILE
360
454
  0
DICTIONARY
  5
461
330
460
100
AcDbDictionary
280
     1
281
     1
  3
ACAD_XREC_ROUNDTRIP
360
4F7
  3
BUMPTILE
360
463
  3
DIFFUSETILE
360
462
  3
OPACITYTILE
360
466
  3
REFLECTIONTILE
360
465
  3
REFRACTIONTILE
360
467
  3
SPECULARTILE
360
464
  0
DICTIONARY
  5
529
330
497
100
AcDbDictionary
280
     1
281
     1
  3
ACAD_XREC_ROUNDTRIP
360
52A
  0
DICTIONARY
  5
52B
330
499
100
AcDbDictionary
280
     1
281
     1
  3
ACAD_XREC_ROUNDTRIP
360
52C
  0
DICTIONARY
  5
4A3
330
483
100
AcDbDictionary
280
     1
281
     1
  3
ACAD_ROUNDTRIP_2008_TABLESTYLE_CELLSTYLEMAP
360
4F3
  3
ACAD_XREC_ROUNDTRIP
360
528
  0
DICTIONARY
  5
502
330
46E
100
AcDbDictionary
280
     1
281
     1
  3
ACAD_XREC_ROUNDTRIP
360
503
  0
DICTIONARY
  5
500
330
46D
100
AcDbDictionary
280
     1
281
     1
  3
ACAD_XREC_ROUNDTRIP
360
501
  0
DICTIONARY
  5
50E
330
474
100
AcDbDictionary
280
     1
281
     1
  3
ACAD_XREC_ROUNDTRIP
360
50F
  0
DICTIONARY
  5
516
330
478
100
AcDbDictionary
280
     1
281
     1
  3
ACAD_XREC_ROUNDTRIP
360
517
  0
DICTIONARY
  5
508
330
471
100
AcDbDictionary
280
     1
281
     1
  3
ACAD_XREC_ROUNDTRIP
360
509
  0
DICTIONARY
  5
50C
330
473
100
AcDbDictionary
280
     1
281
     1
  3
ACAD_XREC_ROUNDTRIP
360
50D
  0
DICTIONARY
  5
526
330
480
100
AcDbDictionary
280
     1
281
     1
  3
ACAD_XREC_ROUNDTRIP
360
527
  0
DICTIONARY
  5
514
330
477
100
AcDbDictionary
280
     1
281
     1
  3
ACAD_XREC_ROUNDTRIP
360
515
  0
DICTIONARY
  5
4F8
330
469
100
AcDbDictionary
280
     1
281
     1
  3
ACAD_XREC_ROUNDTRIP
360
4F9
  0
DICTIONARY
  5
4FA
330
46A
100
AcDbDictionary
280
     1
281
     1
  3
ACAD_XREC_ROUNDTRIP
360
4FB
  0
DICTIONARY
  5
4FC
330
46B
100
AcDbDictionary
280
     1
281
     1
  3
ACAD_XREC_ROUNDTRIP
360
4FD
  0
DICTIONARY
  5
4FE
330
46C
100
AcDbDictionary
280
     1
281
     1
  3
ACAD_XREC_ROUNDTRIP
360
4FF
  0
DICTIONARY
  5
506
330
470
100
AcDbDictionary
280
     1
281
     1
  3
ACAD_XREC_ROUNDTRIP
360
507
  0
DICTIONARY
  5
522
330
47E
100
AcDbDictionary
280
     1
281
     1
  3
ACAD_XREC_ROUNDTRIP
360
523
  0
DICTIONARY
  5
512
330
476
100
AcDbDictionary
280
     1
281
     1
  3
ACAD_XREC_ROUNDTRIP
360
513
  0
DICTIONARY
  5
524
330
47F
100
AcDbDictionary
280
     1
281
     1
  3
ACAD_XREC_ROUNDTRIP
360
525
  0
DICTIONARY
  5
50A
330
472
100
AcDbDictionary
280
     1
281
     1
  3
ACAD_XREC_ROUNDTRIP
360
50B
  0
DICTIONARY
  5
520
330
47D
100
AcDbDictionary
280
     1
281
     1
  3
ACAD_XREC_ROUNDTRIP
360
521
  0
DICTIONARY
  5
51E
330
47C
100
AcDbDictionary
280
     1
281
     1
  3
ACAD_XREC_ROUNDTRIP
360
51F
  0
DICTIONARY
  5
518
330
479
100
AcDbDictionary
280
     1
281
     1
  3
ACAD_XREC_ROUNDTRIP
360
519
  0
DICTIONARY
  5
51A
330
47A
100
AcDbDictionary
280
     1
281
     1
  3
ACAD_XREC_ROUNDTRIP
360
51B
  0
DICTIONARY
  5
510
330
475
100
AcDbDictionary
280
     1
281
     1
  3
ACAD_XREC_ROUNDTRIP
360
511
  0
DICTIONARY
  5
504
330
46F
100
AcDbDictionary
280
     1
281
     1
  3
ACAD_XREC_ROUNDTRIP
360
505
  0
DICTIONARY
  5
51C
330
47B
100
AcDbDictionary
280
     1
281
     1
  3
ACAD_XREC_ROUNDTRIP
360
51D
  0
XRECORD
  5
52E
102
{ACAD_REACTORS
330
52D
102
}
330
52D
100
AcDbXrecord
280
     1
102
DISPLAYNAME
  1
Imperial24
102
FLAGS
 90
        0
  0
XRECORD
  5
4F6
102
{ACAD_REACTORS
330
459
102
}
330
459
100
AcDbXrecord
280
     1
102
MATERIAL
148
0.0
149
0.0
149
0.0
 93
        0
 94
      127
282
     0
 72
     0
 77
     0
171
     0
175
     0
179
     0
273
     0
  0
XRECORD
  5
45B
102
{ACAD_REACTORS
330
459
102
}
330
459
100
AcDbXrecord
280
     1
270
     1
271
     1
  0
XRECORD
  5
45A
102
{ACAD_REACTORS
330
459
102
}
330
459
100
AcDbXrecord
280
     1
270
     1
271
     1
  0
XRECORD
  5
45E
102
{ACAD_REACTORS
330
459
102
}
330
459
100
AcDbXrecord
280
     1
270
     1
271
     1
  0
XRECORD
  5
45D
102
{ACAD_REACTORS
330
459
102
}
330
459
100
AcDbXrecord
280
     1
270
     1
271
     1
  0
XRECORD
  5
45F
102
{ACAD_REACTORS
330
459
102
}
330
459
100
AcDbXrecord
280
     1
270
     1
271
     1
  0
XRECORD
  5
45C
102
{ACAD_REACTORS
330
459
102
}
330
459
100
AcDbXrecord
280
     1
270
     1
271
     1
  0
XRECORD
  5
4F5
102
{ACAD_REACTORS
330
451
102
}
330
451
100
AcDbXrecord
280
     1
102
MATERIAL
148
0.0
149
0.0
149
0.0
 93
        0
 94
      127
282
     0
 72
     0
 77
     0
171
     0
175
     0
179
     0
273
     0
  0
XRECORD
  5
453
102
{ACAD_REACTORS
330
451
102
}
330
451
100
AcDbXrecord
280
     1
270
     1
271
     1
  0
XRECORD
  5
452
102
{ACAD_REACTORS
330
451
102
}
330
451
100
AcDbXrecord
280
     1
270
     1
271
     1
  0
XRECORD
  5
456
102
{ACAD_REACTORS
330
451
102
}
330
451
100
AcDbXrecord
280
     1
270
     1
271
     1
  0
XRECORD
  5
455
102
{ACAD_REACTORS
330
451
102
}
330
451
100
AcDbXrecord
280
     1
270
     1
271
     1
  0
XRECORD
  5
457
102
{ACAD_REACTORS
330
451
102
}
330
451
100
AcDbXrecord
280
     1
270
     1
271
     1
  0
XRECORD
  5
454
102
{ACAD_REACTORS
330
451
102
}
330
451
100
AcDbXrecord
280
     1
270
     1
271
     1
  0
XRECORD
  5
4F7
102
{ACAD_REACTORS
330
461
102
}
330
461
100
AcDbXrecord
280
     1
102
MATERIAL
148
0.0
149
0.0
149
0.0
 93
        0
 94
      127
282
     0
 72
     0
 77
     0
171
     0
175
     0
179
     0
273
     0
  0
XRECORD
  5
463
102
{ACAD_REACTORS
330
461
102
}
330
461
100
AcDbXrecord
280
     1
270
     1
271
     1
  0
XRECORD
  5
462
102
{ACAD_REACTORS
330
461
102
}
330
461
100
AcDbXrecord
280
     1
270
     1
271
     1
  0
XRECORD
  5
466
102
{ACAD_REACTORS
330
461
102
}
330
461
100
AcDbXrecord
280
     1
270
     1
271
     1
  0
XRECORD
  5
465
102
{ACAD_REACTORS
330
461
102
}
330
461
100
AcDbXrecord
280
     1
270
     1
271
     1
  0
XRECORD
  5
467
102
{ACAD_REACTORS
330
461
102
}
330
461
100
AcDbXrecord
280
     1
270
     1
271
     1
  0
XRECORD
  5
464
102
{ACAD_REACTORS
330
461
102
}
330
461
100
AcDbXrecord
280
     1
270
     1
271
     1
  0
XRECORD
  5
52A
102
{ACAD_REACTORS
330
529
102
}
330
529
100
AcDbXrecord
280
     1
102
ACAD_ROUNDTRIP_2012_MLEADER_STYLE
298
     1
  0
XRECORD
  5
52C
102
{ACAD_REACTORS
330
52B
102
}
330
52B
100
AcDbXrecord
280
     1
102
DISPLAYNAME
  1
Imperial24
102
FLAGS
 90
        0
  0
CELLSTYLEMAP
  5
4F3
102
{ACAD_REACTORS
330
4A3
102
}
330
4A3
100
AcDbCellStyleMap
 90
        3
300
CELLSTYLE
  1
TABLEFORMAT_BEGIN
 90
        5
170
     1
 91
        0
 92
    32768
 62
   257
 93
        1
300
CONTENTFORMAT
  1
CONTENTFORMAT_BEGIN
 90
        0
 91
        0
 92
      512
 93
        0
300

 40
0.0
140
1.0
 94
        5
 62
     0
340
C
144
0.25
309
CONTENTFORMAT_END
171
     0
 94
        0
309
TABLEFORMAT_END
  1
CELLSTYLE_BEGIN
 90
        1
 91
        1
300
_TITLE
309
CELLSTYLE_END
300
CELLSTYLE
  1
TABLEFORMAT_BEGIN
 90
        5
170
     1
 91
        0
 92
        0
 62
   257
 93
        1
300
CONTENTFORMAT
  1
CONTENTFORMAT_BEGIN
 90
        0
 91
        0
 92
      512
 93
        0
300

 40
0.0
140
1.0
 94
        5
 62
     0
340
C
144
0.18
309
CONTENTFORMAT_END
171
     0
 94
        0
309
TABLEFORMAT_END
  1
CELLSTYLE_BEGIN
 90
        2
 91
        1
300
_HEADER
309
CELLSTYLE_END
300
CELLSTYLE
  1
TABLEFORMAT_BEGIN
 90
        5
170
     1
 91
        0
 92
        0
 62
   257
 93
        1
300
CONTENTFORMAT
  1
CONTENTFORMAT_BEGIN
 90
        0
 91
        0
 92
      512
 93
        0
300

 40
0.0
140
1.0
 94
        2
 62
     0
340
C
144
0.18
309
CONTENTFORMAT_END
171
     0
 94
        0
309
TABLEFORMAT_END
  1
CELLSTYLE_BEGIN
 90
        3
 91
        2
300
_DATA
309
CELLSTYLE_END
  0
XRECORD
  5
528
102
{ACAD_REACTORS
330
4A3
102
}
330
4A3
100
AcDbXrecord
280
     1
102
ACAD_ROUNDTRIP_PRE2007_TABLESTYLE
 90
      512
 91
        0
  1

 92
      512
 93
        0
  2

 94
      512
 95
        0
  3

  0
XRECORD
  5
503
102
{ACAD_REACTORS
330
502
102
}
330
502
100
AcDbXrecord
280
     1
102
RTVSPost2010Prop28
280
     1
102
RTVSPost2010PropOp28
 70
     1
102
RTVSPost2010Prop29
280
     1
102
RTVSPost2010PropOp29
 70
     1
102
RTVSPost2010Prop30
280
     0
102
RTVSPost2010PropOp30
 70
     1
102
RTVSPost2010Prop31
280
     0
102
RTVSPost2010PropOp31
 70
     1
102
RTVSPost2010Prop32
280
     0
102
RTVSPost2010PropOp32
 70
     1
102
RTVSPost2010Prop33
280
     0
102
RTVSPost2010PropOp33
 70
     1
102
RTVSPost2010Prop34
280
     0
102
RTVSPost2010PropOp34
 70
     1
102
RTVSPost2010Prop35
280
     0
102
RTVSPost2010PropOp35
 70
     1
102
RTVSPost2010Prop36
280
     0
102
RTVSPost2010PropOp36
 70
     1
102
RTVSPost2010Prop37
 90
       50
102
RTVSPost2010PropOp37
 70
     1
102
RTVSPost2010Prop38
140
0.0
102
RTVSPost2010PropOp38
 70
     1
102
RTVSPost2010Prop39
140
1.0
102
RTVSPost2010PropOp39
 70
     1
102
RTVSPost2010Prop40
 90
        0
102
RTVSPost2010PropOp40
 70
     1
102
RTVSPost2010Prop41ColorIndex
 90
       18
102
RTVSPost2010Prop41ColorRGB
 90
        0
102
RTVSPost2010PropOp41
 70
     1
102
RTVSPost2010Prop42
 90
       50
102
RTVSPost2010PropOp42
 70
     1
102
RTVSPost2010Prop43
 90
        3
102
RTVSPost2010PropOp43
 70
     1
102
RTVSPost2010Prop44ColorIndex
 90
        5
102
RTVSPost2010Prop44ColorRGB
 90
      255
102
RTVSPost2010PropOp44
 70
     1
102
RTVSPost2010Prop45
280
     0
102
RTVSPost2010PropOp45
 70
     1
102
RTVSPost2010Prop46
 90
       50
102
RTVSPost2010PropOp46
 70
     1
102
RTVSPost2010Prop47
 90
       50
102
RTVSPost2010PropOp47
 70
     1
102
RTVSPost2010Prop48
 90
       50
102
RTVSPost2010PropOp48
 70
     1
102
RTVSPost2010Prop49
280
     0
102
RTVSPost2010PropOp49
 70
     1
102
RTVSPost2010Prop50
 90
       50
102
RTVSPost2010PropOp50
 70
     1
102
RTVSPost2010Prop51ColorIndex
 90
      256
102
RTVSPost2010Prop51ColorRGB
 90
-16777216
102
RTVSPost2010PropOp51
 70
     0
102
RTVSPost2010Prop52
140
1.0
102
RTVSPost2010PropOp52
 70
     0
102
RTVSPost2010Prop53
 90
        2
102
RTVSPost2010PropOp53
 70
     1
102
RTVSPost2010Prop54
  1
strokes_ogs.tif
102
RTVSPost2010PropOp54
 70
     1
102
RTVSPost2010Prop55
280
     0
102
RTVSPost2010PropOp55
 70
     1
102
RTVSPost2010Prop56
140
1.0
102
RTVSPost2010PropOp56
 70
     1
102
RTVSPost2010Prop57
140
1.0
102
RTVSPost2010PropOp57
 70
     1
102
RTVSPropertyOp0
 70
     1
102
RTVSPropertyOp1
 70
     1
102
RTVSPropertyOp2
 70
     1
102
RTVSPropertyOp3
 70
     1
102
RTVSPropertyOp4
 70
     1
102
RTVSPropertyOp5
 70
     1
102
RTVSPropertyOp6
 70
     1
102
RTVSPropertyOp7
 70
     1
102
RTVSPropertyOp8
 70
     1
102
RTVSPropertyOp9
 70
     1
102
RTVSPropertyOp10
 70
     1
102
RTVSPropertyOp11
 70
     1
102
RTVSPropertyOp12
 70
     1
102
RTVSPropertyOp13
 70
     1
102
RTVSPropertyOp14
 70
     1
102
RTVSPropertyOp15
 70
     1
102
RTVSPropertyOp16
 70
     1
102
RTVSPropertyOp17
 70
     1
102
RTVSPropertyOp18
 70
     1
102
RTVSPropertyOp19
 70
     1
102
RTVSPropertyOp20
 70
     1
102
RTVSPropertyOp21
 70
     1
102
RTVSPropertyOp22
 70
     1
102
RTVSPropertyOp23
 70
     1
102
RTVSPropertyOp24
 70
     1
102
RTVSPropertyOp25
 70
     1
102
RTVSPropertyOp26
 70
     1
102
RTVSPropertyOp27
 70
     1
102
RTVSPropertyOp28
 70
     1
102
RTVSPropertyOp29
 70
     1
102
RTVSPropertyOp30
 70
     1
102
RTVSPropertyOp31
 70
     1
102
RTVSPropertyOp32
 70
     1
102
RTVSPropertyOp33
 70
     1
102
RTVSPropertyOp34
 70
     1
102
RTVSPropertyOp35
 70
     1
102
RTVSPropertyOp36
 70
     1
102
RTVSPropertyOp37
 70
     1
102
RTVSPropertyOp38
 70
     1
102
RTVSPropertyOp39
 70
     1
102
RTVSPropertyOp40
 70
     1
102
RTVSPropertyOp41
 70
     1
102
RTVSPropertyOp42
 70
     1
102
RTVSPropertyOp43
 70
     1
102
RTVSPropertyOp44
 70
     1
102
RTVSPropertyOp45
 70
     1
102
RTVSPropertyOp46
 70
     1
102
RTVSPropertyOp47
 70
     1
102
RTVSPropertyOp48
 70
     1
102
RTVSPropertyOp49
 70
     1
102
RTVSPropertyOp50
 70
     1
102
RTVSPropertyOp51
 70
     0
102
RTVSPropertyOp52
 70
     0
102
RTVSPropertyOp53
 70
     1
102
RTVSPropertyOp54
 70
     1
102
RTVSPropertyOp55
 70
     1
102
RTVSPropertyOp56
 70
     1
102
RTVSPropertyOp57
 70
     1
102
RTVSPropertyOp58
 70
     1
102
RTVSPropertyOp59
 70
     1
102
RTVSPropertyOp60
 70
     1
102
RTVSPropertyOp61
 70
     1
102
RTVSPropertyOp62
 70
     1
  0
XRECORD
  5
501
102
{ACAD_REACTORS
330
500
102
}
330
500
100
AcDbXrecord
280
     1
102
RTVSPost2010Prop28
280
     0
102
RTVSPost2010PropOp28
 70
     1
102
RTVSPost2010Prop29
280
     1
102
RTVSPost2010PropOp29
 70
     1
102
RTVSPost2010Prop30
280
     1
102
RTVSPost2010PropOp30
 70
     1
102
RTVSPost2010Prop31
280
     0
102
RTVSPost2010PropOp31
 70
     1
102
RTVSPost2010Prop32
280
     0
102
RTVSPost2010PropOp32
 70
     1
102
RTVSPost2010Prop33
280
     0
102
RTVSPost2010PropOp33
 70
     1
102
RTVSPost2010Prop34
280
     0
102
RTVSPost2010PropOp34
 70
     1
102
RTVSPost2010Prop35
280
     0
102
RTVSPost2010PropOp35
 70
     1
102
RTVSPost2010Prop36
280
     0
102
RTVSPost2010PropOp36
 70
     1
102
RTVSPost2010Prop37
 90
       50
102
RTVSPost2010PropOp37
 70
     1
102
RTVSPost2010Prop38
140
0.0
102
RTVSPost2010PropOp38
 70
     1
102
RTVSPost2010Prop39
140
1.0
102
RTVSPost2010PropOp39
 70
     1
102
RTVSPost2010Prop40
 90
        0
102
RTVSPost2010PropOp40
 70
     1
102
RTVSPost2010Prop41ColorIndex
 90
       18
102
RTVSPost2010Prop41ColorRGB
 90
        0
102
RTVSPost2010PropOp41
 70
     1
102
RTVSPost2010Prop42
 90
       50
102
RTVSPost2010PropOp42
 70
     1
102
RTVSPost2010Prop43
 90
        3
102
RTVSPost2010PropOp43
 70
     1
102
RTVSPost2010Prop44ColorIndex
 90
        5
102
RTVSPost2010Prop44ColorRGB
 90
      255
102
RTVSPost2010PropOp44
 70
     1
102
RTVSPost2010Prop45
280
     0
102
RTVSPost2010PropOp45
 70
     1
102
RTVSPost2010Prop46
 90
       50
102
RTVSPost2010PropOp46
 70
     1
102
RTVSPost2010Prop47
 90
       50
102
RTVSPost2010PropOp47
 70
     1
102
RTVSPost2010Prop48
 90
       50
102
RTVSPost2010PropOp48
 70
     1
102
RTVSPost2010Prop49
280
     0
102
RTVSPost2010PropOp49
 70
     1
102
RTVSPost2010Prop50
 90
       50
102
RTVSPost2010PropOp50
 70
     1
102
RTVSPost2010Prop51ColorIndex
 90
      256
102
RTVSPost2010Prop51ColorRGB
 90
-16777216
102
RTVSPost2010PropOp51
 70
     0
102
RTVSPost2010Prop52
140
1.0
102
RTVSPost2010PropOp52
 70
     0
102
RTVSPost2010Prop53
 90
        2
102
RTVSPost2010PropOp53
 70
     1
102
RTVSPost2010Prop54
  1
strokes_ogs.tif
102
RTVSPost2010PropOp54
 70
     1
102
RTVSPost2010Prop55
280
     0
102
RTVSPost2010PropOp55
 70
     1
102
RTVSPost2010Prop56
140
1.0
102
RTVSPost2010PropOp56
 70
     1
102
RTVSPost2010Prop57
140
1.0
102
RTVSPost2010PropOp57
 70
     1
102
RTVSPropertyOp0
 70
     1
102
RTVSPropertyOp1
 70
     1
102
RTVSPropertyOp2
 70
     1
102
RTVSPropertyOp3
 70
     1
102
RTVSPropertyOp4
 70
     1
102
RTVSPropertyOp5
 70
     1
102
RTVSPropertyOp6
 70
     1
102
RTVSPropertyOp7
 70
     1
102
RTVSPropertyOp8
 70
     1
102
RTVSPropertyOp9
 70
     1
102
RTVSPropertyOp10
 70
     1
102
RTVSPropertyOp11
 70
     1
102
RTVSPropertyOp12
 70
     1
102
RTVSPropertyOp13
 70
     1
102
RTVSPropertyOp14
 70
     1
102
RTVSPropertyOp15
 70
     1
102
RTVSPropertyOp16
 70
     1
102
RTVSPropertyOp17
 70
     1
102
RTVSPropertyOp18
 70
     1
102
RTVSPropertyOp19
 70
     1
102
RTVSPropertyOp20
 70
     1
102
RTVSPropertyOp21
 70
     1
102
RTVSPropertyOp22
 70
     1
102
RTVSPropertyOp23
 70
     1
102
RTVSPropertyOp24
 70
     1
102
RTVSPropertyOp25
 70
     1
102
RTVSPropertyOp26
 70
     1
102
RTVSPropertyOp27
 70
     1
102
RTVSPropertyOp28
 70
     1
102
RTVSPropertyOp29
 70
     1
102
RTVSPropertyOp30
 70
     1
102
RTVSPropertyOp31
 70
     1
102
RTVSPropertyOp32
 70
     1
102
RTVSPropertyOp33
 70
     1
102
RTVSPropertyOp34
 70
     1
102
RTVSPropertyOp35
 70
     1
102
RTVSPropertyOp36
 70
     1
102
RTVSPropertyOp37
 70
     1
102
RTVSPropertyOp38
 70
     1
102
RTVSPropertyOp39
 70
     1
102
RTVSPropertyOp40
 70
     1
102
RTVSPropertyOp41
 70
     1
102
RTVSPropertyOp42
 70
     1
102
RTVSPropertyOp43
 70
     1
102
RTVSPropertyOp44
 70
     1
102
RTVSPropertyOp45
 70
     1
102
RTVSPropertyOp46
 70
     1
102
RTVSPropertyOp47
 70
     1
102
RTVSPropertyOp48
 70
     1
102
RTVSPropertyOp49
 70
     1
102
RTVSPropertyOp50
 70
     1
102
RTVSPropertyOp51
 70
     0
102
RTVSPropertyOp52
 70
     0
102
RTVSPropertyOp53
 70
     1
102
RTVSPropertyOp54
 70
     1
102
RTVSPropertyOp55
 70
     1
102
RTVSPropertyOp56
 70
     1
102
RTVSPropertyOp57
 70
     1
102
RTVSPropertyOp58
 70
     1
102
RTVSPropertyOp59
 70
     1
102
RTVSPropertyOp60
 70
     1
102
RTVSPropertyOp61
 70
     1
102
RTVSPropertyOp62
 70
     1
  0
XRECORD
  5
50F
102
{ACAD_REACTORS
330
50E
102
}
330
50E
100
AcDbXrecord
280
     1
102
RTVSPost2010Prop28
280
     0
102
RTVSPost2010PropOp28
 70
     1
102
RTVSPost2010Prop29
280
     1
102
RTVSPost2010PropOp29
 70
     1
102
RTVSPost2010Prop30
280
     1
102
RTVSPost2010PropOp30
 70
     1
102
RTVSPost2010Prop31
280
     0
102
RTVSPost2010PropOp31
 70
     1
102
RTVSPost2010Prop32
280
     0
102
RTVSPost2010PropOp32
 70
     1
102
RTVSPost2010Prop33
280
     0
102
RTVSPost2010PropOp33
 70
     1
102
RTVSPost2010Prop34
280
     0
102
RTVSPost2010PropOp34
 70
     1
102
RTVSPost2010Prop35
280
     0
102
RTVSPost2010PropOp35
 70
     1
102
RTVSPost2010Prop36
280
     0
102
RTVSPost2010PropOp36
 70
     1
102
RTVSPost2010Prop37
 90
       50
102
RTVSPost2010PropOp37
 70
     1
102
RTVSPost2010Prop38
140
0.0
102
RTVSPost2010PropOp38
 70
     1
102
RTVSPost2010Prop39
140
1.0
102
RTVSPost2010PropOp39
 70
     1
102
RTVSPost2010Prop40
 90
        0
102
RTVSPost2010PropOp40
 70
     1
102
RTVSPost2010Prop41ColorIndex
 90
       18
102
RTVSPost2010Prop41ColorRGB
 90
        0
102
RTVSPost2010PropOp41
 70
     1
102
RTVSPost2010Prop42
 90
       50
102
RTVSPost2010PropOp42
 70
     1
102
RTVSPost2010Prop43
 90
        3
102
RTVSPost2010PropOp43
 70
     1
102
RTVSPost2010Prop44ColorIndex
 90
        5
102
RTVSPost2010Prop44ColorRGB
 90
      255
102
RTVSPost2010PropOp44
 70
     1
102
RTVSPost2010Prop45
280
     0
102
RTVSPost2010PropOp45
 70
     1
102
RTVSPost2010Prop46
 90
       50
102
RTVSPost2010PropOp46
 70
     1
102
RTVSPost2010Prop47
 90
       50
102
RTVSPost2010PropOp47
 70
     1
102
RTVSPost2010Prop48
 90
       50
102
RTVSPost2010PropOp48
 70
     1
102
RTVSPost2010Prop49
280
     0
102
RTVSPost2010PropOp49
 70
     1
102
RTVSPost2010Prop50
 90
       50
102
RTVSPost2010PropOp50
 70
     1
102
RTVSPost2010Prop51ColorIndex
 90
      256
102
RTVSPost2010Prop51ColorRGB
 90
-16777216
102
RTVSPost2010PropOp51
 70
     0
102
RTVSPost2010Prop52
140
1.0
102
RTVSPost2010PropOp52
 70
     0
102
RTVSPost2010Prop53
 90
        2
102
RTVSPost2010PropOp53
 70
     1
102
RTVSPost2010Prop54
  1
strokes_ogs.tif
102
RTVSPost2010PropOp54
 70
     1
102
RTVSPost2010Prop55
280
     0
102
RTVSPost2010PropOp55
 70
     1
102
RTVSPost2010Prop56
140
1.0
102
RTVSPost2010PropOp56
 70
     1
102
RTVSPost2010Prop57
140
1.0
102
RTVSPost2010PropOp57
 70
     1
102
RTVSPropertyOp0
 70
     1
102
RTVSPropertyOp1
 70
     1
102
RTVSPropertyOp2
 70
     1
102
RTVSPropertyOp3
 70
     1
102
RTVSPropertyOp4
 70
     1
102
RTVSPropertyOp5
 70
     1
102
RTVSPropertyOp6
 70
     1
102
RTVSPropertyOp7
 70
     1
102
RTVSPropertyOp8
 70
     1
102
RTVSPropertyOp9
 70
     1
102
RTVSPropertyOp10
 70
     1
102
RTVSPropertyOp11
 70
     1
102
RTVSPropertyOp12
 70
     1
102
RTVSPropertyOp13
 70
     1
102
RTVSPropertyOp14
 70
     1
102
RTVSPropertyOp15
 70
     1
102
RTVSPropertyOp16
 70
     1
102
RTVSPropertyOp17
 70
     1
102
RTVSPropertyOp18
 70
     1
102
RTVSPropertyOp19
 70
     1
102
RTVSPropertyOp20
 70
     1
102
RTVSPropertyOp21
 70
     1
102
RTVSPropertyOp22
 70
     1
102
RTVSPropertyOp23
 70
     1
102
RTVSPropertyOp24
 70
     1
102
RTVSPropertyOp25
 70
     1
102
RTVSPropertyOp26
 70
     1
102
RTVSPropertyOp27
 70
     1
102
RTVSPropertyOp28
 70
     1
102
RTVSPropertyOp29
 70
     1
102
RTVSPropertyOp30
 70
     1
102
RTVSPropertyOp31
 70
     1
102
RTVSPropertyOp32
 70
     1
102
RTVSPropertyOp33
 70
     1
102
RTVSPropertyOp34
 70
     1
102
RTVSPropertyOp35
 70
     1
102
RTVSPropertyOp36
 70
     1
102
RTVSPropertyOp37
 70
     1
102
RTVSPropertyOp38
 70
     1
102
RTVSPropertyOp39
 70
     1
102
RTVSPropertyOp40
 70
     1
102
RTVSPropertyOp41
 70
     1
102
RTVSPropertyOp42
 70
     1
102
RTVSPropertyOp43
 70
     1
102
RTVSPropertyOp44
 70
     1
102
RTVSPropertyOp45
 70
     1
102
RTVSPropertyOp46
 70
     1
102
RTVSPropertyOp47
 70
     1
102
RTVSPropertyOp48
 70
     1
102
RTVSPropertyOp49
 70
     1
102
RTVSPropertyOp50
 70
     1
102
RTVSPropertyOp51
 70
     0
102
RTVSPropertyOp52
 70
     0
102
RTVSPropertyOp53
 70
     1
102
RTVSPropertyOp54
 70
     1
102
RTVSPropertyOp55
 70
     1
102
RTVSPropertyOp56
 70
     1
102
RTVSPropertyOp57
 70
     1
102
RTVSPropertyOp58
 70
     1
102
RTVSPropertyOp59
 70
     1
102
RTVSPropertyOp60
 70
     1
102
RTVSPropertyOp61
 70
     1
102
RTVSPropertyOp62
 70
     1
  0
XRECORD
  5
517
102
{ACAD_REACTORS
330
516
102
}
330
516
100
AcDbXrecord
280
     1
102
RTVSPost2010Prop28
280
     0
102
RTVSPost2010PropOp28
 70
     1
102
RTVSPost2010Prop29
280
     1
102
RTVSPost2010PropOp29
 70
     1
102
RTVSPost2010Prop30
280
     1
102
RTVSPost2010PropOp30
 70
     1
102
RTVSPost2010Prop31
280
     0
102
RTVSPost2010PropOp31
 70
     1
102
RTVSPost2010Prop32
280
     0
102
RTVSPost2010PropOp32
 70
     1
102
RTVSPost2010Prop33
280
     0
102
RTVSPost2010PropOp33
 70
     1
102
RTVSPost2010Prop34
280
     0
102
RTVSPost2010PropOp34
 70
     1
102
RTVSPost2010Prop35
280
     0
102
RTVSPost2010PropOp35
 70
     1
102
RTVSPost2010Prop36
280
     0
102
RTVSPost2010PropOp36
 70
     1
102
RTVSPost2010Prop37
 90
       50
102
RTVSPost2010PropOp37
 70
     1
102
RTVSPost2010Prop38
140
0.0
102
RTVSPost2010PropOp38
 70
     1
102
RTVSPost2010Prop39
140
1.0
102
RTVSPost2010PropOp39
 70
     1
102
RTVSPost2010Prop40
 90
        0
102
RTVSPost2010PropOp40
 70
     1
102
RTVSPost2010Prop41ColorIndex
 90
       18
102
RTVSPost2010Prop41ColorRGB
 90
        0
102
RTVSPost2010PropOp41
 70
     1
102
RTVSPost2010Prop42
 90
       50
102
RTVSPost2010PropOp42
 70
     1
102
RTVSPost2010Prop43
 90
        3
102
RTVSPost2010PropOp43
 70
     1
102
RTVSPost2010Prop44ColorIndex
 90
        5
102
RTVSPost2010Prop44ColorRGB
 90
      255
102
RTVSPost2010PropOp44
 70
     1
102
RTVSPost2010Prop45
280
     0
102
RTVSPost2010PropOp45
 70
     1
102
RTVSPost2010Prop46
 90
       50
102
RTVSPost2010PropOp46
 70
     1
102
RTVSPost2010Prop47
 90
       50
102
RTVSPost2010PropOp47
 70
     1
102
RTVSPost2010Prop48
 90
       50
102
RTVSPost2010PropOp48
 70
     1
102
RTVSPost2010Prop49
280
     0
102
RTVSPost2010PropOp49
 70
     1
102
RTVSPost2010Prop50
 90
       50
102
RTVSPost2010PropOp50
 70
     1
102
RTVSPost2010Prop51ColorIndex
 90
      256
102
RTVSPost2010Prop51ColorRGB
 90
-16777216
102
RTVSPost2010PropOp51
 70
     0
102
RTVSPost2010Prop52
140
1.0
102
RTVSPost2010PropOp52
 70
     0
102
RTVSPost2010Prop53
 90
        2
102
RTVSPost2010PropOp53
 70
     1
102
RTVSPost2010Prop54
  1
strokes_ogs.tif
102
RTVSPost2010PropOp54
 70
     1
102
RTVSPost2010Prop55
280
     0
102
RTVSPost2010PropOp55
 70
     1
102
RTVSPost2010Prop56
140
1.0
102
RTVSPost2010PropOp56
 70
     1
102
RTVSPost2010Prop57
140
1.0
102
RTVSPost2010PropOp57
 70
     1
102
RTVSPropertyOp0
 70
     1
102
RTVSPropertyOp1
 70
     1
102
RTVSPropertyOp2
 70
     1
102
RTVSPropertyOp3
 70
     1
102
RTVSPropertyOp4
 70
     1
102
RTVSPropertyOp5
 70
     1
102
RTVSPropertyOp6
 70
     1
102
RTVSPropertyOp7
 70
     1
102
RTVSPropertyOp8
 70
     1
102
RTVSPropertyOp9
 70
     1
102
RTVSPropertyOp10
 70
     1
102
RTVSPropertyOp11
 70
     1
102
RTVSPropertyOp12
 70
     1
102
RTVSPropertyOp13
 70
     1
102
RTVSPropertyOp14
 70
     1
102
RTVSPropertyOp15
 70
     1
102
RTVSPropertyOp16
 70
     1
102
RTVSPropertyOp17
 70
     1
102
RTVSPropertyOp18
 70
     1
102
RTVSPropertyOp19
 70
     1
102
RTVSPropertyOp20
 70
     1
102
RTVSPropertyOp21
 70
     1
102
RTVSPropertyOp22
 70
     1
102
RTVSPropertyOp23
 70
     1
102
RTVSPropertyOp24
 70
     1
102
RTVSPropertyOp25
 70
     1
102
RTVSPropertyOp26
 70
     1
102
RTVSPropertyOp27
 70
     1
102
RTVSPropertyOp28
 70
     1
102
RTVSPropertyOp29
 70
     1
102
RTVSPropertyOp30
 70
     1
102
RTVSPropertyOp31
 70
     1
102
RTVSPropertyOp32
 70
     1
102
RTVSPropertyOp33
 70
     1
102
RTVSPropertyOp34
 70
     1
102
RTVSPropertyOp35
 70
     1
102
RTVSPropertyOp36
 70
     1
102
RTVSPropertyOp37
 70
     1
102
RTVSPropertyOp38
 70
     1
102
RTVSPropertyOp39
 70
     1
102
RTVSPropertyOp40
 70
     1
102
RTVSPropertyOp41
 70
     1
102
RTVSPropertyOp42
 70
     1
102
RTVSPropertyOp43
 70
     1
102
RTVSPropertyOp44
 70
     1
102
RTVSPropertyOp45
 70
     1
102
RTVSPropertyOp46
 70
     1
102
RTVSPropertyOp47
 70
     1
102
RTVSPropertyOp48
 70
     1
102
RTVSPropertyOp49
 70
     1
102
RTVSPropertyOp50
 70
     1
102
RTVSPropertyOp51
 70
     0
102
RTVSPropertyOp52
 70
     0
102
RTVSPropertyOp53
 70
     1
102
RTVSPropertyOp54
 70
     1
102
RTVSPropertyOp55
 70
     1
102
RTVSPropertyOp56
 70
     1
102
RTVSPropertyOp57
 70
     1
102
RTVSPropertyOp58
 70
     1
102
RTVSPropertyOp59
 70
     1
102
RTVSPropertyOp60
 70
     1
102
RTVSPropertyOp61
 70
     1
102
RTVSPropertyOp62
 70
     1
  0
XRECORD
  5
509
102
{ACAD_REACTORS
330
508
102
}
330
508
100
AcDbXrecord
280
     1
102
RTVSPost2010Prop28
280
     0
102
RTVSPost2010PropOp28
 70
     1
102
RTVSPost2010Prop29
280
     1
102
RTVSPost2010PropOp29
 70
     1
102
RTVSPost2010Prop30
280
     1
102
RTVSPost2010PropOp30
 70
     1
102
RTVSPost2010Prop31
280
     0
102
RTVSPost2010PropOp31
 70
     1
102
RTVSPost2010Prop32
280
     0
102
RTVSPost2010PropOp32
 70
     1
102
RTVSPost2010Prop33
280
     0
102
RTVSPost2010PropOp33
 70
     1
102
RTVSPost2010Prop34
280
     0
102
RTVSPost2010PropOp34
 70
     1
102
RTVSPost2010Prop35
280
     0
102
RTVSPost2010PropOp35
 70
     1
102
RTVSPost2010Prop36
280
     0
102
RTVSPost2010PropOp36
 70
     1
102
RTVSPost2010Prop37
 90
       50
102
RTVSPost2010PropOp37
 70
     1
102
RTVSPost2010Prop38
140
0.0
102
RTVSPost2010PropOp38
 70
     1
102
RTVSPost2010Prop39
140
1.0
102
RTVSPost2010PropOp39
 70
     1
102
RTVSPost2010Prop40
 90
        0
102
RTVSPost2010PropOp40
 70
     1
102
RTVSPost2010Prop41ColorIndex
 90
       18
102
RTVSPost2010Prop41ColorRGB
 90
        0
102
RTVSPost2010PropOp41
 70
     1
102
RTVSPost2010Prop42
 90
       50
102
RTVSPost2010PropOp42
 70
     1
102
RTVSPost2010Prop43
 90
        3
102
RTVSPost2010PropOp43
 70
     1
102
RTVSPost2010Prop44ColorIndex
 90
        5
102
RTVSPost2010Prop44ColorRGB
 90
      255
102
RTVSPost2010PropOp44
 70
     1
102
RTVSPost2010Prop45
280
     0
102
RTVSPost2010PropOp45
 70
     1
102
RTVSPost2010Prop46
 90
       50
102
RTVSPost2010PropOp46
 70
     1
102
RTVSPost2010Prop47
 90
       50
102
RTVSPost2010PropOp47
 70
     1
102
RTVSPost2010Prop48
 90
       50
102
RTVSPost2010PropOp48
 70
     1
102
RTVSPost2010Prop49
280
     0
102
RTVSPost2010PropOp49
 70
     1
102
RTVSPost2010Prop50
 90
       50
102
RTVSPost2010PropOp50
 70
     1
102
RTVSPost2010Prop51ColorIndex
 90
      256
102
RTVSPost2010Prop51ColorRGB
 90
-16777216
102
RTVSPost2010PropOp51
 70
     0
102
RTVSPost2010Prop52
140
1.0
102
RTVSPost2010PropOp52
 70
     0
102
RTVSPost2010Prop53
 90
        2
102
RTVSPost2010PropOp53
 70
     1
102
RTVSPost2010Prop54
  1
strokes_ogs.tif
102
RTVSPost2010PropOp54
 70
     1
102
RTVSPost2010Prop55
280
     0
102
RTVSPost2010PropOp55
 70
     1
102
RTVSPost2010Prop56
140
1.0
102
RTVSPost2010PropOp56
 70
     1
102
RTVSPost2010Prop57
140
1.0
102
RTVSPost2010PropOp57
 70
     1
102
RTVSPropertyOp0
 70
     1
102
RTVSPropertyOp1
 70
     1
102
RTVSPropertyOp2
 70
     1
102
RTVSPropertyOp3
 70
     1
102
RTVSPropertyOp4
 70
     1
102
RTVSPropertyOp5
 70
     1
102
RTVSPropertyOp6
 70
     1
102
RTVSPropertyOp7
 70
     1
102
RTVSPropertyOp8
 70
     1
102
RTVSPropertyOp9
 70
     1
102
RTVSPropertyOp10
 70
     1
102
RTVSPropertyOp11
 70
     1
102
RTVSPropertyOp12
 70
     1
102
RTVSPropertyOp13
 70
     1
102
RTVSPropertyOp14
 70
     1
102
RTVSPropertyOp15
 70
     1
102
RTVSPropertyOp16
 70
     1
102
RTVSPropertyOp17
 70
     1
102
RTVSPropertyOp18
 70
     1
102
RTVSPropertyOp19
 70
     1
102
RTVSPropertyOp20
 70
     1
102
RTVSPropertyOp21
 70
     1
102
RTVSPropertyOp22
 70
     1
102
RTVSPropertyOp23
 70
     1
102
RTVSPropertyOp24
 70
     1
102
RTVSPropertyOp25
 70
     1
102
RTVSPropertyOp26
 70
     1
102
RTVSPropertyOp27
 70
     1
102
RTVSPropertyOp28
 70
     1
102
RTVSPropertyOp29
 70
     1
102
RTVSPropertyOp30
 70
     1
102
RTVSPropertyOp31
 70
     1
102
RTVSPropertyOp32
 70
     1
102
RTVSPropertyOp33
 70
     1
102
RTVSPropertyOp34
 70
     1
102
RTVSPropertyOp35
 70
     1
102
RTVSPropertyOp36
 70
     1
102
RTVSPropertyOp37
 70
     1
102
RTVSPropertyOp38
 70
     1
102
RTVSPropertyOp39
 70
     1
102
RTVSPropertyOp40
 70
     1
102
RTVSPropertyOp41
 70
     1
102
RTVSPropertyOp42
 70
     1
102
RTVSPropertyOp43
 70
     1
102
RTVSPropertyOp44
 70
     1
102
RTVSPropertyOp45
 70
     1
102
RTVSPropertyOp46
 70
     1
102
RTVSPropertyOp47
 70
     1
102
RTVSPropertyOp48
 70
     1
102
RTVSPropertyOp49
 70
     1
102
RTVSPropertyOp50
 70
     1
102
RTVSPropertyOp51
 70
     0
102
RTVSPropertyOp52
 70
     0
102
RTVSPropertyOp53
 70
     1
102
RTVSPropertyOp54
 70
     1
102
RTVSPropertyOp55
 70
     1
102
RTVSPropertyOp56
 70
     1
102
RTVSPropertyOp57
 70
     1
102
RTVSPropertyOp58
 70
     1
102
RTVSPropertyOp59
 70
     1
102
RTVSPropertyOp60
 70
     1
102
RTVSPropertyOp61
 70
     1
102
RTVSPropertyOp62
 70
     1
  0
XRECORD
  5
50D
102
{ACAD_REACTORS
330
50C
102
}
330
50C
100
AcDbXrecord
280
     1
102
RTVSPost2010Prop28
280
     0
102
RTVSPost2010PropOp28
 70
     1
102
RTVSPost2010Prop29
280
     1
102
RTVSPost2010PropOp29
 70
     1
102
RTVSPost2010Prop30
280
     1
102
RTVSPost2010PropOp30
 70
     1
102
RTVSPost2010Prop31
280
     0
102
RTVSPost2010PropOp31
 70
     1
102
RTVSPost2010Prop32
280
     0
102
RTVSPost2010PropOp32
 70
     1
102
RTVSPost2010Prop33
280
     0
102
RTVSPost2010PropOp33
 70
     1
102
RTVSPost2010Prop34
280
     0
102
RTVSPost2010PropOp34
 70
     1
102
RTVSPost2010Prop35
280
     0
102
RTVSPost2010PropOp35
 70
     1
102
RTVSPost2010Prop36
280
     0
102
RTVSPost2010PropOp36
 70
     1
102
RTVSPost2010Prop37
 90
       50
102
RTVSPost2010PropOp37
 70
     1
102
RTVSPost2010Prop38
140
0.0
102
RTVSPost2010PropOp38
 70
     1
102
RTVSPost2010Prop39
140
1.0
102
RTVSPost2010PropOp39
 70
     1
102
RTVSPost2010Prop40
 90
        0
102
RTVSPost2010PropOp40
 70
     1
102
RTVSPost2010Prop41ColorIndex
 90
       18
102
RTVSPost2010Prop41ColorRGB
 90
        0
102
RTVSPost2010PropOp41
 70
     1
102
RTVSPost2010Prop42
 90
       50
102
RTVSPost2010PropOp42
 70
     1
102
RTVSPost2010Prop43
 90
        3
102
RTVSPost2010PropOp43
 70
     1
102
RTVSPost2010Prop44ColorIndex
 90
        5
102
RTVSPost2010Prop44ColorRGB
 90
      255
102
RTVSPost2010PropOp44
 70
     1
102
RTVSPost2010Prop45
280
     0
102
RTVSPost2010PropOp45
 70
     1
102
RTVSPost2010Prop46
 90
       50
102
RTVSPost2010PropOp46
 70
     1
102
RTVSPost2010Prop47
 90
       50
102
RTVSPost2010PropOp47
 70
     1
102
RTVSPost2010Prop48
 90
       50
102
RTVSPost2010PropOp48
 70
     1
102
RTVSPost2010Prop49
280
     0
102
RTVSPost2010PropOp49
 70
     1
102
RTVSPost2010Prop50
 90
       50
102
RTVSPost2010PropOp50
 70
     1
102
RTVSPost2010Prop51ColorIndex
 90
      256
102
RTVSPost2010Prop51ColorRGB
 90
-16777216
102
RTVSPost2010PropOp51
 70
     0
102
RTVSPost2010Prop52
140
1.0
102
RTVSPost2010PropOp52
 70
     0
102
RTVSPost2010Prop53
 90
        2
102
RTVSPost2010PropOp53
 70
     1
102
RTVSPost2010Prop54
  1
strokes_ogs.tif
102
RTVSPost2010PropOp54
 70
     1
102
RTVSPost2010Prop55
280
     0
102
RTVSPost2010PropOp55
 70
     1
102
RTVSPost2010Prop56
140
1.0
102
RTVSPost2010PropOp56
 70
     1
102
RTVSPost2010Prop57
140
1.0
102
RTVSPost2010PropOp57
 70
     1
102
RTVSPropertyOp0
 70
     1
102
RTVSPropertyOp1
 70
     1
102
RTVSPropertyOp2
 70
     1
102
RTVSPropertyOp3
 70
     1
102
RTVSPropertyOp4
 70
     1
102
RTVSPropertyOp5
 70
     1
102
RTVSPropertyOp6
 70
     1
102
RTVSPropertyOp7
 70
     1
102
RTVSPropertyOp8
 70
     1
102
RTVSPropertyOp9
 70
     1
102
RTVSPropertyOp10
 70
     1
102
RTVSPropertyOp11
 70
     1
102
RTVSPropertyOp12
 70
     1
102
RTVSPropertyOp13
 70
     1
102
RTVSPropertyOp14
 70
     1
102
RTVSPropertyOp15
 70
     1
102
RTVSPropertyOp16
 70
     1
102
RTVSPropertyOp17
 70
     1
102
RTVSPropertyOp18
 70
     1
102
RTVSPropertyOp19
 70
     1
102
RTVSPropertyOp20
 70
     1
102
RTVSPropertyOp21
 70
     1
102
RTVSPropertyOp22
 70
     1
102
RTVSPropertyOp23
 70
     1
102
RTVSPropertyOp24
 70
     1
102
RTVSPropertyOp25
 70
     1
102
RTVSPropertyOp26
 70
     1
102
RTVSPropertyOp27
 70
     1
102
RTVSPropertyOp28
 70
     1
102
RTVSPropertyOp29
 70
     1
102
RTVSPropertyOp30
 70
     1
102
RTVSPropertyOp31
 70
     1
102
RTVSPropertyOp32
 70
     1
102
RTVSPropertyOp33
 70
     1
102
RTVSPropertyOp34
 70
     1
102
RTVSPropertyOp35
 70
     1
102
RTVSPropertyOp36
 70
     1
102
RTVSPropertyOp37
 70
     1
102
RTVSPropertyOp38
 70
     1
102
RTVSPropertyOp39
 70
     1
102
RTVSPropertyOp40
 70
     1
102
RTVSPropertyOp41
 70
     1
102
RTVSPropertyOp42
 70
     1
102
RTVSPropertyOp43
 70
     1
102
RTVSPropertyOp44
 70
     1
102
RTVSPropertyOp45
 70
     1
102
RTVSPropertyOp46
 70
     1
102
RTVSPropertyOp47
 70
     1
102
RTVSPropertyOp48
 70
     1
102
RTVSPropertyOp49
 70
     1
102
RTVSPropertyOp50
 70
     1
102
RTVSPropertyOp51
 70
     0
102
RTVSPropertyOp52
 70
     0
102
RTVSPropertyOp53
 70
     1
102
RTVSPropertyOp54
 70
     1
102
RTVSPropertyOp55
 70
     1
102
RTVSPropertyOp56
 70
     1
102
RTVSPropertyOp57
 70
     1
102
RTVSPropertyOp58
 70
     1
102
RTVSPropertyOp59
 70
     1
102
RTVSPropertyOp60
 70
     1
102
RTVSPropertyOp61
 70
     1
102
RTVSPropertyOp62
 70
     1
  0
XRECORD
  5
527
102
{ACAD_REACTORS
330
526
102
}
330
526
100
AcDbXrecord
280
     1
102
RTVSPost2010Prop28
280
     0
102
RTVSPost2010PropOp28
 70
     0
102
RTVSPost2010Prop29
280
     1
102
RTVSPost2010PropOp29
 70
     0
102
RTVSPost2010Prop30
280
     1
102
RTVSPost2010PropOp30
 70
     0
102
RTVSPost2010Prop31
280
     0
102
RTVSPost2010PropOp31
 70
     0
102
RTVSPost2010Prop32
280
     0
102
RTVSPost2010PropOp32
 70
     0
102
RTVSPost2010Prop33
280
     0
102
RTVSPost2010PropOp33
 70
     0
102
RTVSPost2010Prop34
280
     0
102
RTVSPost2010PropOp34
 70
     0
102
RTVSPost2010Prop35
280
     0
102
RTVSPost2010PropOp35
 70
     0
102
RTVSPost2010Prop36
280
     0
102
RTVSPost2010PropOp36
 70
     0
102
RTVSPost2010Prop37
 90
       50
102
RTVSPost2010PropOp37
 70
     0
102
RTVSPost2010Prop38
140
0.0
102
RTVSPost2010PropOp38
 70
     0
102
RTVSPost2010Prop39
140
1.0
102
RTVSPost2010PropOp39
 70
     0
102
RTVSPost2010Prop40
 90
        0
102
RTVSPost2010PropOp40
 70
     0
102
RTVSPost2010Prop41ColorIndex
 90
       18
102
RTVSPost2010Prop41ColorRGB
 90
        0
102
RTVSPost2010PropOp41
 70
     0
102
RTVSPost2010Prop42
 90
       50
102
RTVSPost2010PropOp42
 70
     0
102
RTVSPost2010Prop43
 90
        3
102
RTVSPost2010PropOp43
 70
     0
102
RTVSPost2010Prop44ColorIndex
 90
        5
102
RTVSPost2010Prop44ColorRGB
 90
      255
102
RTVSPost2010PropOp44
 70
     0
102
RTVSPost2010Prop45
280
     0
102
RTVSPost2010PropOp45
 70
     0
102
RTVSPost2010Prop46
 90
       50
102
RTVSPost2010PropOp46
 70
     0
102
RTVSPost2010Prop47
 90
       50
102
RTVSPost2010PropOp47
 70
     0
102
RTVSPost2010Prop48
 90
       50
102
RTVSPost2010PropOp48
 70
     0
102
RTVSPost2010Prop49
280
     0
102
RTVSPost2010PropOp49
 70
     0
102
RTVSPost2010Prop50
 90
       50
102
RTVSPost2010PropOp50
 70
     0
102
RTVSPost2010Prop51ColorIndex
 90
      256
102
RTVSPost2010Prop51ColorRGB
 90
-16777216
102
RTVSPost2010PropOp51
 70
     0
102
RTVSPost2010Prop52
140
1.0
102
RTVSPost2010PropOp52
 70
     0
102
RTVSPost2010Prop53
 90
        2
102
RTVSPost2010PropOp53
 70
     0
102
RTVSPost2010Prop54
  1
strokes_ogs.tif
102
RTVSPost2010PropOp54
 70
     0
102
RTVSPost2010Prop55
280
     0
102
RTVSPost2010PropOp55
 70
     0
102
RTVSPost2010Prop56
140
1.0
102
RTVSPost2010PropOp56
 70
     0
102
RTVSPost2010Prop57
140
1.0
102
RTVSPost2010PropOp57
 70
     0
102
RTVSPropertyOp0
 70
     0
102
RTVSPropertyOp1
 70
     0
102
RTVSPropertyOp2
 70
     0
102
RTVSPropertyOp3
 70
     0
102
RTVSPropertyOp4
 70
     0
102
RTVSPropertyOp5
 70
     0
102
RTVSPropertyOp6
 70
     0
102
RTVSPropertyOp7
 70
     0
102
RTVSPropertyOp8
 70
     0
102
RTVSPropertyOp9
 70
     0
102
RTVSPropertyOp10
 70
     0
102
RTVSPropertyOp11
 70
     0
102
RTVSPropertyOp12
 70
     0
102
RTVSPropertyOp13
 70
     0
102
RTVSPropertyOp14
 70
     2
102
RTVSPropertyOp15
 70
     0
102
RTVSPropertyOp16
 70
     0
102
RTVSPropertyOp17
 70
     0
102
RTVSPropertyOp18
 70
     0
102
RTVSPropertyOp19
 70
     0
102
RTVSPropertyOp20
 70
     0
102
RTVSPropertyOp21
 70
     0
102
RTVSPropertyOp22
 70
     0
102
RTVSPropertyOp23
 70
     0
102
RTVSPropertyOp24
 70
     0
102
RTVSPropertyOp25
 70
     0
102
RTVSPropertyOp26
 70
     0
102
RTVSPropertyOp27
 70
     0
102
RTVSPropertyOp28
 70
     0
102
RTVSPropertyOp29
 70
     0
102
RTVSPropertyOp30
 70
     0
102
RTVSPropertyOp31
 70
     0
102
RTVSPropertyOp32
 70
     0
102
RTVSPropertyOp33
 70
     0
102
RTVSPropertyOp34
 70
     0
102
RTVSPropertyOp35
 70
     0
102
RTVSPropertyOp36
 70
     0
102
RTVSPropertyOp37
 70
     0
102
RTVSPropertyOp38
 70
     0
102
RTVSPropertyOp39
 70
     0
102
RTVSPropertyOp40
 70
     0
102
RTVSPropertyOp41
 70
     0
102
RTVSPropertyOp42
 70
     0
102
RTVSPropertyOp43
 70
     0
102
RTVSPropertyOp44
 70
     0
102
RTVSPropertyOp45
 70
     0
102
RTVSPropertyOp46
 70
     0
102
RTVSPropertyOp47
 70
     0
102
RTVSPropertyOp48
 70
     0
102
RTVSPropertyOp49
 70
     0
102
RTVSPropertyOp50
 70
     0
102
RTVSPropertyOp51
 70
     0
102
RTVSPropertyOp52
 70
     0
102
RTVSPropertyOp53
 70
     0
102
RTVSPropertyOp54
 70
     0
102
RTVSPropertyOp55
 70
     0
102
RTVSPropertyOp56
 70
     0
102
RTVSPropertyOp57
 70
     0
102
RTVSPropertyOp58
 70
     0
102
RTVSPropertyOp59
 70
     0
102
RTVSPropertyOp60
 70
     0
102
RTVSPropertyOp61
 70
     0
102
RTVSPropertyOp62
 70
     0
  0
XRECORD
  5
515
102
{ACAD_REACTORS
330
514
102
}
330
514
100
AcDbXrecord
280
     1
102
RTVSPost2010Prop28
280
     0
102
RTVSPost2010PropOp28
 70
     1
102
RTVSPost2010Prop29
280
     1
102
RTVSPost2010PropOp29
 70
     1
102
RTVSPost2010Prop30
280
     1
102
RTVSPost2010PropOp30
 70
     1
102
RTVSPost2010Prop31
280
     0
102
RTVSPost2010PropOp31
 70
     1
102
RTVSPost2010Prop32
280
     0
102
RTVSPost2010PropOp32
 70
     1
102
RTVSPost2010Prop33
280
     0
102
RTVSPost2010PropOp33
 70
     1
102
RTVSPost2010Prop34
280
     0
102
RTVSPost2010PropOp34
 70
     1
102
RTVSPost2010Prop35
280
     0
102
RTVSPost2010PropOp35
 70
     1
102
RTVSPost2010Prop36
280
     0
102
RTVSPost2010PropOp36
 70
     1
102
RTVSPost2010Prop37
 90
       50
102
RTVSPost2010PropOp37
 70
     1
102
RTVSPost2010Prop38
140
0.0
102
RTVSPost2010PropOp38
 70
     1
102
RTVSPost2010Prop39
140
1.0
102
RTVSPost2010PropOp39
 70
     1
102
RTVSPost2010Prop40
 90
        0
102
RTVSPost2010PropOp40
 70
     1
102
RTVSPost2010Prop41ColorIndex
 90
       18
102
RTVSPost2010Prop41ColorRGB
 90
        0
102
RTVSPost2010PropOp41
 70
     1
102
RTVSPost2010Prop42
 90
       50
102
RTVSPost2010PropOp42
 70
     1
102
RTVSPost2010Prop43
 90
        3
102
RTVSPost2010PropOp43
 70
     1
102
RTVSPost2010Prop44ColorIndex
 90
        5
102
RTVSPost2010Prop44ColorRGB
 90
      255
102
RTVSPost2010PropOp44
 70
     1
102
RTVSPost2010Prop45
280
     0
102
RTVSPost2010PropOp45
 70
     1
102
RTVSPost2010Prop46
 90
       50
102
RTVSPost2010PropOp46
 70
     1
102
RTVSPost2010Prop47
 90
       50
102
RTVSPost2010PropOp47
 70
     1
102
RTVSPost2010Prop48
 90
       50
102
RTVSPost2010PropOp48
 70
     1
102
RTVSPost2010Prop49
280
     0
102
RTVSPost2010PropOp49
 70
     1
102
RTVSPost2010Prop50
 90
       50
102
RTVSPost2010PropOp50
 70
     1
102
RTVSPost2010Prop51ColorIndex
 90
      256
102
RTVSPost2010Prop51ColorRGB
 90
-16777216
102
RTVSPost2010PropOp51
 70
     0
102
RTVSPost2010Prop52
140
1.0
102
RTVSPost2010PropOp52
 70
     0
102
RTVSPost2010Prop53
 90
        2
102
RTVSPost2010PropOp53
 70
     1
102
RTVSPost2010Prop54
  1
strokes_ogs.tif
102
RTVSPost2010PropOp54
 70
     1
102
RTVSPost2010Prop55
280
     0
102
RTVSPost2010PropOp55
 70
     1
102
RTVSPost2010Prop56
140
1.0
102
RTVSPost2010PropOp56
 70
     1
102
RTVSPost2010Prop57
140
1.0
102
RTVSPost2010PropOp57
 70
     1
102
RTVSPropertyOp0
 70
     1
102
RTVSPropertyOp1
 70
     1
102
RTVSPropertyOp2
 70
     1
102
RTVSPropertyOp3
 70
     1
102
RTVSPropertyOp4
 70
     1
102
RTVSPropertyOp5
 70
     1
102
RTVSPropertyOp6
 70
     1
102
RTVSPropertyOp7
 70
     1
102
RTVSPropertyOp8
 70
     1
102
RTVSPropertyOp9
 70
     1
102
RTVSPropertyOp10
 70
     1
102
RTVSPropertyOp11
 70
     1
102
RTVSPropertyOp12
 70
     1
102
RTVSPropertyOp13
 70
     1
102
RTVSPropertyOp14
 70
     1
102
RTVSPropertyOp15
 70
     1
102
RTVSPropertyOp16
 70
     1
102
RTVSPropertyOp17
 70
     1
102
RTVSPropertyOp18
 70
     1
102
RTVSPropertyOp19
 70
     1
102
RTVSPropertyOp20
 70
     1
102
RTVSPropertyOp21
 70
     1
102
RTVSPropertyOp22
 70
     1
102
RTVSPropertyOp23
 70
     1
102
RTVSPropertyOp24
 70
     1
102
RTVSPropertyOp25
 70
     1
102
RTVSPropertyOp26
 70
     1
102
RTVSPropertyOp27
 70
     1
102
RTVSPropertyOp28
 70
     1
102
RTVSPropertyOp29
 70
     1
102
RTVSPropertyOp30
 70
     1
102
RTVSPropertyOp31
 70
     1
102
RTVSPropertyOp32
 70
     1
102
RTVSPropertyOp33
 70
     1
102
RTVSPropertyOp34
 70
     1
102
RTVSPropertyOp35
 70
     1
102
RTVSPropertyOp36
 70
     1
102
RTVSPropertyOp37
 70
     1
102
RTVSPropertyOp38
 70
     1
102
RTVSPropertyOp39
 70
     1
102
RTVSPropertyOp40
 70
     1
102
RTVSPropertyOp41
 70
     1
102
RTVSPropertyOp42
 70
     1
102
RTVSPropertyOp43
 70
     1
102
RTVSPropertyOp44
 70
     1
102
RTVSPropertyOp45
 70
     1
102
RTVSPropertyOp46
 70
     1
102
RTVSPropertyOp47
 70
     1
102
RTVSPropertyOp48
 70
     1
102
RTVSPropertyOp49
 70
     1
102
RTVSPropertyOp50
 70
     1
102
RTVSPropertyOp51
 70
     0
102
RTVSPropertyOp52
 70
     0
102
RTVSPropertyOp53
 70
     1
102
RTVSPropertyOp54
 70
     1
102
RTVSPropertyOp55
 70
     1
102
RTVSPropertyOp56
 70
     1
102
RTVSPropertyOp57
 70
     1
102
RTVSPropertyOp58
 70
     1
102
RTVSPropertyOp59
 70
     1
102
RTVSPropertyOp60
 70
     1
102
RTVSPropertyOp61
 70
     1
102
RTVSPropertyOp62
 70
     1
  0
XRECORD
  5
4F9
102
{ACAD_REACTORS
330
4F8
102
}
330
4F8
100
AcDbXrecord
280
     1
102
RTVSPost2010Prop28
280
     0
102
RTVSPost2010PropOp28
 70
     1
102
RTVSPost2010Prop29
280
     1
102
RTVSPost2010PropOp29
 70
     1
102
RTVSPost2010Prop30
280
     1
102
RTVSPost2010PropOp30
 70
     1
102
RTVSPost2010Prop31
280
     0
102
RTVSPost2010PropOp31
 70
     1
102
RTVSPost2010Prop32
280
     0
102
RTVSPost2010PropOp32
 70
     1
102
RTVSPost2010Prop33
280
     0
102
RTVSPost2010PropOp33
 70
     1
102
RTVSPost2010Prop34
280
     0
102
RTVSPost2010PropOp34
 70
     1
102
RTVSPost2010Prop35
280
     0
102
RTVSPost2010PropOp35
 70
     1
102
RTVSPost2010Prop36
280
     0
102
RTVSPost2010PropOp36
 70
     1
102
RTVSPost2010Prop37
 90
       50
102
RTVSPost2010PropOp37
 70
     1
102
RTVSPost2010Prop38
140
0.0
102
RTVSPost2010PropOp38
 70
     1
102
RTVSPost2010Prop39
140
1.0
102
RTVSPost2010PropOp39
 70
     1
102
RTVSPost2010Prop40
 90
        0
102
RTVSPost2010PropOp40
 70
     1
102
RTVSPost2010Prop41ColorIndex
 90
       18
102
RTVSPost2010Prop41ColorRGB
 90
        0
102
RTVSPost2010PropOp41
 70
     1
102
RTVSPost2010Prop42
 90
       50
102
RTVSPost2010PropOp42
 70
     1
102
RTVSPost2010Prop43
 90
        3
102
RTVSPost2010PropOp43
 70
     1
102
RTVSPost2010Prop44ColorIndex
 90
        5
102
RTVSPost2010Prop44ColorRGB
 90
      255
102
RTVSPost2010PropOp44
 70
     1
102
RTVSPost2010Prop45
280
     0
102
RTVSPost2010PropOp45
 70
     1
102
RTVSPost2010Prop46
 90
       50
102
RTVSPost2010PropOp46
 70
     1
102
RTVSPost2010Prop47
 90
       50
102
RTVSPost2010PropOp47
 70
     1
102
RTVSPost2010Prop48
 90
       50
102
RTVSPost2010PropOp48
 70
     1
102
RTVSPost2010Prop49
280
     0
102
RTVSPost2010PropOp49
 70
     1
102
RTVSPost2010Prop50
 90
       50
102
RTVSPost2010PropOp50
 70
     1
102
RTVSPost2010Prop51ColorIndex
 90
      256
102
RTVSPost2010Prop51ColorRGB
 90
-16777216
102
RTVSPost2010PropOp51
 70
     0
102
RTVSPost2010Prop52
140
1.0
102
RTVSPost2010PropOp52
 70
     0
102
RTVSPost2010Prop53
 90
        2
102
RTVSPost2010PropOp53
 70
     1
102
RTVSPost2010Prop54
  1
strokes_ogs.tif
102
RTVSPost2010PropOp54
 70
     1
102
RTVSPost2010Prop55
280
     0
102
RTVSPost2010PropOp55
 70
     1
102
RTVSPost2010Prop56
140
1.0
102
RTVSPost2010PropOp56
 70
     1
102
RTVSPost2010Prop57
140
1.0
102
RTVSPost2010PropOp57
 70
     1
102
RTVSPropertyOp0
 70
     1
102
RTVSPropertyOp1
 70
     1
102
RTVSPropertyOp2
 70
     1
102
RTVSPropertyOp3
 70
     1
102
RTVSPropertyOp4
 70
     1
102
RTVSPropertyOp5
 70
     1
102
RTVSPropertyOp6
 70
     1
102
RTVSPropertyOp7
 70
     1
102
RTVSPropertyOp8
 70
     1
102
RTVSPropertyOp9
 70
     1
102
RTVSPropertyOp10
 70
     1
102
RTVSPropertyOp11
 70
     1
102
RTVSPropertyOp12
 70
     1
102
RTVSPropertyOp13
 70
     1
102
RTVSPropertyOp14
 70
     1
102
RTVSPropertyOp15
 70
     1
102
RTVSPropertyOp16
 70
     1
102
RTVSPropertyOp17
 70
     1
102
RTVSPropertyOp18
 70
     1
102
RTVSPropertyOp19
 70
     1
102
RTVSPropertyOp20
 70
     1
102
RTVSPropertyOp21
 70
     1
102
RTVSPropertyOp22
 70
     1
102
RTVSPropertyOp23
 70
     1
102
RTVSPropertyOp24
 70
     1
102
RTVSPropertyOp25
 70
     1
102
RTVSPropertyOp26
 70
     1
102
RTVSPropertyOp27
 70
     1
102
RTVSPropertyOp28
 70
     1
102
RTVSPropertyOp29
 70
     1
102
RTVSPropertyOp30
 70
     1
102
RTVSPropertyOp31
 70
     1
102
RTVSPropertyOp32
 70
     1
102
RTVSPropertyOp33
 70
     1
102
RTVSPropertyOp34
 70
     1
102
RTVSPropertyOp35
 70
     1
102
RTVSPropertyOp36
 70
     1
102
RTVSPropertyOp37
 70
     1
102
RTVSPropertyOp38
 70
     1
102
RTVSPropertyOp39
 70
     1
102
RTVSPropertyOp40
 70
     1
102
RTVSPropertyOp41
 70
     1
102
RTVSPropertyOp42
 70
     1
102
RTVSPropertyOp43
 70
     1
102
RTVSPropertyOp44
 70
     1
102
RTVSPropertyOp45
 70
     1
102
RTVSPropertyOp46
 70
     1
102
RTVSPropertyOp47
 70
     1
102
RTVSPropertyOp48
 70
     1
102
RTVSPropertyOp49
 70
     1
102
RTVSPropertyOp50
 70
     1
102
RTVSPropertyOp51
 70
     0
102
RTVSPropertyOp52
 70
     0
102
RTVSPropertyOp53
 70
     1
102
RTVSPropertyOp54
 70
     1
102
RTVSPropertyOp55
 70
     1
102
RTVSPropertyOp56
 70
     1
102
RTVSPropertyOp57
 70
     1
102
RTVSPropertyOp58
 70
     1
102
RTVSPropertyOp59
 70
     1
102
RTVSPropertyOp60
 70
     1
102
RTVSPropertyOp61
 70
     1
102
RTVSPropertyOp62
 70
     1
  0
XRECORD
  5
4FB
102
{ACAD_REACTORS
330
4FA
102
}
330
4FA
100
AcDbXrecord
280
     1
102
RTVSPost2010Prop28
280
     0
102
RTVSPost2010PropOp28
 70
     1
102
RTVSPost2010Prop29
280
     1
102
RTVSPost2010PropOp29
 70
     1
102
RTVSPost2010Prop30
280
     1
102
RTVSPost2010PropOp30
 70
     1
102
RTVSPost2010Prop31
280
     0
102
RTVSPost2010PropOp31
 70
     1
102
RTVSPost2010Prop32
280
     0
102
RTVSPost2010PropOp32
 70
     1
102
RTVSPost2010Prop33
280
     0
102
RTVSPost2010PropOp33
 70
     1
102
RTVSPost2010Prop34
280
     0
102
RTVSPost2010PropOp34
 70
     1
102
RTVSPost2010Prop35
280
     0
102
RTVSPost2010PropOp35
 70
     1
102
RTVSPost2010Prop36
280
     0
102
RTVSPost2010PropOp36
 70
     1
102
RTVSPost2010Prop37
 90
       50
102
RTVSPost2010PropOp37
 70
     1
102
RTVSPost2010Prop38
140
0.0
102
RTVSPost2010PropOp38
 70
     1
102
RTVSPost2010Prop39
140
1.0
102
RTVSPost2010PropOp39
 70
     1
102
RTVSPost2010Prop40
 90
        0
102
RTVSPost2010PropOp40
 70
     1
102
RTVSPost2010Prop41ColorIndex
 90
       18
102
RTVSPost2010Prop41ColorRGB
 90
        0
102
RTVSPost2010PropOp41
 70
     1
102
RTVSPost2010Prop42
 90
       50
102
RTVSPost2010PropOp42
 70
     1
102
RTVSPost2010Prop43
 90
        3
102
RTVSPost2010PropOp43
 70
     1
102
RTVSPost2010Prop44ColorIndex
 90
        5
102
RTVSPost2010Prop44ColorRGB
 90
      255
102
RTVSPost2010PropOp44
 70
     1
102
RTVSPost2010Prop45
280
     0
102
RTVSPost2010PropOp45
 70
     1
102
RTVSPost2010Prop46
 90
       50
102
RTVSPost2010PropOp46
 70
     1
102
RTVSPost2010Prop47
 90
       50
102
RTVSPost2010PropOp47
 70
     1
102
RTVSPost2010Prop48
 90
       50
102
RTVSPost2010PropOp48
 70
     1
102
RTVSPost2010Prop49
280
     0
102
RTVSPost2010PropOp49
 70
     1
102
RTVSPost2010Prop50
 90
       50
102
RTVSPost2010PropOp50
 70
     1
102
RTVSPost2010Prop51ColorIndex
 90
      256
102
RTVSPost2010Prop51ColorRGB
 90
-16777216
102
RTVSPost2010PropOp51
 70
     0
102
RTVSPost2010Prop52
140
1.0
102
RTVSPost2010PropOp52
 70
     0
102
RTVSPost2010Prop53
 90
        2
102
RTVSPost2010PropOp53
 70
     1
102
RTVSPost2010Prop54
  1
strokes_ogs.tif
102
RTVSPost2010PropOp54
 70
     1
102
RTVSPost2010Prop55
280
     0
102
RTVSPost2010PropOp55
 70
     1
102
RTVSPost2010Prop56
140
1.0
102
RTVSPost2010PropOp56
 70
     1
102
RTVSPost2010Prop57
140
1.0
102
RTVSPost2010PropOp57
 70
     1
102
RTVSPropertyOp0
 70
     1
102
RTVSPropertyOp1
 70
     1
102
RTVSPropertyOp2
 70
     1
102
RTVSPropertyOp3
 70
     1
102
RTVSPropertyOp4
 70
     1
102
RTVSPropertyOp5
 70
     1
102
RTVSPropertyOp6
 70
     1
102
RTVSPropertyOp7
 70
     1
102
RTVSPropertyOp8
 70
     1
102
RTVSPropertyOp9
 70
     1
102
RTVSPropertyOp10
 70
     1
102
RTVSPropertyOp11
 70
     1
102
RTVSPropertyOp12
 70
     1
102
RTVSPropertyOp13
 70
     1
102
RTVSPropertyOp14
 70
     1
102
RTVSPropertyOp15
 70
     1
102
RTVSPropertyOp16
 70
     1
102
RTVSPropertyOp17
 70
     1
102
RTVSPropertyOp18
 70
     1
102
RTVSPropertyOp19
 70
     1
102
RTVSPropertyOp20
 70
     1
102
RTVSPropertyOp21
 70
     1
102
RTVSPropertyOp22
 70
     1
102
RTVSPropertyOp23
 70
     1
102
RTVSPropertyOp24
 70
     1
102
RTVSPropertyOp25
 70
     1
102
RTVSPropertyOp26
 70
     1
102
RTVSPropertyOp27
 70
     1
102
RTVSPropertyOp28
 70
     1
102
RTVSPropertyOp29
 70
     1
102
RTVSPropertyOp30
 70
     1
102
RTVSPropertyOp31
 70
     1
102
RTVSPropertyOp32
 70
     1
102
RTVSPropertyOp33
 70
     1
102
RTVSPropertyOp34
 70
     1
102
RTVSPropertyOp35
 70
     1
102
RTVSPropertyOp36
 70
     1
102
RTVSPropertyOp37
 70
     1
102
RTVSPropertyOp38
 70
     1
102
RTVSPropertyOp39
 70
     1
102
RTVSPropertyOp40
 70
     1
102
RTVSPropertyOp41
 70
     1
102
RTVSPropertyOp42
 70
     1
102
RTVSPropertyOp43
 70
     1
102
RTVSPropertyOp44
 70
     1
102
RTVSPropertyOp45
 70
     1
102
RTVSPropertyOp46
 70
     1
102
RTVSPropertyOp47
 70
     1
102
RTVSPropertyOp48
 70
     1
102
RTVSPropertyOp49
 70
     1
102
RTVSPropertyOp50
 70
     1
102
RTVSPropertyOp51
 70
     0
102
RTVSPropertyOp52
 70
     0
102
RTVSPropertyOp53
 70
     1
102
RTVSPropertyOp54
 70
     1
102
RTVSPropertyOp55
 70
     1
102
RTVSPropertyOp56
 70
     1
102
RTVSPropertyOp57
 70
     1
102
RTVSPropertyOp58
 70
     1
102
RTVSPropertyOp59
 70
     1
102
RTVSPropertyOp60
 70
     1
102
RTVSPropertyOp61
 70
     1
102
RTVSPropertyOp62
 70
     1
  0
XRECORD
  5
4FD
102
{ACAD_REACTORS
330
4FC
102
}
330
4FC
100
AcDbXrecord
280
     1
102
RTVSPost2010Prop28
280
     0
102
RTVSPost2010PropOp28
 70
     1
102
RTVSPost2010Prop29
280
     1
102
RTVSPost2010PropOp29
 70
     1
102
RTVSPost2010Prop30
280
     1
102
RTVSPost2010PropOp30
 70
     1
102
RTVSPost2010Prop31
280
     0
102
RTVSPost2010PropOp31
 70
     1
102
RTVSPost2010Prop32
280
     0
102
RTVSPost2010PropOp32
 70
     1
102
RTVSPost2010Prop33
280
     0
102
RTVSPost2010PropOp33
 70
     1
102
RTVSPost2010Prop34
280
     0
102
RTVSPost2010PropOp34
 70
     1
102
RTVSPost2010Prop35
280
     0
102
RTVSPost2010PropOp35
 70
     1
102
RTVSPost2010Prop36
280
     0
102
RTVSPost2010PropOp36
 70
     1
102
RTVSPost2010Prop37
 90
       50
102
RTVSPost2010PropOp37
 70
     1
102
RTVSPost2010Prop38
140
0.0
102
RTVSPost2010PropOp38
 70
     1
102
RTVSPost2010Prop39
140
1.0
102
RTVSPost2010PropOp39
 70
     1
102
RTVSPost2010Prop40
 90
        0
102
RTVSPost2010PropOp40
 70
     1
102
RTVSPost2010Prop41ColorIndex
 90
       18
102
RTVSPost2010Prop41ColorRGB
 90
        0
102
RTVSPost2010PropOp41
 70
     1
102
RTVSPost2010Prop42
 90
       50
102
RTVSPost2010PropOp42
 70
     1
102
RTVSPost2010Prop43
 90
        3
102
RTVSPost2010PropOp43
 70
     1
102
RTVSPost2010Prop44ColorIndex
 90
        5
102
RTVSPost2010Prop44ColorRGB
 90
      255
102
RTVSPost2010PropOp44
 70
     1
102
RTVSPost2010Prop45
280
     0
102
RTVSPost2010PropOp45
 70
     1
102
RTVSPost2010Prop46
 90
       50
102
RTVSPost2010PropOp46
 70
     1
102
RTVSPost2010Prop47
 90
       50
102
RTVSPost2010PropOp47
 70
     1
102
RTVSPost2010Prop48
 90
       50
102
RTVSPost2010PropOp48
 70
     1
102
RTVSPost2010Prop49
280
     0
102
RTVSPost2010PropOp49
 70
     1
102
RTVSPost2010Prop50
 90
       50
102
RTVSPost2010PropOp50
 70
     1
102
RTVSPost2010Prop51ColorIndex
 90
      256
102
RTVSPost2010Prop51ColorRGB
 90
-16777216
102
RTVSPost2010PropOp51
 70
     0
102
RTVSPost2010Prop52
140
1.0
102
RTVSPost2010PropOp52
 70
     0
102
RTVSPost2010Prop53
 90
        2
102
RTVSPost2010PropOp53
 70
     1
102
RTVSPost2010Prop54
  1
strokes_ogs.tif
102
RTVSPost2010PropOp54
 70
     1
102
RTVSPost2010Prop55
280
     0
102
RTVSPost2010PropOp55
 70
     1
102
RTVSPost2010Prop56
140
1.0
102
RTVSPost2010PropOp56
 70
     1
102
RTVSPost2010Prop57
140
1.0
102
RTVSPost2010PropOp57
 70
     1
102
RTVSPropertyOp0
 70
     1
102
RTVSPropertyOp1
 70
     1
102
RTVSPropertyOp2
 70
     1
102
RTVSPropertyOp3
 70
     1
102
RTVSPropertyOp4
 70
     1
102
RTVSPropertyOp5
 70
     1
102
RTVSPropertyOp6
 70
     1
102
RTVSPropertyOp7
 70
     1
102
RTVSPropertyOp8
 70
     1
102
RTVSPropertyOp9
 70
     1
102
RTVSPropertyOp10
 70
     1
102
RTVSPropertyOp11
 70
     1
102
RTVSPropertyOp12
 70
     1
102
RTVSPropertyOp13
 70
     1
102
RTVSPropertyOp14
 70
     1
102
RTVSPropertyOp15
 70
     1
102
RTVSPropertyOp16
 70
     1
102
RTVSPropertyOp17
 70
     1
102
RTVSPropertyOp18
 70
     1
102
RTVSPropertyOp19
 70
     1
102
RTVSPropertyOp20
 70
     1
102
RTVSPropertyOp21
 70
     1
102
RTVSPropertyOp22
 70
     1
102
RTVSPropertyOp23
 70
     1
102
RTVSPropertyOp24
 70
     1
102
RTVSPropertyOp25
 70
     1
102
RTVSPropertyOp26
 70
     1
102
RTVSPropertyOp27
 70
     1
102
RTVSPropertyOp28
 70
     1
102
RTVSPropertyOp29
 70
     1
102
RTVSPropertyOp30
 70
     1
102
RTVSPropertyOp31
 70
     1
102
RTVSPropertyOp32
 70
     1
102
RTVSPropertyOp33
 70
     1
102
RTVSPropertyOp34
 70
     1
102
RTVSPropertyOp35
 70
     1
102
RTVSPropertyOp36
 70
     1
102
RTVSPropertyOp37
 70
     1
102
RTVSPropertyOp38
 70
     1
102
RTVSPropertyOp39
 70
     1
102
RTVSPropertyOp40
 70
     1
102
RTVSPropertyOp41
 70
     1
102
RTVSPropertyOp42
 70
     1
102
RTVSPropertyOp43
 70
     1
102
RTVSPropertyOp44
 70
     1
102
RTVSPropertyOp45
 70
     1
102
RTVSPropertyOp46
 70
     1
102
RTVSPropertyOp47
 70
     1
102
RTVSPropertyOp48
 70
     1
102
RTVSPropertyOp49
 70
     1
102
RTVSPropertyOp50
 70
     1
102
RTVSPropertyOp51
 70
     0
102
RTVSPropertyOp52
 70
     0
102
RTVSPropertyOp53
 70
     1
102
RTVSPropertyOp54
 70
     1
102
RTVSPropertyOp55
 70
     1
102
RTVSPropertyOp56
 70
     1
102
RTVSPropertyOp57
 70
     1
102
RTVSPropertyOp58
 70
     1
102
RTVSPropertyOp59
 70
     1
102
RTVSPropertyOp60
 70
     1
102
RTVSPropertyOp61
 70
     1
102
RTVSPropertyOp62
 70
     1
  0
XRECORD
  5
4FF
102
{ACAD_REACTORS
330
4FE
102
}
330
4FE
100
AcDbXrecord
280
     1
102
RTVSPost2010Prop28
280
     0
102
RTVSPost2010PropOp28
 70
     1
102
RTVSPost2010Prop29
280
     1
102
RTVSPost2010PropOp29
 70
     1
102
RTVSPost2010Prop30
280
     1
102
RTVSPost2010PropOp30
 70
     1
102
RTVSPost2010Prop31
280
     0
102
RTVSPost2010PropOp31
 70
     1
102
RTVSPost2010Prop32
280
     0
102
RTVSPost2010PropOp32
 70
     1
102
RTVSPost2010Prop33
280
     0
102
RTVSPost2010PropOp33
 70
     1
102
RTVSPost2010Prop34
280
     0
102
RTVSPost2010PropOp34
 70
     1
102
RTVSPost2010Prop35
280
     0
102
RTVSPost2010PropOp35
 70
     1
102
RTVSPost2010Prop36
280
     0
102
RTVSPost2010PropOp36
 70
     1
102
RTVSPost2010Prop37
 90
       50
102
RTVSPost2010PropOp37
 70
     1
102
RTVSPost2010Prop38
140
0.0
102
RTVSPost2010PropOp38
 70
     1
102
RTVSPost2010Prop39
140
1.0
102
RTVSPost2010PropOp39
 70
     1
102
RTVSPost2010Prop40
 90
        0
102
RTVSPost2010PropOp40
 70
     1
102
RTVSPost2010Prop41ColorIndex
 90
       18
102
RTVSPost2010Prop41ColorRGB
 90
        0
102
RTVSPost2010PropOp41
 70
     1
102
RTVSPost2010Prop42
 90
       50
102
RTVSPost2010PropOp42
 70
     1
102
RTVSPost2010Prop43
 90
        3
102
RTVSPost2010PropOp43
 70
     1
102
RTVSPost2010Prop44ColorIndex
 90
        5
102
RTVSPost2010Prop44ColorRGB
 90
      255
102
RTVSPost2010PropOp44
 70
     1
102
RTVSPost2010Prop45
280
     0
102
RTVSPost2010PropOp45
 70
     1
102
RTVSPost2010Prop46
 90
       50
102
RTVSPost2010PropOp46
 70
     1
102
RTVSPost2010Prop47
 90
       50
102
RTVSPost2010PropOp47
 70
     1
102
RTVSPost2010Prop48
 90
       50
102
RTVSPost2010PropOp48
 70
     1
102
RTVSPost2010Prop49
280
     0
102
RTVSPost2010PropOp49
 70
     1
102
RTVSPost2010Prop50
 90
       50
102
RTVSPost2010PropOp50
 70
     1
102
RTVSPost2010Prop51ColorIndex
 90
      256
102
RTVSPost2010Prop51ColorRGB
 90
-16777216
102
RTVSPost2010PropOp51
 70
     0
102
RTVSPost2010Prop52
140
1.0
102
RTVSPost2010PropOp52
 70
     0
102
RTVSPost2010Prop53
 90
        2
102
RTVSPost2010PropOp53
 70
     1
102
RTVSPost2010Prop54
  1
strokes_ogs.tif
102
RTVSPost2010PropOp54
 70
     1
102
RTVSPost2010Prop55
280
     0
102
RTVSPost2010PropOp55
 70
     1
102
RTVSPost2010Prop56
140
1.0
102
RTVSPost2010PropOp56
 70
     1
102
RTVSPost2010Prop57
140
1.0
102
RTVSPost2010PropOp57
 70
     1
102
RTVSPropertyOp0
 70
     1
102
RTVSPropertyOp1
 70
     1
102
RTVSPropertyOp2
 70
     1
102
RTVSPropertyOp3
 70
     1
102
RTVSPropertyOp4
 70
     1
102
RTVSPropertyOp5
 70
     1
102
RTVSPropertyOp6
 70
     1
102
RTVSPropertyOp7
 70
     1
102
RTVSPropertyOp8
 70
     1
102
RTVSPropertyOp9
 70
     1
102
RTVSPropertyOp10
 70
     1
102
RTVSPropertyOp11
 70
     1
102
RTVSPropertyOp12
 70
     1
102
RTVSPropertyOp13
 70
     1
102
RTVSPropertyOp14
 70
     1
102
RTVSPropertyOp15
 70
     1
102
RTVSPropertyOp16
 70
     1
102
RTVSPropertyOp17
 70
     1
102
RTVSPropertyOp18
 70
     1
102
RTVSPropertyOp19
 70
     1
102
RTVSPropertyOp20
 70
     1
102
RTVSPropertyOp21
 70
     1
102
RTVSPropertyOp22
 70
     1
102
RTVSPropertyOp23
 70
     1
102
RTVSPropertyOp24
 70
     1
102
RTVSPropertyOp25
 70
     1
102
RTVSPropertyOp26
 70
     1
102
RTVSPropertyOp27
 70
     1
102
RTVSPropertyOp28
 70
     1
102
RTVSPropertyOp29
 70
     1
102
RTVSPropertyOp30
 70
     1
102
RTVSPropertyOp31
 70
     1
102
RTVSPropertyOp32
 70
     1
102
RTVSPropertyOp33
 70
     1
102
RTVSPropertyOp34
 70
     1
102
RTVSPropertyOp35
 70
     1
102
RTVSPropertyOp36
 70
     1
102
RTVSPropertyOp37
 70
     1
102
RTVSPropertyOp38
 70
     1
102
RTVSPropertyOp39
 70
     1
102
RTVSPropertyOp40
 70
     1
102
RTVSPropertyOp41
 70
     1
102
RTVSPropertyOp42
 70
     1
102
RTVSPropertyOp43
 70
     1
102
RTVSPropertyOp44
 70
     1
102
RTVSPropertyOp45
 70
     1
102
RTVSPropertyOp46
 70
     1
102
RTVSPropertyOp47
 70
     1
102
RTVSPropertyOp48
 70
     1
102
RTVSPropertyOp49
 70
     1
102
RTVSPropertyOp50
 70
     1
102
RTVSPropertyOp51
 70
     0
102
RTVSPropertyOp52
 70
     0
102
RTVSPropertyOp53
 70
     1
102
RTVSPropertyOp54
 70
     1
102
RTVSPropertyOp55
 70
     1
102
RTVSPropertyOp56
 70
     1
102
RTVSPropertyOp57
 70
     1
102
RTVSPropertyOp58
 70
     1
102
RTVSPropertyOp59
 70
     1
102
RTVSPropertyOp60
 70
     1
102
RTVSPropertyOp61
 70
     1
102
RTVSPropertyOp62
 70
     1
  0
XRECORD
  5
507
102
{ACAD_REACTORS
330
506
102
}
330
506
100
AcDbXrecord
280
     1
102
RTVSPost2010Prop28
280
     0
102
RTVSPost2010PropOp28
 70
     1
102
RTVSPost2010Prop29
280
     1
102
RTVSPost2010PropOp29
 70
     1
102
RTVSPost2010Prop30
280
     1
102
RTVSPost2010PropOp30
 70
     1
102
RTVSPost2010Prop31
280
     0
102
RTVSPost2010PropOp31
 70
     1
102
RTVSPost2010Prop32
280
     0
102
RTVSPost2010PropOp32
 70
     1
102
RTVSPost2010Prop33
280
     0
102
RTVSPost2010PropOp33
 70
     1
102
RTVSPost2010Prop34
280
     0
102
RTVSPost2010PropOp34
 70
     1
102
RTVSPost2010Prop35
280
     0
102
RTVSPost2010PropOp35
 70
     1
102
RTVSPost2010Prop36
280
     0
102
RTVSPost2010PropOp36
 70
     1
102
RTVSPost2010Prop37
 90
       50
102
RTVSPost2010PropOp37
 70
     1
102
RTVSPost2010Prop38
140
0.0
102
RTVSPost2010PropOp38
 70
     1
102
RTVSPost2010Prop39
140
1.0
102
RTVSPost2010PropOp39
 70
     1
102
RTVSPost2010Prop40
 90
        0
102
RTVSPost2010PropOp40
 70
     1
102
RTVSPost2010Prop41ColorIndex
 90
       18
102
RTVSPost2010Prop41ColorRGB
 90
        0
102
RTVSPost2010PropOp41
 70
     1
102
RTVSPost2010Prop42
 90
       50
102
RTVSPost2010PropOp42
 70
     1
102
RTVSPost2010Prop43
 90
        3
102
RTVSPost2010PropOp43
 70
     1
102
RTVSPost2010Prop44ColorIndex
 90
        5
102
RTVSPost2010Prop44ColorRGB
 90
      255
102
RTVSPost2010PropOp44
 70
     1
102
RTVSPost2010Prop45
280
     0
102
RTVSPost2010PropOp45
 70
     1
102
RTVSPost2010Prop46
 90
       50
102
RTVSPost2010PropOp46
 70
     1
102
RTVSPost2010Prop47
 90
       50
102
RTVSPost2010PropOp47
 70
     1
102
RTVSPost2010Prop48
 90
       50
102
RTVSPost2010PropOp48
 70
     1
102
RTVSPost2010Prop49
280
     0
102
RTVSPost2010PropOp49
 70
     1
102
RTVSPost2010Prop50
 90
       50
102
RTVSPost2010PropOp50
 70
     1
102
RTVSPost2010Prop51ColorIndex
 90
      256
102
RTVSPost2010Prop51ColorRGB
 90
-16777216
102
RTVSPost2010PropOp51
 70
     0
102
RTVSPost2010Prop52
140
1.0
102
RTVSPost2010PropOp52
 70
     0
102
RTVSPost2010Prop53
 90
        2
102
RTVSPost2010PropOp53
 70
     1
102
RTVSPost2010Prop54
  1
strokes_ogs.tif
102
RTVSPost2010PropOp54
 70
     1
102
RTVSPost2010Prop55
280
     0
102
RTVSPost2010PropOp55
 70
     1
102
RTVSPost2010Prop56
140
1.0
102
RTVSPost2010PropOp56
 70
     1
102
RTVSPost2010Prop57
140
1.0
102
RTVSPost2010PropOp57
 70
     1
102
RTVSPropertyOp0
 70
     1
102
RTVSPropertyOp1
 70
     1
102
RTVSPropertyOp2
 70
     1
102
RTVSPropertyOp3
 70
     1
102
RTVSPropertyOp4
 70
     1
102
RTVSPropertyOp5
 70
     1
102
RTVSPropertyOp6
 70
     1
102
RTVSPropertyOp7
 70
     1
102
RTVSPropertyOp8
 70
     1
102
RTVSPropertyOp9
 70
     1
102
RTVSPropertyOp10
 70
     1
102
RTVSPropertyOp11
 70
     1
102
RTVSPropertyOp12
 70
     1
102
RTVSPropertyOp13
 70
     1
102
RTVSPropertyOp14
 70
     1
102
RTVSPropertyOp15
 70
     1
102
RTVSPropertyOp16
 70
     1
102
RTVSPropertyOp17
 70
     1
102
RTVSPropertyOp18
 70
     1
102
RTVSPropertyOp19
 70
     1
102
RTVSPropertyOp20
 70
     1
102
RTVSPropertyOp21
 70
     1
102
RTVSPropertyOp22
 70
     1
102
RTVSPropertyOp23
 70
     1
102
RTVSPropertyOp24
 70
     1
102
RTVSPropertyOp25
 70
     1
102
RTVSPropertyOp26
 70
     1
102
RTVSPropertyOp27
 70
     1
102
RTVSPropertyOp28
 70
     1
102
RTVSPropertyOp29
 70
     1
102
RTVSPropertyOp30
 70
     1
102
RTVSPropertyOp31
 70
     1
102
RTVSPropertyOp32
 70
     1
102
RTVSPropertyOp33
 70
     1
102
RTVSPropertyOp34
 70
     1
102
RTVSPropertyOp35
 70
     1
102
RTVSPropertyOp36
 70
     1
102
RTVSPropertyOp37
 70
     1
102
RTVSPropertyOp38
 70
     1
102
RTVSPropertyOp39
 70
     1
102
RTVSPropertyOp40
 70
     1
102
RTVSPropertyOp41
 70
     1
102
RTVSPropertyOp42
 70
     1
102
RTVSPropertyOp43
 70
     1
102
RTVSPropertyOp44
 70
     1
102
RTVSPropertyOp45
 70
     1
102
RTVSPropertyOp46
 70
     1
102
RTVSPropertyOp47
 70
     1
102
RTVSPropertyOp48
 70
     1
102
RTVSPropertyOp49
 70
     1
102
RTVSPropertyOp50
 70
     1
102
RTVSPropertyOp51
 70
     0
102
RTVSPropertyOp52
 70
     0
102
RTVSPropertyOp53
 70
     1
102
RTVSPropertyOp54
 70
     1
102
RTVSPropertyOp55
 70
     1
102
RTVSPropertyOp56
 70
     1
102
RTVSPropertyOp57
 70
     1
102
RTVSPropertyOp58
 70
     1
102
RTVSPropertyOp59
 70
     1
102
RTVSPropertyOp60
 70
     1
102
RTVSPropertyOp61
 70
     1
102
RTVSPropertyOp62
 70
     1
  0
XRECORD
  5
523
102
{ACAD_REACTORS
330
522
102
}
330
522
100
AcDbXrecord
280
     1
102
RTVSPost2010Prop28
280
     0
102
RTVSPost2010PropOp28
 70
     0
102
RTVSPost2010Prop29
280
     1
102
RTVSPost2010PropOp29
 70
     0
102
RTVSPost2010Prop30
280
     1
102
RTVSPost2010PropOp30
 70
     0
102
RTVSPost2010Prop31
280
     0
102
RTVSPost2010PropOp31
 70
     0
102
RTVSPost2010Prop32
280
     0
102
RTVSPost2010PropOp32
 70
     0
102
RTVSPost2010Prop33
280
     0
102
RTVSPost2010PropOp33
 70
     0
102
RTVSPost2010Prop34
280
     0
102
RTVSPost2010PropOp34
 70
     0
102
RTVSPost2010Prop35
280
     0
102
RTVSPost2010PropOp35
 70
     0
102
RTVSPost2010Prop36
280
     0
102
RTVSPost2010PropOp36
 70
     0
102
RTVSPost2010Prop37
 90
       50
102
RTVSPost2010PropOp37
 70
     0
102
RTVSPost2010Prop38
140
0.0
102
RTVSPost2010PropOp38
 70
     0
102
RTVSPost2010Prop39
140
1.0
102
RTVSPost2010PropOp39
 70
     0
102
RTVSPost2010Prop40
 90
        0
102
RTVSPost2010PropOp40
 70
     0
102
RTVSPost2010Prop41ColorIndex
 90
       18
102
RTVSPost2010Prop41ColorRGB
 90
        0
102
RTVSPost2010PropOp41
 70
     0
102
RTVSPost2010Prop42
 90
       50
102
RTVSPost2010PropOp42
 70
     0
102
RTVSPost2010Prop43
 90
        3
102
RTVSPost2010PropOp43
 70
     0
102
RTVSPost2010Prop44ColorIndex
 90
        5
102
RTVSPost2010Prop44ColorRGB
 90
      255
102
RTVSPost2010PropOp44
 70
     0
102
RTVSPost2010Prop45
280
     0
102
RTVSPost2010PropOp45
 70
     0
102
RTVSPost2010Prop46
 90
       50
102
RTVSPost2010PropOp46
 70
     0
102
RTVSPost2010Prop47
 90
       50
102
RTVSPost2010PropOp47
 70
     0
102
RTVSPost2010Prop48
 90
       50
102
RTVSPost2010PropOp48
 70
     0
102
RTVSPost2010Prop49
280
     0
102
RTVSPost2010PropOp49
 70
     0
102
RTVSPost2010Prop50
 90
       50
102
RTVSPost2010PropOp50
 70
     0
102
RTVSPost2010Prop51ColorIndex
 90
      256
102
RTVSPost2010Prop51ColorRGB
 90
-16777216
102
RTVSPost2010PropOp51
 70
     0
102
RTVSPost2010Prop52
140
1.0
102
RTVSPost2010PropOp52
 70
     0
102
RTVSPost2010Prop53
 90
        2
102
RTVSPost2010PropOp53
 70
     0
102
RTVSPost2010Prop54
  1
strokes_ogs.tif
102
RTVSPost2010PropOp54
 70
     0
102
RTVSPost2010Prop55
280
     0
102
RTVSPost2010PropOp55
 70
     0
102
RTVSPost2010Prop56
140
1.0
102
RTVSPost2010PropOp56
 70
     0
102
RTVSPost2010Prop57
140
1.0
102
RTVSPost2010PropOp57
 70
     0
102
RTVSPropertyOp0
 70
     0
102
RTVSPropertyOp1
 70
     0
102
RTVSPropertyOp2
 70
     0
102
RTVSPropertyOp3
 70
     0
102
RTVSPropertyOp4
 70
     0
102
RTVSPropertyOp5
 70
     0
102
RTVSPropertyOp6
 70
     0
102
RTVSPropertyOp7
 70
     0
102
RTVSPropertyOp8
 70
     0
102
RTVSPropertyOp9
 70
     0
102
RTVSPropertyOp10
 70
     0
102
RTVSPropertyOp11
 70
     0
102
RTVSPropertyOp12
 70
     0
102
RTVSPropertyOp13
 70
     0
102
RTVSPropertyOp14
 70
     2
102
RTVSPropertyOp15
 70
     0
102
RTVSPropertyOp16
 70
     0
102
RTVSPropertyOp17
 70
     0
102
RTVSPropertyOp18
 70
     0
102
RTVSPropertyOp19
 70
     0
102
RTVSPropertyOp20
 70
     0
102
RTVSPropertyOp21
 70
     0
102
RTVSPropertyOp22
 70
     0
102
RTVSPropertyOp23
 70
     0
102
RTVSPropertyOp24
 70
     0
102
RTVSPropertyOp25
 70
     0
102
RTVSPropertyOp26
 70
     0
102
RTVSPropertyOp27
 70
     0
102
RTVSPropertyOp28
 70
     0
102
RTVSPropertyOp29
 70
     0
102
RTVSPropertyOp30
 70
     0
102
RTVSPropertyOp31
 70
     0
102
RTVSPropertyOp32
 70
     0
102
RTVSPropertyOp33
 70
     0
102
RTVSPropertyOp34
 70
     0
102
RTVSPropertyOp35
 70
     0
102
RTVSPropertyOp36
 70
     0
102
RTVSPropertyOp37
 70
     0
102
RTVSPropertyOp38
 70
     0
102
RTVSPropertyOp39
 70
     0
102
RTVSPropertyOp40
 70
     0
102
RTVSPropertyOp41
 70
     0
102
RTVSPropertyOp42
 70
     0
102
RTVSPropertyOp43
 70
     0
102
RTVSPropertyOp44
 70
     0
102
RTVSPropertyOp45
 70
     0
102
RTVSPropertyOp46
 70
     0
102
RTVSPropertyOp47
 70
     0
102
RTVSPropertyOp48
 70
     0
102
RTVSPropertyOp49
 70
     0
102
RTVSPropertyOp50
 70
     0
102
RTVSPropertyOp51
 70
     0
102
RTVSPropertyOp52
 70
     0
102
RTVSPropertyOp53
 70
     0
102
RTVSPropertyOp54
 70
     0
102
RTVSPropertyOp55
 70
     0
102
RTVSPropertyOp56
 70
     0
102
RTVSPropertyOp57
 70
     0
102
RTVSPropertyOp58
 70
     0
102
RTVSPropertyOp59
 70
     0
102
RTVSPropertyOp60
 70
     0
102
RTVSPropertyOp61
 70
     0
102
RTVSPropertyOp62
 70
     0
  0
XRECORD
  5
513
102
{ACAD_REACTORS
330
512
102
}
330
512
100
AcDbXrecord
280
     1
102
RTVSPost2010Prop28
280
     0
102
RTVSPost2010PropOp28
 70
     1
102
RTVSPost2010Prop29
280
     1
102
RTVSPost2010PropOp29
 70
     1
102
RTVSPost2010Prop30
280
     1
102
RTVSPost2010PropOp30
 70
     1
102
RTVSPost2010Prop31
280
     0
102
RTVSPost2010PropOp31
 70
     1
102
RTVSPost2010Prop32
280
     0
102
RTVSPost2010PropOp32
 70
     1
102
RTVSPost2010Prop33
280
     0
102
RTVSPost2010PropOp33
 70
     1
102
RTVSPost2010Prop34
280
     0
102
RTVSPost2010PropOp34
 70
     1
102
RTVSPost2010Prop35
280
     0
102
RTVSPost2010PropOp35
 70
     1
102
RTVSPost2010Prop36
280
     0
102
RTVSPost2010PropOp36
 70
     1
102
RTVSPost2010Prop37
 90
       50
102
RTVSPost2010PropOp37
 70
     1
102
RTVSPost2010Prop38
140
0.0
102
RTVSPost2010PropOp38
 70
     1
102
RTVSPost2010Prop39
140
1.0
102
RTVSPost2010PropOp39
 70
     1
102
RTVSPost2010Prop40
 90
        0
102
RTVSPost2010PropOp40
 70
     1
102
RTVSPost2010Prop41ColorIndex
 90
       18
102
RTVSPost2010Prop41ColorRGB
 90
        0
102
RTVSPost2010PropOp41
 70
     1
102
RTVSPost2010Prop42
 90
       50
102
RTVSPost2010PropOp42
 70
     1
102
RTVSPost2010Prop43
 90
        3
102
RTVSPost2010PropOp43
 70
     1
102
RTVSPost2010Prop44ColorIndex
 90
        5
102
RTVSPost2010Prop44ColorRGB
 90
      255
102
RTVSPost2010PropOp44
 70
     1
102
RTVSPost2010Prop45
280
     0
102
RTVSPost2010PropOp45
 70
     1
102
RTVSPost2010Prop46
 90
       50
102
RTVSPost2010PropOp46
 70
     1
102
RTVSPost2010Prop47
 90
       50
102
RTVSPost2010PropOp47
 70
     1
102
RTVSPost2010Prop48
 90
       50
102
RTVSPost2010PropOp48
 70
     1
102
RTVSPost2010Prop49
280
     0
102
RTVSPost2010PropOp49
 70
     1
102
RTVSPost2010Prop50
 90
       50
102
RTVSPost2010PropOp50
 70
     1
102
RTVSPost2010Prop51ColorIndex
 90
      256
102
RTVSPost2010Prop51ColorRGB
 90
-16777216
102
RTVSPost2010PropOp51
 70
     0
102
RTVSPost2010Prop52
140
1.0
102
RTVSPost2010PropOp52
 70
     0
102
RTVSPost2010Prop53
 90
        2
102
RTVSPost2010PropOp53
 70
     1
102
RTVSPost2010Prop54
  1
strokes_ogs.tif
102
RTVSPost2010PropOp54
 70
     1
102
RTVSPost2010Prop55
280
     0
102
RTVSPost2010PropOp55
 70
     1
102
RTVSPost2010Prop56
140
1.0
102
RTVSPost2010PropOp56
 70
     1
102
RTVSPost2010Prop57
140
1.0
102
RTVSPost2010PropOp57
 70
     1
102
RTVSPropertyOp0
 70
     1
102
RTVSPropertyOp1
 70
     1
102
RTVSPropertyOp2
 70
     1
102
RTVSPropertyOp3
 70
     1
102
RTVSPropertyOp4
 70
     1
102
RTVSPropertyOp5
 70
     1
102
RTVSPropertyOp6
 70
     1
102
RTVSPropertyOp7
 70
     1
102
RTVSPropertyOp8
 70
     1
102
RTVSPropertyOp9
 70
     1
102
RTVSPropertyOp10
 70
     1
102
RTVSPropertyOp11
 70
     1
102
RTVSPropertyOp12
 70
     1
102
RTVSPropertyOp13
 70
     1
102
RTVSPropertyOp14
 70
     1
102
RTVSPropertyOp15
 70
     1
102
RTVSPropertyOp16
 70
     1
102
RTVSPropertyOp17
 70
     1
102
RTVSPropertyOp18
 70
     1
102
RTVSPropertyOp19
 70
     1
102
RTVSPropertyOp20
 70
     1
102
RTVSPropertyOp21
 70
     1
102
RTVSPropertyOp22
 70
     1
102
RTVSPropertyOp23
 70
     1
102
RTVSPropertyOp24
 70
     1
102
RTVSPropertyOp25
 70
     1
102
RTVSPropertyOp26
 70
     1
102
RTVSPropertyOp27
 70
     1
102
RTVSPropertyOp28
 70
     1
102
RTVSPropertyOp29
 70
     1
102
RTVSPropertyOp30
 70
     1
102
RTVSPropertyOp31
 70
     1
102
RTVSPropertyOp32
 70
     1
102
RTVSPropertyOp33
 70
     1
102
RTVSPropertyOp34
 70
     1
102
RTVSPropertyOp35
 70
     1
102
RTVSPropertyOp36
 70
     1
102
RTVSPropertyOp37
 70
     1
102
RTVSPropertyOp38
 70
     1
102
RTVSPropertyOp39
 70
     1
102
RTVSPropertyOp40
 70
     1
102
RTVSPropertyOp41
 70
     1
102
RTVSPropertyOp42
 70
     1
102
RTVSPropertyOp43
 70
     1
102
RTVSPropertyOp44
 70
     1
102
RTVSPropertyOp45
 70
     1
102
RTVSPropertyOp46
 70
     1
102
RTVSPropertyOp47
 70
     1
102
RTVSPropertyOp48
 70
     1
102
RTVSPropertyOp49
 70
     1
102
RTVSPropertyOp50
 70
     1
102
RTVSPropertyOp51
 70
     0
102
RTVSPropertyOp52
 70
     0
102
RTVSPropertyOp53
 70
     1
102
RTVSPropertyOp54
 70
     1
102
RTVSPropertyOp55
 70
     1
102
RTVSPropertyOp56
 70
     1
102
RTVSPropertyOp57
 70
     1
102
RTVSPropertyOp58
 70
     1
102
RTVSPropertyOp59
 70
     1
102
RTVSPropertyOp60
 70
     1
102
RTVSPropertyOp61
 70
     1
102
RTVSPropertyOp62
 70
     1
  0
XRECORD
  5
525
102
{ACAD_REACTORS
330
524
102
}
330
524
100
AcDbXrecord
280
     1
102
RTVSPost2010Prop28
280
     0
102
RTVSPost2010PropOp28
 70
     0
102
RTVSPost2010Prop29
280
     1
102
RTVSPost2010PropOp29
 70
     0
102
RTVSPost2010Prop30
280
     1
102
RTVSPost2010PropOp30
 70
     0
102
RTVSPost2010Prop31
280
     0
102
RTVSPost2010PropOp31
 70
     0
102
RTVSPost2010Prop32
280
     0
102
RTVSPost2010PropOp32
 70
     0
102
RTVSPost2010Prop33
280
     0
102
RTVSPost2010PropOp33
 70
     0
102
RTVSPost2010Prop34
280
     0
102
RTVSPost2010PropOp34
 70
     0
102
RTVSPost2010Prop35
280
     0
102
RTVSPost2010PropOp35
 70
     0
102
RTVSPost2010Prop36
280
     0
102
RTVSPost2010PropOp36
 70
     0
102
RTVSPost2010Prop37
 90
       50
102
RTVSPost2010PropOp37
 70
     0
102
RTVSPost2010Prop38
140
0.0
102
RTVSPost2010PropOp38
 70
     0
102
RTVSPost2010Prop39
140
1.0
102
RTVSPost2010PropOp39
 70
     0
102
RTVSPost2010Prop40
 90
        0
102
RTVSPost2010PropOp40
 70
     0
102
RTVSPost2010Prop41ColorIndex
 90
       18
102
RTVSPost2010Prop41ColorRGB
 90
        0
102
RTVSPost2010PropOp41
 70
     0
102
RTVSPost2010Prop42
 90
       50
102
RTVSPost2010PropOp42
 70
     0
102
RTVSPost2010Prop43
 90
        3
102
RTVSPost2010PropOp43
 70
     0
102
RTVSPost2010Prop44ColorIndex
 90
        5
102
RTVSPost2010Prop44ColorRGB
 90
      255
102
RTVSPost2010PropOp44
 70
     0
102
RTVSPost2010Prop45
280
     0
102
RTVSPost2010PropOp45
 70
     0
102
RTVSPost2010Prop46
 90
       50
102
RTVSPost2010PropOp46
 70
     0
102
RTVSPost2010Prop47
 90
       50
102
RTVSPost2010PropOp47
 70
     0
102
RTVSPost2010Prop48
 90
       50
102
RTVSPost2010PropOp48
 70
     0
102
RTVSPost2010Prop49
280
     0
102
RTVSPost2010PropOp49
 70
     0
102
RTVSPost2010Prop50
 90
       50
102
RTVSPost2010PropOp50
 70
     0
102
RTVSPost2010Prop51ColorIndex
 90
      256
102
RTVSPost2010Prop51ColorRGB
 90
-16777216
102
RTVSPost2010PropOp51
 70
     0
102
RTVSPost2010Prop52
140
1.0
102
RTVSPost2010PropOp52
 70
     0
102
RTVSPost2010Prop53
 90
        2
102
RTVSPost2010PropOp53
 70
     0
102
RTVSPost2010Prop54
  1
strokes_ogs.tif
102
RTVSPost2010PropOp54
 70
     0
102
RTVSPost2010Prop55
280
     0
102
RTVSPost2010PropOp55
 70
     0
102
RTVSPost2010Prop56
140
1.0
102
RTVSPost2010PropOp56
 70
     0
102
RTVSPost2010Prop57
140
1.0
102
RTVSPost2010PropOp57
 70
     0
102
RTVSPropertyOp0
 70
     0
102
RTVSPropertyOp1
 70
     0
102
RTVSPropertyOp2
 70
     0
102
RTVSPropertyOp3
 70
     0
102
RTVSPropertyOp4
 70
     0
102
RTVSPropertyOp5
 70
     0
102
RTVSPropertyOp6
 70
     0
102
RTVSPropertyOp7
 70
     0
102
RTVSPropertyOp8
 70
     0
102
RTVSPropertyOp9
 70
     0
102
RTVSPropertyOp10
 70
     0
102
RTVSPropertyOp11
 70
     0
102
RTVSPropertyOp12
 70
     0
102
RTVSPropertyOp13
 70
     0
102
RTVSPropertyOp14
 70
     2
102
RTVSPropertyOp15
 70
     0
102
RTVSPropertyOp16
 70
     0
102
RTVSPropertyOp17
 70
     0
102
RTVSPropertyOp18
 70
     0
102
RTVSPropertyOp19
 70
     0
102
RTVSPropertyOp20
 70
     0
102
RTVSPropertyOp21
 70
     0
102
RTVSPropertyOp22
 70
     0
102
RTVSPropertyOp23
 70
     0
102
RTVSPropertyOp24
 70
     0
102
RTVSPropertyOp25
 70
     0
102
RTVSPropertyOp26
 70
     0
102
RTVSPropertyOp27
 70
     0
102
RTVSPropertyOp28
 70
     0
102
RTVSPropertyOp29
 70
     0
102
RTVSPropertyOp30
 70
     0
102
RTVSPropertyOp31
 70
     0
102
RTVSPropertyOp32
 70
     0
102
RTVSPropertyOp33
 70
     0
102
RTVSPropertyOp34
 70
     0
102
RTVSPropertyOp35
 70
     0
102
RTVSPropertyOp36
 70
     0
102
RTVSPropertyOp37
 70
     0
102
RTVSPropertyOp38
 70
     0
102
RTVSPropertyOp39
 70
     0
102
RTVSPropertyOp40
 70
     0
102
RTVSPropertyOp41
 70
     0
102
RTVSPropertyOp42
 70
     0
102
RTVSPropertyOp43
 70
     0
102
RTVSPropertyOp44
 70
     0
102
RTVSPropertyOp45
 70
     0
102
RTVSPropertyOp46
 70
     0
102
RTVSPropertyOp47
 70
     0
102
RTVSPropertyOp48
 70
     0
102
RTVSPropertyOp49
 70
     0
102
RTVSPropertyOp50
 70
     0
102
RTVSPropertyOp51
 70
     0
102
RTVSPropertyOp52
 70
     0
102
RTVSPropertyOp53
 70
     0
102
RTVSPropertyOp54
 70
     0
102
RTVSPropertyOp55
 70
     0
102
RTVSPropertyOp56
 70
     0
102
RTVSPropertyOp57
 70
     0
102
RTVSPropertyOp58
 70
     0
102
RTVSPropertyOp59
 70
     0
102
RTVSPropertyOp60
 70
     0
102
RTVSPropertyOp61
 70
     0
102
RTVSPropertyOp62
 70
     0
  0
XRECORD
  5
50B
102
{ACAD_REACTORS
330
50A
102
}
330
50A
100
AcDbXrecord
280
     1
102
RTVSPost2010Prop28
280
     0
102
RTVSPost2010PropOp28
 70
     1
102
RTVSPost2010Prop29
280
     1
102
RTVSPost2010PropOp29
 70
     1
102
RTVSPost2010Prop30
280
     1
102
RTVSPost2010PropOp30
 70
     1
102
RTVSPost2010Prop31
280
     0
102
RTVSPost2010PropOp31
 70
     1
102
RTVSPost2010Prop32
280
     0
102
RTVSPost2010PropOp32
 70
     1
102
RTVSPost2010Prop33
280
     0
102
RTVSPost2010PropOp33
 70
     1
102
RTVSPost2010Prop34
280
     0
102
RTVSPost2010PropOp34
 70
     1
102
RTVSPost2010Prop35
280
     0
102
RTVSPost2010PropOp35
 70
     1
102
RTVSPost2010Prop36
280
     0
102
RTVSPost2010PropOp36
 70
     1
102
RTVSPost2010Prop37
 90
       50
102
RTVSPost2010PropOp37
 70
     1
102
RTVSPost2010Prop38
140
0.0
102
RTVSPost2010PropOp38
 70
     1
102
RTVSPost2010Prop39
140
1.0
102
RTVSPost2010PropOp39
 70
     1
102
RTVSPost2010Prop40
 90
        0
102
RTVSPost2010PropOp40
 70
     1
102
RTVSPost2010Prop41ColorIndex
 90
       18
102
RTVSPost2010Prop41ColorRGB
 90
        0
102
RTVSPost2010PropOp41
 70
     1
102
RTVSPost2010Prop42
 90
       50
102
RTVSPost2010PropOp42
 70
     1
102
RTVSPost2010Prop43
 90
        3
102
RTVSPost2010PropOp43
 70
     1
102
RTVSPost2010Prop44ColorIndex
 90
        5
102
RTVSPost2010Prop44ColorRGB
 90
      255
102
RTVSPost2010PropOp44
 70
     1
102
RTVSPost2010Prop45
280
     0
102
RTVSPost2010PropOp45
 70
     1
102
RTVSPost2010Prop46
 90
       50
102
RTVSPost2010PropOp46
 70
     1
102
RTVSPost2010Prop47
 90
       50
102
RTVSPost2010PropOp47
 70
     1
102
RTVSPost2010Prop48
 90
       50
102
RTVSPost2010PropOp48
 70
     1
102
RTVSPost2010Prop49
280
     0
102
RTVSPost2010PropOp49
 70
     1
102
RTVSPost2010Prop50
 90
       50
102
RTVSPost2010PropOp50
 70
     1
102
RTVSPost2010Prop51ColorIndex
 90
      256
102
RTVSPost2010Prop51ColorRGB
 90
-16777216
102
RTVSPost2010PropOp51
 70
     0
102
RTVSPost2010Prop52
140
1.0
102
RTVSPost2010PropOp52
 70
     0
102
RTVSPost2010Prop53
 90
        2
102
RTVSPost2010PropOp53
 70
     1
102
RTVSPost2010Prop54
  1
strokes_ogs.tif
102
RTVSPost2010PropOp54
 70
     1
102
RTVSPost2010Prop55
280
     0
102
RTVSPost2010PropOp55
 70
     1
102
RTVSPost2010Prop56
140
1.0
102
RTVSPost2010PropOp56
 70
     1
102
RTVSPost2010Prop57
140
1.0
102
RTVSPost2010PropOp57
 70
     1
102
RTVSPropertyOp0
 70
     1
102
RTVSPropertyOp1
 70
     1
102
RTVSPropertyOp2
 70
     1
102
RTVSPropertyOp3
 70
     1
102
RTVSPropertyOp4
 70
     1
102
RTVSPropertyOp5
 70
     1
102
RTVSPropertyOp6
 70
     1
102
RTVSPropertyOp7
 70
     1
102
RTVSPropertyOp8
 70
     1
102
RTVSPropertyOp9
 70
     1
102
RTVSPropertyOp10
 70
     1
102
RTVSPropertyOp11
 70
     1
102
RTVSPropertyOp12
 70
     1
102
RTVSPropertyOp13
 70
     1
102
RTVSPropertyOp14
 70
     1
102
RTVSPropertyOp15
 70
     1
102
RTVSPropertyOp16
 70
     1
102
RTVSPropertyOp17
 70
     1
102
RTVSPropertyOp18
 70
     1
102
RTVSPropertyOp19
 70
     1
102
RTVSPropertyOp20
 70
     1
102
RTVSPropertyOp21
 70
     1
102
RTVSPropertyOp22
 70
     1
102
RTVSPropertyOp23
 70
     1
102
RTVSPropertyOp24
 70
     1
102
RTVSPropertyOp25
 70
     1
102
RTVSPropertyOp26
 70
     1
102
RTVSPropertyOp27
 70
     1
102
RTVSPropertyOp28
 70
     1
102
RTVSPropertyOp29
 70
     1
102
RTVSPropertyOp30
 70
     1
102
RTVSPropertyOp31
 70
     1
102
RTVSPropertyOp32
 70
     1
102
RTVSPropertyOp33
 70
     1
102
RTVSPropertyOp34
 70
     1
102
RTVSPropertyOp35
 70
     1
102
RTVSPropertyOp36
 70
     1
102
RTVSPropertyOp37
 70
     1
102
RTVSPropertyOp38
 70
     1
102
RTVSPropertyOp39
 70
     1
102
RTVSPropertyOp40
 70
     1
102
RTVSPropertyOp41
 70
     1
102
RTVSPropertyOp42
 70
     1
102
RTVSPropertyOp43
 70
     1
102
RTVSPropertyOp44
 70
     1
102
RTVSPropertyOp45
 70
     1
102
RTVSPropertyOp46
 70
     1
102
RTVSPropertyOp47
 70
     1
102
RTVSPropertyOp48
 70
     1
102
RTVSPropertyOp49
 70
     1
102
RTVSPropertyOp50
 70
     1
102
RTVSPropertyOp51
 70
     0
102
RTVSPropertyOp52
 70
     0
102
RTVSPropertyOp53
 70
     1
102
RTVSPropertyOp54
 70
     1
102
RTVSPropertyOp55
 70
     1
102
RTVSPropertyOp56
 70
     1
102
RTVSPropertyOp57
 70
     1
102
RTVSPropertyOp58
 70
     1
102
RTVSPropertyOp59
 70
     1
102
RTVSPropertyOp60
 70
     1
102
RTVSPropertyOp61
 70
     1
102
RTVSPropertyOp62
 70
     1
  0
XRECORD
  5
521
102
{ACAD_REACTORS
330
520
102
}
330
520
100
AcDbXrecord
280
     1
102
RTVSPost2010Prop28
280
     0
102
RTVSPost2010PropOp28
 70
     1
102
RTVSPost2010Prop29
280
     1
102
RTVSPost2010PropOp29
 70
     1
102
RTVSPost2010Prop30
280
     1
102
RTVSPost2010PropOp30
 70
     1
102
RTVSPost2010Prop31
280
     0
102
RTVSPost2010PropOp31
 70
     1
102
RTVSPost2010Prop32
280
     0
102
RTVSPost2010PropOp32
 70
     1
102
RTVSPost2010Prop33
280
     0
102
RTVSPost2010PropOp33
 70
     1
102
RTVSPost2010Prop34
280
     0
102
RTVSPost2010PropOp34
 70
     1
102
RTVSPost2010Prop35
280
     0
102
RTVSPost2010PropOp35
 70
     1
102
RTVSPost2010Prop36
280
     0
102
RTVSPost2010PropOp36
 70
     1
102
RTVSPost2010Prop37
 90
       50
102
RTVSPost2010PropOp37
 70
     1
102
RTVSPost2010Prop38
140
0.0
102
RTVSPost2010PropOp38
 70
     1
102
RTVSPost2010Prop39
140
1.0
102
RTVSPost2010PropOp39
 70
     1
102
RTVSPost2010Prop40
 90
        0
102
RTVSPost2010PropOp40
 70
     1
102
RTVSPost2010Prop41ColorIndex
 90
       18
102
RTVSPost2010Prop41ColorRGB
 90
        0
102
RTVSPost2010PropOp41
 70
     1
102
RTVSPost2010Prop42
 90
       50
102
RTVSPost2010PropOp42
 70
     1
102
RTVSPost2010Prop43
 90
        3
102
RTVSPost2010PropOp43
 70
     1
102
RTVSPost2010Prop44ColorIndex
 90
        5
102
RTVSPost2010Prop44ColorRGB
 90
      255
102
RTVSPost2010PropOp44
 70
     1
102
RTVSPost2010Prop45
280
     0
102
RTVSPost2010PropOp45
 70
     1
102
RTVSPost2010Prop46
 90
       50
102
RTVSPost2010PropOp46
 70
     1
102
RTVSPost2010Prop47
 90
       50
102
RTVSPost2010PropOp47
 70
     1
102
RTVSPost2010Prop48
 90
       50
102
RTVSPost2010PropOp48
 70
     1
102
RTVSPost2010Prop49
280
     0
102
RTVSPost2010PropOp49
 70
     1
102
RTVSPost2010Prop50
 90
       50
102
RTVSPost2010PropOp50
 70
     1
102
RTVSPost2010Prop51ColorIndex
 90
      256
102
RTVSPost2010Prop51ColorRGB
 90
-16777216
102
RTVSPost2010PropOp51
 70
     0
102
RTVSPost2010Prop52
140
1.0
102
RTVSPost2010PropOp52
 70
     0
102
RTVSPost2010Prop53
 90
        2
102
RTVSPost2010PropOp53
 70
     1
102
RTVSPost2010Prop54
  1
strokes_ogs.tif
102
RTVSPost2010PropOp54
 70
     1
102
RTVSPost2010Prop55
280
     0
102
RTVSPost2010PropOp55
 70
     1
102
RTVSPost2010Prop56
140
1.0
102
RTVSPost2010PropOp56
 70
     1
102
RTVSPost2010Prop57
140
1.0
102
RTVSPost2010PropOp57
 70
     1
102
RTVSPropertyOp0
 70
     1
102
RTVSPropertyOp1
 70
     1
102
RTVSPropertyOp2
 70
     1
102
RTVSPropertyOp3
 70
     1
102
RTVSPropertyOp4
 70
     1
102
RTVSPropertyOp5
 70
     1
102
RTVSPropertyOp6
 70
     1
102
RTVSPropertyOp7
 70
     1
102
RTVSPropertyOp8
 70
     1
102
RTVSPropertyOp9
 70
     1
102
RTVSPropertyOp10
 70
     1
102
RTVSPropertyOp11
 70
     1
102
RTVSPropertyOp12
 70
     1
102
RTVSPropertyOp13
 70
     1
102
RTVSPropertyOp14
 70
     1
102
RTVSPropertyOp15
 70
     1
102
RTVSPropertyOp16
 70
     1
102
RTVSPropertyOp17
 70
     1
102
RTVSPropertyOp18
 70
     1
102
RTVSPropertyOp19
 70
     1
102
RTVSPropertyOp20
 70
     1
102
RTVSPropertyOp21
 70
     1
102
RTVSPropertyOp22
 70
     1
102
RTVSPropertyOp23
 70
     1
102
RTVSPropertyOp24
 70
     1
102
RTVSPropertyOp25
 70
     1
102
RTVSPropertyOp26
 70
     1
102
RTVSPropertyOp27
 70
     1
102
RTVSPropertyOp28
 70
     1
102
RTVSPropertyOp29
 70
     1
102
RTVSPropertyOp30
 70
     1
102
RTVSPropertyOp31
 70
     1
102
RTVSPropertyOp32
 70
     1
102
RTVSPropertyOp33
 70
     1
102
RTVSPropertyOp34
 70
     1
102
RTVSPropertyOp35
 70
     1
102
RTVSPropertyOp36
 70
     1
102
RTVSPropertyOp37
 70
     1
102
RTVSPropertyOp38
 70
     1
102
RTVSPropertyOp39
 70
     1
102
RTVSPropertyOp40
 70
     1
102
RTVSPropertyOp41
 70
     1
102
RTVSPropertyOp42
 70
     1
102
RTVSPropertyOp43
 70
     1
102
RTVSPropertyOp44
 70
     1
102
RTVSPropertyOp45
 70
     1
102
RTVSPropertyOp46
 70
     1
102
RTVSPropertyOp47
 70
     1
102
RTVSPropertyOp48
 70
     1
102
RTVSPropertyOp49
 70
     1
102
RTVSPropertyOp50
 70
     1
102
RTVSPropertyOp51
 70
     0
102
RTVSPropertyOp52
 70
     0
102
RTVSPropertyOp53
 70
     1
102
RTVSPropertyOp54
 70
     1
102
RTVSPropertyOp55
 70
     1
102
RTVSPropertyOp56
 70
     1
102
RTVSPropertyOp57
 70
     1
102
RTVSPropertyOp58
 70
     1
102
RTVSPropertyOp59
 70
     1
102
RTVSPropertyOp60
 70
     1
102
RTVSPropertyOp61
 70
     1
102
RTVSPropertyOp62
 70
     1
  0
XRECORD
  5
51F
102
{ACAD_REACTORS
330
51E
102
}
330
51E
100
AcDbXrecord
280
     1
102
RTVSPost2010Prop28
280
     0
102
RTVSPost2010PropOp28
 70
     1
102
RTVSPost2010Prop29
280
     1
102
RTVSPost2010PropOp29
 70
     1
102
RTVSPost2010Prop30
280
     1
102
RTVSPost2010PropOp30
 70
     1
102
RTVSPost2010Prop31
280
     0
102
RTVSPost2010PropOp31
 70
     1
102
RTVSPost2010Prop32
280
     0
102
RTVSPost2010PropOp32
 70
     1
102
RTVSPost2010Prop33
280
     0
102
RTVSPost2010PropOp33
 70
     1
102
RTVSPost2010Prop34
280
     0
102
RTVSPost2010PropOp34
 70
     1
102
RTVSPost2010Prop35
280
     0
102
RTVSPost2010PropOp35
 70
     1
102
RTVSPost2010Prop36
280
     0
102
RTVSPost2010PropOp36
 70
     1
102
RTVSPost2010Prop37
 90
       50
102
RTVSPost2010PropOp37
 70
     1
102
RTVSPost2010Prop38
140
0.0
102
RTVSPost2010PropOp38
 70
     1
102
RTVSPost2010Prop39
140
1.0
102
RTVSPost2010PropOp39
 70
     1
102
RTVSPost2010Prop40
 90
        0
102
RTVSPost2010PropOp40
 70
     1
102
RTVSPost2010Prop41ColorIndex
 90
       18
102
RTVSPost2010Prop41ColorRGB
 90
        0
102
RTVSPost2010PropOp41
 70
     1
102
RTVSPost2010Prop42
 90
       50
102
RTVSPost2010PropOp42
 70
     1
102
RTVSPost2010Prop43
 90
        3
102
RTVSPost2010PropOp43
 70
     1
102
RTVSPost2010Prop44ColorIndex
 90
        5
102
RTVSPost2010Prop44ColorRGB
 90
      255
102
RTVSPost2010PropOp44
 70
     1
102
RTVSPost2010Prop45
280
     0
102
RTVSPost2010PropOp45
 70
     1
102
RTVSPost2010Prop46
 90
       50
102
RTVSPost2010PropOp46
 70
     1
102
RTVSPost2010Prop47
 90
       50
102
RTVSPost2010PropOp47
 70
     1
102
RTVSPost2010Prop48
 90
       50
102
RTVSPost2010PropOp48
 70
     1
102
RTVSPost2010Prop49
280
     0
102
RTVSPost2010PropOp49
 70
     1
102
RTVSPost2010Prop50
 90
       50
102
RTVSPost2010PropOp50
 70
     1
102
RTVSPost2010Prop51ColorIndex
 90
      256
102
RTVSPost2010Prop51ColorRGB
 90
-16777216
102
RTVSPost2010PropOp51
 70
     0
102
RTVSPost2010Prop52
140
1.0
102
RTVSPost2010PropOp52
 70
     0
102
RTVSPost2010Prop53
 90
        2
102
RTVSPost2010PropOp53
 70
     1
102
RTVSPost2010Prop54
  1
strokes_ogs.tif
102
RTVSPost2010PropOp54
 70
     1
102
RTVSPost2010Prop55
280
     0
102
RTVSPost2010PropOp55
 70
     1
102
RTVSPost2010Prop56
140
1.0
102
RTVSPost2010PropOp56
 70
     1
102
RTVSPost2010Prop57
140
1.0
102
RTVSPost2010PropOp57
 70
     1
102
RTVSPropertyOp0
 70
     1
102
RTVSPropertyOp1
 70
     1
102
RTVSPropertyOp2
 70
     1
102
RTVSPropertyOp3
 70
     1
102
RTVSPropertyOp4
 70
     1
102
RTVSPropertyOp5
 70
     1
102
RTVSPropertyOp6
 70
     1
102
RTVSPropertyOp7
 70
     1
102
RTVSPropertyOp8
 70
     1
102
RTVSPropertyOp9
 70
     1
102
RTVSPropertyOp10
 70
     1
102
RTVSPropertyOp11
 70
     1
102
RTVSPropertyOp12
 70
     1
102
RTVSPropertyOp13
 70
     1
102
RTVSPropertyOp14
 70
     1
102
RTVSPropertyOp15
 70
     1
102
RTVSPropertyOp16
 70
     1
102
RTVSPropertyOp17
 70
     1
102
RTVSPropertyOp18
 70
     1
102
RTVSPropertyOp19
 70
     1
102
RTVSPropertyOp20
 70
     1
102
RTVSPropertyOp21
 70
     1
102
RTVSPropertyOp22
 70
     1
102
RTVSPropertyOp23
 70
     1
102
RTVSPropertyOp24
 70
     1
102
RTVSPropertyOp25
 70
     1
102
RTVSPropertyOp26
 70
     1
102
RTVSPropertyOp27
 70
     1
102
RTVSPropertyOp28
 70
     1
102
RTVSPropertyOp29
 70
     1
102
RTVSPropertyOp30
 70
     1
102
RTVSPropertyOp31
 70
     1
102
RTVSPropertyOp32
 70
     1
102
RTVSPropertyOp33
 70
     1
102
RTVSPropertyOp34
 70
     1
102
RTVSPropertyOp35
 70
     1
102
RTVSPropertyOp36
 70
     1
102
RTVSPropertyOp37
 70
     1
102
RTVSPropertyOp38
 70
     1
102
RTVSPropertyOp39
 70
     1
102
RTVSPropertyOp40
 70
     1
102
RTVSPropertyOp41
 70
     1
102
RTVSPropertyOp42
 70
     1
102
RTVSPropertyOp43
 70
     1
102
RTVSPropertyOp44
 70
     1
102
RTVSPropertyOp45
 70
     1
102
RTVSPropertyOp46
 70
     1
102
RTVSPropertyOp47
 70
     1
102
RTVSPropertyOp48
 70
     1
102
RTVSPropertyOp49
 70
     1
102
RTVSPropertyOp50
 70
     1
102
RTVSPropertyOp51
 70
     0
102
RTVSPropertyOp52
 70
     0
102
RTVSPropertyOp53
 70
     1
102
RTVSPropertyOp54
 70
     1
102
RTVSPropertyOp55
 70
     1
102
RTVSPropertyOp56
 70
     1
102
RTVSPropertyOp57
 70
     1
102
RTVSPropertyOp58
 70
     1
102
RTVSPropertyOp59
 70
     1
102
RTVSPropertyOp60
 70
     1
102
RTVSPropertyOp61
 70
     1
102
RTVSPropertyOp62
 70
     1
  0
XRECORD
  5
519
102
{ACAD_REACTORS
330
518
102
}
330
518
100
AcDbXrecord
280
     1
102
RTVSPost2010Prop28
280
     0
102
RTVSPost2010PropOp28
 70
     1
102
RTVSPost2010Prop29
280
     1
102
RTVSPost2010PropOp29
 70
     1
102
RTVSPost2010Prop30
280
     1
102
RTVSPost2010PropOp30
 70
     1
102
RTVSPost2010Prop31
280
     0
102
RTVSPost2010PropOp31
 70
     1
102
RTVSPost2010Prop32
280
     0
102
RTVSPost2010PropOp32
 70
     1
102
RTVSPost2010Prop33
280
     0
102
RTVSPost2010PropOp33
 70
     1
102
RTVSPost2010Prop34
280
     0
102
RTVSPost2010PropOp34
 70
     1
102
RTVSPost2010Prop35
280
     0
102
RTVSPost2010PropOp35
 70
     1
102
RTVSPost2010Prop36
280
     0
102
RTVSPost2010PropOp36
 70
     1
102
RTVSPost2010Prop37
 90
       50
102
RTVSPost2010PropOp37
 70
     1
102
RTVSPost2010Prop38
140
0.0
102
RTVSPost2010PropOp38
 70
     1
102
RTVSPost2010Prop39
140
1.0
102
RTVSPost2010PropOp39
 70
     1
102
RTVSPost2010Prop40
 90
        0
102
RTVSPost2010PropOp40
 70
     1
102
RTVSPost2010Prop41ColorIndex
 90
       18
102
RTVSPost2010Prop41ColorRGB
 90
        0
102
RTVSPost2010PropOp41
 70
     1
102
RTVSPost2010Prop42
 90
       50
102
RTVSPost2010PropOp42
 70
     1
102
RTVSPost2010Prop43
 90
        3
102
RTVSPost2010PropOp43
 70
     1
102
RTVSPost2010Prop44ColorIndex
 90
        5
102
RTVSPost2010Prop44ColorRGB
 90
      255
102
RTVSPost2010PropOp44
 70
     1
102
RTVSPost2010Prop45
280
     0
102
RTVSPost2010PropOp45
 70
     1
102
RTVSPost2010Prop46
 90
       50
102
RTVSPost2010PropOp46
 70
     1
102
RTVSPost2010Prop47
 90
       50
102
RTVSPost2010PropOp47
 70
     1
102
RTVSPost2010Prop48
 90
       50
102
RTVSPost2010PropOp48
 70
     1
102
RTVSPost2010Prop49
280
     0
102
RTVSPost2010PropOp49
 70
     1
102
RTVSPost2010Prop50
 90
       50
102
RTVSPost2010PropOp50
 70
     1
102
RTVSPost2010Prop51ColorIndex
 90
      256
102
RTVSPost2010Prop51ColorRGB
 90
-16777216
102
RTVSPost2010PropOp51
 70
     0
102
RTVSPost2010Prop52
140
1.0
102
RTVSPost2010PropOp52
 70
     0
102
RTVSPost2010Prop53
 90
        2
102
RTVSPost2010PropOp53
 70
     1
102
RTVSPost2010Prop54
  1
strokes_ogs.tif
102
RTVSPost2010PropOp54
 70
     1
102
RTVSPost2010Prop55
280
     0
102
RTVSPost2010PropOp55
 70
     1
102
RTVSPost2010Prop56
140
1.0
102
RTVSPost2010PropOp56
 70
     1
102
RTVSPost2010Prop57
140
1.0
102
RTVSPost2010PropOp57
 70
     1
102
RTVSPropertyOp0
 70
     1
102
RTVSPropertyOp1
 70
     1
102
RTVSPropertyOp2
 70
     1
102
RTVSPropertyOp3
 70
     1
102
RTVSPropertyOp4
 70
     1
102
RTVSPropertyOp5
 70
     1
102
RTVSPropertyOp6
 70
     1
102
RTVSPropertyOp7
 70
     1
102
RTVSPropertyOp8
 70
     1
102
RTVSPropertyOp9
 70
     1
102
RTVSPropertyOp10
 70
     1
102
RTVSPropertyOp11
 70
     1
102
RTVSPropertyOp12
 70
     1
102
RTVSPropertyOp13
 70
     1
102
RTVSPropertyOp14
 70
     1
102
RTVSPropertyOp15
 70
     1
102
RTVSPropertyOp16
 70
     1
102
RTVSPropertyOp17
 70
     1
102
RTVSPropertyOp18
 70
     1
102
RTVSPropertyOp19
 70
     1
102
RTVSPropertyOp20
 70
     1
102
RTVSPropertyOp21
 70
     1
102
RTVSPropertyOp22
 70
     1
102
RTVSPropertyOp23
 70
     1
102
RTVSPropertyOp24
 70
     1
102
RTVSPropertyOp25
 70
     1
102
RTVSPropertyOp26
 70
     1
102
RTVSPropertyOp27
 70
     1
102
RTVSPropertyOp28
 70
     1
102
RTVSPropertyOp29
 70
     1
102
RTVSPropertyOp30
 70
     1
102
RTVSPropertyOp31
 70
     1
102
RTVSPropertyOp32
 70
     1
102
RTVSPropertyOp33
 70
     1
102
RTVSPropertyOp34
 70
     1
102
RTVSPropertyOp35
 70
     1
102
RTVSPropertyOp36
 70
     1
102
RTVSPropertyOp37
 70
     1
102
RTVSPropertyOp38
 70
     1
102
RTVSPropertyOp39
 70
     1
102
RTVSPropertyOp40
 70
     1
102
RTVSPropertyOp41
 70
     1
102
RTVSPropertyOp42
 70
     1
102
RTVSPropertyOp43
 70
     1
102
RTVSPropertyOp44
 70
     1
102
RTVSPropertyOp45
 70
     1
102
RTVSPropertyOp46
 70
     1
102
RTVSPropertyOp47
 70
     1
102
RTVSPropertyOp48
 70
     1
102
RTVSPropertyOp49
 70
     1
102
RTVSPropertyOp50
 70
     1
102
RTVSPropertyOp51
 70
     0
102
RTVSPropertyOp52
 70
     0
102
RTVSPropertyOp53
 70
     1
102
RTVSPropertyOp54
 70
     1
102
RTVSPropertyOp55
 70
     1
102
RTVSPropertyOp56
 70
     1
102
RTVSPropertyOp57
 70
     1
102
RTVSPropertyOp58
 70
     1
102
RTVSPropertyOp59
 70
     1
102
RTVSPropertyOp60
 70
     1
102
RTVSPropertyOp61
 70
     1
102
RTVSPropertyOp62
 70
     1
  0
XRECORD
  5
51B
102
{ACAD_REACTORS
330
51A
102
}
330
51A
100
AcDbXrecord
280
     1
102
RTVSPost2010Prop28
280
     0
102
RTVSPost2010PropOp28
 70
     1
102
RTVSPost2010Prop29
280
     1
102
RTVSPost2010PropOp29
 70
     1
102
RTVSPost2010Prop30
280
     1
102
RTVSPost2010PropOp30
 70
     1
102
RTVSPost2010Prop31
280
     0
102
RTVSPost2010PropOp31
 70
     1
102
RTVSPost2010Prop32
280
     0
102
RTVSPost2010PropOp32
 70
     1
102
RTVSPost2010Prop33
280
     0
102
RTVSPost2010PropOp33
 70
     1
102
RTVSPost2010Prop34
280
     0
102
RTVSPost2010PropOp34
 70
     1
102
RTVSPost2010Prop35
280
     0
102
RTVSPost2010PropOp35
 70
     1
102
RTVSPost2010Prop36
280
     0
102
RTVSPost2010PropOp36
 70
     1
102
RTVSPost2010Prop37
 90
       50
102
RTVSPost2010PropOp37
 70
     1
102
RTVSPost2010Prop38
140
0.0
102
RTVSPost2010PropOp38
 70
     1
102
RTVSPost2010Prop39
140
1.0
102
RTVSPost2010PropOp39
 70
     1
102
RTVSPost2010Prop40
 90
        0
102
RTVSPost2010PropOp40
 70
     1
102
RTVSPost2010Prop41ColorIndex
 90
       18
102
RTVSPost2010Prop41ColorRGB
 90
        0
102
RTVSPost2010PropOp41
 70
     1
102
RTVSPost2010Prop42
 90
       50
102
RTVSPost2010PropOp42
 70
     1
102
RTVSPost2010Prop43
 90
        3
102
RTVSPost2010PropOp43
 70
     1
102
RTVSPost2010Prop44ColorIndex
 90
        5
102
RTVSPost2010Prop44ColorRGB
 90
      255
102
RTVSPost2010PropOp44
 70
     1
102
RTVSPost2010Prop45
280
     0
102
RTVSPost2010PropOp45
 70
     1
102
RTVSPost2010Prop46
 90
       50
102
RTVSPost2010PropOp46
 70
     1
102
RTVSPost2010Prop47
 90
       50
102
RTVSPost2010PropOp47
 70
     1
102
RTVSPost2010Prop48
 90
       50
102
RTVSPost2010PropOp48
 70
     1
102
RTVSPost2010Prop49
280
     0
102
RTVSPost2010PropOp49
 70
     1
102
RTVSPost2010Prop50
 90
       50
102
RTVSPost2010PropOp50
 70
     1
102
RTVSPost2010Prop51ColorIndex
 90
      256
102
RTVSPost2010Prop51ColorRGB
 90
-16777216
102
RTVSPost2010PropOp51
 70
     0
102
RTVSPost2010Prop52
140
1.0
102
RTVSPost2010PropOp52
 70
     0
102
RTVSPost2010Prop53
 90
        2
102
RTVSPost2010PropOp53
 70
     1
102
RTVSPost2010Prop54
  1
strokes_ogs.tif
102
RTVSPost2010PropOp54
 70
     1
102
RTVSPost2010Prop55
280
     0
102
RTVSPost2010PropOp55
 70
     1
102
RTVSPost2010Prop56
140
1.0
102
RTVSPost2010PropOp56
 70
     1
102
RTVSPost2010Prop57
140
1.0
102
RTVSPost2010PropOp57
 70
     1
102
RTVSPropertyOp0
 70
     1
102
RTVSPropertyOp1
 70
     1
102
RTVSPropertyOp2
 70
     1
102
RTVSPropertyOp3
 70
     1
102
RTVSPropertyOp4
 70
     1
102
RTVSPropertyOp5
 70
     1
102
RTVSPropertyOp6
 70
     1
102
RTVSPropertyOp7
 70
     1
102
RTVSPropertyOp8
 70
     1
102
RTVSPropertyOp9
 70
     1
102
RTVSPropertyOp10
 70
     1
102
RTVSPropertyOp11
 70
     1
102
RTVSPropertyOp12
 70
     1
102
RTVSPropertyOp13
 70
     1
102
RTVSPropertyOp14
 70
     1
102
RTVSPropertyOp15
 70
     1
102
RTVSPropertyOp16
 70
     1
102
RTVSPropertyOp17
 70
     1
102
RTVSPropertyOp18
 70
     1
102
RTVSPropertyOp19
 70
     1
102
RTVSPropertyOp20
 70
     1
102
RTVSPropertyOp21
 70
     1
102
RTVSPropertyOp22
 70
     1
102
RTVSPropertyOp23
 70
     1
102
RTVSPropertyOp24
 70
     1
102
RTVSPropertyOp25
 70
     1
102
RTVSPropertyOp26
 70
     1
102
RTVSPropertyOp27
 70
     1
102
RTVSPropertyOp28
 70
     1
102
RTVSPropertyOp29
 70
     1
102
RTVSPropertyOp30
 70
     1
102
RTVSPropertyOp31
 70
     1
102
RTVSPropertyOp32
 70
     1
102
RTVSPropertyOp33
 70
     1
102
RTVSPropertyOp34
 70
     1
102
RTVSPropertyOp35
 70
     1
102
RTVSPropertyOp36
 70
     1
102
RTVSPropertyOp37
 70
     1
102
RTVSPropertyOp38
 70
     1
102
RTVSPropertyOp39
 70
     1
102
RTVSPropertyOp40
 70
     1
102
RTVSPropertyOp41
 70
     1
102
RTVSPropertyOp42
 70
     1
102
RTVSPropertyOp43
 70
     1
102
RTVSPropertyOp44
 70
     1
102
RTVSPropertyOp45
 70
     1
102
RTVSPropertyOp46
 70
     1
102
RTVSPropertyOp47
 70
     1
102
RTVSPropertyOp48
 70
     1
102
RTVSPropertyOp49
 70
     1
102
RTVSPropertyOp50
 70
     1
102
RTVSPropertyOp51
 70
     0
102
RTVSPropertyOp52
 70
     0
102
RTVSPropertyOp53
 70
     1
102
RTVSPropertyOp54
 70
     1
102
RTVSPropertyOp55
 70
     1
102
RTVSPropertyOp56
 70
     1
102
RTVSPropertyOp57
 70
     1
102
RTVSPropertyOp58
 70
     1
102
RTVSPropertyOp59
 70
     1
102
RTVSPropertyOp60
 70
     1
102
RTVSPropertyOp61
 70
     1
102
RTVSPropertyOp62
 70
     1
  0
XRECORD
  5
511
102
{ACAD_REACTORS
330
510
102
}
330
510
100
AcDbXrecord
280
     1
102
RTVSPost2010Prop28
280
     0
102
RTVSPost2010PropOp28
 70
     1
102
RTVSPost2010Prop29
280
     1
102
RTVSPost2010PropOp29
 70
     1
102
RTVSPost2010Prop30
280
     1
102
RTVSPost2010PropOp30
 70
     1
102
RTVSPost2010Prop31
280
     0
102
RTVSPost2010PropOp31
 70
     1
102
RTVSPost2010Prop32
280
     0
102
RTVSPost2010PropOp32
 70
     1
102
RTVSPost2010Prop33
280
     0
102
RTVSPost2010PropOp33
 70
     1
102
RTVSPost2010Prop34
280
     0
102
RTVSPost2010PropOp34
 70
     1
102
RTVSPost2010Prop35
280
     0
102
RTVSPost2010PropOp35
 70
     1
102
RTVSPost2010Prop36
280
     0
102
RTVSPost2010PropOp36
 70
     1
102
RTVSPost2010Prop37
 90
       50
102
RTVSPost2010PropOp37
 70
     1
102
RTVSPost2010Prop38
140
0.0
102
RTVSPost2010PropOp38
 70
     1
102
RTVSPost2010Prop39
140
1.0
102
RTVSPost2010PropOp39
 70
     1
102
RTVSPost2010Prop40
 90
        0
102
RTVSPost2010PropOp40
 70
     1
102
RTVSPost2010Prop41ColorIndex
 90
       18
102
RTVSPost2010Prop41ColorRGB
 90
        0
102
RTVSPost2010PropOp41
 70
     1
102
RTVSPost2010Prop42
 90
       50
102
RTVSPost2010PropOp42
 70
     1
102
RTVSPost2010Prop43
 90
        3
102
RTVSPost2010PropOp43
 70
     1
102
RTVSPost2010Prop44ColorIndex
 90
        5
102
RTVSPost2010Prop44ColorRGB
 90
      255
102
RTVSPost2010PropOp44
 70
     1
102
RTVSPost2010Prop45
280
     0
102
RTVSPost2010PropOp45
 70
     1
102
RTVSPost2010Prop46
 90
       50
102
RTVSPost2010PropOp46
 70
     1
102
RTVSPost2010Prop47
 90
       50
102
RTVSPost2010PropOp47
 70
     1
102
RTVSPost2010Prop48
 90
       50
102
RTVSPost2010PropOp48
 70
     1
102
RTVSPost2010Prop49
280
     0
102
RTVSPost2010PropOp49
 70
     1
102
RTVSPost2010Prop50
 90
       50
102
RTVSPost2010PropOp50
 70
     1
102
RTVSPost2010Prop51ColorIndex
 90
      256
102
RTVSPost2010Prop51ColorRGB
 90
-16777216
102
RTVSPost2010PropOp51
 70
     0
102
RTVSPost2010Prop52
140
1.0
102
RTVSPost2010PropOp52
 70
     0
102
RTVSPost2010Prop53
 90
        2
102
RTVSPost2010PropOp53
 70
     1
102
RTVSPost2010Prop54
  1
strokes_ogs.tif
102
RTVSPost2010PropOp54
 70
     1
102
RTVSPost2010Prop55
280
     0
102
RTVSPost2010PropOp55
 70
     1
102
RTVSPost2010Prop56
140
1.0
102
RTVSPost2010PropOp56
 70
     1
102
RTVSPost2010Prop57
140
1.0
102
RTVSPost2010PropOp57
 70
     1
102
RTVSPropertyOp0
 70
     1
102
RTVSPropertyOp1
 70
     1
102
RTVSPropertyOp2
 70
     1
102
RTVSPropertyOp3
 70
     1
102
RTVSPropertyOp4
 70
     1
102
RTVSPropertyOp5
 70
     1
102
RTVSPropertyOp6
 70
     1
102
RTVSPropertyOp7
 70
     1
102
RTVSPropertyOp8
 70
     1
102
RTVSPropertyOp9
 70
     1
102
RTVSPropertyOp10
 70
     1
102
RTVSPropertyOp11
 70
     1
102
RTVSPropertyOp12
 70
     1
102
RTVSPropertyOp13
 70
     1
102
RTVSPropertyOp14
 70
     1
102
RTVSPropertyOp15
 70
     1
102
RTVSPropertyOp16
 70
     1
102
RTVSPropertyOp17
 70
     1
102
RTVSPropertyOp18
 70
     1
102
RTVSPropertyOp19
 70
     1
102
RTVSPropertyOp20
 70
     1
102
RTVSPropertyOp21
 70
     1
102
RTVSPropertyOp22
 70
     1
102
RTVSPropertyOp23
 70
     1
102
RTVSPropertyOp24
 70
     1
102
RTVSPropertyOp25
 70
     1
102
RTVSPropertyOp26
 70
     1
102
RTVSPropertyOp27
 70
     1
102
RTVSPropertyOp28
 70
     1
102
RTVSPropertyOp29
 70
     1
102
RTVSPropertyOp30
 70
     1
102
RTVSPropertyOp31
 70
     1
102
RTVSPropertyOp32
 70
     1
102
RTVSPropertyOp33
 70
     1
102
RTVSPropertyOp34
 70
     1
102
RTVSPropertyOp35
 70
     1
102
RTVSPropertyOp36
 70
     1
102
RTVSPropertyOp37
 70
     1
102
RTVSPropertyOp38
 70
     1
102
RTVSPropertyOp39
 70
     1
102
RTVSPropertyOp40
 70
     1
102
RTVSPropertyOp41
 70
     1
102
RTVSPropertyOp42
 70
     1
102
RTVSPropertyOp43
 70
     1
102
RTVSPropertyOp44
 70
     1
102
RTVSPropertyOp45
 70
     1
102
RTVSPropertyOp46
 70
     1
102
RTVSPropertyOp47
 70
     1
102
RTVSPropertyOp48
 70
     1
102
RTVSPropertyOp49
 70
     1
102
RTVSPropertyOp50
 70
     1
102
RTVSPropertyOp51
 70
     0
102
RTVSPropertyOp52
 70
     0
102
RTVSPropertyOp53
 70
     1
102
RTVSPropertyOp54
 70
     1
102
RTVSPropertyOp55
 70
     1
102
RTVSPropertyOp56
 70
     1
102
RTVSPropertyOp57
 70
     1
102
RTVSPropertyOp58
 70
     1
102
RTVSPropertyOp59
 70
     1
102
RTVSPropertyOp60
 70
     1
102
RTVSPropertyOp61
 70
     1
102
RTVSPropertyOp62
 70
     1
  0
XRECORD
  5
505
102
{ACAD_REACTORS
330
504
102
}
330
504
100
AcDbXrecord
280
     1
102
RTVSPost2010Prop28
280
     0
102
RTVSPost2010PropOp28
 70
     1
102
RTVSPost2010Prop29
280
     1
102
RTVSPost2010PropOp29
 70
     1
102
RTVSPost2010Prop30
280
     1
102
RTVSPost2010PropOp30
 70
     1
102
RTVSPost2010Prop31
280
     0
102
RTVSPost2010PropOp31
 70
     1
102
RTVSPost2010Prop32
280
     0
102
RTVSPost2010PropOp32
 70
     1
102
RTVSPost2010Prop33
280
     0
102
RTVSPost2010PropOp33
 70
     1
102
RTVSPost2010Prop34
280
     0
102
RTVSPost2010PropOp34
 70
     1
102
RTVSPost2010Prop35
280
     0
102
RTVSPost2010PropOp35
 70
     1
102
RTVSPost2010Prop36
280
     0
102
RTVSPost2010PropOp36
 70
     1
102
RTVSPost2010Prop37
 90
       50
102
RTVSPost2010PropOp37
 70
     1
102
RTVSPost2010Prop38
140
0.0
102
RTVSPost2010PropOp38
 70
     1
102
RTVSPost2010Prop39
140
1.0
102
RTVSPost2010PropOp39
 70
     1
102
RTVSPost2010Prop40
 90
        0
102
RTVSPost2010PropOp40
 70
     1
102
RTVSPost2010Prop41ColorIndex
 90
       18
102
RTVSPost2010Prop41ColorRGB
 90
        0
102
RTVSPost2010PropOp41
 70
     1
102
RTVSPost2010Prop42
 90
       50
102
RTVSPost2010PropOp42
 70
     1
102
RTVSPost2010Prop43
 90
        3
102
RTVSPost2010PropOp43
 70
     1
102
RTVSPost2010Prop44ColorIndex
 90
        5
102
RTVSPost2010Prop44ColorRGB
 90
      255
102
RTVSPost2010PropOp44
 70
     1
102
RTVSPost2010Prop45
280
     0
102
RTVSPost2010PropOp45
 70
     1
102
RTVSPost2010Prop46
 90
       50
102
RTVSPost2010PropOp46
 70
     1
102
RTVSPost2010Prop47
 90
       50
102
RTVSPost2010PropOp47
 70
     1
102
RTVSPost2010Prop48
 90
       50
102
RTVSPost2010PropOp48
 70
     1
102
RTVSPost2010Prop49
280
     0
102
RTVSPost2010PropOp49
 70
     1
102
RTVSPost2010Prop50
 90
       50
102
RTVSPost2010PropOp50
 70
     1
102
RTVSPost2010Prop51ColorIndex
 90
      256
102
RTVSPost2010Prop51ColorRGB
 90
-16777216
102
RTVSPost2010PropOp51
 70
     0
102
RTVSPost2010Prop52
140
1.0
102
RTVSPost2010PropOp52
 70
     0
102
RTVSPost2010Prop53
 90
        2
102
RTVSPost2010PropOp53
 70
     1
102
RTVSPost2010Prop54
  1
strokes_ogs.tif
102
RTVSPost2010PropOp54
 70
     1
102
RTVSPost2010Prop55
280
     0
102
RTVSPost2010PropOp55
 70
     1
102
RTVSPost2010Prop56
140
1.0
102
RTVSPost2010PropOp56
 70
     1
102
RTVSPost2010Prop57
140
1.0
102
RTVSPost2010PropOp57
 70
     1
102
RTVSPropertyOp0
 70
     1
102
RTVSPropertyOp1
 70
     1
102
RTVSPropertyOp2
 70
     1
102
RTVSPropertyOp3
 70
     1
102
RTVSPropertyOp4
 70
     1
102
RTVSPropertyOp5
 70
     1
102
RTVSPropertyOp6
 70
     1
102
RTVSPropertyOp7
 70
     1
102
RTVSPropertyOp8
 70
     1
102
RTVSPropertyOp9
 70
     1
102
RTVSPropertyOp10
 70
     1
102
RTVSPropertyOp11
 70
     1
102
RTVSPropertyOp12
 70
     1
102
RTVSPropertyOp13
 70
     1
102
RTVSPropertyOp14
 70
     1
102
RTVSPropertyOp15
 70
     1
102
RTVSPropertyOp16
 70
     1
102
RTVSPropertyOp17
 70
     1
102
RTVSPropertyOp18
 70
     1
102
RTVSPropertyOp19
 70
     1
102
RTVSPropertyOp20
 70
     1
102
RTVSPropertyOp21
 70
     1
102
RTVSPropertyOp22
 70
     1
102
RTVSPropertyOp23
 70
     1
102
RTVSPropertyOp24
 70
     1
102
RTVSPropertyOp25
 70
     1
102
RTVSPropertyOp26
 70
     1
102
RTVSPropertyOp27
 70
     1
102
RTVSPropertyOp28
 70
     1
102
RTVSPropertyOp29
 70
     1
102
RTVSPropertyOp30
 70
     1
102
RTVSPropertyOp31
 70
     1
102
RTVSPropertyOp32
 70
     1
102
RTVSPropertyOp33
 70
     1
102
RTVSPropertyOp34
 70
     1
102
RTVSPropertyOp35
 70
     1
102
RTVSPropertyOp36
 70
     1
102
RTVSPropertyOp37
 70
     1
102
RTVSPropertyOp38
 70
     1
102
RTVSPropertyOp39
 70
     1
102
RTVSPropertyOp40
 70
     1
102
RTVSPropertyOp41
 70
     1
102
RTVSPropertyOp42
 70
     1
102
RTVSPropertyOp43
 70
     1
102
RTVSPropertyOp44
 70
     1
102
RTVSPropertyOp45
 70
     1
102
RTVSPropertyOp46
 70
     1
102
RTVSPropertyOp47
 70
     1
102
RTVSPropertyOp48
 70
     1
102
RTVSPropertyOp49
 70
     1
102
RTVSPropertyOp50
 70
     1
102
RTVSPropertyOp51
 70
     0
102
RTVSPropertyOp52
 70
     0
102
RTVSPropertyOp53
 70
     1
102
RTVSPropertyOp54
 70
     1
102
RTVSPropertyOp55
 70
     1
102
RTVSPropertyOp56
 70
     1
102
RTVSPropertyOp57
 70
     1
102
RTVSPropertyOp58
 70
     1
102
RTVSPropertyOp59
 70
     1
102
RTVSPropertyOp60
 70
     1
102
RTVSPropertyOp61
 70
     1
102
RTVSPropertyOp62
 70
     1
  0
XRECORD
  5
51D
102
{ACAD_REACTORS
330
51C
102
}
330
51C
100
AcDbXrecord
280
     1
102
RTVSPost2010Prop28
280
     0
102
RTVSPost2010PropOp28
 70
     1
102
RTVSPost2010Prop29
280
     1
102
RTVSPost2010PropOp29
 70
     1
102
RTVSPost2010Prop30
280
     1
102
RTVSPost2010PropOp30
 70
     1
102
RTVSPost2010Prop31
280
     0
102
RTVSPost2010PropOp31
 70
     1
102
RTVSPost2010Prop32
280
     0
102
RTVSPost2010PropOp32
 70
     1
102
RTVSPost2010Prop33
280
     0
102
RTVSPost2010PropOp33
 70
     1
102
RTVSPost2010Prop34
280
     0
102
RTVSPost2010PropOp34
 70
     1
102
RTVSPost2010Prop35
280
     0
102
RTVSPost2010PropOp35
 70
     1
102
RTVSPost2010Prop36
280
     0
102
RTVSPost2010PropOp36
 70
     1
102
RTVSPost2010Prop37
 90
       50
102
RTVSPost2010PropOp37
 70
     1
102
RTVSPost2010Prop38
140
0.0
102
RTVSPost2010PropOp38
 70
     1
102
RTVSPost2010Prop39
140
1.0
102
RTVSPost2010PropOp39
 70
     1
102
RTVSPost2010Prop40
 90
        0
102
RTVSPost2010PropOp40
 70
     1
102
RTVSPost2010Prop41ColorIndex
 90
       18
102
RTVSPost2010Prop41ColorRGB
 90
        0
102
RTVSPost2010PropOp41
 70
     1
102
RTVSPost2010Prop42
 90
       50
102
RTVSPost2010PropOp42
 70
     1
102
RTVSPost2010Prop43
 90
        3
102
RTVSPost2010PropOp43
 70
     1
102
RTVSPost2010Prop44ColorIndex
 90
        5
102
RTVSPost2010Prop44ColorRGB
 90
      255
102
RTVSPost2010PropOp44
 70
     1
102
RTVSPost2010Prop45
280
     0
102
RTVSPost2010PropOp45
 70
     1
102
RTVSPost2010Prop46
 90
       50
102
RTVSPost2010PropOp46
 70
     1
102
RTVSPost2010Prop47
 90
       50
102
RTVSPost2010PropOp47
 70
     1
102
RTVSPost2010Prop48
 90
       50
102
RTVSPost2010PropOp48
 70
     1
102
RTVSPost2010Prop49
280
     0
102
RTVSPost2010PropOp49
 70
     1
102
RTVSPost2010Prop50
 90
       50
102
RTVSPost2010PropOp50
 70
     1
102
RTVSPost2010Prop51ColorIndex
 90
      256
102
RTVSPost2010Prop51ColorRGB
 90
-16777216
102
RTVSPost2010PropOp51
 70
     0
102
RTVSPost2010Prop52
140
1.0
102
RTVSPost2010PropOp52
 70
     0
102
RTVSPost2010Prop53
 90
        2
102
RTVSPost2010PropOp53
 70
     1
102
RTVSPost2010Prop54
  1
strokes_ogs.tif
102
RTVSPost2010PropOp54
 70
     1
102
RTVSPost2010Prop55
280
     0
102
RTVSPost2010PropOp55
 70
     1
102
RTVSPost2010Prop56
140
1.0
102
RTVSPost2010PropOp56
 70
     1
102
RTVSPost2010Prop57
140
1.0
102
RTVSPost2010PropOp57
 70
     1
102
RTVSPropertyOp0
 70
     1
102
RTVSPropertyOp1
 70
     1
102
RTVSPropertyOp2
 70
     1
102
RTVSPropertyOp3
 70
     1
102
RTVSPropertyOp4
 70
     1
102
RTVSPropertyOp5
 70
     1
102
RTVSPropertyOp6
 70
     1
102
RTVSPropertyOp7
 70
     1
102
RTVSPropertyOp8
 70
     1
102
RTVSPropertyOp9
 70
     1
102
RTVSPropertyOp10
 70
     1
102
RTVSPropertyOp11
 70
     1
102
RTVSPropertyOp12
 70
     1
102
RTVSPropertyOp13
 70
     1
102
RTVSPropertyOp14
 70
     1
102
RTVSPropertyOp15
 70
     1
102
RTVSPropertyOp16
 70
     1
102
RTVSPropertyOp17
 70
     1
102
RTVSPropertyOp18
 70
     1
102
RTVSPropertyOp19
 70
     1
102
RTVSPropertyOp20
 70
     1
102
RTVSPropertyOp21
 70
     1
102
RTVSPropertyOp22
 70
     1
102
RTVSPropertyOp23
 70
     1
102
RTVSPropertyOp24
 70
     1
102
RTVSPropertyOp25
 70
     1
102
RTVSPropertyOp26
 70
     1
102
RTVSPropertyOp27
 70
     1
102
RTVSPropertyOp28
 70
     1
102
RTVSPropertyOp29
 70
     1
102
RTVSPropertyOp30
 70
     1
102
RTVSPropertyOp31
 70
     1
102
RTVSPropertyOp32
 70
     1
102
RTVSPropertyOp33
 70
     1
102
RTVSPropertyOp34
 70
     1
102
RTVSPropertyOp35
 70
     1
102
RTVSPropertyOp36
 70
     1
102
RTVSPropertyOp37
 70
     1
102
RTVSPropertyOp38
 70
     1
102
RTVSPropertyOp39
 70
     1
102
RTVSPropertyOp40
 70
     1
102
RTVSPropertyOp41
 70
     1
102
RTVSPropertyOp42
 70
     1
102
RTVSPropertyOp43
 70
     1
102
RTVSPropertyOp44
 70
     1
102
RTVSPropertyOp45
 70
     1
102
RTVSPropertyOp46
 70
     1
102
RTVSPropertyOp47
 70
     1
102
RTVSPropertyOp48
 70
     1
102
RTVSPropertyOp49
 70
     1
102
RTVSPropertyOp50
 70
     1
102
RTVSPropertyOp51
 70
     0
102
RTVSPropertyOp52
 70
     0
102
RTVSPropertyOp53
 70
     1
102
RTVSPropertyOp54
 70
     1
102
RTVSPropertyOp55
 70
     1
102
RTVSPropertyOp56
 70
     1
102
RTVSPropertyOp57
 70
     1
102
RTVSPropertyOp58
 70
     1
102
RTVSPropertyOp59
 70
     1
102
RTVSPropertyOp60
 70
     1
102
RTVSPropertyOp61
 70
     1
102
RTVSPropertyOp62
 70
     1
  0
ENDSEC
  0
EOF
