  0
SECTION
  2
HEADER
  9
$ACADVER
  1
AC1018
  9
$ACADMAINTVER
 70
   104
  9
$DWGCODEPAGE
  3
ANSI_932
  9
$INSBASE
 10
0.0
 20
0.0
 30
0.0
  9
$EXTMIN
 10
-1.75047013
 20
-1.22064724
 30
-0.00000003
  9
$EXTMAX
 10
28682.76623725
 20
20001.22083351
 30
0.00000008
  9
$LIMMIN
 10
0.0
 20
0.0
  9
$LIMMAX
 10
420.0
 20
330.0
  9
$ORTHOMODE
 70
     1
  9
$REGENMODE
 70
     1
  9
$FILLMODE
 70
     1
  9
$QTEXTMODE
 70
     0
  9
$MIRRTEXT
 70
     0
  9
$LTSCALE
 40
1.0
  9
$ATTMODE
 70
     1
  9
$TEXTSIZE
 40
0.2
  9
$TRACEWID
 40
0.05
  9
$TEXTSTYLE
  7
STANDARD
  9
$CLAYER
  8
0
  9
$CELTYPE
  6
BYLAYER
  9
$CECOLOR
 62
   256
  9
$CELTSCALE
 40
1.0
  9
$DISPSILH
 70
     1
  9
$DIMSCALE
 40
1.0
  9
$DIMASZ
 40
0.18
  9
$DIMEXO
 40
0.0625
  9
$DIMDLI
 40
0.38
  9
$DIMRND
 40
0.0
  9
$DIMDLE
 40
0.0
  9
$DIMEXE
 40
0.18
  9
$DIMTP
 40
0.0
  9
$DIMTM
 40
0.0
  9
$DIMTXT
 40
0.18
  9
$DIMCEN
 40
0.09
  9
$DIMTSZ
 40
0.0
  9
$DIMTOL
 70
     0
  9
$DIMLIM
 70
     0
  9
$DIMTIH
 70
     1
  9
$DIMTOH
 70
     1
  9
$DIMSE1
 70
     0
  9
$DIMSE2
 70
     0
  9
$DIMTAD
 70
     0
  9
$DIMZIN
 70
     0
  9
$DIMBLK
  1

  9
$DIMASO
 70
     1
  9
$DIMSHO
 70
     0
  9
$DIMPOST
  1

  9
$DIMAPOST
  1

  9
$DIMALT
 70
     0
  9
$DIMALTD
 70
     2
  9
$DIMALTF
 40
25.4
  9
$DIMLFAC
 40
1.0
  9
$DIMTOFL
 70
     0
  9
$DIMTVP
 40
0.0
  9
$DIMTIX
 70
     0
  9
$DIMSOXD
 70
     0
  9
$DIMSAH
 70
     0
  9
$DIMBLK1
  1

  9
$DIMBLK2
  1

  9
$DIMSTYLE
  2
STANDARD
  9
$DIMCLRD
 70
     0
  9
$DIMCLRE
 70
     0
  9
$DIMCLRT
 70
     0
  9
$DIMTFAC
 40
1.0
  9
$DIMGAP
 40
0.09
  9
$DIMJUST
 70
     0
  9
$DIMSD1
 70
     0
  9
$DIMSD2
 70
     0
  9
$DIMTOLJ
 70
     1
  9
$DIMTZIN
 70
     0
  9
$DIMALTZ
 70
     0
  9
$DIMALTTZ
 70
     0
  9
$DIMUPT
 70
     0
  9
$DIMDEC
 70
     4
  9
$DIMTDEC
 70
     4
  9
$DIMALTU
 70
     2
  9
$DIMALTTD
 70
     2
  9
$DIMTXSTY
  7
STANDARD
  9
$DIMAUNIT
 70
     0
  9
$DIMADEC
 70
     0
  9
$DIMALTRND
 40
0.0
  9
$DIMAZIN
 70
     0
  9
$DIMDSEP
 70
    46
  9
$DIMATFIT
 70
     3
  9
$DIMFRAC
 70
     0
  9
$DIMLDRBLK
  1

  9
$DIMLUNIT
 70
     2
  9
$DIMLWD
 70
    -2
  9
$DIMLWE
 70
    -2
  9
$DIMTMOVE
 70
     2
  9
$LUNITS
 70
     2
  9
$LUPREC
 70
     4
  9
$SKETCHINC
 40
0.1
  9
$FILLETRAD
 40
1.0
  9
$AUNITS
 70
     0
  9
$AUPREC
 70
     0
  9
$MENU
  1
c:\acadwin\support\acad
  9
$ELEVATION
 40
0.0
  9
$PELEVATION
 40
0.0
  9
$THICKNESS
 40
0.0
  9
$LIMCHECK
 70
     0
  9
$CHAMFERA
 40
0.0
  9
$CHAMFERB
 40
0.0
  9
$CHAMFERC
 40
0.0
  9
$CHAMFERD
 40
0.0
  9
$SKPOLY
 70
     0
  9
$TDCREATE
 40
2453068.802181169
  9
$TDUCREATE
 40
2453068.427181169
  9
$TDUPDATE
 40
2457185.494970336
  9
$TDUUPDATE
 40
2457185.119970336
  9
$TDINDWG
 40
0.0000817708
  9
$TDUSRTIMER
 40
0.0000817708
  9
$USRTIMER
 70
     1
  9
$ANGBASE
 50
0.0
  9
$ANGDIR
 70
     0
  9
$PDMODE
 70
     0
  9
$PDSIZE
 40
0.0
  9
$PLINEWID
 40
0.0
  9
$SPLFRAME
 70
     0
  9
$SPLINETYPE
 70
     6
  9
$SPLINESEGS
 70
     8
  9
$HANDSEED
  5
54F
  9
$SURFTAB1
 70
     6
  9
$SURFTAB2
 70
     6
  9
$SURFTYPE
 70
     6
  9
$SURFU
 70
     6
  9
$SURFV
 70
     6
  9
$UCSBASE
  2

  9
$UCSNAME
  2

  9
$UCSORG
 10
0.0
 20
0.0
 30
0.0
  9
$UCSXDIR
 10
1.0
 20
0.0
 30
0.0
  9
$UCSYDIR
 10
0.0
 20
1.0
 30
0.0
  9
$UCSORTHOREF
  2

  9
$UCSORTHOVIEW
 70
     0
  9
$UCSORGTOP
 10
0.0
 20
0.0
 30
0.0
  9
$UCSORGBOTTOM
 10
0.0
 20
0.0
 30
0.0
  9
$UCSORGLEFT
 10
0.0
 20
0.0
 30
0.0
  9
$UCSORGRIGHT
 10
0.0
 20
0.0
 30
0.0
  9
$UCSORGFRONT
 10
0.0
 20
0.0
 30
0.0
  9
$UCSORGBACK
 10
0.0
 20
0.0
 30
0.0
  9
$PUCSBASE
  2

  9
$PUCSNAME
  2

  9
$PUCSORG
 10
0.0
 20
0.0
 30
0.0
  9
$PUCSXDIR
 10
1.0
 20
0.0
 30
0.0
  9
$PUCSYDIR
 10
0.0
 20
1.0
 30
0.0
  9
$PUCSORTHOREF
  2

  9
$PUCSORTHOVIEW
 70
     0
  9
$PUCSORGTOP
 10
0.0
 20
0.0
 30
0.0
  9
$PUCSORGBOTTOM
 10
0.0
 20
0.0
 30
0.0
  9
$PUCSORGLEFT
 10
0.0
 20
0.0
 30
0.0
  9
$PUCSORGRIGHT
 10
0.0
 20
0.0
 30
0.0
  9
$PUCSORGFRONT
 10
0.0
 20
0.0
 30
0.0
  9
$PUCSORGBACK
 10
0.0
 20
0.0
 30
0.0
  9
$USERI1
 70
     0
  9
$USERI2
 70
     0
  9
$USERI3
 70
     0
  9
$USERI4
 70
     0
  9
$USERI5
 70
     0
  9
$USERR1
 40
0.0
  9
$USERR2
 40
0.0
  9
$USERR3
 40
0.0
  9
$USERR4
 40
0.0
  9
$USERR5
 40
0.0
  9
$WORLDVIEW
 70
     1
  9
$SHADEDGE
 70
     3
  9
$SHADEDIF
 70
    70
  9
$TILEMODE
 70
     1
  9
$MAXACTVP
 70
    16
  9
$PINSBASE
 10
0.0
 20
0.0
 30
0.0
  9
$PLIMCHECK
 70
     0
  9
$PEXTMIN
 10
1.00000000E+20
 20
1.00000000E+20
 30
1.00000000E+20
  9
$PEXTMAX
 10
-1.00000000E+20
 20
-1.00000000E+20
 30
-1.00000000E+20
  9
$PLIMMIN
 10
0.0
 20
0.0
  9
$PLIMMAX
 10
12.0
 20
9.0
  9
$UNITMODE
 70
     0
  9
$VISRETAIN
 70
     0
  9
$PLINEGEN
 70
     0
  9
$PSLTSCALE
 70
     0
  9
$TREEDEPTH
 70
  3020
  9
$CMLSTYLE
  2
STANDARD
  9
$CMLJUST
 70
     0
  9
$CMLSCALE
 40
1.0
  9
$PROXYGRAPHICS
 70
     1
  9
$MEASUREMENT
 70
     1
  9
$CELWEIGHT
370
    -1
  9
$ENDCAPS
280
     0
  9
$JOINSTYLE
280
     0
  9
$LWDISPLAY
290
     0
  9
$INSUNITS
 70
     0
  9
$HYPERLINKBASE
  1

  9
$STYLESHEET
  1

  9
$XEDIT
290
     1
  9
$CEPSNTYPE
380
     0
  9
$PSTYLEMODE
290
     1
  9
$FINGERPRINTGUID
  2
{154FECFF-9CD6-4522-8B86-34BD45F0FC43}
  9
$VERSIONGUID
  2
{BDF2514A-A026-44CE-A1D0-8AF052F3A473}
  9
$EXTNAMES
290
     1
  9
$PSVPSCALE
 40
0.0
  9
$OLESTARTUP
290
     0
  9
$SORTENTS
280
   127
  9
$INDEXCTL
280
     0
  9
$HIDETEXT
280
     0
  9
$XCLIPFRAME
290
     0
  9
$HALOGAP
280
     0
  9
$OBSCOLOR
 70
   257
  9
$OBSLTYPE
280
     0
  9
$INTERSECTIONDISPLAY
280
     0
  9
$INTERSECTIONCOLOR
 70
   257
  9
$DIMASSOC
280
     1
  9
$PROJECTNAME
  1

  0
ENDSEC
  0
SECTION
  2
CLASSES
  0
CLASS
  1
DICTIONARYVAR
  2
AcDbDictionaryVar
  3
ObjectDBX Classes
 90
        0
 91
        8
280
     0
281
     0
  0
CLASS
  1
ACDBDICTIONARYWDFLT
  2
AcDbDictionaryWithDefault
  3
ObjectDBX Classes
 90
        0
 91
        1
280
     0
281
     0
  0
CLASS
  1
MATERIAL
  2
AcDbMaterial
  3
ObjectDBX Classes
 90
     1153
 91
        3
280
     0
281
     0
  0
CLASS
  1
VISUALSTYLE
  2
AcDbVisualStyle
  3
ObjectDBX Classes
 90
     4095
 91
       24
280
     0
281
     0
  0
CLASS
  1
TABLESTYLE
  2
AcDbTableStyle
  3
ObjectDBX Classes
 90
     4095
 91
        1
280
     0
281
     0
  0
CLASS
  1
SCALE
  2
AcDbScale
  3
ObjectDBX Classes
 90
     1153
 91
       17
280
     0
281
     0
  0
CLASS
  1
MLEADERSTYLE
  2
AcDbMLeaderStyle
  3
ACDB_MLEADERSTYLE_CLASS
 90
     4095
 91
        1
280
     0
281
     0
  0
CLASS
  1
ACDBSECTIONVIEWSTYLE
  2
AcDbSectionViewStyle
  3
ObjectDBX Classes
 90
     1025
 91
        1
280
     0
281
     0
  0
CLASS
  1
ACDBDETAILVIEWSTYLE
  2
AcDbDetailViewStyle
  3
ObjectDBX Classes
 90
     1025
 91
        1
280
     0
281
     0
  0
CLASS
  1
CELLSTYLEMAP
  2
AcDbCellStyleMap
  3
ObjectDBX Classes
 90
     1152
 91
        2
280
     0
281
     0
  0
ENDSEC
  0
SECTION
  2
TABLES
  0
TABLE
  2
VPORT
  5
43C
330
0
100
AcDbSymbolTable
 70
     1
  0
VPORT
  5
46C
330
43C
100
AcDbSymbolTableRecord
100
AcDbViewportTableRecord
  2
*ACTIVE
 70
     0
 10
0.0
 20
0.0
 11
1.0
 21
1.0
 12
14340.50788356
 22
10000.00009314
 13
0.0
 23
0.0
 14
1.0
 24
1.0
 15
10.0
 25
10.0
 16
0.0
 26
0.0
 36
1.0
 17
0.0
 27
0.0
 37
0.0
 40
21505.27251241
 41
1.34178905
 42
50.0
 43
0.0
 44
0.0
 50
0.0
 51
0.0
 71
     0
 72
   100
 73
     1
 74
     0
 75
     0
 76
     0
 77
     0
 78
     0
281
     0
 65
     1
110
0.0
120
0.0
130
0.0
111
1.0
121
0.0
131
0.0
112
0.0
122
1.0
132
0.0
 79
     0
146
0.0
1001
ACAD_NAV_VCDISPLAY
1070
     1
  0
ENDTAB
  0
TABLE
  2
LTYPE
  5
439
330
0
100
AcDbSymbolTable
 70
     2
  0
LTYPE
  5
445
330
439
100
AcDbSymbolTableRecord
100
AcDbLinetypeTableRecord
  2
BYBLOCK
 70
     0
  3

 72
    65
 73
     0
 40
0.0
  0
LTYPE
  5
446
330
439
100
AcDbSymbolTableRecord
100
AcDbLinetypeTableRecord
  2
BYLAYER
 70
     0
  3

 72
    65
 73
     0
 40
0.0
  0
LTYPE
  5
447
330
439
100
AcDbSymbolTableRecord
100
AcDbLinetypeTableRecord
  2
CONTINUOUS
 70
     0
  3
Solid line
 72
    65
 73
     0
 40
0.0
  0
LTYPE
  5
454
330
439
100
AcDbSymbolTableRecord
100
AcDbLinetypeTableRecord
  2
CENTER
 70
     0
  3
____ _ ____ _ ____ _ ____ _ ____ _ ____ _ ____ 
 72
    65
 73
     4
 40
2.0
 49
1.25
 74
     0
 49
-0.25
 74
     0
 49
0.25
 74
     0
 49
-0.25
 74
     0
  0
ENDTAB
  0
TABLE
  2
LAYER
  5
436
330
0
100
AcDbSymbolTable
 70
    11
  0
LAYER
  5
442
330
436
100
AcDbSymbolTableRecord
100
AcDbLayerTableRecord
  2
0
 70
     0
 62
     7
  6
CONTINUOUS
370
    -3
390
46F
  0
LAYER
  5
458
330
436
100
AcDbSymbolTableRecord
100
AcDbLayerTableRecord
  2
YKK_IN
 70
     0
 62
     1
  6
CONTINUOUS
370
    -3
390
46F
  0
LAYER
  5
459
330
436
100
AcDbSymbolTableRecord
100
AcDbLayerTableRecord
  2
YKK_F1
 70
     0
 62
     7
  6
CONTINUOUS
370
    -3
390
46F
  0
LAYER
  5
45A
330
436
100
AcDbSymbolTableRecord
100
AcDbLayerTableRecord
  2
YKK_N1
 70
     0
 62
     2
  6
CONTINUOUS
370
    -3
390
46F
  0
LAYER
  5
45B
330
436
100
AcDbSymbolTableRecord
100
AcDbLayerTableRecord
  2
YKK_Z1
 70
     0
 62
     7
  6
CONTINUOUS
370
    -3
390
46F
  0
LAYER
  5
45C
330
436
100
AcDbSymbolTableRecord
100
AcDbLayerTableRecord
  2
YKK_A1
 70
     0
 62
     4
  6
CONTINUOUS
370
    -3
390
46F
  0
LAYER
  5
45D
330
436
100
AcDbSymbolTableRecord
100
AcDbLayerTableRecord
  2
YKK_A2
 70
     0
 62
     3
  6
CONTINUOUS
370
    -3
390
46F
  0
LAYER
  5
45E
330
436
100
AcDbSymbolTableRecord
100
AcDbLayerTableRecord
  2
YKK_B1
 70
     0
 62
     4
  6
CONTINUOUS
370
    -3
390
46F
  0
LAYER
  5
45F
330
436
100
AcDbSymbolTableRecord
100
AcDbLayerTableRecord
  2
YKK_C1
 70
     0
 62
     4
  6
CONTINUOUS
370
    -3
390
46F
  0
LAYER
  5
460
330
436
100
AcDbSymbolTableRecord
100
AcDbLayerTableRecord
  2
YKK_B2
 70
     0
 62
     5
  6
CONTINUOUS
370
    -3
390
46F
  0
LAYER
  5
461
330
436
100
AcDbSymbolTableRecord
100
AcDbLayerTableRecord
  2
YKK_C2
 70
     0
 62
     5
  6
CONTINUOUS
370
    -3
390
46F
  0
ENDTAB
  0
TABLE
  2
STYLE
  5
437
330
0
100
AcDbSymbolTable
 70
     3
  0
STYLE
  5
443
330
437
100
AcDbSymbolTableRecord
100
AcDbTextStyleTableRecord
  2
STANDARD
 70
     0
 40
0.0
 41
1.0
 50
0.0
 71
     0
 42
0.2
  3
txt
  4

  0
STYLE
  5
452
330
437
100
AcDbSymbolTableRecord
100
AcDbTextStyleTableRecord
  2
EXTFONT
 70
     0
 40
60.0
 41
1.0
 50
0.0
 71
     0
 42
60.0
  3
txt.shx
  4
EXTFONT
  0
STYLE
  5
453
330
437
100
AcDbSymbolTableRecord
100
AcDbTextStyleTableRecord
  2
YKK_SGSTYLE1
 70
     0
 40
0.0
 41
0.8
 50
0.0
 71
     0
 42
60.0
  3
ROMANS.SHX
  4
EXTFONT.SHX
  0
ENDTAB
  0
TABLE
  2
VIEW
  5
43A
330
0
100
AcDbSymbolTable
 70
     0
  0
ENDTAB
  0
TABLE
  2
UCS
  5
43B
330
0
100
AcDbSymbolTable
 70
     0
  0
ENDTAB
  0
TABLE
  2
APPID
  5
43D
330
0
100
AcDbSymbolTable
 70
     5
  0
APPID
  5
444
330
43D
100
AcDbSymbolTableRecord
100
AcDbRegAppTableRecord
  2
ACAD
 70
     0
  0
APPID
  5
4FB
330
43D
100
AcDbSymbolTableRecord
100
AcDbRegAppTableRecord
  2
ACAD_MLEADERVER
 70
     0
  0
APPID
  5
50F
330
43D
100
AcDbSymbolTableRecord
100
AcDbRegAppTableRecord
  2
ACAD_PSEXT
 70
     0
  0
APPID
  5
510
330
43D
100
AcDbSymbolTableRecord
100
AcDbRegAppTableRecord
  2
ACAD_NAV_VCDISPLAY
 70
     0
  0
APPID
  5
511
330
43D
100
AcDbSymbolTableRecord
100
AcDbRegAppTableRecord
  2
YKK_AP_LOCKLAYER
 70
     0
  0
ENDTAB
  0
TABLE
  2
DIMSTYLE
  5
43E
330
0
100
AcDbSymbolTable
 70
     1
100
AcDbDimStyleTable
 71
     0
  0
DIMSTYLE
105
457
330
43E
100
AcDbSymbolTableRecord
100
AcDbDimStyleTableRecord
  2
STANDARD
 70
     0
279
     2
340
443
  0
ENDTAB
  0
TABLE
  2
BLOCK_RECORD
  5
435
330
0
100
AcDbSymbolTable
 70
     2
  0
BLOCK_RECORD
  5
44B
330
435
100
AcDbSymbolTableRecord
100
AcDbBlockTableRecord
  2
*MODEL_SPACE
340
4C2
  0
BLOCK_RECORD
  5
448
330
435
100
AcDbSymbolTableRecord
100
AcDbBlockTableRecord
  2
*PAPER_SPACE
340
4C3
  0
BLOCK_RECORD
  5
450
330
435
100
AcDbSymbolTableRecord
100
AcDbBlockTableRecord
  2
SGGF
340
0
102
{BLKREFS
331
2BC
331
2C3
331
2C8
331
2C9
331
2CA
331
2CD
331
2CE
331
2D6
331
2FD
331
2FE
331
2FF
331
300
102
}
  0
BLOCK_RECORD
  5
451
330
435
100
AcDbSymbolTableRecord
100
AcDbBlockTableRecord
  2
SGGFRB
340
0
102
{BLKREFS
331
385
331
391
331
392
331
393
331
394
331
398
331
399
331
39A
331
3BB
331
3BC
331
3BD
331
3BF
331
3C0
102
}
  0
ENDTAB
  0
ENDSEC
  0
SECTION
  2
BLOCKS
  0
BLOCK
  5
464
330
44B
100
AcDbEntity
  8
0
100
AcDbBlockBegin
  2
*MODEL_SPACE
 70
     0
 10
0.0
 20
0.0
 30
0.0
  3
*MODEL_SPACE
  1

  0
ENDBLK
  5
465
330
44B
100
AcDbEntity
  8
0
100
AcDbBlockEnd
  0
BLOCK
  5
462
330
448
100
AcDbEntity
 67
     1
  8
0
100
AcDbBlockBegin
  2
*PAPER_SPACE
 70
     0
 10
0.0
 20
0.0
 30
0.0
  3
*PAPER_SPACE
  1

  0
ENDBLK
  5
463
330
448
100
AcDbEntity
 67
     1
  8
0
100
AcDbBlockEnd
  0
BLOCK
  5
2C1
330
450
100
AcDbEntity
  8
0
100
AcDbBlockBegin
  2
SGGF
 70
     0
 10
0.0
 20
0.0
 30
0.0
  3
SGGF
  1

  0
LINE
  5
2BE
330
450
100
AcDbEntity
  8
0
  6
ByBlock
100
AcDbLine
 10
0.0
 20
0.0
 30
0.0
 11
0.0
 21
-20.0
 31
0.0
  0
LINE
  5
2BF
330
450
100
AcDbEntity
  8
0
  6
ByBlock
100
AcDbLine
 10
-40.0
 20
-49.0
 30
0.0
 11
-40.0
 21
-62.0
 31
0.0
  0
LINE
  5
2C0
330
450
100
AcDbEntity
  8
0
  6
ByBlock
100
AcDbLine
 10
0.0
 20
-20.0
 30
0.0
 11
-40.0
 21
-49.0
 31
0.0
  0
ENDBLK
  5
2C2
330
450
100
AcDbEntity
  8
0
100
AcDbBlockEnd
  0
BLOCK
  5
38C
330
451
100
AcDbEntity
  8
0
100
AcDbBlockBegin
  2
SGGFRB
 70
     0
 10
0.0
 20
0.0
 30
0.0
  3
SGGFRB
  1

  0
LINE
  5
387
330
451
100
AcDbEntity
  8
0
  6
ByBlock
 62
     0
370
    -2
100
AcDbLine
 10
0.0
 20
-12.0
 30
0.0
 11
-37.84529946
 21
-12.0
 31
0.0
  0
LINE
  5
388
330
451
100
AcDbEntity
  8
0
  6
ByBlock
 62
     0
370
    -2
100
AcDbLine
 10
-40.0
 20
-4.0386644
 30
0.0
 11
0.0
 21
-1.71428571
 31
0.0
  0
LINE
  5
389
330
451
100
AcDbEntity
  8
0
  6
ByBlock
 62
     0
370
    -2
100
AcDbLine
 10
-37.84529946
 20
-12.0
 30
0.0
 11
-40.0
 21
-14.0
 31
0.0
  0
LINE
  5
38A
330
451
100
AcDbEntity
  8
0
  6
ByBlock
 62
     0
370
    -2
100
AcDbLine
 10
-40.0
 20
-14.0
 30
0.0
 11
-40.0
 21
-4.0386644
 31
0.0
  0
LINE
  5
38B
330
451
100
AcDbEntity
  8
0
  6
ByBlock
 62
     0
370
    -2
100
AcDbLine
 10
0.0
 20
0.0
 30
0.0
 11
0.0
 21
-12.0
 31
0.0
  0
ENDBLK
  5
38D
330
451
100
AcDbEntity
  8
0
100
AcDbBlockEnd
  0
ENDSEC
  0
SECTION
  2
ENTITIES
  0
LINE
  5
1D
330
44B
100
AcDbEntity
  8
YKK_F1
100
AcDbLine
 10
0.0
 20
5600.0
 30
0.0
 11
28500.0
 21
5600.0
 31
0.0
  0
LINE
  5
1F
330
44B
100
AcDbEntity
  8
YKK_F1
100
AcDbLine
 10
0.0
 20
6050.0
 30
0.0
 11
28500.0
 21
6050.0
 31
0.0
  0
LINE
  5
20
330
44B
100
AcDbEntity
  8
YKK_F1
100
AcDbLine
 10
0.0
 20
12100.0
 30
0.0
 11
28500.0
 21
12100.0
 31
0.0
  0
LINE
  5
21
330
44B
100
AcDbEntity
  8
YKK_F1
100
AcDbLine
 10
0.0
 20
12550.0
 30
0.0
 11
28500.0
 21
12550.0
 31
0.0
  0
LINE
  5
22
330
44B
100
AcDbEntity
  8
YKK_F1
100
AcDbLine
 10
0.0
 20
6500.0
 30
0.0
 11
28500.0
 21
6500.0
 31
0.0
  0
LINE
  5
23
330
44B
100
AcDbEntity
  8
YKK_F1
100
AcDbLine
 10
0.0
 20
13000.0
 30
0.0
 11
28500.0
 21
13000.0
 31
0.0
  0
LINE
  5
24
330
44B
100
AcDbEntity
  8
YKK_F1
100
AcDbLine
 10
0.0
 20
18600.0
 30
0.0
 11
28500.0
 21
18600.0
 31
0.0
  0
LINE
  5
25
330
44B
100
AcDbEntity
  8
YKK_F1
100
AcDbLine
 10
0.0
 20
19050.0
 30
0.0
 11
28500.0
 21
19050.0
 31
0.0
  0
LINE
  5
26
330
44B
100
AcDbEntity
  8
YKK_F1
100
AcDbLine
 10
0.0
 20
0.0
 30
0.0
 11
28681.0155
 21
0.0
 31
0.0
  0
LINE
  5
27
330
44B
100
AcDbEntity
  8
YKK_F1
100
AcDbLine
 10
0.0
 20
20000.0
 30
0.0
 11
28681.0155
 21
20000.0
 31
0.0
  0
LINE
  5
28
330
44B
100
AcDbEntity
  8
YKK_F1
100
AcDbLine
 10
0.0
 20
19500.0
 30
0.0
 11
28500.0
 21
19500.0
 31
0.0
  0
LINE
  5
29
330
44B
100
AcDbEntity
  8
YKK_F1
100
AcDbLine
 10
5700.0
 20
0.0
 30
0.0
 11
5700.0
 21
19500.0
 31
0.0
  0
LINE
  5
2A
330
44B
100
AcDbEntity
  8
YKK_F1
100
AcDbLine
 10
11400.0
 20
0.0
 30
0.0
 11
11400.0
 21
19500.0
 31
0.0
  0
LINE
  5
2B
330
44B
100
AcDbEntity
  8
YKK_F1
100
AcDbLine
 10
0.0
 20
0.0
 30
0.0
 11
0.0
 21
20000.0
 31
0.0
  0
POINT
  5
2C
330
44B
100
AcDbEntity
  8
YKK_IN
100
AcDbPoint
 10
0.0
 20
0.0
 30
0.0
  0
POINT
  5
2E
330
44B
100
AcDbEntity
  8
YKK_F1
100
AcDbPoint
 10
0.0
 20
0.0
 30
0.0
  0
POINT
  5
2F
330
44B
100
AcDbEntity
  8
YKK_N1
100
AcDbPoint
 10
0.0
 20
0.0
 30
0.0
  0
POINT
  5
31
330
44B
100
AcDbEntity
  8
YKK_Z1
100
AcDbPoint
 10
0.0
 20
0.0
 30
0.0
  0
POINT
  5
33
330
44B
100
AcDbEntity
  8
YKK_A1
100
AcDbPoint
 10
0.0
 20
0.0
 30
0.0
  0
POINT
  5
35
330
44B
100
AcDbEntity
  8
YKK_A2
100
AcDbPoint
 10
0.0
 20
0.0
 30
0.0
  0
POINT
  5
37
330
44B
100
AcDbEntity
  8
YKK_B1
100
AcDbPoint
 10
0.0
 20
0.0
 30
0.0
  0
POINT
  5
39
330
44B
100
AcDbEntity
  8
YKK_C1
100
AcDbPoint
 10
0.0
 20
0.0
 30
0.0
  0
POINT
  5
3B
330
44B
100
AcDbEntity
  8
YKK_B2
100
AcDbPoint
 10
0.0
 20
0.0
 30
0.0
  0
POINT
  5
3D
330
44B
100
AcDbEntity
  8
YKK_C2
100
AcDbPoint
 10
0.0
 20
0.0
 30
0.0
  0
TEXT
  5
3F
330
44B
100
AcDbEntity
  8
0
100
AcDbText
 10
500.0
 20
19625.0
 30
0.0
 40
250.0
  1
ＢＳＳ７ＰＪ０６　ＳＹＳＴＥＭＡ７１０　セットバック枠　ガラリ
  7
EXTFONT
100
AcDbText
  0
LINE
  5
41
330
44B
100
AcDbEntity
  8
YKK_N1
  6
ByBlock
100
AcDbLine
 10
2245.0
 20
16255.6907475
 30
0.0
 11
2245.0
 21
15885.6907475
 31
0.0
  0
LINE
  5
42
330
44B
100
AcDbEntity
  8
YKK_N1
  6
ByBlock
100
AcDbLine
 10
1545.0
 20
16255.6907475
 30
0.0
 11
1545.0
 21
15885.6907475
 31
0.0
  0
TEXT
  5
43
330
44B
100
AcDbEntity
  8
YKK_N1
100
AcDbText
 10
1770.42857143
 20
13634.5
 30
0.0
 40
60.0
  1
W=700
 41
0.8
  7
YKK_SGSTYLE1
100
AcDbText
  0
LINE
  5
45
330
44B
100
AcDbEntity
  8
YKK_N1
  6
ByBlock
100
AcDbLine
 10
1546.0
 20
13624.5
 30
0.0
 11
2244.0
 21
13624.5
 31
0.0
  0
LINE
  5
46
330
44B
100
AcDbEntity
  8
YKK_B1
100
AcDbLine
 10
1515.0
 20
14054.2
 30
0.0
 11
2275.0
 21
14054.2
 31
0.0
  0
LINE
  5
47
330
44B
100
AcDbEntity
  8
YKK_B1
100
AcDbLine
 10
1515.0
 20
14094.2
 30
0.0
 11
2275.0
 21
14094.2
 31
0.0
  0
LINE
  5
48
330
44B
100
AcDbEntity
  8
YKK_B1
100
AcDbLine
 10
1565.0
 20
14024.5
 30
0.0
 11
2225.0
 21
14024.5
 31
0.0
  0
LINE
  5
49
330
44B
100
AcDbEntity
  8
YKK_B1
100
AcDbLine
 10
1535.0
 20
14149.5
 30
0.0
 11
2255.0
 21
14149.5
 31
0.0
  0
LINE
  5
4A
330
44B
100
AcDbEntity
  8
YKK_Z1
  6
Continuous
100
AcDbLine
 10
1515.0
 20
13884.5
 30
0.0
 11
1895.0
 21
13884.5
 31
0.0
  0
LINE
  5
4B
330
44B
100
AcDbEntity
  8
YKK_N1
100
AcDbLine
 10
1745.0
 20
13887.5
 30
0.0
 11
1745.0
 21
13907.5
 31
0.0
  0
TEXT
  5
4C
330
44B
100
AcDbEntity
  8
YKK_N1
100
AcDbText
 10
1735.0
 20
13884.0
 30
0.0
 40
60.0
  1
137
 50
90.0
 41
0.8
  7
YKK_SGSTYLE1
100
AcDbText
  0
LINE
  5
4D
330
44B
100
AcDbEntity
  8
YKK_N1
  6
ByBlock
100
AcDbLine
 10
1545.0
 20
13964.5
 30
0.0
 11
1545.0
 21
13594.5
 31
0.0
  0
LINE
  5
4E
330
44B
100
AcDbEntity
  8
YKK_Z1
  6
Continuous
100
AcDbLine
 10
1515.0
 20
13907.0
 30
0.0
 11
1515.0
 21
13894.5
 31
0.0
  0
LINE
  5
4F
330
44B
100
AcDbEntity
  8
YKK_Z1
100
AcDbLine
 10
1540.0
 20
14024.5
 30
0.0
 11
1540.0
 21
13887.5
 31
0.0
  0
LINE
  5
50
330
44B
100
AcDbEntity
  8
YKK_Z1
  6
Continuous
100
AcDbLine
 10
1515.0
 20
13894.5
 30
0.0
 11
1145.0
 21
13894.5
 31
0.0
  0
LINE
  5
51
330
44B
100
AcDbEntity
  8
YKK_N1
  6
ByBlock
100
AcDbLine
 10
1631.60254038
 20
13674.5
 30
0.0
 11
1545.0
 21
13624.5
 31
0.0
  0
LINE
  5
52
330
44B
100
AcDbEntity
  8
YKK_N1
  6
ByBlock
100
AcDbLine
 10
1545.0
 20
13624.5
 30
0.0
 11
1631.60254038
 21
13574.5
 31
0.0
  0
LINE
  5
53
330
44B
100
AcDbEntity
  8
YKK_N1
  6
ByBlock
100
AcDbLine
 10
1545.0
 20
13624.5
 30
0.0
 11
1645.0
 21
13624.5
 31
0.0
  0
POINT
  5
54
330
44B
100
AcDbEntity
  8
YKK_N1
  6
ByBlock
100
AcDbPoint
 10
1540.0
 20
13887.5
 30
0.0
  0
LINE
  5
55
330
44B
100
AcDbEntity
  8
YKK_Z1
  6
Continuous
100
AcDbLine
 10
1515.0
 20
13887.5
 30
0.0
 11
1515.0
 21
13884.5
 31
0.0
  0
LINE
  5
56
330
44B
100
AcDbEntity
  8
YKK_Z1
100
AcDbLine
 10
1515.0
 20
13887.5
 30
0.0
 11
1515.0
 21
13897.5
 31
0.0
  0
LINE
  5
57
330
44B
100
AcDbEntity
  8
YKK_Z1
100
AcDbLine
 10
1540.0
 20
13887.5
 30
0.0
 11
1515.0
 21
13887.5
 31
0.0
  0
LINE
  5
58
330
44B
100
AcDbEntity
  8
YKK_N1
  6
ByBlock
100
AcDbLine
 10
1631.60254038
 20
13574.5
 30
0.0
 11
1631.60254038
 21
13674.5
 31
0.0
  0
CIRCLE
  5
59
330
44B
100
AcDbEntity
  8
YKK_N1
100
AcDbCircle
 10
1745.0
 20
13887.5
 30
0.0
 40
6.5
  0
CIRCLE
  5
5A
330
44B
100
AcDbEntity
  8
YKK_N1
100
AcDbCircle
 10
1745.0
 20
13887.5
 30
0.0
 40
10.0
  0
POINT
  5
5B
330
44B
100
AcDbEntity
  8
YKK_N1
  6
ByBlock
100
AcDbPoint
 10
1745.0
 20
13887.5
 30
0.0
  0
LINE
  5
5C
330
44B
100
AcDbEntity
  8
YKK_N1
  6
ByBlock
100
AcDbLine
 10
1600.0
 20
13887.5
 30
0.0
 11
1775.0
 21
13887.5
 31
0.0
  0
LINE
  5
5D
330
44B
100
AcDbEntity
  8
YKK_Z1
  6
Continuous
100
AcDbLine
 10
1202.49995497
 20
13922.5
 30
0.0
 11
1182.4999515
 21
13942.5
 31
0.0
  0
LINE
  5
5E
330
44B
100
AcDbEntity
  8
YKK_Z1
  6
Continuous
100
AcDbLine
 10
1202.5001351
 20
13942.5
 30
0.0
 11
1182.50014549
 21
13922.5
 31
0.0
  0
LINE
  5
5F
330
44B
100
AcDbEntity
  8
YKK_Z1
  6
Continuous
100
AcDbLine
 10
1324.99990647
 20
14122.5
 30
0.0
 11
1145.0
 21
13942.5
 31
0.0
  0
LINE
  5
60
330
44B
100
AcDbEntity
  8
YKK_Z1
  6
Continuous
100
AcDbLine
 10
1333.48518417
 20
14122.5
 30
0.0
 11
1153.4852777
 21
13942.5
 31
0.0
  0
LINE
  5
61
330
44B
100
AcDbEntity
  8
YKK_Z1
  6
Continuous
100
AcDbLine
 10
1353.28416547
 20
14122.5
 30
0.0
 11
1173.284259
 21
13942.5
 31
0.0
  0
LINE
  5
62
330
44B
100
AcDbEntity
  8
YKK_Z1
  6
Continuous
100
AcDbLine
 10
1145.0
 20
13942.5
 30
0.0
 11
1462.5
 21
13942.5
 31
0.0
  0
LINE
  5
63
330
44B
100
AcDbEntity
  8
YKK_Z1
  6
Continuous
100
AcDbLine
 10
1477.5
 20
14122.5
 30
0.0
 11
1145.0
 21
14122.5
 31
0.0
  0
LINE
  5
64
330
44B
100
AcDbEntity
  8
YKK_Z1
  6
CENTER
100
AcDbLine
 10
1479.25
 20
14032.5
 30
0.0
 11
1145.0
 21
14032.5
 31
0.0
  0
LINE
  5
66
330
44B
100
AcDbEntity
  8
YKK_Z1
  6
Continuous
100
AcDbLine
 10
1462.5
 20
13922.5
 30
0.0
 11
1145.0
 21
13922.5
 31
0.0
  0
LINE
  5
67
330
44B
100
AcDbEntity
  8
YKK_Z1
  6
Continuous
100
AcDbLine
 10
1476.0
 20
14134.5
 30
0.0
 11
1145.0
 21
14134.5
 31
0.0
  0
LINE
  5
68
330
44B
100
AcDbEntity
  8
YKK_Z1
  6
Continuous
100
AcDbLine
 10
1476.0
 20
14126.5
 30
0.0
 11
1145.0
 21
14126.5
 31
0.0
  0
LINE
  5
69
330
44B
100
AcDbEntity
  8
YKK_Z1
  6
Continuous
100
AcDbLine
 10
1145.0
 20
13907.0
 30
0.0
 11
1515.0
 21
13907.0
 31
0.0
  0
LINE
  5
6A
330
44B
100
AcDbEntity
  8
YKK_Z1
  6
Continuous
100
AcDbLine
 10
1156.0
 20
14134.5
 30
0.0
 11
1156.0
 21
14126.5
 31
0.0
  0
LINE
  5
6B
330
44B
100
AcDbEntity
  8
YKK_Z1
  6
Continuous
100
AcDbLine
 10
1146.0
 20
14134.5
 30
0.0
 11
1146.0
 21
14126.5
 31
0.0
  0
LINE
  5
6C
330
44B
100
AcDbEntity
  8
YKK_Z1
  6
Continuous
100
AcDbLine
 10
1162.49994804
 20
13922.5
 30
0.0
 11
1145.0
 21
13939.99994501
 31
0.0
  0
LINE
  5
6D
330
44B
100
AcDbEntity
  8
YKK_Z1
  6
Continuous
100
AcDbLine
 10
1162.50015588
 20
13942.5
 30
0.0
 11
1145.0
 21
13924.99983502
 31
0.0
  0
LINE
  5
6E
330
44B
100
AcDbEntity
  8
YKK_Z1
  6
Continuous
100
AcDbLine
 10
1182.4999515
 20
13922.5
 30
0.0
 11
1162.49994804
 21
13942.5
 31
0.0
  0
LINE
  5
6F
330
44B
100
AcDbEntity
  8
YKK_Z1
  6
Continuous
100
AcDbLine
 10
1182.50014549
 20
13942.5
 30
0.0
 11
1162.50015588
 21
13922.5
 31
0.0
  0
LINE
  5
70
330
44B
100
AcDbEntity
  8
YKK_B1
100
AcDbLine
 10
1563.0
 20
14043.0
 30
0.0
 11
1505.0
 21
14043.0
 31
0.0
  0
POINT
  5
71
330
44B
100
AcDbEntity
  8
YKK_N1
  6
ByBlock
100
AcDbPoint
 10
1545.0
 20
14024.5
 30
0.0
  0
LINE
  5
72
330
44B
100
AcDbEntity
  8
YKK_B1
100
AcDbLine
 10
1505.0
 20
14149.5
 30
0.0
 11
1500.0
 21
14149.5
 31
0.0
  0
LINE
  5
73
330
44B
100
AcDbEntity
  8
YKK_B1
100
AcDbLine
 10
1545.0
 20
14024.5
 30
0.0
 11
1545.0
 21
14043.0
 31
0.0
  0
LINE
  5
74
330
44B
100
AcDbEntity
  8
YKK_B1
100
AcDbLine
 10
1545.0
 20
14043.0
 30
0.0
 11
1545.0
 21
14054.2
 31
0.0
  0
LINE
  5
75
330
44B
100
AcDbEntity
  8
YKK_B1
100
AcDbLine
 10
1505.0
 20
14024.5
 30
0.0
 11
1505.0
 21
14094.5
 31
0.0
  0
LINE
  5
76
330
44B
100
AcDbEntity
  8
YKK_B1
100
AcDbLine
 10
1505.0
 20
14024.5
 30
0.0
 11
1496.0
 21
14024.5
 31
0.0
  0
LINE
  5
77
330
44B
100
AcDbEntity
  8
YKK_B1
100
AcDbLine
 10
1496.0
 20
14024.5
 30
0.0
 11
1496.0
 21
14031.5
 31
0.0
  0
LINE
  5
78
330
44B
100
AcDbEntity
  8
YKK_B1
100
AcDbLine
 10
1496.0
 20
14094.5
 30
0.0
 11
1496.0
 21
14087.5
 31
0.0
  0
LINE
  5
79
330
44B
100
AcDbEntity
  8
YKK_B1
100
AcDbLine
 10
1505.0
 20
14094.5
 30
0.0
 11
1492.5
 21
14094.5
 31
0.0
  0
LINE
  5
7A
330
44B
100
AcDbEntity
  8
YKK_B1
100
AcDbLine
 10
1515.0
 20
14043.0
 30
0.0
 11
1515.0
 21
14094.2
 31
0.0
  0
LINE
  5
7B
330
44B
100
AcDbEntity
  8
YKK_B1
100
AcDbLine
 10
1545.0
 20
14024.5
 30
0.0
 11
1505.0
 21
14024.5
 31
0.0
  0
LINE
  5
7C
330
44B
100
AcDbEntity
  8
YKK_B1
100
AcDbLine
 10
1505.0
 20
14094.5
 30
0.0
 11
1505.0
 21
14149.5
 31
0.0
  0
LINE
  5
7D
330
44B
100
AcDbEntity
  8
YKK_B1
100
AcDbLine
 10
1500.0
 20
14149.5
 30
0.0
 11
1497.5
 21
14094.5
 31
0.0
  0
LINE
  5
7E
330
44B
100
AcDbEntity
  8
YKK_Z1
  6
Continuous
100
AcDbLine
 10
1491.0
 20
14134.5
 30
0.0
 11
1476.0
 21
14134.5
 31
0.0
  0
LINE
  5
7F
330
44B
100
AcDbEntity
  8
YKK_Z1
  6
Continuous
100
AcDbLine
 10
1476.0
 20
14134.5
 30
0.0
 11
1476.0
 21
14126.5
 31
0.0
  0
LINE
  5
80
330
44B
100
AcDbEntity
  8
YKK_Z1
  6
Continuous
100
AcDbLine
 10
1462.5
 20
14067.5
 30
0.0
 11
1477.5
 21
14077.5
 31
0.0
  0
LINE
  5
81
330
44B
100
AcDbEntity
  8
YKK_Z1
  6
Continuous
100
AcDbLine
 10
1477.5
 20
14077.5
 30
0.0
 11
1477.5
 21
14122.5
 31
0.0
  0
LINE
  5
82
330
44B
100
AcDbEntity
  8
YKK_Z1
  6
Continuous
100
AcDbLine
 10
1462.5
 20
13954.53000905
 30
0.0
 11
1450.4699972
 21
13942.5
 31
0.0
  0
LINE
  5
83
330
44B
100
AcDbEntity
  8
YKK_Z1
  6
Continuous
100
AcDbLine
 10
1462.5
 20
13942.5
 30
0.0
 11
1462.5
 21
13922.5
 31
0.0
  0
LINE
  5
85
330
44B
100
AcDbEntity
  8
YKK_Z1
  6
Continuous
100
AcDbLine
 10
1462.5
 20
13922.5
 30
0.0
 11
1442.49999654
 21
13942.5
 31
0.0
  0
LINE
  5
86
330
44B
100
AcDbEntity
  8
YKK_Z1
  6
Continuous
100
AcDbLine
 10
1442.49999654
 20
13922.5
 30
0.0
 11
1422.49999307
 21
13942.5
 31
0.0
  0
LINE
  5
87
330
44B
100
AcDbEntity
  8
YKK_Z1
  6
Continuous
100
AcDbLine
 10
1462.5
 20
13942.5
 30
0.0
 11
1442.50001039
 21
13922.5
 31
0.0
  0
LINE
  5
88
330
44B
100
AcDbEntity
  8
YKK_Z1
  6
Continuous
100
AcDbLine
 10
1442.50001039
 20
13942.5
 30
0.0
 11
1422.50002078
 21
13922.5
 31
0.0
  0
LINE
  5
89
330
44B
100
AcDbEntity
  8
YKK_Z1
  6
Continuous
100
AcDbLine
 10
1462.5
 20
13942.5
 30
0.0
 11
1462.5
 21
14067.5
 31
0.0
  0
LINE
  5
8A
330
44B
100
AcDbEntity
  8
YKK_Z1
  6
Continuous
100
AcDbLine
 10
1462.5
 20
13963.01529116
 30
0.0
 11
1441.9847195
 21
13942.5
 31
0.0
  0
LINE
  5
8B
330
44B
100
AcDbEntity
  8
YKK_Z1
  6
Continuous
100
AcDbLine
 10
1376.0
 20
14134.5
 30
0.0
 11
1376.0
 21
14126.5
 31
0.0
  0
LINE
  5
8C
330
44B
100
AcDbEntity
  8
YKK_Z1
  6
Continuous
100
AcDbLine
 10
1366.0
 20
14134.5
 30
0.0
 11
1366.0
 21
14126.5
 31
0.0
  0
LINE
  5
8D
330
44B
100
AcDbEntity
  8
YKK_Z1
  6
Continuous
100
AcDbLine
 10
1266.0
 20
14134.5
 30
0.0
 11
1266.0
 21
14126.5
 31
0.0
  0
LINE
  5
8E
330
44B
100
AcDbEntity
  8
YKK_Z1
  6
Continuous
100
AcDbLine
 10
1256.0
 20
14134.5
 30
0.0
 11
1256.0
 21
14126.5
 31
0.0
  0
LINE
  5
8F
330
44B
100
AcDbEntity
  8
YKK_Z1
  6
Continuous
100
AcDbLine
 10
1402.49998961
 20
13922.5
 30
0.0
 11
1382.49998614
 21
13942.5
 31
0.0
  0
LINE
  5
90
330
44B
100
AcDbEntity
  8
YKK_Z1
  6
Continuous
100
AcDbLine
 10
1382.49998614
 20
13922.5
 30
0.0
 11
1362.49998268
 21
13942.5
 31
0.0
  0
LINE
  5
91
330
44B
100
AcDbEntity
  8
YKK_Z1
  6
Continuous
100
AcDbLine
 10
1362.49998268
 20
13922.5
 30
0.0
 11
1342.49997922
 21
13942.5
 31
0.0
  0
LINE
  5
92
330
44B
100
AcDbEntity
  8
YKK_Z1
  6
Continuous
100
AcDbLine
 10
1342.49997922
 20
13922.5
 30
0.0
 11
1322.49997575
 21
13942.5
 31
0.0
  0
LINE
  5
93
330
44B
100
AcDbEntity
  8
YKK_Z1
  6
Continuous
100
AcDbLine
 10
1322.49997575
 20
13922.5
 30
0.0
 11
1302.49997229
 21
13942.5
 31
0.0
  0
LINE
  5
94
330
44B
100
AcDbEntity
  8
YKK_Z1
  6
Continuous
100
AcDbLine
 10
1402.50003118
 20
13942.5
 30
0.0
 11
1382.50004157
 21
13922.5
 31
0.0
  0
LINE
  5
95
330
44B
100
AcDbEntity
  8
YKK_Z1
  6
Continuous
100
AcDbLine
 10
1382.50004157
 20
13942.5
 30
0.0
 11
1362.50005196
 21
13922.5
 31
0.0
  0
LINE
  5
96
330
44B
100
AcDbEntity
  8
YKK_Z1
  6
Continuous
100
AcDbLine
 10
1362.50005196
 20
13942.5
 30
0.0
 11
1342.50006235
 21
13922.5
 31
0.0
  0
LINE
  5
97
330
44B
100
AcDbEntity
  8
YKK_Z1
  6
Continuous
100
AcDbLine
 10
1342.50006235
 20
13942.5
 30
0.0
 11
1322.50007275
 21
13922.5
 31
0.0
  0
LINE
  5
98
330
44B
100
AcDbEntity
  8
YKK_Z1
  6
Continuous
100
AcDbLine
 10
1322.50007275
 20
13942.5
 30
0.0
 11
1302.50008314
 21
13922.5
 31
0.0
  0
LINE
  5
99
330
44B
100
AcDbEntity
  8
YKK_Z1
  6
Continuous
100
AcDbLine
 10
1282.49996882
 20
13922.5
 30
0.0
 11
1262.49996536
 21
13942.5
 31
0.0
  0
LINE
  5
9A
330
44B
100
AcDbEntity
  8
YKK_Z1
  6
Continuous
100
AcDbLine
 10
1262.49996536
 20
13922.5
 30
0.0
 11
1242.49996189
 21
13942.5
 31
0.0
  0
LINE
  5
9B
330
44B
100
AcDbEntity
  8
YKK_Z1
  6
Continuous
100
AcDbLine
 10
1242.49996189
 20
13922.5
 30
0.0
 11
1222.49995843
 21
13942.5
 31
0.0
  0
LINE
  5
9C
330
44B
100
AcDbEntity
  8
YKK_Z1
  6
Continuous
100
AcDbLine
 10
1222.49995843
 20
13922.5
 30
0.0
 11
1202.49995497
 21
13942.5
 31
0.0
  0
LINE
  5
9D
330
44B
100
AcDbEntity
  8
YKK_Z1
  6
Continuous
100
AcDbLine
 10
1282.50009353
 20
13942.5
 30
0.0
 11
1262.50010392
 21
13922.5
 31
0.0
  0
LINE
  5
9E
330
44B
100
AcDbEntity
  8
YKK_Z1
  6
Continuous
100
AcDbLine
 10
1262.50010392
 20
13942.5
 30
0.0
 11
1242.50011432
 21
13922.5
 31
0.0
  0
LINE
  5
9F
330
44B
100
AcDbEntity
  8
YKK_Z1
  6
Continuous
100
AcDbLine
 10
1242.50011432
 20
13942.5
 30
0.0
 11
1222.50012471
 21
13922.5
 31
0.0
  0
LINE
  5
A0
330
44B
100
AcDbEntity
  8
YKK_Z1
  6
Continuous
100
AcDbLine
 10
1222.50012471
 20
13942.5
 30
0.0
 11
1202.5001351
 21
13922.5
 31
0.0
  0
LINE
  5
A1
330
44B
100
AcDbEntity
  8
YKK_Z1
  6
Continuous
100
AcDbLine
 10
1302.49997229
 20
13922.5
 30
0.0
 11
1282.49996882
 21
13942.5
 31
0.0
  0
LINE
  5
A2
330
44B
100
AcDbEntity
  8
YKK_Z1
  6
Continuous
100
AcDbLine
 10
1302.50008314
 20
13942.5
 30
0.0
 11
1282.50009353
 21
13922.5
 31
0.0
  0
LINE
  5
A3
330
44B
100
AcDbEntity
  8
YKK_Z1
  6
Continuous
100
AcDbLine
 10
1422.49999307
 20
13922.5
 30
0.0
 11
1402.49998961
 21
13942.5
 31
0.0
  0
LINE
  5
A4
330
44B
100
AcDbEntity
  8
YKK_Z1
  6
Continuous
100
AcDbLine
 10
1422.50002078
 20
13942.5
 30
0.0
 11
1402.50003118
 21
13922.5
 31
0.0
  0
LINE
  5
A5
330
44B
100
AcDbEntity
  8
YKK_N1
100
AcDbLine
 10
1745.0
 20
14024.5
 30
0.0
 11
1745.0
 21
14004.5
 31
0.0
  0
CIRCLE
  5
A6
330
44B
100
AcDbEntity
  8
YKK_N1
100
AcDbCircle
 10
1745.0
 20
14024.5
 30
0.0
 40
6.5
  0
CIRCLE
  5
A7
330
44B
100
AcDbEntity
  8
YKK_N1
100
AcDbCircle
 10
1745.0
 20
14024.5
 30
0.0
 40
10.0
  0
TEXT
  5
A8
330
44B
100
AcDbEntity
  8
YKK_N1
100
AcDbText
 10
1700.0
 20
14015.0
 30
0.0
 40
60.0
  1
125
 50
90.0
 41
0.8
  7
YKK_SGSTYLE1
100
AcDbText
  0
LINE
  5
A9
330
44B
100
AcDbEntity
  8
YKK_N1
100
AcDbLine
 10
1745.0
 20
14024.5
 30
0.0
 11
1745.0
 21
14044.5
 31
0.0
  0
CIRCLE
  5
AA
330
44B
100
AcDbEntity
  8
YKK_N1
100
AcDbCircle
 10
1745.0
 20
14024.5
 30
0.0
 40
6.5
  0
CIRCLE
  5
AB
330
44B
100
AcDbEntity
  8
YKK_N1
100
AcDbCircle
 10
1745.0
 20
14024.5
 30
0.0
 40
10.0
  0
LINE
  5
AC
330
44B
100
AcDbEntity
  8
YKK_N1
100
AcDbLine
 10
1745.0
 20
14149.5
 30
0.0
 11
1745.0
 21
14129.5
 31
0.0
  0
CIRCLE
  5
AD
330
44B
100
AcDbEntity
  8
YKK_N1
100
AcDbCircle
 10
1745.0
 20
14149.5
 30
0.0
 40
6.5
  0
CIRCLE
  5
AE
330
44B
100
AcDbEntity
  8
YKK_N1
100
AcDbCircle
 10
1745.0
 20
14149.5
 30
0.0
 40
10.0
  0
POINT
  5
AF
330
44B
100
AcDbEntity
  8
YKK_N1
  6
ByBlock
100
AcDbPoint
 10
1745.0
 20
14149.5
 30
0.0
  0
POINT
  5
B0
330
44B
100
AcDbEntity
  8
YKK_N1
  6
ByBlock
100
AcDbPoint
 10
1755.0
 20
14149.5
 30
0.0
  0
POINT
  5
B1
330
44B
100
AcDbEntity
  8
YKK_N1
  6
ByBlock
100
AcDbPoint
 10
1755.0
 20
14024.5
 30
0.0
  0
LINE
  5
B2
330
44B
100
AcDbEntity
  8
YKK_N1
  6
ByBlock
100
AcDbLine
 10
1745.0
 20
14044.5
 30
0.0
 11
1745.0
 21
14129.5
 31
0.0
  0
LINE
  5
B3
330
44B
100
AcDbEntity
  8
YKK_N1
  6
ByBlock
100
AcDbLine
 10
1695.0
 20
14149.5
 30
0.0
 11
1715.0
 21
14149.5
 31
0.0
  0
LINE
  5
B4
330
44B
100
AcDbEntity
  8
YKK_N1
  6
ByBlock
100
AcDbLine
 10
1695.0
 20
14024.5
 30
0.0
 11
1715.0
 21
14024.5
 31
0.0
  0
POINT
  5
B5
330
44B
100
AcDbEntity
  8
YKK_N1
  6
ByBlock
100
AcDbPoint
 10
1745.0
 20
14024.5
 30
0.0
  0
LINE
  5
B6
330
44B
100
AcDbEntity
  8
YKK_N1
  6
ByBlock
100
AcDbLine
 10
1745.0
 20
14004.5
 30
0.0
 11
1745.0
 21
13907.5
 31
0.0
  0
LINE
  5
B7
330
44B
100
AcDbEntity
  8
YKK_N1
  6
ByBlock
100
AcDbLine
 10
1685.0
 20
14024.5
 30
0.0
 11
1715.0
 21
14024.5
 31
0.0
  0
LINE
  5
B8
330
44B
100
AcDbEntity
  8
YKK_N1
  6
ByBlock
100
AcDbLine
 10
2245.0
 20
13964.5
 30
0.0
 11
2245.0
 21
13594.5
 31
0.0
  0
LINE
  5
B9
330
44B
100
AcDbEntity
  8
YKK_Z1
  6
Continuous
100
AcDbLine
 10
2275.0
 20
13907.0
 30
0.0
 11
2275.0
 21
13894.5
 31
0.0
  0
LINE
  5
BA
330
44B
100
AcDbEntity
  8
YKK_Z1
100
AcDbLine
 10
2250.0
 20
14024.5
 30
0.0
 11
2250.0
 21
13887.5
 31
0.0
  0
LINE
  5
BB
330
44B
100
AcDbEntity
  8
YKK_Z1
  6
Continuous
100
AcDbLine
 10
2275.0
 20
13894.5
 30
0.0
 11
2645.0
 21
13894.5
 31
0.0
  0
LINE
  5
BC
330
44B
100
AcDbEntity
  8
YKK_N1
  6
ByBlock
100
AcDbLine
 10
2158.39745962
 20
13574.5
 30
0.0
 11
2245.0
 21
13624.5
 31
0.0
  0
LINE
  5
BD
330
44B
100
AcDbEntity
  8
YKK_N1
  6
ByBlock
100
AcDbLine
 10
2245.0
 20
13624.5
 30
0.0
 11
2158.39745962
 21
13674.5
 31
0.0
  0
LINE
  5
BE
330
44B
100
AcDbEntity
  8
YKK_N1
  6
ByBlock
100
AcDbLine
 10
2245.0
 20
13624.5
 30
0.0
 11
2145.0
 21
13624.5
 31
0.0
  0
LINE
  5
BF
330
44B
100
AcDbEntity
  8
YKK_Z1
  6
Continuous
100
AcDbLine
 10
2275.0
 20
13884.5
 30
0.0
 11
1895.0
 21
13884.5
 31
0.0
  0
LINE
  5
C0
330
44B
100
AcDbEntity
  8
YKK_N1
  6
ByBlock
100
AcDbLine
 10
2158.39745962
 20
13674.5
 30
0.0
 11
2158.39745962
 21
13574.5
 31
0.0
  0
POINT
  5
C1
330
44B
100
AcDbEntity
  8
YKK_N1
  6
ByBlock
100
AcDbPoint
 10
2245.0
 20
13624.5
 30
0.0
  0
LINE
  5
C2
330
44B
100
AcDbEntity
  8
YKK_Z1
  6
Continuous
100
AcDbLine
 10
2275.0
 20
13887.5
 30
0.0
 11
2275.0
 21
13884.5
 31
0.0
  0
LINE
  5
C3
330
44B
100
AcDbEntity
  8
YKK_Z1
100
AcDbLine
 10
2250.0
 20
13887.5
 30
0.0
 11
2275.0
 21
13887.5
 31
0.0
  0
LINE
  5
C4
330
44B
100
AcDbEntity
  8
YKK_Z1
100
AcDbLine
 10
2275.0
 20
13887.5
 30
0.0
 11
2275.0
 21
13897.5
 31
0.0
  0
LINE
  5
C5
330
44B
100
AcDbEntity
  8
YKK_Z1
  6
Continuous
100
AcDbLine
 10
2567.50004157
 20
13922.5
 30
0.0
 11
2587.50004503
 21
13942.5
 31
0.0
  0
LINE
  5
C6
330
44B
100
AcDbEntity
  8
YKK_Z1
  6
Continuous
100
AcDbLine
 10
2567.49987529
 20
13942.5
 30
0.0
 11
2587.4998649
 21
13922.5
 31
0.0
  0
LINE
  5
C7
330
44B
100
AcDbEntity
  8
YKK_Z1
  6
Continuous
100
AcDbLine
 10
2645.0
 20
13942.5
 30
0.0
 11
2327.5
 21
13942.5
 31
0.0
  0
LINE
  5
C8
330
44B
100
AcDbEntity
  8
YKK_Z1
  6
Continuous
100
AcDbLine
 10
2327.5
 20
13922.5
 30
0.0
 11
2645.0
 21
13922.5
 31
0.0
  0
LINE
  5
C9
330
44B
100
AcDbEntity
  8
YKK_Z1
  6
Continuous
100
AcDbLine
 10
2312.5
 20
14122.5
 30
0.0
 11
2645.0
 21
14122.5
 31
0.0
  0
LINE
  5
CA
330
44B
100
AcDbEntity
  8
YKK_Z1
  6
CENTER
100
AcDbLine
 10
2310.75
 20
14032.5
 30
0.0
 11
2645.0
 21
14032.5
 31
0.0
  0
LINE
  5
CB
330
44B
100
AcDbEntity
  8
YKK_Z1
  6
Continuous
100
AcDbLine
 10
2307.5
 20
14134.5
 30
0.0
 11
2645.0
 21
14134.5
 31
0.0
  0
LINE
  5
CC
330
44B
100
AcDbEntity
  8
YKK_Z1
  6
Continuous
100
AcDbLine
 10
2307.5
 20
14126.5
 30
0.0
 11
2645.0
 21
14126.5
 31
0.0
  0
LINE
  5
CD
330
44B
100
AcDbEntity
  8
YKK_Z1
  6
Continuous
100
AcDbLine
 10
2645.0
 20
13907.0
 30
0.0
 11
2275.0
 21
13907.0
 31
0.0
  0
LINE
  5
CE
330
44B
100
AcDbEntity
  8
YKK_B1
100
AcDbLine
 10
2227.0
 20
14043.0
 30
0.0
 11
2285.0
 21
14043.0
 31
0.0
  0
POINT
  5
CF
330
44B
100
AcDbEntity
  8
YKK_N1
  6
ByBlock
100
AcDbPoint
 10
2245.0
 20
14024.5
 30
0.0
  0
LINE
  5
D0
330
44B
100
AcDbEntity
  8
YKK_B1
100
AcDbLine
 10
2285.0
 20
14149.5
 30
0.0
 11
2290.0
 21
14149.5
 31
0.0
  0
LINE
  5
D1
330
44B
100
AcDbEntity
  8
YKK_B1
100
AcDbLine
 10
2245.0
 20
14024.5
 30
0.0
 11
2285.0
 21
14024.5
 31
0.0
  0
LINE
  5
D2
330
44B
100
AcDbEntity
  8
YKK_B1
100
AcDbLine
 10
2285.0
 20
14024.5
 30
0.0
 11
2285.0
 21
14094.5
 31
0.0
  0
LINE
  5
D3
330
44B
100
AcDbEntity
  8
YKK_B1
100
AcDbLine
 10
2245.0
 20
14024.5
 30
0.0
 11
2245.0
 21
14043.0
 31
0.0
  0
LINE
  5
D4
330
44B
100
AcDbEntity
  8
YKK_B1
100
AcDbLine
 10
2285.0
 20
14024.5
 30
0.0
 11
2294.0
 21
14024.5
 31
0.0
  0
LINE
  5
D5
330
44B
100
AcDbEntity
  8
YKK_B1
100
AcDbLine
 10
2294.0
 20
14024.5
 30
0.0
 11
2294.0
 21
14031.5
 31
0.0
  0
LINE
  5
D6
330
44B
100
AcDbEntity
  8
YKK_B1
100
AcDbLine
 10
2294.0
 20
14094.5
 30
0.0
 11
2294.0
 21
14087.5
 31
0.0
  0
LINE
  5
D7
330
44B
100
AcDbEntity
  8
YKK_B1
100
AcDbLine
 10
2285.0
 20
14094.5
 30
0.0
 11
2297.5
 21
14094.5
 31
0.0
  0
LINE
  5
D8
330
44B
100
AcDbEntity
  8
YKK_B1
100
AcDbLine
 10
2245.0
 20
14043.0
 30
0.0
 11
2245.0
 21
14054.2
 31
0.0
  0
LINE
  5
D9
330
44B
100
AcDbEntity
  8
YKK_B1
100
AcDbLine
 10
2275.0
 20
14043.0
 30
0.0
 11
2275.0
 21
14094.2
 31
0.0
  0
LINE
  5
DA
330
44B
100
AcDbEntity
  8
YKK_B1
100
AcDbLine
 10
2285.0
 20
14094.5
 30
0.0
 11
2285.0
 21
14149.5
 31
0.0
  0
LINE
  5
DB
330
44B
100
AcDbEntity
  8
YKK_B1
100
AcDbLine
 10
2290.0
 20
14149.5
 30
0.0
 11
2292.5
 21
14094.5
 31
0.0
  0
LINE
  5
DC
330
44B
100
AcDbEntity
  8
YKK_Z1
  6
Continuous
100
AcDbLine
 10
2517.5
 20
14134.5
 30
0.0
 11
2517.5
 21
14126.5
 31
0.0
  0
LINE
  5
DD
330
44B
100
AcDbEntity
  8
YKK_Z1
  6
Continuous
100
AcDbLine
 10
2527.5
 20
14134.5
 30
0.0
 11
2527.5
 21
14126.5
 31
0.0
  0
LINE
  5
DE
330
44B
100
AcDbEntity
  8
YKK_Z1
  6
Continuous
100
AcDbLine
 10
2407.5
 20
14134.5
 30
0.0
 11
2407.5
 21
14126.5
 31
0.0
  0
LINE
  5
DF
330
44B
100
AcDbEntity
  8
YKK_Z1
  6
Continuous
100
AcDbLine
 10
2417.5
 20
14134.5
 30
0.0
 11
2417.5
 21
14126.5
 31
0.0
  0
LINE
  5
E0
330
44B
100
AcDbEntity
  8
YKK_Z1
  6
Continuous
100
AcDbLine
 10
2447.50002078
 20
13922.5
 30
0.0
 11
2467.50002425
 21
13942.5
 31
0.0
  0
LINE
  5
E1
330
44B
100
AcDbEntity
  8
YKK_Z1
  6
Continuous
100
AcDbLine
 10
2467.50002425
 20
13922.5
 30
0.0
 11
2487.50002771
 21
13942.5
 31
0.0
  0
LINE
  5
E2
330
44B
100
AcDbEntity
  8
YKK_Z1
  6
Continuous
100
AcDbLine
 10
2487.50002771
 20
13922.5
 30
0.0
 11
2507.50003118
 21
13942.5
 31
0.0
  0
LINE
  5
E3
330
44B
100
AcDbEntity
  8
YKK_Z1
  6
Continuous
100
AcDbLine
 10
2507.50003118
 20
13922.5
 30
0.0
 11
2527.50003464
 21
13942.5
 31
0.0
  0
LINE
  5
E4
330
44B
100
AcDbEntity
  8
YKK_Z1
  6
Continuous
100
AcDbLine
 10
2527.50003464
 20
13922.5
 30
0.0
 11
2547.50003811
 21
13942.5
 31
0.0
  0
LINE
  5
E5
330
44B
100
AcDbEntity
  8
YKK_Z1
  6
Continuous
100
AcDbLine
 10
2447.49993765
 20
13942.5
 30
0.0
 11
2467.49992725
 21
13922.5
 31
0.0
  0
LINE
  5
E6
330
44B
100
AcDbEntity
  8
YKK_Z1
  6
Continuous
100
AcDbLine
 10
2467.49992725
 20
13942.5
 30
0.0
 11
2487.49991686
 21
13922.5
 31
0.0
  0
LINE
  5
E7
330
44B
100
AcDbEntity
  8
YKK_Z1
  6
Continuous
100
AcDbLine
 10
2487.49991686
 20
13942.5
 30
0.0
 11
2507.49990647
 21
13922.5
 31
0.0
  0
LINE
  5
E8
330
44B
100
AcDbEntity
  8
YKK_Z1
  6
Continuous
100
AcDbLine
 10
2507.49990647
 20
13942.5
 30
0.0
 11
2527.49989608
 21
13922.5
 31
0.0
  0
LINE
  5
E9
330
44B
100
AcDbEntity
  8
YKK_Z1
  6
Continuous
100
AcDbLine
 10
2527.49989608
 20
13942.5
 30
0.0
 11
2547.49988568
 21
13922.5
 31
0.0
  0
LINE
  5
EA
330
44B
100
AcDbEntity
  8
YKK_Z1
  6
Continuous
100
AcDbLine
 10
2327.5
 20
13942.5
 30
0.0
 11
2327.5
 21
13922.5
 31
0.0
  0
LINE
  5
EC
330
44B
100
AcDbEntity
  8
YKK_Z1
  6
Continuous
100
AcDbLine
 10
2327.5
 20
13922.5
 30
0.0
 11
2347.50000346
 21
13942.5
 31
0.0
  0
LINE
  5
ED
330
44B
100
AcDbEntity
  8
YKK_Z1
  6
Continuous
100
AcDbLine
 10
2347.50000346
 20
13922.5
 30
0.0
 11
2367.50000693
 21
13942.5
 31
0.0
  0
LINE
  5
EE
330
44B
100
AcDbEntity
  8
YKK_Z1
  6
Continuous
100
AcDbLine
 10
2367.50000693
 20
13922.5
 30
0.0
 11
2387.50001039
 21
13942.5
 31
0.0
  0
LINE
  5
EF
330
44B
100
AcDbEntity
  8
YKK_Z1
  6
Continuous
100
AcDbLine
 10
2387.50001039
 20
13922.5
 30
0.0
 11
2407.50001386
 21
13942.5
 31
0.0
  0
LINE
  5
F0
330
44B
100
AcDbEntity
  8
YKK_Z1
  6
Continuous
100
AcDbLine
 10
2407.50001386
 20
13922.5
 30
0.0
 11
2427.50001732
 21
13942.5
 31
0.0
  0
LINE
  5
F1
330
44B
100
AcDbEntity
  8
YKK_Z1
  6
Continuous
100
AcDbLine
 10
2327.5
 20
13942.5
 30
0.0
 11
2347.49998961
 21
13922.5
 31
0.0
  0
LINE
  5
F2
330
44B
100
AcDbEntity
  8
YKK_Z1
  6
Continuous
100
AcDbLine
 10
2347.49998961
 20
13942.5
 30
0.0
 11
2367.49997922
 21
13922.5
 31
0.0
  0
LINE
  5
F3
330
44B
100
AcDbEntity
  8
YKK_Z1
  6
Continuous
100
AcDbLine
 10
2367.49997922
 20
13942.5
 30
0.0
 11
2387.49996882
 21
13922.5
 31
0.0
  0
LINE
  5
F4
330
44B
100
AcDbEntity
  8
YKK_Z1
  6
Continuous
100
AcDbLine
 10
2387.49996882
 20
13942.5
 30
0.0
 11
2407.49995843
 21
13922.5
 31
0.0
  0
LINE
  5
F5
330
44B
100
AcDbEntity
  8
YKK_Z1
  6
Continuous
100
AcDbLine
 10
2407.49995843
 20
13942.5
 30
0.0
 11
2427.49994804
 21
13922.5
 31
0.0
  0
LINE
  5
F6
330
44B
100
AcDbEntity
  8
YKK_Z1
  6
Continuous
100
AcDbLine
 10
2427.50001732
 20
13922.5
 30
0.0
 11
2447.50002078
 21
13942.5
 31
0.0
  0
LINE
  5
F7
330
44B
100
AcDbEntity
  8
YKK_Z1
  6
Continuous
100
AcDbLine
 10
2427.49994804
 20
13942.5
 30
0.0
 11
2447.49993765
 21
13922.5
 31
0.0
  0
LINE
  5
F8
330
44B
100
AcDbEntity
  8
YKK_Z1
  6
Continuous
100
AcDbLine
 10
2547.50003811
 20
13922.5
 30
0.0
 11
2567.50004157
 21
13942.5
 31
0.0
  0
LINE
  5
F9
330
44B
100
AcDbEntity
  8
YKK_Z1
  6
Continuous
100
AcDbLine
 10
2547.49988568
 20
13942.5
 30
0.0
 11
2567.49987529
 21
13922.5
 31
0.0
  0
LINE
  5
FA
330
44B
100
AcDbEntity
  8
YKK_Z1
  6
Continuous
100
AcDbLine
 10
2327.5
 20
13942.5
 30
0.0
 11
2327.5
 21
14067.5
 31
0.0
  0
LINE
  5
FB
330
44B
100
AcDbEntity
  8
YKK_Z1
  6
Continuous
100
AcDbLine
 10
2348.01507474
 20
13942.5
 30
0.0
 11
2528.01510592
 21
14122.5
 31
0.0
  0
LINE
  5
FC
330
44B
100
AcDbEntity
  8
YKK_Z1
  6
Continuous
100
AcDbLine
 10
2356.50035832
 20
13942.5
 30
0.0
 11
2536.5003895
 21
14122.5
 31
0.0
  0
LINE
  5
FD
330
44B
100
AcDbEntity
  8
YKK_Z1
  6
Continuous
100
AcDbLine
 10
2376.29935334
 20
13942.5
 30
0.0
 11
2556.29938452
 21
14122.5
 31
0.0
  0
LINE
  5
FE
330
44B
100
AcDbEntity
  8
YKK_Z1
  6
Continuous
100
AcDbLine
 10
2299.0
 20
14134.5
 30
0.0
 11
2307.5
 21
14134.5
 31
0.0
  0
LINE
  5
FF
330
44B
100
AcDbEntity
  8
YKK_Z1
  6
Continuous
100
AcDbLine
 10
2307.5
 20
14134.5
 30
0.0
 11
2307.5
 21
14126.5
 31
0.0
  0
LINE
  5
100
330
44B
100
AcDbEntity
  8
YKK_Z1
  6
Continuous
100
AcDbLine
 10
2312.5
 20
14077.5
 30
0.0
 11
2312.5
 21
14122.5
 31
0.0
  0
LINE
  5
101
330
44B
100
AcDbEntity
  8
YKK_Z1
  6
Continuous
100
AcDbLine
 10
2327.5
 20
14067.5
 30
0.0
 11
2312.5
 21
14077.5
 31
0.0
  0
LINE
  5
102
330
44B
100
AcDbEntity
  8
YKK_Z1
  6
Continuous
100
AcDbLine
 10
2627.5
 20
14134.5
 30
0.0
 11
2627.5
 21
14126.5
 31
0.0
  0
LINE
  5
103
330
44B
100
AcDbEntity
  8
YKK_Z1
  6
Continuous
100
AcDbLine
 10
2637.5
 20
14134.5
 30
0.0
 11
2637.5
 21
14126.5
 31
0.0
  0
LINE
  5
105
330
44B
100
AcDbEntity
  8
YKK_Z1
  6
Continuous
100
AcDbLine
 10
2587.50004503
 20
13922.5
 30
0.0
 11
2607.5000485
 21
13942.5
 31
0.0
  0
LINE
  5
106
330
44B
100
AcDbEntity
  8
YKK_Z1
  6
Continuous
100
AcDbLine
 10
2607.5000485
 20
13922.5
 30
0.0
 11
2627.50005196
 21
13942.5
 31
0.0
  0
LINE
  5
107
330
44B
100
AcDbEntity
  8
YKK_Z1
  6
Continuous
100
AcDbLine
 10
2627.50005196
 20
13922.5
 30
0.0
 11
2645.0
 21
13939.99994501
 31
0.0
  0
LINE
  5
108
330
44B
100
AcDbEntity
  8
YKK_Z1
  6
Continuous
100
AcDbLine
 10
2587.4998649
 20
13942.5
 30
0.0
 11
2607.49985451
 21
13922.5
 31
0.0
  0
LINE
  5
109
330
44B
100
AcDbEntity
  8
YKK_Z1
  6
Continuous
100
AcDbLine
 10
2607.49985451
 20
13942.5
 30
0.0
 11
2627.49984412
 21
13922.5
 31
0.0
  0
LINE
  5
10A
330
44B
100
AcDbEntity
  8
YKK_Z1
  6
Continuous
100
AcDbLine
 10
2627.49984412
 20
13942.5
 30
0.0
 11
2645.0
 21
13924.99983502
 31
0.0
  0
TEXT
  5
10B
330
44B
100
AcDbEntity
  8
YKK_N1
100
AcDbText
 10
1770.42857143
 20
15925.6907475
 30
0.0
 40
60.0
  1
W=700
 41
0.8
  7
YKK_SGSTYLE1
100
AcDbText
  0
LINE
  5
10C
330
44B
100
AcDbEntity
  8
YKK_N1
  6
ByBlock
100
AcDbLine
 10
1546.0
 20
15915.6907475
 30
0.0
 11
2244.0
 21
15915.6907475
 31
0.0
  0
LINE
  5
10D
330
44B
100
AcDbEntity
  8
YKK_N1
  6
ByBlock
100
AcDbLine
 10
1631.60254038
 20
15965.6907475
 30
0.0
 11
1545.0
 21
15915.6907475
 31
0.0
  0
LINE
  5
10E
330
44B
100
AcDbEntity
  8
YKK_N1
  6
ByBlock
100
AcDbLine
 10
1545.0
 20
15915.6907475
 30
0.0
 11
1631.60254038
 21
15865.6907475
 31
0.0
  0
LINE
  5
10F
330
44B
100
AcDbEntity
  8
YKK_N1
  6
ByBlock
100
AcDbLine
 10
1545.0
 20
15915.6907475
 30
0.0
 11
1645.0
 21
15915.6907475
 31
0.0
  0
LINE
  5
110
330
44B
100
AcDbEntity
  8
YKK_N1
  6
ByBlock
100
AcDbLine
 10
1631.60254038
 20
15865.6907475
 30
0.0
 11
1631.60254038
 21
15965.6907475
 31
0.0
  0
LINE
  5
111
330
44B
100
AcDbEntity
  8
YKK_N1
  6
ByBlock
100
AcDbLine
 10
2158.39745962
 20
15865.6907475
 30
0.0
 11
2245.0
 21
15915.6907475
 31
0.0
  0
LINE
  5
112
330
44B
100
AcDbEntity
  8
YKK_N1
  6
ByBlock
100
AcDbLine
 10
2245.0
 20
15915.6907475
 30
0.0
 11
2158.39745962
 21
15965.6907475
 31
0.0
  0
LINE
  5
113
330
44B
100
AcDbEntity
  8
YKK_N1
  6
ByBlock
100
AcDbLine
 10
2245.0
 20
15915.6907475
 30
0.0
 11
2145.0
 21
15915.6907475
 31
0.0
  0
LINE
  5
114
330
44B
100
AcDbEntity
  8
YKK_N1
  6
ByBlock
100
AcDbLine
 10
2158.39745962
 20
15965.6907475
 30
0.0
 11
2158.39745962
 21
15865.6907475
 31
0.0
  0
POINT
  5
115
330
44B
100
AcDbEntity
  8
YKK_N1
  6
ByBlock
100
AcDbPoint
 10
2245.0
 20
15915.6907475
 30
0.0
  0
TEXT
  5
116
330
44B
100
AcDbEntity
  8
0
100
AcDbText
 10
100.0
 20
19187.5
 30
0.0
 40
200.0
  1
ガラリ　ブラインドタイプ
  7
EXTFONT
100
AcDbText
  0
TEXT
  5
117
330
44B
100
AcDbEntity
  8
0
100
AcDbText
 10
100.0
 20
18737.5
 30
0.0
 40
200.0
  1
W＝700　H＝600
  7
EXTFONT
100
AcDbText
  0
LINE
  5
118
330
44B
100
AcDbEntity
  8
YKK_A1
100
AcDbLine
 10
2260.0
 20
16930.6907475
 30
0.0
 11
1530.0
 21
16930.6907475
 31
0.0
  0
LINE
  5
119
330
44B
100
AcDbEntity
  8
YKK_A1
100
AcDbLine
 10
2245.0
 20
16915.6907475
 30
0.0
 11
1545.0
 21
16915.6907475
 31
0.0
  0
LINE
  5
11A
330
44B
100
AcDbEntity
  8
YKK_A1
100
AcDbLine
 10
1563.0
 20
16447.6907475
 30
0.0
 11
2227.0
 21
16447.6907475
 31
0.0
  0
LINE
  5
11B
330
44B
100
AcDbEntity
  8
YKK_A1
100
AcDbLine
 10
1563.0
 20
16497.6907475
 30
0.0
 11
2227.0
 21
16497.6907475
 31
0.0
  0
LINE
  5
11C
330
44B
100
AcDbEntity
  8
YKK_A1
100
AcDbLine
 10
1563.0
 20
16477.6907475
 30
0.0
 11
2227.0
 21
16477.6907475
 31
0.0
  0
LINE
  5
11D
330
44B
100
AcDbEntity
  8
YKK_A1
100
AcDbLine
 10
1563.0
 20
16547.6907475
 30
0.0
 11
2227.0
 21
16547.6907475
 31
0.0
  0
LINE
  5
11E
330
44B
100
AcDbEntity
  8
YKK_A1
100
AcDbLine
 10
1563.0
 20
16527.6907475
 30
0.0
 11
2227.0
 21
16527.6907475
 31
0.0
  0
LINE
  5
11F
330
44B
100
AcDbEntity
  8
YKK_A1
100
AcDbLine
 10
1563.0
 20
16597.6907475
 30
0.0
 11
2227.0
 21
16597.6907475
 31
0.0
  0
LINE
  5
120
330
44B
100
AcDbEntity
  8
YKK_A1
100
AcDbLine
 10
1563.0
 20
16577.6907475
 30
0.0
 11
2227.0
 21
16577.6907475
 31
0.0
  0
LINE
  5
121
330
44B
100
AcDbEntity
  8
YKK_A1
100
AcDbLine
 10
1563.0
 20
16647.6907475
 30
0.0
 11
2227.0
 21
16647.6907475
 31
0.0
  0
LINE
  5
122
330
44B
100
AcDbEntity
  8
YKK_A1
100
AcDbLine
 10
1563.0
 20
16627.6907475
 30
0.0
 11
2227.0
 21
16627.6907475
 31
0.0
  0
LINE
  5
123
330
44B
100
AcDbEntity
  8
YKK_A1
100
AcDbLine
 10
1563.0
 20
16697.6907475
 30
0.0
 11
2227.0
 21
16697.6907475
 31
0.0
  0
LINE
  5
124
330
44B
100
AcDbEntity
  8
YKK_A1
100
AcDbLine
 10
1563.0
 20
16677.6907475
 30
0.0
 11
2227.0
 21
16677.6907475
 31
0.0
  0
LINE
  5
125
330
44B
100
AcDbEntity
  8
YKK_A1
100
AcDbLine
 10
1563.0
 20
16747.6907475
 30
0.0
 11
2227.0
 21
16747.6907475
 31
0.0
  0
LINE
  5
126
330
44B
100
AcDbEntity
  8
YKK_A1
100
AcDbLine
 10
1563.0
 20
16727.6907475
 30
0.0
 11
2227.0
 21
16727.6907475
 31
0.0
  0
LINE
  5
127
330
44B
100
AcDbEntity
  8
YKK_A1
100
AcDbLine
 10
1563.0
 20
16797.6907475
 30
0.0
 11
2227.0
 21
16797.6907475
 31
0.0
  0
LINE
  5
128
330
44B
100
AcDbEntity
  8
YKK_A1
100
AcDbLine
 10
1563.0
 20
16777.6907475
 30
0.0
 11
2227.0
 21
16777.6907475
 31
0.0
  0
LINE
  5
129
330
44B
100
AcDbEntity
  8
YKK_A1
100
AcDbLine
 10
1563.0
 20
16847.6907475
 30
0.0
 11
2227.0
 21
16847.6907475
 31
0.0
  0
LINE
  5
12A
330
44B
100
AcDbEntity
  8
YKK_A1
100
AcDbLine
 10
1563.0
 20
16827.6907475
 30
0.0
 11
2227.0
 21
16827.6907475
 31
0.0
  0
LINE
  5
12B
330
44B
100
AcDbEntity
  8
YKK_A1
100
AcDbLine
 10
1563.0
 20
16897.6907475
 30
0.0
 11
2227.0
 21
16897.6907475
 31
0.0
  0
LINE
  5
12C
330
44B
100
AcDbEntity
  8
YKK_A1
100
AcDbLine
 10
1563.0
 20
16877.6907475
 30
0.0
 11
2227.0
 21
16877.6907475
 31
0.0
  0
LINE
  5
12D
330
44B
100
AcDbEntity
  8
YKK_A1
100
AcDbLine
 10
1530.0
 20
16315.6907475
 30
0.0
 11
2260.0
 21
16315.6907475
 31
0.0
  0
LINE
  5
12E
330
44B
100
AcDbEntity
  8
YKK_A1
100
AcDbLine
 10
1545.0
 20
16315.6907475
 30
0.0
 11
2245.0
 21
16315.6907475
 31
0.0
  0
LINE
  5
12F
330
44B
100
AcDbEntity
  8
YKK_A1
100
AcDbLine
 10
1563.0
 20
16347.6907475
 30
0.0
 11
2227.0
 21
16347.6907475
 31
0.0
  0
LINE
  5
130
330
44B
100
AcDbEntity
  8
YKK_A1
100
AcDbLine
 10
1563.0
 20
16327.6907475
 30
0.0
 11
2227.0
 21
16327.6907475
 31
0.0
  0
LINE
  5
131
330
44B
100
AcDbEntity
  8
YKK_A1
100
AcDbLine
 10
1563.0
 20
16397.6907475
 30
0.0
 11
2227.0
 21
16397.6907475
 31
0.0
  0
LINE
  5
132
330
44B
100
AcDbEntity
  8
YKK_A1
100
AcDbLine
 10
1563.0
 20
16377.6907475
 30
0.0
 11
2227.0
 21
16377.6907475
 31
0.0
  0
LINE
  5
133
330
44B
100
AcDbEntity
  8
YKK_A1
100
AcDbLine
 10
1563.0
 20
16427.6907475
 30
0.0
 11
2227.0
 21
16427.6907475
 31
0.0
  0
LINE
  5
134
330
44B
100
AcDbEntity
  8
YKK_A1
100
AcDbLine
 10
1530.0
 20
16930.6907475
 30
0.0
 11
1530.0
 21
16315.6907475
 31
0.0
  0
LINE
  5
135
330
44B
100
AcDbEntity
  8
YKK_A1
100
AcDbLine
 10
1545.0
 20
16915.6907475
 30
0.0
 11
1545.0
 21
16315.6907475
 31
0.0
  0
LINE
  5
136
330
44B
100
AcDbEntity
  8
YKK_A1
100
AcDbLine
 10
1563.0
 20
16315.6907475
 30
0.0
 11
1563.0
 21
16915.6907475
 31
0.0
  0
POINT
  5
137
330
44B
100
AcDbEntity
  8
YKK_N1
  6
ByBlock
100
AcDbPoint
 10
1545.0
 20
16315.6907475
 30
0.0
  0
TEXT
  5
138
330
44B
100
AcDbEntity
  8
YKK_N1
100
AcDbText
 10
2635.0
 20
16491.11931893
 30
0.0
 40
60.0
  1
H=600
 50
90.0
 41
0.8
  7
YKK_SGSTYLE1
100
AcDbText
  0
LINE
  5
139
330
44B
100
AcDbEntity
  8
YKK_N1
  6
ByBlock
100
AcDbLine
 10
2305.0
 20
16915.6907475
 30
0.0
 11
2675.0
 21
16915.6907475
 31
0.0
  0
LINE
  5
13A
330
44B
100
AcDbEntity
  8
YKK_N1
  6
ByBlock
100
AcDbLine
 10
2305.0
 20
16315.6907475
 30
0.0
 11
2675.0
 21
16315.6907475
 31
0.0
  0
LINE
  5
13B
330
44B
100
AcDbEntity
  8
YKK_A1
100
AcDbLine
 10
2260.0
 20
16315.6907475
 30
0.0
 11
2260.0
 21
16930.6907475
 31
0.0
  0
LINE
  5
13C
330
44B
100
AcDbEntity
  8
YKK_A1
100
AcDbLine
 10
2245.0
 20
16315.6907475
 30
0.0
 11
2245.0
 21
16915.6907475
 31
0.0
  0
LINE
  5
13D
330
44B
100
AcDbEntity
  8
YKK_A1
100
AcDbLine
 10
2227.0
 20
16315.6907475
 30
0.0
 11
2227.0
 21
16915.6907475
 31
0.0
  0
POINT
  5
13E
330
44B
100
AcDbEntity
  8
YKK_N1
  6
ByBlock
100
AcDbPoint
 10
2245.0
 20
16315.6907475
 30
0.0
  0
POINT
  5
13F
330
44B
100
AcDbEntity
  8
YKK_N1
  6
ByBlock
100
AcDbPoint
 10
2245.0
 20
16315.6907475
 30
0.0
  0
POINT
  5
140
330
44B
100
AcDbEntity
  8
YKK_N1
  6
ByBlock
100
AcDbPoint
 10
2245.0
 20
16915.6907475
 30
0.0
  0
LINE
  5
141
330
44B
100
AcDbEntity
  8
YKK_N1
  6
ByBlock
100
AcDbLine
 10
2645.0
 20
16316.6907475
 30
0.0
 11
2645.0
 21
16914.6907475
 31
0.0
  0
LINE
  5
142
330
44B
100
AcDbEntity
  8
YKK_N1
  6
ByBlock
100
AcDbLine
 10
2595.0
 20
16402.29328788
 30
0.0
 11
2645.0
 21
16315.6907475
 31
0.0
  0
LINE
  5
143
330
44B
100
AcDbEntity
  8
YKK_N1
  6
ByBlock
100
AcDbLine
 10
2695.0
 20
16402.29328788
 30
0.0
 11
2595.0
 21
16402.29328788
 31
0.0
  0
LINE
  5
144
330
44B
100
AcDbEntity
  8
YKK_N1
  6
ByBlock
100
AcDbLine
 10
2645.0
 20
16315.6907475
 30
0.0
 11
2695.0
 21
16402.29328788
 31
0.0
  0
LINE
  5
145
330
44B
100
AcDbEntity
  8
YKK_N1
  6
ByBlock
100
AcDbLine
 10
2645.0
 20
16315.6907475
 30
0.0
 11
2645.0
 21
16415.6907475
 31
0.0
  0
LINE
  5
146
330
44B
100
AcDbEntity
  8
YKK_N1
  6
ByBlock
100
AcDbLine
 10
2695.0
 20
16829.08820713
 30
0.0
 11
2645.0
 21
16915.6907475
 31
0.0
  0
LINE
  5
147
330
44B
100
AcDbEntity
  8
YKK_N1
  6
ByBlock
100
AcDbLine
 10
2595.0
 20
16829.08820713
 30
0.0
 11
2695.0
 21
16829.08820713
 31
0.0
  0
LINE
  5
148
330
44B
100
AcDbEntity
  8
YKK_N1
  6
ByBlock
100
AcDbLine
 10
2645.0
 20
16915.6907475
 30
0.0
 11
2595.0
 21
16829.08820713
 31
0.0
  0
LINE
  5
149
330
44B
100
AcDbEntity
  8
YKK_N1
  6
ByBlock
100
AcDbLine
 10
2645.0
 20
16915.6907475
 30
0.0
 11
2645.0
 21
16815.6907475
 31
0.0
  0
POINT
  5
14A
330
44B
100
AcDbEntity
  8
YKK_N1
  6
ByBlock
100
AcDbPoint
 10
2645.0
 20
16915.6907475
 30
0.0
  0
LINE
  5
14B
330
44B
100
AcDbEntity
  8
YKK_N1
  6
ByBlock
100
AcDbLine
 10
4170.0
 20
16295.6907475
 30
0.0
 11
4170.0
 21
15635.6907475
 31
0.0
  0
LINE
  5
14C
330
44B
100
AcDbEntity
  8
YKK_N1
  6
ByBlock
100
AcDbLine
 10
9870.0
 20
16295.6907475
 30
0.0
 11
9870.0
 21
15635.6907475
 31
0.0
  0
LINE
  5
14D
330
44B
100
AcDbEntity
  8
YKK_N1
  6
ByBlock
100
AcDbLine
 10
7945.0
 20
16255.6907475
 30
0.0
 11
7945.0
 21
15885.6907475
 31
0.0
  0
LINE
  5
14E
330
44B
100
AcDbEntity
  8
YKK_N1
  6
ByBlock
100
AcDbLine
 10
7245.0
 20
16255.6907475
 30
0.0
 11
7245.0
 21
15885.6907475
 31
0.0
  0
LINE
  5
14F
330
44B
100
AcDbEntity
  8
YKK_C1
100
AcDbLine
 10
9400.0
 20
16265.6907475
 30
0.0
 11
9400.0
 21
16248.1907475
 31
0.0
  0
LINE
  5
150
330
44B
100
AcDbEntity
  8
YKK_C1
100
AcDbLine
 10
3700.0
 20
16265.6907475
 30
0.0
 11
3700.0
 21
16248.1907475
 31
0.0
  0
LINE
  5
151
330
44B
100
AcDbEntity
  8
YKK_Z1
  6
Continuous
100
AcDbLine
 10
9360.0
 20
16253.1907475
 30
0.0
 11
9360.0
 21
16238.1907475
 31
0.0
  0
LINE
  5
152
330
44B
100
AcDbEntity
  8
YKK_Z1
  6
Continuous
100
AcDbLine
 10
9600.0
 20
16295.6907475
 30
0.0
 11
9600.0
 21
15915.6907475
 31
0.0
  0
LINE
  5
153
330
44B
100
AcDbEntity
  8
YKK_Z1
  6
Continuous
100
AcDbLine
 10
9587.5
 20
15915.6907475
 30
0.0
 11
9587.5
 21
16295.6907475
 31
0.0
  0
LINE
  5
154
330
44B
100
AcDbEntity
  8
YKK_Z1
  6
Continuous
100
AcDbLine
 10
3900.0
 20
16295.6907475
 30
0.0
 11
3900.0
 21
15915.6907475
 31
0.0
  0
LINE
  5
155
330
44B
100
AcDbEntity
  8
YKK_Z1
  6
Continuous
100
AcDbLine
 10
3887.5
 20
15915.6907475
 30
0.0
 11
3887.5
 21
16295.6907475
 31
0.0
  0
LINE
  5
156
330
44B
100
AcDbEntity
  8
YKK_Z1
  6
Continuous
100
AcDbLine
 10
3660.0
 20
16253.1907475
 30
0.0
 11
3660.0
 21
16238.1907475
 31
0.0
  0
LINE
  5
157
330
44B
100
AcDbEntity
  8
YKK_Z1
  6
Continuous
100
AcDbLine
 10
3852.0
 20
16248.1907475
 30
0.0
 11
3872.0
 21
16248.1907475
 31
0.0
  0
LINE
  5
159
330
44B
100
AcDbEntity
  8
YKK_Z1
  6
Continuous
100
AcDbLine
 10
3872.0
 20
16248.1907475
 30
0.0
 11
3852.0
 21
16228.19074404
 31
0.0
  0
LINE
  5
15A
330
44B
100
AcDbEntity
  8
YKK_Z1
  6
Continuous
100
AcDbLine
 10
3872.0
 20
16228.19074404
 30
0.0
 11
3852.0
 21
16208.19074058
 31
0.0
  0
LINE
  5
15B
330
44B
100
AcDbEntity
  8
YKK_Z1
  6
Continuous
100
AcDbLine
 10
3872.0
 20
16208.19074058
 30
0.0
 11
3852.0
 21
16188.19073711
 31
0.0
  0
LINE
  5
15C
330
44B
100
AcDbEntity
  8
YKK_Z1
  6
Continuous
100
AcDbLine
 10
3872.0
 20
16188.19073711
 30
0.0
 11
3852.0
 21
16168.19073365
 31
0.0
  0
LINE
  5
15D
330
44B
100
AcDbEntity
  8
YKK_Z1
  6
Continuous
100
AcDbLine
 10
3872.0
 20
16168.19073365
 30
0.0
 11
3852.0
 21
16148.19073018
 31
0.0
  0
LINE
  5
15E
330
44B
100
AcDbEntity
  8
YKK_Z1
  6
Continuous
100
AcDbLine
 10
3872.0
 20
16148.19073018
 30
0.0
 11
3852.0
 21
16128.19072672
 31
0.0
  0
LINE
  5
15F
330
44B
100
AcDbEntity
  8
YKK_Z1
  6
Continuous
100
AcDbLine
 10
3852.0
 20
16248.1907475
 30
0.0
 11
3872.0
 21
16228.1907579
 31
0.0
  0
LINE
  5
160
330
44B
100
AcDbEntity
  8
YKK_Z1
  6
Continuous
100
AcDbLine
 10
3852.0
 20
16228.1907579
 30
0.0
 11
3872.0
 21
16208.19076829
 31
0.0
  0
LINE
  5
161
330
44B
100
AcDbEntity
  8
YKK_Z1
  6
Continuous
100
AcDbLine
 10
3852.0
 20
16208.19076829
 30
0.0
 11
3872.0
 21
16188.19077868
 31
0.0
  0
LINE
  5
162
330
44B
100
AcDbEntity
  8
YKK_Z1
  6
Continuous
100
AcDbLine
 10
3852.0
 20
16188.19077868
 30
0.0
 11
3872.0
 21
16168.19078907
 31
0.0
  0
LINE
  5
163
330
44B
100
AcDbEntity
  8
YKK_Z1
  6
Continuous
100
AcDbLine
 10
3852.0
 20
16168.19078907
 30
0.0
 11
3872.0
 21
16148.19079947
 31
0.0
  0
LINE
  5
164
330
44B
100
AcDbEntity
  8
YKK_Z1
  6
Continuous
100
AcDbLine
 10
3852.0
 20
16148.19079947
 30
0.0
 11
3872.0
 21
16128.19080986
 31
0.0
  0
LINE
  5
165
330
44B
100
AcDbEntity
  8
YKK_Z1
  6
Continuous
100
AcDbLine
 10
3792.0
 20
16248.1907475
 30
0.0
 11
3782.0
 21
16233.1907475
 31
0.0
  0
LINE
  5
166
330
44B
100
AcDbEntity
  8
YKK_Z1
  6
Continuous
100
AcDbLine
 10
3852.0
 20
16248.1907475
 30
0.0
 11
3792.0
 21
16248.1907475
 31
0.0
  0
LINE
  5
167
330
44B
100
AcDbEntity
  8
YKK_Z1
  6
Continuous
100
AcDbLine
 10
3872.0
 20
16108.19072326
 30
0.0
 11
3852.0
 21
16088.19071979
 31
0.0
  0
LINE
  5
168
330
44B
100
AcDbEntity
  8
YKK_Z1
  6
Continuous
100
AcDbLine
 10
3872.0
 20
16088.19071979
 30
0.0
 11
3852.0
 21
16068.19071633
 31
0.0
  0
LINE
  5
169
330
44B
100
AcDbEntity
  8
YKK_Z1
  6
Continuous
100
AcDbLine
 10
3872.0
 20
16068.19071633
 30
0.0
 11
3852.0
 21
16048.19071286
 31
0.0
  0
LINE
  5
16A
330
44B
100
AcDbEntity
  8
YKK_Z1
  6
Continuous
100
AcDbLine
 10
3872.0
 20
16048.19071286
 30
0.0
 11
3852.0
 21
16028.1907094
 31
0.0
  0
LINE
  5
16B
330
44B
100
AcDbEntity
  8
YKK_Z1
  6
Continuous
100
AcDbLine
 10
3872.0
 20
16028.1907094
 30
0.0
 11
3852.0
 21
16008.19070593
 31
0.0
  0
LINE
  5
16C
330
44B
100
AcDbEntity
  8
YKK_Z1
  6
Continuous
100
AcDbLine
 10
3872.0
 20
16008.19070593
 30
0.0
 11
3852.0
 21
15988.19070247
 31
0.0
  0
LINE
  5
16D
330
44B
100
AcDbEntity
  8
YKK_Z1
  6
Continuous
100
AcDbLine
 10
3872.0
 20
15988.19070247
 30
0.0
 11
3852.0
 21
15968.19069901
 31
0.0
  0
LINE
  5
16E
330
44B
100
AcDbEntity
  8
YKK_Z1
  6
Continuous
100
AcDbLine
 10
3872.0
 20
15968.19069901
 30
0.0
 11
3852.0
 21
15948.19069554
 31
0.0
  0
LINE
  5
16F
330
44B
100
AcDbEntity
  8
YKK_Z1
  6
Continuous
100
AcDbLine
 10
3852.0
 20
16108.19082025
 30
0.0
 11
3872.0
 21
16088.19083064
 31
0.0
  0
LINE
  5
170
330
44B
100
AcDbEntity
  8
YKK_Z1
  6
Continuous
100
AcDbLine
 10
3852.0
 20
16088.19083064
 30
0.0
 11
3872.0
 21
16068.19084103
 31
0.0
  0
LINE
  5
171
330
44B
100
AcDbEntity
  8
YKK_Z1
  6
Continuous
100
AcDbLine
 10
3852.0
 20
16068.19084103
 30
0.0
 11
3872.0
 21
16048.19085143
 31
0.0
  0
LINE
  5
172
330
44B
100
AcDbEntity
  8
YKK_Z1
  6
Continuous
100
AcDbLine
 10
3852.0
 20
16048.19085143
 30
0.0
 11
3872.0
 21
16028.19086182
 31
0.0
  0
LINE
  5
173
330
44B
100
AcDbEntity
  8
YKK_Z1
  6
Continuous
100
AcDbLine
 10
3852.0
 20
16028.19086182
 30
0.0
 11
3872.0
 21
16008.19087221
 31
0.0
  0
LINE
  5
174
330
44B
100
AcDbEntity
  8
YKK_Z1
  6
Continuous
100
AcDbLine
 10
3852.0
 20
16008.19087221
 30
0.0
 11
3872.0
 21
15988.1908826
 31
0.0
  0
LINE
  5
175
330
44B
100
AcDbEntity
  8
YKK_Z1
  6
Continuous
100
AcDbLine
 10
3852.0
 20
15988.1908826
 30
0.0
 11
3872.0
 21
15968.190893
 31
0.0
  0
LINE
  5
176
330
44B
100
AcDbEntity
  8
YKK_Z1
  6
Continuous
100
AcDbLine
 10
3852.0
 20
15968.190893
 30
0.0
 11
3872.0
 21
15948.19090339
 31
0.0
  0
LINE
  5
178
330
44B
100
AcDbEntity
  8
YKK_Z1
  6
Continuous
100
AcDbLine
 10
3872.0
 20
15928.19069208
 30
0.0
 11
3859.50005759
 21
15915.6907475
 31
0.0
  0
LINE
  5
179
330
44B
100
AcDbEntity
  8
YKK_Z1
  6
Continuous
100
AcDbLine
 10
3852.0
 20
15928.19091378
 30
0.0
 11
3864.50017277
 21
15915.6907475
 31
0.0
  0
LINE
  5
17A
330
44B
100
AcDbEntity
  8
YKK_Z1
  6
Continuous
100
AcDbLine
 10
3872.0
 20
15948.19069554
 30
0.0
 11
3852.0
 21
15928.19069208
 31
0.0
  0
LINE
  5
17B
330
44B
100
AcDbEntity
  8
YKK_Z1
  6
Continuous
100
AcDbLine
 10
3852.0
 20
15948.19090339
 30
0.0
 11
3872.0
 21
15928.19091378
 31
0.0
  0
LINE
  5
17C
330
44B
100
AcDbEntity
  8
YKK_Z1
  6
Continuous
100
AcDbLine
 10
3852.0
 20
15915.6907475
 30
0.0
 11
3852.0
 21
16248.1907475
 31
0.0
  0
LINE
  5
17D
330
44B
100
AcDbEntity
  8
YKK_Z1
  6
CENTER
100
AcDbLine
 10
3762.0
 20
16243.1907475
 30
0.0
 11
3762.0
 21
15915.6907475
 31
0.0
  0
LINE
  5
17E
330
44B
100
AcDbEntity
  8
YKK_Z1
  6
Continuous
100
AcDbLine
 10
3872.0
 20
16248.1907475
 30
0.0
 11
3872.0
 21
15915.6907475
 31
0.0
  0
LINE
  5
17F
330
44B
100
AcDbEntity
  8
YKK_Z1
  6
Continuous
100
AcDbLine
 10
3872.0
 20
16128.19072672
 30
0.0
 11
3852.0
 21
16108.19072326
 31
0.0
  0
LINE
  5
180
330
44B
100
AcDbEntity
  8
YKK_Z1
  6
Continuous
100
AcDbLine
 10
3852.0
 20
16128.19080986
 30
0.0
 11
3872.0
 21
16108.19082025
 31
0.0
  0
LINE
  5
181
330
44B
100
AcDbEntity
  8
YKK_Z1
  6
Continuous
100
AcDbLine
 10
3660.0
 20
16238.1907475
 30
0.0
 11
3668.0
 21
16238.1907475
 31
0.0
  0
LINE
  5
182
330
44B
100
AcDbEntity
  8
YKK_Z1
  6
Continuous
100
AcDbLine
 10
3660.0
 20
16138.1907475
 30
0.0
 11
3668.0
 21
16138.1907475
 31
0.0
  0
LINE
  5
183
330
44B
100
AcDbEntity
  8
YKK_Z1
  6
Continuous
100
AcDbLine
 10
3660.0
 20
16128.1907475
 30
0.0
 11
3668.0
 21
16128.1907475
 31
0.0
  0
LINE
  5
184
330
44B
100
AcDbEntity
  8
YKK_Z1
  6
Continuous
100
AcDbLine
 10
3660.0
 20
16028.1907475
 30
0.0
 11
3668.0
 21
16028.1907475
 31
0.0
  0
LINE
  5
185
330
44B
100
AcDbEntity
  8
YKK_Z1
  6
Continuous
100
AcDbLine
 10
3660.0
 20
16018.1907475
 30
0.0
 11
3668.0
 21
16018.1907475
 31
0.0
  0
LINE
  5
186
330
44B
100
AcDbEntity
  8
YKK_Z1
  6
Continuous
100
AcDbLine
 10
3660.0
 20
15918.1907475
 30
0.0
 11
3668.0
 21
15918.1907475
 31
0.0
  0
LINE
  5
187
330
44B
100
AcDbEntity
  8
YKK_Z1
  6
Continuous
100
AcDbLine
 10
3660.0
 20
15908.1907475
 30
0.0
 11
3668.0
 21
15908.1907475
 31
0.0
  0
LINE
  5
188
330
44B
100
AcDbEntity
  8
YKK_Z1
  6
Continuous
100
AcDbLine
 10
3672.0
 20
16233.1907475
 30
0.0
 11
3672.0
 21
15915.6907475
 31
0.0
  0
LINE
  5
189
330
44B
100
AcDbEntity
  8
YKK_Z1
  6
Continuous
100
AcDbLine
 10
3660.0
 20
16238.1907475
 30
0.0
 11
3660.0
 21
15915.6907475
 31
0.0
  0
LINE
  5
18A
330
44B
100
AcDbEntity
  8
YKK_Z1
  6
Continuous
100
AcDbLine
 10
3668.0
 20
16238.1907475
 30
0.0
 11
3668.0
 21
15915.6907475
 31
0.0
  0
LINE
  5
18B
330
44B
100
AcDbEntity
  8
YKK_Z1
  6
Continuous
100
AcDbLine
 10
3782.0
 20
16233.1907475
 30
0.0
 11
3672.0
 21
16233.1907475
 31
0.0
  0
LINE
  5
18C
330
44B
100
AcDbEntity
  8
YKK_Z1
  6
Continuous
100
AcDbLine
 10
3852.0
 20
16212.67567276
 30
0.0
 11
3672.0
 21
16032.67564158
 31
0.0
  0
LINE
  5
18D
330
44B
100
AcDbEntity
  8
YKK_Z1
  6
Continuous
100
AcDbLine
 10
3852.0
 20
16204.19038918
 30
0.0
 11
3672.0
 21
16024.19035801
 31
0.0
  0
LINE
  5
18E
330
44B
100
AcDbEntity
  8
YKK_Z1
  6
Continuous
100
AcDbLine
 10
3852.0
 20
16184.39139417
 30
0.0
 11
3672.0
 21
16004.39136299
 31
0.0
  0
LINE
  5
18F
330
44B
100
AcDbEntity
  8
YKK_Z1
  6
CENTER
100
AcDbLine
 10
4070.0
 20
15615.6907475
 30
0.0
 11
4570.0
 21
15615.6907475
 31
0.0
  0
LINE
  5
190
330
44B
100
AcDbEntity
  8
YKK_N1
100
AcDbLine
 10
4170.0
 20
15615.6907475
 30
0.0
 11
4170.0
 21
15635.6907475
 31
0.0
  0
CIRCLE
  5
191
330
44B
100
AcDbEntity
  8
YKK_N1
100
AcDbCircle
 10
4170.0
 20
15615.6907475
 30
0.0
 40
6.5
  0
CIRCLE
  5
192
330
44B
100
AcDbEntity
  8
YKK_N1
100
AcDbCircle
 10
4170.0
 20
15615.6907475
 30
0.0
 40
10.0
  0
POINT
  5
193
330
44B
100
AcDbEntity
  8
YKK_N1
  6
ByBlock
100
AcDbPoint
 10
4170.0
 20
15615.6907475
 30
0.0
  0
POINT
  5
194
330
44B
100
AcDbEntity
  8
YKK_N1
  6
ByBlock
100
AcDbPoint
 10
4170.0
 20
15615.6907475
 30
0.0
  0
LINE
  5
195
330
44B
100
AcDbEntity
  8
YKK_Z1
  6
ByBlock
 62
     0
100
AcDbLine
 10
4486.92673029
 20
15675.6907475
 30
0.0
 11
4452.28571429
 21
15615.6907475
 31
0.0
  0
LINE
  5
196
330
44B
100
AcDbEntity
  8
YKK_Z1
  6
ByBlock
 62
     0
100
AcDbLine
 10
4417.64469829
 20
15675.6907475
 30
0.0
 11
4486.92673029
 21
15675.6907475
 31
0.0
  0
LINE
  5
197
330
44B
100
AcDbEntity
  8
YKK_Z1
  6
ByBlock
 62
     0
100
AcDbLine
 10
4452.28571429
 20
15615.6907475
 30
0.0
 11
4417.64469829
 21
15675.6907475
 31
0.0
  0
TEXT
  5
198
330
44B
100
AcDbEntity
  8
YKK_Z1
100
AcDbText
 10
4492.28571429
 20
15625.6907475
 30
0.0
 40
60.0
  1
FL
 41
0.8
  7
YKK_SGSTYLE1
 72
     2
 11
4570.0
 21
15625.6907475
 31
0.0
100
AcDbText
  0
TEXT
  5
199
330
44B
100
AcDbEntity
  8
YKK_N1
100
AcDbText
 10
4160.0
 20
15897.11931893
 30
0.0
 40
60.0
  1
700
 50
90.0
 41
0.8
  7
YKK_SGSTYLE1
100
AcDbText
  0
TEXT
  5
19A
330
44B
100
AcDbEntity
  8
YKK_N1
100
AcDbText
 10
7435.0
 20
13884.0
 30
0.0
 40
60.0
  1
137
 50
90.0
 41
0.8
  7
YKK_SGSTYLE1
100
AcDbText
  0
LINE
  5
19B
330
44B
100
AcDbEntity
  8
YKK_N1
  6
ByBlock
100
AcDbLine
 10
7300.0
 20
13887.5
 30
0.0
 11
7475.0
 21
13887.5
 31
0.0
  0
LINE
  5
19C
330
44B
100
AcDbEntity
  8
YKK_N1
  6
ByBlock
100
AcDbLine
 10
7246.0
 20
13624.5
 30
0.0
 11
7944.0
 21
13624.5
 31
0.0
  0
LINE
  5
19D
330
44B
100
AcDbEntity
  8
YKK_B1
100
AcDbLine
 10
7215.0
 20
14054.2
 30
0.0
 11
7975.0
 21
14054.2
 31
0.0
  0
LINE
  5
19E
330
44B
100
AcDbEntity
  8
YKK_B1
100
AcDbLine
 10
7215.0
 20
14094.2
 30
0.0
 11
7975.0
 21
14094.2
 31
0.0
  0
LINE
  5
19F
330
44B
100
AcDbEntity
  8
YKK_B1
100
AcDbLine
 10
7265.0
 20
14024.5
 30
0.0
 11
7925.0
 21
14024.5
 31
0.0
  0
LINE
  5
1A0
330
44B
100
AcDbEntity
  8
YKK_B1
100
AcDbLine
 10
7235.0
 20
14149.5
 30
0.0
 11
7955.0
 21
14149.5
 31
0.0
  0
LINE
  5
1A1
330
44B
100
AcDbEntity
  8
YKK_Z1
  6
Continuous
100
AcDbLine
 10
7215.0
 20
13884.5
 30
0.0
 11
7595.0
 21
13884.5
 31
0.0
  0
LINE
  5
1A2
330
44B
100
AcDbEntity
  8
YKK_N1
  6
ByBlock
100
AcDbLine
 10
7245.0
 20
13964.5
 30
0.0
 11
7245.0
 21
13594.5
 31
0.0
  0
LINE
  5
1A3
330
44B
100
AcDbEntity
  8
YKK_Z1
  6
Continuous
100
AcDbLine
 10
7215.0
 20
13907.0
 30
0.0
 11
7215.0
 21
13894.5
 31
0.0
  0
LINE
  5
1A4
330
44B
100
AcDbEntity
  8
YKK_Z1
100
AcDbLine
 10
7240.0
 20
14024.5
 30
0.0
 11
7240.0
 21
13887.5
 31
0.0
  0
LINE
  5
1A5
330
44B
100
AcDbEntity
  8
YKK_Z1
  6
Continuous
100
AcDbLine
 10
7215.0
 20
13894.5
 30
0.0
 11
6845.0
 21
13894.5
 31
0.0
  0
LINE
  5
1A6
330
44B
100
AcDbEntity
  8
YKK_N1
  6
ByBlock
100
AcDbLine
 10
7331.60254038
 20
13674.5
 30
0.0
 11
7245.0
 21
13624.5
 31
0.0
  0
LINE
  5
1A7
330
44B
100
AcDbEntity
  8
YKK_N1
  6
ByBlock
100
AcDbLine
 10
7331.60254038
 20
13574.5
 30
0.0
 11
7331.60254038
 21
13674.5
 31
0.0
  0
LINE
  5
1A8
330
44B
100
AcDbEntity
  8
YKK_N1
  6
ByBlock
100
AcDbLine
 10
7245.0
 20
13624.5
 30
0.0
 11
7331.60254038
 21
13574.5
 31
0.0
  0
LINE
  5
1A9
330
44B
100
AcDbEntity
  8
YKK_N1
  6
ByBlock
100
AcDbLine
 10
7245.0
 20
13624.5
 30
0.0
 11
7345.0
 21
13624.5
 31
0.0
  0
POINT
  5
1AA
330
44B
100
AcDbEntity
  8
YKK_N1
  6
ByBlock
100
AcDbPoint
 10
7240.0
 20
13887.5
 30
0.0
  0
LINE
  5
1AB
330
44B
100
AcDbEntity
  8
YKK_Z1
  6
Continuous
100
AcDbLine
 10
7215.0
 20
13887.5
 30
0.0
 11
7215.0
 21
13884.5
 31
0.0
  0
LINE
  5
1AC
330
44B
100
AcDbEntity
  8
YKK_Z1
100
AcDbLine
 10
7215.0
 20
13887.5
 30
0.0
 11
7215.0
 21
13897.5
 31
0.0
  0
LINE
  5
1AD
330
44B
100
AcDbEntity
  8
YKK_Z1
100
AcDbLine
 10
7240.0
 20
13887.5
 30
0.0
 11
7215.0
 21
13887.5
 31
0.0
  0
LINE
  5
1AE
330
44B
100
AcDbEntity
  8
YKK_Z1
  6
Continuous
100
AcDbLine
 10
7082.49998614
 20
13922.5
 30
0.0
 11
7062.49998268
 21
13942.5
 31
0.0
  0
LINE
  5
1AF
330
44B
100
AcDbEntity
  8
YKK_Z1
  6
Continuous
100
AcDbLine
 10
7082.50004157
 20
13942.5
 30
0.0
 11
7062.50005196
 21
13922.5
 31
0.0
  0
LINE
  5
1B0
330
44B
100
AcDbEntity
  8
YKK_Z1
  6
Continuous
100
AcDbLine
 10
6845.0
 20
13942.5
 30
0.0
 11
7162.5
 21
13942.5
 31
0.0
  0
LINE
  5
1B1
330
44B
100
AcDbEntity
  8
YKK_Z1
  6
Continuous
100
AcDbLine
 10
7177.5
 20
14122.5
 30
0.0
 11
6845.0
 21
14122.5
 31
0.0
  0
LINE
  5
1B2
330
44B
100
AcDbEntity
  8
YKK_Z1
  6
CENTER
100
AcDbLine
 10
7179.25
 20
14032.5
 30
0.0
 11
6845.0
 21
14032.5
 31
0.0
  0
LINE
  5
1B3
330
44B
100
AcDbEntity
  8
YKK_Z1
  6
Continuous
100
AcDbLine
 10
7162.5
 20
13922.5
 30
0.0
 11
6845.0
 21
13922.5
 31
0.0
  0
LINE
  5
1B4
330
44B
100
AcDbEntity
  8
YKK_Z1
  6
Continuous
100
AcDbLine
 10
7176.0
 20
14134.5
 30
0.0
 11
6845.0
 21
14134.5
 31
0.0
  0
LINE
  5
1B5
330
44B
100
AcDbEntity
  8
YKK_Z1
  6
Continuous
100
AcDbLine
 10
7176.0
 20
14126.5
 30
0.0
 11
6845.0
 21
14126.5
 31
0.0
  0
LINE
  5
1B6
330
44B
100
AcDbEntity
  8
YKK_Z1
  6
Continuous
100
AcDbLine
 10
6845.0
 20
13907.0
 30
0.0
 11
7215.0
 21
13907.0
 31
0.0
  0
LINE
  5
1B7
330
44B
100
AcDbEntity
  8
YKK_Z1
  6
Continuous
100
AcDbLine
 10
7066.0
 20
14134.5
 30
0.0
 11
7066.0
 21
14126.5
 31
0.0
  0
LINE
  5
1B8
330
44B
100
AcDbEntity
  8
YKK_Z1
  6
Continuous
100
AcDbLine
 10
6966.0
 20
14134.5
 30
0.0
 11
6966.0
 21
14126.5
 31
0.0
  0
LINE
  5
1B9
330
44B
100
AcDbEntity
  8
YKK_Z1
  6
Continuous
100
AcDbLine
 10
6956.0
 20
14134.5
 30
0.0
 11
6956.0
 21
14126.5
 31
0.0
  0
LINE
  5
1BA
330
44B
100
AcDbEntity
  8
YKK_Z1
  6
Continuous
100
AcDbLine
 10
7042.49997922
 20
13922.5
 30
0.0
 11
7022.49997575
 21
13942.5
 31
0.0
  0
LINE
  5
1BB
330
44B
100
AcDbEntity
  8
YKK_Z1
  6
Continuous
100
AcDbLine
 10
7022.49997575
 20
13922.5
 30
0.0
 11
7002.49997229
 21
13942.5
 31
0.0
  0
LINE
  5
1BC
330
44B
100
AcDbEntity
  8
YKK_Z1
  6
Continuous
100
AcDbLine
 10
7002.49997229
 20
13922.5
 30
0.0
 11
6982.49996882
 21
13942.5
 31
0.0
  0
LINE
  5
1BD
330
44B
100
AcDbEntity
  8
YKK_Z1
  6
Continuous
100
AcDbLine
 10
6982.49996882
 20
13922.5
 30
0.0
 11
6962.49996536
 21
13942.5
 31
0.0
  0
LINE
  5
1BE
330
44B
100
AcDbEntity
  8
YKK_Z1
  6
Continuous
100
AcDbLine
 10
6962.49996536
 20
13922.5
 30
0.0
 11
6942.49996189
 21
13942.5
 31
0.0
  0
LINE
  5
1BF
330
44B
100
AcDbEntity
  8
YKK_Z1
  6
Continuous
100
AcDbLine
 10
7042.50006235
 20
13942.5
 30
0.0
 11
7022.50007275
 21
13922.5
 31
0.0
  0
LINE
  5
1C0
330
44B
100
AcDbEntity
  8
YKK_Z1
  6
Continuous
100
AcDbLine
 10
7022.50007275
 20
13942.5
 30
0.0
 11
7002.50008314
 21
13922.5
 31
0.0
  0
LINE
  5
1C1
330
44B
100
AcDbEntity
  8
YKK_Z1
  6
Continuous
100
AcDbLine
 10
7002.50008314
 20
13942.5
 30
0.0
 11
6982.50009353
 21
13922.5
 31
0.0
  0
LINE
  5
1C2
330
44B
100
AcDbEntity
  8
YKK_Z1
  6
Continuous
100
AcDbLine
 10
6982.50009353
 20
13942.5
 30
0.0
 11
6962.50010392
 21
13922.5
 31
0.0
  0
LINE
  5
1C3
330
44B
100
AcDbEntity
  8
YKK_Z1
  6
Continuous
100
AcDbLine
 10
6962.50010392
 20
13942.5
 30
0.0
 11
6942.50011432
 21
13922.5
 31
0.0
  0
LINE
  5
1C4
330
44B
100
AcDbEntity
  8
YKK_Z1
  6
Continuous
100
AcDbLine
 10
7062.49998268
 20
13922.5
 30
0.0
 11
7042.49997922
 21
13942.5
 31
0.0
  0
LINE
  5
1C5
330
44B
100
AcDbEntity
  8
YKK_Z1
  6
Continuous
100
AcDbLine
 10
7062.50005196
 20
13942.5
 30
0.0
 11
7042.50006235
 21
13922.5
 31
0.0
  0
LINE
  5
1C6
330
44B
100
AcDbEntity
  8
YKK_Z1
  6
Continuous
100
AcDbLine
 10
6856.0
 20
14134.5
 30
0.0
 11
6856.0
 21
14126.5
 31
0.0
  0
LINE
  5
1C7
330
44B
100
AcDbEntity
  8
YKK_Z1
  6
Continuous
100
AcDbLine
 10
6846.0
 20
14134.5
 30
0.0
 11
6846.0
 21
14126.5
 31
0.0
  0
LINE
  5
1C8
330
44B
100
AcDbEntity
  8
YKK_Z1
  6
Continuous
100
AcDbLine
 10
6922.49995843
 20
13922.5
 30
0.0
 11
6902.49995497
 21
13942.5
 31
0.0
  0
LINE
  5
1C9
330
44B
100
AcDbEntity
  8
YKK_Z1
  6
Continuous
100
AcDbLine
 10
6902.49995497
 20
13922.5
 30
0.0
 11
6882.4999515
 21
13942.5
 31
0.0
  0
LINE
  5
1CA
330
44B
100
AcDbEntity
  8
YKK_Z1
  6
Continuous
100
AcDbLine
 10
6882.4999515
 20
13922.5
 30
0.0
 11
6862.49994804
 21
13942.5
 31
0.0
  0
LINE
  5
1CB
330
44B
100
AcDbEntity
  8
YKK_Z1
  6
Continuous
100
AcDbLine
 10
6862.49994804
 20
13922.5
 30
0.0
 11
6845.0
 21
13939.99994501
 31
0.0
  0
LINE
  5
1CC
330
44B
100
AcDbEntity
  8
YKK_Z1
  6
Continuous
100
AcDbLine
 10
6922.50012471
 20
13942.5
 30
0.0
 11
6902.5001351
 21
13922.5
 31
0.0
  0
LINE
  5
1CD
330
44B
100
AcDbEntity
  8
YKK_Z1
  6
Continuous
100
AcDbLine
 10
6902.5001351
 20
13942.5
 30
0.0
 11
6882.50014549
 21
13922.5
 31
0.0
  0
LINE
  5
1CE
330
44B
100
AcDbEntity
  8
YKK_Z1
  6
Continuous
100
AcDbLine
 10
6882.50014549
 20
13942.5
 30
0.0
 11
6862.50015588
 21
13922.5
 31
0.0
  0
LINE
  5
1CF
330
44B
100
AcDbEntity
  8
YKK_Z1
  6
Continuous
100
AcDbLine
 10
6862.50015588
 20
13942.5
 30
0.0
 11
6845.0
 21
13924.99983502
 31
0.0
  0
LINE
  5
1D0
330
44B
100
AcDbEntity
  8
YKK_Z1
  6
Continuous
100
AcDbLine
 10
7024.99990647
 20
14122.5
 30
0.0
 11
6845.0
 21
13942.5
 31
0.0
  0
LINE
  5
1D1
330
44B
100
AcDbEntity
  8
YKK_Z1
  6
Continuous
100
AcDbLine
 10
7033.48518417
 20
14122.5
 30
0.0
 11
6853.4852777
 21
13942.5
 31
0.0
  0
LINE
  5
1D2
330
44B
100
AcDbEntity
  8
YKK_Z1
  6
Continuous
100
AcDbLine
 10
7053.28416547
 20
14122.5
 30
0.0
 11
6873.284259
 21
13942.5
 31
0.0
  0
LINE
  5
1D3
330
44B
100
AcDbEntity
  8
YKK_Z1
  6
Continuous
100
AcDbLine
 10
6942.49996189
 20
13922.5
 30
0.0
 11
6922.49995843
 21
13942.5
 31
0.0
  0
LINE
  5
1D4
330
44B
100
AcDbEntity
  8
YKK_Z1
  6
Continuous
100
AcDbLine
 10
6942.50011432
 20
13942.5
 30
0.0
 11
6922.50012471
 21
13922.5
 31
0.0
  0
TEXT
  5
1D5
330
44B
100
AcDbEntity
  8
YKK_N1
100
AcDbText
 10
7400.0
 20
14015.0
 30
0.0
 40
60.0
  1
125
 50
90.0
 41
0.8
  7
YKK_SGSTYLE1
100
AcDbText
  0
LINE
  5
1D6
330
44B
100
AcDbEntity
  8
YKK_N1
  6
ByBlock
100
AcDbLine
 10
7385.0
 20
14024.5
 30
0.0
 11
7415.0
 21
14024.5
 31
0.0
  0
POINT
  5
1D7
330
44B
100
AcDbEntity
  8
YKK_N1
  6
ByBlock
100
AcDbPoint
 10
7245.0
 20
14024.5
 30
0.0
  0
LINE
  5
1D8
330
44B
100
AcDbEntity
  8
YKK_N1
  6
ByBlock
100
AcDbLine
 10
7395.0
 20
14149.5
 30
0.0
 11
7415.0
 21
14149.5
 31
0.0
  0
LINE
  5
1D9
330
44B
100
AcDbEntity
  8
YKK_N1
  6
ByBlock
100
AcDbLine
 10
7395.0
 20
14024.5
 30
0.0
 11
7415.0
 21
14024.5
 31
0.0
  0
LINE
  5
1DA
330
44B
100
AcDbEntity
  8
YKK_B1
100
AcDbLine
 10
7205.0
 20
14149.5
 30
0.0
 11
7200.0
 21
14149.5
 31
0.0
  0
LINE
  5
1DB
330
44B
100
AcDbEntity
  8
YKK_B1
100
AcDbLine
 10
7245.0
 20
14024.5
 30
0.0
 11
7205.0
 21
14024.5
 31
0.0
  0
LINE
  5
1DC
330
44B
100
AcDbEntity
  8
YKK_B1
100
AcDbLine
 10
7205.0
 20
14024.5
 30
0.0
 11
7205.0
 21
14094.5
 31
0.0
  0
LINE
  5
1DD
330
44B
100
AcDbEntity
  8
YKK_B1
100
AcDbLine
 10
7245.0
 20
14024.5
 30
0.0
 11
7245.0
 21
14043.0
 31
0.0
  0
LINE
  5
1DE
330
44B
100
AcDbEntity
  8
YKK_B1
100
AcDbLine
 10
7263.0
 20
14043.0
 30
0.0
 11
7205.0
 21
14043.0
 31
0.0
  0
LINE
  5
1DF
330
44B
100
AcDbEntity
  8
YKK_B1
100
AcDbLine
 10
7205.0
 20
14024.5
 30
0.0
 11
7196.0
 21
14024.5
 31
0.0
  0
LINE
  5
1E0
330
44B
100
AcDbEntity
  8
YKK_B1
100
AcDbLine
 10
7196.0
 20
14024.5
 30
0.0
 11
7196.0
 21
14031.5
 31
0.0
  0
LINE
  5
1E1
330
44B
100
AcDbEntity
  8
YKK_B1
100
AcDbLine
 10
7196.0
 20
14094.5
 30
0.0
 11
7196.0
 21
14087.5
 31
0.0
  0
LINE
  5
1E2
330
44B
100
AcDbEntity
  8
YKK_B1
100
AcDbLine
 10
7205.0
 20
14094.5
 30
0.0
 11
7192.5
 21
14094.5
 31
0.0
  0
LINE
  5
1E3
330
44B
100
AcDbEntity
  8
YKK_B1
100
AcDbLine
 10
7245.0
 20
14043.0
 30
0.0
 11
7245.0
 21
14054.2
 31
0.0
  0
LINE
  5
1E4
330
44B
100
AcDbEntity
  8
YKK_B1
100
AcDbLine
 10
7215.0
 20
14043.0
 30
0.0
 11
7215.0
 21
14094.2
 31
0.0
  0
LINE
  5
1E5
330
44B
100
AcDbEntity
  8
YKK_B1
100
AcDbLine
 10
7205.0
 20
14094.5
 30
0.0
 11
7205.0
 21
14149.5
 31
0.0
  0
LINE
  5
1E6
330
44B
100
AcDbEntity
  8
YKK_B1
100
AcDbLine
 10
7200.0
 20
14149.5
 30
0.0
 11
7197.5
 21
14094.5
 31
0.0
  0
LINE
  5
1E7
330
44B
100
AcDbEntity
  8
YKK_Z1
  6
Continuous
100
AcDbLine
 10
7191.0
 20
14134.5
 30
0.0
 11
7176.0
 21
14134.5
 31
0.0
  0
LINE
  5
1E8
330
44B
100
AcDbEntity
  8
YKK_Z1
  6
Continuous
100
AcDbLine
 10
7176.0
 20
14134.5
 30
0.0
 11
7176.0
 21
14126.5
 31
0.0
  0
LINE
  5
1E9
330
44B
100
AcDbEntity
  8
YKK_Z1
  6
Continuous
100
AcDbLine
 10
7177.5
 20
14077.5
 30
0.0
 11
7177.5
 21
14122.5
 31
0.0
  0
LINE
  5
1EA
330
44B
100
AcDbEntity
  8
YKK_Z1
  6
Continuous
100
AcDbLine
 10
7076.0
 20
14134.5
 30
0.0
 11
7076.0
 21
14126.5
 31
0.0
  0
LINE
  5
1EB
330
44B
100
AcDbEntity
  8
YKK_Z1
  6
Continuous
100
AcDbLine
 10
7162.5
 20
14067.5
 30
0.0
 11
7177.5
 21
14077.5
 31
0.0
  0
LINE
  5
1EC
330
44B
100
AcDbEntity
  8
YKK_Z1
  6
Continuous
100
AcDbLine
 10
7162.5
 20
13954.53000905
 30
0.0
 11
7150.4699972
 21
13942.5
 31
0.0
  0
LINE
  5
1ED
330
44B
100
AcDbEntity
  8
YKK_Z1
  6
Continuous
100
AcDbLine
 10
7162.5
 20
13942.5
 30
0.0
 11
7162.5
 21
13922.5
 31
0.0
  0
LINE
  5
1EF
330
44B
100
AcDbEntity
  8
YKK_Z1
  6
Continuous
100
AcDbLine
 10
7162.5
 20
13922.5
 30
0.0
 11
7142.49999654
 21
13942.5
 31
0.0
  0
LINE
  5
1F0
330
44B
100
AcDbEntity
  8
YKK_Z1
  6
Continuous
100
AcDbLine
 10
7142.49999654
 20
13922.5
 30
0.0
 11
7122.49999307
 21
13942.5
 31
0.0
  0
LINE
  5
1F1
330
44B
100
AcDbEntity
  8
YKK_Z1
  6
Continuous
100
AcDbLine
 10
7122.49999307
 20
13922.5
 30
0.0
 11
7102.49998961
 21
13942.5
 31
0.0
  0
LINE
  5
1F2
330
44B
100
AcDbEntity
  8
YKK_Z1
  6
Continuous
100
AcDbLine
 10
7102.49998961
 20
13922.5
 30
0.0
 11
7082.49998614
 21
13942.5
 31
0.0
  0
LINE
  5
1F3
330
44B
100
AcDbEntity
  8
YKK_Z1
  6
Continuous
100
AcDbLine
 10
7162.5
 20
13942.5
 30
0.0
 11
7142.50001039
 21
13922.5
 31
0.0
  0
LINE
  5
1F4
330
44B
100
AcDbEntity
  8
YKK_Z1
  6
Continuous
100
AcDbLine
 10
7142.50001039
 20
13942.5
 30
0.0
 11
7122.50002078
 21
13922.5
 31
0.0
  0
LINE
  5
1F5
330
44B
100
AcDbEntity
  8
YKK_Z1
  6
Continuous
100
AcDbLine
 10
7122.50002078
 20
13942.5
 30
0.0
 11
7102.50003118
 21
13922.5
 31
0.0
  0
LINE
  5
1F6
330
44B
100
AcDbEntity
  8
YKK_Z1
  6
Continuous
100
AcDbLine
 10
7102.50003118
 20
13942.5
 30
0.0
 11
7082.50004157
 21
13922.5
 31
0.0
  0
LINE
  5
1F7
330
44B
100
AcDbEntity
  8
YKK_Z1
  6
Continuous
100
AcDbLine
 10
7162.5
 20
13942.5
 30
0.0
 11
7162.5
 21
14067.5
 31
0.0
  0
LINE
  5
1F8
330
44B
100
AcDbEntity
  8
YKK_Z1
  6
Continuous
100
AcDbLine
 10
7162.5
 20
13963.01529116
 30
0.0
 11
7141.9847195
 21
13942.5
 31
0.0
  0
LINE
  5
1F9
330
44B
100
AcDbEntity
  8
YKK_N1
100
AcDbLine
 10
7445.0
 20
13887.5
 30
0.0
 11
7445.0
 21
13907.5
 31
0.0
  0
LINE
  5
1FA
330
44B
100
AcDbEntity
  8
YKK_N1
  6
ByBlock
100
AcDbLine
 10
7945.0
 20
13964.5
 30
0.0
 11
7945.0
 21
13594.5
 31
0.0
  0
LINE
  5
1FB
330
44B
100
AcDbEntity
  8
YKK_Z1
  6
Continuous
100
AcDbLine
 10
7975.0
 20
13907.0
 30
0.0
 11
7975.0
 21
13894.5
 31
0.0
  0
LINE
  5
1FC
330
44B
100
AcDbEntity
  8
YKK_Z1
100
AcDbLine
 10
7950.0
 20
14024.5
 30
0.0
 11
7950.0
 21
13887.5
 31
0.0
  0
LINE
  5
1FD
330
44B
100
AcDbEntity
  8
YKK_Z1
  6
Continuous
100
AcDbLine
 10
7975.0
 20
13894.5
 30
0.0
 11
8345.0
 21
13894.5
 31
0.0
  0
LINE
  5
1FE
330
44B
100
AcDbEntity
  8
YKK_Z1
  6
Continuous
100
AcDbLine
 10
7975.0
 20
13884.5
 30
0.0
 11
7595.0
 21
13884.5
 31
0.0
  0
TEXT
  5
1FF
330
44B
100
AcDbEntity
  8
YKK_N1
100
AcDbText
 10
7470.42857143
 20
13634.5
 30
0.0
 40
60.0
  1
W=700
 41
0.8
  7
YKK_SGSTYLE1
100
AcDbText
  0
CIRCLE
  5
200
330
44B
100
AcDbEntity
  8
YKK_N1
100
AcDbCircle
 10
7445.0
 20
13887.5
 30
0.0
 40
6.5
  0
CIRCLE
  5
201
330
44B
100
AcDbEntity
  8
YKK_N1
100
AcDbCircle
 10
7445.0
 20
13887.5
 30
0.0
 40
10.0
  0
POINT
  5
202
330
44B
100
AcDbEntity
  8
YKK_N1
  6
ByBlock
100
AcDbPoint
 10
7445.0
 20
13887.5
 30
0.0
  0
LINE
  5
203
330
44B
100
AcDbEntity
  8
YKK_N1
  6
ByBlock
100
AcDbLine
 10
7858.39745962
 20
13574.5
 30
0.0
 11
7945.0
 21
13624.5
 31
0.0
  0
LINE
  5
204
330
44B
100
AcDbEntity
  8
YKK_N1
  6
ByBlock
100
AcDbLine
 10
7858.39745962
 20
13674.5
 30
0.0
 11
7858.39745962
 21
13574.5
 31
0.0
  0
LINE
  5
205
330
44B
100
AcDbEntity
  8
YKK_N1
  6
ByBlock
100
AcDbLine
 10
7945.0
 20
13624.5
 30
0.0
 11
7858.39745962
 21
13674.5
 31
0.0
  0
LINE
  5
206
330
44B
100
AcDbEntity
  8
YKK_N1
  6
ByBlock
100
AcDbLine
 10
7945.0
 20
13624.5
 30
0.0
 11
7845.0
 21
13624.5
 31
0.0
  0
POINT
  5
207
330
44B
100
AcDbEntity
  8
YKK_N1
  6
ByBlock
100
AcDbPoint
 10
7945.0
 20
13624.5
 30
0.0
  0
LINE
  5
208
330
44B
100
AcDbEntity
  8
YKK_Z1
  6
Continuous
100
AcDbLine
 10
7975.0
 20
13887.5
 30
0.0
 11
7975.0
 21
13884.5
 31
0.0
  0
LINE
  5
209
330
44B
100
AcDbEntity
  8
YKK_Z1
100
AcDbLine
 10
7975.0
 20
13887.5
 30
0.0
 11
7975.0
 21
13897.5
 31
0.0
  0
LINE
  5
20A
330
44B
100
AcDbEntity
  8
YKK_Z1
100
AcDbLine
 10
7950.0
 20
13887.5
 30
0.0
 11
7975.0
 21
13887.5
 31
0.0
  0
LINE
  5
20B
330
44B
100
AcDbEntity
  8
YKK_Z1
  6
Continuous
100
AcDbLine
 10
8087.50001039
 20
13922.5
 30
0.0
 11
8107.50001386
 21
13942.5
 31
0.0
  0
LINE
  5
20C
330
44B
100
AcDbEntity
  8
YKK_Z1
  6
Continuous
100
AcDbLine
 10
8087.49996882
 20
13942.5
 30
0.0
 11
8107.49995843
 21
13922.5
 31
0.0
  0
LINE
  5
20D
330
44B
100
AcDbEntity
  8
YKK_Z1
  6
Continuous
100
AcDbLine
 10
8048.01507474
 20
13942.5
 30
0.0
 11
8228.01510592
 21
14122.5
 31
0.0
  0
LINE
  5
20E
330
44B
100
AcDbEntity
  8
YKK_Z1
  6
Continuous
100
AcDbLine
 10
8056.50035832
 20
13942.5
 30
0.0
 11
8236.5003895
 21
14122.5
 31
0.0
  0
LINE
  5
20F
330
44B
100
AcDbEntity
  8
YKK_Z1
  6
Continuous
100
AcDbLine
 10
8076.29935334
 20
13942.5
 30
0.0
 11
8256.29938452
 21
14122.5
 31
0.0
  0
LINE
  5
210
330
44B
100
AcDbEntity
  8
YKK_Z1
  6
Continuous
100
AcDbLine
 10
8345.0
 20
13942.5
 30
0.0
 11
8027.5
 21
13942.5
 31
0.0
  0
LINE
  5
211
330
44B
100
AcDbEntity
  8
YKK_Z1
  6
Continuous
100
AcDbLine
 10
8012.5
 20
14122.5
 30
0.0
 11
8345.0
 21
14122.5
 31
0.0
  0
LINE
  5
212
330
44B
100
AcDbEntity
  8
YKK_Z1
  6
CENTER
100
AcDbLine
 10
8010.75
 20
14032.5
 30
0.0
 11
8345.0
 21
14032.5
 31
0.0
  0
LINE
  5
213
330
44B
100
AcDbEntity
  8
YKK_Z1
  6
Continuous
100
AcDbLine
 10
8027.5
 20
13922.5
 30
0.0
 11
8345.0
 21
13922.5
 31
0.0
  0
LINE
  5
214
330
44B
100
AcDbEntity
  8
YKK_Z1
  6
Continuous
100
AcDbLine
 10
8007.5
 20
14134.5
 30
0.0
 11
8345.0
 21
14134.5
 31
0.0
  0
LINE
  5
215
330
44B
100
AcDbEntity
  8
YKK_Z1
  6
Continuous
100
AcDbLine
 10
8007.5
 20
14126.5
 30
0.0
 11
8345.0
 21
14126.5
 31
0.0
  0
LINE
  5
216
330
44B
100
AcDbEntity
  8
YKK_Z1
  6
Continuous
100
AcDbLine
 10
8345.0
 20
13907.0
 30
0.0
 11
7975.0
 21
13907.0
 31
0.0
  0
LINE
  5
217
330
44B
100
AcDbEntity
  8
YKK_N1
100
AcDbLine
 10
7445.0
 20
14024.5
 30
0.0
 11
7445.0
 21
14044.5
 31
0.0
  0
CIRCLE
  5
218
330
44B
100
AcDbEntity
  8
YKK_N1
100
AcDbCircle
 10
7445.0
 20
14024.5
 30
0.0
 40
6.5
  0
CIRCLE
  5
219
330
44B
100
AcDbEntity
  8
YKK_N1
100
AcDbCircle
 10
7445.0
 20
14024.5
 30
0.0
 40
10.0
  0
LINE
  5
21A
330
44B
100
AcDbEntity
  8
YKK_N1
100
AcDbLine
 10
7445.0
 20
14149.5
 30
0.0
 11
7445.0
 21
14129.5
 31
0.0
  0
CIRCLE
  5
21B
330
44B
100
AcDbEntity
  8
YKK_N1
100
AcDbCircle
 10
7445.0
 20
14149.5
 30
0.0
 40
6.5
  0
CIRCLE
  5
21C
330
44B
100
AcDbEntity
  8
YKK_N1
100
AcDbCircle
 10
7445.0
 20
14149.5
 30
0.0
 40
10.0
  0
LINE
  5
21D
330
44B
100
AcDbEntity
  8
YKK_N1
100
AcDbLine
 10
7445.0
 20
14024.5
 30
0.0
 11
7445.0
 21
14004.5
 31
0.0
  0
CIRCLE
  5
21E
330
44B
100
AcDbEntity
  8
YKK_N1
100
AcDbCircle
 10
7445.0
 20
14024.5
 30
0.0
 40
6.5
  0
CIRCLE
  5
21F
330
44B
100
AcDbEntity
  8
YKK_N1
100
AcDbCircle
 10
7445.0
 20
14024.5
 30
0.0
 40
10.0
  0
POINT
  5
220
330
44B
100
AcDbEntity
  8
YKK_N1
  6
ByBlock
100
AcDbPoint
 10
7445.0
 20
14024.5
 30
0.0
  0
LINE
  5
221
330
44B
100
AcDbEntity
  8
YKK_N1
  6
ByBlock
100
AcDbLine
 10
7445.0
 20
14004.5
 30
0.0
 11
7445.0
 21
13907.5
 31
0.0
  0
POINT
  5
222
330
44B
100
AcDbEntity
  8
YKK_N1
  6
ByBlock
100
AcDbPoint
 10
7445.0
 20
14149.5
 30
0.0
  0
POINT
  5
223
330
44B
100
AcDbEntity
  8
YKK_N1
  6
ByBlock
100
AcDbPoint
 10
7455.0
 20
14149.5
 30
0.0
  0
POINT
  5
224
330
44B
100
AcDbEntity
  8
YKK_N1
  6
ByBlock
100
AcDbPoint
 10
7455.0
 20
14024.5
 30
0.0
  0
LINE
  5
225
330
44B
100
AcDbEntity
  8
YKK_N1
  6
ByBlock
100
AcDbLine
 10
7445.0
 20
14044.5
 30
0.0
 11
7445.0
 21
14129.5
 31
0.0
  0
POINT
  5
226
330
44B
100
AcDbEntity
  8
YKK_N1
  6
ByBlock
100
AcDbPoint
 10
7945.0
 20
14024.5
 30
0.0
  0
LINE
  5
227
330
44B
100
AcDbEntity
  8
YKK_B1
100
AcDbLine
 10
7985.0
 20
14149.5
 30
0.0
 11
7990.0
 21
14149.5
 31
0.0
  0
LINE
  5
228
330
44B
100
AcDbEntity
  8
YKK_B1
100
AcDbLine
 10
7985.0
 20
14024.5
 30
0.0
 11
7985.0
 21
14094.5
 31
0.0
  0
LINE
  5
229
330
44B
100
AcDbEntity
  8
YKK_B1
100
AcDbLine
 10
7985.0
 20
14024.5
 30
0.0
 11
7994.0
 21
14024.5
 31
0.0
  0
LINE
  5
22A
330
44B
100
AcDbEntity
  8
YKK_B1
100
AcDbLine
 10
7994.0
 20
14024.5
 30
0.0
 11
7994.0
 21
14031.5
 31
0.0
  0
LINE
  5
22B
330
44B
100
AcDbEntity
  8
YKK_B1
100
AcDbLine
 10
7994.0
 20
14094.5
 30
0.0
 11
7994.0
 21
14087.5
 31
0.0
  0
LINE
  5
22C
330
44B
100
AcDbEntity
  8
YKK_B1
100
AcDbLine
 10
7985.0
 20
14094.5
 30
0.0
 11
7997.5
 21
14094.5
 31
0.0
  0
LINE
  5
22D
330
44B
100
AcDbEntity
  8
YKK_B1
100
AcDbLine
 10
7975.0
 20
14043.0
 30
0.0
 11
7975.0
 21
14094.2
 31
0.0
  0
LINE
  5
22E
330
44B
100
AcDbEntity
  8
YKK_B1
100
AcDbLine
 10
7945.0
 20
14024.5
 30
0.0
 11
7945.0
 21
14043.0
 31
0.0
  0
LINE
  5
22F
330
44B
100
AcDbEntity
  8
YKK_B1
100
AcDbLine
 10
7945.0
 20
14043.0
 30
0.0
 11
7945.0
 21
14054.2
 31
0.0
  0
LINE
  5
230
330
44B
100
AcDbEntity
  8
YKK_B1
100
AcDbLine
 10
7945.0
 20
14024.5
 30
0.0
 11
7985.0
 21
14024.5
 31
0.0
  0
LINE
  5
231
330
44B
100
AcDbEntity
  8
YKK_B1
100
AcDbLine
 10
7927.0
 20
14043.0
 30
0.0
 11
7985.0
 21
14043.0
 31
0.0
  0
LINE
  5
232
330
44B
100
AcDbEntity
  8
YKK_B1
100
AcDbLine
 10
7985.0
 20
14094.5
 30
0.0
 11
7985.0
 21
14149.5
 31
0.0
  0
LINE
  5
233
330
44B
100
AcDbEntity
  8
YKK_B1
100
AcDbLine
 10
7990.0
 20
14149.5
 30
0.0
 11
7992.5
 21
14094.5
 31
0.0
  0
LINE
  5
234
330
44B
100
AcDbEntity
  8
YKK_Z1
  6
Continuous
100
AcDbLine
 10
7999.0
 20
14134.5
 30
0.0
 11
8007.5
 21
14134.5
 31
0.0
  0
LINE
  5
235
330
44B
100
AcDbEntity
  8
YKK_Z1
  6
Continuous
100
AcDbLine
 10
8007.5
 20
14134.5
 30
0.0
 11
8007.5
 21
14126.5
 31
0.0
  0
LINE
  5
236
330
44B
100
AcDbEntity
  8
YKK_Z1
  6
Continuous
100
AcDbLine
 10
8027.5
 20
14067.5
 30
0.0
 11
8012.5
 21
14077.5
 31
0.0
  0
LINE
  5
237
330
44B
100
AcDbEntity
  8
YKK_Z1
  6
Continuous
100
AcDbLine
 10
8012.5
 20
14077.5
 30
0.0
 11
8012.5
 21
14122.5
 31
0.0
  0
LINE
  5
238
330
44B
100
AcDbEntity
  8
YKK_Z1
  6
Continuous
100
AcDbLine
 10
8027.5
 20
13942.5
 30
0.0
 11
8027.5
 21
13922.5
 31
0.0
  0
LINE
  5
23A
330
44B
100
AcDbEntity
  8
YKK_Z1
  6
Continuous
100
AcDbLine
 10
8027.5
 20
13922.5
 30
0.0
 11
8047.50000346
 21
13942.5
 31
0.0
  0
LINE
  5
23B
330
44B
100
AcDbEntity
  8
YKK_Z1
  6
Continuous
100
AcDbLine
 10
8047.50000346
 20
13922.5
 30
0.0
 11
8067.50000693
 21
13942.5
 31
0.0
  0
LINE
  5
23C
330
44B
100
AcDbEntity
  8
YKK_Z1
  6
Continuous
100
AcDbLine
 10
8027.5
 20
13942.5
 30
0.0
 11
8047.49998961
 21
13922.5
 31
0.0
  0
LINE
  5
23D
330
44B
100
AcDbEntity
  8
YKK_Z1
  6
Continuous
100
AcDbLine
 10
8047.49998961
 20
13942.5
 30
0.0
 11
8067.49997922
 21
13922.5
 31
0.0
  0
LINE
  5
23E
330
44B
100
AcDbEntity
  8
YKK_Z1
  6
Continuous
100
AcDbLine
 10
8067.50000693
 20
13922.5
 30
0.0
 11
8087.50001039
 21
13942.5
 31
0.0
  0
LINE
  5
23F
330
44B
100
AcDbEntity
  8
YKK_Z1
  6
Continuous
100
AcDbLine
 10
8067.49997922
 20
13942.5
 30
0.0
 11
8087.49996882
 21
13922.5
 31
0.0
  0
LINE
  5
240
330
44B
100
AcDbEntity
  8
YKK_Z1
  6
Continuous
100
AcDbLine
 10
8027.5
 20
13942.5
 30
0.0
 11
8027.5
 21
14067.5
 31
0.0
  0
LINE
  5
241
330
44B
100
AcDbEntity
  8
YKK_Z1
  6
Continuous
100
AcDbLine
 10
8327.5
 20
14134.5
 30
0.0
 11
8327.5
 21
14126.5
 31
0.0
  0
LINE
  5
242
330
44B
100
AcDbEntity
  8
YKK_Z1
  6
Continuous
100
AcDbLine
 10
8337.5
 20
14134.5
 30
0.0
 11
8337.5
 21
14126.5
 31
0.0
  0
LINE
  5
244
330
44B
100
AcDbEntity
  8
YKK_Z1
  6
Continuous
100
AcDbLine
 10
8327.50005196
 20
13922.5
 30
0.0
 11
8345.0
 21
13939.99994501
 31
0.0
  0
LINE
  5
245
330
44B
100
AcDbEntity
  8
YKK_Z1
  6
Continuous
100
AcDbLine
 10
8327.49984412
 20
13942.5
 30
0.0
 11
8345.0
 21
13924.99983502
 31
0.0
  0
LINE
  5
246
330
44B
100
AcDbEntity
  8
YKK_Z1
  6
Continuous
100
AcDbLine
 10
8217.5
 20
14134.5
 30
0.0
 11
8217.5
 21
14126.5
 31
0.0
  0
LINE
  5
247
330
44B
100
AcDbEntity
  8
YKK_Z1
  6
Continuous
100
AcDbLine
 10
8227.5
 20
14134.5
 30
0.0
 11
8227.5
 21
14126.5
 31
0.0
  0
LINE
  5
248
330
44B
100
AcDbEntity
  8
YKK_Z1
  6
Continuous
100
AcDbLine
 10
8107.5
 20
14134.5
 30
0.0
 11
8107.5
 21
14126.5
 31
0.0
  0
LINE
  5
249
330
44B
100
AcDbEntity
  8
YKK_Z1
  6
Continuous
100
AcDbLine
 10
8117.5
 20
14134.5
 30
0.0
 11
8117.5
 21
14126.5
 31
0.0
  0
LINE
  5
24A
330
44B
100
AcDbEntity
  8
YKK_Z1
  6
Continuous
100
AcDbLine
 10
8207.50003118
 20
13922.5
 30
0.0
 11
8227.50003464
 21
13942.5
 31
0.0
  0
LINE
  5
24B
330
44B
100
AcDbEntity
  8
YKK_Z1
  6
Continuous
100
AcDbLine
 10
8227.50003464
 20
13922.5
 30
0.0
 11
8247.50003811
 21
13942.5
 31
0.0
  0
LINE
  5
24C
330
44B
100
AcDbEntity
  8
YKK_Z1
  6
Continuous
100
AcDbLine
 10
8247.50003811
 20
13922.5
 30
0.0
 11
8267.50004157
 21
13942.5
 31
0.0
  0
LINE
  5
24D
330
44B
100
AcDbEntity
  8
YKK_Z1
  6
Continuous
100
AcDbLine
 10
8267.50004157
 20
13922.5
 30
0.0
 11
8287.50004503
 21
13942.5
 31
0.0
  0
LINE
  5
24E
330
44B
100
AcDbEntity
  8
YKK_Z1
  6
Continuous
100
AcDbLine
 10
8287.50004503
 20
13922.5
 30
0.0
 11
8307.5000485
 21
13942.5
 31
0.0
  0
LINE
  5
24F
330
44B
100
AcDbEntity
  8
YKK_Z1
  6
Continuous
100
AcDbLine
 10
8207.49990647
 20
13942.5
 30
0.0
 11
8227.49989608
 21
13922.5
 31
0.0
  0
LINE
  5
250
330
44B
100
AcDbEntity
  8
YKK_Z1
  6
Continuous
100
AcDbLine
 10
8227.49989608
 20
13942.5
 30
0.0
 11
8247.49988568
 21
13922.5
 31
0.0
  0
LINE
  5
251
330
44B
100
AcDbEntity
  8
YKK_Z1
  6
Continuous
100
AcDbLine
 10
8247.49988568
 20
13942.5
 30
0.0
 11
8267.49987529
 21
13922.5
 31
0.0
  0
LINE
  5
252
330
44B
100
AcDbEntity
  8
YKK_Z1
  6
Continuous
100
AcDbLine
 10
8267.49987529
 20
13942.5
 30
0.0
 11
8287.4998649
 21
13922.5
 31
0.0
  0
LINE
  5
253
330
44B
100
AcDbEntity
  8
YKK_Z1
  6
Continuous
100
AcDbLine
 10
8287.4998649
 20
13942.5
 30
0.0
 11
8307.49985451
 21
13922.5
 31
0.0
  0
LINE
  5
254
330
44B
100
AcDbEntity
  8
YKK_Z1
  6
Continuous
100
AcDbLine
 10
8107.50001386
 20
13922.5
 30
0.0
 11
8127.50001732
 21
13942.5
 31
0.0
  0
LINE
  5
255
330
44B
100
AcDbEntity
  8
YKK_Z1
  6
Continuous
100
AcDbLine
 10
8127.50001732
 20
13922.5
 30
0.0
 11
8147.50002078
 21
13942.5
 31
0.0
  0
LINE
  5
256
330
44B
100
AcDbEntity
  8
YKK_Z1
  6
Continuous
100
AcDbLine
 10
8147.50002078
 20
13922.5
 30
0.0
 11
8167.50002425
 21
13942.5
 31
0.0
  0
LINE
  5
257
330
44B
100
AcDbEntity
  8
YKK_Z1
  6
Continuous
100
AcDbLine
 10
8167.50002425
 20
13922.5
 30
0.0
 11
8187.50002771
 21
13942.5
 31
0.0
  0
LINE
  5
258
330
44B
100
AcDbEntity
  8
YKK_Z1
  6
Continuous
100
AcDbLine
 10
8107.49995843
 20
13942.5
 30
0.0
 11
8127.49994804
 21
13922.5
 31
0.0
  0
LINE
  5
259
330
44B
100
AcDbEntity
  8
YKK_Z1
  6
Continuous
100
AcDbLine
 10
8127.49994804
 20
13942.5
 30
0.0
 11
8147.49993765
 21
13922.5
 31
0.0
  0
LINE
  5
25A
330
44B
100
AcDbEntity
  8
YKK_Z1
  6
Continuous
100
AcDbLine
 10
8147.49993765
 20
13942.5
 30
0.0
 11
8167.49992725
 21
13922.5
 31
0.0
  0
LINE
  5
25B
330
44B
100
AcDbEntity
  8
YKK_Z1
  6
Continuous
100
AcDbLine
 10
8167.49992725
 20
13942.5
 30
0.0
 11
8187.49991686
 21
13922.5
 31
0.0
  0
LINE
  5
25C
330
44B
100
AcDbEntity
  8
YKK_Z1
  6
Continuous
100
AcDbLine
 10
8187.50002771
 20
13922.5
 30
0.0
 11
8207.50003118
 21
13942.5
 31
0.0
  0
LINE
  5
25D
330
44B
100
AcDbEntity
  8
YKK_Z1
  6
Continuous
100
AcDbLine
 10
8187.49991686
 20
13942.5
 30
0.0
 11
8207.49990647
 21
13922.5
 31
0.0
  0
LINE
  5
25E
330
44B
100
AcDbEntity
  8
YKK_Z1
  6
Continuous
100
AcDbLine
 10
8307.5000485
 20
13922.5
 30
0.0
 11
8327.50005196
 21
13942.5
 31
0.0
  0
LINE
  5
25F
330
44B
100
AcDbEntity
  8
YKK_Z1
  6
Continuous
100
AcDbLine
 10
8307.49985451
 20
13942.5
 30
0.0
 11
8327.49984412
 21
13922.5
 31
0.0
  0
LINE
  5
260
330
44B
100
AcDbEntity
  8
YKK_N1
  6
ByBlock
100
AcDbLine
 10
7246.0
 20
15915.6907475
 30
0.0
 11
7944.0
 21
15915.6907475
 31
0.0
  0
LINE
  5
261
330
44B
100
AcDbEntity
  8
YKK_N1
  6
ByBlock
100
AcDbLine
 10
7331.60254038
 20
15965.6907475
 30
0.0
 11
7245.0
 21
15915.6907475
 31
0.0
  0
LINE
  5
262
330
44B
100
AcDbEntity
  8
YKK_N1
  6
ByBlock
100
AcDbLine
 10
7331.60254038
 20
15865.6907475
 30
0.0
 11
7331.60254038
 21
15965.6907475
 31
0.0
  0
LINE
  5
263
330
44B
100
AcDbEntity
  8
YKK_N1
  6
ByBlock
100
AcDbLine
 10
7245.0
 20
15915.6907475
 30
0.0
 11
7331.60254038
 21
15865.6907475
 31
0.0
  0
LINE
  5
264
330
44B
100
AcDbEntity
  8
YKK_N1
  6
ByBlock
100
AcDbLine
 10
7245.0
 20
15915.6907475
 30
0.0
 11
7345.0
 21
15915.6907475
 31
0.0
  0
TEXT
  5
265
330
44B
100
AcDbEntity
  8
YKK_N1
100
AcDbText
 10
7470.42857143
 20
15925.6907475
 30
0.0
 40
60.0
  1
W=700
 41
0.8
  7
YKK_SGSTYLE1
100
AcDbText
  0
LINE
  5
266
330
44B
100
AcDbEntity
  8
YKK_N1
  6
ByBlock
100
AcDbLine
 10
7858.39745962
 20
15865.6907475
 30
0.0
 11
7945.0
 21
15915.6907475
 31
0.0
  0
LINE
  5
267
330
44B
100
AcDbEntity
  8
YKK_N1
  6
ByBlock
100
AcDbLine
 10
7858.39745962
 20
15965.6907475
 30
0.0
 11
7858.39745962
 21
15865.6907475
 31
0.0
  0
LINE
  5
268
330
44B
100
AcDbEntity
  8
YKK_N1
  6
ByBlock
100
AcDbLine
 10
7945.0
 20
15915.6907475
 30
0.0
 11
7858.39745962
 21
15965.6907475
 31
0.0
  0
LINE
  5
269
330
44B
100
AcDbEntity
  8
YKK_N1
  6
ByBlock
100
AcDbLine
 10
7945.0
 20
15915.6907475
 30
0.0
 11
7845.0
 21
15915.6907475
 31
0.0
  0
POINT
  5
26A
330
44B
100
AcDbEntity
  8
YKK_N1
  6
ByBlock
100
AcDbPoint
 10
7945.0
 20
15915.6907475
 30
0.0
  0
LINE
  5
26B
330
44B
100
AcDbEntity
  8
YKK_Z1
  6
ByBlock
 62
     0
100
AcDbLine
 10
10186.92673029
 20
15675.6907475
 30
0.0
 11
10152.28571429
 21
15615.6907475
 31
0.0
  0
LINE
  5
26C
330
44B
100
AcDbEntity
  8
YKK_Z1
  6
ByBlock
 62
     0
100
AcDbLine
 10
10117.64469829
 20
15675.6907475
 30
0.0
 11
10186.92673029
 21
15675.6907475
 31
0.0
  0
LINE
  5
26D
330
44B
100
AcDbEntity
  8
YKK_Z1
  6
CENTER
100
AcDbLine
 10
9770.0
 20
15615.6907475
 30
0.0
 11
10270.0
 21
15615.6907475
 31
0.0
  0
LINE
  5
26E
330
44B
100
AcDbEntity
  8
YKK_Z1
  6
Continuous
100
AcDbLine
 10
9492.0
 20
16248.1907475
 30
0.0
 11
9482.0
 21
16233.1907475
 31
0.0
  0
LINE
  5
26F
330
44B
100
AcDbEntity
  8
YKK_Z1
  6
Continuous
100
AcDbLine
 10
9552.0
 20
16212.67567276
 30
0.0
 11
9372.0
 21
16032.67564158
 31
0.0
  0
LINE
  5
270
330
44B
100
AcDbEntity
  8
YKK_Z1
  6
Continuous
100
AcDbLine
 10
9552.0
 20
16204.19038918
 30
0.0
 11
9372.0
 21
16024.19035801
 31
0.0
  0
LINE
  5
271
330
44B
100
AcDbEntity
  8
YKK_Z1
  6
Continuous
100
AcDbLine
 10
9552.0
 20
16184.39139417
 30
0.0
 11
9372.0
 21
16004.39136299
 31
0.0
  0
LINE
  5
272
330
44B
100
AcDbEntity
  8
YKK_Z1
  6
Continuous
100
AcDbLine
 10
9360.0
 20
16238.1907475
 30
0.0
 11
9368.0
 21
16238.1907475
 31
0.0
  0
LINE
  5
273
330
44B
100
AcDbEntity
  8
YKK_Z1
  6
Continuous
100
AcDbLine
 10
9360.0
 20
16138.1907475
 30
0.0
 11
9368.0
 21
16138.1907475
 31
0.0
  0
LINE
  5
274
330
44B
100
AcDbEntity
  8
YKK_Z1
  6
Continuous
100
AcDbLine
 10
9360.0
 20
16128.1907475
 30
0.0
 11
9368.0
 21
16128.1907475
 31
0.0
  0
LINE
  5
275
330
44B
100
AcDbEntity
  8
YKK_Z1
  6
Continuous
100
AcDbLine
 10
9482.0
 20
16233.1907475
 30
0.0
 11
9372.0
 21
16233.1907475
 31
0.0
  0
LINE
  5
276
330
44B
100
AcDbEntity
  8
YKK_Z1
  6
Continuous
100
AcDbLine
 10
9360.0
 20
16028.1907475
 30
0.0
 11
9368.0
 21
16028.1907475
 31
0.0
  0
LINE
  5
277
330
44B
100
AcDbEntity
  8
YKK_Z1
  6
Continuous
100
AcDbLine
 10
9360.0
 20
16018.1907475
 30
0.0
 11
9368.0
 21
16018.1907475
 31
0.0
  0
LINE
  5
278
330
44B
100
AcDbEntity
  8
YKK_Z1
  6
Continuous
100
AcDbLine
 10
9360.0
 20
15918.1907475
 30
0.0
 11
9368.0
 21
15918.1907475
 31
0.0
  0
LINE
  5
279
330
44B
100
AcDbEntity
  8
YKK_Z1
  6
Continuous
100
AcDbLine
 10
9360.0
 20
15908.1907475
 30
0.0
 11
9368.0
 21
15908.1907475
 31
0.0
  0
LINE
  5
27A
330
44B
100
AcDbEntity
  8
YKK_Z1
  6
Continuous
100
AcDbLine
 10
9372.0
 20
16233.1907475
 30
0.0
 11
9372.0
 21
15915.6907475
 31
0.0
  0
LINE
  5
27B
330
44B
100
AcDbEntity
  8
YKK_Z1
  6
CENTER
100
AcDbLine
 10
9462.0
 20
16243.1907475
 30
0.0
 11
9462.0
 21
15915.6907475
 31
0.0
  0
LINE
  5
27C
330
44B
100
AcDbEntity
  8
YKK_Z1
  6
Continuous
100
AcDbLine
 10
9360.0
 20
16238.1907475
 30
0.0
 11
9360.0
 21
15915.6907475
 31
0.0
  0
LINE
  5
27D
330
44B
100
AcDbEntity
  8
YKK_Z1
  6
Continuous
100
AcDbLine
 10
9368.0
 20
16238.1907475
 30
0.0
 11
9368.0
 21
15915.6907475
 31
0.0
  0
LINE
  5
27E
330
44B
100
AcDbEntity
  8
YKK_N1
100
AcDbLine
 10
9870.0
 20
15615.6907475
 30
0.0
 11
9870.0
 21
15635.6907475
 31
0.0
  0
CIRCLE
  5
27F
330
44B
100
AcDbEntity
  8
YKK_N1
100
AcDbCircle
 10
9870.0
 20
15615.6907475
 30
0.0
 40
6.5
  0
CIRCLE
  5
280
330
44B
100
AcDbEntity
  8
YKK_N1
100
AcDbCircle
 10
9870.0
 20
15615.6907475
 30
0.0
 40
10.0
  0
POINT
  5
281
330
44B
100
AcDbEntity
  8
YKK_N1
  6
ByBlock
100
AcDbPoint
 10
9870.0
 20
15615.6907475
 30
0.0
  0
POINT
  5
282
330
44B
100
AcDbEntity
  8
YKK_N1
  6
ByBlock
100
AcDbPoint
 10
9870.0
 20
15615.6907475
 30
0.0
  0
LINE
  5
283
330
44B
100
AcDbEntity
  8
YKK_Z1
  6
ByBlock
 62
     0
100
AcDbLine
 10
10152.28571429
 20
15615.6907475
 30
0.0
 11
10117.64469829
 21
15675.6907475
 31
0.0
  0
TEXT
  5
284
330
44B
100
AcDbEntity
  8
YKK_N1
100
AcDbText
 10
9860.0
 20
15897.11931893
 30
0.0
 40
60.0
  1
700
 50
90.0
 41
0.8
  7
YKK_SGSTYLE1
100
AcDbText
  0
LINE
  5
285
330
44B
100
AcDbEntity
  8
YKK_Z1
  6
Continuous
100
AcDbLine
 10
9552.0
 20
16248.1907475
 30
0.0
 11
9492.0
 21
16248.1907475
 31
0.0
  0
LINE
  5
286
330
44B
100
AcDbEntity
  8
YKK_Z1
  6
Continuous
100
AcDbLine
 10
9552.0
 20
16248.1907475
 30
0.0
 11
9572.0
 21
16248.1907475
 31
0.0
  0
LINE
  5
288
330
44B
100
AcDbEntity
  8
YKK_Z1
  6
Continuous
100
AcDbLine
 10
9572.0
 20
16248.1907475
 30
0.0
 11
9552.0
 21
16228.19074404
 31
0.0
  0
LINE
  5
289
330
44B
100
AcDbEntity
  8
YKK_Z1
  6
Continuous
100
AcDbLine
 10
9572.0
 20
16228.19074404
 30
0.0
 11
9552.0
 21
16208.19074058
 31
0.0
  0
LINE
  5
28A
330
44B
100
AcDbEntity
  8
YKK_Z1
  6
Continuous
100
AcDbLine
 10
9572.0
 20
16208.19074058
 30
0.0
 11
9552.0
 21
16188.19073711
 31
0.0
  0
LINE
  5
28B
330
44B
100
AcDbEntity
  8
YKK_Z1
  6
Continuous
100
AcDbLine
 10
9572.0
 20
16188.19073711
 30
0.0
 11
9552.0
 21
16168.19073365
 31
0.0
  0
LINE
  5
28C
330
44B
100
AcDbEntity
  8
YKK_Z1
  6
Continuous
100
AcDbLine
 10
9572.0
 20
16168.19073365
 30
0.0
 11
9552.0
 21
16148.19073018
 31
0.0
  0
LINE
  5
28D
330
44B
100
AcDbEntity
  8
YKK_Z1
  6
Continuous
100
AcDbLine
 10
9572.0
 20
16148.19073018
 30
0.0
 11
9552.0
 21
16128.19072672
 31
0.0
  0
LINE
  5
28E
330
44B
100
AcDbEntity
  8
YKK_Z1
  6
Continuous
100
AcDbLine
 10
9552.0
 20
16248.1907475
 30
0.0
 11
9572.0
 21
16228.1907579
 31
0.0
  0
LINE
  5
28F
330
44B
100
AcDbEntity
  8
YKK_Z1
  6
Continuous
100
AcDbLine
 10
9552.0
 20
16228.1907579
 30
0.0
 11
9572.0
 21
16208.19076829
 31
0.0
  0
LINE
  5
290
330
44B
100
AcDbEntity
  8
YKK_Z1
  6
Continuous
100
AcDbLine
 10
9552.0
 20
16208.19076829
 30
0.0
 11
9572.0
 21
16188.19077868
 31
0.0
  0
LINE
  5
291
330
44B
100
AcDbEntity
  8
YKK_Z1
  6
Continuous
100
AcDbLine
 10
9552.0
 20
16188.19077868
 30
0.0
 11
9572.0
 21
16168.19078907
 31
0.0
  0
LINE
  5
292
330
44B
100
AcDbEntity
  8
YKK_Z1
  6
Continuous
100
AcDbLine
 10
9552.0
 20
16168.19078907
 30
0.0
 11
9572.0
 21
16148.19079947
 31
0.0
  0
LINE
  5
293
330
44B
100
AcDbEntity
  8
YKK_Z1
  6
Continuous
100
AcDbLine
 10
9552.0
 20
16148.19079947
 30
0.0
 11
9572.0
 21
16128.19080986
 31
0.0
  0
LINE
  5
294
330
44B
100
AcDbEntity
  8
YKK_Z1
  6
Continuous
100
AcDbLine
 10
9572.0
 20
16108.19072326
 30
0.0
 11
9552.0
 21
16088.19071979
 31
0.0
  0
LINE
  5
295
330
44B
100
AcDbEntity
  8
YKK_Z1
  6
Continuous
100
AcDbLine
 10
9572.0
 20
16088.19071979
 30
0.0
 11
9552.0
 21
16068.19071633
 31
0.0
  0
LINE
  5
296
330
44B
100
AcDbEntity
  8
YKK_Z1
  6
Continuous
100
AcDbLine
 10
9572.0
 20
16068.19071633
 30
0.0
 11
9552.0
 21
16048.19071286
 31
0.0
  0
LINE
  5
297
330
44B
100
AcDbEntity
  8
YKK_Z1
  6
Continuous
100
AcDbLine
 10
9572.0
 20
16048.19071286
 30
0.0
 11
9552.0
 21
16028.1907094
 31
0.0
  0
LINE
  5
298
330
44B
100
AcDbEntity
  8
YKK_Z1
  6
Continuous
100
AcDbLine
 10
9572.0
 20
16028.1907094
 30
0.0
 11
9552.0
 21
16008.19070593
 31
0.0
  0
LINE
  5
299
330
44B
100
AcDbEntity
  8
YKK_Z1
  6
Continuous
100
AcDbLine
 10
9572.0
 20
16008.19070593
 30
0.0
 11
9552.0
 21
15988.19070247
 31
0.0
  0
LINE
  5
29A
330
44B
100
AcDbEntity
  8
YKK_Z1
  6
Continuous
100
AcDbLine
 10
9572.0
 20
15988.19070247
 30
0.0
 11
9552.0
 21
15968.19069901
 31
0.0
  0
LINE
  5
29B
330
44B
100
AcDbEntity
  8
YKK_Z1
  6
Continuous
100
AcDbLine
 10
9572.0
 20
15968.19069901
 30
0.0
 11
9552.0
 21
15948.19069554
 31
0.0
  0
LINE
  5
29C
330
44B
100
AcDbEntity
  8
YKK_Z1
  6
Continuous
100
AcDbLine
 10
9552.0
 20
16108.19082025
 30
0.0
 11
9572.0
 21
16088.19083064
 31
0.0
  0
LINE
  5
29D
330
44B
100
AcDbEntity
  8
YKK_Z1
  6
Continuous
100
AcDbLine
 10
9552.0
 20
16088.19083064
 30
0.0
 11
9572.0
 21
16068.19084103
 31
0.0
  0
LINE
  5
29E
330
44B
100
AcDbEntity
  8
YKK_Z1
  6
Continuous
100
AcDbLine
 10
9552.0
 20
16068.19084103
 30
0.0
 11
9572.0
 21
16048.19085143
 31
0.0
  0
LINE
  5
29F
330
44B
100
AcDbEntity
  8
YKK_Z1
  6
Continuous
100
AcDbLine
 10
9552.0
 20
16048.19085143
 30
0.0
 11
9572.0
 21
16028.19086182
 31
0.0
  0
LINE
  5
2A0
330
44B
100
AcDbEntity
  8
YKK_Z1
  6
Continuous
100
AcDbLine
 10
9552.0
 20
16028.19086182
 30
0.0
 11
9572.0
 21
16008.19087221
 31
0.0
  0
LINE
  5
2A1
330
44B
100
AcDbEntity
  8
YKK_Z1
  6
Continuous
100
AcDbLine
 10
9552.0
 20
16008.19087221
 30
0.0
 11
9572.0
 21
15988.1908826
 31
0.0
  0
LINE
  5
2A2
330
44B
100
AcDbEntity
  8
YKK_Z1
  6
Continuous
100
AcDbLine
 10
9552.0
 20
15988.1908826
 30
0.0
 11
9572.0
 21
15968.190893
 31
0.0
  0
LINE
  5
2A3
330
44B
100
AcDbEntity
  8
YKK_Z1
  6
Continuous
100
AcDbLine
 10
9552.0
 20
15968.190893
 30
0.0
 11
9572.0
 21
15948.19090339
 31
0.0
  0
LINE
  5
2A5
330
44B
100
AcDbEntity
  8
YKK_Z1
  6
Continuous
100
AcDbLine
 10
9572.0
 20
15928.19069208
 30
0.0
 11
9559.50005759
 21
15915.6907475
 31
0.0
  0
LINE
  5
2A6
330
44B
100
AcDbEntity
  8
YKK_Z1
  6
Continuous
100
AcDbLine
 10
9552.0
 20
15928.19091378
 30
0.0
 11
9564.50017277
 21
15915.6907475
 31
0.0
  0
LINE
  5
2A7
330
44B
100
AcDbEntity
  8
YKK_Z1
  6
Continuous
100
AcDbLine
 10
9572.0
 20
15948.19069554
 30
0.0
 11
9552.0
 21
15928.19069208
 31
0.0
  0
LINE
  5
2A8
330
44B
100
AcDbEntity
  8
YKK_Z1
  6
Continuous
100
AcDbLine
 10
9552.0
 20
15948.19090339
 30
0.0
 11
9572.0
 21
15928.19091378
 31
0.0
  0
LINE
  5
2A9
330
44B
100
AcDbEntity
  8
YKK_Z1
  6
Continuous
100
AcDbLine
 10
9552.0
 20
15915.6907475
 30
0.0
 11
9552.0
 21
16248.1907475
 31
0.0
  0
LINE
  5
2AA
330
44B
100
AcDbEntity
  8
YKK_Z1
  6
Continuous
100
AcDbLine
 10
9572.0
 20
16248.1907475
 30
0.0
 11
9572.0
 21
15915.6907475
 31
0.0
  0
LINE
  5
2AB
330
44B
100
AcDbEntity
  8
YKK_Z1
  6
Continuous
100
AcDbLine
 10
9572.0
 20
16128.19072672
 30
0.0
 11
9552.0
 21
16108.19072326
 31
0.0
  0
LINE
  5
2AC
330
44B
100
AcDbEntity
  8
YKK_Z1
  6
Continuous
100
AcDbLine
 10
9552.0
 20
16128.19080986
 30
0.0
 11
9572.0
 21
16108.19082025
 31
0.0
  0
TEXT
  5
2AD
330
44B
100
AcDbEntity
  8
YKK_Z1
100
AcDbText
 10
10192.28571429
 20
15625.6907475
 30
0.0
 40
60.0
  1
FL
 41
0.8
  7
YKK_SGSTYLE1
 72
     2
 11
10270.0
 21
15625.6907475
 31
0.0
100
AcDbText
  0
TEXT
  5
2AE
330
44B
100
AcDbEntity
  8
0
100
AcDbText
 10
5800.0
 20
19187.5
 30
0.0
 40
200.0
  1
ガラリ　ルーバータイプ
  7
EXTFONT
100
AcDbText
  0
TEXT
  5
2AF
330
44B
100
AcDbEntity
  8
0
100
AcDbText
 10
5800.0
 20
18737.5
 30
0.0
 40
200.0
  1
W＝700　H＝600
  7
EXTFONT
100
AcDbText
  0
LINE
  5
2B0
330
44B
100
AcDbEntity
  8
YKK_Z1
  6
Continuous
100
AcDbLine
 10
3872.0
 20
17018.19075097
 30
0.0
 11
3852.0
 21
17038.19075443
 31
0.0
  0
LINE
  5
2B1
330
44B
100
AcDbEntity
  8
YKK_Z1
  6
Continuous
100
AcDbLine
 10
3852.0
 20
17018.19073711
 30
0.0
 11
3872.0
 21
17038.19072672
 31
0.0
  0
LINE
  5
2B2
330
44B
100
AcDbEntity
  8
YKK_Z1
  6
Continuous
100
AcDbLine
 10
3852.0
 20
17315.6907475
 30
0.0
 11
3852.0
 21
16998.1907475
 31
0.0
  0
LINE
  5
2B3
330
44B
100
AcDbEntity
  8
YKK_Z1
  6
Continuous
100
AcDbLine
 10
3672.0
 20
16983.1907475
 30
0.0
 11
3672.0
 21
17315.6907475
 31
0.0
  0
LINE
  5
2B4
330
44B
100
AcDbEntity
  8
YKK_Z1
  6
CENTER
100
AcDbLine
 10
3762.0
 20
16983.4407475
 30
0.0
 11
3762.0
 21
17315.6907475
 31
0.0
  0
LINE
  5
2B5
330
44B
100
AcDbEntity
  8
YKK_Z1
  6
Continuous
100
AcDbLine
 10
3872.0
 20
16998.1907475
 30
0.0
 11
3872.0
 21
17315.6907475
 31
0.0
  0
LINE
  5
2B6
330
44B
100
AcDbEntity
  8
YKK_Z1
  6
Continuous
100
AcDbLine
 10
3660.0
 20
16977.0907475
 30
0.0
 11
3660.0
 21
17315.6907475
 31
0.0
  0
LINE
  5
2B7
330
44B
100
AcDbEntity
  8
YKK_Z1
  6
Continuous
100
AcDbLine
 10
3668.0
 20
16977.0907475
 30
0.0
 11
3668.0
 21
17315.6907475
 31
0.0
  0
LINE
  5
2B8
330
44B
100
AcDbEntity
  8
YKK_N1
  6
ByBlock
100
AcDbLine
 10
3830.0
 20
16915.6907475
 30
0.0
 11
4200.0
 21
16915.6907475
 31
0.0
  0
LINE
  5
2B9
330
44B
100
AcDbEntity
  8
YKK_N1
  6
ByBlock
100
AcDbLine
 10
3830.0
 20
16315.6907475
 30
0.0
 11
4200.0
 21
16315.6907475
 31
0.0
  0
LINE
  5
2BA
330
44B
100
AcDbEntity
  8
YKK_Z1
  6
Continuous
100
AcDbLine
 10
3900.0
 20
16945.6907475
 30
0.0
 11
4170.0
 21
16945.6907475
 31
0.0
  0
LINE
  5
2BB
330
44B
100
AcDbEntity
  8
YKK_Z1
  6
Continuous
100
AcDbLine
 10
4170.0
 20
16958.1907475
 30
0.0
 11
3900.0
 21
16958.1907475
 31
0.0
  0
INSERT
  5
2BC
330
44B
100
AcDbEntity
  8
YKK_C1
100
AcDbBlockReference
  2
SGGF
 10
3740.3
 20
16697.6907475
 30
0.0
  0
INSERT
  5
2C3
330
44B
100
AcDbEntity
  8
YKK_C1
100
AcDbBlockReference
  2
SGGF
 10
3740.3
 20
16647.6907475
 30
0.0
  0
LINE
  5
2C4
330
44B
100
AcDbEntity
  8
YKK_C1
100
AcDbLine
 10
3770.0
 20
16335.6907475
 30
0.0
 11
3770.0
 21
16895.6907475
 31
0.0
  0
LINE
  5
2C5
330
44B
100
AcDbEntity
  8
YKK_C1
100
AcDbLine
 10
3645.0
 20
16285.6907475
 30
0.0
 11
3645.0
 21
16935.6907475
 31
0.0
  0
LINE
  5
2C6
330
44B
100
AcDbEntity
  8
YKK_Z1
  6
Continuous
100
AcDbLine
 10
3907.0
 20
16920.6907475
 30
0.0
 11
3907.0
 21
16615.6907475
 31
0.0
  0
POINT
  5
2C7
330
44B
100
AcDbEntity
  8
YKK_N1
  6
ByBlock
100
AcDbPoint
 10
3770.0
 20
16315.6907475
 30
0.0
  0
INSERT
  5
2C8
330
44B
100
AcDbEntity
  8
YKK_C1
100
AcDbBlockReference
  2
SGGF
 10
3740.3
 20
16497.6907475
 30
0.0
  0
INSERT
  5
2C9
330
44B
100
AcDbEntity
  8
YKK_C1
100
AcDbBlockReference
  2
SGGF
 10
3740.3
 20
16547.6907475
 30
0.0
  0
INSERT
  5
2CA
330
44B
100
AcDbEntity
  8
YKK_C1
100
AcDbBlockReference
  2
SGGF
 10
3740.3
 20
16597.6907475
 30
0.0
  0
LINE
  5
2CB
330
44B
100
AcDbEntity
  8
YKK_C1
100
AcDbLine
 10
3770.0
 20
16315.6907475
 30
0.0
 11
3770.0
 21
16275.6907475
 31
0.0
  0
LINE
  5
2CC
330
44B
100
AcDbEntity
  8
YKK_C1
100
AcDbLine
 10
3770.0
 20
16275.6907475
 30
0.0
 11
3730.0
 21
16275.6907475
 31
0.0
  0
INSERT
  5
2CD
330
44B
100
AcDbEntity
  8
YKK_C1
100
AcDbBlockReference
  2
SGGF
 10
3740.3
 20
16347.6907475
 30
0.0
  0
INSERT
  5
2CE
330
44B
100
AcDbEntity
  8
YKK_C1
100
AcDbBlockReference
  2
SGGF
 10
3740.3
 20
16397.6907475
 30
0.0
  0
LINE
  5
2CF
330
44B
100
AcDbEntity
  8
YKK_C1
100
AcDbLine
 10
3700.0
 20
16265.6907475
 30
0.0
 11
3770.0
 21
16265.6907475
 31
0.0
  0
LINE
  5
2D0
330
44B
100
AcDbEntity
  8
YKK_C1
100
AcDbLine
 10
3770.0
 20
16253.1907475
 30
0.0
 11
3763.0
 21
16253.1907475
 31
0.0
  0
LINE
  5
2D1
330
44B
100
AcDbEntity
  8
YKK_C1
100
AcDbLine
 10
3730.0
 20
16275.6907475
 30
0.0
 11
3730.0
 21
16265.6907475
 31
0.0
  0
LINE
  5
2D2
330
44B
100
AcDbEntity
  8
YKK_C1
100
AcDbLine
 10
3770.0
 20
16275.6907475
 30
0.0
 11
3770.0
 21
16253.1907475
 31
0.0
  0
LINE
  5
2D3
330
44B
100
AcDbEntity
  8
YKK_C1
100
AcDbLine
 10
3645.0
 20
16258.1907475
 30
0.0
 11
3645.0
 21
16253.1907475
 31
0.0
  0
LINE
  5
2D4
330
44B
100
AcDbEntity
  8
YKK_C1
100
AcDbLine
 10
3700.0
 20
16265.6907475
 30
0.0
 11
3645.0
 21
16258.1907475
 31
0.0
  0
LINE
  5
2D5
330
44B
100
AcDbEntity
  8
YKK_C1
100
AcDbLine
 10
3645.0
 20
16253.1907475
 30
0.0
 11
3707.0
 21
16253.1907475
 31
0.0
  0
INSERT
  5
2D6
330
44B
100
AcDbEntity
  8
YKK_C1
100
AcDbBlockReference
  2
SGGF
 10
3740.3
 20
16447.6907475
 30
0.0
  0
LINE
  5
2D7
330
44B
100
AcDbEntity
  8
YKK_Z1
  6
Continuous
100
AcDbLine
 10
3887.5
 20
16295.6907475
 30
0.0
 11
3900.0
 21
16295.6907475
 31
0.0
  0
LINE
  5
2D8
330
44B
100
AcDbEntity
  8
YKK_Z1
  6
Continuous
100
AcDbLine
 10
3907.0
 20
16310.6907475
 30
0.0
 11
3907.0
 21
16615.6907475
 31
0.0
  0
LINE
  5
2D9
330
44B
100
AcDbEntity
  8
YKK_Z1
100
AcDbLine
 10
3910.0
 20
16285.6907475
 30
0.0
 11
3900.0
 21
16285.6907475
 31
0.0
  0
LINE
  5
2DA
330
44B
100
AcDbEntity
  8
YKK_Z1
100
AcDbLine
 10
3910.0
 20
16310.6907475
 30
0.0
 11
3910.0
 21
16285.6907475
 31
0.0
  0
LINE
  5
2DB
330
44B
100
AcDbEntity
  8
YKK_Z1
100
AcDbLine
 10
3770.0
 20
16310.6907475
 30
0.0
 11
3910.0
 21
16310.6907475
 31
0.0
  0
TEXT
  5
2DC
330
44B
100
AcDbEntity
  8
YKK_N1
100
AcDbText
 10
3635.5
 20
16788.6907475
 30
0.0
 40
60.0
  1
125
 41
0.8
  7
YKK_SGSTYLE1
100
AcDbText
  0
LINE
  5
2DD
330
44B
100
AcDbEntity
  8
YKK_N1
100
AcDbLine
 10
3770.0
 20
16743.6907475
 30
0.0
 11
3750.0
 21
16743.6907475
 31
0.0
  0
CIRCLE
  5
2DE
330
44B
100
AcDbEntity
  8
YKK_N1
100
AcDbCircle
 10
3770.0
 20
16743.6907475
 30
0.0
 40
6.5
  0
CIRCLE
  5
2DF
330
44B
100
AcDbEntity
  8
YKK_N1
100
AcDbCircle
 10
3770.0
 20
16743.6907475
 30
0.0
 40
10.0
  0
LINE
  5
2E0
330
44B
100
AcDbEntity
  8
YKK_N1
100
AcDbLine
 10
3645.0
 20
16743.6907475
 30
0.0
 11
3665.0
 21
16743.6907475
 31
0.0
  0
CIRCLE
  5
2E1
330
44B
100
AcDbEntity
  8
YKK_N1
100
AcDbCircle
 10
3645.0
 20
16743.6907475
 30
0.0
 40
6.5
  0
CIRCLE
  5
2E2
330
44B
100
AcDbEntity
  8
YKK_N1
100
AcDbCircle
 10
3645.0
 20
16743.6907475
 30
0.0
 40
10.0
  0
LINE
  5
2E3
330
44B
100
AcDbEntity
  8
YKK_N1
100
AcDbLine
 10
3770.0
 20
16743.6907475
 30
0.0
 11
3790.0
 21
16743.6907475
 31
0.0
  0
CIRCLE
  5
2E4
330
44B
100
AcDbEntity
  8
YKK_N1
100
AcDbCircle
 10
3770.0
 20
16743.6907475
 30
0.0
 40
6.5
  0
CIRCLE
  5
2E5
330
44B
100
AcDbEntity
  8
YKK_N1
100
AcDbCircle
 10
3770.0
 20
16743.6907475
 30
0.0
 40
10.0
  0
LINE
  5
2E6
330
44B
100
AcDbEntity
  8
YKK_N1
100
AcDbLine
 10
3910.0
 20
16743.6907475
 30
0.0
 11
3890.0
 21
16743.6907475
 31
0.0
  0
CIRCLE
  5
2E7
330
44B
100
AcDbEntity
  8
YKK_N1
100
AcDbCircle
 10
3910.0
 20
16743.6907475
 30
0.0
 40
6.5
  0
CIRCLE
  5
2E8
330
44B
100
AcDbEntity
  8
YKK_N1
100
AcDbCircle
 10
3910.0
 20
16743.6907475
 30
0.0
 40
10.0
  0
TEXT
  5
2E9
330
44B
100
AcDbEntity
  8
YKK_N1
100
AcDbText
 10
3768.0
 20
16753.6907475
 30
0.0
 40
60.0
  1
140
 41
0.8
  7
YKK_SGSTYLE1
100
AcDbText
  0
POINT
  5
2EA
330
44B
100
AcDbEntity
  8
YKK_N1
  6
ByBlock
100
AcDbPoint
 10
3910.0
 20
16743.6907475
 30
0.0
  0
POINT
  5
2EB
330
44B
100
AcDbEntity
  8
YKK_N1
  6
ByBlock
100
AcDbPoint
 10
3910.0
 20
16920.6907475
 30
0.0
  0
POINT
  5
2EC
330
44B
100
AcDbEntity
  8
YKK_N1
  6
ByBlock
100
AcDbPoint
 10
3770.0
 20
16743.6907475
 30
0.0
  0
LINE
  5
2ED
330
44B
100
AcDbEntity
  8
YKK_N1
  6
ByBlock
100
AcDbLine
 10
3790.0
 20
16743.6907475
 30
0.0
 11
3890.0
 21
16743.6907475
 31
0.0
  0
LINE
  5
2EE
330
44B
100
AcDbEntity
  8
YKK_N1
  6
ByBlock
100
AcDbLine
 10
3910.0
 20
16860.6907475
 30
0.0
 11
3910.0
 21
16713.6907475
 31
0.0
  0
LINE
  5
2EF
330
44B
100
AcDbEntity
  8
YKK_N1
  6
ByBlock
100
AcDbLine
 10
3770.0
 20
16803.6907475
 30
0.0
 11
3770.0
 21
16773.6907475
 31
0.0
  0
POINT
  5
2F0
330
44B
100
AcDbEntity
  8
YKK_N1
  6
ByBlock
100
AcDbPoint
 10
3645.0
 20
16743.6907475
 30
0.0
  0
POINT
  5
2F1
330
44B
100
AcDbEntity
  8
YKK_N1
  6
ByBlock
100
AcDbPoint
 10
3645.0
 20
16733.6907475
 30
0.0
  0
POINT
  5
2F2
330
44B
100
AcDbEntity
  8
YKK_N1
  6
ByBlock
100
AcDbPoint
 10
3770.0
 20
16733.6907475
 30
0.0
  0
LINE
  5
2F3
330
44B
100
AcDbEntity
  8
YKK_N1
  6
ByBlock
100
AcDbLine
 10
3750.0
 20
16743.6907475
 30
0.0
 11
3665.0
 21
16743.6907475
 31
0.0
  0
LINE
  5
2F4
330
44B
100
AcDbEntity
  8
YKK_N1
  6
ByBlock
100
AcDbLine
 10
3645.0
 20
16793.6907475
 30
0.0
 11
3645.0
 21
16773.6907475
 31
0.0
  0
LINE
  5
2F5
330
44B
100
AcDbEntity
  8
YKK_N1
  6
ByBlock
100
AcDbLine
 10
3770.0
 20
16793.6907475
 30
0.0
 11
3770.0
 21
16773.6907475
 31
0.0
  0
POINT
  5
2F6
330
44B
100
AcDbEntity
  8
YKK_N1
  6
ByBlock
100
AcDbPoint
 10
3770.0
 20
16915.6907475
 30
0.0
  0
LINE
  5
2F7
330
44B
100
AcDbEntity
  8
YKK_C1
100
AcDbLine
 10
3770.0
 20
16915.6907475
 30
0.0
 11
3770.0
 21
16955.6907475
 31
0.0
  0
LINE
  5
2F8
330
44B
100
AcDbEntity
  8
YKK_C1
100
AcDbLine
 10
3770.0
 20
16955.6907475
 30
0.0
 11
3700.0
 21
16955.6907475
 31
0.0
  0
LINE
  5
2F9
330
44B
100
AcDbEntity
  8
YKK_C1
100
AcDbLine
 10
3770.0
 20
16955.6907475
 30
0.0
 11
3770.0
 21
16968.6907475
 31
0.0
  0
LINE
  5
2FA
330
44B
100
AcDbEntity
  8
YKK_C1
100
AcDbLine
 10
3770.0
 20
16968.6907475
 30
0.0
 11
3763.0
 21
16968.6907475
 31
0.0
  0
LINE
  5
2FB
330
44B
100
AcDbEntity
  8
YKK_C1
100
AcDbLine
 10
3700.0
 20
16968.6907475
 30
0.0
 11
3707.0
 21
16968.6907475
 31
0.0
  0
LINE
  5
2FC
330
44B
100
AcDbEntity
  8
YKK_C1
100
AcDbLine
 10
3700.0
 20
16955.6907475
 30
0.0
 11
3700.0
 21
16970.6907475
 31
0.0
  0
INSERT
  5
2FD
330
44B
100
AcDbEntity
  8
YKK_C1
100
AcDbBlockReference
  2
SGGF
 10
3740.3
 20
16847.6907475
 30
0.0
  0
INSERT
  5
2FE
330
44B
100
AcDbEntity
  8
YKK_C1
100
AcDbBlockReference
  2
SGGF
 10
3740.3
 20
16897.6907475
 30
0.0
  0
INSERT
  5
2FF
330
44B
100
AcDbEntity
  8
YKK_C1
100
AcDbBlockReference
  2
SGGF
 10
3740.3
 20
16747.6907475
 30
0.0
  0
INSERT
  5
300
330
44B
100
AcDbEntity
  8
YKK_C1
100
AcDbBlockReference
  2
SGGF
 10
3740.3
 20
16797.6907475
 30
0.0
  0
LINE
  5
301
330
44B
100
AcDbEntity
  8
YKK_C1
100
AcDbLine
 10
3645.0
 20
16960.6907475
 30
0.0
 11
3645.0
 21
16955.6907475
 31
0.0
  0
LINE
  5
302
330
44B
100
AcDbEntity
  8
YKK_C1
100
AcDbLine
 10
3700.0
 20
16965.6907475
 30
0.0
 11
3645.0
 21
16960.6907475
 31
0.0
  0
LINE
  5
303
330
44B
100
AcDbEntity
  8
YKK_C1
100
AcDbLine
 10
3645.0
 20
16955.6907475
 30
0.0
 11
3700.0
 21
16955.6907475
 31
0.0
  0
LINE
  5
304
330
44B
100
AcDbEntity
  8
YKK_Z1
  6
Continuous
100
AcDbLine
 10
3831.48470884
 20
16998.1907475
 30
0.0
 11
3852.0
 21
17018.706028
 31
0.0
  0
LINE
  5
305
330
44B
100
AcDbEntity
  8
YKK_Z1
  6
Continuous
100
AcDbLine
 10
3839.96999095
 20
16998.1907475
 30
0.0
 11
3852.0
 21
17010.2207503
 31
0.0
  0
LINE
  5
306
330
44B
100
AcDbEntity
  8
YKK_Z1
  6
Continuous
100
AcDbLine
 10
3852.0
 20
16998.1907475
 30
0.0
 11
3872.0
 21
16998.1907475
 31
0.0
  0
LINE
  5
308
330
44B
100
AcDbEntity
  8
YKK_Z1
  6
Continuous
100
AcDbLine
 10
3872.0
 20
16998.1907475
 30
0.0
 11
3852.0
 21
17018.19075097
 31
0.0
  0
LINE
  5
309
330
44B
100
AcDbEntity
  8
YKK_Z1
  6
Continuous
100
AcDbLine
 10
3852.0
 20
16998.1907475
 30
0.0
 11
3872.0
 21
17018.19073711
 31
0.0
  0
LINE
  5
30A
330
44B
100
AcDbEntity
  8
YKK_Z1
  6
Continuous
100
AcDbLine
 10
3900.0
 20
16958.1907475
 30
0.0
 11
3900.0
 21
16945.6907475
 31
0.0
  0
LINE
  5
30B
330
44B
100
AcDbEntity
  8
YKK_Z1
  6
Continuous
100
AcDbLine
 10
3727.0
 20
16998.1907475
 30
0.0
 11
3717.0
 21
16983.1907475
 31
0.0
  0
LINE
  5
30C
330
44B
100
AcDbEntity
  8
YKK_Z1
  6
Continuous
100
AcDbLine
 10
3852.0
 20
16998.1907475
 30
0.0
 11
3727.0
 21
16998.1907475
 31
0.0
  0
LINE
  5
30D
330
44B
100
AcDbEntity
  8
YKK_Z1
  6
Continuous
100
AcDbLine
 10
3660.0
 20
16960.6907475
 30
0.0
 11
3660.0
 21
16977.0907475
 31
0.0
  0
LINE
  5
30E
330
44B
100
AcDbEntity
  8
YKK_Z1
  6
Continuous
100
AcDbLine
 10
3660.0
 20
16977.0907475
 30
0.0
 11
3668.0
 21
16977.0907475
 31
0.0
  0
LINE
  5
30F
330
44B
100
AcDbEntity
  8
YKK_Z1
  6
Continuous
100
AcDbLine
 10
3717.0
 20
16983.1907475
 30
0.0
 11
3672.0
 21
16983.1907475
 31
0.0
  0
LINE
  5
310
330
44B
100
AcDbEntity
  8
YKK_Z1
100
AcDbLine
 10
3910.0
 20
16920.6907475
 30
0.0
 11
3910.0
 21
16945.6907475
 31
0.0
  0
LINE
  5
311
330
44B
100
AcDbEntity
  8
YKK_Z1
100
AcDbLine
 10
3910.0
 20
16945.6907475
 30
0.0
 11
3900.0
 21
16945.6907475
 31
0.0
  0
LINE
  5
312
330
44B
100
AcDbEntity
  8
YKK_Z1
100
AcDbLine
 10
3770.0
 20
16920.6907475
 30
0.0
 11
3910.0
 21
16920.6907475
 31
0.0
  0
TEXT
  5
313
330
44B
100
AcDbEntity
  8
YKK_N1
100
AcDbText
 10
4160.0
 20
16491.11931893
 30
0.0
 40
60.0
  1
H=600
 50
90.0
 41
0.8
  7
YKK_SGSTYLE1
100
AcDbText
  0
LINE
  5
314
330
44B
100
AcDbEntity
  8
YKK_N1
  6
ByBlock
100
AcDbLine
 10
4170.0
 20
16316.6907475
 30
0.0
 11
4170.0
 21
16914.6907475
 31
0.0
  0
LINE
  5
315
330
44B
100
AcDbEntity
  8
YKK_N1
  6
ByBlock
100
AcDbLine
 10
4170.0
 20
16315.6907475
 30
0.0
 11
4170.0
 21
16295.6907475
 31
0.0
  0
LINE
  5
316
330
44B
100
AcDbEntity
  8
YKK_N1
  6
ByBlock
100
AcDbLine
 10
4120.0
 20
16402.29328788
 30
0.0
 11
4170.0
 21
16315.6907475
 31
0.0
  0
LINE
  5
317
330
44B
100
AcDbEntity
  8
YKK_N1
  6
ByBlock
100
AcDbLine
 10
4220.0
 20
16402.29328788
 30
0.0
 11
4120.0
 21
16402.29328788
 31
0.0
  0
LINE
  5
318
330
44B
100
AcDbEntity
  8
YKK_N1
  6
ByBlock
100
AcDbLine
 10
4170.0
 20
16315.6907475
 30
0.0
 11
4220.0
 21
16402.29328788
 31
0.0
  0
LINE
  5
319
330
44B
100
AcDbEntity
  8
YKK_N1
  6
ByBlock
100
AcDbLine
 10
4170.0
 20
16315.6907475
 30
0.0
 11
4170.0
 21
16415.6907475
 31
0.0
  0
POINT
  5
31A
330
44B
100
AcDbEntity
  8
YKK_N1
  6
ByBlock
100
AcDbPoint
 10
4170.0
 20
16315.6907475
 30
0.0
  0
LINE
  5
31B
330
44B
100
AcDbEntity
  8
YKK_N1
  6
ByBlock
100
AcDbLine
 10
4220.0
 20
16829.08820713
 30
0.0
 11
4170.0
 21
16915.6907475
 31
0.0
  0
LINE
  5
31C
330
44B
100
AcDbEntity
  8
YKK_N1
  6
ByBlock
100
AcDbLine
 10
4120.0
 20
16829.08820713
 30
0.0
 11
4220.0
 21
16829.08820713
 31
0.0
  0
LINE
  5
31D
330
44B
100
AcDbEntity
  8
YKK_N1
  6
ByBlock
100
AcDbLine
 10
4170.0
 20
16915.6907475
 30
0.0
 11
4120.0
 21
16829.08820713
 31
0.0
  0
LINE
  5
31E
330
44B
100
AcDbEntity
  8
YKK_N1
  6
ByBlock
100
AcDbLine
 10
4170.0
 20
16915.6907475
 30
0.0
 11
4170.0
 21
16815.6907475
 31
0.0
  0
POINT
  5
31F
330
44B
100
AcDbEntity
  8
YKK_N1
  6
ByBlock
100
AcDbPoint
 10
4170.0
 20
16915.6907475
 30
0.0
  0
LINE
  5
320
330
44B
100
AcDbEntity
  8
YKK_Z1
  6
Continuous
100
AcDbLine
 10
3872.0
 20
17238.19078907
 30
0.0
 11
3852.0
 21
17258.19079254
 31
0.0
  0
LINE
  5
321
330
44B
100
AcDbEntity
  8
YKK_Z1
  6
Continuous
100
AcDbLine
 10
3872.0
 20
17258.19079254
 30
0.0
 11
3852.0
 21
17278.190796
 31
0.0
  0
LINE
  5
322
330
44B
100
AcDbEntity
  8
YKK_Z1
  6
Continuous
100
AcDbLine
 10
3872.0
 20
17278.190796
 30
0.0
 11
3852.0
 21
17298.19079947
 31
0.0
  0
LINE
  5
323
330
44B
100
AcDbEntity
  8
YKK_Z1
  6
Continuous
100
AcDbLine
 10
3872.0
 20
17298.19079947
 30
0.0
 11
3854.50005499
 21
17315.6907475
 31
0.0
  0
LINE
  5
324
330
44B
100
AcDbEntity
  8
YKK_Z1
  6
Continuous
100
AcDbLine
 10
3852.0
 20
17238.1906228
 30
0.0
 11
3872.0
 21
17258.1906124
 31
0.0
  0
LINE
  5
325
330
44B
100
AcDbEntity
  8
YKK_Z1
  6
Continuous
100
AcDbLine
 10
3852.0
 20
17258.1906124
 30
0.0
 11
3872.0
 21
17278.19060201
 31
0.0
  0
LINE
  5
326
330
44B
100
AcDbEntity
  8
YKK_Z1
  6
Continuous
100
AcDbLine
 10
3852.0
 20
17278.19060201
 30
0.0
 11
3872.0
 21
17298.19059162
 31
0.0
  0
LINE
  5
327
330
44B
100
AcDbEntity
  8
YKK_Z1
  6
Continuous
100
AcDbLine
 10
3852.0
 20
17298.19059162
 30
0.0
 11
3869.50016498
 21
17315.6907475
 31
0.0
  0
LINE
  5
328
330
44B
100
AcDbEntity
  8
YKK_Z1
  6
Continuous
100
AcDbLine
 10
3872.0
 20
17078.19076136
 30
0.0
 11
3852.0
 21
17098.19076482
 31
0.0
  0
LINE
  5
329
330
44B
100
AcDbEntity
  8
YKK_Z1
  6
Continuous
100
AcDbLine
 10
3872.0
 20
17098.19076482
 30
0.0
 11
3852.0
 21
17118.19076829
 31
0.0
  0
LINE
  5
32A
330
44B
100
AcDbEntity
  8
YKK_Z1
  6
Continuous
100
AcDbLine
 10
3872.0
 20
17118.19076829
 30
0.0
 11
3852.0
 21
17138.19077175
 31
0.0
  0
LINE
  5
32B
330
44B
100
AcDbEntity
  8
YKK_Z1
  6
Continuous
100
AcDbLine
 10
3872.0
 20
17138.19077175
 30
0.0
 11
3852.0
 21
17158.19077522
 31
0.0
  0
LINE
  5
32C
330
44B
100
AcDbEntity
  8
YKK_Z1
  6
Continuous
100
AcDbLine
 10
3872.0
 20
17158.19077522
 30
0.0
 11
3852.0
 21
17178.19077868
 31
0.0
  0
LINE
  5
32D
330
44B
100
AcDbEntity
  8
YKK_Z1
  6
Continuous
100
AcDbLine
 10
3872.0
 20
17178.19077868
 30
0.0
 11
3852.0
 21
17198.19078215
 31
0.0
  0
LINE
  5
32E
330
44B
100
AcDbEntity
  8
YKK_Z1
  6
Continuous
100
AcDbLine
 10
3872.0
 20
17198.19078215
 30
0.0
 11
3852.0
 21
17218.19078561
 31
0.0
  0
LINE
  5
32F
330
44B
100
AcDbEntity
  8
YKK_Z1
  6
Continuous
100
AcDbLine
 10
3852.0
 20
17078.19070593
 30
0.0
 11
3872.0
 21
17098.19069554
 31
0.0
  0
LINE
  5
330
330
44B
100
AcDbEntity
  8
YKK_Z1
  6
Continuous
100
AcDbLine
 10
3852.0
 20
17098.19069554
 30
0.0
 11
3872.0
 21
17118.19068515
 31
0.0
  0
LINE
  5
331
330
44B
100
AcDbEntity
  8
YKK_Z1
  6
Continuous
100
AcDbLine
 10
3852.0
 20
17118.19068515
 30
0.0
 11
3872.0
 21
17138.19067476
 31
0.0
  0
LINE
  5
332
330
44B
100
AcDbEntity
  8
YKK_Z1
  6
Continuous
100
AcDbLine
 10
3852.0
 20
17138.19067476
 30
0.0
 11
3872.0
 21
17158.19066437
 31
0.0
  0
LINE
  5
333
330
44B
100
AcDbEntity
  8
YKK_Z1
  6
Continuous
100
AcDbLine
 10
3852.0
 20
17158.19066437
 30
0.0
 11
3872.0
 21
17178.19065397
 31
0.0
  0
LINE
  5
334
330
44B
100
AcDbEntity
  8
YKK_Z1
  6
Continuous
100
AcDbLine
 10
3852.0
 20
17178.19065397
 30
0.0
 11
3872.0
 21
17198.19064358
 31
0.0
  0
LINE
  5
335
330
44B
100
AcDbEntity
  8
YKK_Z1
  6
Continuous
100
AcDbLine
 10
3852.0
 20
17198.19064358
 30
0.0
 11
3872.0
 21
17218.19063319
 31
0.0
  0
LINE
  5
336
330
44B
100
AcDbEntity
  8
YKK_Z1
  6
Continuous
100
AcDbLine
 10
3872.0
 20
17218.19078561
 30
0.0
 11
3852.0
 21
17238.19078907
 31
0.0
  0
LINE
  5
337
330
44B
100
AcDbEntity
  8
YKK_Z1
  6
Continuous
100
AcDbLine
 10
3852.0
 20
17218.19063319
 30
0.0
 11
3872.0
 21
17238.1906228
 31
0.0
  0
LINE
  5
338
330
44B
100
AcDbEntity
  8
YKK_Z1
  6
Continuous
100
AcDbLine
 10
3660.0
 20
17297.0907475
 30
0.0
 11
3668.0
 21
17297.0907475
 31
0.0
  0
LINE
  5
339
330
44B
100
AcDbEntity
  8
YKK_Z1
  6
Continuous
100
AcDbLine
 10
3660.0
 20
17307.0907475
 30
0.0
 11
3668.0
 21
17307.0907475
 31
0.0
  0
LINE
  5
33A
330
44B
100
AcDbEntity
  8
YKK_Z1
  6
Continuous
100
AcDbLine
 10
3660.0
 20
17077.0907475
 30
0.0
 11
3668.0
 21
17077.0907475
 31
0.0
  0
LINE
  5
33B
330
44B
100
AcDbEntity
  8
YKK_Z1
  6
Continuous
100
AcDbLine
 10
3660.0
 20
17087.0907475
 30
0.0
 11
3668.0
 21
17087.0907475
 31
0.0
  0
LINE
  5
33C
330
44B
100
AcDbEntity
  8
YKK_Z1
  6
Continuous
100
AcDbLine
 10
3660.0
 20
17187.0907475
 30
0.0
 11
3668.0
 21
17187.0907475
 31
0.0
  0
LINE
  5
33D
330
44B
100
AcDbEntity
  8
YKK_Z1
  6
Continuous
100
AcDbLine
 10
3660.0
 20
17197.0907475
 30
0.0
 11
3668.0
 21
17197.0907475
 31
0.0
  0
LINE
  5
33E
330
44B
100
AcDbEntity
  8
YKK_Z1
  6
Continuous
100
AcDbLine
 10
3672.0
 20
17135.69084103
 30
0.0
 11
3852.0
 21
17315.6907475
 31
0.0
  0
LINE
  5
33F
330
44B
100
AcDbEntity
  8
YKK_Z1
  6
Continuous
100
AcDbLine
 10
3672.0
 20
17127.20556333
 30
0.0
 11
3852.0
 21
17307.2054698
 31
0.0
  0
LINE
  5
340
330
44B
100
AcDbEntity
  8
YKK_Z1
  6
Continuous
100
AcDbLine
 10
3672.0
 20
17107.40658203
 30
0.0
 11
3852.0
 21
17287.4064885
 31
0.0
  0
LINE
  5
341
330
44B
100
AcDbEntity
  8
YKK_Z1
  6
Continuous
100
AcDbLine
 10
3872.0
 20
17038.19075443
 30
0.0
 11
3852.0
 21
17058.1907579
 31
0.0
  0
LINE
  5
342
330
44B
100
AcDbEntity
  8
YKK_Z1
  6
Continuous
100
AcDbLine
 10
3852.0
 20
17038.19072672
 30
0.0
 11
3872.0
 21
17058.19071633
 31
0.0
  0
LINE
  5
343
330
44B
100
AcDbEntity
  8
YKK_Z1
  6
Continuous
100
AcDbLine
 10
3872.0
 20
17058.1907579
 30
0.0
 11
3852.0
 21
17078.19076136
 31
0.0
  0
LINE
  5
344
330
44B
100
AcDbEntity
  8
YKK_Z1
  6
Continuous
100
AcDbLine
 10
3852.0
 20
17058.19071633
 30
0.0
 11
3872.0
 21
17078.19070593
 31
0.0
  0
LINE
  5
345
330
44B
100
AcDbEntity
  8
YKK_A1
100
AcDbLine
 10
7230.0
 20
16315.6907475
 30
0.0
 11
7960.0
 21
16315.6907475
 31
0.0
  0
LINE
  5
346
330
44B
100
AcDbEntity
  8
YKK_A1
100
AcDbLine
 10
7960.0
 20
16930.6907475
 30
0.0
 11
7230.0
 21
16930.6907475
 31
0.0
  0
LINE
  5
347
330
44B
100
AcDbEntity
  8
YKK_A1
100
AcDbLine
 10
7245.0
 20
16315.6907475
 30
0.0
 11
7945.0
 21
16315.6907475
 31
0.0
  0
LINE
  5
348
330
44B
100
AcDbEntity
  8
YKK_A1
100
AcDbLine
 10
7945.0
 20
16915.6907475
 30
0.0
 11
7245.0
 21
16915.6907475
 31
0.0
  0
LINE
  5
349
330
44B
100
AcDbEntity
  8
YKK_A1
100
AcDbLine
 10
7263.0
 20
16353.6907475
 30
0.0
 11
7927.0
 21
16353.6907475
 31
0.0
  0
LINE
  5
34A
330
44B
100
AcDbEntity
  8
YKK_A1
100
AcDbLine
 10
7263.0
 20
16341.6907475
 30
0.0
 11
7927.0
 21
16341.6907475
 31
0.0
  0
LINE
  5
34B
330
44B
100
AcDbEntity
  8
YKK_A1
100
AcDbLine
 10
7263.0
 20
16403.6907475
 30
0.0
 11
7927.0
 21
16403.6907475
 31
0.0
  0
LINE
  5
34C
330
44B
100
AcDbEntity
  8
YKK_A1
100
AcDbLine
 10
7263.0
 20
16391.6907475
 30
0.0
 11
7927.0
 21
16391.6907475
 31
0.0
  0
LINE
  5
34D
330
44B
100
AcDbEntity
  8
YKK_A1
100
AcDbLine
 10
7263.0
 20
16453.6907475
 30
0.0
 11
7927.0
 21
16453.6907475
 31
0.0
  0
LINE
  5
34E
330
44B
100
AcDbEntity
  8
YKK_A1
100
AcDbLine
 10
7263.0
 20
16441.6907475
 30
0.0
 11
7927.0
 21
16441.6907475
 31
0.0
  0
LINE
  5
34F
330
44B
100
AcDbEntity
  8
YKK_A1
100
AcDbLine
 10
7263.0
 20
16503.6907475
 30
0.0
 11
7927.0
 21
16503.6907475
 31
0.0
  0
LINE
  5
350
330
44B
100
AcDbEntity
  8
YKK_A1
100
AcDbLine
 10
7263.0
 20
16491.6907475
 30
0.0
 11
7927.0
 21
16491.6907475
 31
0.0
  0
LINE
  5
351
330
44B
100
AcDbEntity
  8
YKK_A1
100
AcDbLine
 10
7263.0
 20
16553.6907475
 30
0.0
 11
7927.0
 21
16553.6907475
 31
0.0
  0
LINE
  5
352
330
44B
100
AcDbEntity
  8
YKK_A1
100
AcDbLine
 10
7263.0
 20
16541.6907475
 30
0.0
 11
7927.0
 21
16541.6907475
 31
0.0
  0
LINE
  5
353
330
44B
100
AcDbEntity
  8
YKK_A1
100
AcDbLine
 10
7263.0
 20
16603.6907475
 30
0.0
 11
7927.0
 21
16603.6907475
 31
0.0
  0
LINE
  5
354
330
44B
100
AcDbEntity
  8
YKK_A1
100
AcDbLine
 10
7263.0
 20
16591.6907475
 30
0.0
 11
7927.0
 21
16591.6907475
 31
0.0
  0
LINE
  5
355
330
44B
100
AcDbEntity
  8
YKK_A1
100
AcDbLine
 10
7263.0
 20
16653.6907475
 30
0.0
 11
7927.0
 21
16653.6907475
 31
0.0
  0
LINE
  5
356
330
44B
100
AcDbEntity
  8
YKK_A1
100
AcDbLine
 10
7263.0
 20
16641.6907475
 30
0.0
 11
7927.0
 21
16641.6907475
 31
0.0
  0
LINE
  5
357
330
44B
100
AcDbEntity
  8
YKK_A1
100
AcDbLine
 10
7263.0
 20
16703.6907475
 30
0.0
 11
7927.0
 21
16703.6907475
 31
0.0
  0
LINE
  5
358
330
44B
100
AcDbEntity
  8
YKK_A1
100
AcDbLine
 10
7263.0
 20
16691.6907475
 30
0.0
 11
7927.0
 21
16691.6907475
 31
0.0
  0
LINE
  5
359
330
44B
100
AcDbEntity
  8
YKK_A1
100
AcDbLine
 10
7263.0
 20
16753.6907475
 30
0.0
 11
7927.0
 21
16753.6907475
 31
0.0
  0
LINE
  5
35A
330
44B
100
AcDbEntity
  8
YKK_A1
100
AcDbLine
 10
7263.0
 20
16741.6907475
 30
0.0
 11
7927.0
 21
16741.6907475
 31
0.0
  0
LINE
  5
35B
330
44B
100
AcDbEntity
  8
YKK_A1
100
AcDbLine
 10
7263.0
 20
16803.6907475
 30
0.0
 11
7927.0
 21
16803.6907475
 31
0.0
  0
LINE
  5
35C
330
44B
100
AcDbEntity
  8
YKK_A1
100
AcDbLine
 10
7263.0
 20
16791.6907475
 30
0.0
 11
7927.0
 21
16791.6907475
 31
0.0
  0
LINE
  5
35D
330
44B
100
AcDbEntity
  8
YKK_A1
100
AcDbLine
 10
7263.0
 20
16853.6907475
 30
0.0
 11
7927.0
 21
16853.6907475
 31
0.0
  0
LINE
  5
35E
330
44B
100
AcDbEntity
  8
YKK_A1
100
AcDbLine
 10
7263.0
 20
16841.6907475
 30
0.0
 11
7927.0
 21
16841.6907475
 31
0.0
  0
LINE
  5
35F
330
44B
100
AcDbEntity
  8
YKK_A1
100
AcDbLine
 10
7263.0
 20
16903.6907475
 30
0.0
 11
7927.0
 21
16903.6907475
 31
0.0
  0
LINE
  5
360
330
44B
100
AcDbEntity
  8
YKK_A1
100
AcDbLine
 10
7263.0
 20
16891.6907475
 30
0.0
 11
7927.0
 21
16891.6907475
 31
0.0
  0
LINE
  5
361
330
44B
100
AcDbEntity
  8
YKK_A1
100
AcDbLine
 10
7230.0
 20
16930.6907475
 30
0.0
 11
7230.0
 21
16315.6907475
 31
0.0
  0
LINE
  5
362
330
44B
100
AcDbEntity
  8
YKK_A1
100
AcDbLine
 10
7245.0
 20
16915.6907475
 30
0.0
 11
7245.0
 21
16315.6907475
 31
0.0
  0
LINE
  5
363
330
44B
100
AcDbEntity
  8
YKK_A1
100
AcDbLine
 10
7263.0
 20
16315.6907475
 30
0.0
 11
7263.0
 21
16915.6907475
 31
0.0
  0
POINT
  5
364
330
44B
100
AcDbEntity
  8
YKK_N1
  6
ByBlock
100
AcDbPoint
 10
7245.0
 20
16315.6907475
 30
0.0
  0
LINE
  5
365
330
44B
100
AcDbEntity
  8
YKK_N1
  6
ByBlock
100
AcDbLine
 10
8005.0
 20
16915.6907475
 30
0.0
 11
8375.0
 21
16915.6907475
 31
0.0
  0
LINE
  5
366
330
44B
100
AcDbEntity
  8
YKK_N1
  6
ByBlock
100
AcDbLine
 10
8005.0
 20
16315.6907475
 30
0.0
 11
8375.0
 21
16315.6907475
 31
0.0
  0
LINE
  5
367
330
44B
100
AcDbEntity
  8
YKK_A1
100
AcDbLine
 10
7960.0
 20
16315.6907475
 30
0.0
 11
7960.0
 21
16930.6907475
 31
0.0
  0
LINE
  5
368
330
44B
100
AcDbEntity
  8
YKK_A1
100
AcDbLine
 10
7945.0
 20
16315.6907475
 30
0.0
 11
7945.0
 21
16915.6907475
 31
0.0
  0
LINE
  5
369
330
44B
100
AcDbEntity
  8
YKK_A1
100
AcDbLine
 10
7927.0
 20
16315.6907475
 30
0.0
 11
7927.0
 21
16915.6907475
 31
0.0
  0
POINT
  5
36A
330
44B
100
AcDbEntity
  8
YKK_N1
  6
ByBlock
100
AcDbPoint
 10
7945.0
 20
16315.6907475
 30
0.0
  0
POINT
  5
36B
330
44B
100
AcDbEntity
  8
YKK_N1
  6
ByBlock
100
AcDbPoint
 10
7945.0
 20
16315.6907475
 30
0.0
  0
POINT
  5
36C
330
44B
100
AcDbEntity
  8
YKK_N1
  6
ByBlock
100
AcDbPoint
 10
7945.0
 20
16915.6907475
 30
0.0
  0
TEXT
  5
36D
330
44B
100
AcDbEntity
  8
YKK_N1
100
AcDbText
 10
8335.0
 20
16491.11931893
 30
0.0
 40
60.0
  1
H=600
 50
90.0
 41
0.8
  7
YKK_SGSTYLE1
100
AcDbText
  0
LINE
  5
36E
330
44B
100
AcDbEntity
  8
YKK_N1
  6
ByBlock
100
AcDbLine
 10
8345.0
 20
16316.6907475
 30
0.0
 11
8345.0
 21
16914.6907475
 31
0.0
  0
LINE
  5
36F
330
44B
100
AcDbEntity
  8
YKK_N1
  6
ByBlock
100
AcDbLine
 10
8295.0
 20
16402.29328788
 30
0.0
 11
8345.0
 21
16315.6907475
 31
0.0
  0
LINE
  5
370
330
44B
100
AcDbEntity
  8
YKK_N1
  6
ByBlock
100
AcDbLine
 10
8395.0
 20
16402.29328788
 30
0.0
 11
8295.0
 21
16402.29328788
 31
0.0
  0
LINE
  5
371
330
44B
100
AcDbEntity
  8
YKK_N1
  6
ByBlock
100
AcDbLine
 10
8345.0
 20
16315.6907475
 30
0.0
 11
8395.0
 21
16402.29328788
 31
0.0
  0
LINE
  5
372
330
44B
100
AcDbEntity
  8
YKK_N1
  6
ByBlock
100
AcDbLine
 10
8345.0
 20
16315.6907475
 30
0.0
 11
8345.0
 21
16415.6907475
 31
0.0
  0
LINE
  5
373
330
44B
100
AcDbEntity
  8
YKK_N1
  6
ByBlock
100
AcDbLine
 10
8395.0
 20
16829.08820713
 30
0.0
 11
8345.0
 21
16915.6907475
 31
0.0
  0
LINE
  5
374
330
44B
100
AcDbEntity
  8
YKK_N1
  6
ByBlock
100
AcDbLine
 10
8295.0
 20
16829.08820713
 30
0.0
 11
8395.0
 21
16829.08820713
 31
0.0
  0
LINE
  5
375
330
44B
100
AcDbEntity
  8
YKK_N1
  6
ByBlock
100
AcDbLine
 10
8345.0
 20
16915.6907475
 30
0.0
 11
8295.0
 21
16829.08820713
 31
0.0
  0
LINE
  5
376
330
44B
100
AcDbEntity
  8
YKK_N1
  6
ByBlock
100
AcDbLine
 10
8345.0
 20
16915.6907475
 30
0.0
 11
8345.0
 21
16815.6907475
 31
0.0
  0
POINT
  5
377
330
44B
100
AcDbEntity
  8
YKK_N1
  6
ByBlock
100
AcDbPoint
 10
8345.0
 20
16915.6907475
 30
0.0
  0
LINE
  5
378
330
44B
100
AcDbEntity
  8
YKK_Z1
  6
Continuous
100
AcDbLine
 10
9572.0
 20
17018.19075097
 30
0.0
 11
9552.0
 21
17038.19075443
 31
0.0
  0
LINE
  5
379
330
44B
100
AcDbEntity
  8
YKK_Z1
  6
Continuous
100
AcDbLine
 10
9552.0
 20
17018.19073711
 30
0.0
 11
9572.0
 21
17038.19072672
 31
0.0
  0
LINE
  5
37A
330
44B
100
AcDbEntity
  8
YKK_Z1
  6
Continuous
100
AcDbLine
 10
9552.0
 20
17315.6907475
 30
0.0
 11
9552.0
 21
16998.1907475
 31
0.0
  0
LINE
  5
37B
330
44B
100
AcDbEntity
  8
YKK_Z1
  6
Continuous
100
AcDbLine
 10
9372.0
 20
16983.1907475
 30
0.0
 11
9372.0
 21
17315.6907475
 31
0.0
  0
LINE
  5
37C
330
44B
100
AcDbEntity
  8
YKK_Z1
  6
CENTER
100
AcDbLine
 10
9462.0
 20
16983.4407475
 30
0.0
 11
9462.0
 21
17315.6907475
 31
0.0
  0
LINE
  5
37D
330
44B
100
AcDbEntity
  8
YKK_Z1
  6
Continuous
100
AcDbLine
 10
9572.0
 20
16998.1907475
 30
0.0
 11
9572.0
 21
17315.6907475
 31
0.0
  0
LINE
  5
37E
330
44B
100
AcDbEntity
  8
YKK_Z1
  6
Continuous
100
AcDbLine
 10
9360.0
 20
16977.0907475
 30
0.0
 11
9360.0
 21
17315.6907475
 31
0.0
  0
LINE
  5
37F
330
44B
100
AcDbEntity
  8
YKK_Z1
  6
Continuous
100
AcDbLine
 10
9368.0
 20
16977.0907475
 30
0.0
 11
9368.0
 21
17315.6907475
 31
0.0
  0
LINE
  5
380
330
44B
100
AcDbEntity
  8
YKK_N1
100
AcDbLine
 10
9470.0
 20
16743.6907475
 30
0.0
 11
9490.0
 21
16743.6907475
 31
0.0
  0
TEXT
  5
381
330
44B
100
AcDbEntity
  8
YKK_N1
100
AcDbText
 10
9468.0
 20
16753.6907475
 30
0.0
 40
60.0
  1
140
 41
0.8
  7
YKK_SGSTYLE1
100
AcDbText
  0
LINE
  5
382
330
44B
100
AcDbEntity
  8
YKK_Z1
  6
Continuous
100
AcDbLine
 10
9552.0
 20
16998.1907475
 30
0.0
 11
9427.0
 21
16998.1907475
 31
0.0
  0
LINE
  5
383
330
44B
100
AcDbEntity
  8
YKK_Z1
100
AcDbLine
 10
9470.0
 20
16920.6907475
 30
0.0
 11
9610.0
 21
16920.6907475
 31
0.0
  0
LINE
  5
384
330
44B
100
AcDbEntity
  8
YKK_Z1
100
AcDbLine
 10
9470.0
 20
16310.6907475
 30
0.0
 11
9610.0
 21
16310.6907475
 31
0.0
  0
INSERT
  5
385
330
44B
100
AcDbEntity
  8
YKK_C1
100
AcDbBlockReference
  2
SGGFRB
 10
9440.3
 20
16653.6907475
 30
0.0
  0
LINE
  5
38E
330
44B
100
AcDbEntity
  8
YKK_C1
100
AcDbLine
 10
9470.0
 20
16335.6907475
 30
0.0
 11
9470.0
 21
16895.6907475
 31
0.0
  0
LINE
  5
38F
330
44B
100
AcDbEntity
  8
YKK_C1
100
AcDbLine
 10
9345.0
 20
16285.6907475
 30
0.0
 11
9345.0
 21
16935.6907475
 31
0.0
  0
POINT
  5
390
330
44B
100
AcDbEntity
  8
YKK_N1
  6
ByBlock
100
AcDbPoint
 10
9470.0
 20
16315.6907475
 30
0.0
  0
INSERT
  5
391
330
44B
100
AcDbEntity
  8
YKK_C1
100
AcDbBlockReference
  2
SGGFRB
 10
9440.3
 20
16453.6907475
 30
0.0
  0
INSERT
  5
392
330
44B
100
AcDbEntity
  8
YKK_C1
100
AcDbBlockReference
  2
SGGFRB
 10
9440.3
 20
16503.6907475
 30
0.0
  0
INSERT
  5
393
330
44B
100
AcDbEntity
  8
YKK_C1
100
AcDbBlockReference
  2
SGGFRB
 10
9440.3
 20
16553.6907475
 30
0.0
  0
INSERT
  5
394
330
44B
100
AcDbEntity
  8
YKK_C1
100
AcDbBlockReference
  2
SGGFRB
 10
9440.3
 20
16603.6907475
 30
0.0
  0
LINE
  5
395
330
44B
100
AcDbEntity
  8
YKK_C1
100
AcDbLine
 10
9470.0
 20
16315.6907475
 30
0.0
 11
9470.0
 21
16275.6907475
 31
0.0
  0
LINE
  5
396
330
44B
100
AcDbEntity
  8
YKK_C1
100
AcDbLine
 10
9470.0
 20
16253.1907475
 30
0.0
 11
9463.0
 21
16253.1907475
 31
0.0
  0
LINE
  5
397
330
44B
100
AcDbEntity
  8
YKK_C1
100
AcDbLine
 10
9470.0
 20
16275.6907475
 30
0.0
 11
9470.0
 21
16253.1907475
 31
0.0
  0
INSERT
  5
398
330
44B
100
AcDbEntity
  8
YKK_C1
100
AcDbBlockReference
  2
SGGFRB
 10
9440.3
 20
16303.6907475
 30
0.0
  0
INSERT
  5
399
330
44B
100
AcDbEntity
  8
YKK_C1
100
AcDbBlockReference
  2
SGGFRB
 10
9440.3
 20
16353.6907475
 30
0.0
  0
INSERT
  5
39A
330
44B
100
AcDbEntity
  8
YKK_C1
100
AcDbBlockReference
  2
SGGFRB
 10
9440.3
 20
16403.6907475
 30
0.0
  0
LINE
  5
39B
330
44B
100
AcDbEntity
  8
YKK_C1
100
AcDbLine
 10
9400.0
 20
16265.6907475
 30
0.0
 11
9345.0
 21
16258.1907475
 31
0.0
  0
LINE
  5
39C
330
44B
100
AcDbEntity
  8
YKK_C1
100
AcDbLine
 10
9345.0
 20
16258.1907475
 30
0.0
 11
9345.0
 21
16253.1907475
 31
0.0
  0
LINE
  5
39D
330
44B
100
AcDbEntity
  8
YKK_C1
100
AcDbLine
 10
9345.0
 20
16253.1907475
 30
0.0
 11
9407.0
 21
16253.1907475
 31
0.0
  0
LINE
  5
39E
330
44B
100
AcDbEntity
  8
YKK_C1
100
AcDbLine
 10
9430.0
 20
16275.6907475
 30
0.0
 11
9430.0
 21
16265.6907475
 31
0.0
  0
LINE
  5
39F
330
44B
100
AcDbEntity
  8
YKK_C1
100
AcDbLine
 10
9470.0
 20
16275.6907475
 30
0.0
 11
9430.0
 21
16275.6907475
 31
0.0
  0
LINE
  5
3A0
330
44B
100
AcDbEntity
  8
YKK_C1
100
AcDbLine
 10
9400.0
 20
16265.6907475
 30
0.0
 11
9470.0
 21
16265.6907475
 31
0.0
  0
TEXT
  5
3A1
330
44B
100
AcDbEntity
  8
YKK_N1
100
AcDbText
 10
9335.5
 20
16788.6907475
 30
0.0
 40
60.0
  1
125
 41
0.8
  7
YKK_SGSTYLE1
100
AcDbText
  0
LINE
  5
3A2
330
44B
100
AcDbEntity
  8
YKK_N1
100
AcDbLine
 10
9470.0
 20
16743.6907475
 30
0.0
 11
9450.0
 21
16743.6907475
 31
0.0
  0
CIRCLE
  5
3A3
330
44B
100
AcDbEntity
  8
YKK_N1
100
AcDbCircle
 10
9470.0
 20
16743.6907475
 30
0.0
 40
6.5
  0
CIRCLE
  5
3A4
330
44B
100
AcDbEntity
  8
YKK_N1
100
AcDbCircle
 10
9470.0
 20
16743.6907475
 30
0.0
 40
10.0
  0
LINE
  5
3A5
330
44B
100
AcDbEntity
  8
YKK_N1
100
AcDbLine
 10
9345.0
 20
16743.6907475
 30
0.0
 11
9365.0
 21
16743.6907475
 31
0.0
  0
CIRCLE
  5
3A6
330
44B
100
AcDbEntity
  8
YKK_N1
100
AcDbCircle
 10
9345.0
 20
16743.6907475
 30
0.0
 40
6.5
  0
CIRCLE
  5
3A7
330
44B
100
AcDbEntity
  8
YKK_N1
100
AcDbCircle
 10
9345.0
 20
16743.6907475
 30
0.0
 40
10.0
  0
CIRCLE
  5
3A8
330
44B
100
AcDbEntity
  8
YKK_N1
100
AcDbCircle
 10
9470.0
 20
16743.6907475
 30
0.0
 40
6.5
  0
CIRCLE
  5
3A9
330
44B
100
AcDbEntity
  8
YKK_N1
100
AcDbCircle
 10
9470.0
 20
16743.6907475
 30
0.0
 40
10.0
  0
POINT
  5
3AA
330
44B
100
AcDbEntity
  8
YKK_N1
  6
ByBlock
100
AcDbPoint
 10
9345.0
 20
16743.6907475
 30
0.0
  0
POINT
  5
3AB
330
44B
100
AcDbEntity
  8
YKK_N1
  6
ByBlock
100
AcDbPoint
 10
9345.0
 20
16733.6907475
 30
0.0
  0
POINT
  5
3AC
330
44B
100
AcDbEntity
  8
YKK_N1
  6
ByBlock
100
AcDbPoint
 10
9470.0
 20
16733.6907475
 30
0.0
  0
LINE
  5
3AD
330
44B
100
AcDbEntity
  8
YKK_N1
  6
ByBlock
100
AcDbLine
 10
9450.0
 20
16743.6907475
 30
0.0
 11
9365.0
 21
16743.6907475
 31
0.0
  0
LINE
  5
3AE
330
44B
100
AcDbEntity
  8
YKK_N1
  6
ByBlock
100
AcDbLine
 10
9345.0
 20
16793.6907475
 30
0.0
 11
9345.0
 21
16773.6907475
 31
0.0
  0
LINE
  5
3AF
330
44B
100
AcDbEntity
  8
YKK_N1
  6
ByBlock
100
AcDbLine
 10
9470.0
 20
16793.6907475
 30
0.0
 11
9470.0
 21
16773.6907475
 31
0.0
  0
POINT
  5
3B0
330
44B
100
AcDbEntity
  8
YKK_N1
  6
ByBlock
100
AcDbPoint
 10
9470.0
 20
16743.6907475
 30
0.0
  0
LINE
  5
3B1
330
44B
100
AcDbEntity
  8
YKK_N1
  6
ByBlock
100
AcDbLine
 10
9470.0
 20
16803.6907475
 30
0.0
 11
9470.0
 21
16773.6907475
 31
0.0
  0
POINT
  5
3B2
330
44B
100
AcDbEntity
  8
YKK_N1
  6
ByBlock
100
AcDbPoint
 10
9470.0
 20
16915.6907475
 30
0.0
  0
LINE
  5
3B3
330
44B
100
AcDbEntity
  8
YKK_C1
100
AcDbLine
 10
9470.0
 20
16915.6907475
 30
0.0
 11
9470.0
 21
16955.6907475
 31
0.0
  0
LINE
  5
3B4
330
44B
100
AcDbEntity
  8
YKK_C1
100
AcDbLine
 10
9470.0
 20
16955.6907475
 30
0.0
 11
9470.0
 21
16968.6907475
 31
0.0
  0
LINE
  5
3B5
330
44B
100
AcDbEntity
  8
YKK_C1
100
AcDbLine
 10
9470.0
 20
16968.6907475
 30
0.0
 11
9463.0
 21
16968.6907475
 31
0.0
  0
LINE
  5
3B6
330
44B
100
AcDbEntity
  8
YKK_C1
100
AcDbLine
 10
9400.0
 20
16968.6907475
 30
0.0
 11
9407.0
 21
16968.6907475
 31
0.0
  0
LINE
  5
3B7
330
44B
100
AcDbEntity
  8
YKK_C1
100
AcDbLine
 10
9400.0
 20
16955.6907475
 30
0.0
 11
9400.0
 21
16970.6907475
 31
0.0
  0
LINE
  5
3B8
330
44B
100
AcDbEntity
  8
YKK_C1
100
AcDbLine
 10
9400.0
 20
16965.6907475
 30
0.0
 11
9345.0
 21
16960.6907475
 31
0.0
  0
LINE
  5
3B9
330
44B
100
AcDbEntity
  8
YKK_C1
100
AcDbLine
 10
9345.0
 20
16960.6907475
 30
0.0
 11
9345.0
 21
16955.6907475
 31
0.0
  0
LINE
  5
3BA
330
44B
100
AcDbEntity
  8
YKK_C1
100
AcDbLine
 10
9345.0
 20
16955.6907475
 30
0.0
 11
9400.0
 21
16955.6907475
 31
0.0
  0
INSERT
  5
3BB
330
44B
100
AcDbEntity
  8
YKK_C1
100
AcDbBlockReference
  2
SGGFRB
 10
9440.3
 20
16803.6907475
 30
0.0
  0
INSERT
  5
3BC
330
44B
100
AcDbEntity
  8
YKK_C1
100
AcDbBlockReference
  2
SGGFRB
 10
9440.3
 20
16853.6907475
 30
0.0
  0
INSERT
  5
3BD
330
44B
100
AcDbEntity
  8
YKK_C1
100
AcDbBlockReference
  2
SGGFRB
 10
9440.3
 20
16903.6907475
 30
0.0
  0
LINE
  5
3BE
330
44B
100
AcDbEntity
  8
YKK_C1
100
AcDbLine
 10
9470.0
 20
16955.6907475
 30
0.0
 11
9400.0
 21
16955.6907475
 31
0.0
  0
INSERT
  5
3BF
330
44B
100
AcDbEntity
  8
YKK_C1
100
AcDbBlockReference
  2
SGGFRB
 10
9440.3
 20
16703.6907475
 30
0.0
  0
INSERT
  5
3C0
330
44B
100
AcDbEntity
  8
YKK_C1
100
AcDbBlockReference
  2
SGGFRB
 10
9440.3
 20
16753.6907475
 30
0.0
  0
LINE
  5
3C1
330
44B
100
AcDbEntity
  8
YKK_Z1
  6
Continuous
100
AcDbLine
 10
9427.0
 20
16998.1907475
 30
0.0
 11
9417.0
 21
16983.1907475
 31
0.0
  0
LINE
  5
3C2
330
44B
100
AcDbEntity
  8
YKK_Z1
  6
Continuous
100
AcDbLine
 10
9417.0
 20
16983.1907475
 30
0.0
 11
9372.0
 21
16983.1907475
 31
0.0
  0
LINE
  5
3C3
330
44B
100
AcDbEntity
  8
YKK_Z1
  6
Continuous
100
AcDbLine
 10
9360.0
 20
16960.6907475
 30
0.0
 11
9360.0
 21
16977.0907475
 31
0.0
  0
LINE
  5
3C4
330
44B
100
AcDbEntity
  8
YKK_Z1
  6
Continuous
100
AcDbLine
 10
9360.0
 20
16977.0907475
 30
0.0
 11
9368.0
 21
16977.0907475
 31
0.0
  0
TEXT
  5
3C5
330
44B
100
AcDbEntity
  8
YKK_N1
100
AcDbText
 10
9860.0
 20
16491.11931893
 30
0.0
 40
60.0
  1
H=600
 50
90.0
 41
0.8
  7
YKK_SGSTYLE1
100
AcDbText
  0
LINE
  5
3C6
330
44B
100
AcDbEntity
  8
YKK_N1
  6
ByBlock
100
AcDbLine
 10
9870.0
 20
16316.6907475
 30
0.0
 11
9870.0
 21
16914.6907475
 31
0.0
  0
LINE
  5
3C7
330
44B
100
AcDbEntity
  8
YKK_Z1
  6
Continuous
100
AcDbLine
 10
9607.0
 20
16920.6907475
 30
0.0
 11
9607.0
 21
16615.6907475
 31
0.0
  0
LINE
  5
3C8
330
44B
100
AcDbEntity
  8
YKK_N1
  6
ByBlock
100
AcDbLine
 10
9820.0
 20
16402.29328788
 30
0.0
 11
9870.0
 21
16315.6907475
 31
0.0
  0
LINE
  5
3C9
330
44B
100
AcDbEntity
  8
YKK_N1
  6
ByBlock
100
AcDbLine
 10
9920.0
 20
16402.29328788
 30
0.0
 11
9820.0
 21
16402.29328788
 31
0.0
  0
LINE
  5
3CA
330
44B
100
AcDbEntity
  8
YKK_N1
  6
ByBlock
100
AcDbLine
 10
9530.0
 20
16315.6907475
 30
0.0
 11
9900.0
 21
16315.6907475
 31
0.0
  0
LINE
  5
3CB
330
44B
100
AcDbEntity
  8
YKK_Z1
  6
Continuous
100
AcDbLine
 10
9587.5
 20
16295.6907475
 30
0.0
 11
9600.0
 21
16295.6907475
 31
0.0
  0
LINE
  5
3CC
330
44B
100
AcDbEntity
  8
YKK_Z1
  6
Continuous
100
AcDbLine
 10
9607.0
 20
16310.6907475
 30
0.0
 11
9607.0
 21
16615.6907475
 31
0.0
  0
LINE
  5
3CD
330
44B
100
AcDbEntity
  8
YKK_Z1
100
AcDbLine
 10
9610.0
 20
16310.6907475
 30
0.0
 11
9610.0
 21
16285.6907475
 31
0.0
  0
LINE
  5
3CE
330
44B
100
AcDbEntity
  8
YKK_Z1
100
AcDbLine
 10
9610.0
 20
16285.6907475
 30
0.0
 11
9600.0
 21
16285.6907475
 31
0.0
  0
LINE
  5
3CF
330
44B
100
AcDbEntity
  8
YKK_N1
  6
ByBlock
100
AcDbLine
 10
9870.0
 20
16315.6907475
 30
0.0
 11
9870.0
 21
16295.6907475
 31
0.0
  0
LINE
  5
3D0
330
44B
100
AcDbEntity
  8
YKK_N1
  6
ByBlock
100
AcDbLine
 10
9870.0
 20
16315.6907475
 30
0.0
 11
9920.0
 21
16402.29328788
 31
0.0
  0
LINE
  5
3D1
330
44B
100
AcDbEntity
  8
YKK_N1
  6
ByBlock
100
AcDbLine
 10
9870.0
 20
16315.6907475
 30
0.0
 11
9870.0
 21
16415.6907475
 31
0.0
  0
POINT
  5
3D2
330
44B
100
AcDbEntity
  8
YKK_N1
  6
ByBlock
100
AcDbPoint
 10
9870.0
 20
16315.6907475
 30
0.0
  0
LINE
  5
3D3
330
44B
100
AcDbEntity
  8
YKK_N1
  6
ByBlock
100
AcDbLine
 10
9820.0
 20
16829.08820713
 30
0.0
 11
9920.0
 21
16829.08820713
 31
0.0
  0
LINE
  5
3D4
330
44B
100
AcDbEntity
  8
YKK_N1
  6
ByBlock
100
AcDbLine
 10
9870.0
 20
16915.6907475
 30
0.0
 11
9820.0
 21
16829.08820713
 31
0.0
  0
LINE
  5
3D5
330
44B
100
AcDbEntity
  8
YKK_N1
  6
ByBlock
100
AcDbLine
 10
9530.0
 20
16915.6907475
 30
0.0
 11
9900.0
 21
16915.6907475
 31
0.0
  0
LINE
  5
3D6
330
44B
100
AcDbEntity
  8
YKK_Z1
  6
Continuous
100
AcDbLine
 10
9600.0
 20
16945.6907475
 30
0.0
 11
9870.0
 21
16945.6907475
 31
0.0
  0
LINE
  5
3D7
330
44B
100
AcDbEntity
  8
YKK_Z1
  6
Continuous
100
AcDbLine
 10
9870.0
 20
16958.1907475
 30
0.0
 11
9600.0
 21
16958.1907475
 31
0.0
  0
LINE
  5
3D8
330
44B
100
AcDbEntity
  8
YKK_N1
100
AcDbLine
 10
9610.0
 20
16743.6907475
 30
0.0
 11
9590.0
 21
16743.6907475
 31
0.0
  0
CIRCLE
  5
3D9
330
44B
100
AcDbEntity
  8
YKK_N1
100
AcDbCircle
 10
9610.0
 20
16743.6907475
 30
0.0
 40
6.5
  0
CIRCLE
  5
3DA
330
44B
100
AcDbEntity
  8
YKK_N1
100
AcDbCircle
 10
9610.0
 20
16743.6907475
 30
0.0
 40
10.0
  0
POINT
  5
3DB
330
44B
100
AcDbEntity
  8
YKK_N1
  6
ByBlock
100
AcDbPoint
 10
9610.0
 20
16743.6907475
 30
0.0
  0
POINT
  5
3DC
330
44B
100
AcDbEntity
  8
YKK_N1
  6
ByBlock
100
AcDbPoint
 10
9610.0
 20
16920.6907475
 30
0.0
  0
LINE
  5
3DD
330
44B
100
AcDbEntity
  8
YKK_N1
  6
ByBlock
100
AcDbLine
 10
9490.0
 20
16743.6907475
 30
0.0
 11
9590.0
 21
16743.6907475
 31
0.0
  0
LINE
  5
3DE
330
44B
100
AcDbEntity
  8
YKK_N1
  6
ByBlock
100
AcDbLine
 10
9610.0
 20
16860.6907475
 30
0.0
 11
9610.0
 21
16713.6907475
 31
0.0
  0
LINE
  5
3DF
330
44B
100
AcDbEntity
  8
YKK_Z1
  6
Continuous
100
AcDbLine
 10
9600.0
 20
16958.1907475
 30
0.0
 11
9600.0
 21
16945.6907475
 31
0.0
  0
LINE
  5
3E0
330
44B
100
AcDbEntity
  8
YKK_Z1
  6
Continuous
100
AcDbLine
 10
9531.48470884
 20
16998.1907475
 30
0.0
 11
9552.0
 21
17018.706028
 31
0.0
  0
LINE
  5
3E1
330
44B
100
AcDbEntity
  8
YKK_Z1
  6
Continuous
100
AcDbLine
 10
9539.96999095
 20
16998.1907475
 30
0.0
 11
9552.0
 21
17010.2207503
 31
0.0
  0
LINE
  5
3E2
330
44B
100
AcDbEntity
  8
YKK_Z1
  6
Continuous
100
AcDbLine
 10
9552.0
 20
16998.1907475
 30
0.0
 11
9572.0
 21
16998.1907475
 31
0.0
  0
LINE
  5
3E4
330
44B
100
AcDbEntity
  8
YKK_Z1
  6
Continuous
100
AcDbLine
 10
9572.0
 20
16998.1907475
 30
0.0
 11
9552.0
 21
17018.19075097
 31
0.0
  0
LINE
  5
3E5
330
44B
100
AcDbEntity
  8
YKK_Z1
  6
Continuous
100
AcDbLine
 10
9552.0
 20
16998.1907475
 30
0.0
 11
9572.0
 21
17018.19073711
 31
0.0
  0
LINE
  5
3E6
330
44B
100
AcDbEntity
  8
YKK_Z1
100
AcDbLine
 10
9610.0
 20
16920.6907475
 30
0.0
 11
9610.0
 21
16945.6907475
 31
0.0
  0
LINE
  5
3E7
330
44B
100
AcDbEntity
  8
YKK_Z1
100
AcDbLine
 10
9610.0
 20
16945.6907475
 30
0.0
 11
9600.0
 21
16945.6907475
 31
0.0
  0
LINE
  5
3E8
330
44B
100
AcDbEntity
  8
YKK_N1
  6
ByBlock
100
AcDbLine
 10
9920.0
 20
16829.08820713
 30
0.0
 11
9870.0
 21
16915.6907475
 31
0.0
  0
LINE
  5
3E9
330
44B
100
AcDbEntity
  8
YKK_N1
  6
ByBlock
100
AcDbLine
 10
9870.0
 20
16915.6907475
 30
0.0
 11
9870.0
 21
16815.6907475
 31
0.0
  0
POINT
  5
3EA
330
44B
100
AcDbEntity
  8
YKK_N1
  6
ByBlock
100
AcDbPoint
 10
9870.0
 20
16915.6907475
 30
0.0
  0
LINE
  5
3EB
330
44B
100
AcDbEntity
  8
YKK_Z1
  6
Continuous
100
AcDbLine
 10
9372.0
 20
17135.69084103
 30
0.0
 11
9552.0
 21
17315.6907475
 31
0.0
  0
LINE
  5
3EC
330
44B
100
AcDbEntity
  8
YKK_Z1
  6
Continuous
100
AcDbLine
 10
9372.0
 20
17127.20556333
 30
0.0
 11
9552.0
 21
17307.2054698
 31
0.0
  0
LINE
  5
3ED
330
44B
100
AcDbEntity
  8
YKK_Z1
  6
Continuous
100
AcDbLine
 10
9372.0
 20
17107.40658203
 30
0.0
 11
9552.0
 21
17287.4064885
 31
0.0
  0
LINE
  5
3EE
330
44B
100
AcDbEntity
  8
YKK_Z1
  6
Continuous
100
AcDbLine
 10
9360.0
 20
17297.0907475
 30
0.0
 11
9368.0
 21
17297.0907475
 31
0.0
  0
LINE
  5
3EF
330
44B
100
AcDbEntity
  8
YKK_Z1
  6
Continuous
100
AcDbLine
 10
9360.0
 20
17307.0907475
 30
0.0
 11
9368.0
 21
17307.0907475
 31
0.0
  0
LINE
  5
3F0
330
44B
100
AcDbEntity
  8
YKK_Z1
  6
Continuous
100
AcDbLine
 10
9360.0
 20
17077.0907475
 30
0.0
 11
9368.0
 21
17077.0907475
 31
0.0
  0
LINE
  5
3F1
330
44B
100
AcDbEntity
  8
YKK_Z1
  6
Continuous
100
AcDbLine
 10
9360.0
 20
17087.0907475
 30
0.0
 11
9368.0
 21
17087.0907475
 31
0.0
  0
LINE
  5
3F2
330
44B
100
AcDbEntity
  8
YKK_Z1
  6
Continuous
100
AcDbLine
 10
9360.0
 20
17187.0907475
 30
0.0
 11
9368.0
 21
17187.0907475
 31
0.0
  0
LINE
  5
3F3
330
44B
100
AcDbEntity
  8
YKK_Z1
  6
Continuous
100
AcDbLine
 10
9360.0
 20
17197.0907475
 30
0.0
 11
9368.0
 21
17197.0907475
 31
0.0
  0
LINE
  5
3F4
330
44B
100
AcDbEntity
  8
YKK_Z1
  6
Continuous
100
AcDbLine
 10
9572.0
 20
17238.19078907
 30
0.0
 11
9552.0
 21
17258.19079254
 31
0.0
  0
LINE
  5
3F5
330
44B
100
AcDbEntity
  8
YKK_Z1
  6
Continuous
100
AcDbLine
 10
9572.0
 20
17258.19079254
 30
0.0
 11
9552.0
 21
17278.190796
 31
0.0
  0
LINE
  5
3F6
330
44B
100
AcDbEntity
  8
YKK_Z1
  6
Continuous
100
AcDbLine
 10
9572.0
 20
17278.190796
 30
0.0
 11
9552.0
 21
17298.19079947
 31
0.0
  0
LINE
  5
3F7
330
44B
100
AcDbEntity
  8
YKK_Z1
  6
Continuous
100
AcDbLine
 10
9572.0
 20
17298.19079947
 30
0.0
 11
9554.50005499
 21
17315.6907475
 31
0.0
  0
LINE
  5
3F8
330
44B
100
AcDbEntity
  8
YKK_Z1
  6
Continuous
100
AcDbLine
 10
9552.0
 20
17238.1906228
 30
0.0
 11
9572.0
 21
17258.1906124
 31
0.0
  0
LINE
  5
3F9
330
44B
100
AcDbEntity
  8
YKK_Z1
  6
Continuous
100
AcDbLine
 10
9552.0
 20
17258.1906124
 30
0.0
 11
9572.0
 21
17278.19060201
 31
0.0
  0
LINE
  5
3FA
330
44B
100
AcDbEntity
  8
YKK_Z1
  6
Continuous
100
AcDbLine
 10
9552.0
 20
17278.19060201
 30
0.0
 11
9572.0
 21
17298.19059162
 31
0.0
  0
LINE
  5
3FB
330
44B
100
AcDbEntity
  8
YKK_Z1
  6
Continuous
100
AcDbLine
 10
9552.0
 20
17298.19059162
 30
0.0
 11
9569.50016498
 21
17315.6907475
 31
0.0
  0
LINE
  5
3FC
330
44B
100
AcDbEntity
  8
YKK_Z1
  6
Continuous
100
AcDbLine
 10
9572.0
 20
17078.19076136
 30
0.0
 11
9552.0
 21
17098.19076482
 31
0.0
  0
LINE
  5
3FD
330
44B
100
AcDbEntity
  8
YKK_Z1
  6
Continuous
100
AcDbLine
 10
9572.0
 20
17098.19076482
 30
0.0
 11
9552.0
 21
17118.19076829
 31
0.0
  0
LINE
  5
3FE
330
44B
100
AcDbEntity
  8
YKK_Z1
  6
Continuous
100
AcDbLine
 10
9572.0
 20
17118.19076829
 30
0.0
 11
9552.0
 21
17138.19077175
 31
0.0
  0
LINE
  5
3FF
330
44B
100
AcDbEntity
  8
YKK_Z1
  6
Continuous
100
AcDbLine
 10
9572.0
 20
17138.19077175
 30
0.0
 11
9552.0
 21
17158.19077522
 31
0.0
  0
LINE
  5
400
330
44B
100
AcDbEntity
  8
YKK_Z1
  6
Continuous
100
AcDbLine
 10
9572.0
 20
17158.19077522
 30
0.0
 11
9552.0
 21
17178.19077868
 31
0.0
  0
LINE
  5
401
330
44B
100
AcDbEntity
  8
YKK_Z1
  6
Continuous
100
AcDbLine
 10
9572.0
 20
17178.19077868
 30
0.0
 11
9552.0
 21
17198.19078215
 31
0.0
  0
LINE
  5
402
330
44B
100
AcDbEntity
  8
YKK_Z1
  6
Continuous
100
AcDbLine
 10
9572.0
 20
17198.19078215
 30
0.0
 11
9552.0
 21
17218.19078561
 31
0.0
  0
LINE
  5
403
330
44B
100
AcDbEntity
  8
YKK_Z1
  6
Continuous
100
AcDbLine
 10
9552.0
 20
17078.19070593
 30
0.0
 11
9572.0
 21
17098.19069554
 31
0.0
  0
LINE
  5
404
330
44B
100
AcDbEntity
  8
YKK_Z1
  6
Continuous
100
AcDbLine
 10
9552.0
 20
17098.19069554
 30
0.0
 11
9572.0
 21
17118.19068515
 31
0.0
  0
LINE
  5
405
330
44B
100
AcDbEntity
  8
YKK_Z1
  6
Continuous
100
AcDbLine
 10
9552.0
 20
17118.19068515
 30
0.0
 11
9572.0
 21
17138.19067476
 31
0.0
  0
LINE
  5
406
330
44B
100
AcDbEntity
  8
YKK_Z1
  6
Continuous
100
AcDbLine
 10
9552.0
 20
17138.19067476
 30
0.0
 11
9572.0
 21
17158.19066437
 31
0.0
  0
LINE
  5
407
330
44B
100
AcDbEntity
  8
YKK_Z1
  6
Continuous
100
AcDbLine
 10
9552.0
 20
17158.19066437
 30
0.0
 11
9572.0
 21
17178.19065397
 31
0.0
  0
LINE
  5
408
330
44B
100
AcDbEntity
  8
YKK_Z1
  6
Continuous
100
AcDbLine
 10
9552.0
 20
17178.19065397
 30
0.0
 11
9572.0
 21
17198.19064358
 31
0.0
  0
LINE
  5
409
330
44B
100
AcDbEntity
  8
YKK_Z1
  6
Continuous
100
AcDbLine
 10
9552.0
 20
17198.19064358
 30
0.0
 11
9572.0
 21
17218.19063319
 31
0.0
  0
LINE
  5
40A
330
44B
100
AcDbEntity
  8
YKK_Z1
  6
Continuous
100
AcDbLine
 10
9572.0
 20
17218.19078561
 30
0.0
 11
9552.0
 21
17238.19078907
 31
0.0
  0
LINE
  5
40B
330
44B
100
AcDbEntity
  8
YKK_Z1
  6
Continuous
100
AcDbLine
 10
9552.0
 20
17218.19063319
 30
0.0
 11
9572.0
 21
17238.1906228
 31
0.0
  0
LINE
  5
40C
330
44B
100
AcDbEntity
  8
YKK_Z1
  6
Continuous
100
AcDbLine
 10
9572.0
 20
17038.19075443
 30
0.0
 11
9552.0
 21
17058.1907579
 31
0.0
  0
LINE
  5
40D
330
44B
100
AcDbEntity
  8
YKK_Z1
  6
Continuous
100
AcDbLine
 10
9552.0
 20
17038.19072672
 30
0.0
 11
9572.0
 21
17058.19071633
 31
0.0
  0
LINE
  5
40E
330
44B
100
AcDbEntity
  8
YKK_Z1
  6
Continuous
100
AcDbLine
 10
9572.0
 20
17058.1907579
 30
0.0
 11
9552.0
 21
17078.19076136
 31
0.0
  0
LINE
  5
40F
330
44B
100
AcDbEntity
  8
YKK_Z1
  6
Continuous
100
AcDbLine
 10
9552.0
 20
17058.19071633
 30
0.0
 11
9572.0
 21
17078.19070593
 31
0.0
  0
LINE
  5
410
330
44B
100
AcDbEntity
  8
YKK_F1
100
AcDbLine
 10
17100.0
 20
0.0
 30
0.0
 11
17100.0
 21
19500.0
 31
0.0
  0
LINE
  5
411
330
44B
100
AcDbEntity
  8
YKK_F1
100
AcDbLine
 10
22800.0
 20
0.0
 30
0.0
 11
22800.0
 21
19500.0
 31
0.0
  0
LINE
  5
412
330
44B
100
AcDbEntity
  8
YKK_F1
100
AcDbLine
 10
28500.0
 20
0.0
 30
0.0
 11
28500.0
 21
20000.0
 31
0.0
  0
LINE
  5
413
330
44B
100
AcDbEntity
  8
YKK_F1
100
AcDbLine
 10
28681.0155
 20
0.0
 30
0.0
 11
28681.0155
 21
20000.0
 31
0.0
  0
LINE
  5
42D
330
44B
100
AcDbEntity
  8
YKK_B1
  6
ByBlock
100
AcDbLine
 10
1895.0
 20
14279.2
 30
0.0
 11
1895.0
 21
13909.2
 31
0.0
  0
LINE
  5
42E
330
44B
100
AcDbEntity
  8
YKK_B1
  6
ByBlock
100
AcDbLine
 10
7595.0
 20
14279.2
 30
0.0
 11
7595.0
 21
13909.2
 31
0.0
  0
ENDSEC
  0
SECTION
  2
OBJECTS
  0
DICTIONARY
  5
440
330
0
100
AcDbDictionary
281
     1
  3
ACAD_CIP_PREVIOUS_PRODUCT_INFO
350
50E
  3
ACAD_COLOR
350
4A2
  3
ACAD_DETAILVIEWSTYLE
350
4BB
  3
ACAD_GROUP
350
441
  3
ACAD_LAYOUT
350
4C1
  3
ACAD_MATERIAL
350
470
  3
ACAD_MLEADERSTYLE
350
4B7
  3
ACAD_MLINESTYLE
350
44E
  3
ACAD_PLOTSETTINGS
350
4C0
  3
ACAD_PLOTSTYLENAME
350
46E
  3
ACAD_SCALELIST
350
4A5
  3
ACAD_SECTIONVIEWSTYLE
350
4B9
  3
ACAD_TABLESTYLE
350
4A3
  3
ACAD_VISUALSTYLE
350
489
  3
ACDB_RECOMPOSE_DATA
350
514
  3
ACDBVARIABLEDICTIONARY
350
466
  0
XRECORD
  5
50E
102
{ACAD_REACTORS
330
440
102
}
330
440
100
AcDbXrecord
280
     1
300
ACD
300
2014
300
86063ACD_2014_0F
  0
DICTIONARY
  5
4A2
102
{ACAD_REACTORS
330
440
102
}
330
440
100
AcDbDictionary
281
     1
  0
DICTIONARY
  5
4BB
102
{ACAD_REACTORS
330
440
102
}
330
440
100
AcDbDictionary
281
     1
  3
Imperial24
350
4BC
  0
DICTIONARY
  5
441
102
{ACAD_REACTORS
330
440
102
}
330
440
100
AcDbDictionary
281
     1
  0
DICTIONARY
  5
4C1
102
{ACAD_REACTORS
330
440
102
}
330
440
100
AcDbDictionary
281
     1
  3
Model
350
4C2
  3
レイアウト1
350
4C3
  0
DICTIONARY
  5
470
102
{ACAD_REACTORS
330
440
102
}
330
440
100
AcDbDictionary
281
     1
  3
ByBlock
350
479
  3
ByLayer
350
471
  3
Global
350
481
  0
DICTIONARY
  5
4B7
102
{ACAD_REACTORS
330
440
102
}
330
440
100
AcDbDictionary
281
     1
  3
Standard
350
4B8
  0
DICTIONARY
  5
44E
102
{ACAD_REACTORS
330
440
102
}
330
440
100
AcDbDictionary
281
     1
  3
STANDARD
350
44F
  0
DICTIONARY
  5
4C0
102
{ACAD_REACTORS
330
440
102
}
330
440
100
AcDbDictionary
281
     1
  0
ACDBDICTIONARYWDFLT
  5
46E
102
{ACAD_REACTORS
330
440
102
}
330
440
100
AcDbDictionary
281
     1
  3
Normal
350
46F
100
AcDbDictionaryWithDefault
340
46F
  0
DICTIONARY
  5
4A5
102
{ACAD_REACTORS
330
440
102
}
330
440
100
AcDbDictionary
281
     1
  3
A0
350
4A6
  3
A1
350
4A7
  3
A2
350
4A8
  3
A3
350
4A9
  3
A4
350
4AA
  3
A5
350
4AB
  3
A6
350
4AC
  3
A7
350
4AD
  3
A8
350
4AE
  3
A9
350
4AF
  3
B0
350
4B0
  3
B1
350
4B1
  3
B2
350
4B2
  3
B3
350
4B3
  3
B4
350
4B4
  3
B5
350
4B5
  3
B6
350
4B6
  0
DICTIONARY
  5
4B9
102
{ACAD_REACTORS
330
440
102
}
330
440
100
AcDbDictionary
281
     1
  3
Imperial24
350
4BA
  0
DICTIONARY
  5
4A3
102
{ACAD_REACTORS
330
440
102
}
330
440
100
AcDbDictionary
281
     1
  3
Standard
350
4A4
  0
DICTIONARY
  5
489
102
{ACAD_REACTORS
330
440
102
}
330
440
100
AcDbDictionary
281
     1
  3
2dWireframe
350
48F
  3
Basic
350
48E
  3
Brighten
350
495
  3
ColorChange
350
499
  3
Conceptual
350
492
  3
Dim
350
494
  3
EdgeColorOff
350
4A1
  3
Facepattern
350
498
  3
Flat
350
48A
  3
FlatWithEdges
350
48B
  3
Gouraud
350
48C
  3
GouraudWithEdges
350
48D
  3
Hidden
350
491
  3
JitterOff
350
49F
  3
Linepattern
350
497
  3
OverhangOff
350
4A0
  3
Realistic
350
493
  3
Shaded
350
49E
  3
Shaded with edges
350
49D
  3
Shades of Gray
350
49A
  3
Sketchy
350
49B
  3
Thicken
350
496
  3
Wireframe
350
490
  3
X-Ray
350
49C
  0
XRECORD
  5
514
102
{ACAD_REACTORS
330
440
102
}
330
440
100
AcDbXrecord
280
     1
 90
        1
330
4A4
  0
DICTIONARY
  5
466
102
{ACAD_REACTORS
330
440
102
}
330
440
100
AcDbDictionary
281
     1
  3
CANNOSCALE
350
506
  3
CMLEADERSTYLE
350
503
  3
CTABLESTYLE
350
502
  3
CVIEWDETAILSTYLE
350
504
  3
CVIEWSECTIONSTYLE
350
505
  3
DIMADEC
350
467
  3
XCLIPFRAME
350
512
  0
ACDBDETAILVIEWSTYLE
  5
4BC
102
{ACAD_XDICTIONARY
360
54D
102
}
102
{ACAD_REACTORS
330
4BB
102
}
330
4BB
100
AcDbModelDocViewStyle
 70
     0
  3
Imperial24
290
     0
100
AcDbDetailViewStyle
 70
     0
 71
     0
 90
        3
 71
     1
340
443
 62
   256
 40
0.24
340
0
 62
   256
 40
0.24
300

 40
0.36
280
     3
 71
     2
340
447
 90
       25
 62
   256
 71
     3
340
443
 62
   256
 40
0.24
 90
        1
 40
0.75
 90
        1
300
%<\AcVar ViewType \f "%tc1">% %<\AcVar ViewDetailId>%\PSCALE %<\AcVar ViewScale \f "%sn">%
 71
     4
340
447
 90
       25
 62
   256
340
447
 90
       25
 62
   256
280
     0
  0
LAYOUT
  5
4C2
102
{ACAD_REACTORS
330
4C1
102
}
330
4C1
100
AcDbPlotSettings
  1

  2
C:\ACAD-I\support\plotters\Default Windows System Printer.pc3
  4
A4
  6

 40
3.17499995
 41
3.17499995
 42
3.17500305
 43
3.17498779
 44
209.88865662
 45
297.05300903
 46
0.0
 47
0.0
 48
0.0
 49
0.0
140
0.0
141
0.0
142
1.0
143
3304.92720565
 70
 11952
 72
     0
 73
     1
 74
     0
  7
monochrome.ctb
 75
     0
147
0.00030258
 76
     0
 77
     2
 78
   300
148
87048.72221002
149
2907.51885808
100
AcDbLayout
  1
Model
 70
     1
 71
     0
 10
0.0
 20
0.0
 11
12.0
 21
9.0
 12
0.0
 22
0.0
 32
0.0
 14
0.0
 24
0.0
 34
0.0
 15
0.0
 25
0.0
 35
0.0
146
0.0
 13
0.0
 23
0.0
 33
0.0
 16
1.0
 26
0.0
 36
0.0
 17
0.0
 27
1.0
 37
0.0
 76
     0
330
44B
1001
ACAD_PSEXT
1000
C:\ACAD-I\support\plotters\Default Windows System Printer.pc3
1000
Fiery PRO80 65-55C-KM PS3.0jp
1000
IP_10.230.204.212
1000

1070
     0
  0
LAYOUT
  5
4C3
102
{ACAD_REACTORS
330
4C1
102
}
330
4C1
100
AcDbPlotSettings
  1

  2
C:\ACAD-I\support\plotters\Default Windows System Printer.pc3
  4
A4
  6

 40
3.17499995
 41
3.17499995
 42
3.17500305
 43
3.17498779
 44
209.88865662
 45
297.05300903
 46
0.0
 47
0.0
 48
0.0
 49
0.0
140
0.0
141
0.0
142
1.0
143
1.0
 70
 15024
 72
     0
 73
     1
 74
     5
  7
monochrome.ctb
 75
    16
147
1.0
 76
     0
 77
     2
 78
   300
148
0.0
149
0.0
100
AcDbLayout
  1
レイアウト1
 70
     0
 71
     1
 10
0.0
 20
0.0
 11
12.0
 21
9.0
 12
0.0
 22
0.0
 32
0.0
 14
1.00000000E+20
 24
1.00000000E+20
 34
1.00000000E+20
 15
-1.00000000E+20
 25
-1.00000000E+20
 35
-1.00000000E+20
146
0.0
 13
0.0
 23
0.0
 33
0.0
 16
1.0
 26
0.0
 36
0.0
 17
0.0
 27
1.0
 37
0.0
 76
     0
330
448
1001
ACAD_PSEXT
1000
C:\ACAD-I\support\plotters\Default Windows System Printer.pc3
1000
Fiery PRO80 65-55C-KM PS3.0jp
1000
IP_10.230.204.212
1000

1070
     0
  0
MATERIAL
  5
479
102
{ACAD_XDICTIONARY
360
47A
102
}
102
{ACAD_REACTORS
330
470
102
}
330
470
100
AcDbMaterial
  1
ByBlock
 72
     0
 43
0.02083333
 43
0.0
 43
0.0
 43
0.0
 43
0.0
 43
0.02083333
 43
0.0
 43
0.0
 43
0.0
 43
0.0
 43
1.0
 43
0.0
 43
0.0
 43
0.0
 43
0.0
 43
1.0
 77
     0
 47
0.02083333
 47
0.0
 47
0.0
 47
0.0
 47
0.0
 47
0.02083333
 47
0.0
 47
0.0
 47
0.0
 47
0.0
 47
1.0
 47
0.0
 47
0.0
 47
0.0
 47
0.0
 47
1.0
171
     0
 49
0.02083333
 49
0.0
 49
0.0
 49
0.0
 49
0.0
 49
0.02083333
 49
0.0
 49
0.0
 49
0.0
 49
0.0
 49
1.0
 49
0.0
 49
0.0
 49
0.0
 49
0.0
 49
1.0
175
     0
142
0.02083333
142
0.0
142
0.0
142
0.0
142
0.0
142
0.02083333
142
0.0
142
0.0
142
0.0
142
0.0
142
1.0
142
0.0
142
0.0
142
0.0
142
0.0
142
1.0
179
     0
144
0.02083333
144
0.0
144
0.0
144
0.0
144
0.0
144
0.02083333
144
0.0
144
0.0
144
0.0
144
0.0
144
1.0
144
0.0
144
0.0
144
0.0
144
0.0
144
1.0
147
0.02083333
147
0.0
147
0.0
147
0.0
147
0.0
147
0.02083333
147
0.0
147
0.0
147
0.0
147
0.0
147
1.0
147
0.0
147
0.0
147
0.0
147
0.0
147
1.0
  0
MATERIAL
  5
471
102
{ACAD_XDICTIONARY
360
472
102
}
102
{ACAD_REACTORS
330
470
102
}
330
470
100
AcDbMaterial
  1
ByLayer
 72
     0
 43
0.02083333
 43
0.0
 43
0.0
 43
0.0
 43
0.0
 43
0.02083333
 43
0.0
 43
0.0
 43
0.0
 43
0.0
 43
1.0
 43
0.0
 43
0.0
 43
0.0
 43
0.0
 43
1.0
 77
     0
 47
0.02083333
 47
0.0
 47
0.0
 47
0.0
 47
0.0
 47
0.02083333
 47
0.0
 47
0.0
 47
0.0
 47
0.0
 47
1.0
 47
0.0
 47
0.0
 47
0.0
 47
0.0
 47
1.0
171
     0
 49
0.02083333
 49
0.0
 49
0.0
 49
0.0
 49
0.0
 49
0.02083333
 49
0.0
 49
0.0
 49
0.0
 49
0.0
 49
1.0
 49
0.0
 49
0.0
 49
0.0
 49
0.0
 49
1.0
175
     0
142
0.02083333
142
0.0
142
0.0
142
0.0
142
0.0
142
0.02083333
142
0.0
142
0.0
142
0.0
142
0.0
142
1.0
142
0.0
142
0.0
142
0.0
142
0.0
142
1.0
179
     0
144
0.02083333
144
0.0
144
0.0
144
0.0
144
0.0
144
0.02083333
144
0.0
144
0.0
144
0.0
144
0.0
144
1.0
144
0.0
144
0.0
144
0.0
144
0.0
144
1.0
147
0.02083333
147
0.0
147
0.0
147
0.0
147
0.0
147
0.02083333
147
0.0
147
0.0
147
0.0
147
0.0
147
1.0
147
0.0
147
0.0
147
0.0
147
0.0
147
1.0
  0
MATERIAL
  5
481
102
{ACAD_XDICTIONARY
360
482
102
}
102
{ACAD_REACTORS
330
470
102
}
330
470
100
AcDbMaterial
  1
Global
 72
     0
 43
0.02083333
 43
0.0
 43
0.0
 43
0.0
 43
0.0
 43
0.02083333
 43
0.0
 43
0.0
 43
0.0
 43
0.0
 43
1.0
 43
0.0
 43
0.0
 43
0.0
 43
0.0
 43
1.0
 77
     0
 47
0.02083333
 47
0.0
 47
0.0
 47
0.0
 47
0.0
 47
0.02083333
 47
0.0
 47
0.0
 47
0.0
 47
0.0
 47
1.0
 47
0.0
 47
0.0
 47
0.0
 47
0.0
 47
1.0
171
     0
 49
0.02083333
 49
0.0
 49
0.0
 49
0.0
 49
0.0
 49
0.02083333
 49
0.0
 49
0.0
 49
0.0
 49
0.0
 49
1.0
 49
0.0
 49
0.0
 49
0.0
 49
0.0
 49
1.0
175
     0
142
0.02083333
142
0.0
142
0.0
142
0.0
142
0.0
142
0.02083333
142
0.0
142
0.0
142
0.0
142
0.0
142
1.0
142
0.0
142
0.0
142
0.0
142
0.0
142
1.0
179
     0
144
0.02083333
144
0.0
144
0.0
144
0.0
144
0.0
144
0.02083333
144
0.0
144
0.0
144
0.0
144
0.0
144
1.0
144
0.0
144
0.0
144
0.0
144
0.0
144
1.0
147
0.02083333
147
0.0
147
0.0
147
0.0
147
0.0
147
0.02083333
147
0.0
147
0.0
147
0.0
147
0.0
147
1.0
147
0.0
147
0.0
147
0.0
147
0.0
147
1.0
  0
MLEADERSTYLE
  5
4B8
102
{ACAD_XDICTIONARY
360
549
102
}
102
{ACAD_REACTORS
330
4B7
102
}
330
4B7
100
AcDbMLeaderStyle
170
     2
171
     1
172
     0
 90
        2
 40
0.0
 41
0.0
173
     1
 91
-1056964608
340
445
 92
       -2
290
     1
 42
0.09
291
     1
 43
0.36
  3
Standard
 44
0.18
300

342
443
174
     1
178
     6
175
     1
176
     0
 93
-1056964608
 45
0.18
292
     0
297
     0
 46
0.18
 94
-1056964608
 47
1.0
 49
1.0
140
1.0
293
     1
141
0.0
294
     1
177
     0
142
1.0
295
     0
296
     0
143
0.125
1001
ACAD_MLEADERVER
1070
     2
  0
MLINESTYLE
  5
44F
102
{ACAD_REACTORS
330
44E
102
}
330
44E
100
AcDbMlineStyle
  2
STANDARD
 70
     0
  3

 62
   256
 51
90.0
 52
90.0
 71
     2
 49
0.5
 62
   256
  6
BYLAYER
 49
-0.5
 62
   256
  6
BYLAYER
  0
ACDBPLACEHOLDER
  5
46F
102
{ACAD_REACTORS
330
46E
102
}
330
46E
  0
SCALE
  5
4A6
102
{ACAD_REACTORS
330
4A5
102
}
330
4A5
100
AcDbScale
 70
     0
300
1:1
140
1.0
141
1.0
290
     1
  0
SCALE
  5
4A7
102
{ACAD_REACTORS
330
4A5
102
}
330
4A5
100
AcDbScale
 70
     0
300
1/128" = 1'-0"
140
0.0078125
141
12.0
290
     0
  0
SCALE
  5
4A8
102
{ACAD_REACTORS
330
4A5
102
}
330
4A5
100
AcDbScale
 70
     0
300
1/64" = 1'-0"
140
0.015625
141
12.0
290
     0
  0
SCALE
  5
4A9
102
{ACAD_REACTORS
330
4A5
102
}
330
4A5
100
AcDbScale
 70
     0
300
1/32" = 1'-0"
140
0.03125
141
12.0
290
     0
  0
SCALE
  5
4AA
102
{ACAD_REACTORS
330
4A5
102
}
330
4A5
100
AcDbScale
 70
     0
300
1/16" = 1'-0"
140
0.0625
141
12.0
290
     0
  0
SCALE
  5
4AB
102
{ACAD_REACTORS
330
4A5
102
}
330
4A5
100
AcDbScale
 70
     0
300
3/32" = 1'-0"
140
0.09375
141
12.0
290
     0
  0
SCALE
  5
4AC
102
{ACAD_REACTORS
330
4A5
102
}
330
4A5
100
AcDbScale
 70
     0
300
1/8" = 1'-0"
140
0.125
141
12.0
290
     0
  0
SCALE
  5
4AD
102
{ACAD_REACTORS
330
4A5
102
}
330
4A5
100
AcDbScale
 70
     0
300
3/16" = 1'-0"
140
0.1875
141
12.0
290
     0
  0
SCALE
  5
4AE
102
{ACAD_REACTORS
330
4A5
102
}
330
4A5
100
AcDbScale
 70
     0
300
1/4" = 1'-0"
140
0.25
141
12.0
290
     0
  0
SCALE
  5
4AF
102
{ACAD_REACTORS
330
4A5
102
}
330
4A5
100
AcDbScale
 70
     0
300
3/8" = 1'-0"
140
0.375
141
12.0
290
     0
  0
SCALE
  5
4B0
102
{ACAD_REACTORS
330
4A5
102
}
330
4A5
100
AcDbScale
 70
     0
300
1/2" = 1'-0"
140
0.5
141
12.0
290
     0
  0
SCALE
  5
4B1
102
{ACAD_REACTORS
330
4A5
102
}
330
4A5
100
AcDbScale
 70
     0
300
3/4" = 1'-0"
140
0.75
141
12.0
290
     0
  0
SCALE
  5
4B2
102
{ACAD_REACTORS
330
4A5
102
}
330
4A5
100
AcDbScale
 70
     0
300
1" = 1'-0"
140
1.0
141
12.0
290
     0
  0
SCALE
  5
4B3
102
{ACAD_REACTORS
330
4A5
102
}
330
4A5
100
AcDbScale
 70
     0
300
1-1/2" = 1'-0"
140
1.5
141
12.0
290
     0
  0
SCALE
  5
4B4
102
{ACAD_REACTORS
330
4A5
102
}
330
4A5
100
AcDbScale
 70
     0
300
3" = 1'-0"
140
3.0
141
12.0
290
     0
  0
SCALE
  5
4B5
102
{ACAD_REACTORS
330
4A5
102
}
330
4A5
100
AcDbScale
 70
     0
300
6" = 1'-0"
140
6.0
141
12.0
290
     0
  0
SCALE
  5
4B6
102
{ACAD_REACTORS
330
4A5
102
}
330
4A5
100
AcDbScale
 70
     0
300
1'-0" = 1'-0"
140
12.0
141
12.0
290
     0
  0
ACDBSECTIONVIEWSTYLE
  5
4BA
102
{ACAD_XDICTIONARY
360
54B
102
}
102
{ACAD_REACTORS
330
4B9
102
}
330
4B9
100
AcDbModelDocViewStyle
 70
     0
  3
Imperial24
290
     0
100
AcDbSectionViewStyle
 70
     0
 71
     0
 90
      102
 71
     1
340
443
 62
   256
 40
5.0
340
0
340
0
 62
   256
 40
5.0
300
I, O, Q, S, X, Z
 40
10.0
 90
        0
 40
2.5
 90
        0
 71
     2
340
447
 90
       25
 62
   256
340
447
 90
       50
 62
   256
 40
5.0
 40
2.5
 40
5.0
 71
     3
340
443
 62
   256
 40
5.0
 90
        0
 40
15.0
 90
        1
300
%<\AcVar ViewSectionStartId>%-%<\AcVar ViewSectionEndId>% (%<\AcVar ViewScale \f "%sn">%)
 71
     4
 62
   256
 62
   257
300
ANSI31
 40
1.0
 90
        0
290
     0
290
     0
 90
        6
 40
0.0
 40
1.57079633
 40
0.26179939
 40
1.30899694
 40
-0.26179939
 40
1.83259571
  0
TABLESTYLE
  5
4A4
102
{ACAD_XDICTIONARY
360
4C4
102
}
102
{ACAD_REACTORS
330
4A3
102
}
330
4A3
100
AcDbTableStyle
  3
Standard
 70
     0
 71
     0
 40
0.06
 41
0.06
280
     0
281
     0
  7
STANDARD
140
0.18
170
     2
 62
     0
 63
     7
283
     0
274
    -2
284
     1
 64
     0
275
    -2
285
     1
 65
     0
276
    -2
286
     1
 66
     0
277
    -2
287
     1
 67
     0
278
    -2
288
     1
 68
     0
279
    -2
289
     1
 69
     0
  7
STANDARD
140
0.25
170
     5
 62
     0
 63
     7
283
     0
274
    -2
284
     1
 64
     0
275
    -2
285
     1
 65
     0
276
    -2
286
     1
 66
     0
277
    -2
287
     1
 67
     0
278
    -2
288
     1
 68
     0
279
    -2
289
     1
 69
     0
  7
STANDARD
140
0.18
170
     5
 62
     0
 63
     7
283
     0
274
    -2
284
     1
 64
     0
275
    -2
285
     1
 65
     0
276
    -2
286
     1
 66
     0
277
    -2
287
     1
 67
     0
278
    -2
288
     1
 68
     0
279
    -2
289
     1
 69
     0
  0
VISUALSTYLE
  5
48F
102
{ACAD_XDICTIONARY
360
522
102
}
102
{ACAD_REACTORS
330
489
102
}
330
489
100
AcDbVisualStyle
  2
2dWireframe
 70
     4
 71
     0
 72
     2
 73
     0
 90
        0
 40
-0.6
 41
-30.0
 62
     5
 63
     7
421
 16777215
 74
     1
 91
        4
 64
     7
 65
   257
 75
     1
175
     1
 42
1.0
 92
        0
 66
   257
 43
1.0
 76
     1
 77
     6
 78
     2
 67
     7
 79
     5
170
     0
171
     0
290
     0
174
     0
 93
        1
 44
0.0
173
     0
291
     0
 45
0.0
1001
ACAD
1000
AcDbSavedByObjectVersion
1070
     0
  0
VISUALSTYLE
  5
48E
102
{ACAD_XDICTIONARY
360
520
102
}
102
{ACAD_REACTORS
330
489
102
}
330
489
100
AcDbVisualStyle
  2
Basic
 70
     7
 71
     1
 72
     0
 73
     1
 90
        0
 40
-0.6
 41
-30.0
 62
     5
 63
     7
421
 16777215
 74
     0
 91
        4
 64
     7
 65
   257
 75
     1
175
     1
 42
1.0
 92
        8
 66
     7
 43
1.0
 76
     1
 77
     6
 78
     2
 67
     7
 79
     5
170
     0
171
     0
290
     0
174
     0
 93
        1
 44
0.0
173
     0
291
     1
 45
0.0
1001
ACAD
1000
AcDbSavedByObjectVersion
1070
     0
  0
VISUALSTYLE
  5
495
102
{ACAD_XDICTIONARY
360
52E
102
}
102
{ACAD_REACTORS
330
489
102
}
330
489
100
AcDbVisualStyle
  2
Brighten
 70
    12
 71
     2
 72
     2
 73
     0
 90
        0
 40
-0.6
 41
-30.0
 62
     5
 63
     7
421
 16777215
 74
     1
 91
        4
 64
     7
 65
   257
 75
     1
175
     1
 42
1.0
 92
        8
 66
     7
 43
1.0
 76
     1
 77
     6
 78
     2
 67
     7
 79
     5
170
     0
171
     0
290
     0
174
     0
 93
        1
 44
50.0
173
     0
291
     1
 45
0.0
1001
ACAD
1000
AcDbSavedByObjectVersion
1070
     0
  0
VISUALSTYLE
  5
499
102
{ACAD_XDICTIONARY
360
536
102
}
102
{ACAD_REACTORS
330
489
102
}
330
489
100
AcDbVisualStyle
  2
ColorChange
 70
    16
 71
     2
 72
     2
 73
     3
 90
        0
 40
-0.6
 41
-30.0
 62
     5
 63
     8
421
  8421504
 74
     1
 91
        4
 64
     7
 65
   257
 75
     1
175
     1
 42
1.0
 92
        8
 66
     8
424
  8421504
 43
1.0
 76
     1
 77
     6
 78
     2
 67
     7
 79
     5
170
     0
171
     0
290
     0
174
     0
 93
        1
 44
0.0
173
     0
291
     1
 45
0.0
1001
ACAD
1000
AcDbSavedByObjectVersion
1070
     0
  0
VISUALSTYLE
  5
492
102
{ACAD_XDICTIONARY
360
528
102
}
102
{ACAD_REACTORS
330
489
102
}
330
489
100
AcDbVisualStyle
  2
Conceptual
 70
     9
 71
     3
 72
     2
 73
     0
 90
        0
 40
-0.6
 41
-30.0
 62
     5
 63
     7
421
 16777215
 74
     2
 91
        2
 64
     7
 65
   257
 75
     1
175
     1
 42
179.0
 92
        8
 66
     7
 43
1.0
 76
     1
 77
     6
 78
     2
 67
     7
 79
     3
170
     0
171
     0
290
     0
174
     0
 93
        1
 44
0.0
173
     0
291
     0
 45
0.0
1001
ACAD
1000
AcDbSavedByObjectVersion
1070
     0
  0
VISUALSTYLE
  5
494
102
{ACAD_XDICTIONARY
360
52C
102
}
102
{ACAD_REACTORS
330
489
102
}
330
489
100
AcDbVisualStyle
  2
Dim
 70
    11
 71
     2
 72
     2
 73
     0
 90
        0
 40
-0.6
 41
-30.0
 62
     5
 63
     7
421
 16777215
 74
     1
 91
        4
 64
     7
 65
   257
 75
     1
175
     1
 42
1.0
 92
        8
 66
     7
 43
1.0
 76
     1
 77
     6
 78
     2
 67
     7
 79
     5
170
     0
171
     0
290
     0
174
     0
 93
        1
 44
-50.0
173
     0
291
     1
 45
0.0
1001
ACAD
1000
AcDbSavedByObjectVersion
1070
     0
  0
VISUALSTYLE
  5
4A1
102
{ACAD_XDICTIONARY
360
546
102
}
102
{ACAD_REACTORS
330
489
102
}
330
489
100
AcDbVisualStyle
  2
EdgeColorOff
 70
    22
 71
     2
 72
     2
 73
     0
 90
        0
 40
-0.6
 41
-30.0
 62
     5
 63
     7
421
 16777215
 74
     1
 91
        4
 64
     7
 65
   257
 75
     1
175
     1
 42
1.0
 92
        8
 66
     7
 43
1.0
 76
     1
 77
     6
 78
     2
 67
     7
 79
     5
170
     0
171
     0
290
     0
174
     0
 93
        1
 44
0.0
173
     0
291
     1
 45
0.0
1001
ACAD
1000
AcDbSavedByObjectVersion
1070
     0
  0
VISUALSTYLE
  5
498
102
{ACAD_XDICTIONARY
360
534
102
}
102
{ACAD_REACTORS
330
489
102
}
330
489
100
AcDbVisualStyle
  2
Facepattern
 70
    15
 71
     2
 72
     2
 73
     0
 90
        0
 40
-0.6
 41
-30.0
 62
     5
 63
     7
421
 16777215
 74
     1
 91
        4
 64
     7
 65
   257
 75
     1
175
     1
 42
1.0
 92
        8
 66
     7
 43
1.0
 76
     1
 77
     6
 78
     2
 67
     7
 79
     5
170
     0
171
     0
290
     0
174
     0
 93
        1
 44
0.0
173
     0
291
     1
 45
0.0
1001
ACAD
1000
AcDbSavedByObjectVersion
1070
     0
  0
VISUALSTYLE
  5
48A
102
{ACAD_XDICTIONARY
360
518
102
}
102
{ACAD_REACTORS
330
489
102
}
330
489
100
AcDbVisualStyle
  2
Flat
 70
     0
 71
     2
 72
     1
 73
     1
 90
        2
 40
-0.6
 41
30.0
 62
     5
 63
     7
421
 16777215
 74
     0
 91
        0
 64
     7
 65
   257
 75
     1
175
     1
 42
1.0
 92
        8
 66
     7
 43
1.0
 76
     1
 77
     6
 78
     2
 67
     7
 79
     5
170
     0
171
     0
290
     0
174
     0
 93
       13
 44
0.0
173
     0
291
     1
 45
0.0
1001
ACAD
1000
AcDbSavedByObjectVersion
1070
     0
  0
VISUALSTYLE
  5
48B
102
{ACAD_XDICTIONARY
360
51A
102
}
102
{ACAD_REACTORS
330
489
102
}
330
489
100
AcDbVisualStyle
  2
FlatWithEdges
 70
     1
 71
     2
 72
     1
 73
     1
 90
        2
 40
-0.6
 41
30.0
 62
     5
 63
     7
421
 16777215
 74
     1
 91
        0
 64
     7
 65
   257
 75
     1
175
     1
 42
1.0
 92
        0
 66
   257
 43
1.0
 76
     1
 77
     6
 78
     2
 67
     7
 79
     5
170
     0
171
     0
290
     0
174
     0
 93
       13
 44
0.0
173
     0
291
     1
 45
0.0
1001
ACAD
1000
AcDbSavedByObjectVersion
1070
     0
  0
VISUALSTYLE
  5
48C
102
{ACAD_XDICTIONARY
360
51C
102
}
102
{ACAD_REACTORS
330
489
102
}
330
489
100
AcDbVisualStyle
  2
Gouraud
 70
     2
 71
     2
 72
     2
 73
     1
 90
        2
 40
-0.6
 41
30.0
 62
     5
 63
     7
421
 16777215
 74
     0
 91
        0
 64
     7
 65
   257
 75
     1
175
     1
 42
1.0
 92
        0
 66
     7
 43
1.0
 76
     1
 77
     6
 78
     2
 67
     7
 79
     5
170
     0
171
     0
290
     0
174
     0
 93
       13
 44
0.0
173
     0
291
     1
 45
0.0
1001
ACAD
1000
AcDbSavedByObjectVersion
1070
     0
  0
VISUALSTYLE
  5
48D
102
{ACAD_XDICTIONARY
360
51E
102
}
102
{ACAD_REACTORS
330
489
102
}
330
489
100
AcDbVisualStyle
  2
GouraudWithEdges
 70
     3
 71
     2
 72
     2
 73
     1
 90
        2
 40
-0.6
 41
30.0
 62
     5
 63
     7
421
 16777215
 74
     1
 91
        0
 64
     7
 65
   257
 75
     1
175
     1
 42
1.0
 92
        0
 66
   257
 43
1.0
 76
     1
 77
     6
 78
     2
 67
     7
 79
     5
170
     0
171
     0
290
     0
174
     0
 93
       13
 44
0.0
173
     0
291
     1
 45
0.0
1001
ACAD
1000
AcDbSavedByObjectVersion
1070
     0
  0
VISUALSTYLE
  5
491
102
{ACAD_XDICTIONARY
360
526
102
}
102
{ACAD_REACTORS
330
489
102
}
330
489
100
AcDbVisualStyle
  2
Hidden
 70
     6
 71
     1
 72
     2
 73
     2
 90
        0
 40
-0.6
 41
-30.0
 62
     5
 63
     7
421
 16777215
 74
     2
 91
        2
 64
     7
 65
   257
 75
     2
175
     1
 42
40.0
 92
        0
 66
   257
 43
1.0
 76
     1
 77
     6
 78
     2
 67
     7
 79
     3
170
     0
171
     0
290
     0
174
     0
 93
        1
 44
0.0
173
     0
291
     0
 45
0.0
1001
ACAD
1000
AcDbSavedByObjectVersion
1070
     0
  0
VISUALSTYLE
  5
49F
102
{ACAD_XDICTIONARY
360
542
102
}
102
{ACAD_REACTORS
330
489
102
}
330
489
100
AcDbVisualStyle
  2
JitterOff
 70
    20
 71
     2
 72
     2
 73
     0
 90
        0
 40
-0.6
 41
-30.0
 62
     5
 63
     7
421
 16777215
 74
     1
 91
        4
 64
     7
 65
   257
 75
     1
175
     1
 42
1.0
 92
       10
 66
     7
 43
1.0
 76
     1
 77
     6
 78
     2
 67
     7
 79
     5
170
     0
171
     0
290
     0
174
     0
 93
        1
 44
0.0
173
     0
291
     1
 45
0.0
1001
ACAD
1000
AcDbSavedByObjectVersion
1070
     0
  0
VISUALSTYLE
  5
497
102
{ACAD_XDICTIONARY
360
532
102
}
102
{ACAD_REACTORS
330
489
102
}
330
489
100
AcDbVisualStyle
  2
Linepattern
 70
    14
 71
     2
 72
     2
 73
     0
 90
        0
 40
-0.6
 41
-30.0
 62
     5
 63
     7
421
 16777215
 74
     1
 91
        4
 64
     7
 65
   257
 75
     7
175
     7
 42
1.0
 92
        8
 66
     7
 43
1.0
 76
     1
 77
     6
 78
     2
 67
     7
 79
     5
170
     0
171
     0
290
     0
174
     0
 93
        1
 44
0.0
173
     0
291
     1
 45
0.0
1001
ACAD
1000
AcDbSavedByObjectVersion
1070
     0
  0
VISUALSTYLE
  5
4A0
102
{ACAD_XDICTIONARY
360
544
102
}
102
{ACAD_REACTORS
330
489
102
}
330
489
100
AcDbVisualStyle
  2
OverhangOff
 70
    21
 71
     2
 72
     2
 73
     0
 90
        0
 40
-0.6
 41
-30.0
 62
     5
 63
     7
421
 16777215
 74
     1
 91
        4
 64
     7
 65
   257
 75
     1
175
     1
 42
1.0
 92
        9
 66
     7
 43
1.0
 76
     1
 77
     6
 78
     2
 67
     7
 79
     5
170
     0
171
     0
290
     0
174
     0
 93
        1
 44
0.0
173
     0
291
     1
 45
0.0
1001
ACAD
1000
AcDbSavedByObjectVersion
1070
     0
  0
VISUALSTYLE
  5
493
102
{ACAD_XDICTIONARY
360
52A
102
}
102
{ACAD_REACTORS
330
489
102
}
330
489
100
AcDbVisualStyle
  2
Realistic
 70
     8
 71
     2
 72
     2
 73
     0
 90
        2
 40
-0.6
 41
30.0
 62
     5
 63
     7
421
 16777215
 74
     0
 91
        0
 64
     7
 65
   257
 75
     1
175
     1
 42
1.0
 92
        8
 66
   257
 43
1.0
 76
     1
 77
     6
 78
     2
 67
     7
 79
     3
170
     0
171
     0
290
     0
174
     0
 93
       13
 44
0.0
173
     0
291
     0
 45
0.0
1001
ACAD
1000
AcDbSavedByObjectVersion
1070
     0
  0
VISUALSTYLE
  5
49E
102
{ACAD_XDICTIONARY
360
540
102
}
102
{ACAD_REACTORS
330
489
102
}
330
489
100
AcDbVisualStyle
  2
Shaded
 70
    27
 71
     2
 72
     2
 73
     1
 90
        2
 40
-0.6
 41
30.0
 62
     5
 63
     7
421
 16777215
 74
     0
 91
        4
 64
     7
 65
   257
 75
     1
175
     1
 42
1.0
 92
        8
 66
   257
 43
1.0
 76
     1
 77
     6
 78
     2
 67
     8
425
  7895160
 79
     3
170
     0
171
     0
290
     0
174
     0
 93
        5
 44
0.0
173
     0
291
     0
 45
0.0
1001
ACAD
1000
AcDbSavedByObjectVersion
1070
     0
  0
VISUALSTYLE
  5
49D
102
{ACAD_XDICTIONARY
360
53E
102
}
102
{ACAD_REACTORS
330
489
102
}
330
489
100
AcDbVisualStyle
  2
Shaded with edges
 70
    26
 71
     2
 72
     2
 73
     1
 90
        2
 40
-0.6
 41
30.0
 62
     5
 63
     7
421
 16777215
 74
     1
 91
       10
 64
     7
 65
   257
 75
     2
175
     1
 42
1.0
 92
        8
 66
   257
 43
1.0
 76
     1
 77
     6
 78
     2
 67
     7
 79
     3
170
     0
171
     0
290
     0
174
     0
 93
        5
 44
0.0
173
     0
291
     0
 45
0.0
1001
ACAD
1000
AcDbSavedByObjectVersion
1070
     0
  0
VISUALSTYLE
  5
49A
102
{ACAD_XDICTIONARY
360
538
102
}
102
{ACAD_REACTORS
330
489
102
}
330
489
100
AcDbVisualStyle
  2
Shades of Gray
 70
    23
 71
     2
 72
     2
 73
     3
 90
        0
 40
-0.6
 41
-30.0
 62
     5
 63
     7
421
 16777215
 74
     2
 91
        2
 64
     7
 65
     7
 75
     1
175
     1
 42
40.0
 92
        8
 66
     7
 43
1.0
 76
     1
 77
     6
 78
     2
 67
     7
 79
     3
170
     0
171
     0
290
     0
174
     0
 93
        1
 44
0.0
173
     0
291
     0
 45
0.0
1001
ACAD
1000
AcDbSavedByObjectVersion
1070
     0
  0
VISUALSTYLE
  5
49B
102
{ACAD_XDICTIONARY
360
53A
102
}
102
{ACAD_REACTORS
330
489
102
}
330
489
100
AcDbVisualStyle
  2
Sketchy
 70
    24
 71
     1
 72
     2
 73
     2
 90
        0
 40
-0.6
 41
-30.0
 62
     5
 63
     7
421
 16777215
 74
     2
 91
        2
 64
     7
 65
     7
 75
     1
175
     1
 42
40.0
 92
       11
 66
     7
 43
1.0
 76
     1
 77
     6
 78
     2
 67
     7
 79
     6
170
     0
171
     0
290
     0
174
     0
 93
        1
 44
0.0
173
     0
291
     0
 45
0.0
1001
ACAD
1000
AcDbSavedByObjectVersion
1070
     0
  0
VISUALSTYLE
  5
496
102
{ACAD_XDICTIONARY
360
530
102
}
102
{ACAD_REACTORS
330
489
102
}
330
489
100
AcDbVisualStyle
  2
Thicken
 70
    13
 71
     2
 72
     2
 73
     0
 90
        0
 40
-0.6
 41
-30.0
 62
     5
 63
     7
421
 16777215
 74
     1
 91
        4
 64
     7
 65
   257
 75
     1
175
     1
 42
1.0
 92
       12
 66
     7
 43
1.0
 76
     1
 77
     6
 78
     2
 67
     7
 79
     5
170
     0
171
     0
290
     0
174
     0
 93
        1
 44
0.0
173
     0
291
     1
 45
0.0
1001
ACAD
1000
AcDbSavedByObjectVersion
1070
     0
  0
VISUALSTYLE
  5
490
102
{ACAD_XDICTIONARY
360
524
102
}
102
{ACAD_REACTORS
330
489
102
}
330
489
100
AcDbVisualStyle
  2
Wireframe
 70
     5
 71
     0
 72
     2
 73
     0
 90
        0
 40
-0.6
 41
-30.0
 62
     5
 63
     7
421
 16777215
 74
     1
 91
        4
 64
     7
 65
   257
 75
     1
175
     1
 42
1.0
 92
        0
 66
   257
 43
1.0
 76
     1
 77
     6
 78
     2
 67
     7
 79
     3
170
     0
171
     0
290
     0
174
     0
 93
        1
 44
0.0
173
     0
291
     0
 45
0.0
1001
ACAD
1000
AcDbSavedByObjectVersion
1070
     0
  0
VISUALSTYLE
  5
49C
102
{ACAD_XDICTIONARY
360
53C
102
}
102
{ACAD_REACTORS
330
489
102
}
330
489
100
AcDbVisualStyle
  2
X-Ray
 70
    25
 71
     2
 72
     2
 73
     1
 90
        1
 40
0.5
 41
-30.0
 62
     5
 63
     7
421
 16777215
 74
     1
 91
        0
 64
     7
 65
   257
 75
     1
175
     1
 42
1.0
 92
        8
 66
     7
 43
1.0
 76
     1
 77
     6
 78
     2
 67
     7
 79
     3
170
     0
171
     0
290
     0
174
     0
 93
       13
 44
0.0
173
     0
291
     0
 45
0.0
1001
ACAD
1000
AcDbSavedByObjectVersion
1070
     0
  0
DICTIONARYVAR
  5
506
102
{ACAD_REACTORS
330
466
102
}
330
466
100
DictionaryVariables
280
     0
  1
1:1
  0
DICTIONARYVAR
  5
503
102
{ACAD_REACTORS
330
466
102
}
330
466
100
DictionaryVariables
280
     0
  1
STANDARD
  0
DICTIONARYVAR
  5
502
102
{ACAD_REACTORS
330
466
102
}
330
466
100
DictionaryVariables
280
     0
  1
STANDARD
  0
DICTIONARYVAR
  5
504
102
{ACAD_REACTORS
330
466
102
}
330
466
100
DictionaryVariables
280
     0
  1
Imperial24
  0
DICTIONARYVAR
  5
505
102
{ACAD_REACTORS
330
466
102
}
330
466
100
DictionaryVariables
280
     0
  1
Imperial24
  0
DICTIONARYVAR
  5
467
102
{ACAD_REACTORS
330
466
102
}
330
466
100
DictionaryVariables
280
     0
  1
0
  0
DICTIONARYVAR
  5
512
102
{ACAD_REACTORS
330
466
102
}
330
466
100
DictionaryVariables
280
     0
  1
2
  0
DICTIONARY
  5
54D
330
4BC
100
AcDbDictionary
280
     1
281
     1
  3
ACAD_XREC_ROUNDTRIP
360
54E
  0
DICTIONARY
  5
47A
330
479
100
AcDbDictionary
280
     1
281
     1
  3
ACAD_XREC_ROUNDTRIP
360
516
  3
BUMPTILE
360
47C
  3
DIFFUSETILE
360
47B
  3
OPACITYTILE
360
47F
  3
REFLECTIONTILE
360
47E
  3
REFRACTIONTILE
360
480
  3
SPECULARTILE
360
47D
  0
DICTIONARY
  5
472
330
471
100
AcDbDictionary
280
     1
281
     1
  3
ACAD_XREC_ROUNDTRIP
360
515
  3
BUMPTILE
360
474
  3
DIFFUSETILE
360
473
  3
OPACITYTILE
360
477
  3
REFLECTIONTILE
360
476
  3
REFRACTIONTILE
360
478
  3
SPECULARTILE
360
475
  0
DICTIONARY
  5
482
330
481
100
AcDbDictionary
280
     1
281
     1
  3
ACAD_XREC_ROUNDTRIP
360
517
  3
BUMPTILE
360
484
  3
DIFFUSETILE
360
483
  3
OPACITYTILE
360
487
  3
REFLECTIONTILE
360
486
  3
REFRACTIONTILE
360
488
  3
SPECULARTILE
360
485
  0
DICTIONARY
  5
549
330
4B8
100
AcDbDictionary
280
     1
281
     1
  3
ACAD_XREC_ROUNDTRIP
360
54A
  0
DICTIONARY
  5
54B
330
4BA
100
AcDbDictionary
280
     1
281
     1
  3
ACAD_XREC_ROUNDTRIP
360
54C
  0
DICTIONARY
  5
4C4
330
4A4
100
AcDbDictionary
280
     1
281
     1
  3
ACAD_ROUNDTRIP_2008_TABLESTYLE_CELLSTYLEMAP
360
513
  3
ACAD_XREC_ROUNDTRIP
360
548
  0
DICTIONARY
  5
522
330
48F
100
AcDbDictionary
280
     1
281
     1
  3
ACAD_XREC_ROUNDTRIP
360
523
  0
DICTIONARY
  5
520
330
48E
100
AcDbDictionary
280
     1
281
     1
  3
ACAD_XREC_ROUNDTRIP
360
521
  0
DICTIONARY
  5
52E
330
495
100
AcDbDictionary
280
     1
281
     1
  3
ACAD_XREC_ROUNDTRIP
360
52F
  0
DICTIONARY
  5
536
330
499
100
AcDbDictionary
280
     1
281
     1
  3
ACAD_XREC_ROUNDTRIP
360
537
  0
DICTIONARY
  5
528
330
492
100
AcDbDictionary
280
     1
281
     1
  3
ACAD_XREC_ROUNDTRIP
360
529
  0
DICTIONARY
  5
52C
330
494
100
AcDbDictionary
280
     1
281
     1
  3
ACAD_XREC_ROUNDTRIP
360
52D
  0
DICTIONARY
  5
546
330
4A1
100
AcDbDictionary
280
     1
281
     1
  3
ACAD_XREC_ROUNDTRIP
360
547
  0
DICTIONARY
  5
534
330
498
100
AcDbDictionary
280
     1
281
     1
  3
ACAD_XREC_ROUNDTRIP
360
535
  0
DICTIONARY
  5
518
330
48A
100
AcDbDictionary
280
     1
281
     1
  3
ACAD_XREC_ROUNDTRIP
360
519
  0
DICTIONARY
  5
51A
330
48B
100
AcDbDictionary
280
     1
281
     1
  3
ACAD_XREC_ROUNDTRIP
360
51B
  0
DICTIONARY
  5
51C
330
48C
100
AcDbDictionary
280
     1
281
     1
  3
ACAD_XREC_ROUNDTRIP
360
51D
  0
DICTIONARY
  5
51E
330
48D
100
AcDbDictionary
280
     1
281
     1
  3
ACAD_XREC_ROUNDTRIP
360
51F
  0
DICTIONARY
  5
526
330
491
100
AcDbDictionary
280
     1
281
     1
  3
ACAD_XREC_ROUNDTRIP
360
527
  0
DICTIONARY
  5
542
330
49F
100
AcDbDictionary
280
     1
281
     1
  3
ACAD_XREC_ROUNDTRIP
360
543
  0
DICTIONARY
  5
532
330
497
100
AcDbDictionary
280
     1
281
     1
  3
ACAD_XREC_ROUNDTRIP
360
533
  0
DICTIONARY
  5
544
330
4A0
100
AcDbDictionary
280
     1
281
     1
  3
ACAD_XREC_ROUNDTRIP
360
545
  0
DICTIONARY
  5
52A
330
493
100
AcDbDictionary
280
     1
281
     1
  3
ACAD_XREC_ROUNDTRIP
360
52B
  0
DICTIONARY
  5
540
330
49E
100
AcDbDictionary
280
     1
281
     1
  3
ACAD_XREC_ROUNDTRIP
360
541
  0
DICTIONARY
  5
53E
330
49D
100
AcDbDictionary
280
     1
281
     1
  3
ACAD_XREC_ROUNDTRIP
360
53F
  0
DICTIONARY
  5
538
330
49A
100
AcDbDictionary
280
     1
281
     1
  3
ACAD_XREC_ROUNDTRIP
360
539
  0
DICTIONARY
  5
53A
330
49B
100
AcDbDictionary
280
     1
281
     1
  3
ACAD_XREC_ROUNDTRIP
360
53B
  0
DICTIONARY
  5
530
330
496
100
AcDbDictionary
280
     1
281
     1
  3
ACAD_XREC_ROUNDTRIP
360
531
  0
DICTIONARY
  5
524
330
490
100
AcDbDictionary
280
     1
281
     1
  3
ACAD_XREC_ROUNDTRIP
360
525
  0
DICTIONARY
  5
53C
330
49C
100
AcDbDictionary
280
     1
281
     1
  3
ACAD_XREC_ROUNDTRIP
360
53D
  0
XRECORD
  5
54E
102
{ACAD_REACTORS
330
54D
102
}
330
54D
100
AcDbXrecord
280
     1
102
DISPLAYNAME
  1
Imperial24
102
FLAGS
 90
        0
  0
XRECORD
  5
516
102
{ACAD_REACTORS
330
47A
102
}
330
47A
100
AcDbXrecord
280
     1
102
MATERIAL
148
0.0
149
0.0
149
0.0
 93
        0
 94
      127
282
     0
 72
     0
 77
     0
171
     0
175
     0
179
     0
273
     0
  0
XRECORD
  5
47C
102
{ACAD_REACTORS
330
47A
102
}
330
47A
100
AcDbXrecord
280
     1
270
     1
271
     1
  0
XRECORD
  5
47B
102
{ACAD_REACTORS
330
47A
102
}
330
47A
100
AcDbXrecord
280
     1
270
     1
271
     1
  0
XRECORD
  5
47F
102
{ACAD_REACTORS
330
47A
102
}
330
47A
100
AcDbXrecord
280
     1
270
     1
271
     1
  0
XRECORD
  5
47E
102
{ACAD_REACTORS
330
47A
102
}
330
47A
100
AcDbXrecord
280
     1
270
     1
271
     1
  0
XRECORD
  5
480
102
{ACAD_REACTORS
330
47A
102
}
330
47A
100
AcDbXrecord
280
     1
270
     1
271
     1
  0
XRECORD
  5
47D
102
{ACAD_REACTORS
330
47A
102
}
330
47A
100
AcDbXrecord
280
     1
270
     1
271
     1
  0
XRECORD
  5
515
102
{ACAD_REACTORS
330
472
102
}
330
472
100
AcDbXrecord
280
     1
102
MATERIAL
148
0.0
149
0.0
149
0.0
 93
        0
 94
      127
282
     0
 72
     0
 77
     0
171
     0
175
     0
179
     0
273
     0
  0
XRECORD
  5
474
102
{ACAD_REACTORS
330
472
102
}
330
472
100
AcDbXrecord
280
     1
270
     1
271
     1
  0
XRECORD
  5
473
102
{ACAD_REACTORS
330
472
102
}
330
472
100
AcDbXrecord
280
     1
270
     1
271
     1
  0
XRECORD
  5
477
102
{ACAD_REACTORS
330
472
102
}
330
472
100
AcDbXrecord
280
     1
270
     1
271
     1
  0
XRECORD
  5
476
102
{ACAD_REACTORS
330
472
102
}
330
472
100
AcDbXrecord
280
     1
270
     1
271
     1
  0
XRECORD
  5
478
102
{ACAD_REACTORS
330
472
102
}
330
472
100
AcDbXrecord
280
     1
270
     1
271
     1
  0
XRECORD
  5
475
102
{ACAD_REACTORS
330
472
102
}
330
472
100
AcDbXrecord
280
     1
270
     1
271
     1
  0
XRECORD
  5
517
102
{ACAD_REACTORS
330
482
102
}
330
482
100
AcDbXrecord
280
     1
102
MATERIAL
148
0.0
149
0.0
149
0.0
 93
        0
 94
      127
282
     0
 72
     0
 77
     0
171
     0
175
     0
179
     0
273
     0
  0
XRECORD
  5
484
102
{ACAD_REACTORS
330
482
102
}
330
482
100
AcDbXrecord
280
     1
270
     1
271
     1
  0
XRECORD
  5
483
102
{ACAD_REACTORS
330
482
102
}
330
482
100
AcDbXrecord
280
     1
270
     1
271
     1
  0
XRECORD
  5
487
102
{ACAD_REACTORS
330
482
102
}
330
482
100
AcDbXrecord
280
     1
270
     1
271
     1
  0
XRECORD
  5
486
102
{ACAD_REACTORS
330
482
102
}
330
482
100
AcDbXrecord
280
     1
270
     1
271
     1
  0
XRECORD
  5
488
102
{ACAD_REACTORS
330
482
102
}
330
482
100
AcDbXrecord
280
     1
270
     1
271
     1
  0
XRECORD
  5
485
102
{ACAD_REACTORS
330
482
102
}
330
482
100
AcDbXrecord
280
     1
270
     1
271
     1
  0
XRECORD
  5
54A
102
{ACAD_REACTORS
330
549
102
}
330
549
100
AcDbXrecord
280
     1
102
ACAD_ROUNDTRIP_2012_MLEADER_STYLE
298
     1
  0
XRECORD
  5
54C
102
{ACAD_REACTORS
330
54B
102
}
330
54B
100
AcDbXrecord
280
     1
102
DISPLAYNAME
  1
Imperial24
102
FLAGS
 90
        0
  0
CELLSTYLEMAP
  5
513
102
{ACAD_REACTORS
330
4C4
102
}
330
4C4
100
AcDbCellStyleMap
 90
        3
300
CELLSTYLE
  1
TABLEFORMAT_BEGIN
 90
        5
170
     1
 91
        0
 92
    32768
 62
   257
 93
        1
300
CONTENTFORMAT
  1
CONTENTFORMAT_BEGIN
 90
        0
 91
        0
 92
      512
 93
        0
300

 40
0.0
140
1.0
 94
        5
 62
     0
340
443
144
0.25
309
CONTENTFORMAT_END
171
     0
 94
        0
309
TABLEFORMAT_END
  1
CELLSTYLE_BEGIN
 90
        1
 91
        1
300
_TITLE
309
CELLSTYLE_END
300
CELLSTYLE
  1
TABLEFORMAT_BEGIN
 90
        5
170
     1
 91
        0
 92
        0
 62
   257
 93
        1
300
CONTENTFORMAT
  1
CONTENTFORMAT_BEGIN
 90
        0
 91
        0
 92
      512
 93
        0
300

 40
0.0
140
1.0
 94
        5
 62
     0
340
443
144
0.18
309
CONTENTFORMAT_END
171
     0
 94
        0
309
TABLEFORMAT_END
  1
CELLSTYLE_BEGIN
 90
        2
 91
        1
300
_HEADER
309
CELLSTYLE_END
300
CELLSTYLE
  1
TABLEFORMAT_BEGIN
 90
        5
170
     1
 91
        0
 92
        0
 62
   257
 93
        1
300
CONTENTFORMAT
  1
CONTENTFORMAT_BEGIN
 90
        0
 91
        0
 92
      512
 93
        0
300

 40
0.0
140
1.0
 94
        2
 62
     0
340
443
144
0.18
309
CONTENTFORMAT_END
171
     0
 94
        0
309
TABLEFORMAT_END
  1
CELLSTYLE_BEGIN
 90
        3
 91
        2
300
_DATA
309
CELLSTYLE_END
  0
XRECORD
  5
548
102
{ACAD_REACTORS
330
4C4
102
}
330
4C4
100
AcDbXrecord
280
     1
102
ACAD_ROUNDTRIP_PRE2007_TABLESTYLE
 90
      512
 91
        0
  1

 92
      512
 93
        0
  2

 94
      512
 95
        0
  3

  0
XRECORD
  5
523
102
{ACAD_REACTORS
330
522
102
}
330
522
100
AcDbXrecord
280
     1
102
RTVSPost2010Prop28
280
     1
102
RTVSPost2010PropOp28
 70
     1
102
RTVSPost2010Prop29
280
     1
102
RTVSPost2010PropOp29
 70
     1
102
RTVSPost2010Prop30
280
     0
102
RTVSPost2010PropOp30
 70
     1
102
RTVSPost2010Prop31
280
     0
102
RTVSPost2010PropOp31
 70
     1
102
RTVSPost2010Prop32
280
     0
102
RTVSPost2010PropOp32
 70
     1
102
RTVSPost2010Prop33
280
     0
102
RTVSPost2010PropOp33
 70
     1
102
RTVSPost2010Prop34
280
     0
102
RTVSPost2010PropOp34
 70
     1
102
RTVSPost2010Prop35
280
     0
102
RTVSPost2010PropOp35
 70
     1
102
RTVSPost2010Prop36
280
     0
102
RTVSPost2010PropOp36
 70
     1
102
RTVSPost2010Prop37
 90
       50
102
RTVSPost2010PropOp37
 70
     1
102
RTVSPost2010Prop38
140
0.0
102
RTVSPost2010PropOp38
 70
     1
102
RTVSPost2010Prop39
140
1.0
102
RTVSPost2010PropOp39
 70
     1
102
RTVSPost2010Prop40
 90
        0
102
RTVSPost2010PropOp40
 70
     1
102
RTVSPost2010Prop41ColorIndex
 90
       18
102
RTVSPost2010Prop41ColorRGB
 90
        0
102
RTVSPost2010PropOp41
 70
     1
102
RTVSPost2010Prop42
 90
       50
102
RTVSPost2010PropOp42
 70
     1
102
RTVSPost2010Prop43
 90
        3
102
RTVSPost2010PropOp43
 70
     1
102
RTVSPost2010Prop44ColorIndex
 90
        5
102
RTVSPost2010Prop44ColorRGB
 90
      255
102
RTVSPost2010PropOp44
 70
     1
102
RTVSPost2010Prop45
280
     0
102
RTVSPost2010PropOp45
 70
     1
102
RTVSPost2010Prop46
 90
       50
102
RTVSPost2010PropOp46
 70
     1
102
RTVSPost2010Prop47
 90
       50
102
RTVSPost2010PropOp47
 70
     1
102
RTVSPost2010Prop48
 90
       50
102
RTVSPost2010PropOp48
 70
     1
102
RTVSPost2010Prop49
280
     0
102
RTVSPost2010PropOp49
 70
     1
102
RTVSPost2010Prop50
 90
       50
102
RTVSPost2010PropOp50
 70
     1
102
RTVSPost2010Prop51ColorIndex
 90
      256
102
RTVSPost2010Prop51ColorRGB
 90
-16777216
102
RTVSPost2010PropOp51
 70
     0
102
RTVSPost2010Prop52
140
1.0
102
RTVSPost2010PropOp52
 70
     0
102
RTVSPost2010Prop53
 90
        2
102
RTVSPost2010PropOp53
 70
     1
102
RTVSPost2010Prop54
  1
strokes_ogs.tif
102
RTVSPost2010PropOp54
 70
     1
102
RTVSPost2010Prop55
280
     0
102
RTVSPost2010PropOp55
 70
     1
102
RTVSPost2010Prop56
140
1.0
102
RTVSPost2010PropOp56
 70
     1
102
RTVSPost2010Prop57
140
1.0
102
RTVSPost2010PropOp57
 70
     1
102
RTVSPropertyOp0
 70
     1
102
RTVSPropertyOp1
 70
     1
102
RTVSPropertyOp2
 70
     1
102
RTVSPropertyOp3
 70
     1
102
RTVSPropertyOp4
 70
     1
102
RTVSPropertyOp5
 70
     1
102
RTVSPropertyOp6
 70
     1
102
RTVSPropertyOp7
 70
     1
102
RTVSPropertyOp8
 70
     1
102
RTVSPropertyOp9
 70
     1
102
RTVSPropertyOp10
 70
     1
102
RTVSPropertyOp11
 70
     1
102
RTVSPropertyOp12
 70
     1
102
RTVSPropertyOp13
 70
     1
102
RTVSPropertyOp14
 70
     1
102
RTVSPropertyOp15
 70
     1
102
RTVSPropertyOp16
 70
     1
102
RTVSPropertyOp17
 70
     1
102
RTVSPropertyOp18
 70
     1
102
RTVSPropertyOp19
 70
     1
102
RTVSPropertyOp20
 70
     1
102
RTVSPropertyOp21
 70
     1
102
RTVSPropertyOp22
 70
     1
102
RTVSPropertyOp23
 70
     1
102
RTVSPropertyOp24
 70
     1
102
RTVSPropertyOp25
 70
     1
102
RTVSPropertyOp26
 70
     1
102
RTVSPropertyOp27
 70
     1
102
RTVSPropertyOp28
 70
     1
102
RTVSPropertyOp29
 70
     1
102
RTVSPropertyOp30
 70
     1
102
RTVSPropertyOp31
 70
     1
102
RTVSPropertyOp32
 70
     1
102
RTVSPropertyOp33
 70
     1
102
RTVSPropertyOp34
 70
     1
102
RTVSPropertyOp35
 70
     1
102
RTVSPropertyOp36
 70
     1
102
RTVSPropertyOp37
 70
     1
102
RTVSPropertyOp38
 70
     1
102
RTVSPropertyOp39
 70
     1
102
RTVSPropertyOp40
 70
     1
102
RTVSPropertyOp41
 70
     1
102
RTVSPropertyOp42
 70
     1
102
RTVSPropertyOp43
 70
     1
102
RTVSPropertyOp44
 70
     1
102
RTVSPropertyOp45
 70
     1
102
RTVSPropertyOp46
 70
     1
102
RTVSPropertyOp47
 70
     1
102
RTVSPropertyOp48
 70
     1
102
RTVSPropertyOp49
 70
     1
102
RTVSPropertyOp50
 70
     1
102
RTVSPropertyOp51
 70
     0
102
RTVSPropertyOp52
 70
     0
102
RTVSPropertyOp53
 70
     1
102
RTVSPropertyOp54
 70
     1
102
RTVSPropertyOp55
 70
     1
102
RTVSPropertyOp56
 70
     1
102
RTVSPropertyOp57
 70
     1
102
RTVSPropertyOp58
 70
     1
102
RTVSPropertyOp59
 70
     1
102
RTVSPropertyOp60
 70
     1
102
RTVSPropertyOp61
 70
     1
102
RTVSPropertyOp62
 70
     1
  0
XRECORD
  5
521
102
{ACAD_REACTORS
330
520
102
}
330
520
100
AcDbXrecord
280
     1
102
RTVSPost2010Prop28
280
     0
102
RTVSPost2010PropOp28
 70
     1
102
RTVSPost2010Prop29
280
     1
102
RTVSPost2010PropOp29
 70
     1
102
RTVSPost2010Prop30
280
     1
102
RTVSPost2010PropOp30
 70
     1
102
RTVSPost2010Prop31
280
     0
102
RTVSPost2010PropOp31
 70
     1
102
RTVSPost2010Prop32
280
     0
102
RTVSPost2010PropOp32
 70
     1
102
RTVSPost2010Prop33
280
     0
102
RTVSPost2010PropOp33
 70
     1
102
RTVSPost2010Prop34
280
     0
102
RTVSPost2010PropOp34
 70
     1
102
RTVSPost2010Prop35
280
     0
102
RTVSPost2010PropOp35
 70
     1
102
RTVSPost2010Prop36
280
     0
102
RTVSPost2010PropOp36
 70
     1
102
RTVSPost2010Prop37
 90
       50
102
RTVSPost2010PropOp37
 70
     1
102
RTVSPost2010Prop38
140
0.0
102
RTVSPost2010PropOp38
 70
     1
102
RTVSPost2010Prop39
140
1.0
102
RTVSPost2010PropOp39
 70
     1
102
RTVSPost2010Prop40
 90
        0
102
RTVSPost2010PropOp40
 70
     1
102
RTVSPost2010Prop41ColorIndex
 90
       18
102
RTVSPost2010Prop41ColorRGB
 90
        0
102
RTVSPost2010PropOp41
 70
     1
102
RTVSPost2010Prop42
 90
       50
102
RTVSPost2010PropOp42
 70
     1
102
RTVSPost2010Prop43
 90
        3
102
RTVSPost2010PropOp43
 70
     1
102
RTVSPost2010Prop44ColorIndex
 90
        5
102
RTVSPost2010Prop44ColorRGB
 90
      255
102
RTVSPost2010PropOp44
 70
     1
102
RTVSPost2010Prop45
280
     0
102
RTVSPost2010PropOp45
 70
     1
102
RTVSPost2010Prop46
 90
       50
102
RTVSPost2010PropOp46
 70
     1
102
RTVSPost2010Prop47
 90
       50
102
RTVSPost2010PropOp47
 70
     1
102
RTVSPost2010Prop48
 90
       50
102
RTVSPost2010PropOp48
 70
     1
102
RTVSPost2010Prop49
280
     0
102
RTVSPost2010PropOp49
 70
     1
102
RTVSPost2010Prop50
 90
       50
102
RTVSPost2010PropOp50
 70
     1
102
RTVSPost2010Prop51ColorIndex
 90
      256
102
RTVSPost2010Prop51ColorRGB
 90
-16777216
102
RTVSPost2010PropOp51
 70
     0
102
RTVSPost2010Prop52
140
1.0
102
RTVSPost2010PropOp52
 70
     0
102
RTVSPost2010Prop53
 90
        2
102
RTVSPost2010PropOp53
 70
     1
102
RTVSPost2010Prop54
  1
strokes_ogs.tif
102
RTVSPost2010PropOp54
 70
     1
102
RTVSPost2010Prop55
280
     0
102
RTVSPost2010PropOp55
 70
     1
102
RTVSPost2010Prop56
140
1.0
102
RTVSPost2010PropOp56
 70
     1
102
RTVSPost2010Prop57
140
1.0
102
RTVSPost2010PropOp57
 70
     1
102
RTVSPropertyOp0
 70
     1
102
RTVSPropertyOp1
 70
     1
102
RTVSPropertyOp2
 70
     1
102
RTVSPropertyOp3
 70
     1
102
RTVSPropertyOp4
 70
     1
102
RTVSPropertyOp5
 70
     1
102
RTVSPropertyOp6
 70
     1
102
RTVSPropertyOp7
 70
     1
102
RTVSPropertyOp8
 70
     1
102
RTVSPropertyOp9
 70
     1
102
RTVSPropertyOp10
 70
     1
102
RTVSPropertyOp11
 70
     1
102
RTVSPropertyOp12
 70
     1
102
RTVSPropertyOp13
 70
     1
102
RTVSPropertyOp14
 70
     1
102
RTVSPropertyOp15
 70
     1
102
RTVSPropertyOp16
 70
     1
102
RTVSPropertyOp17
 70
     1
102
RTVSPropertyOp18
 70
     1
102
RTVSPropertyOp19
 70
     1
102
RTVSPropertyOp20
 70
     1
102
RTVSPropertyOp21
 70
     1
102
RTVSPropertyOp22
 70
     1
102
RTVSPropertyOp23
 70
     1
102
RTVSPropertyOp24
 70
     1
102
RTVSPropertyOp25
 70
     1
102
RTVSPropertyOp26
 70
     1
102
RTVSPropertyOp27
 70
     1
102
RTVSPropertyOp28
 70
     1
102
RTVSPropertyOp29
 70
     1
102
RTVSPropertyOp30
 70
     1
102
RTVSPropertyOp31
 70
     1
102
RTVSPropertyOp32
 70
     1
102
RTVSPropertyOp33
 70
     1
102
RTVSPropertyOp34
 70
     1
102
RTVSPropertyOp35
 70
     1
102
RTVSPropertyOp36
 70
     1
102
RTVSPropertyOp37
 70
     1
102
RTVSPropertyOp38
 70
     1
102
RTVSPropertyOp39
 70
     1
102
RTVSPropertyOp40
 70
     1
102
RTVSPropertyOp41
 70
     1
102
RTVSPropertyOp42
 70
     1
102
RTVSPropertyOp43
 70
     1
102
RTVSPropertyOp44
 70
     1
102
RTVSPropertyOp45
 70
     1
102
RTVSPropertyOp46
 70
     1
102
RTVSPropertyOp47
 70
     1
102
RTVSPropertyOp48
 70
     1
102
RTVSPropertyOp49
 70
     1
102
RTVSPropertyOp50
 70
     1
102
RTVSPropertyOp51
 70
     0
102
RTVSPropertyOp52
 70
     0
102
RTVSPropertyOp53
 70
     1
102
RTVSPropertyOp54
 70
     1
102
RTVSPropertyOp55
 70
     1
102
RTVSPropertyOp56
 70
     1
102
RTVSPropertyOp57
 70
     1
102
RTVSPropertyOp58
 70
     1
102
RTVSPropertyOp59
 70
     1
102
RTVSPropertyOp60
 70
     1
102
RTVSPropertyOp61
 70
     1
102
RTVSPropertyOp62
 70
     1
  0
XRECORD
  5
52F
102
{ACAD_REACTORS
330
52E
102
}
330
52E
100
AcDbXrecord
280
     1
102
RTVSPost2010Prop28
280
     0
102
RTVSPost2010PropOp28
 70
     1
102
RTVSPost2010Prop29
280
     1
102
RTVSPost2010PropOp29
 70
     1
102
RTVSPost2010Prop30
280
     1
102
RTVSPost2010PropOp30
 70
     1
102
RTVSPost2010Prop31
280
     0
102
RTVSPost2010PropOp31
 70
     1
102
RTVSPost2010Prop32
280
     0
102
RTVSPost2010PropOp32
 70
     1
102
RTVSPost2010Prop33
280
     0
102
RTVSPost2010PropOp33
 70
     1
102
RTVSPost2010Prop34
280
     0
102
RTVSPost2010PropOp34
 70
     1
102
RTVSPost2010Prop35
280
     0
102
RTVSPost2010PropOp35
 70
     1
102
RTVSPost2010Prop36
280
     0
102
RTVSPost2010PropOp36
 70
     1
102
RTVSPost2010Prop37
 90
       50
102
RTVSPost2010PropOp37
 70
     1
102
RTVSPost2010Prop38
140
0.0
102
RTVSPost2010PropOp38
 70
     1
102
RTVSPost2010Prop39
140
1.0
102
RTVSPost2010PropOp39
 70
     1
102
RTVSPost2010Prop40
 90
        0
102
RTVSPost2010PropOp40
 70
     1
102
RTVSPost2010Prop41ColorIndex
 90
       18
102
RTVSPost2010Prop41ColorRGB
 90
        0
102
RTVSPost2010PropOp41
 70
     1
102
RTVSPost2010Prop42
 90
       50
102
RTVSPost2010PropOp42
 70
     1
102
RTVSPost2010Prop43
 90
        3
102
RTVSPost2010PropOp43
 70
     1
102
RTVSPost2010Prop44ColorIndex
 90
        5
102
RTVSPost2010Prop44ColorRGB
 90
      255
102
RTVSPost2010PropOp44
 70
     1
102
RTVSPost2010Prop45
280
     0
102
RTVSPost2010PropOp45
 70
     1
102
RTVSPost2010Prop46
 90
       50
102
RTVSPost2010PropOp46
 70
     1
102
RTVSPost2010Prop47
 90
       50
102
RTVSPost2010PropOp47
 70
     1
102
RTVSPost2010Prop48
 90
       50
102
RTVSPost2010PropOp48
 70
     1
102
RTVSPost2010Prop49
280
     0
102
RTVSPost2010PropOp49
 70
     1
102
RTVSPost2010Prop50
 90
       50
102
RTVSPost2010PropOp50
 70
     1
102
RTVSPost2010Prop51ColorIndex
 90
      256
102
RTVSPost2010Prop51ColorRGB
 90
-16777216
102
RTVSPost2010PropOp51
 70
     0
102
RTVSPost2010Prop52
140
1.0
102
RTVSPost2010PropOp52
 70
     0
102
RTVSPost2010Prop53
 90
        2
102
RTVSPost2010PropOp53
 70
     1
102
RTVSPost2010Prop54
  1
strokes_ogs.tif
102
RTVSPost2010PropOp54
 70
     1
102
RTVSPost2010Prop55
280
     0
102
RTVSPost2010PropOp55
 70
     1
102
RTVSPost2010Prop56
140
1.0
102
RTVSPost2010PropOp56
 70
     1
102
RTVSPost2010Prop57
140
1.0
102
RTVSPost2010PropOp57
 70
     1
102
RTVSPropertyOp0
 70
     1
102
RTVSPropertyOp1
 70
     1
102
RTVSPropertyOp2
 70
     1
102
RTVSPropertyOp3
 70
     1
102
RTVSPropertyOp4
 70
     1
102
RTVSPropertyOp5
 70
     1
102
RTVSPropertyOp6
 70
     1
102
RTVSPropertyOp7
 70
     1
102
RTVSPropertyOp8
 70
     1
102
RTVSPropertyOp9
 70
     1
102
RTVSPropertyOp10
 70
     1
102
RTVSPropertyOp11
 70
     1
102
RTVSPropertyOp12
 70
     1
102
RTVSPropertyOp13
 70
     1
102
RTVSPropertyOp14
 70
     1
102
RTVSPropertyOp15
 70
     1
102
RTVSPropertyOp16
 70
     1
102
RTVSPropertyOp17
 70
     1
102
RTVSPropertyOp18
 70
     1
102
RTVSPropertyOp19
 70
     1
102
RTVSPropertyOp20
 70
     1
102
RTVSPropertyOp21
 70
     1
102
RTVSPropertyOp22
 70
     1
102
RTVSPropertyOp23
 70
     1
102
RTVSPropertyOp24
 70
     1
102
RTVSPropertyOp25
 70
     1
102
RTVSPropertyOp26
 70
     1
102
RTVSPropertyOp27
 70
     1
102
RTVSPropertyOp28
 70
     1
102
RTVSPropertyOp29
 70
     1
102
RTVSPropertyOp30
 70
     1
102
RTVSPropertyOp31
 70
     1
102
RTVSPropertyOp32
 70
     1
102
RTVSPropertyOp33
 70
     1
102
RTVSPropertyOp34
 70
     1
102
RTVSPropertyOp35
 70
     1
102
RTVSPropertyOp36
 70
     1
102
RTVSPropertyOp37
 70
     1
102
RTVSPropertyOp38
 70
     1
102
RTVSPropertyOp39
 70
     1
102
RTVSPropertyOp40
 70
     1
102
RTVSPropertyOp41
 70
     1
102
RTVSPropertyOp42
 70
     1
102
RTVSPropertyOp43
 70
     1
102
RTVSPropertyOp44
 70
     1
102
RTVSPropertyOp45
 70
     1
102
RTVSPropertyOp46
 70
     1
102
RTVSPropertyOp47
 70
     1
102
RTVSPropertyOp48
 70
     1
102
RTVSPropertyOp49
 70
     1
102
RTVSPropertyOp50
 70
     1
102
RTVSPropertyOp51
 70
     0
102
RTVSPropertyOp52
 70
     0
102
RTVSPropertyOp53
 70
     1
102
RTVSPropertyOp54
 70
     1
102
RTVSPropertyOp55
 70
     1
102
RTVSPropertyOp56
 70
     1
102
RTVSPropertyOp57
 70
     1
102
RTVSPropertyOp58
 70
     1
102
RTVSPropertyOp59
 70
     1
102
RTVSPropertyOp60
 70
     1
102
RTVSPropertyOp61
 70
     1
102
RTVSPropertyOp62
 70
     1
  0
XRECORD
  5
537
102
{ACAD_REACTORS
330
536
102
}
330
536
100
AcDbXrecord
280
     1
102
RTVSPost2010Prop28
280
     0
102
RTVSPost2010PropOp28
 70
     1
102
RTVSPost2010Prop29
280
     1
102
RTVSPost2010PropOp29
 70
     1
102
RTVSPost2010Prop30
280
     1
102
RTVSPost2010PropOp30
 70
     1
102
RTVSPost2010Prop31
280
     0
102
RTVSPost2010PropOp31
 70
     1
102
RTVSPost2010Prop32
280
     0
102
RTVSPost2010PropOp32
 70
     1
102
RTVSPost2010Prop33
280
     0
102
RTVSPost2010PropOp33
 70
     1
102
RTVSPost2010Prop34
280
     0
102
RTVSPost2010PropOp34
 70
     1
102
RTVSPost2010Prop35
280
     0
102
RTVSPost2010PropOp35
 70
     1
102
RTVSPost2010Prop36
280
     0
102
RTVSPost2010PropOp36
 70
     1
102
RTVSPost2010Prop37
 90
       50
102
RTVSPost2010PropOp37
 70
     1
102
RTVSPost2010Prop38
140
0.0
102
RTVSPost2010PropOp38
 70
     1
102
RTVSPost2010Prop39
140
1.0
102
RTVSPost2010PropOp39
 70
     1
102
RTVSPost2010Prop40
 90
        0
102
RTVSPost2010PropOp40
 70
     1
102
RTVSPost2010Prop41ColorIndex
 90
       18
102
RTVSPost2010Prop41ColorRGB
 90
        0
102
RTVSPost2010PropOp41
 70
     1
102
RTVSPost2010Prop42
 90
       50
102
RTVSPost2010PropOp42
 70
     1
102
RTVSPost2010Prop43
 90
        3
102
RTVSPost2010PropOp43
 70
     1
102
RTVSPost2010Prop44ColorIndex
 90
        5
102
RTVSPost2010Prop44ColorRGB
 90
      255
102
RTVSPost2010PropOp44
 70
     1
102
RTVSPost2010Prop45
280
     0
102
RTVSPost2010PropOp45
 70
     1
102
RTVSPost2010Prop46
 90
       50
102
RTVSPost2010PropOp46
 70
     1
102
RTVSPost2010Prop47
 90
       50
102
RTVSPost2010PropOp47
 70
     1
102
RTVSPost2010Prop48
 90
       50
102
RTVSPost2010PropOp48
 70
     1
102
RTVSPost2010Prop49
280
     0
102
RTVSPost2010PropOp49
 70
     1
102
RTVSPost2010Prop50
 90
       50
102
RTVSPost2010PropOp50
 70
     1
102
RTVSPost2010Prop51ColorIndex
 90
      256
102
RTVSPost2010Prop51ColorRGB
 90
-16777216
102
RTVSPost2010PropOp51
 70
     0
102
RTVSPost2010Prop52
140
1.0
102
RTVSPost2010PropOp52
 70
     0
102
RTVSPost2010Prop53
 90
        2
102
RTVSPost2010PropOp53
 70
     1
102
RTVSPost2010Prop54
  1
strokes_ogs.tif
102
RTVSPost2010PropOp54
 70
     1
102
RTVSPost2010Prop55
280
     0
102
RTVSPost2010PropOp55
 70
     1
102
RTVSPost2010Prop56
140
1.0
102
RTVSPost2010PropOp56
 70
     1
102
RTVSPost2010Prop57
140
1.0
102
RTVSPost2010PropOp57
 70
     1
102
RTVSPropertyOp0
 70
     1
102
RTVSPropertyOp1
 70
     1
102
RTVSPropertyOp2
 70
     1
102
RTVSPropertyOp3
 70
     1
102
RTVSPropertyOp4
 70
     1
102
RTVSPropertyOp5
 70
     1
102
RTVSPropertyOp6
 70
     1
102
RTVSPropertyOp7
 70
     1
102
RTVSPropertyOp8
 70
     1
102
RTVSPropertyOp9
 70
     1
102
RTVSPropertyOp10
 70
     1
102
RTVSPropertyOp11
 70
     1
102
RTVSPropertyOp12
 70
     1
102
RTVSPropertyOp13
 70
     1
102
RTVSPropertyOp14
 70
     1
102
RTVSPropertyOp15
 70
     1
102
RTVSPropertyOp16
 70
     1
102
RTVSPropertyOp17
 70
     1
102
RTVSPropertyOp18
 70
     1
102
RTVSPropertyOp19
 70
     1
102
RTVSPropertyOp20
 70
     1
102
RTVSPropertyOp21
 70
     1
102
RTVSPropertyOp22
 70
     1
102
RTVSPropertyOp23
 70
     1
102
RTVSPropertyOp24
 70
     1
102
RTVSPropertyOp25
 70
     1
102
RTVSPropertyOp26
 70
     1
102
RTVSPropertyOp27
 70
     1
102
RTVSPropertyOp28
 70
     1
102
RTVSPropertyOp29
 70
     1
102
RTVSPropertyOp30
 70
     1
102
RTVSPropertyOp31
 70
     1
102
RTVSPropertyOp32
 70
     1
102
RTVSPropertyOp33
 70
     1
102
RTVSPropertyOp34
 70
     1
102
RTVSPropertyOp35
 70
     1
102
RTVSPropertyOp36
 70
     1
102
RTVSPropertyOp37
 70
     1
102
RTVSPropertyOp38
 70
     1
102
RTVSPropertyOp39
 70
     1
102
RTVSPropertyOp40
 70
     1
102
RTVSPropertyOp41
 70
     1
102
RTVSPropertyOp42
 70
     1
102
RTVSPropertyOp43
 70
     1
102
RTVSPropertyOp44
 70
     1
102
RTVSPropertyOp45
 70
     1
102
RTVSPropertyOp46
 70
     1
102
RTVSPropertyOp47
 70
     1
102
RTVSPropertyOp48
 70
     1
102
RTVSPropertyOp49
 70
     1
102
RTVSPropertyOp50
 70
     1
102
RTVSPropertyOp51
 70
     0
102
RTVSPropertyOp52
 70
     0
102
RTVSPropertyOp53
 70
     1
102
RTVSPropertyOp54
 70
     1
102
RTVSPropertyOp55
 70
     1
102
RTVSPropertyOp56
 70
     1
102
RTVSPropertyOp57
 70
     1
102
RTVSPropertyOp58
 70
     1
102
RTVSPropertyOp59
 70
     1
102
RTVSPropertyOp60
 70
     1
102
RTVSPropertyOp61
 70
     1
102
RTVSPropertyOp62
 70
     1
  0
XRECORD
  5
529
102
{ACAD_REACTORS
330
528
102
}
330
528
100
AcDbXrecord
280
     1
102
RTVSPost2010Prop28
280
     0
102
RTVSPost2010PropOp28
 70
     1
102
RTVSPost2010Prop29
280
     1
102
RTVSPost2010PropOp29
 70
     1
102
RTVSPost2010Prop30
280
     1
102
RTVSPost2010PropOp30
 70
     1
102
RTVSPost2010Prop31
280
     0
102
RTVSPost2010PropOp31
 70
     1
102
RTVSPost2010Prop32
280
     0
102
RTVSPost2010PropOp32
 70
     1
102
RTVSPost2010Prop33
280
     0
102
RTVSPost2010PropOp33
 70
     1
102
RTVSPost2010Prop34
280
     0
102
RTVSPost2010PropOp34
 70
     1
102
RTVSPost2010Prop35
280
     0
102
RTVSPost2010PropOp35
 70
     1
102
RTVSPost2010Prop36
280
     0
102
RTVSPost2010PropOp36
 70
     1
102
RTVSPost2010Prop37
 90
       50
102
RTVSPost2010PropOp37
 70
     1
102
RTVSPost2010Prop38
140
0.0
102
RTVSPost2010PropOp38
 70
     1
102
RTVSPost2010Prop39
140
1.0
102
RTVSPost2010PropOp39
 70
     1
102
RTVSPost2010Prop40
 90
        0
102
RTVSPost2010PropOp40
 70
     1
102
RTVSPost2010Prop41ColorIndex
 90
       18
102
RTVSPost2010Prop41ColorRGB
 90
        0
102
RTVSPost2010PropOp41
 70
     1
102
RTVSPost2010Prop42
 90
       50
102
RTVSPost2010PropOp42
 70
     1
102
RTVSPost2010Prop43
 90
        3
102
RTVSPost2010PropOp43
 70
     1
102
RTVSPost2010Prop44ColorIndex
 90
        5
102
RTVSPost2010Prop44ColorRGB
 90
      255
102
RTVSPost2010PropOp44
 70
     1
102
RTVSPost2010Prop45
280
     0
102
RTVSPost2010PropOp45
 70
     1
102
RTVSPost2010Prop46
 90
       50
102
RTVSPost2010PropOp46
 70
     1
102
RTVSPost2010Prop47
 90
       50
102
RTVSPost2010PropOp47
 70
     1
102
RTVSPost2010Prop48
 90
       50
102
RTVSPost2010PropOp48
 70
     1
102
RTVSPost2010Prop49
280
     0
102
RTVSPost2010PropOp49
 70
     1
102
RTVSPost2010Prop50
 90
       50
102
RTVSPost2010PropOp50
 70
     1
102
RTVSPost2010Prop51ColorIndex
 90
      256
102
RTVSPost2010Prop51ColorRGB
 90
-16777216
102
RTVSPost2010PropOp51
 70
     0
102
RTVSPost2010Prop52
140
1.0
102
RTVSPost2010PropOp52
 70
     0
102
RTVSPost2010Prop53
 90
        2
102
RTVSPost2010PropOp53
 70
     1
102
RTVSPost2010Prop54
  1
strokes_ogs.tif
102
RTVSPost2010PropOp54
 70
     1
102
RTVSPost2010Prop55
280
     0
102
RTVSPost2010PropOp55
 70
     1
102
RTVSPost2010Prop56
140
1.0
102
RTVSPost2010PropOp56
 70
     1
102
RTVSPost2010Prop57
140
1.0
102
RTVSPost2010PropOp57
 70
     1
102
RTVSPropertyOp0
 70
     1
102
RTVSPropertyOp1
 70
     1
102
RTVSPropertyOp2
 70
     1
102
RTVSPropertyOp3
 70
     1
102
RTVSPropertyOp4
 70
     1
102
RTVSPropertyOp5
 70
     1
102
RTVSPropertyOp6
 70
     1
102
RTVSPropertyOp7
 70
     1
102
RTVSPropertyOp8
 70
     1
102
RTVSPropertyOp9
 70
     1
102
RTVSPropertyOp10
 70
     1
102
RTVSPropertyOp11
 70
     1
102
RTVSPropertyOp12
 70
     1
102
RTVSPropertyOp13
 70
     1
102
RTVSPropertyOp14
 70
     1
102
RTVSPropertyOp15
 70
     1
102
RTVSPropertyOp16
 70
     1
102
RTVSPropertyOp17
 70
     1
102
RTVSPropertyOp18
 70
     1
102
RTVSPropertyOp19
 70
     1
102
RTVSPropertyOp20
 70
     1
102
RTVSPropertyOp21
 70
     1
102
RTVSPropertyOp22
 70
     1
102
RTVSPropertyOp23
 70
     1
102
RTVSPropertyOp24
 70
     1
102
RTVSPropertyOp25
 70
     1
102
RTVSPropertyOp26
 70
     1
102
RTVSPropertyOp27
 70
     1
102
RTVSPropertyOp28
 70
     1
102
RTVSPropertyOp29
 70
     1
102
RTVSPropertyOp30
 70
     1
102
RTVSPropertyOp31
 70
     1
102
RTVSPropertyOp32
 70
     1
102
RTVSPropertyOp33
 70
     1
102
RTVSPropertyOp34
 70
     1
102
RTVSPropertyOp35
 70
     1
102
RTVSPropertyOp36
 70
     1
102
RTVSPropertyOp37
 70
     1
102
RTVSPropertyOp38
 70
     1
102
RTVSPropertyOp39
 70
     1
102
RTVSPropertyOp40
 70
     1
102
RTVSPropertyOp41
 70
     1
102
RTVSPropertyOp42
 70
     1
102
RTVSPropertyOp43
 70
     1
102
RTVSPropertyOp44
 70
     1
102
RTVSPropertyOp45
 70
     1
102
RTVSPropertyOp46
 70
     1
102
RTVSPropertyOp47
 70
     1
102
RTVSPropertyOp48
 70
     1
102
RTVSPropertyOp49
 70
     1
102
RTVSPropertyOp50
 70
     1
102
RTVSPropertyOp51
 70
     0
102
RTVSPropertyOp52
 70
     0
102
RTVSPropertyOp53
 70
     1
102
RTVSPropertyOp54
 70
     1
102
RTVSPropertyOp55
 70
     1
102
RTVSPropertyOp56
 70
     1
102
RTVSPropertyOp57
 70
     1
102
RTVSPropertyOp58
 70
     1
102
RTVSPropertyOp59
 70
     1
102
RTVSPropertyOp60
 70
     1
102
RTVSPropertyOp61
 70
     1
102
RTVSPropertyOp62
 70
     1
  0
XRECORD
  5
52D
102
{ACAD_REACTORS
330
52C
102
}
330
52C
100
AcDbXrecord
280
     1
102
RTVSPost2010Prop28
280
     0
102
RTVSPost2010PropOp28
 70
     1
102
RTVSPost2010Prop29
280
     1
102
RTVSPost2010PropOp29
 70
     1
102
RTVSPost2010Prop30
280
     1
102
RTVSPost2010PropOp30
 70
     1
102
RTVSPost2010Prop31
280
     0
102
RTVSPost2010PropOp31
 70
     1
102
RTVSPost2010Prop32
280
     0
102
RTVSPost2010PropOp32
 70
     1
102
RTVSPost2010Prop33
280
     0
102
RTVSPost2010PropOp33
 70
     1
102
RTVSPost2010Prop34
280
     0
102
RTVSPost2010PropOp34
 70
     1
102
RTVSPost2010Prop35
280
     0
102
RTVSPost2010PropOp35
 70
     1
102
RTVSPost2010Prop36
280
     0
102
RTVSPost2010PropOp36
 70
     1
102
RTVSPost2010Prop37
 90
       50
102
RTVSPost2010PropOp37
 70
     1
102
RTVSPost2010Prop38
140
0.0
102
RTVSPost2010PropOp38
 70
     1
102
RTVSPost2010Prop39
140
1.0
102
RTVSPost2010PropOp39
 70
     1
102
RTVSPost2010Prop40
 90
        0
102
RTVSPost2010PropOp40
 70
     1
102
RTVSPost2010Prop41ColorIndex
 90
       18
102
RTVSPost2010Prop41ColorRGB
 90
        0
102
RTVSPost2010PropOp41
 70
     1
102
RTVSPost2010Prop42
 90
       50
102
RTVSPost2010PropOp42
 70
     1
102
RTVSPost2010Prop43
 90
        3
102
RTVSPost2010PropOp43
 70
     1
102
RTVSPost2010Prop44ColorIndex
 90
        5
102
RTVSPost2010Prop44ColorRGB
 90
      255
102
RTVSPost2010PropOp44
 70
     1
102
RTVSPost2010Prop45
280
     0
102
RTVSPost2010PropOp45
 70
     1
102
RTVSPost2010Prop46
 90
       50
102
RTVSPost2010PropOp46
 70
     1
102
RTVSPost2010Prop47
 90
       50
102
RTVSPost2010PropOp47
 70
     1
102
RTVSPost2010Prop48
 90
       50
102
RTVSPost2010PropOp48
 70
     1
102
RTVSPost2010Prop49
280
     0
102
RTVSPost2010PropOp49
 70
     1
102
RTVSPost2010Prop50
 90
       50
102
RTVSPost2010PropOp50
 70
     1
102
RTVSPost2010Prop51ColorIndex
 90
      256
102
RTVSPost2010Prop51ColorRGB
 90
-16777216
102
RTVSPost2010PropOp51
 70
     0
102
RTVSPost2010Prop52
140
1.0
102
RTVSPost2010PropOp52
 70
     0
102
RTVSPost2010Prop53
 90
        2
102
RTVSPost2010PropOp53
 70
     1
102
RTVSPost2010Prop54
  1
strokes_ogs.tif
102
RTVSPost2010PropOp54
 70
     1
102
RTVSPost2010Prop55
280
     0
102
RTVSPost2010PropOp55
 70
     1
102
RTVSPost2010Prop56
140
1.0
102
RTVSPost2010PropOp56
 70
     1
102
RTVSPost2010Prop57
140
1.0
102
RTVSPost2010PropOp57
 70
     1
102
RTVSPropertyOp0
 70
     1
102
RTVSPropertyOp1
 70
     1
102
RTVSPropertyOp2
 70
     1
102
RTVSPropertyOp3
 70
     1
102
RTVSPropertyOp4
 70
     1
102
RTVSPropertyOp5
 70
     1
102
RTVSPropertyOp6
 70
     1
102
RTVSPropertyOp7
 70
     1
102
RTVSPropertyOp8
 70
     1
102
RTVSPropertyOp9
 70
     1
102
RTVSPropertyOp10
 70
     1
102
RTVSPropertyOp11
 70
     1
102
RTVSPropertyOp12
 70
     1
102
RTVSPropertyOp13
 70
     1
102
RTVSPropertyOp14
 70
     1
102
RTVSPropertyOp15
 70
     1
102
RTVSPropertyOp16
 70
     1
102
RTVSPropertyOp17
 70
     1
102
RTVSPropertyOp18
 70
     1
102
RTVSPropertyOp19
 70
     1
102
RTVSPropertyOp20
 70
     1
102
RTVSPropertyOp21
 70
     1
102
RTVSPropertyOp22
 70
     1
102
RTVSPropertyOp23
 70
     1
102
RTVSPropertyOp24
 70
     1
102
RTVSPropertyOp25
 70
     1
102
RTVSPropertyOp26
 70
     1
102
RTVSPropertyOp27
 70
     1
102
RTVSPropertyOp28
 70
     1
102
RTVSPropertyOp29
 70
     1
102
RTVSPropertyOp30
 70
     1
102
RTVSPropertyOp31
 70
     1
102
RTVSPropertyOp32
 70
     1
102
RTVSPropertyOp33
 70
     1
102
RTVSPropertyOp34
 70
     1
102
RTVSPropertyOp35
 70
     1
102
RTVSPropertyOp36
 70
     1
102
RTVSPropertyOp37
 70
     1
102
RTVSPropertyOp38
 70
     1
102
RTVSPropertyOp39
 70
     1
102
RTVSPropertyOp40
 70
     1
102
RTVSPropertyOp41
 70
     1
102
RTVSPropertyOp42
 70
     1
102
RTVSPropertyOp43
 70
     1
102
RTVSPropertyOp44
 70
     1
102
RTVSPropertyOp45
 70
     1
102
RTVSPropertyOp46
 70
     1
102
RTVSPropertyOp47
 70
     1
102
RTVSPropertyOp48
 70
     1
102
RTVSPropertyOp49
 70
     1
102
RTVSPropertyOp50
 70
     1
102
RTVSPropertyOp51
 70
     0
102
RTVSPropertyOp52
 70
     0
102
RTVSPropertyOp53
 70
     1
102
RTVSPropertyOp54
 70
     1
102
RTVSPropertyOp55
 70
     1
102
RTVSPropertyOp56
 70
     1
102
RTVSPropertyOp57
 70
     1
102
RTVSPropertyOp58
 70
     1
102
RTVSPropertyOp59
 70
     1
102
RTVSPropertyOp60
 70
     1
102
RTVSPropertyOp61
 70
     1
102
RTVSPropertyOp62
 70
     1
  0
XRECORD
  5
547
102
{ACAD_REACTORS
330
546
102
}
330
546
100
AcDbXrecord
280
     1
102
RTVSPost2010Prop28
280
     0
102
RTVSPost2010PropOp28
 70
     0
102
RTVSPost2010Prop29
280
     1
102
RTVSPost2010PropOp29
 70
     0
102
RTVSPost2010Prop30
280
     1
102
RTVSPost2010PropOp30
 70
     0
102
RTVSPost2010Prop31
280
     0
102
RTVSPost2010PropOp31
 70
     0
102
RTVSPost2010Prop32
280
     0
102
RTVSPost2010PropOp32
 70
     0
102
RTVSPost2010Prop33
280
     0
102
RTVSPost2010PropOp33
 70
     0
102
RTVSPost2010Prop34
280
     0
102
RTVSPost2010PropOp34
 70
     0
102
RTVSPost2010Prop35
280
     0
102
RTVSPost2010PropOp35
 70
     0
102
RTVSPost2010Prop36
280
     0
102
RTVSPost2010PropOp36
 70
     0
102
RTVSPost2010Prop37
 90
       50
102
RTVSPost2010PropOp37
 70
     0
102
RTVSPost2010Prop38
140
0.0
102
RTVSPost2010PropOp38
 70
     0
102
RTVSPost2010Prop39
140
1.0
102
RTVSPost2010PropOp39
 70
     0
102
RTVSPost2010Prop40
 90
        0
102
RTVSPost2010PropOp40
 70
     0
102
RTVSPost2010Prop41ColorIndex
 90
       18
102
RTVSPost2010Prop41ColorRGB
 90
        0
102
RTVSPost2010PropOp41
 70
     0
102
RTVSPost2010Prop42
 90
       50
102
RTVSPost2010PropOp42
 70
     0
102
RTVSPost2010Prop43
 90
        3
102
RTVSPost2010PropOp43
 70
     0
102
RTVSPost2010Prop44ColorIndex
 90
        5
102
RTVSPost2010Prop44ColorRGB
 90
      255
102
RTVSPost2010PropOp44
 70
     0
102
RTVSPost2010Prop45
280
     0
102
RTVSPost2010PropOp45
 70
     0
102
RTVSPost2010Prop46
 90
       50
102
RTVSPost2010PropOp46
 70
     0
102
RTVSPost2010Prop47
 90
       50
102
RTVSPost2010PropOp47
 70
     0
102
RTVSPost2010Prop48
 90
       50
102
RTVSPost2010PropOp48
 70
     0
102
RTVSPost2010Prop49
280
     0
102
RTVSPost2010PropOp49
 70
     0
102
RTVSPost2010Prop50
 90
       50
102
RTVSPost2010PropOp50
 70
     0
102
RTVSPost2010Prop51ColorIndex
 90
      256
102
RTVSPost2010Prop51ColorRGB
 90
-16777216
102
RTVSPost2010PropOp51
 70
     0
102
RTVSPost2010Prop52
140
1.0
102
RTVSPost2010PropOp52
 70
     0
102
RTVSPost2010Prop53
 90
        2
102
RTVSPost2010PropOp53
 70
     0
102
RTVSPost2010Prop54
  1
strokes_ogs.tif
102
RTVSPost2010PropOp54
 70
     0
102
RTVSPost2010Prop55
280
     0
102
RTVSPost2010PropOp55
 70
     0
102
RTVSPost2010Prop56
140
1.0
102
RTVSPost2010PropOp56
 70
     0
102
RTVSPost2010Prop57
140
1.0
102
RTVSPost2010PropOp57
 70
     0
102
RTVSPropertyOp0
 70
     0
102
RTVSPropertyOp1
 70
     0
102
RTVSPropertyOp2
 70
     0
102
RTVSPropertyOp3
 70
     0
102
RTVSPropertyOp4
 70
     0
102
RTVSPropertyOp5
 70
     0
102
RTVSPropertyOp6
 70
     0
102
RTVSPropertyOp7
 70
     0
102
RTVSPropertyOp8
 70
     0
102
RTVSPropertyOp9
 70
     0
102
RTVSPropertyOp10
 70
     0
102
RTVSPropertyOp11
 70
     0
102
RTVSPropertyOp12
 70
     0
102
RTVSPropertyOp13
 70
     0
102
RTVSPropertyOp14
 70
     2
102
RTVSPropertyOp15
 70
     0
102
RTVSPropertyOp16
 70
     0
102
RTVSPropertyOp17
 70
     0
102
RTVSPropertyOp18
 70
     0
102
RTVSPropertyOp19
 70
     0
102
RTVSPropertyOp20
 70
     0
102
RTVSPropertyOp21
 70
     0
102
RTVSPropertyOp22
 70
     0
102
RTVSPropertyOp23
 70
     0
102
RTVSPropertyOp24
 70
     0
102
RTVSPropertyOp25
 70
     0
102
RTVSPropertyOp26
 70
     0
102
RTVSPropertyOp27
 70
     0
102
RTVSPropertyOp28
 70
     0
102
RTVSPropertyOp29
 70
     0
102
RTVSPropertyOp30
 70
     0
102
RTVSPropertyOp31
 70
     0
102
RTVSPropertyOp32
 70
     0
102
RTVSPropertyOp33
 70
     0
102
RTVSPropertyOp34
 70
     0
102
RTVSPropertyOp35
 70
     0
102
RTVSPropertyOp36
 70
     0
102
RTVSPropertyOp37
 70
     0
102
RTVSPropertyOp38
 70
     0
102
RTVSPropertyOp39
 70
     0
102
RTVSPropertyOp40
 70
     0
102
RTVSPropertyOp41
 70
     0
102
RTVSPropertyOp42
 70
     0
102
RTVSPropertyOp43
 70
     0
102
RTVSPropertyOp44
 70
     0
102
RTVSPropertyOp45
 70
     0
102
RTVSPropertyOp46
 70
     0
102
RTVSPropertyOp47
 70
     0
102
RTVSPropertyOp48
 70
     0
102
RTVSPropertyOp49
 70
     0
102
RTVSPropertyOp50
 70
     0
102
RTVSPropertyOp51
 70
     0
102
RTVSPropertyOp52
 70
     0
102
RTVSPropertyOp53
 70
     0
102
RTVSPropertyOp54
 70
     0
102
RTVSPropertyOp55
 70
     0
102
RTVSPropertyOp56
 70
     0
102
RTVSPropertyOp57
 70
     0
102
RTVSPropertyOp58
 70
     0
102
RTVSPropertyOp59
 70
     0
102
RTVSPropertyOp60
 70
     0
102
RTVSPropertyOp61
 70
     0
102
RTVSPropertyOp62
 70
     0
  0
XRECORD
  5
535
102
{ACAD_REACTORS
330
534
102
}
330
534
100
AcDbXrecord
280
     1
102
RTVSPost2010Prop28
280
     0
102
RTVSPost2010PropOp28
 70
     1
102
RTVSPost2010Prop29
280
     1
102
RTVSPost2010PropOp29
 70
     1
102
RTVSPost2010Prop30
280
     1
102
RTVSPost2010PropOp30
 70
     1
102
RTVSPost2010Prop31
280
     0
102
RTVSPost2010PropOp31
 70
     1
102
RTVSPost2010Prop32
280
     0
102
RTVSPost2010PropOp32
 70
     1
102
RTVSPost2010Prop33
280
     0
102
RTVSPost2010PropOp33
 70
     1
102
RTVSPost2010Prop34
280
     0
102
RTVSPost2010PropOp34
 70
     1
102
RTVSPost2010Prop35
280
     0
102
RTVSPost2010PropOp35
 70
     1
102
RTVSPost2010Prop36
280
     0
102
RTVSPost2010PropOp36
 70
     1
102
RTVSPost2010Prop37
 90
       50
102
RTVSPost2010PropOp37
 70
     1
102
RTVSPost2010Prop38
140
0.0
102
RTVSPost2010PropOp38
 70
     1
102
RTVSPost2010Prop39
140
1.0
102
RTVSPost2010PropOp39
 70
     1
102
RTVSPost2010Prop40
 90
        0
102
RTVSPost2010PropOp40
 70
     1
102
RTVSPost2010Prop41ColorIndex
 90
       18
102
RTVSPost2010Prop41ColorRGB
 90
        0
102
RTVSPost2010PropOp41
 70
     1
102
RTVSPost2010Prop42
 90
       50
102
RTVSPost2010PropOp42
 70
     1
102
RTVSPost2010Prop43
 90
        3
102
RTVSPost2010PropOp43
 70
     1
102
RTVSPost2010Prop44ColorIndex
 90
        5
102
RTVSPost2010Prop44ColorRGB
 90
      255
102
RTVSPost2010PropOp44
 70
     1
102
RTVSPost2010Prop45
280
     0
102
RTVSPost2010PropOp45
 70
     1
102
RTVSPost2010Prop46
 90
       50
102
RTVSPost2010PropOp46
 70
     1
102
RTVSPost2010Prop47
 90
       50
102
RTVSPost2010PropOp47
 70
     1
102
RTVSPost2010Prop48
 90
       50
102
RTVSPost2010PropOp48
 70
     1
102
RTVSPost2010Prop49
280
     0
102
RTVSPost2010PropOp49
 70
     1
102
RTVSPost2010Prop50
 90
       50
102
RTVSPost2010PropOp50
 70
     1
102
RTVSPost2010Prop51ColorIndex
 90
      256
102
RTVSPost2010Prop51ColorRGB
 90
-16777216
102
RTVSPost2010PropOp51
 70
     0
102
RTVSPost2010Prop52
140
1.0
102
RTVSPost2010PropOp52
 70
     0
102
RTVSPost2010Prop53
 90
        2
102
RTVSPost2010PropOp53
 70
     1
102
RTVSPost2010Prop54
  1
strokes_ogs.tif
102
RTVSPost2010PropOp54
 70
     1
102
RTVSPost2010Prop55
280
     0
102
RTVSPost2010PropOp55
 70
     1
102
RTVSPost2010Prop56
140
1.0
102
RTVSPost2010PropOp56
 70
     1
102
RTVSPost2010Prop57
140
1.0
102
RTVSPost2010PropOp57
 70
     1
102
RTVSPropertyOp0
 70
     1
102
RTVSPropertyOp1
 70
     1
102
RTVSPropertyOp2
 70
     1
102
RTVSPropertyOp3
 70
     1
102
RTVSPropertyOp4
 70
     1
102
RTVSPropertyOp5
 70
     1
102
RTVSPropertyOp6
 70
     1
102
RTVSPropertyOp7
 70
     1
102
RTVSPropertyOp8
 70
     1
102
RTVSPropertyOp9
 70
     1
102
RTVSPropertyOp10
 70
     1
102
RTVSPropertyOp11
 70
     1
102
RTVSPropertyOp12
 70
     1
102
RTVSPropertyOp13
 70
     1
102
RTVSPropertyOp14
 70
     1
102
RTVSPropertyOp15
 70
     1
102
RTVSPropertyOp16
 70
     1
102
RTVSPropertyOp17
 70
     1
102
RTVSPropertyOp18
 70
     1
102
RTVSPropertyOp19
 70
     1
102
RTVSPropertyOp20
 70
     1
102
RTVSPropertyOp21
 70
     1
102
RTVSPropertyOp22
 70
     1
102
RTVSPropertyOp23
 70
     1
102
RTVSPropertyOp24
 70
     1
102
RTVSPropertyOp25
 70
     1
102
RTVSPropertyOp26
 70
     1
102
RTVSPropertyOp27
 70
     1
102
RTVSPropertyOp28
 70
     1
102
RTVSPropertyOp29
 70
     1
102
RTVSPropertyOp30
 70
     1
102
RTVSPropertyOp31
 70
     1
102
RTVSPropertyOp32
 70
     1
102
RTVSPropertyOp33
 70
     1
102
RTVSPropertyOp34
 70
     1
102
RTVSPropertyOp35
 70
     1
102
RTVSPropertyOp36
 70
     1
102
RTVSPropertyOp37
 70
     1
102
RTVSPropertyOp38
 70
     1
102
RTVSPropertyOp39
 70
     1
102
RTVSPropertyOp40
 70
     1
102
RTVSPropertyOp41
 70
     1
102
RTVSPropertyOp42
 70
     1
102
RTVSPropertyOp43
 70
     1
102
RTVSPropertyOp44
 70
     1
102
RTVSPropertyOp45
 70
     1
102
RTVSPropertyOp46
 70
     1
102
RTVSPropertyOp47
 70
     1
102
RTVSPropertyOp48
 70
     1
102
RTVSPropertyOp49
 70
     1
102
RTVSPropertyOp50
 70
     1
102
RTVSPropertyOp51
 70
     0
102
RTVSPropertyOp52
 70
     0
102
RTVSPropertyOp53
 70
     1
102
RTVSPropertyOp54
 70
     1
102
RTVSPropertyOp55
 70
     1
102
RTVSPropertyOp56
 70
     1
102
RTVSPropertyOp57
 70
     1
102
RTVSPropertyOp58
 70
     1
102
RTVSPropertyOp59
 70
     1
102
RTVSPropertyOp60
 70
     1
102
RTVSPropertyOp61
 70
     1
102
RTVSPropertyOp62
 70
     1
  0
XRECORD
  5
519
102
{ACAD_REACTORS
330
518
102
}
330
518
100
AcDbXrecord
280
     1
102
RTVSPost2010Prop28
280
     0
102
RTVSPost2010PropOp28
 70
     1
102
RTVSPost2010Prop29
280
     1
102
RTVSPost2010PropOp29
 70
     1
102
RTVSPost2010Prop30
280
     1
102
RTVSPost2010PropOp30
 70
     1
102
RTVSPost2010Prop31
280
     0
102
RTVSPost2010PropOp31
 70
     1
102
RTVSPost2010Prop32
280
     0
102
RTVSPost2010PropOp32
 70
     1
102
RTVSPost2010Prop33
280
     0
102
RTVSPost2010PropOp33
 70
     1
102
RTVSPost2010Prop34
280
     0
102
RTVSPost2010PropOp34
 70
     1
102
RTVSPost2010Prop35
280
     0
102
RTVSPost2010PropOp35
 70
     1
102
RTVSPost2010Prop36
280
     0
102
RTVSPost2010PropOp36
 70
     1
102
RTVSPost2010Prop37
 90
       50
102
RTVSPost2010PropOp37
 70
     1
102
RTVSPost2010Prop38
140
0.0
102
RTVSPost2010PropOp38
 70
     1
102
RTVSPost2010Prop39
140
1.0
102
RTVSPost2010PropOp39
 70
     1
102
RTVSPost2010Prop40
 90
        0
102
RTVSPost2010PropOp40
 70
     1
102
RTVSPost2010Prop41ColorIndex
 90
       18
102
RTVSPost2010Prop41ColorRGB
 90
        0
102
RTVSPost2010PropOp41
 70
     1
102
RTVSPost2010Prop42
 90
       50
102
RTVSPost2010PropOp42
 70
     1
102
RTVSPost2010Prop43
 90
        3
102
RTVSPost2010PropOp43
 70
     1
102
RTVSPost2010Prop44ColorIndex
 90
        5
102
RTVSPost2010Prop44ColorRGB
 90
      255
102
RTVSPost2010PropOp44
 70
     1
102
RTVSPost2010Prop45
280
     0
102
RTVSPost2010PropOp45
 70
     1
102
RTVSPost2010Prop46
 90
       50
102
RTVSPost2010PropOp46
 70
     1
102
RTVSPost2010Prop47
 90
       50
102
RTVSPost2010PropOp47
 70
     1
102
RTVSPost2010Prop48
 90
       50
102
RTVSPost2010PropOp48
 70
     1
102
RTVSPost2010Prop49
280
     0
102
RTVSPost2010PropOp49
 70
     1
102
RTVSPost2010Prop50
 90
       50
102
RTVSPost2010PropOp50
 70
     1
102
RTVSPost2010Prop51ColorIndex
 90
      256
102
RTVSPost2010Prop51ColorRGB
 90
-16777216
102
RTVSPost2010PropOp51
 70
     0
102
RTVSPost2010Prop52
140
1.0
102
RTVSPost2010PropOp52
 70
     0
102
RTVSPost2010Prop53
 90
        2
102
RTVSPost2010PropOp53
 70
     1
102
RTVSPost2010Prop54
  1
strokes_ogs.tif
102
RTVSPost2010PropOp54
 70
     1
102
RTVSPost2010Prop55
280
     0
102
RTVSPost2010PropOp55
 70
     1
102
RTVSPost2010Prop56
140
1.0
102
RTVSPost2010PropOp56
 70
     1
102
RTVSPost2010Prop57
140
1.0
102
RTVSPost2010PropOp57
 70
     1
102
RTVSPropertyOp0
 70
     1
102
RTVSPropertyOp1
 70
     1
102
RTVSPropertyOp2
 70
     1
102
RTVSPropertyOp3
 70
     1
102
RTVSPropertyOp4
 70
     1
102
RTVSPropertyOp5
 70
     1
102
RTVSPropertyOp6
 70
     1
102
RTVSPropertyOp7
 70
     1
102
RTVSPropertyOp8
 70
     1
102
RTVSPropertyOp9
 70
     1
102
RTVSPropertyOp10
 70
     1
102
RTVSPropertyOp11
 70
     1
102
RTVSPropertyOp12
 70
     1
102
RTVSPropertyOp13
 70
     1
102
RTVSPropertyOp14
 70
     1
102
RTVSPropertyOp15
 70
     1
102
RTVSPropertyOp16
 70
     1
102
RTVSPropertyOp17
 70
     1
102
RTVSPropertyOp18
 70
     1
102
RTVSPropertyOp19
 70
     1
102
RTVSPropertyOp20
 70
     1
102
RTVSPropertyOp21
 70
     1
102
RTVSPropertyOp22
 70
     1
102
RTVSPropertyOp23
 70
     1
102
RTVSPropertyOp24
 70
     1
102
RTVSPropertyOp25
 70
     1
102
RTVSPropertyOp26
 70
     1
102
RTVSPropertyOp27
 70
     1
102
RTVSPropertyOp28
 70
     1
102
RTVSPropertyOp29
 70
     1
102
RTVSPropertyOp30
 70
     1
102
RTVSPropertyOp31
 70
     1
102
RTVSPropertyOp32
 70
     1
102
RTVSPropertyOp33
 70
     1
102
RTVSPropertyOp34
 70
     1
102
RTVSPropertyOp35
 70
     1
102
RTVSPropertyOp36
 70
     1
102
RTVSPropertyOp37
 70
     1
102
RTVSPropertyOp38
 70
     1
102
RTVSPropertyOp39
 70
     1
102
RTVSPropertyOp40
 70
     1
102
RTVSPropertyOp41
 70
     1
102
RTVSPropertyOp42
 70
     1
102
RTVSPropertyOp43
 70
     1
102
RTVSPropertyOp44
 70
     1
102
RTVSPropertyOp45
 70
     1
102
RTVSPropertyOp46
 70
     1
102
RTVSPropertyOp47
 70
     1
102
RTVSPropertyOp48
 70
     1
102
RTVSPropertyOp49
 70
     1
102
RTVSPropertyOp50
 70
     1
102
RTVSPropertyOp51
 70
     0
102
RTVSPropertyOp52
 70
     0
102
RTVSPropertyOp53
 70
     1
102
RTVSPropertyOp54
 70
     1
102
RTVSPropertyOp55
 70
     1
102
RTVSPropertyOp56
 70
     1
102
RTVSPropertyOp57
 70
     1
102
RTVSPropertyOp58
 70
     1
102
RTVSPropertyOp59
 70
     1
102
RTVSPropertyOp60
 70
     1
102
RTVSPropertyOp61
 70
     1
102
RTVSPropertyOp62
 70
     1
  0
XRECORD
  5
51B
102
{ACAD_REACTORS
330
51A
102
}
330
51A
100
AcDbXrecord
280
     1
102
RTVSPost2010Prop28
280
     0
102
RTVSPost2010PropOp28
 70
     1
102
RTVSPost2010Prop29
280
     1
102
RTVSPost2010PropOp29
 70
     1
102
RTVSPost2010Prop30
280
     1
102
RTVSPost2010PropOp30
 70
     1
102
RTVSPost2010Prop31
280
     0
102
RTVSPost2010PropOp31
 70
     1
102
RTVSPost2010Prop32
280
     0
102
RTVSPost2010PropOp32
 70
     1
102
RTVSPost2010Prop33
280
     0
102
RTVSPost2010PropOp33
 70
     1
102
RTVSPost2010Prop34
280
     0
102
RTVSPost2010PropOp34
 70
     1
102
RTVSPost2010Prop35
280
     0
102
RTVSPost2010PropOp35
 70
     1
102
RTVSPost2010Prop36
280
     0
102
RTVSPost2010PropOp36
 70
     1
102
RTVSPost2010Prop37
 90
       50
102
RTVSPost2010PropOp37
 70
     1
102
RTVSPost2010Prop38
140
0.0
102
RTVSPost2010PropOp38
 70
     1
102
RTVSPost2010Prop39
140
1.0
102
RTVSPost2010PropOp39
 70
     1
102
RTVSPost2010Prop40
 90
        0
102
RTVSPost2010PropOp40
 70
     1
102
RTVSPost2010Prop41ColorIndex
 90
       18
102
RTVSPost2010Prop41ColorRGB
 90
        0
102
RTVSPost2010PropOp41
 70
     1
102
RTVSPost2010Prop42
 90
       50
102
RTVSPost2010PropOp42
 70
     1
102
RTVSPost2010Prop43
 90
        3
102
RTVSPost2010PropOp43
 70
     1
102
RTVSPost2010Prop44ColorIndex
 90
        5
102
RTVSPost2010Prop44ColorRGB
 90
      255
102
RTVSPost2010PropOp44
 70
     1
102
RTVSPost2010Prop45
280
     0
102
RTVSPost2010PropOp45
 70
     1
102
RTVSPost2010Prop46
 90
       50
102
RTVSPost2010PropOp46
 70
     1
102
RTVSPost2010Prop47
 90
       50
102
RTVSPost2010PropOp47
 70
     1
102
RTVSPost2010Prop48
 90
       50
102
RTVSPost2010PropOp48
 70
     1
102
RTVSPost2010Prop49
280
     0
102
RTVSPost2010PropOp49
 70
     1
102
RTVSPost2010Prop50
 90
       50
102
RTVSPost2010PropOp50
 70
     1
102
RTVSPost2010Prop51ColorIndex
 90
      256
102
RTVSPost2010Prop51ColorRGB
 90
-16777216
102
RTVSPost2010PropOp51
 70
     0
102
RTVSPost2010Prop52
140
1.0
102
RTVSPost2010PropOp52
 70
     0
102
RTVSPost2010Prop53
 90
        2
102
RTVSPost2010PropOp53
 70
     1
102
RTVSPost2010Prop54
  1
strokes_ogs.tif
102
RTVSPost2010PropOp54
 70
     1
102
RTVSPost2010Prop55
280
     0
102
RTVSPost2010PropOp55
 70
     1
102
RTVSPost2010Prop56
140
1.0
102
RTVSPost2010PropOp56
 70
     1
102
RTVSPost2010Prop57
140
1.0
102
RTVSPost2010PropOp57
 70
     1
102
RTVSPropertyOp0
 70
     1
102
RTVSPropertyOp1
 70
     1
102
RTVSPropertyOp2
 70
     1
102
RTVSPropertyOp3
 70
     1
102
RTVSPropertyOp4
 70
     1
102
RTVSPropertyOp5
 70
     1
102
RTVSPropertyOp6
 70
     1
102
RTVSPropertyOp7
 70
     1
102
RTVSPropertyOp8
 70
     1
102
RTVSPropertyOp9
 70
     1
102
RTVSPropertyOp10
 70
     1
102
RTVSPropertyOp11
 70
     1
102
RTVSPropertyOp12
 70
     1
102
RTVSPropertyOp13
 70
     1
102
RTVSPropertyOp14
 70
     1
102
RTVSPropertyOp15
 70
     1
102
RTVSPropertyOp16
 70
     1
102
RTVSPropertyOp17
 70
     1
102
RTVSPropertyOp18
 70
     1
102
RTVSPropertyOp19
 70
     1
102
RTVSPropertyOp20
 70
     1
102
RTVSPropertyOp21
 70
     1
102
RTVSPropertyOp22
 70
     1
102
RTVSPropertyOp23
 70
     1
102
RTVSPropertyOp24
 70
     1
102
RTVSPropertyOp25
 70
     1
102
RTVSPropertyOp26
 70
     1
102
RTVSPropertyOp27
 70
     1
102
RTVSPropertyOp28
 70
     1
102
RTVSPropertyOp29
 70
     1
102
RTVSPropertyOp30
 70
     1
102
RTVSPropertyOp31
 70
     1
102
RTVSPropertyOp32
 70
     1
102
RTVSPropertyOp33
 70
     1
102
RTVSPropertyOp34
 70
     1
102
RTVSPropertyOp35
 70
     1
102
RTVSPropertyOp36
 70
     1
102
RTVSPropertyOp37
 70
     1
102
RTVSPropertyOp38
 70
     1
102
RTVSPropertyOp39
 70
     1
102
RTVSPropertyOp40
 70
     1
102
RTVSPropertyOp41
 70
     1
102
RTVSPropertyOp42
 70
     1
102
RTVSPropertyOp43
 70
     1
102
RTVSPropertyOp44
 70
     1
102
RTVSPropertyOp45
 70
     1
102
RTVSPropertyOp46
 70
     1
102
RTVSPropertyOp47
 70
     1
102
RTVSPropertyOp48
 70
     1
102
RTVSPropertyOp49
 70
     1
102
RTVSPropertyOp50
 70
     1
102
RTVSPropertyOp51
 70
     0
102
RTVSPropertyOp52
 70
     0
102
RTVSPropertyOp53
 70
     1
102
RTVSPropertyOp54
 70
     1
102
RTVSPropertyOp55
 70
     1
102
RTVSPropertyOp56
 70
     1
102
RTVSPropertyOp57
 70
     1
102
RTVSPropertyOp58
 70
     1
102
RTVSPropertyOp59
 70
     1
102
RTVSPropertyOp60
 70
     1
102
RTVSPropertyOp61
 70
     1
102
RTVSPropertyOp62
 70
     1
  0
XRECORD
  5
51D
102
{ACAD_REACTORS
330
51C
102
}
330
51C
100
AcDbXrecord
280
     1
102
RTVSPost2010Prop28
280
     0
102
RTVSPost2010PropOp28
 70
     1
102
RTVSPost2010Prop29
280
     1
102
RTVSPost2010PropOp29
 70
     1
102
RTVSPost2010Prop30
280
     1
102
RTVSPost2010PropOp30
 70
     1
102
RTVSPost2010Prop31
280
     0
102
RTVSPost2010PropOp31
 70
     1
102
RTVSPost2010Prop32
280
     0
102
RTVSPost2010PropOp32
 70
     1
102
RTVSPost2010Prop33
280
     0
102
RTVSPost2010PropOp33
 70
     1
102
RTVSPost2010Prop34
280
     0
102
RTVSPost2010PropOp34
 70
     1
102
RTVSPost2010Prop35
280
     0
102
RTVSPost2010PropOp35
 70
     1
102
RTVSPost2010Prop36
280
     0
102
RTVSPost2010PropOp36
 70
     1
102
RTVSPost2010Prop37
 90
       50
102
RTVSPost2010PropOp37
 70
     1
102
RTVSPost2010Prop38
140
0.0
102
RTVSPost2010PropOp38
 70
     1
102
RTVSPost2010Prop39
140
1.0
102
RTVSPost2010PropOp39
 70
     1
102
RTVSPost2010Prop40
 90
        0
102
RTVSPost2010PropOp40
 70
     1
102
RTVSPost2010Prop41ColorIndex
 90
       18
102
RTVSPost2010Prop41ColorRGB
 90
        0
102
RTVSPost2010PropOp41
 70
     1
102
RTVSPost2010Prop42
 90
       50
102
RTVSPost2010PropOp42
 70
     1
102
RTVSPost2010Prop43
 90
        3
102
RTVSPost2010PropOp43
 70
     1
102
RTVSPost2010Prop44ColorIndex
 90
        5
102
RTVSPost2010Prop44ColorRGB
 90
      255
102
RTVSPost2010PropOp44
 70
     1
102
RTVSPost2010Prop45
280
     0
102
RTVSPost2010PropOp45
 70
     1
102
RTVSPost2010Prop46
 90
       50
102
RTVSPost2010PropOp46
 70
     1
102
RTVSPost2010Prop47
 90
       50
102
RTVSPost2010PropOp47
 70
     1
102
RTVSPost2010Prop48
 90
       50
102
RTVSPost2010PropOp48
 70
     1
102
RTVSPost2010Prop49
280
     0
102
RTVSPost2010PropOp49
 70
     1
102
RTVSPost2010Prop50
 90
       50
102
RTVSPost2010PropOp50
 70
     1
102
RTVSPost2010Prop51ColorIndex
 90
      256
102
RTVSPost2010Prop51ColorRGB
 90
-16777216
102
RTVSPost2010PropOp51
 70
     0
102
RTVSPost2010Prop52
140
1.0
102
RTVSPost2010PropOp52
 70
     0
102
RTVSPost2010Prop53
 90
        2
102
RTVSPost2010PropOp53
 70
     1
102
RTVSPost2010Prop54
  1
strokes_ogs.tif
102
RTVSPost2010PropOp54
 70
     1
102
RTVSPost2010Prop55
280
     0
102
RTVSPost2010PropOp55
 70
     1
102
RTVSPost2010Prop56
140
1.0
102
RTVSPost2010PropOp56
 70
     1
102
RTVSPost2010Prop57
140
1.0
102
RTVSPost2010PropOp57
 70
     1
102
RTVSPropertyOp0
 70
     1
102
RTVSPropertyOp1
 70
     1
102
RTVSPropertyOp2
 70
     1
102
RTVSPropertyOp3
 70
     1
102
RTVSPropertyOp4
 70
     1
102
RTVSPropertyOp5
 70
     1
102
RTVSPropertyOp6
 70
     1
102
RTVSPropertyOp7
 70
     1
102
RTVSPropertyOp8
 70
     1
102
RTVSPropertyOp9
 70
     1
102
RTVSPropertyOp10
 70
     1
102
RTVSPropertyOp11
 70
     1
102
RTVSPropertyOp12
 70
     1
102
RTVSPropertyOp13
 70
     1
102
RTVSPropertyOp14
 70
     1
102
RTVSPropertyOp15
 70
     1
102
RTVSPropertyOp16
 70
     1
102
RTVSPropertyOp17
 70
     1
102
RTVSPropertyOp18
 70
     1
102
RTVSPropertyOp19
 70
     1
102
RTVSPropertyOp20
 70
     1
102
RTVSPropertyOp21
 70
     1
102
RTVSPropertyOp22
 70
     1
102
RTVSPropertyOp23
 70
     1
102
RTVSPropertyOp24
 70
     1
102
RTVSPropertyOp25
 70
     1
102
RTVSPropertyOp26
 70
     1
102
RTVSPropertyOp27
 70
     1
102
RTVSPropertyOp28
 70
     1
102
RTVSPropertyOp29
 70
     1
102
RTVSPropertyOp30
 70
     1
102
RTVSPropertyOp31
 70
     1
102
RTVSPropertyOp32
 70
     1
102
RTVSPropertyOp33
 70
     1
102
RTVSPropertyOp34
 70
     1
102
RTVSPropertyOp35
 70
     1
102
RTVSPropertyOp36
 70
     1
102
RTVSPropertyOp37
 70
     1
102
RTVSPropertyOp38
 70
     1
102
RTVSPropertyOp39
 70
     1
102
RTVSPropertyOp40
 70
     1
102
RTVSPropertyOp41
 70
     1
102
RTVSPropertyOp42
 70
     1
102
RTVSPropertyOp43
 70
     1
102
RTVSPropertyOp44
 70
     1
102
RTVSPropertyOp45
 70
     1
102
RTVSPropertyOp46
 70
     1
102
RTVSPropertyOp47
 70
     1
102
RTVSPropertyOp48
 70
     1
102
RTVSPropertyOp49
 70
     1
102
RTVSPropertyOp50
 70
     1
102
RTVSPropertyOp51
 70
     0
102
RTVSPropertyOp52
 70
     0
102
RTVSPropertyOp53
 70
     1
102
RTVSPropertyOp54
 70
     1
102
RTVSPropertyOp55
 70
     1
102
RTVSPropertyOp56
 70
     1
102
RTVSPropertyOp57
 70
     1
102
RTVSPropertyOp58
 70
     1
102
RTVSPropertyOp59
 70
     1
102
RTVSPropertyOp60
 70
     1
102
RTVSPropertyOp61
 70
     1
102
RTVSPropertyOp62
 70
     1
  0
XRECORD
  5
51F
102
{ACAD_REACTORS
330
51E
102
}
330
51E
100
AcDbXrecord
280
     1
102
RTVSPost2010Prop28
280
     0
102
RTVSPost2010PropOp28
 70
     1
102
RTVSPost2010Prop29
280
     1
102
RTVSPost2010PropOp29
 70
     1
102
RTVSPost2010Prop30
280
     1
102
RTVSPost2010PropOp30
 70
     1
102
RTVSPost2010Prop31
280
     0
102
RTVSPost2010PropOp31
 70
     1
102
RTVSPost2010Prop32
280
     0
102
RTVSPost2010PropOp32
 70
     1
102
RTVSPost2010Prop33
280
     0
102
RTVSPost2010PropOp33
 70
     1
102
RTVSPost2010Prop34
280
     0
102
RTVSPost2010PropOp34
 70
     1
102
RTVSPost2010Prop35
280
     0
102
RTVSPost2010PropOp35
 70
     1
102
RTVSPost2010Prop36
280
     0
102
RTVSPost2010PropOp36
 70
     1
102
RTVSPost2010Prop37
 90
       50
102
RTVSPost2010PropOp37
 70
     1
102
RTVSPost2010Prop38
140
0.0
102
RTVSPost2010PropOp38
 70
     1
102
RTVSPost2010Prop39
140
1.0
102
RTVSPost2010PropOp39
 70
     1
102
RTVSPost2010Prop40
 90
        0
102
RTVSPost2010PropOp40
 70
     1
102
RTVSPost2010Prop41ColorIndex
 90
       18
102
RTVSPost2010Prop41ColorRGB
 90
        0
102
RTVSPost2010PropOp41
 70
     1
102
RTVSPost2010Prop42
 90
       50
102
RTVSPost2010PropOp42
 70
     1
102
RTVSPost2010Prop43
 90
        3
102
RTVSPost2010PropOp43
 70
     1
102
RTVSPost2010Prop44ColorIndex
 90
        5
102
RTVSPost2010Prop44ColorRGB
 90
      255
102
RTVSPost2010PropOp44
 70
     1
102
RTVSPost2010Prop45
280
     0
102
RTVSPost2010PropOp45
 70
     1
102
RTVSPost2010Prop46
 90
       50
102
RTVSPost2010PropOp46
 70
     1
102
RTVSPost2010Prop47
 90
       50
102
RTVSPost2010PropOp47
 70
     1
102
RTVSPost2010Prop48
 90
       50
102
RTVSPost2010PropOp48
 70
     1
102
RTVSPost2010Prop49
280
     0
102
RTVSPost2010PropOp49
 70
     1
102
RTVSPost2010Prop50
 90
       50
102
RTVSPost2010PropOp50
 70
     1
102
RTVSPost2010Prop51ColorIndex
 90
      256
102
RTVSPost2010Prop51ColorRGB
 90
-16777216
102
RTVSPost2010PropOp51
 70
     0
102
RTVSPost2010Prop52
140
1.0
102
RTVSPost2010PropOp52
 70
     0
102
RTVSPost2010Prop53
 90
        2
102
RTVSPost2010PropOp53
 70
     1
102
RTVSPost2010Prop54
  1
strokes_ogs.tif
102
RTVSPost2010PropOp54
 70
     1
102
RTVSPost2010Prop55
280
     0
102
RTVSPost2010PropOp55
 70
     1
102
RTVSPost2010Prop56
140
1.0
102
RTVSPost2010PropOp56
 70
     1
102
RTVSPost2010Prop57
140
1.0
102
RTVSPost2010PropOp57
 70
     1
102
RTVSPropertyOp0
 70
     1
102
RTVSPropertyOp1
 70
     1
102
RTVSPropertyOp2
 70
     1
102
RTVSPropertyOp3
 70
     1
102
RTVSPropertyOp4
 70
     1
102
RTVSPropertyOp5
 70
     1
102
RTVSPropertyOp6
 70
     1
102
RTVSPropertyOp7
 70
     1
102
RTVSPropertyOp8
 70
     1
102
RTVSPropertyOp9
 70
     1
102
RTVSPropertyOp10
 70
     1
102
RTVSPropertyOp11
 70
     1
102
RTVSPropertyOp12
 70
     1
102
RTVSPropertyOp13
 70
     1
102
RTVSPropertyOp14
 70
     1
102
RTVSPropertyOp15
 70
     1
102
RTVSPropertyOp16
 70
     1
102
RTVSPropertyOp17
 70
     1
102
RTVSPropertyOp18
 70
     1
102
RTVSPropertyOp19
 70
     1
102
RTVSPropertyOp20
 70
     1
102
RTVSPropertyOp21
 70
     1
102
RTVSPropertyOp22
 70
     1
102
RTVSPropertyOp23
 70
     1
102
RTVSPropertyOp24
 70
     1
102
RTVSPropertyOp25
 70
     1
102
RTVSPropertyOp26
 70
     1
102
RTVSPropertyOp27
 70
     1
102
RTVSPropertyOp28
 70
     1
102
RTVSPropertyOp29
 70
     1
102
RTVSPropertyOp30
 70
     1
102
RTVSPropertyOp31
 70
     1
102
RTVSPropertyOp32
 70
     1
102
RTVSPropertyOp33
 70
     1
102
RTVSPropertyOp34
 70
     1
102
RTVSPropertyOp35
 70
     1
102
RTVSPropertyOp36
 70
     1
102
RTVSPropertyOp37
 70
     1
102
RTVSPropertyOp38
 70
     1
102
RTVSPropertyOp39
 70
     1
102
RTVSPropertyOp40
 70
     1
102
RTVSPropertyOp41
 70
     1
102
RTVSPropertyOp42
 70
     1
102
RTVSPropertyOp43
 70
     1
102
RTVSPropertyOp44
 70
     1
102
RTVSPropertyOp45
 70
     1
102
RTVSPropertyOp46
 70
     1
102
RTVSPropertyOp47
 70
     1
102
RTVSPropertyOp48
 70
     1
102
RTVSPropertyOp49
 70
     1
102
RTVSPropertyOp50
 70
     1
102
RTVSPropertyOp51
 70
     0
102
RTVSPropertyOp52
 70
     0
102
RTVSPropertyOp53
 70
     1
102
RTVSPropertyOp54
 70
     1
102
RTVSPropertyOp55
 70
     1
102
RTVSPropertyOp56
 70
     1
102
RTVSPropertyOp57
 70
     1
102
RTVSPropertyOp58
 70
     1
102
RTVSPropertyOp59
 70
     1
102
RTVSPropertyOp60
 70
     1
102
RTVSPropertyOp61
 70
     1
102
RTVSPropertyOp62
 70
     1
  0
XRECORD
  5
527
102
{ACAD_REACTORS
330
526
102
}
330
526
100
AcDbXrecord
280
     1
102
RTVSPost2010Prop28
280
     0
102
RTVSPost2010PropOp28
 70
     1
102
RTVSPost2010Prop29
280
     1
102
RTVSPost2010PropOp29
 70
     1
102
RTVSPost2010Prop30
280
     1
102
RTVSPost2010PropOp30
 70
     1
102
RTVSPost2010Prop31
280
     0
102
RTVSPost2010PropOp31
 70
     1
102
RTVSPost2010Prop32
280
     0
102
RTVSPost2010PropOp32
 70
     1
102
RTVSPost2010Prop33
280
     0
102
RTVSPost2010PropOp33
 70
     1
102
RTVSPost2010Prop34
280
     0
102
RTVSPost2010PropOp34
 70
     1
102
RTVSPost2010Prop35
280
     0
102
RTVSPost2010PropOp35
 70
     1
102
RTVSPost2010Prop36
280
     0
102
RTVSPost2010PropOp36
 70
     1
102
RTVSPost2010Prop37
 90
       50
102
RTVSPost2010PropOp37
 70
     1
102
RTVSPost2010Prop38
140
0.0
102
RTVSPost2010PropOp38
 70
     1
102
RTVSPost2010Prop39
140
1.0
102
RTVSPost2010PropOp39
 70
     1
102
RTVSPost2010Prop40
 90
        0
102
RTVSPost2010PropOp40
 70
     1
102
RTVSPost2010Prop41ColorIndex
 90
       18
102
RTVSPost2010Prop41ColorRGB
 90
        0
102
RTVSPost2010PropOp41
 70
     1
102
RTVSPost2010Prop42
 90
       50
102
RTVSPost2010PropOp42
 70
     1
102
RTVSPost2010Prop43
 90
        3
102
RTVSPost2010PropOp43
 70
     1
102
RTVSPost2010Prop44ColorIndex
 90
        5
102
RTVSPost2010Prop44ColorRGB
 90
      255
102
RTVSPost2010PropOp44
 70
     1
102
RTVSPost2010Prop45
280
     0
102
RTVSPost2010PropOp45
 70
     1
102
RTVSPost2010Prop46
 90
       50
102
RTVSPost2010PropOp46
 70
     1
102
RTVSPost2010Prop47
 90
       50
102
RTVSPost2010PropOp47
 70
     1
102
RTVSPost2010Prop48
 90
       50
102
RTVSPost2010PropOp48
 70
     1
102
RTVSPost2010Prop49
280
     0
102
RTVSPost2010PropOp49
 70
     1
102
RTVSPost2010Prop50
 90
       50
102
RTVSPost2010PropOp50
 70
     1
102
RTVSPost2010Prop51ColorIndex
 90
      256
102
RTVSPost2010Prop51ColorRGB
 90
-16777216
102
RTVSPost2010PropOp51
 70
     0
102
RTVSPost2010Prop52
140
1.0
102
RTVSPost2010PropOp52
 70
     0
102
RTVSPost2010Prop53
 90
        2
102
RTVSPost2010PropOp53
 70
     1
102
RTVSPost2010Prop54
  1
strokes_ogs.tif
102
RTVSPost2010PropOp54
 70
     1
102
RTVSPost2010Prop55
280
     0
102
RTVSPost2010PropOp55
 70
     1
102
RTVSPost2010Prop56
140
1.0
102
RTVSPost2010PropOp56
 70
     1
102
RTVSPost2010Prop57
140
1.0
102
RTVSPost2010PropOp57
 70
     1
102
RTVSPropertyOp0
 70
     1
102
RTVSPropertyOp1
 70
     1
102
RTVSPropertyOp2
 70
     1
102
RTVSPropertyOp3
 70
     1
102
RTVSPropertyOp4
 70
     1
102
RTVSPropertyOp5
 70
     1
102
RTVSPropertyOp6
 70
     1
102
RTVSPropertyOp7
 70
     1
102
RTVSPropertyOp8
 70
     1
102
RTVSPropertyOp9
 70
     1
102
RTVSPropertyOp10
 70
     1
102
RTVSPropertyOp11
 70
     1
102
RTVSPropertyOp12
 70
     1
102
RTVSPropertyOp13
 70
     1
102
RTVSPropertyOp14
 70
     1
102
RTVSPropertyOp15
 70
     1
102
RTVSPropertyOp16
 70
     1
102
RTVSPropertyOp17
 70
     1
102
RTVSPropertyOp18
 70
     1
102
RTVSPropertyOp19
 70
     1
102
RTVSPropertyOp20
 70
     1
102
RTVSPropertyOp21
 70
     1
102
RTVSPropertyOp22
 70
     1
102
RTVSPropertyOp23
 70
     1
102
RTVSPropertyOp24
 70
     1
102
RTVSPropertyOp25
 70
     1
102
RTVSPropertyOp26
 70
     1
102
RTVSPropertyOp27
 70
     1
102
RTVSPropertyOp28
 70
     1
102
RTVSPropertyOp29
 70
     1
102
RTVSPropertyOp30
 70
     1
102
RTVSPropertyOp31
 70
     1
102
RTVSPropertyOp32
 70
     1
102
RTVSPropertyOp33
 70
     1
102
RTVSPropertyOp34
 70
     1
102
RTVSPropertyOp35
 70
     1
102
RTVSPropertyOp36
 70
     1
102
RTVSPropertyOp37
 70
     1
102
RTVSPropertyOp38
 70
     1
102
RTVSPropertyOp39
 70
     1
102
RTVSPropertyOp40
 70
     1
102
RTVSPropertyOp41
 70
     1
102
RTVSPropertyOp42
 70
     1
102
RTVSPropertyOp43
 70
     1
102
RTVSPropertyOp44
 70
     1
102
RTVSPropertyOp45
 70
     1
102
RTVSPropertyOp46
 70
     1
102
RTVSPropertyOp47
 70
     1
102
RTVSPropertyOp48
 70
     1
102
RTVSPropertyOp49
 70
     1
102
RTVSPropertyOp50
 70
     1
102
RTVSPropertyOp51
 70
     0
102
RTVSPropertyOp52
 70
     0
102
RTVSPropertyOp53
 70
     1
102
RTVSPropertyOp54
 70
     1
102
RTVSPropertyOp55
 70
     1
102
RTVSPropertyOp56
 70
     1
102
RTVSPropertyOp57
 70
     1
102
RTVSPropertyOp58
 70
     1
102
RTVSPropertyOp59
 70
     1
102
RTVSPropertyOp60
 70
     1
102
RTVSPropertyOp61
 70
     1
102
RTVSPropertyOp62
 70
     1
  0
XRECORD
  5
543
102
{ACAD_REACTORS
330
542
102
}
330
542
100
AcDbXrecord
280
     1
102
RTVSPost2010Prop28
280
     0
102
RTVSPost2010PropOp28
 70
     0
102
RTVSPost2010Prop29
280
     1
102
RTVSPost2010PropOp29
 70
     0
102
RTVSPost2010Prop30
280
     1
102
RTVSPost2010PropOp30
 70
     0
102
RTVSPost2010Prop31
280
     0
102
RTVSPost2010PropOp31
 70
     0
102
RTVSPost2010Prop32
280
     0
102
RTVSPost2010PropOp32
 70
     0
102
RTVSPost2010Prop33
280
     0
102
RTVSPost2010PropOp33
 70
     0
102
RTVSPost2010Prop34
280
     0
102
RTVSPost2010PropOp34
 70
     0
102
RTVSPost2010Prop35
280
     0
102
RTVSPost2010PropOp35
 70
     0
102
RTVSPost2010Prop36
280
     0
102
RTVSPost2010PropOp36
 70
     0
102
RTVSPost2010Prop37
 90
       50
102
RTVSPost2010PropOp37
 70
     0
102
RTVSPost2010Prop38
140
0.0
102
RTVSPost2010PropOp38
 70
     0
102
RTVSPost2010Prop39
140
1.0
102
RTVSPost2010PropOp39
 70
     0
102
RTVSPost2010Prop40
 90
        0
102
RTVSPost2010PropOp40
 70
     0
102
RTVSPost2010Prop41ColorIndex
 90
       18
102
RTVSPost2010Prop41ColorRGB
 90
        0
102
RTVSPost2010PropOp41
 70
     0
102
RTVSPost2010Prop42
 90
       50
102
RTVSPost2010PropOp42
 70
     0
102
RTVSPost2010Prop43
 90
        3
102
RTVSPost2010PropOp43
 70
     0
102
RTVSPost2010Prop44ColorIndex
 90
        5
102
RTVSPost2010Prop44ColorRGB
 90
      255
102
RTVSPost2010PropOp44
 70
     0
102
RTVSPost2010Prop45
280
     0
102
RTVSPost2010PropOp45
 70
     0
102
RTVSPost2010Prop46
 90
       50
102
RTVSPost2010PropOp46
 70
     0
102
RTVSPost2010Prop47
 90
       50
102
RTVSPost2010PropOp47
 70
     0
102
RTVSPost2010Prop48
 90
       50
102
RTVSPost2010PropOp48
 70
     0
102
RTVSPost2010Prop49
280
     0
102
RTVSPost2010PropOp49
 70
     0
102
RTVSPost2010Prop50
 90
       50
102
RTVSPost2010PropOp50
 70
     0
102
RTVSPost2010Prop51ColorIndex
 90
      256
102
RTVSPost2010Prop51ColorRGB
 90
-16777216
102
RTVSPost2010PropOp51
 70
     0
102
RTVSPost2010Prop52
140
1.0
102
RTVSPost2010PropOp52
 70
     0
102
RTVSPost2010Prop53
 90
        2
102
RTVSPost2010PropOp53
 70
     0
102
RTVSPost2010Prop54
  1
strokes_ogs.tif
102
RTVSPost2010PropOp54
 70
     0
102
RTVSPost2010Prop55
280
     0
102
RTVSPost2010PropOp55
 70
     0
102
RTVSPost2010Prop56
140
1.0
102
RTVSPost2010PropOp56
 70
     0
102
RTVSPost2010Prop57
140
1.0
102
RTVSPost2010PropOp57
 70
     0
102
RTVSPropertyOp0
 70
     0
102
RTVSPropertyOp1
 70
     0
102
RTVSPropertyOp2
 70
     0
102
RTVSPropertyOp3
 70
     0
102
RTVSPropertyOp4
 70
     0
102
RTVSPropertyOp5
 70
     0
102
RTVSPropertyOp6
 70
     0
102
RTVSPropertyOp7
 70
     0
102
RTVSPropertyOp8
 70
     0
102
RTVSPropertyOp9
 70
     0
102
RTVSPropertyOp10
 70
     0
102
RTVSPropertyOp11
 70
     0
102
RTVSPropertyOp12
 70
     0
102
RTVSPropertyOp13
 70
     0
102
RTVSPropertyOp14
 70
     2
102
RTVSPropertyOp15
 70
     0
102
RTVSPropertyOp16
 70
     0
102
RTVSPropertyOp17
 70
     0
102
RTVSPropertyOp18
 70
     0
102
RTVSPropertyOp19
 70
     0
102
RTVSPropertyOp20
 70
     0
102
RTVSPropertyOp21
 70
     0
102
RTVSPropertyOp22
 70
     0
102
RTVSPropertyOp23
 70
     0
102
RTVSPropertyOp24
 70
     0
102
RTVSPropertyOp25
 70
     0
102
RTVSPropertyOp26
 70
     0
102
RTVSPropertyOp27
 70
     0
102
RTVSPropertyOp28
 70
     0
102
RTVSPropertyOp29
 70
     0
102
RTVSPropertyOp30
 70
     0
102
RTVSPropertyOp31
 70
     0
102
RTVSPropertyOp32
 70
     0
102
RTVSPropertyOp33
 70
     0
102
RTVSPropertyOp34
 70
     0
102
RTVSPropertyOp35
 70
     0
102
RTVSPropertyOp36
 70
     0
102
RTVSPropertyOp37
 70
     0
102
RTVSPropertyOp38
 70
     0
102
RTVSPropertyOp39
 70
     0
102
RTVSPropertyOp40
 70
     0
102
RTVSPropertyOp41
 70
     0
102
RTVSPropertyOp42
 70
     0
102
RTVSPropertyOp43
 70
     0
102
RTVSPropertyOp44
 70
     0
102
RTVSPropertyOp45
 70
     0
102
RTVSPropertyOp46
 70
     0
102
RTVSPropertyOp47
 70
     0
102
RTVSPropertyOp48
 70
     0
102
RTVSPropertyOp49
 70
     0
102
RTVSPropertyOp50
 70
     0
102
RTVSPropertyOp51
 70
     0
102
RTVSPropertyOp52
 70
     0
102
RTVSPropertyOp53
 70
     0
102
RTVSPropertyOp54
 70
     0
102
RTVSPropertyOp55
 70
     0
102
RTVSPropertyOp56
 70
     0
102
RTVSPropertyOp57
 70
     0
102
RTVSPropertyOp58
 70
     0
102
RTVSPropertyOp59
 70
     0
102
RTVSPropertyOp60
 70
     0
102
RTVSPropertyOp61
 70
     0
102
RTVSPropertyOp62
 70
     0
  0
XRECORD
  5
533
102
{ACAD_REACTORS
330
532
102
}
330
532
100
AcDbXrecord
280
     1
102
RTVSPost2010Prop28
280
     0
102
RTVSPost2010PropOp28
 70
     1
102
RTVSPost2010Prop29
280
     1
102
RTVSPost2010PropOp29
 70
     1
102
RTVSPost2010Prop30
280
     1
102
RTVSPost2010PropOp30
 70
     1
102
RTVSPost2010Prop31
280
     0
102
RTVSPost2010PropOp31
 70
     1
102
RTVSPost2010Prop32
280
     0
102
RTVSPost2010PropOp32
 70
     1
102
RTVSPost2010Prop33
280
     0
102
RTVSPost2010PropOp33
 70
     1
102
RTVSPost2010Prop34
280
     0
102
RTVSPost2010PropOp34
 70
     1
102
RTVSPost2010Prop35
280
     0
102
RTVSPost2010PropOp35
 70
     1
102
RTVSPost2010Prop36
280
     0
102
RTVSPost2010PropOp36
 70
     1
102
RTVSPost2010Prop37
 90
       50
102
RTVSPost2010PropOp37
 70
     1
102
RTVSPost2010Prop38
140
0.0
102
RTVSPost2010PropOp38
 70
     1
102
RTVSPost2010Prop39
140
1.0
102
RTVSPost2010PropOp39
 70
     1
102
RTVSPost2010Prop40
 90
        0
102
RTVSPost2010PropOp40
 70
     1
102
RTVSPost2010Prop41ColorIndex
 90
       18
102
RTVSPost2010Prop41ColorRGB
 90
        0
102
RTVSPost2010PropOp41
 70
     1
102
RTVSPost2010Prop42
 90
       50
102
RTVSPost2010PropOp42
 70
     1
102
RTVSPost2010Prop43
 90
        3
102
RTVSPost2010PropOp43
 70
     1
102
RTVSPost2010Prop44ColorIndex
 90
        5
102
RTVSPost2010Prop44ColorRGB
 90
      255
102
RTVSPost2010PropOp44
 70
     1
102
RTVSPost2010Prop45
280
     0
102
RTVSPost2010PropOp45
 70
     1
102
RTVSPost2010Prop46
 90
       50
102
RTVSPost2010PropOp46
 70
     1
102
RTVSPost2010Prop47
 90
       50
102
RTVSPost2010PropOp47
 70
     1
102
RTVSPost2010Prop48
 90
       50
102
RTVSPost2010PropOp48
 70
     1
102
RTVSPost2010Prop49
280
     0
102
RTVSPost2010PropOp49
 70
     1
102
RTVSPost2010Prop50
 90
       50
102
RTVSPost2010PropOp50
 70
     1
102
RTVSPost2010Prop51ColorIndex
 90
      256
102
RTVSPost2010Prop51ColorRGB
 90
-16777216
102
RTVSPost2010PropOp51
 70
     0
102
RTVSPost2010Prop52
140
1.0
102
RTVSPost2010PropOp52
 70
     0
102
RTVSPost2010Prop53
 90
        2
102
RTVSPost2010PropOp53
 70
     1
102
RTVSPost2010Prop54
  1
strokes_ogs.tif
102
RTVSPost2010PropOp54
 70
     1
102
RTVSPost2010Prop55
280
     0
102
RTVSPost2010PropOp55
 70
     1
102
RTVSPost2010Prop56
140
1.0
102
RTVSPost2010PropOp56
 70
     1
102
RTVSPost2010Prop57
140
1.0
102
RTVSPost2010PropOp57
 70
     1
102
RTVSPropertyOp0
 70
     1
102
RTVSPropertyOp1
 70
     1
102
RTVSPropertyOp2
 70
     1
102
RTVSPropertyOp3
 70
     1
102
RTVSPropertyOp4
 70
     1
102
RTVSPropertyOp5
 70
     1
102
RTVSPropertyOp6
 70
     1
102
RTVSPropertyOp7
 70
     1
102
RTVSPropertyOp8
 70
     1
102
RTVSPropertyOp9
 70
     1
102
RTVSPropertyOp10
 70
     1
102
RTVSPropertyOp11
 70
     1
102
RTVSPropertyOp12
 70
     1
102
RTVSPropertyOp13
 70
     1
102
RTVSPropertyOp14
 70
     1
102
RTVSPropertyOp15
 70
     1
102
RTVSPropertyOp16
 70
     1
102
RTVSPropertyOp17
 70
     1
102
RTVSPropertyOp18
 70
     1
102
RTVSPropertyOp19
 70
     1
102
RTVSPropertyOp20
 70
     1
102
RTVSPropertyOp21
 70
     1
102
RTVSPropertyOp22
 70
     1
102
RTVSPropertyOp23
 70
     1
102
RTVSPropertyOp24
 70
     1
102
RTVSPropertyOp25
 70
     1
102
RTVSPropertyOp26
 70
     1
102
RTVSPropertyOp27
 70
     1
102
RTVSPropertyOp28
 70
     1
102
RTVSPropertyOp29
 70
     1
102
RTVSPropertyOp30
 70
     1
102
RTVSPropertyOp31
 70
     1
102
RTVSPropertyOp32
 70
     1
102
RTVSPropertyOp33
 70
     1
102
RTVSPropertyOp34
 70
     1
102
RTVSPropertyOp35
 70
     1
102
RTVSPropertyOp36
 70
     1
102
RTVSPropertyOp37
 70
     1
102
RTVSPropertyOp38
 70
     1
102
RTVSPropertyOp39
 70
     1
102
RTVSPropertyOp40
 70
     1
102
RTVSPropertyOp41
 70
     1
102
RTVSPropertyOp42
 70
     1
102
RTVSPropertyOp43
 70
     1
102
RTVSPropertyOp44
 70
     1
102
RTVSPropertyOp45
 70
     1
102
RTVSPropertyOp46
 70
     1
102
RTVSPropertyOp47
 70
     1
102
RTVSPropertyOp48
 70
     1
102
RTVSPropertyOp49
 70
     1
102
RTVSPropertyOp50
 70
     1
102
RTVSPropertyOp51
 70
     0
102
RTVSPropertyOp52
 70
     0
102
RTVSPropertyOp53
 70
     1
102
RTVSPropertyOp54
 70
     1
102
RTVSPropertyOp55
 70
     1
102
RTVSPropertyOp56
 70
     1
102
RTVSPropertyOp57
 70
     1
102
RTVSPropertyOp58
 70
     1
102
RTVSPropertyOp59
 70
     1
102
RTVSPropertyOp60
 70
     1
102
RTVSPropertyOp61
 70
     1
102
RTVSPropertyOp62
 70
     1
  0
XRECORD
  5
545
102
{ACAD_REACTORS
330
544
102
}
330
544
100
AcDbXrecord
280
     1
102
RTVSPost2010Prop28
280
     0
102
RTVSPost2010PropOp28
 70
     0
102
RTVSPost2010Prop29
280
     1
102
RTVSPost2010PropOp29
 70
     0
102
RTVSPost2010Prop30
280
     1
102
RTVSPost2010PropOp30
 70
     0
102
RTVSPost2010Prop31
280
     0
102
RTVSPost2010PropOp31
 70
     0
102
RTVSPost2010Prop32
280
     0
102
RTVSPost2010PropOp32
 70
     0
102
RTVSPost2010Prop33
280
     0
102
RTVSPost2010PropOp33
 70
     0
102
RTVSPost2010Prop34
280
     0
102
RTVSPost2010PropOp34
 70
     0
102
RTVSPost2010Prop35
280
     0
102
RTVSPost2010PropOp35
 70
     0
102
RTVSPost2010Prop36
280
     0
102
RTVSPost2010PropOp36
 70
     0
102
RTVSPost2010Prop37
 90
       50
102
RTVSPost2010PropOp37
 70
     0
102
RTVSPost2010Prop38
140
0.0
102
RTVSPost2010PropOp38
 70
     0
102
RTVSPost2010Prop39
140
1.0
102
RTVSPost2010PropOp39
 70
     0
102
RTVSPost2010Prop40
 90
        0
102
RTVSPost2010PropOp40
 70
     0
102
RTVSPost2010Prop41ColorIndex
 90
       18
102
RTVSPost2010Prop41ColorRGB
 90
        0
102
RTVSPost2010PropOp41
 70
     0
102
RTVSPost2010Prop42
 90
       50
102
RTVSPost2010PropOp42
 70
     0
102
RTVSPost2010Prop43
 90
        3
102
RTVSPost2010PropOp43
 70
     0
102
RTVSPost2010Prop44ColorIndex
 90
        5
102
RTVSPost2010Prop44ColorRGB
 90
      255
102
RTVSPost2010PropOp44
 70
     0
102
RTVSPost2010Prop45
280
     0
102
RTVSPost2010PropOp45
 70
     0
102
RTVSPost2010Prop46
 90
       50
102
RTVSPost2010PropOp46
 70
     0
102
RTVSPost2010Prop47
 90
       50
102
RTVSPost2010PropOp47
 70
     0
102
RTVSPost2010Prop48
 90
       50
102
RTVSPost2010PropOp48
 70
     0
102
RTVSPost2010Prop49
280
     0
102
RTVSPost2010PropOp49
 70
     0
102
RTVSPost2010Prop50
 90
       50
102
RTVSPost2010PropOp50
 70
     0
102
RTVSPost2010Prop51ColorIndex
 90
      256
102
RTVSPost2010Prop51ColorRGB
 90
-16777216
102
RTVSPost2010PropOp51
 70
     0
102
RTVSPost2010Prop52
140
1.0
102
RTVSPost2010PropOp52
 70
     0
102
RTVSPost2010Prop53
 90
        2
102
RTVSPost2010PropOp53
 70
     0
102
RTVSPost2010Prop54
  1
strokes_ogs.tif
102
RTVSPost2010PropOp54
 70
     0
102
RTVSPost2010Prop55
280
     0
102
RTVSPost2010PropOp55
 70
     0
102
RTVSPost2010Prop56
140
1.0
102
RTVSPost2010PropOp56
 70
     0
102
RTVSPost2010Prop57
140
1.0
102
RTVSPost2010PropOp57
 70
     0
102
RTVSPropertyOp0
 70
     0
102
RTVSPropertyOp1
 70
     0
102
RTVSPropertyOp2
 70
     0
102
RTVSPropertyOp3
 70
     0
102
RTVSPropertyOp4
 70
     0
102
RTVSPropertyOp5
 70
     0
102
RTVSPropertyOp6
 70
     0
102
RTVSPropertyOp7
 70
     0
102
RTVSPropertyOp8
 70
     0
102
RTVSPropertyOp9
 70
     0
102
RTVSPropertyOp10
 70
     0
102
RTVSPropertyOp11
 70
     0
102
RTVSPropertyOp12
 70
     0
102
RTVSPropertyOp13
 70
     0
102
RTVSPropertyOp14
 70
     2
102
RTVSPropertyOp15
 70
     0
102
RTVSPropertyOp16
 70
     0
102
RTVSPropertyOp17
 70
     0
102
RTVSPropertyOp18
 70
     0
102
RTVSPropertyOp19
 70
     0
102
RTVSPropertyOp20
 70
     0
102
RTVSPropertyOp21
 70
     0
102
RTVSPropertyOp22
 70
     0
102
RTVSPropertyOp23
 70
     0
102
RTVSPropertyOp24
 70
     0
102
RTVSPropertyOp25
 70
     0
102
RTVSPropertyOp26
 70
     0
102
RTVSPropertyOp27
 70
     0
102
RTVSPropertyOp28
 70
     0
102
RTVSPropertyOp29
 70
     0
102
RTVSPropertyOp30
 70
     0
102
RTVSPropertyOp31
 70
     0
102
RTVSPropertyOp32
 70
     0
102
RTVSPropertyOp33
 70
     0
102
RTVSPropertyOp34
 70
     0
102
RTVSPropertyOp35
 70
     0
102
RTVSPropertyOp36
 70
     0
102
RTVSPropertyOp37
 70
     0
102
RTVSPropertyOp38
 70
     0
102
RTVSPropertyOp39
 70
     0
102
RTVSPropertyOp40
 70
     0
102
RTVSPropertyOp41
 70
     0
102
RTVSPropertyOp42
 70
     0
102
RTVSPropertyOp43
 70
     0
102
RTVSPropertyOp44
 70
     0
102
RTVSPropertyOp45
 70
     0
102
RTVSPropertyOp46
 70
     0
102
RTVSPropertyOp47
 70
     0
102
RTVSPropertyOp48
 70
     0
102
RTVSPropertyOp49
 70
     0
102
RTVSPropertyOp50
 70
     0
102
RTVSPropertyOp51
 70
     0
102
RTVSPropertyOp52
 70
     0
102
RTVSPropertyOp53
 70
     0
102
RTVSPropertyOp54
 70
     0
102
RTVSPropertyOp55
 70
     0
102
RTVSPropertyOp56
 70
     0
102
RTVSPropertyOp57
 70
     0
102
RTVSPropertyOp58
 70
     0
102
RTVSPropertyOp59
 70
     0
102
RTVSPropertyOp60
 70
     0
102
RTVSPropertyOp61
 70
     0
102
RTVSPropertyOp62
 70
     0
  0
XRECORD
  5
52B
102
{ACAD_REACTORS
330
52A
102
}
330
52A
100
AcDbXrecord
280
     1
102
RTVSPost2010Prop28
280
     0
102
RTVSPost2010PropOp28
 70
     1
102
RTVSPost2010Prop29
280
     1
102
RTVSPost2010PropOp29
 70
     1
102
RTVSPost2010Prop30
280
     1
102
RTVSPost2010PropOp30
 70
     1
102
RTVSPost2010Prop31
280
     0
102
RTVSPost2010PropOp31
 70
     1
102
RTVSPost2010Prop32
280
     0
102
RTVSPost2010PropOp32
 70
     1
102
RTVSPost2010Prop33
280
     0
102
RTVSPost2010PropOp33
 70
     1
102
RTVSPost2010Prop34
280
     0
102
RTVSPost2010PropOp34
 70
     1
102
RTVSPost2010Prop35
280
     0
102
RTVSPost2010PropOp35
 70
     1
102
RTVSPost2010Prop36
280
     0
102
RTVSPost2010PropOp36
 70
     1
102
RTVSPost2010Prop37
 90
       50
102
RTVSPost2010PropOp37
 70
     1
102
RTVSPost2010Prop38
140
0.0
102
RTVSPost2010PropOp38
 70
     1
102
RTVSPost2010Prop39
140
1.0
102
RTVSPost2010PropOp39
 70
     1
102
RTVSPost2010Prop40
 90
        0
102
RTVSPost2010PropOp40
 70
     1
102
RTVSPost2010Prop41ColorIndex
 90
       18
102
RTVSPost2010Prop41ColorRGB
 90
        0
102
RTVSPost2010PropOp41
 70
     1
102
RTVSPost2010Prop42
 90
       50
102
RTVSPost2010PropOp42
 70
     1
102
RTVSPost2010Prop43
 90
        3
102
RTVSPost2010PropOp43
 70
     1
102
RTVSPost2010Prop44ColorIndex
 90
        5
102
RTVSPost2010Prop44ColorRGB
 90
      255
102
RTVSPost2010PropOp44
 70
     1
102
RTVSPost2010Prop45
280
     0
102
RTVSPost2010PropOp45
 70
     1
102
RTVSPost2010Prop46
 90
       50
102
RTVSPost2010PropOp46
 70
     1
102
RTVSPost2010Prop47
 90
       50
102
RTVSPost2010PropOp47
 70
     1
102
RTVSPost2010Prop48
 90
       50
102
RTVSPost2010PropOp48
 70
     1
102
RTVSPost2010Prop49
280
     0
102
RTVSPost2010PropOp49
 70
     1
102
RTVSPost2010Prop50
 90
       50
102
RTVSPost2010PropOp50
 70
     1
102
RTVSPost2010Prop51ColorIndex
 90
      256
102
RTVSPost2010Prop51ColorRGB
 90
-16777216
102
RTVSPost2010PropOp51
 70
     0
102
RTVSPost2010Prop52
140
1.0
102
RTVSPost2010PropOp52
 70
     0
102
RTVSPost2010Prop53
 90
        2
102
RTVSPost2010PropOp53
 70
     1
102
RTVSPost2010Prop54
  1
strokes_ogs.tif
102
RTVSPost2010PropOp54
 70
     1
102
RTVSPost2010Prop55
280
     0
102
RTVSPost2010PropOp55
 70
     1
102
RTVSPost2010Prop56
140
1.0
102
RTVSPost2010PropOp56
 70
     1
102
RTVSPost2010Prop57
140
1.0
102
RTVSPost2010PropOp57
 70
     1
102
RTVSPropertyOp0
 70
     1
102
RTVSPropertyOp1
 70
     1
102
RTVSPropertyOp2
 70
     1
102
RTVSPropertyOp3
 70
     1
102
RTVSPropertyOp4
 70
     1
102
RTVSPropertyOp5
 70
     1
102
RTVSPropertyOp6
 70
     1
102
RTVSPropertyOp7
 70
     1
102
RTVSPropertyOp8
 70
     1
102
RTVSPropertyOp9
 70
     1
102
RTVSPropertyOp10
 70
     1
102
RTVSPropertyOp11
 70
     1
102
RTVSPropertyOp12
 70
     1
102
RTVSPropertyOp13
 70
     1
102
RTVSPropertyOp14
 70
     1
102
RTVSPropertyOp15
 70
     1
102
RTVSPropertyOp16
 70
     1
102
RTVSPropertyOp17
 70
     1
102
RTVSPropertyOp18
 70
     1
102
RTVSPropertyOp19
 70
     1
102
RTVSPropertyOp20
 70
     1
102
RTVSPropertyOp21
 70
     1
102
RTVSPropertyOp22
 70
     1
102
RTVSPropertyOp23
 70
     1
102
RTVSPropertyOp24
 70
     1
102
RTVSPropertyOp25
 70
     1
102
RTVSPropertyOp26
 70
     1
102
RTVSPropertyOp27
 70
     1
102
RTVSPropertyOp28
 70
     1
102
RTVSPropertyOp29
 70
     1
102
RTVSPropertyOp30
 70
     1
102
RTVSPropertyOp31
 70
     1
102
RTVSPropertyOp32
 70
     1
102
RTVSPropertyOp33
 70
     1
102
RTVSPropertyOp34
 70
     1
102
RTVSPropertyOp35
 70
     1
102
RTVSPropertyOp36
 70
     1
102
RTVSPropertyOp37
 70
     1
102
RTVSPropertyOp38
 70
     1
102
RTVSPropertyOp39
 70
     1
102
RTVSPropertyOp40
 70
     1
102
RTVSPropertyOp41
 70
     1
102
RTVSPropertyOp42
 70
     1
102
RTVSPropertyOp43
 70
     1
102
RTVSPropertyOp44
 70
     1
102
RTVSPropertyOp45
 70
     1
102
RTVSPropertyOp46
 70
     1
102
RTVSPropertyOp47
 70
     1
102
RTVSPropertyOp48
 70
     1
102
RTVSPropertyOp49
 70
     1
102
RTVSPropertyOp50
 70
     1
102
RTVSPropertyOp51
 70
     0
102
RTVSPropertyOp52
 70
     0
102
RTVSPropertyOp53
 70
     1
102
RTVSPropertyOp54
 70
     1
102
RTVSPropertyOp55
 70
     1
102
RTVSPropertyOp56
 70
     1
102
RTVSPropertyOp57
 70
     1
102
RTVSPropertyOp58
 70
     1
102
RTVSPropertyOp59
 70
     1
102
RTVSPropertyOp60
 70
     1
102
RTVSPropertyOp61
 70
     1
102
RTVSPropertyOp62
 70
     1
  0
XRECORD
  5
541
102
{ACAD_REACTORS
330
540
102
}
330
540
100
AcDbXrecord
280
     1
102
RTVSPost2010Prop28
280
     0
102
RTVSPost2010PropOp28
 70
     1
102
RTVSPost2010Prop29
280
     1
102
RTVSPost2010PropOp29
 70
     1
102
RTVSPost2010Prop30
280
     1
102
RTVSPost2010PropOp30
 70
     1
102
RTVSPost2010Prop31
280
     0
102
RTVSPost2010PropOp31
 70
     1
102
RTVSPost2010Prop32
280
     0
102
RTVSPost2010PropOp32
 70
     1
102
RTVSPost2010Prop33
280
     0
102
RTVSPost2010PropOp33
 70
     1
102
RTVSPost2010Prop34
280
     0
102
RTVSPost2010PropOp34
 70
     1
102
RTVSPost2010Prop35
280
     0
102
RTVSPost2010PropOp35
 70
     1
102
RTVSPost2010Prop36
280
     0
102
RTVSPost2010PropOp36
 70
     1
102
RTVSPost2010Prop37
 90
       50
102
RTVSPost2010PropOp37
 70
     1
102
RTVSPost2010Prop38
140
0.0
102
RTVSPost2010PropOp38
 70
     1
102
RTVSPost2010Prop39
140
1.0
102
RTVSPost2010PropOp39
 70
     1
102
RTVSPost2010Prop40
 90
        0
102
RTVSPost2010PropOp40
 70
     1
102
RTVSPost2010Prop41ColorIndex
 90
       18
102
RTVSPost2010Prop41ColorRGB
 90
        0
102
RTVSPost2010PropOp41
 70
     1
102
RTVSPost2010Prop42
 90
       50
102
RTVSPost2010PropOp42
 70
     1
102
RTVSPost2010Prop43
 90
        3
102
RTVSPost2010PropOp43
 70
     1
102
RTVSPost2010Prop44ColorIndex
 90
        5
102
RTVSPost2010Prop44ColorRGB
 90
      255
102
RTVSPost2010PropOp44
 70
     1
102
RTVSPost2010Prop45
280
     0
102
RTVSPost2010PropOp45
 70
     1
102
RTVSPost2010Prop46
 90
       50
102
RTVSPost2010PropOp46
 70
     1
102
RTVSPost2010Prop47
 90
       50
102
RTVSPost2010PropOp47
 70
     1
102
RTVSPost2010Prop48
 90
       50
102
RTVSPost2010PropOp48
 70
     1
102
RTVSPost2010Prop49
280
     0
102
RTVSPost2010PropOp49
 70
     1
102
RTVSPost2010Prop50
 90
       50
102
RTVSPost2010PropOp50
 70
     1
102
RTVSPost2010Prop51ColorIndex
 90
      256
102
RTVSPost2010Prop51ColorRGB
 90
-16777216
102
RTVSPost2010PropOp51
 70
     0
102
RTVSPost2010Prop52
140
1.0
102
RTVSPost2010PropOp52
 70
     0
102
RTVSPost2010Prop53
 90
        2
102
RTVSPost2010PropOp53
 70
     1
102
RTVSPost2010Prop54
  1
strokes_ogs.tif
102
RTVSPost2010PropOp54
 70
     1
102
RTVSPost2010Prop55
280
     0
102
RTVSPost2010PropOp55
 70
     1
102
RTVSPost2010Prop56
140
1.0
102
RTVSPost2010PropOp56
 70
     1
102
RTVSPost2010Prop57
140
1.0
102
RTVSPost2010PropOp57
 70
     1
102
RTVSPropertyOp0
 70
     1
102
RTVSPropertyOp1
 70
     1
102
RTVSPropertyOp2
 70
     1
102
RTVSPropertyOp3
 70
     1
102
RTVSPropertyOp4
 70
     1
102
RTVSPropertyOp5
 70
     1
102
RTVSPropertyOp6
 70
     1
102
RTVSPropertyOp7
 70
     1
102
RTVSPropertyOp8
 70
     1
102
RTVSPropertyOp9
 70
     1
102
RTVSPropertyOp10
 70
     1
102
RTVSPropertyOp11
 70
     1
102
RTVSPropertyOp12
 70
     1
102
RTVSPropertyOp13
 70
     1
102
RTVSPropertyOp14
 70
     1
102
RTVSPropertyOp15
 70
     1
102
RTVSPropertyOp16
 70
     1
102
RTVSPropertyOp17
 70
     1
102
RTVSPropertyOp18
 70
     1
102
RTVSPropertyOp19
 70
     1
102
RTVSPropertyOp20
 70
     1
102
RTVSPropertyOp21
 70
     1
102
RTVSPropertyOp22
 70
     1
102
RTVSPropertyOp23
 70
     1
102
RTVSPropertyOp24
 70
     1
102
RTVSPropertyOp25
 70
     1
102
RTVSPropertyOp26
 70
     1
102
RTVSPropertyOp27
 70
     1
102
RTVSPropertyOp28
 70
     1
102
RTVSPropertyOp29
 70
     1
102
RTVSPropertyOp30
 70
     1
102
RTVSPropertyOp31
 70
     1
102
RTVSPropertyOp32
 70
     1
102
RTVSPropertyOp33
 70
     1
102
RTVSPropertyOp34
 70
     1
102
RTVSPropertyOp35
 70
     1
102
RTVSPropertyOp36
 70
     1
102
RTVSPropertyOp37
 70
     1
102
RTVSPropertyOp38
 70
     1
102
RTVSPropertyOp39
 70
     1
102
RTVSPropertyOp40
 70
     1
102
RTVSPropertyOp41
 70
     1
102
RTVSPropertyOp42
 70
     1
102
RTVSPropertyOp43
 70
     1
102
RTVSPropertyOp44
 70
     1
102
RTVSPropertyOp45
 70
     1
102
RTVSPropertyOp46
 70
     1
102
RTVSPropertyOp47
 70
     1
102
RTVSPropertyOp48
 70
     1
102
RTVSPropertyOp49
 70
     1
102
RTVSPropertyOp50
 70
     1
102
RTVSPropertyOp51
 70
     0
102
RTVSPropertyOp52
 70
     0
102
RTVSPropertyOp53
 70
     1
102
RTVSPropertyOp54
 70
     1
102
RTVSPropertyOp55
 70
     1
102
RTVSPropertyOp56
 70
     1
102
RTVSPropertyOp57
 70
     1
102
RTVSPropertyOp58
 70
     1
102
RTVSPropertyOp59
 70
     1
102
RTVSPropertyOp60
 70
     1
102
RTVSPropertyOp61
 70
     1
102
RTVSPropertyOp62
 70
     1
  0
XRECORD
  5
53F
102
{ACAD_REACTORS
330
53E
102
}
330
53E
100
AcDbXrecord
280
     1
102
RTVSPost2010Prop28
280
     0
102
RTVSPost2010PropOp28
 70
     1
102
RTVSPost2010Prop29
280
     1
102
RTVSPost2010PropOp29
 70
     1
102
RTVSPost2010Prop30
280
     1
102
RTVSPost2010PropOp30
 70
     1
102
RTVSPost2010Prop31
280
     0
102
RTVSPost2010PropOp31
 70
     1
102
RTVSPost2010Prop32
280
     0
102
RTVSPost2010PropOp32
 70
     1
102
RTVSPost2010Prop33
280
     0
102
RTVSPost2010PropOp33
 70
     1
102
RTVSPost2010Prop34
280
     0
102
RTVSPost2010PropOp34
 70
     1
102
RTVSPost2010Prop35
280
     0
102
RTVSPost2010PropOp35
 70
     1
102
RTVSPost2010Prop36
280
     0
102
RTVSPost2010PropOp36
 70
     1
102
RTVSPost2010Prop37
 90
       50
102
RTVSPost2010PropOp37
 70
     1
102
RTVSPost2010Prop38
140
0.0
102
RTVSPost2010PropOp38
 70
     1
102
RTVSPost2010Prop39
140
1.0
102
RTVSPost2010PropOp39
 70
     1
102
RTVSPost2010Prop40
 90
        0
102
RTVSPost2010PropOp40
 70
     1
102
RTVSPost2010Prop41ColorIndex
 90
       18
102
RTVSPost2010Prop41ColorRGB
 90
        0
102
RTVSPost2010PropOp41
 70
     1
102
RTVSPost2010Prop42
 90
       50
102
RTVSPost2010PropOp42
 70
     1
102
RTVSPost2010Prop43
 90
        3
102
RTVSPost2010PropOp43
 70
     1
102
RTVSPost2010Prop44ColorIndex
 90
        5
102
RTVSPost2010Prop44ColorRGB
 90
      255
102
RTVSPost2010PropOp44
 70
     1
102
RTVSPost2010Prop45
280
     0
102
RTVSPost2010PropOp45
 70
     1
102
RTVSPost2010Prop46
 90
       50
102
RTVSPost2010PropOp46
 70
     1
102
RTVSPost2010Prop47
 90
       50
102
RTVSPost2010PropOp47
 70
     1
102
RTVSPost2010Prop48
 90
       50
102
RTVSPost2010PropOp48
 70
     1
102
RTVSPost2010Prop49
280
     0
102
RTVSPost2010PropOp49
 70
     1
102
RTVSPost2010Prop50
 90
       50
102
RTVSPost2010PropOp50
 70
     1
102
RTVSPost2010Prop51ColorIndex
 90
      256
102
RTVSPost2010Prop51ColorRGB
 90
-16777216
102
RTVSPost2010PropOp51
 70
     0
102
RTVSPost2010Prop52
140
1.0
102
RTVSPost2010PropOp52
 70
     0
102
RTVSPost2010Prop53
 90
        2
102
RTVSPost2010PropOp53
 70
     1
102
RTVSPost2010Prop54
  1
strokes_ogs.tif
102
RTVSPost2010PropOp54
 70
     1
102
RTVSPost2010Prop55
280
     0
102
RTVSPost2010PropOp55
 70
     1
102
RTVSPost2010Prop56
140
1.0
102
RTVSPost2010PropOp56
 70
     1
102
RTVSPost2010Prop57
140
1.0
102
RTVSPost2010PropOp57
 70
     1
102
RTVSPropertyOp0
 70
     1
102
RTVSPropertyOp1
 70
     1
102
RTVSPropertyOp2
 70
     1
102
RTVSPropertyOp3
 70
     1
102
RTVSPropertyOp4
 70
     1
102
RTVSPropertyOp5
 70
     1
102
RTVSPropertyOp6
 70
     1
102
RTVSPropertyOp7
 70
     1
102
RTVSPropertyOp8
 70
     1
102
RTVSPropertyOp9
 70
     1
102
RTVSPropertyOp10
 70
     1
102
RTVSPropertyOp11
 70
     1
102
RTVSPropertyOp12
 70
     1
102
RTVSPropertyOp13
 70
     1
102
RTVSPropertyOp14
 70
     1
102
RTVSPropertyOp15
 70
     1
102
RTVSPropertyOp16
 70
     1
102
RTVSPropertyOp17
 70
     1
102
RTVSPropertyOp18
 70
     1
102
RTVSPropertyOp19
 70
     1
102
RTVSPropertyOp20
 70
     1
102
RTVSPropertyOp21
 70
     1
102
RTVSPropertyOp22
 70
     1
102
RTVSPropertyOp23
 70
     1
102
RTVSPropertyOp24
 70
     1
102
RTVSPropertyOp25
 70
     1
102
RTVSPropertyOp26
 70
     1
102
RTVSPropertyOp27
 70
     1
102
RTVSPropertyOp28
 70
     1
102
RTVSPropertyOp29
 70
     1
102
RTVSPropertyOp30
 70
     1
102
RTVSPropertyOp31
 70
     1
102
RTVSPropertyOp32
 70
     1
102
RTVSPropertyOp33
 70
     1
102
RTVSPropertyOp34
 70
     1
102
RTVSPropertyOp35
 70
     1
102
RTVSPropertyOp36
 70
     1
102
RTVSPropertyOp37
 70
     1
102
RTVSPropertyOp38
 70
     1
102
RTVSPropertyOp39
 70
     1
102
RTVSPropertyOp40
 70
     1
102
RTVSPropertyOp41
 70
     1
102
RTVSPropertyOp42
 70
     1
102
RTVSPropertyOp43
 70
     1
102
RTVSPropertyOp44
 70
     1
102
RTVSPropertyOp45
 70
     1
102
RTVSPropertyOp46
 70
     1
102
RTVSPropertyOp47
 70
     1
102
RTVSPropertyOp48
 70
     1
102
RTVSPropertyOp49
 70
     1
102
RTVSPropertyOp50
 70
     1
102
RTVSPropertyOp51
 70
     0
102
RTVSPropertyOp52
 70
     0
102
RTVSPropertyOp53
 70
     1
102
RTVSPropertyOp54
 70
     1
102
RTVSPropertyOp55
 70
     1
102
RTVSPropertyOp56
 70
     1
102
RTVSPropertyOp57
 70
     1
102
RTVSPropertyOp58
 70
     1
102
RTVSPropertyOp59
 70
     1
102
RTVSPropertyOp60
 70
     1
102
RTVSPropertyOp61
 70
     1
102
RTVSPropertyOp62
 70
     1
  0
XRECORD
  5
539
102
{ACAD_REACTORS
330
538
102
}
330
538
100
AcDbXrecord
280
     1
102
RTVSPost2010Prop28
280
     0
102
RTVSPost2010PropOp28
 70
     1
102
RTVSPost2010Prop29
280
     1
102
RTVSPost2010PropOp29
 70
     1
102
RTVSPost2010Prop30
280
     1
102
RTVSPost2010PropOp30
 70
     1
102
RTVSPost2010Prop31
280
     0
102
RTVSPost2010PropOp31
 70
     1
102
RTVSPost2010Prop32
280
     0
102
RTVSPost2010PropOp32
 70
     1
102
RTVSPost2010Prop33
280
     0
102
RTVSPost2010PropOp33
 70
     1
102
RTVSPost2010Prop34
280
     0
102
RTVSPost2010PropOp34
 70
     1
102
RTVSPost2010Prop35
280
     0
102
RTVSPost2010PropOp35
 70
     1
102
RTVSPost2010Prop36
280
     0
102
RTVSPost2010PropOp36
 70
     1
102
RTVSPost2010Prop37
 90
       50
102
RTVSPost2010PropOp37
 70
     1
102
RTVSPost2010Prop38
140
0.0
102
RTVSPost2010PropOp38
 70
     1
102
RTVSPost2010Prop39
140
1.0
102
RTVSPost2010PropOp39
 70
     1
102
RTVSPost2010Prop40
 90
        0
102
RTVSPost2010PropOp40
 70
     1
102
RTVSPost2010Prop41ColorIndex
 90
       18
102
RTVSPost2010Prop41ColorRGB
 90
        0
102
RTVSPost2010PropOp41
 70
     1
102
RTVSPost2010Prop42
 90
       50
102
RTVSPost2010PropOp42
 70
     1
102
RTVSPost2010Prop43
 90
        3
102
RTVSPost2010PropOp43
 70
     1
102
RTVSPost2010Prop44ColorIndex
 90
        5
102
RTVSPost2010Prop44ColorRGB
 90
      255
102
RTVSPost2010PropOp44
 70
     1
102
RTVSPost2010Prop45
280
     0
102
RTVSPost2010PropOp45
 70
     1
102
RTVSPost2010Prop46
 90
       50
102
RTVSPost2010PropOp46
 70
     1
102
RTVSPost2010Prop47
 90
       50
102
RTVSPost2010PropOp47
 70
     1
102
RTVSPost2010Prop48
 90
       50
102
RTVSPost2010PropOp48
 70
     1
102
RTVSPost2010Prop49
280
     0
102
RTVSPost2010PropOp49
 70
     1
102
RTVSPost2010Prop50
 90
       50
102
RTVSPost2010PropOp50
 70
     1
102
RTVSPost2010Prop51ColorIndex
 90
      256
102
RTVSPost2010Prop51ColorRGB
 90
-16777216
102
RTVSPost2010PropOp51
 70
     0
102
RTVSPost2010Prop52
140
1.0
102
RTVSPost2010PropOp52
 70
     0
102
RTVSPost2010Prop53
 90
        2
102
RTVSPost2010PropOp53
 70
     1
102
RTVSPost2010Prop54
  1
strokes_ogs.tif
102
RTVSPost2010PropOp54
 70
     1
102
RTVSPost2010Prop55
280
     0
102
RTVSPost2010PropOp55
 70
     1
102
RTVSPost2010Prop56
140
1.0
102
RTVSPost2010PropOp56
 70
     1
102
RTVSPost2010Prop57
140
1.0
102
RTVSPost2010PropOp57
 70
     1
102
RTVSPropertyOp0
 70
     1
102
RTVSPropertyOp1
 70
     1
102
RTVSPropertyOp2
 70
     1
102
RTVSPropertyOp3
 70
     1
102
RTVSPropertyOp4
 70
     1
102
RTVSPropertyOp5
 70
     1
102
RTVSPropertyOp6
 70
     1
102
RTVSPropertyOp7
 70
     1
102
RTVSPropertyOp8
 70
     1
102
RTVSPropertyOp9
 70
     1
102
RTVSPropertyOp10
 70
     1
102
RTVSPropertyOp11
 70
     1
102
RTVSPropertyOp12
 70
     1
102
RTVSPropertyOp13
 70
     1
102
RTVSPropertyOp14
 70
     1
102
RTVSPropertyOp15
 70
     1
102
RTVSPropertyOp16
 70
     1
102
RTVSPropertyOp17
 70
     1
102
RTVSPropertyOp18
 70
     1
102
RTVSPropertyOp19
 70
     1
102
RTVSPropertyOp20
 70
     1
102
RTVSPropertyOp21
 70
     1
102
RTVSPropertyOp22
 70
     1
102
RTVSPropertyOp23
 70
     1
102
RTVSPropertyOp24
 70
     1
102
RTVSPropertyOp25
 70
     1
102
RTVSPropertyOp26
 70
     1
102
RTVSPropertyOp27
 70
     1
102
RTVSPropertyOp28
 70
     1
102
RTVSPropertyOp29
 70
     1
102
RTVSPropertyOp30
 70
     1
102
RTVSPropertyOp31
 70
     1
102
RTVSPropertyOp32
 70
     1
102
RTVSPropertyOp33
 70
     1
102
RTVSPropertyOp34
 70
     1
102
RTVSPropertyOp35
 70
     1
102
RTVSPropertyOp36
 70
     1
102
RTVSPropertyOp37
 70
     1
102
RTVSPropertyOp38
 70
     1
102
RTVSPropertyOp39
 70
     1
102
RTVSPropertyOp40
 70
     1
102
RTVSPropertyOp41
 70
     1
102
RTVSPropertyOp42
 70
     1
102
RTVSPropertyOp43
 70
     1
102
RTVSPropertyOp44
 70
     1
102
RTVSPropertyOp45
 70
     1
102
RTVSPropertyOp46
 70
     1
102
RTVSPropertyOp47
 70
     1
102
RTVSPropertyOp48
 70
     1
102
RTVSPropertyOp49
 70
     1
102
RTVSPropertyOp50
 70
     1
102
RTVSPropertyOp51
 70
     0
102
RTVSPropertyOp52
 70
     0
102
RTVSPropertyOp53
 70
     1
102
RTVSPropertyOp54
 70
     1
102
RTVSPropertyOp55
 70
     1
102
RTVSPropertyOp56
 70
     1
102
RTVSPropertyOp57
 70
     1
102
RTVSPropertyOp58
 70
     1
102
RTVSPropertyOp59
 70
     1
102
RTVSPropertyOp60
 70
     1
102
RTVSPropertyOp61
 70
     1
102
RTVSPropertyOp62
 70
     1
  0
XRECORD
  5
53B
102
{ACAD_REACTORS
330
53A
102
}
330
53A
100
AcDbXrecord
280
     1
102
RTVSPost2010Prop28
280
     0
102
RTVSPost2010PropOp28
 70
     1
102
RTVSPost2010Prop29
280
     1
102
RTVSPost2010PropOp29
 70
     1
102
RTVSPost2010Prop30
280
     1
102
RTVSPost2010PropOp30
 70
     1
102
RTVSPost2010Prop31
280
     0
102
RTVSPost2010PropOp31
 70
     1
102
RTVSPost2010Prop32
280
     0
102
RTVSPost2010PropOp32
 70
     1
102
RTVSPost2010Prop33
280
     0
102
RTVSPost2010PropOp33
 70
     1
102
RTVSPost2010Prop34
280
     0
102
RTVSPost2010PropOp34
 70
     1
102
RTVSPost2010Prop35
280
     0
102
RTVSPost2010PropOp35
 70
     1
102
RTVSPost2010Prop36
280
     0
102
RTVSPost2010PropOp36
 70
     1
102
RTVSPost2010Prop37
 90
       50
102
RTVSPost2010PropOp37
 70
     1
102
RTVSPost2010Prop38
140
0.0
102
RTVSPost2010PropOp38
 70
     1
102
RTVSPost2010Prop39
140
1.0
102
RTVSPost2010PropOp39
 70
     1
102
RTVSPost2010Prop40
 90
        0
102
RTVSPost2010PropOp40
 70
     1
102
RTVSPost2010Prop41ColorIndex
 90
       18
102
RTVSPost2010Prop41ColorRGB
 90
        0
102
RTVSPost2010PropOp41
 70
     1
102
RTVSPost2010Prop42
 90
       50
102
RTVSPost2010PropOp42
 70
     1
102
RTVSPost2010Prop43
 90
        3
102
RTVSPost2010PropOp43
 70
     1
102
RTVSPost2010Prop44ColorIndex
 90
        5
102
RTVSPost2010Prop44ColorRGB
 90
      255
102
RTVSPost2010PropOp44
 70
     1
102
RTVSPost2010Prop45
280
     0
102
RTVSPost2010PropOp45
 70
     1
102
RTVSPost2010Prop46
 90
       50
102
RTVSPost2010PropOp46
 70
     1
102
RTVSPost2010Prop47
 90
       50
102
RTVSPost2010PropOp47
 70
     1
102
RTVSPost2010Prop48
 90
       50
102
RTVSPost2010PropOp48
 70
     1
102
RTVSPost2010Prop49
280
     0
102
RTVSPost2010PropOp49
 70
     1
102
RTVSPost2010Prop50
 90
       50
102
RTVSPost2010PropOp50
 70
     1
102
RTVSPost2010Prop51ColorIndex
 90
      256
102
RTVSPost2010Prop51ColorRGB
 90
-16777216
102
RTVSPost2010PropOp51
 70
     0
102
RTVSPost2010Prop52
140
1.0
102
RTVSPost2010PropOp52
 70
     0
102
RTVSPost2010Prop53
 90
        2
102
RTVSPost2010PropOp53
 70
     1
102
RTVSPost2010Prop54
  1
strokes_ogs.tif
102
RTVSPost2010PropOp54
 70
     1
102
RTVSPost2010Prop55
280
     0
102
RTVSPost2010PropOp55
 70
     1
102
RTVSPost2010Prop56
140
1.0
102
RTVSPost2010PropOp56
 70
     1
102
RTVSPost2010Prop57
140
1.0
102
RTVSPost2010PropOp57
 70
     1
102
RTVSPropertyOp0
 70
     1
102
RTVSPropertyOp1
 70
     1
102
RTVSPropertyOp2
 70
     1
102
RTVSPropertyOp3
 70
     1
102
RTVSPropertyOp4
 70
     1
102
RTVSPropertyOp5
 70
     1
102
RTVSPropertyOp6
 70
     1
102
RTVSPropertyOp7
 70
     1
102
RTVSPropertyOp8
 70
     1
102
RTVSPropertyOp9
 70
     1
102
RTVSPropertyOp10
 70
     1
102
RTVSPropertyOp11
 70
     1
102
RTVSPropertyOp12
 70
     1
102
RTVSPropertyOp13
 70
     1
102
RTVSPropertyOp14
 70
     1
102
RTVSPropertyOp15
 70
     1
102
RTVSPropertyOp16
 70
     1
102
RTVSPropertyOp17
 70
     1
102
RTVSPropertyOp18
 70
     1
102
RTVSPropertyOp19
 70
     1
102
RTVSPropertyOp20
 70
     1
102
RTVSPropertyOp21
 70
     1
102
RTVSPropertyOp22
 70
     1
102
RTVSPropertyOp23
 70
     1
102
RTVSPropertyOp24
 70
     1
102
RTVSPropertyOp25
 70
     1
102
RTVSPropertyOp26
 70
     1
102
RTVSPropertyOp27
 70
     1
102
RTVSPropertyOp28
 70
     1
102
RTVSPropertyOp29
 70
     1
102
RTVSPropertyOp30
 70
     1
102
RTVSPropertyOp31
 70
     1
102
RTVSPropertyOp32
 70
     1
102
RTVSPropertyOp33
 70
     1
102
RTVSPropertyOp34
 70
     1
102
RTVSPropertyOp35
 70
     1
102
RTVSPropertyOp36
 70
     1
102
RTVSPropertyOp37
 70
     1
102
RTVSPropertyOp38
 70
     1
102
RTVSPropertyOp39
 70
     1
102
RTVSPropertyOp40
 70
     1
102
RTVSPropertyOp41
 70
     1
102
RTVSPropertyOp42
 70
     1
102
RTVSPropertyOp43
 70
     1
102
RTVSPropertyOp44
 70
     1
102
RTVSPropertyOp45
 70
     1
102
RTVSPropertyOp46
 70
     1
102
RTVSPropertyOp47
 70
     1
102
RTVSPropertyOp48
 70
     1
102
RTVSPropertyOp49
 70
     1
102
RTVSPropertyOp50
 70
     1
102
RTVSPropertyOp51
 70
     0
102
RTVSPropertyOp52
 70
     0
102
RTVSPropertyOp53
 70
     1
102
RTVSPropertyOp54
 70
     1
102
RTVSPropertyOp55
 70
     1
102
RTVSPropertyOp56
 70
     1
102
RTVSPropertyOp57
 70
     1
102
RTVSPropertyOp58
 70
     1
102
RTVSPropertyOp59
 70
     1
102
RTVSPropertyOp60
 70
     1
102
RTVSPropertyOp61
 70
     1
102
RTVSPropertyOp62
 70
     1
  0
XRECORD
  5
531
102
{ACAD_REACTORS
330
530
102
}
330
530
100
AcDbXrecord
280
     1
102
RTVSPost2010Prop28
280
     0
102
RTVSPost2010PropOp28
 70
     1
102
RTVSPost2010Prop29
280
     1
102
RTVSPost2010PropOp29
 70
     1
102
RTVSPost2010Prop30
280
     1
102
RTVSPost2010PropOp30
 70
     1
102
RTVSPost2010Prop31
280
     0
102
RTVSPost2010PropOp31
 70
     1
102
RTVSPost2010Prop32
280
     0
102
RTVSPost2010PropOp32
 70
     1
102
RTVSPost2010Prop33
280
     0
102
RTVSPost2010PropOp33
 70
     1
102
RTVSPost2010Prop34
280
     0
102
RTVSPost2010PropOp34
 70
     1
102
RTVSPost2010Prop35
280
     0
102
RTVSPost2010PropOp35
 70
     1
102
RTVSPost2010Prop36
280
     0
102
RTVSPost2010PropOp36
 70
     1
102
RTVSPost2010Prop37
 90
       50
102
RTVSPost2010PropOp37
 70
     1
102
RTVSPost2010Prop38
140
0.0
102
RTVSPost2010PropOp38
 70
     1
102
RTVSPost2010Prop39
140
1.0
102
RTVSPost2010PropOp39
 70
     1
102
RTVSPost2010Prop40
 90
        0
102
RTVSPost2010PropOp40
 70
     1
102
RTVSPost2010Prop41ColorIndex
 90
       18
102
RTVSPost2010Prop41ColorRGB
 90
        0
102
RTVSPost2010PropOp41
 70
     1
102
RTVSPost2010Prop42
 90
       50
102
RTVSPost2010PropOp42
 70
     1
102
RTVSPost2010Prop43
 90
        3
102
RTVSPost2010PropOp43
 70
     1
102
RTVSPost2010Prop44ColorIndex
 90
        5
102
RTVSPost2010Prop44ColorRGB
 90
      255
102
RTVSPost2010PropOp44
 70
     1
102
RTVSPost2010Prop45
280
     0
102
RTVSPost2010PropOp45
 70
     1
102
RTVSPost2010Prop46
 90
       50
102
RTVSPost2010PropOp46
 70
     1
102
RTVSPost2010Prop47
 90
       50
102
RTVSPost2010PropOp47
 70
     1
102
RTVSPost2010Prop48
 90
       50
102
RTVSPost2010PropOp48
 70
     1
102
RTVSPost2010Prop49
280
     0
102
RTVSPost2010PropOp49
 70
     1
102
RTVSPost2010Prop50
 90
       50
102
RTVSPost2010PropOp50
 70
     1
102
RTVSPost2010Prop51ColorIndex
 90
      256
102
RTVSPost2010Prop51ColorRGB
 90
-16777216
102
RTVSPost2010PropOp51
 70
     0
102
RTVSPost2010Prop52
140
1.0
102
RTVSPost2010PropOp52
 70
     0
102
RTVSPost2010Prop53
 90
        2
102
RTVSPost2010PropOp53
 70
     1
102
RTVSPost2010Prop54
  1
strokes_ogs.tif
102
RTVSPost2010PropOp54
 70
     1
102
RTVSPost2010Prop55
280
     0
102
RTVSPost2010PropOp55
 70
     1
102
RTVSPost2010Prop56
140
1.0
102
RTVSPost2010PropOp56
 70
     1
102
RTVSPost2010Prop57
140
1.0
102
RTVSPost2010PropOp57
 70
     1
102
RTVSPropertyOp0
 70
     1
102
RTVSPropertyOp1
 70
     1
102
RTVSPropertyOp2
 70
     1
102
RTVSPropertyOp3
 70
     1
102
RTVSPropertyOp4
 70
     1
102
RTVSPropertyOp5
 70
     1
102
RTVSPropertyOp6
 70
     1
102
RTVSPropertyOp7
 70
     1
102
RTVSPropertyOp8
 70
     1
102
RTVSPropertyOp9
 70
     1
102
RTVSPropertyOp10
 70
     1
102
RTVSPropertyOp11
 70
     1
102
RTVSPropertyOp12
 70
     1
102
RTVSPropertyOp13
 70
     1
102
RTVSPropertyOp14
 70
     1
102
RTVSPropertyOp15
 70
     1
102
RTVSPropertyOp16
 70
     1
102
RTVSPropertyOp17
 70
     1
102
RTVSPropertyOp18
 70
     1
102
RTVSPropertyOp19
 70
     1
102
RTVSPropertyOp20
 70
     1
102
RTVSPropertyOp21
 70
     1
102
RTVSPropertyOp22
 70
     1
102
RTVSPropertyOp23
 70
     1
102
RTVSPropertyOp24
 70
     1
102
RTVSPropertyOp25
 70
     1
102
RTVSPropertyOp26
 70
     1
102
RTVSPropertyOp27
 70
     1
102
RTVSPropertyOp28
 70
     1
102
RTVSPropertyOp29
 70
     1
102
RTVSPropertyOp30
 70
     1
102
RTVSPropertyOp31
 70
     1
102
RTVSPropertyOp32
 70
     1
102
RTVSPropertyOp33
 70
     1
102
RTVSPropertyOp34
 70
     1
102
RTVSPropertyOp35
 70
     1
102
RTVSPropertyOp36
 70
     1
102
RTVSPropertyOp37
 70
     1
102
RTVSPropertyOp38
 70
     1
102
RTVSPropertyOp39
 70
     1
102
RTVSPropertyOp40
 70
     1
102
RTVSPropertyOp41
 70
     1
102
RTVSPropertyOp42
 70
     1
102
RTVSPropertyOp43
 70
     1
102
RTVSPropertyOp44
 70
     1
102
RTVSPropertyOp45
 70
     1
102
RTVSPropertyOp46
 70
     1
102
RTVSPropertyOp47
 70
     1
102
RTVSPropertyOp48
 70
     1
102
RTVSPropertyOp49
 70
     1
102
RTVSPropertyOp50
 70
     1
102
RTVSPropertyOp51
 70
     0
102
RTVSPropertyOp52
 70
     0
102
RTVSPropertyOp53
 70
     1
102
RTVSPropertyOp54
 70
     1
102
RTVSPropertyOp55
 70
     1
102
RTVSPropertyOp56
 70
     1
102
RTVSPropertyOp57
 70
     1
102
RTVSPropertyOp58
 70
     1
102
RTVSPropertyOp59
 70
     1
102
RTVSPropertyOp60
 70
     1
102
RTVSPropertyOp61
 70
     1
102
RTVSPropertyOp62
 70
     1
  0
XRECORD
  5
525
102
{ACAD_REACTORS
330
524
102
}
330
524
100
AcDbXrecord
280
     1
102
RTVSPost2010Prop28
280
     0
102
RTVSPost2010PropOp28
 70
     1
102
RTVSPost2010Prop29
280
     1
102
RTVSPost2010PropOp29
 70
     1
102
RTVSPost2010Prop30
280
     1
102
RTVSPost2010PropOp30
 70
     1
102
RTVSPost2010Prop31
280
     0
102
RTVSPost2010PropOp31
 70
     1
102
RTVSPost2010Prop32
280
     0
102
RTVSPost2010PropOp32
 70
     1
102
RTVSPost2010Prop33
280
     0
102
RTVSPost2010PropOp33
 70
     1
102
RTVSPost2010Prop34
280
     0
102
RTVSPost2010PropOp34
 70
     1
102
RTVSPost2010Prop35
280
     0
102
RTVSPost2010PropOp35
 70
     1
102
RTVSPost2010Prop36
280
     0
102
RTVSPost2010PropOp36
 70
     1
102
RTVSPost2010Prop37
 90
       50
102
RTVSPost2010PropOp37
 70
     1
102
RTVSPost2010Prop38
140
0.0
102
RTVSPost2010PropOp38
 70
     1
102
RTVSPost2010Prop39
140
1.0
102
RTVSPost2010PropOp39
 70
     1
102
RTVSPost2010Prop40
 90
        0
102
RTVSPost2010PropOp40
 70
     1
102
RTVSPost2010Prop41ColorIndex
 90
       18
102
RTVSPost2010Prop41ColorRGB
 90
        0
102
RTVSPost2010PropOp41
 70
     1
102
RTVSPost2010Prop42
 90
       50
102
RTVSPost2010PropOp42
 70
     1
102
RTVSPost2010Prop43
 90
        3
102
RTVSPost2010PropOp43
 70
     1
102
RTVSPost2010Prop44ColorIndex
 90
        5
102
RTVSPost2010Prop44ColorRGB
 90
      255
102
RTVSPost2010PropOp44
 70
     1
102
RTVSPost2010Prop45
280
     0
102
RTVSPost2010PropOp45
 70
     1
102
RTVSPost2010Prop46
 90
       50
102
RTVSPost2010PropOp46
 70
     1
102
RTVSPost2010Prop47
 90
       50
102
RTVSPost2010PropOp47
 70
     1
102
RTVSPost2010Prop48
 90
       50
102
RTVSPost2010PropOp48
 70
     1
102
RTVSPost2010Prop49
280
     0
102
RTVSPost2010PropOp49
 70
     1
102
RTVSPost2010Prop50
 90
       50
102
RTVSPost2010PropOp50
 70
     1
102
RTVSPost2010Prop51ColorIndex
 90
      256
102
RTVSPost2010Prop51ColorRGB
 90
-16777216
102
RTVSPost2010PropOp51
 70
     0
102
RTVSPost2010Prop52
140
1.0
102
RTVSPost2010PropOp52
 70
     0
102
RTVSPost2010Prop53
 90
        2
102
RTVSPost2010PropOp53
 70
     1
102
RTVSPost2010Prop54
  1
strokes_ogs.tif
102
RTVSPost2010PropOp54
 70
     1
102
RTVSPost2010Prop55
280
     0
102
RTVSPost2010PropOp55
 70
     1
102
RTVSPost2010Prop56
140
1.0
102
RTVSPost2010PropOp56
 70
     1
102
RTVSPost2010Prop57
140
1.0
102
RTVSPost2010PropOp57
 70
     1
102
RTVSPropertyOp0
 70
     1
102
RTVSPropertyOp1
 70
     1
102
RTVSPropertyOp2
 70
     1
102
RTVSPropertyOp3
 70
     1
102
RTVSPropertyOp4
 70
     1
102
RTVSPropertyOp5
 70
     1
102
RTVSPropertyOp6
 70
     1
102
RTVSPropertyOp7
 70
     1
102
RTVSPropertyOp8
 70
     1
102
RTVSPropertyOp9
 70
     1
102
RTVSPropertyOp10
 70
     1
102
RTVSPropertyOp11
 70
     1
102
RTVSPropertyOp12
 70
     1
102
RTVSPropertyOp13
 70
     1
102
RTVSPropertyOp14
 70
     1
102
RTVSPropertyOp15
 70
     1
102
RTVSPropertyOp16
 70
     1
102
RTVSPropertyOp17
 70
     1
102
RTVSPropertyOp18
 70
     1
102
RTVSPropertyOp19
 70
     1
102
RTVSPropertyOp20
 70
     1
102
RTVSPropertyOp21
 70
     1
102
RTVSPropertyOp22
 70
     1
102
RTVSPropertyOp23
 70
     1
102
RTVSPropertyOp24
 70
     1
102
RTVSPropertyOp25
 70
     1
102
RTVSPropertyOp26
 70
     1
102
RTVSPropertyOp27
 70
     1
102
RTVSPropertyOp28
 70
     1
102
RTVSPropertyOp29
 70
     1
102
RTVSPropertyOp30
 70
     1
102
RTVSPropertyOp31
 70
     1
102
RTVSPropertyOp32
 70
     1
102
RTVSPropertyOp33
 70
     1
102
RTVSPropertyOp34
 70
     1
102
RTVSPropertyOp35
 70
     1
102
RTVSPropertyOp36
 70
     1
102
RTVSPropertyOp37
 70
     1
102
RTVSPropertyOp38
 70
     1
102
RTVSPropertyOp39
 70
     1
102
RTVSPropertyOp40
 70
     1
102
RTVSPropertyOp41
 70
     1
102
RTVSPropertyOp42
 70
     1
102
RTVSPropertyOp43
 70
     1
102
RTVSPropertyOp44
 70
     1
102
RTVSPropertyOp45
 70
     1
102
RTVSPropertyOp46
 70
     1
102
RTVSPropertyOp47
 70
     1
102
RTVSPropertyOp48
 70
     1
102
RTVSPropertyOp49
 70
     1
102
RTVSPropertyOp50
 70
     1
102
RTVSPropertyOp51
 70
     0
102
RTVSPropertyOp52
 70
     0
102
RTVSPropertyOp53
 70
     1
102
RTVSPropertyOp54
 70
     1
102
RTVSPropertyOp55
 70
     1
102
RTVSPropertyOp56
 70
     1
102
RTVSPropertyOp57
 70
     1
102
RTVSPropertyOp58
 70
     1
102
RTVSPropertyOp59
 70
     1
102
RTVSPropertyOp60
 70
     1
102
RTVSPropertyOp61
 70
     1
102
RTVSPropertyOp62
 70
     1
  0
XRECORD
  5
53D
102
{ACAD_REACTORS
330
53C
102
}
330
53C
100
AcDbXrecord
280
     1
102
RTVSPost2010Prop28
280
     0
102
RTVSPost2010PropOp28
 70
     1
102
RTVSPost2010Prop29
280
     1
102
RTVSPost2010PropOp29
 70
     1
102
RTVSPost2010Prop30
280
     1
102
RTVSPost2010PropOp30
 70
     1
102
RTVSPost2010Prop31
280
     0
102
RTVSPost2010PropOp31
 70
     1
102
RTVSPost2010Prop32
280
     0
102
RTVSPost2010PropOp32
 70
     1
102
RTVSPost2010Prop33
280
     0
102
RTVSPost2010PropOp33
 70
     1
102
RTVSPost2010Prop34
280
     0
102
RTVSPost2010PropOp34
 70
     1
102
RTVSPost2010Prop35
280
     0
102
RTVSPost2010PropOp35
 70
     1
102
RTVSPost2010Prop36
280
     0
102
RTVSPost2010PropOp36
 70
     1
102
RTVSPost2010Prop37
 90
       50
102
RTVSPost2010PropOp37
 70
     1
102
RTVSPost2010Prop38
140
0.0
102
RTVSPost2010PropOp38
 70
     1
102
RTVSPost2010Prop39
140
1.0
102
RTVSPost2010PropOp39
 70
     1
102
RTVSPost2010Prop40
 90
        0
102
RTVSPost2010PropOp40
 70
     1
102
RTVSPost2010Prop41ColorIndex
 90
       18
102
RTVSPost2010Prop41ColorRGB
 90
        0
102
RTVSPost2010PropOp41
 70
     1
102
RTVSPost2010Prop42
 90
       50
102
RTVSPost2010PropOp42
 70
     1
102
RTVSPost2010Prop43
 90
        3
102
RTVSPost2010PropOp43
 70
     1
102
RTVSPost2010Prop44ColorIndex
 90
        5
102
RTVSPost2010Prop44ColorRGB
 90
      255
102
RTVSPost2010PropOp44
 70
     1
102
RTVSPost2010Prop45
280
     0
102
RTVSPost2010PropOp45
 70
     1
102
RTVSPost2010Prop46
 90
       50
102
RTVSPost2010PropOp46
 70
     1
102
RTVSPost2010Prop47
 90
       50
102
RTVSPost2010PropOp47
 70
     1
102
RTVSPost2010Prop48
 90
       50
102
RTVSPost2010PropOp48
 70
     1
102
RTVSPost2010Prop49
280
     0
102
RTVSPost2010PropOp49
 70
     1
102
RTVSPost2010Prop50
 90
       50
102
RTVSPost2010PropOp50
 70
     1
102
RTVSPost2010Prop51ColorIndex
 90
      256
102
RTVSPost2010Prop51ColorRGB
 90
-16777216
102
RTVSPost2010PropOp51
 70
     0
102
RTVSPost2010Prop52
140
1.0
102
RTVSPost2010PropOp52
 70
     0
102
RTVSPost2010Prop53
 90
        2
102
RTVSPost2010PropOp53
 70
     1
102
RTVSPost2010Prop54
  1
strokes_ogs.tif
102
RTVSPost2010PropOp54
 70
     1
102
RTVSPost2010Prop55
280
     0
102
RTVSPost2010PropOp55
 70
     1
102
RTVSPost2010Prop56
140
1.0
102
RTVSPost2010PropOp56
 70
     1
102
RTVSPost2010Prop57
140
1.0
102
RTVSPost2010PropOp57
 70
     1
102
RTVSPropertyOp0
 70
     1
102
RTVSPropertyOp1
 70
     1
102
RTVSPropertyOp2
 70
     1
102
RTVSPropertyOp3
 70
     1
102
RTVSPropertyOp4
 70
     1
102
RTVSPropertyOp5
 70
     1
102
RTVSPropertyOp6
 70
     1
102
RTVSPropertyOp7
 70
     1
102
RTVSPropertyOp8
 70
     1
102
RTVSPropertyOp9
 70
     1
102
RTVSPropertyOp10
 70
     1
102
RTVSPropertyOp11
 70
     1
102
RTVSPropertyOp12
 70
     1
102
RTVSPropertyOp13
 70
     1
102
RTVSPropertyOp14
 70
     1
102
RTVSPropertyOp15
 70
     1
102
RTVSPropertyOp16
 70
     1
102
RTVSPropertyOp17
 70
     1
102
RTVSPropertyOp18
 70
     1
102
RTVSPropertyOp19
 70
     1
102
RTVSPropertyOp20
 70
     1
102
RTVSPropertyOp21
 70
     1
102
RTVSPropertyOp22
 70
     1
102
RTVSPropertyOp23
 70
     1
102
RTVSPropertyOp24
 70
     1
102
RTVSPropertyOp25
 70
     1
102
RTVSPropertyOp26
 70
     1
102
RTVSPropertyOp27
 70
     1
102
RTVSPropertyOp28
 70
     1
102
RTVSPropertyOp29
 70
     1
102
RTVSPropertyOp30
 70
     1
102
RTVSPropertyOp31
 70
     1
102
RTVSPropertyOp32
 70
     1
102
RTVSPropertyOp33
 70
     1
102
RTVSPropertyOp34
 70
     1
102
RTVSPropertyOp35
 70
     1
102
RTVSPropertyOp36
 70
     1
102
RTVSPropertyOp37
 70
     1
102
RTVSPropertyOp38
 70
     1
102
RTVSPropertyOp39
 70
     1
102
RTVSPropertyOp40
 70
     1
102
RTVSPropertyOp41
 70
     1
102
RTVSPropertyOp42
 70
     1
102
RTVSPropertyOp43
 70
     1
102
RTVSPropertyOp44
 70
     1
102
RTVSPropertyOp45
 70
     1
102
RTVSPropertyOp46
 70
     1
102
RTVSPropertyOp47
 70
     1
102
RTVSPropertyOp48
 70
     1
102
RTVSPropertyOp49
 70
     1
102
RTVSPropertyOp50
 70
     1
102
RTVSPropertyOp51
 70
     0
102
RTVSPropertyOp52
 70
     0
102
RTVSPropertyOp53
 70
     1
102
RTVSPropertyOp54
 70
     1
102
RTVSPropertyOp55
 70
     1
102
RTVSPropertyOp56
 70
     1
102
RTVSPropertyOp57
 70
     1
102
RTVSPropertyOp58
 70
     1
102
RTVSPropertyOp59
 70
     1
102
RTVSPropertyOp60
 70
     1
102
RTVSPropertyOp61
 70
     1
102
RTVSPropertyOp62
 70
     1
  0
ENDSEC
  0
EOF
