  0
SECTION
  2
HEADER
  9
$ACADVER
  1
AC1018
  9
$ACADMAINTVER
 70
   104
  9
$DWGCODEPAGE
  3
ANSI_932
  9
$INSBASE
 10
0.0
 20
0.0
 30
0.0
  9
$EXTMIN
 10
-1.3591985
 20
-0.96104944
 30
0.0
  9
$EXTMAX
 10
29701.35975173
 20
21000.96144062
 30
0.0
  9
$LIMMIN
 10
0.0
 20
0.0
  9
$LIMMAX
 10
420.0
 20
297.0
  9
$ORTHOMODE
 70
     1
  9
$REGENMODE
 70
     1
  9
$FILLMODE
 70
     1
  9
$QTEXTMODE
 70
     0
  9
$MIRRTEXT
 70
     0
  9
$LTSCALE
 40
1.0
  9
$ATTMODE
 70
     1
  9
$TEXTSIZE
 40
3.5
  9
$TRACEWID
 40
1.0
  9
$TEXTSTYLE
  7
STANDARD
  9
$CLAYER
  8
0
  9
$CELTYPE
  6
BYLAYER
  9
$CECOLOR
 62
   256
  9
$CELTSCALE
 40
1.0
  9
$DISPSILH
 70
     1
  9
$DIMSCALE
 40
1.0
  9
$DIMASZ
 40
2.5
  9
$DIMEXO
 40
0.625
  9
$DIMDLI
 40
3.75
  9
$DIMRND
 40
0.0
  9
$DIMDLE
 40
0.0
  9
$DIMEXE
 40
1.25
  9
$DIMTP
 40
0.0
  9
$DIMTM
 40
0.0
  9
$DIMTXT
 40
2.5
  9
$DIMCEN
 40
2.5
  9
$DIMTSZ
 40
0.0
  9
$DIMTOL
 70
     0
  9
$DIMLIM
 70
     0
  9
$DIMTIH
 70
     1
  9
$DIMTOH
 70
     0
  9
$DIMSE1
 70
     0
  9
$DIMSE2
 70
     0
  9
$DIMTAD
 70
     1
  9
$DIMZIN
 70
     0
  9
$DIMBLK
  1

  9
$DIMASO
 70
     1
  9
$DIMSHO
 70
     1
  9
$DIMPOST
  1

  9
$DIMAPOST
  1

  9
$DIMALT
 70
     0
  9
$DIMALTD
 70
     2
  9
$DIMALTF
 40
0.0394
  9
$DIMLFAC
 40
1.0
  9
$DIMTOFL
 70
     1
  9
$DIMTVP
 40
1.0
  9
$DIMTIX
 70
     0
  9
$DIMSOXD
 70
     0
  9
$DIMSAH
 70
     0
  9
$DIMBLK1
  1

  9
$DIMBLK2
  1

  9
$DIMSTYLE
  2
STANDARD
  9
$DIMCLRD
 70
     0
  9
$DIMCLRE
 70
     0
  9
$DIMCLRT
 70
     0
  9
$DIMTFAC
 40
1.0
  9
$DIMGAP
 40
0.625
  9
$DIMJUST
 70
     0
  9
$DIMSD1
 70
     0
  9
$DIMSD2
 70
     0
  9
$DIMTOLJ
 70
     1
  9
$DIMTZIN
 70
     0
  9
$DIMALTZ
 70
     0
  9
$DIMALTTZ
 70
     0
  9
$DIMUPT
 70
     0
  9
$DIMDEC
 70
     4
  9
$DIMTDEC
 70
     4
  9
$DIMALTU
 70
     2
  9
$DIMALTTD
 70
     2
  9
$DIMTXSTY
  7
STANDARD
  9
$DIMAUNIT
 70
     0
  9
$DIMADEC
 70
     0
  9
$DIMALTRND
 40
0.0
  9
$DIMAZIN
 70
     0
  9
$DIMDSEP
 70
    46
  9
$DIMATFIT
 70
     3
  9
$DIMFRAC
 70
     0
  9
$DIMLDRBLK
  1

  9
$DIMLUNIT
 70
     2
  9
$DIMLWD
 70
    -2
  9
$DIMLWE
 70
    -2
  9
$DIMTMOVE
 70
     2
  9
$LUNITS
 70
     2
  9
$LUPREC
 70
     4
  9
$SKETCHINC
 40
1.0
  9
$FILLETRAD
 40
0.0
  9
$AUNITS
 70
     0
  9
$AUPREC
 70
     0
  9
$MENU
  1
c:\acadwin\support\acad
  9
$ELEVATION
 40
0.0
  9
$PELEVATION
 40
0.0
  9
$THICKNESS
 40
0.0
  9
$LIMCHECK
 70
     0
  9
$CHAMFERA
 40
10.0
  9
$CHAMFERB
 40
10.0
  9
$CHAMFERC
 40
0.0
  9
$CHAMFERD
 40
0.0
  9
$SKPOLY
 70
     0
  9
$TDCREATE
 40
2453082.616652731
  9
$TDUCREATE
 40
2453082.241652731
  9
$TDUPDATE
 40
2457185.494993171
  9
$TDUUPDATE
 40
2457185.119993171
  9
$TDINDWG
 40
0.0000650463
  9
$TDUSRTIMER
 40
0.0000650463
  9
$USRTIMER
 70
     1
  9
$ANGBASE
 50
0.0
  9
$ANGDIR
 70
     0
  9
$PDMODE
 70
     0
  9
$PDSIZE
 40
0.0
  9
$PLINEWID
 40
0.0
  9
$SPLFRAME
 70
     0
  9
$SPLINETYPE
 70
     6
  9
$SPLINESEGS
 70
     8
  9
$HANDSEED
  5
41F
  9
$SURFTAB1
 70
     6
  9
$SURFTAB2
 70
     6
  9
$SURFTYPE
 70
     6
  9
$SURFU
 70
     6
  9
$SURFV
 70
     6
  9
$UCSBASE
  2

  9
$UCSNAME
  2

  9
$UCSORG
 10
0.0
 20
0.0
 30
0.0
  9
$UCSXDIR
 10
1.0
 20
0.0
 30
0.0
  9
$UCSYDIR
 10
0.0
 20
1.0
 30
0.0
  9
$UCSORTHOREF
  2

  9
$UCSORTHOVIEW
 70
     0
  9
$UCSORGTOP
 10
0.0
 20
0.0
 30
0.0
  9
$UCSORGBOTTOM
 10
0.0
 20
0.0
 30
0.0
  9
$UCSORGLEFT
 10
0.0
 20
0.0
 30
0.0
  9
$UCSORGRIGHT
 10
0.0
 20
0.0
 30
0.0
  9
$UCSORGFRONT
 10
0.0
 20
0.0
 30
0.0
  9
$UCSORGBACK
 10
0.0
 20
0.0
 30
0.0
  9
$PUCSBASE
  2

  9
$PUCSNAME
  2

  9
$PUCSORG
 10
0.0
 20
0.0
 30
0.0
  9
$PUCSXDIR
 10
1.0
 20
0.0
 30
0.0
  9
$PUCSYDIR
 10
0.0
 20
1.0
 30
0.0
  9
$PUCSORTHOREF
  2

  9
$PUCSORTHOVIEW
 70
     0
  9
$PUCSORGTOP
 10
0.0
 20
0.0
 30
0.0
  9
$PUCSORGBOTTOM
 10
0.0
 20
0.0
 30
0.0
  9
$PUCSORGLEFT
 10
0.0
 20
0.0
 30
0.0
  9
$PUCSORGRIGHT
 10
0.0
 20
0.0
 30
0.0
  9
$PUCSORGFRONT
 10
0.0
 20
0.0
 30
0.0
  9
$PUCSORGBACK
 10
0.0
 20
0.0
 30
0.0
  9
$USERI1
 70
     0
  9
$USERI2
 70
     0
  9
$USERI3
 70
     0
  9
$USERI4
 70
     0
  9
$USERI5
 70
     0
  9
$USERR1
 40
0.0
  9
$USERR2
 40
0.0
  9
$USERR3
 40
0.0
  9
$USERR4
 40
0.0
  9
$USERR5
 40
0.0
  9
$WORLDVIEW
 70
     1
  9
$SHADEDGE
 70
     3
  9
$SHADEDIF
 70
    70
  9
$TILEMODE
 70
     1
  9
$MAXACTVP
 70
    16
  9
$PINSBASE
 10
0.0
 20
0.0
 30
0.0
  9
$PLIMCHECK
 70
     0
  9
$PEXTMIN
 10
1.00000000E+20
 20
1.00000000E+20
 30
1.00000000E+20
  9
$PEXTMAX
 10
-1.00000000E+20
 20
-1.00000000E+20
 30
-1.00000000E+20
  9
$PLIMMIN
 10
0.0
 20
0.0
  9
$PLIMMAX
 10
420.0
 20
297.0
  9
$UNITMODE
 70
     0
  9
$VISRETAIN
 70
     0
  9
$PLINEGEN
 70
     0
  9
$PSLTSCALE
 70
     1
  9
$TREEDEPTH
 70
  3020
  9
$CMLSTYLE
  2
STANDARD
  9
$CMLJUST
 70
     0
  9
$CMLSCALE
 40
1.0
  9
$PROXYGRAPHICS
 70
     1
  9
$MEASUREMENT
 70
     1
  9
$CELWEIGHT
370
    -1
  9
$ENDCAPS
280
     0
  9
$JOINSTYLE
280
     0
  9
$LWDISPLAY
290
     0
  9
$INSUNITS
 70
     0
  9
$HYPERLINKBASE
  1

  9
$STYLESHEET
  1

  9
$XEDIT
290
     1
  9
$CEPSNTYPE
380
     0
  9
$PSTYLEMODE
290
     1
  9
$FINGERPRINTGUID
  2
{256E5AA4-1400-4002-B4B1-0B17A8DFF28E}
  9
$VERSIONGUID
  2
{56DFC114-EF9B-4042-950F-9F11A7C3F15B}
  9
$EXTNAMES
290
     1
  9
$PSVPSCALE
 40
0.0
  9
$OLESTARTUP
290
     0
  9
$SORTENTS
280
   127
  9
$INDEXCTL
280
     0
  9
$HIDETEXT
280
     0
  9
$XCLIPFRAME
290
     0
  9
$HALOGAP
280
     0
  9
$OBSCOLOR
 70
   257
  9
$OBSLTYPE
280
     0
  9
$INTERSECTIONDISPLAY
280
     0
  9
$INTERSECTIONCOLOR
 70
   257
  9
$DIMASSOC
280
     1
  9
$PROJECTNAME
  1

  0
ENDSEC
  0
SECTION
  2
CLASSES
  0
CLASS
  1
DICTIONARYVAR
  2
AcDbDictionaryVar
  3
ObjectDBX Classes
 90
        0
 91
        8
280
     0
281
     0
  0
CLASS
  1
ACDBDICTIONARYWDFLT
  2
AcDbDictionaryWithDefault
  3
ObjectDBX Classes
 90
        0
 91
        1
280
     0
281
     0
  0
CLASS
  1
MATERIAL
  2
AcDbMaterial
  3
ObjectDBX Classes
 90
     1153
 91
        3
280
     0
281
     0
  0
CLASS
  1
VISUALSTYLE
  2
AcDbVisualStyle
  3
ObjectDBX Classes
 90
     4095
 91
       24
280
     0
281
     0
  0
CLASS
  1
TABLESTYLE
  2
AcDbTableStyle
  3
ObjectDBX Classes
 90
     4095
 91
        1
280
     0
281
     0
  0
CLASS
  1
SCALE
  2
AcDbScale
  3
ObjectDBX Classes
 90
     1153
 91
       17
280
     0
281
     0
  0
CLASS
  1
MLEADERSTYLE
  2
AcDbMLeaderStyle
  3
ACDB_MLEADERSTYLE_CLASS
 90
     4095
 91
        1
280
     0
281
     0
  0
CLASS
  1
ACDBSECTIONVIEWSTYLE
  2
AcDbSectionViewStyle
  3
ObjectDBX Classes
 90
     1025
 91
        1
280
     0
281
     0
  0
CLASS
  1
ACDBDETAILVIEWSTYLE
  2
AcDbDetailViewStyle
  3
ObjectDBX Classes
 90
     1025
 91
        1
280
     0
281
     0
  0
CLASS
  1
CELLSTYLEMAP
  2
AcDbCellStyleMap
  3
ObjectDBX Classes
 90
     1152
 91
        2
280
     0
281
     0
  0
ENDSEC
  0
SECTION
  2
TABLES
  0
TABLE
  2
VPORT
  5
317
330
0
100
AcDbSymbolTable
 70
     1
  0
VPORT
  5
33C
330
317
100
AcDbSymbolTableRecord
100
AcDbViewportTableRecord
  2
*ACTIVE
 70
     0
 10
0.0
 20
0.0
 11
1.0
 21
1.0
 12
14850.00027662
 22
10500.00019559
 13
0.0
 23
0.0
 14
10.0
 24
10.0
 15
10.0
 25
10.0
 16
0.0
 26
0.0
 36
1.0
 17
0.0
 27
0.0
 37
0.0
 40
22268.63613917
 41
1.34178905
 42
50.0
 43
0.0
 44
0.0
 50
0.0
 51
0.0
 71
     0
 72
   100
 73
     1
 74
     0
 75
     0
 76
     0
 77
     0
 78
     0
281
     0
 65
     1
110
0.0
120
0.0
130
0.0
111
1.0
121
0.0
131
0.0
112
0.0
122
1.0
132
0.0
 79
     0
146
0.0
1001
ACAD_NAV_VCDISPLAY
1070
     1
  0
ENDTAB
  0
TABLE
  2
LTYPE
  5
314
330
0
100
AcDbSymbolTable
 70
     1
  0
LTYPE
  5
320
330
314
100
AcDbSymbolTableRecord
100
AcDbLinetypeTableRecord
  2
BYBLOCK
 70
     0
  3

 72
    65
 73
     0
 40
0.0
  0
LTYPE
  5
321
330
314
100
AcDbSymbolTableRecord
100
AcDbLinetypeTableRecord
  2
BYLAYER
 70
     0
  3

 72
    65
 73
     0
 40
0.0
  0
LTYPE
  5
322
330
314
100
AcDbSymbolTableRecord
100
AcDbLinetypeTableRecord
  2
CONTINUOUS
 70
     0
  3
Solid line
 72
    65
 73
     0
 40
0.0
  0
ENDTAB
  0
TABLE
  2
LAYER
  5
311
330
0
100
AcDbSymbolTable
 70
     4
  0
LAYER
  5
31D
330
311
100
AcDbSymbolTableRecord
100
AcDbLayerTableRecord
  2
0
 70
     0
 62
     7
  6
CONTINUOUS
370
    -3
390
33F
  0
LAYER
  5
32F
330
311
100
AcDbSymbolTableRecord
100
AcDbLayerTableRecord
  2
YKK_F1
 70
     0
 62
     7
  6
CONTINUOUS
370
    -3
390
33F
  0
LAYER
  5
330
330
311
100
AcDbSymbolTableRecord
100
AcDbLayerTableRecord
  2
YKK_A1
 70
     0
 62
     4
  6
CONTINUOUS
370
    -3
390
33F
  0
LAYER
  5
331
330
311
100
AcDbSymbolTableRecord
100
AcDbLayerTableRecord
  2
YKK_N1
 70
     0
 62
     2
  6
CONTINUOUS
370
    -3
390
33F
  0
ENDTAB
  0
TABLE
  2
STYLE
  5
312
330
0
100
AcDbSymbolTable
 70
     3
  0
STYLE
  5
31E
330
312
100
AcDbSymbolTableRecord
100
AcDbTextStyleTableRecord
  2
STANDARD
 70
     0
 40
0.0
 41
1.0
 50
0.0
 71
     0
 42
3.5
  3
txt
  4

  0
STYLE
  5
32B
330
312
100
AcDbSymbolTableRecord
100
AcDbTextStyleTableRecord
  2
EXTFONT
 70
     0
 40
0.0
 41
1.0
 50
0.0
 71
     0
 42
3.5
  3
txt.shx
  4
EXTFONT.SHX
  0
STYLE
  5
32C
330
312
100
AcDbSymbolTableRecord
100
AcDbTextStyleTableRecord
  2
YKK_SGSTYLE1
 70
     0
 40
0.0
 41
0.8
 50
0.0
 71
     0
 42
60.0
  3
ROMANS.SHX
  4
EXTFONT.SHX
  0
ENDTAB
  0
TABLE
  2
VIEW
  5
315
330
0
100
AcDbSymbolTable
 70
     0
  0
ENDTAB
  0
TABLE
  2
UCS
  5
316
330
0
100
AcDbSymbolTable
 70
     0
  0
ENDTAB
  0
TABLE
  2
APPID
  5
318
330
0
100
AcDbSymbolTable
 70
     5
  0
APPID
  5
31F
330
318
100
AcDbSymbolTableRecord
100
AcDbRegAppTableRecord
  2
ACAD
 70
     0
  0
APPID
  5
3CB
330
318
100
AcDbSymbolTableRecord
100
AcDbRegAppTableRecord
  2
ACAD_MLEADERVER
 70
     0
  0
APPID
  5
3DF
330
318
100
AcDbSymbolTableRecord
100
AcDbRegAppTableRecord
  2
ACAD_PSEXT
 70
     0
  0
APPID
  5
3E0
330
318
100
AcDbSymbolTableRecord
100
AcDbRegAppTableRecord
  2
ACAD_NAV_VCDISPLAY
 70
     0
  0
APPID
  5
3E1
330
318
100
AcDbSymbolTableRecord
100
AcDbRegAppTableRecord
  2
YKK_AP_LOCKLAYER
 70
     0
  0
ENDTAB
  0
TABLE
  2
DIMSTYLE
  5
319
330
0
100
AcDbSymbolTable
 70
     1
100
AcDbDimStyleTable
 71
     0
  0
DIMSTYLE
105
32E
330
319
100
AcDbSymbolTableRecord
100
AcDbDimStyleTableRecord
  2
STANDARD
 70
     0
279
     2
340
31E
  0
ENDTAB
  0
TABLE
  2
BLOCK_RECORD
  5
310
330
0
100
AcDbSymbolTable
 70
     0
  0
BLOCK_RECORD
  5
326
330
310
100
AcDbSymbolTableRecord
100
AcDbBlockTableRecord
  2
*MODEL_SPACE
340
392
  0
BLOCK_RECORD
  5
323
330
310
100
AcDbSymbolTableRecord
100
AcDbBlockTableRecord
  2
*PAPER_SPACE
340
393
  0
ENDTAB
  0
ENDSEC
  0
SECTION
  2
BLOCKS
  0
BLOCK
  5
334
330
326
100
AcDbEntity
  8
0
100
AcDbBlockBegin
  2
*MODEL_SPACE
 70
     0
 10
0.0
 20
0.0
 30
0.0
  3
*MODEL_SPACE
  1

  0
ENDBLK
  5
335
330
326
100
AcDbEntity
  8
0
100
AcDbBlockEnd
  0
BLOCK
  5
332
330
323
100
AcDbEntity
 67
     1
  8
0
100
AcDbBlockBegin
  2
*PAPER_SPACE
 70
     0
 10
0.0
 20
0.0
 30
0.0
  3
*PAPER_SPACE
  1

  0
ENDBLK
  5
333
330
323
100
AcDbEntity
 67
     1
  8
0
100
AcDbBlockEnd
  0
ENDSEC
  0
SECTION
  2
ENTITIES
  0
LINE
  5
1D
330
326
100
AcDbEntity
  8
YKK_F1
  6
Continuous
100
AcDbLine
 10
900.039
 20
8457.9363
 30
0.0
 11
28800.039
 21
8457.9363
 31
0.0
  0
LINE
  5
1F
330
326
100
AcDbEntity
  8
YKK_F1
  6
Continuous
100
AcDbLine
 10
5550.039
 20
8707.9363
 30
0.0
 11
28800.039
 21
8707.9363
 31
0.0
  0
LINE
  5
20
330
326
100
AcDbEntity
  8
YKK_F1
  6
Continuous
100
AcDbLine
 10
5550.039
 20
8957.9363
 30
0.0
 11
28800.039
 21
8957.9363
 31
0.0
  0
LINE
  5
21
330
326
100
AcDbEntity
  8
YKK_F1
  6
Continuous
100
AcDbLine
 10
900.039
 20
9207.9363
 30
0.0
 11
28800.039
 21
9207.9363
 31
0.0
  0
LINE
  5
22
330
326
100
AcDbEntity
  8
YKK_F1
  6
Continuous
100
AcDbLine
 10
900.039
 20
9457.9363
 30
0.0
 11
28800.039
 21
9457.9363
 31
0.0
  0
LINE
  5
23
330
326
100
AcDbEntity
  8
YKK_F1
  6
Continuous
100
AcDbLine
 10
900.039
 20
9707.9363
 30
0.0
 11
28800.039
 21
9707.9363
 31
0.0
  0
LINE
  5
24
330
326
100
AcDbEntity
  8
YKK_F1
  6
Continuous
100
AcDbLine
 10
900.039
 20
9957.9363
 30
0.0
 11
28800.039
 21
9957.9363
 31
0.0
  0
LINE
  5
25
330
326
100
AcDbEntity
  8
YKK_F1
  6
Continuous
100
AcDbLine
 10
900.039
 20
10207.9363
 30
0.0
 11
28800.039
 21
10207.9363
 31
0.0
  0
LINE
  5
26
330
326
100
AcDbEntity
  8
YKK_F1
  6
Continuous
100
AcDbLine
 10
900.039
 20
10457.9363
 30
0.0
 11
28800.039
 21
10457.9363
 31
0.0
  0
LINE
  5
27
330
326
100
AcDbEntity
  8
YKK_F1
  6
Continuous
100
AcDbLine
 10
900.039
 20
4502.9363
 30
0.0
 11
28800.039
 21
4502.9363
 31
0.0
  0
LINE
  5
28
330
326
100
AcDbEntity
  8
YKK_F1
  6
Continuous
100
AcDbLine
 10
900.039
 20
4252.9363
 30
0.0
 11
28800.039
 21
4252.9363
 31
0.0
  0
LINE
  5
29
330
326
100
AcDbEntity
  8
YKK_F1
  6
Continuous
100
AcDbLine
 10
900.039
 20
4002.9363
 30
0.0
 11
28800.039
 21
4002.9363
 31
0.0
  0
LINE
  5
2A
330
326
100
AcDbEntity
  8
YKK_F1
  6
Continuous
100
AcDbLine
 10
900.039
 20
3752.9363
 30
0.0
 11
28800.039
 21
3752.9363
 31
0.0
  0
LINE
  5
2B
330
326
100
AcDbEntity
  8
YKK_F1
  6
Continuous
100
AcDbLine
 10
900.039
 20
3502.9363
 30
0.0
 11
28800.039
 21
3502.9363
 31
0.0
  0
LINE
  5
2C
330
326
100
AcDbEntity
  8
YKK_F1
  6
Continuous
100
AcDbLine
 10
900.039
 20
3252.9363
 30
0.0
 11
28800.039
 21
3252.9363
 31
0.0
  0
LINE
  5
2D
330
326
100
AcDbEntity
  8
YKK_F1
  6
Continuous
100
AcDbLine
 10
5550.039
 20
3002.9363
 30
0.0
 11
28800.039
 21
3002.9363
 31
0.0
  0
LINE
  5
2E
330
326
100
AcDbEntity
  8
YKK_F1
  6
Continuous
100
AcDbLine
 10
5550.039
 20
2752.9363
 30
0.0
 11
28800.039
 21
2752.9363
 31
0.0
  0
LINE
  5
2F
330
326
100
AcDbEntity
  8
YKK_F1
  6
Continuous
100
AcDbLine
 10
900.039
 20
2502.9363
 30
0.0
 11
28800.039
 21
2502.9363
 31
0.0
  0
LINE
  5
30
330
326
100
AcDbEntity
  8
YKK_F1
  6
Continuous
100
AcDbLine
 10
900.039
 20
7457.9363
 30
0.0
 11
28800.039
 21
7457.9363
 31
0.0
  0
LINE
  5
31
330
326
100
AcDbEntity
  8
YKK_F1
  6
Continuous
100
AcDbLine
 10
900.039
 20
7707.9363
 30
0.0
 11
28800.039
 21
7707.9363
 31
0.0
  0
LINE
  5
32
330
326
100
AcDbEntity
  8
YKK_F1
  6
Continuous
100
AcDbLine
 10
900.039
 20
8207.9363
 30
0.0
 11
28800.039
 21
8207.9363
 31
0.0
  0
LINE
  5
33
330
326
100
AcDbEntity
  8
YKK_F1
  6
Continuous
100
AcDbLine
 10
900.039
 20
2252.9363
 30
0.0
 11
28800.039
 21
2252.9363
 31
0.0
  0
LINE
  5
34
330
326
100
AcDbEntity
  8
YKK_F1
  6
Continuous
100
AcDbLine
 10
659.77445
 20
1949.4363
 30
0.0
 11
29040.229
 21
1949.4363
 31
0.0
  0
LINE
  5
35
330
326
100
AcDbEntity
  8
YKK_F1
  6
Continuous
100
AcDbLine
 10
29027.821
 20
662.59406
 30
0.0
 11
672.18069
 21
662.59406
 31
0.0
  0
LINE
  5
36
330
326
100
AcDbEntity
  8
YKK_F1
  6
Continuous
100
AcDbLine
 10
29015.417
 20
675.00009
 30
0.0
 11
685.15046
 21
675.00009
 31
0.0
  0
LINE
  5
37
330
326
100
AcDbEntity
  8
YKK_F1
  6
Continuous
100
AcDbLine
 10
29002.445
 20
687.97002
 30
0.0
 11
697.5567
 21
687.97002
 31
0.0
  0
LINE
  5
38
330
326
100
AcDbEntity
  8
YKK_F1
  6
Continuous
100
AcDbLine
 10
28990.039
 20
700.94001
 30
0.0
 11
709.96201
 21
700.94001
 31
0.0
  0
LINE
  5
39
330
326
100
AcDbEntity
  8
YKK_F1
  6
Continuous
100
AcDbLine
 10
29040.229
 20
650.18799
 30
0.0
 11
659.77445
 21
650.18799
 31
0.0
  0
LINE
  5
3A
330
326
100
AcDbEntity
  8
YKK_F1
  6
Continuous
100
AcDbLine
 10
29190.79
 20
500.75202
 30
0.0
 11
509.77446
 21
500.75202
 31
0.0
  0
LINE
  5
3B
330
326
100
AcDbEntity
  8
YKK_F1
  6
Continuous
100
AcDbLine
 10
900.039
 20
14162.9363
 30
0.0
 11
28800.039
 21
14162.9363
 31
0.0
  0
LINE
  5
3C
330
326
100
AcDbEntity
  8
YKK_F1
  6
Continuous
100
AcDbLine
 10
900.039
 20
16412.9363
 30
0.0
 11
28800.039
 21
16412.9363
 31
0.0
  0
LINE
  5
3D
330
326
100
AcDbEntity
  8
YKK_F1
  6
Continuous
100
AcDbLine
 10
900.039
 20
16162.9363
 30
0.0
 11
28800.039
 21
16162.9363
 31
0.0
  0
LINE
  5
3E
330
326
100
AcDbEntity
  8
YKK_F1
  6
Continuous
100
AcDbLine
 10
900.039
 20
15912.9363
 30
0.0
 11
28800.039
 21
15912.9363
 31
0.0
  0
LINE
  5
3F
330
326
100
AcDbEntity
  8
YKK_F1
  6
Continuous
100
AcDbLine
 10
900.039
 20
15662.9363
 30
0.0
 11
28800.039
 21
15662.9363
 31
0.0
  0
LINE
  5
40
330
326
100
AcDbEntity
  8
YKK_F1
  6
Continuous
100
AcDbLine
 10
900.039
 20
15412.9363
 30
0.0
 11
28800.039
 21
15412.9363
 31
0.0
  0
LINE
  5
41
330
326
100
AcDbEntity
  8
YKK_F1
  6
Continuous
100
AcDbLine
 10
900.039
 20
15162.9363
 30
0.0
 11
28800.039
 21
15162.9363
 31
0.0
  0
LINE
  5
42
330
326
100
AcDbEntity
  8
YKK_F1
  6
Continuous
100
AcDbLine
 10
5550.039
 20
14912.9363
 30
0.0
 11
28800.039
 21
14912.9363
 31
0.0
  0
LINE
  5
43
330
326
100
AcDbEntity
  8
YKK_F1
  6
Continuous
100
AcDbLine
 10
5550.039
 20
14662.9363
 30
0.0
 11
28800.039
 21
14662.9363
 31
0.0
  0
LINE
  5
44
330
326
100
AcDbEntity
  8
YKK_F1
  6
Continuous
100
AcDbLine
 10
900.039
 20
14412.9363
 30
0.0
 11
28800.039
 21
14412.9363
 31
0.0
  0
LINE
  5
45
330
326
100
AcDbEntity
  8
YKK_F1
  6
Continuous
100
AcDbLine
 10
900.039
 20
19367.9363
 30
0.0
 11
28800.039
 21
19367.9363
 31
0.0
  0
LINE
  5
46
330
326
100
AcDbEntity
  8
YKK_F1
  6
Continuous
100
AcDbLine
 10
900.039
 20
19617.9363
 30
0.0
 11
28800.039
 21
19617.9363
 31
0.0
  0
LINE
  5
47
330
326
100
AcDbEntity
  8
YKK_F1
  6
Continuous
100
AcDbLine
 10
900.039
 20
13662.9363
 30
0.0
 11
28800.039
 21
13662.9363
 31
0.0
  0
LINE
  5
48
330
326
100
AcDbEntity
  8
YKK_F1
  6
Continuous
100
AcDbLine
 10
900.039
 20
13412.9363
 30
0.0
 11
28800.039
 21
13412.9363
 31
0.0
  0
LINE
  5
49
330
326
100
AcDbEntity
  8
YKK_F1
  6
Continuous
100
AcDbLine
 10
900.039
 20
20117.9363
 30
0.0
 11
28800.039
 21
20117.9363
 31
0.0
  0
LINE
  5
4A
330
326
100
AcDbEntity
  8
YKK_F1
  6
Continuous
100
AcDbLine
 10
709.96201
 20
20287.219
 30
0.0
 11
28990.039
 21
20287.219
 31
0.0
  0
LINE
  5
4B
330
326
100
AcDbEntity
  8
YKK_F1
  6
Continuous
100
AcDbLine
 10
509.77446
 20
20487.406
 30
0.0
 11
29190.79
 21
20487.406
 31
0.0
  0
LINE
  5
4C
330
326
100
AcDbEntity
  8
YKK_F1
  6
Continuous
100
AcDbLine
 10
697.5567
 20
20299.624
 30
0.0
 11
29002.445
 21
20299.624
 31
0.0
  0
LINE
  5
4D
330
326
100
AcDbEntity
  8
YKK_F1
  6
Continuous
100
AcDbLine
 10
685.15046
 20
20312.594
 30
0.0
 11
29015.417
 21
20312.594
 31
0.0
  0
LINE
  5
4E
330
326
100
AcDbEntity
  8
YKK_F1
  6
Continuous
100
AcDbLine
 10
672.18069
 20
20325.566
 30
0.0
 11
29027.821
 21
20325.566
 31
0.0
  0
LINE
  5
4F
330
326
100
AcDbEntity
  8
YKK_F1
  6
Continuous
100
AcDbLine
 10
659.77445
 20
20337.97
 30
0.0
 11
29040.229
 21
20337.97
 31
0.0
  0
LINE
  5
50
330
326
100
AcDbEntity
  8
YKK_F1
100
AcDbLine
 10
0.0
 20
21000.0
 30
0.0
 11
29700.0
 21
21000.0
 31
0.0
  0
LINE
  5
51
330
326
100
AcDbEntity
  8
YKK_F1
100
AcDbLine
 10
0.0
 20
0.0
 30
0.0
 11
29700.0
 21
0.0
 31
0.0
  0
LINE
  5
52
330
326
100
AcDbEntity
  8
YKK_F1
  6
Continuous
100
AcDbLine
 10
900.039
 20
2252.9363
 30
0.0
 11
900.039
 21
20117.9363
 31
0.0
  0
LINE
  5
53
330
326
100
AcDbEntity
  8
YKK_F1
  6
Continuous
100
AcDbLine
 10
709.96201
 20
700.94001
 30
0.0
 11
709.96201
 21
20287.219
 31
0.0
  0
LINE
  5
54
330
326
100
AcDbEntity
  8
YKK_F1
  6
Continuous
100
AcDbLine
 10
697.5567
 20
687.97002
 30
0.0
 11
697.5567
 21
20299.624
 31
0.0
  0
LINE
  5
55
330
326
100
AcDbEntity
  8
YKK_F1
  6
Continuous
100
AcDbLine
 10
685.15046
 20
675.00009
 30
0.0
 11
685.15046
 21
20312.594
 31
0.0
  0
LINE
  5
56
330
326
100
AcDbEntity
  8
YKK_F1
  6
Continuous
100
AcDbLine
 10
672.18069
 20
662.59406
 30
0.0
 11
672.18069
 21
20325.566
 31
0.0
  0
LINE
  5
57
330
326
100
AcDbEntity
  8
YKK_F1
  6
Continuous
100
AcDbLine
 10
659.77445
 20
650.18799
 30
0.0
 11
659.77445
 21
20337.97
 31
0.0
  0
LINE
  5
58
330
326
100
AcDbEntity
  8
YKK_F1
  6
Continuous
100
AcDbLine
 10
509.77446
 20
500.75202
 30
0.0
 11
509.77446
 21
20487.406
 31
0.0
  0
LINE
  5
59
330
326
100
AcDbEntity
  8
YKK_F1
  6
Continuous
100
AcDbLine
 10
5550.039
 20
2252.9363
 30
0.0
 11
5550.039
 21
20117.9363
 31
0.0
  0
LINE
  5
5A
330
326
100
AcDbEntity
  8
YKK_F1
  6
Continuous
100
AcDbLine
 10
10200.039
 20
2252.9363
 30
0.0
 11
10200.039
 21
20117.9363
 31
0.0
  0
LINE
  5
5B
330
326
100
AcDbEntity
  8
YKK_F1
100
AcDbLine
 10
0.0
 20
0.0
 30
0.0
 11
0.0
 21
21000.0
 31
0.0
  0
LINE
  5
5C
330
326
100
AcDbEntity
  8
YKK_F1
  6
Continuous
100
AcDbLine
 10
10604.323
 20
950.75203
 30
0.0
 11
659.77445
 21
950.75203
 31
0.0
  0
LINE
  5
5D
330
326
100
AcDbEntity
  8
YKK_F1
  6
Continuous
100
AcDbLine
 10
10604.323
 20
1200.5641
 30
0.0
 11
659.77445
 21
1200.5641
 31
0.0
  0
LINE
  5
5E
330
326
100
AcDbEntity
  8
YKK_F1
  6
Continuous
100
AcDbLine
 10
10604.323
 20
1450.376
 30
0.0
 11
659.77445
 21
1450.376
 31
0.0
  0
LINE
  5
5F
330
326
100
AcDbEntity
  8
YKK_F1
  6
Continuous
100
AcDbLine
 10
10604.323
 20
1701.3159
 30
0.0
 11
659.77445
 21
1701.3159
 31
0.0
  0
TEXT
  5
60
330
326
100
AcDbEntity
  8
YKK_F1
100
AcDbText
 10
2183.67067185
 20
3772.9363
 30
0.0
 40
200.0
  1
材　　　　　　　質
  7
EXTFONT
 72
     1
 11
3237.00400518
 21
3772.9363
 31
0.0
100
AcDbText
  0
TEXT
  5
62
330
326
100
AcDbEntity
  8
YKK_F1
100
AcDbText
 10
759.96201
 20
1776.3159
 30
0.0
 40
100.0
  1
付記：
  7
EXTFONT
100
AcDbText
  0
TEXT
  5
63
330
326
100
AcDbEntity
  8
YKK_F1
100
AcDbText
 10
1937.00400518
 20
2647.9363
 30
0.0
 40
200.0
  1
(付　　属　　金　　物)
  7
EXTFONT
 72
     1
 11
3237.00400518
 21
2647.9363
 31
0.0
100
AcDbText
  0
TEXT
  5
64
330
326
100
AcDbEntity
  8
YKK_F1
100
AcDbText
 10
2063.67067185
 20
2897.9363
 30
0.0
 40
200.0
  1
建　　具　　金　　物
  7
EXTFONT
 72
     1
 11
3237.00400518
 21
2897.9363
 31
0.0
100
AcDbText
  0
TEXT
  5
65
330
326
100
AcDbEntity
  8
YKK_F1
100
AcDbText
 10
1817.00400518
 20
3272.9363
 30
0.0
 40
200.0
  1
ガラス・種類・ガラス押え
  7
EXTFONT
 72
     1
 11
3237.00400518
 21
3272.9363
 31
0.0
100
AcDbText
  0
TEXT
  5
66
330
326
100
AcDbEntity
  8
YKK_F1
100
AcDbText
 10
2183.67067185
 20
2272.9363
 30
0.0
 40
200.0
  1
備　　　　　　　考
  7
EXTFONT
 72
     1
 11
3237.00400518
 21
2272.9363
 31
0.0
100
AcDbText
  0
TEXT
  5
67
330
326
100
AcDbEntity
  8
YKK_F1
100
AcDbText
 10
2183.67067185
 20
3522.9363
 30
0.0
 40
200.0
  1
仕　　　　　　　上
  7
EXTFONT
 72
     1
 11
3237.00400518
 21
3522.9363
 31
0.0
100
AcDbText
  0
TEXT
  5
68
330
326
100
AcDbEntity
  8
YKK_F1
100
AcDbText
 10
1259.96201
 20
949.6242
 30
0.0
 40
250.0
  1
*
  7
EXTFONT
100
AcDbText
  0
TEXT
  5
69
330
326
100
AcDbEntity
  8
YKK_F1
100
AcDbText
 10
1259.96201
 20
699.6242
 30
0.0
 40
250.0
  1
*
  7
EXTFONT
100
AcDbText
  0
TEXT
  5
6A
330
326
100
AcDbEntity
  8
YKK_F1
100
AcDbText
 10
1259.96201
 20
1200.376
 30
0.0
 40
250.0
  1
*
  7
EXTFONT
100
AcDbText
  0
TEXT
  5
6B
330
326
100
AcDbEntity
  8
YKK_F1
100
AcDbText
 10
1259.96201
 20
1701.3159
 30
0.0
 40
250.0
  1
*
  7
EXTFONT
100
AcDbText
  0
TEXT
  5
6C
330
326
100
AcDbEntity
  8
YKK_F1
100
AcDbText
 10
1259.96201
 20
1450.376
 30
0.0
 40
250.0
  1
*
  7
EXTFONT
100
AcDbText
  0
TEXT
  5
6D
330
326
100
AcDbEntity
  8
YKK_F1
100
AcDbText
 10
2190.33733852
 20
5900.4363
 30
0.0
 40
200.0
  1
姿　　　　　　　図
  7
EXTFONT
 72
     1
 11
3237.00400518
 21
5900.4363
 31
0.0
100
AcDbText
  0
TEXT
  5
6E
330
326
100
AcDbEntity
  8
YKK_F1
100
AcDbText
 10
1703.67067185
 20
4272.9363
 30
0.0
 40
200.0
  1
型式・防音・エアタイト仕様
  7
EXTFONT
 72
     1
 11
3237.00400518
 21
4272.9363
 31
0.0
100
AcDbText
  0
TEXT
  5
6F
330
326
100
AcDbEntity
  8
YKK_F1
100
AcDbText
 10
1283.67067185
 20
4022.9363
 30
0.0
 40
200.0
  1
寸法・見付・見込（枠見付・枠見込）
  7
EXTFONT
 72
     1
 11
3237.00400518
 21
4022.9363
 31
0.0
100
AcDbText
  0
TEXT
  5
70
330
326
100
AcDbEntity
  8
YKK_F1
100
AcDbText
 10
2183.67067185
 20
7832.9363
 30
0.0
 40
200.0
  1
符　号　・　数　量
  7
EXTFONT
 72
     1
 11
3237.00400518
 21
7832.9363
 31
0.0
100
AcDbText
  0
TEXT
  5
71
330
326
100
AcDbEntity
  8
YKK_F1
100
AcDbText
 10
2183.67067185
 20
7477.9363
 30
0.0
 40
200.0
  1
使用箇所・防火仕様
  7
EXTFONT
 72
     1
 11
3237.00400518
 21
7477.9363
 31
0.0
100
AcDbText
  0
TEXT
  5
72
330
326
100
AcDbEntity
  8
YKK_F1
100
AcDbText
 10
1703.67067185
 20
10227.9363
 30
0.0
 40
200.0
  1
型式・防音・エアタイト仕様
  7
EXTFONT
 72
     1
 11
3237.00400518
 21
10227.9363
 31
0.0
100
AcDbText
  0
TEXT
  5
73
330
326
100
AcDbEntity
  8
YKK_F1
100
AcDbText
 10
1937.00400518
 20
8602.9363
 30
0.0
 40
200.0
  1
(付　　属　　金　　物)
  7
EXTFONT
 72
     1
 11
3237.00400518
 21
8602.9363
 31
0.0
100
AcDbText
  0
TEXT
  5
74
330
326
100
AcDbEntity
  8
YKK_F1
100
AcDbText
 10
2063.67067185
 20
8852.9363
 30
0.0
 40
200.0
  1
建　　具　　金　　物
  7
EXTFONT
 72
     1
 11
3237.00400518
 21
8852.9363
 31
0.0
100
AcDbText
  0
TEXT
  5
75
330
326
100
AcDbEntity
  8
YKK_F1
100
AcDbText
 10
1817.00400518
 20
9227.9363
 30
0.0
 40
200.0
  1
ガラス・種類・ガラス押え
  7
EXTFONT
 72
     1
 11
3237.00400518
 21
9227.9363
 31
0.0
100
AcDbText
  0
TEXT
  5
76
330
326
100
AcDbEntity
  8
YKK_F1
100
AcDbText
 10
2183.67067185
 20
9727.9363
 30
0.0
 40
200.0
  1
材　　　　　　　質
  7
EXTFONT
 72
     1
 11
3237.00400518
 21
9727.9363
 31
0.0
100
AcDbText
  0
TEXT
  5
77
330
326
100
AcDbEntity
  8
YKK_F1
100
AcDbText
 10
2183.67067185
 20
8227.9363
 30
0.0
 40
200.0
  1
備　　　　　　　考
  7
EXTFONT
 72
     1
 11
3237.00400518
 21
8227.9363
 31
0.0
100
AcDbText
  0
TEXT
  5
78
330
326
100
AcDbEntity
  8
YKK_F1
100
AcDbText
 10
2183.67067185
 20
9477.9363
 30
0.0
 40
200.0
  1
仕　　　　　　　上
  7
EXTFONT
 72
     1
 11
3237.00400518
 21
9477.9363
 31
0.0
100
AcDbText
  0
TEXT
  5
79
330
326
100
AcDbEntity
  8
YKK_F1
100
AcDbText
 10
1283.67067185
 20
9977.9363
 30
0.0
 40
200.0
  1
寸法・見付・見込（枠見付・枠見込）
  7
EXTFONT
 72
     1
 11
3237.00400518
 21
9977.9363
 31
0.0
100
AcDbText
  0
TEXT
  5
7A
330
326
100
AcDbEntity
  8
0
100
AcDbText
 10
5650.039
 20
3777.9363
 30
0.0
 40
200.0
  1
＊
  7
EXTFONT
100
AcDbText
  0
TEXT
  5
7B
330
326
100
AcDbEntity
  8
0
100
AcDbText
 10
10300.039
 20
3777.9363
 30
0.0
 40
200.0
  1
＊
  7
EXTFONT
100
AcDbText
  0
TEXT
  5
7C
330
326
100
AcDbEntity
  8
0
100
AcDbText
 10
5650.039
 20
3027.9363
 30
0.0
 40
200.0
  1
＊
  7
EXTFONT
100
AcDbText
  0
TEXT
  5
7D
330
326
100
AcDbEntity
  8
0
100
AcDbText
 10
5650.039
 20
2527.9363
 30
0.0
 40
200.0
  1
＊
  7
EXTFONT
100
AcDbText
  0
TEXT
  5
7E
330
326
100
AcDbEntity
  8
0
100
AcDbText
 10
5650.039
 20
2277.9363
 30
0.0
 40
200.0
  1
＊
  7
EXTFONT
100
AcDbText
  0
TEXT
  5
7F
330
326
100
AcDbEntity
  8
0
100
AcDbText
 10
5650.039
 20
2777.9363
 30
0.0
 40
200.0
  1
＊
  7
EXTFONT
100
AcDbText
  0
TEXT
  5
80
330
326
100
AcDbEntity
  8
0
100
AcDbText
 10
5650.039
 20
3277.9363
 30
0.0
 40
200.0
  1
＊
  7
EXTFONT
100
AcDbText
  0
TEXT
  5
81
330
326
100
AcDbEntity
  8
0
100
AcDbText
 10
5650.039
 20
3527.9363
 30
0.0
 40
200.0
  1
＊
  7
EXTFONT
100
AcDbText
  0
LINE
  5
82
330
326
100
AcDbEntity
  8
YKK_F1
  6
Continuous
100
AcDbLine
 10
12103.196
 20
1949.4363
 30
0.0
 11
12103.196
 21
650.18799
 31
0.0
  0
LINE
  5
83
330
326
100
AcDbEntity
  8
YKK_F1
  6
Continuous
100
AcDbLine
 10
10604.323
 20
1949.4363
 30
0.0
 11
10604.323
 21
650.18799
 31
0.0
  0
LINE
  5
84
330
326
100
AcDbEntity
  8
YKK_F1
  6
Continuous
100
AcDbLine
 10
12103.196
 20
1117.6692
 30
0.0
 11
10604.323
 21
1117.6692
 31
0.0
  0
LINE
  5
85
330
326
100
AcDbEntity
  8
YKK_F1
  6
Continuous
100
AcDbLine
 10
12103.196
 20
1534.3986
 30
0.0
 11
10604.323
 21
1534.3986
 31
0.0
  0
TEXT
  5
86
330
326
100
AcDbEntity
  8
YKK_F1
  6
Continuous
100
AcDbText
 10
10820.301
 20
750.0
 30
0.0
 40
150.0
  1
**,**,**
100
AcDbText
  0
TEXT
  5
87
330
326
100
AcDbEntity
  8
YKK_F1
  6
Continuous
100
AcDbText
 10
10820.301
 20
1166.7294
 30
0.0
 40
150.0
  1
**,**,**
100
AcDbText
  0
TEXT
  5
88
330
326
100
AcDbEntity
  8
YKK_F1
  6
Continuous
100
AcDbText
 10
10820.301
 20
1583.4588
 30
0.0
 40
150.0
  1
**,**,**
100
AcDbText
  0
TEXT
  5
89
330
326
100
AcDbEntity
  8
YKK_F1
100
AcDbText
 10
10654.323
 20
1401.2782
 30
0.0
 40
100.0
  1
設計　　年　　月　　日
  7
EXTFONT
100
AcDbText
  0
TEXT
  5
8A
330
326
100
AcDbEntity
  8
YKK_F1
100
AcDbText
 10
10654.323
 20
984.5488
 30
0.0
 40
100.0
  1
測量　　年　　月　　日
  7
EXTFONT
100
AcDbText
  0
TEXT
  5
8B
330
326
100
AcDbEntity
  8
YKK_F1
100
AcDbText
 10
10654.323
 20
1816.3159
 30
0.0
 40
100.0
  1
審査　　年　　月　　日
  7
EXTFONT
100
AcDbText
  0
TEXT
  5
8C
330
326
100
AcDbEntity
  8
0
100
AcDbText
 10
10300.039
 20
3027.9363
 30
0.0
 40
200.0
  1
＊
  7
EXTFONT
100
AcDbText
  0
TEXT
  5
8D
330
326
100
AcDbEntity
  8
0
100
AcDbText
 10
10300.039
 20
2277.9363
 30
0.0
 40
200.0
  1
＊
  7
EXTFONT
100
AcDbText
  0
TEXT
  5
8E
330
326
100
AcDbEntity
  8
0
100
AcDbText
 10
10300.039
 20
2527.9363
 30
0.0
 40
200.0
  1
＊
  7
EXTFONT
100
AcDbText
  0
TEXT
  5
8F
330
326
100
AcDbEntity
  8
0
100
AcDbText
 10
10300.039
 20
2777.9363
 30
0.0
 40
200.0
  1
＊
  7
EXTFONT
100
AcDbText
  0
TEXT
  5
90
330
326
100
AcDbEntity
  8
0
100
AcDbText
 10
10300.039
 20
3277.9363
 30
0.0
 40
200.0
  1
＊
  7
EXTFONT
100
AcDbText
  0
TEXT
  5
91
330
326
100
AcDbEntity
  8
0
100
AcDbText
 10
10300.039
 20
3527.9363
 30
0.0
 40
200.0
  1
＊
  7
EXTFONT
100
AcDbText
  0
TEXT
  5
92
330
326
100
AcDbEntity
  8
0
100
AcDbText
 10
5650.039
 20
4277.9363
 30
0.0
 40
200.0
  1
＊
  7
EXTFONT
100
AcDbText
  0
TEXT
  5
93
330
326
100
AcDbEntity
  8
0
100
AcDbText
 10
5650.039
 20
4027.9363
 30
0.0
 40
200.0
  1
＊
  7
EXTFONT
100
AcDbText
  0
TEXT
  5
94
330
326
100
AcDbEntity
  8
0
100
AcDbText
 10
5650.039
 20
8732.9363
 30
0.0
 40
200.0
  1
＊
  7
EXTFONT
100
AcDbText
  0
TEXT
  5
95
330
326
100
AcDbEntity
  8
0
100
AcDbText
 10
5850.039
 20
7957.9363
 30
0.0
 40
200.0
  1
＊
  7
EXTFONT
100
AcDbText
  0
CIRCLE
  5
96
330
326
100
AcDbEntity
  8
YKK_F1
100
AcDbCircle
 10
5950.039
 20
7957.9363
 30
0.0
 40
233.3333333333333
  0
LINE
  5
97
330
326
100
AcDbEntity
  8
YKK_F1
  6
Continuous
100
AcDbLine
 10
5716.70566667
 20
7957.9363
 30
0.0
 11
6183.37233333
 21
7957.9363
 31
0.0
  0
TEXT
  5
98
330
326
100
AcDbEntity
  8
0
100
AcDbText
 10
5650.039
 20
7482.9363
 30
0.0
 40
200.0
  1
＊
  7
EXTFONT
100
AcDbText
  0
TEXT
  5
99
330
326
100
AcDbEntity
  8
YKK_F1
100
AcDbText
 10
5790.039
 20
7757.9363
 30
0.0
 40
160.0
  1
ＡＷ
  7
EXTFONT
100
AcDbText
  0
TEXT
  5
9A
330
326
100
AcDbEntity
  8
0
100
AcDbText
 10
5650.039
 20
8232.9363
 30
0.0
 40
200.0
  1
＊
  7
EXTFONT
100
AcDbText
  0
TEXT
  5
9B
330
326
100
AcDbEntity
  8
0
100
AcDbText
 10
5650.039
 20
8482.9363
 30
0.0
 40
200.0
  1
＊
  7
EXTFONT
100
AcDbText
  0
TEXT
  5
9C
330
326
100
AcDbEntity
  8
0
100
AcDbText
 10
5650.039
 20
8982.9363
 30
0.0
 40
200.0
  1
＊
  7
EXTFONT
100
AcDbText
  0
TEXT
  5
9D
330
326
100
AcDbEntity
  8
0
100
AcDbText
 10
5650.039
 20
9482.9363
 30
0.0
 40
200.0
  1
＊
  7
EXTFONT
100
AcDbText
  0
TEXT
  5
9E
330
326
100
AcDbEntity
  8
0
100
AcDbText
 10
5650.039
 20
9232.9363
 30
0.0
 40
200.0
  1
＊
  7
EXTFONT
100
AcDbText
  0
TEXT
  5
9F
330
326
100
AcDbEntity
  8
0
100
AcDbText
 10
5650.039
 20
9982.9363
 30
0.0
 40
200.0
  1
＊
  7
EXTFONT
100
AcDbText
  0
TEXT
  5
A0
330
326
100
AcDbEntity
  8
0
100
AcDbText
 10
5650.039
 20
9732.9363
 30
0.0
 40
200.0
  1
＊
  7
EXTFONT
100
AcDbText
  0
TEXT
  5
A1
330
326
100
AcDbEntity
  8
0
100
AcDbText
 10
5650.039
 20
10232.9363
 30
0.0
 40
200.0
  1
＊
  7
EXTFONT
100
AcDbText
  0
TEXT
  5
A2
330
326
100
AcDbEntity
  8
0
100
AcDbText
 10
8950.039
 20
7482.9363
 30
0.0
 40
200.0
  1
＊
  7
EXTFONT
100
AcDbText
  0
TEXT
  5
A3
330
326
100
AcDbEntity
  8
0
100
AcDbText
 10
9250.039
 20
7732.9363
 30
0.0
 40
200.0
  1
＊
  7
EXTFONT
100
AcDbText
  0
TEXT
  5
A4
330
326
100
AcDbEntity
  8
YKK_F1
100
AcDbText
 10
9670.039
 20
7732.9363
 30
0.0
 40
200.0
  1
箇所
  7
EXTFONT
100
AcDbText
  0
TEXT
  5
A5
330
326
100
AcDbEntity
  8
0
100
AcDbText
 10
10300.039
 20
4277.9363
 30
0.0
 40
200.0
  1
＊
  7
EXTFONT
100
AcDbText
  0
TEXT
  5
A6
330
326
100
AcDbEntity
  8
0
100
AcDbText
 10
10300.039
 20
4027.9363
 30
0.0
 40
200.0
  1
＊
  7
EXTFONT
100
AcDbText
  0
TEXT
  5
A7
330
326
100
AcDbEntity
  8
0
100
AcDbText
 10
10300.039
 20
8732.9363
 30
0.0
 40
200.0
  1
＊
  7
EXTFONT
100
AcDbText
  0
TEXT
  5
A8
330
326
100
AcDbEntity
  8
0
100
AcDbText
 10
10500.039
 20
7957.9363
 30
0.0
 40
200.0
  1
＊
  7
EXTFONT
100
AcDbText
  0
CIRCLE
  5
A9
330
326
100
AcDbEntity
  8
YKK_F1
100
AcDbCircle
 10
10600.039
 20
7957.9363
 30
0.0
 40
233.3333333333333
  0
LINE
  5
AA
330
326
100
AcDbEntity
  8
YKK_F1
  6
Continuous
100
AcDbLine
 10
10366.70566667
 20
7957.9363
 30
0.0
 11
10833.37233333
 21
7957.9363
 31
0.0
  0
TEXT
  5
AB
330
326
100
AcDbEntity
  8
0
100
AcDbText
 10
10300.039
 20
7482.9363
 30
0.0
 40
200.0
  1
＊
  7
EXTFONT
100
AcDbText
  0
TEXT
  5
AC
330
326
100
AcDbEntity
  8
YKK_F1
100
AcDbText
 10
10440.039
 20
7757.9363
 30
0.0
 40
160.0
  1
ＡＷ
  7
EXTFONT
100
AcDbText
  0
TEXT
  5
AD
330
326
100
AcDbEntity
  8
0
100
AcDbText
 10
10300.039
 20
8232.9363
 30
0.0
 40
200.0
  1
＊
  7
EXTFONT
100
AcDbText
  0
TEXT
  5
AE
330
326
100
AcDbEntity
  8
0
100
AcDbText
 10
10300.039
 20
8482.9363
 30
0.0
 40
200.0
  1
＊
  7
EXTFONT
100
AcDbText
  0
TEXT
  5
AF
330
326
100
AcDbEntity
  8
0
100
AcDbText
 10
10300.039
 20
8982.9363
 30
0.0
 40
200.0
  1
＊
  7
EXTFONT
100
AcDbText
  0
TEXT
  5
B0
330
326
100
AcDbEntity
  8
0
100
AcDbText
 10
10300.039
 20
9482.9363
 30
0.0
 40
200.0
  1
＊
  7
EXTFONT
100
AcDbText
  0
TEXT
  5
B1
330
326
100
AcDbEntity
  8
0
100
AcDbText
 10
10300.039
 20
9232.9363
 30
0.0
 40
200.0
  1
＊
  7
EXTFONT
100
AcDbText
  0
TEXT
  5
B2
330
326
100
AcDbEntity
  8
0
100
AcDbText
 10
10300.039
 20
9982.9363
 30
0.0
 40
200.0
  1
＊
  7
EXTFONT
100
AcDbText
  0
TEXT
  5
B3
330
326
100
AcDbEntity
  8
0
100
AcDbText
 10
10300.039
 20
9732.9363
 30
0.0
 40
200.0
  1
＊
  7
EXTFONT
100
AcDbText
  0
TEXT
  5
B4
330
326
100
AcDbEntity
  8
0
100
AcDbText
 10
10300.039
 20
10232.9363
 30
0.0
 40
200.0
  1
＊
  7
EXTFONT
100
AcDbText
  0
TEXT
  5
B5
330
326
100
AcDbEntity
  8
0
100
AcDbText
 10
13600.039
 20
7482.9363
 30
0.0
 40
200.0
  1
＊
  7
EXTFONT
100
AcDbText
  0
TEXT
  5
B6
330
326
100
AcDbEntity
  8
0
100
AcDbText
 10
13900.039
 20
7732.9363
 30
0.0
 40
200.0
  1
＊
  7
EXTFONT
100
AcDbText
  0
TEXT
  5
B7
330
326
100
AcDbEntity
  8
YKK_F1
100
AcDbText
 10
14320.039
 20
7732.9363
 30
0.0
 40
200.0
  1
箇所
  7
EXTFONT
100
AcDbText
  0
TEXT
  5
B8
330
326
100
AcDbEntity
  8
0
100
AcDbText
 10
1009.77446
 20
20612.406
 30
0.0
 40
250.0
  1
ＢＳＳ７ＰＪ５１　ＳＹＳＴＥＭＡ７１０　セットバック枠　はめ殺し窓
  7
EXTFONT
100
AcDbText
  0
TEXT
  5
B9
330
326
100
AcDbEntity
  8
YKK_F1
100
AcDbText
 10
2190.33733852
 20
11855.4363
 30
0.0
 40
200.0
  1
姿　　　　　　　図
  7
EXTFONT
 72
     1
 11
3237.00400518
 21
11855.4363
 31
0.0
100
AcDbText
  0
TEXT
  5
BA
330
326
100
AcDbEntity
  8
YKK_F1
100
AcDbText
 10
2183.67067185
 20
13432.9363
 30
0.0
 40
200.0
  1
使用箇所・防火仕様
  7
EXTFONT
 72
     1
 11
3237.00400518
 21
13432.9363
 31
0.0
100
AcDbText
  0
TEXT
  5
BB
330
326
100
AcDbEntity
  8
YKK_F1
100
AcDbText
 10
2183.67067185
 20
13787.9363
 30
0.0
 40
200.0
  1
符　号　・　数　量
  7
EXTFONT
 72
     1
 11
3237.00400518
 21
13787.9363
 31
0.0
100
AcDbText
  0
TEXT
  5
BC
330
326
100
AcDbEntity
  8
YKK_F1
100
AcDbText
 10
1703.67067185
 20
16182.9363
 30
0.0
 40
200.0
  1
型式・防音・エアタイト仕様
  7
EXTFONT
 72
     1
 11
3237.00400518
 21
16182.9363
 31
0.0
100
AcDbText
  0
TEXT
  5
BD
330
326
100
AcDbEntity
  8
YKK_F1
100
AcDbText
 10
1283.67067185
 20
15932.9363
 30
0.0
 40
200.0
  1
寸法・見付・見込（枠見付・枠見込）
  7
EXTFONT
 72
     1
 11
3237.00400518
 21
15932.9363
 31
0.0
100
AcDbText
  0
TEXT
  5
BE
330
326
100
AcDbEntity
  8
YKK_F1
100
AcDbText
 10
1937.00400518
 20
14557.9363
 30
0.0
 40
200.0
  1
(付　　属　　金　　物)
  7
EXTFONT
 72
     1
 11
3237.00400518
 21
14557.9363
 31
0.0
100
AcDbText
  0
TEXT
  5
BF
330
326
100
AcDbEntity
  8
YKK_F1
100
AcDbText
 10
2063.67067185
 20
14807.9363
 30
0.0
 40
200.0
  1
建　　具　　金　　物
  7
EXTFONT
 72
     1
 11
3237.00400518
 21
14807.9363
 31
0.0
100
AcDbText
  0
TEXT
  5
C0
330
326
100
AcDbEntity
  8
YKK_F1
100
AcDbText
 10
1817.00400518
 20
15182.9363
 30
0.0
 40
200.0
  1
ガラス・種類・ガラス押え
  7
EXTFONT
 72
     1
 11
3237.00400518
 21
15182.9363
 31
0.0
100
AcDbText
  0
TEXT
  5
C1
330
326
100
AcDbEntity
  8
YKK_F1
100
AcDbText
 10
2183.67067185
 20
15682.9363
 30
0.0
 40
200.0
  1
材　　　　　　　質
  7
EXTFONT
 72
     1
 11
3237.00400518
 21
15682.9363
 31
0.0
100
AcDbText
  0
TEXT
  5
C2
330
326
100
AcDbEntity
  8
YKK_F1
100
AcDbText
 10
2183.67067185
 20
14182.9363
 30
0.0
 40
200.0
  1
備　　　　　　　考
  7
EXTFONT
 72
     1
 11
3237.00400518
 21
14182.9363
 31
0.0
100
AcDbText
  0
TEXT
  5
C3
330
326
100
AcDbEntity
  8
YKK_F1
100
AcDbText
 10
2183.67067185
 20
15432.9363
 30
0.0
 40
200.0
  1
仕　　　　　　　上
  7
EXTFONT
 72
     1
 11
3237.00400518
 21
15432.9363
 31
0.0
100
AcDbText
  0
TEXT
  5
C4
330
326
100
AcDbEntity
  8
YKK_F1
100
AcDbText
 10
2190.33733852
 20
17810.4363
 30
0.0
 40
200.0
  1
姿　　　　　　　図
  7
EXTFONT
 72
     1
 11
3237.00400518
 21
17810.4363
 31
0.0
100
AcDbText
  0
TEXT
  5
C5
330
326
100
AcDbEntity
  8
YKK_F1
100
AcDbText
 10
2183.67067185
 20
19742.9363
 30
0.0
 40
200.0
  1
符　号　・　数　量
  7
EXTFONT
 72
     1
 11
3237.00400518
 21
19742.9363
 31
0.0
100
AcDbText
  0
TEXT
  5
C6
330
326
100
AcDbEntity
  8
YKK_F1
100
AcDbText
 10
2183.67067185
 20
19387.9363
 30
0.0
 40
200.0
  1
使用箇所・防火仕様
  7
EXTFONT
 72
     1
 11
3237.00400518
 21
19387.9363
 31
0.0
100
AcDbText
  0
LINE
  5
C7
330
326
100
AcDbEntity
  8
YKK_N1
  6
ByBlock
100
AcDbLine
 10
13567.539
 20
17472.9363
 30
0.0
 11
13567.539
 21
16902.9363
 31
0.0
  0
TEXT
  5
C9
330
326
100
AcDbEntity
  8
YKK_N1
100
AcDbText
 10
12479.32471429
 20
17035.4363
 30
0.0
 40
60.0
  1
85
 41
0.8
  7
YKK_SGSTYLE1
100
AcDbText
  0
LINE
  5
CB
330
326
100
AcDbEntity
  8
YKK_N1
  6
ByBlock
100
AcDbLine
 10
11482.539
 20
17472.9363
 30
0.0
 11
11482.539
 21
16902.9363
 31
0.0
  0
TEXT
  5
CC
330
326
100
AcDbEntity
  8
YKK_F1
100
AcDbText
 10
9670.039
 20
13687.9363
 30
0.0
 40
200.0
  1
箇所
  7
EXTFONT
100
AcDbText
  0
TEXT
  5
CD
330
326
100
AcDbEntity
  8
0
100
AcDbText
 10
9250.039
 20
13687.9363
 30
0.0
 40
200.0
  1
＊
  7
EXTFONT
100
AcDbText
  0
CIRCLE
  5
CE
330
326
100
AcDbEntity
  8
YKK_F1
100
AcDbCircle
 10
5950.039
 20
13912.9363
 30
0.0
 40
233.3333333333333
  0
TEXT
  5
CF
330
326
100
AcDbEntity
  8
YKK_F1
100
AcDbText
 10
5790.039
 20
13712.9363
 30
0.0
 40
160.0
  1
ＡＷ
  7
EXTFONT
100
AcDbText
  0
TEXT
  5
D0
330
326
100
AcDbEntity
  8
0
100
AcDbText
 10
5650.039
 20
13437.9363
 30
0.0
 40
200.0
  1
＊
  7
EXTFONT
100
AcDbText
  0
TEXT
  5
D1
330
326
100
AcDbEntity
  8
0
100
AcDbText
 10
8950.039
 20
13437.9363
 30
0.0
 40
200.0
  1
＊
  7
EXTFONT
100
AcDbText
  0
TEXT
  5
D2
330
326
100
AcDbEntity
  8
0
100
AcDbText
 10
5650.039
 20
14937.9363
 30
0.0
 40
200.0
  1
結露排水弁・アングル・膳板
  7
EXTFONT
100
AcDbText
  0
TEXT
  5
D3
330
326
100
AcDbEntity
  8
0
100
AcDbText
 10
5650.039
 20
15437.9363
 30
0.0
 40
200.0
  1
シルバー･ｶﾗｰ(ブロンズ､ステン､ブラック)
  7
EXTFONT
100
AcDbText
  0
TEXT
  5
D4
330
326
100
AcDbEntity
  8
0
100
AcDbText
 10
5650.039
 20
15937.9363
 30
0.0
 40
200.0
  1
W＝1,000　H＝700  見込125
  7
EXTFONT
100
AcDbText
  0
TEXT
  5
D5
330
326
100
AcDbEntity
  8
0
100
AcDbText
 10
5650.039
 20
14187.9363
 30
0.0
 40
200.0
  1
YKKAP　ＳＹＳＴＥＭＡ７１０同等品
  7
EXTFONT
100
AcDbText
  0
LINE
  5
D6
330
326
100
AcDbEntity
  8
YKK_F1
  6
Continuous
100
AcDbLine
 10
5716.70566667
 20
13912.9363
 30
0.0
 11
6183.37233333
 21
13912.9363
 31
0.0
  0
TEXT
  5
D7
330
326
100
AcDbEntity
  8
0
100
AcDbText
 10
5850.039
 20
13912.9363
 30
0.0
 40
200.0
  1
＊
  7
EXTFONT
100
AcDbText
  0
TEXT
  5
D8
330
326
100
AcDbEntity
  8
0
100
AcDbText
 10
5650.039
 20
14437.9363
 30
0.0
 40
200.0
  1
＊
  7
EXTFONT
100
AcDbText
  0
TEXT
  5
D9
330
326
100
AcDbEntity
  8
0
100
AcDbText
 10
5650.039
 20
15187.9363
 30
0.0
 40
200.0
  1
FL・透明
  7
EXTFONT
100
AcDbText
  0
TEXT
  5
DA
330
326
100
AcDbEntity
  8
0
100
AcDbText
 10
5650.039
 20
14687.9363
 30
0.0
 40
200.0
  1
＊
  7
EXTFONT
100
AcDbText
  0
TEXT
  5
DB
330
326
100
AcDbEntity
  8
0
100
AcDbText
 10
5650.039
 20
16187.9363
 30
0.0
 40
200.0
  1
はめ殺し窓
  7
EXTFONT
100
AcDbText
  0
TEXT
  5
DC
330
326
100
AcDbEntity
  8
0
100
AcDbText
 10
5650.039
 20
15687.9363
 30
0.0
 40
200.0
  1
アルミ製
  7
EXTFONT
100
AcDbText
  0
TEXT
  5
DD
330
326
100
AcDbEntity
  8
YKK_F1
100
AcDbText
 10
14320.039
 20
13687.9363
 30
0.0
 40
200.0
  1
箇所
  7
EXTFONT
100
AcDbText
  0
TEXT
  5
DE
330
326
100
AcDbEntity
  8
0
100
AcDbText
 10
13900.039
 20
13687.9363
 30
0.0
 40
200.0
  1
＊
  7
EXTFONT
100
AcDbText
  0
CIRCLE
  5
DF
330
326
100
AcDbEntity
  8
YKK_F1
100
AcDbCircle
 10
10600.039
 20
13912.9363
 30
0.0
 40
233.3333333333333
  0
TEXT
  5
E0
330
326
100
AcDbEntity
  8
YKK_F1
100
AcDbText
 10
10440.039
 20
13712.9363
 30
0.0
 40
160.0
  1
ＡＷ
  7
EXTFONT
100
AcDbText
  0
TEXT
  5
E1
330
326
100
AcDbEntity
  8
0
100
AcDbText
 10
10300.039
 20
13437.9363
 30
0.0
 40
200.0
  1
＊
  7
EXTFONT
100
AcDbText
  0
TEXT
  5
E2
330
326
100
AcDbEntity
  8
0
100
AcDbText
 10
13600.039
 20
13437.9363
 30
0.0
 40
200.0
  1
＊
  7
EXTFONT
100
AcDbText
  0
TEXT
  5
E3
330
326
100
AcDbEntity
  8
YKK_N1
100
AcDbText
 10
12377.61042857
 20
16942.9363
 30
0.0
 40
60.0
  1
W=2085
 41
0.8
  7
YKK_SGSTYLE1
100
AcDbText
  0
LINE
  5
E4
330
326
100
AcDbEntity
  8
YKK_N1
  6
ByBlock
100
AcDbLine
 10
11483.539
 20
16932.9363
 30
0.0
 11
13566.539
 21
16932.9363
 31
0.0
  0
TEXT
  5
E5
330
326
100
AcDbEntity
  8
0
100
AcDbText
 10
10300.039
 20
14937.9363
 30
0.0
 40
200.0
  1
結露排水弁・アングル・膳板
  7
EXTFONT
100
AcDbText
  0
TEXT
  5
E6
330
326
100
AcDbEntity
  8
0
100
AcDbText
 10
10300.039
 20
16187.9363
 30
0.0
 40
200.0
  1
はめ殺し窓、はめ殺し縦骨連窓
  7
EXTFONT
100
AcDbText
  0
TEXT
  5
E7
330
326
100
AcDbEntity
  8
0
100
AcDbText
 10
10300.039
 20
15437.9363
 30
0.0
 40
200.0
  1
シルバー･ｶﾗｰ(ブロンズ､ステン､ブラック)
  7
EXTFONT
100
AcDbText
  0
TEXT
  5
E8
330
326
100
AcDbEntity
  8
0
100
AcDbText
 10
10300.039
 20
15937.9363
 30
0.0
 40
200.0
  1
W＝2,085　H＝700  見込125
  7
EXTFONT
100
AcDbText
  0
TEXT
  5
E9
330
326
100
AcDbEntity
  8
0
100
AcDbText
 10
10300.039
 20
14187.9363
 30
0.0
 40
200.0
  1
YKKAP　ＳＹＳＴＥＭＡ７１０同等品
  7
EXTFONT
100
AcDbText
  0
LINE
  5
EA
330
326
100
AcDbEntity
  8
YKK_F1
  6
Continuous
100
AcDbLine
 10
10366.70566667
 20
13912.9363
 30
0.0
 11
10833.37233333
 21
13912.9363
 31
0.0
  0
TEXT
  5
EB
330
326
100
AcDbEntity
  8
0
100
AcDbText
 10
10500.039
 20
13912.9363
 30
0.0
 40
200.0
  1
＊
  7
EXTFONT
100
AcDbText
  0
TEXT
  5
EC
330
326
100
AcDbEntity
  8
0
100
AcDbText
 10
10300.039
 20
14437.9363
 30
0.0
 40
200.0
  1
＊
  7
EXTFONT
100
AcDbText
  0
TEXT
  5
ED
330
326
100
AcDbEntity
  8
0
100
AcDbText
 10
10300.039
 20
15187.9363
 30
0.0
 40
200.0
  1
FL・透明
  7
EXTFONT
100
AcDbText
  0
TEXT
  5
EE
330
326
100
AcDbEntity
  8
0
100
AcDbText
 10
10300.039
 20
14687.9363
 30
0.0
 40
200.0
  1
＊
  7
EXTFONT
100
AcDbText
  0
TEXT
  5
EF
330
326
100
AcDbEntity
  8
0
100
AcDbText
 10
10300.039
 20
15687.9363
 30
0.0
 40
200.0
  1
アルミ製
  7
EXTFONT
100
AcDbText
  0
LINE
  5
F0
330
326
100
AcDbEntity
  8
YKK_N1
  6
ByBlock
100
AcDbLine
 10
11482.539
 20
16932.9363
 30
0.0
 11
11582.539
 21
16932.9363
 31
0.0
  0
LINE
  5
F1
330
326
100
AcDbEntity
  8
YKK_N1
  6
ByBlock
100
AcDbLine
 10
11569.14154038
 20
16982.9363
 30
0.0
 11
11482.539
 21
16932.9363
 31
0.0
  0
LINE
  5
F2
330
326
100
AcDbEntity
  8
YKK_N1
  6
ByBlock
100
AcDbLine
 10
11482.539
 20
16932.9363
 30
0.0
 11
11569.14154038
 21
16882.9363
 31
0.0
  0
LINE
  5
F3
330
326
100
AcDbEntity
  8
YKK_N1
  6
ByBlock
100
AcDbLine
 10
11569.14154038
 20
16882.9363
 30
0.0
 11
11569.14154038
 21
16982.9363
 31
0.0
  0
POINT
  5
F4
330
326
100
AcDbEntity
  8
YKK_N1
  6
ByBlock
100
AcDbPoint
 10
13567.539
 20
16932.9363
 30
0.0
  0
LINE
  5
F5
330
326
100
AcDbEntity
  8
YKK_N1
  6
ByBlock
100
AcDbLine
 10
13567.539
 20
16932.9363
 30
0.0
 11
13467.539
 21
16932.9363
 31
0.0
  0
LINE
  5
F6
330
326
100
AcDbEntity
  8
YKK_N1
  6
ByBlock
100
AcDbLine
 10
13567.539
 20
16932.9363
 30
0.0
 11
13480.93645962
 21
16982.9363
 31
0.0
  0
LINE
  5
F7
330
326
100
AcDbEntity
  8
YKK_N1
  6
ByBlock
100
AcDbLine
 10
13480.93645962
 20
16982.9363
 30
0.0
 11
13480.93645962
 21
16882.9363
 31
0.0
  0
LINE
  5
F8
330
326
100
AcDbEntity
  8
YKK_N1
  6
ByBlock
100
AcDbLine
 10
13480.93645962
 20
16882.9363
 30
0.0
 11
13567.539
 21
16932.9363
 31
0.0
  0
TEXT
  5
F9
330
326
100
AcDbEntity
  8
YKK_N1
100
AcDbText
 10
7727.61042857
 20
17142.9363
 30
0.0
 40
60.0
  1
W=1000
 41
0.8
  7
YKK_SGSTYLE1
100
AcDbText
  0
LINE
  5
FA
330
326
100
AcDbEntity
  8
YKK_N1
  6
ByBlock
100
AcDbLine
 10
7376.039
 20
17132.9363
 30
0.0
 11
8374.039
 21
17132.9363
 31
0.0
  0
LINE
  5
FB
330
326
100
AcDbEntity
  8
YKK_A1
100
AcDbLine
 10
8375.039
 20
18232.9363
 30
0.0
 11
7375.039
 21
18232.9363
 31
0.0
  0
LINE
  5
FD
330
326
100
AcDbEntity
  8
YKK_A1
100
AcDbLine
 10
7375.039
 20
17532.9363
 30
0.0
 11
8375.039
 21
17532.9363
 31
0.0
  0
LINE
  5
FE
330
326
100
AcDbEntity
  8
YKK_A1
100
AcDbLine
 10
8375.039
 20
18232.9363
 30
0.0
 11
7375.039
 21
18232.9363
 31
0.0
  0
LINE
  5
FF
330
326
100
AcDbEntity
  8
YKK_A1
100
AcDbLine
 10
7375.039
 20
17532.9363
 30
0.0
 11
8375.039
 21
17532.9363
 31
0.0
  0
LINE
  5
100
330
326
100
AcDbEntity
  8
YKK_A1
100
AcDbLine
 10
8390.039
 20
18247.9363
 30
0.0
 11
7360.039
 21
18247.9363
 31
0.0
  0
LINE
  5
101
330
326
100
AcDbEntity
  8
YKK_A1
100
AcDbLine
 10
7360.039
 20
17532.9363
 30
0.0
 11
8390.039
 21
17532.9363
 31
0.0
  0
LINE
  5
102
330
326
100
AcDbEntity
  8
YKK_A1
100
AcDbLine
 10
7375.039
 20
18232.9363
 30
0.0
 11
7375.039
 21
17532.9363
 31
0.0
  0
LINE
  5
103
330
326
100
AcDbEntity
  8
YKK_A1
100
AcDbLine
 10
7375.039
 20
18232.9363
 30
0.0
 11
7375.039
 21
17532.9363
 31
0.0
  0
LINE
  5
104
330
326
100
AcDbEntity
  8
YKK_A1
100
AcDbLine
 10
7360.039
 20
18247.9363
 30
0.0
 11
7360.039
 21
17532.9363
 31
0.0
  0
LINE
  5
105
330
326
100
AcDbEntity
  8
YKK_N1
  6
ByBlock
100
AcDbLine
 10
7375.039
 20
17132.9363
 30
0.0
 11
7475.039
 21
17132.9363
 31
0.0
  0
LINE
  5
106
330
326
100
AcDbEntity
  8
YKK_N1
  6
ByBlock
100
AcDbLine
 10
7375.039
 20
17132.9363
 30
0.0
 11
7461.64154038
 21
17082.9363
 31
0.0
  0
LINE
  5
107
330
326
100
AcDbEntity
  8
YKK_N1
  6
ByBlock
100
AcDbLine
 10
7461.64154038
 20
17182.9363
 30
0.0
 11
7375.039
 21
17132.9363
 31
0.0
  0
LINE
  5
108
330
326
100
AcDbEntity
  8
YKK_N1
  6
ByBlock
100
AcDbLine
 10
7461.64154038
 20
17082.9363
 30
0.0
 11
7461.64154038
 21
17182.9363
 31
0.0
  0
LINE
  5
109
330
326
100
AcDbEntity
  8
YKK_N1
  6
ByBlock
100
AcDbLine
 10
7375.039
 20
17472.9363
 30
0.0
 11
7375.039
 21
17102.9363
 31
0.0
  0
POINT
  5
10A
330
326
100
AcDbEntity
  8
YKK_N1
  6
ByBlock
100
AcDbPoint
 10
7375.039
 20
17532.9363
 30
0.0
  0
TEXT
  5
10B
330
326
100
AcDbEntity
  8
0
100
AcDbText
 10
5650.039
 20
19392.9363
 30
0.0
 40
200.0
  1
＊
  7
EXTFONT
100
AcDbText
  0
CIRCLE
  5
10C
330
326
100
AcDbEntity
  8
YKK_F1
100
AcDbCircle
 10
5950.039
 20
19867.9363
 30
0.0
 40
233.3333333333333
  0
LINE
  5
10D
330
326
100
AcDbEntity
  8
YKK_F1
  6
Continuous
100
AcDbLine
 10
5716.70566667
 20
19867.9363
 30
0.0
 11
6183.37233333
 21
19867.9363
 31
0.0
  0
TEXT
  5
10E
330
326
100
AcDbEntity
  8
0
100
AcDbText
 10
5850.039
 20
19867.9363
 30
0.0
 40
200.0
  1
＊
  7
EXTFONT
100
AcDbText
  0
TEXT
  5
10F
330
326
100
AcDbEntity
  8
YKK_F1
100
AcDbText
 10
5790.039
 20
19667.9363
 30
0.0
 40
160.0
  1
ＡＷ
  7
EXTFONT
100
AcDbText
  0
TEXT
  5
110
330
326
100
AcDbEntity
  8
YKK_N1
100
AcDbText
 10
8765.039
 20
17758.36487143
 30
0.0
 40
60.0
  1
H=700
 50
90.0
 41
0.8
  7
YKK_SGSTYLE1
100
AcDbText
  0
LINE
  5
111
330
326
100
AcDbEntity
  8
YKK_A1
100
AcDbLine
 10
8375.039
 20
17532.9363
 30
0.0
 11
8375.039
 21
18232.9363
 31
0.0
  0
LINE
  5
112
330
326
100
AcDbEntity
  8
YKK_A1
100
AcDbLine
 10
8375.039
 20
17532.9363
 30
0.0
 11
8375.039
 21
18232.9363
 31
0.0
  0
LINE
  5
113
330
326
100
AcDbEntity
  8
YKK_A1
100
AcDbLine
 10
8390.039
 20
17532.9363
 30
0.0
 11
8390.039
 21
18247.9363
 31
0.0
  0
LINE
  5
114
330
326
100
AcDbEntity
  8
YKK_N1
  6
ByBlock
100
AcDbLine
 10
8775.039
 20
17533.9363
 30
0.0
 11
8775.039
 21
18231.9363
 31
0.0
  0
LINE
  5
115
330
326
100
AcDbEntity
  8
YKK_N1
  6
ByBlock
100
AcDbLine
 10
8435.039
 20
17532.9363
 30
0.0
 11
8805.039
 21
17532.9363
 31
0.0
  0
POINT
  5
116
330
326
100
AcDbEntity
  8
YKK_N1
  6
ByBlock
100
AcDbPoint
 10
8375.039
 20
17132.9363
 30
0.0
  0
LINE
  5
117
330
326
100
AcDbEntity
  8
YKK_N1
  6
ByBlock
100
AcDbLine
 10
8375.039
 20
17472.9363
 30
0.0
 11
8375.039
 21
17102.9363
 31
0.0
  0
LINE
  5
118
330
326
100
AcDbEntity
  8
YKK_N1
  6
ByBlock
100
AcDbLine
 10
8288.43645962
 20
17182.9363
 30
0.0
 11
8288.43645962
 21
17082.9363
 31
0.0
  0
LINE
  5
119
330
326
100
AcDbEntity
  8
YKK_N1
  6
ByBlock
100
AcDbLine
 10
8375.039
 20
17132.9363
 30
0.0
 11
8275.039
 21
17132.9363
 31
0.0
  0
LINE
  5
11A
330
326
100
AcDbEntity
  8
YKK_N1
  6
ByBlock
100
AcDbLine
 10
8375.039
 20
17132.9363
 30
0.0
 11
8288.43645962
 21
17182.9363
 31
0.0
  0
LINE
  5
11B
330
326
100
AcDbEntity
  8
YKK_N1
  6
ByBlock
100
AcDbLine
 10
8288.43645962
 20
17082.9363
 30
0.0
 11
8375.039
 21
17132.9363
 31
0.0
  0
POINT
  5
11C
330
326
100
AcDbEntity
  8
YKK_N1
  6
ByBlock
100
AcDbPoint
 10
8375.039
 20
17532.9363
 30
0.0
  0
POINT
  5
11D
330
326
100
AcDbEntity
  8
YKK_N1
  6
ByBlock
100
AcDbPoint
 10
8375.039
 20
17532.9363
 30
0.0
  0
TEXT
  5
11E
330
326
100
AcDbEntity
  8
YKK_A1
100
AcDbText
 10
8306.18185714
 20
17562.9363
 30
0.0
 40
60.0
  1
F
 41
0.8
  7
YKK_SGSTYLE1
 72
     2
 11
8345.039
 21
17562.9363
 31
0.0
100
AcDbText
  0
LINE
  5
11F
330
326
100
AcDbEntity
  8
YKK_N1
  6
ByBlock
100
AcDbLine
 10
8825.039
 20
17619.53884038
 30
0.0
 11
8725.039
 21
17619.53884038
 31
0.0
  0
LINE
  5
120
330
326
100
AcDbEntity
  8
YKK_N1
  6
ByBlock
100
AcDbLine
 10
8725.039
 20
17619.53884038
 30
0.0
 11
8775.039
 21
17532.9363
 31
0.0
  0
LINE
  5
121
330
326
100
AcDbEntity
  8
YKK_N1
  6
ByBlock
100
AcDbLine
 10
8775.039
 20
17532.9363
 30
0.0
 11
8775.039
 21
17632.9363
 31
0.0
  0
LINE
  5
122
330
326
100
AcDbEntity
  8
YKK_N1
  6
ByBlock
100
AcDbLine
 10
8775.039
 20
17532.9363
 30
0.0
 11
8825.039
 21
17619.53884038
 31
0.0
  0
LINE
  5
123
330
326
100
AcDbEntity
  8
YKK_N1
  6
ByBlock
100
AcDbLine
 10
8435.039
 20
18232.9363
 30
0.0
 11
8805.039
 21
18232.9363
 31
0.0
  0
POINT
  5
124
330
326
100
AcDbEntity
  8
YKK_N1
  6
ByBlock
100
AcDbPoint
 10
8375.039
 20
18232.9363
 30
0.0
  0
LINE
  5
125
330
326
100
AcDbEntity
  8
YKK_N1
  6
ByBlock
100
AcDbLine
 10
8775.039
 20
18232.9363
 30
0.0
 11
8725.039
 21
18146.33375962
 31
0.0
  0
LINE
  5
126
330
326
100
AcDbEntity
  8
YKK_N1
  6
ByBlock
100
AcDbLine
 10
8725.039
 20
18146.33375962
 30
0.0
 11
8825.039
 21
18146.33375962
 31
0.0
  0
POINT
  5
127
330
326
100
AcDbEntity
  8
YKK_N1
  6
ByBlock
100
AcDbPoint
 10
8775.039
 20
18232.9363
 30
0.0
  0
LINE
  5
128
330
326
100
AcDbEntity
  8
YKK_N1
  6
ByBlock
100
AcDbLine
 10
8775.039
 20
18232.9363
 30
0.0
 11
8775.039
 21
18132.9363
 31
0.0
  0
LINE
  5
129
330
326
100
AcDbEntity
  8
YKK_N1
  6
ByBlock
100
AcDbLine
 10
8825.039
 20
18146.33375962
 30
0.0
 11
8775.039
 21
18232.9363
 31
0.0
  0
TEXT
  5
12A
330
326
100
AcDbEntity
  8
0
100
AcDbText
 10
8950.039
 20
19392.9363
 30
0.0
 40
200.0
  1
＊
  7
EXTFONT
100
AcDbText
  0
TEXT
  5
12B
330
326
100
AcDbEntity
  8
0
100
AcDbText
 10
9250.039
 20
19642.9363
 30
0.0
 40
200.0
  1
＊
  7
EXTFONT
100
AcDbText
  0
TEXT
  5
12C
330
326
100
AcDbEntity
  8
YKK_F1
100
AcDbText
 10
9670.039
 20
19642.9363
 30
0.0
 40
200.0
  1
箇所
  7
EXTFONT
100
AcDbText
  0
LINE
  5
12D
330
326
100
AcDbEntity
  8
YKK_A1
100
AcDbLine
 10
12567.539
 20
18232.9363
 30
0.0
 11
12482.539
 21
18232.9363
 31
0.0
  0
LINE
  5
12E
330
326
100
AcDbEntity
  8
YKK_N1
  6
ByBlock
100
AcDbLine
 10
12502.539
 20
17132.9363
 30
0.0
 11
12547.539
 21
17132.9363
 31
0.0
  0
LINE
  5
12F
330
326
100
AcDbEntity
  8
YKK_A1
100
AcDbLine
 10
12482.539
 20
17532.9363
 30
0.0
 11
12567.539
 21
17532.9363
 31
0.0
  0
LINE
  5
130
330
326
100
AcDbEntity
  8
YKK_A1
100
AcDbLine
 10
13582.539
 20
18247.9363
 30
0.0
 11
11467.539
 21
18247.9363
 31
0.0
  0
LINE
  5
131
330
326
100
AcDbEntity
  8
YKK_A1
100
AcDbLine
 10
11467.539
 20
17532.9363
 30
0.0
 11
13582.539
 21
17532.9363
 31
0.0
  0
LINE
  5
132
330
326
100
AcDbEntity
  8
YKK_A1
100
AcDbLine
 10
12482.539
 20
18232.9363
 30
0.0
 11
12482.539
 21
17532.9363
 31
0.0
  0
LINE
  5
133
330
326
100
AcDbEntity
  8
YKK_A1
100
AcDbLine
 10
12482.539
 20
17532.9363
 30
0.0
 11
12482.539
 21
18232.9363
 31
0.0
  0
LINE
  5
134
330
326
100
AcDbEntity
  8
YKK_A1
100
AcDbLine
 10
12482.539
 20
17532.9363
 30
0.0
 11
12482.539
 21
18232.9363
 31
0.0
  0
LINE
  5
135
330
326
100
AcDbEntity
  8
YKK_A1
100
AcDbLine
 10
11482.539
 20
18232.9363
 30
0.0
 11
11482.539
 21
17532.9363
 31
0.0
  0
LINE
  5
136
330
326
100
AcDbEntity
  8
YKK_A1
100
AcDbLine
 10
11482.539
 20
18232.9363
 30
0.0
 11
11482.539
 21
17532.9363
 31
0.0
  0
LINE
  5
137
330
326
100
AcDbEntity
  8
YKK_A1
100
AcDbLine
 10
11467.539
 20
18247.9363
 30
0.0
 11
11467.539
 21
17532.9363
 31
0.0
  0
TEXT
  5
138
330
326
100
AcDbEntity
  8
YKK_N1
100
AcDbText
 10
11887.68185714
 20
17142.9363
 30
0.0
 40
60.0
  1
1000
 41
0.8
  7
YKK_SGSTYLE1
100
AcDbText
  0
LINE
  5
139
330
326
100
AcDbEntity
  8
YKK_N1
  6
ByBlock
100
AcDbLine
 10
11502.539
 20
17132.9363
 30
0.0
 11
12462.539
 21
17132.9363
 31
0.0
  0
LINE
  5
13A
330
326
100
AcDbEntity
  8
YKK_A1
100
AcDbLine
 10
11482.539
 20
17532.9363
 30
0.0
 11
12482.539
 21
17532.9363
 31
0.0
  0
LINE
  5
13B
330
326
100
AcDbEntity
  8
YKK_A1
100
AcDbLine
 10
11482.539
 20
17532.9363
 30
0.0
 11
12482.539
 21
17532.9363
 31
0.0
  0
CIRCLE
  5
13C
330
326
100
AcDbEntity
  8
YKK_N1
100
AcDbCircle
 10
11482.539
 20
17132.9363
 30
0.0
 40
10.0
  0
CIRCLE
  5
13D
330
326
100
AcDbEntity
  8
YKK_N1
100
AcDbCircle
 10
11482.539
 20
17132.9363
 30
0.0
 40
6.5
  0
LINE
  5
13E
330
326
100
AcDbEntity
  8
YKK_N1
100
AcDbLine
 10
11482.539
 20
17132.9363
 30
0.0
 11
11502.539
 21
17132.9363
 31
0.0
  0
LINE
  5
13F
330
326
100
AcDbEntity
  8
YKK_N1
  6
ByBlock
100
AcDbLine
 10
11482.539
 20
17472.9363
 30
0.0
 11
11482.539
 21
17102.9363
 31
0.0
  0
POINT
  5
140
330
326
100
AcDbEntity
  8
YKK_N1
  6
ByBlock
100
AcDbPoint
 10
11482.539
 20
17532.9363
 30
0.0
  0
POINT
  5
141
330
326
100
AcDbEntity
  8
YKK_N1
  6
ByBlock
100
AcDbPoint
 10
11482.539
 20
17532.9363
 30
0.0
  0
POINT
  5
142
330
326
100
AcDbEntity
  8
YKK_N1
  6
ByBlock
100
AcDbPoint
 10
12482.539
 20
17132.9363
 30
0.0
  0
CIRCLE
  5
143
330
326
100
AcDbEntity
  8
YKK_N1
100
AcDbCircle
 10
12482.539
 20
17132.9363
 30
0.0
 40
10.0
  0
CIRCLE
  5
144
330
326
100
AcDbEntity
  8
YKK_N1
100
AcDbCircle
 10
12482.539
 20
17132.9363
 30
0.0
 40
6.5
  0
LINE
  5
145
330
326
100
AcDbEntity
  8
YKK_N1
100
AcDbLine
 10
12482.539
 20
17132.9363
 30
0.0
 11
12462.539
 21
17132.9363
 31
0.0
  0
CIRCLE
  5
146
330
326
100
AcDbEntity
  8
YKK_N1
100
AcDbCircle
 10
12482.539
 20
17132.9363
 30
0.0
 40
10.0
  0
CIRCLE
  5
147
330
326
100
AcDbEntity
  8
YKK_N1
100
AcDbCircle
 10
12482.539
 20
17132.9363
 30
0.0
 40
6.5
  0
LINE
  5
148
330
326
100
AcDbEntity
  8
YKK_N1
100
AcDbLine
 10
12482.539
 20
17132.9363
 30
0.0
 11
12502.539
 21
17132.9363
 31
0.0
  0
LINE
  5
149
330
326
100
AcDbEntity
  8
YKK_N1
  6
ByBlock
100
AcDbLine
 10
12482.539
 20
17472.9363
 30
0.0
 11
12482.539
 21
17102.9363
 31
0.0
  0
LINE
  5
14A
330
326
100
AcDbEntity
  8
YKK_N1
  6
ByBlock
100
AcDbLine
 10
12482.539
 20
17472.9363
 30
0.0
 11
12482.539
 21
17102.9363
 31
0.0
  0
TEXT
  5
14B
330
326
100
AcDbEntity
  8
YKK_A1
100
AcDbText
 10
12413.68185714
 20
17562.9363
 30
0.0
 40
60.0
  1
F
 41
0.8
  7
YKK_SGSTYLE1
 72
     2
 11
12452.539
 21
17562.9363
 31
0.0
100
AcDbText
  0
POINT
  5
14C
330
326
100
AcDbEntity
  8
YKK_N1
  6
ByBlock
100
AcDbPoint
 10
12482.539
 20
17532.9363
 30
0.0
  0
POINT
  5
14D
330
326
100
AcDbEntity
  8
YKK_N1
  6
ByBlock
100
AcDbPoint
 10
12482.539
 20
17532.9363
 30
0.0
  0
LINE
  5
14E
330
326
100
AcDbEntity
  8
YKK_A1
100
AcDbLine
 10
12482.539
 20
18232.9363
 30
0.0
 11
11482.539
 21
18232.9363
 31
0.0
  0
LINE
  5
14F
330
326
100
AcDbEntity
  8
YKK_A1
100
AcDbLine
 10
12482.539
 20
18232.9363
 30
0.0
 11
11482.539
 21
18232.9363
 31
0.0
  0
TEXT
  5
150
330
326
100
AcDbEntity
  8
0
100
AcDbText
 10
10300.039
 20
19392.9363
 30
0.0
 40
200.0
  1
＊
  7
EXTFONT
100
AcDbText
  0
LINE
  5
151
330
326
100
AcDbEntity
  8
YKK_F1
  6
Continuous
100
AcDbLine
 10
10366.70566667
 20
19867.9363
 30
0.0
 11
10833.37233333
 21
19867.9363
 31
0.0
  0
CIRCLE
  5
152
330
326
100
AcDbEntity
  8
YKK_F1
100
AcDbCircle
 10
10600.039
 20
19867.9363
 30
0.0
 40
233.3333333333333
  0
TEXT
  5
153
330
326
100
AcDbEntity
  8
0
100
AcDbText
 10
10500.039
 20
19867.9363
 30
0.0
 40
200.0
  1
＊
  7
EXTFONT
100
AcDbText
  0
TEXT
  5
154
330
326
100
AcDbEntity
  8
YKK_F1
100
AcDbText
 10
10440.039
 20
19667.9363
 30
0.0
 40
160.0
  1
ＡＷ
  7
EXTFONT
100
AcDbText
  0
LINE
  5
155
330
326
100
AcDbEntity
  8
YKK_N1
  6
ByBlock
100
AcDbLine
 10
13627.539
 20
18232.9363
 30
0.0
 11
13997.539
 21
18232.9363
 31
0.0
  0
LINE
  5
156
330
326
100
AcDbEntity
  8
YKK_N1
  6
ByBlock
100
AcDbLine
 10
13627.539
 20
17532.9363
 30
0.0
 11
13997.539
 21
17532.9363
 31
0.0
  0
LINE
  5
157
330
326
100
AcDbEntity
  8
YKK_A1
100
AcDbLine
 10
13567.539
 20
17532.9363
 30
0.0
 11
13567.539
 21
18232.9363
 31
0.0
  0
LINE
  5
158
330
326
100
AcDbEntity
  8
YKK_A1
100
AcDbLine
 10
13567.539
 20
17532.9363
 30
0.0
 11
13567.539
 21
18232.9363
 31
0.0
  0
LINE
  5
159
330
326
100
AcDbEntity
  8
YKK_A1
100
AcDbLine
 10
13582.539
 20
17532.9363
 30
0.0
 11
13582.539
 21
18247.9363
 31
0.0
  0
LINE
  5
15A
330
326
100
AcDbEntity
  8
YKK_A1
100
AcDbLine
 10
12567.539
 20
18232.9363
 30
0.0
 11
12567.539
 21
17532.9363
 31
0.0
  0
LINE
  5
15B
330
326
100
AcDbEntity
  8
YKK_A1
100
AcDbLine
 10
12567.539
 20
18232.9363
 30
0.0
 11
12567.539
 21
17532.9363
 31
0.0
  0
LINE
  5
15C
330
326
100
AcDbEntity
  8
YKK_A1
100
AcDbLine
 10
12567.539
 20
17532.9363
 30
0.0
 11
12567.539
 21
18232.9363
 31
0.0
  0
LINE
  5
15D
330
326
100
AcDbEntity
  8
YKK_N1
  6
ByBlock
100
AcDbLine
 10
12587.539
 20
17132.9363
 30
0.0
 11
13547.539
 21
17132.9363
 31
0.0
  0
TEXT
  5
15E
330
326
100
AcDbEntity
  8
YKK_N1
100
AcDbText
 10
12972.68185714
 20
17142.9363
 30
0.0
 40
60.0
  1
1000
 41
0.8
  7
YKK_SGSTYLE1
100
AcDbText
  0
LINE
  5
15F
330
326
100
AcDbEntity
  8
YKK_A1
100
AcDbLine
 10
12567.539
 20
17532.9363
 30
0.0
 11
13567.539
 21
17532.9363
 31
0.0
  0
LINE
  5
160
330
326
100
AcDbEntity
  8
YKK_A1
100
AcDbLine
 10
12567.539
 20
17532.9363
 30
0.0
 11
13567.539
 21
17532.9363
 31
0.0
  0
LINE
  5
161
330
326
100
AcDbEntity
  8
YKK_N1
100
AcDbLine
 10
12567.539
 20
17132.9363
 30
0.0
 11
12547.539
 21
17132.9363
 31
0.0
  0
POINT
  5
162
330
326
100
AcDbEntity
  8
YKK_N1
  6
ByBlock
100
AcDbPoint
 10
12567.539
 20
17132.9363
 30
0.0
  0
CIRCLE
  5
163
330
326
100
AcDbEntity
  8
YKK_N1
100
AcDbCircle
 10
12567.539
 20
17132.9363
 30
0.0
 40
10.0
  0
CIRCLE
  5
164
330
326
100
AcDbEntity
  8
YKK_N1
100
AcDbCircle
 10
12567.539
 20
17132.9363
 30
0.0
 40
6.5
  0
LINE
  5
165
330
326
100
AcDbEntity
  8
YKK_N1
100
AcDbLine
 10
12567.539
 20
17132.9363
 30
0.0
 11
12587.539
 21
17132.9363
 31
0.0
  0
CIRCLE
  5
166
330
326
100
AcDbEntity
  8
YKK_N1
100
AcDbCircle
 10
12567.539
 20
17132.9363
 30
0.0
 40
10.0
  0
CIRCLE
  5
167
330
326
100
AcDbEntity
  8
YKK_N1
100
AcDbCircle
 10
12567.539
 20
17132.9363
 30
0.0
 40
6.5
  0
LINE
  5
168
330
326
100
AcDbEntity
  8
YKK_N1
  6
ByBlock
100
AcDbLine
 10
12567.539
 20
17472.9363
 30
0.0
 11
12567.539
 21
17102.9363
 31
0.0
  0
LINE
  5
169
330
326
100
AcDbEntity
  8
YKK_N1
  6
ByBlock
100
AcDbLine
 10
12567.539
 20
17472.9363
 30
0.0
 11
12567.539
 21
17102.9363
 31
0.0
  0
POINT
  5
16A
330
326
100
AcDbEntity
  8
YKK_N1
  6
ByBlock
100
AcDbPoint
 10
12567.539
 20
17532.9363
 30
0.0
  0
POINT
  5
16B
330
326
100
AcDbEntity
  8
YKK_N1
  6
ByBlock
100
AcDbPoint
 10
12567.539
 20
17532.9363
 30
0.0
  0
POINT
  5
16C
330
326
100
AcDbEntity
  8
YKK_N1
  6
ByBlock
100
AcDbPoint
 10
13567.539
 20
17132.9363
 30
0.0
  0
CIRCLE
  5
16D
330
326
100
AcDbEntity
  8
YKK_N1
100
AcDbCircle
 10
13567.539
 20
17132.9363
 30
0.0
 40
10.0
  0
CIRCLE
  5
16E
330
326
100
AcDbEntity
  8
YKK_N1
100
AcDbCircle
 10
13567.539
 20
17132.9363
 30
0.0
 40
6.5
  0
LINE
  5
16F
330
326
100
AcDbEntity
  8
YKK_N1
100
AcDbLine
 10
13567.539
 20
17132.9363
 30
0.0
 11
13547.539
 21
17132.9363
 31
0.0
  0
LINE
  5
170
330
326
100
AcDbEntity
  8
YKK_N1
  6
ByBlock
100
AcDbLine
 10
13567.539
 20
17472.9363
 30
0.0
 11
13567.539
 21
17102.9363
 31
0.0
  0
TEXT
  5
171
330
326
100
AcDbEntity
  8
YKK_A1
100
AcDbText
 10
13498.68185714
 20
17562.9363
 30
0.0
 40
60.0
  1
F
 41
0.8
  7
YKK_SGSTYLE1
 72
     2
 11
13537.539
 21
17562.9363
 31
0.0
100
AcDbText
  0
POINT
  5
172
330
326
100
AcDbEntity
  8
YKK_N1
  6
ByBlock
100
AcDbPoint
 10
13567.539
 20
17532.9363
 30
0.0
  0
POINT
  5
173
330
326
100
AcDbEntity
  8
YKK_N1
  6
ByBlock
100
AcDbPoint
 10
13567.539
 20
17532.9363
 30
0.0
  0
POINT
  5
174
330
326
100
AcDbEntity
  8
YKK_N1
  6
ByBlock
100
AcDbPoint
 10
13567.539
 20
17532.9363
 30
0.0
  0
LINE
  5
175
330
326
100
AcDbEntity
  8
YKK_A1
100
AcDbLine
 10
13567.539
 20
18232.9363
 30
0.0
 11
12567.539
 21
18232.9363
 31
0.0
  0
LINE
  5
176
330
326
100
AcDbEntity
  8
YKK_A1
100
AcDbLine
 10
13567.539
 20
18232.9363
 30
0.0
 11
12567.539
 21
18232.9363
 31
0.0
  0
POINT
  5
177
330
326
100
AcDbEntity
  8
YKK_N1
  6
ByBlock
100
AcDbPoint
 10
13567.539
 20
18232.9363
 30
0.0
  0
TEXT
  5
178
330
326
100
AcDbEntity
  8
YKK_N1
100
AcDbText
 10
13957.539
 20
17758.36487143
 30
0.0
 40
60.0
  1
H=700
 50
90.0
 41
0.8
  7
YKK_SGSTYLE1
100
AcDbText
  0
LINE
  5
179
330
326
100
AcDbEntity
  8
YKK_N1
  6
ByBlock
100
AcDbLine
 10
13967.539
 20
17533.9363
 30
0.0
 11
13967.539
 21
18231.9363
 31
0.0
  0
LINE
  5
17A
330
326
100
AcDbEntity
  8
YKK_N1
  6
ByBlock
100
AcDbLine
 10
14017.539
 20
17619.53884038
 30
0.0
 11
13917.539
 21
17619.53884038
 31
0.0
  0
LINE
  5
17B
330
326
100
AcDbEntity
  8
YKK_N1
  6
ByBlock
100
AcDbLine
 10
13967.539
 20
17532.9363
 30
0.0
 11
14017.539
 21
17619.53884038
 31
0.0
  0
LINE
  5
17C
330
326
100
AcDbEntity
  8
YKK_N1
  6
ByBlock
100
AcDbLine
 10
13917.539
 20
17619.53884038
 30
0.0
 11
13967.539
 21
17532.9363
 31
0.0
  0
LINE
  5
17D
330
326
100
AcDbEntity
  8
YKK_N1
  6
ByBlock
100
AcDbLine
 10
13967.539
 20
17532.9363
 30
0.0
 11
13967.539
 21
17632.9363
 31
0.0
  0
LINE
  5
17E
330
326
100
AcDbEntity
  8
YKK_N1
  6
ByBlock
100
AcDbLine
 10
13917.539
 20
18146.33375962
 30
0.0
 11
14017.539
 21
18146.33375962
 31
0.0
  0
LINE
  5
17F
330
326
100
AcDbEntity
  8
YKK_N1
  6
ByBlock
100
AcDbLine
 10
14017.539
 20
18146.33375962
 30
0.0
 11
13967.539
 21
18232.9363
 31
0.0
  0
LINE
  5
180
330
326
100
AcDbEntity
  8
YKK_N1
  6
ByBlock
100
AcDbLine
 10
13967.539
 20
18232.9363
 30
0.0
 11
13917.539
 21
18146.33375962
 31
0.0
  0
POINT
  5
181
330
326
100
AcDbEntity
  8
YKK_N1
  6
ByBlock
100
AcDbPoint
 10
13967.539
 20
18232.9363
 30
0.0
  0
LINE
  5
182
330
326
100
AcDbEntity
  8
YKK_N1
  6
ByBlock
100
AcDbLine
 10
13967.539
 20
18232.9363
 30
0.0
 11
13967.539
 21
18132.9363
 31
0.0
  0
TEXT
  5
183
330
326
100
AcDbEntity
  8
0
100
AcDbText
 10
13600.039
 20
19392.9363
 30
0.0
 40
200.0
  1
＊
  7
EXTFONT
100
AcDbText
  0
TEXT
  5
184
330
326
100
AcDbEntity
  8
0
100
AcDbText
 10
13900.039
 20
19642.9363
 30
0.0
 40
200.0
  1
＊
  7
EXTFONT
100
AcDbText
  0
TEXT
  5
185
330
326
100
AcDbEntity
  8
YKK_F1
100
AcDbText
 10
14320.039
 20
19642.9363
 30
0.0
 40
200.0
  1
箇所
  7
EXTFONT
100
AcDbText
  0
LINE
  5
186
330
326
100
AcDbEntity
  8
YKK_F1
  6
Continuous
100
AcDbLine
 10
28990.039
 20
700.94001
 30
0.0
 11
28990.039
 21
20287.219
 31
0.0
  0
LINE
  5
187
330
326
100
AcDbEntity
  8
YKK_F1
  6
Continuous
100
AcDbLine
 10
29027.821
 20
662.59406
 30
0.0
 11
29027.821
 21
20325.566
 31
0.0
  0
LINE
  5
188
330
326
100
AcDbEntity
  8
YKK_F1
  6
Continuous
100
AcDbLine
 10
29015.417
 20
675.00009
 30
0.0
 11
29015.417
 21
20312.594
 31
0.0
  0
LINE
  5
189
330
326
100
AcDbEntity
  8
YKK_F1
  6
Continuous
100
AcDbLine
 10
29002.445
 20
687.97002
 30
0.0
 11
29002.445
 21
20299.624
 31
0.0
  0
LINE
  5
18A
330
326
100
AcDbEntity
  8
YKK_F1
  6
Continuous
100
AcDbLine
 10
29040.229
 20
650.18799
 30
0.0
 11
29040.229
 21
20337.97
 31
0.0
  0
LINE
  5
18B
330
326
100
AcDbEntity
  8
YKK_F1
  6
Continuous
100
AcDbLine
 10
29190.79
 20
500.75202
 30
0.0
 11
29190.79
 21
20487.406
 31
0.0
  0
LINE
  5
18C
330
326
100
AcDbEntity
  8
YKK_F1
  6
Continuous
100
AcDbLine
 10
28800.039
 20
2252.9363
 30
0.0
 11
28800.039
 21
20117.9363
 31
0.0
  0
LINE
  5
18D
330
326
100
AcDbEntity
  8
YKK_F1
  6
Continuous
100
AcDbLine
 10
24150.039
 20
2252.9363
 30
0.0
 11
24150.039
 21
20117.9363
 31
0.0
  0
LINE
  5
18E
330
326
100
AcDbEntity
  8
YKK_F1
  6
Continuous
100
AcDbLine
 10
19500.039
 20
2252.9363
 30
0.0
 11
19500.039
 21
20117.9363
 31
0.0
  0
LINE
  5
18F
330
326
100
AcDbEntity
  8
YKK_F1
  6
Continuous
100
AcDbLine
 10
14850.039
 20
2252.9363
 30
0.0
 11
14850.039
 21
20117.9363
 31
0.0
  0
LINE
  5
190
330
326
100
AcDbEntity
  8
YKK_F1
100
AcDbLine
 10
29700.0
 20
0.0
 30
0.0
 11
29700.0
 21
21000.0
 31
0.0
  0
LINE
  5
191
330
326
100
AcDbEntity
  8
YKK_F1
  6
Continuous
100
AcDbLine
 10
21494.55
 20
1450.376
 30
0.0
 11
27990.79
 21
1450.376
 31
0.0
  0
TEXT
  5
192
330
326
100
AcDbEntity
  8
YKK_F1
100
AcDbText
 10
23686.75533333
 20
1600.376
 30
0.0
 40
200.0
  1
(仮称)○\U+00D7ビル新築工事
  7
EXTFONT
 72
     4
 11
24993.422
 21
1700.376
 31
0.0
100
AcDbText
  0
TEXT
  5
193
330
326
100
AcDbEntity
  8
YKK_F1
100
AcDbText
 10
23900.08866667
 20
975.376
 30
0.0
 40
200.0
  1
建具表－（ＢＳＳ７ＰＪ５１）
  7
EXTFONT
 72
     4
 11
25493.422
 21
1075.376
 31
0.0
100
AcDbText
  0
TEXT
  5
194
330
326
100
AcDbEntity
  8
0
100
AcDbText
 10
14950.039
 20
3777.9363
 30
0.0
 40
200.0
  1
＊
  7
EXTFONT
100
AcDbText
  0
TEXT
  5
195
330
326
100
AcDbEntity
  8
0
100
AcDbText
 10
19600.039
 20
3777.9363
 30
0.0
 40
200.0
  1
＊
  7
EXTFONT
100
AcDbText
  0
LINE
  5
196
330
326
100
AcDbEntity
  8
YKK_F1
  6
Continuous
100
AcDbLine
 10
21494.55
 20
1200.5641
 30
0.0
 11
18496.807
 21
1200.5641
 31
0.0
  0
LINE
  5
197
330
326
100
AcDbEntity
  8
YKK_F1
  6
Continuous
100
AcDbLine
 10
18496.807
 20
1949.4363
 30
0.0
 11
18496.807
 21
650.18799
 31
0.0
  0
TEXT
  5
198
330
326
100
AcDbEntity
  8
0
100
AcDbText
 10
14950.039
 20
3027.9363
 30
0.0
 40
200.0
  1
＊
  7
EXTFONT
100
AcDbText
  0
TEXT
  5
199
330
326
100
AcDbEntity
  8
0
100
AcDbText
 10
14950.039
 20
2527.9363
 30
0.0
 40
200.0
  1
＊
  7
EXTFONT
100
AcDbText
  0
TEXT
  5
19A
330
326
100
AcDbEntity
  8
0
100
AcDbText
 10
14950.039
 20
2277.9363
 30
0.0
 40
200.0
  1
＊
  7
EXTFONT
100
AcDbText
  0
TEXT
  5
19B
330
326
100
AcDbEntity
  8
0
100
AcDbText
 10
14950.039
 20
2777.9363
 30
0.0
 40
200.0
  1
＊
  7
EXTFONT
100
AcDbText
  0
TEXT
  5
19C
330
326
100
AcDbEntity
  8
0
100
AcDbText
 10
14950.039
 20
3277.9363
 30
0.0
 40
200.0
  1
＊
  7
EXTFONT
100
AcDbText
  0
TEXT
  5
19D
330
326
100
AcDbEntity
  8
0
100
AcDbText
 10
14950.039
 20
3527.9363
 30
0.0
 40
200.0
  1
＊
  7
EXTFONT
100
AcDbText
  0
TEXT
  5
19E
330
326
100
AcDbEntity
  8
YKK_F1
100
AcDbText
 10
18546.807
 20
1067.4437
 30
0.0
 40
100.0
  1
担当者
  7
EXTFONT
100
AcDbText
  0
TEXT
  5
19F
330
326
100
AcDbEntity
  8
YKK_F1
100
AcDbText
 10
18546.807
 20
1816.3159
 30
0.0
 40
100.0
  1
管理建築士
  7
EXTFONT
100
AcDbText
  0
LINE
  5
1A0
330
326
100
AcDbEntity
  8
YKK_F1
  6
Continuous
100
AcDbLine
 10
22993.422
 20
1949.4363
 30
0.0
 11
22993.422
 21
650.18799
 31
0.0
  0
LINE
  5
1A1
330
326
100
AcDbEntity
  8
YKK_F1
  6
Continuous
100
AcDbLine
 10
21494.55
 20
1949.4363
 30
0.0
 11
21494.55
 21
650.18799
 31
0.0
  0
TEXT
  5
1A2
330
326
100
AcDbEntity
  8
YKK_F1
100
AcDbText
 10
21544.55
 20
1816.3159
 30
0.0
 40
100.0
  1
設計No.
  7
EXTFONT
100
AcDbText
  0
TEXT
  5
1A3
330
326
100
AcDbEntity
  8
YKK_F1
100
AcDbText
 10
21544.55
 20
1317.2556
 30
0.0
 40
100.0
  1
縮尺
  7
EXTFONT
100
AcDbText
  0
TEXT
  5
1A4
330
326
100
AcDbEntity
  8
0
100
AcDbText
 10
19600.039
 20
3027.9363
 30
0.0
 40
200.0
  1
＊
  7
EXTFONT
100
AcDbText
  0
TEXT
  5
1A5
330
326
100
AcDbEntity
  8
0
100
AcDbText
 10
19600.039
 20
2527.9363
 30
0.0
 40
200.0
  1
＊
  7
EXTFONT
100
AcDbText
  0
TEXT
  5
1A6
330
326
100
AcDbEntity
  8
0
100
AcDbText
 10
19600.039
 20
2277.9363
 30
0.0
 40
200.0
  1
＊
  7
EXTFONT
100
AcDbText
  0
TEXT
  5
1A7
330
326
100
AcDbEntity
  8
0
100
AcDbText
 10
19600.039
 20
2777.9363
 30
0.0
 40
200.0
  1
＊
  7
EXTFONT
100
AcDbText
  0
TEXT
  5
1A8
330
326
100
AcDbEntity
  8
0
100
AcDbText
 10
19600.039
 20
3277.9363
 30
0.0
 40
200.0
  1
＊
  7
EXTFONT
100
AcDbText
  0
TEXT
  5
1A9
330
326
100
AcDbEntity
  8
0
100
AcDbText
 10
19600.039
 20
3527.9363
 30
0.0
 40
200.0
  1
＊
  7
EXTFONT
100
AcDbText
  0
LINE
  5
1AA
330
326
100
AcDbEntity
  8
YKK_F1
  6
Continuous
100
AcDbLine
 10
22594.174
 20
1351.128
 30
0.0
 11
21893.798
 21
800.75199
 31
0.0
  0
TEXT
  5
1AB
330
326
100
AcDbEntity
  8
YKK_F1
  6
Continuous
100
AcDbText
 10
21956.956
 20
1113.7219
 30
0.0
 40
150.0
  1
1
100
AcDbText
  0
TEXT
  5
1AC
330
326
100
AcDbEntity
  8
YKK_F1
  6
Continuous
100
AcDbText
 10
22493.83502704
 20
866.53895907
 30
0.0
 40
150.0
  1
50
100
AcDbText
  0
TEXT
  5
1AD
330
326
100
AcDbEntity
  8
YKK_F1
100
AcDbText
 10
23043.422
 20
1317.2556
 30
0.0
 40
100.0
  1
図面名
  7
EXTFONT
100
AcDbText
  0
TEXT
  5
1AE
330
326
100
AcDbEntity
  8
YKK_F1
100
AcDbText
 10
23043.422
 20
1816.3159
 30
0.0
 40
100.0
  1
名称
  7
EXTFONT
100
AcDbText
  0
TEXT
  5
1AF
330
326
100
AcDbEntity
  8
0
100
AcDbText
 10
14950.039
 20
4277.9363
 30
0.0
 40
200.0
  1
＊
  7
EXTFONT
100
AcDbText
  0
TEXT
  5
1B0
330
326
100
AcDbEntity
  8
0
100
AcDbText
 10
14950.039
 20
4027.9363
 30
0.0
 40
200.0
  1
＊
  7
EXTFONT
100
AcDbText
  0
TEXT
  5
1B1
330
326
100
AcDbEntity
  8
0
100
AcDbText
 10
14950.039
 20
8732.9363
 30
0.0
 40
200.0
  1
＊
  7
EXTFONT
100
AcDbText
  0
TEXT
  5
1B2
330
326
100
AcDbEntity
  8
0
100
AcDbText
 10
15150.039
 20
7957.9363
 30
0.0
 40
200.0
  1
＊
  7
EXTFONT
100
AcDbText
  0
CIRCLE
  5
1B3
330
326
100
AcDbEntity
  8
YKK_F1
100
AcDbCircle
 10
15250.039
 20
7957.9363
 30
0.0
 40
233.3333333333333
  0
LINE
  5
1B4
330
326
100
AcDbEntity
  8
YKK_F1
  6
Continuous
100
AcDbLine
 10
15016.70566667
 20
7957.9363
 30
0.0
 11
15483.37233333
 21
7957.9363
 31
0.0
  0
TEXT
  5
1B5
330
326
100
AcDbEntity
  8
0
100
AcDbText
 10
14950.039
 20
7482.9363
 30
0.0
 40
200.0
  1
＊
  7
EXTFONT
100
AcDbText
  0
TEXT
  5
1B6
330
326
100
AcDbEntity
  8
YKK_F1
100
AcDbText
 10
15090.039
 20
7757.9363
 30
0.0
 40
160.0
  1
ＡＷ
  7
EXTFONT
100
AcDbText
  0
TEXT
  5
1B7
330
326
100
AcDbEntity
  8
0
100
AcDbText
 10
14950.039
 20
8232.9363
 30
0.0
 40
200.0
  1
＊
  7
EXTFONT
100
AcDbText
  0
TEXT
  5
1B8
330
326
100
AcDbEntity
  8
0
100
AcDbText
 10
14950.039
 20
8482.9363
 30
0.0
 40
200.0
  1
＊
  7
EXTFONT
100
AcDbText
  0
TEXT
  5
1B9
330
326
100
AcDbEntity
  8
0
100
AcDbText
 10
14950.039
 20
8982.9363
 30
0.0
 40
200.0
  1
＊
  7
EXTFONT
100
AcDbText
  0
TEXT
  5
1BA
330
326
100
AcDbEntity
  8
0
100
AcDbText
 10
14950.039
 20
9482.9363
 30
0.0
 40
200.0
  1
＊
  7
EXTFONT
100
AcDbText
  0
TEXT
  5
1BB
330
326
100
AcDbEntity
  8
0
100
AcDbText
 10
14950.039
 20
9232.9363
 30
0.0
 40
200.0
  1
＊
  7
EXTFONT
100
AcDbText
  0
TEXT
  5
1BC
330
326
100
AcDbEntity
  8
0
100
AcDbText
 10
14950.039
 20
9982.9363
 30
0.0
 40
200.0
  1
＊
  7
EXTFONT
100
AcDbText
  0
TEXT
  5
1BD
330
326
100
AcDbEntity
  8
0
100
AcDbText
 10
14950.039
 20
9732.9363
 30
0.0
 40
200.0
  1
＊
  7
EXTFONT
100
AcDbText
  0
TEXT
  5
1BE
330
326
100
AcDbEntity
  8
0
100
AcDbText
 10
14950.039
 20
10232.9363
 30
0.0
 40
200.0
  1
＊
  7
EXTFONT
100
AcDbText
  0
TEXT
  5
1BF
330
326
100
AcDbEntity
  8
0
100
AcDbText
 10
18250.039
 20
7482.9363
 30
0.0
 40
200.0
  1
＊
  7
EXTFONT
100
AcDbText
  0
TEXT
  5
1C0
330
326
100
AcDbEntity
  8
0
100
AcDbText
 10
18550.039
 20
7732.9363
 30
0.0
 40
200.0
  1
＊
  7
EXTFONT
100
AcDbText
  0
TEXT
  5
1C1
330
326
100
AcDbEntity
  8
YKK_F1
100
AcDbText
 10
18970.039
 20
7732.9363
 30
0.0
 40
200.0
  1
箇所
  7
EXTFONT
100
AcDbText
  0
TEXT
  5
1C2
330
326
100
AcDbEntity
  8
0
100
AcDbText
 10
19600.039
 20
4277.9363
 30
0.0
 40
200.0
  1
＊
  7
EXTFONT
100
AcDbText
  0
TEXT
  5
1C3
330
326
100
AcDbEntity
  8
0
100
AcDbText
 10
19600.039
 20
4027.9363
 30
0.0
 40
200.0
  1
＊
  7
EXTFONT
100
AcDbText
  0
TEXT
  5
1C4
330
326
100
AcDbEntity
  8
0
100
AcDbText
 10
19600.039
 20
8732.9363
 30
0.0
 40
200.0
  1
＊
  7
EXTFONT
100
AcDbText
  0
TEXT
  5
1C5
330
326
100
AcDbEntity
  8
0
100
AcDbText
 10
19800.039
 20
7957.9363
 30
0.0
 40
200.0
  1
＊
  7
EXTFONT
100
AcDbText
  0
CIRCLE
  5
1C6
330
326
100
AcDbEntity
  8
YKK_F1
100
AcDbCircle
 10
19900.039
 20
7957.9363
 30
0.0
 40
233.3333333333333
  0
LINE
  5
1C7
330
326
100
AcDbEntity
  8
YKK_F1
  6
Continuous
100
AcDbLine
 10
19666.70566667
 20
7957.9363
 30
0.0
 11
20133.37233333
 21
7957.9363
 31
0.0
  0
TEXT
  5
1C8
330
326
100
AcDbEntity
  8
0
100
AcDbText
 10
19600.039
 20
7482.9363
 30
0.0
 40
200.0
  1
＊
  7
EXTFONT
100
AcDbText
  0
TEXT
  5
1C9
330
326
100
AcDbEntity
  8
YKK_F1
100
AcDbText
 10
19740.039
 20
7757.9363
 30
0.0
 40
160.0
  1
ＡＷ
  7
EXTFONT
100
AcDbText
  0
TEXT
  5
1CA
330
326
100
AcDbEntity
  8
0
100
AcDbText
 10
19600.039
 20
8232.9363
 30
0.0
 40
200.0
  1
＊
  7
EXTFONT
100
AcDbText
  0
TEXT
  5
1CB
330
326
100
AcDbEntity
  8
0
100
AcDbText
 10
19600.039
 20
8482.9363
 30
0.0
 40
200.0
  1
＊
  7
EXTFONT
100
AcDbText
  0
TEXT
  5
1CC
330
326
100
AcDbEntity
  8
0
100
AcDbText
 10
19600.039
 20
8982.9363
 30
0.0
 40
200.0
  1
＊
  7
EXTFONT
100
AcDbText
  0
TEXT
  5
1CD
330
326
100
AcDbEntity
  8
0
100
AcDbText
 10
19600.039
 20
9482.9363
 30
0.0
 40
200.0
  1
＊
  7
EXTFONT
100
AcDbText
  0
TEXT
  5
1CE
330
326
100
AcDbEntity
  8
0
100
AcDbText
 10
19600.039
 20
9232.9363
 30
0.0
 40
200.0
  1
＊
  7
EXTFONT
100
AcDbText
  0
TEXT
  5
1CF
330
326
100
AcDbEntity
  8
0
100
AcDbText
 10
19600.039
 20
9982.9363
 30
0.0
 40
200.0
  1
＊
  7
EXTFONT
100
AcDbText
  0
TEXT
  5
1D0
330
326
100
AcDbEntity
  8
0
100
AcDbText
 10
19600.039
 20
9732.9363
 30
0.0
 40
200.0
  1
＊
  7
EXTFONT
100
AcDbText
  0
TEXT
  5
1D1
330
326
100
AcDbEntity
  8
0
100
AcDbText
 10
19600.039
 20
10232.9363
 30
0.0
 40
200.0
  1
＊
  7
EXTFONT
100
AcDbText
  0
TEXT
  5
1D2
330
326
100
AcDbEntity
  8
0
100
AcDbText
 10
22900.039
 20
7482.9363
 30
0.0
 40
200.0
  1
＊
  7
EXTFONT
100
AcDbText
  0
TEXT
  5
1D3
330
326
100
AcDbEntity
  8
0
100
AcDbText
 10
23200.039
 20
7732.9363
 30
0.0
 40
200.0
  1
＊
  7
EXTFONT
100
AcDbText
  0
TEXT
  5
1D4
330
326
100
AcDbEntity
  8
YKK_F1
100
AcDbText
 10
23620.039
 20
7732.9363
 30
0.0
 40
200.0
  1
箇所
  7
EXTFONT
100
AcDbText
  0
TEXT
  5
1D5
330
326
100
AcDbEntity
  8
0
100
AcDbText
 10
24250.039
 20
3777.9363
 30
0.0
 40
200.0
  1
＊
  7
EXTFONT
100
AcDbText
  0
LINE
  5
1D6
330
326
100
AcDbEntity
  8
YKK_F1
  6
Continuous
100
AcDbLine
 10
28890.228
 20
1651.1279
 30
0.0
 11
28090.604
 21
1001.504
 31
0.0
  0
TEXT
  5
1D7
330
326
100
AcDbEntity
  8
YKK_F1
100
AcDbText
 10
28617.37641269
 20
751.11699243
 30
0.0
 40
100.0
  1
枚の内
  7
EXTFONT
100
AcDbText
  0
LINE
  5
1D8
330
326
100
AcDbEntity
  8
YKK_F1
  6
Continuous
100
AcDbLine
 10
27990.79
 20
1949.4363
 30
0.0
 11
27990.79
 21
650.18799
 31
0.0
  0
TEXT
  5
1D9
330
326
100
AcDbEntity
  8
0
100
AcDbText
 10
24250.039
 20
3027.9363
 30
0.0
 40
200.0
  1
＊
  7
EXTFONT
100
AcDbText
  0
TEXT
  5
1DA
330
326
100
AcDbEntity
  8
0
100
AcDbText
 10
24250.039
 20
2277.9363
 30
0.0
 40
200.0
  1
＊
  7
EXTFONT
100
AcDbText
  0
TEXT
  5
1DB
330
326
100
AcDbEntity
  8
0
100
AcDbText
 10
24250.039
 20
2527.9363
 30
0.0
 40
200.0
  1
＊
  7
EXTFONT
100
AcDbText
  0
TEXT
  5
1DC
330
326
100
AcDbEntity
  8
0
100
AcDbText
 10
24250.039
 20
2777.9363
 30
0.0
 40
200.0
  1
＊
  7
EXTFONT
100
AcDbText
  0
TEXT
  5
1DD
330
326
100
AcDbEntity
  8
0
100
AcDbText
 10
24250.039
 20
3277.9363
 30
0.0
 40
200.0
  1
＊
  7
EXTFONT
100
AcDbText
  0
TEXT
  5
1DE
330
326
100
AcDbEntity
  8
0
100
AcDbText
 10
24250.039
 20
3527.9363
 30
0.0
 40
200.0
  1
＊
  7
EXTFONT
100
AcDbText
  0
TEXT
  5
1DF
330
326
100
AcDbEntity
  8
YKK_F1
100
AcDbText
 10
26990.79
 20
1625.376
 30
0.0
 40
150.0
  1
工事設計図
  7
EXTFONT
100
AcDbText
  0
TEXT
  5
1E0
330
326
100
AcDbEntity
  8
YKK_F1
100
AcDbText
 10
28040.79
 20
1816.3159
 30
0.0
 40
100.0
  1
図面No.
  7
EXTFONT
100
AcDbText
  0
TEXT
  5
1E1
330
326
100
AcDbEntity
  8
0
100
AcDbText
 10
24250.039
 20
4277.9363
 30
0.0
 40
200.0
  1
＊
  7
EXTFONT
100
AcDbText
  0
TEXT
  5
1E2
330
326
100
AcDbEntity
  8
0
100
AcDbText
 10
24250.039
 20
4027.9363
 30
0.0
 40
200.0
  1
＊
  7
EXTFONT
100
AcDbText
  0
TEXT
  5
1E3
330
326
100
AcDbEntity
  8
0
100
AcDbText
 10
24250.039
 20
8732.9363
 30
0.0
 40
200.0
  1
＊
  7
EXTFONT
100
AcDbText
  0
CIRCLE
  5
1E4
330
326
100
AcDbEntity
  8
YKK_F1
100
AcDbCircle
 10
24550.039
 20
7957.9363
 30
0.0
 40
233.3333333333333
  0
TEXT
  5
1E5
330
326
100
AcDbEntity
  8
0
100
AcDbText
 10
24450.039
 20
7957.9363
 30
0.0
 40
200.0
  1
＊
  7
EXTFONT
100
AcDbText
  0
LINE
  5
1E6
330
326
100
AcDbEntity
  8
YKK_F1
  6
Continuous
100
AcDbLine
 10
24316.70566667
 20
7957.9363
 30
0.0
 11
24783.37233333
 21
7957.9363
 31
0.0
  0
TEXT
  5
1E7
330
326
100
AcDbEntity
  8
YKK_F1
100
AcDbText
 10
24390.039
 20
7757.9363
 30
0.0
 40
160.0
  1
ＡＷ
  7
EXTFONT
100
AcDbText
  0
TEXT
  5
1E8
330
326
100
AcDbEntity
  8
0
100
AcDbText
 10
24250.039
 20
7482.9363
 30
0.0
 40
200.0
  1
＊
  7
EXTFONT
100
AcDbText
  0
TEXT
  5
1E9
330
326
100
AcDbEntity
  8
0
100
AcDbText
 10
24250.039
 20
8232.9363
 30
0.0
 40
200.0
  1
＊
  7
EXTFONT
100
AcDbText
  0
TEXT
  5
1EA
330
326
100
AcDbEntity
  8
0
100
AcDbText
 10
24250.039
 20
8482.9363
 30
0.0
 40
200.0
  1
＊
  7
EXTFONT
100
AcDbText
  0
TEXT
  5
1EB
330
326
100
AcDbEntity
  8
0
100
AcDbText
 10
24250.039
 20
8982.9363
 30
0.0
 40
200.0
  1
＊
  7
EXTFONT
100
AcDbText
  0
TEXT
  5
1EC
330
326
100
AcDbEntity
  8
0
100
AcDbText
 10
24250.039
 20
9482.9363
 30
0.0
 40
200.0
  1
＊
  7
EXTFONT
100
AcDbText
  0
TEXT
  5
1ED
330
326
100
AcDbEntity
  8
0
100
AcDbText
 10
24250.039
 20
9232.9363
 30
0.0
 40
200.0
  1
＊
  7
EXTFONT
100
AcDbText
  0
TEXT
  5
1EE
330
326
100
AcDbEntity
  8
0
100
AcDbText
 10
24250.039
 20
9982.9363
 30
0.0
 40
200.0
  1
＊
  7
EXTFONT
100
AcDbText
  0
TEXT
  5
1EF
330
326
100
AcDbEntity
  8
0
100
AcDbText
 10
24250.039
 20
9732.9363
 30
0.0
 40
200.0
  1
＊
  7
EXTFONT
100
AcDbText
  0
TEXT
  5
1F0
330
326
100
AcDbEntity
  8
0
100
AcDbText
 10
24250.039
 20
10232.9363
 30
0.0
 40
200.0
  1
＊
  7
EXTFONT
100
AcDbText
  0
TEXT
  5
1F1
330
326
100
AcDbEntity
  8
0
100
AcDbText
 10
27550.039
 20
7482.9363
 30
0.0
 40
200.0
  1
＊
  7
EXTFONT
100
AcDbText
  0
TEXT
  5
1F2
330
326
100
AcDbEntity
  8
0
100
AcDbText
 10
27850.039
 20
7732.9363
 30
0.0
 40
200.0
  1
＊
  7
EXTFONT
100
AcDbText
  0
TEXT
  5
1F3
330
326
100
AcDbEntity
  8
YKK_F1
100
AcDbText
 10
28270.039
 20
7732.9363
 30
0.0
 40
200.0
  1
箇所
  7
EXTFONT
100
AcDbText
  0
LINE
  5
1F4
330
326
100
AcDbEntity
  8
YKK_N1
  6
ByBlock
100
AcDbLine
 10
22867.539
 20
17472.9363
 30
0.0
 11
22867.539
 21
16902.9363
 31
0.0
  0
TEXT
  5
1F5
330
326
100
AcDbEntity
  8
YKK_N1
100
AcDbText
 10
21779.32471429
 20
17035.4363
 30
0.0
 40
60.0
  1
85
 41
0.8
  7
YKK_SGSTYLE1
100
AcDbText
  0
LINE
  5
1F6
330
326
100
AcDbEntity
  8
YKK_N1
  6
ByBlock
100
AcDbLine
 10
20782.539
 20
17472.9363
 30
0.0
 11
20782.539
 21
16902.9363
 31
0.0
  0
TEXT
  5
1F7
330
326
100
AcDbEntity
  8
0
100
AcDbText
 10
18550.039
 20
13687.9363
 30
0.0
 40
200.0
  1
＊
  7
EXTFONT
100
AcDbText
  0
CIRCLE
  5
1F8
330
326
100
AcDbEntity
  8
YKK_F1
100
AcDbCircle
 10
15250.039
 20
13912.9363
 30
0.0
 40
233.3333333333333
  0
TEXT
  5
1F9
330
326
100
AcDbEntity
  8
YKK_F1
100
AcDbText
 10
15090.039
 20
13712.9363
 30
0.0
 40
160.0
  1
ＡＷ
  7
EXTFONT
100
AcDbText
  0
TEXT
  5
1FA
330
326
100
AcDbEntity
  8
YKK_F1
100
AcDbText
 10
18970.039
 20
13687.9363
 30
0.0
 40
200.0
  1
箇所
  7
EXTFONT
100
AcDbText
  0
TEXT
  5
1FB
330
326
100
AcDbEntity
  8
0
100
AcDbText
 10
14950.039
 20
13437.9363
 30
0.0
 40
200.0
  1
＊
  7
EXTFONT
100
AcDbText
  0
TEXT
  5
1FC
330
326
100
AcDbEntity
  8
0
100
AcDbText
 10
18250.039
 20
13437.9363
 30
0.0
 40
200.0
  1
＊
  7
EXTFONT
100
AcDbText
  0
TEXT
  5
1FD
330
326
100
AcDbEntity
  8
0
100
AcDbText
 10
14950.039
 20
16187.9363
 30
0.0
 40
200.0
  1
開閉換気口付はめ殺し窓
  7
EXTFONT
100
AcDbText
  0
TEXT
  5
1FE
330
326
100
AcDbEntity
  8
0
100
AcDbText
 10
14950.039
 20
14937.9363
 30
0.0
 40
200.0
  1
換気ブレス・防虫フィルタ・結露排水弁
  7
EXTFONT
100
AcDbText
  0
TEXT
  5
1FF
330
326
100
AcDbEntity
  8
0
100
AcDbText
 10
14950.039
 20
14187.9363
 30
0.0
 40
200.0
  1
YKKAP　ＳＹＳＴＥＭＡ７１０同等品
  7
EXTFONT
100
AcDbText
  0
TEXT
  5
200
330
326
100
AcDbEntity
  8
0
100
AcDbText
 10
14950.039
 20
15937.9363
 30
0.0
 40
200.0
  1
W＝1,000　H＝700  見込125
  7
EXTFONT
100
AcDbText
  0
TEXT
  5
201
330
326
100
AcDbEntity
  8
0
100
AcDbText
 10
14950.039
 20
15437.9363
 30
0.0
 40
200.0
  1
シルバー･ｶﾗｰ(ブロンズ､ステン､ブラック)
  7
EXTFONT
100
AcDbText
  0
TEXT
  5
202
330
326
100
AcDbEntity
  8
0
100
AcDbText
 10
14950.039
 20
14687.9363
 30
0.0
 40
200.0
  1
アングル・膳板
  7
EXTFONT
100
AcDbText
  0
LINE
  5
203
330
326
100
AcDbEntity
  8
YKK_F1
  6
Continuous
100
AcDbLine
 10
15016.70566667
 20
13912.9363
 30
0.0
 11
15483.37233333
 21
13912.9363
 31
0.0
  0
TEXT
  5
204
330
326
100
AcDbEntity
  8
0
100
AcDbText
 10
15150.039
 20
13912.9363
 30
0.0
 40
200.0
  1
＊
  7
EXTFONT
100
AcDbText
  0
TEXT
  5
205
330
326
100
AcDbEntity
  8
0
100
AcDbText
 10
14950.039
 20
14437.9363
 30
0.0
 40
200.0
  1
＊
  7
EXTFONT
100
AcDbText
  0
TEXT
  5
206
330
326
100
AcDbEntity
  8
0
100
AcDbText
 10
14950.039
 20
15187.9363
 30
0.0
 40
200.0
  1
FL・透明
  7
EXTFONT
100
AcDbText
  0
TEXT
  5
207
330
326
100
AcDbEntity
  8
0
100
AcDbText
 10
14950.039
 20
15687.9363
 30
0.0
 40
200.0
  1
アルミ製
  7
EXTFONT
100
AcDbText
  0
TEXT
  5
208
330
326
100
AcDbEntity
  8
0
100
AcDbText
 10
23200.039
 20
13687.9363
 30
0.0
 40
200.0
  1
＊
  7
EXTFONT
100
AcDbText
  0
CIRCLE
  5
209
330
326
100
AcDbEntity
  8
YKK_F1
100
AcDbCircle
 10
19900.039
 20
13912.9363
 30
0.0
 40
233.3333333333333
  0
TEXT
  5
20A
330
326
100
AcDbEntity
  8
YKK_F1
100
AcDbText
 10
19740.039
 20
13712.9363
 30
0.0
 40
160.0
  1
ＡＷ
  7
EXTFONT
100
AcDbText
  0
TEXT
  5
20B
330
326
100
AcDbEntity
  8
YKK_F1
100
AcDbText
 10
23620.039
 20
13687.9363
 30
0.0
 40
200.0
  1
箇所
  7
EXTFONT
100
AcDbText
  0
TEXT
  5
20C
330
326
100
AcDbEntity
  8
0
100
AcDbText
 10
19600.039
 20
13437.9363
 30
0.0
 40
200.0
  1
＊
  7
EXTFONT
100
AcDbText
  0
TEXT
  5
20D
330
326
100
AcDbEntity
  8
0
100
AcDbText
 10
22900.039
 20
13437.9363
 30
0.0
 40
200.0
  1
＊
  7
EXTFONT
100
AcDbText
  0
TEXT
  5
20E
330
326
100
AcDbEntity
  8
YKK_N1
100
AcDbText
 10
21677.61042857
 20
16942.9363
 30
0.0
 40
60.0
  1
W=2085
 41
0.8
  7
YKK_SGSTYLE1
100
AcDbText
  0
LINE
  5
20F
330
326
100
AcDbEntity
  8
YKK_N1
  6
ByBlock
100
AcDbLine
 10
20783.539
 20
16932.9363
 30
0.0
 11
22866.539
 21
16932.9363
 31
0.0
  0
TEXT
  5
210
330
326
100
AcDbEntity
  8
0
100
AcDbText
 10
19600.039
 20
15937.9363
 30
0.0
 40
200.0
  1
W＝2,085　H＝700  見込125
  7
EXTFONT
100
AcDbText
  0
TEXT
  5
211
330
326
100
AcDbEntity
  8
0
100
AcDbText
 10
19600.039
 20
16187.9363
 30
0.0
 40
180.0
  1
開閉換気口付はめ殺し窓、はめ殺し縦骨連窓
  7
EXTFONT
100
AcDbText
  0
TEXT
  5
212
330
326
100
AcDbEntity
  8
0
100
AcDbText
 10
19600.039
 20
15437.9363
 30
0.0
 40
200.0
  1
シルバー･ｶﾗｰ(ブロンズ､ステン､ブラック)
  7
EXTFONT
100
AcDbText
  0
TEXT
  5
213
330
326
100
AcDbEntity
  8
0
100
AcDbText
 10
19600.039
 20
14187.9363
 30
0.0
 40
200.0
  1
YKKAP　ＳＹＳＴＥＭＡ７１０同等品
  7
EXTFONT
100
AcDbText
  0
TEXT
  5
214
330
326
100
AcDbEntity
  8
0
100
AcDbText
 10
19600.039
 20
14937.9363
 30
0.0
 40
200.0
  1
換気ブレス・防虫フィルタ・結露排水弁
  7
EXTFONT
100
AcDbText
  0
TEXT
  5
215
330
326
100
AcDbEntity
  8
0
100
AcDbText
 10
19600.039
 20
15187.9363
 30
0.0
 40
200.0
  1
FL・透明
  7
EXTFONT
100
AcDbText
  0
TEXT
  5
216
330
326
100
AcDbEntity
  8
0
100
AcDbText
 10
19600.039
 20
14687.9363
 30
0.0
 40
200.0
  1
アングル・膳板
  7
EXTFONT
100
AcDbText
  0
LINE
  5
217
330
326
100
AcDbEntity
  8
YKK_F1
  6
Continuous
100
AcDbLine
 10
19666.70566667
 20
13912.9363
 30
0.0
 11
20133.37233333
 21
13912.9363
 31
0.0
  0
TEXT
  5
218
330
326
100
AcDbEntity
  8
0
100
AcDbText
 10
19800.039
 20
13912.9363
 30
0.0
 40
200.0
  1
＊
  7
EXTFONT
100
AcDbText
  0
TEXT
  5
219
330
326
100
AcDbEntity
  8
0
100
AcDbText
 10
19600.039
 20
14437.9363
 30
0.0
 40
200.0
  1
＊
  7
EXTFONT
100
AcDbText
  0
TEXT
  5
21A
330
326
100
AcDbEntity
  8
0
100
AcDbText
 10
19600.039
 20
15687.9363
 30
0.0
 40
200.0
  1
アルミ製
  7
EXTFONT
100
AcDbText
  0
LINE
  5
21B
330
326
100
AcDbEntity
  8
YKK_N1
  6
ByBlock
100
AcDbLine
 10
20869.14154038
 20
16982.9363
 30
0.0
 11
20782.539
 21
16932.9363
 31
0.0
  0
LINE
  5
21C
330
326
100
AcDbEntity
  8
YKK_N1
  6
ByBlock
100
AcDbLine
 10
20782.539
 20
16932.9363
 30
0.0
 11
20882.539
 21
16932.9363
 31
0.0
  0
LINE
  5
21D
330
326
100
AcDbEntity
  8
YKK_N1
  6
ByBlock
100
AcDbLine
 10
20869.14154038
 20
16882.9363
 30
0.0
 11
20869.14154038
 21
16982.9363
 31
0.0
  0
LINE
  5
21E
330
326
100
AcDbEntity
  8
YKK_N1
  6
ByBlock
100
AcDbLine
 10
20782.539
 20
16932.9363
 30
0.0
 11
20869.14154038
 21
16882.9363
 31
0.0
  0
LINE
  5
21F
330
326
100
AcDbEntity
  8
YKK_N1
  6
ByBlock
100
AcDbLine
 10
22867.539
 20
16932.9363
 30
0.0
 11
22767.539
 21
16932.9363
 31
0.0
  0
POINT
  5
220
330
326
100
AcDbEntity
  8
YKK_N1
  6
ByBlock
100
AcDbPoint
 10
22867.539
 20
16932.9363
 30
0.0
  0
LINE
  5
221
330
326
100
AcDbEntity
  8
YKK_N1
  6
ByBlock
100
AcDbLine
 10
22867.539
 20
16932.9363
 30
0.0
 11
22780.93645962
 21
16982.9363
 31
0.0
  0
LINE
  5
222
330
326
100
AcDbEntity
  8
YKK_N1
  6
ByBlock
100
AcDbLine
 10
22780.93645962
 20
16982.9363
 30
0.0
 11
22780.93645962
 21
16882.9363
 31
0.0
  0
LINE
  5
223
330
326
100
AcDbEntity
  8
YKK_N1
  6
ByBlock
100
AcDbLine
 10
22780.93645962
 20
16882.9363
 30
0.0
 11
22867.539
 21
16932.9363
 31
0.0
  0
TEXT
  5
224
330
326
100
AcDbEntity
  8
YKK_N1
100
AcDbText
 10
17027.61042857
 20
17142.9363
 30
0.0
 40
60.0
  1
W=1000
 41
0.8
  7
YKK_SGSTYLE1
100
AcDbText
  0
LINE
  5
225
330
326
100
AcDbEntity
  8
YKK_A1
100
AcDbLine
 10
17575.039
 20
17537.9363
 30
0.0
 11
16775.039
 21
17537.9363
 31
0.0
  0
LINE
  5
226
330
326
100
AcDbEntity
  8
YKK_N1
  6
ByBlock
100
AcDbLine
 10
16676.039
 20
17132.9363
 30
0.0
 11
17674.039
 21
17132.9363
 31
0.0
  0
LINE
  5
227
330
326
100
AcDbEntity
  8
YKK_A1
100
AcDbLine
 10
17675.039
 20
18232.9363
 30
0.0
 11
16675.039
 21
18232.9363
 31
0.0
  0
LINE
  5
228
330
326
100
AcDbEntity
  8
YKK_A1
100
AcDbLine
 10
16675.039
 20
17532.9363
 30
0.0
 11
17675.039
 21
17532.9363
 31
0.0
  0
LINE
  5
229
330
326
100
AcDbEntity
  8
YKK_A1
100
AcDbLine
 10
17675.039
 20
18232.9363
 30
0.0
 11
16675.039
 21
18232.9363
 31
0.0
  0
LINE
  5
22A
330
326
100
AcDbEntity
  8
YKK_A1
100
AcDbLine
 10
16675.039
 20
17532.9363
 30
0.0
 11
17675.039
 21
17532.9363
 31
0.0
  0
LINE
  5
22B
330
326
100
AcDbEntity
  8
YKK_A1
100
AcDbLine
 10
17690.039
 20
18247.9363
 30
0.0
 11
16660.039
 21
18247.9363
 31
0.0
  0
LINE
  5
22C
330
326
100
AcDbEntity
  8
YKK_A1
100
AcDbLine
 10
16660.039
 20
17532.9363
 30
0.0
 11
17690.039
 21
17532.9363
 31
0.0
  0
LINE
  5
22D
330
326
100
AcDbEntity
  8
YKK_A1
100
AcDbLine
 10
16675.039
 20
18232.9363
 30
0.0
 11
16675.039
 21
17532.9363
 31
0.0
  0
LINE
  5
22E
330
326
100
AcDbEntity
  8
YKK_A1
100
AcDbLine
 10
16675.039
 20
18232.9363
 30
0.0
 11
16675.039
 21
17532.9363
 31
0.0
  0
LINE
  5
22F
330
326
100
AcDbEntity
  8
YKK_A1
100
AcDbLine
 10
16660.039
 20
18247.9363
 30
0.0
 11
16660.039
 21
17532.9363
 31
0.0
  0
LINE
  5
230
330
326
100
AcDbEntity
  8
YKK_N1
  6
ByBlock
100
AcDbLine
 10
16761.64154038
 20
17082.9363
 30
0.0
 11
16761.64154038
 21
17182.9363
 31
0.0
  0
LINE
  5
231
330
326
100
AcDbEntity
  8
YKK_N1
  6
ByBlock
100
AcDbLine
 10
16675.039
 20
17472.9363
 30
0.0
 11
16675.039
 21
17102.9363
 31
0.0
  0
LINE
  5
232
330
326
100
AcDbEntity
  8
YKK_N1
  6
ByBlock
100
AcDbLine
 10
16675.039
 20
17132.9363
 30
0.0
 11
16775.039
 21
17132.9363
 31
0.0
  0
LINE
  5
233
330
326
100
AcDbEntity
  8
YKK_N1
  6
ByBlock
100
AcDbLine
 10
16675.039
 20
17132.9363
 30
0.0
 11
16761.64154038
 21
17082.9363
 31
0.0
  0
LINE
  5
234
330
326
100
AcDbEntity
  8
YKK_N1
  6
ByBlock
100
AcDbLine
 10
16761.64154038
 20
17182.9363
 30
0.0
 11
16675.039
 21
17132.9363
 31
0.0
  0
LINE
  5
235
330
326
100
AcDbEntity
  8
YKK_A1
100
AcDbLine
 10
16775.039
 20
17537.9363
 30
0.0
 11
16775.039
 21
17532.9363
 31
0.0
  0
POINT
  5
236
330
326
100
AcDbEntity
  8
YKK_N1
  6
ByBlock
100
AcDbPoint
 10
16675.039
 20
17532.9363
 30
0.0
  0
TEXT
  5
237
330
326
100
AcDbEntity
  8
0
100
AcDbText
 10
14950.039
 20
19392.9363
 30
0.0
 40
200.0
  1
＊
  7
EXTFONT
100
AcDbText
  0
LINE
  5
238
330
326
100
AcDbEntity
  8
YKK_F1
  6
Continuous
100
AcDbLine
 10
15016.70566667
 20
19867.9363
 30
0.0
 11
15483.37233333
 21
19867.9363
 31
0.0
  0
CIRCLE
  5
239
330
326
100
AcDbEntity
  8
YKK_F1
100
AcDbCircle
 10
15250.039
 20
19867.9363
 30
0.0
 40
233.3333333333333
  0
TEXT
  5
23A
330
326
100
AcDbEntity
  8
0
100
AcDbText
 10
15150.039
 20
19867.9363
 30
0.0
 40
200.0
  1
＊
  7
EXTFONT
100
AcDbText
  0
TEXT
  5
23B
330
326
100
AcDbEntity
  8
YKK_F1
100
AcDbText
 10
15090.039
 20
19667.9363
 30
0.0
 40
160.0
  1
ＡＷ
  7
EXTFONT
100
AcDbText
  0
TEXT
  5
23C
330
326
100
AcDbEntity
  8
YKK_N1
100
AcDbText
 10
18065.039
 20
17758.36487143
 30
0.0
 40
60.0
  1
H=700
 50
90.0
 41
0.8
  7
YKK_SGSTYLE1
100
AcDbText
  0
LINE
  5
23D
330
326
100
AcDbEntity
  8
YKK_N1
  6
ByBlock
100
AcDbLine
 10
18075.039
 20
17533.9363
 30
0.0
 11
18075.039
 21
18231.9363
 31
0.0
  0
LINE
  5
23E
330
326
100
AcDbEntity
  8
YKK_A1
100
AcDbLine
 10
17675.039
 20
17532.9363
 30
0.0
 11
17675.039
 21
18232.9363
 31
0.0
  0
LINE
  5
23F
330
326
100
AcDbEntity
  8
YKK_A1
100
AcDbLine
 10
17675.039
 20
17532.9363
 30
0.0
 11
17675.039
 21
18232.9363
 31
0.0
  0
LINE
  5
240
330
326
100
AcDbEntity
  8
YKK_A1
100
AcDbLine
 10
17690.039
 20
17532.9363
 30
0.0
 11
17690.039
 21
18247.9363
 31
0.0
  0
LINE
  5
241
330
326
100
AcDbEntity
  8
YKK_N1
  6
ByBlock
100
AcDbLine
 10
17735.039
 20
17532.9363
 30
0.0
 11
18105.039
 21
17532.9363
 31
0.0
  0
LINE
  5
242
330
326
100
AcDbEntity
  8
YKK_N1
  6
ByBlock
100
AcDbLine
 10
17675.039
 20
17132.9363
 30
0.0
 11
17575.039
 21
17132.9363
 31
0.0
  0
LINE
  5
243
330
326
100
AcDbEntity
  8
YKK_N1
  6
ByBlock
100
AcDbLine
 10
17675.039
 20
17132.9363
 30
0.0
 11
17588.43645962
 21
17182.9363
 31
0.0
  0
LINE
  5
244
330
326
100
AcDbEntity
  8
YKK_N1
  6
ByBlock
100
AcDbLine
 10
17588.43645962
 20
17082.9363
 30
0.0
 11
17675.039
 21
17132.9363
 31
0.0
  0
LINE
  5
245
330
326
100
AcDbEntity
  8
YKK_N1
  6
ByBlock
100
AcDbLine
 10
17588.43645962
 20
17182.9363
 30
0.0
 11
17588.43645962
 21
17082.9363
 31
0.0
  0
POINT
  5
246
330
326
100
AcDbEntity
  8
YKK_N1
  6
ByBlock
100
AcDbPoint
 10
17675.039
 20
17132.9363
 30
0.0
  0
LINE
  5
247
330
326
100
AcDbEntity
  8
YKK_N1
  6
ByBlock
100
AcDbLine
 10
17675.039
 20
17472.9363
 30
0.0
 11
17675.039
 21
17102.9363
 31
0.0
  0
TEXT
  5
248
330
326
100
AcDbEntity
  8
YKK_A1
100
AcDbText
 10
17606.18185714
 20
17562.9363
 30
0.0
 40
60.0
  1
F
 41
0.8
  7
YKK_SGSTYLE1
 72
     2
 11
17645.039
 21
17562.9363
 31
0.0
100
AcDbText
  0
LINE
  5
249
330
326
100
AcDbEntity
  8
YKK_A1
100
AcDbLine
 10
17575.039
 20
17532.9363
 30
0.0
 11
17575.039
 21
17537.9363
 31
0.0
  0
POINT
  5
24A
330
326
100
AcDbEntity
  8
YKK_N1
  6
ByBlock
100
AcDbPoint
 10
17675.039
 20
17532.9363
 30
0.0
  0
POINT
  5
24B
330
326
100
AcDbEntity
  8
YKK_N1
  6
ByBlock
100
AcDbPoint
 10
17675.039
 20
17532.9363
 30
0.0
  0
LINE
  5
24C
330
326
100
AcDbEntity
  8
YKK_N1
  6
ByBlock
100
AcDbLine
 10
18125.039
 20
17619.53884038
 30
0.0
 11
18025.039
 21
17619.53884038
 31
0.0
  0
LINE
  5
24D
330
326
100
AcDbEntity
  8
YKK_N1
  6
ByBlock
100
AcDbLine
 10
18025.039
 20
17619.53884038
 30
0.0
 11
18075.039
 21
17532.9363
 31
0.0
  0
LINE
  5
24E
330
326
100
AcDbEntity
  8
YKK_N1
  6
ByBlock
100
AcDbLine
 10
18075.039
 20
17532.9363
 30
0.0
 11
18075.039
 21
17632.9363
 31
0.0
  0
LINE
  5
24F
330
326
100
AcDbEntity
  8
YKK_N1
  6
ByBlock
100
AcDbLine
 10
18075.039
 20
17532.9363
 30
0.0
 11
18125.039
 21
17619.53884038
 31
0.0
  0
LINE
  5
250
330
326
100
AcDbEntity
  8
YKK_N1
  6
ByBlock
100
AcDbLine
 10
17735.039
 20
18232.9363
 30
0.0
 11
18105.039
 21
18232.9363
 31
0.0
  0
POINT
  5
251
330
326
100
AcDbEntity
  8
YKK_N1
  6
ByBlock
100
AcDbPoint
 10
17675.039
 20
18232.9363
 30
0.0
  0
LINE
  5
252
330
326
100
AcDbEntity
  8
YKK_N1
  6
ByBlock
100
AcDbLine
 10
18075.039
 20
18232.9363
 30
0.0
 11
18025.039
 21
18146.33375962
 31
0.0
  0
LINE
  5
253
330
326
100
AcDbEntity
  8
YKK_N1
  6
ByBlock
100
AcDbLine
 10
18025.039
 20
18146.33375962
 30
0.0
 11
18125.039
 21
18146.33375962
 31
0.0
  0
POINT
  5
254
330
326
100
AcDbEntity
  8
YKK_N1
  6
ByBlock
100
AcDbPoint
 10
18075.039
 20
18232.9363
 30
0.0
  0
LINE
  5
255
330
326
100
AcDbEntity
  8
YKK_N1
  6
ByBlock
100
AcDbLine
 10
18075.039
 20
18232.9363
 30
0.0
 11
18075.039
 21
18132.9363
 31
0.0
  0
LINE
  5
256
330
326
100
AcDbEntity
  8
YKK_N1
  6
ByBlock
100
AcDbLine
 10
18125.039
 20
18146.33375962
 30
0.0
 11
18075.039
 21
18232.9363
 31
0.0
  0
TEXT
  5
257
330
326
100
AcDbEntity
  8
0
100
AcDbText
 10
18250.039
 20
19392.9363
 30
0.0
 40
200.0
  1
＊
  7
EXTFONT
100
AcDbText
  0
TEXT
  5
258
330
326
100
AcDbEntity
  8
0
100
AcDbText
 10
18550.039
 20
19642.9363
 30
0.0
 40
200.0
  1
＊
  7
EXTFONT
100
AcDbText
  0
TEXT
  5
259
330
326
100
AcDbEntity
  8
YKK_F1
100
AcDbText
 10
18970.039
 20
19642.9363
 30
0.0
 40
200.0
  1
箇所
  7
EXTFONT
100
AcDbText
  0
LINE
  5
25A
330
326
100
AcDbEntity
  8
YKK_A1
100
AcDbLine
 10
21867.539
 20
18232.9363
 30
0.0
 11
21782.539
 21
18232.9363
 31
0.0
  0
LINE
  5
25B
330
326
100
AcDbEntity
  8
YKK_A1
100
AcDbLine
 10
21782.539
 20
17532.9363
 30
0.0
 11
21867.539
 21
17532.9363
 31
0.0
  0
LINE
  5
25C
330
326
100
AcDbEntity
  8
YKK_N1
  6
ByBlock
100
AcDbLine
 10
21802.539
 20
17132.9363
 30
0.0
 11
21847.539
 21
17132.9363
 31
0.0
  0
LINE
  5
25D
330
326
100
AcDbEntity
  8
YKK_A1
100
AcDbLine
 10
22882.539
 20
18247.9363
 30
0.0
 11
20767.539
 21
18247.9363
 31
0.0
  0
LINE
  5
25E
330
326
100
AcDbEntity
  8
YKK_A1
100
AcDbLine
 10
20767.539
 20
17532.9363
 30
0.0
 11
22882.539
 21
17532.9363
 31
0.0
  0
LINE
  5
25F
330
326
100
AcDbEntity
  8
YKK_A1
100
AcDbLine
 10
21782.539
 20
18232.9363
 30
0.0
 11
21782.539
 21
17532.9363
 31
0.0
  0
LINE
  5
260
330
326
100
AcDbEntity
  8
YKK_A1
100
AcDbLine
 10
21782.539
 20
17532.9363
 30
0.0
 11
21782.539
 21
18232.9363
 31
0.0
  0
LINE
  5
261
330
326
100
AcDbEntity
  8
YKK_A1
100
AcDbLine
 10
21782.539
 20
17532.9363
 30
0.0
 11
21782.539
 21
18232.9363
 31
0.0
  0
LINE
  5
262
330
326
100
AcDbEntity
  8
YKK_A1
100
AcDbLine
 10
20782.539
 20
18232.9363
 30
0.0
 11
20782.539
 21
17532.9363
 31
0.0
  0
LINE
  5
263
330
326
100
AcDbEntity
  8
YKK_A1
100
AcDbLine
 10
20782.539
 20
18232.9363
 30
0.0
 11
20782.539
 21
17532.9363
 31
0.0
  0
LINE
  5
264
330
326
100
AcDbEntity
  8
YKK_A1
100
AcDbLine
 10
20767.539
 20
18247.9363
 30
0.0
 11
20767.539
 21
17532.9363
 31
0.0
  0
TEXT
  5
265
330
326
100
AcDbEntity
  8
YKK_N1
100
AcDbText
 10
21187.68185714
 20
17142.9363
 30
0.0
 40
60.0
  1
1000
 41
0.8
  7
YKK_SGSTYLE1
100
AcDbText
  0
LINE
  5
266
330
326
100
AcDbEntity
  8
YKK_A1
100
AcDbLine
 10
21682.539
 20
17537.9363
 30
0.0
 11
20882.539
 21
17537.9363
 31
0.0
  0
LINE
  5
267
330
326
100
AcDbEntity
  8
YKK_N1
  6
ByBlock
100
AcDbLine
 10
20802.539
 20
17132.9363
 30
0.0
 11
21762.539
 21
17132.9363
 31
0.0
  0
LINE
  5
268
330
326
100
AcDbEntity
  8
YKK_A1
100
AcDbLine
 10
20782.539
 20
17532.9363
 30
0.0
 11
21782.539
 21
17532.9363
 31
0.0
  0
LINE
  5
269
330
326
100
AcDbEntity
  8
YKK_A1
100
AcDbLine
 10
20782.539
 20
17532.9363
 30
0.0
 11
21782.539
 21
17532.9363
 31
0.0
  0
CIRCLE
  5
26A
330
326
100
AcDbEntity
  8
YKK_N1
100
AcDbCircle
 10
20782.539
 20
17132.9363
 30
0.0
 40
10.0
  0
CIRCLE
  5
26B
330
326
100
AcDbEntity
  8
YKK_N1
100
AcDbCircle
 10
20782.539
 20
17132.9363
 30
0.0
 40
6.5
  0
LINE
  5
26C
330
326
100
AcDbEntity
  8
YKK_N1
100
AcDbLine
 10
20782.539
 20
17132.9363
 30
0.0
 11
20802.539
 21
17132.9363
 31
0.0
  0
LINE
  5
26D
330
326
100
AcDbEntity
  8
YKK_N1
  6
ByBlock
100
AcDbLine
 10
20782.539
 20
17472.9363
 30
0.0
 11
20782.539
 21
17102.9363
 31
0.0
  0
LINE
  5
26E
330
326
100
AcDbEntity
  8
YKK_A1
100
AcDbLine
 10
20882.539
 20
17537.9363
 30
0.0
 11
20882.539
 21
17532.9363
 31
0.0
  0
POINT
  5
26F
330
326
100
AcDbEntity
  8
YKK_N1
  6
ByBlock
100
AcDbPoint
 10
20782.539
 20
17532.9363
 30
0.0
  0
POINT
  5
270
330
326
100
AcDbEntity
  8
YKK_N1
  6
ByBlock
100
AcDbPoint
 10
20782.539
 20
17532.9363
 30
0.0
  0
POINT
  5
271
330
326
100
AcDbEntity
  8
YKK_N1
  6
ByBlock
100
AcDbPoint
 10
21782.539
 20
17132.9363
 30
0.0
  0
CIRCLE
  5
272
330
326
100
AcDbEntity
  8
YKK_N1
100
AcDbCircle
 10
21782.539
 20
17132.9363
 30
0.0
 40
10.0
  0
CIRCLE
  5
273
330
326
100
AcDbEntity
  8
YKK_N1
100
AcDbCircle
 10
21782.539
 20
17132.9363
 30
0.0
 40
6.5
  0
LINE
  5
274
330
326
100
AcDbEntity
  8
YKK_N1
100
AcDbLine
 10
21782.539
 20
17132.9363
 30
0.0
 11
21762.539
 21
17132.9363
 31
0.0
  0
CIRCLE
  5
275
330
326
100
AcDbEntity
  8
YKK_N1
100
AcDbCircle
 10
21782.539
 20
17132.9363
 30
0.0
 40
10.0
  0
CIRCLE
  5
276
330
326
100
AcDbEntity
  8
YKK_N1
100
AcDbCircle
 10
21782.539
 20
17132.9363
 30
0.0
 40
6.5
  0
LINE
  5
277
330
326
100
AcDbEntity
  8
YKK_N1
100
AcDbLine
 10
21782.539
 20
17132.9363
 30
0.0
 11
21802.539
 21
17132.9363
 31
0.0
  0
LINE
  5
278
330
326
100
AcDbEntity
  8
YKK_N1
  6
ByBlock
100
AcDbLine
 10
21782.539
 20
17472.9363
 30
0.0
 11
21782.539
 21
17102.9363
 31
0.0
  0
LINE
  5
279
330
326
100
AcDbEntity
  8
YKK_N1
  6
ByBlock
100
AcDbLine
 10
21782.539
 20
17472.9363
 30
0.0
 11
21782.539
 21
17102.9363
 31
0.0
  0
POINT
  5
27A
330
326
100
AcDbEntity
  8
YKK_N1
  6
ByBlock
100
AcDbPoint
 10
21782.539
 20
17532.9363
 30
0.0
  0
POINT
  5
27B
330
326
100
AcDbEntity
  8
YKK_N1
  6
ByBlock
100
AcDbPoint
 10
21782.539
 20
17532.9363
 30
0.0
  0
LINE
  5
27C
330
326
100
AcDbEntity
  8
YKK_A1
100
AcDbLine
 10
21682.539
 20
17532.9363
 30
0.0
 11
21682.539
 21
17537.9363
 31
0.0
  0
TEXT
  5
27D
330
326
100
AcDbEntity
  8
YKK_A1
100
AcDbText
 10
21713.68185714
 20
17562.9363
 30
0.0
 40
60.0
  1
F
 41
0.8
  7
YKK_SGSTYLE1
 72
     2
 11
21752.539
 21
17562.9363
 31
0.0
100
AcDbText
  0
LINE
  5
27E
330
326
100
AcDbEntity
  8
YKK_A1
100
AcDbLine
 10
21782.539
 20
18232.9363
 30
0.0
 11
20782.539
 21
18232.9363
 31
0.0
  0
LINE
  5
27F
330
326
100
AcDbEntity
  8
YKK_A1
100
AcDbLine
 10
21782.539
 20
18232.9363
 30
0.0
 11
20782.539
 21
18232.9363
 31
0.0
  0
TEXT
  5
280
330
326
100
AcDbEntity
  8
0
100
AcDbText
 10
19600.039
 20
19392.9363
 30
0.0
 40
200.0
  1
＊
  7
EXTFONT
100
AcDbText
  0
LINE
  5
281
330
326
100
AcDbEntity
  8
YKK_F1
  6
Continuous
100
AcDbLine
 10
19666.70566667
 20
19867.9363
 30
0.0
 11
20133.37233333
 21
19867.9363
 31
0.0
  0
CIRCLE
  5
282
330
326
100
AcDbEntity
  8
YKK_F1
100
AcDbCircle
 10
19900.039
 20
19867.9363
 30
0.0
 40
233.3333333333333
  0
TEXT
  5
283
330
326
100
AcDbEntity
  8
0
100
AcDbText
 10
19800.039
 20
19867.9363
 30
0.0
 40
200.0
  1
＊
  7
EXTFONT
100
AcDbText
  0
TEXT
  5
284
330
326
100
AcDbEntity
  8
YKK_F1
100
AcDbText
 10
19740.039
 20
19667.9363
 30
0.0
 40
160.0
  1
ＡＷ
  7
EXTFONT
100
AcDbText
  0
LINE
  5
285
330
326
100
AcDbEntity
  8
YKK_N1
  6
ByBlock
100
AcDbLine
 10
22927.539
 20
18232.9363
 30
0.0
 11
23297.539
 21
18232.9363
 31
0.0
  0
LINE
  5
286
330
326
100
AcDbEntity
  8
YKK_N1
  6
ByBlock
100
AcDbLine
 10
22927.539
 20
17532.9363
 30
0.0
 11
23297.539
 21
17532.9363
 31
0.0
  0
LINE
  5
287
330
326
100
AcDbEntity
  8
YKK_A1
100
AcDbLine
 10
22867.539
 20
17532.9363
 30
0.0
 11
22867.539
 21
18232.9363
 31
0.0
  0
LINE
  5
288
330
326
100
AcDbEntity
  8
YKK_A1
100
AcDbLine
 10
22867.539
 20
17532.9363
 30
0.0
 11
22867.539
 21
18232.9363
 31
0.0
  0
LINE
  5
289
330
326
100
AcDbEntity
  8
YKK_A1
100
AcDbLine
 10
22882.539
 20
17532.9363
 30
0.0
 11
22882.539
 21
18247.9363
 31
0.0
  0
LINE
  5
28A
330
326
100
AcDbEntity
  8
YKK_A1
100
AcDbLine
 10
21867.539
 20
18232.9363
 30
0.0
 11
21867.539
 21
17532.9363
 31
0.0
  0
LINE
  5
28B
330
326
100
AcDbEntity
  8
YKK_A1
100
AcDbLine
 10
21867.539
 20
18232.9363
 30
0.0
 11
21867.539
 21
17532.9363
 31
0.0
  0
LINE
  5
28C
330
326
100
AcDbEntity
  8
YKK_A1
100
AcDbLine
 10
21867.539
 20
17532.9363
 30
0.0
 11
21867.539
 21
18232.9363
 31
0.0
  0
TEXT
  5
28D
330
326
100
AcDbEntity
  8
YKK_N1
100
AcDbText
 10
22272.68185714
 20
17142.9363
 30
0.0
 40
60.0
  1
1000
 41
0.8
  7
YKK_SGSTYLE1
100
AcDbText
  0
LINE
  5
28E
330
326
100
AcDbEntity
  8
YKK_N1
  6
ByBlock
100
AcDbLine
 10
21887.539
 20
17132.9363
 30
0.0
 11
22847.539
 21
17132.9363
 31
0.0
  0
LINE
  5
28F
330
326
100
AcDbEntity
  8
YKK_A1
100
AcDbLine
 10
21867.539
 20
17532.9363
 30
0.0
 11
22867.539
 21
17532.9363
 31
0.0
  0
LINE
  5
290
330
326
100
AcDbEntity
  8
YKK_A1
100
AcDbLine
 10
21867.539
 20
17532.9363
 30
0.0
 11
22867.539
 21
17532.9363
 31
0.0
  0
LINE
  5
291
330
326
100
AcDbEntity
  8
YKK_A1
100
AcDbLine
 10
22767.539
 20
17537.9363
 30
0.0
 11
21967.539
 21
17537.9363
 31
0.0
  0
POINT
  5
292
330
326
100
AcDbEntity
  8
YKK_N1
  6
ByBlock
100
AcDbPoint
 10
21867.539
 20
17132.9363
 30
0.0
  0
CIRCLE
  5
293
330
326
100
AcDbEntity
  8
YKK_N1
100
AcDbCircle
 10
21867.539
 20
17132.9363
 30
0.0
 40
10.0
  0
CIRCLE
  5
294
330
326
100
AcDbEntity
  8
YKK_N1
100
AcDbCircle
 10
21867.539
 20
17132.9363
 30
0.0
 40
6.5
  0
LINE
  5
295
330
326
100
AcDbEntity
  8
YKK_N1
100
AcDbLine
 10
21867.539
 20
17132.9363
 30
0.0
 11
21887.539
 21
17132.9363
 31
0.0
  0
CIRCLE
  5
296
330
326
100
AcDbEntity
  8
YKK_N1
100
AcDbCircle
 10
21867.539
 20
17132.9363
 30
0.0
 40
10.0
  0
CIRCLE
  5
297
330
326
100
AcDbEntity
  8
YKK_N1
100
AcDbCircle
 10
21867.539
 20
17132.9363
 30
0.0
 40
6.5
  0
LINE
  5
298
330
326
100
AcDbEntity
  8
YKK_N1
100
AcDbLine
 10
21867.539
 20
17132.9363
 30
0.0
 11
21847.539
 21
17132.9363
 31
0.0
  0
LINE
  5
299
330
326
100
AcDbEntity
  8
YKK_N1
  6
ByBlock
100
AcDbLine
 10
21867.539
 20
17472.9363
 30
0.0
 11
21867.539
 21
17102.9363
 31
0.0
  0
LINE
  5
29A
330
326
100
AcDbEntity
  8
YKK_N1
  6
ByBlock
100
AcDbLine
 10
21867.539
 20
17472.9363
 30
0.0
 11
21867.539
 21
17102.9363
 31
0.0
  0
POINT
  5
29B
330
326
100
AcDbEntity
  8
YKK_N1
  6
ByBlock
100
AcDbPoint
 10
21867.539
 20
17532.9363
 30
0.0
  0
POINT
  5
29C
330
326
100
AcDbEntity
  8
YKK_N1
  6
ByBlock
100
AcDbPoint
 10
21867.539
 20
17532.9363
 30
0.0
  0
LINE
  5
29D
330
326
100
AcDbEntity
  8
YKK_A1
100
AcDbLine
 10
21967.539
 20
17537.9363
 30
0.0
 11
21967.539
 21
17532.9363
 31
0.0
  0
POINT
  5
29E
330
326
100
AcDbEntity
  8
YKK_N1
  6
ByBlock
100
AcDbPoint
 10
22867.539
 20
17132.9363
 30
0.0
  0
CIRCLE
  5
29F
330
326
100
AcDbEntity
  8
YKK_N1
100
AcDbCircle
 10
22867.539
 20
17132.9363
 30
0.0
 40
10.0
  0
CIRCLE
  5
2A0
330
326
100
AcDbEntity
  8
YKK_N1
100
AcDbCircle
 10
22867.539
 20
17132.9363
 30
0.0
 40
6.5
  0
LINE
  5
2A1
330
326
100
AcDbEntity
  8
YKK_N1
100
AcDbLine
 10
22867.539
 20
17132.9363
 30
0.0
 11
22847.539
 21
17132.9363
 31
0.0
  0
LINE
  5
2A2
330
326
100
AcDbEntity
  8
YKK_N1
  6
ByBlock
100
AcDbLine
 10
22867.539
 20
17472.9363
 30
0.0
 11
22867.539
 21
17102.9363
 31
0.0
  0
LINE
  5
2A3
330
326
100
AcDbEntity
  8
YKK_A1
100
AcDbLine
 10
22767.539
 20
17532.9363
 30
0.0
 11
22767.539
 21
17537.9363
 31
0.0
  0
TEXT
  5
2A4
330
326
100
AcDbEntity
  8
YKK_A1
100
AcDbText
 10
22798.68185714
 20
17562.9363
 30
0.0
 40
60.0
  1
F
 41
0.8
  7
YKK_SGSTYLE1
 72
     2
 11
22837.539
 21
17562.9363
 31
0.0
100
AcDbText
  0
POINT
  5
2A5
330
326
100
AcDbEntity
  8
YKK_N1
  6
ByBlock
100
AcDbPoint
 10
22867.539
 20
17532.9363
 30
0.0
  0
POINT
  5
2A6
330
326
100
AcDbEntity
  8
YKK_N1
  6
ByBlock
100
AcDbPoint
 10
22867.539
 20
17532.9363
 30
0.0
  0
POINT
  5
2A7
330
326
100
AcDbEntity
  8
YKK_N1
  6
ByBlock
100
AcDbPoint
 10
22867.539
 20
17532.9363
 30
0.0
  0
LINE
  5
2A8
330
326
100
AcDbEntity
  8
YKK_A1
100
AcDbLine
 10
22867.539
 20
18232.9363
 30
0.0
 11
21867.539
 21
18232.9363
 31
0.0
  0
LINE
  5
2A9
330
326
100
AcDbEntity
  8
YKK_A1
100
AcDbLine
 10
22867.539
 20
18232.9363
 30
0.0
 11
21867.539
 21
18232.9363
 31
0.0
  0
POINT
  5
2AA
330
326
100
AcDbEntity
  8
YKK_N1
  6
ByBlock
100
AcDbPoint
 10
22867.539
 20
18232.9363
 30
0.0
  0
TEXT
  5
2AB
330
326
100
AcDbEntity
  8
YKK_N1
100
AcDbText
 10
23257.539
 20
17758.36487143
 30
0.0
 40
60.0
  1
H=700
 50
90.0
 41
0.8
  7
YKK_SGSTYLE1
100
AcDbText
  0
LINE
  5
2AC
330
326
100
AcDbEntity
  8
YKK_N1
  6
ByBlock
100
AcDbLine
 10
23267.539
 20
17533.9363
 30
0.0
 11
23267.539
 21
18231.9363
 31
0.0
  0
LINE
  5
2AD
330
326
100
AcDbEntity
  8
YKK_N1
  6
ByBlock
100
AcDbLine
 10
23317.539
 20
17619.53884038
 30
0.0
 11
23217.539
 21
17619.53884038
 31
0.0
  0
LINE
  5
2AE
330
326
100
AcDbEntity
  8
YKK_N1
  6
ByBlock
100
AcDbLine
 10
23217.539
 20
17619.53884038
 30
0.0
 11
23267.539
 21
17532.9363
 31
0.0
  0
LINE
  5
2AF
330
326
100
AcDbEntity
  8
YKK_N1
  6
ByBlock
100
AcDbLine
 10
23267.539
 20
17532.9363
 30
0.0
 11
23267.539
 21
17632.9363
 31
0.0
  0
LINE
  5
2B0
330
326
100
AcDbEntity
  8
YKK_N1
  6
ByBlock
100
AcDbLine
 10
23267.539
 20
17532.9363
 30
0.0
 11
23317.539
 21
17619.53884038
 31
0.0
  0
LINE
  5
2B1
330
326
100
AcDbEntity
  8
YKK_N1
  6
ByBlock
100
AcDbLine
 10
23267.539
 20
18232.9363
 30
0.0
 11
23217.539
 21
18146.33375962
 31
0.0
  0
LINE
  5
2B2
330
326
100
AcDbEntity
  8
YKK_N1
  6
ByBlock
100
AcDbLine
 10
23217.539
 20
18146.33375962
 30
0.0
 11
23317.539
 21
18146.33375962
 31
0.0
  0
POINT
  5
2B3
330
326
100
AcDbEntity
  8
YKK_N1
  6
ByBlock
100
AcDbPoint
 10
23267.539
 20
18232.9363
 30
0.0
  0
LINE
  5
2B4
330
326
100
AcDbEntity
  8
YKK_N1
  6
ByBlock
100
AcDbLine
 10
23267.539
 20
18232.9363
 30
0.0
 11
23267.539
 21
18132.9363
 31
0.0
  0
LINE
  5
2B5
330
326
100
AcDbEntity
  8
YKK_N1
  6
ByBlock
100
AcDbLine
 10
23317.539
 20
18146.33375962
 30
0.0
 11
23267.539
 21
18232.9363
 31
0.0
  0
TEXT
  5
2B6
330
326
100
AcDbEntity
  8
0
100
AcDbText
 10
22900.039
 20
19392.9363
 30
0.0
 40
200.0
  1
＊
  7
EXTFONT
100
AcDbText
  0
TEXT
  5
2B7
330
326
100
AcDbEntity
  8
0
100
AcDbText
 10
23200.039
 20
19642.9363
 30
0.0
 40
200.0
  1
＊
  7
EXTFONT
100
AcDbText
  0
TEXT
  5
2B8
330
326
100
AcDbEntity
  8
YKK_F1
100
AcDbText
 10
23620.039
 20
19642.9363
 30
0.0
 40
200.0
  1
箇所
  7
EXTFONT
100
AcDbText
  0
TEXT
  5
2B9
330
326
100
AcDbEntity
  8
YKK_F1
100
AcDbText
 10
28270.039
 20
13687.9363
 30
0.0
 40
200.0
  1
箇所
  7
EXTFONT
100
AcDbText
  0
TEXT
  5
2BA
330
326
100
AcDbEntity
  8
YKK_F1
100
AcDbText
 10
24390.039
 20
13712.9363
 30
0.0
 40
160.0
  1
ＡＷ
  7
EXTFONT
100
AcDbText
  0
CIRCLE
  5
2BB
330
326
100
AcDbEntity
  8
YKK_F1
100
AcDbCircle
 10
24550.039
 20
13912.9363
 30
0.0
 40
233.3333333333333
  0
TEXT
  5
2BC
330
326
100
AcDbEntity
  8
0
100
AcDbText
 10
27850.039
 20
13687.9363
 30
0.0
 40
200.0
  1
＊
  7
EXTFONT
100
AcDbText
  0
TEXT
  5
2BD
330
326
100
AcDbEntity
  8
0
100
AcDbText
 10
24250.039
 20
13437.9363
 30
0.0
 40
200.0
  1
＊
  7
EXTFONT
100
AcDbText
  0
TEXT
  5
2BE
330
326
100
AcDbEntity
  8
0
100
AcDbText
 10
27550.039
 20
13437.9363
 30
0.0
 40
200.0
  1
＊
  7
EXTFONT
100
AcDbText
  0
LINE
  5
2BF
330
326
100
AcDbEntity
  8
YKK_F1
  6
Continuous
100
AcDbLine
 10
24316.70566667
 20
13912.9363
 30
0.0
 11
24783.37233333
 21
13912.9363
 31
0.0
  0
TEXT
  5
2C0
330
326
100
AcDbEntity
  8
0
100
AcDbText
 10
24450.039
 20
13912.9363
 30
0.0
 40
200.0
  1
＊
  7
EXTFONT
100
AcDbText
  0
TEXT
  5
2C1
330
326
100
AcDbEntity
  8
0
100
AcDbText
 10
24250.039
 20
14187.9363
 30
0.0
 40
200.0
  1
＊
  7
EXTFONT
100
AcDbText
  0
TEXT
  5
2C2
330
326
100
AcDbEntity
  8
0
100
AcDbText
 10
24250.039
 20
14437.9363
 30
0.0
 40
200.0
  1
＊
  7
EXTFONT
100
AcDbText
  0
TEXT
  5
2C3
330
326
100
AcDbEntity
  8
0
100
AcDbText
 10
24250.039
 20
14937.9363
 30
0.0
 40
200.0
  1
＊
  7
EXTFONT
100
AcDbText
  0
TEXT
  5
2C4
330
326
100
AcDbEntity
  8
0
100
AcDbText
 10
24250.039
 20
14687.9363
 30
0.0
 40
200.0
  1
＊
  7
EXTFONT
100
AcDbText
  0
TEXT
  5
2C5
330
326
100
AcDbEntity
  8
0
100
AcDbText
 10
24250.039
 20
15187.9363
 30
0.0
 40
200.0
  1
＊
  7
EXTFONT
100
AcDbText
  0
TEXT
  5
2C6
330
326
100
AcDbEntity
  8
0
100
AcDbText
 10
24250.039
 20
16187.9363
 30
0.0
 40
200.0
  1
＊
  7
EXTFONT
100
AcDbText
  0
TEXT
  5
2C7
330
326
100
AcDbEntity
  8
0
100
AcDbText
 10
24250.039
 20
15687.9363
 30
0.0
 40
200.0
  1
＊
  7
EXTFONT
100
AcDbText
  0
TEXT
  5
2C8
330
326
100
AcDbEntity
  8
0
100
AcDbText
 10
24250.039
 20
15437.9363
 30
0.0
 40
200.0
  1
＊
  7
EXTFONT
100
AcDbText
  0
TEXT
  5
2C9
330
326
100
AcDbEntity
  8
0
100
AcDbText
 10
24250.039
 20
15937.9363
 30
0.0
 40
200.0
  1
＊
  7
EXTFONT
100
AcDbText
  0
TEXT
  5
2CA
330
326
100
AcDbEntity
  8
0
100
AcDbText
 10
24250.039
 20
19392.9363
 30
0.0
 40
200.0
  1
＊
  7
EXTFONT
100
AcDbText
  0
LINE
  5
2CB
330
326
100
AcDbEntity
  8
YKK_F1
  6
Continuous
100
AcDbLine
 10
24316.70566667
 20
19867.9363
 30
0.0
 11
24783.37233333
 21
19867.9363
 31
0.0
  0
TEXT
  5
2CC
330
326
100
AcDbEntity
  8
YKK_F1
100
AcDbText
 10
24390.039
 20
19667.9363
 30
0.0
 40
160.0
  1
ＡＷ
  7
EXTFONT
100
AcDbText
  0
CIRCLE
  5
2CD
330
326
100
AcDbEntity
  8
YKK_F1
100
AcDbCircle
 10
24550.039
 20
19867.9363
 30
0.0
 40
233.3333333333333
  0
TEXT
  5
2CE
330
326
100
AcDbEntity
  8
0
100
AcDbText
 10
24450.039
 20
19867.9363
 30
0.0
 40
200.0
  1
＊
  7
EXTFONT
100
AcDbText
  0
TEXT
  5
2CF
330
326
100
AcDbEntity
  8
0
100
AcDbText
 10
27550.039
 20
19392.9363
 30
0.0
 40
200.0
  1
＊
  7
EXTFONT
100
AcDbText
  0
TEXT
  5
2D0
330
326
100
AcDbEntity
  8
0
100
AcDbText
 10
27850.039
 20
19642.9363
 30
0.0
 40
200.0
  1
＊
  7
EXTFONT
100
AcDbText
  0
TEXT
  5
2D1
330
326
100
AcDbEntity
  8
YKK_F1
100
AcDbText
 10
28270.039
 20
19642.9363
 30
0.0
 40
200.0
  1
箇所
  7
EXTFONT
100
AcDbText
  0
ENDSEC
  0
SECTION
  2
OBJECTS
  0
DICTIONARY
  5
31B
330
0
100
AcDbDictionary
281
     1
  3
ACAD_CIP_PREVIOUS_PRODUCT_INFO
350
3DE
  3
ACAD_COLOR
350
372
  3
ACAD_DETAILVIEWSTYLE
350
38B
  3
ACAD_GROUP
350
31C
  3
ACAD_LAYOUT
350
391
  3
ACAD_MATERIAL
350
340
  3
ACAD_MLEADERSTYLE
350
387
  3
ACAD_MLINESTYLE
350
329
  3
ACAD_PLOTSETTINGS
350
390
  3
ACAD_PLOTSTYLENAME
350
33E
  3
ACAD_SCALELIST
350
375
  3
ACAD_SECTIONVIEWSTYLE
350
389
  3
ACAD_TABLESTYLE
350
373
  3
ACAD_VISUALSTYLE
350
359
  3
ACDB_RECOMPOSE_DATA
350
3E4
  3
ACDBVARIABLEDICTIONARY
350
336
  0
XRECORD
  5
3DE
102
{ACAD_REACTORS
330
31B
102
}
330
31B
100
AcDbXrecord
280
     1
300
ACD
300
2014
300
86063ACD_2014_0F
  0
DICTIONARY
  5
372
102
{ACAD_REACTORS
330
31B
102
}
330
31B
100
AcDbDictionary
281
     1
  0
DICTIONARY
  5
38B
102
{ACAD_REACTORS
330
31B
102
}
330
31B
100
AcDbDictionary
281
     1
  3
Imperial24
350
38C
  0
DICTIONARY
  5
31C
102
{ACAD_REACTORS
330
31B
102
}
330
31B
100
AcDbDictionary
281
     1
  0
DICTIONARY
  5
391
102
{ACAD_REACTORS
330
31B
102
}
330
31B
100
AcDbDictionary
281
     1
  3
Model
350
392
  3
レイアウト1
350
393
  0
DICTIONARY
  5
340
102
{ACAD_REACTORS
330
31B
102
}
330
31B
100
AcDbDictionary
281
     1
  3
ByBlock
350
349
  3
ByLayer
350
341
  3
Global
350
351
  0
DICTIONARY
  5
387
102
{ACAD_REACTORS
330
31B
102
}
330
31B
100
AcDbDictionary
281
     1
  3
Standard
350
388
  0
DICTIONARY
  5
329
102
{ACAD_REACTORS
330
31B
102
}
330
31B
100
AcDbDictionary
281
     1
  3
STANDARD
350
32A
  0
DICTIONARY
  5
390
102
{ACAD_REACTORS
330
31B
102
}
330
31B
100
AcDbDictionary
281
     1
  0
ACDBDICTIONARYWDFLT
  5
33E
102
{ACAD_REACTORS
330
31B
102
}
330
31B
100
AcDbDictionary
281
     1
  3
Normal
350
33F
100
AcDbDictionaryWithDefault
340
33F
  0
DICTIONARY
  5
375
102
{ACAD_REACTORS
330
31B
102
}
330
31B
100
AcDbDictionary
281
     1
  3
A0
350
376
  3
A1
350
377
  3
A2
350
378
  3
A3
350
379
  3
A4
350
37A
  3
A5
350
37B
  3
A6
350
37C
  3
A7
350
37D
  3
A8
350
37E
  3
A9
350
37F
  3
B0
350
380
  3
B1
350
381
  3
B2
350
382
  3
B3
350
383
  3
B4
350
384
  3
B5
350
385
  3
B6
350
386
  0
DICTIONARY
  5
389
102
{ACAD_REACTORS
330
31B
102
}
330
31B
100
AcDbDictionary
281
     1
  3
Imperial24
350
38A
  0
DICTIONARY
  5
373
102
{ACAD_REACTORS
330
31B
102
}
330
31B
100
AcDbDictionary
281
     1
  3
Standard
350
374
  0
DICTIONARY
  5
359
102
{ACAD_REACTORS
330
31B
102
}
330
31B
100
AcDbDictionary
281
     1
  3
2dWireframe
350
35F
  3
Basic
350
35E
  3
Brighten
350
365
  3
ColorChange
350
369
  3
Conceptual
350
362
  3
Dim
350
364
  3
EdgeColorOff
350
371
  3
Facepattern
350
368
  3
Flat
350
35A
  3
FlatWithEdges
350
35B
  3
Gouraud
350
35C
  3
GouraudWithEdges
350
35D
  3
Hidden
350
361
  3
JitterOff
350
36F
  3
Linepattern
350
367
  3
OverhangOff
350
370
  3
Realistic
350
363
  3
Shaded
350
36E
  3
Shaded with edges
350
36D
  3
Shades of Gray
350
36A
  3
Sketchy
350
36B
  3
Thicken
350
366
  3
Wireframe
350
360
  3
X-Ray
350
36C
  0
XRECORD
  5
3E4
102
{ACAD_REACTORS
330
31B
102
}
330
31B
100
AcDbXrecord
280
     1
 90
        1
330
374
  0
DICTIONARY
  5
336
102
{ACAD_REACTORS
330
31B
102
}
330
31B
100
AcDbDictionary
281
     1
  3
CANNOSCALE
350
3D6
  3
CMLEADERSTYLE
350
3D3
  3
CTABLESTYLE
350
3D2
  3
CVIEWDETAILSTYLE
350
3D4
  3
CVIEWSECTIONSTYLE
350
3D5
  3
DIMADEC
350
337
  3
XCLIPFRAME
350
3E2
  0
ACDBDETAILVIEWSTYLE
  5
38C
102
{ACAD_XDICTIONARY
360
41D
102
}
102
{ACAD_REACTORS
330
38B
102
}
330
38B
100
AcDbModelDocViewStyle
 70
     0
  3
Imperial24
290
     0
100
AcDbDetailViewStyle
 70
     0
 71
     0
 90
        3
 71
     1
340
31E
 62
   256
 40
0.24
340
0
 62
   256
 40
0.24
300

 40
0.36
280
     3
 71
     2
340
322
 90
       25
 62
   256
 71
     3
340
31E
 62
   256
 40
0.24
 90
        1
 40
0.75
 90
        1
300
%<\AcVar ViewType \f "%tc1">% %<\AcVar ViewDetailId>%\PSCALE %<\AcVar ViewScale \f "%sn">%
 71
     4
340
322
 90
       25
 62
   256
340
322
 90
       25
 62
   256
280
     0
  0
LAYOUT
  5
392
102
{ACAD_REACTORS
330
391
102
}
330
391
100
AcDbPlotSettings
  1

  2
C:\ACAD-I\support\plotters\Default Windows System Printer.pc3
  4
A4
  6

 40
3.17499995
 41
3.17499995
 42
3.17500305
 43
3.17498779
 44
209.88865662
 45
297.05300903
 46
0.0
 47
0.0
 48
0.0
 49
0.0
140
0.0
141
0.0
142
1.0
143
3470.06764525
 70
 11952
 72
     0
 73
     1
 74
     0
  7
monochrome.ctb
 75
     0
147
0.00028818
 76
     0
 77
     2
 78
   300
148
96658.03274054
149
3044.65860447
100
AcDbLayout
  1
Model
 70
     1
 71
     0
 10
0.0
 20
0.0
 11
12.0
 21
9.0
 12
0.0
 22
0.0
 32
0.0
 14
0.0
 24
0.0
 34
0.0
 15
0.0
 25
0.0
 35
0.0
146
0.0
 13
0.0
 23
0.0
 33
0.0
 16
1.0
 26
0.0
 36
0.0
 17
0.0
 27
1.0
 37
0.0
 76
     0
330
326
1001
ACAD_PSEXT
1000
C:\ACAD-I\support\plotters\Default Windows System Printer.pc3
1000
Fiery PRO80 65-55C-KM PS3.0jp
1000
IP_10.230.204.212
1000

1070
     0
  0
LAYOUT
  5
393
102
{ACAD_REACTORS
330
391
102
}
330
391
100
AcDbPlotSettings
  1

  2
C:\ACAD-I\support\plotters\Default Windows System Printer.pc3
  4
A4
  6

 40
3.17499995
 41
3.17499995
 42
3.17500305
 43
3.17498779
 44
209.88865662
 45
297.05300903
 46
0.0
 47
0.0
 48
0.0
 49
0.0
140
0.0
141
0.0
142
1.0
143
1.0
 70
 15024
 72
     0
 73
     1
 74
     5
  7
monochrome.ctb
 75
    16
147
1.0
 76
     0
 77
     2
 78
   300
148
0.0
149
0.0
100
AcDbLayout
  1
レイアウト1
 70
     1
 71
     1
 10
0.0
 20
0.0
 11
420.0
 21
297.0
 12
0.0
 22
0.0
 32
0.0
 14
1.00000000E+20
 24
1.00000000E+20
 34
1.00000000E+20
 15
-1.00000000E+20
 25
-1.00000000E+20
 35
-1.00000000E+20
146
0.0
 13
0.0
 23
0.0
 33
0.0
 16
1.0
 26
0.0
 36
0.0
 17
0.0
 27
1.0
 37
0.0
 76
     0
330
323
1001
ACAD_PSEXT
1000
C:\ACAD-I\support\plotters\Default Windows System Printer.pc3
1000
Fiery PRO80 65-55C-KM PS3.0jp
1000
IP_10.230.204.212
1000

1070
     0
  0
MATERIAL
  5
349
102
{ACAD_XDICTIONARY
360
34A
102
}
102
{ACAD_REACTORS
330
340
102
}
330
340
100
AcDbMaterial
  1
ByBlock
 72
     0
 43
0.02083333
 43
0.0
 43
0.0
 43
0.0
 43
0.0
 43
0.02083333
 43
0.0
 43
0.0
 43
0.0
 43
0.0
 43
1.0
 43
0.0
 43
0.0
 43
0.0
 43
0.0
 43
1.0
 77
     0
 47
0.02083333
 47
0.0
 47
0.0
 47
0.0
 47
0.0
 47
0.02083333
 47
0.0
 47
0.0
 47
0.0
 47
0.0
 47
1.0
 47
0.0
 47
0.0
 47
0.0
 47
0.0
 47
1.0
171
     0
 49
0.02083333
 49
0.0
 49
0.0
 49
0.0
 49
0.0
 49
0.02083333
 49
0.0
 49
0.0
 49
0.0
 49
0.0
 49
1.0
 49
0.0
 49
0.0
 49
0.0
 49
0.0
 49
1.0
175
     0
142
0.02083333
142
0.0
142
0.0
142
0.0
142
0.0
142
0.02083333
142
0.0
142
0.0
142
0.0
142
0.0
142
1.0
142
0.0
142
0.0
142
0.0
142
0.0
142
1.0
179
     0
144
0.02083333
144
0.0
144
0.0
144
0.0
144
0.0
144
0.02083333
144
0.0
144
0.0
144
0.0
144
0.0
144
1.0
144
0.0
144
0.0
144
0.0
144
0.0
144
1.0
147
0.02083333
147
0.0
147
0.0
147
0.0
147
0.0
147
0.02083333
147
0.0
147
0.0
147
0.0
147
0.0
147
1.0
147
0.0
147
0.0
147
0.0
147
0.0
147
1.0
  0
MATERIAL
  5
341
102
{ACAD_XDICTIONARY
360
342
102
}
102
{ACAD_REACTORS
330
340
102
}
330
340
100
AcDbMaterial
  1
ByLayer
 72
     0
 43
0.02083333
 43
0.0
 43
0.0
 43
0.0
 43
0.0
 43
0.02083333
 43
0.0
 43
0.0
 43
0.0
 43
0.0
 43
1.0
 43
0.0
 43
0.0
 43
0.0
 43
0.0
 43
1.0
 77
     0
 47
0.02083333
 47
0.0
 47
0.0
 47
0.0
 47
0.0
 47
0.02083333
 47
0.0
 47
0.0
 47
0.0
 47
0.0
 47
1.0
 47
0.0
 47
0.0
 47
0.0
 47
0.0
 47
1.0
171
     0
 49
0.02083333
 49
0.0
 49
0.0
 49
0.0
 49
0.0
 49
0.02083333
 49
0.0
 49
0.0
 49
0.0
 49
0.0
 49
1.0
 49
0.0
 49
0.0
 49
0.0
 49
0.0
 49
1.0
175
     0
142
0.02083333
142
0.0
142
0.0
142
0.0
142
0.0
142
0.02083333
142
0.0
142
0.0
142
0.0
142
0.0
142
1.0
142
0.0
142
0.0
142
0.0
142
0.0
142
1.0
179
     0
144
0.02083333
144
0.0
144
0.0
144
0.0
144
0.0
144
0.02083333
144
0.0
144
0.0
144
0.0
144
0.0
144
1.0
144
0.0
144
0.0
144
0.0
144
0.0
144
1.0
147
0.02083333
147
0.0
147
0.0
147
0.0
147
0.0
147
0.02083333
147
0.0
147
0.0
147
0.0
147
0.0
147
1.0
147
0.0
147
0.0
147
0.0
147
0.0
147
1.0
  0
MATERIAL
  5
351
102
{ACAD_XDICTIONARY
360
352
102
}
102
{ACAD_REACTORS
330
340
102
}
330
340
100
AcDbMaterial
  1
Global
 72
     0
 43
0.02083333
 43
0.0
 43
0.0
 43
0.0
 43
0.0
 43
0.02083333
 43
0.0
 43
0.0
 43
0.0
 43
0.0
 43
1.0
 43
0.0
 43
0.0
 43
0.0
 43
0.0
 43
1.0
 77
     0
 47
0.02083333
 47
0.0
 47
0.0
 47
0.0
 47
0.0
 47
0.02083333
 47
0.0
 47
0.0
 47
0.0
 47
0.0
 47
1.0
 47
0.0
 47
0.0
 47
0.0
 47
0.0
 47
1.0
171
     0
 49
0.02083333
 49
0.0
 49
0.0
 49
0.0
 49
0.0
 49
0.02083333
 49
0.0
 49
0.0
 49
0.0
 49
0.0
 49
1.0
 49
0.0
 49
0.0
 49
0.0
 49
0.0
 49
1.0
175
     0
142
0.02083333
142
0.0
142
0.0
142
0.0
142
0.0
142
0.02083333
142
0.0
142
0.0
142
0.0
142
0.0
142
1.0
142
0.0
142
0.0
142
0.0
142
0.0
142
1.0
179
     0
144
0.02083333
144
0.0
144
0.0
144
0.0
144
0.0
144
0.02083333
144
0.0
144
0.0
144
0.0
144
0.0
144
1.0
144
0.0
144
0.0
144
0.0
144
0.0
144
1.0
147
0.02083333
147
0.0
147
0.0
147
0.0
147
0.0
147
0.02083333
147
0.0
147
0.0
147
0.0
147
0.0
147
1.0
147
0.0
147
0.0
147
0.0
147
0.0
147
1.0
  0
MLEADERSTYLE
  5
388
102
{ACAD_XDICTIONARY
360
419
102
}
102
{ACAD_REACTORS
330
387
102
}
330
387
100
AcDbMLeaderStyle
170
     2
171
     1
172
     0
 90
        2
 40
0.0
 41
0.0
173
     1
 91
-1056964608
340
320
 92
       -2
290
     1
 42
0.09
291
     1
 43
0.36
  3
Standard
 44
0.18
300

342
31E
174
     1
178
     6
175
     1
176
     0
 93
-1056964608
 45
0.18
292
     0
297
     0
 46
0.18
 94
-1056964608
 47
1.0
 49
1.0
140
1.0
293
     1
141
0.0
294
     1
177
     0
142
1.0
295
     0
296
     0
143
0.125
1001
ACAD_MLEADERVER
1070
     2
  0
MLINESTYLE
  5
32A
102
{ACAD_REACTORS
330
329
102
}
330
329
100
AcDbMlineStyle
  2
STANDARD
 70
     0
  3

 62
   256
 51
90.0
 52
90.0
 71
     2
 49
0.5
 62
   256
  6
BYLAYER
 49
-0.5
 62
   256
  6
BYLAYER
  0
ACDBPLACEHOLDER
  5
33F
102
{ACAD_REACTORS
330
33E
102
}
330
33E
  0
SCALE
  5
376
102
{ACAD_REACTORS
330
375
102
}
330
375
100
AcDbScale
 70
     0
300
1:1
140
1.0
141
1.0
290
     1
  0
SCALE
  5
377
102
{ACAD_REACTORS
330
375
102
}
330
375
100
AcDbScale
 70
     0
300
1/128" = 1'-0"
140
0.0078125
141
12.0
290
     0
  0
SCALE
  5
378
102
{ACAD_REACTORS
330
375
102
}
330
375
100
AcDbScale
 70
     0
300
1/64" = 1'-0"
140
0.015625
141
12.0
290
     0
  0
SCALE
  5
379
102
{ACAD_REACTORS
330
375
102
}
330
375
100
AcDbScale
 70
     0
300
1/32" = 1'-0"
140
0.03125
141
12.0
290
     0
  0
SCALE
  5
37A
102
{ACAD_REACTORS
330
375
102
}
330
375
100
AcDbScale
 70
     0
300
1/16" = 1'-0"
140
0.0625
141
12.0
290
     0
  0
SCALE
  5
37B
102
{ACAD_REACTORS
330
375
102
}
330
375
100
AcDbScale
 70
     0
300
3/32" = 1'-0"
140
0.09375
141
12.0
290
     0
  0
SCALE
  5
37C
102
{ACAD_REACTORS
330
375
102
}
330
375
100
AcDbScale
 70
     0
300
1/8" = 1'-0"
140
0.125
141
12.0
290
     0
  0
SCALE
  5
37D
102
{ACAD_REACTORS
330
375
102
}
330
375
100
AcDbScale
 70
     0
300
3/16" = 1'-0"
140
0.1875
141
12.0
290
     0
  0
SCALE
  5
37E
102
{ACAD_REACTORS
330
375
102
}
330
375
100
AcDbScale
 70
     0
300
1/4" = 1'-0"
140
0.25
141
12.0
290
     0
  0
SCALE
  5
37F
102
{ACAD_REACTORS
330
375
102
}
330
375
100
AcDbScale
 70
     0
300
3/8" = 1'-0"
140
0.375
141
12.0
290
     0
  0
SCALE
  5
380
102
{ACAD_REACTORS
330
375
102
}
330
375
100
AcDbScale
 70
     0
300
1/2" = 1'-0"
140
0.5
141
12.0
290
     0
  0
SCALE
  5
381
102
{ACAD_REACTORS
330
375
102
}
330
375
100
AcDbScale
 70
     0
300
3/4" = 1'-0"
140
0.75
141
12.0
290
     0
  0
SCALE
  5
382
102
{ACAD_REACTORS
330
375
102
}
330
375
100
AcDbScale
 70
     0
300
1" = 1'-0"
140
1.0
141
12.0
290
     0
  0
SCALE
  5
383
102
{ACAD_REACTORS
330
375
102
}
330
375
100
AcDbScale
 70
     0
300
1-1/2" = 1'-0"
140
1.5
141
12.0
290
     0
  0
SCALE
  5
384
102
{ACAD_REACTORS
330
375
102
}
330
375
100
AcDbScale
 70
     0
300
3" = 1'-0"
140
3.0
141
12.0
290
     0
  0
SCALE
  5
385
102
{ACAD_REACTORS
330
375
102
}
330
375
100
AcDbScale
 70
     0
300
6" = 1'-0"
140
6.0
141
12.0
290
     0
  0
SCALE
  5
386
102
{ACAD_REACTORS
330
375
102
}
330
375
100
AcDbScale
 70
     0
300
1'-0" = 1'-0"
140
12.0
141
12.0
290
     0
  0
ACDBSECTIONVIEWSTYLE
  5
38A
102
{ACAD_XDICTIONARY
360
41B
102
}
102
{ACAD_REACTORS
330
389
102
}
330
389
100
AcDbModelDocViewStyle
 70
     0
  3
Imperial24
290
     0
100
AcDbSectionViewStyle
 70
     0
 71
     0
 90
      102
 71
     1
340
31E
 62
   256
 40
5.0
340
0
340
0
 62
   256
 40
5.0
300
I, O, Q, S, X, Z
 40
10.0
 90
        0
 40
2.5
 90
        0
 71
     2
340
322
 90
       25
 62
   256
340
322
 90
       50
 62
   256
 40
5.0
 40
2.5
 40
5.0
 71
     3
340
31E
 62
   256
 40
5.0
 90
        0
 40
15.0
 90
        1
300
%<\AcVar ViewSectionStartId>%-%<\AcVar ViewSectionEndId>% (%<\AcVar ViewScale \f "%sn">%)
 71
     4
 62
   256
 62
   257
300
ANSI31
 40
1.0
 90
        0
290
     0
290
     0
 90
        6
 40
0.0
 40
1.57079633
 40
0.26179939
 40
1.30899694
 40
-0.26179939
 40
1.83259571
  0
TABLESTYLE
  5
374
102
{ACAD_XDICTIONARY
360
394
102
}
102
{ACAD_REACTORS
330
373
102
}
330
373
100
AcDbTableStyle
  3
Standard
 70
     0
 71
     0
 40
0.06
 41
0.06
280
     0
281
     0
  7
STANDARD
140
0.18
170
     2
 62
     0
 63
     7
283
     0
274
    -2
284
     1
 64
     0
275
    -2
285
     1
 65
     0
276
    -2
286
     1
 66
     0
277
    -2
287
     1
 67
     0
278
    -2
288
     1
 68
     0
279
    -2
289
     1
 69
     0
  7
STANDARD
140
0.25
170
     5
 62
     0
 63
     7
283
     0
274
    -2
284
     1
 64
     0
275
    -2
285
     1
 65
     0
276
    -2
286
     1
 66
     0
277
    -2
287
     1
 67
     0
278
    -2
288
     1
 68
     0
279
    -2
289
     1
 69
     0
  7
STANDARD
140
0.18
170
     5
 62
     0
 63
     7
283
     0
274
    -2
284
     1
 64
     0
275
    -2
285
     1
 65
     0
276
    -2
286
     1
 66
     0
277
    -2
287
     1
 67
     0
278
    -2
288
     1
 68
     0
279
    -2
289
     1
 69
     0
  0
VISUALSTYLE
  5
35F
102
{ACAD_XDICTIONARY
360
3F2
102
}
102
{ACAD_REACTORS
330
359
102
}
330
359
100
AcDbVisualStyle
  2
2dWireframe
 70
     4
 71
     0
 72
     2
 73
     0
 90
        0
 40
-0.6
 41
-30.0
 62
     5
 63
     7
421
 16777215
 74
     1
 91
        4
 64
     7
 65
   257
 75
     1
175
     1
 42
1.0
 92
        0
 66
   257
 43
1.0
 76
     1
 77
     6
 78
     2
 67
     7
 79
     5
170
     0
171
     0
290
     0
174
     0
 93
        1
 44
0.0
173
     0
291
     0
 45
0.0
1001
ACAD
1000
AcDbSavedByObjectVersion
1070
     0
  0
VISUALSTYLE
  5
35E
102
{ACAD_XDICTIONARY
360
3F0
102
}
102
{ACAD_REACTORS
330
359
102
}
330
359
100
AcDbVisualStyle
  2
Basic
 70
     7
 71
     1
 72
     0
 73
     1
 90
        0
 40
-0.6
 41
-30.0
 62
     5
 63
     7
421
 16777215
 74
     0
 91
        4
 64
     7
 65
   257
 75
     1
175
     1
 42
1.0
 92
        8
 66
     7
 43
1.0
 76
     1
 77
     6
 78
     2
 67
     7
 79
     5
170
     0
171
     0
290
     0
174
     0
 93
        1
 44
0.0
173
     0
291
     1
 45
0.0
1001
ACAD
1000
AcDbSavedByObjectVersion
1070
     0
  0
VISUALSTYLE
  5
365
102
{ACAD_XDICTIONARY
360
3FE
102
}
102
{ACAD_REACTORS
330
359
102
}
330
359
100
AcDbVisualStyle
  2
Brighten
 70
    12
 71
     2
 72
     2
 73
     0
 90
        0
 40
-0.6
 41
-30.0
 62
     5
 63
     7
421
 16777215
 74
     1
 91
        4
 64
     7
 65
   257
 75
     1
175
     1
 42
1.0
 92
        8
 66
     7
 43
1.0
 76
     1
 77
     6
 78
     2
 67
     7
 79
     5
170
     0
171
     0
290
     0
174
     0
 93
        1
 44
50.0
173
     0
291
     1
 45
0.0
1001
ACAD
1000
AcDbSavedByObjectVersion
1070
     0
  0
VISUALSTYLE
  5
369
102
{ACAD_XDICTIONARY
360
406
102
}
102
{ACAD_REACTORS
330
359
102
}
330
359
100
AcDbVisualStyle
  2
ColorChange
 70
    16
 71
     2
 72
     2
 73
     3
 90
        0
 40
-0.6
 41
-30.0
 62
     5
 63
     8
421
  8421504
 74
     1
 91
        4
 64
     7
 65
   257
 75
     1
175
     1
 42
1.0
 92
        8
 66
     8
424
  8421504
 43
1.0
 76
     1
 77
     6
 78
     2
 67
     7
 79
     5
170
     0
171
     0
290
     0
174
     0
 93
        1
 44
0.0
173
     0
291
     1
 45
0.0
1001
ACAD
1000
AcDbSavedByObjectVersion
1070
     0
  0
VISUALSTYLE
  5
362
102
{ACAD_XDICTIONARY
360
3F8
102
}
102
{ACAD_REACTORS
330
359
102
}
330
359
100
AcDbVisualStyle
  2
Conceptual
 70
     9
 71
     3
 72
     2
 73
     0
 90
        0
 40
-0.6
 41
-30.0
 62
     5
 63
     7
421
 16777215
 74
     2
 91
        2
 64
     7
 65
   257
 75
     1
175
     1
 42
179.0
 92
        8
 66
     7
 43
1.0
 76
     1
 77
     6
 78
     2
 67
     7
 79
     3
170
     0
171
     0
290
     0
174
     0
 93
        1
 44
0.0
173
     0
291
     0
 45
0.0
1001
ACAD
1000
AcDbSavedByObjectVersion
1070
     0
  0
VISUALSTYLE
  5
364
102
{ACAD_XDICTIONARY
360
3FC
102
}
102
{ACAD_REACTORS
330
359
102
}
330
359
100
AcDbVisualStyle
  2
Dim
 70
    11
 71
     2
 72
     2
 73
     0
 90
        0
 40
-0.6
 41
-30.0
 62
     5
 63
     7
421
 16777215
 74
     1
 91
        4
 64
     7
 65
   257
 75
     1
175
     1
 42
1.0
 92
        8
 66
     7
 43
1.0
 76
     1
 77
     6
 78
     2
 67
     7
 79
     5
170
     0
171
     0
290
     0
174
     0
 93
        1
 44
-50.0
173
     0
291
     1
 45
0.0
1001
ACAD
1000
AcDbSavedByObjectVersion
1070
     0
  0
VISUALSTYLE
  5
371
102
{ACAD_XDICTIONARY
360
416
102
}
102
{ACAD_REACTORS
330
359
102
}
330
359
100
AcDbVisualStyle
  2
EdgeColorOff
 70
    22
 71
     2
 72
     2
 73
     0
 90
        0
 40
-0.6
 41
-30.0
 62
     5
 63
     7
421
 16777215
 74
     1
 91
        4
 64
     7
 65
   257
 75
     1
175
     1
 42
1.0
 92
        8
 66
     7
 43
1.0
 76
     1
 77
     6
 78
     2
 67
     7
 79
     5
170
     0
171
     0
290
     0
174
     0
 93
        1
 44
0.0
173
     0
291
     1
 45
0.0
1001
ACAD
1000
AcDbSavedByObjectVersion
1070
     0
  0
VISUALSTYLE
  5
368
102
{ACAD_XDICTIONARY
360
404
102
}
102
{ACAD_REACTORS
330
359
102
}
330
359
100
AcDbVisualStyle
  2
Facepattern
 70
    15
 71
     2
 72
     2
 73
     0
 90
        0
 40
-0.6
 41
-30.0
 62
     5
 63
     7
421
 16777215
 74
     1
 91
        4
 64
     7
 65
   257
 75
     1
175
     1
 42
1.0
 92
        8
 66
     7
 43
1.0
 76
     1
 77
     6
 78
     2
 67
     7
 79
     5
170
     0
171
     0
290
     0
174
     0
 93
        1
 44
0.0
173
     0
291
     1
 45
0.0
1001
ACAD
1000
AcDbSavedByObjectVersion
1070
     0
  0
VISUALSTYLE
  5
35A
102
{ACAD_XDICTIONARY
360
3E8
102
}
102
{ACAD_REACTORS
330
359
102
}
330
359
100
AcDbVisualStyle
  2
Flat
 70
     0
 71
     2
 72
     1
 73
     1
 90
        2
 40
-0.6
 41
30.0
 62
     5
 63
     7
421
 16777215
 74
     0
 91
        0
 64
     7
 65
   257
 75
     1
175
     1
 42
1.0
 92
        8
 66
     7
 43
1.0
 76
     1
 77
     6
 78
     2
 67
     7
 79
     5
170
     0
171
     0
290
     0
174
     0
 93
       13
 44
0.0
173
     0
291
     1
 45
0.0
1001
ACAD
1000
AcDbSavedByObjectVersion
1070
     0
  0
VISUALSTYLE
  5
35B
102
{ACAD_XDICTIONARY
360
3EA
102
}
102
{ACAD_REACTORS
330
359
102
}
330
359
100
AcDbVisualStyle
  2
FlatWithEdges
 70
     1
 71
     2
 72
     1
 73
     1
 90
        2
 40
-0.6
 41
30.0
 62
     5
 63
     7
421
 16777215
 74
     1
 91
        0
 64
     7
 65
   257
 75
     1
175
     1
 42
1.0
 92
        0
 66
   257
 43
1.0
 76
     1
 77
     6
 78
     2
 67
     7
 79
     5
170
     0
171
     0
290
     0
174
     0
 93
       13
 44
0.0
173
     0
291
     1
 45
0.0
1001
ACAD
1000
AcDbSavedByObjectVersion
1070
     0
  0
VISUALSTYLE
  5
35C
102
{ACAD_XDICTIONARY
360
3EC
102
}
102
{ACAD_REACTORS
330
359
102
}
330
359
100
AcDbVisualStyle
  2
Gouraud
 70
     2
 71
     2
 72
     2
 73
     1
 90
        2
 40
-0.6
 41
30.0
 62
     5
 63
     7
421
 16777215
 74
     0
 91
        0
 64
     7
 65
   257
 75
     1
175
     1
 42
1.0
 92
        0
 66
     7
 43
1.0
 76
     1
 77
     6
 78
     2
 67
     7
 79
     5
170
     0
171
     0
290
     0
174
     0
 93
       13
 44
0.0
173
     0
291
     1
 45
0.0
1001
ACAD
1000
AcDbSavedByObjectVersion
1070
     0
  0
VISUALSTYLE
  5
35D
102
{ACAD_XDICTIONARY
360
3EE
102
}
102
{ACAD_REACTORS
330
359
102
}
330
359
100
AcDbVisualStyle
  2
GouraudWithEdges
 70
     3
 71
     2
 72
     2
 73
     1
 90
        2
 40
-0.6
 41
30.0
 62
     5
 63
     7
421
 16777215
 74
     1
 91
        0
 64
     7
 65
   257
 75
     1
175
     1
 42
1.0
 92
        0
 66
   257
 43
1.0
 76
     1
 77
     6
 78
     2
 67
     7
 79
     5
170
     0
171
     0
290
     0
174
     0
 93
       13
 44
0.0
173
     0
291
     1
 45
0.0
1001
ACAD
1000
AcDbSavedByObjectVersion
1070
     0
  0
VISUALSTYLE
  5
361
102
{ACAD_XDICTIONARY
360
3F6
102
}
102
{ACAD_REACTORS
330
359
102
}
330
359
100
AcDbVisualStyle
  2
Hidden
 70
     6
 71
     1
 72
     2
 73
     2
 90
        0
 40
-0.6
 41
-30.0
 62
     5
 63
     7
421
 16777215
 74
     2
 91
        2
 64
     7
 65
   257
 75
     2
175
     1
 42
40.0
 92
        0
 66
   257
 43
1.0
 76
     1
 77
     6
 78
     2
 67
     7
 79
     3
170
     0
171
     0
290
     0
174
     0
 93
        1
 44
0.0
173
     0
291
     0
 45
0.0
1001
ACAD
1000
AcDbSavedByObjectVersion
1070
     0
  0
VISUALSTYLE
  5
36F
102
{ACAD_XDICTIONARY
360
412
102
}
102
{ACAD_REACTORS
330
359
102
}
330
359
100
AcDbVisualStyle
  2
JitterOff
 70
    20
 71
     2
 72
     2
 73
     0
 90
        0
 40
-0.6
 41
-30.0
 62
     5
 63
     7
421
 16777215
 74
     1
 91
        4
 64
     7
 65
   257
 75
     1
175
     1
 42
1.0
 92
       10
 66
     7
 43
1.0
 76
     1
 77
     6
 78
     2
 67
     7
 79
     5
170
     0
171
     0
290
     0
174
     0
 93
        1
 44
0.0
173
     0
291
     1
 45
0.0
1001
ACAD
1000
AcDbSavedByObjectVersion
1070
     0
  0
VISUALSTYLE
  5
367
102
{ACAD_XDICTIONARY
360
402
102
}
102
{ACAD_REACTORS
330
359
102
}
330
359
100
AcDbVisualStyle
  2
Linepattern
 70
    14
 71
     2
 72
     2
 73
     0
 90
        0
 40
-0.6
 41
-30.0
 62
     5
 63
     7
421
 16777215
 74
     1
 91
        4
 64
     7
 65
   257
 75
     7
175
     7
 42
1.0
 92
        8
 66
     7
 43
1.0
 76
     1
 77
     6
 78
     2
 67
     7
 79
     5
170
     0
171
     0
290
     0
174
     0
 93
        1
 44
0.0
173
     0
291
     1
 45
0.0
1001
ACAD
1000
AcDbSavedByObjectVersion
1070
     0
  0
VISUALSTYLE
  5
370
102
{ACAD_XDICTIONARY
360
414
102
}
102
{ACAD_REACTORS
330
359
102
}
330
359
100
AcDbVisualStyle
  2
OverhangOff
 70
    21
 71
     2
 72
     2
 73
     0
 90
        0
 40
-0.6
 41
-30.0
 62
     5
 63
     7
421
 16777215
 74
     1
 91
        4
 64
     7
 65
   257
 75
     1
175
     1
 42
1.0
 92
        9
 66
     7
 43
1.0
 76
     1
 77
     6
 78
     2
 67
     7
 79
     5
170
     0
171
     0
290
     0
174
     0
 93
        1
 44
0.0
173
     0
291
     1
 45
0.0
1001
ACAD
1000
AcDbSavedByObjectVersion
1070
     0
  0
VISUALSTYLE
  5
363
102
{ACAD_XDICTIONARY
360
3FA
102
}
102
{ACAD_REACTORS
330
359
102
}
330
359
100
AcDbVisualStyle
  2
Realistic
 70
     8
 71
     2
 72
     2
 73
     0
 90
        2
 40
-0.6
 41
30.0
 62
     5
 63
     7
421
 16777215
 74
     0
 91
        0
 64
     7
 65
   257
 75
     1
175
     1
 42
1.0
 92
        8
 66
   257
 43
1.0
 76
     1
 77
     6
 78
     2
 67
     7
 79
     3
170
     0
171
     0
290
     0
174
     0
 93
       13
 44
0.0
173
     0
291
     0
 45
0.0
1001
ACAD
1000
AcDbSavedByObjectVersion
1070
     0
  0
VISUALSTYLE
  5
36E
102
{ACAD_XDICTIONARY
360
410
102
}
102
{ACAD_REACTORS
330
359
102
}
330
359
100
AcDbVisualStyle
  2
Shaded
 70
    27
 71
     2
 72
     2
 73
     1
 90
        2
 40
-0.6
 41
30.0
 62
     5
 63
     7
421
 16777215
 74
     0
 91
        4
 64
     7
 65
   257
 75
     1
175
     1
 42
1.0
 92
        8
 66
   257
 43
1.0
 76
     1
 77
     6
 78
     2
 67
     8
425
  7895160
 79
     3
170
     0
171
     0
290
     0
174
     0
 93
        5
 44
0.0
173
     0
291
     0
 45
0.0
1001
ACAD
1000
AcDbSavedByObjectVersion
1070
     0
  0
VISUALSTYLE
  5
36D
102
{ACAD_XDICTIONARY
360
40E
102
}
102
{ACAD_REACTORS
330
359
102
}
330
359
100
AcDbVisualStyle
  2
Shaded with edges
 70
    26
 71
     2
 72
     2
 73
     1
 90
        2
 40
-0.6
 41
30.0
 62
     5
 63
     7
421
 16777215
 74
     1
 91
       10
 64
     7
 65
   257
 75
     2
175
     1
 42
1.0
 92
        8
 66
   257
 43
1.0
 76
     1
 77
     6
 78
     2
 67
     7
 79
     3
170
     0
171
     0
290
     0
174
     0
 93
        5
 44
0.0
173
     0
291
     0
 45
0.0
1001
ACAD
1000
AcDbSavedByObjectVersion
1070
     0
  0
VISUALSTYLE
  5
36A
102
{ACAD_XDICTIONARY
360
408
102
}
102
{ACAD_REACTORS
330
359
102
}
330
359
100
AcDbVisualStyle
  2
Shades of Gray
 70
    23
 71
     2
 72
     2
 73
     3
 90
        0
 40
-0.6
 41
-30.0
 62
     5
 63
     7
421
 16777215
 74
     2
 91
        2
 64
     7
 65
     7
 75
     1
175
     1
 42
40.0
 92
        8
 66
     7
 43
1.0
 76
     1
 77
     6
 78
     2
 67
     7
 79
     3
170
     0
171
     0
290
     0
174
     0
 93
        1
 44
0.0
173
     0
291
     0
 45
0.0
1001
ACAD
1000
AcDbSavedByObjectVersion
1070
     0
  0
VISUALSTYLE
  5
36B
102
{ACAD_XDICTIONARY
360
40A
102
}
102
{ACAD_REACTORS
330
359
102
}
330
359
100
AcDbVisualStyle
  2
Sketchy
 70
    24
 71
     1
 72
     2
 73
     2
 90
        0
 40
-0.6
 41
-30.0
 62
     5
 63
     7
421
 16777215
 74
     2
 91
        2
 64
     7
 65
     7
 75
     1
175
     1
 42
40.0
 92
       11
 66
     7
 43
1.0
 76
     1
 77
     6
 78
     2
 67
     7
 79
     6
170
     0
171
     0
290
     0
174
     0
 93
        1
 44
0.0
173
     0
291
     0
 45
0.0
1001
ACAD
1000
AcDbSavedByObjectVersion
1070
     0
  0
VISUALSTYLE
  5
366
102
{ACAD_XDICTIONARY
360
400
102
}
102
{ACAD_REACTORS
330
359
102
}
330
359
100
AcDbVisualStyle
  2
Thicken
 70
    13
 71
     2
 72
     2
 73
     0
 90
        0
 40
-0.6
 41
-30.0
 62
     5
 63
     7
421
 16777215
 74
     1
 91
        4
 64
     7
 65
   257
 75
     1
175
     1
 42
1.0
 92
       12
 66
     7
 43
1.0
 76
     1
 77
     6
 78
     2
 67
     7
 79
     5
170
     0
171
     0
290
     0
174
     0
 93
        1
 44
0.0
173
     0
291
     1
 45
0.0
1001
ACAD
1000
AcDbSavedByObjectVersion
1070
     0
  0
VISUALSTYLE
  5
360
102
{ACAD_XDICTIONARY
360
3F4
102
}
102
{ACAD_REACTORS
330
359
102
}
330
359
100
AcDbVisualStyle
  2
Wireframe
 70
     5
 71
     0
 72
     2
 73
     0
 90
        0
 40
-0.6
 41
-30.0
 62
     5
 63
     7
421
 16777215
 74
     1
 91
        4
 64
     7
 65
   257
 75
     1
175
     1
 42
1.0
 92
        0
 66
   257
 43
1.0
 76
     1
 77
     6
 78
     2
 67
     7
 79
     3
170
     0
171
     0
290
     0
174
     0
 93
        1
 44
0.0
173
     0
291
     0
 45
0.0
1001
ACAD
1000
AcDbSavedByObjectVersion
1070
     0
  0
VISUALSTYLE
  5
36C
102
{ACAD_XDICTIONARY
360
40C
102
}
102
{ACAD_REACTORS
330
359
102
}
330
359
100
AcDbVisualStyle
  2
X-Ray
 70
    25
 71
     2
 72
     2
 73
     1
 90
        1
 40
0.5
 41
-30.0
 62
     5
 63
     7
421
 16777215
 74
     1
 91
        0
 64
     7
 65
   257
 75
     1
175
     1
 42
1.0
 92
        8
 66
     7
 43
1.0
 76
     1
 77
     6
 78
     2
 67
     7
 79
     3
170
     0
171
     0
290
     0
174
     0
 93
       13
 44
0.0
173
     0
291
     0
 45
0.0
1001
ACAD
1000
AcDbSavedByObjectVersion
1070
     0
  0
DICTIONARYVAR
  5
3D6
102
{ACAD_REACTORS
330
336
102
}
330
336
100
DictionaryVariables
280
     0
  1
1:1
  0
DICTIONARYVAR
  5
3D3
102
{ACAD_REACTORS
330
336
102
}
330
336
100
DictionaryVariables
280
     0
  1
STANDARD
  0
DICTIONARYVAR
  5
3D2
102
{ACAD_REACTORS
330
336
102
}
330
336
100
DictionaryVariables
280
     0
  1
STANDARD
  0
DICTIONARYVAR
  5
3D4
102
{ACAD_REACTORS
330
336
102
}
330
336
100
DictionaryVariables
280
     0
  1
Imperial24
  0
DICTIONARYVAR
  5
3D5
102
{ACAD_REACTORS
330
336
102
}
330
336
100
DictionaryVariables
280
     0
  1
Imperial24
  0
DICTIONARYVAR
  5
337
102
{ACAD_REACTORS
330
336
102
}
330
336
100
DictionaryVariables
280
     0
  1
0
  0
DICTIONARYVAR
  5
3E2
102
{ACAD_REACTORS
330
336
102
}
330
336
100
DictionaryVariables
280
     0
  1
2
  0
DICTIONARY
  5
41D
330
38C
100
AcDbDictionary
280
     1
281
     1
  3
ACAD_XREC_ROUNDTRIP
360
41E
  0
DICTIONARY
  5
34A
330
349
100
AcDbDictionary
280
     1
281
     1
  3
ACAD_XREC_ROUNDTRIP
360
3E6
  3
BUMPTILE
360
34C
  3
DIFFUSETILE
360
34B
  3
OPACITYTILE
360
34F
  3
REFLECTIONTILE
360
34E
  3
REFRACTIONTILE
360
350
  3
SPECULARTILE
360
34D
  0
DICTIONARY
  5
342
330
341
100
AcDbDictionary
280
     1
281
     1
  3
ACAD_XREC_ROUNDTRIP
360
3E5
  3
BUMPTILE
360
344
  3
DIFFUSETILE
360
343
  3
OPACITYTILE
360
347
  3
REFLECTIONTILE
360
346
  3
REFRACTIONTILE
360
348
  3
SPECULARTILE
360
345
  0
DICTIONARY
  5
352
330
351
100
AcDbDictionary
280
     1
281
     1
  3
ACAD_XREC_ROUNDTRIP
360
3E7
  3
BUMPTILE
360
354
  3
DIFFUSETILE
360
353
  3
OPACITYTILE
360
357
  3
REFLECTIONTILE
360
356
  3
REFRACTIONTILE
360
358
  3
SPECULARTILE
360
355
  0
DICTIONARY
  5
419
330
388
100
AcDbDictionary
280
     1
281
     1
  3
ACAD_XREC_ROUNDTRIP
360
41A
  0
DICTIONARY
  5
41B
330
38A
100
AcDbDictionary
280
     1
281
     1
  3
ACAD_XREC_ROUNDTRIP
360
41C
  0
DICTIONARY
  5
394
330
374
100
AcDbDictionary
280
     1
281
     1
  3
ACAD_ROUNDTRIP_2008_TABLESTYLE_CELLSTYLEMAP
360
3E3
  3
ACAD_XREC_ROUNDTRIP
360
418
  0
DICTIONARY
  5
3F2
330
35F
100
AcDbDictionary
280
     1
281
     1
  3
ACAD_XREC_ROUNDTRIP
360
3F3
  0
DICTIONARY
  5
3F0
330
35E
100
AcDbDictionary
280
     1
281
     1
  3
ACAD_XREC_ROUNDTRIP
360
3F1
  0
DICTIONARY
  5
3FE
330
365
100
AcDbDictionary
280
     1
281
     1
  3
ACAD_XREC_ROUNDTRIP
360
3FF
  0
DICTIONARY
  5
406
330
369
100
AcDbDictionary
280
     1
281
     1
  3
ACAD_XREC_ROUNDTRIP
360
407
  0
DICTIONARY
  5
3F8
330
362
100
AcDbDictionary
280
     1
281
     1
  3
ACAD_XREC_ROUNDTRIP
360
3F9
  0
DICTIONARY
  5
3FC
330
364
100
AcDbDictionary
280
     1
281
     1
  3
ACAD_XREC_ROUNDTRIP
360
3FD
  0
DICTIONARY
  5
416
330
371
100
AcDbDictionary
280
     1
281
     1
  3
ACAD_XREC_ROUNDTRIP
360
417
  0
DICTIONARY
  5
404
330
368
100
AcDbDictionary
280
     1
281
     1
  3
ACAD_XREC_ROUNDTRIP
360
405
  0
DICTIONARY
  5
3E8
330
35A
100
AcDbDictionary
280
     1
281
     1
  3
ACAD_XREC_ROUNDTRIP
360
3E9
  0
DICTIONARY
  5
3EA
330
35B
100
AcDbDictionary
280
     1
281
     1
  3
ACAD_XREC_ROUNDTRIP
360
3EB
  0
DICTIONARY
  5
3EC
330
35C
100
AcDbDictionary
280
     1
281
     1
  3
ACAD_XREC_ROUNDTRIP
360
3ED
  0
DICTIONARY
  5
3EE
330
35D
100
AcDbDictionary
280
     1
281
     1
  3
ACAD_XREC_ROUNDTRIP
360
3EF
  0
DICTIONARY
  5
3F6
330
361
100
AcDbDictionary
280
     1
281
     1
  3
ACAD_XREC_ROUNDTRIP
360
3F7
  0
DICTIONARY
  5
412
330
36F
100
AcDbDictionary
280
     1
281
     1
  3
ACAD_XREC_ROUNDTRIP
360
413
  0
DICTIONARY
  5
402
330
367
100
AcDbDictionary
280
     1
281
     1
  3
ACAD_XREC_ROUNDTRIP
360
403
  0
DICTIONARY
  5
414
330
370
100
AcDbDictionary
280
     1
281
     1
  3
ACAD_XREC_ROUNDTRIP
360
415
  0
DICTIONARY
  5
3FA
330
363
100
AcDbDictionary
280
     1
281
     1
  3
ACAD_XREC_ROUNDTRIP
360
3FB
  0
DICTIONARY
  5
410
330
36E
100
AcDbDictionary
280
     1
281
     1
  3
ACAD_XREC_ROUNDTRIP
360
411
  0
DICTIONARY
  5
40E
330
36D
100
AcDbDictionary
280
     1
281
     1
  3
ACAD_XREC_ROUNDTRIP
360
40F
  0
DICTIONARY
  5
408
330
36A
100
AcDbDictionary
280
     1
281
     1
  3
ACAD_XREC_ROUNDTRIP
360
409
  0
DICTIONARY
  5
40A
330
36B
100
AcDbDictionary
280
     1
281
     1
  3
ACAD_XREC_ROUNDTRIP
360
40B
  0
DICTIONARY
  5
400
330
366
100
AcDbDictionary
280
     1
281
     1
  3
ACAD_XREC_ROUNDTRIP
360
401
  0
DICTIONARY
  5
3F4
330
360
100
AcDbDictionary
280
     1
281
     1
  3
ACAD_XREC_ROUNDTRIP
360
3F5
  0
DICTIONARY
  5
40C
330
36C
100
AcDbDictionary
280
     1
281
     1
  3
ACAD_XREC_ROUNDTRIP
360
40D
  0
XRECORD
  5
41E
102
{ACAD_REACTORS
330
41D
102
}
330
41D
100
AcDbXrecord
280
     1
102
DISPLAYNAME
  1
Imperial24
102
FLAGS
 90
        0
  0
XRECORD
  5
3E6
102
{ACAD_REACTORS
330
34A
102
}
330
34A
100
AcDbXrecord
280
     1
102
MATERIAL
148
0.0
149
0.0
149
0.0
 93
        0
 94
      127
282
     0
 72
     0
 77
     0
171
     0
175
     0
179
     0
273
     0
  0
XRECORD
  5
34C
102
{ACAD_REACTORS
330
34A
102
}
330
34A
100
AcDbXrecord
280
     1
270
     1
271
     1
  0
XRECORD
  5
34B
102
{ACAD_REACTORS
330
34A
102
}
330
34A
100
AcDbXrecord
280
     1
270
     1
271
     1
  0
XRECORD
  5
34F
102
{ACAD_REACTORS
330
34A
102
}
330
34A
100
AcDbXrecord
280
     1
270
     1
271
     1
  0
XRECORD
  5
34E
102
{ACAD_REACTORS
330
34A
102
}
330
34A
100
AcDbXrecord
280
     1
270
     1
271
     1
  0
XRECORD
  5
350
102
{ACAD_REACTORS
330
34A
102
}
330
34A
100
AcDbXrecord
280
     1
270
     1
271
     1
  0
XRECORD
  5
34D
102
{ACAD_REACTORS
330
34A
102
}
330
34A
100
AcDbXrecord
280
     1
270
     1
271
     1
  0
XRECORD
  5
3E5
102
{ACAD_REACTORS
330
342
102
}
330
342
100
AcDbXrecord
280
     1
102
MATERIAL
148
0.0
149
0.0
149
0.0
 93
        0
 94
      127
282
     0
 72
     0
 77
     0
171
     0
175
     0
179
     0
273
     0
  0
XRECORD
  5
344
102
{ACAD_REACTORS
330
342
102
}
330
342
100
AcDbXrecord
280
     1
270
     1
271
     1
  0
XRECORD
  5
343
102
{ACAD_REACTORS
330
342
102
}
330
342
100
AcDbXrecord
280
     1
270
     1
271
     1
  0
XRECORD
  5
347
102
{ACAD_REACTORS
330
342
102
}
330
342
100
AcDbXrecord
280
     1
270
     1
271
     1
  0
XRECORD
  5
346
102
{ACAD_REACTORS
330
342
102
}
330
342
100
AcDbXrecord
280
     1
270
     1
271
     1
  0
XRECORD
  5
348
102
{ACAD_REACTORS
330
342
102
}
330
342
100
AcDbXrecord
280
     1
270
     1
271
     1
  0
XRECORD
  5
345
102
{ACAD_REACTORS
330
342
102
}
330
342
100
AcDbXrecord
280
     1
270
     1
271
     1
  0
XRECORD
  5
3E7
102
{ACAD_REACTORS
330
352
102
}
330
352
100
AcDbXrecord
280
     1
102
MATERIAL
148
0.0
149
0.0
149
0.0
 93
        0
 94
      127
282
     0
 72
     0
 77
     0
171
     0
175
     0
179
     0
273
     0
  0
XRECORD
  5
354
102
{ACAD_REACTORS
330
352
102
}
330
352
100
AcDbXrecord
280
     1
270
     1
271
     1
  0
XRECORD
  5
353
102
{ACAD_REACTORS
330
352
102
}
330
352
100
AcDbXrecord
280
     1
270
     1
271
     1
  0
XRECORD
  5
357
102
{ACAD_REACTORS
330
352
102
}
330
352
100
AcDbXrecord
280
     1
270
     1
271
     1
  0
XRECORD
  5
356
102
{ACAD_REACTORS
330
352
102
}
330
352
100
AcDbXrecord
280
     1
270
     1
271
     1
  0
XRECORD
  5
358
102
{ACAD_REACTORS
330
352
102
}
330
352
100
AcDbXrecord
280
     1
270
     1
271
     1
  0
XRECORD
  5
355
102
{ACAD_REACTORS
330
352
102
}
330
352
100
AcDbXrecord
280
     1
270
     1
271
     1
  0
XRECORD
  5
41A
102
{ACAD_REACTORS
330
419
102
}
330
419
100
AcDbXrecord
280
     1
102
ACAD_ROUNDTRIP_2012_MLEADER_STYLE
298
     1
  0
XRECORD
  5
41C
102
{ACAD_REACTORS
330
41B
102
}
330
41B
100
AcDbXrecord
280
     1
102
DISPLAYNAME
  1
Imperial24
102
FLAGS
 90
        0
  0
CELLSTYLEMAP
  5
3E3
102
{ACAD_REACTORS
330
394
102
}
330
394
100
AcDbCellStyleMap
 90
        3
300
CELLSTYLE
  1
TABLEFORMAT_BEGIN
 90
        5
170
     1
 91
        0
 92
    32768
 62
   257
 93
        1
300
CONTENTFORMAT
  1
CONTENTFORMAT_BEGIN
 90
        0
 91
        0
 92
      512
 93
        0
300

 40
0.0
140
1.0
 94
        5
 62
     0
340
31E
144
0.25
309
CONTENTFORMAT_END
171
     0
 94
        0
309
TABLEFORMAT_END
  1
CELLSTYLE_BEGIN
 90
        1
 91
        1
300
_TITLE
309
CELLSTYLE_END
300
CELLSTYLE
  1
TABLEFORMAT_BEGIN
 90
        5
170
     1
 91
        0
 92
        0
 62
   257
 93
        1
300
CONTENTFORMAT
  1
CONTENTFORMAT_BEGIN
 90
        0
 91
        0
 92
      512
 93
        0
300

 40
0.0
140
1.0
 94
        5
 62
     0
340
31E
144
0.18
309
CONTENTFORMAT_END
171
     0
 94
        0
309
TABLEFORMAT_END
  1
CELLSTYLE_BEGIN
 90
        2
 91
        1
300
_HEADER
309
CELLSTYLE_END
300
CELLSTYLE
  1
TABLEFORMAT_BEGIN
 90
        5
170
     1
 91
        0
 92
        0
 62
   257
 93
        1
300
CONTENTFORMAT
  1
CONTENTFORMAT_BEGIN
 90
        0
 91
        0
 92
      512
 93
        0
300

 40
0.0
140
1.0
 94
        2
 62
     0
340
31E
144
0.18
309
CONTENTFORMAT_END
171
     0
 94
        0
309
TABLEFORMAT_END
  1
CELLSTYLE_BEGIN
 90
        3
 91
        2
300
_DATA
309
CELLSTYLE_END
  0
XRECORD
  5
418
102
{ACAD_REACTORS
330
394
102
}
330
394
100
AcDbXrecord
280
     1
102
ACAD_ROUNDTRIP_PRE2007_TABLESTYLE
 90
      512
 91
        0
  1

 92
      512
 93
        0
  2

 94
      512
 95
        0
  3

  0
XRECORD
  5
3F3
102
{ACAD_REACTORS
330
3F2
102
}
330
3F2
100
AcDbXrecord
280
     1
102
RTVSPost2010Prop28
280
     1
102
RTVSPost2010PropOp28
 70
     1
102
RTVSPost2010Prop29
280
     1
102
RTVSPost2010PropOp29
 70
     1
102
RTVSPost2010Prop30
280
     0
102
RTVSPost2010PropOp30
 70
     1
102
RTVSPost2010Prop31
280
     0
102
RTVSPost2010PropOp31
 70
     1
102
RTVSPost2010Prop32
280
     0
102
RTVSPost2010PropOp32
 70
     1
102
RTVSPost2010Prop33
280
     0
102
RTVSPost2010PropOp33
 70
     1
102
RTVSPost2010Prop34
280
     0
102
RTVSPost2010PropOp34
 70
     1
102
RTVSPost2010Prop35
280
     0
102
RTVSPost2010PropOp35
 70
     1
102
RTVSPost2010Prop36
280
     0
102
RTVSPost2010PropOp36
 70
     1
102
RTVSPost2010Prop37
 90
       50
102
RTVSPost2010PropOp37
 70
     1
102
RTVSPost2010Prop38
140
0.0
102
RTVSPost2010PropOp38
 70
     1
102
RTVSPost2010Prop39
140
1.0
102
RTVSPost2010PropOp39
 70
     1
102
RTVSPost2010Prop40
 90
        0
102
RTVSPost2010PropOp40
 70
     1
102
RTVSPost2010Prop41ColorIndex
 90
       18
102
RTVSPost2010Prop41ColorRGB
 90
        0
102
RTVSPost2010PropOp41
 70
     1
102
RTVSPost2010Prop42
 90
       50
102
RTVSPost2010PropOp42
 70
     1
102
RTVSPost2010Prop43
 90
        3
102
RTVSPost2010PropOp43
 70
     1
102
RTVSPost2010Prop44ColorIndex
 90
        5
102
RTVSPost2010Prop44ColorRGB
 90
      255
102
RTVSPost2010PropOp44
 70
     1
102
RTVSPost2010Prop45
280
     0
102
RTVSPost2010PropOp45
 70
     1
102
RTVSPost2010Prop46
 90
       50
102
RTVSPost2010PropOp46
 70
     1
102
RTVSPost2010Prop47
 90
       50
102
RTVSPost2010PropOp47
 70
     1
102
RTVSPost2010Prop48
 90
       50
102
RTVSPost2010PropOp48
 70
     1
102
RTVSPost2010Prop49
280
     0
102
RTVSPost2010PropOp49
 70
     1
102
RTVSPost2010Prop50
 90
       50
102
RTVSPost2010PropOp50
 70
     1
102
RTVSPost2010Prop51ColorIndex
 90
      256
102
RTVSPost2010Prop51ColorRGB
 90
-16777216
102
RTVSPost2010PropOp51
 70
     0
102
RTVSPost2010Prop52
140
1.0
102
RTVSPost2010PropOp52
 70
     0
102
RTVSPost2010Prop53
 90
        2
102
RTVSPost2010PropOp53
 70
     1
102
RTVSPost2010Prop54
  1
strokes_ogs.tif
102
RTVSPost2010PropOp54
 70
     1
102
RTVSPost2010Prop55
280
     0
102
RTVSPost2010PropOp55
 70
     1
102
RTVSPost2010Prop56
140
1.0
102
RTVSPost2010PropOp56
 70
     1
102
RTVSPost2010Prop57
140
1.0
102
RTVSPost2010PropOp57
 70
     1
102
RTVSPropertyOp0
 70
     1
102
RTVSPropertyOp1
 70
     1
102
RTVSPropertyOp2
 70
     1
102
RTVSPropertyOp3
 70
     1
102
RTVSPropertyOp4
 70
     1
102
RTVSPropertyOp5
 70
     1
102
RTVSPropertyOp6
 70
     1
102
RTVSPropertyOp7
 70
     1
102
RTVSPropertyOp8
 70
     1
102
RTVSPropertyOp9
 70
     1
102
RTVSPropertyOp10
 70
     1
102
RTVSPropertyOp11
 70
     1
102
RTVSPropertyOp12
 70
     1
102
RTVSPropertyOp13
 70
     1
102
RTVSPropertyOp14
 70
     1
102
RTVSPropertyOp15
 70
     1
102
RTVSPropertyOp16
 70
     1
102
RTVSPropertyOp17
 70
     1
102
RTVSPropertyOp18
 70
     1
102
RTVSPropertyOp19
 70
     1
102
RTVSPropertyOp20
 70
     1
102
RTVSPropertyOp21
 70
     1
102
RTVSPropertyOp22
 70
     1
102
RTVSPropertyOp23
 70
     1
102
RTVSPropertyOp24
 70
     1
102
RTVSPropertyOp25
 70
     1
102
RTVSPropertyOp26
 70
     1
102
RTVSPropertyOp27
 70
     1
102
RTVSPropertyOp28
 70
     1
102
RTVSPropertyOp29
 70
     1
102
RTVSPropertyOp30
 70
     1
102
RTVSPropertyOp31
 70
     1
102
RTVSPropertyOp32
 70
     1
102
RTVSPropertyOp33
 70
     1
102
RTVSPropertyOp34
 70
     1
102
RTVSPropertyOp35
 70
     1
102
RTVSPropertyOp36
 70
     1
102
RTVSPropertyOp37
 70
     1
102
RTVSPropertyOp38
 70
     1
102
RTVSPropertyOp39
 70
     1
102
RTVSPropertyOp40
 70
     1
102
RTVSPropertyOp41
 70
     1
102
RTVSPropertyOp42
 70
     1
102
RTVSPropertyOp43
 70
     1
102
RTVSPropertyOp44
 70
     1
102
RTVSPropertyOp45
 70
     1
102
RTVSPropertyOp46
 70
     1
102
RTVSPropertyOp47
 70
     1
102
RTVSPropertyOp48
 70
     1
102
RTVSPropertyOp49
 70
     1
102
RTVSPropertyOp50
 70
     1
102
RTVSPropertyOp51
 70
     0
102
RTVSPropertyOp52
 70
     0
102
RTVSPropertyOp53
 70
     1
102
RTVSPropertyOp54
 70
     1
102
RTVSPropertyOp55
 70
     1
102
RTVSPropertyOp56
 70
     1
102
RTVSPropertyOp57
 70
     1
102
RTVSPropertyOp58
 70
     1
102
RTVSPropertyOp59
 70
     1
102
RTVSPropertyOp60
 70
     1
102
RTVSPropertyOp61
 70
     1
102
RTVSPropertyOp62
 70
     1
  0
XRECORD
  5
3F1
102
{ACAD_REACTORS
330
3F0
102
}
330
3F0
100
AcDbXrecord
280
     1
102
RTVSPost2010Prop28
280
     0
102
RTVSPost2010PropOp28
 70
     1
102
RTVSPost2010Prop29
280
     1
102
RTVSPost2010PropOp29
 70
     1
102
RTVSPost2010Prop30
280
     1
102
RTVSPost2010PropOp30
 70
     1
102
RTVSPost2010Prop31
280
     0
102
RTVSPost2010PropOp31
 70
     1
102
RTVSPost2010Prop32
280
     0
102
RTVSPost2010PropOp32
 70
     1
102
RTVSPost2010Prop33
280
     0
102
RTVSPost2010PropOp33
 70
     1
102
RTVSPost2010Prop34
280
     0
102
RTVSPost2010PropOp34
 70
     1
102
RTVSPost2010Prop35
280
     0
102
RTVSPost2010PropOp35
 70
     1
102
RTVSPost2010Prop36
280
     0
102
RTVSPost2010PropOp36
 70
     1
102
RTVSPost2010Prop37
 90
       50
102
RTVSPost2010PropOp37
 70
     1
102
RTVSPost2010Prop38
140
0.0
102
RTVSPost2010PropOp38
 70
     1
102
RTVSPost2010Prop39
140
1.0
102
RTVSPost2010PropOp39
 70
     1
102
RTVSPost2010Prop40
 90
        0
102
RTVSPost2010PropOp40
 70
     1
102
RTVSPost2010Prop41ColorIndex
 90
       18
102
RTVSPost2010Prop41ColorRGB
 90
        0
102
RTVSPost2010PropOp41
 70
     1
102
RTVSPost2010Prop42
 90
       50
102
RTVSPost2010PropOp42
 70
     1
102
RTVSPost2010Prop43
 90
        3
102
RTVSPost2010PropOp43
 70
     1
102
RTVSPost2010Prop44ColorIndex
 90
        5
102
RTVSPost2010Prop44ColorRGB
 90
      255
102
RTVSPost2010PropOp44
 70
     1
102
RTVSPost2010Prop45
280
     0
102
RTVSPost2010PropOp45
 70
     1
102
RTVSPost2010Prop46
 90
       50
102
RTVSPost2010PropOp46
 70
     1
102
RTVSPost2010Prop47
 90
       50
102
RTVSPost2010PropOp47
 70
     1
102
RTVSPost2010Prop48
 90
       50
102
RTVSPost2010PropOp48
 70
     1
102
RTVSPost2010Prop49
280
     0
102
RTVSPost2010PropOp49
 70
     1
102
RTVSPost2010Prop50
 90
       50
102
RTVSPost2010PropOp50
 70
     1
102
RTVSPost2010Prop51ColorIndex
 90
      256
102
RTVSPost2010Prop51ColorRGB
 90
-16777216
102
RTVSPost2010PropOp51
 70
     0
102
RTVSPost2010Prop52
140
1.0
102
RTVSPost2010PropOp52
 70
     0
102
RTVSPost2010Prop53
 90
        2
102
RTVSPost2010PropOp53
 70
     1
102
RTVSPost2010Prop54
  1
strokes_ogs.tif
102
RTVSPost2010PropOp54
 70
     1
102
RTVSPost2010Prop55
280
     0
102
RTVSPost2010PropOp55
 70
     1
102
RTVSPost2010Prop56
140
1.0
102
RTVSPost2010PropOp56
 70
     1
102
RTVSPost2010Prop57
140
1.0
102
RTVSPost2010PropOp57
 70
     1
102
RTVSPropertyOp0
 70
     1
102
RTVSPropertyOp1
 70
     1
102
RTVSPropertyOp2
 70
     1
102
RTVSPropertyOp3
 70
     1
102
RTVSPropertyOp4
 70
     1
102
RTVSPropertyOp5
 70
     1
102
RTVSPropertyOp6
 70
     1
102
RTVSPropertyOp7
 70
     1
102
RTVSPropertyOp8
 70
     1
102
RTVSPropertyOp9
 70
     1
102
RTVSPropertyOp10
 70
     1
102
RTVSPropertyOp11
 70
     1
102
RTVSPropertyOp12
 70
     1
102
RTVSPropertyOp13
 70
     1
102
RTVSPropertyOp14
 70
     1
102
RTVSPropertyOp15
 70
     1
102
RTVSPropertyOp16
 70
     1
102
RTVSPropertyOp17
 70
     1
102
RTVSPropertyOp18
 70
     1
102
RTVSPropertyOp19
 70
     1
102
RTVSPropertyOp20
 70
     1
102
RTVSPropertyOp21
 70
     1
102
RTVSPropertyOp22
 70
     1
102
RTVSPropertyOp23
 70
     1
102
RTVSPropertyOp24
 70
     1
102
RTVSPropertyOp25
 70
     1
102
RTVSPropertyOp26
 70
     1
102
RTVSPropertyOp27
 70
     1
102
RTVSPropertyOp28
 70
     1
102
RTVSPropertyOp29
 70
     1
102
RTVSPropertyOp30
 70
     1
102
RTVSPropertyOp31
 70
     1
102
RTVSPropertyOp32
 70
     1
102
RTVSPropertyOp33
 70
     1
102
RTVSPropertyOp34
 70
     1
102
RTVSPropertyOp35
 70
     1
102
RTVSPropertyOp36
 70
     1
102
RTVSPropertyOp37
 70
     1
102
RTVSPropertyOp38
 70
     1
102
RTVSPropertyOp39
 70
     1
102
RTVSPropertyOp40
 70
     1
102
RTVSPropertyOp41
 70
     1
102
RTVSPropertyOp42
 70
     1
102
RTVSPropertyOp43
 70
     1
102
RTVSPropertyOp44
 70
     1
102
RTVSPropertyOp45
 70
     1
102
RTVSPropertyOp46
 70
     1
102
RTVSPropertyOp47
 70
     1
102
RTVSPropertyOp48
 70
     1
102
RTVSPropertyOp49
 70
     1
102
RTVSPropertyOp50
 70
     1
102
RTVSPropertyOp51
 70
     0
102
RTVSPropertyOp52
 70
     0
102
RTVSPropertyOp53
 70
     1
102
RTVSPropertyOp54
 70
     1
102
RTVSPropertyOp55
 70
     1
102
RTVSPropertyOp56
 70
     1
102
RTVSPropertyOp57
 70
     1
102
RTVSPropertyOp58
 70
     1
102
RTVSPropertyOp59
 70
     1
102
RTVSPropertyOp60
 70
     1
102
RTVSPropertyOp61
 70
     1
102
RTVSPropertyOp62
 70
     1
  0
XRECORD
  5
3FF
102
{ACAD_REACTORS
330
3FE
102
}
330
3FE
100
AcDbXrecord
280
     1
102
RTVSPost2010Prop28
280
     0
102
RTVSPost2010PropOp28
 70
     1
102
RTVSPost2010Prop29
280
     1
102
RTVSPost2010PropOp29
 70
     1
102
RTVSPost2010Prop30
280
     1
102
RTVSPost2010PropOp30
 70
     1
102
RTVSPost2010Prop31
280
     0
102
RTVSPost2010PropOp31
 70
     1
102
RTVSPost2010Prop32
280
     0
102
RTVSPost2010PropOp32
 70
     1
102
RTVSPost2010Prop33
280
     0
102
RTVSPost2010PropOp33
 70
     1
102
RTVSPost2010Prop34
280
     0
102
RTVSPost2010PropOp34
 70
     1
102
RTVSPost2010Prop35
280
     0
102
RTVSPost2010PropOp35
 70
     1
102
RTVSPost2010Prop36
280
     0
102
RTVSPost2010PropOp36
 70
     1
102
RTVSPost2010Prop37
 90
       50
102
RTVSPost2010PropOp37
 70
     1
102
RTVSPost2010Prop38
140
0.0
102
RTVSPost2010PropOp38
 70
     1
102
RTVSPost2010Prop39
140
1.0
102
RTVSPost2010PropOp39
 70
     1
102
RTVSPost2010Prop40
 90
        0
102
RTVSPost2010PropOp40
 70
     1
102
RTVSPost2010Prop41ColorIndex
 90
       18
102
RTVSPost2010Prop41ColorRGB
 90
        0
102
RTVSPost2010PropOp41
 70
     1
102
RTVSPost2010Prop42
 90
       50
102
RTVSPost2010PropOp42
 70
     1
102
RTVSPost2010Prop43
 90
        3
102
RTVSPost2010PropOp43
 70
     1
102
RTVSPost2010Prop44ColorIndex
 90
        5
102
RTVSPost2010Prop44ColorRGB
 90
      255
102
RTVSPost2010PropOp44
 70
     1
102
RTVSPost2010Prop45
280
     0
102
RTVSPost2010PropOp45
 70
     1
102
RTVSPost2010Prop46
 90
       50
102
RTVSPost2010PropOp46
 70
     1
102
RTVSPost2010Prop47
 90
       50
102
RTVSPost2010PropOp47
 70
     1
102
RTVSPost2010Prop48
 90
       50
102
RTVSPost2010PropOp48
 70
     1
102
RTVSPost2010Prop49
280
     0
102
RTVSPost2010PropOp49
 70
     1
102
RTVSPost2010Prop50
 90
       50
102
RTVSPost2010PropOp50
 70
     1
102
RTVSPost2010Prop51ColorIndex
 90
      256
102
RTVSPost2010Prop51ColorRGB
 90
-16777216
102
RTVSPost2010PropOp51
 70
     0
102
RTVSPost2010Prop52
140
1.0
102
RTVSPost2010PropOp52
 70
     0
102
RTVSPost2010Prop53
 90
        2
102
RTVSPost2010PropOp53
 70
     1
102
RTVSPost2010Prop54
  1
strokes_ogs.tif
102
RTVSPost2010PropOp54
 70
     1
102
RTVSPost2010Prop55
280
     0
102
RTVSPost2010PropOp55
 70
     1
102
RTVSPost2010Prop56
140
1.0
102
RTVSPost2010PropOp56
 70
     1
102
RTVSPost2010Prop57
140
1.0
102
RTVSPost2010PropOp57
 70
     1
102
RTVSPropertyOp0
 70
     1
102
RTVSPropertyOp1
 70
     1
102
RTVSPropertyOp2
 70
     1
102
RTVSPropertyOp3
 70
     1
102
RTVSPropertyOp4
 70
     1
102
RTVSPropertyOp5
 70
     1
102
RTVSPropertyOp6
 70
     1
102
RTVSPropertyOp7
 70
     1
102
RTVSPropertyOp8
 70
     1
102
RTVSPropertyOp9
 70
     1
102
RTVSPropertyOp10
 70
     1
102
RTVSPropertyOp11
 70
     1
102
RTVSPropertyOp12
 70
     1
102
RTVSPropertyOp13
 70
     1
102
RTVSPropertyOp14
 70
     1
102
RTVSPropertyOp15
 70
     1
102
RTVSPropertyOp16
 70
     1
102
RTVSPropertyOp17
 70
     1
102
RTVSPropertyOp18
 70
     1
102
RTVSPropertyOp19
 70
     1
102
RTVSPropertyOp20
 70
     1
102
RTVSPropertyOp21
 70
     1
102
RTVSPropertyOp22
 70
     1
102
RTVSPropertyOp23
 70
     1
102
RTVSPropertyOp24
 70
     1
102
RTVSPropertyOp25
 70
     1
102
RTVSPropertyOp26
 70
     1
102
RTVSPropertyOp27
 70
     1
102
RTVSPropertyOp28
 70
     1
102
RTVSPropertyOp29
 70
     1
102
RTVSPropertyOp30
 70
     1
102
RTVSPropertyOp31
 70
     1
102
RTVSPropertyOp32
 70
     1
102
RTVSPropertyOp33
 70
     1
102
RTVSPropertyOp34
 70
     1
102
RTVSPropertyOp35
 70
     1
102
RTVSPropertyOp36
 70
     1
102
RTVSPropertyOp37
 70
     1
102
RTVSPropertyOp38
 70
     1
102
RTVSPropertyOp39
 70
     1
102
RTVSPropertyOp40
 70
     1
102
RTVSPropertyOp41
 70
     1
102
RTVSPropertyOp42
 70
     1
102
RTVSPropertyOp43
 70
     1
102
RTVSPropertyOp44
 70
     1
102
RTVSPropertyOp45
 70
     1
102
RTVSPropertyOp46
 70
     1
102
RTVSPropertyOp47
 70
     1
102
RTVSPropertyOp48
 70
     1
102
RTVSPropertyOp49
 70
     1
102
RTVSPropertyOp50
 70
     1
102
RTVSPropertyOp51
 70
     0
102
RTVSPropertyOp52
 70
     0
102
RTVSPropertyOp53
 70
     1
102
RTVSPropertyOp54
 70
     1
102
RTVSPropertyOp55
 70
     1
102
RTVSPropertyOp56
 70
     1
102
RTVSPropertyOp57
 70
     1
102
RTVSPropertyOp58
 70
     1
102
RTVSPropertyOp59
 70
     1
102
RTVSPropertyOp60
 70
     1
102
RTVSPropertyOp61
 70
     1
102
RTVSPropertyOp62
 70
     1
  0
XRECORD
  5
407
102
{ACAD_REACTORS
330
406
102
}
330
406
100
AcDbXrecord
280
     1
102
RTVSPost2010Prop28
280
     0
102
RTVSPost2010PropOp28
 70
     1
102
RTVSPost2010Prop29
280
     1
102
RTVSPost2010PropOp29
 70
     1
102
RTVSPost2010Prop30
280
     1
102
RTVSPost2010PropOp30
 70
     1
102
RTVSPost2010Prop31
280
     0
102
RTVSPost2010PropOp31
 70
     1
102
RTVSPost2010Prop32
280
     0
102
RTVSPost2010PropOp32
 70
     1
102
RTVSPost2010Prop33
280
     0
102
RTVSPost2010PropOp33
 70
     1
102
RTVSPost2010Prop34
280
     0
102
RTVSPost2010PropOp34
 70
     1
102
RTVSPost2010Prop35
280
     0
102
RTVSPost2010PropOp35
 70
     1
102
RTVSPost2010Prop36
280
     0
102
RTVSPost2010PropOp36
 70
     1
102
RTVSPost2010Prop37
 90
       50
102
RTVSPost2010PropOp37
 70
     1
102
RTVSPost2010Prop38
140
0.0
102
RTVSPost2010PropOp38
 70
     1
102
RTVSPost2010Prop39
140
1.0
102
RTVSPost2010PropOp39
 70
     1
102
RTVSPost2010Prop40
 90
        0
102
RTVSPost2010PropOp40
 70
     1
102
RTVSPost2010Prop41ColorIndex
 90
       18
102
RTVSPost2010Prop41ColorRGB
 90
        0
102
RTVSPost2010PropOp41
 70
     1
102
RTVSPost2010Prop42
 90
       50
102
RTVSPost2010PropOp42
 70
     1
102
RTVSPost2010Prop43
 90
        3
102
RTVSPost2010PropOp43
 70
     1
102
RTVSPost2010Prop44ColorIndex
 90
        5
102
RTVSPost2010Prop44ColorRGB
 90
      255
102
RTVSPost2010PropOp44
 70
     1
102
RTVSPost2010Prop45
280
     0
102
RTVSPost2010PropOp45
 70
     1
102
RTVSPost2010Prop46
 90
       50
102
RTVSPost2010PropOp46
 70
     1
102
RTVSPost2010Prop47
 90
       50
102
RTVSPost2010PropOp47
 70
     1
102
RTVSPost2010Prop48
 90
       50
102
RTVSPost2010PropOp48
 70
     1
102
RTVSPost2010Prop49
280
     0
102
RTVSPost2010PropOp49
 70
     1
102
RTVSPost2010Prop50
 90
       50
102
RTVSPost2010PropOp50
 70
     1
102
RTVSPost2010Prop51ColorIndex
 90
      256
102
RTVSPost2010Prop51ColorRGB
 90
-16777216
102
RTVSPost2010PropOp51
 70
     0
102
RTVSPost2010Prop52
140
1.0
102
RTVSPost2010PropOp52
 70
     0
102
RTVSPost2010Prop53
 90
        2
102
RTVSPost2010PropOp53
 70
     1
102
RTVSPost2010Prop54
  1
strokes_ogs.tif
102
RTVSPost2010PropOp54
 70
     1
102
RTVSPost2010Prop55
280
     0
102
RTVSPost2010PropOp55
 70
     1
102
RTVSPost2010Prop56
140
1.0
102
RTVSPost2010PropOp56
 70
     1
102
RTVSPost2010Prop57
140
1.0
102
RTVSPost2010PropOp57
 70
     1
102
RTVSPropertyOp0
 70
     1
102
RTVSPropertyOp1
 70
     1
102
RTVSPropertyOp2
 70
     1
102
RTVSPropertyOp3
 70
     1
102
RTVSPropertyOp4
 70
     1
102
RTVSPropertyOp5
 70
     1
102
RTVSPropertyOp6
 70
     1
102
RTVSPropertyOp7
 70
     1
102
RTVSPropertyOp8
 70
     1
102
RTVSPropertyOp9
 70
     1
102
RTVSPropertyOp10
 70
     1
102
RTVSPropertyOp11
 70
     1
102
RTVSPropertyOp12
 70
     1
102
RTVSPropertyOp13
 70
     1
102
RTVSPropertyOp14
 70
     1
102
RTVSPropertyOp15
 70
     1
102
RTVSPropertyOp16
 70
     1
102
RTVSPropertyOp17
 70
     1
102
RTVSPropertyOp18
 70
     1
102
RTVSPropertyOp19
 70
     1
102
RTVSPropertyOp20
 70
     1
102
RTVSPropertyOp21
 70
     1
102
RTVSPropertyOp22
 70
     1
102
RTVSPropertyOp23
 70
     1
102
RTVSPropertyOp24
 70
     1
102
RTVSPropertyOp25
 70
     1
102
RTVSPropertyOp26
 70
     1
102
RTVSPropertyOp27
 70
     1
102
RTVSPropertyOp28
 70
     1
102
RTVSPropertyOp29
 70
     1
102
RTVSPropertyOp30
 70
     1
102
RTVSPropertyOp31
 70
     1
102
RTVSPropertyOp32
 70
     1
102
RTVSPropertyOp33
 70
     1
102
RTVSPropertyOp34
 70
     1
102
RTVSPropertyOp35
 70
     1
102
RTVSPropertyOp36
 70
     1
102
RTVSPropertyOp37
 70
     1
102
RTVSPropertyOp38
 70
     1
102
RTVSPropertyOp39
 70
     1
102
RTVSPropertyOp40
 70
     1
102
RTVSPropertyOp41
 70
     1
102
RTVSPropertyOp42
 70
     1
102
RTVSPropertyOp43
 70
     1
102
RTVSPropertyOp44
 70
     1
102
RTVSPropertyOp45
 70
     1
102
RTVSPropertyOp46
 70
     1
102
RTVSPropertyOp47
 70
     1
102
RTVSPropertyOp48
 70
     1
102
RTVSPropertyOp49
 70
     1
102
RTVSPropertyOp50
 70
     1
102
RTVSPropertyOp51
 70
     0
102
RTVSPropertyOp52
 70
     0
102
RTVSPropertyOp53
 70
     1
102
RTVSPropertyOp54
 70
     1
102
RTVSPropertyOp55
 70
     1
102
RTVSPropertyOp56
 70
     1
102
RTVSPropertyOp57
 70
     1
102
RTVSPropertyOp58
 70
     1
102
RTVSPropertyOp59
 70
     1
102
RTVSPropertyOp60
 70
     1
102
RTVSPropertyOp61
 70
     1
102
RTVSPropertyOp62
 70
     1
  0
XRECORD
  5
3F9
102
{ACAD_REACTORS
330
3F8
102
}
330
3F8
100
AcDbXrecord
280
     1
102
RTVSPost2010Prop28
280
     0
102
RTVSPost2010PropOp28
 70
     1
102
RTVSPost2010Prop29
280
     1
102
RTVSPost2010PropOp29
 70
     1
102
RTVSPost2010Prop30
280
     1
102
RTVSPost2010PropOp30
 70
     1
102
RTVSPost2010Prop31
280
     0
102
RTVSPost2010PropOp31
 70
     1
102
RTVSPost2010Prop32
280
     0
102
RTVSPost2010PropOp32
 70
     1
102
RTVSPost2010Prop33
280
     0
102
RTVSPost2010PropOp33
 70
     1
102
RTVSPost2010Prop34
280
     0
102
RTVSPost2010PropOp34
 70
     1
102
RTVSPost2010Prop35
280
     0
102
RTVSPost2010PropOp35
 70
     1
102
RTVSPost2010Prop36
280
     0
102
RTVSPost2010PropOp36
 70
     1
102
RTVSPost2010Prop37
 90
       50
102
RTVSPost2010PropOp37
 70
     1
102
RTVSPost2010Prop38
140
0.0
102
RTVSPost2010PropOp38
 70
     1
102
RTVSPost2010Prop39
140
1.0
102
RTVSPost2010PropOp39
 70
     1
102
RTVSPost2010Prop40
 90
        0
102
RTVSPost2010PropOp40
 70
     1
102
RTVSPost2010Prop41ColorIndex
 90
       18
102
RTVSPost2010Prop41ColorRGB
 90
        0
102
RTVSPost2010PropOp41
 70
     1
102
RTVSPost2010Prop42
 90
       50
102
RTVSPost2010PropOp42
 70
     1
102
RTVSPost2010Prop43
 90
        3
102
RTVSPost2010PropOp43
 70
     1
102
RTVSPost2010Prop44ColorIndex
 90
        5
102
RTVSPost2010Prop44ColorRGB
 90
      255
102
RTVSPost2010PropOp44
 70
     1
102
RTVSPost2010Prop45
280
     0
102
RTVSPost2010PropOp45
 70
     1
102
RTVSPost2010Prop46
 90
       50
102
RTVSPost2010PropOp46
 70
     1
102
RTVSPost2010Prop47
 90
       50
102
RTVSPost2010PropOp47
 70
     1
102
RTVSPost2010Prop48
 90
       50
102
RTVSPost2010PropOp48
 70
     1
102
RTVSPost2010Prop49
280
     0
102
RTVSPost2010PropOp49
 70
     1
102
RTVSPost2010Prop50
 90
       50
102
RTVSPost2010PropOp50
 70
     1
102
RTVSPost2010Prop51ColorIndex
 90
      256
102
RTVSPost2010Prop51ColorRGB
 90
-16777216
102
RTVSPost2010PropOp51
 70
     0
102
RTVSPost2010Prop52
140
1.0
102
RTVSPost2010PropOp52
 70
     0
102
RTVSPost2010Prop53
 90
        2
102
RTVSPost2010PropOp53
 70
     1
102
RTVSPost2010Prop54
  1
strokes_ogs.tif
102
RTVSPost2010PropOp54
 70
     1
102
RTVSPost2010Prop55
280
     0
102
RTVSPost2010PropOp55
 70
     1
102
RTVSPost2010Prop56
140
1.0
102
RTVSPost2010PropOp56
 70
     1
102
RTVSPost2010Prop57
140
1.0
102
RTVSPost2010PropOp57
 70
     1
102
RTVSPropertyOp0
 70
     1
102
RTVSPropertyOp1
 70
     1
102
RTVSPropertyOp2
 70
     1
102
RTVSPropertyOp3
 70
     1
102
RTVSPropertyOp4
 70
     1
102
RTVSPropertyOp5
 70
     1
102
RTVSPropertyOp6
 70
     1
102
RTVSPropertyOp7
 70
     1
102
RTVSPropertyOp8
 70
     1
102
RTVSPropertyOp9
 70
     1
102
RTVSPropertyOp10
 70
     1
102
RTVSPropertyOp11
 70
     1
102
RTVSPropertyOp12
 70
     1
102
RTVSPropertyOp13
 70
     1
102
RTVSPropertyOp14
 70
     1
102
RTVSPropertyOp15
 70
     1
102
RTVSPropertyOp16
 70
     1
102
RTVSPropertyOp17
 70
     1
102
RTVSPropertyOp18
 70
     1
102
RTVSPropertyOp19
 70
     1
102
RTVSPropertyOp20
 70
     1
102
RTVSPropertyOp21
 70
     1
102
RTVSPropertyOp22
 70
     1
102
RTVSPropertyOp23
 70
     1
102
RTVSPropertyOp24
 70
     1
102
RTVSPropertyOp25
 70
     1
102
RTVSPropertyOp26
 70
     1
102
RTVSPropertyOp27
 70
     1
102
RTVSPropertyOp28
 70
     1
102
RTVSPropertyOp29
 70
     1
102
RTVSPropertyOp30
 70
     1
102
RTVSPropertyOp31
 70
     1
102
RTVSPropertyOp32
 70
     1
102
RTVSPropertyOp33
 70
     1
102
RTVSPropertyOp34
 70
     1
102
RTVSPropertyOp35
 70
     1
102
RTVSPropertyOp36
 70
     1
102
RTVSPropertyOp37
 70
     1
102
RTVSPropertyOp38
 70
     1
102
RTVSPropertyOp39
 70
     1
102
RTVSPropertyOp40
 70
     1
102
RTVSPropertyOp41
 70
     1
102
RTVSPropertyOp42
 70
     1
102
RTVSPropertyOp43
 70
     1
102
RTVSPropertyOp44
 70
     1
102
RTVSPropertyOp45
 70
     1
102
RTVSPropertyOp46
 70
     1
102
RTVSPropertyOp47
 70
     1
102
RTVSPropertyOp48
 70
     1
102
RTVSPropertyOp49
 70
     1
102
RTVSPropertyOp50
 70
     1
102
RTVSPropertyOp51
 70
     0
102
RTVSPropertyOp52
 70
     0
102
RTVSPropertyOp53
 70
     1
102
RTVSPropertyOp54
 70
     1
102
RTVSPropertyOp55
 70
     1
102
RTVSPropertyOp56
 70
     1
102
RTVSPropertyOp57
 70
     1
102
RTVSPropertyOp58
 70
     1
102
RTVSPropertyOp59
 70
     1
102
RTVSPropertyOp60
 70
     1
102
RTVSPropertyOp61
 70
     1
102
RTVSPropertyOp62
 70
     1
  0
XRECORD
  5
3FD
102
{ACAD_REACTORS
330
3FC
102
}
330
3FC
100
AcDbXrecord
280
     1
102
RTVSPost2010Prop28
280
     0
102
RTVSPost2010PropOp28
 70
     1
102
RTVSPost2010Prop29
280
     1
102
RTVSPost2010PropOp29
 70
     1
102
RTVSPost2010Prop30
280
     1
102
RTVSPost2010PropOp30
 70
     1
102
RTVSPost2010Prop31
280
     0
102
RTVSPost2010PropOp31
 70
     1
102
RTVSPost2010Prop32
280
     0
102
RTVSPost2010PropOp32
 70
     1
102
RTVSPost2010Prop33
280
     0
102
RTVSPost2010PropOp33
 70
     1
102
RTVSPost2010Prop34
280
     0
102
RTVSPost2010PropOp34
 70
     1
102
RTVSPost2010Prop35
280
     0
102
RTVSPost2010PropOp35
 70
     1
102
RTVSPost2010Prop36
280
     0
102
RTVSPost2010PropOp36
 70
     1
102
RTVSPost2010Prop37
 90
       50
102
RTVSPost2010PropOp37
 70
     1
102
RTVSPost2010Prop38
140
0.0
102
RTVSPost2010PropOp38
 70
     1
102
RTVSPost2010Prop39
140
1.0
102
RTVSPost2010PropOp39
 70
     1
102
RTVSPost2010Prop40
 90
        0
102
RTVSPost2010PropOp40
 70
     1
102
RTVSPost2010Prop41ColorIndex
 90
       18
102
RTVSPost2010Prop41ColorRGB
 90
        0
102
RTVSPost2010PropOp41
 70
     1
102
RTVSPost2010Prop42
 90
       50
102
RTVSPost2010PropOp42
 70
     1
102
RTVSPost2010Prop43
 90
        3
102
RTVSPost2010PropOp43
 70
     1
102
RTVSPost2010Prop44ColorIndex
 90
        5
102
RTVSPost2010Prop44ColorRGB
 90
      255
102
RTVSPost2010PropOp44
 70
     1
102
RTVSPost2010Prop45
280
     0
102
RTVSPost2010PropOp45
 70
     1
102
RTVSPost2010Prop46
 90
       50
102
RTVSPost2010PropOp46
 70
     1
102
RTVSPost2010Prop47
 90
       50
102
RTVSPost2010PropOp47
 70
     1
102
RTVSPost2010Prop48
 90
       50
102
RTVSPost2010PropOp48
 70
     1
102
RTVSPost2010Prop49
280
     0
102
RTVSPost2010PropOp49
 70
     1
102
RTVSPost2010Prop50
 90
       50
102
RTVSPost2010PropOp50
 70
     1
102
RTVSPost2010Prop51ColorIndex
 90
      256
102
RTVSPost2010Prop51ColorRGB
 90
-16777216
102
RTVSPost2010PropOp51
 70
     0
102
RTVSPost2010Prop52
140
1.0
102
RTVSPost2010PropOp52
 70
     0
102
RTVSPost2010Prop53
 90
        2
102
RTVSPost2010PropOp53
 70
     1
102
RTVSPost2010Prop54
  1
strokes_ogs.tif
102
RTVSPost2010PropOp54
 70
     1
102
RTVSPost2010Prop55
280
     0
102
RTVSPost2010PropOp55
 70
     1
102
RTVSPost2010Prop56
140
1.0
102
RTVSPost2010PropOp56
 70
     1
102
RTVSPost2010Prop57
140
1.0
102
RTVSPost2010PropOp57
 70
     1
102
RTVSPropertyOp0
 70
     1
102
RTVSPropertyOp1
 70
     1
102
RTVSPropertyOp2
 70
     1
102
RTVSPropertyOp3
 70
     1
102
RTVSPropertyOp4
 70
     1
102
RTVSPropertyOp5
 70
     1
102
RTVSPropertyOp6
 70
     1
102
RTVSPropertyOp7
 70
     1
102
RTVSPropertyOp8
 70
     1
102
RTVSPropertyOp9
 70
     1
102
RTVSPropertyOp10
 70
     1
102
RTVSPropertyOp11
 70
     1
102
RTVSPropertyOp12
 70
     1
102
RTVSPropertyOp13
 70
     1
102
RTVSPropertyOp14
 70
     1
102
RTVSPropertyOp15
 70
     1
102
RTVSPropertyOp16
 70
     1
102
RTVSPropertyOp17
 70
     1
102
RTVSPropertyOp18
 70
     1
102
RTVSPropertyOp19
 70
     1
102
RTVSPropertyOp20
 70
     1
102
RTVSPropertyOp21
 70
     1
102
RTVSPropertyOp22
 70
     1
102
RTVSPropertyOp23
 70
     1
102
RTVSPropertyOp24
 70
     1
102
RTVSPropertyOp25
 70
     1
102
RTVSPropertyOp26
 70
     1
102
RTVSPropertyOp27
 70
     1
102
RTVSPropertyOp28
 70
     1
102
RTVSPropertyOp29
 70
     1
102
RTVSPropertyOp30
 70
     1
102
RTVSPropertyOp31
 70
     1
102
RTVSPropertyOp32
 70
     1
102
RTVSPropertyOp33
 70
     1
102
RTVSPropertyOp34
 70
     1
102
RTVSPropertyOp35
 70
     1
102
RTVSPropertyOp36
 70
     1
102
RTVSPropertyOp37
 70
     1
102
RTVSPropertyOp38
 70
     1
102
RTVSPropertyOp39
 70
     1
102
RTVSPropertyOp40
 70
     1
102
RTVSPropertyOp41
 70
     1
102
RTVSPropertyOp42
 70
     1
102
RTVSPropertyOp43
 70
     1
102
RTVSPropertyOp44
 70
     1
102
RTVSPropertyOp45
 70
     1
102
RTVSPropertyOp46
 70
     1
102
RTVSPropertyOp47
 70
     1
102
RTVSPropertyOp48
 70
     1
102
RTVSPropertyOp49
 70
     1
102
RTVSPropertyOp50
 70
     1
102
RTVSPropertyOp51
 70
     0
102
RTVSPropertyOp52
 70
     0
102
RTVSPropertyOp53
 70
     1
102
RTVSPropertyOp54
 70
     1
102
RTVSPropertyOp55
 70
     1
102
RTVSPropertyOp56
 70
     1
102
RTVSPropertyOp57
 70
     1
102
RTVSPropertyOp58
 70
     1
102
RTVSPropertyOp59
 70
     1
102
RTVSPropertyOp60
 70
     1
102
RTVSPropertyOp61
 70
     1
102
RTVSPropertyOp62
 70
     1
  0
XRECORD
  5
417
102
{ACAD_REACTORS
330
416
102
}
330
416
100
AcDbXrecord
280
     1
102
RTVSPost2010Prop28
280
     0
102
RTVSPost2010PropOp28
 70
     0
102
RTVSPost2010Prop29
280
     1
102
RTVSPost2010PropOp29
 70
     0
102
RTVSPost2010Prop30
280
     1
102
RTVSPost2010PropOp30
 70
     0
102
RTVSPost2010Prop31
280
     0
102
RTVSPost2010PropOp31
 70
     0
102
RTVSPost2010Prop32
280
     0
102
RTVSPost2010PropOp32
 70
     0
102
RTVSPost2010Prop33
280
     0
102
RTVSPost2010PropOp33
 70
     0
102
RTVSPost2010Prop34
280
     0
102
RTVSPost2010PropOp34
 70
     0
102
RTVSPost2010Prop35
280
     0
102
RTVSPost2010PropOp35
 70
     0
102
RTVSPost2010Prop36
280
     0
102
RTVSPost2010PropOp36
 70
     0
102
RTVSPost2010Prop37
 90
       50
102
RTVSPost2010PropOp37
 70
     0
102
RTVSPost2010Prop38
140
0.0
102
RTVSPost2010PropOp38
 70
     0
102
RTVSPost2010Prop39
140
1.0
102
RTVSPost2010PropOp39
 70
     0
102
RTVSPost2010Prop40
 90
        0
102
RTVSPost2010PropOp40
 70
     0
102
RTVSPost2010Prop41ColorIndex
 90
       18
102
RTVSPost2010Prop41ColorRGB
 90
        0
102
RTVSPost2010PropOp41
 70
     0
102
RTVSPost2010Prop42
 90
       50
102
RTVSPost2010PropOp42
 70
     0
102
RTVSPost2010Prop43
 90
        3
102
RTVSPost2010PropOp43
 70
     0
102
RTVSPost2010Prop44ColorIndex
 90
        5
102
RTVSPost2010Prop44ColorRGB
 90
      255
102
RTVSPost2010PropOp44
 70
     0
102
RTVSPost2010Prop45
280
     0
102
RTVSPost2010PropOp45
 70
     0
102
RTVSPost2010Prop46
 90
       50
102
RTVSPost2010PropOp46
 70
     0
102
RTVSPost2010Prop47
 90
       50
102
RTVSPost2010PropOp47
 70
     0
102
RTVSPost2010Prop48
 90
       50
102
RTVSPost2010PropOp48
 70
     0
102
RTVSPost2010Prop49
280
     0
102
RTVSPost2010PropOp49
 70
     0
102
RTVSPost2010Prop50
 90
       50
102
RTVSPost2010PropOp50
 70
     0
102
RTVSPost2010Prop51ColorIndex
 90
      256
102
RTVSPost2010Prop51ColorRGB
 90
-16777216
102
RTVSPost2010PropOp51
 70
     0
102
RTVSPost2010Prop52
140
1.0
102
RTVSPost2010PropOp52
 70
     0
102
RTVSPost2010Prop53
 90
        2
102
RTVSPost2010PropOp53
 70
     0
102
RTVSPost2010Prop54
  1
strokes_ogs.tif
102
RTVSPost2010PropOp54
 70
     0
102
RTVSPost2010Prop55
280
     0
102
RTVSPost2010PropOp55
 70
     0
102
RTVSPost2010Prop56
140
1.0
102
RTVSPost2010PropOp56
 70
     0
102
RTVSPost2010Prop57
140
1.0
102
RTVSPost2010PropOp57
 70
     0
102
RTVSPropertyOp0
 70
     0
102
RTVSPropertyOp1
 70
     0
102
RTVSPropertyOp2
 70
     0
102
RTVSPropertyOp3
 70
     0
102
RTVSPropertyOp4
 70
     0
102
RTVSPropertyOp5
 70
     0
102
RTVSPropertyOp6
 70
     0
102
RTVSPropertyOp7
 70
     0
102
RTVSPropertyOp8
 70
     0
102
RTVSPropertyOp9
 70
     0
102
RTVSPropertyOp10
 70
     0
102
RTVSPropertyOp11
 70
     0
102
RTVSPropertyOp12
 70
     0
102
RTVSPropertyOp13
 70
     0
102
RTVSPropertyOp14
 70
     2
102
RTVSPropertyOp15
 70
     0
102
RTVSPropertyOp16
 70
     0
102
RTVSPropertyOp17
 70
     0
102
RTVSPropertyOp18
 70
     0
102
RTVSPropertyOp19
 70
     0
102
RTVSPropertyOp20
 70
     0
102
RTVSPropertyOp21
 70
     0
102
RTVSPropertyOp22
 70
     0
102
RTVSPropertyOp23
 70
     0
102
RTVSPropertyOp24
 70
     0
102
RTVSPropertyOp25
 70
     0
102
RTVSPropertyOp26
 70
     0
102
RTVSPropertyOp27
 70
     0
102
RTVSPropertyOp28
 70
     0
102
RTVSPropertyOp29
 70
     0
102
RTVSPropertyOp30
 70
     0
102
RTVSPropertyOp31
 70
     0
102
RTVSPropertyOp32
 70
     0
102
RTVSPropertyOp33
 70
     0
102
RTVSPropertyOp34
 70
     0
102
RTVSPropertyOp35
 70
     0
102
RTVSPropertyOp36
 70
     0
102
RTVSPropertyOp37
 70
     0
102
RTVSPropertyOp38
 70
     0
102
RTVSPropertyOp39
 70
     0
102
RTVSPropertyOp40
 70
     0
102
RTVSPropertyOp41
 70
     0
102
RTVSPropertyOp42
 70
     0
102
RTVSPropertyOp43
 70
     0
102
RTVSPropertyOp44
 70
     0
102
RTVSPropertyOp45
 70
     0
102
RTVSPropertyOp46
 70
     0
102
RTVSPropertyOp47
 70
     0
102
RTVSPropertyOp48
 70
     0
102
RTVSPropertyOp49
 70
     0
102
RTVSPropertyOp50
 70
     0
102
RTVSPropertyOp51
 70
     0
102
RTVSPropertyOp52
 70
     0
102
RTVSPropertyOp53
 70
     0
102
RTVSPropertyOp54
 70
     0
102
RTVSPropertyOp55
 70
     0
102
RTVSPropertyOp56
 70
     0
102
RTVSPropertyOp57
 70
     0
102
RTVSPropertyOp58
 70
     0
102
RTVSPropertyOp59
 70
     0
102
RTVSPropertyOp60
 70
     0
102
RTVSPropertyOp61
 70
     0
102
RTVSPropertyOp62
 70
     0
  0
XRECORD
  5
405
102
{ACAD_REACTORS
330
404
102
}
330
404
100
AcDbXrecord
280
     1
102
RTVSPost2010Prop28
280
     0
102
RTVSPost2010PropOp28
 70
     1
102
RTVSPost2010Prop29
280
     1
102
RTVSPost2010PropOp29
 70
     1
102
RTVSPost2010Prop30
280
     1
102
RTVSPost2010PropOp30
 70
     1
102
RTVSPost2010Prop31
280
     0
102
RTVSPost2010PropOp31
 70
     1
102
RTVSPost2010Prop32
280
     0
102
RTVSPost2010PropOp32
 70
     1
102
RTVSPost2010Prop33
280
     0
102
RTVSPost2010PropOp33
 70
     1
102
RTVSPost2010Prop34
280
     0
102
RTVSPost2010PropOp34
 70
     1
102
RTVSPost2010Prop35
280
     0
102
RTVSPost2010PropOp35
 70
     1
102
RTVSPost2010Prop36
280
     0
102
RTVSPost2010PropOp36
 70
     1
102
RTVSPost2010Prop37
 90
       50
102
RTVSPost2010PropOp37
 70
     1
102
RTVSPost2010Prop38
140
0.0
102
RTVSPost2010PropOp38
 70
     1
102
RTVSPost2010Prop39
140
1.0
102
RTVSPost2010PropOp39
 70
     1
102
RTVSPost2010Prop40
 90
        0
102
RTVSPost2010PropOp40
 70
     1
102
RTVSPost2010Prop41ColorIndex
 90
       18
102
RTVSPost2010Prop41ColorRGB
 90
        0
102
RTVSPost2010PropOp41
 70
     1
102
RTVSPost2010Prop42
 90
       50
102
RTVSPost2010PropOp42
 70
     1
102
RTVSPost2010Prop43
 90
        3
102
RTVSPost2010PropOp43
 70
     1
102
RTVSPost2010Prop44ColorIndex
 90
        5
102
RTVSPost2010Prop44ColorRGB
 90
      255
102
RTVSPost2010PropOp44
 70
     1
102
RTVSPost2010Prop45
280
     0
102
RTVSPost2010PropOp45
 70
     1
102
RTVSPost2010Prop46
 90
       50
102
RTVSPost2010PropOp46
 70
     1
102
RTVSPost2010Prop47
 90
       50
102
RTVSPost2010PropOp47
 70
     1
102
RTVSPost2010Prop48
 90
       50
102
RTVSPost2010PropOp48
 70
     1
102
RTVSPost2010Prop49
280
     0
102
RTVSPost2010PropOp49
 70
     1
102
RTVSPost2010Prop50
 90
       50
102
RTVSPost2010PropOp50
 70
     1
102
RTVSPost2010Prop51ColorIndex
 90
      256
102
RTVSPost2010Prop51ColorRGB
 90
-16777216
102
RTVSPost2010PropOp51
 70
     0
102
RTVSPost2010Prop52
140
1.0
102
RTVSPost2010PropOp52
 70
     0
102
RTVSPost2010Prop53
 90
        2
102
RTVSPost2010PropOp53
 70
     1
102
RTVSPost2010Prop54
  1
strokes_ogs.tif
102
RTVSPost2010PropOp54
 70
     1
102
RTVSPost2010Prop55
280
     0
102
RTVSPost2010PropOp55
 70
     1
102
RTVSPost2010Prop56
140
1.0
102
RTVSPost2010PropOp56
 70
     1
102
RTVSPost2010Prop57
140
1.0
102
RTVSPost2010PropOp57
 70
     1
102
RTVSPropertyOp0
 70
     1
102
RTVSPropertyOp1
 70
     1
102
RTVSPropertyOp2
 70
     1
102
RTVSPropertyOp3
 70
     1
102
RTVSPropertyOp4
 70
     1
102
RTVSPropertyOp5
 70
     1
102
RTVSPropertyOp6
 70
     1
102
RTVSPropertyOp7
 70
     1
102
RTVSPropertyOp8
 70
     1
102
RTVSPropertyOp9
 70
     1
102
RTVSPropertyOp10
 70
     1
102
RTVSPropertyOp11
 70
     1
102
RTVSPropertyOp12
 70
     1
102
RTVSPropertyOp13
 70
     1
102
RTVSPropertyOp14
 70
     1
102
RTVSPropertyOp15
 70
     1
102
RTVSPropertyOp16
 70
     1
102
RTVSPropertyOp17
 70
     1
102
RTVSPropertyOp18
 70
     1
102
RTVSPropertyOp19
 70
     1
102
RTVSPropertyOp20
 70
     1
102
RTVSPropertyOp21
 70
     1
102
RTVSPropertyOp22
 70
     1
102
RTVSPropertyOp23
 70
     1
102
RTVSPropertyOp24
 70
     1
102
RTVSPropertyOp25
 70
     1
102
RTVSPropertyOp26
 70
     1
102
RTVSPropertyOp27
 70
     1
102
RTVSPropertyOp28
 70
     1
102
RTVSPropertyOp29
 70
     1
102
RTVSPropertyOp30
 70
     1
102
RTVSPropertyOp31
 70
     1
102
RTVSPropertyOp32
 70
     1
102
RTVSPropertyOp33
 70
     1
102
RTVSPropertyOp34
 70
     1
102
RTVSPropertyOp35
 70
     1
102
RTVSPropertyOp36
 70
     1
102
RTVSPropertyOp37
 70
     1
102
RTVSPropertyOp38
 70
     1
102
RTVSPropertyOp39
 70
     1
102
RTVSPropertyOp40
 70
     1
102
RTVSPropertyOp41
 70
     1
102
RTVSPropertyOp42
 70
     1
102
RTVSPropertyOp43
 70
     1
102
RTVSPropertyOp44
 70
     1
102
RTVSPropertyOp45
 70
     1
102
RTVSPropertyOp46
 70
     1
102
RTVSPropertyOp47
 70
     1
102
RTVSPropertyOp48
 70
     1
102
RTVSPropertyOp49
 70
     1
102
RTVSPropertyOp50
 70
     1
102
RTVSPropertyOp51
 70
     0
102
RTVSPropertyOp52
 70
     0
102
RTVSPropertyOp53
 70
     1
102
RTVSPropertyOp54
 70
     1
102
RTVSPropertyOp55
 70
     1
102
RTVSPropertyOp56
 70
     1
102
RTVSPropertyOp57
 70
     1
102
RTVSPropertyOp58
 70
     1
102
RTVSPropertyOp59
 70
     1
102
RTVSPropertyOp60
 70
     1
102
RTVSPropertyOp61
 70
     1
102
RTVSPropertyOp62
 70
     1
  0
XRECORD
  5
3E9
102
{ACAD_REACTORS
330
3E8
102
}
330
3E8
100
AcDbXrecord
280
     1
102
RTVSPost2010Prop28
280
     0
102
RTVSPost2010PropOp28
 70
     1
102
RTVSPost2010Prop29
280
     1
102
RTVSPost2010PropOp29
 70
     1
102
RTVSPost2010Prop30
280
     1
102
RTVSPost2010PropOp30
 70
     1
102
RTVSPost2010Prop31
280
     0
102
RTVSPost2010PropOp31
 70
     1
102
RTVSPost2010Prop32
280
     0
102
RTVSPost2010PropOp32
 70
     1
102
RTVSPost2010Prop33
280
     0
102
RTVSPost2010PropOp33
 70
     1
102
RTVSPost2010Prop34
280
     0
102
RTVSPost2010PropOp34
 70
     1
102
RTVSPost2010Prop35
280
     0
102
RTVSPost2010PropOp35
 70
     1
102
RTVSPost2010Prop36
280
     0
102
RTVSPost2010PropOp36
 70
     1
102
RTVSPost2010Prop37
 90
       50
102
RTVSPost2010PropOp37
 70
     1
102
RTVSPost2010Prop38
140
0.0
102
RTVSPost2010PropOp38
 70
     1
102
RTVSPost2010Prop39
140
1.0
102
RTVSPost2010PropOp39
 70
     1
102
RTVSPost2010Prop40
 90
        0
102
RTVSPost2010PropOp40
 70
     1
102
RTVSPost2010Prop41ColorIndex
 90
       18
102
RTVSPost2010Prop41ColorRGB
 90
        0
102
RTVSPost2010PropOp41
 70
     1
102
RTVSPost2010Prop42
 90
       50
102
RTVSPost2010PropOp42
 70
     1
102
RTVSPost2010Prop43
 90
        3
102
RTVSPost2010PropOp43
 70
     1
102
RTVSPost2010Prop44ColorIndex
 90
        5
102
RTVSPost2010Prop44ColorRGB
 90
      255
102
RTVSPost2010PropOp44
 70
     1
102
RTVSPost2010Prop45
280
     0
102
RTVSPost2010PropOp45
 70
     1
102
RTVSPost2010Prop46
 90
       50
102
RTVSPost2010PropOp46
 70
     1
102
RTVSPost2010Prop47
 90
       50
102
RTVSPost2010PropOp47
 70
     1
102
RTVSPost2010Prop48
 90
       50
102
RTVSPost2010PropOp48
 70
     1
102
RTVSPost2010Prop49
280
     0
102
RTVSPost2010PropOp49
 70
     1
102
RTVSPost2010Prop50
 90
       50
102
RTVSPost2010PropOp50
 70
     1
102
RTVSPost2010Prop51ColorIndex
 90
      256
102
RTVSPost2010Prop51ColorRGB
 90
-16777216
102
RTVSPost2010PropOp51
 70
     0
102
RTVSPost2010Prop52
140
1.0
102
RTVSPost2010PropOp52
 70
     0
102
RTVSPost2010Prop53
 90
        2
102
RTVSPost2010PropOp53
 70
     1
102
RTVSPost2010Prop54
  1
strokes_ogs.tif
102
RTVSPost2010PropOp54
 70
     1
102
RTVSPost2010Prop55
280
     0
102
RTVSPost2010PropOp55
 70
     1
102
RTVSPost2010Prop56
140
1.0
102
RTVSPost2010PropOp56
 70
     1
102
RTVSPost2010Prop57
140
1.0
102
RTVSPost2010PropOp57
 70
     1
102
RTVSPropertyOp0
 70
     1
102
RTVSPropertyOp1
 70
     1
102
RTVSPropertyOp2
 70
     1
102
RTVSPropertyOp3
 70
     1
102
RTVSPropertyOp4
 70
     1
102
RTVSPropertyOp5
 70
     1
102
RTVSPropertyOp6
 70
     1
102
RTVSPropertyOp7
 70
     1
102
RTVSPropertyOp8
 70
     1
102
RTVSPropertyOp9
 70
     1
102
RTVSPropertyOp10
 70
     1
102
RTVSPropertyOp11
 70
     1
102
RTVSPropertyOp12
 70
     1
102
RTVSPropertyOp13
 70
     1
102
RTVSPropertyOp14
 70
     1
102
RTVSPropertyOp15
 70
     1
102
RTVSPropertyOp16
 70
     1
102
RTVSPropertyOp17
 70
     1
102
RTVSPropertyOp18
 70
     1
102
RTVSPropertyOp19
 70
     1
102
RTVSPropertyOp20
 70
     1
102
RTVSPropertyOp21
 70
     1
102
RTVSPropertyOp22
 70
     1
102
RTVSPropertyOp23
 70
     1
102
RTVSPropertyOp24
 70
     1
102
RTVSPropertyOp25
 70
     1
102
RTVSPropertyOp26
 70
     1
102
RTVSPropertyOp27
 70
     1
102
RTVSPropertyOp28
 70
     1
102
RTVSPropertyOp29
 70
     1
102
RTVSPropertyOp30
 70
     1
102
RTVSPropertyOp31
 70
     1
102
RTVSPropertyOp32
 70
     1
102
RTVSPropertyOp33
 70
     1
102
RTVSPropertyOp34
 70
     1
102
RTVSPropertyOp35
 70
     1
102
RTVSPropertyOp36
 70
     1
102
RTVSPropertyOp37
 70
     1
102
RTVSPropertyOp38
 70
     1
102
RTVSPropertyOp39
 70
     1
102
RTVSPropertyOp40
 70
     1
102
RTVSPropertyOp41
 70
     1
102
RTVSPropertyOp42
 70
     1
102
RTVSPropertyOp43
 70
     1
102
RTVSPropertyOp44
 70
     1
102
RTVSPropertyOp45
 70
     1
102
RTVSPropertyOp46
 70
     1
102
RTVSPropertyOp47
 70
     1
102
RTVSPropertyOp48
 70
     1
102
RTVSPropertyOp49
 70
     1
102
RTVSPropertyOp50
 70
     1
102
RTVSPropertyOp51
 70
     0
102
RTVSPropertyOp52
 70
     0
102
RTVSPropertyOp53
 70
     1
102
RTVSPropertyOp54
 70
     1
102
RTVSPropertyOp55
 70
     1
102
RTVSPropertyOp56
 70
     1
102
RTVSPropertyOp57
 70
     1
102
RTVSPropertyOp58
 70
     1
102
RTVSPropertyOp59
 70
     1
102
RTVSPropertyOp60
 70
     1
102
RTVSPropertyOp61
 70
     1
102
RTVSPropertyOp62
 70
     1
  0
XRECORD
  5
3EB
102
{ACAD_REACTORS
330
3EA
102
}
330
3EA
100
AcDbXrecord
280
     1
102
RTVSPost2010Prop28
280
     0
102
RTVSPost2010PropOp28
 70
     1
102
RTVSPost2010Prop29
280
     1
102
RTVSPost2010PropOp29
 70
     1
102
RTVSPost2010Prop30
280
     1
102
RTVSPost2010PropOp30
 70
     1
102
RTVSPost2010Prop31
280
     0
102
RTVSPost2010PropOp31
 70
     1
102
RTVSPost2010Prop32
280
     0
102
RTVSPost2010PropOp32
 70
     1
102
RTVSPost2010Prop33
280
     0
102
RTVSPost2010PropOp33
 70
     1
102
RTVSPost2010Prop34
280
     0
102
RTVSPost2010PropOp34
 70
     1
102
RTVSPost2010Prop35
280
     0
102
RTVSPost2010PropOp35
 70
     1
102
RTVSPost2010Prop36
280
     0
102
RTVSPost2010PropOp36
 70
     1
102
RTVSPost2010Prop37
 90
       50
102
RTVSPost2010PropOp37
 70
     1
102
RTVSPost2010Prop38
140
0.0
102
RTVSPost2010PropOp38
 70
     1
102
RTVSPost2010Prop39
140
1.0
102
RTVSPost2010PropOp39
 70
     1
102
RTVSPost2010Prop40
 90
        0
102
RTVSPost2010PropOp40
 70
     1
102
RTVSPost2010Prop41ColorIndex
 90
       18
102
RTVSPost2010Prop41ColorRGB
 90
        0
102
RTVSPost2010PropOp41
 70
     1
102
RTVSPost2010Prop42
 90
       50
102
RTVSPost2010PropOp42
 70
     1
102
RTVSPost2010Prop43
 90
        3
102
RTVSPost2010PropOp43
 70
     1
102
RTVSPost2010Prop44ColorIndex
 90
        5
102
RTVSPost2010Prop44ColorRGB
 90
      255
102
RTVSPost2010PropOp44
 70
     1
102
RTVSPost2010Prop45
280
     0
102
RTVSPost2010PropOp45
 70
     1
102
RTVSPost2010Prop46
 90
       50
102
RTVSPost2010PropOp46
 70
     1
102
RTVSPost2010Prop47
 90
       50
102
RTVSPost2010PropOp47
 70
     1
102
RTVSPost2010Prop48
 90
       50
102
RTVSPost2010PropOp48
 70
     1
102
RTVSPost2010Prop49
280
     0
102
RTVSPost2010PropOp49
 70
     1
102
RTVSPost2010Prop50
 90
       50
102
RTVSPost2010PropOp50
 70
     1
102
RTVSPost2010Prop51ColorIndex
 90
      256
102
RTVSPost2010Prop51ColorRGB
 90
-16777216
102
RTVSPost2010PropOp51
 70
     0
102
RTVSPost2010Prop52
140
1.0
102
RTVSPost2010PropOp52
 70
     0
102
RTVSPost2010Prop53
 90
        2
102
RTVSPost2010PropOp53
 70
     1
102
RTVSPost2010Prop54
  1
strokes_ogs.tif
102
RTVSPost2010PropOp54
 70
     1
102
RTVSPost2010Prop55
280
     0
102
RTVSPost2010PropOp55
 70
     1
102
RTVSPost2010Prop56
140
1.0
102
RTVSPost2010PropOp56
 70
     1
102
RTVSPost2010Prop57
140
1.0
102
RTVSPost2010PropOp57
 70
     1
102
RTVSPropertyOp0
 70
     1
102
RTVSPropertyOp1
 70
     1
102
RTVSPropertyOp2
 70
     1
102
RTVSPropertyOp3
 70
     1
102
RTVSPropertyOp4
 70
     1
102
RTVSPropertyOp5
 70
     1
102
RTVSPropertyOp6
 70
     1
102
RTVSPropertyOp7
 70
     1
102
RTVSPropertyOp8
 70
     1
102
RTVSPropertyOp9
 70
     1
102
RTVSPropertyOp10
 70
     1
102
RTVSPropertyOp11
 70
     1
102
RTVSPropertyOp12
 70
     1
102
RTVSPropertyOp13
 70
     1
102
RTVSPropertyOp14
 70
     1
102
RTVSPropertyOp15
 70
     1
102
RTVSPropertyOp16
 70
     1
102
RTVSPropertyOp17
 70
     1
102
RTVSPropertyOp18
 70
     1
102
RTVSPropertyOp19
 70
     1
102
RTVSPropertyOp20
 70
     1
102
RTVSPropertyOp21
 70
     1
102
RTVSPropertyOp22
 70
     1
102
RTVSPropertyOp23
 70
     1
102
RTVSPropertyOp24
 70
     1
102
RTVSPropertyOp25
 70
     1
102
RTVSPropertyOp26
 70
     1
102
RTVSPropertyOp27
 70
     1
102
RTVSPropertyOp28
 70
     1
102
RTVSPropertyOp29
 70
     1
102
RTVSPropertyOp30
 70
     1
102
RTVSPropertyOp31
 70
     1
102
RTVSPropertyOp32
 70
     1
102
RTVSPropertyOp33
 70
     1
102
RTVSPropertyOp34
 70
     1
102
RTVSPropertyOp35
 70
     1
102
RTVSPropertyOp36
 70
     1
102
RTVSPropertyOp37
 70
     1
102
RTVSPropertyOp38
 70
     1
102
RTVSPropertyOp39
 70
     1
102
RTVSPropertyOp40
 70
     1
102
RTVSPropertyOp41
 70
     1
102
RTVSPropertyOp42
 70
     1
102
RTVSPropertyOp43
 70
     1
102
RTVSPropertyOp44
 70
     1
102
RTVSPropertyOp45
 70
     1
102
RTVSPropertyOp46
 70
     1
102
RTVSPropertyOp47
 70
     1
102
RTVSPropertyOp48
 70
     1
102
RTVSPropertyOp49
 70
     1
102
RTVSPropertyOp50
 70
     1
102
RTVSPropertyOp51
 70
     0
102
RTVSPropertyOp52
 70
     0
102
RTVSPropertyOp53
 70
     1
102
RTVSPropertyOp54
 70
     1
102
RTVSPropertyOp55
 70
     1
102
RTVSPropertyOp56
 70
     1
102
RTVSPropertyOp57
 70
     1
102
RTVSPropertyOp58
 70
     1
102
RTVSPropertyOp59
 70
     1
102
RTVSPropertyOp60
 70
     1
102
RTVSPropertyOp61
 70
     1
102
RTVSPropertyOp62
 70
     1
  0
XRECORD
  5
3ED
102
{ACAD_REACTORS
330
3EC
102
}
330
3EC
100
AcDbXrecord
280
     1
102
RTVSPost2010Prop28
280
     0
102
RTVSPost2010PropOp28
 70
     1
102
RTVSPost2010Prop29
280
     1
102
RTVSPost2010PropOp29
 70
     1
102
RTVSPost2010Prop30
280
     1
102
RTVSPost2010PropOp30
 70
     1
102
RTVSPost2010Prop31
280
     0
102
RTVSPost2010PropOp31
 70
     1
102
RTVSPost2010Prop32
280
     0
102
RTVSPost2010PropOp32
 70
     1
102
RTVSPost2010Prop33
280
     0
102
RTVSPost2010PropOp33
 70
     1
102
RTVSPost2010Prop34
280
     0
102
RTVSPost2010PropOp34
 70
     1
102
RTVSPost2010Prop35
280
     0
102
RTVSPost2010PropOp35
 70
     1
102
RTVSPost2010Prop36
280
     0
102
RTVSPost2010PropOp36
 70
     1
102
RTVSPost2010Prop37
 90
       50
102
RTVSPost2010PropOp37
 70
     1
102
RTVSPost2010Prop38
140
0.0
102
RTVSPost2010PropOp38
 70
     1
102
RTVSPost2010Prop39
140
1.0
102
RTVSPost2010PropOp39
 70
     1
102
RTVSPost2010Prop40
 90
        0
102
RTVSPost2010PropOp40
 70
     1
102
RTVSPost2010Prop41ColorIndex
 90
       18
102
RTVSPost2010Prop41ColorRGB
 90
        0
102
RTVSPost2010PropOp41
 70
     1
102
RTVSPost2010Prop42
 90
       50
102
RTVSPost2010PropOp42
 70
     1
102
RTVSPost2010Prop43
 90
        3
102
RTVSPost2010PropOp43
 70
     1
102
RTVSPost2010Prop44ColorIndex
 90
        5
102
RTVSPost2010Prop44ColorRGB
 90
      255
102
RTVSPost2010PropOp44
 70
     1
102
RTVSPost2010Prop45
280
     0
102
RTVSPost2010PropOp45
 70
     1
102
RTVSPost2010Prop46
 90
       50
102
RTVSPost2010PropOp46
 70
     1
102
RTVSPost2010Prop47
 90
       50
102
RTVSPost2010PropOp47
 70
     1
102
RTVSPost2010Prop48
 90
       50
102
RTVSPost2010PropOp48
 70
     1
102
RTVSPost2010Prop49
280
     0
102
RTVSPost2010PropOp49
 70
     1
102
RTVSPost2010Prop50
 90
       50
102
RTVSPost2010PropOp50
 70
     1
102
RTVSPost2010Prop51ColorIndex
 90
      256
102
RTVSPost2010Prop51ColorRGB
 90
-16777216
102
RTVSPost2010PropOp51
 70
     0
102
RTVSPost2010Prop52
140
1.0
102
RTVSPost2010PropOp52
 70
     0
102
RTVSPost2010Prop53
 90
        2
102
RTVSPost2010PropOp53
 70
     1
102
RTVSPost2010Prop54
  1
strokes_ogs.tif
102
RTVSPost2010PropOp54
 70
     1
102
RTVSPost2010Prop55
280
     0
102
RTVSPost2010PropOp55
 70
     1
102
RTVSPost2010Prop56
140
1.0
102
RTVSPost2010PropOp56
 70
     1
102
RTVSPost2010Prop57
140
1.0
102
RTVSPost2010PropOp57
 70
     1
102
RTVSPropertyOp0
 70
     1
102
RTVSPropertyOp1
 70
     1
102
RTVSPropertyOp2
 70
     1
102
RTVSPropertyOp3
 70
     1
102
RTVSPropertyOp4
 70
     1
102
RTVSPropertyOp5
 70
     1
102
RTVSPropertyOp6
 70
     1
102
RTVSPropertyOp7
 70
     1
102
RTVSPropertyOp8
 70
     1
102
RTVSPropertyOp9
 70
     1
102
RTVSPropertyOp10
 70
     1
102
RTVSPropertyOp11
 70
     1
102
RTVSPropertyOp12
 70
     1
102
RTVSPropertyOp13
 70
     1
102
RTVSPropertyOp14
 70
     1
102
RTVSPropertyOp15
 70
     1
102
RTVSPropertyOp16
 70
     1
102
RTVSPropertyOp17
 70
     1
102
RTVSPropertyOp18
 70
     1
102
RTVSPropertyOp19
 70
     1
102
RTVSPropertyOp20
 70
     1
102
RTVSPropertyOp21
 70
     1
102
RTVSPropertyOp22
 70
     1
102
RTVSPropertyOp23
 70
     1
102
RTVSPropertyOp24
 70
     1
102
RTVSPropertyOp25
 70
     1
102
RTVSPropertyOp26
 70
     1
102
RTVSPropertyOp27
 70
     1
102
RTVSPropertyOp28
 70
     1
102
RTVSPropertyOp29
 70
     1
102
RTVSPropertyOp30
 70
     1
102
RTVSPropertyOp31
 70
     1
102
RTVSPropertyOp32
 70
     1
102
RTVSPropertyOp33
 70
     1
102
RTVSPropertyOp34
 70
     1
102
RTVSPropertyOp35
 70
     1
102
RTVSPropertyOp36
 70
     1
102
RTVSPropertyOp37
 70
     1
102
RTVSPropertyOp38
 70
     1
102
RTVSPropertyOp39
 70
     1
102
RTVSPropertyOp40
 70
     1
102
RTVSPropertyOp41
 70
     1
102
RTVSPropertyOp42
 70
     1
102
RTVSPropertyOp43
 70
     1
102
RTVSPropertyOp44
 70
     1
102
RTVSPropertyOp45
 70
     1
102
RTVSPropertyOp46
 70
     1
102
RTVSPropertyOp47
 70
     1
102
RTVSPropertyOp48
 70
     1
102
RTVSPropertyOp49
 70
     1
102
RTVSPropertyOp50
 70
     1
102
RTVSPropertyOp51
 70
     0
102
RTVSPropertyOp52
 70
     0
102
RTVSPropertyOp53
 70
     1
102
RTVSPropertyOp54
 70
     1
102
RTVSPropertyOp55
 70
     1
102
RTVSPropertyOp56
 70
     1
102
RTVSPropertyOp57
 70
     1
102
RTVSPropertyOp58
 70
     1
102
RTVSPropertyOp59
 70
     1
102
RTVSPropertyOp60
 70
     1
102
RTVSPropertyOp61
 70
     1
102
RTVSPropertyOp62
 70
     1
  0
XRECORD
  5
3EF
102
{ACAD_REACTORS
330
3EE
102
}
330
3EE
100
AcDbXrecord
280
     1
102
RTVSPost2010Prop28
280
     0
102
RTVSPost2010PropOp28
 70
     1
102
RTVSPost2010Prop29
280
     1
102
RTVSPost2010PropOp29
 70
     1
102
RTVSPost2010Prop30
280
     1
102
RTVSPost2010PropOp30
 70
     1
102
RTVSPost2010Prop31
280
     0
102
RTVSPost2010PropOp31
 70
     1
102
RTVSPost2010Prop32
280
     0
102
RTVSPost2010PropOp32
 70
     1
102
RTVSPost2010Prop33
280
     0
102
RTVSPost2010PropOp33
 70
     1
102
RTVSPost2010Prop34
280
     0
102
RTVSPost2010PropOp34
 70
     1
102
RTVSPost2010Prop35
280
     0
102
RTVSPost2010PropOp35
 70
     1
102
RTVSPost2010Prop36
280
     0
102
RTVSPost2010PropOp36
 70
     1
102
RTVSPost2010Prop37
 90
       50
102
RTVSPost2010PropOp37
 70
     1
102
RTVSPost2010Prop38
140
0.0
102
RTVSPost2010PropOp38
 70
     1
102
RTVSPost2010Prop39
140
1.0
102
RTVSPost2010PropOp39
 70
     1
102
RTVSPost2010Prop40
 90
        0
102
RTVSPost2010PropOp40
 70
     1
102
RTVSPost2010Prop41ColorIndex
 90
       18
102
RTVSPost2010Prop41ColorRGB
 90
        0
102
RTVSPost2010PropOp41
 70
     1
102
RTVSPost2010Prop42
 90
       50
102
RTVSPost2010PropOp42
 70
     1
102
RTVSPost2010Prop43
 90
        3
102
RTVSPost2010PropOp43
 70
     1
102
RTVSPost2010Prop44ColorIndex
 90
        5
102
RTVSPost2010Prop44ColorRGB
 90
      255
102
RTVSPost2010PropOp44
 70
     1
102
RTVSPost2010Prop45
280
     0
102
RTVSPost2010PropOp45
 70
     1
102
RTVSPost2010Prop46
 90
       50
102
RTVSPost2010PropOp46
 70
     1
102
RTVSPost2010Prop47
 90
       50
102
RTVSPost2010PropOp47
 70
     1
102
RTVSPost2010Prop48
 90
       50
102
RTVSPost2010PropOp48
 70
     1
102
RTVSPost2010Prop49
280
     0
102
RTVSPost2010PropOp49
 70
     1
102
RTVSPost2010Prop50
 90
       50
102
RTVSPost2010PropOp50
 70
     1
102
RTVSPost2010Prop51ColorIndex
 90
      256
102
RTVSPost2010Prop51ColorRGB
 90
-16777216
102
RTVSPost2010PropOp51
 70
     0
102
RTVSPost2010Prop52
140
1.0
102
RTVSPost2010PropOp52
 70
     0
102
RTVSPost2010Prop53
 90
        2
102
RTVSPost2010PropOp53
 70
     1
102
RTVSPost2010Prop54
  1
strokes_ogs.tif
102
RTVSPost2010PropOp54
 70
     1
102
RTVSPost2010Prop55
280
     0
102
RTVSPost2010PropOp55
 70
     1
102
RTVSPost2010Prop56
140
1.0
102
RTVSPost2010PropOp56
 70
     1
102
RTVSPost2010Prop57
140
1.0
102
RTVSPost2010PropOp57
 70
     1
102
RTVSPropertyOp0
 70
     1
102
RTVSPropertyOp1
 70
     1
102
RTVSPropertyOp2
 70
     1
102
RTVSPropertyOp3
 70
     1
102
RTVSPropertyOp4
 70
     1
102
RTVSPropertyOp5
 70
     1
102
RTVSPropertyOp6
 70
     1
102
RTVSPropertyOp7
 70
     1
102
RTVSPropertyOp8
 70
     1
102
RTVSPropertyOp9
 70
     1
102
RTVSPropertyOp10
 70
     1
102
RTVSPropertyOp11
 70
     1
102
RTVSPropertyOp12
 70
     1
102
RTVSPropertyOp13
 70
     1
102
RTVSPropertyOp14
 70
     1
102
RTVSPropertyOp15
 70
     1
102
RTVSPropertyOp16
 70
     1
102
RTVSPropertyOp17
 70
     1
102
RTVSPropertyOp18
 70
     1
102
RTVSPropertyOp19
 70
     1
102
RTVSPropertyOp20
 70
     1
102
RTVSPropertyOp21
 70
     1
102
RTVSPropertyOp22
 70
     1
102
RTVSPropertyOp23
 70
     1
102
RTVSPropertyOp24
 70
     1
102
RTVSPropertyOp25
 70
     1
102
RTVSPropertyOp26
 70
     1
102
RTVSPropertyOp27
 70
     1
102
RTVSPropertyOp28
 70
     1
102
RTVSPropertyOp29
 70
     1
102
RTVSPropertyOp30
 70
     1
102
RTVSPropertyOp31
 70
     1
102
RTVSPropertyOp32
 70
     1
102
RTVSPropertyOp33
 70
     1
102
RTVSPropertyOp34
 70
     1
102
RTVSPropertyOp35
 70
     1
102
RTVSPropertyOp36
 70
     1
102
RTVSPropertyOp37
 70
     1
102
RTVSPropertyOp38
 70
     1
102
RTVSPropertyOp39
 70
     1
102
RTVSPropertyOp40
 70
     1
102
RTVSPropertyOp41
 70
     1
102
RTVSPropertyOp42
 70
     1
102
RTVSPropertyOp43
 70
     1
102
RTVSPropertyOp44
 70
     1
102
RTVSPropertyOp45
 70
     1
102
RTVSPropertyOp46
 70
     1
102
RTVSPropertyOp47
 70
     1
102
RTVSPropertyOp48
 70
     1
102
RTVSPropertyOp49
 70
     1
102
RTVSPropertyOp50
 70
     1
102
RTVSPropertyOp51
 70
     0
102
RTVSPropertyOp52
 70
     0
102
RTVSPropertyOp53
 70
     1
102
RTVSPropertyOp54
 70
     1
102
RTVSPropertyOp55
 70
     1
102
RTVSPropertyOp56
 70
     1
102
RTVSPropertyOp57
 70
     1
102
RTVSPropertyOp58
 70
     1
102
RTVSPropertyOp59
 70
     1
102
RTVSPropertyOp60
 70
     1
102
RTVSPropertyOp61
 70
     1
102
RTVSPropertyOp62
 70
     1
  0
XRECORD
  5
3F7
102
{ACAD_REACTORS
330
3F6
102
}
330
3F6
100
AcDbXrecord
280
     1
102
RTVSPost2010Prop28
280
     0
102
RTVSPost2010PropOp28
 70
     1
102
RTVSPost2010Prop29
280
     1
102
RTVSPost2010PropOp29
 70
     1
102
RTVSPost2010Prop30
280
     1
102
RTVSPost2010PropOp30
 70
     1
102
RTVSPost2010Prop31
280
     0
102
RTVSPost2010PropOp31
 70
     1
102
RTVSPost2010Prop32
280
     0
102
RTVSPost2010PropOp32
 70
     1
102
RTVSPost2010Prop33
280
     0
102
RTVSPost2010PropOp33
 70
     1
102
RTVSPost2010Prop34
280
     0
102
RTVSPost2010PropOp34
 70
     1
102
RTVSPost2010Prop35
280
     0
102
RTVSPost2010PropOp35
 70
     1
102
RTVSPost2010Prop36
280
     0
102
RTVSPost2010PropOp36
 70
     1
102
RTVSPost2010Prop37
 90
       50
102
RTVSPost2010PropOp37
 70
     1
102
RTVSPost2010Prop38
140
0.0
102
RTVSPost2010PropOp38
 70
     1
102
RTVSPost2010Prop39
140
1.0
102
RTVSPost2010PropOp39
 70
     1
102
RTVSPost2010Prop40
 90
        0
102
RTVSPost2010PropOp40
 70
     1
102
RTVSPost2010Prop41ColorIndex
 90
       18
102
RTVSPost2010Prop41ColorRGB
 90
        0
102
RTVSPost2010PropOp41
 70
     1
102
RTVSPost2010Prop42
 90
       50
102
RTVSPost2010PropOp42
 70
     1
102
RTVSPost2010Prop43
 90
        3
102
RTVSPost2010PropOp43
 70
     1
102
RTVSPost2010Prop44ColorIndex
 90
        5
102
RTVSPost2010Prop44ColorRGB
 90
      255
102
RTVSPost2010PropOp44
 70
     1
102
RTVSPost2010Prop45
280
     0
102
RTVSPost2010PropOp45
 70
     1
102
RTVSPost2010Prop46
 90
       50
102
RTVSPost2010PropOp46
 70
     1
102
RTVSPost2010Prop47
 90
       50
102
RTVSPost2010PropOp47
 70
     1
102
RTVSPost2010Prop48
 90
       50
102
RTVSPost2010PropOp48
 70
     1
102
RTVSPost2010Prop49
280
     0
102
RTVSPost2010PropOp49
 70
     1
102
RTVSPost2010Prop50
 90
       50
102
RTVSPost2010PropOp50
 70
     1
102
RTVSPost2010Prop51ColorIndex
 90
      256
102
RTVSPost2010Prop51ColorRGB
 90
-16777216
102
RTVSPost2010PropOp51
 70
     0
102
RTVSPost2010Prop52
140
1.0
102
RTVSPost2010PropOp52
 70
     0
102
RTVSPost2010Prop53
 90
        2
102
RTVSPost2010PropOp53
 70
     1
102
RTVSPost2010Prop54
  1
strokes_ogs.tif
102
RTVSPost2010PropOp54
 70
     1
102
RTVSPost2010Prop55
280
     0
102
RTVSPost2010PropOp55
 70
     1
102
RTVSPost2010Prop56
140
1.0
102
RTVSPost2010PropOp56
 70
     1
102
RTVSPost2010Prop57
140
1.0
102
RTVSPost2010PropOp57
 70
     1
102
RTVSPropertyOp0
 70
     1
102
RTVSPropertyOp1
 70
     1
102
RTVSPropertyOp2
 70
     1
102
RTVSPropertyOp3
 70
     1
102
RTVSPropertyOp4
 70
     1
102
RTVSPropertyOp5
 70
     1
102
RTVSPropertyOp6
 70
     1
102
RTVSPropertyOp7
 70
     1
102
RTVSPropertyOp8
 70
     1
102
RTVSPropertyOp9
 70
     1
102
RTVSPropertyOp10
 70
     1
102
RTVSPropertyOp11
 70
     1
102
RTVSPropertyOp12
 70
     1
102
RTVSPropertyOp13
 70
     1
102
RTVSPropertyOp14
 70
     1
102
RTVSPropertyOp15
 70
     1
102
RTVSPropertyOp16
 70
     1
102
RTVSPropertyOp17
 70
     1
102
RTVSPropertyOp18
 70
     1
102
RTVSPropertyOp19
 70
     1
102
RTVSPropertyOp20
 70
     1
102
RTVSPropertyOp21
 70
     1
102
RTVSPropertyOp22
 70
     1
102
RTVSPropertyOp23
 70
     1
102
RTVSPropertyOp24
 70
     1
102
RTVSPropertyOp25
 70
     1
102
RTVSPropertyOp26
 70
     1
102
RTVSPropertyOp27
 70
     1
102
RTVSPropertyOp28
 70
     1
102
RTVSPropertyOp29
 70
     1
102
RTVSPropertyOp30
 70
     1
102
RTVSPropertyOp31
 70
     1
102
RTVSPropertyOp32
 70
     1
102
RTVSPropertyOp33
 70
     1
102
RTVSPropertyOp34
 70
     1
102
RTVSPropertyOp35
 70
     1
102
RTVSPropertyOp36
 70
     1
102
RTVSPropertyOp37
 70
     1
102
RTVSPropertyOp38
 70
     1
102
RTVSPropertyOp39
 70
     1
102
RTVSPropertyOp40
 70
     1
102
RTVSPropertyOp41
 70
     1
102
RTVSPropertyOp42
 70
     1
102
RTVSPropertyOp43
 70
     1
102
RTVSPropertyOp44
 70
     1
102
RTVSPropertyOp45
 70
     1
102
RTVSPropertyOp46
 70
     1
102
RTVSPropertyOp47
 70
     1
102
RTVSPropertyOp48
 70
     1
102
RTVSPropertyOp49
 70
     1
102
RTVSPropertyOp50
 70
     1
102
RTVSPropertyOp51
 70
     0
102
RTVSPropertyOp52
 70
     0
102
RTVSPropertyOp53
 70
     1
102
RTVSPropertyOp54
 70
     1
102
RTVSPropertyOp55
 70
     1
102
RTVSPropertyOp56
 70
     1
102
RTVSPropertyOp57
 70
     1
102
RTVSPropertyOp58
 70
     1
102
RTVSPropertyOp59
 70
     1
102
RTVSPropertyOp60
 70
     1
102
RTVSPropertyOp61
 70
     1
102
RTVSPropertyOp62
 70
     1
  0
XRECORD
  5
413
102
{ACAD_REACTORS
330
412
102
}
330
412
100
AcDbXrecord
280
     1
102
RTVSPost2010Prop28
280
     0
102
RTVSPost2010PropOp28
 70
     0
102
RTVSPost2010Prop29
280
     1
102
RTVSPost2010PropOp29
 70
     0
102
RTVSPost2010Prop30
280
     1
102
RTVSPost2010PropOp30
 70
     0
102
RTVSPost2010Prop31
280
     0
102
RTVSPost2010PropOp31
 70
     0
102
RTVSPost2010Prop32
280
     0
102
RTVSPost2010PropOp32
 70
     0
102
RTVSPost2010Prop33
280
     0
102
RTVSPost2010PropOp33
 70
     0
102
RTVSPost2010Prop34
280
     0
102
RTVSPost2010PropOp34
 70
     0
102
RTVSPost2010Prop35
280
     0
102
RTVSPost2010PropOp35
 70
     0
102
RTVSPost2010Prop36
280
     0
102
RTVSPost2010PropOp36
 70
     0
102
RTVSPost2010Prop37
 90
       50
102
RTVSPost2010PropOp37
 70
     0
102
RTVSPost2010Prop38
140
0.0
102
RTVSPost2010PropOp38
 70
     0
102
RTVSPost2010Prop39
140
1.0
102
RTVSPost2010PropOp39
 70
     0
102
RTVSPost2010Prop40
 90
        0
102
RTVSPost2010PropOp40
 70
     0
102
RTVSPost2010Prop41ColorIndex
 90
       18
102
RTVSPost2010Prop41ColorRGB
 90
        0
102
RTVSPost2010PropOp41
 70
     0
102
RTVSPost2010Prop42
 90
       50
102
RTVSPost2010PropOp42
 70
     0
102
RTVSPost2010Prop43
 90
        3
102
RTVSPost2010PropOp43
 70
     0
102
RTVSPost2010Prop44ColorIndex
 90
        5
102
RTVSPost2010Prop44ColorRGB
 90
      255
102
RTVSPost2010PropOp44
 70
     0
102
RTVSPost2010Prop45
280
     0
102
RTVSPost2010PropOp45
 70
     0
102
RTVSPost2010Prop46
 90
       50
102
RTVSPost2010PropOp46
 70
     0
102
RTVSPost2010Prop47
 90
       50
102
RTVSPost2010PropOp47
 70
     0
102
RTVSPost2010Prop48
 90
       50
102
RTVSPost2010PropOp48
 70
     0
102
RTVSPost2010Prop49
280
     0
102
RTVSPost2010PropOp49
 70
     0
102
RTVSPost2010Prop50
 90
       50
102
RTVSPost2010PropOp50
 70
     0
102
RTVSPost2010Prop51ColorIndex
 90
      256
102
RTVSPost2010Prop51ColorRGB
 90
-16777216
102
RTVSPost2010PropOp51
 70
     0
102
RTVSPost2010Prop52
140
1.0
102
RTVSPost2010PropOp52
 70
     0
102
RTVSPost2010Prop53
 90
        2
102
RTVSPost2010PropOp53
 70
     0
102
RTVSPost2010Prop54
  1
strokes_ogs.tif
102
RTVSPost2010PropOp54
 70
     0
102
RTVSPost2010Prop55
280
     0
102
RTVSPost2010PropOp55
 70
     0
102
RTVSPost2010Prop56
140
1.0
102
RTVSPost2010PropOp56
 70
     0
102
RTVSPost2010Prop57
140
1.0
102
RTVSPost2010PropOp57
 70
     0
102
RTVSPropertyOp0
 70
     0
102
RTVSPropertyOp1
 70
     0
102
RTVSPropertyOp2
 70
     0
102
RTVSPropertyOp3
 70
     0
102
RTVSPropertyOp4
 70
     0
102
RTVSPropertyOp5
 70
     0
102
RTVSPropertyOp6
 70
     0
102
RTVSPropertyOp7
 70
     0
102
RTVSPropertyOp8
 70
     0
102
RTVSPropertyOp9
 70
     0
102
RTVSPropertyOp10
 70
     0
102
RTVSPropertyOp11
 70
     0
102
RTVSPropertyOp12
 70
     0
102
RTVSPropertyOp13
 70
     0
102
RTVSPropertyOp14
 70
     2
102
RTVSPropertyOp15
 70
     0
102
RTVSPropertyOp16
 70
     0
102
RTVSPropertyOp17
 70
     0
102
RTVSPropertyOp18
 70
     0
102
RTVSPropertyOp19
 70
     0
102
RTVSPropertyOp20
 70
     0
102
RTVSPropertyOp21
 70
     0
102
RTVSPropertyOp22
 70
     0
102
RTVSPropertyOp23
 70
     0
102
RTVSPropertyOp24
 70
     0
102
RTVSPropertyOp25
 70
     0
102
RTVSPropertyOp26
 70
     0
102
RTVSPropertyOp27
 70
     0
102
RTVSPropertyOp28
 70
     0
102
RTVSPropertyOp29
 70
     0
102
RTVSPropertyOp30
 70
     0
102
RTVSPropertyOp31
 70
     0
102
RTVSPropertyOp32
 70
     0
102
RTVSPropertyOp33
 70
     0
102
RTVSPropertyOp34
 70
     0
102
RTVSPropertyOp35
 70
     0
102
RTVSPropertyOp36
 70
     0
102
RTVSPropertyOp37
 70
     0
102
RTVSPropertyOp38
 70
     0
102
RTVSPropertyOp39
 70
     0
102
RTVSPropertyOp40
 70
     0
102
RTVSPropertyOp41
 70
     0
102
RTVSPropertyOp42
 70
     0
102
RTVSPropertyOp43
 70
     0
102
RTVSPropertyOp44
 70
     0
102
RTVSPropertyOp45
 70
     0
102
RTVSPropertyOp46
 70
     0
102
RTVSPropertyOp47
 70
     0
102
RTVSPropertyOp48
 70
     0
102
RTVSPropertyOp49
 70
     0
102
RTVSPropertyOp50
 70
     0
102
RTVSPropertyOp51
 70
     0
102
RTVSPropertyOp52
 70
     0
102
RTVSPropertyOp53
 70
     0
102
RTVSPropertyOp54
 70
     0
102
RTVSPropertyOp55
 70
     0
102
RTVSPropertyOp56
 70
     0
102
RTVSPropertyOp57
 70
     0
102
RTVSPropertyOp58
 70
     0
102
RTVSPropertyOp59
 70
     0
102
RTVSPropertyOp60
 70
     0
102
RTVSPropertyOp61
 70
     0
102
RTVSPropertyOp62
 70
     0
  0
XRECORD
  5
403
102
{ACAD_REACTORS
330
402
102
}
330
402
100
AcDbXrecord
280
     1
102
RTVSPost2010Prop28
280
     0
102
RTVSPost2010PropOp28
 70
     1
102
RTVSPost2010Prop29
280
     1
102
RTVSPost2010PropOp29
 70
     1
102
RTVSPost2010Prop30
280
     1
102
RTVSPost2010PropOp30
 70
     1
102
RTVSPost2010Prop31
280
     0
102
RTVSPost2010PropOp31
 70
     1
102
RTVSPost2010Prop32
280
     0
102
RTVSPost2010PropOp32
 70
     1
102
RTVSPost2010Prop33
280
     0
102
RTVSPost2010PropOp33
 70
     1
102
RTVSPost2010Prop34
280
     0
102
RTVSPost2010PropOp34
 70
     1
102
RTVSPost2010Prop35
280
     0
102
RTVSPost2010PropOp35
 70
     1
102
RTVSPost2010Prop36
280
     0
102
RTVSPost2010PropOp36
 70
     1
102
RTVSPost2010Prop37
 90
       50
102
RTVSPost2010PropOp37
 70
     1
102
RTVSPost2010Prop38
140
0.0
102
RTVSPost2010PropOp38
 70
     1
102
RTVSPost2010Prop39
140
1.0
102
RTVSPost2010PropOp39
 70
     1
102
RTVSPost2010Prop40
 90
        0
102
RTVSPost2010PropOp40
 70
     1
102
RTVSPost2010Prop41ColorIndex
 90
       18
102
RTVSPost2010Prop41ColorRGB
 90
        0
102
RTVSPost2010PropOp41
 70
     1
102
RTVSPost2010Prop42
 90
       50
102
RTVSPost2010PropOp42
 70
     1
102
RTVSPost2010Prop43
 90
        3
102
RTVSPost2010PropOp43
 70
     1
102
RTVSPost2010Prop44ColorIndex
 90
        5
102
RTVSPost2010Prop44ColorRGB
 90
      255
102
RTVSPost2010PropOp44
 70
     1
102
RTVSPost2010Prop45
280
     0
102
RTVSPost2010PropOp45
 70
     1
102
RTVSPost2010Prop46
 90
       50
102
RTVSPost2010PropOp46
 70
     1
102
RTVSPost2010Prop47
 90
       50
102
RTVSPost2010PropOp47
 70
     1
102
RTVSPost2010Prop48
 90
       50
102
RTVSPost2010PropOp48
 70
     1
102
RTVSPost2010Prop49
280
     0
102
RTVSPost2010PropOp49
 70
     1
102
RTVSPost2010Prop50
 90
       50
102
RTVSPost2010PropOp50
 70
     1
102
RTVSPost2010Prop51ColorIndex
 90
      256
102
RTVSPost2010Prop51ColorRGB
 90
-16777216
102
RTVSPost2010PropOp51
 70
     0
102
RTVSPost2010Prop52
140
1.0
102
RTVSPost2010PropOp52
 70
     0
102
RTVSPost2010Prop53
 90
        2
102
RTVSPost2010PropOp53
 70
     1
102
RTVSPost2010Prop54
  1
strokes_ogs.tif
102
RTVSPost2010PropOp54
 70
     1
102
RTVSPost2010Prop55
280
     0
102
RTVSPost2010PropOp55
 70
     1
102
RTVSPost2010Prop56
140
1.0
102
RTVSPost2010PropOp56
 70
     1
102
RTVSPost2010Prop57
140
1.0
102
RTVSPost2010PropOp57
 70
     1
102
RTVSPropertyOp0
 70
     1
102
RTVSPropertyOp1
 70
     1
102
RTVSPropertyOp2
 70
     1
102
RTVSPropertyOp3
 70
     1
102
RTVSPropertyOp4
 70
     1
102
RTVSPropertyOp5
 70
     1
102
RTVSPropertyOp6
 70
     1
102
RTVSPropertyOp7
 70
     1
102
RTVSPropertyOp8
 70
     1
102
RTVSPropertyOp9
 70
     1
102
RTVSPropertyOp10
 70
     1
102
RTVSPropertyOp11
 70
     1
102
RTVSPropertyOp12
 70
     1
102
RTVSPropertyOp13
 70
     1
102
RTVSPropertyOp14
 70
     1
102
RTVSPropertyOp15
 70
     1
102
RTVSPropertyOp16
 70
     1
102
RTVSPropertyOp17
 70
     1
102
RTVSPropertyOp18
 70
     1
102
RTVSPropertyOp19
 70
     1
102
RTVSPropertyOp20
 70
     1
102
RTVSPropertyOp21
 70
     1
102
RTVSPropertyOp22
 70
     1
102
RTVSPropertyOp23
 70
     1
102
RTVSPropertyOp24
 70
     1
102
RTVSPropertyOp25
 70
     1
102
RTVSPropertyOp26
 70
     1
102
RTVSPropertyOp27
 70
     1
102
RTVSPropertyOp28
 70
     1
102
RTVSPropertyOp29
 70
     1
102
RTVSPropertyOp30
 70
     1
102
RTVSPropertyOp31
 70
     1
102
RTVSPropertyOp32
 70
     1
102
RTVSPropertyOp33
 70
     1
102
RTVSPropertyOp34
 70
     1
102
RTVSPropertyOp35
 70
     1
102
RTVSPropertyOp36
 70
     1
102
RTVSPropertyOp37
 70
     1
102
RTVSPropertyOp38
 70
     1
102
RTVSPropertyOp39
 70
     1
102
RTVSPropertyOp40
 70
     1
102
RTVSPropertyOp41
 70
     1
102
RTVSPropertyOp42
 70
     1
102
RTVSPropertyOp43
 70
     1
102
RTVSPropertyOp44
 70
     1
102
RTVSPropertyOp45
 70
     1
102
RTVSPropertyOp46
 70
     1
102
RTVSPropertyOp47
 70
     1
102
RTVSPropertyOp48
 70
     1
102
RTVSPropertyOp49
 70
     1
102
RTVSPropertyOp50
 70
     1
102
RTVSPropertyOp51
 70
     0
102
RTVSPropertyOp52
 70
     0
102
RTVSPropertyOp53
 70
     1
102
RTVSPropertyOp54
 70
     1
102
RTVSPropertyOp55
 70
     1
102
RTVSPropertyOp56
 70
     1
102
RTVSPropertyOp57
 70
     1
102
RTVSPropertyOp58
 70
     1
102
RTVSPropertyOp59
 70
     1
102
RTVSPropertyOp60
 70
     1
102
RTVSPropertyOp61
 70
     1
102
RTVSPropertyOp62
 70
     1
  0
XRECORD
  5
415
102
{ACAD_REACTORS
330
414
102
}
330
414
100
AcDbXrecord
280
     1
102
RTVSPost2010Prop28
280
     0
102
RTVSPost2010PropOp28
 70
     0
102
RTVSPost2010Prop29
280
     1
102
RTVSPost2010PropOp29
 70
     0
102
RTVSPost2010Prop30
280
     1
102
RTVSPost2010PropOp30
 70
     0
102
RTVSPost2010Prop31
280
     0
102
RTVSPost2010PropOp31
 70
     0
102
RTVSPost2010Prop32
280
     0
102
RTVSPost2010PropOp32
 70
     0
102
RTVSPost2010Prop33
280
     0
102
RTVSPost2010PropOp33
 70
     0
102
RTVSPost2010Prop34
280
     0
102
RTVSPost2010PropOp34
 70
     0
102
RTVSPost2010Prop35
280
     0
102
RTVSPost2010PropOp35
 70
     0
102
RTVSPost2010Prop36
280
     0
102
RTVSPost2010PropOp36
 70
     0
102
RTVSPost2010Prop37
 90
       50
102
RTVSPost2010PropOp37
 70
     0
102
RTVSPost2010Prop38
140
0.0
102
RTVSPost2010PropOp38
 70
     0
102
RTVSPost2010Prop39
140
1.0
102
RTVSPost2010PropOp39
 70
     0
102
RTVSPost2010Prop40
 90
        0
102
RTVSPost2010PropOp40
 70
     0
102
RTVSPost2010Prop41ColorIndex
 90
       18
102
RTVSPost2010Prop41ColorRGB
 90
        0
102
RTVSPost2010PropOp41
 70
     0
102
RTVSPost2010Prop42
 90
       50
102
RTVSPost2010PropOp42
 70
     0
102
RTVSPost2010Prop43
 90
        3
102
RTVSPost2010PropOp43
 70
     0
102
RTVSPost2010Prop44ColorIndex
 90
        5
102
RTVSPost2010Prop44ColorRGB
 90
      255
102
RTVSPost2010PropOp44
 70
     0
102
RTVSPost2010Prop45
280
     0
102
RTVSPost2010PropOp45
 70
     0
102
RTVSPost2010Prop46
 90
       50
102
RTVSPost2010PropOp46
 70
     0
102
RTVSPost2010Prop47
 90
       50
102
RTVSPost2010PropOp47
 70
     0
102
RTVSPost2010Prop48
 90
       50
102
RTVSPost2010PropOp48
 70
     0
102
RTVSPost2010Prop49
280
     0
102
RTVSPost2010PropOp49
 70
     0
102
RTVSPost2010Prop50
 90
       50
102
RTVSPost2010PropOp50
 70
     0
102
RTVSPost2010Prop51ColorIndex
 90
      256
102
RTVSPost2010Prop51ColorRGB
 90
-16777216
102
RTVSPost2010PropOp51
 70
     0
102
RTVSPost2010Prop52
140
1.0
102
RTVSPost2010PropOp52
 70
     0
102
RTVSPost2010Prop53
 90
        2
102
RTVSPost2010PropOp53
 70
     0
102
RTVSPost2010Prop54
  1
strokes_ogs.tif
102
RTVSPost2010PropOp54
 70
     0
102
RTVSPost2010Prop55
280
     0
102
RTVSPost2010PropOp55
 70
     0
102
RTVSPost2010Prop56
140
1.0
102
RTVSPost2010PropOp56
 70
     0
102
RTVSPost2010Prop57
140
1.0
102
RTVSPost2010PropOp57
 70
     0
102
RTVSPropertyOp0
 70
     0
102
RTVSPropertyOp1
 70
     0
102
RTVSPropertyOp2
 70
     0
102
RTVSPropertyOp3
 70
     0
102
RTVSPropertyOp4
 70
     0
102
RTVSPropertyOp5
 70
     0
102
RTVSPropertyOp6
 70
     0
102
RTVSPropertyOp7
 70
     0
102
RTVSPropertyOp8
 70
     0
102
RTVSPropertyOp9
 70
     0
102
RTVSPropertyOp10
 70
     0
102
RTVSPropertyOp11
 70
     0
102
RTVSPropertyOp12
 70
     0
102
RTVSPropertyOp13
 70
     0
102
RTVSPropertyOp14
 70
     2
102
RTVSPropertyOp15
 70
     0
102
RTVSPropertyOp16
 70
     0
102
RTVSPropertyOp17
 70
     0
102
RTVSPropertyOp18
 70
     0
102
RTVSPropertyOp19
 70
     0
102
RTVSPropertyOp20
 70
     0
102
RTVSPropertyOp21
 70
     0
102
RTVSPropertyOp22
 70
     0
102
RTVSPropertyOp23
 70
     0
102
RTVSPropertyOp24
 70
     0
102
RTVSPropertyOp25
 70
     0
102
RTVSPropertyOp26
 70
     0
102
RTVSPropertyOp27
 70
     0
102
RTVSPropertyOp28
 70
     0
102
RTVSPropertyOp29
 70
     0
102
RTVSPropertyOp30
 70
     0
102
RTVSPropertyOp31
 70
     0
102
RTVSPropertyOp32
 70
     0
102
RTVSPropertyOp33
 70
     0
102
RTVSPropertyOp34
 70
     0
102
RTVSPropertyOp35
 70
     0
102
RTVSPropertyOp36
 70
     0
102
RTVSPropertyOp37
 70
     0
102
RTVSPropertyOp38
 70
     0
102
RTVSPropertyOp39
 70
     0
102
RTVSPropertyOp40
 70
     0
102
RTVSPropertyOp41
 70
     0
102
RTVSPropertyOp42
 70
     0
102
RTVSPropertyOp43
 70
     0
102
RTVSPropertyOp44
 70
     0
102
RTVSPropertyOp45
 70
     0
102
RTVSPropertyOp46
 70
     0
102
RTVSPropertyOp47
 70
     0
102
RTVSPropertyOp48
 70
     0
102
RTVSPropertyOp49
 70
     0
102
RTVSPropertyOp50
 70
     0
102
RTVSPropertyOp51
 70
     0
102
RTVSPropertyOp52
 70
     0
102
RTVSPropertyOp53
 70
     0
102
RTVSPropertyOp54
 70
     0
102
RTVSPropertyOp55
 70
     0
102
RTVSPropertyOp56
 70
     0
102
RTVSPropertyOp57
 70
     0
102
RTVSPropertyOp58
 70
     0
102
RTVSPropertyOp59
 70
     0
102
RTVSPropertyOp60
 70
     0
102
RTVSPropertyOp61
 70
     0
102
RTVSPropertyOp62
 70
     0
  0
XRECORD
  5
3FB
102
{ACAD_REACTORS
330
3FA
102
}
330
3FA
100
AcDbXrecord
280
     1
102
RTVSPost2010Prop28
280
     0
102
RTVSPost2010PropOp28
 70
     1
102
RTVSPost2010Prop29
280
     1
102
RTVSPost2010PropOp29
 70
     1
102
RTVSPost2010Prop30
280
     1
102
RTVSPost2010PropOp30
 70
     1
102
RTVSPost2010Prop31
280
     0
102
RTVSPost2010PropOp31
 70
     1
102
RTVSPost2010Prop32
280
     0
102
RTVSPost2010PropOp32
 70
     1
102
RTVSPost2010Prop33
280
     0
102
RTVSPost2010PropOp33
 70
     1
102
RTVSPost2010Prop34
280
     0
102
RTVSPost2010PropOp34
 70
     1
102
RTVSPost2010Prop35
280
     0
102
RTVSPost2010PropOp35
 70
     1
102
RTVSPost2010Prop36
280
     0
102
RTVSPost2010PropOp36
 70
     1
102
RTVSPost2010Prop37
 90
       50
102
RTVSPost2010PropOp37
 70
     1
102
RTVSPost2010Prop38
140
0.0
102
RTVSPost2010PropOp38
 70
     1
102
RTVSPost2010Prop39
140
1.0
102
RTVSPost2010PropOp39
 70
     1
102
RTVSPost2010Prop40
 90
        0
102
RTVSPost2010PropOp40
 70
     1
102
RTVSPost2010Prop41ColorIndex
 90
       18
102
RTVSPost2010Prop41ColorRGB
 90
        0
102
RTVSPost2010PropOp41
 70
     1
102
RTVSPost2010Prop42
 90
       50
102
RTVSPost2010PropOp42
 70
     1
102
RTVSPost2010Prop43
 90
        3
102
RTVSPost2010PropOp43
 70
     1
102
RTVSPost2010Prop44ColorIndex
 90
        5
102
RTVSPost2010Prop44ColorRGB
 90
      255
102
RTVSPost2010PropOp44
 70
     1
102
RTVSPost2010Prop45
280
     0
102
RTVSPost2010PropOp45
 70
     1
102
RTVSPost2010Prop46
 90
       50
102
RTVSPost2010PropOp46
 70
     1
102
RTVSPost2010Prop47
 90
       50
102
RTVSPost2010PropOp47
 70
     1
102
RTVSPost2010Prop48
 90
       50
102
RTVSPost2010PropOp48
 70
     1
102
RTVSPost2010Prop49
280
     0
102
RTVSPost2010PropOp49
 70
     1
102
RTVSPost2010Prop50
 90
       50
102
RTVSPost2010PropOp50
 70
     1
102
RTVSPost2010Prop51ColorIndex
 90
      256
102
RTVSPost2010Prop51ColorRGB
 90
-16777216
102
RTVSPost2010PropOp51
 70
     0
102
RTVSPost2010Prop52
140
1.0
102
RTVSPost2010PropOp52
 70
     0
102
RTVSPost2010Prop53
 90
        2
102
RTVSPost2010PropOp53
 70
     1
102
RTVSPost2010Prop54
  1
strokes_ogs.tif
102
RTVSPost2010PropOp54
 70
     1
102
RTVSPost2010Prop55
280
     0
102
RTVSPost2010PropOp55
 70
     1
102
RTVSPost2010Prop56
140
1.0
102
RTVSPost2010PropOp56
 70
     1
102
RTVSPost2010Prop57
140
1.0
102
RTVSPost2010PropOp57
 70
     1
102
RTVSPropertyOp0
 70
     1
102
RTVSPropertyOp1
 70
     1
102
RTVSPropertyOp2
 70
     1
102
RTVSPropertyOp3
 70
     1
102
RTVSPropertyOp4
 70
     1
102
RTVSPropertyOp5
 70
     1
102
RTVSPropertyOp6
 70
     1
102
RTVSPropertyOp7
 70
     1
102
RTVSPropertyOp8
 70
     1
102
RTVSPropertyOp9
 70
     1
102
RTVSPropertyOp10
 70
     1
102
RTVSPropertyOp11
 70
     1
102
RTVSPropertyOp12
 70
     1
102
RTVSPropertyOp13
 70
     1
102
RTVSPropertyOp14
 70
     1
102
RTVSPropertyOp15
 70
     1
102
RTVSPropertyOp16
 70
     1
102
RTVSPropertyOp17
 70
     1
102
RTVSPropertyOp18
 70
     1
102
RTVSPropertyOp19
 70
     1
102
RTVSPropertyOp20
 70
     1
102
RTVSPropertyOp21
 70
     1
102
RTVSPropertyOp22
 70
     1
102
RTVSPropertyOp23
 70
     1
102
RTVSPropertyOp24
 70
     1
102
RTVSPropertyOp25
 70
     1
102
RTVSPropertyOp26
 70
     1
102
RTVSPropertyOp27
 70
     1
102
RTVSPropertyOp28
 70
     1
102
RTVSPropertyOp29
 70
     1
102
RTVSPropertyOp30
 70
     1
102
RTVSPropertyOp31
 70
     1
102
RTVSPropertyOp32
 70
     1
102
RTVSPropertyOp33
 70
     1
102
RTVSPropertyOp34
 70
     1
102
RTVSPropertyOp35
 70
     1
102
RTVSPropertyOp36
 70
     1
102
RTVSPropertyOp37
 70
     1
102
RTVSPropertyOp38
 70
     1
102
RTVSPropertyOp39
 70
     1
102
RTVSPropertyOp40
 70
     1
102
RTVSPropertyOp41
 70
     1
102
RTVSPropertyOp42
 70
     1
102
RTVSPropertyOp43
 70
     1
102
RTVSPropertyOp44
 70
     1
102
RTVSPropertyOp45
 70
     1
102
RTVSPropertyOp46
 70
     1
102
RTVSPropertyOp47
 70
     1
102
RTVSPropertyOp48
 70
     1
102
RTVSPropertyOp49
 70
     1
102
RTVSPropertyOp50
 70
     1
102
RTVSPropertyOp51
 70
     0
102
RTVSPropertyOp52
 70
     0
102
RTVSPropertyOp53
 70
     1
102
RTVSPropertyOp54
 70
     1
102
RTVSPropertyOp55
 70
     1
102
RTVSPropertyOp56
 70
     1
102
RTVSPropertyOp57
 70
     1
102
RTVSPropertyOp58
 70
     1
102
RTVSPropertyOp59
 70
     1
102
RTVSPropertyOp60
 70
     1
102
RTVSPropertyOp61
 70
     1
102
RTVSPropertyOp62
 70
     1
  0
XRECORD
  5
411
102
{ACAD_REACTORS
330
410
102
}
330
410
100
AcDbXrecord
280
     1
102
RTVSPost2010Prop28
280
     0
102
RTVSPost2010PropOp28
 70
     1
102
RTVSPost2010Prop29
280
     1
102
RTVSPost2010PropOp29
 70
     1
102
RTVSPost2010Prop30
280
     1
102
RTVSPost2010PropOp30
 70
     1
102
RTVSPost2010Prop31
280
     0
102
RTVSPost2010PropOp31
 70
     1
102
RTVSPost2010Prop32
280
     0
102
RTVSPost2010PropOp32
 70
     1
102
RTVSPost2010Prop33
280
     0
102
RTVSPost2010PropOp33
 70
     1
102
RTVSPost2010Prop34
280
     0
102
RTVSPost2010PropOp34
 70
     1
102
RTVSPost2010Prop35
280
     0
102
RTVSPost2010PropOp35
 70
     1
102
RTVSPost2010Prop36
280
     0
102
RTVSPost2010PropOp36
 70
     1
102
RTVSPost2010Prop37
 90
       50
102
RTVSPost2010PropOp37
 70
     1
102
RTVSPost2010Prop38
140
0.0
102
RTVSPost2010PropOp38
 70
     1
102
RTVSPost2010Prop39
140
1.0
102
RTVSPost2010PropOp39
 70
     1
102
RTVSPost2010Prop40
 90
        0
102
RTVSPost2010PropOp40
 70
     1
102
RTVSPost2010Prop41ColorIndex
 90
       18
102
RTVSPost2010Prop41ColorRGB
 90
        0
102
RTVSPost2010PropOp41
 70
     1
102
RTVSPost2010Prop42
 90
       50
102
RTVSPost2010PropOp42
 70
     1
102
RTVSPost2010Prop43
 90
        3
102
RTVSPost2010PropOp43
 70
     1
102
RTVSPost2010Prop44ColorIndex
 90
        5
102
RTVSPost2010Prop44ColorRGB
 90
      255
102
RTVSPost2010PropOp44
 70
     1
102
RTVSPost2010Prop45
280
     0
102
RTVSPost2010PropOp45
 70
     1
102
RTVSPost2010Prop46
 90
       50
102
RTVSPost2010PropOp46
 70
     1
102
RTVSPost2010Prop47
 90
       50
102
RTVSPost2010PropOp47
 70
     1
102
RTVSPost2010Prop48
 90
       50
102
RTVSPost2010PropOp48
 70
     1
102
RTVSPost2010Prop49
280
     0
102
RTVSPost2010PropOp49
 70
     1
102
RTVSPost2010Prop50
 90
       50
102
RTVSPost2010PropOp50
 70
     1
102
RTVSPost2010Prop51ColorIndex
 90
      256
102
RTVSPost2010Prop51ColorRGB
 90
-16777216
102
RTVSPost2010PropOp51
 70
     0
102
RTVSPost2010Prop52
140
1.0
102
RTVSPost2010PropOp52
 70
     0
102
RTVSPost2010Prop53
 90
        2
102
RTVSPost2010PropOp53
 70
     1
102
RTVSPost2010Prop54
  1
strokes_ogs.tif
102
RTVSPost2010PropOp54
 70
     1
102
RTVSPost2010Prop55
280
     0
102
RTVSPost2010PropOp55
 70
     1
102
RTVSPost2010Prop56
140
1.0
102
RTVSPost2010PropOp56
 70
     1
102
RTVSPost2010Prop57
140
1.0
102
RTVSPost2010PropOp57
 70
     1
102
RTVSPropertyOp0
 70
     1
102
RTVSPropertyOp1
 70
     1
102
RTVSPropertyOp2
 70
     1
102
RTVSPropertyOp3
 70
     1
102
RTVSPropertyOp4
 70
     1
102
RTVSPropertyOp5
 70
     1
102
RTVSPropertyOp6
 70
     1
102
RTVSPropertyOp7
 70
     1
102
RTVSPropertyOp8
 70
     1
102
RTVSPropertyOp9
 70
     1
102
RTVSPropertyOp10
 70
     1
102
RTVSPropertyOp11
 70
     1
102
RTVSPropertyOp12
 70
     1
102
RTVSPropertyOp13
 70
     1
102
RTVSPropertyOp14
 70
     1
102
RTVSPropertyOp15
 70
     1
102
RTVSPropertyOp16
 70
     1
102
RTVSPropertyOp17
 70
     1
102
RTVSPropertyOp18
 70
     1
102
RTVSPropertyOp19
 70
     1
102
RTVSPropertyOp20
 70
     1
102
RTVSPropertyOp21
 70
     1
102
RTVSPropertyOp22
 70
     1
102
RTVSPropertyOp23
 70
     1
102
RTVSPropertyOp24
 70
     1
102
RTVSPropertyOp25
 70
     1
102
RTVSPropertyOp26
 70
     1
102
RTVSPropertyOp27
 70
     1
102
RTVSPropertyOp28
 70
     1
102
RTVSPropertyOp29
 70
     1
102
RTVSPropertyOp30
 70
     1
102
RTVSPropertyOp31
 70
     1
102
RTVSPropertyOp32
 70
     1
102
RTVSPropertyOp33
 70
     1
102
RTVSPropertyOp34
 70
     1
102
RTVSPropertyOp35
 70
     1
102
RTVSPropertyOp36
 70
     1
102
RTVSPropertyOp37
 70
     1
102
RTVSPropertyOp38
 70
     1
102
RTVSPropertyOp39
 70
     1
102
RTVSPropertyOp40
 70
     1
102
RTVSPropertyOp41
 70
     1
102
RTVSPropertyOp42
 70
     1
102
RTVSPropertyOp43
 70
     1
102
RTVSPropertyOp44
 70
     1
102
RTVSPropertyOp45
 70
     1
102
RTVSPropertyOp46
 70
     1
102
RTVSPropertyOp47
 70
     1
102
RTVSPropertyOp48
 70
     1
102
RTVSPropertyOp49
 70
     1
102
RTVSPropertyOp50
 70
     1
102
RTVSPropertyOp51
 70
     0
102
RTVSPropertyOp52
 70
     0
102
RTVSPropertyOp53
 70
     1
102
RTVSPropertyOp54
 70
     1
102
RTVSPropertyOp55
 70
     1
102
RTVSPropertyOp56
 70
     1
102
RTVSPropertyOp57
 70
     1
102
RTVSPropertyOp58
 70
     1
102
RTVSPropertyOp59
 70
     1
102
RTVSPropertyOp60
 70
     1
102
RTVSPropertyOp61
 70
     1
102
RTVSPropertyOp62
 70
     1
  0
XRECORD
  5
40F
102
{ACAD_REACTORS
330
40E
102
}
330
40E
100
AcDbXrecord
280
     1
102
RTVSPost2010Prop28
280
     0
102
RTVSPost2010PropOp28
 70
     1
102
RTVSPost2010Prop29
280
     1
102
RTVSPost2010PropOp29
 70
     1
102
RTVSPost2010Prop30
280
     1
102
RTVSPost2010PropOp30
 70
     1
102
RTVSPost2010Prop31
280
     0
102
RTVSPost2010PropOp31
 70
     1
102
RTVSPost2010Prop32
280
     0
102
RTVSPost2010PropOp32
 70
     1
102
RTVSPost2010Prop33
280
     0
102
RTVSPost2010PropOp33
 70
     1
102
RTVSPost2010Prop34
280
     0
102
RTVSPost2010PropOp34
 70
     1
102
RTVSPost2010Prop35
280
     0
102
RTVSPost2010PropOp35
 70
     1
102
RTVSPost2010Prop36
280
     0
102
RTVSPost2010PropOp36
 70
     1
102
RTVSPost2010Prop37
 90
       50
102
RTVSPost2010PropOp37
 70
     1
102
RTVSPost2010Prop38
140
0.0
102
RTVSPost2010PropOp38
 70
     1
102
RTVSPost2010Prop39
140
1.0
102
RTVSPost2010PropOp39
 70
     1
102
RTVSPost2010Prop40
 90
        0
102
RTVSPost2010PropOp40
 70
     1
102
RTVSPost2010Prop41ColorIndex
 90
       18
102
RTVSPost2010Prop41ColorRGB
 90
        0
102
RTVSPost2010PropOp41
 70
     1
102
RTVSPost2010Prop42
 90
       50
102
RTVSPost2010PropOp42
 70
     1
102
RTVSPost2010Prop43
 90
        3
102
RTVSPost2010PropOp43
 70
     1
102
RTVSPost2010Prop44ColorIndex
 90
        5
102
RTVSPost2010Prop44ColorRGB
 90
      255
102
RTVSPost2010PropOp44
 70
     1
102
RTVSPost2010Prop45
280
     0
102
RTVSPost2010PropOp45
 70
     1
102
RTVSPost2010Prop46
 90
       50
102
RTVSPost2010PropOp46
 70
     1
102
RTVSPost2010Prop47
 90
       50
102
RTVSPost2010PropOp47
 70
     1
102
RTVSPost2010Prop48
 90
       50
102
RTVSPost2010PropOp48
 70
     1
102
RTVSPost2010Prop49
280
     0
102
RTVSPost2010PropOp49
 70
     1
102
RTVSPost2010Prop50
 90
       50
102
RTVSPost2010PropOp50
 70
     1
102
RTVSPost2010Prop51ColorIndex
 90
      256
102
RTVSPost2010Prop51ColorRGB
 90
-16777216
102
RTVSPost2010PropOp51
 70
     0
102
RTVSPost2010Prop52
140
1.0
102
RTVSPost2010PropOp52
 70
     0
102
RTVSPost2010Prop53
 90
        2
102
RTVSPost2010PropOp53
 70
     1
102
RTVSPost2010Prop54
  1
strokes_ogs.tif
102
RTVSPost2010PropOp54
 70
     1
102
RTVSPost2010Prop55
280
     0
102
RTVSPost2010PropOp55
 70
     1
102
RTVSPost2010Prop56
140
1.0
102
RTVSPost2010PropOp56
 70
     1
102
RTVSPost2010Prop57
140
1.0
102
RTVSPost2010PropOp57
 70
     1
102
RTVSPropertyOp0
 70
     1
102
RTVSPropertyOp1
 70
     1
102
RTVSPropertyOp2
 70
     1
102
RTVSPropertyOp3
 70
     1
102
RTVSPropertyOp4
 70
     1
102
RTVSPropertyOp5
 70
     1
102
RTVSPropertyOp6
 70
     1
102
RTVSPropertyOp7
 70
     1
102
RTVSPropertyOp8
 70
     1
102
RTVSPropertyOp9
 70
     1
102
RTVSPropertyOp10
 70
     1
102
RTVSPropertyOp11
 70
     1
102
RTVSPropertyOp12
 70
     1
102
RTVSPropertyOp13
 70
     1
102
RTVSPropertyOp14
 70
     1
102
RTVSPropertyOp15
 70
     1
102
RTVSPropertyOp16
 70
     1
102
RTVSPropertyOp17
 70
     1
102
RTVSPropertyOp18
 70
     1
102
RTVSPropertyOp19
 70
     1
102
RTVSPropertyOp20
 70
     1
102
RTVSPropertyOp21
 70
     1
102
RTVSPropertyOp22
 70
     1
102
RTVSPropertyOp23
 70
     1
102
RTVSPropertyOp24
 70
     1
102
RTVSPropertyOp25
 70
     1
102
RTVSPropertyOp26
 70
     1
102
RTVSPropertyOp27
 70
     1
102
RTVSPropertyOp28
 70
     1
102
RTVSPropertyOp29
 70
     1
102
RTVSPropertyOp30
 70
     1
102
RTVSPropertyOp31
 70
     1
102
RTVSPropertyOp32
 70
     1
102
RTVSPropertyOp33
 70
     1
102
RTVSPropertyOp34
 70
     1
102
RTVSPropertyOp35
 70
     1
102
RTVSPropertyOp36
 70
     1
102
RTVSPropertyOp37
 70
     1
102
RTVSPropertyOp38
 70
     1
102
RTVSPropertyOp39
 70
     1
102
RTVSPropertyOp40
 70
     1
102
RTVSPropertyOp41
 70
     1
102
RTVSPropertyOp42
 70
     1
102
RTVSPropertyOp43
 70
     1
102
RTVSPropertyOp44
 70
     1
102
RTVSPropertyOp45
 70
     1
102
RTVSPropertyOp46
 70
     1
102
RTVSPropertyOp47
 70
     1
102
RTVSPropertyOp48
 70
     1
102
RTVSPropertyOp49
 70
     1
102
RTVSPropertyOp50
 70
     1
102
RTVSPropertyOp51
 70
     0
102
RTVSPropertyOp52
 70
     0
102
RTVSPropertyOp53
 70
     1
102
RTVSPropertyOp54
 70
     1
102
RTVSPropertyOp55
 70
     1
102
RTVSPropertyOp56
 70
     1
102
RTVSPropertyOp57
 70
     1
102
RTVSPropertyOp58
 70
     1
102
RTVSPropertyOp59
 70
     1
102
RTVSPropertyOp60
 70
     1
102
RTVSPropertyOp61
 70
     1
102
RTVSPropertyOp62
 70
     1
  0
XRECORD
  5
409
102
{ACAD_REACTORS
330
408
102
}
330
408
100
AcDbXrecord
280
     1
102
RTVSPost2010Prop28
280
     0
102
RTVSPost2010PropOp28
 70
     1
102
RTVSPost2010Prop29
280
     1
102
RTVSPost2010PropOp29
 70
     1
102
RTVSPost2010Prop30
280
     1
102
RTVSPost2010PropOp30
 70
     1
102
RTVSPost2010Prop31
280
     0
102
RTVSPost2010PropOp31
 70
     1
102
RTVSPost2010Prop32
280
     0
102
RTVSPost2010PropOp32
 70
     1
102
RTVSPost2010Prop33
280
     0
102
RTVSPost2010PropOp33
 70
     1
102
RTVSPost2010Prop34
280
     0
102
RTVSPost2010PropOp34
 70
     1
102
RTVSPost2010Prop35
280
     0
102
RTVSPost2010PropOp35
 70
     1
102
RTVSPost2010Prop36
280
     0
102
RTVSPost2010PropOp36
 70
     1
102
RTVSPost2010Prop37
 90
       50
102
RTVSPost2010PropOp37
 70
     1
102
RTVSPost2010Prop38
140
0.0
102
RTVSPost2010PropOp38
 70
     1
102
RTVSPost2010Prop39
140
1.0
102
RTVSPost2010PropOp39
 70
     1
102
RTVSPost2010Prop40
 90
        0
102
RTVSPost2010PropOp40
 70
     1
102
RTVSPost2010Prop41ColorIndex
 90
       18
102
RTVSPost2010Prop41ColorRGB
 90
        0
102
RTVSPost2010PropOp41
 70
     1
102
RTVSPost2010Prop42
 90
       50
102
RTVSPost2010PropOp42
 70
     1
102
RTVSPost2010Prop43
 90
        3
102
RTVSPost2010PropOp43
 70
     1
102
RTVSPost2010Prop44ColorIndex
 90
        5
102
RTVSPost2010Prop44ColorRGB
 90
      255
102
RTVSPost2010PropOp44
 70
     1
102
RTVSPost2010Prop45
280
     0
102
RTVSPost2010PropOp45
 70
     1
102
RTVSPost2010Prop46
 90
       50
102
RTVSPost2010PropOp46
 70
     1
102
RTVSPost2010Prop47
 90
       50
102
RTVSPost2010PropOp47
 70
     1
102
RTVSPost2010Prop48
 90
       50
102
RTVSPost2010PropOp48
 70
     1
102
RTVSPost2010Prop49
280
     0
102
RTVSPost2010PropOp49
 70
     1
102
RTVSPost2010Prop50
 90
       50
102
RTVSPost2010PropOp50
 70
     1
102
RTVSPost2010Prop51ColorIndex
 90
      256
102
RTVSPost2010Prop51ColorRGB
 90
-16777216
102
RTVSPost2010PropOp51
 70
     0
102
RTVSPost2010Prop52
140
1.0
102
RTVSPost2010PropOp52
 70
     0
102
RTVSPost2010Prop53
 90
        2
102
RTVSPost2010PropOp53
 70
     1
102
RTVSPost2010Prop54
  1
strokes_ogs.tif
102
RTVSPost2010PropOp54
 70
     1
102
RTVSPost2010Prop55
280
     0
102
RTVSPost2010PropOp55
 70
     1
102
RTVSPost2010Prop56
140
1.0
102
RTVSPost2010PropOp56
 70
     1
102
RTVSPost2010Prop57
140
1.0
102
RTVSPost2010PropOp57
 70
     1
102
RTVSPropertyOp0
 70
     1
102
RTVSPropertyOp1
 70
     1
102
RTVSPropertyOp2
 70
     1
102
RTVSPropertyOp3
 70
     1
102
RTVSPropertyOp4
 70
     1
102
RTVSPropertyOp5
 70
     1
102
RTVSPropertyOp6
 70
     1
102
RTVSPropertyOp7
 70
     1
102
RTVSPropertyOp8
 70
     1
102
RTVSPropertyOp9
 70
     1
102
RTVSPropertyOp10
 70
     1
102
RTVSPropertyOp11
 70
     1
102
RTVSPropertyOp12
 70
     1
102
RTVSPropertyOp13
 70
     1
102
RTVSPropertyOp14
 70
     1
102
RTVSPropertyOp15
 70
     1
102
RTVSPropertyOp16
 70
     1
102
RTVSPropertyOp17
 70
     1
102
RTVSPropertyOp18
 70
     1
102
RTVSPropertyOp19
 70
     1
102
RTVSPropertyOp20
 70
     1
102
RTVSPropertyOp21
 70
     1
102
RTVSPropertyOp22
 70
     1
102
RTVSPropertyOp23
 70
     1
102
RTVSPropertyOp24
 70
     1
102
RTVSPropertyOp25
 70
     1
102
RTVSPropertyOp26
 70
     1
102
RTVSPropertyOp27
 70
     1
102
RTVSPropertyOp28
 70
     1
102
RTVSPropertyOp29
 70
     1
102
RTVSPropertyOp30
 70
     1
102
RTVSPropertyOp31
 70
     1
102
RTVSPropertyOp32
 70
     1
102
RTVSPropertyOp33
 70
     1
102
RTVSPropertyOp34
 70
     1
102
RTVSPropertyOp35
 70
     1
102
RTVSPropertyOp36
 70
     1
102
RTVSPropertyOp37
 70
     1
102
RTVSPropertyOp38
 70
     1
102
RTVSPropertyOp39
 70
     1
102
RTVSPropertyOp40
 70
     1
102
RTVSPropertyOp41
 70
     1
102
RTVSPropertyOp42
 70
     1
102
RTVSPropertyOp43
 70
     1
102
RTVSPropertyOp44
 70
     1
102
RTVSPropertyOp45
 70
     1
102
RTVSPropertyOp46
 70
     1
102
RTVSPropertyOp47
 70
     1
102
RTVSPropertyOp48
 70
     1
102
RTVSPropertyOp49
 70
     1
102
RTVSPropertyOp50
 70
     1
102
RTVSPropertyOp51
 70
     0
102
RTVSPropertyOp52
 70
     0
102
RTVSPropertyOp53
 70
     1
102
RTVSPropertyOp54
 70
     1
102
RTVSPropertyOp55
 70
     1
102
RTVSPropertyOp56
 70
     1
102
RTVSPropertyOp57
 70
     1
102
RTVSPropertyOp58
 70
     1
102
RTVSPropertyOp59
 70
     1
102
RTVSPropertyOp60
 70
     1
102
RTVSPropertyOp61
 70
     1
102
RTVSPropertyOp62
 70
     1
  0
XRECORD
  5
40B
102
{ACAD_REACTORS
330
40A
102
}
330
40A
100
AcDbXrecord
280
     1
102
RTVSPost2010Prop28
280
     0
102
RTVSPost2010PropOp28
 70
     1
102
RTVSPost2010Prop29
280
     1
102
RTVSPost2010PropOp29
 70
     1
102
RTVSPost2010Prop30
280
     1
102
RTVSPost2010PropOp30
 70
     1
102
RTVSPost2010Prop31
280
     0
102
RTVSPost2010PropOp31
 70
     1
102
RTVSPost2010Prop32
280
     0
102
RTVSPost2010PropOp32
 70
     1
102
RTVSPost2010Prop33
280
     0
102
RTVSPost2010PropOp33
 70
     1
102
RTVSPost2010Prop34
280
     0
102
RTVSPost2010PropOp34
 70
     1
102
RTVSPost2010Prop35
280
     0
102
RTVSPost2010PropOp35
 70
     1
102
RTVSPost2010Prop36
280
     0
102
RTVSPost2010PropOp36
 70
     1
102
RTVSPost2010Prop37
 90
       50
102
RTVSPost2010PropOp37
 70
     1
102
RTVSPost2010Prop38
140
0.0
102
RTVSPost2010PropOp38
 70
     1
102
RTVSPost2010Prop39
140
1.0
102
RTVSPost2010PropOp39
 70
     1
102
RTVSPost2010Prop40
 90
        0
102
RTVSPost2010PropOp40
 70
     1
102
RTVSPost2010Prop41ColorIndex
 90
       18
102
RTVSPost2010Prop41ColorRGB
 90
        0
102
RTVSPost2010PropOp41
 70
     1
102
RTVSPost2010Prop42
 90
       50
102
RTVSPost2010PropOp42
 70
     1
102
RTVSPost2010Prop43
 90
        3
102
RTVSPost2010PropOp43
 70
     1
102
RTVSPost2010Prop44ColorIndex
 90
        5
102
RTVSPost2010Prop44ColorRGB
 90
      255
102
RTVSPost2010PropOp44
 70
     1
102
RTVSPost2010Prop45
280
     0
102
RTVSPost2010PropOp45
 70
     1
102
RTVSPost2010Prop46
 90
       50
102
RTVSPost2010PropOp46
 70
     1
102
RTVSPost2010Prop47
 90
       50
102
RTVSPost2010PropOp47
 70
     1
102
RTVSPost2010Prop48
 90
       50
102
RTVSPost2010PropOp48
 70
     1
102
RTVSPost2010Prop49
280
     0
102
RTVSPost2010PropOp49
 70
     1
102
RTVSPost2010Prop50
 90
       50
102
RTVSPost2010PropOp50
 70
     1
102
RTVSPost2010Prop51ColorIndex
 90
      256
102
RTVSPost2010Prop51ColorRGB
 90
-16777216
102
RTVSPost2010PropOp51
 70
     0
102
RTVSPost2010Prop52
140
1.0
102
RTVSPost2010PropOp52
 70
     0
102
RTVSPost2010Prop53
 90
        2
102
RTVSPost2010PropOp53
 70
     1
102
RTVSPost2010Prop54
  1
strokes_ogs.tif
102
RTVSPost2010PropOp54
 70
     1
102
RTVSPost2010Prop55
280
     0
102
RTVSPost2010PropOp55
 70
     1
102
RTVSPost2010Prop56
140
1.0
102
RTVSPost2010PropOp56
 70
     1
102
RTVSPost2010Prop57
140
1.0
102
RTVSPost2010PropOp57
 70
     1
102
RTVSPropertyOp0
 70
     1
102
RTVSPropertyOp1
 70
     1
102
RTVSPropertyOp2
 70
     1
102
RTVSPropertyOp3
 70
     1
102
RTVSPropertyOp4
 70
     1
102
RTVSPropertyOp5
 70
     1
102
RTVSPropertyOp6
 70
     1
102
RTVSPropertyOp7
 70
     1
102
RTVSPropertyOp8
 70
     1
102
RTVSPropertyOp9
 70
     1
102
RTVSPropertyOp10
 70
     1
102
RTVSPropertyOp11
 70
     1
102
RTVSPropertyOp12
 70
     1
102
RTVSPropertyOp13
 70
     1
102
RTVSPropertyOp14
 70
     1
102
RTVSPropertyOp15
 70
     1
102
RTVSPropertyOp16
 70
     1
102
RTVSPropertyOp17
 70
     1
102
RTVSPropertyOp18
 70
     1
102
RTVSPropertyOp19
 70
     1
102
RTVSPropertyOp20
 70
     1
102
RTVSPropertyOp21
 70
     1
102
RTVSPropertyOp22
 70
     1
102
RTVSPropertyOp23
 70
     1
102
RTVSPropertyOp24
 70
     1
102
RTVSPropertyOp25
 70
     1
102
RTVSPropertyOp26
 70
     1
102
RTVSPropertyOp27
 70
     1
102
RTVSPropertyOp28
 70
     1
102
RTVSPropertyOp29
 70
     1
102
RTVSPropertyOp30
 70
     1
102
RTVSPropertyOp31
 70
     1
102
RTVSPropertyOp32
 70
     1
102
RTVSPropertyOp33
 70
     1
102
RTVSPropertyOp34
 70
     1
102
RTVSPropertyOp35
 70
     1
102
RTVSPropertyOp36
 70
     1
102
RTVSPropertyOp37
 70
     1
102
RTVSPropertyOp38
 70
     1
102
RTVSPropertyOp39
 70
     1
102
RTVSPropertyOp40
 70
     1
102
RTVSPropertyOp41
 70
     1
102
RTVSPropertyOp42
 70
     1
102
RTVSPropertyOp43
 70
     1
102
RTVSPropertyOp44
 70
     1
102
RTVSPropertyOp45
 70
     1
102
RTVSPropertyOp46
 70
     1
102
RTVSPropertyOp47
 70
     1
102
RTVSPropertyOp48
 70
     1
102
RTVSPropertyOp49
 70
     1
102
RTVSPropertyOp50
 70
     1
102
RTVSPropertyOp51
 70
     0
102
RTVSPropertyOp52
 70
     0
102
RTVSPropertyOp53
 70
     1
102
RTVSPropertyOp54
 70
     1
102
RTVSPropertyOp55
 70
     1
102
RTVSPropertyOp56
 70
     1
102
RTVSPropertyOp57
 70
     1
102
RTVSPropertyOp58
 70
     1
102
RTVSPropertyOp59
 70
     1
102
RTVSPropertyOp60
 70
     1
102
RTVSPropertyOp61
 70
     1
102
RTVSPropertyOp62
 70
     1
  0
XRECORD
  5
401
102
{ACAD_REACTORS
330
400
102
}
330
400
100
AcDbXrecord
280
     1
102
RTVSPost2010Prop28
280
     0
102
RTVSPost2010PropOp28
 70
     1
102
RTVSPost2010Prop29
280
     1
102
RTVSPost2010PropOp29
 70
     1
102
RTVSPost2010Prop30
280
     1
102
RTVSPost2010PropOp30
 70
     1
102
RTVSPost2010Prop31
280
     0
102
RTVSPost2010PropOp31
 70
     1
102
RTVSPost2010Prop32
280
     0
102
RTVSPost2010PropOp32
 70
     1
102
RTVSPost2010Prop33
280
     0
102
RTVSPost2010PropOp33
 70
     1
102
RTVSPost2010Prop34
280
     0
102
RTVSPost2010PropOp34
 70
     1
102
RTVSPost2010Prop35
280
     0
102
RTVSPost2010PropOp35
 70
     1
102
RTVSPost2010Prop36
280
     0
102
RTVSPost2010PropOp36
 70
     1
102
RTVSPost2010Prop37
 90
       50
102
RTVSPost2010PropOp37
 70
     1
102
RTVSPost2010Prop38
140
0.0
102
RTVSPost2010PropOp38
 70
     1
102
RTVSPost2010Prop39
140
1.0
102
RTVSPost2010PropOp39
 70
     1
102
RTVSPost2010Prop40
 90
        0
102
RTVSPost2010PropOp40
 70
     1
102
RTVSPost2010Prop41ColorIndex
 90
       18
102
RTVSPost2010Prop41ColorRGB
 90
        0
102
RTVSPost2010PropOp41
 70
     1
102
RTVSPost2010Prop42
 90
       50
102
RTVSPost2010PropOp42
 70
     1
102
RTVSPost2010Prop43
 90
        3
102
RTVSPost2010PropOp43
 70
     1
102
RTVSPost2010Prop44ColorIndex
 90
        5
102
RTVSPost2010Prop44ColorRGB
 90
      255
102
RTVSPost2010PropOp44
 70
     1
102
RTVSPost2010Prop45
280
     0
102
RTVSPost2010PropOp45
 70
     1
102
RTVSPost2010Prop46
 90
       50
102
RTVSPost2010PropOp46
 70
     1
102
RTVSPost2010Prop47
 90
       50
102
RTVSPost2010PropOp47
 70
     1
102
RTVSPost2010Prop48
 90
       50
102
RTVSPost2010PropOp48
 70
     1
102
RTVSPost2010Prop49
280
     0
102
RTVSPost2010PropOp49
 70
     1
102
RTVSPost2010Prop50
 90
       50
102
RTVSPost2010PropOp50
 70
     1
102
RTVSPost2010Prop51ColorIndex
 90
      256
102
RTVSPost2010Prop51ColorRGB
 90
-16777216
102
RTVSPost2010PropOp51
 70
     0
102
RTVSPost2010Prop52
140
1.0
102
RTVSPost2010PropOp52
 70
     0
102
RTVSPost2010Prop53
 90
        2
102
RTVSPost2010PropOp53
 70
     1
102
RTVSPost2010Prop54
  1
strokes_ogs.tif
102
RTVSPost2010PropOp54
 70
     1
102
RTVSPost2010Prop55
280
     0
102
RTVSPost2010PropOp55
 70
     1
102
RTVSPost2010Prop56
140
1.0
102
RTVSPost2010PropOp56
 70
     1
102
RTVSPost2010Prop57
140
1.0
102
RTVSPost2010PropOp57
 70
     1
102
RTVSPropertyOp0
 70
     1
102
RTVSPropertyOp1
 70
     1
102
RTVSPropertyOp2
 70
     1
102
RTVSPropertyOp3
 70
     1
102
RTVSPropertyOp4
 70
     1
102
RTVSPropertyOp5
 70
     1
102
RTVSPropertyOp6
 70
     1
102
RTVSPropertyOp7
 70
     1
102
RTVSPropertyOp8
 70
     1
102
RTVSPropertyOp9
 70
     1
102
RTVSPropertyOp10
 70
     1
102
RTVSPropertyOp11
 70
     1
102
RTVSPropertyOp12
 70
     1
102
RTVSPropertyOp13
 70
     1
102
RTVSPropertyOp14
 70
     1
102
RTVSPropertyOp15
 70
     1
102
RTVSPropertyOp16
 70
     1
102
RTVSPropertyOp17
 70
     1
102
RTVSPropertyOp18
 70
     1
102
RTVSPropertyOp19
 70
     1
102
RTVSPropertyOp20
 70
     1
102
RTVSPropertyOp21
 70
     1
102
RTVSPropertyOp22
 70
     1
102
RTVSPropertyOp23
 70
     1
102
RTVSPropertyOp24
 70
     1
102
RTVSPropertyOp25
 70
     1
102
RTVSPropertyOp26
 70
     1
102
RTVSPropertyOp27
 70
     1
102
RTVSPropertyOp28
 70
     1
102
RTVSPropertyOp29
 70
     1
102
RTVSPropertyOp30
 70
     1
102
RTVSPropertyOp31
 70
     1
102
RTVSPropertyOp32
 70
     1
102
RTVSPropertyOp33
 70
     1
102
RTVSPropertyOp34
 70
     1
102
RTVSPropertyOp35
 70
     1
102
RTVSPropertyOp36
 70
     1
102
RTVSPropertyOp37
 70
     1
102
RTVSPropertyOp38
 70
     1
102
RTVSPropertyOp39
 70
     1
102
RTVSPropertyOp40
 70
     1
102
RTVSPropertyOp41
 70
     1
102
RTVSPropertyOp42
 70
     1
102
RTVSPropertyOp43
 70
     1
102
RTVSPropertyOp44
 70
     1
102
RTVSPropertyOp45
 70
     1
102
RTVSPropertyOp46
 70
     1
102
RTVSPropertyOp47
 70
     1
102
RTVSPropertyOp48
 70
     1
102
RTVSPropertyOp49
 70
     1
102
RTVSPropertyOp50
 70
     1
102
RTVSPropertyOp51
 70
     0
102
RTVSPropertyOp52
 70
     0
102
RTVSPropertyOp53
 70
     1
102
RTVSPropertyOp54
 70
     1
102
RTVSPropertyOp55
 70
     1
102
RTVSPropertyOp56
 70
     1
102
RTVSPropertyOp57
 70
     1
102
RTVSPropertyOp58
 70
     1
102
RTVSPropertyOp59
 70
     1
102
RTVSPropertyOp60
 70
     1
102
RTVSPropertyOp61
 70
     1
102
RTVSPropertyOp62
 70
     1
  0
XRECORD
  5
3F5
102
{ACAD_REACTORS
330
3F4
102
}
330
3F4
100
AcDbXrecord
280
     1
102
RTVSPost2010Prop28
280
     0
102
RTVSPost2010PropOp28
 70
     1
102
RTVSPost2010Prop29
280
     1
102
RTVSPost2010PropOp29
 70
     1
102
RTVSPost2010Prop30
280
     1
102
RTVSPost2010PropOp30
 70
     1
102
RTVSPost2010Prop31
280
     0
102
RTVSPost2010PropOp31
 70
     1
102
RTVSPost2010Prop32
280
     0
102
RTVSPost2010PropOp32
 70
     1
102
RTVSPost2010Prop33
280
     0
102
RTVSPost2010PropOp33
 70
     1
102
RTVSPost2010Prop34
280
     0
102
RTVSPost2010PropOp34
 70
     1
102
RTVSPost2010Prop35
280
     0
102
RTVSPost2010PropOp35
 70
     1
102
RTVSPost2010Prop36
280
     0
102
RTVSPost2010PropOp36
 70
     1
102
RTVSPost2010Prop37
 90
       50
102
RTVSPost2010PropOp37
 70
     1
102
RTVSPost2010Prop38
140
0.0
102
RTVSPost2010PropOp38
 70
     1
102
RTVSPost2010Prop39
140
1.0
102
RTVSPost2010PropOp39
 70
     1
102
RTVSPost2010Prop40
 90
        0
102
RTVSPost2010PropOp40
 70
     1
102
RTVSPost2010Prop41ColorIndex
 90
       18
102
RTVSPost2010Prop41ColorRGB
 90
        0
102
RTVSPost2010PropOp41
 70
     1
102
RTVSPost2010Prop42
 90
       50
102
RTVSPost2010PropOp42
 70
     1
102
RTVSPost2010Prop43
 90
        3
102
RTVSPost2010PropOp43
 70
     1
102
RTVSPost2010Prop44ColorIndex
 90
        5
102
RTVSPost2010Prop44ColorRGB
 90
      255
102
RTVSPost2010PropOp44
 70
     1
102
RTVSPost2010Prop45
280
     0
102
RTVSPost2010PropOp45
 70
     1
102
RTVSPost2010Prop46
 90
       50
102
RTVSPost2010PropOp46
 70
     1
102
RTVSPost2010Prop47
 90
       50
102
RTVSPost2010PropOp47
 70
     1
102
RTVSPost2010Prop48
 90
       50
102
RTVSPost2010PropOp48
 70
     1
102
RTVSPost2010Prop49
280
     0
102
RTVSPost2010PropOp49
 70
     1
102
RTVSPost2010Prop50
 90
       50
102
RTVSPost2010PropOp50
 70
     1
102
RTVSPost2010Prop51ColorIndex
 90
      256
102
RTVSPost2010Prop51ColorRGB
 90
-16777216
102
RTVSPost2010PropOp51
 70
     0
102
RTVSPost2010Prop52
140
1.0
102
RTVSPost2010PropOp52
 70
     0
102
RTVSPost2010Prop53
 90
        2
102
RTVSPost2010PropOp53
 70
     1
102
RTVSPost2010Prop54
  1
strokes_ogs.tif
102
RTVSPost2010PropOp54
 70
     1
102
RTVSPost2010Prop55
280
     0
102
RTVSPost2010PropOp55
 70
     1
102
RTVSPost2010Prop56
140
1.0
102
RTVSPost2010PropOp56
 70
     1
102
RTVSPost2010Prop57
140
1.0
102
RTVSPost2010PropOp57
 70
     1
102
RTVSPropertyOp0
 70
     1
102
RTVSPropertyOp1
 70
     1
102
RTVSPropertyOp2
 70
     1
102
RTVSPropertyOp3
 70
     1
102
RTVSPropertyOp4
 70
     1
102
RTVSPropertyOp5
 70
     1
102
RTVSPropertyOp6
 70
     1
102
RTVSPropertyOp7
 70
     1
102
RTVSPropertyOp8
 70
     1
102
RTVSPropertyOp9
 70
     1
102
RTVSPropertyOp10
 70
     1
102
RTVSPropertyOp11
 70
     1
102
RTVSPropertyOp12
 70
     1
102
RTVSPropertyOp13
 70
     1
102
RTVSPropertyOp14
 70
     1
102
RTVSPropertyOp15
 70
     1
102
RTVSPropertyOp16
 70
     1
102
RTVSPropertyOp17
 70
     1
102
RTVSPropertyOp18
 70
     1
102
RTVSPropertyOp19
 70
     1
102
RTVSPropertyOp20
 70
     1
102
RTVSPropertyOp21
 70
     1
102
RTVSPropertyOp22
 70
     1
102
RTVSPropertyOp23
 70
     1
102
RTVSPropertyOp24
 70
     1
102
RTVSPropertyOp25
 70
     1
102
RTVSPropertyOp26
 70
     1
102
RTVSPropertyOp27
 70
     1
102
RTVSPropertyOp28
 70
     1
102
RTVSPropertyOp29
 70
     1
102
RTVSPropertyOp30
 70
     1
102
RTVSPropertyOp31
 70
     1
102
RTVSPropertyOp32
 70
     1
102
RTVSPropertyOp33
 70
     1
102
RTVSPropertyOp34
 70
     1
102
RTVSPropertyOp35
 70
     1
102
RTVSPropertyOp36
 70
     1
102
RTVSPropertyOp37
 70
     1
102
RTVSPropertyOp38
 70
     1
102
RTVSPropertyOp39
 70
     1
102
RTVSPropertyOp40
 70
     1
102
RTVSPropertyOp41
 70
     1
102
RTVSPropertyOp42
 70
     1
102
RTVSPropertyOp43
 70
     1
102
RTVSPropertyOp44
 70
     1
102
RTVSPropertyOp45
 70
     1
102
RTVSPropertyOp46
 70
     1
102
RTVSPropertyOp47
 70
     1
102
RTVSPropertyOp48
 70
     1
102
RTVSPropertyOp49
 70
     1
102
RTVSPropertyOp50
 70
     1
102
RTVSPropertyOp51
 70
     0
102
RTVSPropertyOp52
 70
     0
102
RTVSPropertyOp53
 70
     1
102
RTVSPropertyOp54
 70
     1
102
RTVSPropertyOp55
 70
     1
102
RTVSPropertyOp56
 70
     1
102
RTVSPropertyOp57
 70
     1
102
RTVSPropertyOp58
 70
     1
102
RTVSPropertyOp59
 70
     1
102
RTVSPropertyOp60
 70
     1
102
RTVSPropertyOp61
 70
     1
102
RTVSPropertyOp62
 70
     1
  0
XRECORD
  5
40D
102
{ACAD_REACTORS
330
40C
102
}
330
40C
100
AcDbXrecord
280
     1
102
RTVSPost2010Prop28
280
     0
102
RTVSPost2010PropOp28
 70
     1
102
RTVSPost2010Prop29
280
     1
102
RTVSPost2010PropOp29
 70
     1
102
RTVSPost2010Prop30
280
     1
102
RTVSPost2010PropOp30
 70
     1
102
RTVSPost2010Prop31
280
     0
102
RTVSPost2010PropOp31
 70
     1
102
RTVSPost2010Prop32
280
     0
102
RTVSPost2010PropOp32
 70
     1
102
RTVSPost2010Prop33
280
     0
102
RTVSPost2010PropOp33
 70
     1
102
RTVSPost2010Prop34
280
     0
102
RTVSPost2010PropOp34
 70
     1
102
RTVSPost2010Prop35
280
     0
102
RTVSPost2010PropOp35
 70
     1
102
RTVSPost2010Prop36
280
     0
102
RTVSPost2010PropOp36
 70
     1
102
RTVSPost2010Prop37
 90
       50
102
RTVSPost2010PropOp37
 70
     1
102
RTVSPost2010Prop38
140
0.0
102
RTVSPost2010PropOp38
 70
     1
102
RTVSPost2010Prop39
140
1.0
102
RTVSPost2010PropOp39
 70
     1
102
RTVSPost2010Prop40
 90
        0
102
RTVSPost2010PropOp40
 70
     1
102
RTVSPost2010Prop41ColorIndex
 90
       18
102
RTVSPost2010Prop41ColorRGB
 90
        0
102
RTVSPost2010PropOp41
 70
     1
102
RTVSPost2010Prop42
 90
       50
102
RTVSPost2010PropOp42
 70
     1
102
RTVSPost2010Prop43
 90
        3
102
RTVSPost2010PropOp43
 70
     1
102
RTVSPost2010Prop44ColorIndex
 90
        5
102
RTVSPost2010Prop44ColorRGB
 90
      255
102
RTVSPost2010PropOp44
 70
     1
102
RTVSPost2010Prop45
280
     0
102
RTVSPost2010PropOp45
 70
     1
102
RTVSPost2010Prop46
 90
       50
102
RTVSPost2010PropOp46
 70
     1
102
RTVSPost2010Prop47
 90
       50
102
RTVSPost2010PropOp47
 70
     1
102
RTVSPost2010Prop48
 90
       50
102
RTVSPost2010PropOp48
 70
     1
102
RTVSPost2010Prop49
280
     0
102
RTVSPost2010PropOp49
 70
     1
102
RTVSPost2010Prop50
 90
       50
102
RTVSPost2010PropOp50
 70
     1
102
RTVSPost2010Prop51ColorIndex
 90
      256
102
RTVSPost2010Prop51ColorRGB
 90
-16777216
102
RTVSPost2010PropOp51
 70
     0
102
RTVSPost2010Prop52
140
1.0
102
RTVSPost2010PropOp52
 70
     0
102
RTVSPost2010Prop53
 90
        2
102
RTVSPost2010PropOp53
 70
     1
102
RTVSPost2010Prop54
  1
strokes_ogs.tif
102
RTVSPost2010PropOp54
 70
     1
102
RTVSPost2010Prop55
280
     0
102
RTVSPost2010PropOp55
 70
     1
102
RTVSPost2010Prop56
140
1.0
102
RTVSPost2010PropOp56
 70
     1
102
RTVSPost2010Prop57
140
1.0
102
RTVSPost2010PropOp57
 70
     1
102
RTVSPropertyOp0
 70
     1
102
RTVSPropertyOp1
 70
     1
102
RTVSPropertyOp2
 70
     1
102
RTVSPropertyOp3
 70
     1
102
RTVSPropertyOp4
 70
     1
102
RTVSPropertyOp5
 70
     1
102
RTVSPropertyOp6
 70
     1
102
RTVSPropertyOp7
 70
     1
102
RTVSPropertyOp8
 70
     1
102
RTVSPropertyOp9
 70
     1
102
RTVSPropertyOp10
 70
     1
102
RTVSPropertyOp11
 70
     1
102
RTVSPropertyOp12
 70
     1
102
RTVSPropertyOp13
 70
     1
102
RTVSPropertyOp14
 70
     1
102
RTVSPropertyOp15
 70
     1
102
RTVSPropertyOp16
 70
     1
102
RTVSPropertyOp17
 70
     1
102
RTVSPropertyOp18
 70
     1
102
RTVSPropertyOp19
 70
     1
102
RTVSPropertyOp20
 70
     1
102
RTVSPropertyOp21
 70
     1
102
RTVSPropertyOp22
 70
     1
102
RTVSPropertyOp23
 70
     1
102
RTVSPropertyOp24
 70
     1
102
RTVSPropertyOp25
 70
     1
102
RTVSPropertyOp26
 70
     1
102
RTVSPropertyOp27
 70
     1
102
RTVSPropertyOp28
 70
     1
102
RTVSPropertyOp29
 70
     1
102
RTVSPropertyOp30
 70
     1
102
RTVSPropertyOp31
 70
     1
102
RTVSPropertyOp32
 70
     1
102
RTVSPropertyOp33
 70
     1
102
RTVSPropertyOp34
 70
     1
102
RTVSPropertyOp35
 70
     1
102
RTVSPropertyOp36
 70
     1
102
RTVSPropertyOp37
 70
     1
102
RTVSPropertyOp38
 70
     1
102
RTVSPropertyOp39
 70
     1
102
RTVSPropertyOp40
 70
     1
102
RTVSPropertyOp41
 70
     1
102
RTVSPropertyOp42
 70
     1
102
RTVSPropertyOp43
 70
     1
102
RTVSPropertyOp44
 70
     1
102
RTVSPropertyOp45
 70
     1
102
RTVSPropertyOp46
 70
     1
102
RTVSPropertyOp47
 70
     1
102
RTVSPropertyOp48
 70
     1
102
RTVSPropertyOp49
 70
     1
102
RTVSPropertyOp50
 70
     1
102
RTVSPropertyOp51
 70
     0
102
RTVSPropertyOp52
 70
     0
102
RTVSPropertyOp53
 70
     1
102
RTVSPropertyOp54
 70
     1
102
RTVSPropertyOp55
 70
     1
102
RTVSPropertyOp56
 70
     1
102
RTVSPropertyOp57
 70
     1
102
RTVSPropertyOp58
 70
     1
102
RTVSPropertyOp59
 70
     1
102
RTVSPropertyOp60
 70
     1
102
RTVSPropertyOp61
 70
     1
102
RTVSPropertyOp62
 70
     1
  0
ENDSEC
  0
EOF
