  0
SECTION
  2
HEADER
  9
$ACADVER
  1
AC1018
  9
$ACADMAINTVER
 70
   104
  9
$DWGCODEPAGE
  3
ANSI_932
  9
$LASTSAVEDBY
  1
0803015
  9
$INSBASE
 10
0.0
 20
0.0
 30
0.0
  9
$EXTMIN
 10
-0.03458863
 20
-0.01146251
 30
-0.00000003
  9
$EXTMAX
 10
566.76060691
 20
403.02461087
 30
0.00000008
  9
$LIMMIN
 10
0.0
 20
0.0
  9
$LIMMAX
 10
420.0
 20
297.0
  9
$ORTHOMODE
 70
     1
  9
$REGENMODE
 70
     1
  9
$FILLMODE
 70
     1
  9
$QTEXTMODE
 70
     0
  9
$MIRRTEXT
 70
     0
  9
$LTSCALE
 40
1.0
  9
$ATTMODE
 70
     1
  9
$TEXTSIZE
 40
3.0
  9
$TRACEWID
 40
1.0
  9
$TEXTSTYLE
  7
STANDARD
  9
$CLAYER
  8
0
  9
$CELTYPE
  6
BYLAYER
  9
$CECOLOR
 62
   256
  9
$CELTSCALE
 40
1.0
  9
$DISPSILH
 70
     1
  9
$DIMSCALE
 40
1.0
  9
$DIMASZ
 40
1.5
  9
$DIMEXO
 40
2.0
  9
$DIMDLI
 40
10.0
  9
$DIMRND
 40
0.0
  9
$DIMDLE
 40
0.0
  9
$DIMEXE
 40
2.0
  9
$DIMTP
 40
0.0
  9
$DIMTM
 40
0.0
  9
$DIMTXT
 40
3.0
  9
$DIMCEN
 40
0.0
  9
$DIMTSZ
 40
0.0
  9
$DIMTOL
 70
     0
  9
$DIMLIM
 70
     0
  9
$DIMTIH
 70
     0
  9
$DIMTOH
 70
     0
  9
$DIMSE1
 70
     0
  9
$DIMSE2
 70
     0
  9
$DIMTAD
 70
     0
  9
$DIMZIN
 70
    12
  9
$DIMBLK
  1

  9
$DIMASO
 70
     1
  9
$DIMSHO
 70
     1
  9
$DIMPOST
  1

  9
$DIMAPOST
  1

  9
$DIMALT
 70
     0
  9
$DIMALTD
 70
     2
  9
$DIMALTF
 40
0.0394
  9
$DIMLFAC
 40
1.0
  9
$DIMTOFL
 70
     1
  9
$DIMTVP
 40
1.0
  9
$DIMTIX
 70
     0
  9
$DIMSOXD
 70
     0
  9
$DIMSAH
 70
     1
  9
$DIMBLK1
  1
DOT1
  9
$DIMBLK2
  1
DOT1
  9
$DIMSTYLE
  2
YKK_OSADOT
  9
$DIMCLRD
 70
     0
  9
$DIMCLRE
 70
     0
  9
$DIMCLRT
 70
     0
  9
$DIMTFAC
 40
1.0
  9
$DIMGAP
 40
0.01
  9
$DIMJUST
 70
     0
  9
$DIMSD1
 70
     0
  9
$DIMSD2
 70
     0
  9
$DIMTOLJ
 70
     1
  9
$DIMTZIN
 70
    12
  9
$DIMALTZ
 70
    12
  9
$DIMALTTZ
 70
    12
  9
$DIMUPT
 70
     0
  9
$DIMDEC
 70
     4
  9
$DIMTDEC
 70
     4
  9
$DIMALTU
 70
     2
  9
$DIMALTTD
 70
     2
  9
$DIMTXSTY
  7
STANDARD
  9
$DIMAUNIT
 70
     0
  9
$DIMADEC
 70
     0
  9
$DIMALTRND
 40
0.0
  9
$DIMAZIN
 70
     0
  9
$DIMDSEP
 70
    46
  9
$DIMATFIT
 70
     3
  9
$DIMFRAC
 70
     0
  9
$DIMLDRBLK
  1

  9
$DIMLUNIT
 70
     2
  9
$DIMLWD
 70
    -2
  9
$DIMLWE
 70
    -2
  9
$DIMTMOVE
 70
     2
  9
$LUNITS
 70
     2
  9
$LUPREC
 70
     4
  9
$SKETCHINC
 40
1.0
  9
$FILLETRAD
 40
0.0
  9
$AUNITS
 70
     0
  9
$AUPREC
 70
     0
  9
$MENU
  1
.
  9
$ELEVATION
 40
0.0
  9
$PELEVATION
 40
0.0
  9
$THICKNESS
 40
0.0
  9
$LIMCHECK
 70
     0
  9
$CHAMFERA
 40
0.0
  9
$CHAMFERB
 40
0.0
  9
$CHAMFERC
 40
0.0
  9
$CHAMFERD
 40
0.0
  9
$SKPOLY
 70
     0
  9
$TDCREATE
 40
2452591.511585648
  9
$TDUCREATE
 40
2452591.136585648
  9
$TDUPDATE
 40
2459538.789479167
  9
$TDUUPDATE
 40
2459538.414479167
  9
$TDINDWG
 40
0.0031175810
  9
$TDUSRTIMER
 40
0.0031175810
  9
$USRTIMER
 70
     1
  9
$ANGBASE
 50
0.0
  9
$ANGDIR
 70
     0
  9
$PDMODE
 70
     0
  9
$PDSIZE
 40
0.0
  9
$PLINEWID
 40
0.0
  9
$SPLFRAME
 70
     0
  9
$SPLINETYPE
 70
     6
  9
$SPLINESEGS
 70
     8
  9
$HANDSEED
  5
748
  9
$SURFTAB1
 70
     6
  9
$SURFTAB2
 70
     6
  9
$SURFTYPE
 70
     6
  9
$SURFU
 70
     6
  9
$SURFV
 70
     6
  9
$UCSBASE
  2

  9
$UCSNAME
  2

  9
$UCSORG
 10
0.0
 20
0.0
 30
0.0
  9
$UCSXDIR
 10
1.0
 20
0.0
 30
0.0
  9
$UCSYDIR
 10
0.0
 20
1.0
 30
0.0
  9
$UCSORTHOREF
  2

  9
$UCSORTHOVIEW
 70
     0
  9
$UCSORGTOP
 10
0.0
 20
0.0
 30
0.0
  9
$UCSORGBOTTOM
 10
0.0
 20
0.0
 30
0.0
  9
$UCSORGLEFT
 10
0.0
 20
0.0
 30
0.0
  9
$UCSORGRIGHT
 10
0.0
 20
0.0
 30
0.0
  9
$UCSORGFRONT
 10
0.0
 20
0.0
 30
0.0
  9
$UCSORGBACK
 10
0.0
 20
0.0
 30
0.0
  9
$PUCSBASE
  2

  9
$PUCSNAME
  2

  9
$PUCSORG
 10
0.0
 20
0.0
 30
0.0
  9
$PUCSXDIR
 10
1.0
 20
0.0
 30
0.0
  9
$PUCSYDIR
 10
0.0
 20
1.0
 30
0.0
  9
$PUCSORTHOREF
  2

  9
$PUCSORTHOVIEW
 70
     0
  9
$PUCSORGTOP
 10
0.0
 20
0.0
 30
0.0
  9
$PUCSORGBOTTOM
 10
0.0
 20
0.0
 30
0.0
  9
$PUCSORGLEFT
 10
0.0
 20
0.0
 30
0.0
  9
$PUCSORGRIGHT
 10
0.0
 20
0.0
 30
0.0
  9
$PUCSORGFRONT
 10
0.0
 20
0.0
 30
0.0
  9
$PUCSORGBACK
 10
0.0
 20
0.0
 30
0.0
  9
$USERI1
 70
     0
  9
$USERI2
 70
     0
  9
$USERI3
 70
     0
  9
$USERI4
 70
     0
  9
$USERI5
 70
     0
  9
$USERR1
 40
0.0
  9
$USERR2
 40
0.0
  9
$USERR3
 40
0.0
  9
$USERR4
 40
0.0
  9
$USERR5
 40
0.0
  9
$WORLDVIEW
 70
     1
  9
$SHADEDGE
 70
     3
  9
$SHADEDIF
 70
    70
  9
$TILEMODE
 70
     1
  9
$MAXACTVP
 70
    48
  9
$PINSBASE
 10
0.0
 20
0.0
 30
0.0
  9
$PLIMCHECK
 70
     0
  9
$PEXTMIN
 10
1.00000000E+20
 20
1.00000000E+20
 30
1.00000000E+20
  9
$PEXTMAX
 10
-1.00000000E+20
 20
-1.00000000E+20
 30
-1.00000000E+20
  9
$PLIMMIN
 10
0.0
 20
0.0
  9
$PLIMMAX
 10
420.0
 20
297.0
  9
$UNITMODE
 70
     0
  9
$VISRETAIN
 70
     1
  9
$PLINEGEN
 70
     0
  9
$PSLTSCALE
 70
     1
  9
$TREEDEPTH
 70
  3020
  9
$CMLSTYLE
  2
STANDARD
  9
$CMLJUST
 70
     0
  9
$CMLSCALE
 40
1.0
  9
$PROXYGRAPHICS
 70
     1
  9
$MEASUREMENT
 70
     1
  9
$CELWEIGHT
370
    -1
  9
$ENDCAPS
280
     0
  9
$JOINSTYLE
280
     0
  9
$LWDISPLAY
290
     0
  9
$INSUNITS
 70
     0
  9
$HYPERLINKBASE
  1

  9
$STYLESHEET
  1

  9
$XEDIT
290
     1
  9
$CEPSNTYPE
380
     0
  9
$PSTYLEMODE
290
     1
  9
$FINGERPRINTGUID
  2
{A53100CB-EA5A-45F7-9BC9-CCF82D5D120D}
  9
$VERSIONGUID
  2
{DBC2DEC4-7C0F-B546-8B93-0904911FBBC0}
  9
$EXTNAMES
290
     1
  9
$PSVPSCALE
 40
0.0
  9
$OLESTARTUP
290
     0
  9
$SORTENTS
280
   127
  9
$INDEXCTL
280
     0
  9
$HIDETEXT
280
     0
  9
$XCLIPFRAME
290
     0
  9
$HALOGAP
280
     0
  9
$OBSCOLOR
 70
   257
  9
$OBSLTYPE
280
     0
  9
$INTERSECTIONDISPLAY
280
     0
  9
$INTERSECTIONCOLOR
 70
   257
  9
$DIMASSOC
280
     1
  9
$PROJECTNAME
  1

  0
ENDSEC
  0
SECTION
  2
CLASSES
  0
CLASS
  1
DICTIONARYVAR
  2
AcDbDictionaryVar
  3
ObjectDBX Classes
 90
        0
 91
       10
280
     0
281
     0
  0
CLASS
  1
ACDBDICTIONARYWDFLT
  2
AcDbDictionaryWithDefault
  3
ObjectDBX Classes
 90
        0
 91
        1
280
     0
281
     0
  0
CLASS
  1
MATERIAL
  2
AcDbMaterial
  3
ObjectDBX Classes
 90
     1153
 91
        3
280
     0
281
     0
  0
CLASS
  1
VISUALSTYLE
  2
AcDbVisualStyle
  3
ObjectDBX Classes
 90
     4095
 91
       26
280
     0
281
     0
  0
CLASS
  1
TABLESTYLE
  2
AcDbTableStyle
  3
ObjectDBX Classes
 90
     4095
 91
        1
280
     0
281
     0
  0
CLASS
  1
SCALE
  2
AcDbScale
  3
ObjectDBX Classes
 90
     1153
 91
       33
280
     0
281
     0
  0
CLASS
  1
MLEADERSTYLE
  2
AcDbMLeaderStyle
  3
ACDB_MLEADERSTYLE_CLASS
 90
     4095
 91
        1
280
     0
281
     0
  0
CLASS
  1
CELLSTYLEMAP
  2
AcDbCellStyleMap
  3
ObjectDBX Classes
 90
     1152
 91
        2
280
     0
281
     0
  0
CLASS
  1
ACDBSECTIONVIEWSTYLE
  2
AcDbSectionViewStyle
  3
ObjectDBX Classes
 90
     1025
 91
        1
280
     0
281
     0
  0
CLASS
  1
ACDBDETAILVIEWSTYLE
  2
AcDbDetailViewStyle
  3
ObjectDBX Classes
 90
     1025
 91
        1
280
     0
281
     0
  0
CLASS
  1
RAPIDRTRENDERSETTINGS
  2
AcDbRapidRTRenderSettings
  3
ObjectDBX Classes
 90
     1024
 91
        1
280
     0
281
     0
  0
CLASS
  1
MENTALRAYRENDERSETTINGS
  2
AcDbMentalRayRenderSettings
  3
SCENEOE
 90
     1024
 91
        1
280
     0
281
     0
  0
CLASS
  1
SORTENTSTABLE
  2
AcDbSortentsTable
  3
ObjectDBX Classes
 90
        0
 91
        0
280
     0
281
     0
  0
ENDSEC
  0
SECTION
  2
TABLES
  0
TABLE
  2
VPORT
  5
12
102
{ACAD_XDICTIONARY
360
176
102
}
330
0
100
AcDbSymbolTable
 70
     1
  0
VPORT
  5
EC
330
12
100
AcDbSymbolTableRecord
100
AcDbViewportTableRecord
  2
*ACTIVE
 70
     0
 10
0.0
 20
0.0
 11
1.0
 21
1.0
 12
283.36300914
 22
201.50657418
 13
0.0
 23
0.0
 14
10.0
 24
10.0
 15
10.0
 25
10.0
 16
0.0
 26
0.0
 36
1.0
 17
0.0
 27
0.0
 37
0.0
 40
407.2563464
 41
2.26048951
 42
50.0
 43
0.0
 44
0.0
 50
0.0
 51
0.0
 71
     0
 72
  1000
 73
     1
 74
     1
 75
     0
 76
     0
 77
     0
 78
     0
281
     0
 65
     1
110
0.0
120
0.0
130
0.0
111
1.0
121
0.0
131
0.0
112
0.0
122
1.0
132
0.0
 79
     0
146
0.0
1001
ACAD_NAV_VCDISPLAY
1070
     1
  0
ENDTAB
  0
TABLE
  2
LTYPE
  5
D
330
0
100
AcDbSymbolTable
 70
     3
  0
LTYPE
  5
E
330
D
100
AcDbSymbolTableRecord
100
AcDbLinetypeTableRecord
  2
BYBLOCK
 70
     0
  3

 72
    65
 73
     0
 40
0.0
  0
LTYPE
  5
F
330
D
100
AcDbSymbolTableRecord
100
AcDbLinetypeTableRecord
  2
BYLAYER
 70
     0
  3

 72
    65
 73
     0
 40
0.0
  0
LTYPE
  5
5
330
D
100
AcDbSymbolTableRecord
100
AcDbLinetypeTableRecord
  2
CONTINUOUS
 70
     0
  3
Solid line
 72
    65
 73
     0
 40
0.0
  0
LTYPE
  5
2D
330
D
100
AcDbSymbolTableRecord
100
AcDbLinetypeTableRecord
  2
HIDDEN
 70
     0
  3
__ __ __ __ __ __ __ __ __ __ __ __ __ __ __ __
 72
    65
 73
     2
 40
0.375
 49
0.25
 74
     0
 49
-0.125
 74
     0
  0
LTYPE
  5
232
330
D
100
AcDbSymbolTableRecord
100
AcDbLinetypeTableRecord
  2
YCENTER_1
 70
     0
  3
中心線尺度1--- － --- － ---
 72
    65
 73
     4
 40
13.0
 49
10.0
 74
     0
 49
-1.0
 74
     0
 49
1.0
 74
     0
 49
-1.0
 74
     0
  0
ENDTAB
  0
TABLE
  2
LAYER
  5
A
102
{ACAD_XDICTIONARY
360
242
102
}
330
0
100
AcDbSymbolTable
 70
     7
  0
LAYER
  5
4
102
{ACAD_XDICTIONARY
360
1DB
102
}
330
A
100
AcDbSymbolTableRecord
100
AcDbLayerTableRecord
  2
0
 70
     0
 62
     7
  6
CONTINUOUS
370
    -3
390
EF
  0
LAYER
  5
24
102
{ACAD_XDICTIONARY
360
1DD
102
}
330
A
100
AcDbSymbolTableRecord
100
AcDbLayerTableRecord
  2
YKK_ZWAK
 70
     0
 62
     7
  6
CONTINUOUS
370
    -3
390
EF
  0
LAYER
  5
E0
102
{ACAD_XDICTIONARY
360
1DF
102
}
330
A
100
AcDbSymbolTableRecord
100
AcDbLayerTableRecord
  2
USER1
 70
     0
 62
     3
  6
CONTINUOUS
370
    -3
390
EF
  0
LAYER
  5
233
330
A
100
AcDbSymbolTableRecord
100
AcDbLayerTableRecord
  2
YKK_11
 70
     0
 62
     7
  6
CONTINUOUS
370
    30
390
EF
1001
AcAecLayerStandard
1000

1000
形材
  0
LAYER
  5
234
330
A
100
AcDbSymbolTableRecord
100
AcDbLayerTableRecord
  2
YKK_12
 70
     0
 62
     2
  6
CONTINUOUS
370
    13
390
EF
1001
AcAecLayerStandard
1000

1000
見えがかり線
  0
LAYER
  5
235
330
A
100
AcDbSymbolTableRecord
100
AcDbLayerTableRecord
  2
YKK_13
 70
     0
 62
     4
  6
CONTINUOUS
370
    30
390
EF
1001
AcAecLayerStandard
1000

1000
部品
  0
LAYER
  5
236
330
A
100
AcDbSymbolTableRecord
100
AcDbLayerTableRecord
  2
YKK_D
 70
     0
 62
     6
  6
CONTINUOUS
370
    13
390
EF
1001
AcAecLayerStandard
1000

1000
寸法線・寸法数字
  0
ENDTAB
  0
TABLE
  2
STYLE
  5
B
330
0
100
AcDbSymbolTable
 70
     3
  0
STYLE
  5
C
330
B
100
AcDbSymbolTableRecord
100
AcDbTextStyleTableRecord
  2
STANDARD
 70
     0
 40
0.0
 41
1.0
 50
0.0
 71
     0
 42
3.0
  3
ROMANS.SHX
  4
EXTFONT.SHX
  0
STYLE
  5
33
330
B
100
AcDbSymbolTableRecord
100
AcDbTextStyleTableRecord
  2
YKK_OSSTYLE1
 70
     0
 40
0.0
 41
0.9
 50
0.0
 71
     0
 42
4.0
  3
romans.shx
  4
EXTFONT.SHX
  0
STYLE
  5
237
330
B
100
AcDbSymbolTableRecord
100
AcDbTextStyleTableRecord
  2
text-b
 70
     0
 40
0.0
 41
1.0
 50
0.0
 71
     0
 42
9.0
  3

  4

1001
ACAD
1000
MS PGothic
1071
    32818
  0
ENDTAB
  0
TABLE
  2
VIEW
  5
10
330
0
100
AcDbSymbolTable
 70
     0
  0
ENDTAB
  0
TABLE
  2
UCS
  5
11
330
0
100
AcDbSymbolTable
 70
     0
  0
ENDTAB
  0
TABLE
  2
APPID
  5
14
330
0
100
AcDbSymbolTable
 70
    10
  0
APPID
  5
15
330
14
100
AcDbSymbolTableRecord
100
AcDbRegAppTableRecord
  2
ACAD
 70
     0
  0
APPID
  5
14B
330
14
100
AcDbSymbolTableRecord
100
AcDbRegAppTableRecord
  2
YKK_AP_LOCKLAYER
 70
     0
  0
APPID
  5
1B0
330
14
100
AcDbSymbolTableRecord
100
AcDbRegAppTableRecord
  2
ACAD_MLEADERVER
 70
     0
  0
APPID
  5
1D1
330
14
100
AcDbSymbolTableRecord
100
AcDbRegAppTableRecord
  2
ACAD_PSEXT
 70
     0
  0
APPID
  5
1D2
330
14
100
AcDbSymbolTableRecord
100
AcDbRegAppTableRecord
  2
ACAD_NAV_VCDISPLAY
 70
     0
  0
APPID
  5
23E
330
14
100
AcDbSymbolTableRecord
100
AcDbRegAppTableRecord
  2
AcAecLayerStandard
 70
     0
  0
APPID
  5
23F
330
14
100
AcDbSymbolTableRecord
100
AcDbRegAppTableRecord
  2
ACAD_DSTYLE_DIMJOGGED_JOGANGLE_SYMBOL
 70
     0
  0
APPID
  5
240
330
14
100
AcDbSymbolTableRecord
100
AcDbRegAppTableRecord
  2
ACAD_DSTYLE_DIMJAG
 70
     0
  0
APPID
  5
241
330
14
100
AcDbSymbolTableRecord
100
AcDbRegAppTableRecord
  2
ACAD_DSTYLE_DIMTALN
 70
     0
  0
APPID
  5
6A3
330
14
100
AcDbSymbolTableRecord
100
AcDbRegAppTableRecord
  2
ACAD_EXEMPT_FROM_CAD_STANDARDS
 70
     0
  0
ENDTAB
  0
TABLE
  2
DIMSTYLE
  5
16
330
0
100
AcDbSymbolTable
 70
     1
100
AcDbDimStyleTable
 71
     1
340
1C
  0
DIMSTYLE
105
1C
330
16
100
AcDbSymbolTableRecord
100
AcDbDimStyleTableRecord
  2
YKK_OSADOT
 70
     0
 41
1.5
 42
2.0
 43
10.0
 44
2.0
 73
     0
 74
     0
 78
    12
140
3.0
141
0.0
143
0.0394
145
1.0
147
0.01
172
     1
173
     1
279
     2
284
    12
285
    12
286
    12
340
C
341
1D
343
1D
344
1D
  0
ENDTAB
  0
TABLE
  2
BLOCK_RECORD
  5
1
330
0
100
AcDbSymbolTable
 70
     2
  0
BLOCK_RECORD
  5
2
102
{ACAD_XDICTIONARY
360
172
102
}
330
1
100
AcDbSymbolTableRecord
100
AcDbBlockTableRecord
  2
*MODEL_SPACE
340
146
  0
BLOCK_RECORD
  5
7
102
{ACAD_XDICTIONARY
360
174
102
}
330
1
100
AcDbSymbolTableRecord
100
AcDbBlockTableRecord
  2
*PAPER_SPACE
340
147
  0
BLOCK_RECORD
  5
1D
330
1
100
AcDbSymbolTableRecord
100
AcDbBlockTableRecord
  2
DOT1
340
0
  0
BLOCK_RECORD
  5
25
330
1
100
AcDbSymbolTableRecord
100
AcDbBlockTableRecord
  2
A201
340
0
102
{BLKREFS
331
23
102
}
  0
ENDTAB
  0
ENDSEC
  0
SECTION
  2
BLOCKS
  0
BLOCK
  5
3
330
2
100
AcDbEntity
  8
0
100
AcDbBlockBegin
  2
*MODEL_SPACE
 70
     0
 10
0.0
 20
0.0
 30
0.0
  3
*MODEL_SPACE
  1

  0
ENDBLK
  5
6
330
2
100
AcDbEntity
  8
0
100
AcDbBlockEnd
  0
BLOCK
  5
8
330
7
100
AcDbEntity
 67
     1
  8
0
100
AcDbBlockBegin
  2
*PAPER_SPACE
 70
     0
 10
0.0
 20
0.0
 30
0.0
  3
*PAPER_SPACE
  1

  0
ENDBLK
  5
9
330
7
100
AcDbEntity
 67
     1
  8
0
100
AcDbBlockEnd
  0
BLOCK
  5
21
330
1D
100
AcDbEntity
  8
0
100
AcDbBlockBegin
  2
DOT1
 70
     0
 10
0.0
 20
0.0
 30
0.0
  3
DOT1
  1

  0
CIRCLE
  5
1E
330
1D
100
AcDbEntity
  8
0
  6
ByBlock
 62
     0
370
    -2
100
AcDbCircle
 10
0.0
 20
0.0
 30
0.0
 40
0.5
  0
CIRCLE
  5
1F
330
1D
100
AcDbEntity
  8
0
  6
ByBlock
 62
     0
370
    -2
100
AcDbCircle
 10
0.0
 20
0.0
 30
0.0
 40
0.325
  0
LINE
  5
20
330
1D
100
AcDbEntity
  8
0
  6
ByBlock
 62
     0
370
    -2
100
AcDbLine
 10
0.0
 20
0.0
 30
0.0
 11
-1.0
 21
0.0
 31
0.0
  0
ENDBLK
  5
22
330
1D
100
AcDbEntity
  8
0
100
AcDbBlockEnd
  0
BLOCK
  5
DD
330
25
100
AcDbEntity
  8
0
100
AcDbBlockBegin
  2
A201
 70
     0
 10
0.0
 20
0.0
 30
0.0
  3
A201
  1

  0
LINE
  5
26
330
25
100
AcDbEntity
  8
YKK_ZWAK
  6
Continuous
 62
   254
100
AcDbLine
 10
21.000001
 20
8.9995
 30
0.0
 11
544.000013
 21
8.9995
 31
0.0
  0
LINE
  5
27
330
25
100
AcDbEntity
  8
YKK_ZWAK
  6
Continuous
 62
   131
100
AcDbLine
 10
205.000005
 20
21.000001
 30
0.0
 11
297.000007
 21
21.000001
 31
0.0
  0
LINE
  5
28
330
25
100
AcDbEntity
  8
YKK_ZWAK
  6
Continuous
 62
   254
100
AcDbLine
 10
571.000014
 20
34.999501
 30
0.0
 11
21.000001
 21
34.999501
 31
0.0
  0
LINE
  5
29
330
25
100
AcDbEntity
  8
YKK_ZWAK
  6
Continuous
 62
   254
100
AcDbLine
 10
544.000013
 20
33.999501
 30
0.0
 11
21.000001
 21
33.999501
 31
0.0
  0
LINE
  5
2A
330
25
100
AcDbEntity
  8
YKK_ZWAK
  6
Continuous
 62
   254
100
AcDbLine
 10
571.000014
 20
409.99951
 30
0.0
 11
21.000001
 21
409.99951
 31
0.0
  0
LINE
  5
2B
330
25
100
AcDbEntity
  8
YKK_ZWAK
  6
Continuous
 62
   254
100
AcDbLine
 10
21.000001
 20
34.999501
 30
0.0
 11
21.000001
 21
409.99951
 31
0.0
  0
LINE
  5
2C
330
25
100
AcDbEntity
  8
YKK_ZWAK
  6
HIDDEN
 62
   131
100
AcDbLine
 10
24.284751
 20
13.7865
 30
0.0
 11
201.565005
 21
13.7865
 31
0.0
  0
LINE
  5
2E
330
25
100
AcDbEntity
  8
YKK_ZWAK
  6
HIDDEN
 62
   131
100
AcDbLine
 10
24.284751
 20
18.7355
 30
0.0
 11
201.565005
 21
18.7355
 31
0.0
  0
LINE
  5
2F
330
25
100
AcDbEntity
  8
YKK_ZWAK
  6
HIDDEN
 62
   131
100
AcDbLine
 10
24.284751
 20
23.684501
 30
0.0
 11
201.565005
 21
23.684501
 31
0.0
  0
LINE
  5
30
330
25
100
AcDbEntity
  8
YKK_ZWAK
  6
HIDDEN
 62
   131
100
AcDbLine
 10
24.284751
 20
28.633501
 30
0.0
 11
201.565005
 21
28.633501
 31
0.0
  0
LINE
  5
31
330
25
100
AcDbEntity
  8
YKK_ZWAK
  6
Continuous
 62
   254
100
AcDbLine
 10
21.000001
 20
8.9995
 30
0.0
 11
21.000001
 21
33.999501
 31
0.0
  0
TEXT
  5
32
330
25
100
AcDbEntity
  8
YKK_ZWAK
  6
Continuous
 62
   131
100
AcDbText
 10
24.367481
 20
29.394844
 30
0.0
 40
3.0
  1
変 更 記 事
 41
0.9
  7
YKK_OSSTYLE1
100
AcDbText
  0
TEXT
  5
34
330
25
100
AcDbEntity
  8
YKK_ZWAK
  6
Continuous
 62
   254
100
AcDbText
 10
289.94159
 20
12.3725
 30
0.0
 40
5.0
  1
殿
 41
0.9
  7
YKK_OSSTYLE1
100
AcDbText
  0
LINE
  5
35
330
25
100
AcDbEntity
  8
YKK_ZWAK
  6
Continuous
 62
   254
100
AcDbLine
 10
296.000007
 20
33.999501
 30
0.0
 11
296.000007
 21
8.9995
 31
0.0
  0
LINE
  5
36
330
25
100
AcDbEntity
  8
YKK_ZWAK
  6
Continuous
 62
   254
100
AcDbLine
 10
205.000005
 20
33.999501
 30
0.0
 11
205.000005
 21
8.9995
 31
0.0
  0
TEXT
  5
37
330
25
100
AcDbEntity
  8
YKK_ZWAK
  6
Continuous
 62
   131
100
AcDbText
 10
207.692335
 20
17.675001
 30
0.0
 40
3.0
  1
施　　工
 41
0.9
  7
YKK_OSSTYLE1
100
AcDbText
  0
TEXT
  5
38
330
25
100
AcDbEntity
  8
YKK_ZWAK
  6
Continuous
 62
   131
100
AcDbText
 10
207.692335
 20
30.047503
 30
0.0
 40
3.0
  1
設計監理
 41
0.9
  7
YKK_OSSTYLE1
100
AcDbText
  0
TEXT
  5
39
330
25
100
AcDbEntity
  8
YKK_ZWAK
  6
Continuous
 62
   254
100
AcDbText
 10
289.94159
 20
24.745001
 30
0.0
 40
5.0
  1
殿
 41
0.9
  7
YKK_OSSTYLE1
100
AcDbText
  0
LINE
  5
3A
330
25
100
AcDbEntity
  8
YKK_ZWAK
  6
Continuous
 62
   254
100
AcDbLine
 10
19.000001
 20
222.4995055
 30
0.0
 11
21.000001
 21
222.4995055
 31
0.0
  0
LINE
  5
3B
330
25
100
AcDbEntity
  8
YKK_ZWAK
  6
Continuous
 62
     8
100
AcDbLine
 10
296.010007
 20
411.99951
 30
0.0
 11
296.010007
 21
409.99951
 31
0.0
  0
LINE
  5
3C
330
25
100
AcDbEntity
  8
YKK_ZWAK
  6
Continuous
 62
   254
100
AcDbLine
 10
571.000014
 20
409.99951
 30
0.0
 11
571.000014
 21
34.999501
 31
0.0
  0
LINE
  5
3D
330
25
100
AcDbEntity
  8
YKK_ZWAK
  6
Continuous
 62
   254
100
AcDbLine
 10
452.000011
 20
15.9995
 30
0.0
 11
523.999763
 21
15.9995
 31
0.0
  0
LINE
  5
3E
330
25
100
AcDbEntity
  8
YKK_ZWAK
  6
Continuous
 62
   131
100
AcDbLine
 10
437.703011
 20
29.000001
 30
0.0
 11
389.00001
 21
29.000001
 31
0.0
  0
LINE
  5
3F
330
25
100
AcDbEntity
  8
YKK_ZWAK
  6
Continuous
 62
   254
100
AcDbLine
 10
389.00001
 20
33.999501
 30
0.0
 11
389.00001
 21
8.9995
 31
0.0
  0
LINE
  5
40
330
25
100
AcDbEntity
  8
YKK_ZWAK
  6
Continuous
 62
   131
100
AcDbLine
 10
297.000007
 20
21.000001
 30
0.0
 11
389.00001
 21
21.000001
 31
0.0
  0
TEXT
  5
41
330
25
100
AcDbEntity
  8
YKK_ZWAK
  6
Continuous
 62
   131
100
AcDbText
 10
298.58378403
 20
17.465002
 30
0.0
 40
3.0
  1
図面内容
 41
0.9
  7
YKK_OSSTYLE1
100
AcDbText
  0
TEXT
  5
42
330
25
100
AcDbEntity
  8
YKK_ZWAK
  6
Continuous
 62
   131
100
AcDbText
 10
298.86588
 20
30.047503
 30
0.0
 40
3.0
  1
工 事 名
 41
0.9
  7
YKK_OSSTYLE1
100
AcDbText
  0
TEXT
  5
43
330
25
100
AcDbEntity
  8
YKK_ZWAK
  6
Continuous
 62
   254
100
AcDbText
 10
377.16530176
 20
24.745001
 30
0.0
 40
5.0
  1
工事
 41
0.9
  7
YKK_OSSTYLE1
100
AcDbText
  0
LINE
  5
44
330
25
100
AcDbEntity
  8
YKK_ZWAK
  6
Continuous
 62
   254
100
AcDbLine
 10
452.000011
 20
33.999501
 30
0.0
 11
452.000011
 21
8.9995
 31
0.0
  0
LINE
  5
45
330
25
100
AcDbEntity
  8
YKK_ZWAK
  6
Continuous
 62
   254
100
AcDbLine
 10
437.000011
 20
33.999501
 30
0.0
 11
437.000011
 21
8.9995
 31
0.0
  0
LINE
  5
46
330
25
100
AcDbEntity
  8
YKK_ZWAK
  6
Continuous
 62
   131
100
AcDbLine
 10
443.051603
 20
10.181617
 30
0.0
 11
449.854371
 21
16.984384
 31
0.0
  0
LINE
  5
47
330
25
100
AcDbEntity
  8
YKK_ZWAK
  6
Continuous
 62
   131
100
AcDbLine
 10
421.00001
 20
33.999501
 30
0.0
 11
421.00001
 21
8.9995
 31
0.0
  0
LINE
  5
48
330
25
100
AcDbEntity
  8
YKK_ZWAK
  6
Continuous
 62
   131
100
AcDbLine
 10
405.00001
 20
33.999501
 30
0.0
 11
405.00001
 21
8.9995
 31
0.0
  0
TEXT
  5
49
330
25
100
AcDbEntity
  8
YKK_ZWAK
  6
Continuous
 62
   131
100
AcDbText
 10
392.18209354
 20
9.752325
 30
0.0
 40
3.5
  1
 ． ．
 41
0.9
  7
YKK_OSSTYLE1
100
AcDbText
  0
LINE
  5
4A
330
25
100
AcDbEntity
  8
YKK_ZWAK
  6
Continuous
 62
   131
100
AcDbLine
 10
455.5999986
 20
10.4995
 30
0.0
 11
455.5999986
 21
8.9995
 31
0.0
  0
TEXT
  5
4B
330
25
100
AcDbEntity
  8
YKK_ZWAK
  6
Continuous
 62
   131
100
AcDbText
 10
407.8246491
 20
29.87075
 30
0.0
 40
3.0
  1
担  当
 41
0.9
  7
YKK_OSSTYLE1
100
AcDbText
  0
TEXT
  5
4C
330
25
100
AcDbEntity
  8
YKK_ZWAK
  6
Continuous
 62
   131
100
AcDbText
 10
392.5636631
 20
29.87075
 30
0.0
 40
3.0
  1
照  査
 41
0.9
  7
YKK_OSSTYLE1
100
AcDbText
  0
TEXT
  5
4D
330
25
100
AcDbEntity
  8
YKK_ZWAK
  6
Continuous
 62
   131
100
AcDbText
 10
424.0856971
 20
29.883751
 30
0.0
 40
3.0
  1
作  図
 41
0.9
  7
YKK_OSSTYLE1
100
AcDbText
  0
TEXT
  5
4E
330
25
100
AcDbEntity
  8
YKK_ZWAK
  6
Continuous
 62
   131
100
AcDbText
 10
453.905095
 20
30.047501
 30
0.0
 40
3.0
  1
御承認印
 41
0.9
  7
YKK_OSSTYLE1
100
AcDbText
  0
LINE
  5
4F
330
25
100
AcDbEntity
  8
YKK_ZWAK
  6
Continuous
 62
   131
100
AcDbLine
 10
437.703011
 20
29.000001
 30
0.0
 11
452.000011
 21
29.000001
 31
0.0
  0
LINE
  5
50
330
25
100
AcDbEntity
  8
YKK_ZWAK
  6
Continuous
 62
   131
100
AcDbLine
 10
439.264403
 20
21.330812
 30
0.0
 11
446.188247
 21
28.254656
 31
0.0
  0
TEXT
  5
51
330
25
100
AcDbEntity
  8
YKK_ZWAK
  6
Continuous
 62
   131
100
AcDbText
 10
439.5087681
 20
30.044463
 30
0.0
 40
3.0
  1
尺  度
 41
0.9
  7
YKK_OSSTYLE1
100
AcDbText
  0
CIRCLE
  5
52
330
25
100
AcDbEntity
  8
YKK_ZWAK
  6
Continuous
 62
     8
100
AcDbCircle
 10
579.426014
 20
83.719502
 30
0.0
 40
6.299999999999999
  0
LINE
  5
53
330
25
100
AcDbEntity
  8
YKK_ZWAK
  6
Continuous
 62
     8
100
AcDbLine
 10
573.126014
 20
69.579502
 30
0.0
 11
585.726014
 21
69.579502
 31
0.0
  0
LINE
  5
54
330
25
100
AcDbEntity
  8
YKK_ZWAK
  6
Continuous
 62
     8
100
AcDbLine
 10
573.126014
 20
55.439501
 30
0.0
 11
585.726014
 21
55.439501
 31
0.0
  0
CIRCLE
  5
55
330
25
100
AcDbEntity
  8
YKK_ZWAK
  6
Continuous
 62
     8
100
AcDbCircle
 10
579.426014
 20
69.579502
 30
0.0
 40
6.299999999999999
  0
CIRCLE
  5
56
330
25
100
AcDbEntity
  8
YKK_ZWAK
  6
Continuous
 62
     8
100
AcDbCircle
 10
579.426014
 20
55.439501
 30
0.0
 40
6.299999999999999
  0
LINE
  5
57
330
25
100
AcDbEntity
  8
YKK_ZWAK
  6
Continuous
 62
     8
100
AcDbLine
 10
573.126014
 20
41.299501
 30
0.0
 11
585.726014
 21
41.299501
 31
0.0
  0
CIRCLE
  5
58
330
25
100
AcDbEntity
  8
YKK_ZWAK
  6
Continuous
 62
     8
100
AcDbCircle
 10
579.426014
 20
41.299501
 30
0.0
 40
6.299999999999999
  0
LINE
  5
59
330
25
100
AcDbEntity
  8
YKK_ZWAK
  6
Continuous
 62
   254
100
AcDbLine
 10
544.000013
 20
33.999501
 30
0.0
 11
544.000013
 21
8.9995
 31
0.0
  0
LINE
  5
5A
330
25
100
AcDbEntity
  8
YKK_ZWAK
  6
Continuous
 62
   254
100
AcDbLine
 10
523.999763
 20
33.999501
 30
0.0
 11
523.999763
 21
8.9995
 31
0.0
  0
ARC
  5
5B
330
25
100
AcDbEntity
  8
YKK_ZWAK
  6
Continuous
 62
   254
100
AcDbCircle
 10
567.23923515
 20
16.32442811
 30
0.0
 40
3.065267824757687
100
AcDbArc
 50
285.44291453
 51
349.90448123
  0
ARC
  5
5C
330
25
100
AcDbEntity
  8
YKK_ZWAK
  6
Continuous
 62
   254
100
AcDbCircle
 10
553.606314
 20
13.7174867
 30
0.0
 40
7.916047100361496
100
AcDbArc
 50
168.7637177
 51
199.80079153
  0
ARC
  5
5D
330
25
100
AcDbEntity
  8
YKK_ZWAK
  6
Continuous
 62
   254
100
AcDbCircle
 10
550.84442657
 20
13.7651724
 30
0.0
 40
1.69178303147034
100
AcDbArc
 50
171.08203026
 51
216.71922793
  0
LINE
  5
5E
330
25
100
AcDbEntity
  8
YKK_ZWAK
  6
Continuous
 62
   254
100
AcDbLine
 10
562.610947
 20
9.566381
 30
0.0
 11
562.610947
 21
20.243049
 31
0.0
  0
LINE
  5
5F
330
25
100
AcDbEntity
  8
YKK_ZWAK
  6
Continuous
 62
   254
100
AcDbLine
 10
559.019868
 20
23.216355
 30
0.0
 11
559.019868
 21
9.566381
 31
0.0
  0
LINE
  5
60
330
25
100
AcDbEntity
  8
YKK_ZWAK
  6
Continuous
 62
   254
100
AcDbLine
 10
557.513933
 20
20.011363
 30
0.0
 11
557.513933
 21
9.585666
 31
0.0
  0
LINE
  5
61
330
25
100
AcDbEntity
  8
YKK_ZWAK
  6
Continuous
 62
   254
100
AcDbLine
 10
554.019393
 20
12.520312
 30
0.0
 11
554.019393
 21
19.470807
 31
0.0
  0
LINE
  5
62
330
25
100
AcDbEntity
  8
YKK_ZWAK
  6
Continuous
 62
   254
100
AcDbLine
 10
557.28225
 20
9.547052
 30
0.0
 11
549.405042
 21
9.527722
 31
0.0
  0
LINE
  5
63
330
25
100
AcDbEntity
  8
YKK_ZWAK
  6
Continuous
 62
   254
100
AcDbLine
 10
550.00355
 20
12.520312
 30
0.0
 11
554.019393
 21
12.520312
 31
0.0
  0
ARC
  5
64
330
25
100
AcDbEntity
  8
YKK_ZWAK
  6
Continuous
 62
   254
100
AcDbCircle
 10
548.60007313
 20
12.25485189
 30
0.0
 40
2.730646981973357
100
AcDbArc
 50
207.31435415
 51
263.59464075
  0
ARC
  5
65
330
25
100
AcDbEntity
  8
YKK_ZWAK
  6
Continuous
 62
   254
100
AcDbCircle
 10
550.17864126
 20
13.59595698
 30
0.0
 40
1.089801345776779
100
AcDbArc
 50
230.97279559
 51
260.75491133
  0
LINE
  5
66
330
25
100
AcDbEntity
  8
YKK_ZWAK
  6
Continuous
 62
   254
100
AcDbLine
 10
549.405042
 20
9.527722
 30
0.0
 11
548.343169
 21
9.527722
 31
0.0
  0
LINE
  5
67
330
25
100
AcDbEntity
  8
YKK_ZWAK
  6
Continuous
 62
   254
100
AcDbLine
 10
557.513933
 20
9.585666
 30
0.0
 11
557.28225
 21
9.547052
 31
0.0
  0
LINE
  5
68
330
25
100
AcDbEntity
  8
YKK_ZWAK
  6
Continuous
 62
   254
100
AcDbLine
 10
553.71047
 20
12.520312
 30
0.0
 11
553.961471
 21
12.520312
 31
0.0
  0
LINE
  5
69
330
25
100
AcDbEntity
  8
YKK_ZWAK
  6
Continuous
 62
   254
100
AcDbLine
 10
554.019393
 20
12.521084
 30
0.0
 11
554.020164
 21
12.520312
 31
0.0
  0
LINE
  5
6A
330
25
100
AcDbEntity
  8
YKK_ZWAK
  6
Continuous
 62
   254
100
AcDbLine
 10
562.051042
 20
9.566381
 30
0.0
 11
562.610947
 21
9.566381
 31
0.0
  0
LINE
  5
6B
330
25
100
AcDbEntity
  8
YKK_ZWAK
  6
Continuous
 62
   254
100
AcDbLine
 10
559.019868
 20
9.566381
 30
0.0
 11
562.051042
 21
9.566381
 31
0.0
  0
TEXT
  5
6C
330
25
100
AcDbEntity
  8
YKK_ZWAK
  6
Continuous
 62
   131
100
AcDbText
 10
528.4269094
 20
29.81226201
 30
0.0
 40
3.2
  1
図　番
 41
0.9
  7
YKK_OSSTYLE1
100
AcDbText
  0
TEXT
  5
6D
330
25
100
AcDbEntity
  8
YKK_ZWAK
  6
Continuous
 62
   131
100
AcDbText
 10
526.62767404
 20
16.79627903
 30
0.0
 40
3.2
  1
通し図番
 41
0.9
  7
YKK_OSSTYLE1
100
AcDbText
  0
LINE
  5
6E
330
25
100
AcDbEntity
  8
YKK_ZWAK
  6
Continuous
 62
   131
100
AcDbLine
 10
523.999763
 20
28.999501
 30
0.0
 11
544.000013
 21
28.999501
 31
0.0
  0
LINE
  5
6F
330
25
100
AcDbEntity
  8
YKK_ZWAK
  6
Continuous
 62
   131
100
AcDbLine
 10
544.000013
 20
16.0
 30
0.0
 11
523.999763
 21
16.0
 31
0.0
  0
LINE
  5
70
330
25
100
AcDbEntity
  8
YKK_ZWAK
  6
Continuous
 62
   254
100
AcDbLine
 10
523.999763
 20
21.000001
 30
0.0
 11
544.000013
 21
21.000001
 31
0.0
  0
TEXT
  5
71
330
25
100
AcDbEntity
  8
YKK_ZWAK
  6
Continuous
 62
   131
100
AcDbText
 10
504.12596439
 20
16.73585252
 30
0.0
 40
2.828
  1
年   月   日
 41
0.9
  7
YKK_OSSTYLE1
100
AcDbText
  0
ARC
  5
72
330
25
100
AcDbEntity
  8
YKK_ZWAK
  6
Continuous
 62
   254
100
AcDbCircle
 10
550.80023932
 20
8.38955158
 30
0.0
 40
9.506414110787718
100
AcDbArc
 50
79.38097908
 51
112.0582515
  0
ARC
  5
73
330
25
100
AcDbEntity
  8
YKK_ZWAK
  6
Continuous
 62
   254
100
AcDbCircle
 10
552.02960157
 20
8.66870802
 30
0.0
 40
14.82019555938878
100
AcDbArc
 50
78.78009532
 51
91.46937906
  0
LINE
  5
74
330
25
100
AcDbEntity
  8
YKK_ZWAK
  6
Continuous
 62
   254
100
AcDbLine
 10
553.247106
 20
20.281664
 30
0.0
 11
550.60589668
 21
20.23169161
 31
0.0
  0
LINE
  5
75
330
25
100
AcDbEntity
  8
YKK_ZWAK
  6
Continuous
 62
   254
100
AcDbLine
 10
553.054042
 20
15.04953
 30
0.0
 11
550.200893
 21
15.046227
 31
0.0
  0
LINE
  5
76
330
25
100
AcDbEntity
  8
YKK_ZWAK
  6
Continuous
 62
   254
100
AcDbLine
 10
554.187226
 20
33.42965
 30
0.0
 11
550.949599
 21
27.69553
 31
0.0
  0
LINE
  5
77
330
25
100
AcDbEntity
  8
YKK_ZWAK
  6
Continuous
 62
   254
100
AcDbLine
 10
551.59718
 20
33.42965
 30
0.0
 11
554.187226
 21
33.42965
 31
0.0
  0
LINE
  5
78
330
25
100
AcDbEntity
  8
YKK_ZWAK
  6
Continuous
 62
   254
100
AcDbLine
 10
548.594154
 20
27.714815
 30
0.0
 11
545.311979
 21
33.352466
 31
0.0
  0
ARC
  5
79
330
25
100
AcDbEntity
  8
YKK_ZWAK
  6
Continuous
 62
   254
100
AcDbCircle
 10
549.68520483
 20
20.30975154
 30
0.0
 40
3.598113650678814
100
AcDbArc
 50
158.41083245
 51
179.71775245
  0
ARC
  5
7A
330
25
100
AcDbEntity
  8
YKK_ZWAK
  6
Continuous
 62
   254
100
AcDbCircle
 10
548.59054743
 20
14.76560333
 30
0.0
 40
2.791490107652263
100
AcDbArc
 50
121.82711365
 51
169.08474902
  0
LINE
  5
7B
330
25
100
AcDbEntity
  8
YKK_ZWAK
  6
Continuous
 62
   254
100
AcDbLine
 10
549.405042
 20
18.949491
 30
0.0
 11
546.084266
 21
18.949491
 31
0.0
  0
LINE
  5
7C
330
25
100
AcDbEntity
  8
YKK_ZWAK
  6
Continuous
 62
   254
100
AcDbLine
 10
546.084266
 20
18.949491
 30
0.0
 11
546.084266
 21
20.32747631
 31
0.0
  0
ARC
  5
7D
330
25
100
AcDbEntity
  8
YKK_ZWAK
  6
Continuous
 62
   254
100
AcDbCircle
 10
550.20700835
 20
14.01426078
 30
0.0
 40
1.031984336873053
100
AcDbArc
 50
90.33952634
 51
178.0363902
  0
ARC
  5
7E
330
25
100
AcDbEntity
  8
YKK_ZWAK
  6
Continuous
 62
   254
100
AcDbCircle
 10
550.91098672
 20
18.99454401
 30
0.0
 40
1.5066184932453
100
AcDbArc
 50
138.46381796
 51
181.71359389
  0
ARC
  5
7F
330
25
100
AcDbEntity
  8
YKK_ZWAK
  6
Continuous
 62
   254
100
AcDbCircle
 10
550.51068793
 20
19.02046023
 30
0.0
 40
1.214967561291876
100
AcDbArc
 50
85.50551117
 51
126.78038212
  0
ARC
  5
80
330
25
100
AcDbEntity
  8
YKK_ZWAK
  6
Continuous
 62
   254
100
AcDbCircle
 10
548.00461954
 20
21.10278181
 30
0.0
 40
1.745462511199758
100
AcDbArc
 50
109.02126645
 51
161.5126404
  0
ARC
  5
81
330
25
100
AcDbEntity
  8
YKK_ZWAK
  6
Continuous
 62
   254
100
AcDbCircle
 10
551.65872095
 20
10.85588209
 30
0.0
 40
12.62863449008531
100
AcDbArc
 50
89.89164773
 51
109.30848271
  0
LINE
  5
82
330
25
100
AcDbEntity
  8
YKK_ZWAK
  6
Continuous
 62
   254
100
AcDbLine
 10
548.594154
 20
24.529198
 30
0.0
 11
548.594154
 21
27.714815
 31
0.0
  0
LINE
  5
83
330
25
100
AcDbEntity
  8
YKK_ZWAK
  6
Continuous
 62
   254
100
AcDbLine
 10
550.949599
 20
24.529198
 30
0.0
 11
548.594154
 21
24.529198
 31
0.0
  0
LINE
  5
84
330
25
100
AcDbEntity
  8
YKK_ZWAK
  6
Continuous
 62
   254
100
AcDbLine
 10
550.949599
 20
27.69553
 30
0.0
 11
550.949599
 21
24.529198
 31
0.0
  0
LINE
  5
85
330
25
100
AcDbEntity
  8
YKK_ZWAK
  6
Continuous
 62
   254
100
AcDbLine
 10
545.311979
 20
33.352466
 30
0.0
 11
547.821884
 21
33.352466
 31
0.0
  0
LINE
  5
86
330
25
100
AcDbEntity
  8
YKK_ZWAK
  6
Continuous
 62
   254
100
AcDbLine
 10
551.59718
 20
33.42965
 30
0.0
 11
549.771867
 21
29.877219
 31
0.0
  0
LINE
  5
87
330
25
100
AcDbEntity
  8
YKK_ZWAK
  6
Continuous
 62
   254
100
AcDbLine
 10
549.617423
 20
29.993062
 30
0.0
 11
549.771867
 21
29.877219
 31
0.0
  0
LINE
  5
88
330
25
100
AcDbEntity
  8
YKK_ZWAK
  6
Continuous
 62
   254
100
AcDbLine
 10
547.821884
 20
33.352466
 30
0.0
 11
549.617423
 21
29.993062
 31
0.0
  0
ARC
  5
89
330
25
100
AcDbEntity
  8
YKK_ZWAK
  6
Continuous
 62
   254
100
AcDbCircle
 10
568.28604917
 20
28.29398617
 30
0.0
 40
1.544618833868573
100
AcDbArc
 50
0.00166292
 51
89.99603715
  0
ARC
  5
8A
330
25
100
AcDbEntity
  8
YKK_ZWAK
  6
Continuous
 62
   254
100
AcDbCircle
 10
559.98514917
 20
28.23604217
 30
0.0
 40
1.544618833868573
100
AcDbArc
 50
0.00166292
 51
89.99603715
  0
LINE
  5
8B
330
25
100
AcDbEntity
  8
YKK_ZWAK
  6
Continuous
 62
   254
100
AcDbLine
 10
562.553028
 20
24.625712
 30
0.0
 11
562.553028
 21
33.487594
 31
0.0
  0
LINE
  5
8C
330
25
100
AcDbEntity
  8
YKK_ZWAK
  6
Continuous
 62
   254
100
AcDbLine
 10
554.328297
 20
24.548527
 30
0.0
 11
554.328297
 21
33.410366
 31
0.0
  0
LINE
  5
8D
330
25
100
AcDbEntity
  8
YKK_ZWAK
  6
Continuous
 62
   254
100
AcDbLine
 10
564.985674
 20
24.625712
 30
0.0
 11
562.553028
 21
24.625712
 31
0.0
  0
LINE
  5
8E
330
25
100
AcDbEntity
  8
YKK_ZWAK
  6
Continuous
 62
   254
100
AcDbLine
 10
567.302491
 20
23.216355
 30
0.0
 11
559.019868
 21
23.216355
 31
0.0
  0
LINE
  5
8F
330
25
100
AcDbEntity
  8
YKK_ZWAK
  6
Continuous
 62
   254
100
AcDbLine
 10
563.479759
 20
13.196086
 30
0.0
 11
567.283206
 21
13.196086
 31
0.0
  0
LINE
  5
90
330
25
100
AcDbEntity
  8
YKK_ZWAK
  6
Continuous
 62
   254
100
AcDbLine
 10
566.008932
 20
16.150017
 30
0.0
 11
563.479759
 21
16.150017
 31
0.0
  0
LINE
  5
91
330
25
100
AcDbEntity
  8
YKK_ZWAK
  6
Continuous
 62
   254
100
AcDbLine
 10
562.610947
 20
20.243049
 30
0.0
 11
565.931704
 21
20.243049
 31
0.0
  0
ARC
  5
92
330
25
100
AcDbEntity
  8
YKK_ZWAK
  6
Continuous
 62
   254
100
AcDbCircle
 10
554.22066
 20
20.08146332
 30
0.0
 40
3.294016994121146
100
AcDbArc
 50
358.78059045
 51
38.76562608
  0
ARC
  5
93
330
25
100
AcDbEntity
  8
YKK_ZWAK
  6
Continuous
 62
   254
100
AcDbCircle
 10
552.89717617
 20
19.17519964
 30
0.0
 40
1.16048018439929
100
AcDbArc
 50
14.7551995
 51
72.44994796
  0
LINE
  5
94
330
25
100
AcDbEntity
  8
YKK_ZWAK
  6
Continuous
 62
   254
100
AcDbLine
 10
553.054042
 20
17.617318
 30
0.0
 11
553.054042
 21
15.04953
 31
0.0
  0
LINE
  5
95
330
25
100
AcDbEntity
  8
YKK_ZWAK
  6
Continuous
 62
   254
100
AcDbLine
 10
552.552059
 20
17.733161
 30
0.0
 11
553.054042
 21
17.617318
 31
0.0
  0
LINE
  5
96
330
25
100
AcDbEntity
  8
YKK_ZWAK
  6
Continuous
 62
   254
100
AcDbLine
 10
563.479759
 20
16.150017
 30
0.0
 11
563.479759
 21
13.196086
 31
0.0
  0
LINE
  5
97
330
25
100
AcDbEntity
  8
YKK_ZWAK
  6
Continuous
 62
   254
100
AcDbLine
 10
558.981248
 20
27.869273
 30
0.0
 11
556.703043
 21
27.869273
 31
0.0
  0
ARC
  5
98
330
25
100
AcDbEntity
  8
YKK_ZWAK
  6
Continuous
 62
   254
100
AcDbCircle
 10
554.37879626
 20
20.07343796
 30
0.0
 40
3.177485297559325
100
AcDbArc
 50
40.66422291
 51
80.31693569
  0
LINE
  5
99
330
25
100
AcDbEntity
  8
YKK_ZWAK
  6
Continuous
 62
   254
100
AcDbLine
 10
556.703043
 20
24.548527
 30
0.0
 11
554.328297
 21
24.548527
 31
0.0
  0
LINE
  5
9A
330
25
100
AcDbEntity
  8
YKK_ZWAK
  6
Continuous
 62
   254
100
AcDbLine
 10
556.703043
 20
27.869273
 30
0.0
 11
556.703043
 21
24.548527
 31
0.0
  0
LINE
  5
9B
330
25
100
AcDbEntity
  8
YKK_ZWAK
  6
Continuous
 62
   254
100
AcDbLine
 10
561.529756
 20
28.236131
 30
0.0
 11
561.529756
 21
24.606427
 31
0.0
  0
LINE
  5
9C
330
25
100
AcDbEntity
  8
YKK_ZWAK
  6
Continuous
 62
   254
100
AcDbLine
 10
559.290171
 20
27.75343
 30
0.0
 11
558.981248
 21
27.869273
 31
0.0
  0
LINE
  5
9D
330
25
100
AcDbEntity
  8
YKK_ZWAK
  6
Continuous
 62
   254
100
AcDbLine
 10
559.290171
 20
24.606427
 30
0.0
 11
559.290171
 21
27.75343
 31
0.0
  0
LINE
  5
9E
330
25
100
AcDbEntity
  8
YKK_ZWAK
  6
Continuous
 62
   254
100
AcDbLine
 10
561.529756
 20
24.606427
 30
0.0
 11
559.290171
 21
24.606427
 31
0.0
  0
ARC
  5
9F
330
25
100
AcDbEntity
  8
YKK_ZWAK
  6
Continuous
 62
   254
100
AcDbCircle
 10
567.19412132
 20
20.11358836
 30
0.0
 40
3.10079004118515
100
AcDbArc
 50
14.44572328
 51
87.08746338
  0
ARC
  5
A0
330
25
100
AcDbEntity
  8
YKK_ZWAK
  6
Continuous
 62
   254
100
AcDbCircle
 10
564.36413966
 20
17.54165325
 30
0.0
 40
2.640498151312115
100
AcDbArc
 50
343.69020327
 51
354.7536235
  0
ARC
  5
A1
330
25
100
AcDbEntity
  8
YKK_ZWAK
  6
Continuous
 62
   254
100
AcDbCircle
 10
566.00966971
 20
17.08269286
 30
0.0
 40
0.9326761550249523
100
AcDbArc
 50
269.95468111
 51
342.90144849
  0
ARC
  5
A2
330
25
100
AcDbEntity
  8
YKK_ZWAK
  6
Continuous
 62
   254
100
AcDbCircle
 10
566.04623887
 20
19.3715952
 30
0.0
 40
0.8777839045469994
100
AcDbArc
 50
16.43123457
 51
96.91661396
  0
ARC
  5
A3
330
25
100
AcDbEntity
  8
YKK_ZWAK
  6
Continuous
 62
   254
100
AcDbCircle
 10
564.37945167
 20
18.85119468
 30
0.0
 40
2.623848066620805
100
AcDbArc
 50
4.93422741
 51
17.03551963
  0
LINE
  5
A4
330
25
100
AcDbEntity
  8
YKK_ZWAK
  6
Continuous
 62
   254
100
AcDbLine
 10
567.283206
 20
13.196086
 30
0.0
 11
568.055449
 21
13.369828
 31
0.0
  0
LINE
  5
A5
330
25
100
AcDbEntity
  8
YKK_ZWAK
  6
Continuous
 62
   254
100
AcDbLine
 10
566.980872
 20
19.173458
 30
0.0
 11
566.993576
 21
17.29190622
 31
0.0
  0
ARC
  5
A6
330
25
100
AcDbEntity
  8
YKK_ZWAK
  6
Continuous
 62
   254
100
AcDbCircle
 10
555.54697452
 20
18.15146785
 30
0.0
 40
14.90004285451682
100
AcDbArc
 50
350.99026817
 51
10.67624521
  0
LINE
  5
A7
330
25
100
AcDbEntity
  8
YKK_ZWAK
  6
Continuous
 62
   254
100
AcDbLine
 10
569.831709
 20
24.645041
 30
0.0
 11
567.572791
 21
24.645041
 31
0.0
  0
LINE
  5
A8
330
25
100
AcDbEntity
  8
YKK_ZWAK
  6
Continuous
 62
   254
100
AcDbLine
 10
567.572791
 20
27.772759
 30
0.0
 11
567.263877
 21
27.888602
 31
0.0
  0
LINE
  5
A9
330
25
100
AcDbEntity
  8
YKK_ZWAK
  6
Continuous
 62
   254
100
AcDbLine
 10
567.263877
 20
27.888602
 30
0.0
 11
564.985674
 21
27.888602
 31
0.0
  0
LINE
  5
AA
330
25
100
AcDbEntity
  8
YKK_ZWAK
  6
Continuous
 62
   254
100
AcDbLine
 10
564.985674
 20
27.888602
 30
0.0
 11
564.985674
 21
24.625712
 31
0.0
  0
LINE
  5
AB
330
25
100
AcDbEntity
  8
YKK_ZWAK
  6
Continuous
 62
   254
100
AcDbLine
 10
567.572791
 20
24.645041
 30
0.0
 11
567.572791
 21
27.772759
 31
0.0
  0
LINE
  5
AC
330
25
100
AcDbEntity
  8
YKK_ZWAK
  6
Continuous
 62
   254
100
AcDbLine
 10
567.572791
 20
24.681182
 30
0.0
 11
567.608933
 21
24.645041
 31
0.0
  0
LINE
  5
AD
330
25
100
AcDbEntity
  8
YKK_ZWAK
  6
Continuous
 62
   254
100
AcDbLine
 10
569.831709
 20
28.236131
 30
0.0
 11
569.831709
 21
24.645041
 31
0.0
  0
LINE
  5
AE
330
25
100
AcDbEntity
  8
YKK_ZWAK
  6
Continuous
 62
   254
100
AcDbLine
 10
562.553028
 20
33.487594
 30
0.0
 11
564.889116
 21
33.487594
 31
0.0
  0
LINE
  5
AF
330
25
100
AcDbEntity
  8
YKK_ZWAK
  6
Continuous
 62
   254
100
AcDbLine
 10
556.625823
 20
29.768591
 30
0.0
 11
559.03917
 21
33.44898
 31
0.0
  0
LINE
  5
B0
330
25
100
AcDbEntity
  8
YKK_ZWAK
  6
Continuous
 62
   254
100
AcDbLine
 10
556.625823
 20
33.410366
 30
0.0
 11
556.625823
 21
29.768591
 31
0.0
  0
LINE
  5
B1
330
25
100
AcDbEntity
  8
YKK_ZWAK
  6
Continuous
 62
   254
100
AcDbLine
 10
554.328297
 20
33.410366
 30
0.0
 11
556.625823
 21
33.410366
 31
0.0
  0
LINE
  5
B2
330
25
100
AcDbEntity
  8
YKK_ZWAK
  6
Continuous
 62
   254
100
AcDbLine
 10
559.985256
 20
29.780661
 30
0.0
 11
559.242942
 21
29.780661
 31
0.0
  0
LINE
  5
B3
330
25
100
AcDbEntity
  8
YKK_ZWAK
  6
Continuous
 62
   254
100
AcDbLine
 10
561.771363
 20
33.44898
 30
0.0
 11
559.242942
 21
29.780661
 31
0.0
  0
LINE
  5
B4
330
25
100
AcDbEntity
  8
YKK_ZWAK
  6
Continuous
 62
   254
100
AcDbLine
 10
559.03917
 20
33.44898
 30
0.0
 11
561.771363
 21
33.44898
 31
0.0
  0
LINE
  5
B5
330
25
100
AcDbEntity
  8
YKK_ZWAK
  6
Continuous
 62
   254
100
AcDbLine
 10
569.773765
 20
33.024222
 30
0.0
 11
567.543842
 21
29.838605
 31
0.0
  0
LINE
  5
B6
330
25
100
AcDbEntity
  8
YKK_ZWAK
  6
Continuous
 62
   254
100
AcDbLine
 10
567.341105
 20
33.487594
 30
0.0
 11
570.044065
 21
33.487594
 31
0.0
  0
LINE
  5
B7
330
25
100
AcDbEntity
  8
YKK_ZWAK
  6
Continuous
 62
   254
100
AcDbLine
 10
568.286156
 20
29.838605
 30
0.0
 11
567.543842
 21
29.838605
 31
0.0
  0
LINE
  5
B8
330
25
100
AcDbEntity
  8
YKK_ZWAK
  6
Continuous
 62
   254
100
AcDbLine
 10
564.889116
 20
29.779236
 30
0.0
 11
567.341105
 21
33.487594
 31
0.0
  0
LINE
  5
B9
330
25
100
AcDbEntity
  8
YKK_ZWAK
  6
Continuous
 62
   254
100
AcDbLine
 10
564.889116
 20
33.487594
 30
0.0
 11
564.889116
 21
29.779236
 31
0.0
  0
LINE
  5
BA
330
25
100
AcDbEntity
  8
YKK_ZWAK
  6
Continuous
 62
   254
100
AcDbLine
 10
570.044065
 20
33.487594
 30
0.0
 11
569.773765
 21
33.024222
 31
0.0
  0
LINE
  5
BB
330
25
100
AcDbEntity
  8
YKK_ZWAK
  6
Continuous
 62
     8
100
AcDbLine
 10
573.126014
 20
168.559504
 30
0.0
 11
585.726014
 21
168.559504
 31
0.0
  0
LINE
  5
BC
330
25
100
AcDbEntity
  8
YKK_ZWAK
  6
Continuous
 62
     8
100
AcDbLine
 10
573.126014
 20
154.419504
 30
0.0
 11
585.726014
 21
154.419504
 31
0.0
  0
LINE
  5
BD
330
25
100
AcDbEntity
  8
YKK_ZWAK
  6
Continuous
 62
     8
100
AcDbLine
 10
573.126014
 20
140.279503
 30
0.0
 11
585.726014
 21
140.279503
 31
0.0
  0
LINE
  5
BE
330
25
100
AcDbEntity
  8
YKK_ZWAK
  6
Continuous
 62
     8
100
AcDbLine
 10
573.126014
 20
126.139503
 30
0.0
 11
585.726014
 21
126.139503
 31
0.0
  0
LINE
  5
BF
330
25
100
AcDbEntity
  8
YKK_ZWAK
  6
Continuous
 62
     8
100
AcDbLine
 10
573.126014
 20
111.999503
 30
0.0
 11
585.726014
 21
111.999503
 31
0.0
  0
LINE
  5
C0
330
25
100
AcDbEntity
  8
YKK_ZWAK
  6
Continuous
 62
     8
100
AcDbLine
 10
573.126014
 20
97.859502
 30
0.0
 11
585.726014
 21
97.859502
 31
0.0
  0
LINE
  5
C1
330
25
100
AcDbEntity
  8
YKK_ZWAK
  6
Continuous
 62
     8
100
AcDbLine
 10
573.126014
 20
83.719502
 30
0.0
 11
585.726014
 21
83.719502
 31
0.0
  0
CIRCLE
  5
C2
330
25
100
AcDbEntity
  8
YKK_ZWAK
  6
Continuous
 62
     8
100
AcDbCircle
 10
579.426014
 20
168.559504
 30
0.0
 40
6.299999999999999
  0
CIRCLE
  5
C3
330
25
100
AcDbEntity
  8
YKK_ZWAK
  6
Continuous
 62
     8
100
AcDbCircle
 10
579.426014
 20
140.279503
 30
0.0
 40
6.299999999999999
  0
CIRCLE
  5
C4
330
25
100
AcDbEntity
  8
YKK_ZWAK
  6
Continuous
 62
     8
100
AcDbCircle
 10
579.426014
 20
111.999503
 30
0.0
 40
6.299999999999999
  0
CIRCLE
  5
C5
330
25
100
AcDbEntity
  8
YKK_ZWAK
  6
Continuous
 62
     8
100
AcDbCircle
 10
579.426014
 20
154.419504
 30
0.0
 40
6.299999999999999
  0
CIRCLE
  5
C6
330
25
100
AcDbEntity
  8
YKK_ZWAK
  6
Continuous
 62
     8
100
AcDbCircle
 10
579.426014
 20
126.139503
 30
0.0
 40
6.299999999999999
  0
CIRCLE
  5
C7
330
25
100
AcDbEntity
  8
YKK_ZWAK
  6
Continuous
 62
     8
100
AcDbCircle
 10
579.426014
 20
97.859502
 30
0.0
 40
6.299999999999999
  0
LINE
  5
C8
330
25
100
AcDbEntity
  8
YKK_ZWAK
  6
Continuous
 62
   254
100
AcDbLine
 10
571.000014
 20
222.4995055
 30
0.0
 11
573.000014
 21
222.4995055
 31
0.0
  0
TEXT
  5
C9
330
25
100
AcDbEntity
  8
YKK_ZWAK
  6
Continuous
 62
   131
100
AcDbText
 10
408.18209354
 20
9.752325
 30
0.0
 40
3.5
  1
 ． ．
 41
0.9
  7
YKK_OSSTYLE1
100
AcDbText
  0
TEXT
  5
CA
330
25
100
AcDbEntity
  8
YKK_ZWAK
  6
Continuous
 62
   131
100
AcDbText
 10
424.18209354
 20
9.752325
 30
0.0
 40
3.5
  1
 ． ．
 41
0.9
  7
YKK_OSSTYLE1
100
AcDbText
  0
LINE
  5
CB
330
25
100
AcDbEntity
  8
YKK_ZWAK
  6
Continuous
 62
   131
100
AcDbLine
 10
459.1999862
 20
10.4995
 30
0.0
 11
459.1999862
 21
8.9995
 31
0.0
  0
LINE
  5
CC
330
25
100
AcDbEntity
  8
YKK_ZWAK
  6
Continuous
 62
   131
100
AcDbLine
 10
462.7999738
 20
10.4995
 30
0.0
 11
462.7999738
 21
8.9995
 31
0.0
  0
LINE
  5
CD
330
25
100
AcDbEntity
  8
YKK_ZWAK
  6
Continuous
 62
   131
100
AcDbLine
 10
466.3999614
 20
10.4995
 30
0.0
 11
466.3999614
 21
8.9995
 31
0.0
  0
LINE
  5
CE
330
25
100
AcDbEntity
  8
YKK_ZWAK
  6
Continuous
 62
   131
100
AcDbLine
 10
469.999949
 20
10.4995
 30
0.0
 11
469.999949
 21
8.9995
 31
0.0
  0
LINE
  5
CF
330
25
100
AcDbEntity
  8
YKK_ZWAK
  6
Continuous
 62
   131
100
AcDbLine
 10
473.5999366
 20
10.4995
 30
0.0
 11
473.5999366
 21
8.9995
 31
0.0
  0
LINE
  5
D0
330
25
100
AcDbEntity
  8
YKK_ZWAK
  6
Continuous
 62
   131
100
AcDbLine
 10
477.1999242
 20
10.4995
 30
0.0
 11
477.1999242
 21
8.9995
 31
0.0
  0
LINE
  5
D1
330
25
100
AcDbEntity
  8
YKK_ZWAK
  6
Continuous
 62
   131
100
AcDbLine
 10
480.7999118
 20
10.4995
 30
0.0
 11
480.7999118
 21
8.9995
 31
0.0
  0
LINE
  5
D2
330
25
100
AcDbEntity
  8
YKK_ZWAK
  6
Continuous
 62
   131
100
AcDbLine
 10
484.3998994
 20
10.4995
 30
0.0
 11
484.3998994
 21
8.9995
 31
0.0
  0
LINE
  5
D3
330
25
100
AcDbEntity
  8
YKK_ZWAK
  6
Continuous
 62
   131
100
AcDbLine
 10
487.999887
 20
10.4995
 30
0.0
 11
487.999887
 21
8.9995
 31
0.0
  0
LINE
  5
D4
330
25
100
AcDbEntity
  8
YKK_ZWAK
  6
Continuous
 62
   131
100
AcDbLine
 10
491.5998746
 20
10.4995
 30
0.0
 11
491.5998746
 21
8.9995
 31
0.0
  0
LINE
  5
D5
330
25
100
AcDbEntity
  8
YKK_ZWAK
  6
Continuous
 62
   131
100
AcDbLine
 10
495.1998622
 20
10.4995
 30
0.0
 11
495.1998622
 21
8.9995
 31
0.0
  0
LINE
  5
D6
330
25
100
AcDbEntity
  8
YKK_ZWAK
  6
Continuous
 62
   131
100
AcDbLine
 10
498.7998498
 20
10.4995
 30
0.0
 11
498.7998498
 21
8.9995
 31
0.0
  0
LINE
  5
D7
330
25
100
AcDbEntity
  8
YKK_ZWAK
  6
Continuous
 62
   131
100
AcDbLine
 10
502.3998374
 20
10.4995
 30
0.0
 11
502.3998374
 21
8.9995
 31
0.0
  0
LINE
  5
D8
330
25
100
AcDbEntity
  8
YKK_ZWAK
  6
Continuous
 62
   131
100
AcDbLine
 10
505.999825
 20
10.4995
 30
0.0
 11
505.999825
 21
8.9995
 31
0.0
  0
LINE
  5
D9
330
25
100
AcDbEntity
  8
YKK_ZWAK
  6
Continuous
 62
   131
100
AcDbLine
 10
509.5998126
 20
10.4995
 30
0.0
 11
509.5998126
 21
8.9995
 31
0.0
  0
LINE
  5
DA
330
25
100
AcDbEntity
  8
YKK_ZWAK
  6
Continuous
 62
   131
100
AcDbLine
 10
513.1998002
 20
10.4995
 30
0.0
 11
513.1998002
 21
8.9995
 31
0.0
  0
LINE
  5
DB
330
25
100
AcDbEntity
  8
YKK_ZWAK
  6
Continuous
 62
   131
100
AcDbLine
 10
516.7997878
 20
10.4995
 30
0.0
 11
516.7997878
 21
8.9995
 31
0.0
  0
LINE
  5
DC
330
25
100
AcDbEntity
  8
YKK_ZWAK
  6
Continuous
 62
   131
100
AcDbLine
 10
520.3997754
 20
10.4995
 30
0.0
 11
520.3997754
 21
8.9995
 31
0.0
  0
ENDBLK
  5
DE
330
25
100
AcDbEntity
  8
0
100
AcDbBlockEnd
  0
ENDSEC
  0
SECTION
  2
ENTITIES
  0
INSERT
  5
23
330
2
100
AcDbEntity
  8
YKK_ZWAK
100
AcDbBlockReference
  2
A201
 10
-19.000001
 20
-8.9995
 30
0.0
  0
TEXT
  5
DF
330
2
100
AcDbEntity
  8
USER1
 62
     3
100
AcDbText
 10
289.76932307
 20
0.98238493
 30
0.0
 40
3.0
  1
LAYLUS 防火戸連結材【ウインドウ仕様】
 72
     1
 11
324.55503735
 21
2.48238493
 31
0.0
100
AcDbText
 73
     2
  0
TEXT
  5
E1
330
2
100
AcDbEntity
  8
USER1
 62
     3
100
AcDbText
 10
281.65503735
 20
5.39347502
 30
0.0
 40
3.0
  1
［大臣認定防火設備（個別認定）］ アルミ防火内窓
 72
     1
 11
324.55503735
 21
6.89347502
 31
0.0
100
AcDbText
 73
     2
  0
TEXT
  5
E3
330
2
100
AcDbEntity
  8
USER1
 62
     3
100
AcDbText
 10
419.999999
 20
15.0005
 30
0.0
 40
4.0
  1
1
100
AcDbText
  0
TEXT
  5
E4
330
2
100
AcDbEntity
  8
USER1
 62
     3
100
AcDbText
 10
425.38095138
 20
11.0005
 30
0.0
 40
4.0
  1
1
 72
     1
 11
426.999999
 21
13.0005
 31
0.0
100
AcDbText
 73
     2
  0
LINE
  5
476
330
2
100
AcDbEntity
  8
YKK_13
100
AcDbLine
 10
229.8
 20
223.81165414
 30
0.0
 11
229.8
 21
224.51165414
 31
0.0
  0
LINE
  5
477
330
2
100
AcDbEntity
  8
YKK_13
100
AcDbLine
 10
230.9
 20
223.81165414
 30
0.0
 11
230.9
 21
227.11165414
 31
0.0
  0
LINE
  5
478
330
2
100
AcDbEntity
  8
YKK_13
100
AcDbLine
 10
229.8
 20
226.41165414
 30
0.0
 11
228.5
 21
226.41165414
 31
0.0
  0
LINE
  5
479
330
2
100
AcDbEntity
  8
YKK_13
100
AcDbLine
 10
229.8
 20
224.51165414
 30
0.0
 11
228.5
 21
224.51165414
 31
0.0
  0
LINE
  5
47A
330
2
100
AcDbEntity
  8
YKK_13
100
AcDbLine
 10
230.1
 20
227.41165414
 30
0.0
 11
230.6
 21
227.41165414
 31
0.0
  0
ARC
  5
47B
330
2
100
AcDbEntity
  8
YKK_13
100
AcDbCircle
 10
230.1
 20
227.11165414
 30
0.0
 40
0.3
100
AcDbArc
 50
90.0
 51
180.0
  0
ARC
  5
47C
330
2
100
AcDbEntity
  8
YKK_13
100
AcDbCircle
 10
230.6
 20
227.11165414
 30
0.0
 40
0.3
100
AcDbArc
 50
360.0
 51
90.0
  0
LINE
  5
47D
330
2
100
AcDbEntity
  8
YKK_13
100
AcDbLine
 10
230.1
 20
223.51165414
 30
0.0
 11
230.6
 21
223.51165414
 31
0.0
  0
ARC
  5
47E
330
2
100
AcDbEntity
  8
YKK_13
100
AcDbCircle
 10
230.1
 20
223.81165414
 30
0.0
 40
0.3
100
AcDbArc
 50
180.0
 51
270.0
  0
ARC
  5
47F
330
2
100
AcDbEntity
  8
YKK_13
100
AcDbCircle
 10
230.6
 20
223.81165414
 30
0.0
 40
0.3
100
AcDbArc
 50
270.0
 51
0.0
  0
LINE
  5
480
330
2
100
AcDbEntity
  8
YKK_13
100
AcDbLine
 10
229.8
 20
226.41165414
 30
0.0
 11
229.8
 21
227.11165414
 31
0.0
  0
LINE
  5
481
330
2
100
AcDbEntity
  8
YKK_13
100
AcDbLine
 10
228.5
 20
226.41165414
 30
0.0
 11
228.5
 21
227.71165414
 31
0.0
  0
LINE
  5
482
330
2
100
AcDbEntity
  8
YKK_13
100
AcDbLine
 10
227.5
 20
221.83227294
 30
0.0
 11
227.5
 21
229.09103535
 31
0.0
  0
ARC
  5
483
330
2
100
AcDbEntity
  8
YKK_13
100
AcDbCircle
 10
227.8
 20
221.83227294
 30
0.0
 40
0.3
100
AcDbArc
 50
180.0
 51
268.06767661
  0
LINE
  5
484
330
2
100
AcDbEntity
  8
YKK_13
100
AcDbLine
 10
228.5
 20
224.51165414
 30
0.0
 11
228.5
 21
223.21165414
 31
0.0
  0
ARC
  5
485
330
2
100
AcDbEntity
  8
YKK_13
100
AcDbCircle
 10
229.8931406
 20
221.76165414
 30
0.0
 40
0.3
100
AcDbArc
 50
268.06767661
 51
158.59645598
  0
LINE
  5
486
330
2
100
AcDbEntity
  8
YKK_13
100
AcDbLine
 10
227.7898843
 20
221.53244353
 30
0.0
 11
229.8830249
 21
221.46182474
 31
0.0
  0
LINE
  5
487
330
2
100
AcDbEntity
  8
YKK_13
100
AcDbLine
 10
228.67885123
 20
222.02440733
 30
0.0
 11
229.61383063
 21
221.87113446
 31
0.0
  0
ARC
  5
488
330
2
100
AcDbEntity
  8
YKK_13
100
AcDbCircle
 10
228.63031947
 20
221.72835891
 30
0.0
 40
0.3
100
AcDbArc
 50
80.69020518
 51
137.63447403
  0
ARC
  5
489
330
2
100
AcDbEntity
  8
YKK_13
100
AcDbCircle
 10
226.5
 20
223.21165414
 30
0.0
 40
2.0
100
AcDbArc
 50
325.15134247
 51
0.0
  0
LINE
  5
48A
330
2
100
AcDbEntity
  8
YKK_13
100
AcDbLine
 10
229.15
 20
224.51165414
 30
0.0
 11
229.15
 21
226.41165414
 31
0.0
  0
LINE
  5
48B
330
2
100
AcDbEntity
  8
YKK_13
100
AcDbLine
 10
228.3841202
 20
221.89978212
 30
0.0
 11
228.4086612
 21
221.93051629
 31
0.0
  0
ARC
  5
48C
330
2
100
AcDbEntity
  8
YKK_13
100
AcDbCircle
 10
228.26272434
 20
221.98430742
 30
0.0
 40
0.147923900999372
100
AcDbArc
 50
145.15134247
 51
325.15134247
  0
ARC
  5
48D
330
2
100
AcDbEntity
  8
YKK_13
100
AcDbCircle
 10
227.8
 20
229.09103535
 30
0.0
 40
0.3
100
AcDbArc
 50
91.93232339
 51
180.0
  0
ARC
  5
48E
330
2
100
AcDbEntity
  8
YKK_13
100
AcDbCircle
 10
229.8931406
 20
229.16165414
 30
0.0
 40
0.3
100
AcDbArc
 50
201.40354402
 51
91.93232339
  0
LINE
  5
48F
330
2
100
AcDbEntity
  8
YKK_13
100
AcDbLine
 10
227.7898843
 20
229.39086476
 30
0.0
 11
229.8830249
 21
229.46148355
 31
0.0
  0
LINE
  5
490
330
2
100
AcDbEntity
  8
YKK_13
100
AcDbLine
 10
228.67885123
 20
228.89890096
 30
0.0
 11
229.61383063
 21
229.05217383
 31
0.0
  0
ARC
  5
491
330
2
100
AcDbEntity
  8
YKK_13
100
AcDbCircle
 10
228.63031947
 20
229.19494938
 30
0.0
 40
0.3
100
AcDbArc
 50
222.36552597
 51
279.30979482
  0
ARC
  5
492
330
2
100
AcDbEntity
  8
YKK_13
100
AcDbCircle
 10
226.5
 20
227.71165414
 30
0.0
 40
2.0
100
AcDbArc
 50
360.0
 51
34.84865753
  0
LINE
  5
493
330
2
100
AcDbEntity
  8
YKK_13
100
AcDbLine
 10
228.3841202
 20
229.02352617
 30
0.0
 11
228.4086612
 21
228.992792
 31
0.0
  0
ARC
  5
494
330
2
100
AcDbEntity
  8
YKK_13
100
AcDbCircle
 10
228.26272434
 20
228.93900087
 30
0.0
 40
0.147923900999372
100
AcDbArc
 50
34.84865753
 51
214.84865753
  0
LINE
  5
495
330
2
100
AcDbEntity
  8
YKK_12
100
AcDbLine
 10
243.5
 20
191.26165414
 30
0.0
 11
243.5
 21
190.96165414
 31
0.0
  0
ARC
  5
496
330
2
100
AcDbEntity
  8
YKK_13
100
AcDbCircle
 10
266.6
 20
204.96165414
 30
0.0
 40
0.3
100
AcDbArc
 50
270.0
 51
0.0
  0
LINE
  5
497
330
2
100
AcDbEntity
  8
YKK_13
100
AcDbLine
 10
266.9
 20
204.96165414
 30
0.0
 11
266.9
 21
210.36165414
 31
0.0
  0
ARC
  5
498
330
2
100
AcDbEntity
  8
YKK_13
100
AcDbCircle
 10
266.6
 20
210.36165414
 30
0.0
 40
0.3
100
AcDbArc
 50
0.0
 51
90.0
  0
LINE
  5
499
330
2
100
AcDbEntity
  8
YKK_13
100
AcDbLine
 10
266.6
 20
210.66165414
 30
0.0
 11
266.0
 21
210.66165414
 31
0.0
  0
ARC
  5
49A
330
2
100
AcDbEntity
  8
YKK_13
100
AcDbCircle
 10
266.0
 20
210.36165414
 30
0.0
 40
0.3
100
AcDbArc
 50
90.0
 51
180.0
  0
LINE
  5
49B
330
2
100
AcDbEntity
  8
YKK_13
100
AcDbLine
 10
268.7
 20
206.16165414
 30
0.0
 11
266.9
 21
206.16165414
 31
0.0
  0
ARC
  5
49C
330
2
100
AcDbEntity
  8
YKK_13
100
AcDbCircle
 10
268.7
 20
206.46165414
 30
0.0
 40
0.3
100
AcDbArc
 50
270.0
 51
0.0
  0
LINE
  5
49D
330
2
100
AcDbEntity
  8
YKK_13
100
AcDbLine
 10
269.0
 20
208.86165414
 30
0.0
 11
269.0
 21
206.46165414
 31
0.0
  0
LINE
  5
49E
330
2
100
AcDbEntity
  8
YKK_13
100
AcDbLine
 10
268.7
 20
209.16165414
 30
0.0
 11
266.9
 21
209.16165414
 31
0.0
  0
ARC
  5
49F
330
2
100
AcDbEntity
  8
YKK_13
100
AcDbCircle
 10
268.7
 20
208.86165414
 30
0.0
 40
0.3
100
AcDbArc
 50
0.0
 51
90.0
  0
ARC
  5
4A0
330
2
100
AcDbEntity
  8
YKK_13
100
AcDbCircle
 10
266.0
 20
204.96165414
 30
0.0
 40
0.3
100
AcDbArc
 50
180.0
 51
270.0
  0
LINE
  5
4A1
330
2
100
AcDbEntity
  8
YKK_13
100
AcDbLine
 10
266.0
 20
204.66165414
 30
0.0
 11
266.6
 21
204.66165414
 31
0.0
  0
LINE
  5
4A2
330
2
100
AcDbEntity
  8
YKK_13
100
AcDbLine
 10
265.7
 20
210.36165414
 30
0.0
 11
265.7
 21
204.96165414
 31
0.0
  0
LINE
  5
4A3
330
2
100
AcDbEntity
  8
YKK_13
100
AcDbLine
 10
324.2
 20
223.81165414
 30
0.0
 11
324.2
 21
224.51165414
 31
0.0
  0
LINE
  5
4A4
330
2
100
AcDbEntity
  8
YKK_13
100
AcDbLine
 10
323.1
 20
223.81165414
 30
0.0
 11
323.1
 21
227.11165414
 31
0.0
  0
LINE
  5
4A5
330
2
100
AcDbEntity
  8
YKK_13
100
AcDbLine
 10
324.2
 20
226.41165414
 30
0.0
 11
325.5
 21
226.41165414
 31
0.0
  0
LINE
  5
4A6
330
2
100
AcDbEntity
  8
YKK_13
100
AcDbLine
 10
324.2
 20
224.51165414
 30
0.0
 11
325.5
 21
224.51165414
 31
0.0
  0
LINE
  5
4A7
330
2
100
AcDbEntity
  8
YKK_13
100
AcDbLine
 10
323.9
 20
227.41165414
 30
0.0
 11
323.4
 21
227.41165414
 31
0.0
  0
ARC
  5
4A8
330
2
100
AcDbEntity
  8
YKK_13
100
AcDbCircle
 10
323.9
 20
227.11165414
 30
0.0
 40
0.3
100
AcDbArc
 50
0.0
 51
90.0
  0
ARC
  5
4A9
330
2
100
AcDbEntity
  8
YKK_13
100
AcDbCircle
 10
323.4
 20
227.11165414
 30
0.0
 40
0.3
100
AcDbArc
 50
90.0
 51
180.0
  0
LINE
  5
4AA
330
2
100
AcDbEntity
  8
YKK_13
100
AcDbLine
 10
323.9
 20
223.51165414
 30
0.0
 11
323.4
 21
223.51165414
 31
0.0
  0
ARC
  5
4AB
330
2
100
AcDbEntity
  8
YKK_13
100
AcDbCircle
 10
323.9
 20
223.81165414
 30
0.0
 40
0.3
100
AcDbArc
 50
270.0
 51
0.0
  0
ARC
  5
4AC
330
2
100
AcDbEntity
  8
YKK_13
100
AcDbCircle
 10
323.4
 20
223.81165414
 30
0.0
 40
0.3
100
AcDbArc
 50
180.0
 51
270.0
  0
LINE
  5
4AD
330
2
100
AcDbEntity
  8
YKK_13
100
AcDbLine
 10
324.2
 20
226.41165414
 30
0.0
 11
324.2
 21
227.11165414
 31
0.0
  0
LINE
  5
4AE
330
2
100
AcDbEntity
  8
YKK_13
100
AcDbLine
 10
325.5
 20
226.41165414
 30
0.0
 11
325.5
 21
227.71165414
 31
0.0
  0
LINE
  5
4AF
330
2
100
AcDbEntity
  8
YKK_13
100
AcDbLine
 10
326.5
 20
221.83227294
 30
0.0
 11
326.5
 21
229.09103535
 31
0.0
  0
ARC
  5
4B0
330
2
100
AcDbEntity
  8
YKK_13
100
AcDbCircle
 10
326.2
 20
221.83227294
 30
0.0
 40
0.3
100
AcDbArc
 50
271.93232339
 51
0.0
  0
LINE
  5
4B1
330
2
100
AcDbEntity
  8
YKK_13
100
AcDbLine
 10
325.5
 20
224.51165414
 30
0.0
 11
325.5
 21
223.21165414
 31
0.0
  0
ARC
  5
4B2
330
2
100
AcDbEntity
  8
YKK_13
100
AcDbCircle
 10
324.1068594
 20
221.76165414
 30
0.0
 40
0.3
100
AcDbArc
 50
21.40354402
 51
271.93232339
  0
LINE
  5
4B3
330
2
100
AcDbEntity
  8
YKK_13
100
AcDbLine
 10
326.2101157
 20
221.53244353
 30
0.0
 11
324.1169751
 21
221.46182474
 31
0.0
  0
LINE
  5
4B4
330
2
100
AcDbEntity
  8
YKK_13
100
AcDbLine
 10
325.32114877
 20
222.02440733
 30
0.0
 11
324.38616937
 21
221.87113446
 31
0.0
  0
ARC
  5
4B5
330
2
100
AcDbEntity
  8
YKK_13
100
AcDbCircle
 10
325.36968053
 20
221.72835891
 30
0.0
 40
0.3
100
AcDbArc
 50
42.36552597
 51
99.30979482
  0
ARC
  5
4B6
330
2
100
AcDbEntity
  8
YKK_13
100
AcDbCircle
 10
327.5
 20
223.21165414
 30
0.0
 40
2.0
100
AcDbArc
 50
180.0
 51
214.84865753
  0
LINE
  5
4B7
330
2
100
AcDbEntity
  8
YKK_13
100
AcDbLine
 10
324.85
 20
224.51165414
 30
0.0
 11
324.85
 21
226.41165414
 31
0.0
  0
LINE
  5
4B8
330
2
100
AcDbEntity
  8
YKK_13
100
AcDbLine
 10
325.6158798
 20
221.89978212
 30
0.0
 11
325.5913388
 21
221.93051629
 31
0.0
  0
ARC
  5
4B9
330
2
100
AcDbEntity
  8
YKK_13
100
AcDbCircle
 10
325.73727566
 20
221.98430742
 30
0.0
 40
0.147923900999372
100
AcDbArc
 50
214.84865753
 51
34.84865753
  0
ARC
  5
4BA
330
2
100
AcDbEntity
  8
YKK_13
100
AcDbCircle
 10
326.2
 20
229.09103535
 30
0.0
 40
0.3
100
AcDbArc
 50
0.0
 51
88.06767661
  0
ARC
  5
4BB
330
2
100
AcDbEntity
  8
YKK_13
100
AcDbCircle
 10
324.1068594
 20
229.16165414
 30
0.0
 40
0.3
100
AcDbArc
 50
88.06767661
 51
338.59645598
  0
LINE
  5
4BC
330
2
100
AcDbEntity
  8
YKK_13
100
AcDbLine
 10
326.2101157
 20
229.39086476
 30
0.0
 11
324.1169751
 21
229.46148355
 31
0.0
  0
LINE
  5
4BD
330
2
100
AcDbEntity
  8
YKK_13
100
AcDbLine
 10
325.32114877
 20
228.89890096
 30
0.0
 11
324.38616937
 21
229.05217383
 31
0.0
  0
ARC
  5
4BE
330
2
100
AcDbEntity
  8
YKK_13
100
AcDbCircle
 10
325.36968053
 20
229.19494938
 30
0.0
 40
0.3
100
AcDbArc
 50
260.69020518
 51
317.63447403
  0
ARC
  5
4BF
330
2
100
AcDbEntity
  8
YKK_13
100
AcDbCircle
 10
327.5
 20
227.71165414
 30
0.0
 40
2.0
100
AcDbArc
 50
145.15134247
 51
180.0
  0
LINE
  5
4C0
330
2
100
AcDbEntity
  8
YKK_13
100
AcDbLine
 10
325.6158798
 20
229.02352617
 30
0.0
 11
325.5913388
 21
228.992792
 31
0.0
  0
ARC
  5
4C1
330
2
100
AcDbEntity
  8
YKK_13
100
AcDbCircle
 10
325.73727566
 20
228.93900087
 30
0.0
 40
0.147923900999372
100
AcDbArc
 50
325.15134247
 51
145.15134247
  0
LINE
  5
4C2
330
2
100
AcDbEntity
  8
YKK_12
100
AcDbLine
 10
310.5
 20
191.26165414
 30
0.0
 11
310.5
 21
190.96165414
 31
0.0
  0
LINE
  5
4C3
330
2
100
AcDbEntity
  8
YKK_13
100
AcDbLine
 10
302.0
 20
166.96165414
 30
0.0
 11
284.5
 21
149.46165414
 31
0.0
  0
LINE
  5
4C4
330
2
100
AcDbEntity
  8
YKK_13
100
AcDbLine
 10
267.0
 20
166.96165414
 30
0.0
 11
284.5
 21
149.46165414
 31
0.0
  0
LINE
  5
4C5
330
2
100
AcDbEntity
  8
YKK_13
100
AcDbLine
 10
267.0
 20
166.96165414
 30
0.0
 11
284.5
 21
184.46165414
 31
0.0
  0
LINE
  5
4C6
330
2
100
AcDbEntity
  8
YKK_13
100
AcDbLine
 10
267.0
 20
166.96165414
 30
0.0
 11
252.0
 21
151.96165414
 31
0.0
  0
LINE
  5
4C7
330
2
100
AcDbEntity
  8
YKK_13
100
AcDbLine
 10
267.0
 20
166.96165414
 30
0.0
 11
252.0
 21
181.96165414
 31
0.0
  0
LINE
  5
4C8
330
2
100
AcDbEntity
  8
YKK_13
100
AcDbLine
 10
302.0
 20
166.96165414
 30
0.0
 11
284.5
 21
184.46165414
 31
0.0
  0
LINE
  5
4C9
330
2
100
AcDbEntity
  8
YKK_13
  6
YCENTER_1
 48
0.5
100
AcDbLine
 10
244.5
 20
182.46165414
 30
0.0
 11
251.5
 21
182.46165414
 31
0.0
  0
LINE
  5
4CA
330
2
100
AcDbEntity
  8
YKK_13
  6
YCENTER_1
 48
0.5
100
AcDbLine
 10
309.5
 20
182.46165414
 30
0.0
 11
302.5
 21
182.46165414
 31
0.0
  0
ARC
  5
4CB
330
2
100
AcDbEntity
  8
YKK_13
100
AcDbCircle
 10
287.4
 20
204.96165414
 30
0.0
 40
0.3
100
AcDbArc
 50
180.0
 51
270.0
  0
LINE
  5
4CC
330
2
100
AcDbEntity
  8
YKK_13
100
AcDbLine
 10
287.1
 20
204.96165414
 30
0.0
 11
287.1
 21
210.36165414
 31
0.0
  0
ARC
  5
4CD
330
2
100
AcDbEntity
  8
YKK_13
100
AcDbCircle
 10
287.4
 20
210.36165414
 30
0.0
 40
0.3
100
AcDbArc
 50
90.0
 51
180.0
  0
LINE
  5
4CE
330
2
100
AcDbEntity
  8
YKK_13
100
AcDbLine
 10
287.4
 20
210.66165414
 30
0.0
 11
288.0
 21
210.66165414
 31
0.0
  0
ARC
  5
4CF
330
2
100
AcDbEntity
  8
YKK_13
100
AcDbCircle
 10
288.0
 20
210.36165414
 30
0.0
 40
0.3
100
AcDbArc
 50
0.0
 51
90.0
  0
LINE
  5
4D0
330
2
100
AcDbEntity
  8
YKK_13
100
AcDbLine
 10
285.3
 20
206.16165414
 30
0.0
 11
287.1
 21
206.16165414
 31
0.0
  0
ARC
  5
4D1
330
2
100
AcDbEntity
  8
YKK_13
100
AcDbCircle
 10
285.3
 20
206.46165414
 30
0.0
 40
0.3
100
AcDbArc
 50
180.0
 51
270.0
  0
LINE
  5
4D2
330
2
100
AcDbEntity
  8
YKK_13
100
AcDbLine
 10
285.0
 20
208.86165414
 30
0.0
 11
285.0
 21
206.46165414
 31
0.0
  0
LINE
  5
4D3
330
2
100
AcDbEntity
  8
YKK_13
100
AcDbLine
 10
285.3
 20
209.16165414
 30
0.0
 11
287.1
 21
209.16165414
 31
0.0
  0
ARC
  5
4D4
330
2
100
AcDbEntity
  8
YKK_13
100
AcDbCircle
 10
285.3
 20
208.86165414
 30
0.0
 40
0.3
100
AcDbArc
 50
90.0
 51
180.0
  0
ARC
  5
4D5
330
2
100
AcDbEntity
  8
YKK_13
100
AcDbCircle
 10
288.0
 20
204.96165414
 30
0.0
 40
0.3
100
AcDbArc
 50
270.0
 51
0.0
  0
LINE
  5
4D6
330
2
100
AcDbEntity
  8
YKK_13
100
AcDbLine
 10
288.0
 20
204.66165414
 30
0.0
 11
287.4
 21
204.66165414
 31
0.0
  0
LINE
  5
4D7
330
2
100
AcDbEntity
  8
YKK_13
100
AcDbLine
 10
288.3
 20
210.36165414
 30
0.0
 11
288.3
 21
204.96165414
 31
0.0
  0
LINE
  5
4D8
330
2
100
AcDbEntity
  8
YKK_D
100
AcDbLine
 10
378.0
 20
79.46165414
 30
0.0
 11
176.0
 21
79.46165414
 31
0.0
  0
LINE
  5
4D9
330
2
100
AcDbEntity
  8
YKK_13
  6
Continuous
370
    -3
100
AcDbLine
 10
230.79456367
 20
227.34000689
 30
0.0
 11
230.82835275
 21
227.30621782
 31
0.0
  0
LINE
  5
4DA
330
2
100
AcDbEntity
  8
YKK_13
  6
Continuous
370
    -3
100
AcDbLine
 10
229.8
 20
226.98753215
 30
0.0
 11
230.9
 21
225.88753215
 31
0.0
  0
LINE
  5
4DB
330
2
100
AcDbEntity
  8
YKK_13
  6
Continuous
370
    -3
100
AcDbLine
 10
229.15
 20
226.29049373
 30
0.0
 11
230.9
 21
224.54049373
 31
0.0
  0
LINE
  5
4DC
330
2
100
AcDbEntity
  8
YKK_13
  6
Continuous
370
    -3
100
AcDbLine
 10
229.15
 20
224.94345531
 30
0.0
 11
229.58180117
 21
224.51165414
 31
0.0
  0
LINE
  5
4DD
330
2
100
AcDbEntity
  8
YKK_13
  6
Continuous
370
    -3
100
AcDbLine
 10
229.8
 20
224.29345531
 30
0.0
 11
230.58180117
 21
223.51165414
 31
0.0
  0
LINE
  5
4DE
330
2
100
AcDbEntity
  8
YKK_13
  6
Continuous
100
AcDbLine
 10
268.77625
 20
209.01040414
 30
0.0
 11
268.77625
 21
208.53415414
 31
0.0
  0
LINE
  5
4DF
330
2
100
AcDbEntity
  8
YKK_13
  6
Continuous
100
AcDbLine
 10
268.77625
 20
208.05790414
 30
0.0
 11
268.77625
 21
207.58165414
 31
0.0
  0
LINE
  5
4E0
330
2
100
AcDbEntity
  8
YKK_13
  6
Continuous
100
AcDbLine
 10
268.77625
 20
207.10540414
 30
0.0
 11
268.77625
 21
206.62915414
 31
0.0
  0
LINE
  5
4E1
330
2
100
AcDbEntity
  8
YKK_13
  6
Continuous
100
AcDbLine
 10
268.3
 20
209.16165414
 30
0.0
 11
268.3
 21
209.01040414
 31
0.0
  0
LINE
  5
4E2
330
2
100
AcDbEntity
  8
YKK_13
  6
Continuous
100
AcDbLine
 10
268.3
 20
208.53415414
 30
0.0
 11
268.3
 21
208.05790414
 31
0.0
  0
LINE
  5
4E3
330
2
100
AcDbEntity
  8
YKK_13
  6
Continuous
100
AcDbLine
 10
268.3
 20
207.58165414
 30
0.0
 11
268.3
 21
207.10540414
 31
0.0
  0
LINE
  5
4E4
330
2
100
AcDbEntity
  8
YKK_13
  6
Continuous
100
AcDbLine
 10
268.3
 20
206.62915414
 30
0.0
 11
268.3
 21
206.16165414
 31
0.0
  0
LINE
  5
4E5
330
2
100
AcDbEntity
  8
YKK_13
  6
Continuous
100
AcDbLine
 10
267.82375
 20
209.01040414
 30
0.0
 11
267.82375
 21
208.53415414
 31
0.0
  0
LINE
  5
4E6
330
2
100
AcDbEntity
  8
YKK_13
  6
Continuous
100
AcDbLine
 10
267.82375
 20
208.05790414
 30
0.0
 11
267.82375
 21
207.58165414
 31
0.0
  0
LINE
  5
4E7
330
2
100
AcDbEntity
  8
YKK_13
  6
Continuous
100
AcDbLine
 10
267.82375
 20
207.10540414
 30
0.0
 11
267.82375
 21
206.62915414
 31
0.0
  0
LINE
  5
4E8
330
2
100
AcDbEntity
  8
YKK_13
  6
Continuous
100
AcDbLine
 10
267.3475
 20
209.16165414
 30
0.0
 11
267.3475
 21
209.01040414
 31
0.0
  0
LINE
  5
4E9
330
2
100
AcDbEntity
  8
YKK_13
  6
Continuous
100
AcDbLine
 10
267.3475
 20
208.53415414
 30
0.0
 11
267.3475
 21
208.05790414
 31
0.0
  0
LINE
  5
4EA
330
2
100
AcDbEntity
  8
YKK_13
  6
Continuous
100
AcDbLine
 10
267.3475
 20
207.58165414
 30
0.0
 11
267.3475
 21
207.10540414
 31
0.0
  0
LINE
  5
4EB
330
2
100
AcDbEntity
  8
YKK_13
  6
Continuous
100
AcDbLine
 10
267.3475
 20
206.62915414
 30
0.0
 11
267.3475
 21
206.16165414
 31
0.0
  0
LINE
  5
4EC
330
2
100
AcDbEntity
  8
YKK_D
100
AcDbLine
 10
268.5
 20
118.46165414
 30
0.0
 11
268.5
 21
98.46165414
 31
0.0
  0
LINE
  5
4ED
330
2
100
AcDbEntity
  8
YKK_D
100
AcDbLine
 10
263.5
 20
99.46165414
 30
0.0
 11
176.0
 21
99.46165414
 31
0.0
  0
LINE
  5
4EE
330
2
100
AcDbEntity
  8
YKK_D
100
AcDbLine
 10
268.5
 20
118.46165414
 30
0.0
 11
268.5
 21
98.46165414
 31
0.0
  0
LINE
  5
4EF
330
2
100
AcDbEntity
  8
YKK_D
100
AcDbLine
 10
285.5
 20
118.46165414
 30
0.0
 11
285.5
 21
98.46165414
 31
0.0
  0
LINE
  5
4F0
330
2
100
AcDbEntity
  8
YKK_D
100
AcDbLine
 10
268.5
 20
99.46165414
 30
0.0
 11
285.5
 21
99.46165414
 31
0.0
  0
LINE
  5
4F1
330
2
100
AcDbEntity
  8
YKK_13
  6
Continuous
100
AcDbLine
 10
269.0
 20
237.56165414
 30
0.0
 11
269.0
 21
200.76165414
 31
0.0
  0
ARC
  5
4F2
330
2
100
AcDbEntity
  8
YKK_13
  6
Continuous
100
AcDbCircle
 10
270.6
 20
200.76165414
 30
0.0
 40
1.599999999999852
100
AcDbArc
 50
180.0
 51
270.0
  0
LINE
  5
4F3
330
2
100
AcDbEntity
  8
YKK_13
  6
Continuous
100
AcDbLine
 10
270.6
 20
199.16165414
 30
0.0
 11
283.4
 21
199.16165414
 31
0.0
  0
ARC
  5
4F4
330
2
100
AcDbEntity
  8
YKK_13
  6
Continuous
100
AcDbCircle
 10
283.4
 20
200.76165414
 30
0.0
 40
1.599999999999909
100
AcDbArc
 50
270.0
 51
360.0
  0
LINE
  5
4F5
330
2
100
AcDbEntity
  8
YKK_13
  6
Continuous
100
AcDbLine
 10
285.0
 20
200.76165414
 30
0.0
 11
285.0
 21
237.56165414
 31
0.0
  0
ARC
  5
4F6
330
2
100
AcDbEntity
  8
YKK_13
  6
Continuous
100
AcDbCircle
 10
283.4
 20
237.56165414
 30
0.0
 40
1.599999999999852
100
AcDbArc
 50
360.0
 51
90.0
  0
LINE
  5
4F7
330
2
100
AcDbEntity
  8
YKK_13
  6
Continuous
100
AcDbLine
 10
283.4
 20
239.16165414
 30
0.0
 11
270.6
 21
239.16165414
 31
0.0
  0
ARC
  5
4F8
330
2
100
AcDbEntity
  8
YKK_13
  6
Continuous
100
AcDbCircle
 10
270.6
 20
237.56165414
 30
0.0
 40
1.599999999999909
100
AcDbArc
 50
90.0
 51
180.0
  0
LINE
  5
4F9
330
2
100
AcDbEntity
  8
YKK_13
  6
Continuous
100
AcDbLine
 10
269.0
 20
230.62121481
 30
0.0
 11
270.6
 21
232.22121481
 31
0.0
  0
LINE
  5
4FA
330
2
100
AcDbEntity
  8
YKK_13
  6
Continuous
100
AcDbLine
 10
275.94043933
 20
237.56165414
 30
0.0
 11
277.54043933
 21
239.16165414
 31
0.0
  0
LINE
  5
4FB
330
2
100
AcDbEntity
  8
YKK_13
  6
Continuous
100
AcDbLine
 10
269.0
 20
216.47907919
 30
0.0
 11
270.6
 21
218.07907919
 31
0.0
  0
LINE
  5
4FC
330
2
100
AcDbEntity
  8
YKK_13
  6
Continuous
100
AcDbLine
 10
283.4
 20
230.87907919
 30
0.0
 11
285.0
 21
232.47907919
 31
0.0
  0
LINE
  5
4FD
330
2
100
AcDbEntity
  8
YKK_13
  6
Continuous
100
AcDbLine
 10
269.0
 20
202.33694357
 30
0.0
 11
270.6
 21
203.93694357
 31
0.0
  0
LINE
  5
4FE
330
2
100
AcDbEntity
  8
YKK_13
  6
Continuous
100
AcDbLine
 10
283.4
 20
216.73694357
 30
0.0
 11
285.0
 21
218.33694357
 31
0.0
  0
LINE
  5
4FF
330
2
100
AcDbEntity
  8
YKK_13
  6
Continuous
100
AcDbLine
 10
279.9668462
 20
199.16165414
 30
0.0
 11
281.5668462
 21
200.76165414
 31
0.0
  0
LINE
  5
500
330
2
100
AcDbEntity
  8
YKK_13
  6
Continuous
100
AcDbLine
 10
283.4
 20
202.59480794
 30
0.0
 11
285.0
 21
204.19480794
 31
0.0
  0
LINE
  5
501
330
2
100
AcDbEntity
  8
YKK_13
  6
Continuous
100
AcDbLine
 10
269.0
 20
229.62121481
 30
0.0
 11
270.6
 21
231.22121481
 31
0.0
  0
LINE
  5
502
330
2
100
AcDbEntity
  8
YKK_13
  6
Continuous
100
AcDbLine
 10
276.94043933
 20
237.56165414
 30
0.0
 11
278.54043933
 21
239.16165414
 31
0.0
  0
LINE
  5
503
330
2
100
AcDbEntity
  8
YKK_13
  6
Continuous
100
AcDbLine
 10
269.0
 20
215.47907919
 30
0.0
 11
270.6
 21
217.07907919
 31
0.0
  0
LINE
  5
504
330
2
100
AcDbEntity
  8
YKK_13
  6
Continuous
100
AcDbLine
 10
283.4
 20
229.87907919
 30
0.0
 11
285.0
 21
231.47907919
 31
0.0
  0
LINE
  5
505
330
2
100
AcDbEntity
  8
YKK_13
  6
Continuous
100
AcDbLine
 10
269.0
 20
201.33694357
 30
0.0
 11
270.6
 21
202.93694357
 31
0.0
  0
LINE
  5
506
330
2
100
AcDbEntity
  8
YKK_13
  6
Continuous
100
AcDbLine
 10
283.4
 20
215.73694357
 30
0.0
 11
285.0
 21
217.33694357
 31
0.0
  0
LINE
  5
507
330
2
100
AcDbEntity
  8
YKK_13
  6
Continuous
100
AcDbLine
 10
280.9668462
 20
199.16165414
 30
0.0
 11
282.5668462
 21
200.76165414
 31
0.0
  0
LINE
  5
508
330
2
100
AcDbEntity
  8
YKK_13
  6
Continuous
100
AcDbLine
 10
283.4
 20
201.59480794
 30
0.0
 11
285.0
 21
203.19480794
 31
0.0
  0
LINE
  5
509
330
2
100
AcDbEntity
  8
YKK_13
  6
Continuous
100
AcDbLine
 10
270.6
 20
237.56165414
 30
0.0
 11
270.6
 21
200.76165414
 31
0.0
  0
LINE
  5
50A
330
2
100
AcDbEntity
  8
YKK_13
  6
Continuous
100
AcDbLine
 10
270.6
 20
200.76165414
 30
0.0
 11
283.4
 21
200.76165414
 31
0.0
  0
LINE
  5
50B
330
2
100
AcDbEntity
  8
YKK_13
  6
Continuous
100
AcDbLine
 10
283.4
 20
200.76165414
 30
0.0
 11
283.4
 21
237.56165414
 31
0.0
  0
LINE
  5
50C
330
2
100
AcDbEntity
  8
YKK_13
  6
Continuous
100
AcDbLine
 10
283.4
 20
237.56165414
 30
0.0
 11
270.6
 21
237.56165414
 31
0.0
  0
LINE
  5
50D
330
2
100
AcDbEntity
  8
YKK_D
100
AcDbLine
 10
280.5
 20
261.46165414
 30
0.0
 11
280.5
 21
280.46165414
 31
0.0
  0
LINE
  5
50E
330
2
100
AcDbEntity
  8
YKK_D
100
AcDbLine
 10
273.5
 20
261.46165414
 30
0.0
 11
273.5
 21
280.46165414
 31
0.0
  0
LINE
  5
50F
330
2
100
AcDbEntity
  8
YKK_D
100
AcDbLine
 10
280.5
 20
279.46165414
 30
0.0
 11
273.5
 21
279.46165414
 31
0.0
  0
LINE
  5
510
330
2
100
AcDbEntity
  8
YKK_D
100
AcDbLine
 10
277.0
 20
279.46165414
 30
0.0
 11
288.29261364
 21
299.46165414
 31
0.0
  0
LINE
  5
511
330
2
100
AcDbEntity
  8
YKK_D
100
AcDbLine
 10
288.29261364
 20
299.46165414
 30
0.0
 11
301.18522727
 21
299.46165414
 31
0.0
  0
LINE
  5
512
330
2
100
AcDbEntity
  8
YKK_D
100
AcDbLine
 10
273.5
 20
261.46165414
 30
0.0
 11
273.5
 21
280.46165414
 31
0.0
  0
LINE
  5
513
330
2
100
AcDbEntity
  8
YKK_D
100
AcDbLine
 10
247.5
 20
261.46165414
 30
0.0
 11
247.5
 21
280.46165414
 31
0.0
  0
LINE
  5
514
330
2
100
AcDbEntity
  8
YKK_D
100
AcDbLine
 10
273.5
 20
279.46165414
 30
0.0
 11
247.5
 21
279.46165414
 31
0.0
  0
LINE
  5
515
330
2
100
AcDbEntity
  8
YKK_D
100
AcDbLine
 10
280.5
 20
261.46165414
 30
0.0
 11
280.5
 21
280.46165414
 31
0.0
  0
LINE
  5
516
330
2
100
AcDbEntity
  8
YKK_D
100
AcDbLine
 10
306.5
 20
261.46165414
 30
0.0
 11
306.5
 21
280.46165414
 31
0.0
  0
LINE
  5
517
330
2
100
AcDbEntity
  8
YKK_D
100
AcDbLine
 10
280.5
 20
279.46165414
 30
0.0
 11
306.5
 21
279.46165414
 31
0.0
  0
LINE
  5
518
330
2
100
AcDbEntity
  8
YKK_D
100
AcDbLine
 10
247.5
 20
261.46165414
 30
0.0
 11
247.5
 21
280.46165414
 31
0.0
  0
LINE
  5
519
330
2
100
AcDbEntity
  8
YKK_D
100
AcDbLine
 10
227.5
 20
261.46165414
 30
0.0
 11
227.5
 21
280.46165414
 31
0.0
  0
LINE
  5
51A
330
2
100
AcDbEntity
  8
YKK_D
100
AcDbLine
 10
247.5
 20
279.46165414
 30
0.0
 11
227.5
 21
279.46165414
 31
0.0
  0
LINE
  5
51B
330
2
100
AcDbEntity
  8
YKK_D
100
AcDbLine
 10
306.5
 20
261.46165414
 30
0.0
 11
306.5
 21
280.46165414
 31
0.0
  0
LINE
  5
51C
330
2
100
AcDbEntity
  8
YKK_D
100
AcDbLine
 10
326.5
 20
261.46165414
 30
0.0
 11
326.5
 21
280.46165414
 31
0.0
  0
LINE
  5
51D
330
2
100
AcDbEntity
  8
YKK_D
100
AcDbLine
 10
306.5
 20
279.46165414
 30
0.0
 11
326.5
 21
279.46165414
 31
0.0
  0
LINE
  5
51E
330
2
100
AcDbEntity
  8
YKK_D
100
AcDbLine
 10
326.5
 20
261.46165414
 30
0.0
 11
326.5
 21
320.46165414
 31
0.0
  0
LINE
  5
51F
330
2
100
AcDbEntity
  8
YKK_D
100
AcDbLine
 10
227.5
 20
261.46165414
 30
0.0
 11
227.5
 21
320.46165414
 31
0.0
  0
LINE
  5
520
330
2
100
AcDbEntity
  8
YKK_D
100
AcDbLine
 10
326.5
 20
319.46165414
 30
0.0
 11
227.5
 21
319.46165414
 31
0.0
  0
LINE
  5
521
330
2
100
AcDbEntity
  8
YKK_D
100
AcDbLine
 10
247.0
 20
137.46165414
 30
0.0
 11
247.0
 21
118.46165414
 31
0.0
  0
LINE
  5
522
330
2
100
AcDbEntity
  8
YKK_D
100
AcDbLine
 10
307.0
 20
137.46165414
 30
0.0
 11
307.0
 21
118.46165414
 31
0.0
  0
LINE
  5
523
330
2
100
AcDbEntity
  8
YKK_D
100
AcDbLine
 10
247.0
 20
119.46165414
 30
0.0
 11
307.0
 21
119.46165414
 31
0.0
  0
LINE
  5
524
330
2
100
AcDbEntity
  8
YKK_D
100
AcDbLine
 10
230.5
 20
137.46165414
 30
0.0
 11
230.5
 21
118.46165414
 31
0.0
  0
LINE
  5
525
330
2
100
AcDbEntity
  8
YKK_D
100
AcDbLine
 10
247.0
 20
137.46165414
 30
0.0
 11
247.0
 21
118.46165414
 31
0.0
  0
LINE
  5
526
330
2
100
AcDbEntity
  8
YKK_D
100
AcDbLine
 10
247.0
 20
119.46165414
 30
0.0
 11
230.5
 21
119.46165414
 31
0.0
  0
LINE
  5
527
330
2
100
AcDbEntity
  8
YKK_D
100
AcDbLine
 10
230.5
 20
119.46165414
 30
0.0
 11
200.53238636
 21
119.46165414
 31
0.0
  0
LINE
  5
528
330
2
100
AcDbEntity
  8
YKK_13
  6
Continuous
370
    -3
100
AcDbLine
 10
323.66856727
 20
227.41165414
 30
0.0
 11
324.2
 21
226.88022142
 31
0.0
  0
LINE
  5
529
330
2
100
AcDbEntity
  8
YKK_13
  6
Continuous
370
    -3
100
AcDbLine
 10
324.66856727
 20
226.41165414
 30
0.0
 11
324.85
 21
226.23022142
 31
0.0
  0
LINE
  5
52A
330
2
100
AcDbEntity
  8
YKK_13
  6
Continuous
370
    -3
100
AcDbLine
 10
323.1
 20
226.633183
 30
0.0
 11
324.85
 21
224.883183
 31
0.0
  0
LINE
  5
52B
330
2
100
AcDbEntity
  8
YKK_13
  6
Continuous
370
    -3
100
AcDbLine
 10
323.1
 20
225.28614458
 30
0.0
 11
324.2
 21
224.18614458
 31
0.0
  0
LINE
  5
52C
330
2
100
AcDbEntity
  8
YKK_13
  6
Continuous
370
    -3
100
AcDbLine
 10
323.1
 20
223.93910616
 30
0.0
 11
323.52745202
 21
223.51165414
 31
0.0
  0
LINE
  5
52D
330
2
100
AcDbEntity
  8
YKK_D
100
AcDbLine
 10
285.5
 20
118.46165414
 30
0.0
 11
285.5
 21
98.46165414
 31
0.0
  0
LINE
  5
52E
330
2
100
AcDbEntity
  8
YKK_D
100
AcDbLine
 10
290.5
 20
99.46165414
 30
0.0
 11
378.0
 21
99.46165414
 31
0.0
  0
LINE
  5
52F
330
2
100
AcDbEntity
  8
YKK_D
100
AcDbLine
 10
323.5
 20
137.46165414
 30
0.0
 11
323.5
 21
118.46165414
 31
0.0
  0
LINE
  5
530
330
2
100
AcDbEntity
  8
YKK_D
100
AcDbLine
 10
307.0
 20
137.46165414
 30
0.0
 11
307.0
 21
118.46165414
 31
0.0
  0
LINE
  5
531
330
2
100
AcDbEntity
  8
YKK_D
100
AcDbLine
 10
307.0
 20
119.46165414
 30
0.0
 11
323.5
 21
119.46165414
 31
0.0
  0
LINE
  5
532
330
2
100
AcDbEntity
  8
YKK_D
100
AcDbLine
 10
323.5
 20
119.46165414
 30
0.0
 11
353.46761364
 21
119.46165414
 31
0.0
  0
LINE
  5
533
330
2
100
AcDbEntity
  8
YKK_13
370
    -2
100
AcDbLine
 10
302.0
 20
149.46165414
 30
0.0
 11
252.0
 21
149.46165414
 31
0.0
  0
LINE
  5
534
330
2
100
AcDbEntity
  8
YKK_13
370
    -2
100
AcDbLine
 10
252.0
 20
149.46165414
 30
0.0
 11
252.0
 21
184.46165414
 31
0.0
  0
LINE
  5
535
330
2
100
AcDbEntity
  8
YKK_13
370
    -2
100
AcDbLine
 10
252.0
 20
184.46165414
 30
0.0
 11
302.0
 21
184.46165414
 31
0.0
  0
LINE
  5
536
330
2
100
AcDbEntity
  8
YKK_13
370
    -2
100
AcDbLine
 10
302.0
 20
184.46165414
 30
0.0
 11
302.0
 21
149.46165414
 31
0.0
  0
TEXT
  5
537
330
2
100
AcDbEntity
  8
USER1
100
AcDbText
 10
175.04518584
 20
342.19291736
 30
0.0
 40
7.5
  1
●FIX窓+FIX窓
100
AcDbText
  0
LINE
  5
538
330
2
100
AcDbEntity
  8
YKK_13
  6
Continuous
100
AcDbLine
 10
286.87375
 20
209.01040414
 30
0.0
 11
286.87375
 21
208.53415414
 31
0.0
  0
LINE
  5
539
330
2
100
AcDbEntity
  8
YKK_13
  6
Continuous
100
AcDbLine
 10
286.87375
 20
208.05790414
 30
0.0
 11
286.87375
 21
207.58165414
 31
0.0
  0
LINE
  5
53A
330
2
100
AcDbEntity
  8
YKK_13
  6
Continuous
100
AcDbLine
 10
286.87375
 20
207.10540414
 30
0.0
 11
286.87375
 21
206.62915414
 31
0.0
  0
LINE
  5
53B
330
2
100
AcDbEntity
  8
YKK_13
  6
Continuous
100
AcDbLine
 10
286.3975
 20
209.16165414
 30
0.0
 11
286.3975
 21
209.01040414
 31
0.0
  0
LINE
  5
53C
330
2
100
AcDbEntity
  8
YKK_13
  6
Continuous
100
AcDbLine
 10
286.3975
 20
208.53415414
 30
0.0
 11
286.3975
 21
208.05790414
 31
0.0
  0
LINE
  5
53D
330
2
100
AcDbEntity
  8
YKK_13
  6
Continuous
100
AcDbLine
 10
286.3975
 20
207.58165414
 30
0.0
 11
286.3975
 21
207.10540414
 31
0.0
  0
LINE
  5
53E
330
2
100
AcDbEntity
  8
YKK_13
  6
Continuous
100
AcDbLine
 10
286.3975
 20
206.62915414
 30
0.0
 11
286.3975
 21
206.16165414
 31
0.0
  0
LINE
  5
53F
330
2
100
AcDbEntity
  8
YKK_13
  6
Continuous
100
AcDbLine
 10
285.92125
 20
209.01040414
 30
0.0
 11
285.92125
 21
208.53415414
 31
0.0
  0
LINE
  5
540
330
2
100
AcDbEntity
  8
YKK_13
  6
Continuous
100
AcDbLine
 10
285.92125
 20
208.05790414
 30
0.0
 11
285.92125
 21
207.58165414
 31
0.0
  0
LINE
  5
541
330
2
100
AcDbEntity
  8
YKK_13
  6
Continuous
100
AcDbLine
 10
285.92125
 20
207.10540414
 30
0.0
 11
285.92125
 21
206.62915414
 31
0.0
  0
LINE
  5
542
330
2
100
AcDbEntity
  8
YKK_13
  6
Continuous
100
AcDbLine
 10
285.445
 20
209.16165414
 30
0.0
 11
285.445
 21
209.01040414
 31
0.0
  0
LINE
  5
543
330
2
100
AcDbEntity
  8
YKK_13
  6
Continuous
100
AcDbLine
 10
285.445
 20
208.53415414
 30
0.0
 11
285.445
 21
208.05790414
 31
0.0
  0
LINE
  5
544
330
2
100
AcDbEntity
  8
YKK_13
  6
Continuous
100
AcDbLine
 10
285.445
 20
207.58165414
 30
0.0
 11
285.445
 21
207.10540414
 31
0.0
  0
LINE
  5
545
330
2
100
AcDbEntity
  8
YKK_13
  6
Continuous
100
AcDbLine
 10
285.445
 20
206.62915414
 30
0.0
 11
285.445
 21
206.16165414
 31
0.0
  0
TEXT
  5
546
330
2
100
AcDbEntity
  8
YKK_D
100
AcDbText
 10
272.95170455
 20
80.26165414
 30
0.0
 40
7.5
  1
W
  7
text-b
100
AcDbText
  0
LINE
  5
547
330
2
100
AcDbEntity
  8
YKK_11
  6
ByBlock
 48
0.5
370
    -2
100
AcDbLine
 10
230.5
 20
209.26165414
 30
0.0
 11
230.5
 21
189.46165414
 31
0.0
  0
LINE
  5
548
330
2
100
AcDbEntity
  8
YKK_11
  6
ByBlock
 48
0.5
370
    -2
100
AcDbLine
 10
230.5
 20
189.46165414
 30
0.0
 11
243.5
 21
189.46165414
 31
0.0
  0
LINE
  5
549
330
2
100
AcDbEntity
  8
YKK_11
  6
ByBlock
 48
0.5
370
    -2
100
AcDbLine
 10
243.5
 20
189.46165414
 30
0.0
 11
243.5
 21
192.46165414
 31
0.0
  0
LINE
  5
54A
330
2
100
AcDbEntity
  8
YKK_11
  6
ByBlock
 48
0.5
370
    -2
100
AcDbLine
 10
243.5
 20
192.46165414
 30
0.0
 11
245.0
 21
192.46165414
 31
0.0
  0
LINE
  5
54B
330
2
100
AcDbEntity
  8
YKK_11
  6
ByBlock
 48
0.5
370
    -2
100
AcDbLine
 10
245.0
 20
192.46165414
 30
0.0
 11
245.2
 21
192.26165414
 31
0.0
  0
LINE
  5
54C
330
2
100
AcDbEntity
  8
YKK_11
  6
ByBlock
 48
0.5
370
    -2
100
AcDbLine
 10
245.2
 20
192.26165414
 30
0.0
 11
245.65
 21
192.00184614
 31
0.0
  0
LINE
  5
54D
330
2
100
AcDbEntity
  8
YKK_11
  6
ByBlock
 48
0.5
370
    -2
100
AcDbLine
 10
245.65
 20
192.00184614
 30
0.0
 11
247.0
 21
192.78126977
 31
0.0
  0
LINE
  5
54E
330
2
100
AcDbEntity
  8
YKK_11
  6
ByBlock
 48
0.5
370
    -2
100
AcDbLine
 10
247.0
 20
192.78126977
 30
0.0
 11
247.0
 21
193.26165414
 31
0.0
  0
LINE
  5
54F
330
2
100
AcDbEntity
  8
YKK_11
  6
ByBlock
 48
0.5
370
    -2
100
AcDbLine
 10
247.0
 20
193.26165414
 30
0.0
 11
242.7
 21
193.26165414
 31
0.0
  0
LINE
  5
550
330
2
100
AcDbEntity
  8
YKK_11
  6
ByBlock
 48
0.5
370
    -2
100
AcDbLine
 10
242.7
 20
193.26165414
 30
0.0
 11
242.7
 21
190.26165414
 31
0.0
  0
LINE
  5
551
330
2
100
AcDbEntity
  8
YKK_11
  6
ByBlock
 48
0.5
370
    -2
100
AcDbLine
 10
242.7
 20
190.26165414
 30
0.0
 11
232.0
 21
190.26165414
 31
0.0
  0
LINE
  5
552
330
2
100
AcDbEntity
  8
YKK_11
  6
ByBlock
 48
0.5
370
    -2
100
AcDbLine
 10
232.0
 20
190.26165414
 30
0.0
 11
232.0
 21
207.86165414
 31
0.0
  0
LINE
  5
553
330
2
100
AcDbEntity
  8
YKK_11
  6
ByBlock
 48
0.5
370
    -2
100
AcDbLine
 10
232.0
 20
207.86165414
 30
0.0
 11
241.9
 21
207.86165414
 31
0.0
  0
LINE
  5
554
330
2
100
AcDbEntity
  8
YKK_11
  6
ByBlock
 48
0.5
370
    -2
100
AcDbLine
 10
241.9
 20
207.86165414
 30
0.0
 11
241.9
 21
204.86165414
 31
0.0
  0
LINE
  5
555
330
2
100
AcDbEntity
  8
YKK_11
  6
ByBlock
 48
0.5
370
    -2
100
AcDbLine
 10
241.9
 20
204.86165414
 30
0.0
 11
247.0
 21
204.86165414
 31
0.0
  0
LINE
  5
556
330
2
100
AcDbEntity
  8
YKK_11
  6
ByBlock
 48
0.5
370
    -2
100
AcDbLine
 10
247.0
 20
204.86165414
 30
0.0
 11
247.0
 21
205.76883414
 31
0.0
  0
LINE
  5
557
330
2
100
AcDbEntity
  8
YKK_11
  6
ByBlock
 48
0.5
370
    -2
100
AcDbLine
 10
247.0
 20
205.76883414
 30
0.0
 11
245.4
 21
206.69259414
 31
0.0
  0
LINE
  5
558
330
2
100
AcDbEntity
  8
YKK_11
  6
ByBlock
 48
0.5
370
    -2
100
AcDbLine
 10
245.4
 20
206.69259414
 30
0.0
 11
245.2
 21
206.57712414
 31
0.0
  0
LINE
  5
559
330
2
100
AcDbEntity
  8
YKK_11
  6
ByBlock
 48
0.5
370
    -2
100
AcDbLine
 10
245.2
 20
206.57712414
 30
0.0
 11
245.2
 21
205.66165414
 31
0.0
  0
LINE
  5
55A
330
2
100
AcDbEntity
  8
YKK_11
  6
ByBlock
 48
0.5
370
    -2
100
AcDbLine
 10
245.2
 20
205.66165414
 30
0.0
 11
242.7
 21
205.66165414
 31
0.0
  0
LINE
  5
55B
330
2
100
AcDbEntity
  8
YKK_11
  6
ByBlock
 48
0.5
370
    -2
100
AcDbLine
 10
242.7
 20
205.66165414
 30
0.0
 11
242.7
 21
208.66165414
 31
0.0
  0
LINE
  5
55C
330
2
100
AcDbEntity
  8
YKK_11
  6
ByBlock
 48
0.5
370
    -2
100
AcDbLine
 10
242.7
 20
208.66165414
 30
0.0
 11
232.3
 21
208.66165414
 31
0.0
  0
LINE
  5
55D
330
2
100
AcDbEntity
  8
YKK_11
  6
ByBlock
 48
0.5
370
    -2
100
AcDbLine
 10
232.3
 20
208.66165414
 30
0.0
 11
232.0
 21
208.96165414
 31
0.0
  0
LINE
  5
55E
330
2
100
AcDbEntity
  8
YKK_11
  6
ByBlock
 48
0.5
370
    -2
100
AcDbLine
 10
232.0
 20
208.96165414
 30
0.0
 11
231.7
 21
209.26165414
 31
0.0
  0
LINE
  5
55F
330
2
100
AcDbEntity
  8
YKK_11
  6
ByBlock
 48
0.5
370
    -2
100
AcDbLine
 10
231.7
 20
209.26165414
 30
0.0
 11
230.5
 21
209.26165414
 31
0.0
  0
LINE
  5
560
330
2
100
AcDbEntity
  8
YKK_11
  6
ByBlock
 48
0.5
370
    -2
100
AcDbLine
 10
306.5
 20
259.46165414
 30
0.0
 11
306.5
 21
228.86165414
 31
0.0
  0
LINE
  5
561
330
2
100
AcDbEntity
  8
YKK_11
  6
ByBlock
 48
0.5
370
    -2
100
AcDbLine
 10
306.5
 20
228.86165414
 30
0.0
 11
325.5
 21
228.86165414
 31
0.0
  0
LINE
  5
562
330
2
100
AcDbEntity
  8
YKK_11
  6
ByBlock
 48
0.5
370
    -2
100
AcDbLine
 10
325.5
 20
228.86165414
 30
0.0
 11
325.5
 21
227.16165414
 31
0.0
  0
LINE
  5
563
330
2
100
AcDbEntity
  8
YKK_11
  6
ByBlock
 48
0.5
370
    -2
100
AcDbLine
 10
325.5
 20
227.16165414
 30
0.0
 11
325.0
 21
226.66165414
 31
0.0
  0
LINE
  5
564
330
2
100
AcDbEntity
  8
YKK_11
  6
ByBlock
 48
0.5
370
    -2
100
AcDbLine
 10
325.0
 20
226.66165414
 30
0.0
 11
324.7
 21
226.96165414
 31
0.0
  0
LINE
  5
565
330
2
100
AcDbEntity
  8
YKK_11
  6
ByBlock
 48
0.5
370
    -2
100
AcDbLine
 10
324.7
 20
226.96165414
 30
0.0
 11
324.7
 21
227.76165414
 31
0.0
  0
LINE
  5
566
330
2
100
AcDbEntity
  8
YKK_11
  6
ByBlock
 48
0.5
370
    -2
100
AcDbLine
 10
324.7
 20
227.76165414
 30
0.0
 11
322.8
 21
227.76165414
 31
0.0
  0
LINE
  5
567
330
2
100
AcDbEntity
  8
YKK_11
  6
ByBlock
 48
0.5
370
    -2
100
AcDbLine
 10
322.8
 20
227.76165414
 30
0.0
 11
322.8
 21
223.16165414
 31
0.0
  0
LINE
  5
568
330
2
100
AcDbEntity
  8
YKK_11
  6
ByBlock
 48
0.5
370
    -2
100
AcDbLine
 10
322.8
 20
223.16165414
 30
0.0
 11
324.7
 21
223.16165414
 31
0.0
  0
LINE
  5
569
330
2
100
AcDbEntity
  8
YKK_11
  6
ByBlock
 48
0.5
370
    -2
100
AcDbLine
 10
324.7
 20
223.16165414
 30
0.0
 11
324.7
 21
223.96165414
 31
0.0
  0
LINE
  5
56A
330
2
100
AcDbEntity
  8
YKK_11
  6
ByBlock
 48
0.5
370
    -2
100
AcDbLine
 10
324.7
 20
223.96165414
 30
0.0
 11
325.0
 21
224.26165414
 31
0.0
  0
LINE
  5
56B
330
2
100
AcDbEntity
  8
YKK_11
  6
ByBlock
 48
0.5
370
    -2
100
AcDbLine
 10
325.0
 20
224.26165414
 30
0.0
 11
325.5
 21
223.76165414
 31
0.0
  0
LINE
  5
56C
330
2
100
AcDbEntity
  8
YKK_11
  6
ByBlock
 48
0.5
370
    -2
100
AcDbLine
 10
325.5
 20
223.76165414
 30
0.0
 11
325.5
 21
222.06165414
 31
0.0
  0
LINE
  5
56D
330
2
100
AcDbEntity
  8
YKK_11
  6
ByBlock
 48
0.5
370
    -2
100
AcDbLine
 10
325.5
 20
222.06165414
 30
0.0
 11
321.6
 21
222.06165414
 31
0.0
  0
LINE
  5
56E
330
2
100
AcDbEntity
  8
YKK_11
  6
ByBlock
 48
0.5
370
    -2
100
AcDbLine
 10
321.6
 20
222.06165414
 30
0.0
 11
321.6
 21
227.36165414
 31
0.0
  0
LINE
  5
56F
330
2
100
AcDbEntity
  8
YKK_11
  6
ByBlock
 48
0.5
370
    -2
100
AcDbLine
 10
321.6
 20
227.36165414
 30
0.0
 11
306.5
 21
227.36165414
 31
0.0
  0
LINE
  5
570
330
2
100
AcDbEntity
  8
YKK_11
  6
ByBlock
 48
0.5
370
    -2
100
AcDbLine
 10
306.5
 20
227.36165414
 30
0.0
 11
306.5
 21
208.66165414
 31
0.0
  0
LINE
  5
571
330
2
100
AcDbEntity
  8
YKK_11
  6
ByBlock
 48
0.5
370
    -2
100
AcDbLine
 10
306.5
 20
208.66165414
 30
0.0
 11
310.5
 21
208.66165414
 31
0.0
  0
LINE
  5
572
330
2
100
AcDbEntity
  8
YKK_11
  6
ByBlock
 48
0.5
370
    -2
100
AcDbLine
 10
310.5
 20
208.66165414
 30
0.0
 11
310.5
 21
206.30806481
 31
0.0
  0
LINE
  5
573
330
2
100
AcDbEntity
  8
YKK_11
  6
ByBlock
 48
0.5
370
    -2
100
AcDbLine
 10
310.5
 20
206.30806481
 30
0.0
 11
309.30000033
 21
205.61524367
 31
0.0
  0
LINE
  5
574
330
2
100
AcDbEntity
  8
YKK_11
  6
ByBlock
 48
0.5
370
    -2
100
AcDbLine
 10
309.30000033
 20
205.61524367
 30
0.0
 11
309.0
 21
205.78844919
 31
0.0
  0
LINE
  5
575
330
2
100
AcDbEntity
  8
YKK_11
  6
ByBlock
 48
0.5
370
    -2
100
AcDbLine
 10
309.0
 20
205.78844919
 30
0.0
 11
309.0
 21
207.16165414
 31
0.0
  0
LINE
  5
576
330
2
100
AcDbEntity
  8
YKK_11
  6
ByBlock
 48
0.5
370
    -2
100
AcDbLine
 10
309.0
 20
207.16165414
 30
0.0
 11
306.5
 21
207.16165414
 31
0.0
  0
LINE
  5
577
330
2
100
AcDbEntity
  8
YKK_11
  6
ByBlock
 48
0.5
370
    -2
100
AcDbLine
 10
306.5
 20
207.16165414
 30
0.0
 11
306.5
 21
190.96165414
 31
0.0
  0
LINE
  5
578
330
2
100
AcDbEntity
  8
YKK_11
  6
ByBlock
 48
0.5
370
    -2
100
AcDbLine
 10
306.5
 20
190.96165414
 30
0.0
 11
309.0
 21
190.96165414
 31
0.0
  0
LINE
  5
579
330
2
100
AcDbEntity
  8
YKK_11
  6
ByBlock
 48
0.5
370
    -2
100
AcDbLine
 10
309.0
 20
190.96165414
 30
0.0
 11
309.0
 21
192.33485948
 31
0.0
  0
LINE
  5
57A
330
2
100
AcDbEntity
  8
YKK_11
  6
ByBlock
 48
0.5
370
    -2
100
AcDbLine
 10
309.0
 20
192.33485948
 30
0.0
 11
309.3
 21
192.50806481
 31
0.0
  0
LINE
  5
57B
330
2
100
AcDbEntity
  8
YKK_11
  6
ByBlock
 48
0.5
370
    -2
100
AcDbLine
 10
309.3
 20
192.50806481
 30
0.0
 11
310.5
 21
191.81524348
 31
0.0
  0
LINE
  5
57C
330
2
100
AcDbEntity
  8
YKK_11
  6
ByBlock
 48
0.5
370
    -2
100
AcDbLine
 10
310.5
 20
191.81524348
 30
0.0
 11
310.5
 21
189.46165414
 31
0.0
  0
LINE
  5
57D
330
2
100
AcDbEntity
  8
YKK_11
  6
ByBlock
 48
0.5
370
    -2
100
AcDbLine
 10
310.5
 20
189.46165414
 30
0.0
 11
295.47082
 21
189.46165414
 31
0.0
  0
LINE
  5
57E
330
2
100
AcDbEntity
  8
YKK_11
  6
ByBlock
 48
0.5
370
    -2
100
AcDbLine
 10
295.47082
 20
189.46165414
 30
0.0
 11
295.279157
 21
189.60451114
 31
0.0
  0
LINE
  5
57F
330
2
100
AcDbEntity
  8
YKK_11
  6
ByBlock
 48
0.5
370
    -2
100
AcDbLine
 10
295.279157
 20
189.60451114
 30
0.0
 11
294.320843
 21
189.60451114
 31
0.0
  0
LINE
  5
580
330
2
100
AcDbEntity
  8
YKK_11
  6
ByBlock
 48
0.5
370
    -2
100
AcDbLine
 10
294.320843
 20
189.60451114
 30
0.0
 11
294.12918
 21
189.46165414
 31
0.0
  0
LINE
  5
581
330
2
100
AcDbEntity
  8
YKK_11
  6
ByBlock
 48
0.5
370
    -2
100
AcDbLine
 10
294.12918
 20
189.46165414
 30
0.0
 11
288.3
 21
189.46165414
 31
0.0
  0
LINE
  5
582
330
2
100
AcDbEntity
  8
YKK_11
  6
ByBlock
 48
0.5
370
    -2
100
AcDbLine
 10
288.3
 20
189.46165414
 30
0.0
 11
288.3
 21
203.16165414
 31
0.0
  0
LINE
  5
583
330
2
100
AcDbEntity
  8
YKK_11
  6
ByBlock
 48
0.5
370
    -2
100
AcDbLine
 10
288.3
 20
203.16165414
 30
0.0
 11
285.5
 21
203.16165414
 31
0.0
  0
LINE
  5
584
330
2
100
AcDbEntity
  8
YKK_11
  6
ByBlock
 48
0.5
370
    -2
100
AcDbLine
 10
285.5
 20
203.16165414
 30
0.0
 11
285.5
 21
203.96165414
 31
0.0
  0
LINE
  5
585
330
2
100
AcDbEntity
  8
YKK_11
  6
ByBlock
 48
0.5
370
    -2
100
AcDbLine
 10
285.5
 20
203.96165414
 30
0.0
 11
285.7
 21
204.16165414
 31
0.0
  0
LINE
  5
586
330
2
100
AcDbEntity
  8
YKK_11
  6
ByBlock
 48
0.5
370
    -2
100
AcDbLine
 10
285.7
 20
204.16165414
 30
0.0
 11
285.9
 21
204.36165414
 31
0.0
  0
LINE
  5
587
330
2
100
AcDbEntity
  8
YKK_11
  6
ByBlock
 48
0.5
370
    -2
100
AcDbLine
 10
285.9
 20
204.36165414
 30
0.0
 11
285.9
 21
205.36165414
 31
0.0
  0
LINE
  5
588
330
2
100
AcDbEntity
  8
YKK_11
  6
ByBlock
 48
0.5
370
    -2
100
AcDbLine
 10
285.9
 20
205.36165414
 30
0.0
 11
286.4
 21
205.86165414
 31
0.0
  0
LINE
  5
589
330
2
100
AcDbEntity
  8
YKK_11
  6
ByBlock
 48
0.5
370
    -2
100
AcDbLine
 10
286.4
 20
205.86165414
 30
0.0
 11
286.7
 21
205.56165414
 31
0.0
  0
LINE
  5
58A
330
2
100
AcDbEntity
  8
YKK_11
  6
ByBlock
 48
0.5
370
    -2
100
AcDbLine
 10
286.7
 20
205.56165414
 30
0.0
 11
286.7
 21
204.16165414
 31
0.0
  0
LINE
  5
58B
330
2
100
AcDbEntity
  8
YKK_11
  6
ByBlock
 48
0.5
370
    -2
100
AcDbLine
 10
286.7
 20
204.16165414
 30
0.0
 11
288.3
 21
204.16165414
 31
0.0
  0
LINE
  5
58C
330
2
100
AcDbEntity
  8
YKK_11
  6
ByBlock
 48
0.5
370
    -2
100
AcDbLine
 10
288.3
 20
204.16165414
 30
0.0
 11
288.3
 21
211.16165414
 31
0.0
  0
LINE
  5
58D
330
2
100
AcDbEntity
  8
YKK_11
  6
ByBlock
 48
0.5
370
    -2
100
AcDbLine
 10
288.3
 20
211.16165414
 30
0.0
 11
286.7
 21
211.16165414
 31
0.0
  0
LINE
  5
58E
330
2
100
AcDbEntity
  8
YKK_11
  6
ByBlock
 48
0.5
370
    -2
100
AcDbLine
 10
286.7
 20
211.16165414
 30
0.0
 11
286.7
 21
209.76165414
 31
0.0
  0
LINE
  5
58F
330
2
100
AcDbEntity
  8
YKK_11
  6
ByBlock
 48
0.5
370
    -2
100
AcDbLine
 10
286.7
 20
209.76165414
 30
0.0
 11
286.4
 21
209.46165414
 31
0.0
  0
LINE
  5
590
330
2
100
AcDbEntity
  8
YKK_11
  6
ByBlock
 48
0.5
370
    -2
100
AcDbLine
 10
286.4
 20
209.46165414
 30
0.0
 11
285.9
 21
209.96165414
 31
0.0
  0
LINE
  5
591
330
2
100
AcDbEntity
  8
YKK_11
  6
ByBlock
 48
0.5
370
    -2
100
AcDbLine
 10
285.9
 20
209.96165414
 30
0.0
 11
285.9
 21
210.96165414
 31
0.0
  0
LINE
  5
592
330
2
100
AcDbEntity
  8
YKK_11
  6
ByBlock
 48
0.5
370
    -2
100
AcDbLine
 10
285.9
 20
210.96165414
 30
0.0
 11
285.7
 21
211.16165414
 31
0.0
  0
LINE
  5
593
330
2
100
AcDbEntity
  8
YKK_11
  6
ByBlock
 48
0.5
370
    -2
100
AcDbLine
 10
285.7
 20
211.16165414
 30
0.0
 11
285.5
 21
211.36165414
 31
0.0
  0
LINE
  5
594
330
2
100
AcDbEntity
  8
YKK_11
  6
ByBlock
 48
0.5
370
    -2
100
AcDbLine
 10
285.5
 20
211.36165414
 30
0.0
 11
285.5
 21
212.16165414
 31
0.0
  0
LINE
  5
595
330
2
100
AcDbEntity
  8
YKK_11
  6
ByBlock
 48
0.5
370
    -2
100
AcDbLine
 10
285.5
 20
212.16165414
 30
0.0
 11
288.3
 21
212.16165414
 31
0.0
  0
LINE
  5
596
330
2
100
AcDbEntity
  8
YKK_11
  6
ByBlock
 48
0.5
370
    -2
100
AcDbLine
 10
288.3
 20
212.16165414
 30
0.0
 11
288.3
 21
218.86165414
 31
0.0
  0
LINE
  5
597
330
2
100
AcDbEntity
  8
YKK_11
  6
ByBlock
 48
0.5
370
    -2
100
AcDbLine
 10
288.3
 20
218.86165414
 30
0.0
 11
285.5
 21
218.86165414
 31
0.0
  0
LINE
  5
598
330
2
100
AcDbEntity
  8
YKK_11
  6
ByBlock
 48
0.5
370
    -2
100
AcDbLine
 10
285.5
 20
218.86165414
 30
0.0
 11
285.5
 21
219.86165414
 31
0.0
  0
LINE
  5
599
330
2
100
AcDbEntity
  8
YKK_11
  6
ByBlock
 48
0.5
370
    -2
100
AcDbLine
 10
285.5
 20
219.86165414
 30
0.0
 11
288.3
 21
219.86165414
 31
0.0
  0
LINE
  5
59A
330
2
100
AcDbEntity
  8
YKK_11
  6
ByBlock
 48
0.5
370
    -2
100
AcDbLine
 10
288.3
 20
219.86165414
 30
0.0
 11
288.3
 21
239.96165414
 31
0.0
  0
LINE
  5
59B
330
2
100
AcDbEntity
  8
YKK_11
  6
ByBlock
 48
0.5
370
    -2
100
AcDbLine
 10
288.3
 20
239.96165414
 30
0.0
 11
280.0
 21
239.96165414
 31
0.0
  0
LINE
  5
59C
330
2
100
AcDbEntity
  8
YKK_11
  6
ByBlock
 48
0.5
370
    -2
100
AcDbLine
 10
280.0
 20
239.96165414
 30
0.0
 11
279.8
 21
239.76165414
 31
0.0
  0
LINE
  5
59D
330
2
100
AcDbEntity
  8
YKK_11
  6
ByBlock
 48
0.5
370
    -2
100
AcDbLine
 10
279.8
 20
239.76165414
 30
0.0
 11
279.5
 21
239.46165414
 31
0.0
  0
LINE
  5
59E
330
2
100
AcDbEntity
  8
YKK_11
  6
ByBlock
 48
0.5
370
    -2
100
AcDbLine
 10
279.5
 20
239.46165414
 30
0.0
 11
278.3
 21
239.46165414
 31
0.0
  0
LINE
  5
59F
330
2
100
AcDbEntity
  8
YKK_11
  6
ByBlock
 48
0.5
370
    -2
100
AcDbLine
 10
278.3
 20
239.46165414
 30
0.0
 11
278.3
 21
241.46165414
 31
0.0
  0
LINE
  5
5A0
330
2
100
AcDbEntity
  8
YKK_11
  6
ByBlock
 48
0.5
370
    -2
100
AcDbLine
 10
278.3
 20
241.46165414
 30
0.0
 11
288.3
 21
241.46165414
 31
0.0
  0
LINE
  5
5A1
330
2
100
AcDbEntity
  8
YKK_11
  6
ByBlock
 48
0.5
370
    -2
100
AcDbLine
 10
288.3
 20
241.46165414
 30
0.0
 11
288.3
 21
257.96165414
 31
0.0
  0
LINE
  5
5A2
330
2
100
AcDbEntity
  8
YKK_11
  6
ByBlock
 48
0.5
370
    -2
100
AcDbLine
 10
288.3
 20
257.96165414
 30
0.0
 11
282.0
 21
257.96165414
 31
0.0
  0
LINE
  5
5A3
330
2
100
AcDbEntity
  8
YKK_11
  6
ByBlock
 48
0.5
370
    -2
100
AcDbLine
 10
282.0
 20
257.96165414
 30
0.0
 11
282.0
 21
256.96165414
 31
0.0
  0
LINE
  5
5A4
330
2
100
AcDbEntity
  8
YKK_11
  6
ByBlock
 48
0.5
370
    -2
100
AcDbLine
 10
282.0
 20
256.96165414
 30
0.0
 11
280.5
 21
256.96165414
 31
0.0
  0
LINE
  5
5A5
330
2
100
AcDbEntity
  8
YKK_11
  6
ByBlock
 48
0.5
370
    -2
100
AcDbLine
 10
280.5
 20
256.96165414
 30
0.0
 11
280.5
 21
259.46165414
 31
0.0
  0
LINE
  5
5A6
330
2
100
AcDbEntity
  8
YKK_11
  6
ByBlock
 48
0.5
370
    -2
100
AcDbLine
 10
280.5
 20
259.46165414
 30
0.0
 11
306.5
 21
259.46165414
 31
0.0
  0
LINE
  5
5A7
330
2
100
AcDbEntity
  8
YKK_11
  6
ByBlock
 48
0.5
370
    -2
100
AcDbLine
 10
289.8
 20
257.96165414
 30
0.0
 11
289.8
 21
212.16165414
 31
0.0
  0
LINE
  5
5A8
330
2
100
AcDbEntity
  8
YKK_11
  6
ByBlock
 48
0.5
370
    -2
100
AcDbLine
 10
289.8
 20
212.16165414
 30
0.0
 11
305.0
 21
212.16165414
 31
0.0
  0
LINE
  5
5A9
330
2
100
AcDbEntity
  8
YKK_11
  6
ByBlock
 48
0.5
370
    -2
100
AcDbLine
 10
305.0
 20
212.16165414
 30
0.0
 11
305.0
 21
257.96165414
 31
0.0
  0
LINE
  5
5AA
330
2
100
AcDbEntity
  8
YKK_11
  6
ByBlock
 48
0.5
370
    -2
100
AcDbLine
 10
305.0
 20
257.96165414
 30
0.0
 11
289.8
 21
257.96165414
 31
0.0
  0
LINE
  5
5AB
330
2
100
AcDbEntity
  8
YKK_11
  6
ByBlock
 48
0.5
370
    -2
100
AcDbLine
 10
289.8
 20
210.66165414
 30
0.0
 11
289.8
 21
191.46165414
 31
0.0
  0
LINE
  5
5AC
330
2
100
AcDbEntity
  8
YKK_11
  6
ByBlock
 48
0.5
370
    -2
100
AcDbLine
 10
289.8
 20
191.46165414
 30
0.0
 11
305.0
 21
191.46165414
 31
0.0
  0
LINE
  5
5AD
330
2
100
AcDbEntity
  8
YKK_11
  6
ByBlock
 48
0.5
370
    -2
100
AcDbLine
 10
305.0
 20
191.46165414
 30
0.0
 11
305.0
 21
210.66165414
 31
0.0
  0
LINE
  5
5AE
330
2
100
AcDbEntity
  8
YKK_11
  6
ByBlock
 48
0.5
370
    -2
100
AcDbLine
 10
305.0
 20
210.66165414
 30
0.0
 11
289.8
 21
210.66165414
 31
0.0
  0
LINE
  5
5AF
330
2
100
AcDbEntity
  8
YKK_11
  6
ByBlock
 48
0.5
370
    -2
100
AcDbLine
 10
247.5
 20
259.46165414
 30
0.0
 11
247.5
 21
228.86165414
 31
0.0
  0
LINE
  5
5B0
330
2
100
AcDbEntity
  8
YKK_11
  6
ByBlock
 48
0.5
370
    -2
100
AcDbLine
 10
247.5
 20
228.86165414
 30
0.0
 11
228.5
 21
228.86165414
 31
0.0
  0
LINE
  5
5B1
330
2
100
AcDbEntity
  8
YKK_11
  6
ByBlock
 48
0.5
370
    -2
100
AcDbLine
 10
228.5
 20
228.86165414
 30
0.0
 11
228.5
 21
227.16165414
 31
0.0
  0
LINE
  5
5B2
330
2
100
AcDbEntity
  8
YKK_11
  6
ByBlock
 48
0.5
370
    -2
100
AcDbLine
 10
228.5
 20
227.16165414
 30
0.0
 11
229.0
 21
226.66165414
 31
0.0
  0
LINE
  5
5B3
330
2
100
AcDbEntity
  8
YKK_11
  6
ByBlock
 48
0.5
370
    -2
100
AcDbLine
 10
229.0
 20
226.66165414
 30
0.0
 11
229.3
 21
226.96165414
 31
0.0
  0
LINE
  5
5B4
330
2
100
AcDbEntity
  8
YKK_11
  6
ByBlock
 48
0.5
370
    -2
100
AcDbLine
 10
229.3
 20
226.96165414
 30
0.0
 11
229.3
 21
227.76165414
 31
0.0
  0
LINE
  5
5B5
330
2
100
AcDbEntity
  8
YKK_11
  6
ByBlock
 48
0.5
370
    -2
100
AcDbLine
 10
229.3
 20
227.76165414
 30
0.0
 11
231.2
 21
227.76165414
 31
0.0
  0
LINE
  5
5B6
330
2
100
AcDbEntity
  8
YKK_11
  6
ByBlock
 48
0.5
370
    -2
100
AcDbLine
 10
231.2
 20
227.76165414
 30
0.0
 11
231.2
 21
223.16165414
 31
0.0
  0
LINE
  5
5B7
330
2
100
AcDbEntity
  8
YKK_11
  6
ByBlock
 48
0.5
370
    -2
100
AcDbLine
 10
231.2
 20
223.16165414
 30
0.0
 11
229.3
 21
223.16165414
 31
0.0
  0
LINE
  5
5B8
330
2
100
AcDbEntity
  8
YKK_11
  6
ByBlock
 48
0.5
370
    -2
100
AcDbLine
 10
229.3
 20
223.16165414
 30
0.0
 11
229.3
 21
223.96165414
 31
0.0
  0
LINE
  5
5B9
330
2
100
AcDbEntity
  8
YKK_11
  6
ByBlock
 48
0.5
370
    -2
100
AcDbLine
 10
229.3
 20
223.96165414
 30
0.0
 11
229.0
 21
224.26165414
 31
0.0
  0
LINE
  5
5BA
330
2
100
AcDbEntity
  8
YKK_11
  6
ByBlock
 48
0.5
370
    -2
100
AcDbLine
 10
229.0
 20
224.26165414
 30
0.0
 11
228.5
 21
223.76165414
 31
0.0
  0
LINE
  5
5BB
330
2
100
AcDbEntity
  8
YKK_11
  6
ByBlock
 48
0.5
370
    -2
100
AcDbLine
 10
228.5
 20
223.76165414
 30
0.0
 11
228.5
 21
222.06165414
 31
0.0
  0
LINE
  5
5BC
330
2
100
AcDbEntity
  8
YKK_11
  6
ByBlock
 48
0.5
370
    -2
100
AcDbLine
 10
228.5
 20
222.06165414
 30
0.0
 11
232.4
 21
222.06165414
 31
0.0
  0
LINE
  5
5BD
330
2
100
AcDbEntity
  8
YKK_11
  6
ByBlock
 48
0.5
370
    -2
100
AcDbLine
 10
232.4
 20
222.06165414
 30
0.0
 11
232.4
 21
227.36165414
 31
0.0
  0
LINE
  5
5BE
330
2
100
AcDbEntity
  8
YKK_11
  6
ByBlock
 48
0.5
370
    -2
100
AcDbLine
 10
232.4
 20
227.36165414
 30
0.0
 11
247.5
 21
227.36165414
 31
0.0
  0
LINE
  5
5BF
330
2
100
AcDbEntity
  8
YKK_11
  6
ByBlock
 48
0.5
370
    -2
100
AcDbLine
 10
247.5
 20
227.36165414
 30
0.0
 11
247.5
 21
208.66165414
 31
0.0
  0
LINE
  5
5C0
330
2
100
AcDbEntity
  8
YKK_11
  6
ByBlock
 48
0.5
370
    -2
100
AcDbLine
 10
247.5
 20
208.66165414
 30
0.0
 11
243.5
 21
208.66165414
 31
0.0
  0
LINE
  5
5C1
330
2
100
AcDbEntity
  8
YKK_11
  6
ByBlock
 48
0.5
370
    -2
100
AcDbLine
 10
243.5
 20
208.66165414
 30
0.0
 11
243.5
 21
206.30806481
 31
0.0
  0
LINE
  5
5C2
330
2
100
AcDbEntity
  8
YKK_11
  6
ByBlock
 48
0.5
370
    -2
100
AcDbLine
 10
243.5
 20
206.30806481
 30
0.0
 11
244.69999967
 21
205.61524367
 31
0.0
  0
LINE
  5
5C3
330
2
100
AcDbEntity
  8
YKK_11
  6
ByBlock
 48
0.5
370
    -2
100
AcDbLine
 10
244.69999967
 20
205.61524367
 30
0.0
 11
245.0
 21
205.78844919
 31
0.0
  0
LINE
  5
5C4
330
2
100
AcDbEntity
  8
YKK_11
  6
ByBlock
 48
0.5
370
    -2
100
AcDbLine
 10
245.0
 20
205.78844919
 30
0.0
 11
245.0
 21
207.16165414
 31
0.0
  0
LINE
  5
5C5
330
2
100
AcDbEntity
  8
YKK_11
  6
ByBlock
 48
0.5
370
    -2
100
AcDbLine
 10
245.0
 20
207.16165414
 30
0.0
 11
247.5
 21
207.16165414
 31
0.0
  0
LINE
  5
5C6
330
2
100
AcDbEntity
  8
YKK_11
  6
ByBlock
 48
0.5
370
    -2
100
AcDbLine
 10
247.5
 20
207.16165414
 30
0.0
 11
247.5
 21
190.96165414
 31
0.0
  0
LINE
  5
5C7
330
2
100
AcDbEntity
  8
YKK_11
  6
ByBlock
 48
0.5
370
    -2
100
AcDbLine
 10
247.5
 20
190.96165414
 30
0.0
 11
245.0
 21
190.96165414
 31
0.0
  0
LINE
  5
5C8
330
2
100
AcDbEntity
  8
YKK_11
  6
ByBlock
 48
0.5
370
    -2
100
AcDbLine
 10
245.0
 20
190.96165414
 30
0.0
 11
245.0
 21
192.33485948
 31
0.0
  0
LINE
  5
5C9
330
2
100
AcDbEntity
  8
YKK_11
  6
ByBlock
 48
0.5
370
    -2
100
AcDbLine
 10
245.0
 20
192.33485948
 30
0.0
 11
244.7
 21
192.50806481
 31
0.0
  0
LINE
  5
5CA
330
2
100
AcDbEntity
  8
YKK_11
  6
ByBlock
 48
0.5
370
    -2
100
AcDbLine
 10
244.7
 20
192.50806481
 30
0.0
 11
243.5
 21
191.81524348
 31
0.0
  0
LINE
  5
5CB
330
2
100
AcDbEntity
  8
YKK_11
  6
ByBlock
 48
0.5
370
    -2
100
AcDbLine
 10
243.5
 20
191.81524348
 30
0.0
 11
243.5
 21
189.46165414
 31
0.0
  0
LINE
  5
5CC
330
2
100
AcDbEntity
  8
YKK_11
  6
ByBlock
 48
0.5
370
    -2
100
AcDbLine
 10
243.5
 20
189.46165414
 30
0.0
 11
258.52918
 21
189.46165414
 31
0.0
  0
LINE
  5
5CD
330
2
100
AcDbEntity
  8
YKK_11
  6
ByBlock
 48
0.5
370
    -2
100
AcDbLine
 10
258.52918
 20
189.46165414
 30
0.0
 11
258.720843
 21
189.60451114
 31
0.0
  0
LINE
  5
5CE
330
2
100
AcDbEntity
  8
YKK_11
  6
ByBlock
 48
0.5
370
    -2
100
AcDbLine
 10
258.720843
 20
189.60451114
 30
0.0
 11
259.679157
 21
189.60451114
 31
0.0
  0
LINE
  5
5CF
330
2
100
AcDbEntity
  8
YKK_11
  6
ByBlock
 48
0.5
370
    -2
100
AcDbLine
 10
259.679157
 20
189.60451114
 30
0.0
 11
259.87082
 21
189.46165414
 31
0.0
  0
LINE
  5
5D0
330
2
100
AcDbEntity
  8
YKK_11
  6
ByBlock
 48
0.5
370
    -2
100
AcDbLine
 10
259.87082
 20
189.46165414
 30
0.0
 11
265.7
 21
189.46165414
 31
0.0
  0
LINE
  5
5D1
330
2
100
AcDbEntity
  8
YKK_11
  6
ByBlock
 48
0.5
370
    -2
100
AcDbLine
 10
265.7
 20
189.46165414
 30
0.0
 11
265.7
 21
203.16165414
 31
0.0
  0
LINE
  5
5D2
330
2
100
AcDbEntity
  8
YKK_11
  6
ByBlock
 48
0.5
370
    -2
100
AcDbLine
 10
265.7
 20
203.16165414
 30
0.0
 11
268.5
 21
203.16165414
 31
0.0
  0
LINE
  5
5D3
330
2
100
AcDbEntity
  8
YKK_11
  6
ByBlock
 48
0.5
370
    -2
100
AcDbLine
 10
268.5
 20
203.16165414
 30
0.0
 11
268.5
 21
203.96165414
 31
0.0
  0
LINE
  5
5D4
330
2
100
AcDbEntity
  8
YKK_11
  6
ByBlock
 48
0.5
370
    -2
100
AcDbLine
 10
268.5
 20
203.96165414
 30
0.0
 11
268.3
 21
204.16165414
 31
0.0
  0
LINE
  5
5D5
330
2
100
AcDbEntity
  8
YKK_11
  6
ByBlock
 48
0.5
370
    -2
100
AcDbLine
 10
268.3
 20
204.16165414
 30
0.0
 11
268.1
 21
204.36165414
 31
0.0
  0
LINE
  5
5D6
330
2
100
AcDbEntity
  8
YKK_11
  6
ByBlock
 48
0.5
370
    -2
100
AcDbLine
 10
268.1
 20
204.36165414
 30
0.0
 11
268.1
 21
205.36165414
 31
0.0
  0
LINE
  5
5D7
330
2
100
AcDbEntity
  8
YKK_11
  6
ByBlock
 48
0.5
370
    -2
100
AcDbLine
 10
268.1
 20
205.36165414
 30
0.0
 11
267.6
 21
205.86165414
 31
0.0
  0
LINE
  5
5D8
330
2
100
AcDbEntity
  8
YKK_11
  6
ByBlock
 48
0.5
370
    -2
100
AcDbLine
 10
267.6
 20
205.86165414
 30
0.0
 11
267.3
 21
205.56165414
 31
0.0
  0
LINE
  5
5D9
330
2
100
AcDbEntity
  8
YKK_11
  6
ByBlock
 48
0.5
370
    -2
100
AcDbLine
 10
267.3
 20
205.56165414
 30
0.0
 11
267.3
 21
204.16165414
 31
0.0
  0
LINE
  5
5DA
330
2
100
AcDbEntity
  8
YKK_11
  6
ByBlock
 48
0.5
370
    -2
100
AcDbLine
 10
267.3
 20
204.16165414
 30
0.0
 11
265.7
 21
204.16165414
 31
0.0
  0
LINE
  5
5DB
330
2
100
AcDbEntity
  8
YKK_11
  6
ByBlock
 48
0.5
370
    -2
100
AcDbLine
 10
265.7
 20
204.16165414
 30
0.0
 11
265.7
 21
211.16165414
 31
0.0
  0
LINE
  5
5DC
330
2
100
AcDbEntity
  8
YKK_11
  6
ByBlock
 48
0.5
370
    -2
100
AcDbLine
 10
265.7
 20
211.16165414
 30
0.0
 11
267.3
 21
211.16165414
 31
0.0
  0
LINE
  5
5DD
330
2
100
AcDbEntity
  8
YKK_11
  6
ByBlock
 48
0.5
370
    -2
100
AcDbLine
 10
267.3
 20
211.16165414
 30
0.0
 11
267.3
 21
209.76165414
 31
0.0
  0
LINE
  5
5DE
330
2
100
AcDbEntity
  8
YKK_11
  6
ByBlock
 48
0.5
370
    -2
100
AcDbLine
 10
267.3
 20
209.76165414
 30
0.0
 11
267.6
 21
209.46165414
 31
0.0
  0
LINE
  5
5DF
330
2
100
AcDbEntity
  8
YKK_11
  6
ByBlock
 48
0.5
370
    -2
100
AcDbLine
 10
267.6
 20
209.46165414
 30
0.0
 11
268.1
 21
209.96165414
 31
0.0
  0
LINE
  5
5E0
330
2
100
AcDbEntity
  8
YKK_11
  6
ByBlock
 48
0.5
370
    -2
100
AcDbLine
 10
268.1
 20
209.96165414
 30
0.0
 11
268.1
 21
210.96165414
 31
0.0
  0
LINE
  5
5E1
330
2
100
AcDbEntity
  8
YKK_11
  6
ByBlock
 48
0.5
370
    -2
100
AcDbLine
 10
268.1
 20
210.96165414
 30
0.0
 11
268.3
 21
211.16165414
 31
0.0
  0
LINE
  5
5E2
330
2
100
AcDbEntity
  8
YKK_11
  6
ByBlock
 48
0.5
370
    -2
100
AcDbLine
 10
268.3
 20
211.16165414
 30
0.0
 11
268.5
 21
211.36165414
 31
0.0
  0
LINE
  5
5E3
330
2
100
AcDbEntity
  8
YKK_11
  6
ByBlock
 48
0.5
370
    -2
100
AcDbLine
 10
268.5
 20
211.36165414
 30
0.0
 11
268.5
 21
212.16165414
 31
0.0
  0
LINE
  5
5E4
330
2
100
AcDbEntity
  8
YKK_11
  6
ByBlock
 48
0.5
370
    -2
100
AcDbLine
 10
268.5
 20
212.16165414
 30
0.0
 11
265.7
 21
212.16165414
 31
0.0
  0
LINE
  5
5E5
330
2
100
AcDbEntity
  8
YKK_11
  6
ByBlock
 48
0.5
370
    -2
100
AcDbLine
 10
265.7
 20
212.16165414
 30
0.0
 11
265.7
 21
218.86165414
 31
0.0
  0
LINE
  5
5E6
330
2
100
AcDbEntity
  8
YKK_11
  6
ByBlock
 48
0.5
370
    -2
100
AcDbLine
 10
265.7
 20
218.86165414
 30
0.0
 11
268.5
 21
218.86165414
 31
0.0
  0
LINE
  5
5E7
330
2
100
AcDbEntity
  8
YKK_11
  6
ByBlock
 48
0.5
370
    -2
100
AcDbLine
 10
268.5
 20
218.86165414
 30
0.0
 11
268.5
 21
219.86165414
 31
0.0
  0
LINE
  5
5E8
330
2
100
AcDbEntity
  8
YKK_11
  6
ByBlock
 48
0.5
370
    -2
100
AcDbLine
 10
268.5
 20
219.86165414
 30
0.0
 11
265.7
 21
219.86165414
 31
0.0
  0
LINE
  5
5E9
330
2
100
AcDbEntity
  8
YKK_11
  6
ByBlock
 48
0.5
370
    -2
100
AcDbLine
 10
265.7
 20
219.86165414
 30
0.0
 11
265.7
 21
239.96165414
 31
0.0
  0
LINE
  5
5EA
330
2
100
AcDbEntity
  8
YKK_11
  6
ByBlock
 48
0.5
370
    -2
100
AcDbLine
 10
265.7
 20
239.96165414
 30
0.0
 11
274.0
 21
239.96165414
 31
0.0
  0
LINE
  5
5EB
330
2
100
AcDbEntity
  8
YKK_11
  6
ByBlock
 48
0.5
370
    -2
100
AcDbLine
 10
274.0
 20
239.96165414
 30
0.0
 11
274.2
 21
239.76165414
 31
0.0
  0
LINE
  5
5EC
330
2
100
AcDbEntity
  8
YKK_11
  6
ByBlock
 48
0.5
370
    -2
100
AcDbLine
 10
274.2
 20
239.76165414
 30
0.0
 11
274.5
 21
239.46165414
 31
0.0
  0
LINE
  5
5ED
330
2
100
AcDbEntity
  8
YKK_11
  6
ByBlock
 48
0.5
370
    -2
100
AcDbLine
 10
274.5
 20
239.46165414
 30
0.0
 11
275.7
 21
239.46165414
 31
0.0
  0
LINE
  5
5EE
330
2
100
AcDbEntity
  8
YKK_11
  6
ByBlock
 48
0.5
370
    -2
100
AcDbLine
 10
275.7
 20
239.46165414
 30
0.0
 11
275.7
 21
241.46165414
 31
0.0
  0
LINE
  5
5EF
330
2
100
AcDbEntity
  8
YKK_11
  6
ByBlock
 48
0.5
370
    -2
100
AcDbLine
 10
275.7
 20
241.46165414
 30
0.0
 11
265.7
 21
241.46165414
 31
0.0
  0
LINE
  5
5F0
330
2
100
AcDbEntity
  8
YKK_11
  6
ByBlock
 48
0.5
370
    -2
100
AcDbLine
 10
265.7
 20
241.46165414
 30
0.0
 11
265.7
 21
257.96165414
 31
0.0
  0
LINE
  5
5F1
330
2
100
AcDbEntity
  8
YKK_11
  6
ByBlock
 48
0.5
370
    -2
100
AcDbLine
 10
265.7
 20
257.96165414
 30
0.0
 11
272.0
 21
257.96165414
 31
0.0
  0
LINE
  5
5F2
330
2
100
AcDbEntity
  8
YKK_11
  6
ByBlock
 48
0.5
370
    -2
100
AcDbLine
 10
272.0
 20
257.96165414
 30
0.0
 11
272.0
 21
254.96165414
 31
0.0
  0
LINE
  5
5F3
330
2
100
AcDbEntity
  8
YKK_11
  6
ByBlock
 48
0.5
370
    -2
100
AcDbLine
 10
272.0
 20
254.96165414
 30
0.0
 11
286.5
 21
254.96165414
 31
0.0
  0
LINE
  5
5F4
330
2
100
AcDbEntity
  8
YKK_11
  6
ByBlock
 48
0.5
370
    -2
100
AcDbLine
 10
286.5
 20
254.96165414
 30
0.0
 11
286.5
 21
256.46165414
 31
0.0
  0
LINE
  5
5F5
330
2
100
AcDbEntity
  8
YKK_11
  6
ByBlock
 48
0.5
370
    -2
100
AcDbLine
 10
286.5
 20
256.46165414
 30
0.0
 11
273.5
 21
256.46165414
 31
0.0
  0
LINE
  5
5F6
330
2
100
AcDbEntity
  8
YKK_11
  6
ByBlock
 48
0.5
370
    -2
100
AcDbLine
 10
273.5
 20
256.46165414
 30
0.0
 11
273.5
 21
259.46165414
 31
0.0
  0
LINE
  5
5F7
330
2
100
AcDbEntity
  8
YKK_11
  6
ByBlock
 48
0.5
370
    -2
100
AcDbLine
 10
273.5
 20
259.46165414
 30
0.0
 11
247.5
 21
259.46165414
 31
0.0
  0
LINE
  5
5F8
330
2
100
AcDbEntity
  8
YKK_11
  6
ByBlock
 48
0.5
370
    -2
100
AcDbLine
 10
264.2
 20
257.96165414
 30
0.0
 11
264.2
 21
212.16165414
 31
0.0
  0
LINE
  5
5F9
330
2
100
AcDbEntity
  8
YKK_11
  6
ByBlock
 48
0.5
370
    -2
100
AcDbLine
 10
264.2
 20
212.16165414
 30
0.0
 11
249.0
 21
212.16165414
 31
0.0
  0
LINE
  5
5FA
330
2
100
AcDbEntity
  8
YKK_11
  6
ByBlock
 48
0.5
370
    -2
100
AcDbLine
 10
249.0
 20
212.16165414
 30
0.0
 11
249.0
 21
257.96165414
 31
0.0
  0
LINE
  5
5FB
330
2
100
AcDbEntity
  8
YKK_11
  6
ByBlock
 48
0.5
370
    -2
100
AcDbLine
 10
249.0
 20
257.96165414
 30
0.0
 11
264.2
 21
257.96165414
 31
0.0
  0
LINE
  5
5FC
330
2
100
AcDbEntity
  8
YKK_11
  6
ByBlock
 48
0.5
370
    -2
100
AcDbLine
 10
264.2
 20
210.66165414
 30
0.0
 11
264.2
 21
191.46165414
 31
0.0
  0
LINE
  5
5FD
330
2
100
AcDbEntity
  8
YKK_11
  6
ByBlock
 48
0.5
370
    -2
100
AcDbLine
 10
264.2
 20
191.46165414
 30
0.0
 11
249.0
 21
191.46165414
 31
0.0
  0
LINE
  5
5FE
330
2
100
AcDbEntity
  8
YKK_11
  6
ByBlock
 48
0.5
370
    -2
100
AcDbLine
 10
249.0
 20
191.46165414
 30
0.0
 11
249.0
 21
210.66165414
 31
0.0
  0
LINE
  5
5FF
330
2
100
AcDbEntity
  8
YKK_11
  6
ByBlock
 48
0.5
370
    -2
100
AcDbLine
 10
249.0
 20
210.66165414
 30
0.0
 11
264.2
 21
210.66165414
 31
0.0
  0
LINE
  5
600
330
2
100
AcDbEntity
  8
YKK_D
370
    -2
100
AcDbLine
 10
268.5
 20
99.46165414
 30
0.0
 11
264.16987298
 21
101.96165414
 31
0.0
  0
LINE
  5
601
330
2
100
AcDbEntity
  8
YKK_D
370
    -2
100
AcDbLine
 10
268.5
 20
99.46165414
 30
0.0
 11
264.16987298
 21
96.96165414
 31
0.0
  0
LINE
  5
602
330
2
100
AcDbEntity
  8
YKK_D
370
    -2
100
AcDbLine
 10
264.16987298
 20
101.96165414
 30
0.0
 11
264.16987298
 21
96.96165414
 31
0.0
  0
LINE
  5
603
330
2
100
AcDbEntity
  8
YKK_D
370
    -2
100
AcDbLine
 10
268.5
 20
99.46165414
 30
0.0
 11
259.83974596
 21
99.46165414
 31
0.0
  0
TEXT
  5
604
330
2
100
AcDbEntity
  8
YKK_D
100
AcDbText
 10
213.95454545
 20
100.26165414
 30
0.0
 40
7.5
  1
W1
  7
text-b
100
AcDbText
  0
TEXT
  5
605
330
2
100
AcDbEntity
  8
YKK_D
100
AcDbText
 10
268.24289773
 20
89.52415414
 30
0.0
 40
7.5
  1
(17)
  7
text-b
100
AcDbText
  0
LINE
  5
606
330
2
100
AcDbEntity
  8
YKK_11
  6
ByBlock
 48
0.5
370
    -2
100
AcDbLine
 10
307.0
 20
139.46165414
 30
0.0
 11
247.0
 21
139.46165414
 31
0.0
  0
LINE
  5
607
330
2
100
AcDbEntity
  8
YKK_11
  6
ByBlock
 48
0.5
370
    -2
100
AcDbLine
 10
247.0
 20
139.46165414
 30
0.0
 11
247.0
 21
188.96165414
 31
0.0
  0
LINE
  5
608
330
2
100
AcDbEntity
  8
YKK_11
  6
ByBlock
 48
0.5
370
    -2
100
AcDbLine
 10
247.0
 20
188.96165414
 30
0.0
 11
248.30000047
 21
188.96165414
 31
0.0
  0
LINE
  5
609
330
2
100
AcDbEntity
  8
YKK_11
  6
ByBlock
 48
0.5
370
    -2
100
AcDbLine
 10
248.30000047
 20
188.96165414
 30
0.0
 11
249.62320528
 21
186.66979581
 31
0.0
  0
LINE
  5
60A
330
2
100
AcDbEntity
  8
YKK_11
  6
ByBlock
 48
0.5
370
    -2
100
AcDbLine
 10
249.62320528
 20
186.66979581
 30
0.0
 11
249.42679467
 21
186.32960314
 31
0.0
  0
LINE
  5
60B
330
2
100
AcDbEntity
  8
YKK_11
  6
ByBlock
 48
0.5
370
    -2
100
AcDbLine
 10
249.42679467
 20
186.32960314
 30
0.0
 11
248.5
 21
186.32960314
 31
0.0
  0
LINE
  5
60C
330
2
100
AcDbEntity
  8
YKK_11
  6
ByBlock
 48
0.5
370
    -2
100
AcDbLine
 10
248.5
 20
186.32960314
 30
0.0
 11
248.5
 21
179.76165414
 31
0.0
  0
LINE
  5
60D
330
2
100
AcDbEntity
  8
YKK_11
  6
ByBlock
 48
0.5
370
    -2
100
AcDbLine
 10
248.5
 20
179.76165414
 30
0.0
 11
248.8
 21
179.46165414
 31
0.0
  0
LINE
  5
60E
330
2
100
AcDbEntity
  8
YKK_11
  6
ByBlock
 48
0.5
370
    -2
100
AcDbLine
 10
248.8
 20
179.46165414
 30
0.0
 11
249.1
 21
179.16165414
 31
0.0
  0
LINE
  5
60F
330
2
100
AcDbEntity
  8
YKK_11
  6
ByBlock
 48
0.5
370
    -2
100
AcDbLine
 10
249.1
 20
179.16165414
 30
0.0
 11
249.1
 21
178.46165414
 31
0.0
  0
LINE
  5
610
330
2
100
AcDbEntity
  8
YKK_11
  6
ByBlock
 48
0.5
370
    -2
100
AcDbLine
 10
249.1
 20
178.46165414
 30
0.0
 11
248.2
 21
178.46165414
 31
0.0
  0
LINE
  5
611
330
2
100
AcDbEntity
  8
YKK_11
  6
ByBlock
 48
0.5
370
    -2
100
AcDbLine
 10
248.2
 20
178.46165414
 30
0.0
 11
248.2
 21
154.46165353
 31
0.0
  0
LINE
  5
612
330
2
100
AcDbEntity
  8
YKK_11
  6
ByBlock
 48
0.5
370
    -2
100
AcDbLine
 10
248.2
 20
154.46165353
 30
0.0
 11
248.5
 21
153.94203975
 31
0.0
  0
LINE
  5
613
330
2
100
AcDbEntity
  8
YKK_11
  6
ByBlock
 48
0.5
370
    -2
100
AcDbLine
 10
248.5
 20
153.94203975
 30
0.0
 11
248.5
 21
140.96165414
 31
0.0
  0
LINE
  5
614
330
2
100
AcDbEntity
  8
YKK_11
  6
ByBlock
 48
0.5
370
    -2
100
AcDbLine
 10
248.5
 20
140.96165414
 30
0.0
 11
305.5
 21
140.96165414
 31
0.0
  0
LINE
  5
615
330
2
100
AcDbEntity
  8
YKK_11
  6
ByBlock
 48
0.5
370
    -2
100
AcDbLine
 10
305.5
 20
140.96165414
 30
0.0
 11
305.5
 21
153.94203975
 31
0.0
  0
LINE
  5
616
330
2
100
AcDbEntity
  8
YKK_11
  6
ByBlock
 48
0.5
370
    -2
100
AcDbLine
 10
305.5
 20
153.94203975
 30
0.0
 11
305.8
 21
154.46165353
 31
0.0
  0
LINE
  5
617
330
2
100
AcDbEntity
  8
YKK_11
  6
ByBlock
 48
0.5
370
    -2
100
AcDbLine
 10
305.8
 20
154.46165353
 30
0.0
 11
305.8
 21
178.46165414
 31
0.0
  0
LINE
  5
618
330
2
100
AcDbEntity
  8
YKK_11
  6
ByBlock
 48
0.5
370
    -2
100
AcDbLine
 10
305.8
 20
178.46165414
 30
0.0
 11
304.9
 21
178.46165414
 31
0.0
  0
LINE
  5
619
330
2
100
AcDbEntity
  8
YKK_11
  6
ByBlock
 48
0.5
370
    -2
100
AcDbLine
 10
304.9
 20
178.46165414
 30
0.0
 11
304.9
 21
179.16165414
 31
0.0
  0
LINE
  5
61A
330
2
100
AcDbEntity
  8
YKK_11
  6
ByBlock
 48
0.5
370
    -2
100
AcDbLine
 10
304.9
 20
179.16165414
 30
0.0
 11
305.2
 21
179.46165414
 31
0.0
  0
LINE
  5
61B
330
2
100
AcDbEntity
  8
YKK_11
  6
ByBlock
 48
0.5
370
    -2
100
AcDbLine
 10
305.2
 20
179.46165414
 30
0.0
 11
305.5
 21
179.76165414
 31
0.0
  0
LINE
  5
61C
330
2
100
AcDbEntity
  8
YKK_11
  6
ByBlock
 48
0.5
370
    -2
100
AcDbLine
 10
305.5
 20
179.76165414
 30
0.0
 11
305.5
 21
186.32960314
 31
0.0
  0
LINE
  5
61D
330
2
100
AcDbEntity
  8
YKK_11
  6
ByBlock
 48
0.5
370
    -2
100
AcDbLine
 10
305.5
 20
186.32960314
 30
0.0
 11
304.5732049
 21
186.32960314
 31
0.0
  0
LINE
  5
61E
330
2
100
AcDbEntity
  8
YKK_11
  6
ByBlock
 48
0.5
370
    -2
100
AcDbLine
 10
304.5732049
 20
186.32960314
 30
0.0
 11
304.3767945
 21
186.66979543
 31
0.0
  0
LINE
  5
61F
330
2
100
AcDbEntity
  8
YKK_11
  6
ByBlock
 48
0.5
370
    -2
100
AcDbLine
 10
304.3767945
 20
186.66979543
 30
0.0
 11
305.69999953
 21
188.96165414
 31
0.0
  0
LINE
  5
620
330
2
100
AcDbEntity
  8
YKK_11
  6
ByBlock
 48
0.5
370
    -2
100
AcDbLine
 10
305.69999953
 20
188.96165414
 30
0.0
 11
307.0
 21
188.96165414
 31
0.0
  0
LINE
  5
621
330
2
100
AcDbEntity
  8
YKK_11
  6
ByBlock
 48
0.5
370
    -2
100
AcDbLine
 10
307.0
 20
188.96165414
 30
0.0
 11
307.0
 21
139.46165414
 31
0.0
  0
LINE
  5
622
330
2
100
AcDbEntity
  8
YKK_11
  6
ByBlock
 48
0.5
370
    -2
100
AcDbLine
 10
302.7
 20
187.46165414
 30
0.0
 11
291.67082
 21
187.46165414
 31
0.0
  0
LINE
  5
623
330
2
100
AcDbEntity
  8
YKK_11
  6
ByBlock
 48
0.5
370
    -2
100
AcDbLine
 10
291.67082
 20
187.46165414
 30
0.0
 11
291.479157
 21
187.60451114
 31
0.0
  0
LINE
  5
624
330
2
100
AcDbEntity
  8
YKK_11
  6
ByBlock
 48
0.5
370
    -2
100
AcDbLine
 10
291.479157
 20
187.60451114
 30
0.0
 11
290.520843
 21
187.60451114
 31
0.0
  0
LINE
  5
625
330
2
100
AcDbEntity
  8
YKK_11
  6
ByBlock
 48
0.5
370
    -2
100
AcDbLine
 10
290.520843
 20
187.60451114
 30
0.0
 11
290.32918
 21
187.46165414
 31
0.0
  0
LINE
  5
626
330
2
100
AcDbEntity
  8
YKK_11
  6
ByBlock
 48
0.5
370
    -2
100
AcDbLine
 10
290.32918
 20
187.46165414
 30
0.0
 11
286.5
 21
187.46165414
 31
0.0
  0
LINE
  5
627
330
2
100
AcDbEntity
  8
YKK_11
  6
ByBlock
 48
0.5
370
    -2
100
AcDbLine
 10
286.5
 20
187.46165414
 30
0.0
 11
286.5
 21
184.46165414
 31
0.0
  0
LINE
  5
628
330
2
100
AcDbEntity
  8
YKK_11
  6
ByBlock
 48
0.5
370
    -2
100
AcDbLine
 10
286.5
 20
184.46165414
 30
0.0
 11
285.0
 21
184.46165414
 31
0.0
  0
LINE
  5
629
330
2
100
AcDbEntity
  8
YKK_11
  6
ByBlock
 48
0.5
370
    -2
100
AcDbLine
 10
285.0
 20
184.46165414
 30
0.0
 11
285.0
 21
192.46165414
 31
0.0
  0
LINE
  5
62A
330
2
100
AcDbEntity
  8
YKK_11
  6
ByBlock
 48
0.5
370
    -2
100
AcDbLine
 10
285.0
 20
192.46165414
 30
0.0
 11
277.0
 21
192.46165414
 31
0.0
  0
LINE
  5
62B
330
2
100
AcDbEntity
  8
YKK_11
  6
ByBlock
 48
0.5
370
    -2
100
AcDbLine
 10
277.0
 20
192.46165414
 30
0.0
 11
269.0
 21
192.46165414
 31
0.0
  0
LINE
  5
62C
330
2
100
AcDbEntity
  8
YKK_11
  6
ByBlock
 48
0.5
370
    -2
100
AcDbLine
 10
269.0
 20
192.46165414
 30
0.0
 11
269.0
 21
184.46165414
 31
0.0
  0
LINE
  5
62D
330
2
100
AcDbEntity
  8
YKK_11
  6
ByBlock
 48
0.5
370
    -2
100
AcDbLine
 10
269.0
 20
184.46165414
 30
0.0
 11
267.5
 21
184.46165414
 31
0.0
  0
LINE
  5
62E
330
2
100
AcDbEntity
  8
YKK_11
  6
ByBlock
 48
0.5
370
    -2
100
AcDbLine
 10
267.5
 20
184.46165414
 30
0.0
 11
267.5
 21
187.46165414
 31
0.0
  0
LINE
  5
62F
330
2
100
AcDbEntity
  8
YKK_11
  6
ByBlock
 48
0.5
370
    -2
100
AcDbLine
 10
267.5
 20
187.46165414
 30
0.0
 11
263.67082
 21
187.46165414
 31
0.0
  0
LINE
  5
630
330
2
100
AcDbEntity
  8
YKK_11
  6
ByBlock
 48
0.5
370
    -2
100
AcDbLine
 10
263.67082
 20
187.46165414
 30
0.0
 11
263.479157
 21
187.60451114
 31
0.0
  0
LINE
  5
631
330
2
100
AcDbEntity
  8
YKK_11
  6
ByBlock
 48
0.5
370
    -2
100
AcDbLine
 10
263.479157
 20
187.60451114
 30
0.0
 11
262.520843
 21
187.60451114
 31
0.0
  0
LINE
  5
632
330
2
100
AcDbEntity
  8
YKK_11
  6
ByBlock
 48
0.5
370
    -2
100
AcDbLine
 10
262.520843
 20
187.60451114
 30
0.0
 11
262.32918
 21
187.46165414
 31
0.0
  0
LINE
  5
633
330
2
100
AcDbEntity
  8
YKK_11
  6
ByBlock
 48
0.5
370
    -2
100
AcDbLine
 10
262.32918
 20
187.46165414
 30
0.0
 11
251.3
 21
187.46165414
 31
0.0
  0
LINE
  5
634
330
2
100
AcDbEntity
  8
YKK_11
  6
ByBlock
 48
0.5
370
    -2
100
AcDbLine
 10
251.3
 20
187.46165414
 30
0.0
 11
251.3
 21
185.99259464
 31
0.0
  0
LINE
  5
635
330
2
100
AcDbEntity
  8
YKK_11
  6
ByBlock
 48
0.5
370
    -2
100
AcDbLine
 10
251.3
 20
185.99259464
 30
0.0
 11
250.9
 21
185.76165464
 31
0.0
  0
LINE
  5
636
330
2
100
AcDbEntity
  8
YKK_11
  6
ByBlock
 48
0.5
370
    -2
100
AcDbLine
 10
250.9
 20
185.76165464
 30
0.0
 11
250.9
 21
177.46165414
 31
0.0
  0
LINE
  5
637
330
2
100
AcDbEntity
  8
YKK_11
  6
ByBlock
 48
0.5
370
    -2
100
AcDbLine
 10
250.9
 20
177.46165414
 30
0.0
 11
249.3
 21
177.46165414
 31
0.0
  0
LINE
  5
638
330
2
100
AcDbEntity
  8
YKK_11
  6
ByBlock
 48
0.5
370
    -2
100
AcDbLine
 10
249.3
 20
177.46165414
 30
0.0
 11
249.3
 21
184.11077481
 31
0.0
  0
LINE
  5
639
330
2
100
AcDbEntity
  8
YKK_11
  6
ByBlock
 48
0.5
370
    -2
100
AcDbLine
 10
249.3
 20
184.11077481
 30
0.0
 11
248.37155532
 21
186.66165414
 31
0.0
  0
LINE
  5
63A
330
2
100
AcDbEntity
  8
YKK_11
  6
ByBlock
 48
0.5
370
    -2
100
AcDbLine
 10
248.37155532
 20
186.66165414
 30
0.0
 11
249.8
 21
186.66165414
 31
0.0
  0
LINE
  5
63B
330
2
100
AcDbEntity
  8
YKK_11
  6
ByBlock
 48
0.5
370
    -2
100
AcDbLine
 10
249.8
 20
186.66165414
 30
0.0
 11
249.8
 21
189.46165414
 31
0.0
  0
LINE
  5
63C
330
2
100
AcDbEntity
  8
YKK_11
  6
ByBlock
 48
0.5
370
    -2
100
AcDbLine
 10
249.8
 20
189.46165414
 30
0.0
 11
251.0
 21
189.46165414
 31
0.0
  0
LINE
  5
63D
330
2
100
AcDbEntity
  8
YKK_11
  6
ByBlock
 48
0.5
370
    -2
100
AcDbLine
 10
251.0
 20
189.46165414
 30
0.0
 11
251.3
 21
189.16165414
 31
0.0
  0
LINE
  5
63E
330
2
100
AcDbEntity
  8
YKK_11
  6
ByBlock
 48
0.5
370
    -2
100
AcDbLine
 10
251.3
 20
189.16165414
 30
0.0
 11
251.5
 21
188.96165414
 31
0.0
  0
LINE
  5
63F
330
2
100
AcDbEntity
  8
YKK_11
  6
ByBlock
 48
0.5
370
    -2
100
AcDbLine
 10
251.5
 20
188.96165414
 30
0.0
 11
256.8
 21
188.96165414
 31
0.0
  0
LINE
  5
640
330
2
100
AcDbEntity
  8
YKK_11
  6
ByBlock
 48
0.5
370
    -2
100
AcDbLine
 10
256.8
 20
188.96165414
 30
0.0
 11
257.0
 21
189.16165414
 31
0.0
  0
LINE
  5
641
330
2
100
AcDbEntity
  8
YKK_11
  6
ByBlock
 48
0.5
370
    -2
100
AcDbLine
 10
257.0
 20
189.16165414
 30
0.0
 11
257.3
 21
189.46165414
 31
0.0
  0
LINE
  5
642
330
2
100
AcDbEntity
  8
YKK_11
  6
ByBlock
 48
0.5
370
    -2
100
AcDbLine
 10
257.3
 20
189.46165414
 30
0.0
 11
267.4
 21
189.46165414
 31
0.0
  0
LINE
  5
643
330
2
100
AcDbEntity
  8
YKK_11
  6
ByBlock
 48
0.5
370
    -2
100
AcDbLine
 10
267.4
 20
189.46165414
 30
0.0
 11
267.4
 21
191.26165414
 31
0.0
  0
LINE
  5
644
330
2
100
AcDbEntity
  8
YKK_11
  6
ByBlock
 48
0.5
370
    -2
100
AcDbLine
 10
267.4
 20
191.26165414
 30
0.0
 11
267.2
 21
191.46165414
 31
0.0
  0
LINE
  5
645
330
2
100
AcDbEntity
  8
YKK_11
  6
ByBlock
 48
0.5
370
    -2
100
AcDbLine
 10
267.2
 20
191.46165414
 30
0.0
 11
267.0
 21
191.66165414
 31
0.0
  0
LINE
  5
646
330
2
100
AcDbEntity
  8
YKK_11
  6
ByBlock
 48
0.5
370
    -2
100
AcDbLine
 10
267.0
 20
191.66165414
 30
0.0
 11
267.0
 21
192.96165484
 31
0.0
  0
LINE
  5
647
330
2
100
AcDbEntity
  8
YKK_11
  6
ByBlock
 48
0.5
370
    -2
100
AcDbLine
 10
267.0
 20
192.96165484
 30
0.0
 11
267.5459557
 21
194.46165414
 31
0.0
  0
LINE
  5
648
330
2
100
AcDbEntity
  8
YKK_11
  6
ByBlock
 48
0.5
370
    -2
100
AcDbLine
 10
267.5459557
 20
194.46165414
 30
0.0
 11
270.5
 21
194.46165414
 31
0.0
  0
LINE
  5
649
330
2
100
AcDbEntity
  8
YKK_11
  6
ByBlock
 48
0.5
370
    -2
100
AcDbLine
 10
270.5
 20
194.46165414
 30
0.0
 11
270.5
 21
198.46165414
 31
0.0
  0
LINE
  5
64A
330
2
100
AcDbEntity
  8
YKK_11
  6
ByBlock
 48
0.5
370
    -2
100
AcDbLine
 10
270.5
 20
198.46165414
 30
0.0
 11
272.0
 21
198.46165414
 31
0.0
  0
LINE
  5
64B
330
2
100
AcDbEntity
  8
YKK_11
  6
ByBlock
 48
0.5
370
    -2
100
AcDbLine
 10
272.0
 20
198.46165414
 30
0.0
 11
272.0
 21
194.96165414
 31
0.0
  0
LINE
  5
64C
330
2
100
AcDbEntity
  8
YKK_11
  6
ByBlock
 48
0.5
370
    -2
100
AcDbLine
 10
272.0
 20
194.96165414
 30
0.0
 11
277.0
 21
194.96165414
 31
0.0
  0
LINE
  5
64D
330
2
100
AcDbEntity
  8
YKK_11
  6
ByBlock
 48
0.5
370
    -2
100
AcDbLine
 10
277.0
 20
194.96165414
 30
0.0
 11
282.0
 21
194.96165414
 31
0.0
  0
LINE
  5
64E
330
2
100
AcDbEntity
  8
YKK_11
  6
ByBlock
 48
0.5
370
    -2
100
AcDbLine
 10
282.0
 20
194.96165414
 30
0.0
 11
282.0
 21
198.46165414
 31
0.0
  0
LINE
  5
64F
330
2
100
AcDbEntity
  8
YKK_11
  6
ByBlock
 48
0.5
370
    -2
100
AcDbLine
 10
282.0
 20
198.46165414
 30
0.0
 11
283.5
 21
198.46165414
 31
0.0
  0
LINE
  5
650
330
2
100
AcDbEntity
  8
YKK_11
  6
ByBlock
 48
0.5
370
    -2
100
AcDbLine
 10
283.5
 20
198.46165414
 30
0.0
 11
283.5
 21
194.46165414
 31
0.0
  0
LINE
  5
651
330
2
100
AcDbEntity
  8
YKK_11
  6
ByBlock
 48
0.5
370
    -2
100
AcDbLine
 10
283.5
 20
194.46165414
 30
0.0
 11
286.4540443
 21
194.46165414
 31
0.0
  0
LINE
  5
652
330
2
100
AcDbEntity
  8
YKK_11
  6
ByBlock
 48
0.5
370
    -2
100
AcDbLine
 10
286.4540443
 20
194.46165414
 30
0.0
 11
287.0
 21
192.96165484
 31
0.0
  0
LINE
  5
653
330
2
100
AcDbEntity
  8
YKK_11
  6
ByBlock
 48
0.5
370
    -2
100
AcDbLine
 10
287.0
 20
192.96165484
 30
0.0
 11
287.0
 21
191.66165414
 31
0.0
  0
LINE
  5
654
330
2
100
AcDbEntity
  8
YKK_11
  6
ByBlock
 48
0.5
370
    -2
100
AcDbLine
 10
287.0
 20
191.66165414
 30
0.0
 11
286.8
 21
191.46165414
 31
0.0
  0
LINE
  5
655
330
2
100
AcDbEntity
  8
YKK_11
  6
ByBlock
 48
0.5
370
    -2
100
AcDbLine
 10
286.8
 20
191.46165414
 30
0.0
 11
286.6
 21
191.26165414
 31
0.0
  0
LINE
  5
656
330
2
100
AcDbEntity
  8
YKK_11
  6
ByBlock
 48
0.5
370
    -2
100
AcDbLine
 10
286.6
 20
191.26165414
 30
0.0
 11
286.6
 21
189.46165414
 31
0.0
  0
LINE
  5
657
330
2
100
AcDbEntity
  8
YKK_11
  6
ByBlock
 48
0.5
370
    -2
100
AcDbLine
 10
286.6
 20
189.46165414
 30
0.0
 11
296.7
 21
189.46165414
 31
0.0
  0
LINE
  5
658
330
2
100
AcDbEntity
  8
YKK_11
  6
ByBlock
 48
0.5
370
    -2
100
AcDbLine
 10
296.7
 20
189.46165414
 30
0.0
 11
297.0
 21
189.16165414
 31
0.0
  0
LINE
  5
659
330
2
100
AcDbEntity
  8
YKK_11
  6
ByBlock
 48
0.5
370
    -2
100
AcDbLine
 10
297.0
 20
189.16165414
 30
0.0
 11
297.2
 21
188.96165414
 31
0.0
  0
LINE
  5
65A
330
2
100
AcDbEntity
  8
YKK_11
  6
ByBlock
 48
0.5
370
    -2
100
AcDbLine
 10
297.2
 20
188.96165414
 30
0.0
 11
302.5
 21
188.96165414
 31
0.0
  0
LINE
  5
65B
330
2
100
AcDbEntity
  8
YKK_11
  6
ByBlock
 48
0.5
370
    -2
100
AcDbLine
 10
302.5
 20
188.96165414
 30
0.0
 11
302.7
 21
189.16165414
 31
0.0
  0
LINE
  5
65C
330
2
100
AcDbEntity
  8
YKK_11
  6
ByBlock
 48
0.5
370
    -2
100
AcDbLine
 10
302.7
 20
189.16165414
 30
0.0
 11
303.0
 21
189.46165414
 31
0.0
  0
LINE
  5
65D
330
2
100
AcDbEntity
  8
YKK_11
  6
ByBlock
 48
0.5
370
    -2
100
AcDbLine
 10
303.0
 20
189.46165414
 30
0.0
 11
304.2
 21
189.46165414
 31
0.0
  0
LINE
  5
65E
330
2
100
AcDbEntity
  8
YKK_11
  6
ByBlock
 48
0.5
370
    -2
100
AcDbLine
 10
304.2
 20
189.46165414
 30
0.0
 11
304.2
 21
186.66165414
 31
0.0
  0
LINE
  5
65F
330
2
100
AcDbEntity
  8
YKK_11
  6
ByBlock
 48
0.5
370
    -2
100
AcDbLine
 10
304.2
 20
186.66165414
 30
0.0
 11
305.62844468
 21
186.66165414
 31
0.0
  0
LINE
  5
660
330
2
100
AcDbEntity
  8
YKK_11
  6
ByBlock
 48
0.5
370
    -2
100
AcDbLine
 10
305.62844468
 20
186.66165414
 30
0.0
 11
304.7
 21
184.11077481
 31
0.0
  0
LINE
  5
661
330
2
100
AcDbEntity
  8
YKK_11
  6
ByBlock
 48
0.5
370
    -2
100
AcDbLine
 10
304.7
 20
184.11077481
 30
0.0
 11
304.7
 21
177.46165414
 31
0.0
  0
LINE
  5
662
330
2
100
AcDbEntity
  8
YKK_11
  6
ByBlock
 48
0.5
370
    -2
100
AcDbLine
 10
304.7
 20
177.46165414
 30
0.0
 11
303.1
 21
177.46165414
 31
0.0
  0
LINE
  5
663
330
2
100
AcDbEntity
  8
YKK_11
  6
ByBlock
 48
0.5
370
    -2
100
AcDbLine
 10
303.1
 20
177.46165414
 30
0.0
 11
303.1
 21
185.76165464
 31
0.0
  0
LINE
  5
664
330
2
100
AcDbEntity
  8
YKK_11
  6
ByBlock
 48
0.5
370
    -2
100
AcDbLine
 10
303.1
 20
185.76165464
 30
0.0
 11
302.7
 21
185.99259464
 31
0.0
  0
LINE
  5
665
330
2
100
AcDbEntity
  8
YKK_11
  6
ByBlock
 48
0.5
370
    -2
100
AcDbLine
 10
302.7
 20
185.99259464
 30
0.0
 11
302.7
 21
187.46165414
 31
0.0
  0
TEXT
  5
666
330
2
100
AcDbEntity
  8
YKK_D
100
AcDbText
 10
288.70909091
 20
301.11392687
 30
0.0
 40
7.5
  1
(7)
  7
text-b
100
AcDbText
  0
CIRCLE
  5
667
330
2
100
AcDbEntity
  8
YKK_D
  6
ByBlock
370
    -2
100
AcDbCircle
 10
280.5
 20
279.46165414
 30
0.0
 40
0.6375
  0
CIRCLE
  5
668
330
2
100
AcDbEntity
  8
YKK_D
  6
ByBlock
370
    -2
100
AcDbCircle
 10
273.5
 20
279.46165414
 30
0.0
 40
0.6375
  0
CIRCLE
  5
669
330
2
100
AcDbEntity
  8
YKK_D
  6
ByBlock
370
    -2
100
AcDbCircle
 10
273.5
 20
279.46165414
 30
0.0
 40
0.6375
  0
CIRCLE
  5
66A
330
2
100
AcDbEntity
  8
YKK_D
  6
ByBlock
370
    -2
100
AcDbCircle
 10
247.5
 20
279.46165414
 30
0.0
 40
0.6375
  0
TEXT
  5
66B
330
2
100
AcDbEntity
  8
YKK_D
100
AcDbText
 10
255.06676136
 20
280.96165414
 30
0.0
 40
7.5
  1
26
  7
text-b
100
AcDbText
  0
CIRCLE
  5
66C
330
2
100
AcDbEntity
  8
YKK_D
  6
ByBlock
370
    -2
100
AcDbCircle
 10
280.5
 20
279.46165414
 30
0.0
 40
0.6375
  0
CIRCLE
  5
66D
330
2
100
AcDbEntity
  8
YKK_D
  6
ByBlock
370
    -2
100
AcDbCircle
 10
306.5
 20
279.46165414
 30
0.0
 40
0.6375
  0
TEXT
  5
66E
330
2
100
AcDbEntity
  8
YKK_D
100
AcDbText
 10
288.06676136
 20
280.96165414
 30
0.0
 40
7.5
  1
26
  7
text-b
100
AcDbText
  0
CIRCLE
  5
66F
330
2
100
AcDbEntity
  8
YKK_D
  6
ByBlock
370
    -2
100
AcDbCircle
 10
247.5
 20
279.46165414
 30
0.0
 40
0.6375
  0
CIRCLE
  5
670
330
2
100
AcDbEntity
  8
YKK_D
  6
ByBlock
370
    -2
100
AcDbCircle
 10
227.5
 20
279.46165414
 30
0.0
 40
0.6375
  0
TEXT
  5
671
330
2
100
AcDbEntity
  8
YKK_D
100
AcDbText
 10
231.96022727
 20
280.96165414
 30
0.0
 40
7.5
  1
20
  7
text-b
100
AcDbText
  0
CIRCLE
  5
672
330
2
100
AcDbEntity
  8
YKK_D
  6
ByBlock
370
    -2
100
AcDbCircle
 10
306.5
 20
279.46165414
 30
0.0
 40
0.6375
  0
CIRCLE
  5
673
330
2
100
AcDbEntity
  8
YKK_D
  6
ByBlock
370
    -2
100
AcDbCircle
 10
326.5
 20
279.46165414
 30
0.0
 40
0.6375
  0
TEXT
  5
674
330
2
100
AcDbEntity
  8
YKK_D
100
AcDbText
 10
310.96022727
 20
280.96165414
 30
0.0
 40
7.5
  1
20
  7
text-b
100
AcDbText
  0
CIRCLE
  5
675
330
2
100
AcDbEntity
  8
YKK_D
  6
ByBlock
370
    -2
100
AcDbCircle
 10
326.5
 20
319.46165414
 30
0.0
 40
0.6375
  0
CIRCLE
  5
676
330
2
100
AcDbEntity
  8
YKK_D
  6
ByBlock
370
    -2
100
AcDbCircle
 10
227.5
 20
319.46165414
 30
0.0
 40
0.6375
  0
TEXT
  5
677
330
2
100
AcDbEntity
  8
YKK_D
100
AcDbText
 10
268.24289773
 20
321.11392687
 30
0.0
 40
7.5
  1
(99)
  7
text-b
100
AcDbText
  0
CIRCLE
  5
678
330
2
100
AcDbEntity
  8
YKK_D
  6
ByBlock
370
    -2
100
AcDbCircle
 10
247.0
 20
119.46165414
 30
0.0
 40
0.6375
  0
CIRCLE
  5
679
330
2
100
AcDbEntity
  8
YKK_D
  6
ByBlock
370
    -2
100
AcDbCircle
 10
307.0
 20
119.46165414
 30
0.0
 40
0.6375
  0
TEXT
  5
67A
330
2
100
AcDbEntity
  8
YKK_D
100
AcDbText
 10
271.43892045
 20
120.26165414
 30
0.0
 40
7.5
  1
60
  7
text-b
100
AcDbText
  0
CIRCLE
  5
67B
330
2
100
AcDbEntity
  8
YKK_D
  6
ByBlock
370
    -2
100
AcDbCircle
 10
247.0
 20
119.46165414
 30
0.0
 40
0.6375
  0
CIRCLE
  5
67C
330
2
100
AcDbEntity
  8
YKK_D
  6
ByBlock
370
    -2
100
AcDbCircle
 10
230.5
 20
119.46165414
 30
0.0
 40
0.6375
  0
TEXT
  5
67D
330
2
100
AcDbEntity
  8
YKK_D
100
AcDbText
 10
201.64886364
 20
121.81392687
 30
0.0
 40
7.5
  1
(16.5)
  7
text-b
100
AcDbText
  0
LINE
  5
67E
330
2
100
AcDbEntity
  8
YKK_11
  6
ByBlock
 48
0.5
370
    -2
100
AcDbLine
 10
323.5
 20
209.26165414
 30
0.0
 11
323.5
 21
189.46165414
 31
0.0
  0
LINE
  5
67F
330
2
100
AcDbEntity
  8
YKK_11
  6
ByBlock
 48
0.5
370
    -2
100
AcDbLine
 10
323.5
 20
189.46165414
 30
0.0
 11
310.5
 21
189.46165414
 31
0.0
  0
LINE
  5
680
330
2
100
AcDbEntity
  8
YKK_11
  6
ByBlock
 48
0.5
370
    -2
100
AcDbLine
 10
310.5
 20
189.46165414
 30
0.0
 11
310.5
 21
192.46165414
 31
0.0
  0
LINE
  5
681
330
2
100
AcDbEntity
  8
YKK_11
  6
ByBlock
 48
0.5
370
    -2
100
AcDbLine
 10
310.5
 20
192.46165414
 30
0.0
 11
309.0
 21
192.46165414
 31
0.0
  0
LINE
  5
682
330
2
100
AcDbEntity
  8
YKK_11
  6
ByBlock
 48
0.5
370
    -2
100
AcDbLine
 10
309.0
 20
192.46165414
 30
0.0
 11
308.8
 21
192.26165414
 31
0.0
  0
LINE
  5
683
330
2
100
AcDbEntity
  8
YKK_11
  6
ByBlock
 48
0.5
370
    -2
100
AcDbLine
 10
308.8
 20
192.26165414
 30
0.0
 11
308.35
 21
192.00184614
 31
0.0
  0
LINE
  5
684
330
2
100
AcDbEntity
  8
YKK_11
  6
ByBlock
 48
0.5
370
    -2
100
AcDbLine
 10
308.35
 20
192.00184614
 30
0.0
 11
307.0
 21
192.78126977
 31
0.0
  0
LINE
  5
685
330
2
100
AcDbEntity
  8
YKK_11
  6
ByBlock
 48
0.5
370
    -2
100
AcDbLine
 10
307.0
 20
192.78126977
 30
0.0
 11
307.0
 21
193.26165414
 31
0.0
  0
LINE
  5
686
330
2
100
AcDbEntity
  8
YKK_11
  6
ByBlock
 48
0.5
370
    -2
100
AcDbLine
 10
307.0
 20
193.26165414
 30
0.0
 11
311.3
 21
193.26165414
 31
0.0
  0
LINE
  5
687
330
2
100
AcDbEntity
  8
YKK_11
  6
ByBlock
 48
0.5
370
    -2
100
AcDbLine
 10
311.3
 20
193.26165414
 30
0.0
 11
311.3
 21
190.26165414
 31
0.0
  0
LINE
  5
688
330
2
100
AcDbEntity
  8
YKK_11
  6
ByBlock
 48
0.5
370
    -2
100
AcDbLine
 10
311.3
 20
190.26165414
 30
0.0
 11
322.0
 21
190.26165414
 31
0.0
  0
LINE
  5
689
330
2
100
AcDbEntity
  8
YKK_11
  6
ByBlock
 48
0.5
370
    -2
100
AcDbLine
 10
322.0
 20
190.26165414
 30
0.0
 11
322.0
 21
207.86165414
 31
0.0
  0
LINE
  5
68A
330
2
100
AcDbEntity
  8
YKK_11
  6
ByBlock
 48
0.5
370
    -2
100
AcDbLine
 10
322.0
 20
207.86165414
 30
0.0
 11
312.1
 21
207.86165414
 31
0.0
  0
LINE
  5
68B
330
2
100
AcDbEntity
  8
YKK_11
  6
ByBlock
 48
0.5
370
    -2
100
AcDbLine
 10
312.1
 20
207.86165414
 30
0.0
 11
312.1
 21
204.86165414
 31
0.0
  0
LINE
  5
68C
330
2
100
AcDbEntity
  8
YKK_11
  6
ByBlock
 48
0.5
370
    -2
100
AcDbLine
 10
312.1
 20
204.86165414
 30
0.0
 11
307.0
 21
204.86165414
 31
0.0
  0
LINE
  5
68D
330
2
100
AcDbEntity
  8
YKK_11
  6
ByBlock
 48
0.5
370
    -2
100
AcDbLine
 10
307.0
 20
204.86165414
 30
0.0
 11
307.0
 21
205.76883414
 31
0.0
  0
LINE
  5
68E
330
2
100
AcDbEntity
  8
YKK_11
  6
ByBlock
 48
0.5
370
    -2
100
AcDbLine
 10
307.0
 20
205.76883414
 30
0.0
 11
308.6
 21
206.69259414
 31
0.0
  0
LINE
  5
68F
330
2
100
AcDbEntity
  8
YKK_11
  6
ByBlock
 48
0.5
370
    -2
100
AcDbLine
 10
308.6
 20
206.69259414
 30
0.0
 11
308.8
 21
206.57712414
 31
0.0
  0
LINE
  5
690
330
2
100
AcDbEntity
  8
YKK_11
  6
ByBlock
 48
0.5
370
    -2
100
AcDbLine
 10
308.8
 20
206.57712414
 30
0.0
 11
308.8
 21
205.66165414
 31
0.0
  0
LINE
  5
691
330
2
100
AcDbEntity
  8
YKK_11
  6
ByBlock
 48
0.5
370
    -2
100
AcDbLine
 10
308.8
 20
205.66165414
 30
0.0
 11
311.3
 21
205.66165414
 31
0.0
  0
LINE
  5
692
330
2
100
AcDbEntity
  8
YKK_11
  6
ByBlock
 48
0.5
370
    -2
100
AcDbLine
 10
311.3
 20
205.66165414
 30
0.0
 11
311.3
 21
208.66165414
 31
0.0
  0
LINE
  5
693
330
2
100
AcDbEntity
  8
YKK_11
  6
ByBlock
 48
0.5
370
    -2
100
AcDbLine
 10
311.3
 20
208.66165414
 30
0.0
 11
321.7
 21
208.66165414
 31
0.0
  0
LINE
  5
694
330
2
100
AcDbEntity
  8
YKK_11
  6
ByBlock
 48
0.5
370
    -2
100
AcDbLine
 10
321.7
 20
208.66165414
 30
0.0
 11
322.0
 21
208.96165414
 31
0.0
  0
LINE
  5
695
330
2
100
AcDbEntity
  8
YKK_11
  6
ByBlock
 48
0.5
370
    -2
100
AcDbLine
 10
322.0
 20
208.96165414
 30
0.0
 11
322.3
 21
209.26165414
 31
0.0
  0
LINE
  5
696
330
2
100
AcDbEntity
  8
YKK_11
  6
ByBlock
 48
0.5
370
    -2
100
AcDbLine
 10
322.3
 20
209.26165414
 30
0.0
 11
323.5
 21
209.26165414
 31
0.0
  0
LINE
  5
697
330
2
100
AcDbEntity
  8
YKK_D
370
    -2
100
AcDbLine
 10
285.5
 20
99.46165414
 30
0.0
 11
289.83012702
 21
96.96165414
 31
0.0
  0
LINE
  5
698
330
2
100
AcDbEntity
  8
YKK_D
370
    -2
100
AcDbLine
 10
285.5
 20
99.46165414
 30
0.0
 11
289.83012702
 21
101.96165414
 31
0.0
  0
LINE
  5
699
330
2
100
AcDbEntity
  8
YKK_D
370
    -2
100
AcDbLine
 10
289.83012702
 20
96.96165414
 30
0.0
 11
289.83012702
 21
101.96165414
 31
0.0
  0
LINE
  5
69A
330
2
100
AcDbEntity
  8
YKK_D
370
    -2
100
AcDbLine
 10
285.5
 20
99.46165414
 30
0.0
 11
294.16025404
 21
99.46165414
 31
0.0
  0
TEXT
  5
69B
330
2
100
AcDbEntity
  8
YKK_D
100
AcDbText
 10
327.70880682
 20
100.26165414
 30
0.0
 40
7.5
  1
W2
  7
text-b
100
AcDbText
  0
CIRCLE
  5
69C
330
2
100
AcDbEntity
  8
YKK_D
  6
ByBlock
370
    -2
100
AcDbCircle
 10
307.0
 20
119.46165414
 30
0.0
 40
0.6375
  0
CIRCLE
  5
69D
330
2
100
AcDbEntity
  8
YKK_D
  6
ByBlock
370
    -2
100
AcDbCircle
 10
323.5
 20
119.46165414
 30
0.0
 40
0.6375
  0
TEXT
  5
69E
330
2
100
AcDbEntity
  8
YKK_D
100
AcDbText
 10
327.16647727
 20
121.81392687
 30
0.0
 40
7.5
  1
(16.5)
  7
text-b
100
AcDbText
  0
ENDSEC
  0
SECTION
  2
OBJECTS
  0
DICTIONARY
  5
1A
330
0
100
AcDbDictionary
281
     1
  3
ACAD_CIP_PREVIOUS_PRODUCT_INFO
350
1D0
  3
ACAD_COLOR
350
11D
  3
ACAD_DETAILVIEWSTYLE
350
1CB
  3
ACAD_GROUP
350
18
  3
ACAD_LAYOUT
350
144
  3
ACAD_MATERIAL
350
F0
  3
ACAD_MLEADERSTYLE
350
142
  3
ACAD_MLINESTYLE
350
19
  3
ACAD_PLOTSETTINGS
350
145
  3
ACAD_PLOTSTYLENAME
350
EE
  3
ACAD_RENDER_ACTIVE_RAPIDRT_SETTINGS
350
1DA
  3
ACAD_RENDER_ACTIVE_SETTINGS
350
6FC
  3
ACAD_SCALELIST
350
120
  3
ACAD_SECTIONVIEWSTYLE
350
1C9
  3
ACAD_TABLESTYLE
350
11E
  3
ACAD_VISUALSTYLE
350
109
  3
ACDB_RECOMPOSE_DATA
350
70B
  3
AcDbVariableDictionary
350
1B9
  0
DICTIONARY
  5
176
330
12
100
AcDbDictionary
280
     1
281
     1
  0
DICTIONARY
  5
242
330
A
100
AcDbDictionary
280
     1
281
     1
  3
ACAD_LAYERSTATES
360
243
  0
DICTIONARY
  5
1DB
330
4
100
AcDbDictionary
280
     1
281
     1
  3
ADSK_XREC_LAYER_RECONCILED
360
1DC
  0
DICTIONARY
  5
1DD
330
24
100
AcDbDictionary
280
     1
281
     1
  3
ADSK_XREC_LAYER_RECONCILED
360
1DE
  0
DICTIONARY
  5
1DF
330
E0
100
AcDbDictionary
280
     1
281
     1
  3
ADSK_XREC_LAYER_RECONCILED
360
1E0
  0
DICTIONARY
  5
172
330
2
100
AcDbDictionary
280
     1
281
     1
  3
ACAD_LAYOUTSELFREF
360
173
  0
DICTIONARY
  5
174
330
7
100
AcDbDictionary
280
     1
281
     1
  3
ACAD_LAYOUTSELFREF
360
175
  0
XRECORD
  5
1D0
102
{ACAD_REACTORS
330
1A
102
}
330
1A
100
AcDbXrecord
280
     1
300
ACD
300
2018
300
86830ACD_2018_0F
  0
DICTIONARY
  5
11D
102
{ACAD_REACTORS
330
1A
102
}
330
1A
100
AcDbDictionary
281
     1
  0
DICTIONARY
  5
1CB
102
{ACAD_REACTORS
330
1A
102
}
330
1A
100
AcDbDictionary
281
     1
  3
Metric50
350
1CC
  0
DICTIONARY
  5
18
102
{ACAD_REACTORS
330
1A
102
}
330
1A
100
AcDbDictionary
281
     1
  0
DICTIONARY
  5
144
102
{ACAD_REACTORS
330
1A
102
}
330
1A
100
AcDbDictionary
281
     1
  3
Model
350
146
  3
レイアウト1
350
147
  0
DICTIONARY
  5
F0
102
{ACAD_REACTORS
330
1A
102
}
330
1A
100
AcDbDictionary
281
     1
  3
ByBlock
350
F9
  3
ByLayer
350
F1
  3
Global
350
101
  0
DICTIONARY
  5
142
102
{ACAD_REACTORS
330
1A
102
}
330
1A
100
AcDbDictionary
281
     1
  3
Standard
350
143
  0
DICTIONARY
  5
19
102
{ACAD_REACTORS
330
1A
102
}
330
1A
100
AcDbDictionary
281
     1
  3
STANDARD
350
1B
  0
DICTIONARY
  5
145
102
{ACAD_REACTORS
330
1A
102
}
330
1A
100
AcDbDictionary
281
     1
  0
ACDBDICTIONARYWDFLT
  5
EE
102
{ACAD_REACTORS
330
1A
102
}
330
1A
100
AcDbDictionary
281
     1
  3
Normal
350
EF
100
AcDbDictionaryWithDefault
340
EF
  0
RAPIDRTRENDERSETTINGS
  5
1DA
102
{ACAD_REACTORS
330
1A
102
}
330
1A
100
AcDbRenderSettings
 90
        2
  1
中
290
     1
290
     0
290
     1
290
     1
  1

  1
5 レンダリング レベルを適用
 90
        0
100
AcDbRapidRTRenderSettings
 90
        3
 70
     0
 90
        5
 90
        1
 70
     1
 70
     2
 40
3.0
 40
3.0
290
     1
  0
MENTALRAYRENDERSETTINGS
  5
6FC
102
{ACAD_XDICTIONARY
360
6FD
102
}
102
{ACAD_REACTORS
330
1A
102
}
330
1A
100
AcDbRenderSettings
 90
        2
  1
中間
290
     1
290
     1
290
     1
290
     1
  1

  1

 90
        0
100
AcDbMentalRayRenderSettings
 90
        2
 90
        0
 90
        1
 70
     2
 40
3.0
 40
3.0
 40
0.05
 40
0.05
 40
0.05
 40
0.05
 70
     0
290
     0
290
     1
 90
        5
 90
        5
 90
        5
290
     0
 90
      500
290
     0
 40
1.0
 90
    10000
 90
        5
 90
        5
 90
        5
290
     0
 90
      200
290
     0
290
     0
290
     0
 40
1.0
 40
1.0
 40
1500.0
 70
     0
 70
     0
 40
10.0
 70
     0
 70
     0
290
     0
  1

 90
       32
 70
     0
 90
     1048
290
     0
 40
1.0
  0
DICTIONARY
  5
120
102
{ACAD_REACTORS
330
1A
102
}
330
1A
100
AcDbDictionary
281
     1
  3
A0
350
121
  3
A1
350
122
  3
A2
350
123
  3
A3
350
124
  3
A4
350
125
  3
A5
350
126
  3
A6
350
127
  3
A7
350
128
  3
A8
350
129
  3
A9
350
12A
  3
B0
350
12B
  3
B1
350
12C
  3
B2
350
12D
  3
B3
350
12E
  3
B4
350
12F
  3
B5
350
130
  3
B6
350
131
  3
B7
350
132
  3
B8
350
133
  3
B9
350
134
  3
C0
350
135
  3
C1
350
136
  3
C2
350
137
  3
C3
350
138
  3
C4
350
139
  3
C5
350
13A
  3
C6
350
13B
  3
C7
350
13C
  3
C8
350
13D
  3
C9
350
13E
  3
D0
350
13F
  3
D1
350
140
  3
D2
350
141
  0
DICTIONARY
  5
1C9
102
{ACAD_REACTORS
330
1A
102
}
330
1A
100
AcDbDictionary
281
     1
  3
Metric50
350
1CA
  0
DICTIONARY
  5
11E
102
{ACAD_REACTORS
330
1A
102
}
330
1A
100
AcDbDictionary
281
     1
  3
Standard
350
11F
  0
DICTIONARY
  5
109
102
{ACAD_REACTORS
330
1A
102
}
330
1A
100
AcDbDictionary
281
     1
  3
2dWireframe
350
10F
  3
3D Hidden
350
111
  3
3dWireframe
350
110
  3
Basic
350
10E
  3
Brighten
350
115
  3
ColorChange
350
119
  3
Conceptual
350
112
  3
Dim
350
114
  3
EdgeColorOff
350
11C
  3
Facepattern
350
118
  3
Flat
350
10A
  3
FlatWithEdges
350
10B
  3
Gouraud
350
10C
  3
GouraudWithEdges
350
10D
  3
Hidden
350
1C3
  3
JitterOff
350
11A
  3
Linepattern
350
117
  3
OverhangOff
350
11B
  3
Realistic
350
113
  3
Shaded
350
1C8
  3
Shaded with edges
350
1C7
  3
Shades of Gray
350
1C4
  3
Sketchy
350
1C5
  3
Thicken
350
116
  3
Wireframe
350
1C2
  3
X-Ray
350
1C6
  0
XRECORD
  5
70B
102
{ACAD_REACTORS
330
1A
102
}
330
1A
100
AcDbXrecord
280
     1
 90
        1
330
11F
  0
DICTIONARY
  5
1B9
102
{ACAD_REACTORS
330
1A
102
}
330
1A
100
AcDbDictionary
281
     1
  3
CANNOSCALE
350
1BC
  3
CMLEADERSTYLE
350
1BB
  3
CTABLESTYLE
350
1BA
  3
CVIEWDETAILSTYLE
350
6FF
  3
CVIEWSECTIONSTYLE
350
700
  3
DIMASSOC
350
1BF
  3
INDEXCTL
350
1BE
  3
SORTENTS
350
1BD
  3
XCLIPFRAME
350
709
  0
DICTIONARY
  5
243
102
{ACAD_REACTORS
330
242
102
}
330
242
100
AcDbDictionary
281
     1
  0
XRECORD
  5
1DC
102
{ACAD_REACTORS
330
1DB
102
}
330
1DB
100
AcDbXrecord
280
     1
290
     1
  0
XRECORD
  5
1DE
102
{ACAD_REACTORS
330
1DD
102
}
330
1DD
100
AcDbXrecord
280
     1
290
     1
  0
XRECORD
  5
1E0
102
{ACAD_REACTORS
330
1DF
102
}
330
1DF
100
AcDbXrecord
280
     1
290
     1
  0
XRECORD
  5
173
102
{ACAD_REACTORS
330
172
102
}
330
172
100
AcDbXrecord
280
     1
340
2
  0
XRECORD
  5
175
102
{ACAD_REACTORS
330
174
102
}
330
174
100
AcDbXrecord
280
     1
340
7
  0
ACDBDETAILVIEWSTYLE
  5
1CC
102
{ACAD_XDICTIONARY
360
746
102
}
102
{ACAD_REACTORS
330
1CB
102
}
330
1CB
100
AcDbModelDocViewStyle
 70
     0
  3
Metric50
290
     0
100
AcDbDetailViewStyle
 70
     0
 71
     0
 90
        3
 71
     1
340
C
 62
   256
 40
5.0
340
0
 62
   256
 40
5.0
300

 40
0.0
280
     1
 71
     2
340
5
 90
       25
 62
   256
 71
     3
340
C
 62
   256
 40
5.0
 90
        0
 40
15.0
 90
        1
300
%<\AcVar ViewDetailId>% (%<\AcVar ViewScale \f "%sn">%)
 71
     4
340
5
 90
       25
 62
   256
340
5
 90
       25
 62
   256
280
     0
  0
LAYOUT
  5
146
102
{ACAD_XDICTIONARY
360
6E8
102
}
102
{ACAD_REACTORS
330
144
102
}
330
144
100
AcDbPlotSettings
  1

  2
C:\ACAD-I\support\plotters\Default Windows System Printer.pc3
  4
A4
  6

 40
4.90008307
 41
4.90005493
 42
4.90008545
 43
4.90008545
 44
210.01567078
 45
297.01065063
 46
0.0
 47
0.0
 48
0.0
 49
0.0
140
0.0
141
0.0
142
1.0
143
3.19786515
 70
 11952
 72
     1
 73
     1
 74
     0
  7
monochrome.ctb
 75
     0
147
0.31270862
 76
     0
 77
     2
 78
   300
148
57.24927453
149
1.66610707
100
AcDbLayout
  1
Model
 70
     1
 71
     0
 10
0.0
 20
0.0
 11
12.0
 21
9.0
 12
0.0
 22
0.0
 32
0.0
 14
0.0
 24
0.0
 34
0.0
 15
0.0
 25
0.0
 35
0.0
146
0.0
 13
0.0
 23
0.0
 33
0.0
 16
1.0
 26
0.0
 36
0.0
 17
0.0
 27
1.0
 37
0.0
 76
     0
330
2
331
EC
1001
ACAD_PSEXT
1000
C:\ACAD-I\support\plotters\Default Windows System Printer.pc3
1000
FX ApeosPort-IV C4475
1000
10.230.216.80
1000
宣伝部6F用ドライバー（20180907）
1070
     0
  0
LAYOUT
  5
147
102
{ACAD_REACTORS
330
144
102
}
330
144
100
AcDbPlotSettings
  1

  2
C:\ACAD-I\support\plotters\Default Windows System Printer.pc3
  4
A4
  6

 40
4.90008307
 41
4.90005493
 42
4.90008545
 43
4.90008545
 44
210.01567078
 45
297.01065063
 46
0.0
 47
0.0
 48
0.0
 49
0.0
140
0.0
141
0.0
142
1.0
143
1.0
 70
 15024
 72
     1
 73
     1
 74
     5
  7
monochrome.ctb
 75
    16
147
1.0
 76
     0
 77
     2
 78
   300
148
0.0
149
0.0
100
AcDbLayout
  1
レイアウト1
 70
     1
 71
     1
 10
0.0
 20
0.0
 11
420.0
 21
297.0
 12
0.0
 22
0.0
 32
0.0
 14
1.00000000E+20
 24
1.00000000E+20
 34
1.00000000E+20
 15
-1.00000000E+20
 25
-1.00000000E+20
 35
-1.00000000E+20
146
0.0
 13
0.0
 23
0.0
 33
0.0
 16
1.0
 26
0.0
 36
0.0
 17
0.0
 27
1.0
 37
0.0
 76
     0
330
7
1001
ACAD_PSEXT
1000
C:\ACAD-I\support\plotters\Default Windows System Printer.pc3
1000
FX ApeosPort-IV C4475
1000
10.230.216.80
1000
宣伝部6F用ドライバー（20180907）
1070
     0
  0
MATERIAL
  5
F9
102
{ACAD_XDICTIONARY
360
FA
102
}
102
{ACAD_REACTORS
330
F0
102
}
330
F0
100
AcDbMaterial
  1
ByBlock
 72
     0
 43
0.02083333
 43
0.0
 43
0.0
 43
0.0
 43
0.0
 43
0.02083333
 43
0.0
 43
0.0
 43
0.0
 43
0.0
 43
1.0
 43
0.0
 43
0.0
 43
0.0
 43
0.0
 43
1.0
 77
     0
 47
0.02083333
 47
0.0
 47
0.0
 47
0.0
 47
0.0
 47
0.02083333
 47
0.0
 47
0.0
 47
0.0
 47
0.0
 47
1.0
 47
0.0
 47
0.0
 47
0.0
 47
0.0
 47
1.0
171
     0
 49
0.02083333
 49
0.0
 49
0.0
 49
0.0
 49
0.0
 49
0.02083333
 49
0.0
 49
0.0
 49
0.0
 49
0.0
 49
1.0
 49
0.0
 49
0.0
 49
0.0
 49
0.0
 49
1.0
175
     0
142
0.02083333
142
0.0
142
0.0
142
0.0
142
0.0
142
0.02083333
142
0.0
142
0.0
142
0.0
142
0.0
142
1.0
142
0.0
142
0.0
142
0.0
142
0.0
142
1.0
179
     0
144
0.02083333
144
0.0
144
0.0
144
0.0
144
0.0
144
0.02083333
144
0.0
144
0.0
144
0.0
144
0.0
144
1.0
144
0.0
144
0.0
144
0.0
144
0.0
144
1.0
147
0.02083333
147
0.0
147
0.0
147
0.0
147
0.0
147
0.02083333
147
0.0
147
0.0
147
0.0
147
0.0
147
1.0
147
0.0
147
0.0
147
0.0
147
0.0
147
1.0
  0
MATERIAL
  5
F1
102
{ACAD_XDICTIONARY
360
F2
102
}
102
{ACAD_REACTORS
330
F0
102
}
330
F0
100
AcDbMaterial
  1
ByLayer
 72
     0
 43
0.02083333
 43
0.0
 43
0.0
 43
0.0
 43
0.0
 43
0.02083333
 43
0.0
 43
0.0
 43
0.0
 43
0.0
 43
1.0
 43
0.0
 43
0.0
 43
0.0
 43
0.0
 43
1.0
 77
     0
 47
0.02083333
 47
0.0
 47
0.0
 47
0.0
 47
0.0
 47
0.02083333
 47
0.0
 47
0.0
 47
0.0
 47
0.0
 47
1.0
 47
0.0
 47
0.0
 47
0.0
 47
0.0
 47
1.0
171
     0
 49
0.02083333
 49
0.0
 49
0.0
 49
0.0
 49
0.0
 49
0.02083333
 49
0.0
 49
0.0
 49
0.0
 49
0.0
 49
1.0
 49
0.0
 49
0.0
 49
0.0
 49
0.0
 49
1.0
175
     0
142
0.02083333
142
0.0
142
0.0
142
0.0
142
0.0
142
0.02083333
142
0.0
142
0.0
142
0.0
142
0.0
142
1.0
142
0.0
142
0.0
142
0.0
142
0.0
142
1.0
179
     0
144
0.02083333
144
0.0
144
0.0
144
0.0
144
0.0
144
0.02083333
144
0.0
144
0.0
144
0.0
144
0.0
144
1.0
144
0.0
144
0.0
144
0.0
144
0.0
144
1.0
147
0.02083333
147
0.0
147
0.0
147
0.0
147
0.0
147
0.02083333
147
0.0
147
0.0
147
0.0
147
0.0
147
1.0
147
0.0
147
0.0
147
0.0
147
0.0
147
1.0
  0
MATERIAL
  5
101
102
{ACAD_XDICTIONARY
360
102
102
}
102
{ACAD_REACTORS
330
F0
102
}
330
F0
100
AcDbMaterial
  1
Global
 72
     0
 43
0.02083333
 43
0.0
 43
0.0
 43
0.0
 43
0.0
 43
0.02083333
 43
0.0
 43
0.0
 43
0.0
 43
0.0
 43
1.0
 43
0.0
 43
0.0
 43
0.0
 43
0.0
 43
1.0
 77
     0
 47
0.02083333
 47
0.0
 47
0.0
 47
0.0
 47
0.0
 47
0.02083333
 47
0.0
 47
0.0
 47
0.0
 47
0.0
 47
1.0
 47
0.0
 47
0.0
 47
0.0
 47
0.0
 47
1.0
171
     0
 49
0.02083333
 49
0.0
 49
0.0
 49
0.0
 49
0.0
 49
0.02083333
 49
0.0
 49
0.0
 49
0.0
 49
0.0
 49
1.0
 49
0.0
 49
0.0
 49
0.0
 49
0.0
 49
1.0
175
     0
142
0.02083333
142
0.0
142
0.0
142
0.0
142
0.0
142
0.02083333
142
0.0
142
0.0
142
0.0
142
0.0
142
1.0
142
0.0
142
0.0
142
0.0
142
0.0
142
1.0
179
     0
144
0.02083333
144
0.0
144
0.0
144
0.0
144
0.0
144
0.02083333
144
0.0
144
0.0
144
0.0
144
0.0
144
1.0
144
0.0
144
0.0
144
0.0
144
0.0
144
1.0
147
0.02083333
147
0.0
147
0.0
147
0.0
147
0.0
147
0.02083333
147
0.0
147
0.0
147
0.0
147
0.0
147
1.0
147
0.0
147
0.0
147
0.0
147
0.0
147
1.0
  0
MLEADERSTYLE
  5
143
102
{ACAD_REACTORS
330
142
102
}
330
142
100
AcDbMLeaderStyle
170
     2
171
     1
172
     0
 90
        2
 40
0.0
 41
0.0
173
     1
 91
-1056964608
340
E
 92
       -2
290
     1
 42
0.09
291
     1
 43
0.36
  3
Standard
 44
0.18
300

342
C
174
     1
178
     6
175
     1
176
     0
 93
-1056964608
 45
0.18
292
     0
297
     0
 46
0.18
 94
-1056964608
 47
1.0
 49
1.0
140
1.0
293
     1
141
0.0
294
     1
177
     0
142
1.0
295
     0
296
     0
143
0.125
1001
ACAD_MLEADERVER
1070
     2
  0
MLINESTYLE
  5
1B
102
{ACAD_REACTORS
330
19
102
}
330
19
100
AcDbMlineStyle
  2
STANDARD
 70
     0
  3

 62
   256
 51
90.0
 52
90.0
 71
     2
 49
0.5
 62
   256
  6
BYLAYER
 49
-0.5
 62
   256
  6
BYLAYER
  0
ACDBPLACEHOLDER
  5
EF
102
{ACAD_REACTORS
330
EE
102
}
330
EE
  0
DICTIONARY
  5
6FD
330
6FC
100
AcDbDictionary
280
     1
281
     1
  3
ADSK_XREC_MENTALRAYSETTINGSINFO
360
6FE
  0
SCALE
  5
121
102
{ACAD_REACTORS
330
120
102
}
330
120
100
AcDbScale
 70
     0
300
1:1
140
1.0
141
1.0
290
     1
  0
SCALE
  5
122
102
{ACAD_REACTORS
330
120
102
}
330
120
100
AcDbScale
 70
     0
300
1:2
140
1.0
141
2.0
290
     0
  0
SCALE
  5
123
102
{ACAD_REACTORS
330
120
102
}
330
120
100
AcDbScale
 70
     0
300
1:4
140
1.0
141
4.0
290
     0
  0
SCALE
  5
124
102
{ACAD_REACTORS
330
120
102
}
330
120
100
AcDbScale
 70
     0
300
1:5
140
1.0
141
5.0
290
     0
  0
SCALE
  5
125
102
{ACAD_REACTORS
330
120
102
}
330
120
100
AcDbScale
 70
     0
300
1:8
140
1.0
141
8.0
290
     0
  0
SCALE
  5
126
102
{ACAD_REACTORS
330
120
102
}
330
120
100
AcDbScale
 70
     0
300
1:10
140
1.0
141
10.0
290
     0
  0
SCALE
  5
127
102
{ACAD_REACTORS
330
120
102
}
330
120
100
AcDbScale
 70
     0
300
1:16
140
1.0
141
16.0
290
     0
  0
SCALE
  5
128
102
{ACAD_REACTORS
330
120
102
}
330
120
100
AcDbScale
 70
     0
300
1:20
140
1.0
141
20.0
290
     0
  0
SCALE
  5
129
102
{ACAD_REACTORS
330
120
102
}
330
120
100
AcDbScale
 70
     0
300
1:30
140
1.0
141
30.0
290
     0
  0
SCALE
  5
12A
102
{ACAD_REACTORS
330
120
102
}
330
120
100
AcDbScale
 70
     0
300
1:40
140
1.0
141
40.0
290
     0
  0
SCALE
  5
12B
102
{ACAD_REACTORS
330
120
102
}
330
120
100
AcDbScale
 70
     0
300
1:50
140
1.0
141
50.0
290
     0
  0
SCALE
  5
12C
102
{ACAD_REACTORS
330
120
102
}
330
120
100
AcDbScale
 70
     0
300
1:100
140
1.0
141
100.0
290
     0
  0
SCALE
  5
12D
102
{ACAD_REACTORS
330
120
102
}
330
120
100
AcDbScale
 70
     0
300
2:1
140
2.0
141
1.0
290
     0
  0
SCALE
  5
12E
102
{ACAD_REACTORS
330
120
102
}
330
120
100
AcDbScale
 70
     0
300
4:1
140
4.0
141
1.0
290
     0
  0
SCALE
  5
12F
102
{ACAD_REACTORS
330
120
102
}
330
120
100
AcDbScale
 70
     0
300
8:1
140
8.0
141
1.0
290
     0
  0
SCALE
  5
130
102
{ACAD_REACTORS
330
120
102
}
330
120
100
AcDbScale
 70
     0
300
10:1
140
10.0
141
1.0
290
     0
  0
SCALE
  5
131
102
{ACAD_REACTORS
330
120
102
}
330
120
100
AcDbScale
 70
     0
300
100:1
140
100.0
141
1.0
290
     0
  0
SCALE
  5
132
102
{ACAD_REACTORS
330
120
102
}
330
120
100
AcDbScale
 70
     0
300
1/128" = 1'-0"
140
0.0078125
141
12.0
290
     0
  0
SCALE
  5
133
102
{ACAD_REACTORS
330
120
102
}
330
120
100
AcDbScale
 70
     0
300
1/64" = 1'-0"
140
0.015625
141
12.0
290
     0
  0
SCALE
  5
134
102
{ACAD_REACTORS
330
120
102
}
330
120
100
AcDbScale
 70
     0
300
1/32" = 1'-0"
140
0.03125
141
12.0
290
     0
  0
SCALE
  5
135
102
{ACAD_REACTORS
330
120
102
}
330
120
100
AcDbScale
 70
     0
300
1/16" = 1'-0"
140
0.0625
141
12.0
290
     0
  0
SCALE
  5
136
102
{ACAD_REACTORS
330
120
102
}
330
120
100
AcDbScale
 70
     0
300
3/32" = 1'-0"
140
0.09375
141
12.0
290
     0
  0
SCALE
  5
137
102
{ACAD_REACTORS
330
120
102
}
330
120
100
AcDbScale
 70
     0
300
1/8" = 1'-0"
140
0.125
141
12.0
290
     0
  0
SCALE
  5
138
102
{ACAD_REACTORS
330
120
102
}
330
120
100
AcDbScale
 70
     0
300
3/16" = 1'-0"
140
0.1875
141
12.0
290
     0
  0
SCALE
  5
139
102
{ACAD_REACTORS
330
120
102
}
330
120
100
AcDbScale
 70
     0
300
1/4" = 1'-0"
140
0.25
141
12.0
290
     0
  0
SCALE
  5
13A
102
{ACAD_REACTORS
330
120
102
}
330
120
100
AcDbScale
 70
     0
300
3/8" = 1'-0"
140
0.375
141
12.0
290
     0
  0
SCALE
  5
13B
102
{ACAD_REACTORS
330
120
102
}
330
120
100
AcDbScale
 70
     0
300
1/2" = 1'-0"
140
0.5
141
12.0
290
     0
  0
SCALE
  5
13C
102
{ACAD_REACTORS
330
120
102
}
330
120
100
AcDbScale
 70
     0
300
3/4" = 1'-0"
140
0.75
141
12.0
290
     0
  0
SCALE
  5
13D
102
{ACAD_REACTORS
330
120
102
}
330
120
100
AcDbScale
 70
     0
300
1" = 1'-0"
140
1.0
141
12.0
290
     0
  0
SCALE
  5
13E
102
{ACAD_REACTORS
330
120
102
}
330
120
100
AcDbScale
 70
     0
300
1-1/2" = 1'-0"
140
1.5
141
12.0
290
     0
  0
SCALE
  5
13F
102
{ACAD_REACTORS
330
120
102
}
330
120
100
AcDbScale
 70
     0
300
3" = 1'-0"
140
3.0
141
12.0
290
     0
  0
SCALE
  5
140
102
{ACAD_REACTORS
330
120
102
}
330
120
100
AcDbScale
 70
     0
300
6" = 1'-0"
140
6.0
141
12.0
290
     0
  0
SCALE
  5
141
102
{ACAD_REACTORS
330
120
102
}
330
120
100
AcDbScale
 70
     0
300
1'-0" = 1'-0"
140
12.0
141
12.0
290
     0
  0
ACDBSECTIONVIEWSTYLE
  5
1CA
102
{ACAD_XDICTIONARY
360
744
102
}
102
{ACAD_REACTORS
330
1C9
102
}
330
1C9
100
AcDbModelDocViewStyle
 70
     0
  3
Metric50
290
     0
100
AcDbSectionViewStyle
 70
     0
 71
     0
 90
      102
 71
     1
340
C
 62
   256
 40
5.0
340
0
340
0
 62
   256
 40
5.0
300
I, O, Q, S, X, Z
 40
10.0
 90
        0
 40
2.5
 90
        0
 71
     2
340
5
 90
       25
 62
   256
340
5
 90
       50
 62
   256
 40
5.0
 40
2.5
 40
5.0
 71
     3
340
C
 62
   256
 40
5.0
 90
        0
 40
15.0
 90
        1
300
%<\AcVar ViewSectionStartId>%-%<\AcVar ViewSectionEndId>% (%<\AcVar ViewScale \f "%sn">%)
 71
     4
 62
   256
 62
   257
300
ANSI31
 40
1.0
 90
        0
290
     0
290
     0
 90
        6
 40
0.0
 40
1.57079633
 40
0.26179939
 40
1.30899694
 40
-0.26179939
 40
1.83259571
  0
TABLESTYLE
  5
11F
102
{ACAD_XDICTIONARY
360
14C
102
}
102
{ACAD_REACTORS
330
11E
102
}
330
11E
100
AcDbTableStyle
  3
Standard
 70
     0
 71
     0
 40
0.06
 41
0.06
280
     0
281
     0
  7
STANDARD
140
0.18
170
     2
 62
     0
 63
     7
283
     0
274
    -2
284
     1
 64
     0
275
    -2
285
     1
 65
     0
276
    -2
286
     1
 66
     0
277
    -2
287
     1
 67
     0
278
    -2
288
     1
 68
     0
279
    -2
289
     1
 69
     0
  7
STANDARD
140
0.25
170
     5
 62
     0
 63
     7
283
     0
274
    -2
284
     1
 64
     0
275
    -2
285
     1
 65
     0
276
    -2
286
     1
 66
     0
277
    -2
287
     1
 67
     0
278
    -2
288
     1
 68
     0
279
    -2
289
     1
 69
     0
  7
STANDARD
140
0.18
170
     5
 62
     0
 63
     7
283
     0
274
    -2
284
     1
 64
     0
275
    -2
285
     1
 65
     0
276
    -2
286
     1
 66
     0
277
    -2
287
     1
 67
     0
278
    -2
288
     1
 68
     0
279
    -2
289
     1
 69
     0
  0
VISUALSTYLE
  5
10F
102
{ACAD_XDICTIONARY
360
719
102
}
102
{ACAD_REACTORS
330
109
102
}
330
109
100
AcDbVisualStyle
  2
2dWireframe
 70
     4
 71
     0
 72
     2
 73
     0
 90
        0
 40
-0.6
 41
-30.0
 62
     5
 63
     7
 74
     1
 91
        4
 64
     7
 65
   257
 75
     1
175
     1
 42
1.0
 92
        0
 66
   257
 43
1.0
 76
     1
 77
     6
 78
     2
 67
     7
 79
     5
170
     0
171
     0
290
     0
174
     0
 93
        1
 44
0.0
173
     0
291
     0
 45
0.0
1001
ACAD
1000
AcDbSavedByObjectVersion
1070
     0
  0
VISUALSTYLE
  5
111
102
{ACAD_XDICTIONARY
360
71D
102
}
102
{ACAD_REACTORS
330
109
102
}
330
109
100
AcDbVisualStyle
  2
3D Hidden
 70
     6
 71
     1
 72
     2
 73
     2
 90
        0
 40
-0.6
 41
-30.0
 62
     5
 63
     7
 74
     2
 91
        2
 64
     7
 65
   257
 75
     2
175
     1
 42
179.0
 92
        0
 66
   257
 43
1.0
 76
     1
 77
     6
 78
     2
 67
     7
 79
     3
170
     0
171
     0
290
     0
174
     0
 93
        1
 44
0.0
173
     0
291
     0
 45
0.0
1001
ACAD
1000
AcDbSavedByObjectVersion
1070
     0
  0
VISUALSTYLE
  5
110
102
{ACAD_XDICTIONARY
360
71B
102
}
102
{ACAD_REACTORS
330
109
102
}
330
109
100
AcDbVisualStyle
  2
3dWireframe
 70
     5
 71
     0
 72
     2
 73
     0
 90
        0
 40
-0.6
 41
-30.0
 62
     5
 63
     7
 74
     1
 91
        4
 64
     7
 65
   257
 75
     1
175
     1
 42
1.0
 92
        0
 66
   257
 43
1.0
 76
     1
 77
     6
 78
     2
 67
     7
 79
     5
170
     0
171
     0
290
     0
174
     0
 93
        1
 44
0.0
173
     0
291
     0
 45
0.0
1001
ACAD
1000
AcDbSavedByObjectVersion
1070
     0
  0
VISUALSTYLE
  5
10E
102
{ACAD_XDICTIONARY
360
717
102
}
102
{ACAD_REACTORS
330
109
102
}
330
109
100
AcDbVisualStyle
  2
Basic
 70
     7
 71
     1
 72
     0
 73
     1
 90
        0
 40
-0.6
 41
-30.0
 62
     5
 63
     7
 74
     0
 91
        4
 64
     7
 65
   257
 75
     1
175
     1
 42
1.0
 92
        8
 66
     7
 43
1.0
 76
     1
 77
     6
 78
     2
 67
     7
 79
     5
170
     0
171
     0
290
     0
174
     0
 93
        1
 44
0.0
173
     0
291
     1
 45
0.0
1001
ACAD
1000
AcDbSavedByObjectVersion
1070
     0
  0
VISUALSTYLE
  5
115
102
{ACAD_XDICTIONARY
360
725
102
}
102
{ACAD_REACTORS
330
109
102
}
330
109
100
AcDbVisualStyle
  2
Brighten
 70
    12
 71
     2
 72
     2
 73
     0
 90
        0
 40
-0.6
 41
-30.0
 62
     5
 63
     7
 74
     1
 91
        4
 64
     7
 65
   257
 75
     1
175
     1
 42
1.0
 92
        8
 66
     7
 43
1.0
 76
     1
 77
     6
 78
     2
 67
     7
 79
     5
170
     0
171
     0
290
     0
174
     0
 93
        1
 44
50.0
173
     0
291
     1
 45
0.0
1001
ACAD
1000
AcDbSavedByObjectVersion
1070
     0
  0
VISUALSTYLE
  5
119
102
{ACAD_XDICTIONARY
360
72D
102
}
102
{ACAD_REACTORS
330
109
102
}
330
109
100
AcDbVisualStyle
  2
ColorChange
 70
    16
 71
     2
 72
     2
 73
     3
 90
        0
 40
-0.6
 41
-30.0
 62
     5
 63
     8
 74
     1
 91
        4
 64
     7
 65
   257
 75
     1
175
     1
 42
1.0
 92
        8
 66
     8
 43
1.0
 76
     1
 77
     6
 78
     2
 67
     7
 79
     5
170
     0
171
     0
290
     0
174
     0
 93
        1
 44
0.0
173
     0
291
     1
 45
0.0
1001
ACAD
1000
AcDbSavedByObjectVersion
1070
     0
  0
VISUALSTYLE
  5
112
102
{ACAD_XDICTIONARY
360
71F
102
}
102
{ACAD_REACTORS
330
109
102
}
330
109
100
AcDbVisualStyle
  2
Conceptual
 70
     9
 71
     3
 72
     2
 73
     0
 90
        0
 40
-0.6
 41
-30.0
 62
     5
 63
     7
 74
     2
 91
        2
 64
     7
 65
   257
 75
     1
175
     1
 42
179.0
 92
        8
 66
     7
 43
1.0
 76
     1
 77
     6
 78
     2
 67
     7
 79
     3
170
     0
171
     0
290
     0
174
     0
 93
        1
 44
0.0
173
     0
291
     0
 45
0.0
1001
ACAD
1000
AcDbSavedByObjectVersion
1070
     0
  0
VISUALSTYLE
  5
114
102
{ACAD_XDICTIONARY
360
723
102
}
102
{ACAD_REACTORS
330
109
102
}
330
109
100
AcDbVisualStyle
  2
Dim
 70
    11
 71
     2
 72
     2
 73
     0
 90
        0
 40
-0.6
 41
-30.0
 62
     5
 63
     7
 74
     1
 91
        4
 64
     7
 65
   257
 75
     1
175
     1
 42
1.0
 92
        8
 66
     7
 43
1.0
 76
     1
 77
     6
 78
     2
 67
     7
 79
     5
170
     0
171
     0
290
     0
174
     0
 93
        1
 44
-50.0
173
     0
291
     1
 45
0.0
1001
ACAD
1000
AcDbSavedByObjectVersion
1070
     0
  0
VISUALSTYLE
  5
11C
102
{ACAD_XDICTIONARY
360
733
102
}
102
{ACAD_REACTORS
330
109
102
}
330
109
100
AcDbVisualStyle
  2
EdgeColorOff
 70
    22
 71
     2
 72
     2
 73
     0
 90
        0
 40
-0.6
 41
-30.0
 62
     5
 63
     7
 74
     1
 91
        4
 64
     7
 65
   257
 75
     1
175
     1
 42
1.0
 92
        8
 66
     7
 43
1.0
 76
     1
 77
     6
 78
     2
 67
     7
 79
     5
170
     0
171
     0
290
     0
174
     0
 93
        1
 44
0.0
173
     0
291
     1
 45
0.0
1001
ACAD
1000
AcDbSavedByObjectVersion
1070
     0
  0
VISUALSTYLE
  5
118
102
{ACAD_XDICTIONARY
360
72B
102
}
102
{ACAD_REACTORS
330
109
102
}
330
109
100
AcDbVisualStyle
  2
Facepattern
 70
    15
 71
     2
 72
     2
 73
     0
 90
        0
 40
-0.6
 41
-30.0
 62
     5
 63
     7
 74
     1
 91
        4
 64
     7
 65
   257
 75
     1
175
     1
 42
1.0
 92
        8
 66
     7
 43
1.0
 76
     1
 77
     6
 78
     2
 67
     7
 79
     5
170
     0
171
     0
290
     0
174
     0
 93
        1
 44
0.0
173
     0
291
     1
 45
0.0
1001
ACAD
1000
AcDbSavedByObjectVersion
1070
     0
  0
VISUALSTYLE
  5
10A
102
{ACAD_XDICTIONARY
360
70F
102
}
102
{ACAD_REACTORS
330
109
102
}
330
109
100
AcDbVisualStyle
  2
Flat
 70
     0
 71
     2
 72
     1
 73
     1
 90
        2
 40
-0.6
 41
30.0
 62
     5
 63
     7
 74
     0
 91
        4
 64
     7
 65
   257
 75
     1
175
     1
 42
1.0
 92
        8
 66
     7
 43
1.0
 76
     1
 77
     6
 78
     2
 67
     7
 79
     5
170
     0
171
     0
290
     0
174
     0
 93
       13
 44
0.0
173
     0
291
     1
 45
0.0
1001
ACAD
1000
AcDbSavedByObjectVersion
1070
     0
  0
VISUALSTYLE
  5
10B
102
{ACAD_XDICTIONARY
360
711
102
}
102
{ACAD_REACTORS
330
109
102
}
330
109
100
AcDbVisualStyle
  2
FlatWithEdges
 70
     1
 71
     2
 72
     1
 73
     1
 90
        2
 40
-0.6
 41
30.0
 62
     5
 63
     7
 74
     1
 91
        4
 64
     7
 65
   257
 75
     1
175
     1
 42
1.0
 92
        0
 66
   257
 43
1.0
 76
     1
 77
     6
 78
     2
 67
     7
 79
     5
170
     0
171
     0
290
     0
174
     0
 93
       13
 44
0.0
173
     0
291
     1
 45
0.0
1001
ACAD
1000
AcDbSavedByObjectVersion
1070
     0
  0
VISUALSTYLE
  5
10C
102
{ACAD_XDICTIONARY
360
713
102
}
102
{ACAD_REACTORS
330
109
102
}
330
109
100
AcDbVisualStyle
  2
Gouraud
 70
     2
 71
     2
 72
     2
 73
     1
 90
        2
 40
-0.6
 41
30.0
 62
     5
 63
     7
 74
     0
 91
        4
 64
     7
 65
   257
 75
     1
175
     1
 42
1.0
 92
        0
 66
     7
 43
1.0
 76
     1
 77
     6
 78
     2
 67
     7
 79
     5
170
     0
171
     0
290
     0
174
     0
 93
       13
 44
0.0
173
     0
291
     1
 45
0.0
1001
ACAD
1000
AcDbSavedByObjectVersion
1070
     0
  0
VISUALSTYLE
  5
10D
102
{ACAD_XDICTIONARY
360
715
102
}
102
{ACAD_REACTORS
330
109
102
}
330
109
100
AcDbVisualStyle
  2
GouraudWithEdges
 70
     3
 71
     2
 72
     2
 73
     1
 90
        2
 40
-0.6
 41
30.0
 62
     5
 63
     7
 74
     1
 91
        4
 64
     7
 65
   257
 75
     1
175
     1
 42
1.0
 92
        0
 66
   257
 43
1.0
 76
     1
 77
     6
 78
     2
 67
     7
 79
     5
170
     0
171
     0
290
     0
174
     0
 93
       13
 44
0.0
173
     0
291
     1
 45
0.0
1001
ACAD
1000
AcDbSavedByObjectVersion
1070
     0
  0
VISUALSTYLE
  5
1C3
102
{ACAD_XDICTIONARY
360
738
102
}
102
{ACAD_REACTORS
330
109
102
}
330
109
100
AcDbVisualStyle
  2
Hidden
 70
     6
 71
     1
 72
     2
 73
     2
 90
        0
 40
-0.6
 41
-30.0
 62
     5
 63
     7
421
 16777215
 74
     2
 91
        2
 64
     7
 65
   257
 75
     2
175
     1
 42
40.0
 92
        0
 66
   257
 43
1.0
 76
     1
 77
     6
 78
     2
 67
     7
 79
     3
170
     0
171
     0
290
     0
174
     0
 93
        1
 44
0.0
173
     0
291
     0
 45
0.0
1001
ACAD
1000
AcDbSavedByObjectVersion
1070
     0
  0
VISUALSTYLE
  5
11A
102
{ACAD_XDICTIONARY
360
72F
102
}
102
{ACAD_REACTORS
330
109
102
}
330
109
100
AcDbVisualStyle
  2
JitterOff
 70
    20
 71
     2
 72
     2
 73
     0
 90
        0
 40
-0.6
 41
-30.0
 62
     5
 63
     7
 74
     1
 91
        4
 64
     7
 65
   257
 75
     1
175
     1
 42
1.0
 92
       10
 66
     7
 43
1.0
 76
     1
 77
     6
 78
     2
 67
     7
 79
     5
170
     0
171
     0
290
     0
174
     0
 93
        1
 44
0.0
173
     0
291
     1
 45
0.0
1001
ACAD
1000
AcDbSavedByObjectVersion
1070
     0
  0
VISUALSTYLE
  5
117
102
{ACAD_XDICTIONARY
360
729
102
}
102
{ACAD_REACTORS
330
109
102
}
330
109
100
AcDbVisualStyle
  2
Linepattern
 70
    14
 71
     2
 72
     2
 73
     0
 90
        0
 40
-0.6
 41
-30.0
 62
     5
 63
     7
 74
     1
 91
        4
 64
     7
 65
   257
 75
     7
175
     7
 42
1.0
 92
        8
 66
     7
 43
1.0
 76
     1
 77
     6
 78
     2
 67
     7
 79
     5
170
     0
171
     0
290
     0
174
     0
 93
        1
 44
0.0
173
     0
291
     1
 45
0.0
1001
ACAD
1000
AcDbSavedByObjectVersion
1070
     0
  0
VISUALSTYLE
  5
11B
102
{ACAD_XDICTIONARY
360
731
102
}
102
{ACAD_REACTORS
330
109
102
}
330
109
100
AcDbVisualStyle
  2
OverhangOff
 70
    21
 71
     2
 72
     2
 73
     0
 90
        0
 40
-0.6
 41
-30.0
 62
     5
 63
     7
 74
     1
 91
        4
 64
     7
 65
   257
 75
     1
175
     1
 42
1.0
 92
        9
 66
     7
 43
1.0
 76
     1
 77
     6
 78
     2
 67
     7
 79
     5
170
     0
171
     0
290
     0
174
     0
 93
        1
 44
0.0
173
     0
291
     1
 45
0.0
1001
ACAD
1000
AcDbSavedByObjectVersion
1070
     0
  0
VISUALSTYLE
  5
113
102
{ACAD_XDICTIONARY
360
721
102
}
102
{ACAD_REACTORS
330
109
102
}
330
109
100
AcDbVisualStyle
  2
Realistic
 70
     8
 71
     2
 72
     2
 73
     0
 90
        0
 40
-0.6
 41
-30.0
 62
     5
 63
     7
 74
     1
 91
        0
 64
     7
 65
   257
 75
     1
175
     1
 42
1.0
 92
        8
 66
     8
 43
1.0
 76
     1
 77
     6
 78
     2
 67
     7
 79
     5
170
     0
171
     0
290
     0
174
     0
 93
       13
 44
0.0
173
     0
291
     0
 45
0.0
1001
ACAD
1000
AcDbSavedByObjectVersion
1070
     0
  0
VISUALSTYLE
  5
1C8
102
{ACAD_XDICTIONARY
360
742
102
}
102
{ACAD_REACTORS
330
109
102
}
330
109
100
AcDbVisualStyle
  2
Shaded
 70
    27
 71
     2
 72
     2
 73
     1
 90
        2
 40
-0.6
 41
30.0
 62
     5
 63
     7
421
 16777215
 74
     0
 91
        4
 64
     7
 65
   257
 75
     1
175
     1
 42
1.0
 92
        8
 66
   257
 43
1.0
 76
     1
 77
     6
 78
     2
 67
     8
425
  7895160
 79
     3
170
     0
171
     0
290
     0
174
     0
 93
        5
 44
0.0
173
     0
291
     0
 45
0.0
1001
ACAD
1000
AcDbSavedByObjectVersion
1070
     0
  0
VISUALSTYLE
  5
1C7
102
{ACAD_XDICTIONARY
360
740
102
}
102
{ACAD_REACTORS
330
109
102
}
330
109
100
AcDbVisualStyle
  2
Shaded with edges
 70
    26
 71
     2
 72
     2
 73
     1
 90
        2
 40
-0.6
 41
30.0
 62
     5
 63
     7
421
 16777215
 74
     1
 91
        2
 64
     7
 65
   257
 75
     2
175
     1
 42
1.0
 92
        8
 66
   257
 43
1.0
 76
     1
 77
     6
 78
     2
 67
     7
 79
     3
170
     0
171
     0
290
     0
174
     0
 93
        5
 44
0.0
173
     0
291
     0
 45
0.0
1001
ACAD
1000
AcDbSavedByObjectVersion
1070
     0
  0
VISUALSTYLE
  5
1C4
102
{ACAD_XDICTIONARY
360
73A
102
}
102
{ACAD_REACTORS
330
109
102
}
330
109
100
AcDbVisualStyle
  2
Shades of Gray
 70
    23
 71
     2
 72
     2
 73
     3
 90
        0
 40
-0.6
 41
-30.0
 62
     5
 63
     7
421
 16777215
 74
     2
 91
        2
 64
     7
 65
     7
 75
     1
175
     1
 42
40.0
 92
        8
 66
     7
 43
1.0
 76
     1
 77
     6
 78
     2
 67
     7
 79
     3
170
     0
171
     0
290
     0
174
     0
 93
        1
 44
0.0
173
     0
291
     0
 45
0.0
1001
ACAD
1000
AcDbSavedByObjectVersion
1070
     0
  0
VISUALSTYLE
  5
1C5
102
{ACAD_XDICTIONARY
360
73C
102
}
102
{ACAD_REACTORS
330
109
102
}
330
109
100
AcDbVisualStyle
  2
Sketchy
 70
    24
 71
     1
 72
     2
 73
     2
 90
        0
 40
-0.6
 41
-30.0
 62
     5
 63
     7
421
 16777215
 74
     2
 91
        2
 64
     7
 65
     7
 75
     1
175
     1
 42
40.0
 92
       11
 66
     7
 43
1.0
 76
     1
 77
     6
 78
     2
 67
     7
 79
     6
170
     0
171
     0
290
     0
174
     0
 93
        1
 44
0.0
173
     0
291
     0
 45
0.0
1001
ACAD
1000
AcDbSavedByObjectVersion
1070
     0
  0
VISUALSTYLE
  5
116
102
{ACAD_XDICTIONARY
360
727
102
}
102
{ACAD_REACTORS
330
109
102
}
330
109
100
AcDbVisualStyle
  2
Thicken
 70
    13
 71
     2
 72
     2
 73
     0
 90
        0
 40
-0.6
 41
-30.0
 62
     5
 63
     7
 74
     1
 91
        4
 64
     7
 65
   257
 75
     1
175
     1
 42
1.0
 92
       12
 66
     7
 43
1.0
 76
     1
 77
     6
 78
     2
 67
     7
 79
     5
170
     0
171
     0
290
     0
174
     0
 93
        1
 44
0.0
173
     0
291
     1
 45
0.0
1001
ACAD
1000
AcDbSavedByObjectVersion
1070
     0
  0
VISUALSTYLE
  5
1C2
102
{ACAD_XDICTIONARY
360
736
102
}
102
{ACAD_REACTORS
330
109
102
}
330
109
100
AcDbVisualStyle
  2
Wireframe
 70
     5
 71
     0
 72
     2
 73
     0
 90
        0
 40
-0.6
 41
-30.0
 62
     5
 63
     7
421
 16777215
 74
     1
 91
        4
 64
     7
 65
   257
 75
     1
175
     1
 42
1.0
 92
        0
 66
   257
 43
1.0
 76
     1
 77
     6
 78
     2
 67
     7
 79
     3
170
     0
171
     0
290
     0
174
     0
 93
        1
 44
0.0
173
     0
291
     0
 45
0.0
1001
ACAD
1000
AcDbSavedByObjectVersion
1070
     0
  0
VISUALSTYLE
  5
1C6
102
{ACAD_XDICTIONARY
360
73E
102
}
102
{ACAD_REACTORS
330
109
102
}
330
109
100
AcDbVisualStyle
  2
X-Ray
 70
    25
 71
     2
 72
     2
 73
     1
 90
        1
 40
0.5
 41
-30.0
 62
     5
 63
     7
421
 16777215
 74
     1
 91
        0
 64
     7
 65
   257
 75
     1
175
     1
 42
1.0
 92
        8
 66
     7
 43
1.0
 76
     1
 77
     6
 78
     2
 67
     7
 79
     3
170
     0
171
     0
290
     0
174
     0
 93
       13
 44
0.0
173
     0
291
     0
 45
0.0
1001
ACAD
1000
AcDbSavedByObjectVersion
1070
     0
  0
DICTIONARYVAR
  5
1BC
102
{ACAD_REACTORS
330
1B9
102
}
330
1B9
100
DictionaryVariables
280
     0
  1
1:1
  0
DICTIONARYVAR
  5
1BB
102
{ACAD_REACTORS
330
1B9
102
}
330
1B9
100
DictionaryVariables
280
     0
  1
STANDARD
  0
DICTIONARYVAR
  5
1BA
102
{ACAD_REACTORS
330
1B9
102
}
330
1B9
100
DictionaryVariables
280
     0
  1
STANDARD
  0
DICTIONARYVAR
  5
6FF
102
{ACAD_REACTORS
330
1B9
102
}
330
1B9
100
DictionaryVariables
280
     0
  1
Metric50
  0
DICTIONARYVAR
  5
700
102
{ACAD_REACTORS
330
1B9
102
}
330
1B9
100
DictionaryVariables
280
     0
  1
Metric50
  0
DICTIONARYVAR
  5
1BF
102
{ACAD_REACTORS
330
1B9
102
}
330
1B9
100
DictionaryVariables
280
     0
  1
1
  0
DICTIONARYVAR
  5
1BE
102
{ACAD_REACTORS
330
1B9
102
}
330
1B9
100
DictionaryVariables
280
     0
  1
0
  0
DICTIONARYVAR
  5
1BD
102
{ACAD_REACTORS
330
1B9
102
}
330
1B9
100
DictionaryVariables
280
     0
  1
127
  0
DICTIONARYVAR
  5
709
102
{ACAD_REACTORS
330
1B9
102
}
330
1B9
100
DictionaryVariables
280
     0
  1
2
  0
DICTIONARY
  5
746
330
1CC
100
AcDbDictionary
280
     1
281
     1
  3
ACAD_XREC_ROUNDTRIP
360
747
  0
DICTIONARY
  5
6E8
330
146
100
AcDbDictionary
280
     1
281
     1
  3
ADSK_XREC_LAYOUTTHUMBNAIL
360
6E9
  0
DICTIONARY
  5
FA
330
F9
100
AcDbDictionary
280
     1
281
     1
  3
ACAD_XREC_ROUNDTRIP
360
70D
  3
BUMPTILE
360
FC
  3
DIFFUSETILE
360
FB
  3
OPACITYTILE
360
FF
  3
REFLECTIONTILE
360
FE
  3
REFRACTIONTILE
360
100
  3
SPECULARTILE
360
FD
  0
DICTIONARY
  5
F2
330
F1
100
AcDbDictionary
280
     1
281
     1
  3
ACAD_XREC_ROUNDTRIP
360
70C
  3
BUMPTILE
360
F4
  3
DIFFUSETILE
360
F3
  3
OPACITYTILE
360
F7
  3
REFLECTIONTILE
360
F6
  3
REFRACTIONTILE
360
F8
  3
SPECULARTILE
360
F5
  0
DICTIONARY
  5
102
330
101
100
AcDbDictionary
280
     1
281
     1
  3
ACAD_XREC_ROUNDTRIP
360
70E
  3
BUMPTILE
360
104
  3
DIFFUSETILE
360
103
  3
OPACITYTILE
360
107
  3
REFLECTIONTILE
360
106
  3
REFRACTIONTILE
360
108
  3
SPECULARTILE
360
105
  0
XRECORD
  5
6FE
102
{ACAD_REACTORS
330
6FD
102
}
330
6FD
100
AcDbXrecord
280
     1
 70
     2
 71
     3
 72
     0
  0
DICTIONARY
  5
744
330
1CA
100
AcDbDictionary
280
     1
281
     1
  3
ACAD_XREC_ROUNDTRIP
360
745
  0
DICTIONARY
  5
14C
330
11F
100
AcDbDictionary
280
     1
281
     1
  3
ACAD_ROUNDTRIP_2008_TABLESTYLE_CELLSTYLEMAP
360
70A
  3
ACAD_XREC_ROUNDTRIP
360
735
  0
DICTIONARY
  5
719
330
10F
100
AcDbDictionary
280
     1
281
     1
  3
ACAD_XREC_ROUNDTRIP
360
71A
  0
DICTIONARY
  5
71D
330
111
100
AcDbDictionary
280
     1
281
     1
  3
ACAD_XREC_ROUNDTRIP
360
71E
  0
DICTIONARY
  5
71B
330
110
100
AcDbDictionary
280
     1
281
     1
  3
ACAD_XREC_ROUNDTRIP
360
71C
  0
DICTIONARY
  5
717
330
10E
100
AcDbDictionary
280
     1
281
     1
  3
ACAD_XREC_ROUNDTRIP
360
718
  0
DICTIONARY
  5
725
330
115
100
AcDbDictionary
280
     1
281
     1
  3
ACAD_XREC_ROUNDTRIP
360
726
  0
DICTIONARY
  5
72D
330
119
100
AcDbDictionary
280
     1
281
     1
  3
ACAD_XREC_ROUNDTRIP
360
72E
  0
DICTIONARY
  5
71F
330
112
100
AcDbDictionary
280
     1
281
     1
  3
ACAD_XREC_ROUNDTRIP
360
720
  0
DICTIONARY
  5
723
330
114
100
AcDbDictionary
280
     1
281
     1
  3
ACAD_XREC_ROUNDTRIP
360
724
  0
DICTIONARY
  5
733
330
11C
100
AcDbDictionary
280
     1
281
     1
  3
ACAD_XREC_ROUNDTRIP
360
734
  0
DICTIONARY
  5
72B
330
118
100
AcDbDictionary
280
     1
281
     1
  3
ACAD_XREC_ROUNDTRIP
360
72C
  0
DICTIONARY
  5
70F
330
10A
100
AcDbDictionary
280
     1
281
     1
  3
ACAD_XREC_ROUNDTRIP
360
710
  0
DICTIONARY
  5
711
330
10B
100
AcDbDictionary
280
     1
281
     1
  3
ACAD_XREC_ROUNDTRIP
360
712
  0
DICTIONARY
  5
713
330
10C
100
AcDbDictionary
280
     1
281
     1
  3
ACAD_XREC_ROUNDTRIP
360
714
  0
DICTIONARY
  5
715
330
10D
100
AcDbDictionary
280
     1
281
     1
  3
ACAD_XREC_ROUNDTRIP
360
716
  0
DICTIONARY
  5
738
330
1C3
100
AcDbDictionary
280
     1
281
     1
  3
ACAD_XREC_ROUNDTRIP
360
739
  0
DICTIONARY
  5
72F
330
11A
100
AcDbDictionary
280
     1
281
     1
  3
ACAD_XREC_ROUNDTRIP
360
730
  0
DICTIONARY
  5
729
330
117
100
AcDbDictionary
280
     1
281
     1
  3
ACAD_XREC_ROUNDTRIP
360
72A
  0
DICTIONARY
  5
731
330
11B
100
AcDbDictionary
280
     1
281
     1
  3
ACAD_XREC_ROUNDTRIP
360
732
  0
DICTIONARY
  5
721
330
113
100
AcDbDictionary
280
     1
281
     1
  3
ACAD_XREC_ROUNDTRIP
360
722
  0
DICTIONARY
  5
742
330
1C8
100
AcDbDictionary
280
     1
281
     1
  3
ACAD_XREC_ROUNDTRIP
360
743
  0
DICTIONARY
  5
740
330
1C7
100
AcDbDictionary
280
     1
281
     1
  3
ACAD_XREC_ROUNDTRIP
360
741
  0
DICTIONARY
  5
73A
330
1C4
100
AcDbDictionary
280
     1
281
     1
  3
ACAD_XREC_ROUNDTRIP
360
73B
  0
DICTIONARY
  5
73C
330
1C5
100
AcDbDictionary
280
     1
281
     1
  3
ACAD_XREC_ROUNDTRIP
360
73D
  0
DICTIONARY
  5
727
330
116
100
AcDbDictionary
280
     1
281
     1
  3
ACAD_XREC_ROUNDTRIP
360
728
  0
DICTIONARY
  5
736
330
1C2
100
AcDbDictionary
280
     1
281
     1
  3
ACAD_XREC_ROUNDTRIP
360
737
  0
DICTIONARY
  5
73E
330
1C6
100
AcDbDictionary
280
     1
281
     1
  3
ACAD_XREC_ROUNDTRIP
360
73F
  0
XRECORD
  5
747
102
{ACAD_REACTORS
330
746
102
}
330
746
100
AcDbXrecord
280
     1
102
DISPLAYNAME
  1
Metric50
102
FLAGS
 90
        0
  0
XRECORD
  5
6E9
102
{ACAD_REACTORS
330
6E8
102
}
330
6E8
100
AcDbXrecord
280
     1
310
2800000000010000710000000100080000000000007100000100000001000000000100000000000000000000FFFFFF52000000FF000000FF000000FF000000FF000000FF000000FF000000FF000000FF000000FF330000FF660000FF990000FFCC0000FFFF0000FF003300FF333300FF663300FF993300FFCC3300FFFF3300
310
FF006600FF336600FF666600FF996600FFCC6600FFFF6600FF009900FF339900FF669900FF999900FFCC9900FFFF9900FF00CC00FF33CC00FF66CC00FF99CC00FFCCCC00FFFFCC00FF00FF00FF33FF00FF66FF00FF99FF00FFCCFF00FFFFFF00FF000033FF330033FF660033FF990033FFCC0033FFFF0033FF003333FF3333
310
33FF663333FF993333FFCC3333FFFF3333FF006633FF336633FF666633FF996633FFCC6633FFFF6633FF009933FF339933FF669933FF999933FFCC9933FFFF9933FF00CC33FF33CC33FF66CC33FF99CC33FFCCCC33FFFFCC33FF00FF33FF33FF33FF66FF33FF99FF33FFCCFF33FFFFFF33FF000066FF330066FF660066FF99
310
0066FFCC0066FFFF0066FF003366FF333366FF663366FF993366FFCC3366FFFF3366FF006666FF336666FF666666FF996666FFCC6666FFFF6666FF009966FF339966FF669966FF999966FFCC9966FFFF9966FF00CC66FF33CC66FF66CC66FF99CC66FFCCCC66FFFFCC66FF00FF66FF33FF66FF66FF66FF99FF66FFCCFF66FF
310
FFFF66FF000099FF330099FF660099FF990099FFCC0099FFFF0099FF003399FF333399FF663399FF993399FFCC3399FFFF3399FF006699FF336699FF666699FF996699FFCC6699FFFF6699FF009999FF339999FF669999FF999999FFCC9999FFFF9999FF00CC99FF33CC99FF66CC99FF99CC99FFCCCC99FFFFCC99FF00FF99
310
FF33FF99FF66FF99FF99FF99FFCCFF99FFFFFF99FF0000CCFF3300CCFF6600CCFF9900CCFFCC00CCFFFF00CCFF0033CCFF3333CCFF6633CCFF9933CCFFCC33CCFFFF33CCFF0066CCFF3366CCFF6666CCFF9966CCFFCC66CCFFFF66CCFF0099CCFF3399CCFF6699CCFF9999CCFFCC99CCFFFF99CCFF00CCCCFF33CCCCFF66CC
310
CCFF99CCCCFFCCCCCCFFFFCCCCFF00FFCCFF33FFCCFF66FFCCFF99FFCCFFCCFFCCFFFFFFCCFF0000FFFF3300FFFF6600FFFF9900FFFFCC00FFFFFF00FFFF0033FFFF3333FFFF6633FFFF9933FFFFCC33FFFFFF33FFFF0066FFFF3366FFFF6666FFFF9966FFFFCC66FFFFFF66FFFF0099FFFF3399FFFF6699FFFF9999FFFFCC
310
99FFFFFF99FFFF00CCFFFF33CCFFFF66CCFFFF99CCFFFFCCCCFFFFFFCCFFFF00FFFFFF33FFFFFF66FFFFFF99FFFFFFCCFFFFFFFFFFFFFF000000FF0D0D0DFF1A1A1AFF282828FF353535FF434343FF505050FF5D5D5DFF6B6B6BFF787878FF868686FF939393FFA1A1A1FFAEAEAEFFBBBBBBFFC9C9C9FFD6D6D6FFE4E4E4FF
310
F1F1F1FFFFFFFFFF000000FF000000FF000000FF000000FF000000FF000000FF000000FF000000FF000000FF000000FF00000000000000000000000000000000000000000000000000000000000000000000000000000000000000000000000000000000000000000000000000000000000000000000000000000000000000
310
000000000000000000000000000000000000000000000000000000000000000000000000000000000000000000000000000000000000000000000000000000000000000000000000000000000000000000000000000000000000000000000000000000000000000000000000000000000000000000F2000000000000000000
310
00000000000000000000000000000000000000000000000000000000000000000000000000000000000000000000000000000000000000000000000000000000000000000000000000000000000000000000000000000000000000000000000000000000F2F2F2F2F2F2F2F2F2F2F2F2F2F2F2F2F2F2F2F2F2F2F2F2F2F2F2
310
F2F2F2F2F2F2F2F2F2F2F2F2F2F2F2F2F2F2F2F2F2F2F2F2F2F2F2F2F2F2F2F2F2F2F2F2F2F2F2F2F2F2F2F2F2F2F2F2F2F2F2F22828282828282828282828282828282828282828F2F2F2F275F2757575757575F2757575F275F2F2F275757575757575757575757575757575757575F2F2F2F2F2F2F2F2F2F2F2F2000000
310
000000000000000000000000000000000000000000000000000000000000000000000000000000000000000000000000000000000000000000000000000000000000000000000000000000000000000000000000000000000000000000000000000000000000F2757575757575757575757575757575757575757575757575
310
7575757575757575757575757575757575757575757575757575F200000000000000000000000000000000000000000000F2F2F2002828282828282828282828282828282828282828282828F200000000750000007500000000F2007500F200000000000000000000000000000000000000F200000000F2F2F2F2F2F2F2F2
310
F200000000000000000000000000000000000000000000000000000000000000000000000000000000000000000000000000000000000000000000000000000000000000000000000000000000000000000000000000000000000000000000000000000000000000F275757575757575757575757575757575757575757575
310
757575757575757575757575757575757575757575757575757575757575007575000000000000000000000000000000000000F2F2F2752828282828282828282828282828280028282828282828F200000000750000007500000000F2000075F2F2F2F2F2F2F2F2F2F2F2F2F2F27575F275F275757575757575F2F2F2F2F2
310
F2F2F200000000000000000000000000000000000000000000000000000000000000000000000000000000000000000000000000000000000000000000000000000000000000000000000000000000000000000000000000000000000000000000000000000000000000F20000000000000000000000000000000000000000
310
0000000000000000000000000000000000000000000000000000000000007575757575757575757575757575757575757575757575757575757575757575757575757575757575757575757575757575750000000075000000750000000075002800F200000000000000000000000000000000000000F2F2F2F2F2F2F2F2F2
310
F2F2F2F2F200000000000000000000000000000000000000000000000000000000000000000000000000000000000000000000000000000000000000000000000000000000000000000000000000000000000000000000000000000000000000000000000000000000000000F2757575757575757575757575757575757575
310
7575757575757575757575757575757575757575757575757575757575757575F200000000000000000000000000000000000000000000F2F2F2000000000000000000000000000000000000000000F2F2F2F200000000750000007500000000F2282800F200000000000000000000000000000000000000F200000000F200
310
F2F2F2F2F2F2F2000000000000000000000000000000000000000000000000000000000000000000000000000000000000000000000000000000000000000000000000000000000000000000000000000000000000000000000000000000000000000000000000000000000000007575757575757575757575757575757575
310
757575757575757575757575757575757575757575757575757575757575757575757575757575000000000000000000000000000000000000F2F2F2757575750000000000000000000000000000000000F2F2F2F2757575757575757575757575757528757575757575750000000000000000000000000000007575757575
310
7500F2F2F2F2F2F2F200000000000000000000000000000000000000000000000000000000000000000000000000000000000000000000000000000000000000000000000000000000000000000000000000000000000000000000000000000000000000000000000000000000000000757575757575F2F2F2F2F2F2F2F2F2
310
F2F2F2F2F2F2F2F2F2F2F2F2F2F2F2F2F2F2F2F2F2F2F2F2F2F2F2F2F2F2F2F2F2F2F2F27575757575F2F2F2F2F2F2F2F2F2F2F2F2F2F2F2F2F2F2F2F2F275757575F2F2F2F2F2F2F2F2F2F2F2F2F2F2F2F2F2F2F2F2F2F27575757575F2757575757575F27575757575757575F2F2F2F2F2F2F2F2F2F2F2F2F2F2F2F27575
310
7575F2F200F2F2F2F2F2F200000000000000000000000000000000000000000000000000000000000000000000000000000000000000000000000000000000000000000000000000000000000000000000000000000000000000000000000000000000000000000000000000000000000000F2F2F2F2F2F2F2F2F2F2F2F2F2
310
F2F2F2F2F2F2F2F2F2F2F2F2F2F2F2F2F2F2F2F2F2F2F2F2F2F2F2F2F2F2F2F2F2F2F2F2F2F2F2F2F2F2F2F2F2F2F2F2F2F2F2F2F2F2F2F2F2F2F2F2F2F2F2F2F2F2F2F2F2F2F2F2F2F2F2F2F2F2F2F2F2F2F2F2F2F2F2F2F2F2F2F2F2F2F2F2F2F2F2F2F2F2F2F2F2F2F2F2F2F2F2F2F2F2F2F2F2F2F2F2F2F2F2F2F2F2F2
310
F2F2F2F2F2F2F2F2F2F2F2F2F200EC0000000000000000000000000000000000000000000000000000000000000000000000000000000000000000000000000000000000000000000000000000000000000000000000000000000000000000000000000000000000000000000000000000000000F200000000000000000000
310
00000000000000000000000000000000000000000000000000000000000000000000000000000000000000000000000000000000000000000000000000000000000000000000000000000000000000000000000000000000000000000000000000000000000000000000000000000000000000000000000000000000000000
310
0000000000000000000000000000ECECECECEC000000000000000000000000000000000000000000000000000000000000000000000000000000000000000000000000000000000000000000000000000000000000000000000000000000000000000000000000000000000000000000000000000000F20000000000000000
310
00000000000000000000000000000000000000000000000000000000000000000000000000000000000000000000000000000000000000000000000000000000000000000000000000000000000000000000000000000000000000000000000000000000000000000000000000000000000000000000000000000000000000
310
00000000000000000000000000000000F200EC0000000000000000000000000000000000000000000000000000000000000000000000000000000000000000000000000000000000000000000000000000000000000000000000000000000000000000000000000000000000000000000000000000000000F2000000000000
310
00000000000000000000000000000000000000000000000000000000000000000000000000000000000000000000000000000000000000000000000000000000000000000000000000000000000000000000000000000000000000000000000000000000000000000000000000000000000000000000000000000000000000
310
000000000000000000000000000000000000F200000000000000000000000000000000000000000000000000000000000000000000000000000000000000000000000000000000000000000000000000000000000000000000000000000000000000000000000000000000000000000000000000000000000000F200000000
310
00000000000000000000000000000000000000000000000000000000000000000000000000000000000000000000000000000000000000000000000000000000000000000000000000000000000000000000000000000000000000000000000000000000000000000000000000000000000000000000000000000000000000
310
0000000000000000000000000000000000000000F200EC0000000000000000000000000000000000000000000000000000000000000000000000000000000000000000000000000000000000000000000000000000000000000000000000000000000000000000000000000000000000000000000000000000000000F20000
310
00000000000000000000000000000000000000000000000000000000000000000000000000000000000000000000000000000000000000000000000000000000000000000000000000000000000000000000000000000000000000000000000000000000000000000000000000000000000000000000000000000000000000
310
00000000000000000000000000000000000000000000ECECECECEC000000000000000000000000000000000000000000000000000000000000000000000000000000000000000000000000000000000000000000000000000000000000000000000000000000000000000000000000000000000000000000000000000000F2
310
00000000000000000000000000000000000000000000000000000000000000000000000000000000000000000000000000000000000000000000000000000000000000000000000000000000000000000000000000000000000000000000000000000000000000000000000000000000000000000000000000000000000000
310
000000000000000000000000000000000000000000000000F200EC00000000000000000000000000000000000000000000000000000000000000000000000000000000000000000000000000000000000000000000000000000000000000000000000000000000000000000000000000000000000000000000000000000000
310
00F20000000000000000000000000000000000000000000000000000000000000000000000000000000000000000000000000000000000000000000000000000000000000000000000000000000000000000000000000000000000000000000000000000000000000000000000000000000000000000000000000000000000
310
0000000000000000000000000000000000000000000000000000F200000000000000000000000000000000000000000000000000000000000000000000000000000000000000000000000000000000000000000000000000000000000000000000000000000000000000000000000000000000000000000000000000000000
310
000000F2000000000000000000000000000000000000000000000000000000000000000000000000000000000000000000000000000000000000000000000000000000000000000000000000000000000000000000000000000000000000000000000000000000000000000000000000000000000000000000000000000000
310
00000000000000000000000000000000000000000000000000000000F200EC000000000000000000000000000000000000000000000000000000000000000000000000000000000000000000000000000000000000000000000000000000000000000000000000000000000000000000000000000000000000000000000000
310
0000000000F200000000000000000000000000000000000000000000000000000000000000000000000000000000000000000000000000000000000000000000000000000000000000000000000000000000000000000000000000000000000000000000000000000000000000000000000000000000000000000000000000
310
000000000000000000000000000000000000000000000000000000000000ECECECECEC0000000000000000000000000000000000000000000000000000000000000000000000000000000000000000000000000000000000000000000000000000000000000000000000000000000000000000000000000000000000000000
310
00000000000000F20000000000000000000000000000000000000000000000000000000000000000000000000000000000000000000000000000000000000000000000000000000000000000000000000000000000000000000000000000000000000000000000000000000000000000000000000000000000000000000000
310
0000000000000000000000000000000000000000000000000000000000000000F200EC0000000000000000000000000000000000000000000000000000000000000000000000000000000000000000000000000000000000000000000000000000000000000000000000000000000000000000000000000000000000000000
310
000000000000000000F2000000000000000000000000000000000000000000000000000000000000000000000000000000000000000000000000000000000000000000000000000000000000000000000000000000000000000000000000000000000000000000000000000000000000000000000000000000000000000000
310
00000000000000000000000000000000000000000000000000000000000000000000F20000000000000000000000000000000000000000000000000000000000000000000000000000000000000000000000000000000000000000000000000000000000000000000000000000000000000000000000000000000000000000
310
0000000000000000000000F200000000000000000000000000000000000000000000000000000000000000000000000000000000000000000000000000000000000000000000000000000000000000000000000000000000000000000000000000000000000000000000000000000000000000000000000000000000000000
310
000000000000000000000000000000000000000000000000000000000000000000000000F200EC00000000000000000000000000000000000000000000000000000000000000000000000000000000000000000000000000000000000000000000000000000000000000000000000000000000000000000000000000000000
310
00000000000000000000000000F20000000000000000000000000000000000000000000000000000000000000000000000000000000000000000000000000000000000000000000000000000000000000000000000000000000000000000000000000000000000000000000000000000000000000000000000000000000000
310
0000000000000000000000000000000000000000000000000000000000000000000000000000ECECECECEC000000000000000000000000000000000000000000000000000000000000000000000000000000000000000000000000000000000000000000000000000000000000000000000000000000000000000000000000
310
000000000000000000000000000000F20000000000000000000000000000000000000000000000000000000000000000000000000000000000000000000000C3C3C3C3C3C3C3C3C3C3C3C3C3C3C3C3C3C3C3C3C3C3C3C3C3C3C3C3C3C3C3C3C3C3C3C3C3C3C3C3C3C3C3C3C3C3C3C3C3C3C3C3C3C3C3C3C300000000000000
310
00000000000000000000000000000000000000000000000000000000000000000000000000000000F200EC000000000000000000000000000000000000000000000000000000000000000000000000000000000000000000000000000000000000000000000000000000000000000000000000000000000000000000000000
310
0000000000000000000000000000000000F20000000000000000000000000000000000000000000000000000000000000000000000000000000000000000000000000000000000000000000000000000000000000000000000000000C3C3C30000000000000000000000000000000000000000000000000000000000000000
310
000000000000000000000000000000000000000000000000000000000000000000000000000000000000F2000000000000000000000000000000000000000000000000000000000000000000000000000000000000000000000000000000000000000000000000000000000000000000000000000000000000000000000000
310
00000000000000000000000000000000000000F20000000000000000000000000000000000000000000000000000000000000000000000000000000000000000000000000000000000000000000000000000000000000000000000000000C3C3C3000000000000000000000000000000000000000000000000000000000000
310
0000000000000000000000000000000000000000000000000000000000000000000000000000000000000000F200EC0000000000000000000000000000000000000000000000000000000000000000000000000000000000000000000000000000000000000000000000000000000000000000000000000000000000000000
310
000000000000000000000000000000000000000000F2000000000000000000000000000000000000000000000000000000000000000000000000000000000000000000000000000000000000000000000000000000000000000000000000C3C3C3C3C300000000000000000000000000000000000000000000000000000000
310
00000000000000000000000000000000000000000000000000000000000000000000000000000000000000000000ECECECECEC00000000000000000000000000000000000000000000000000000000000000000000000000000000000000000000000000000000000000000000000000000000000000000000000000000000
310
0000000000000000000000000000000000000000000000F2000000000000000000000000000000000000000000000000000000000000000000000000000000000000000000000000000000000000000000000000000000000000000000000000C3C3C3C3C30000000000000000000000000000000000000000000000000000
310
000000000000000000000000000000000000000000000000000000000000000000000000000000000000000000000000F200EC00000000000000000000000000000000000000000000000000000000000000000000000000000000000000000000000000000000000000000000000000000000000000000000000000000000
310
00000000000000000000000000000000000000000000000000F20000000000000000000000000000000000000000000000000000000000000000000000000000000000000000000000000000000000000000000000000000000000000000000000C3C3C3C3C3C300C300000000000000000000000000000000000000000000
310
0000000000000000000000000000000000000000000000000000000000000000000000000000000000000000000000000000F200000000000000000000000000000000000000000000000000000000000000000000000000000000000000000000000000000000000000000000000000000000000000000000000000000000
310
000000000000000000000000000000000000000000000000000000F20000000000000000000000000000000000000000000000000000000000000000000000000000000000000000000000C3C3C3C3C3C3C3C3C3C3C3C3C3C3C3C3C3C3C3C3C3C3C3C3C3C3C3C3C3C3C3C3C3C3C3C3C3C3C3C3C3C3C3C3C3C3C3C3C3C3C3C3
310
C3C3C3C3C30000000000000000000000000000000000000000000000000000000000000000000000000000000000000000000000F200EC000000000000000000000000000000000000000000000000000000000000000000000000000000000000000000000000000000000000000000000000000000000000000000000000
310
0000000000000000000000000000000000000000000000000000000000F2000000000000000000000000000000000000000000000000000000000000000000000000000000000000000000000000000000000000000000C3C3C3C300000000000000000000C3C300000000C3C300000000000000000000C3C3C3C300000000
310
000000000000000000000000000000000000000000000000000000000000000000000000000000000000000000000000000000000000ECECECECEC0000000000000000000000000000000000000000000000000000000000000000000000000000000000000000000000000000000000000000000000000000000000000000
310
00000000000000000000000000000000000000000000000000000000000000F2000000000000000000000000000000000000000000000000000000000000000000000000000000000000000000000000000000000000000000C3C3C3C30000000000000000000000C300000000C30000000000000000000000C3C3C3C30000
310
0000000000000000000000000000000000000000000000000000000000000000000000000000000000000000000000000000000000000000F200EC0000000000000000000000000000000000000000000000000000000000000000000000000000000000000000000000000000000000000000000000000000000000000000
310
000000000000000000000000000000000000000000000000000000000000000000F2000000000000000000000000000000000000000000000000000000000000000000000000000000000000000000000000000000000000000000000000000000000000000000000000C300000000C3000000000000000000000000000000
310
00000000000000000000000000000000000000000000000000000000000000000000000000000000000000000000000000000000000000000000F20000000000000000000000000000000000000000000000000000000000000000000000000000000000000000000000000000000000000000000000000000000000000000
310
0000000000000000000000000000000000000000000000000000000000000000000000F2000000000000000000000000000000000000000000000000000000000000000000000000000000000000000000000000000000000000000000000000000000000000000000000000C300000000C300000000000000000000000000
310
000000000000000000000000000000000000000000000000000000000000000000000000000000000000000000000000000000000000000000000000F200EC00000000000000000000000000000000000000000000000000000000000000000000000000000000000000000000000000000000000000000000000000000000
310
00000000000000000000000000000000000000000000000000000000000000000000000000F2000000000000000000000000000000000000000000000000000000000000000000000000000000000000000000000000000000000000C3C3C3C3C3C3C3C3C3C3C3C3C3C3C3C3C3C3C3C3C3C3C3C3C3C3C3C3C3C3C3C3C3C3C3
310
C3C3C3C3C3C3C3C3000000000000000000000000000000000000000000000000000000000000000000000000000000000000000000000000000000000000ECECECECEC000000000000000000000000000000000000000000000000000000000000000000000000000000000000000000000000000000000000000000000000
310
000000000000000000000000000000000000000000000000000000000000000000000000000000F2000000000000000000000000000000000000000000000000000000000000000000000000000000000000000000000000000000000000C3C3C3C3C3C3C300C3000000C3000000000000C3C3C300000000000000C3000000
310
00C3C3C3C3C3C3C3C300000000000000000000000000000000000000000000000000000000000000000000000000000000000000000000000000000000000000F200EC000000000000000000000000000000000000000000000000000000000000000000000000000000000000000000000000000000000000000000000000
310
0000000000000000000000000000000000000000000000000000000000000000000000000000000000F2000000000000000000000000000000000000000000000000000000000000000000000000000000000000000000000000000000000000C3C3C3C3C3C3C300C3000000C3000000000000C3C3C300000000000000C300
310
000000C3C3C3C3C3C3C3C300000000000000000000000000000000000000000000000000000000000000000000000000000000000000000000000000000000000000F2000000000000000000000000000000000000000000000000000000000000000000000000000000000000000000000000000000000000000000000000
310
00000000000000000000000000000000000000000000000000000000000000000000000000000000000000F2000000000000000000000000000000000000000000000000000000000000000000000000000000000000000000000000000000000000C3C3C3C3C3C3C300C3000000C300000000000000000000000000000000
310
C300000000C3C3C3C3C3C3C3C300000000000000000000000000000000000000000000000000000000000000000000000000000000000000000000000000000000000000F200EC0000000000000000000000000000000000000000000000000000000000000000000000000000000000000000000000000000000000000000
310
000000000000000000000000000000000000000000000000000000000000000000000000000000000000000000F20000000000000000000000000000000000000000000000000000000000000000000000000000000000000000000000000000000000000000000000000000C3000000C30000000000000000000000000000
310
0000C300000000C30000000000000000000000000000000000000000000000000000000000000000000000000000000000000000000000000000000000000000000000000000ECECECECEC00000000000000000000000000000000000000000000000000000000000000000000000000000000000000000000000000000000
310
0000000000000000000000000000000000000000000000000000000000000000000000000000000000000000000000F20000000000000000000000000000000000000000000000000000000000000000000000000000000000000000000000000000000000000000000000000000C3000000C3000000000000000000000000
310
00000000C300000000C30000000000000000000000000000000000000000000000000000000000000000000000000000000000000000000000000000000000000000000000000000F200EC00000000000000000000000000000000000000000000000000000000000000000000000000000000000000000000000000000000
310
00000000000000000000000000000000000000000000000000000000000000000000000000000000000000000000000000F2000000000000000000000000000000000000000000000000000000000000000000000000000000000000000000000000000000000000000000000000000000000000F5F5F5F5F5F5F5F5F5F5F5
310
F5F5F5F5F5F5F500000000000000000000000000000000000000000000000000000000000000000000000000000000000000000000000000000000000000000000000000000000000000F200000000000000000000000000000000000000000000000000000000000000000000000000000000000000000000000000000000
310
000000000000000000000000000000000000000000000000000000000000000000000000000000000000000000000000000000F2000000000000000000000000000000000000000000000000000000000000000000000000000000000000000000000000000000000000000000000000000000000000F5F500000000000000
310
0000000000000000F500000000000000000000000000000000000000000000000000000000000000000000000000000000000000000000000000000000000000000000000000000000000000F200EC000000000000000000000000000000000000000000000000000000000000000000000000000000000000000000000000
310
0000000000000000000000000000000000000000000000000000000000000000000000000000000000000000000000000000000000F2000000000000000000000000000000000000000000000000000000000000000000000000000000000000000000000000000000000000000000000000000000000000F5F50000000000
310
00000000000000000000F500000000000000000000000000000000000000000000000000000000000000000000000000000000000000000000000000000000000000000000000000000000000000ECECECECEC0000000000000000000000000000000000000000000000000000000000000000000000000000000000000000
310
00000000000000000000000000000000000000000000000000000000000000000000000000000000000000000000000000000000000000F2000000000000000000000000000000000000000000000000000000000000000000000000000000000000000000000000000000000000000000000000000000000000F5F52D2D2D
310
2D2D2D2D2D2D2D2D2D2D2D2DF500000000000000000000000000000000000000000000000000000000000000000000000000000000000000000000000000000000000000000000000000000000000000F200EC0000000000000000000000000000000000000000000000000000000000000000000000000000000000000000
310
000000000000000000000000000000000000000000000000000000000000000000000000000000000000000000000000000000000000000000F2000000000000000000000000000000000000000000000000000000000000000000000000000000000000000000000000000000000000000000000000000000000000F5F52D
310
2D0000000000002D002D0000002DF500000000000000000000000000000000000000000000000000000000000000000000000000000000000000000000000000000000000000000000000000000000000000F200EC000000000000000000000000000000000000000000000000000000000000000000000000000000000000
310
0000000000000000000000000000000000000000000000000000000000000000000000000000000000000000000000000000000000000000000000F2000000000000000000000000000000000000000000000000000000000000000000000000000000000000000000000000000000000000000000000000000000000000F5
310
F52D002D000000002D0000002D00002DF500000000000000000000000000000000000000000000000000000000000000000000000000000000000000000000000000000000000000000000000000000000000000ECECECECEC0000000000000000000000000000000000000000000000000000000000000000000000000000
310
00000000000000000000000000000000000000000000000000000000000000000000000000000000000000000000000000000000000000000000000000F20000000000000000000000000000000000000000000000000000000000000000000000000000000000000000000000000000000000000000000000000000000000
310
00F5F52D002D0000002D00000000002D002DF500000000000000000000000000000000000000000000000000000000000000000000000000000000000000000000000000000000000000000000000000000000000000F200EC0000000000000000000000000000000000000000000000000000000000000000000000000000
310
000000000000000000000000000000000000000000000000000000000000000000000000000000000000000000000000000000000000000000000000000000F2000000000000000000000000000000000000000000000000000000000000000000000000000000000000000000000000000000000000000000000000000000
310
000000F5F52D00002D002D000000000000002D2DF500000000000000000000000000000000000000000000000000000000000000000000000000000000000000000000000000000000000000000000000000000000000000F20000000000000000000000000000000000000000000000000000000000000000000000000000
310
0000000000000000000000000000000000000000000000000000000000000000000000000000000000000000000000000000000000000000000000000000000000F200000000000000000000000000000000000000000000000000000000000000000000000000000000000000000000000000000000000000000000000000
310
0000000000F5F52D0000002D0000000000000000002DF500000000000000000000000000000000000000000000000000000000000000000000000000000000000000000000000000000000000000000000000000000000000000F2000000000000000000000000000000000000000000000000000000000000000000000000
310
00000000000000000000000000000000000000000000000000000000000000000000000000000000000000000000000000000000000000000000000000000000000000F20000000000000000000000000000000000000000000000000000000000000000000000000000000000000000000000000000000000000000000000
310
00000000000000F5F52D00002D002D000000000000002D2DF500000000000000000000000000000000000000000000000000000000000000000000000000000000000000000000000000000000000000000000000000000000000000F200000000000000000000000000000000000000000000000000000000000000000000
310
000000000000000000000000000000000000000000000000000000000000000000000000000000000000000000000000000000000000000000000000000000000000000000F2000000000000000000000000000000000000000000000000000000000000000000000000000000000000000000000000000000000000000000
310
000000000000000000F5F5F5002D0000002D2D0000002D2D00F5F500000000000000000000000000000000000000000000000000000000000000000000000000000000000000000000000000000000000000000000000000000000000000F20000000000000000000000000000000000000000000000000000000000000000
310
0000000000000000000000000000000000000000000000000000000000000000000000000000000000000000000000000000000000000000000000000000000000000000000000F200000000000000000000000000000000000000000000000000000000000000000000000000000000000000000000000000000000000000
310
0000000000000000000000F5F5F52D0000000000002D002D000000F5F500000000000000000000000000000000000000000000000000000000000000000000000000000000000000000000000000000000000000000000000000000000000000F2000000000000000000000000000000000000000000000000000000000000
310
00000000000000000000000000000000000000000000000000000000000000000000000000000000000000000000000000000000000000000000000000000000000000000000000000F20000000000000000000000000000000000000000000000000000000000000000000000000000000000000000000000000000000000
310
00000000000000000000000000F5F5F52D2D2DF5F52D2D2DF52D2D2D2DF5F52D000000000000000000000000000000000000000000000000000000000000000000000000000000000000000000000000000000000000000000000000000000000000F200000000000000000000000000000000000000000000000000000000
310
000000000000000000000000000000000000000000000000000000000000000000000000000000000000000000000000000000000000000000000000000000000000000000000000000000F2000000000000000000000000000000000000000000000000000000000000000000000000000000000000000000000000000000
310
000000000000000000000000000000F5F5F5F5F5F5F5F5000000F5F5F5F5F5F5F500000000000000000000000000000000000000000000000000000000000000000000000000000000000000000000000000000000000000000000000000000000000000F20000000000000000000000000000000000000000000000000000
310
0000000000000000000000000000000000000000000000000000000000000000000000000000000000000000000000000000000000000000000000000000000000000000000000000000000000F200000000000000000000000000000000000000000000000000000000000000000000000000000000000000000000000000
310
00000000000000000000000000F5F5F5F5F5F5F5F5F5F5F5F5000000F5F5F5F5F5F5F5F5F5F5F5F50000000000000000000000000000000000000000000000000000000000000000000000000000000000000000000000000000000000000000000000000000F2000000000000000000000000000000000000000000000000
310
00000000000000000000000000000000000000000000000000000000000000000000000000000000000000000000000000000000000000000000000000000000000000000000000000000000000000F20000000000000000000000000000000000000000000000000000000000000000000000000000000000000000000000
310
000000000000000000000000000000F50000F5F5F5000000F5F5F5F5F5F5F5F5000000F5F5F50000F5F50000000000000000000000000000000000000000000000000000000000000000000000000000000000000000000000000000000000000000000000000000F200000000000000000000000000000000000000000000
310
000000000000000000000000000000000000000000000000000000000000000000000000000000000000000000000000000000000000000000000000000000000000000000000000000000000000000000F2000000000000000000000000000000000000000000000000000000000000000000000000000000000000000000
310
0000000000000000000000000000000000F500000000F5000000F5F5F52D2DF5F5F5000000F5F5000000F5F50000000000000000000000000000000000000000000000000000000000000000000000000000000000000000000000000000000000000000000000000000F20000000000000000000000000000000000000000
310
0000000000000000000000000000000000000000000000000000000000000000000000000000000000000000000000000000000000000000000000000000000000000000000000000000000000000000000000F200000000000000000000000000000000000000000000000000000000000000000000000000000000000000
310
00000000000000000000000000000000000000F500000000F5000000F5F52D2D2D2DF5F5000000F5F5000000F5F50000000000000000000000000000000000000000000000000000000000000000000000000000000000000000000000000000000000000000000000000000F2000000000000000000000000000000000000
310
00000000000000000000000000000000000000000000000000000000000000000000000000000000000000000000000000000000000000000000000000000000000000000000000000000000000000000000000000F20000000000000000000000000000000000000000000000000000000000000000000000000000000000
310
000000000000000000000000000000000000000000F50000F5F5F5000000F5F52D000000F5F5000000F5F5F50000F5F50000000000000000000000000000000000000000000000000000000000000000000000000000000000000000000000000000000000000000000000000000F200000000000000000000000000000000
310
000000000000000000000000000000000000000000000000000000000000000000000000000000000000000000000000000000000000000000000000000000000000000000000000000000000000000000000000000000F2000000000000000000000000000000000000000000000000000000000000000000000000000000
310
0000000000000000000000000000000000000000000000F5F5F5F5F5F5000000F5F52D000000F5F5000000F5F5F5F5F5F5F50000000000000000000000000000000000000000000000000000000000000000000000000000000000000000000000000000000000000000000000000000F20000000000000000000000000000
310
00000000000000000000000000000000000000000000000000000000000000000000000000000000000000000000000000000000000000000000000000000000000000000000000000000000000000000000000000000000F2F200000000000000000000000000000000000000000000000000000000000000000000000000
310
000000000000000000000000000000000000000000000000000000000000F5F5F5F5F5F52D000000F5F5F5F5F5F5F500000000000000000000000000000000000000000000000000000000000000000000000000000000000000000000000000000000000000000000000000000000000000F2000000000000000000000000
310
00000000000000000000000000000000000000000000000000000000000000000000000000000000000000000000000000000000000000000000000000000000000000000000000000000000000000000000000000000000000000F20000000000000000000000000000000000000000000000000000000000000000000000
310
0000000000000000000000000000000000000000000000000000000000000000F5000000F5F52D0000002DF5000000F5F500000000000000000000000000000000000000000000000000000000000000000000000000000000000000000000000000000000000000000000000000000000000000F200000000000000000000
310
000000000000000000000000000000000000000000000000000000000000000000000000000000000000000000000000000000000000000000000000000000000000000000000000000000000000000000000000000000000000000000F2000000000000000000000000000000000000000000000000000000000000000000
310
000000000000000000000000000000000000000000000000000000002D2D00000000F5000000F5F52D000000F5F5000000F5F5000000002D2D00000000000000000000000000000000000000000000000000000000000000000000000000000000000000000000000000000000000000000000000000F20000000000000000
310
0000000000000000000000000000000000000000000000000000000000000000000000000000000000000000000000000000000000000000000000000000000000000000000000000000000000000000000000000000000000000000000000F200000000000000000000000000000000000000000000000000000000000000
310
00000000000000000000000000000000000000000000000000000000002DF5F500000000F5000000F5F52D0000002DF5000000F5F5000000F5F52D2D000000000000000000000000000000000000000000000000000000000000000000000000000000000000000000000000000000000000000000000000F2000000000000
310
00000000000000000000000000000000000000000000000000000000000000000000000000000000000000000000000000000000000000000000000000000000000000000000000000000000000000000000000000000000000000000000000000F20000000000000000000000000000000000000000000000000000000000
310
000000000000000000000000000000000000000000000000000000000000002DF5F5F5F5F5F5F5000000F5F52D0000002DF5000000F5F5F5F5F5F5F52D2D000000000000000000000000000000000000000000000000000000000000000000000000000000000000000000000000000000000000000000000000F200000000
310
000000000000000000000000000000000000000000000000000000000000000000000000000000000000000000000000000000000000000000000000000000000000000000000000000000000000000000000000000000000000000000000000000000F2000000000000000000000000000000000000000000000000000000
310
00000000000000000000000000000000000000000000000000000000000000000000F5F5F5F5F5F5F5000000F5F52D0000002DF5000000F5F5F5F5F5F5F52D00000000000000000000000000000000000000000000000000000000000000000000000000000000000000000000000000000000000000000000000000F20000
310
0000000000000000000000000000000000000000000000000000000000000000000000000000000000000000000000000000000000000000000000000000000000000000000000000000000000000000000000000000000000000000000000000000000000F200000000000000000000000000000000000000000000000000
310
000000000000000000000000000000000000000000000000000000000000000000000000000000000000F5000000F5F52D0000002DF5000000F5F500000000000000000000000000000000000000000000000000000000000000000000000000000000000000000000000000000000000000000000000000000000000000F2
310
00000000000000000000000000000000000000000000000000000000000000000000000000000000000000000000000000000000000000000000000000000000000000000000000000000000000000000000000000000000000000000000000000000000000000F20000000000000000000000000000000000000000000000
310
0000000000000000000000000000000000000000000000000000000000000000000000000000000000000000F5000000F5F52DF5F52D2DF5000000F5F5000000000000000000000000000000000000000000000000000000000000000000000000000000000000000000000000000000000000000000000000000000000000
310
00F200000000000000000000000000000000000000000000000000000000000000000000000000000000000000000000000000000000000000000000000000000000000000000000000000000000000000000000000000000000000000000000000000000000000000F2000000000000000000000000000000000000000000
310
00000000000000000000000000000000000000000000000000000000000000000000000000000000000000000000F5000000F5F5F5F5F5F5F5F5000000F5F500000000000000000000000000000000000000000000000000000000000000000000000000000000000000000000000000000000000000000000000000000000
310
000000F200000000000000000000000000000000000000000000000000000000000000000000000000000000000000000000000000000000000000000000000000000000000000000000000000000000000000000000000000000000000000000000000000000000000000F200000000000000000000000000000000000000
310
000000000000000000000000000000000000000000000000000000000000000000000000000000000000000000000000F5000000F5F50000000000F5000000F5F50000000000000000000000000000000000000000000000000000000000000000000000000000000000000000000000000000000000000000000000000000
310
0000000000F200000000000000000000000000000000000000000000000000000000000000000000000000000000000000000000000000000000000000000000000000000000000000000000000000000000000000000000000000000000000000000000000000000000000000F20000000000000000000000000000000000
310
0000000000000000000000000000000000000000000000000000000000000000000000000000000000000000000000000000F5000000F5F50000000000F5000000F5F5000000000000000000000000000000000000000000000000000000000000000000000000000000000000000000000000000000000000000000000000
310
00000000000000F200000000000000000000000000000000000000000000000000000000000000000000000000000000000000000000000000000000000000000000000000000000000000000000000000000000000000000000000000000000000000000000000000000000000000F2000000000000000000000000000000
310
00000000000000000000000000000000000000000000000000000000000000000000000000000000000000000000000000000000F5000000F5F50000000000F5000000F5F500000000000000000000000000000000000000000000000000000000000000000000000000000000000000000000000000000000000000000000
310
000000000000000000F200000000000000000000000000000000000000000000000000000000000000000000000000000000000000000000000000000000000000000000000000000000000000000000000000000000000000000000000000000000000000000000000000000000000000F200000000000000000000000000
310
000000000000000000000000000000000000000000000000000000000000000000000000000000000000000000000000000000000000F5000000F5F5F5F5F5F5F5F5000000F5F50000000000000000000000000000000000000000000000000000000000000000000000000000000000000000000000000000000000000000
310
0000000000000000000000F200000000000000000000000000000000000000000000000000000000000000000000000000000000000000000000000000000000000000000000000000000000000000000000000000000000000000000000000000000000000000000000000000000000000000F20000000000000000000000
310
0000000000000000000000000000000000000000000000000000000000000000000000000000000000000000000000000000C30000000000F5F5F5F5F5F5F5F500F5F5F5F5F5F5F5F500000000C300000000000000000000000000000000000000000000000000000000000000000000000000000000000000000000000000
310
00000000000000000000000000F200000000000000000000000000000000000000000000000000000000000000000000000000000000000000000000000000000000000000000000000000000000000000000000000000000000000000000000000000000000000000000000000000000000000000F2000000000000000000
310
00000000000000000000000000000000000000000000000000000000000000000000000000000000000000000000000000000000C30000000000C3000000000000C300C3000000000000C300000000C30000000000000000000000000000000000000000000000000000000000000000000000000000000000000000000000
310
000000000000000000000000000000F200000000000000000000000000000000000000000000000000000000000000000000000000000000000000000000000000000000000000000000000000000000000000000000000000000000000000000000000000000000000000000000000000000000000000F200000000000000
310
000000000000000000000000000000000000000000000000000000000000000000000000000000000000000000000000000000000000C30000000000C3000000000000C300C3000000000000C300000000C3000000000000000000000000000000000000000000000000000000000000000000000000000000000000000000
310
0000000000000000000000000000000000F200000000000000000000000000000000000000000000000000000000000000000000000000000000000000000000000000000000000000000000000000000000000000000000000000000000000000000000000000000000000000000000000000000000000000F20000000000
310
0000000000000000000000000000000000000000000000000000000000000000000000000000000000000000000000000000000000000000C30000000000C3000000000000C300C3000000000000C300000000C300000000000000000000000000000000000000000000000000000000000000000000000000000000000000
310
00000000000000000000000000000000000000F200000000000000000000000000000000000000000000000000000000000000000000000000000000000000000000000000000000000000000000000000000000000000000000000000000000000000000000000000000000000000000000000000000000000000F2000000
310
00000000000000000000000000000000000000000000000000000000000000000000000000000000000000000000000000000000000000000000C30000000000C3000000000000C300C3000000000000C300000000C30000000000000000000000000000000000000000000000000000000000000000000000000000000000
310
000000000000000000000000000000000000000000F200000000000000000000000000000000000000000000000000000000000000000000000000000000000000000000000000000000000000000000000000000000000000000000000000000000000000000000000000000000000000000000000000000000000000F200
310
000000000000000000000000000000000000000000000000000000000000000000000000000000000000000000000000000000000000000000000000C3C3C3C3C3C3C3C3C3C3C3C3C3C3C3C3C3C3C3C3C3C3C3C3C3C3C3C3000000000000000000000000000000000000000000000000000000000000000000000000000000
310
0000000000000000000000000000000000000000000000F200000000000000000000000000000000000000000000000000000000000000000000000000000000000000000000000000000000000000000000000000000000000000000000000000000000000000000000000000000000000000000000000000000000000000
310
F200000000000000000000000000000000000000000000000000000000000000000000000000000000000000000000000000000000000000000000000000C3C3C3C30000C300C3C3C30000C300C300C3C3C30000C3C3C3C300C300000000000000000000000000000000000000000000000000000000000000000000000000
310
00000000000000000000000000000000000000000000000000F20000000000000000000000000000000000000000000000000000000000000000000000000000000000000000000000000000000000000000000000000000000000000000000000000000000000000000000000000000000000000000000000000000000000
310
0000F200000000000000000000000000000000000000000000000000000000000000000000000000000000000000000000000000000000000000000000000000C3C3C3C300000000C3C3C300000000C300C3C3C3000000C3C3C300C30000000000000000000000000000000000000000000000000000000000000000000000
310
000000000000000000000000000000000000000000000000000000F2000000000000000000000000000000000000000000000000000000000000000000000000000000000000000000000000000000000000000000000000000000000000000000000000000000000000000000000000000000000000000000000000000000
310
00000000F200000000000000000000000000000000000000000000000000000000000000000000000000000000000000000000000000000000000000000000000000C3000000000000000000000000000000C300000000000000000000C3000000000000000000000000000000000000000000000000000000000000000000
310
0000000000000000000000000000000000000000000000000000000000F200000000000000000000000000000000000000000000000000000000000000000000000000000000000000000000000000000000000000000000000000000000000000000000000000000000000000000000000000000000000000000000000000
310
000000000000F200000000000000000000000000000000000000000000000000000000000000000000000000000000000000000000000000000000000000000000000000C3000000000000000000000000000000C300000000000000000000C300000000000000000000000000000000000000000000000000000000000000
310
00000000000000000000000000000000000000000000000000000000000000F20000000000000000000000000000000000000000000000000000000000000000000000000000000000000000000000000000000000000000000000000000000000000000000000000000000000000000000000000000000000000000000000
310
0000000000000000F200000000000000000000000000000000000000000000000000000000000000000000000000000000000000000000000000000000000000000000000000C300000000000000000000000000000000C3000000000000000000C30000000000000000000000000000000000000000000000000000000000
310
000000000000000000000000000000000000000000000000000000000000000000F2000000000000000000000000000000000000000000000000000000000000000000000000000000000000000000000000000000000000000000000000000000000000000000000000000000000000000000000000000000000000000000
310
00000000000000000000F200000000000000000000000000000000000000000000000000000000000000000000000000000000000000000000000000000000000000000000000000C300000000000000000000000000000000C3C3C3C3000000000000C3000000000000000000000000000000000000000000000000000000
310
0000000000000000000000000000000000000000000000000000000000000000000000F200000000000000000000000000000000000000000000000000000000000000000000000000000000000000000000000000000000000000000000000000000000000000000000000000000000000000000000000000000000000000
310
000000000000000000000000F200000000000000000000000000000000000000000000000000000000000000000000000000000000000000000000000000000000000000000000000000C300000000000000000000000000000000C3C3C300000000000000C300000000000000000000000000000000000000000000000000
310
00000000000000000000000000000000000000000000000000000000000000000000000000F20000000000000000000000000000000000000000000000000000000000000000000000000000000000000000000000000000000000000000000000000000000000000000000000000000000000000000000000000000000000
310
0000000000000000000000000000F200000000000000000000000000000000000000000000000000000000000000000000000000000000000000000000000000000000000000000000000000C300000000000000000000000000000000C3C3C300000000000000C30000000000000000000000000000000000000000000000
310
000000000000000000000000000000000000000000000000000000000000000000000000000000F2000000000000000000000000000000000000000000000000000000000000000000000000000000000000000000000000000000000000000000000000000000000000000000000000000000000000000000000000000000
310
00000000000000000000000000000000F200000000000000000000000000000000000000000000000000000000000000000000000000000000000000000000000000000000000000000000000000C30000000000000000000000000000000000000000000000000000C3000000000000000000000000000000000000000000
310
0000000000000000000000000000000000000000000000000000000000000000000000000000000000F200000000000000000000000000000000000000000000000000000000000000000000000000000000000000000000000000000000000000000000000000000000000000000000000000000000000000000000000000
310
000000000000000000000000000000000000F200000000000000000000000000000000000000000000000000000000000000000000000000000000000000000000000000000000000000000000000000C30000000000000000000000000000000000000000000000000000C300000000000000000000000000000000000000
310
00000000000000000000000000000000000000000000000000000000000000000000000000000000000000F20000000000000000000000000000000000000000000000000000000000000000000000000000000000000000000000000000000000000000000000000000000000000000000000000000000000000000000000
310
0000000000000000000000000000000000000000F200000000000000000000000000000000000000000000000000000000000000000000000000000000000000000000000000000000000000000000000000C3C3C3C3C3C3C3C3C3C3C3C3C3C3C3C3C3C3C3C3C3C3C3C3C3C3C3C30000000000000000000000000000000000
310
000000000000000000000000000000000000000000000000000000000000000000000000000000000000000000F2000000000000000000000000000000000000000000000000000000000000000000000000000000000000000000000000000000000000000000000000000000000000000000000000000000000000000000
310
00000000000000000000000000000000000000000000F200000000000000000000000000000000000000000000000000000000000000000000000000000000000000000000000000000000000000000000000000C300000000000000000000C3C3C3C3C30000000000000000000000C3000000000000000000000000000000
310
0000000000000000000000000000000000000000000000000000000000000000000000000000000000000000000000F200000000000000000000000000000000000000000000000000000000000000000000000000000000000000000000000000000000000000000000000000000000000000000000000000000000000000
310
000000000000000000000000000000000000000000000000F2000000000000000000000000000000000000000000000000000000000000000000000000000000000000000000000000000000000000000000000000000000000000000000000000C3C3C3C3C300000000000000000000000000000000000000000000000000
310
00000000000000000000000000000000000000000000000000000000000000000000000000000000000000000000000000F20000000000000000000000000000000000000000000000000000000000000000000000000000000000000000000000000000000000000000000000000000000000000000000000000000000000
310
0000000000000000000000000000000000000000000000000000F200000000000000000000000000000000000000000000000000000000000000000000000000000000000000000000000000000000000000000000000000000000000000000000000000000000000000000000000000000000000000000000000000000000
310
000000000000000000000000000000000000000000000000000000000000000000000000000000000000000000000000000000F2000000000000000000000000000000000000000000000000000000000000000000000000000000000000000000000000000000000000000000000000000000000000000000000000000000
310
00000000000000000000000000000000000000000000000000000000F20000000000000000000000000000000000000000000000000000000000000000000000000000000000000000000000000000000000000000000000000000000000000000000000000000000000000000000000000000000000000000000000000000
310
0000000000000000000000000000000000000000000000000000000000000000000000000000000000000000000000000000000000F200000000000000000000000000000000000000000000000000000000000000000000000000000000000000000000000000000000000000000000000000000000000000000000000000
310
000000000000000000000000000000000000000000000000000000000000F2000000000000000000000000000000000000000000000000000000000000000000000000000000000000000000000000000000000000000000000000000000000000000000000000000000000000000000000000000000000000000000000000
310
00000000000000000000000000000000000000000000000000000000000000000000000000000000000000000000000000000000000000F20000000000000000000000000000000000000000000000000000000000000000000000000000000000000000000000000000000000000000000000000000000000000000000000
310
0000000000000000000000000000000000000000000000000000000000000000F200000000000000000000000000000000000000000000000000000000000000000000000000000000000000000000000000000000000000000000000000000000000000000000000000000000000000000000000000000000000000000000
310
000000000000000000000000000000000000000000000000000000000000000000000000000000000000000000000000000000000000000000F2000000000000000000000000000000000000000000000000000000000000000000000000000000000000000000000000000000000000000000000000000000000000000000
310
00000000000000000000000000000000000000000000000000000000000000000000F20000000000000000000000000000000000000000000000000000000000000000000000000000000000000000000000282828002828282828002800280028002828280000000000000000000000000000000000000000000000000000
310
0000000000000000000000000000000000000000000000000000000000000000000000000000000000000000000000000000000000000000000000F200000000000000000000000000000000000000000000000000000000000000000000000000000000000000000000000000000000000000000000000000000000000000
310
000000000000000000000000000000000000000000000000000000000000000000000000F2000000000000000000000000000000000000000000000000000000000000000000000000000000000000000000000028282828280028282828282828282828282828000000000000000000000000000000000000000000000000
310
00000000000000000000000000000000000000000000000000000000000000000000000000000000000000000000000000000000000000000000000000F20000000000000000000000000000000000000000000000000000000000000000000000000000000000000000000000000000000000000000000000000000000000
310
0000000000000000000000000000000000000000000000000000000000000000000000000000F200000000000000000000000000000000000000000000000000000000000000000000000000000000000000000000000000282828282828280000002828280028282800000000000000000000000000000000000000000000
310
000000000000000000000000000000000000000000000000000000000000000000000000000000000000000000000000000000000000000000000000000000F2000000000000000000000000000000000000000000000000000000000000000000000000000000000000000000000000000000000000000000000000000000
310
00000000000000000000000000000000000000000000000000000000000000000000000000000000F20000000000000000000000000000000000000000000000000000000000000000000000000000000000000000000000000000000000000000000000000000000000000000000000000000000000000000000000000000
310
0000000000000000000000000000000000000000000000000000000000000000000000000000000000000000000000000000000000000000000000000000000000F200000000000000000000000000000000000000000000000000000000000000000000000000000000000000000000000000000000000000000000000000
310
000000000000000000000000000000000000000000000000000000000000000000000000000000000000F2000000000000000000000000000000000000000000000000000000000000000000000000000000000000000000000000000000000000000000000000000000000000000000000000000000000000000000000000
310
00000000000000000000000000000000000000000000000000000000000000000000000000000000000000000000000000000000000000000000000000000000000000F20000000000000000000000000000000000000000000000000000000000000000000000000000000000000000000000000000000000000000000000
310
0000000000000000000000000000000000000000000000000000000000000000000000000000000000000000F200000000000000000000000000000000000000000000000000000000000000000000000000000000000000000000000000000000000000000000000000000000000000000000000000000000000000000000
310
000000000000000000000000000000000000000000000000000000000000000000000000000000000000000000000000000000000000000000000000000000000000000000F2000000000000000000000000000000000000000000000000000000000000000000000000000000000000000000000000000000000000000000
310
00000000000000000000000000000000000000000000000000000000000000000000000000000000000000000000F20000000000000000000000000000000000000000000000000000000000000000000000000000000000000000000000000000000000000000000000000000000000000000000000000000000000000000
310
0000000000000000000000000000000000000000000000000000000000000000000000000000000000000000000000000000000000000000000000000000000000000000000000F200000000000000000000000000000000000000000000000000000000000000000000000000000000000000000000000000000000000000
310
000000000000000000000000000000000000000000000000000000000000000000000000000000000000000000000000F2000000000000000000000000000000000000000000000000000000000000000000000000000000000000000000000000000000000000000000000000000000000000000000000000000000000000
310
00000000000000000000000000000000000000000000000000000000000000000000000000000000000000000000000000000000000000000000000000000000000000000000000000F20000000000000000000000000000000000000000000000000000000000000000000000000000000000000000000000000000000000
310
0000000000000000000000000000000000000000000000000000000000000000000000000000000000000000000000000000F200000000000000000000000000000000000000000000000000000000000000000000000000000000000000000000000000000000000000000000000000000000000000000000000000000000
310
000000000000000000000000000000000000000000000000000000000000000000000000000000000000000000000000000000000000000000000000000000000000000000000000000000F2000000000000000000000000000000000000000000000000000000000000000000000000000000000000000000000000000000
310
00000000000000000000000000000000000000000000000000000000000000000000000000000000000000000000000000000000F20000000000000000000000000000000000000000000000000000000000000000000000000000000000000000000000000000000000000000000000000000000000000000000000000000
310
0000000000000000000000000000000000000000000000000000000000000000000000000000000000000000000000000000000000000000000000000000000000000000000000000000000000F200000000000000000000000000000000000000000000000000000000000000000000000000000000000000000000000000
310
000000000000000000000000000000000000000000000000000000000000000000000000000000000000000000000000000000000000F2000000000000000000000000000000000000000000000000000000000000000000000000000000000000000000000000000000000000000000000000000000000000000000000000
310
00000000000000000000000000000000000000000000000000000000000000000000000000000000000000000000000000000000000000000000000000000000000000000000000000000000000000F20000000000000000000000000000000000000000000000000000000000000000000000000000000000000000000000
310
0000000000000000000000000000000000000000000000000000000000000000000000000000000000000000000000000000000000000000F200000000000000000000000000000000000000000000000000000000000000000000000000000000000000000000000000000000000000000000000000000000000000000000
310
000000000000000000000000000000000000000000000000000000000000000000000000000000000000000000000000000000000000000000000000000000000000000000000000000000000000000000F2000000000000000000000000000000000000000000000000000000000000000000000000000000000000000000
310
00000000000000000000000000000000000000000000000000000000000000000000000000000000000000000000000000000000000000000000F20000000000000000000000000000000000000000000000000000000000000000000000000000000000000000000000000000000000000000000000000000000000000000
310
0000000000000000000000000000000000000000000000000000000000000000000000000000000000000000000000000000000000000000000000000000000000000000000000000000000000000000000000F200000000000000000000000000000000000000000000000000000000000000000000000000000000000000
310
000000000000000000000000000000000000000000000000000000000000000000000000000000000000000000000000000000000000000000000000F2000000000000000000000000000000000000000000000000000000000000000000000000000000000000000000000000000000000000000000000000000000000000
310
00000000000000000000000000000000000000000000000000000000000000000000000000000000000000000000000000000000000000000000000000000000000000000000000000000000000000000000000000F20000000000000000000000000000000000000000000000000000000000000000000000000000000000
310
0000000000000000000000000000000000000000000000000000000000000000000000000000000000000000000000000000000000000000000000000000F200000000000000000000000000000000000000000000000000000000000000000000000000000000000000000000000000000000000000000000000000000000
310
000000000000000000000000000000000000000000000000000000000000000000000000000000000000000000000000000000000000000000000000000000000000000000000000000000000000000000000000000000F2000000000000000000000000000000000000000000000000000000000000000000000000000000
310
00000000000000000000000000000000000000000000000000000000000000000000000000000000000000000000000000000000000000000000000000000000F20000000000000000000000000000000000000000000000000000000000000000000000000000000000000000000000000000000000000000000000000000
310
0000000000000000000000000000000000000000000000000000000000000000000000000000000000000000000000000000000000000000000000000000000000000000000000000000000000000000000000000000000000F200000000000000000000000000000000000000000000000000000000000000000000000000
310
000000000000000000000000000000000000000000000000000000000000000000000000000000000000000000000000000000000000000000000000000000000000F2F2F2F2F2F2F2F2F2F2F2F2F2F2F2F2F2F2F2F2F2F2F2F2F2F2F2F2F2F2F2F2F2F2F2F2F2F2F2F2F2F2F2F2F2F2F2F2F2F2F2F2F2F2F2F2F2F2F2F2F2
310
F2F2F2F2F2F2F2F2F2F2F2F2F2F2F2ECF2F2F2F2F2F2F2F2F2F2F2F2F2F2F2F2F2F2F2F2F2F2F2F2F2F2F2F2F2F2F2F2F2F2F2F2F2F2F2F2F2F2F2F2F2F2F2F2F2F2F2F2F2F2F2F2F2F2F2F2F2F2F2F2F2F2F2F2F2F2F2F2F2F2F2F20000000000000000000000000000000000000000000000000000000000000000000000
310
00000000000000000000000000000000000000000000000000000000000000000000000000000000000000000000000000000000000000000000000000000000000000000000000000000000000000000000000000000000000000000000000000000000000000000000000000000000000000000000000000000000000000
310
00000000000000000000000000000000000000000000000000000000000000000000000000000000000000000000000000000000000000000000000000000000000000000000000000000000000000000000000000000000000000000000000000000000000000000000000000000000000000000000000000000000000000
310
0000000000000000000000000000000000000000
  0
XRECORD
  5
70D
102
{ACAD_REACTORS
330
FA
102
}
330
FA
100
AcDbXrecord
280
     1
102
MATERIAL
148
0.0
149
0.0
149
0.0
 93
        0
 94
      127
282
     0
 72
     0
 77
     0
171
     0
175
     0
179
     0
273
     0
  0
XRECORD
  5
FC
102
{ACAD_REACTORS
330
FA
102
}
330
FA
100
AcDbXrecord
280
     1
270
     1
271
     1
  0
XRECORD
  5
FB
102
{ACAD_REACTORS
330
FA
102
}
330
FA
100
AcDbXrecord
280
     1
270
     1
271
     1
  0
XRECORD
  5
FF
102
{ACAD_REACTORS
330
FA
102
}
330
FA
100
AcDbXrecord
280
     1
270
     1
271
     1
  0
XRECORD
  5
FE
102
{ACAD_REACTORS
330
FA
102
}
330
FA
100
AcDbXrecord
280
     1
270
     1
271
     1
  0
XRECORD
  5
100
102
{ACAD_REACTORS
330
FA
102
}
330
FA
100
AcDbXrecord
280
     1
270
     1
271
     1
  0
XRECORD
  5
FD
102
{ACAD_REACTORS
330
FA
102
}
330
FA
100
AcDbXrecord
280
     1
270
     1
271
     1
  0
XRECORD
  5
70C
102
{ACAD_REACTORS
330
F2
102
}
330
F2
100
AcDbXrecord
280
     1
102
MATERIAL
148
0.0
149
0.0
149
0.0
 93
        0
 94
      127
282
     0
 72
     0
 77
     0
171
     0
175
     0
179
     0
273
     0
  0
XRECORD
  5
F4
102
{ACAD_REACTORS
330
F2
102
}
330
F2
100
AcDbXrecord
280
     1
270
     1
271
     1
  0
XRECORD
  5
F3
102
{ACAD_REACTORS
330
F2
102
}
330
F2
100
AcDbXrecord
280
     1
270
     1
271
     1
  0
XRECORD
  5
F7
102
{ACAD_REACTORS
330
F2
102
}
330
F2
100
AcDbXrecord
280
     1
270
     1
271
     1
  0
XRECORD
  5
F6
102
{ACAD_REACTORS
330
F2
102
}
330
F2
100
AcDbXrecord
280
     1
270
     1
271
     1
  0
XRECORD
  5
F8
102
{ACAD_REACTORS
330
F2
102
}
330
F2
100
AcDbXrecord
280
     1
270
     1
271
     1
  0
XRECORD
  5
F5
102
{ACAD_REACTORS
330
F2
102
}
330
F2
100
AcDbXrecord
280
     1
270
     1
271
     1
  0
XRECORD
  5
70E
102
{ACAD_REACTORS
330
102
102
}
330
102
100
AcDbXrecord
280
     1
102
MATERIAL
148
0.0
149
0.0
149
0.0
 93
        0
 94
      127
282
     0
 72
     0
 77
     0
171
     0
175
     0
179
     0
273
     0
  0
XRECORD
  5
104
102
{ACAD_REACTORS
330
102
102
}
330
102
100
AcDbXrecord
280
     1
270
     1
271
     1
  0
XRECORD
  5
103
102
{ACAD_REACTORS
330
102
102
}
330
102
100
AcDbXrecord
280
     1
270
     1
271
     1
  0
XRECORD
  5
107
102
{ACAD_REACTORS
330
102
102
}
330
102
100
AcDbXrecord
280
     1
270
     1
271
     1
  0
XRECORD
  5
106
102
{ACAD_REACTORS
330
102
102
}
330
102
100
AcDbXrecord
280
     1
270
     1
271
     1
  0
XRECORD
  5
108
102
{ACAD_REACTORS
330
102
102
}
330
102
100
AcDbXrecord
280
     1
270
     1
271
     1
  0
XRECORD
  5
105
102
{ACAD_REACTORS
330
102
102
}
330
102
100
AcDbXrecord
280
     1
270
     1
271
     1
  0
XRECORD
  5
745
102
{ACAD_REACTORS
330
744
102
}
330
744
100
AcDbXrecord
280
     1
102
DISPLAYNAME
  1
Metric50
102
FLAGS
 90
        0
  0
CELLSTYLEMAP
  5
70A
102
{ACAD_REACTORS
330
14C
102
}
330
14C
100
AcDbCellStyleMap
 90
        3
300
CELLSTYLE
  1
TABLEFORMAT_BEGIN
 90
        5
170
     1
 91
        0
 92
    32768
 62
   257
 93
        1
300
CONTENTFORMAT
  1
CONTENTFORMAT_BEGIN
 90
        0
 91
        0
 92
      512
 93
        0
300

 40
0.0
140
1.0
 94
        5
 62
     0
340
C
144
0.25
309
CONTENTFORMAT_END
171
     0
 94
        0
309
TABLEFORMAT_END
  1
CELLSTYLE_BEGIN
 90
        1
 91
        1
300
_TITLE
309
CELLSTYLE_END
300
CELLSTYLE
  1
TABLEFORMAT_BEGIN
 90
        5
170
     1
 91
        0
 92
        0
 62
   257
 93
        1
300
CONTENTFORMAT
  1
CONTENTFORMAT_BEGIN
 90
        0
 91
        0
 92
      512
 93
        0
300

 40
0.0
140
1.0
 94
        5
 62
     0
340
C
144
0.18
309
CONTENTFORMAT_END
171
     0
 94
        0
309
TABLEFORMAT_END
  1
CELLSTYLE_BEGIN
 90
        2
 91
        1
300
_HEADER
309
CELLSTYLE_END
300
CELLSTYLE
  1
TABLEFORMAT_BEGIN
 90
        5
170
     1
 91
        0
 92
        0
 62
   257
 93
        1
300
CONTENTFORMAT
  1
CONTENTFORMAT_BEGIN
 90
        0
 91
        0
 92
      512
 93
        0
300

 40
0.0
140
1.0
 94
        2
 62
     0
340
C
144
0.18
309
CONTENTFORMAT_END
171
     0
 94
        0
309
TABLEFORMAT_END
  1
CELLSTYLE_BEGIN
 90
        3
 91
        2
300
_DATA
309
CELLSTYLE_END
  0
XRECORD
  5
735
102
{ACAD_REACTORS
330
14C
102
}
330
14C
100
AcDbXrecord
280
     1
102
ACAD_ROUNDTRIP_PRE2007_TABLESTYLE
 90
      512
 91
        0
  1

 92
      512
 93
        0
  2

 94
      512
 95
        0
  3

  0
XRECORD
  5
71A
102
{ACAD_REACTORS
330
719
102
}
330
719
100
AcDbXrecord
280
     1
102
RTVSPost2010Prop28
280
     1
102
RTVSPost2010PropOp28
 70
     1
102
RTVSPost2010Prop29
280
     1
102
RTVSPost2010PropOp29
 70
     1
102
RTVSPost2010Prop30
280
     0
102
RTVSPost2010PropOp30
 70
     1
102
RTVSPost2010Prop31
280
     0
102
RTVSPost2010PropOp31
 70
     1
102
RTVSPost2010Prop32
280
     0
102
RTVSPost2010PropOp32
 70
     1
102
RTVSPost2010Prop33
280
     0
102
RTVSPost2010PropOp33
 70
     1
102
RTVSPost2010Prop34
280
     0
102
RTVSPost2010PropOp34
 70
     1
102
RTVSPost2010Prop35
280
     0
102
RTVSPost2010PropOp35
 70
     1
102
RTVSPost2010Prop36
280
     0
102
RTVSPost2010PropOp36
 70
     1
102
RTVSPost2010Prop37
 90
       50
102
RTVSPost2010PropOp37
 70
     1
102
RTVSPost2010Prop38
140
0.0
102
RTVSPost2010PropOp38
 70
     1
102
RTVSPost2010Prop39
140
1.0
102
RTVSPost2010PropOp39
 70
     1
102
RTVSPost2010Prop40
 90
        0
102
RTVSPost2010PropOp40
 70
     1
102
RTVSPost2010Prop41ColorIndex
 90
       18
102
RTVSPost2010Prop41ColorRGB
 90
        0
102
RTVSPost2010PropOp41
 70
     1
102
RTVSPost2010Prop42
 90
       50
102
RTVSPost2010PropOp42
 70
     1
102
RTVSPost2010Prop43
 90
        3
102
RTVSPost2010PropOp43
 70
     1
102
RTVSPost2010Prop44ColorIndex
 90
        5
102
RTVSPost2010Prop44ColorRGB
 90
      255
102
RTVSPost2010PropOp44
 70
     1
102
RTVSPost2010Prop45
280
     0
102
RTVSPost2010PropOp45
 70
     1
102
RTVSPost2010Prop46
 90
       50
102
RTVSPost2010PropOp46
 70
     1
102
RTVSPost2010Prop47
 90
       50
102
RTVSPost2010PropOp47
 70
     1
102
RTVSPost2010Prop48
 90
       50
102
RTVSPost2010PropOp48
 70
     1
102
RTVSPost2010Prop49
280
     0
102
RTVSPost2010PropOp49
 70
     1
102
RTVSPost2010Prop50
 90
       50
102
RTVSPost2010PropOp50
 70
     1
102
RTVSPost2010Prop51ColorIndex
 90
      256
102
RTVSPost2010Prop51ColorRGB
 90
-16777216
102
RTVSPost2010PropOp51
 70
     0
102
RTVSPost2010Prop52
140
1.0
102
RTVSPost2010PropOp52
 70
     0
102
RTVSPost2010Prop53
 90
        2
102
RTVSPost2010PropOp53
 70
     1
102
RTVSPost2010Prop54
  1
strokes_ogs.tif
102
RTVSPost2010PropOp54
 70
     1
102
RTVSPost2010Prop55
280
     0
102
RTVSPost2010PropOp55
 70
     1
102
RTVSPost2010Prop56
140
1.0
102
RTVSPost2010PropOp56
 70
     1
102
RTVSPost2010Prop57
140
1.0
102
RTVSPost2010PropOp57
 70
     1
102
RTVSPropertyOp0
 70
     1
102
RTVSPropertyOp1
 70
     1
102
RTVSPropertyOp2
 70
     1
102
RTVSPropertyOp3
 70
     1
102
RTVSPropertyOp4
 70
     1
102
RTVSPropertyOp5
 70
     1
102
RTVSPropertyOp6
 70
     1
102
RTVSPropertyOp7
 70
     1
102
RTVSPropertyOp8
 70
     1
102
RTVSPropertyOp9
 70
     1
102
RTVSPropertyOp10
 70
     1
102
RTVSPropertyOp11
 70
     1
102
RTVSPropertyOp12
 70
     1
102
RTVSPropertyOp13
 70
     1
102
RTVSPropertyOp14
 70
     1
102
RTVSPropertyOp15
 70
     1
102
RTVSPropertyOp16
 70
     1
102
RTVSPropertyOp17
 70
     1
102
RTVSPropertyOp18
 70
     1
102
RTVSPropertyOp19
 70
     1
102
RTVSPropertyOp20
 70
     1
102
RTVSPropertyOp21
 70
     1
102
RTVSPropertyOp22
 70
     1
102
RTVSPropertyOp23
 70
     1
102
RTVSPropertyOp24
 70
     1
102
RTVSPropertyOp25
 70
     1
102
RTVSPropertyOp26
 70
     1
102
RTVSPropertyOp27
 70
     1
102
RTVSPropertyOp28
 70
     1
102
RTVSPropertyOp29
 70
     1
102
RTVSPropertyOp30
 70
     1
102
RTVSPropertyOp31
 70
     1
102
RTVSPropertyOp32
 70
     1
102
RTVSPropertyOp33
 70
     1
102
RTVSPropertyOp34
 70
     1
102
RTVSPropertyOp35
 70
     1
102
RTVSPropertyOp36
 70
     1
102
RTVSPropertyOp37
 70
     1
102
RTVSPropertyOp38
 70
     1
102
RTVSPropertyOp39
 70
     1
102
RTVSPropertyOp40
 70
     1
102
RTVSPropertyOp41
 70
     1
102
RTVSPropertyOp42
 70
     1
102
RTVSPropertyOp43
 70
     1
102
RTVSPropertyOp44
 70
     1
102
RTVSPropertyOp45
 70
     1
102
RTVSPropertyOp46
 70
     1
102
RTVSPropertyOp47
 70
     1
102
RTVSPropertyOp48
 70
     1
102
RTVSPropertyOp49
 70
     1
102
RTVSPropertyOp50
 70
     1
102
RTVSPropertyOp51
 70
     0
102
RTVSPropertyOp52
 70
     0
102
RTVSPropertyOp53
 70
     1
102
RTVSPropertyOp54
 70
     1
102
RTVSPropertyOp55
 70
     1
102
RTVSPropertyOp56
 70
     1
102
RTVSPropertyOp57
 70
     1
102
RTVSPropertyOp58
 70
     1
102
RTVSPropertyOp59
 70
     1
102
RTVSPropertyOp60
 70
     1
102
RTVSPropertyOp61
 70
     1
102
RTVSPropertyOp62
 70
     1
  0
XRECORD
  5
71E
102
{ACAD_REACTORS
330
71D
102
}
330
71D
100
AcDbXrecord
280
     1
102
RTVSPost2010Prop28
280
     0
102
RTVSPost2010PropOp28
 70
     1
102
RTVSPost2010Prop29
280
     1
102
RTVSPost2010PropOp29
 70
     1
102
RTVSPost2010Prop30
280
     1
102
RTVSPost2010PropOp30
 70
     1
102
RTVSPost2010Prop31
280
     0
102
RTVSPost2010PropOp31
 70
     1
102
RTVSPost2010Prop32
280
     0
102
RTVSPost2010PropOp32
 70
     1
102
RTVSPost2010Prop33
280
     0
102
RTVSPost2010PropOp33
 70
     1
102
RTVSPost2010Prop34
280
     0
102
RTVSPost2010PropOp34
 70
     1
102
RTVSPost2010Prop35
280
     0
102
RTVSPost2010PropOp35
 70
     1
102
RTVSPost2010Prop36
280
     0
102
RTVSPost2010PropOp36
 70
     1
102
RTVSPost2010Prop37
 90
       50
102
RTVSPost2010PropOp37
 70
     1
102
RTVSPost2010Prop38
140
0.0
102
RTVSPost2010PropOp38
 70
     1
102
RTVSPost2010Prop39
140
1.0
102
RTVSPost2010PropOp39
 70
     1
102
RTVSPost2010Prop40
 90
        0
102
RTVSPost2010PropOp40
 70
     1
102
RTVSPost2010Prop41ColorIndex
 90
       18
102
RTVSPost2010Prop41ColorRGB
 90
        0
102
RTVSPost2010PropOp41
 70
     1
102
RTVSPost2010Prop42
 90
       50
102
RTVSPost2010PropOp42
 70
     1
102
RTVSPost2010Prop43
 90
        3
102
RTVSPost2010PropOp43
 70
     1
102
RTVSPost2010Prop44ColorIndex
 90
        5
102
RTVSPost2010Prop44ColorRGB
 90
      255
102
RTVSPost2010PropOp44
 70
     1
102
RTVSPost2010Prop45
280
     0
102
RTVSPost2010PropOp45
 70
     1
102
RTVSPost2010Prop46
 90
       50
102
RTVSPost2010PropOp46
 70
     1
102
RTVSPost2010Prop47
 90
       50
102
RTVSPost2010PropOp47
 70
     1
102
RTVSPost2010Prop48
 90
       50
102
RTVSPost2010PropOp48
 70
     1
102
RTVSPost2010Prop49
280
     0
102
RTVSPost2010PropOp49
 70
     1
102
RTVSPost2010Prop50
 90
       50
102
RTVSPost2010PropOp50
 70
     1
102
RTVSPost2010Prop51ColorIndex
 90
      256
102
RTVSPost2010Prop51ColorRGB
 90
-16777216
102
RTVSPost2010PropOp51
 70
     0
102
RTVSPost2010Prop52
140
1.0
102
RTVSPost2010PropOp52
 70
     0
102
RTVSPost2010Prop53
 90
        2
102
RTVSPost2010PropOp53
 70
     1
102
RTVSPost2010Prop54
  1
strokes_ogs.tif
102
RTVSPost2010PropOp54
 70
     1
102
RTVSPost2010Prop55
280
     0
102
RTVSPost2010PropOp55
 70
     1
102
RTVSPost2010Prop56
140
1.0
102
RTVSPost2010PropOp56
 70
     1
102
RTVSPost2010Prop57
140
1.0
102
RTVSPost2010PropOp57
 70
     1
102
RTVSPropertyOp0
 70
     1
102
RTVSPropertyOp1
 70
     1
102
RTVSPropertyOp2
 70
     1
102
RTVSPropertyOp3
 70
     1
102
RTVSPropertyOp4
 70
     1
102
RTVSPropertyOp5
 70
     1
102
RTVSPropertyOp6
 70
     1
102
RTVSPropertyOp7
 70
     1
102
RTVSPropertyOp8
 70
     1
102
RTVSPropertyOp9
 70
     1
102
RTVSPropertyOp10
 70
     1
102
RTVSPropertyOp11
 70
     1
102
RTVSPropertyOp12
 70
     1
102
RTVSPropertyOp13
 70
     1
102
RTVSPropertyOp14
 70
     1
102
RTVSPropertyOp15
 70
     1
102
RTVSPropertyOp16
 70
     1
102
RTVSPropertyOp17
 70
     1
102
RTVSPropertyOp18
 70
     1
102
RTVSPropertyOp19
 70
     1
102
RTVSPropertyOp20
 70
     1
102
RTVSPropertyOp21
 70
     1
102
RTVSPropertyOp22
 70
     1
102
RTVSPropertyOp23
 70
     1
102
RTVSPropertyOp24
 70
     1
102
RTVSPropertyOp25
 70
     1
102
RTVSPropertyOp26
 70
     1
102
RTVSPropertyOp27
 70
     1
102
RTVSPropertyOp28
 70
     1
102
RTVSPropertyOp29
 70
     1
102
RTVSPropertyOp30
 70
     1
102
RTVSPropertyOp31
 70
     1
102
RTVSPropertyOp32
 70
     1
102
RTVSPropertyOp33
 70
     1
102
RTVSPropertyOp34
 70
     1
102
RTVSPropertyOp35
 70
     1
102
RTVSPropertyOp36
 70
     1
102
RTVSPropertyOp37
 70
     1
102
RTVSPropertyOp38
 70
     1
102
RTVSPropertyOp39
 70
     1
102
RTVSPropertyOp40
 70
     1
102
RTVSPropertyOp41
 70
     1
102
RTVSPropertyOp42
 70
     1
102
RTVSPropertyOp43
 70
     1
102
RTVSPropertyOp44
 70
     1
102
RTVSPropertyOp45
 70
     1
102
RTVSPropertyOp46
 70
     1
102
RTVSPropertyOp47
 70
     1
102
RTVSPropertyOp48
 70
     1
102
RTVSPropertyOp49
 70
     1
102
RTVSPropertyOp50
 70
     1
102
RTVSPropertyOp51
 70
     0
102
RTVSPropertyOp52
 70
     0
102
RTVSPropertyOp53
 70
     1
102
RTVSPropertyOp54
 70
     1
102
RTVSPropertyOp55
 70
     1
102
RTVSPropertyOp56
 70
     1
102
RTVSPropertyOp57
 70
     1
102
RTVSPropertyOp58
 70
     1
102
RTVSPropertyOp59
 70
     1
102
RTVSPropertyOp60
 70
     1
102
RTVSPropertyOp61
 70
     1
102
RTVSPropertyOp62
 70
     1
  0
XRECORD
  5
71C
102
{ACAD_REACTORS
330
71B
102
}
330
71B
100
AcDbXrecord
280
     1
102
RTVSPost2010Prop28
280
     0
102
RTVSPost2010PropOp28
 70
     1
102
RTVSPost2010Prop29
280
     1
102
RTVSPost2010PropOp29
 70
     1
102
RTVSPost2010Prop30
280
     1
102
RTVSPost2010PropOp30
 70
     1
102
RTVSPost2010Prop31
280
     0
102
RTVSPost2010PropOp31
 70
     1
102
RTVSPost2010Prop32
280
     0
102
RTVSPost2010PropOp32
 70
     1
102
RTVSPost2010Prop33
280
     0
102
RTVSPost2010PropOp33
 70
     1
102
RTVSPost2010Prop34
280
     0
102
RTVSPost2010PropOp34
 70
     1
102
RTVSPost2010Prop35
280
     0
102
RTVSPost2010PropOp35
 70
     1
102
RTVSPost2010Prop36
280
     0
102
RTVSPost2010PropOp36
 70
     1
102
RTVSPost2010Prop37
 90
       50
102
RTVSPost2010PropOp37
 70
     1
102
RTVSPost2010Prop38
140
0.0
102
RTVSPost2010PropOp38
 70
     1
102
RTVSPost2010Prop39
140
1.0
102
RTVSPost2010PropOp39
 70
     1
102
RTVSPost2010Prop40
 90
        0
102
RTVSPost2010PropOp40
 70
     1
102
RTVSPost2010Prop41ColorIndex
 90
       18
102
RTVSPost2010Prop41ColorRGB
 90
        0
102
RTVSPost2010PropOp41
 70
     1
102
RTVSPost2010Prop42
 90
       50
102
RTVSPost2010PropOp42
 70
     1
102
RTVSPost2010Prop43
 90
        3
102
RTVSPost2010PropOp43
 70
     1
102
RTVSPost2010Prop44ColorIndex
 90
        5
102
RTVSPost2010Prop44ColorRGB
 90
      255
102
RTVSPost2010PropOp44
 70
     1
102
RTVSPost2010Prop45
280
     0
102
RTVSPost2010PropOp45
 70
     1
102
RTVSPost2010Prop46
 90
       50
102
RTVSPost2010PropOp46
 70
     1
102
RTVSPost2010Prop47
 90
       50
102
RTVSPost2010PropOp47
 70
     1
102
RTVSPost2010Prop48
 90
       50
102
RTVSPost2010PropOp48
 70
     1
102
RTVSPost2010Prop49
280
     0
102
RTVSPost2010PropOp49
 70
     1
102
RTVSPost2010Prop50
 90
       50
102
RTVSPost2010PropOp50
 70
     1
102
RTVSPost2010Prop51ColorIndex
 90
      256
102
RTVSPost2010Prop51ColorRGB
 90
-16777216
102
RTVSPost2010PropOp51
 70
     0
102
RTVSPost2010Prop52
140
1.0
102
RTVSPost2010PropOp52
 70
     0
102
RTVSPost2010Prop53
 90
        2
102
RTVSPost2010PropOp53
 70
     1
102
RTVSPost2010Prop54
  1
strokes_ogs.tif
102
RTVSPost2010PropOp54
 70
     1
102
RTVSPost2010Prop55
280
     0
102
RTVSPost2010PropOp55
 70
     1
102
RTVSPost2010Prop56
140
1.0
102
RTVSPost2010PropOp56
 70
     1
102
RTVSPost2010Prop57
140
1.0
102
RTVSPost2010PropOp57
 70
     1
102
RTVSPropertyOp0
 70
     1
102
RTVSPropertyOp1
 70
     1
102
RTVSPropertyOp2
 70
     1
102
RTVSPropertyOp3
 70
     1
102
RTVSPropertyOp4
 70
     1
102
RTVSPropertyOp5
 70
     1
102
RTVSPropertyOp6
 70
     1
102
RTVSPropertyOp7
 70
     1
102
RTVSPropertyOp8
 70
     1
102
RTVSPropertyOp9
 70
     1
102
RTVSPropertyOp10
 70
     1
102
RTVSPropertyOp11
 70
     1
102
RTVSPropertyOp12
 70
     1
102
RTVSPropertyOp13
 70
     1
102
RTVSPropertyOp14
 70
     1
102
RTVSPropertyOp15
 70
     1
102
RTVSPropertyOp16
 70
     1
102
RTVSPropertyOp17
 70
     1
102
RTVSPropertyOp18
 70
     1
102
RTVSPropertyOp19
 70
     1
102
RTVSPropertyOp20
 70
     1
102
RTVSPropertyOp21
 70
     1
102
RTVSPropertyOp22
 70
     1
102
RTVSPropertyOp23
 70
     1
102
RTVSPropertyOp24
 70
     1
102
RTVSPropertyOp25
 70
     1
102
RTVSPropertyOp26
 70
     1
102
RTVSPropertyOp27
 70
     1
102
RTVSPropertyOp28
 70
     1
102
RTVSPropertyOp29
 70
     1
102
RTVSPropertyOp30
 70
     1
102
RTVSPropertyOp31
 70
     1
102
RTVSPropertyOp32
 70
     1
102
RTVSPropertyOp33
 70
     1
102
RTVSPropertyOp34
 70
     1
102
RTVSPropertyOp35
 70
     1
102
RTVSPropertyOp36
 70
     1
102
RTVSPropertyOp37
 70
     1
102
RTVSPropertyOp38
 70
     1
102
RTVSPropertyOp39
 70
     1
102
RTVSPropertyOp40
 70
     1
102
RTVSPropertyOp41
 70
     1
102
RTVSPropertyOp42
 70
     1
102
RTVSPropertyOp43
 70
     1
102
RTVSPropertyOp44
 70
     1
102
RTVSPropertyOp45
 70
     1
102
RTVSPropertyOp46
 70
     1
102
RTVSPropertyOp47
 70
     1
102
RTVSPropertyOp48
 70
     1
102
RTVSPropertyOp49
 70
     1
102
RTVSPropertyOp50
 70
     1
102
RTVSPropertyOp51
 70
     0
102
RTVSPropertyOp52
 70
     0
102
RTVSPropertyOp53
 70
     1
102
RTVSPropertyOp54
 70
     1
102
RTVSPropertyOp55
 70
     1
102
RTVSPropertyOp56
 70
     1
102
RTVSPropertyOp57
 70
     1
102
RTVSPropertyOp58
 70
     1
102
RTVSPropertyOp59
 70
     1
102
RTVSPropertyOp60
 70
     1
102
RTVSPropertyOp61
 70
     1
102
RTVSPropertyOp62
 70
     1
  0
XRECORD
  5
718
102
{ACAD_REACTORS
330
717
102
}
330
717
100
AcDbXrecord
280
     1
102
RTVSPost2010Prop28
280
     0
102
RTVSPost2010PropOp28
 70
     1
102
RTVSPost2010Prop29
280
     1
102
RTVSPost2010PropOp29
 70
     1
102
RTVSPost2010Prop30
280
     1
102
RTVSPost2010PropOp30
 70
     1
102
RTVSPost2010Prop31
280
     0
102
RTVSPost2010PropOp31
 70
     1
102
RTVSPost2010Prop32
280
     0
102
RTVSPost2010PropOp32
 70
     1
102
RTVSPost2010Prop33
280
     0
102
RTVSPost2010PropOp33
 70
     1
102
RTVSPost2010Prop34
280
     0
102
RTVSPost2010PropOp34
 70
     1
102
RTVSPost2010Prop35
280
     0
102
RTVSPost2010PropOp35
 70
     1
102
RTVSPost2010Prop36
280
     0
102
RTVSPost2010PropOp36
 70
     1
102
RTVSPost2010Prop37
 90
       50
102
RTVSPost2010PropOp37
 70
     1
102
RTVSPost2010Prop38
140
0.0
102
RTVSPost2010PropOp38
 70
     1
102
RTVSPost2010Prop39
140
1.0
102
RTVSPost2010PropOp39
 70
     1
102
RTVSPost2010Prop40
 90
        0
102
RTVSPost2010PropOp40
 70
     1
102
RTVSPost2010Prop41ColorIndex
 90
       18
102
RTVSPost2010Prop41ColorRGB
 90
        0
102
RTVSPost2010PropOp41
 70
     1
102
RTVSPost2010Prop42
 90
       50
102
RTVSPost2010PropOp42
 70
     1
102
RTVSPost2010Prop43
 90
        3
102
RTVSPost2010PropOp43
 70
     1
102
RTVSPost2010Prop44ColorIndex
 90
        5
102
RTVSPost2010Prop44ColorRGB
 90
      255
102
RTVSPost2010PropOp44
 70
     1
102
RTVSPost2010Prop45
280
     0
102
RTVSPost2010PropOp45
 70
     1
102
RTVSPost2010Prop46
 90
       50
102
RTVSPost2010PropOp46
 70
     1
102
RTVSPost2010Prop47
 90
       50
102
RTVSPost2010PropOp47
 70
     1
102
RTVSPost2010Prop48
 90
       50
102
RTVSPost2010PropOp48
 70
     1
102
RTVSPost2010Prop49
280
     0
102
RTVSPost2010PropOp49
 70
     1
102
RTVSPost2010Prop50
 90
       50
102
RTVSPost2010PropOp50
 70
     1
102
RTVSPost2010Prop51ColorIndex
 90
      256
102
RTVSPost2010Prop51ColorRGB
 90
-16777216
102
RTVSPost2010PropOp51
 70
     0
102
RTVSPost2010Prop52
140
1.0
102
RTVSPost2010PropOp52
 70
     0
102
RTVSPost2010Prop53
 90
        2
102
RTVSPost2010PropOp53
 70
     1
102
RTVSPost2010Prop54
  1
strokes_ogs.tif
102
RTVSPost2010PropOp54
 70
     1
102
RTVSPost2010Prop55
280
     0
102
RTVSPost2010PropOp55
 70
     1
102
RTVSPost2010Prop56
140
1.0
102
RTVSPost2010PropOp56
 70
     1
102
RTVSPost2010Prop57
140
1.0
102
RTVSPost2010PropOp57
 70
     1
102
RTVSPropertyOp0
 70
     1
102
RTVSPropertyOp1
 70
     1
102
RTVSPropertyOp2
 70
     1
102
RTVSPropertyOp3
 70
     1
102
RTVSPropertyOp4
 70
     1
102
RTVSPropertyOp5
 70
     1
102
RTVSPropertyOp6
 70
     1
102
RTVSPropertyOp7
 70
     1
102
RTVSPropertyOp8
 70
     1
102
RTVSPropertyOp9
 70
     1
102
RTVSPropertyOp10
 70
     1
102
RTVSPropertyOp11
 70
     1
102
RTVSPropertyOp12
 70
     1
102
RTVSPropertyOp13
 70
     1
102
RTVSPropertyOp14
 70
     1
102
RTVSPropertyOp15
 70
     1
102
RTVSPropertyOp16
 70
     1
102
RTVSPropertyOp17
 70
     1
102
RTVSPropertyOp18
 70
     1
102
RTVSPropertyOp19
 70
     1
102
RTVSPropertyOp20
 70
     1
102
RTVSPropertyOp21
 70
     1
102
RTVSPropertyOp22
 70
     1
102
RTVSPropertyOp23
 70
     1
102
RTVSPropertyOp24
 70
     1
102
RTVSPropertyOp25
 70
     1
102
RTVSPropertyOp26
 70
     1
102
RTVSPropertyOp27
 70
     1
102
RTVSPropertyOp28
 70
     1
102
RTVSPropertyOp29
 70
     1
102
RTVSPropertyOp30
 70
     1
102
RTVSPropertyOp31
 70
     1
102
RTVSPropertyOp32
 70
     1
102
RTVSPropertyOp33
 70
     1
102
RTVSPropertyOp34
 70
     1
102
RTVSPropertyOp35
 70
     1
102
RTVSPropertyOp36
 70
     1
102
RTVSPropertyOp37
 70
     1
102
RTVSPropertyOp38
 70
     1
102
RTVSPropertyOp39
 70
     1
102
RTVSPropertyOp40
 70
     1
102
RTVSPropertyOp41
 70
     1
102
RTVSPropertyOp42
 70
     1
102
RTVSPropertyOp43
 70
     1
102
RTVSPropertyOp44
 70
     1
102
RTVSPropertyOp45
 70
     1
102
RTVSPropertyOp46
 70
     1
102
RTVSPropertyOp47
 70
     1
102
RTVSPropertyOp48
 70
     1
102
RTVSPropertyOp49
 70
     1
102
RTVSPropertyOp50
 70
     1
102
RTVSPropertyOp51
 70
     0
102
RTVSPropertyOp52
 70
     0
102
RTVSPropertyOp53
 70
     1
102
RTVSPropertyOp54
 70
     1
102
RTVSPropertyOp55
 70
     1
102
RTVSPropertyOp56
 70
     1
102
RTVSPropertyOp57
 70
     1
102
RTVSPropertyOp58
 70
     1
102
RTVSPropertyOp59
 70
     1
102
RTVSPropertyOp60
 70
     1
102
RTVSPropertyOp61
 70
     1
102
RTVSPropertyOp62
 70
     1
  0
XRECORD
  5
726
102
{ACAD_REACTORS
330
725
102
}
330
725
100
AcDbXrecord
280
     1
102
RTVSPost2010Prop28
280
     0
102
RTVSPost2010PropOp28
 70
     1
102
RTVSPost2010Prop29
280
     1
102
RTVSPost2010PropOp29
 70
     1
102
RTVSPost2010Prop30
280
     1
102
RTVSPost2010PropOp30
 70
     1
102
RTVSPost2010Prop31
280
     0
102
RTVSPost2010PropOp31
 70
     1
102
RTVSPost2010Prop32
280
     0
102
RTVSPost2010PropOp32
 70
     1
102
RTVSPost2010Prop33
280
     0
102
RTVSPost2010PropOp33
 70
     1
102
RTVSPost2010Prop34
280
     0
102
RTVSPost2010PropOp34
 70
     1
102
RTVSPost2010Prop35
280
     0
102
RTVSPost2010PropOp35
 70
     1
102
RTVSPost2010Prop36
280
     0
102
RTVSPost2010PropOp36
 70
     1
102
RTVSPost2010Prop37
 90
       50
102
RTVSPost2010PropOp37
 70
     1
102
RTVSPost2010Prop38
140
0.0
102
RTVSPost2010PropOp38
 70
     1
102
RTVSPost2010Prop39
140
1.0
102
RTVSPost2010PropOp39
 70
     1
102
RTVSPost2010Prop40
 90
        0
102
RTVSPost2010PropOp40
 70
     1
102
RTVSPost2010Prop41ColorIndex
 90
       18
102
RTVSPost2010Prop41ColorRGB
 90
        0
102
RTVSPost2010PropOp41
 70
     1
102
RTVSPost2010Prop42
 90
       50
102
RTVSPost2010PropOp42
 70
     1
102
RTVSPost2010Prop43
 90
        3
102
RTVSPost2010PropOp43
 70
     1
102
RTVSPost2010Prop44ColorIndex
 90
        5
102
RTVSPost2010Prop44ColorRGB
 90
      255
102
RTVSPost2010PropOp44
 70
     1
102
RTVSPost2010Prop45
280
     0
102
RTVSPost2010PropOp45
 70
     1
102
RTVSPost2010Prop46
 90
       50
102
RTVSPost2010PropOp46
 70
     1
102
RTVSPost2010Prop47
 90
       50
102
RTVSPost2010PropOp47
 70
     1
102
RTVSPost2010Prop48
 90
       50
102
RTVSPost2010PropOp48
 70
     1
102
RTVSPost2010Prop49
280
     0
102
RTVSPost2010PropOp49
 70
     1
102
RTVSPost2010Prop50
 90
       50
102
RTVSPost2010PropOp50
 70
     1
102
RTVSPost2010Prop51ColorIndex
 90
      256
102
RTVSPost2010Prop51ColorRGB
 90
-16777216
102
RTVSPost2010PropOp51
 70
     0
102
RTVSPost2010Prop52
140
1.0
102
RTVSPost2010PropOp52
 70
     0
102
RTVSPost2010Prop53
 90
        2
102
RTVSPost2010PropOp53
 70
     1
102
RTVSPost2010Prop54
  1
strokes_ogs.tif
102
RTVSPost2010PropOp54
 70
     1
102
RTVSPost2010Prop55
280
     0
102
RTVSPost2010PropOp55
 70
     1
102
RTVSPost2010Prop56
140
1.0
102
RTVSPost2010PropOp56
 70
     1
102
RTVSPost2010Prop57
140
1.0
102
RTVSPost2010PropOp57
 70
     1
102
RTVSPropertyOp0
 70
     1
102
RTVSPropertyOp1
 70
     1
102
RTVSPropertyOp2
 70
     1
102
RTVSPropertyOp3
 70
     1
102
RTVSPropertyOp4
 70
     1
102
RTVSPropertyOp5
 70
     1
102
RTVSPropertyOp6
 70
     1
102
RTVSPropertyOp7
 70
     1
102
RTVSPropertyOp8
 70
     1
102
RTVSPropertyOp9
 70
     1
102
RTVSPropertyOp10
 70
     1
102
RTVSPropertyOp11
 70
     1
102
RTVSPropertyOp12
 70
     1
102
RTVSPropertyOp13
 70
     1
102
RTVSPropertyOp14
 70
     1
102
RTVSPropertyOp15
 70
     1
102
RTVSPropertyOp16
 70
     1
102
RTVSPropertyOp17
 70
     1
102
RTVSPropertyOp18
 70
     1
102
RTVSPropertyOp19
 70
     1
102
RTVSPropertyOp20
 70
     1
102
RTVSPropertyOp21
 70
     1
102
RTVSPropertyOp22
 70
     1
102
RTVSPropertyOp23
 70
     1
102
RTVSPropertyOp24
 70
     1
102
RTVSPropertyOp25
 70
     1
102
RTVSPropertyOp26
 70
     1
102
RTVSPropertyOp27
 70
     1
102
RTVSPropertyOp28
 70
     1
102
RTVSPropertyOp29
 70
     1
102
RTVSPropertyOp30
 70
     1
102
RTVSPropertyOp31
 70
     1
102
RTVSPropertyOp32
 70
     1
102
RTVSPropertyOp33
 70
     1
102
RTVSPropertyOp34
 70
     1
102
RTVSPropertyOp35
 70
     1
102
RTVSPropertyOp36
 70
     1
102
RTVSPropertyOp37
 70
     1
102
RTVSPropertyOp38
 70
     1
102
RTVSPropertyOp39
 70
     1
102
RTVSPropertyOp40
 70
     1
102
RTVSPropertyOp41
 70
     1
102
RTVSPropertyOp42
 70
     1
102
RTVSPropertyOp43
 70
     1
102
RTVSPropertyOp44
 70
     1
102
RTVSPropertyOp45
 70
     1
102
RTVSPropertyOp46
 70
     1
102
RTVSPropertyOp47
 70
     1
102
RTVSPropertyOp48
 70
     1
102
RTVSPropertyOp49
 70
     1
102
RTVSPropertyOp50
 70
     1
102
RTVSPropertyOp51
 70
     0
102
RTVSPropertyOp52
 70
     0
102
RTVSPropertyOp53
 70
     1
102
RTVSPropertyOp54
 70
     1
102
RTVSPropertyOp55
 70
     1
102
RTVSPropertyOp56
 70
     1
102
RTVSPropertyOp57
 70
     1
102
RTVSPropertyOp58
 70
     1
102
RTVSPropertyOp59
 70
     1
102
RTVSPropertyOp60
 70
     1
102
RTVSPropertyOp61
 70
     1
102
RTVSPropertyOp62
 70
     1
  0
XRECORD
  5
72E
102
{ACAD_REACTORS
330
72D
102
}
330
72D
100
AcDbXrecord
280
     1
102
RTVSPost2010Prop28
280
     0
102
RTVSPost2010PropOp28
 70
     1
102
RTVSPost2010Prop29
280
     1
102
RTVSPost2010PropOp29
 70
     1
102
RTVSPost2010Prop30
280
     1
102
RTVSPost2010PropOp30
 70
     1
102
RTVSPost2010Prop31
280
     0
102
RTVSPost2010PropOp31
 70
     1
102
RTVSPost2010Prop32
280
     0
102
RTVSPost2010PropOp32
 70
     1
102
RTVSPost2010Prop33
280
     0
102
RTVSPost2010PropOp33
 70
     1
102
RTVSPost2010Prop34
280
     0
102
RTVSPost2010PropOp34
 70
     1
102
RTVSPost2010Prop35
280
     0
102
RTVSPost2010PropOp35
 70
     1
102
RTVSPost2010Prop36
280
     0
102
RTVSPost2010PropOp36
 70
     1
102
RTVSPost2010Prop37
 90
       50
102
RTVSPost2010PropOp37
 70
     1
102
RTVSPost2010Prop38
140
0.0
102
RTVSPost2010PropOp38
 70
     1
102
RTVSPost2010Prop39
140
1.0
102
RTVSPost2010PropOp39
 70
     1
102
RTVSPost2010Prop40
 90
        0
102
RTVSPost2010PropOp40
 70
     1
102
RTVSPost2010Prop41ColorIndex
 90
       18
102
RTVSPost2010Prop41ColorRGB
 90
        0
102
RTVSPost2010PropOp41
 70
     1
102
RTVSPost2010Prop42
 90
       50
102
RTVSPost2010PropOp42
 70
     1
102
RTVSPost2010Prop43
 90
        3
102
RTVSPost2010PropOp43
 70
     1
102
RTVSPost2010Prop44ColorIndex
 90
        5
102
RTVSPost2010Prop44ColorRGB
 90
      255
102
RTVSPost2010PropOp44
 70
     1
102
RTVSPost2010Prop45
280
     0
102
RTVSPost2010PropOp45
 70
     1
102
RTVSPost2010Prop46
 90
       50
102
RTVSPost2010PropOp46
 70
     1
102
RTVSPost2010Prop47
 90
       50
102
RTVSPost2010PropOp47
 70
     1
102
RTVSPost2010Prop48
 90
       50
102
RTVSPost2010PropOp48
 70
     1
102
RTVSPost2010Prop49
280
     0
102
RTVSPost2010PropOp49
 70
     1
102
RTVSPost2010Prop50
 90
       50
102
RTVSPost2010PropOp50
 70
     1
102
RTVSPost2010Prop51ColorIndex
 90
      256
102
RTVSPost2010Prop51ColorRGB
 90
-16777216
102
RTVSPost2010PropOp51
 70
     0
102
RTVSPost2010Prop52
140
1.0
102
RTVSPost2010PropOp52
 70
     0
102
RTVSPost2010Prop53
 90
        2
102
RTVSPost2010PropOp53
 70
     1
102
RTVSPost2010Prop54
  1
strokes_ogs.tif
102
RTVSPost2010PropOp54
 70
     1
102
RTVSPost2010Prop55
280
     0
102
RTVSPost2010PropOp55
 70
     1
102
RTVSPost2010Prop56
140
1.0
102
RTVSPost2010PropOp56
 70
     1
102
RTVSPost2010Prop57
140
1.0
102
RTVSPost2010PropOp57
 70
     1
102
RTVSPropertyOp0
 70
     1
102
RTVSPropertyOp1
 70
     1
102
RTVSPropertyOp2
 70
     1
102
RTVSPropertyOp3
 70
     1
102
RTVSPropertyOp4
 70
     1
102
RTVSPropertyOp5
 70
     1
102
RTVSPropertyOp6
 70
     1
102
RTVSPropertyOp7
 70
     1
102
RTVSPropertyOp8
 70
     1
102
RTVSPropertyOp9
 70
     1
102
RTVSPropertyOp10
 70
     1
102
RTVSPropertyOp11
 70
     1
102
RTVSPropertyOp12
 70
     1
102
RTVSPropertyOp13
 70
     1
102
RTVSPropertyOp14
 70
     1
102
RTVSPropertyOp15
 70
     1
102
RTVSPropertyOp16
 70
     1
102
RTVSPropertyOp17
 70
     1
102
RTVSPropertyOp18
 70
     1
102
RTVSPropertyOp19
 70
     1
102
RTVSPropertyOp20
 70
     1
102
RTVSPropertyOp21
 70
     1
102
RTVSPropertyOp22
 70
     1
102
RTVSPropertyOp23
 70
     1
102
RTVSPropertyOp24
 70
     1
102
RTVSPropertyOp25
 70
     1
102
RTVSPropertyOp26
 70
     1
102
RTVSPropertyOp27
 70
     1
102
RTVSPropertyOp28
 70
     1
102
RTVSPropertyOp29
 70
     1
102
RTVSPropertyOp30
 70
     1
102
RTVSPropertyOp31
 70
     1
102
RTVSPropertyOp32
 70
     1
102
RTVSPropertyOp33
 70
     1
102
RTVSPropertyOp34
 70
     1
102
RTVSPropertyOp35
 70
     1
102
RTVSPropertyOp36
 70
     1
102
RTVSPropertyOp37
 70
     1
102
RTVSPropertyOp38
 70
     1
102
RTVSPropertyOp39
 70
     1
102
RTVSPropertyOp40
 70
     1
102
RTVSPropertyOp41
 70
     1
102
RTVSPropertyOp42
 70
     1
102
RTVSPropertyOp43
 70
     1
102
RTVSPropertyOp44
 70
     1
102
RTVSPropertyOp45
 70
     1
102
RTVSPropertyOp46
 70
     1
102
RTVSPropertyOp47
 70
     1
102
RTVSPropertyOp48
 70
     1
102
RTVSPropertyOp49
 70
     1
102
RTVSPropertyOp50
 70
     1
102
RTVSPropertyOp51
 70
     0
102
RTVSPropertyOp52
 70
     0
102
RTVSPropertyOp53
 70
     1
102
RTVSPropertyOp54
 70
     1
102
RTVSPropertyOp55
 70
     1
102
RTVSPropertyOp56
 70
     1
102
RTVSPropertyOp57
 70
     1
102
RTVSPropertyOp58
 70
     1
102
RTVSPropertyOp59
 70
     1
102
RTVSPropertyOp60
 70
     1
102
RTVSPropertyOp61
 70
     1
102
RTVSPropertyOp62
 70
     1
  0
XRECORD
  5
720
102
{ACAD_REACTORS
330
71F
102
}
330
71F
100
AcDbXrecord
280
     1
102
RTVSPost2010Prop28
280
     0
102
RTVSPost2010PropOp28
 70
     1
102
RTVSPost2010Prop29
280
     1
102
RTVSPost2010PropOp29
 70
     1
102
RTVSPost2010Prop30
280
     1
102
RTVSPost2010PropOp30
 70
     1
102
RTVSPost2010Prop31
280
     0
102
RTVSPost2010PropOp31
 70
     1
102
RTVSPost2010Prop32
280
     0
102
RTVSPost2010PropOp32
 70
     1
102
RTVSPost2010Prop33
280
     0
102
RTVSPost2010PropOp33
 70
     1
102
RTVSPost2010Prop34
280
     0
102
RTVSPost2010PropOp34
 70
     1
102
RTVSPost2010Prop35
280
     0
102
RTVSPost2010PropOp35
 70
     1
102
RTVSPost2010Prop36
280
     0
102
RTVSPost2010PropOp36
 70
     1
102
RTVSPost2010Prop37
 90
       50
102
RTVSPost2010PropOp37
 70
     1
102
RTVSPost2010Prop38
140
0.0
102
RTVSPost2010PropOp38
 70
     1
102
RTVSPost2010Prop39
140
1.0
102
RTVSPost2010PropOp39
 70
     1
102
RTVSPost2010Prop40
 90
        0
102
RTVSPost2010PropOp40
 70
     1
102
RTVSPost2010Prop41ColorIndex
 90
       18
102
RTVSPost2010Prop41ColorRGB
 90
        0
102
RTVSPost2010PropOp41
 70
     1
102
RTVSPost2010Prop42
 90
       50
102
RTVSPost2010PropOp42
 70
     1
102
RTVSPost2010Prop43
 90
        3
102
RTVSPost2010PropOp43
 70
     1
102
RTVSPost2010Prop44ColorIndex
 90
        5
102
RTVSPost2010Prop44ColorRGB
 90
      255
102
RTVSPost2010PropOp44
 70
     1
102
RTVSPost2010Prop45
280
     0
102
RTVSPost2010PropOp45
 70
     1
102
RTVSPost2010Prop46
 90
       50
102
RTVSPost2010PropOp46
 70
     1
102
RTVSPost2010Prop47
 90
       50
102
RTVSPost2010PropOp47
 70
     1
102
RTVSPost2010Prop48
 90
       50
102
RTVSPost2010PropOp48
 70
     1
102
RTVSPost2010Prop49
280
     0
102
RTVSPost2010PropOp49
 70
     1
102
RTVSPost2010Prop50
 90
       50
102
RTVSPost2010PropOp50
 70
     1
102
RTVSPost2010Prop51ColorIndex
 90
      256
102
RTVSPost2010Prop51ColorRGB
 90
-16777216
102
RTVSPost2010PropOp51
 70
     0
102
RTVSPost2010Prop52
140
1.0
102
RTVSPost2010PropOp52
 70
     0
102
RTVSPost2010Prop53
 90
        2
102
RTVSPost2010PropOp53
 70
     1
102
RTVSPost2010Prop54
  1
strokes_ogs.tif
102
RTVSPost2010PropOp54
 70
     1
102
RTVSPost2010Prop55
280
     0
102
RTVSPost2010PropOp55
 70
     1
102
RTVSPost2010Prop56
140
1.0
102
RTVSPost2010PropOp56
 70
     1
102
RTVSPost2010Prop57
140
1.0
102
RTVSPost2010PropOp57
 70
     1
102
RTVSPropertyOp0
 70
     1
102
RTVSPropertyOp1
 70
     1
102
RTVSPropertyOp2
 70
     1
102
RTVSPropertyOp3
 70
     1
102
RTVSPropertyOp4
 70
     1
102
RTVSPropertyOp5
 70
     1
102
RTVSPropertyOp6
 70
     1
102
RTVSPropertyOp7
 70
     1
102
RTVSPropertyOp8
 70
     1
102
RTVSPropertyOp9
 70
     1
102
RTVSPropertyOp10
 70
     1
102
RTVSPropertyOp11
 70
     1
102
RTVSPropertyOp12
 70
     1
102
RTVSPropertyOp13
 70
     1
102
RTVSPropertyOp14
 70
     1
102
RTVSPropertyOp15
 70
     1
102
RTVSPropertyOp16
 70
     1
102
RTVSPropertyOp17
 70
     1
102
RTVSPropertyOp18
 70
     1
102
RTVSPropertyOp19
 70
     1
102
RTVSPropertyOp20
 70
     1
102
RTVSPropertyOp21
 70
     1
102
RTVSPropertyOp22
 70
     1
102
RTVSPropertyOp23
 70
     1
102
RTVSPropertyOp24
 70
     1
102
RTVSPropertyOp25
 70
     1
102
RTVSPropertyOp26
 70
     1
102
RTVSPropertyOp27
 70
     1
102
RTVSPropertyOp28
 70
     1
102
RTVSPropertyOp29
 70
     1
102
RTVSPropertyOp30
 70
     1
102
RTVSPropertyOp31
 70
     1
102
RTVSPropertyOp32
 70
     1
102
RTVSPropertyOp33
 70
     1
102
RTVSPropertyOp34
 70
     1
102
RTVSPropertyOp35
 70
     1
102
RTVSPropertyOp36
 70
     1
102
RTVSPropertyOp37
 70
     1
102
RTVSPropertyOp38
 70
     1
102
RTVSPropertyOp39
 70
     1
102
RTVSPropertyOp40
 70
     1
102
RTVSPropertyOp41
 70
     1
102
RTVSPropertyOp42
 70
     1
102
RTVSPropertyOp43
 70
     1
102
RTVSPropertyOp44
 70
     1
102
RTVSPropertyOp45
 70
     1
102
RTVSPropertyOp46
 70
     1
102
RTVSPropertyOp47
 70
     1
102
RTVSPropertyOp48
 70
     1
102
RTVSPropertyOp49
 70
     1
102
RTVSPropertyOp50
 70
     1
102
RTVSPropertyOp51
 70
     0
102
RTVSPropertyOp52
 70
     0
102
RTVSPropertyOp53
 70
     1
102
RTVSPropertyOp54
 70
     1
102
RTVSPropertyOp55
 70
     1
102
RTVSPropertyOp56
 70
     1
102
RTVSPropertyOp57
 70
     1
102
RTVSPropertyOp58
 70
     1
102
RTVSPropertyOp59
 70
     1
102
RTVSPropertyOp60
 70
     1
102
RTVSPropertyOp61
 70
     1
102
RTVSPropertyOp62
 70
     1
  0
XRECORD
  5
724
102
{ACAD_REACTORS
330
723
102
}
330
723
100
AcDbXrecord
280
     1
102
RTVSPost2010Prop28
280
     0
102
RTVSPost2010PropOp28
 70
     1
102
RTVSPost2010Prop29
280
     1
102
RTVSPost2010PropOp29
 70
     1
102
RTVSPost2010Prop30
280
     1
102
RTVSPost2010PropOp30
 70
     1
102
RTVSPost2010Prop31
280
     0
102
RTVSPost2010PropOp31
 70
     1
102
RTVSPost2010Prop32
280
     0
102
RTVSPost2010PropOp32
 70
     1
102
RTVSPost2010Prop33
280
     0
102
RTVSPost2010PropOp33
 70
     1
102
RTVSPost2010Prop34
280
     0
102
RTVSPost2010PropOp34
 70
     1
102
RTVSPost2010Prop35
280
     0
102
RTVSPost2010PropOp35
 70
     1
102
RTVSPost2010Prop36
280
     0
102
RTVSPost2010PropOp36
 70
     1
102
RTVSPost2010Prop37
 90
       50
102
RTVSPost2010PropOp37
 70
     1
102
RTVSPost2010Prop38
140
0.0
102
RTVSPost2010PropOp38
 70
     1
102
RTVSPost2010Prop39
140
1.0
102
RTVSPost2010PropOp39
 70
     1
102
RTVSPost2010Prop40
 90
        0
102
RTVSPost2010PropOp40
 70
     1
102
RTVSPost2010Prop41ColorIndex
 90
       18
102
RTVSPost2010Prop41ColorRGB
 90
        0
102
RTVSPost2010PropOp41
 70
     1
102
RTVSPost2010Prop42
 90
       50
102
RTVSPost2010PropOp42
 70
     1
102
RTVSPost2010Prop43
 90
        3
102
RTVSPost2010PropOp43
 70
     1
102
RTVSPost2010Prop44ColorIndex
 90
        5
102
RTVSPost2010Prop44ColorRGB
 90
      255
102
RTVSPost2010PropOp44
 70
     1
102
RTVSPost2010Prop45
280
     0
102
RTVSPost2010PropOp45
 70
     1
102
RTVSPost2010Prop46
 90
       50
102
RTVSPost2010PropOp46
 70
     1
102
RTVSPost2010Prop47
 90
       50
102
RTVSPost2010PropOp47
 70
     1
102
RTVSPost2010Prop48
 90
       50
102
RTVSPost2010PropOp48
 70
     1
102
RTVSPost2010Prop49
280
     0
102
RTVSPost2010PropOp49
 70
     1
102
RTVSPost2010Prop50
 90
       50
102
RTVSPost2010PropOp50
 70
     1
102
RTVSPost2010Prop51ColorIndex
 90
      256
102
RTVSPost2010Prop51ColorRGB
 90
-16777216
102
RTVSPost2010PropOp51
 70
     0
102
RTVSPost2010Prop52
140
1.0
102
RTVSPost2010PropOp52
 70
     0
102
RTVSPost2010Prop53
 90
        2
102
RTVSPost2010PropOp53
 70
     1
102
RTVSPost2010Prop54
  1
strokes_ogs.tif
102
RTVSPost2010PropOp54
 70
     1
102
RTVSPost2010Prop55
280
     0
102
RTVSPost2010PropOp55
 70
     1
102
RTVSPost2010Prop56
140
1.0
102
RTVSPost2010PropOp56
 70
     1
102
RTVSPost2010Prop57
140
1.0
102
RTVSPost2010PropOp57
 70
     1
102
RTVSPropertyOp0
 70
     1
102
RTVSPropertyOp1
 70
     1
102
RTVSPropertyOp2
 70
     1
102
RTVSPropertyOp3
 70
     1
102
RTVSPropertyOp4
 70
     1
102
RTVSPropertyOp5
 70
     1
102
RTVSPropertyOp6
 70
     1
102
RTVSPropertyOp7
 70
     1
102
RTVSPropertyOp8
 70
     1
102
RTVSPropertyOp9
 70
     1
102
RTVSPropertyOp10
 70
     1
102
RTVSPropertyOp11
 70
     1
102
RTVSPropertyOp12
 70
     1
102
RTVSPropertyOp13
 70
     1
102
RTVSPropertyOp14
 70
     1
102
RTVSPropertyOp15
 70
     1
102
RTVSPropertyOp16
 70
     1
102
RTVSPropertyOp17
 70
     1
102
RTVSPropertyOp18
 70
     1
102
RTVSPropertyOp19
 70
     1
102
RTVSPropertyOp20
 70
     1
102
RTVSPropertyOp21
 70
     1
102
RTVSPropertyOp22
 70
     1
102
RTVSPropertyOp23
 70
     1
102
RTVSPropertyOp24
 70
     1
102
RTVSPropertyOp25
 70
     1
102
RTVSPropertyOp26
 70
     1
102
RTVSPropertyOp27
 70
     1
102
RTVSPropertyOp28
 70
     1
102
RTVSPropertyOp29
 70
     1
102
RTVSPropertyOp30
 70
     1
102
RTVSPropertyOp31
 70
     1
102
RTVSPropertyOp32
 70
     1
102
RTVSPropertyOp33
 70
     1
102
RTVSPropertyOp34
 70
     1
102
RTVSPropertyOp35
 70
     1
102
RTVSPropertyOp36
 70
     1
102
RTVSPropertyOp37
 70
     1
102
RTVSPropertyOp38
 70
     1
102
RTVSPropertyOp39
 70
     1
102
RTVSPropertyOp40
 70
     1
102
RTVSPropertyOp41
 70
     1
102
RTVSPropertyOp42
 70
     1
102
RTVSPropertyOp43
 70
     1
102
RTVSPropertyOp44
 70
     1
102
RTVSPropertyOp45
 70
     1
102
RTVSPropertyOp46
 70
     1
102
RTVSPropertyOp47
 70
     1
102
RTVSPropertyOp48
 70
     1
102
RTVSPropertyOp49
 70
     1
102
RTVSPropertyOp50
 70
     1
102
RTVSPropertyOp51
 70
     0
102
RTVSPropertyOp52
 70
     0
102
RTVSPropertyOp53
 70
     1
102
RTVSPropertyOp54
 70
     1
102
RTVSPropertyOp55
 70
     1
102
RTVSPropertyOp56
 70
     1
102
RTVSPropertyOp57
 70
     1
102
RTVSPropertyOp58
 70
     1
102
RTVSPropertyOp59
 70
     1
102
RTVSPropertyOp60
 70
     1
102
RTVSPropertyOp61
 70
     1
102
RTVSPropertyOp62
 70
     1
  0
XRECORD
  5
734
102
{ACAD_REACTORS
330
733
102
}
330
733
100
AcDbXrecord
280
     1
102
RTVSPost2010Prop28
280
     0
102
RTVSPost2010PropOp28
 70
     1
102
RTVSPost2010Prop29
280
     1
102
RTVSPost2010PropOp29
 70
     1
102
RTVSPost2010Prop30
280
     1
102
RTVSPost2010PropOp30
 70
     1
102
RTVSPost2010Prop31
280
     0
102
RTVSPost2010PropOp31
 70
     1
102
RTVSPost2010Prop32
280
     0
102
RTVSPost2010PropOp32
 70
     1
102
RTVSPost2010Prop33
280
     0
102
RTVSPost2010PropOp33
 70
     1
102
RTVSPost2010Prop34
280
     0
102
RTVSPost2010PropOp34
 70
     1
102
RTVSPost2010Prop35
280
     0
102
RTVSPost2010PropOp35
 70
     1
102
RTVSPost2010Prop36
280
     0
102
RTVSPost2010PropOp36
 70
     1
102
RTVSPost2010Prop37
 90
       50
102
RTVSPost2010PropOp37
 70
     1
102
RTVSPost2010Prop38
140
0.0
102
RTVSPost2010PropOp38
 70
     1
102
RTVSPost2010Prop39
140
1.0
102
RTVSPost2010PropOp39
 70
     1
102
RTVSPost2010Prop40
 90
        0
102
RTVSPost2010PropOp40
 70
     1
102
RTVSPost2010Prop41ColorIndex
 90
       18
102
RTVSPost2010Prop41ColorRGB
 90
        0
102
RTVSPost2010PropOp41
 70
     1
102
RTVSPost2010Prop42
 90
       50
102
RTVSPost2010PropOp42
 70
     1
102
RTVSPost2010Prop43
 90
        3
102
RTVSPost2010PropOp43
 70
     1
102
RTVSPost2010Prop44ColorIndex
 90
        5
102
RTVSPost2010Prop44ColorRGB
 90
      255
102
RTVSPost2010PropOp44
 70
     1
102
RTVSPost2010Prop45
280
     0
102
RTVSPost2010PropOp45
 70
     1
102
RTVSPost2010Prop46
 90
       50
102
RTVSPost2010PropOp46
 70
     1
102
RTVSPost2010Prop47
 90
       50
102
RTVSPost2010PropOp47
 70
     1
102
RTVSPost2010Prop48
 90
       50
102
RTVSPost2010PropOp48
 70
     1
102
RTVSPost2010Prop49
280
     0
102
RTVSPost2010PropOp49
 70
     1
102
RTVSPost2010Prop50
 90
       50
102
RTVSPost2010PropOp50
 70
     1
102
RTVSPost2010Prop51ColorIndex
 90
      256
102
RTVSPost2010Prop51ColorRGB
 90
-16777216
102
RTVSPost2010PropOp51
 70
     0
102
RTVSPost2010Prop52
140
1.0
102
RTVSPost2010PropOp52
 70
     0
102
RTVSPost2010Prop53
 90
        2
102
RTVSPost2010PropOp53
 70
     1
102
RTVSPost2010Prop54
  1
strokes_ogs.tif
102
RTVSPost2010PropOp54
 70
     1
102
RTVSPost2010Prop55
280
     0
102
RTVSPost2010PropOp55
 70
     1
102
RTVSPost2010Prop56
140
1.0
102
RTVSPost2010PropOp56
 70
     1
102
RTVSPost2010Prop57
140
1.0
102
RTVSPost2010PropOp57
 70
     1
102
RTVSPropertyOp0
 70
     0
102
RTVSPropertyOp1
 70
     0
102
RTVSPropertyOp2
 70
     0
102
RTVSPropertyOp3
 70
     0
102
RTVSPropertyOp4
 70
     0
102
RTVSPropertyOp5
 70
     0
102
RTVSPropertyOp6
 70
     0
102
RTVSPropertyOp7
 70
     0
102
RTVSPropertyOp8
 70
     0
102
RTVSPropertyOp9
 70
     0
102
RTVSPropertyOp10
 70
     0
102
RTVSPropertyOp11
 70
     0
102
RTVSPropertyOp12
 70
     0
102
RTVSPropertyOp13
 70
     0
102
RTVSPropertyOp14
 70
     2
102
RTVSPropertyOp15
 70
     0
102
RTVSPropertyOp16
 70
     0
102
RTVSPropertyOp17
 70
     0
102
RTVSPropertyOp18
 70
     0
102
RTVSPropertyOp19
 70
     0
102
RTVSPropertyOp20
 70
     0
102
RTVSPropertyOp21
 70
     0
102
RTVSPropertyOp22
 70
     0
102
RTVSPropertyOp23
 70
     0
102
RTVSPropertyOp24
 70
     0
102
RTVSPropertyOp25
 70
     0
102
RTVSPropertyOp26
 70
     0
102
RTVSPropertyOp27
 70
     0
102
RTVSPropertyOp28
 70
     1
102
RTVSPropertyOp29
 70
     1
102
RTVSPropertyOp30
 70
     1
102
RTVSPropertyOp31
 70
     1
102
RTVSPropertyOp32
 70
     1
102
RTVSPropertyOp33
 70
     1
102
RTVSPropertyOp34
 70
     1
102
RTVSPropertyOp35
 70
     1
102
RTVSPropertyOp36
 70
     1
102
RTVSPropertyOp37
 70
     1
102
RTVSPropertyOp38
 70
     1
102
RTVSPropertyOp39
 70
     1
102
RTVSPropertyOp40
 70
     1
102
RTVSPropertyOp41
 70
     1
102
RTVSPropertyOp42
 70
     1
102
RTVSPropertyOp43
 70
     1
102
RTVSPropertyOp44
 70
     1
102
RTVSPropertyOp45
 70
     1
102
RTVSPropertyOp46
 70
     1
102
RTVSPropertyOp47
 70
     1
102
RTVSPropertyOp48
 70
     1
102
RTVSPropertyOp49
 70
     1
102
RTVSPropertyOp50
 70
     1
102
RTVSPropertyOp51
 70
     0
102
RTVSPropertyOp52
 70
     0
102
RTVSPropertyOp53
 70
     1
102
RTVSPropertyOp54
 70
     1
102
RTVSPropertyOp55
 70
     1
102
RTVSPropertyOp56
 70
     1
102
RTVSPropertyOp57
 70
     1
102
RTVSPropertyOp58
 70
     1
102
RTVSPropertyOp59
 70
     1
102
RTVSPropertyOp60
 70
     1
102
RTVSPropertyOp61
 70
     1
102
RTVSPropertyOp62
 70
     1
  0
XRECORD
  5
72C
102
{ACAD_REACTORS
330
72B
102
}
330
72B
100
AcDbXrecord
280
     1
102
RTVSPost2010Prop28
280
     0
102
RTVSPost2010PropOp28
 70
     1
102
RTVSPost2010Prop29
280
     1
102
RTVSPost2010PropOp29
 70
     1
102
RTVSPost2010Prop30
280
     1
102
RTVSPost2010PropOp30
 70
     1
102
RTVSPost2010Prop31
280
     0
102
RTVSPost2010PropOp31
 70
     1
102
RTVSPost2010Prop32
280
     0
102
RTVSPost2010PropOp32
 70
     1
102
RTVSPost2010Prop33
280
     0
102
RTVSPost2010PropOp33
 70
     1
102
RTVSPost2010Prop34
280
     0
102
RTVSPost2010PropOp34
 70
     1
102
RTVSPost2010Prop35
280
     0
102
RTVSPost2010PropOp35
 70
     1
102
RTVSPost2010Prop36
280
     0
102
RTVSPost2010PropOp36
 70
     1
102
RTVSPost2010Prop37
 90
       50
102
RTVSPost2010PropOp37
 70
     1
102
RTVSPost2010Prop38
140
0.0
102
RTVSPost2010PropOp38
 70
     1
102
RTVSPost2010Prop39
140
1.0
102
RTVSPost2010PropOp39
 70
     1
102
RTVSPost2010Prop40
 90
        0
102
RTVSPost2010PropOp40
 70
     1
102
RTVSPost2010Prop41ColorIndex
 90
       18
102
RTVSPost2010Prop41ColorRGB
 90
        0
102
RTVSPost2010PropOp41
 70
     1
102
RTVSPost2010Prop42
 90
       50
102
RTVSPost2010PropOp42
 70
     1
102
RTVSPost2010Prop43
 90
        3
102
RTVSPost2010PropOp43
 70
     1
102
RTVSPost2010Prop44ColorIndex
 90
        5
102
RTVSPost2010Prop44ColorRGB
 90
      255
102
RTVSPost2010PropOp44
 70
     1
102
RTVSPost2010Prop45
280
     0
102
RTVSPost2010PropOp45
 70
     1
102
RTVSPost2010Prop46
 90
       50
102
RTVSPost2010PropOp46
 70
     1
102
RTVSPost2010Prop47
 90
       50
102
RTVSPost2010PropOp47
 70
     1
102
RTVSPost2010Prop48
 90
       50
102
RTVSPost2010PropOp48
 70
     1
102
RTVSPost2010Prop49
280
     0
102
RTVSPost2010PropOp49
 70
     1
102
RTVSPost2010Prop50
 90
       50
102
RTVSPost2010PropOp50
 70
     1
102
RTVSPost2010Prop51ColorIndex
 90
      256
102
RTVSPost2010Prop51ColorRGB
 90
-16777216
102
RTVSPost2010PropOp51
 70
     0
102
RTVSPost2010Prop52
140
1.0
102
RTVSPost2010PropOp52
 70
     0
102
RTVSPost2010Prop53
 90
        2
102
RTVSPost2010PropOp53
 70
     1
102
RTVSPost2010Prop54
  1
strokes_ogs.tif
102
RTVSPost2010PropOp54
 70
     1
102
RTVSPost2010Prop55
280
     0
102
RTVSPost2010PropOp55
 70
     1
102
RTVSPost2010Prop56
140
1.0
102
RTVSPost2010PropOp56
 70
     1
102
RTVSPost2010Prop57
140
1.0
102
RTVSPost2010PropOp57
 70
     1
102
RTVSPropertyOp0
 70
     1
102
RTVSPropertyOp1
 70
     1
102
RTVSPropertyOp2
 70
     1
102
RTVSPropertyOp3
 70
     1
102
RTVSPropertyOp4
 70
     1
102
RTVSPropertyOp5
 70
     1
102
RTVSPropertyOp6
 70
     1
102
RTVSPropertyOp7
 70
     1
102
RTVSPropertyOp8
 70
     1
102
RTVSPropertyOp9
 70
     1
102
RTVSPropertyOp10
 70
     1
102
RTVSPropertyOp11
 70
     1
102
RTVSPropertyOp12
 70
     1
102
RTVSPropertyOp13
 70
     1
102
RTVSPropertyOp14
 70
     1
102
RTVSPropertyOp15
 70
     1
102
RTVSPropertyOp16
 70
     1
102
RTVSPropertyOp17
 70
     1
102
RTVSPropertyOp18
 70
     1
102
RTVSPropertyOp19
 70
     1
102
RTVSPropertyOp20
 70
     1
102
RTVSPropertyOp21
 70
     1
102
RTVSPropertyOp22
 70
     1
102
RTVSPropertyOp23
 70
     1
102
RTVSPropertyOp24
 70
     1
102
RTVSPropertyOp25
 70
     1
102
RTVSPropertyOp26
 70
     1
102
RTVSPropertyOp27
 70
     1
102
RTVSPropertyOp28
 70
     1
102
RTVSPropertyOp29
 70
     1
102
RTVSPropertyOp30
 70
     1
102
RTVSPropertyOp31
 70
     1
102
RTVSPropertyOp32
 70
     1
102
RTVSPropertyOp33
 70
     1
102
RTVSPropertyOp34
 70
     1
102
RTVSPropertyOp35
 70
     1
102
RTVSPropertyOp36
 70
     1
102
RTVSPropertyOp37
 70
     1
102
RTVSPropertyOp38
 70
     1
102
RTVSPropertyOp39
 70
     1
102
RTVSPropertyOp40
 70
     1
102
RTVSPropertyOp41
 70
     1
102
RTVSPropertyOp42
 70
     1
102
RTVSPropertyOp43
 70
     1
102
RTVSPropertyOp44
 70
     1
102
RTVSPropertyOp45
 70
     1
102
RTVSPropertyOp46
 70
     1
102
RTVSPropertyOp47
 70
     1
102
RTVSPropertyOp48
 70
     1
102
RTVSPropertyOp49
 70
     1
102
RTVSPropertyOp50
 70
     1
102
RTVSPropertyOp51
 70
     0
102
RTVSPropertyOp52
 70
     0
102
RTVSPropertyOp53
 70
     1
102
RTVSPropertyOp54
 70
     1
102
RTVSPropertyOp55
 70
     1
102
RTVSPropertyOp56
 70
     1
102
RTVSPropertyOp57
 70
     1
102
RTVSPropertyOp58
 70
     1
102
RTVSPropertyOp59
 70
     1
102
RTVSPropertyOp60
 70
     1
102
RTVSPropertyOp61
 70
     1
102
RTVSPropertyOp62
 70
     1
  0
XRECORD
  5
710
102
{ACAD_REACTORS
330
70F
102
}
330
70F
100
AcDbXrecord
280
     1
102
RTVSPost2010Prop28
280
     0
102
RTVSPost2010PropOp28
 70
     1
102
RTVSPost2010Prop29
280
     1
102
RTVSPost2010PropOp29
 70
     1
102
RTVSPost2010Prop30
280
     1
102
RTVSPost2010PropOp30
 70
     1
102
RTVSPost2010Prop31
280
     0
102
RTVSPost2010PropOp31
 70
     1
102
RTVSPost2010Prop32
280
     0
102
RTVSPost2010PropOp32
 70
     1
102
RTVSPost2010Prop33
280
     0
102
RTVSPost2010PropOp33
 70
     1
102
RTVSPost2010Prop34
280
     0
102
RTVSPost2010PropOp34
 70
     1
102
RTVSPost2010Prop35
280
     0
102
RTVSPost2010PropOp35
 70
     1
102
RTVSPost2010Prop36
280
     0
102
RTVSPost2010PropOp36
 70
     1
102
RTVSPost2010Prop37
 90
       50
102
RTVSPost2010PropOp37
 70
     1
102
RTVSPost2010Prop38
140
0.0
102
RTVSPost2010PropOp38
 70
     1
102
RTVSPost2010Prop39
140
1.0
102
RTVSPost2010PropOp39
 70
     1
102
RTVSPost2010Prop40
 90
        0
102
RTVSPost2010PropOp40
 70
     1
102
RTVSPost2010Prop41ColorIndex
 90
       18
102
RTVSPost2010Prop41ColorRGB
 90
        0
102
RTVSPost2010PropOp41
 70
     1
102
RTVSPost2010Prop42
 90
       50
102
RTVSPost2010PropOp42
 70
     1
102
RTVSPost2010Prop43
 90
        3
102
RTVSPost2010PropOp43
 70
     1
102
RTVSPost2010Prop44ColorIndex
 90
        5
102
RTVSPost2010Prop44ColorRGB
 90
      255
102
RTVSPost2010PropOp44
 70
     1
102
RTVSPost2010Prop45
280
     0
102
RTVSPost2010PropOp45
 70
     1
102
RTVSPost2010Prop46
 90
       50
102
RTVSPost2010PropOp46
 70
     1
102
RTVSPost2010Prop47
 90
       50
102
RTVSPost2010PropOp47
 70
     1
102
RTVSPost2010Prop48
 90
       50
102
RTVSPost2010PropOp48
 70
     1
102
RTVSPost2010Prop49
280
     0
102
RTVSPost2010PropOp49
 70
     1
102
RTVSPost2010Prop50
 90
       50
102
RTVSPost2010PropOp50
 70
     1
102
RTVSPost2010Prop51ColorIndex
 90
      256
102
RTVSPost2010Prop51ColorRGB
 90
-16777216
102
RTVSPost2010PropOp51
 70
     0
102
RTVSPost2010Prop52
140
1.0
102
RTVSPost2010PropOp52
 70
     0
102
RTVSPost2010Prop53
 90
        2
102
RTVSPost2010PropOp53
 70
     1
102
RTVSPost2010Prop54
  1
strokes_ogs.tif
102
RTVSPost2010PropOp54
 70
     1
102
RTVSPost2010Prop55
280
     0
102
RTVSPost2010PropOp55
 70
     1
102
RTVSPost2010Prop56
140
1.0
102
RTVSPost2010PropOp56
 70
     1
102
RTVSPost2010Prop57
140
1.0
102
RTVSPost2010PropOp57
 70
     1
102
RTVSPropertyOp0
 70
     1
102
RTVSPropertyOp1
 70
     1
102
RTVSPropertyOp2
 70
     1
102
RTVSPropertyOp3
 70
     1
102
RTVSPropertyOp4
 70
     1
102
RTVSPropertyOp5
 70
     1
102
RTVSPropertyOp6
 70
     1
102
RTVSPropertyOp7
 70
     1
102
RTVSPropertyOp8
 70
     1
102
RTVSPropertyOp9
 70
     1
102
RTVSPropertyOp10
 70
     1
102
RTVSPropertyOp11
 70
     1
102
RTVSPropertyOp12
 70
     1
102
RTVSPropertyOp13
 70
     1
102
RTVSPropertyOp14
 70
     1
102
RTVSPropertyOp15
 70
     1
102
RTVSPropertyOp16
 70
     1
102
RTVSPropertyOp17
 70
     1
102
RTVSPropertyOp18
 70
     1
102
RTVSPropertyOp19
 70
     1
102
RTVSPropertyOp20
 70
     1
102
RTVSPropertyOp21
 70
     1
102
RTVSPropertyOp22
 70
     1
102
RTVSPropertyOp23
 70
     1
102
RTVSPropertyOp24
 70
     1
102
RTVSPropertyOp25
 70
     1
102
RTVSPropertyOp26
 70
     1
102
RTVSPropertyOp27
 70
     1
102
RTVSPropertyOp28
 70
     1
102
RTVSPropertyOp29
 70
     1
102
RTVSPropertyOp30
 70
     1
102
RTVSPropertyOp31
 70
     1
102
RTVSPropertyOp32
 70
     1
102
RTVSPropertyOp33
 70
     1
102
RTVSPropertyOp34
 70
     1
102
RTVSPropertyOp35
 70
     1
102
RTVSPropertyOp36
 70
     1
102
RTVSPropertyOp37
 70
     1
102
RTVSPropertyOp38
 70
     1
102
RTVSPropertyOp39
 70
     1
102
RTVSPropertyOp40
 70
     1
102
RTVSPropertyOp41
 70
     1
102
RTVSPropertyOp42
 70
     1
102
RTVSPropertyOp43
 70
     1
102
RTVSPropertyOp44
 70
     1
102
RTVSPropertyOp45
 70
     1
102
RTVSPropertyOp46
 70
     1
102
RTVSPropertyOp47
 70
     1
102
RTVSPropertyOp48
 70
     1
102
RTVSPropertyOp49
 70
     1
102
RTVSPropertyOp50
 70
     1
102
RTVSPropertyOp51
 70
     0
102
RTVSPropertyOp52
 70
     0
102
RTVSPropertyOp53
 70
     1
102
RTVSPropertyOp54
 70
     1
102
RTVSPropertyOp55
 70
     1
102
RTVSPropertyOp56
 70
     1
102
RTVSPropertyOp57
 70
     1
102
RTVSPropertyOp58
 70
     1
102
RTVSPropertyOp59
 70
     1
102
RTVSPropertyOp60
 70
     1
102
RTVSPropertyOp61
 70
     1
102
RTVSPropertyOp62
 70
     1
  0
XRECORD
  5
712
102
{ACAD_REACTORS
330
711
102
}
330
711
100
AcDbXrecord
280
     1
102
RTVSPost2010Prop28
280
     0
102
RTVSPost2010PropOp28
 70
     1
102
RTVSPost2010Prop29
280
     1
102
RTVSPost2010PropOp29
 70
     1
102
RTVSPost2010Prop30
280
     1
102
RTVSPost2010PropOp30
 70
     1
102
RTVSPost2010Prop31
280
     0
102
RTVSPost2010PropOp31
 70
     1
102
RTVSPost2010Prop32
280
     0
102
RTVSPost2010PropOp32
 70
     1
102
RTVSPost2010Prop33
280
     0
102
RTVSPost2010PropOp33
 70
     1
102
RTVSPost2010Prop34
280
     0
102
RTVSPost2010PropOp34
 70
     1
102
RTVSPost2010Prop35
280
     0
102
RTVSPost2010PropOp35
 70
     1
102
RTVSPost2010Prop36
280
     0
102
RTVSPost2010PropOp36
 70
     1
102
RTVSPost2010Prop37
 90
       50
102
RTVSPost2010PropOp37
 70
     1
102
RTVSPost2010Prop38
140
0.0
102
RTVSPost2010PropOp38
 70
     1
102
RTVSPost2010Prop39
140
1.0
102
RTVSPost2010PropOp39
 70
     1
102
RTVSPost2010Prop40
 90
        0
102
RTVSPost2010PropOp40
 70
     1
102
RTVSPost2010Prop41ColorIndex
 90
       18
102
RTVSPost2010Prop41ColorRGB
 90
        0
102
RTVSPost2010PropOp41
 70
     1
102
RTVSPost2010Prop42
 90
       50
102
RTVSPost2010PropOp42
 70
     1
102
RTVSPost2010Prop43
 90
        3
102
RTVSPost2010PropOp43
 70
     1
102
RTVSPost2010Prop44ColorIndex
 90
        5
102
RTVSPost2010Prop44ColorRGB
 90
      255
102
RTVSPost2010PropOp44
 70
     1
102
RTVSPost2010Prop45
280
     0
102
RTVSPost2010PropOp45
 70
     1
102
RTVSPost2010Prop46
 90
       50
102
RTVSPost2010PropOp46
 70
     1
102
RTVSPost2010Prop47
 90
       50
102
RTVSPost2010PropOp47
 70
     1
102
RTVSPost2010Prop48
 90
       50
102
RTVSPost2010PropOp48
 70
     1
102
RTVSPost2010Prop49
280
     0
102
RTVSPost2010PropOp49
 70
     1
102
RTVSPost2010Prop50
 90
       50
102
RTVSPost2010PropOp50
 70
     1
102
RTVSPost2010Prop51ColorIndex
 90
      256
102
RTVSPost2010Prop51ColorRGB
 90
-16777216
102
RTVSPost2010PropOp51
 70
     0
102
RTVSPost2010Prop52
140
1.0
102
RTVSPost2010PropOp52
 70
     0
102
RTVSPost2010Prop53
 90
        2
102
RTVSPost2010PropOp53
 70
     1
102
RTVSPost2010Prop54
  1
strokes_ogs.tif
102
RTVSPost2010PropOp54
 70
     1
102
RTVSPost2010Prop55
280
     0
102
RTVSPost2010PropOp55
 70
     1
102
RTVSPost2010Prop56
140
1.0
102
RTVSPost2010PropOp56
 70
     1
102
RTVSPost2010Prop57
140
1.0
102
RTVSPost2010PropOp57
 70
     1
102
RTVSPropertyOp0
 70
     1
102
RTVSPropertyOp1
 70
     1
102
RTVSPropertyOp2
 70
     1
102
RTVSPropertyOp3
 70
     1
102
RTVSPropertyOp4
 70
     1
102
RTVSPropertyOp5
 70
     1
102
RTVSPropertyOp6
 70
     1
102
RTVSPropertyOp7
 70
     1
102
RTVSPropertyOp8
 70
     1
102
RTVSPropertyOp9
 70
     1
102
RTVSPropertyOp10
 70
     1
102
RTVSPropertyOp11
 70
     1
102
RTVSPropertyOp12
 70
     1
102
RTVSPropertyOp13
 70
     1
102
RTVSPropertyOp14
 70
     1
102
RTVSPropertyOp15
 70
     1
102
RTVSPropertyOp16
 70
     1
102
RTVSPropertyOp17
 70
     1
102
RTVSPropertyOp18
 70
     1
102
RTVSPropertyOp19
 70
     1
102
RTVSPropertyOp20
 70
     1
102
RTVSPropertyOp21
 70
     1
102
RTVSPropertyOp22
 70
     1
102
RTVSPropertyOp23
 70
     1
102
RTVSPropertyOp24
 70
     1
102
RTVSPropertyOp25
 70
     1
102
RTVSPropertyOp26
 70
     1
102
RTVSPropertyOp27
 70
     1
102
RTVSPropertyOp28
 70
     1
102
RTVSPropertyOp29
 70
     1
102
RTVSPropertyOp30
 70
     1
102
RTVSPropertyOp31
 70
     1
102
RTVSPropertyOp32
 70
     1
102
RTVSPropertyOp33
 70
     1
102
RTVSPropertyOp34
 70
     1
102
RTVSPropertyOp35
 70
     1
102
RTVSPropertyOp36
 70
     1
102
RTVSPropertyOp37
 70
     1
102
RTVSPropertyOp38
 70
     1
102
RTVSPropertyOp39
 70
     1
102
RTVSPropertyOp40
 70
     1
102
RTVSPropertyOp41
 70
     1
102
RTVSPropertyOp42
 70
     1
102
RTVSPropertyOp43
 70
     1
102
RTVSPropertyOp44
 70
     1
102
RTVSPropertyOp45
 70
     1
102
RTVSPropertyOp46
 70
     1
102
RTVSPropertyOp47
 70
     1
102
RTVSPropertyOp48
 70
     1
102
RTVSPropertyOp49
 70
     1
102
RTVSPropertyOp50
 70
     1
102
RTVSPropertyOp51
 70
     0
102
RTVSPropertyOp52
 70
     0
102
RTVSPropertyOp53
 70
     1
102
RTVSPropertyOp54
 70
     1
102
RTVSPropertyOp55
 70
     1
102
RTVSPropertyOp56
 70
     1
102
RTVSPropertyOp57
 70
     1
102
RTVSPropertyOp58
 70
     1
102
RTVSPropertyOp59
 70
     1
102
RTVSPropertyOp60
 70
     1
102
RTVSPropertyOp61
 70
     1
102
RTVSPropertyOp62
 70
     1
  0
XRECORD
  5
714
102
{ACAD_REACTORS
330
713
102
}
330
713
100
AcDbXrecord
280
     1
102
RTVSPost2010Prop28
280
     0
102
RTVSPost2010PropOp28
 70
     1
102
RTVSPost2010Prop29
280
     1
102
RTVSPost2010PropOp29
 70
     1
102
RTVSPost2010Prop30
280
     1
102
RTVSPost2010PropOp30
 70
     1
102
RTVSPost2010Prop31
280
     0
102
RTVSPost2010PropOp31
 70
     1
102
RTVSPost2010Prop32
280
     0
102
RTVSPost2010PropOp32
 70
     1
102
RTVSPost2010Prop33
280
     0
102
RTVSPost2010PropOp33
 70
     1
102
RTVSPost2010Prop34
280
     0
102
RTVSPost2010PropOp34
 70
     1
102
RTVSPost2010Prop35
280
     0
102
RTVSPost2010PropOp35
 70
     1
102
RTVSPost2010Prop36
280
     0
102
RTVSPost2010PropOp36
 70
     1
102
RTVSPost2010Prop37
 90
       50
102
RTVSPost2010PropOp37
 70
     1
102
RTVSPost2010Prop38
140
0.0
102
RTVSPost2010PropOp38
 70
     1
102
RTVSPost2010Prop39
140
1.0
102
RTVSPost2010PropOp39
 70
     1
102
RTVSPost2010Prop40
 90
        0
102
RTVSPost2010PropOp40
 70
     1
102
RTVSPost2010Prop41ColorIndex
 90
       18
102
RTVSPost2010Prop41ColorRGB
 90
        0
102
RTVSPost2010PropOp41
 70
     1
102
RTVSPost2010Prop42
 90
       50
102
RTVSPost2010PropOp42
 70
     1
102
RTVSPost2010Prop43
 90
        3
102
RTVSPost2010PropOp43
 70
     1
102
RTVSPost2010Prop44ColorIndex
 90
        5
102
RTVSPost2010Prop44ColorRGB
 90
      255
102
RTVSPost2010PropOp44
 70
     1
102
RTVSPost2010Prop45
280
     0
102
RTVSPost2010PropOp45
 70
     1
102
RTVSPost2010Prop46
 90
       50
102
RTVSPost2010PropOp46
 70
     1
102
RTVSPost2010Prop47
 90
       50
102
RTVSPost2010PropOp47
 70
     1
102
RTVSPost2010Prop48
 90
       50
102
RTVSPost2010PropOp48
 70
     1
102
RTVSPost2010Prop49
280
     0
102
RTVSPost2010PropOp49
 70
     1
102
RTVSPost2010Prop50
 90
       50
102
RTVSPost2010PropOp50
 70
     1
102
RTVSPost2010Prop51ColorIndex
 90
      256
102
RTVSPost2010Prop51ColorRGB
 90
-16777216
102
RTVSPost2010PropOp51
 70
     0
102
RTVSPost2010Prop52
140
1.0
102
RTVSPost2010PropOp52
 70
     0
102
RTVSPost2010Prop53
 90
        2
102
RTVSPost2010PropOp53
 70
     1
102
RTVSPost2010Prop54
  1
strokes_ogs.tif
102
RTVSPost2010PropOp54
 70
     1
102
RTVSPost2010Prop55
280
     0
102
RTVSPost2010PropOp55
 70
     1
102
RTVSPost2010Prop56
140
1.0
102
RTVSPost2010PropOp56
 70
     1
102
RTVSPost2010Prop57
140
1.0
102
RTVSPost2010PropOp57
 70
     1
102
RTVSPropertyOp0
 70
     1
102
RTVSPropertyOp1
 70
     1
102
RTVSPropertyOp2
 70
     1
102
RTVSPropertyOp3
 70
     1
102
RTVSPropertyOp4
 70
     1
102
RTVSPropertyOp5
 70
     1
102
RTVSPropertyOp6
 70
     1
102
RTVSPropertyOp7
 70
     1
102
RTVSPropertyOp8
 70
     1
102
RTVSPropertyOp9
 70
     1
102
RTVSPropertyOp10
 70
     1
102
RTVSPropertyOp11
 70
     1
102
RTVSPropertyOp12
 70
     1
102
RTVSPropertyOp13
 70
     1
102
RTVSPropertyOp14
 70
     1
102
RTVSPropertyOp15
 70
     1
102
RTVSPropertyOp16
 70
     1
102
RTVSPropertyOp17
 70
     1
102
RTVSPropertyOp18
 70
     1
102
RTVSPropertyOp19
 70
     1
102
RTVSPropertyOp20
 70
     1
102
RTVSPropertyOp21
 70
     1
102
RTVSPropertyOp22
 70
     1
102
RTVSPropertyOp23
 70
     1
102
RTVSPropertyOp24
 70
     1
102
RTVSPropertyOp25
 70
     1
102
RTVSPropertyOp26
 70
     1
102
RTVSPropertyOp27
 70
     1
102
RTVSPropertyOp28
 70
     1
102
RTVSPropertyOp29
 70
     1
102
RTVSPropertyOp30
 70
     1
102
RTVSPropertyOp31
 70
     1
102
RTVSPropertyOp32
 70
     1
102
RTVSPropertyOp33
 70
     1
102
RTVSPropertyOp34
 70
     1
102
RTVSPropertyOp35
 70
     1
102
RTVSPropertyOp36
 70
     1
102
RTVSPropertyOp37
 70
     1
102
RTVSPropertyOp38
 70
     1
102
RTVSPropertyOp39
 70
     1
102
RTVSPropertyOp40
 70
     1
102
RTVSPropertyOp41
 70
     1
102
RTVSPropertyOp42
 70
     1
102
RTVSPropertyOp43
 70
     1
102
RTVSPropertyOp44
 70
     1
102
RTVSPropertyOp45
 70
     1
102
RTVSPropertyOp46
 70
     1
102
RTVSPropertyOp47
 70
     1
102
RTVSPropertyOp48
 70
     1
102
RTVSPropertyOp49
 70
     1
102
RTVSPropertyOp50
 70
     1
102
RTVSPropertyOp51
 70
     0
102
RTVSPropertyOp52
 70
     0
102
RTVSPropertyOp53
 70
     1
102
RTVSPropertyOp54
 70
     1
102
RTVSPropertyOp55
 70
     1
102
RTVSPropertyOp56
 70
     1
102
RTVSPropertyOp57
 70
     1
102
RTVSPropertyOp58
 70
     1
102
RTVSPropertyOp59
 70
     1
102
RTVSPropertyOp60
 70
     1
102
RTVSPropertyOp61
 70
     1
102
RTVSPropertyOp62
 70
     1
  0
XRECORD
  5
716
102
{ACAD_REACTORS
330
715
102
}
330
715
100
AcDbXrecord
280
     1
102
RTVSPost2010Prop28
280
     0
102
RTVSPost2010PropOp28
 70
     1
102
RTVSPost2010Prop29
280
     1
102
RTVSPost2010PropOp29
 70
     1
102
RTVSPost2010Prop30
280
     1
102
RTVSPost2010PropOp30
 70
     1
102
RTVSPost2010Prop31
280
     0
102
RTVSPost2010PropOp31
 70
     1
102
RTVSPost2010Prop32
280
     0
102
RTVSPost2010PropOp32
 70
     1
102
RTVSPost2010Prop33
280
     0
102
RTVSPost2010PropOp33
 70
     1
102
RTVSPost2010Prop34
280
     0
102
RTVSPost2010PropOp34
 70
     1
102
RTVSPost2010Prop35
280
     0
102
RTVSPost2010PropOp35
 70
     1
102
RTVSPost2010Prop36
280
     0
102
RTVSPost2010PropOp36
 70
     1
102
RTVSPost2010Prop37
 90
       50
102
RTVSPost2010PropOp37
 70
     1
102
RTVSPost2010Prop38
140
0.0
102
RTVSPost2010PropOp38
 70
     1
102
RTVSPost2010Prop39
140
1.0
102
RTVSPost2010PropOp39
 70
     1
102
RTVSPost2010Prop40
 90
        0
102
RTVSPost2010PropOp40
 70
     1
102
RTVSPost2010Prop41ColorIndex
 90
       18
102
RTVSPost2010Prop41ColorRGB
 90
        0
102
RTVSPost2010PropOp41
 70
     1
102
RTVSPost2010Prop42
 90
       50
102
RTVSPost2010PropOp42
 70
     1
102
RTVSPost2010Prop43
 90
        3
102
RTVSPost2010PropOp43
 70
     1
102
RTVSPost2010Prop44ColorIndex
 90
        5
102
RTVSPost2010Prop44ColorRGB
 90
      255
102
RTVSPost2010PropOp44
 70
     1
102
RTVSPost2010Prop45
280
     0
102
RTVSPost2010PropOp45
 70
     1
102
RTVSPost2010Prop46
 90
       50
102
RTVSPost2010PropOp46
 70
     1
102
RTVSPost2010Prop47
 90
       50
102
RTVSPost2010PropOp47
 70
     1
102
RTVSPost2010Prop48
 90
       50
102
RTVSPost2010PropOp48
 70
     1
102
RTVSPost2010Prop49
280
     0
102
RTVSPost2010PropOp49
 70
     1
102
RTVSPost2010Prop50
 90
       50
102
RTVSPost2010PropOp50
 70
     1
102
RTVSPost2010Prop51ColorIndex
 90
      256
102
RTVSPost2010Prop51ColorRGB
 90
-16777216
102
RTVSPost2010PropOp51
 70
     0
102
RTVSPost2010Prop52
140
1.0
102
RTVSPost2010PropOp52
 70
     0
102
RTVSPost2010Prop53
 90
        2
102
RTVSPost2010PropOp53
 70
     1
102
RTVSPost2010Prop54
  1
strokes_ogs.tif
102
RTVSPost2010PropOp54
 70
     1
102
RTVSPost2010Prop55
280
     0
102
RTVSPost2010PropOp55
 70
     1
102
RTVSPost2010Prop56
140
1.0
102
RTVSPost2010PropOp56
 70
     1
102
RTVSPost2010Prop57
140
1.0
102
RTVSPost2010PropOp57
 70
     1
102
RTVSPropertyOp0
 70
     1
102
RTVSPropertyOp1
 70
     1
102
RTVSPropertyOp2
 70
     1
102
RTVSPropertyOp3
 70
     1
102
RTVSPropertyOp4
 70
     1
102
RTVSPropertyOp5
 70
     1
102
RTVSPropertyOp6
 70
     1
102
RTVSPropertyOp7
 70
     1
102
RTVSPropertyOp8
 70
     1
102
RTVSPropertyOp9
 70
     1
102
RTVSPropertyOp10
 70
     1
102
RTVSPropertyOp11
 70
     1
102
RTVSPropertyOp12
 70
     1
102
RTVSPropertyOp13
 70
     1
102
RTVSPropertyOp14
 70
     1
102
RTVSPropertyOp15
 70
     1
102
RTVSPropertyOp16
 70
     1
102
RTVSPropertyOp17
 70
     1
102
RTVSPropertyOp18
 70
     1
102
RTVSPropertyOp19
 70
     1
102
RTVSPropertyOp20
 70
     1
102
RTVSPropertyOp21
 70
     1
102
RTVSPropertyOp22
 70
     1
102
RTVSPropertyOp23
 70
     1
102
RTVSPropertyOp24
 70
     1
102
RTVSPropertyOp25
 70
     1
102
RTVSPropertyOp26
 70
     1
102
RTVSPropertyOp27
 70
     1
102
RTVSPropertyOp28
 70
     1
102
RTVSPropertyOp29
 70
     1
102
RTVSPropertyOp30
 70
     1
102
RTVSPropertyOp31
 70
     1
102
RTVSPropertyOp32
 70
     1
102
RTVSPropertyOp33
 70
     1
102
RTVSPropertyOp34
 70
     1
102
RTVSPropertyOp35
 70
     1
102
RTVSPropertyOp36
 70
     1
102
RTVSPropertyOp37
 70
     1
102
RTVSPropertyOp38
 70
     1
102
RTVSPropertyOp39
 70
     1
102
RTVSPropertyOp40
 70
     1
102
RTVSPropertyOp41
 70
     1
102
RTVSPropertyOp42
 70
     1
102
RTVSPropertyOp43
 70
     1
102
RTVSPropertyOp44
 70
     1
102
RTVSPropertyOp45
 70
     1
102
RTVSPropertyOp46
 70
     1
102
RTVSPropertyOp47
 70
     1
102
RTVSPropertyOp48
 70
     1
102
RTVSPropertyOp49
 70
     1
102
RTVSPropertyOp50
 70
     1
102
RTVSPropertyOp51
 70
     0
102
RTVSPropertyOp52
 70
     0
102
RTVSPropertyOp53
 70
     1
102
RTVSPropertyOp54
 70
     1
102
RTVSPropertyOp55
 70
     1
102
RTVSPropertyOp56
 70
     1
102
RTVSPropertyOp57
 70
     1
102
RTVSPropertyOp58
 70
     1
102
RTVSPropertyOp59
 70
     1
102
RTVSPropertyOp60
 70
     1
102
RTVSPropertyOp61
 70
     1
102
RTVSPropertyOp62
 70
     1
  0
XRECORD
  5
739
102
{ACAD_REACTORS
330
738
102
}
330
738
100
AcDbXrecord
280
     1
102
RTVSPost2010Prop28
280
     0
102
RTVSPost2010PropOp28
 70
     1
102
RTVSPost2010Prop29
280
     1
102
RTVSPost2010PropOp29
 70
     1
102
RTVSPost2010Prop30
280
     1
102
RTVSPost2010PropOp30
 70
     1
102
RTVSPost2010Prop31
280
     0
102
RTVSPost2010PropOp31
 70
     1
102
RTVSPost2010Prop32
280
     0
102
RTVSPost2010PropOp32
 70
     1
102
RTVSPost2010Prop33
280
     0
102
RTVSPost2010PropOp33
 70
     1
102
RTVSPost2010Prop34
280
     0
102
RTVSPost2010PropOp34
 70
     1
102
RTVSPost2010Prop35
280
     0
102
RTVSPost2010PropOp35
 70
     1
102
RTVSPost2010Prop36
280
     0
102
RTVSPost2010PropOp36
 70
     1
102
RTVSPost2010Prop37
 90
       50
102
RTVSPost2010PropOp37
 70
     1
102
RTVSPost2010Prop38
140
0.0
102
RTVSPost2010PropOp38
 70
     1
102
RTVSPost2010Prop39
140
1.0
102
RTVSPost2010PropOp39
 70
     1
102
RTVSPost2010Prop40
 90
        0
102
RTVSPost2010PropOp40
 70
     1
102
RTVSPost2010Prop41ColorIndex
 90
       18
102
RTVSPost2010Prop41ColorRGB
 90
        0
102
RTVSPost2010PropOp41
 70
     1
102
RTVSPost2010Prop42
 90
       50
102
RTVSPost2010PropOp42
 70
     1
102
RTVSPost2010Prop43
 90
        3
102
RTVSPost2010PropOp43
 70
     1
102
RTVSPost2010Prop44ColorIndex
 90
        5
102
RTVSPost2010Prop44ColorRGB
 90
      255
102
RTVSPost2010PropOp44
 70
     1
102
RTVSPost2010Prop45
280
     0
102
RTVSPost2010PropOp45
 70
     1
102
RTVSPost2010Prop46
 90
       50
102
RTVSPost2010PropOp46
 70
     1
102
RTVSPost2010Prop47
 90
       50
102
RTVSPost2010PropOp47
 70
     1
102
RTVSPost2010Prop48
 90
       50
102
RTVSPost2010PropOp48
 70
     1
102
RTVSPost2010Prop49
280
     0
102
RTVSPost2010PropOp49
 70
     1
102
RTVSPost2010Prop50
 90
       50
102
RTVSPost2010PropOp50
 70
     1
102
RTVSPost2010Prop51ColorIndex
 90
      256
102
RTVSPost2010Prop51ColorRGB
 90
-16777216
102
RTVSPost2010PropOp51
 70
     0
102
RTVSPost2010Prop52
140
1.0
102
RTVSPost2010PropOp52
 70
     0
102
RTVSPost2010Prop53
 90
        2
102
RTVSPost2010PropOp53
 70
     1
102
RTVSPost2010Prop54
  1
strokes_ogs.tif
102
RTVSPost2010PropOp54
 70
     1
102
RTVSPost2010Prop55
280
     0
102
RTVSPost2010PropOp55
 70
     1
102
RTVSPost2010Prop56
140
1.0
102
RTVSPost2010PropOp56
 70
     1
102
RTVSPost2010Prop57
140
1.0
102
RTVSPost2010PropOp57
 70
     1
102
RTVSPropertyOp0
 70
     1
102
RTVSPropertyOp1
 70
     1
102
RTVSPropertyOp2
 70
     1
102
RTVSPropertyOp3
 70
     1
102
RTVSPropertyOp4
 70
     1
102
RTVSPropertyOp5
 70
     1
102
RTVSPropertyOp6
 70
     1
102
RTVSPropertyOp7
 70
     1
102
RTVSPropertyOp8
 70
     1
102
RTVSPropertyOp9
 70
     1
102
RTVSPropertyOp10
 70
     1
102
RTVSPropertyOp11
 70
     1
102
RTVSPropertyOp12
 70
     1
102
RTVSPropertyOp13
 70
     1
102
RTVSPropertyOp14
 70
     1
102
RTVSPropertyOp15
 70
     1
102
RTVSPropertyOp16
 70
     1
102
RTVSPropertyOp17
 70
     1
102
RTVSPropertyOp18
 70
     1
102
RTVSPropertyOp19
 70
     1
102
RTVSPropertyOp20
 70
     1
102
RTVSPropertyOp21
 70
     1
102
RTVSPropertyOp22
 70
     1
102
RTVSPropertyOp23
 70
     1
102
RTVSPropertyOp24
 70
     1
102
RTVSPropertyOp25
 70
     1
102
RTVSPropertyOp26
 70
     1
102
RTVSPropertyOp27
 70
     1
102
RTVSPropertyOp28
 70
     1
102
RTVSPropertyOp29
 70
     1
102
RTVSPropertyOp30
 70
     1
102
RTVSPropertyOp31
 70
     1
102
RTVSPropertyOp32
 70
     1
102
RTVSPropertyOp33
 70
     1
102
RTVSPropertyOp34
 70
     1
102
RTVSPropertyOp35
 70
     1
102
RTVSPropertyOp36
 70
     1
102
RTVSPropertyOp37
 70
     1
102
RTVSPropertyOp38
 70
     1
102
RTVSPropertyOp39
 70
     1
102
RTVSPropertyOp40
 70
     1
102
RTVSPropertyOp41
 70
     1
102
RTVSPropertyOp42
 70
     1
102
RTVSPropertyOp43
 70
     1
102
RTVSPropertyOp44
 70
     1
102
RTVSPropertyOp45
 70
     1
102
RTVSPropertyOp46
 70
     1
102
RTVSPropertyOp47
 70
     1
102
RTVSPropertyOp48
 70
     1
102
RTVSPropertyOp49
 70
     1
102
RTVSPropertyOp50
 70
     1
102
RTVSPropertyOp51
 70
     0
102
RTVSPropertyOp52
 70
     0
102
RTVSPropertyOp53
 70
     1
102
RTVSPropertyOp54
 70
     1
102
RTVSPropertyOp55
 70
     1
102
RTVSPropertyOp56
 70
     1
102
RTVSPropertyOp57
 70
     1
102
RTVSPropertyOp58
 70
     1
102
RTVSPropertyOp59
 70
     1
102
RTVSPropertyOp60
 70
     1
102
RTVSPropertyOp61
 70
     1
102
RTVSPropertyOp62
 70
     1
  0
XRECORD
  5
730
102
{ACAD_REACTORS
330
72F
102
}
330
72F
100
AcDbXrecord
280
     1
102
RTVSPost2010Prop28
280
     0
102
RTVSPost2010PropOp28
 70
     1
102
RTVSPost2010Prop29
280
     1
102
RTVSPost2010PropOp29
 70
     1
102
RTVSPost2010Prop30
280
     1
102
RTVSPost2010PropOp30
 70
     1
102
RTVSPost2010Prop31
280
     0
102
RTVSPost2010PropOp31
 70
     1
102
RTVSPost2010Prop32
280
     0
102
RTVSPost2010PropOp32
 70
     1
102
RTVSPost2010Prop33
280
     0
102
RTVSPost2010PropOp33
 70
     1
102
RTVSPost2010Prop34
280
     0
102
RTVSPost2010PropOp34
 70
     1
102
RTVSPost2010Prop35
280
     0
102
RTVSPost2010PropOp35
 70
     1
102
RTVSPost2010Prop36
280
     0
102
RTVSPost2010PropOp36
 70
     1
102
RTVSPost2010Prop37
 90
       50
102
RTVSPost2010PropOp37
 70
     1
102
RTVSPost2010Prop38
140
0.0
102
RTVSPost2010PropOp38
 70
     1
102
RTVSPost2010Prop39
140
1.0
102
RTVSPost2010PropOp39
 70
     1
102
RTVSPost2010Prop40
 90
        0
102
RTVSPost2010PropOp40
 70
     1
102
RTVSPost2010Prop41ColorIndex
 90
       18
102
RTVSPost2010Prop41ColorRGB
 90
        0
102
RTVSPost2010PropOp41
 70
     1
102
RTVSPost2010Prop42
 90
       50
102
RTVSPost2010PropOp42
 70
     1
102
RTVSPost2010Prop43
 90
        3
102
RTVSPost2010PropOp43
 70
     1
102
RTVSPost2010Prop44ColorIndex
 90
        5
102
RTVSPost2010Prop44ColorRGB
 90
      255
102
RTVSPost2010PropOp44
 70
     1
102
RTVSPost2010Prop45
280
     0
102
RTVSPost2010PropOp45
 70
     1
102
RTVSPost2010Prop46
 90
       50
102
RTVSPost2010PropOp46
 70
     1
102
RTVSPost2010Prop47
 90
       50
102
RTVSPost2010PropOp47
 70
     1
102
RTVSPost2010Prop48
 90
       50
102
RTVSPost2010PropOp48
 70
     1
102
RTVSPost2010Prop49
280
     0
102
RTVSPost2010PropOp49
 70
     1
102
RTVSPost2010Prop50
 90
       50
102
RTVSPost2010PropOp50
 70
     1
102
RTVSPost2010Prop51ColorIndex
 90
      256
102
RTVSPost2010Prop51ColorRGB
 90
-16777216
102
RTVSPost2010PropOp51
 70
     0
102
RTVSPost2010Prop52
140
1.0
102
RTVSPost2010PropOp52
 70
     0
102
RTVSPost2010Prop53
 90
        2
102
RTVSPost2010PropOp53
 70
     1
102
RTVSPost2010Prop54
  1
strokes_ogs.tif
102
RTVSPost2010PropOp54
 70
     1
102
RTVSPost2010Prop55
280
     0
102
RTVSPost2010PropOp55
 70
     1
102
RTVSPost2010Prop56
140
1.0
102
RTVSPost2010PropOp56
 70
     1
102
RTVSPost2010Prop57
140
1.0
102
RTVSPost2010PropOp57
 70
     1
102
RTVSPropertyOp0
 70
     0
102
RTVSPropertyOp1
 70
     0
102
RTVSPropertyOp2
 70
     0
102
RTVSPropertyOp3
 70
     0
102
RTVSPropertyOp4
 70
     0
102
RTVSPropertyOp5
 70
     0
102
RTVSPropertyOp6
 70
     0
102
RTVSPropertyOp7
 70
     0
102
RTVSPropertyOp8
 70
     0
102
RTVSPropertyOp9
 70
     0
102
RTVSPropertyOp10
 70
     0
102
RTVSPropertyOp11
 70
     0
102
RTVSPropertyOp12
 70
     0
102
RTVSPropertyOp13
 70
     0
102
RTVSPropertyOp14
 70
     2
102
RTVSPropertyOp15
 70
     0
102
RTVSPropertyOp16
 70
     0
102
RTVSPropertyOp17
 70
     0
102
RTVSPropertyOp18
 70
     0
102
RTVSPropertyOp19
 70
     0
102
RTVSPropertyOp20
 70
     0
102
RTVSPropertyOp21
 70
     0
102
RTVSPropertyOp22
 70
     0
102
RTVSPropertyOp23
 70
     0
102
RTVSPropertyOp24
 70
     0
102
RTVSPropertyOp25
 70
     0
102
RTVSPropertyOp26
 70
     0
102
RTVSPropertyOp27
 70
     0
102
RTVSPropertyOp28
 70
     1
102
RTVSPropertyOp29
 70
     1
102
RTVSPropertyOp30
 70
     1
102
RTVSPropertyOp31
 70
     1
102
RTVSPropertyOp32
 70
     1
102
RTVSPropertyOp33
 70
     1
102
RTVSPropertyOp34
 70
     1
102
RTVSPropertyOp35
 70
     1
102
RTVSPropertyOp36
 70
     1
102
RTVSPropertyOp37
 70
     1
102
RTVSPropertyOp38
 70
     1
102
RTVSPropertyOp39
 70
     1
102
RTVSPropertyOp40
 70
     1
102
RTVSPropertyOp41
 70
     1
102
RTVSPropertyOp42
 70
     1
102
RTVSPropertyOp43
 70
     1
102
RTVSPropertyOp44
 70
     1
102
RTVSPropertyOp45
 70
     1
102
RTVSPropertyOp46
 70
     1
102
RTVSPropertyOp47
 70
     1
102
RTVSPropertyOp48
 70
     1
102
RTVSPropertyOp49
 70
     1
102
RTVSPropertyOp50
 70
     1
102
RTVSPropertyOp51
 70
     0
102
RTVSPropertyOp52
 70
     0
102
RTVSPropertyOp53
 70
     1
102
RTVSPropertyOp54
 70
     1
102
RTVSPropertyOp55
 70
     1
102
RTVSPropertyOp56
 70
     1
102
RTVSPropertyOp57
 70
     1
102
RTVSPropertyOp58
 70
     1
102
RTVSPropertyOp59
 70
     1
102
RTVSPropertyOp60
 70
     1
102
RTVSPropertyOp61
 70
     1
102
RTVSPropertyOp62
 70
     1
  0
XRECORD
  5
72A
102
{ACAD_REACTORS
330
729
102
}
330
729
100
AcDbXrecord
280
     1
102
RTVSPost2010Prop28
280
     0
102
RTVSPost2010PropOp28
 70
     1
102
RTVSPost2010Prop29
280
     1
102
RTVSPost2010PropOp29
 70
     1
102
RTVSPost2010Prop30
280
     1
102
RTVSPost2010PropOp30
 70
     1
102
RTVSPost2010Prop31
280
     0
102
RTVSPost2010PropOp31
 70
     1
102
RTVSPost2010Prop32
280
     0
102
RTVSPost2010PropOp32
 70
     1
102
RTVSPost2010Prop33
280
     0
102
RTVSPost2010PropOp33
 70
     1
102
RTVSPost2010Prop34
280
     0
102
RTVSPost2010PropOp34
 70
     1
102
RTVSPost2010Prop35
280
     0
102
RTVSPost2010PropOp35
 70
     1
102
RTVSPost2010Prop36
280
     0
102
RTVSPost2010PropOp36
 70
     1
102
RTVSPost2010Prop37
 90
       50
102
RTVSPost2010PropOp37
 70
     1
102
RTVSPost2010Prop38
140
0.0
102
RTVSPost2010PropOp38
 70
     1
102
RTVSPost2010Prop39
140
1.0
102
RTVSPost2010PropOp39
 70
     1
102
RTVSPost2010Prop40
 90
        0
102
RTVSPost2010PropOp40
 70
     1
102
RTVSPost2010Prop41ColorIndex
 90
       18
102
RTVSPost2010Prop41ColorRGB
 90
        0
102
RTVSPost2010PropOp41
 70
     1
102
RTVSPost2010Prop42
 90
       50
102
RTVSPost2010PropOp42
 70
     1
102
RTVSPost2010Prop43
 90
        3
102
RTVSPost2010PropOp43
 70
     1
102
RTVSPost2010Prop44ColorIndex
 90
        5
102
RTVSPost2010Prop44ColorRGB
 90
      255
102
RTVSPost2010PropOp44
 70
     1
102
RTVSPost2010Prop45
280
     0
102
RTVSPost2010PropOp45
 70
     1
102
RTVSPost2010Prop46
 90
       50
102
RTVSPost2010PropOp46
 70
     1
102
RTVSPost2010Prop47
 90
       50
102
RTVSPost2010PropOp47
 70
     1
102
RTVSPost2010Prop48
 90
       50
102
RTVSPost2010PropOp48
 70
     1
102
RTVSPost2010Prop49
280
     0
102
RTVSPost2010PropOp49
 70
     1
102
RTVSPost2010Prop50
 90
       50
102
RTVSPost2010PropOp50
 70
     1
102
RTVSPost2010Prop51ColorIndex
 90
      256
102
RTVSPost2010Prop51ColorRGB
 90
-16777216
102
RTVSPost2010PropOp51
 70
     0
102
RTVSPost2010Prop52
140
1.0
102
RTVSPost2010PropOp52
 70
     0
102
RTVSPost2010Prop53
 90
        2
102
RTVSPost2010PropOp53
 70
     1
102
RTVSPost2010Prop54
  1
strokes_ogs.tif
102
RTVSPost2010PropOp54
 70
     1
102
RTVSPost2010Prop55
280
     0
102
RTVSPost2010PropOp55
 70
     1
102
RTVSPost2010Prop56
140
1.0
102
RTVSPost2010PropOp56
 70
     1
102
RTVSPost2010Prop57
140
1.0
102
RTVSPost2010PropOp57
 70
     1
102
RTVSPropertyOp0
 70
     1
102
RTVSPropertyOp1
 70
     1
102
RTVSPropertyOp2
 70
     1
102
RTVSPropertyOp3
 70
     1
102
RTVSPropertyOp4
 70
     1
102
RTVSPropertyOp5
 70
     1
102
RTVSPropertyOp6
 70
     1
102
RTVSPropertyOp7
 70
     1
102
RTVSPropertyOp8
 70
     1
102
RTVSPropertyOp9
 70
     1
102
RTVSPropertyOp10
 70
     1
102
RTVSPropertyOp11
 70
     1
102
RTVSPropertyOp12
 70
     1
102
RTVSPropertyOp13
 70
     1
102
RTVSPropertyOp14
 70
     1
102
RTVSPropertyOp15
 70
     1
102
RTVSPropertyOp16
 70
     1
102
RTVSPropertyOp17
 70
     1
102
RTVSPropertyOp18
 70
     1
102
RTVSPropertyOp19
 70
     1
102
RTVSPropertyOp20
 70
     1
102
RTVSPropertyOp21
 70
     1
102
RTVSPropertyOp22
 70
     1
102
RTVSPropertyOp23
 70
     1
102
RTVSPropertyOp24
 70
     1
102
RTVSPropertyOp25
 70
     1
102
RTVSPropertyOp26
 70
     1
102
RTVSPropertyOp27
 70
     1
102
RTVSPropertyOp28
 70
     1
102
RTVSPropertyOp29
 70
     1
102
RTVSPropertyOp30
 70
     1
102
RTVSPropertyOp31
 70
     1
102
RTVSPropertyOp32
 70
     1
102
RTVSPropertyOp33
 70
     1
102
RTVSPropertyOp34
 70
     1
102
RTVSPropertyOp35
 70
     1
102
RTVSPropertyOp36
 70
     1
102
RTVSPropertyOp37
 70
     1
102
RTVSPropertyOp38
 70
     1
102
RTVSPropertyOp39
 70
     1
102
RTVSPropertyOp40
 70
     1
102
RTVSPropertyOp41
 70
     1
102
RTVSPropertyOp42
 70
     1
102
RTVSPropertyOp43
 70
     1
102
RTVSPropertyOp44
 70
     1
102
RTVSPropertyOp45
 70
     1
102
RTVSPropertyOp46
 70
     1
102
RTVSPropertyOp47
 70
     1
102
RTVSPropertyOp48
 70
     1
102
RTVSPropertyOp49
 70
     1
102
RTVSPropertyOp50
 70
     1
102
RTVSPropertyOp51
 70
     0
102
RTVSPropertyOp52
 70
     0
102
RTVSPropertyOp53
 70
     1
102
RTVSPropertyOp54
 70
     1
102
RTVSPropertyOp55
 70
     1
102
RTVSPropertyOp56
 70
     1
102
RTVSPropertyOp57
 70
     1
102
RTVSPropertyOp58
 70
     1
102
RTVSPropertyOp59
 70
     1
102
RTVSPropertyOp60
 70
     1
102
RTVSPropertyOp61
 70
     1
102
RTVSPropertyOp62
 70
     1
  0
XRECORD
  5
732
102
{ACAD_REACTORS
330
731
102
}
330
731
100
AcDbXrecord
280
     1
102
RTVSPost2010Prop28
280
     0
102
RTVSPost2010PropOp28
 70
     1
102
RTVSPost2010Prop29
280
     1
102
RTVSPost2010PropOp29
 70
     1
102
RTVSPost2010Prop30
280
     1
102
RTVSPost2010PropOp30
 70
     1
102
RTVSPost2010Prop31
280
     0
102
RTVSPost2010PropOp31
 70
     1
102
RTVSPost2010Prop32
280
     0
102
RTVSPost2010PropOp32
 70
     1
102
RTVSPost2010Prop33
280
     0
102
RTVSPost2010PropOp33
 70
     1
102
RTVSPost2010Prop34
280
     0
102
RTVSPost2010PropOp34
 70
     1
102
RTVSPost2010Prop35
280
     0
102
RTVSPost2010PropOp35
 70
     1
102
RTVSPost2010Prop36
280
     0
102
RTVSPost2010PropOp36
 70
     1
102
RTVSPost2010Prop37
 90
       50
102
RTVSPost2010PropOp37
 70
     1
102
RTVSPost2010Prop38
140
0.0
102
RTVSPost2010PropOp38
 70
     1
102
RTVSPost2010Prop39
140
1.0
102
RTVSPost2010PropOp39
 70
     1
102
RTVSPost2010Prop40
 90
        0
102
RTVSPost2010PropOp40
 70
     1
102
RTVSPost2010Prop41ColorIndex
 90
       18
102
RTVSPost2010Prop41ColorRGB
 90
        0
102
RTVSPost2010PropOp41
 70
     1
102
RTVSPost2010Prop42
 90
       50
102
RTVSPost2010PropOp42
 70
     1
102
RTVSPost2010Prop43
 90
        3
102
RTVSPost2010PropOp43
 70
     1
102
RTVSPost2010Prop44ColorIndex
 90
        5
102
RTVSPost2010Prop44ColorRGB
 90
      255
102
RTVSPost2010PropOp44
 70
     1
102
RTVSPost2010Prop45
280
     0
102
RTVSPost2010PropOp45
 70
     1
102
RTVSPost2010Prop46
 90
       50
102
RTVSPost2010PropOp46
 70
     1
102
RTVSPost2010Prop47
 90
       50
102
RTVSPost2010PropOp47
 70
     1
102
RTVSPost2010Prop48
 90
       50
102
RTVSPost2010PropOp48
 70
     1
102
RTVSPost2010Prop49
280
     0
102
RTVSPost2010PropOp49
 70
     1
102
RTVSPost2010Prop50
 90
       50
102
RTVSPost2010PropOp50
 70
     1
102
RTVSPost2010Prop51ColorIndex
 90
      256
102
RTVSPost2010Prop51ColorRGB
 90
-16777216
102
RTVSPost2010PropOp51
 70
     0
102
RTVSPost2010Prop52
140
1.0
102
RTVSPost2010PropOp52
 70
     0
102
RTVSPost2010Prop53
 90
        2
102
RTVSPost2010PropOp53
 70
     1
102
RTVSPost2010Prop54
  1
strokes_ogs.tif
102
RTVSPost2010PropOp54
 70
     1
102
RTVSPost2010Prop55
280
     0
102
RTVSPost2010PropOp55
 70
     1
102
RTVSPost2010Prop56
140
1.0
102
RTVSPost2010PropOp56
 70
     1
102
RTVSPost2010Prop57
140
1.0
102
RTVSPost2010PropOp57
 70
     1
102
RTVSPropertyOp0
 70
     0
102
RTVSPropertyOp1
 70
     0
102
RTVSPropertyOp2
 70
     0
102
RTVSPropertyOp3
 70
     0
102
RTVSPropertyOp4
 70
     0
102
RTVSPropertyOp5
 70
     0
102
RTVSPropertyOp6
 70
     0
102
RTVSPropertyOp7
 70
     0
102
RTVSPropertyOp8
 70
     0
102
RTVSPropertyOp9
 70
     0
102
RTVSPropertyOp10
 70
     0
102
RTVSPropertyOp11
 70
     0
102
RTVSPropertyOp12
 70
     0
102
RTVSPropertyOp13
 70
     0
102
RTVSPropertyOp14
 70
     2
102
RTVSPropertyOp15
 70
     0
102
RTVSPropertyOp16
 70
     0
102
RTVSPropertyOp17
 70
     0
102
RTVSPropertyOp18
 70
     0
102
RTVSPropertyOp19
 70
     0
102
RTVSPropertyOp20
 70
     0
102
RTVSPropertyOp21
 70
     0
102
RTVSPropertyOp22
 70
     0
102
RTVSPropertyOp23
 70
     0
102
RTVSPropertyOp24
 70
     0
102
RTVSPropertyOp25
 70
     0
102
RTVSPropertyOp26
 70
     0
102
RTVSPropertyOp27
 70
     0
102
RTVSPropertyOp28
 70
     1
102
RTVSPropertyOp29
 70
     1
102
RTVSPropertyOp30
 70
     1
102
RTVSPropertyOp31
 70
     1
102
RTVSPropertyOp32
 70
     1
102
RTVSPropertyOp33
 70
     1
102
RTVSPropertyOp34
 70
     1
102
RTVSPropertyOp35
 70
     1
102
RTVSPropertyOp36
 70
     1
102
RTVSPropertyOp37
 70
     1
102
RTVSPropertyOp38
 70
     1
102
RTVSPropertyOp39
 70
     1
102
RTVSPropertyOp40
 70
     1
102
RTVSPropertyOp41
 70
     1
102
RTVSPropertyOp42
 70
     1
102
RTVSPropertyOp43
 70
     1
102
RTVSPropertyOp44
 70
     1
102
RTVSPropertyOp45
 70
     1
102
RTVSPropertyOp46
 70
     1
102
RTVSPropertyOp47
 70
     1
102
RTVSPropertyOp48
 70
     1
102
RTVSPropertyOp49
 70
     1
102
RTVSPropertyOp50
 70
     1
102
RTVSPropertyOp51
 70
     0
102
RTVSPropertyOp52
 70
     0
102
RTVSPropertyOp53
 70
     1
102
RTVSPropertyOp54
 70
     1
102
RTVSPropertyOp55
 70
     1
102
RTVSPropertyOp56
 70
     1
102
RTVSPropertyOp57
 70
     1
102
RTVSPropertyOp58
 70
     1
102
RTVSPropertyOp59
 70
     1
102
RTVSPropertyOp60
 70
     1
102
RTVSPropertyOp61
 70
     1
102
RTVSPropertyOp62
 70
     1
  0
XRECORD
  5
722
102
{ACAD_REACTORS
330
721
102
}
330
721
100
AcDbXrecord
280
     1
102
RTVSPost2010Prop28
280
     0
102
RTVSPost2010PropOp28
 70
     1
102
RTVSPost2010Prop29
280
     1
102
RTVSPost2010PropOp29
 70
     1
102
RTVSPost2010Prop30
280
     1
102
RTVSPost2010PropOp30
 70
     1
102
RTVSPost2010Prop31
280
     0
102
RTVSPost2010PropOp31
 70
     1
102
RTVSPost2010Prop32
280
     0
102
RTVSPost2010PropOp32
 70
     1
102
RTVSPost2010Prop33
280
     0
102
RTVSPost2010PropOp33
 70
     1
102
RTVSPost2010Prop34
280
     0
102
RTVSPost2010PropOp34
 70
     1
102
RTVSPost2010Prop35
280
     0
102
RTVSPost2010PropOp35
 70
     1
102
RTVSPost2010Prop36
280
     0
102
RTVSPost2010PropOp36
 70
     1
102
RTVSPost2010Prop37
 90
       50
102
RTVSPost2010PropOp37
 70
     1
102
RTVSPost2010Prop38
140
0.0
102
RTVSPost2010PropOp38
 70
     1
102
RTVSPost2010Prop39
140
1.0
102
RTVSPost2010PropOp39
 70
     1
102
RTVSPost2010Prop40
 90
        0
102
RTVSPost2010PropOp40
 70
     1
102
RTVSPost2010Prop41ColorIndex
 90
       18
102
RTVSPost2010Prop41ColorRGB
 90
        0
102
RTVSPost2010PropOp41
 70
     1
102
RTVSPost2010Prop42
 90
       50
102
RTVSPost2010PropOp42
 70
     1
102
RTVSPost2010Prop43
 90
        3
102
RTVSPost2010PropOp43
 70
     1
102
RTVSPost2010Prop44ColorIndex
 90
        5
102
RTVSPost2010Prop44ColorRGB
 90
      255
102
RTVSPost2010PropOp44
 70
     1
102
RTVSPost2010Prop45
280
     0
102
RTVSPost2010PropOp45
 70
     1
102
RTVSPost2010Prop46
 90
       50
102
RTVSPost2010PropOp46
 70
     1
102
RTVSPost2010Prop47
 90
       50
102
RTVSPost2010PropOp47
 70
     1
102
RTVSPost2010Prop48
 90
       50
102
RTVSPost2010PropOp48
 70
     1
102
RTVSPost2010Prop49
280
     0
102
RTVSPost2010PropOp49
 70
     1
102
RTVSPost2010Prop50
 90
       50
102
RTVSPost2010PropOp50
 70
     1
102
RTVSPost2010Prop51ColorIndex
 90
      256
102
RTVSPost2010Prop51ColorRGB
 90
-16777216
102
RTVSPost2010PropOp51
 70
     0
102
RTVSPost2010Prop52
140
1.0
102
RTVSPost2010PropOp52
 70
     0
102
RTVSPost2010Prop53
 90
        2
102
RTVSPost2010PropOp53
 70
     1
102
RTVSPost2010Prop54
  1
strokes_ogs.tif
102
RTVSPost2010PropOp54
 70
     1
102
RTVSPost2010Prop55
280
     0
102
RTVSPost2010PropOp55
 70
     1
102
RTVSPost2010Prop56
140
1.0
102
RTVSPost2010PropOp56
 70
     1
102
RTVSPost2010Prop57
140
1.0
102
RTVSPost2010PropOp57
 70
     1
102
RTVSPropertyOp0
 70
     1
102
RTVSPropertyOp1
 70
     1
102
RTVSPropertyOp2
 70
     1
102
RTVSPropertyOp3
 70
     1
102
RTVSPropertyOp4
 70
     1
102
RTVSPropertyOp5
 70
     1
102
RTVSPropertyOp6
 70
     1
102
RTVSPropertyOp7
 70
     1
102
RTVSPropertyOp8
 70
     1
102
RTVSPropertyOp9
 70
     1
102
RTVSPropertyOp10
 70
     1
102
RTVSPropertyOp11
 70
     1
102
RTVSPropertyOp12
 70
     1
102
RTVSPropertyOp13
 70
     1
102
RTVSPropertyOp14
 70
     1
102
RTVSPropertyOp15
 70
     1
102
RTVSPropertyOp16
 70
     1
102
RTVSPropertyOp17
 70
     1
102
RTVSPropertyOp18
 70
     1
102
RTVSPropertyOp19
 70
     1
102
RTVSPropertyOp20
 70
     1
102
RTVSPropertyOp21
 70
     1
102
RTVSPropertyOp22
 70
     1
102
RTVSPropertyOp23
 70
     1
102
RTVSPropertyOp24
 70
     1
102
RTVSPropertyOp25
 70
     1
102
RTVSPropertyOp26
 70
     1
102
RTVSPropertyOp27
 70
     1
102
RTVSPropertyOp28
 70
     1
102
RTVSPropertyOp29
 70
     1
102
RTVSPropertyOp30
 70
     1
102
RTVSPropertyOp31
 70
     1
102
RTVSPropertyOp32
 70
     1
102
RTVSPropertyOp33
 70
     1
102
RTVSPropertyOp34
 70
     1
102
RTVSPropertyOp35
 70
     1
102
RTVSPropertyOp36
 70
     1
102
RTVSPropertyOp37
 70
     1
102
RTVSPropertyOp38
 70
     1
102
RTVSPropertyOp39
 70
     1
102
RTVSPropertyOp40
 70
     1
102
RTVSPropertyOp41
 70
     1
102
RTVSPropertyOp42
 70
     1
102
RTVSPropertyOp43
 70
     1
102
RTVSPropertyOp44
 70
     1
102
RTVSPropertyOp45
 70
     1
102
RTVSPropertyOp46
 70
     1
102
RTVSPropertyOp47
 70
     1
102
RTVSPropertyOp48
 70
     1
102
RTVSPropertyOp49
 70
     1
102
RTVSPropertyOp50
 70
     1
102
RTVSPropertyOp51
 70
     0
102
RTVSPropertyOp52
 70
     0
102
RTVSPropertyOp53
 70
     1
102
RTVSPropertyOp54
 70
     1
102
RTVSPropertyOp55
 70
     1
102
RTVSPropertyOp56
 70
     1
102
RTVSPropertyOp57
 70
     1
102
RTVSPropertyOp58
 70
     1
102
RTVSPropertyOp59
 70
     1
102
RTVSPropertyOp60
 70
     1
102
RTVSPropertyOp61
 70
     1
102
RTVSPropertyOp62
 70
     1
  0
XRECORD
  5
743
102
{ACAD_REACTORS
330
742
102
}
330
742
100
AcDbXrecord
280
     1
102
RTVSPost2010Prop28
280
     0
102
RTVSPost2010PropOp28
 70
     1
102
RTVSPost2010Prop29
280
     1
102
RTVSPost2010PropOp29
 70
     1
102
RTVSPost2010Prop30
280
     1
102
RTVSPost2010PropOp30
 70
     1
102
RTVSPost2010Prop31
280
     0
102
RTVSPost2010PropOp31
 70
     1
102
RTVSPost2010Prop32
280
     0
102
RTVSPost2010PropOp32
 70
     1
102
RTVSPost2010Prop33
280
     0
102
RTVSPost2010PropOp33
 70
     1
102
RTVSPost2010Prop34
280
     0
102
RTVSPost2010PropOp34
 70
     1
102
RTVSPost2010Prop35
280
     0
102
RTVSPost2010PropOp35
 70
     1
102
RTVSPost2010Prop36
280
     0
102
RTVSPost2010PropOp36
 70
     1
102
RTVSPost2010Prop37
 90
       50
102
RTVSPost2010PropOp37
 70
     1
102
RTVSPost2010Prop38
140
0.0
102
RTVSPost2010PropOp38
 70
     1
102
RTVSPost2010Prop39
140
1.0
102
RTVSPost2010PropOp39
 70
     1
102
RTVSPost2010Prop40
 90
        0
102
RTVSPost2010PropOp40
 70
     1
102
RTVSPost2010Prop41ColorIndex
 90
       18
102
RTVSPost2010Prop41ColorRGB
 90
        0
102
RTVSPost2010PropOp41
 70
     1
102
RTVSPost2010Prop42
 90
       50
102
RTVSPost2010PropOp42
 70
     1
102
RTVSPost2010Prop43
 90
        3
102
RTVSPost2010PropOp43
 70
     1
102
RTVSPost2010Prop44ColorIndex
 90
        5
102
RTVSPost2010Prop44ColorRGB
 90
      255
102
RTVSPost2010PropOp44
 70
     1
102
RTVSPost2010Prop45
280
     0
102
RTVSPost2010PropOp45
 70
     1
102
RTVSPost2010Prop46
 90
       50
102
RTVSPost2010PropOp46
 70
     1
102
RTVSPost2010Prop47
 90
       50
102
RTVSPost2010PropOp47
 70
     1
102
RTVSPost2010Prop48
 90
       50
102
RTVSPost2010PropOp48
 70
     1
102
RTVSPost2010Prop49
280
     0
102
RTVSPost2010PropOp49
 70
     1
102
RTVSPost2010Prop50
 90
       50
102
RTVSPost2010PropOp50
 70
     1
102
RTVSPost2010Prop51ColorIndex
 90
      256
102
RTVSPost2010Prop51ColorRGB
 90
-16777216
102
RTVSPost2010PropOp51
 70
     0
102
RTVSPost2010Prop52
140
1.0
102
RTVSPost2010PropOp52
 70
     0
102
RTVSPost2010Prop53
 90
        2
102
RTVSPost2010PropOp53
 70
     1
102
RTVSPost2010Prop54
  1
strokes_ogs.tif
102
RTVSPost2010PropOp54
 70
     1
102
RTVSPost2010Prop55
280
     0
102
RTVSPost2010PropOp55
 70
     1
102
RTVSPost2010Prop56
140
1.0
102
RTVSPost2010PropOp56
 70
     1
102
RTVSPost2010Prop57
140
1.0
102
RTVSPost2010PropOp57
 70
     1
102
RTVSPropertyOp0
 70
     1
102
RTVSPropertyOp1
 70
     1
102
RTVSPropertyOp2
 70
     1
102
RTVSPropertyOp3
 70
     1
102
RTVSPropertyOp4
 70
     1
102
RTVSPropertyOp5
 70
     1
102
RTVSPropertyOp6
 70
     1
102
RTVSPropertyOp7
 70
     1
102
RTVSPropertyOp8
 70
     1
102
RTVSPropertyOp9
 70
     1
102
RTVSPropertyOp10
 70
     1
102
RTVSPropertyOp11
 70
     1
102
RTVSPropertyOp12
 70
     1
102
RTVSPropertyOp13
 70
     1
102
RTVSPropertyOp14
 70
     1
102
RTVSPropertyOp15
 70
     1
102
RTVSPropertyOp16
 70
     1
102
RTVSPropertyOp17
 70
     1
102
RTVSPropertyOp18
 70
     1
102
RTVSPropertyOp19
 70
     1
102
RTVSPropertyOp20
 70
     1
102
RTVSPropertyOp21
 70
     1
102
RTVSPropertyOp22
 70
     1
102
RTVSPropertyOp23
 70
     1
102
RTVSPropertyOp24
 70
     1
102
RTVSPropertyOp25
 70
     1
102
RTVSPropertyOp26
 70
     1
102
RTVSPropertyOp27
 70
     1
102
RTVSPropertyOp28
 70
     1
102
RTVSPropertyOp29
 70
     1
102
RTVSPropertyOp30
 70
     1
102
RTVSPropertyOp31
 70
     1
102
RTVSPropertyOp32
 70
     1
102
RTVSPropertyOp33
 70
     1
102
RTVSPropertyOp34
 70
     1
102
RTVSPropertyOp35
 70
     1
102
RTVSPropertyOp36
 70
     1
102
RTVSPropertyOp37
 70
     1
102
RTVSPropertyOp38
 70
     1
102
RTVSPropertyOp39
 70
     1
102
RTVSPropertyOp40
 70
     1
102
RTVSPropertyOp41
 70
     1
102
RTVSPropertyOp42
 70
     1
102
RTVSPropertyOp43
 70
     1
102
RTVSPropertyOp44
 70
     1
102
RTVSPropertyOp45
 70
     1
102
RTVSPropertyOp46
 70
     1
102
RTVSPropertyOp47
 70
     1
102
RTVSPropertyOp48
 70
     1
102
RTVSPropertyOp49
 70
     1
102
RTVSPropertyOp50
 70
     1
102
RTVSPropertyOp51
 70
     0
102
RTVSPropertyOp52
 70
     0
102
RTVSPropertyOp53
 70
     1
102
RTVSPropertyOp54
 70
     1
102
RTVSPropertyOp55
 70
     1
102
RTVSPropertyOp56
 70
     1
102
RTVSPropertyOp57
 70
     1
102
RTVSPropertyOp58
 70
     1
102
RTVSPropertyOp59
 70
     1
102
RTVSPropertyOp60
 70
     1
102
RTVSPropertyOp61
 70
     1
102
RTVSPropertyOp62
 70
     1
  0
XRECORD
  5
741
102
{ACAD_REACTORS
330
740
102
}
330
740
100
AcDbXrecord
280
     1
102
RTVSPost2010Prop28
280
     0
102
RTVSPost2010PropOp28
 70
     1
102
RTVSPost2010Prop29
280
     1
102
RTVSPost2010PropOp29
 70
     1
102
RTVSPost2010Prop30
280
     1
102
RTVSPost2010PropOp30
 70
     1
102
RTVSPost2010Prop31
280
     0
102
RTVSPost2010PropOp31
 70
     1
102
RTVSPost2010Prop32
280
     0
102
RTVSPost2010PropOp32
 70
     1
102
RTVSPost2010Prop33
280
     0
102
RTVSPost2010PropOp33
 70
     1
102
RTVSPost2010Prop34
280
     0
102
RTVSPost2010PropOp34
 70
     1
102
RTVSPost2010Prop35
280
     0
102
RTVSPost2010PropOp35
 70
     1
102
RTVSPost2010Prop36
280
     0
102
RTVSPost2010PropOp36
 70
     1
102
RTVSPost2010Prop37
 90
       50
102
RTVSPost2010PropOp37
 70
     1
102
RTVSPost2010Prop38
140
0.0
102
RTVSPost2010PropOp38
 70
     1
102
RTVSPost2010Prop39
140
1.0
102
RTVSPost2010PropOp39
 70
     1
102
RTVSPost2010Prop40
 90
        0
102
RTVSPost2010PropOp40
 70
     1
102
RTVSPost2010Prop41ColorIndex
 90
       18
102
RTVSPost2010Prop41ColorRGB
 90
        0
102
RTVSPost2010PropOp41
 70
     1
102
RTVSPost2010Prop42
 90
       50
102
RTVSPost2010PropOp42
 70
     1
102
RTVSPost2010Prop43
 90
        3
102
RTVSPost2010PropOp43
 70
     1
102
RTVSPost2010Prop44ColorIndex
 90
        5
102
RTVSPost2010Prop44ColorRGB
 90
      255
102
RTVSPost2010PropOp44
 70
     1
102
RTVSPost2010Prop45
280
     0
102
RTVSPost2010PropOp45
 70
     1
102
RTVSPost2010Prop46
 90
       50
102
RTVSPost2010PropOp46
 70
     1
102
RTVSPost2010Prop47
 90
       50
102
RTVSPost2010PropOp47
 70
     1
102
RTVSPost2010Prop48
 90
       50
102
RTVSPost2010PropOp48
 70
     1
102
RTVSPost2010Prop49
280
     0
102
RTVSPost2010PropOp49
 70
     1
102
RTVSPost2010Prop50
 90
       50
102
RTVSPost2010PropOp50
 70
     1
102
RTVSPost2010Prop51ColorIndex
 90
      256
102
RTVSPost2010Prop51ColorRGB
 90
-16777216
102
RTVSPost2010PropOp51
 70
     0
102
RTVSPost2010Prop52
140
1.0
102
RTVSPost2010PropOp52
 70
     0
102
RTVSPost2010Prop53
 90
        2
102
RTVSPost2010PropOp53
 70
     1
102
RTVSPost2010Prop54
  1
strokes_ogs.tif
102
RTVSPost2010PropOp54
 70
     1
102
RTVSPost2010Prop55
280
     0
102
RTVSPost2010PropOp55
 70
     1
102
RTVSPost2010Prop56
140
1.0
102
RTVSPost2010PropOp56
 70
     1
102
RTVSPost2010Prop57
140
1.0
102
RTVSPost2010PropOp57
 70
     1
102
RTVSPropertyOp0
 70
     1
102
RTVSPropertyOp1
 70
     1
102
RTVSPropertyOp2
 70
     1
102
RTVSPropertyOp3
 70
     1
102
RTVSPropertyOp4
 70
     1
102
RTVSPropertyOp5
 70
     1
102
RTVSPropertyOp6
 70
     1
102
RTVSPropertyOp7
 70
     1
102
RTVSPropertyOp8
 70
     1
102
RTVSPropertyOp9
 70
     1
102
RTVSPropertyOp10
 70
     1
102
RTVSPropertyOp11
 70
     1
102
RTVSPropertyOp12
 70
     1
102
RTVSPropertyOp13
 70
     1
102
RTVSPropertyOp14
 70
     1
102
RTVSPropertyOp15
 70
     1
102
RTVSPropertyOp16
 70
     1
102
RTVSPropertyOp17
 70
     1
102
RTVSPropertyOp18
 70
     1
102
RTVSPropertyOp19
 70
     1
102
RTVSPropertyOp20
 70
     1
102
RTVSPropertyOp21
 70
     1
102
RTVSPropertyOp22
 70
     1
102
RTVSPropertyOp23
 70
     1
102
RTVSPropertyOp24
 70
     1
102
RTVSPropertyOp25
 70
     1
102
RTVSPropertyOp26
 70
     1
102
RTVSPropertyOp27
 70
     1
102
RTVSPropertyOp28
 70
     1
102
RTVSPropertyOp29
 70
     1
102
RTVSPropertyOp30
 70
     1
102
RTVSPropertyOp31
 70
     1
102
RTVSPropertyOp32
 70
     1
102
RTVSPropertyOp33
 70
     1
102
RTVSPropertyOp34
 70
     1
102
RTVSPropertyOp35
 70
     1
102
RTVSPropertyOp36
 70
     1
102
RTVSPropertyOp37
 70
     1
102
RTVSPropertyOp38
 70
     1
102
RTVSPropertyOp39
 70
     1
102
RTVSPropertyOp40
 70
     1
102
RTVSPropertyOp41
 70
     1
102
RTVSPropertyOp42
 70
     1
102
RTVSPropertyOp43
 70
     1
102
RTVSPropertyOp44
 70
     1
102
RTVSPropertyOp45
 70
     1
102
RTVSPropertyOp46
 70
     1
102
RTVSPropertyOp47
 70
     1
102
RTVSPropertyOp48
 70
     1
102
RTVSPropertyOp49
 70
     1
102
RTVSPropertyOp50
 70
     1
102
RTVSPropertyOp51
 70
     0
102
RTVSPropertyOp52
 70
     0
102
RTVSPropertyOp53
 70
     1
102
RTVSPropertyOp54
 70
     1
102
RTVSPropertyOp55
 70
     1
102
RTVSPropertyOp56
 70
     1
102
RTVSPropertyOp57
 70
     1
102
RTVSPropertyOp58
 70
     1
102
RTVSPropertyOp59
 70
     1
102
RTVSPropertyOp60
 70
     1
102
RTVSPropertyOp61
 70
     1
102
RTVSPropertyOp62
 70
     1
  0
XRECORD
  5
73B
102
{ACAD_REACTORS
330
73A
102
}
330
73A
100
AcDbXrecord
280
     1
102
RTVSPost2010Prop28
280
     0
102
RTVSPost2010PropOp28
 70
     1
102
RTVSPost2010Prop29
280
     1
102
RTVSPost2010PropOp29
 70
     1
102
RTVSPost2010Prop30
280
     1
102
RTVSPost2010PropOp30
 70
     1
102
RTVSPost2010Prop31
280
     0
102
RTVSPost2010PropOp31
 70
     1
102
RTVSPost2010Prop32
280
     0
102
RTVSPost2010PropOp32
 70
     1
102
RTVSPost2010Prop33
280
     0
102
RTVSPost2010PropOp33
 70
     1
102
RTVSPost2010Prop34
280
     0
102
RTVSPost2010PropOp34
 70
     1
102
RTVSPost2010Prop35
280
     0
102
RTVSPost2010PropOp35
 70
     1
102
RTVSPost2010Prop36
280
     0
102
RTVSPost2010PropOp36
 70
     1
102
RTVSPost2010Prop37
 90
       50
102
RTVSPost2010PropOp37
 70
     1
102
RTVSPost2010Prop38
140
0.0
102
RTVSPost2010PropOp38
 70
     1
102
RTVSPost2010Prop39
140
1.0
102
RTVSPost2010PropOp39
 70
     1
102
RTVSPost2010Prop40
 90
        0
102
RTVSPost2010PropOp40
 70
     1
102
RTVSPost2010Prop41ColorIndex
 90
       18
102
RTVSPost2010Prop41ColorRGB
 90
        0
102
RTVSPost2010PropOp41
 70
     1
102
RTVSPost2010Prop42
 90
       50
102
RTVSPost2010PropOp42
 70
     1
102
RTVSPost2010Prop43
 90
        3
102
RTVSPost2010PropOp43
 70
     1
102
RTVSPost2010Prop44ColorIndex
 90
        5
102
RTVSPost2010Prop44ColorRGB
 90
      255
102
RTVSPost2010PropOp44
 70
     1
102
RTVSPost2010Prop45
280
     0
102
RTVSPost2010PropOp45
 70
     1
102
RTVSPost2010Prop46
 90
       50
102
RTVSPost2010PropOp46
 70
     1
102
RTVSPost2010Prop47
 90
       50
102
RTVSPost2010PropOp47
 70
     1
102
RTVSPost2010Prop48
 90
       50
102
RTVSPost2010PropOp48
 70
     1
102
RTVSPost2010Prop49
280
     0
102
RTVSPost2010PropOp49
 70
     1
102
RTVSPost2010Prop50
 90
       50
102
RTVSPost2010PropOp50
 70
     1
102
RTVSPost2010Prop51ColorIndex
 90
      256
102
RTVSPost2010Prop51ColorRGB
 90
-16777216
102
RTVSPost2010PropOp51
 70
     0
102
RTVSPost2010Prop52
140
1.0
102
RTVSPost2010PropOp52
 70
     0
102
RTVSPost2010Prop53
 90
        2
102
RTVSPost2010PropOp53
 70
     1
102
RTVSPost2010Prop54
  1
strokes_ogs.tif
102
RTVSPost2010PropOp54
 70
     1
102
RTVSPost2010Prop55
280
     0
102
RTVSPost2010PropOp55
 70
     1
102
RTVSPost2010Prop56
140
1.0
102
RTVSPost2010PropOp56
 70
     1
102
RTVSPost2010Prop57
140
1.0
102
RTVSPost2010PropOp57
 70
     1
102
RTVSPropertyOp0
 70
     1
102
RTVSPropertyOp1
 70
     1
102
RTVSPropertyOp2
 70
     1
102
RTVSPropertyOp3
 70
     1
102
RTVSPropertyOp4
 70
     1
102
RTVSPropertyOp5
 70
     1
102
RTVSPropertyOp6
 70
     1
102
RTVSPropertyOp7
 70
     1
102
RTVSPropertyOp8
 70
     1
102
RTVSPropertyOp9
 70
     1
102
RTVSPropertyOp10
 70
     1
102
RTVSPropertyOp11
 70
     1
102
RTVSPropertyOp12
 70
     1
102
RTVSPropertyOp13
 70
     1
102
RTVSPropertyOp14
 70
     1
102
RTVSPropertyOp15
 70
     1
102
RTVSPropertyOp16
 70
     1
102
RTVSPropertyOp17
 70
     1
102
RTVSPropertyOp18
 70
     1
102
RTVSPropertyOp19
 70
     1
102
RTVSPropertyOp20
 70
     1
102
RTVSPropertyOp21
 70
     1
102
RTVSPropertyOp22
 70
     1
102
RTVSPropertyOp23
 70
     1
102
RTVSPropertyOp24
 70
     1
102
RTVSPropertyOp25
 70
     1
102
RTVSPropertyOp26
 70
     1
102
RTVSPropertyOp27
 70
     1
102
RTVSPropertyOp28
 70
     1
102
RTVSPropertyOp29
 70
     1
102
RTVSPropertyOp30
 70
     1
102
RTVSPropertyOp31
 70
     1
102
RTVSPropertyOp32
 70
     1
102
RTVSPropertyOp33
 70
     1
102
RTVSPropertyOp34
 70
     1
102
RTVSPropertyOp35
 70
     1
102
RTVSPropertyOp36
 70
     1
102
RTVSPropertyOp37
 70
     1
102
RTVSPropertyOp38
 70
     1
102
RTVSPropertyOp39
 70
     1
102
RTVSPropertyOp40
 70
     1
102
RTVSPropertyOp41
 70
     1
102
RTVSPropertyOp42
 70
     1
102
RTVSPropertyOp43
 70
     1
102
RTVSPropertyOp44
 70
     1
102
RTVSPropertyOp45
 70
     1
102
RTVSPropertyOp46
 70
     1
102
RTVSPropertyOp47
 70
     1
102
RTVSPropertyOp48
 70
     1
102
RTVSPropertyOp49
 70
     1
102
RTVSPropertyOp50
 70
     1
102
RTVSPropertyOp51
 70
     0
102
RTVSPropertyOp52
 70
     0
102
RTVSPropertyOp53
 70
     1
102
RTVSPropertyOp54
 70
     1
102
RTVSPropertyOp55
 70
     1
102
RTVSPropertyOp56
 70
     1
102
RTVSPropertyOp57
 70
     1
102
RTVSPropertyOp58
 70
     1
102
RTVSPropertyOp59
 70
     1
102
RTVSPropertyOp60
 70
     1
102
RTVSPropertyOp61
 70
     1
102
RTVSPropertyOp62
 70
     1
  0
XRECORD
  5
73D
102
{ACAD_REACTORS
330
73C
102
}
330
73C
100
AcDbXrecord
280
     1
102
RTVSPost2010Prop28
280
     0
102
RTVSPost2010PropOp28
 70
     1
102
RTVSPost2010Prop29
280
     1
102
RTVSPost2010PropOp29
 70
     1
102
RTVSPost2010Prop30
280
     1
102
RTVSPost2010PropOp30
 70
     1
102
RTVSPost2010Prop31
280
     0
102
RTVSPost2010PropOp31
 70
     1
102
RTVSPost2010Prop32
280
     0
102
RTVSPost2010PropOp32
 70
     1
102
RTVSPost2010Prop33
280
     0
102
RTVSPost2010PropOp33
 70
     1
102
RTVSPost2010Prop34
280
     0
102
RTVSPost2010PropOp34
 70
     1
102
RTVSPost2010Prop35
280
     0
102
RTVSPost2010PropOp35
 70
     1
102
RTVSPost2010Prop36
280
     0
102
RTVSPost2010PropOp36
 70
     1
102
RTVSPost2010Prop37
 90
       50
102
RTVSPost2010PropOp37
 70
     1
102
RTVSPost2010Prop38
140
0.0
102
RTVSPost2010PropOp38
 70
     1
102
RTVSPost2010Prop39
140
1.0
102
RTVSPost2010PropOp39
 70
     1
102
RTVSPost2010Prop40
 90
        0
102
RTVSPost2010PropOp40
 70
     1
102
RTVSPost2010Prop41ColorIndex
 90
       18
102
RTVSPost2010Prop41ColorRGB
 90
        0
102
RTVSPost2010PropOp41
 70
     1
102
RTVSPost2010Prop42
 90
       50
102
RTVSPost2010PropOp42
 70
     1
102
RTVSPost2010Prop43
 90
        3
102
RTVSPost2010PropOp43
 70
     1
102
RTVSPost2010Prop44ColorIndex
 90
        5
102
RTVSPost2010Prop44ColorRGB
 90
      255
102
RTVSPost2010PropOp44
 70
     1
102
RTVSPost2010Prop45
280
     0
102
RTVSPost2010PropOp45
 70
     1
102
RTVSPost2010Prop46
 90
       50
102
RTVSPost2010PropOp46
 70
     1
102
RTVSPost2010Prop47
 90
       50
102
RTVSPost2010PropOp47
 70
     1
102
RTVSPost2010Prop48
 90
       50
102
RTVSPost2010PropOp48
 70
     1
102
RTVSPost2010Prop49
280
     0
102
RTVSPost2010PropOp49
 70
     1
102
RTVSPost2010Prop50
 90
       50
102
RTVSPost2010PropOp50
 70
     1
102
RTVSPost2010Prop51ColorIndex
 90
      256
102
RTVSPost2010Prop51ColorRGB
 90
-16777216
102
RTVSPost2010PropOp51
 70
     0
102
RTVSPost2010Prop52
140
1.0
102
RTVSPost2010PropOp52
 70
     0
102
RTVSPost2010Prop53
 90
        2
102
RTVSPost2010PropOp53
 70
     1
102
RTVSPost2010Prop54
  1
strokes_ogs.tif
102
RTVSPost2010PropOp54
 70
     1
102
RTVSPost2010Prop55
280
     0
102
RTVSPost2010PropOp55
 70
     1
102
RTVSPost2010Prop56
140
1.0
102
RTVSPost2010PropOp56
 70
     1
102
RTVSPost2010Prop57
140
1.0
102
RTVSPost2010PropOp57
 70
     1
102
RTVSPropertyOp0
 70
     1
102
RTVSPropertyOp1
 70
     1
102
RTVSPropertyOp2
 70
     1
102
RTVSPropertyOp3
 70
     1
102
RTVSPropertyOp4
 70
     1
102
RTVSPropertyOp5
 70
     1
102
RTVSPropertyOp6
 70
     1
102
RTVSPropertyOp7
 70
     1
102
RTVSPropertyOp8
 70
     1
102
RTVSPropertyOp9
 70
     1
102
RTVSPropertyOp10
 70
     1
102
RTVSPropertyOp11
 70
     1
102
RTVSPropertyOp12
 70
     1
102
RTVSPropertyOp13
 70
     1
102
RTVSPropertyOp14
 70
     1
102
RTVSPropertyOp15
 70
     1
102
RTVSPropertyOp16
 70
     1
102
RTVSPropertyOp17
 70
     1
102
RTVSPropertyOp18
 70
     1
102
RTVSPropertyOp19
 70
     1
102
RTVSPropertyOp20
 70
     1
102
RTVSPropertyOp21
 70
     1
102
RTVSPropertyOp22
 70
     1
102
RTVSPropertyOp23
 70
     1
102
RTVSPropertyOp24
 70
     1
102
RTVSPropertyOp25
 70
     1
102
RTVSPropertyOp26
 70
     1
102
RTVSPropertyOp27
 70
     1
102
RTVSPropertyOp28
 70
     1
102
RTVSPropertyOp29
 70
     1
102
RTVSPropertyOp30
 70
     1
102
RTVSPropertyOp31
 70
     1
102
RTVSPropertyOp32
 70
     1
102
RTVSPropertyOp33
 70
     1
102
RTVSPropertyOp34
 70
     1
102
RTVSPropertyOp35
 70
     1
102
RTVSPropertyOp36
 70
     1
102
RTVSPropertyOp37
 70
     1
102
RTVSPropertyOp38
 70
     1
102
RTVSPropertyOp39
 70
     1
102
RTVSPropertyOp40
 70
     1
102
RTVSPropertyOp41
 70
     1
102
RTVSPropertyOp42
 70
     1
102
RTVSPropertyOp43
 70
     1
102
RTVSPropertyOp44
 70
     1
102
RTVSPropertyOp45
 70
     1
102
RTVSPropertyOp46
 70
     1
102
RTVSPropertyOp47
 70
     1
102
RTVSPropertyOp48
 70
     1
102
RTVSPropertyOp49
 70
     1
102
RTVSPropertyOp50
 70
     1
102
RTVSPropertyOp51
 70
     0
102
RTVSPropertyOp52
 70
     0
102
RTVSPropertyOp53
 70
     1
102
RTVSPropertyOp54
 70
     1
102
RTVSPropertyOp55
 70
     1
102
RTVSPropertyOp56
 70
     1
102
RTVSPropertyOp57
 70
     1
102
RTVSPropertyOp58
 70
     1
102
RTVSPropertyOp59
 70
     1
102
RTVSPropertyOp60
 70
     1
102
RTVSPropertyOp61
 70
     1
102
RTVSPropertyOp62
 70
     1
  0
XRECORD
  5
728
102
{ACAD_REACTORS
330
727
102
}
330
727
100
AcDbXrecord
280
     1
102
RTVSPost2010Prop28
280
     0
102
RTVSPost2010PropOp28
 70
     1
102
RTVSPost2010Prop29
280
     1
102
RTVSPost2010PropOp29
 70
     1
102
RTVSPost2010Prop30
280
     1
102
RTVSPost2010PropOp30
 70
     1
102
RTVSPost2010Prop31
280
     0
102
RTVSPost2010PropOp31
 70
     1
102
RTVSPost2010Prop32
280
     0
102
RTVSPost2010PropOp32
 70
     1
102
RTVSPost2010Prop33
280
     0
102
RTVSPost2010PropOp33
 70
     1
102
RTVSPost2010Prop34
280
     0
102
RTVSPost2010PropOp34
 70
     1
102
RTVSPost2010Prop35
280
     0
102
RTVSPost2010PropOp35
 70
     1
102
RTVSPost2010Prop36
280
     0
102
RTVSPost2010PropOp36
 70
     1
102
RTVSPost2010Prop37
 90
       50
102
RTVSPost2010PropOp37
 70
     1
102
RTVSPost2010Prop38
140
0.0
102
RTVSPost2010PropOp38
 70
     1
102
RTVSPost2010Prop39
140
1.0
102
RTVSPost2010PropOp39
 70
     1
102
RTVSPost2010Prop40
 90
        0
102
RTVSPost2010PropOp40
 70
     1
102
RTVSPost2010Prop41ColorIndex
 90
       18
102
RTVSPost2010Prop41ColorRGB
 90
        0
102
RTVSPost2010PropOp41
 70
     1
102
RTVSPost2010Prop42
 90
       50
102
RTVSPost2010PropOp42
 70
     1
102
RTVSPost2010Prop43
 90
        3
102
RTVSPost2010PropOp43
 70
     1
102
RTVSPost2010Prop44ColorIndex
 90
        5
102
RTVSPost2010Prop44ColorRGB
 90
      255
102
RTVSPost2010PropOp44
 70
     1
102
RTVSPost2010Prop45
280
     0
102
RTVSPost2010PropOp45
 70
     1
102
RTVSPost2010Prop46
 90
       50
102
RTVSPost2010PropOp46
 70
     1
102
RTVSPost2010Prop47
 90
       50
102
RTVSPost2010PropOp47
 70
     1
102
RTVSPost2010Prop48
 90
       50
102
RTVSPost2010PropOp48
 70
     1
102
RTVSPost2010Prop49
280
     0
102
RTVSPost2010PropOp49
 70
     1
102
RTVSPost2010Prop50
 90
       50
102
RTVSPost2010PropOp50
 70
     1
102
RTVSPost2010Prop51ColorIndex
 90
      256
102
RTVSPost2010Prop51ColorRGB
 90
-16777216
102
RTVSPost2010PropOp51
 70
     0
102
RTVSPost2010Prop52
140
1.0
102
RTVSPost2010PropOp52
 70
     0
102
RTVSPost2010Prop53
 90
        2
102
RTVSPost2010PropOp53
 70
     1
102
RTVSPost2010Prop54
  1
strokes_ogs.tif
102
RTVSPost2010PropOp54
 70
     1
102
RTVSPost2010Prop55
280
     0
102
RTVSPost2010PropOp55
 70
     1
102
RTVSPost2010Prop56
140
1.0
102
RTVSPost2010PropOp56
 70
     1
102
RTVSPost2010Prop57
140
1.0
102
RTVSPost2010PropOp57
 70
     1
102
RTVSPropertyOp0
 70
     1
102
RTVSPropertyOp1
 70
     1
102
RTVSPropertyOp2
 70
     1
102
RTVSPropertyOp3
 70
     1
102
RTVSPropertyOp4
 70
     1
102
RTVSPropertyOp5
 70
     1
102
RTVSPropertyOp6
 70
     1
102
RTVSPropertyOp7
 70
     1
102
RTVSPropertyOp8
 70
     1
102
RTVSPropertyOp9
 70
     1
102
RTVSPropertyOp10
 70
     1
102
RTVSPropertyOp11
 70
     1
102
RTVSPropertyOp12
 70
     1
102
RTVSPropertyOp13
 70
     1
102
RTVSPropertyOp14
 70
     1
102
RTVSPropertyOp15
 70
     1
102
RTVSPropertyOp16
 70
     1
102
RTVSPropertyOp17
 70
     1
102
RTVSPropertyOp18
 70
     1
102
RTVSPropertyOp19
 70
     1
102
RTVSPropertyOp20
 70
     1
102
RTVSPropertyOp21
 70
     1
102
RTVSPropertyOp22
 70
     1
102
RTVSPropertyOp23
 70
     1
102
RTVSPropertyOp24
 70
     1
102
RTVSPropertyOp25
 70
     1
102
RTVSPropertyOp26
 70
     1
102
RTVSPropertyOp27
 70
     1
102
RTVSPropertyOp28
 70
     1
102
RTVSPropertyOp29
 70
     1
102
RTVSPropertyOp30
 70
     1
102
RTVSPropertyOp31
 70
     1
102
RTVSPropertyOp32
 70
     1
102
RTVSPropertyOp33
 70
     1
102
RTVSPropertyOp34
 70
     1
102
RTVSPropertyOp35
 70
     1
102
RTVSPropertyOp36
 70
     1
102
RTVSPropertyOp37
 70
     1
102
RTVSPropertyOp38
 70
     1
102
RTVSPropertyOp39
 70
     1
102
RTVSPropertyOp40
 70
     1
102
RTVSPropertyOp41
 70
     1
102
RTVSPropertyOp42
 70
     1
102
RTVSPropertyOp43
 70
     1
102
RTVSPropertyOp44
 70
     1
102
RTVSPropertyOp45
 70
     1
102
RTVSPropertyOp46
 70
     1
102
RTVSPropertyOp47
 70
     1
102
RTVSPropertyOp48
 70
     1
102
RTVSPropertyOp49
 70
     1
102
RTVSPropertyOp50
 70
     1
102
RTVSPropertyOp51
 70
     0
102
RTVSPropertyOp52
 70
     0
102
RTVSPropertyOp53
 70
     1
102
RTVSPropertyOp54
 70
     1
102
RTVSPropertyOp55
 70
     1
102
RTVSPropertyOp56
 70
     1
102
RTVSPropertyOp57
 70
     1
102
RTVSPropertyOp58
 70
     1
102
RTVSPropertyOp59
 70
     1
102
RTVSPropertyOp60
 70
     1
102
RTVSPropertyOp61
 70
     1
102
RTVSPropertyOp62
 70
     1
  0
XRECORD
  5
737
102
{ACAD_REACTORS
330
736
102
}
330
736
100
AcDbXrecord
280
     1
102
RTVSPost2010Prop28
280
     0
102
RTVSPost2010PropOp28
 70
     1
102
RTVSPost2010Prop29
280
     1
102
RTVSPost2010PropOp29
 70
     1
102
RTVSPost2010Prop30
280
     1
102
RTVSPost2010PropOp30
 70
     1
102
RTVSPost2010Prop31
280
     0
102
RTVSPost2010PropOp31
 70
     1
102
RTVSPost2010Prop32
280
     0
102
RTVSPost2010PropOp32
 70
     1
102
RTVSPost2010Prop33
280
     0
102
RTVSPost2010PropOp33
 70
     1
102
RTVSPost2010Prop34
280
     0
102
RTVSPost2010PropOp34
 70
     1
102
RTVSPost2010Prop35
280
     0
102
RTVSPost2010PropOp35
 70
     1
102
RTVSPost2010Prop36
280
     0
102
RTVSPost2010PropOp36
 70
     1
102
RTVSPost2010Prop37
 90
       50
102
RTVSPost2010PropOp37
 70
     1
102
RTVSPost2010Prop38
140
0.0
102
RTVSPost2010PropOp38
 70
     1
102
RTVSPost2010Prop39
140
1.0
102
RTVSPost2010PropOp39
 70
     1
102
RTVSPost2010Prop40
 90
        0
102
RTVSPost2010PropOp40
 70
     1
102
RTVSPost2010Prop41ColorIndex
 90
       18
102
RTVSPost2010Prop41ColorRGB
 90
        0
102
RTVSPost2010PropOp41
 70
     1
102
RTVSPost2010Prop42
 90
       50
102
RTVSPost2010PropOp42
 70
     1
102
RTVSPost2010Prop43
 90
        3
102
RTVSPost2010PropOp43
 70
     1
102
RTVSPost2010Prop44ColorIndex
 90
        5
102
RTVSPost2010Prop44ColorRGB
 90
      255
102
RTVSPost2010PropOp44
 70
     1
102
RTVSPost2010Prop45
280
     0
102
RTVSPost2010PropOp45
 70
     1
102
RTVSPost2010Prop46
 90
       50
102
RTVSPost2010PropOp46
 70
     1
102
RTVSPost2010Prop47
 90
       50
102
RTVSPost2010PropOp47
 70
     1
102
RTVSPost2010Prop48
 90
       50
102
RTVSPost2010PropOp48
 70
     1
102
RTVSPost2010Prop49
280
     0
102
RTVSPost2010PropOp49
 70
     1
102
RTVSPost2010Prop50
 90
       50
102
RTVSPost2010PropOp50
 70
     1
102
RTVSPost2010Prop51ColorIndex
 90
      256
102
RTVSPost2010Prop51ColorRGB
 90
-16777216
102
RTVSPost2010PropOp51
 70
     0
102
RTVSPost2010Prop52
140
1.0
102
RTVSPost2010PropOp52
 70
     0
102
RTVSPost2010Prop53
 90
        2
102
RTVSPost2010PropOp53
 70
     1
102
RTVSPost2010Prop54
  1
strokes_ogs.tif
102
RTVSPost2010PropOp54
 70
     1
102
RTVSPost2010Prop55
280
     0
102
RTVSPost2010PropOp55
 70
     1
102
RTVSPost2010Prop56
140
1.0
102
RTVSPost2010PropOp56
 70
     1
102
RTVSPost2010Prop57
140
1.0
102
RTVSPost2010PropOp57
 70
     1
102
RTVSPropertyOp0
 70
     1
102
RTVSPropertyOp1
 70
     1
102
RTVSPropertyOp2
 70
     1
102
RTVSPropertyOp3
 70
     1
102
RTVSPropertyOp4
 70
     1
102
RTVSPropertyOp5
 70
     1
102
RTVSPropertyOp6
 70
     1
102
RTVSPropertyOp7
 70
     1
102
RTVSPropertyOp8
 70
     1
102
RTVSPropertyOp9
 70
     1
102
RTVSPropertyOp10
 70
     1
102
RTVSPropertyOp11
 70
     1
102
RTVSPropertyOp12
 70
     1
102
RTVSPropertyOp13
 70
     1
102
RTVSPropertyOp14
 70
     1
102
RTVSPropertyOp15
 70
     1
102
RTVSPropertyOp16
 70
     1
102
RTVSPropertyOp17
 70
     1
102
RTVSPropertyOp18
 70
     1
102
RTVSPropertyOp19
 70
     1
102
RTVSPropertyOp20
 70
     1
102
RTVSPropertyOp21
 70
     1
102
RTVSPropertyOp22
 70
     1
102
RTVSPropertyOp23
 70
     1
102
RTVSPropertyOp24
 70
     1
102
RTVSPropertyOp25
 70
     1
102
RTVSPropertyOp26
 70
     1
102
RTVSPropertyOp27
 70
     1
102
RTVSPropertyOp28
 70
     1
102
RTVSPropertyOp29
 70
     1
102
RTVSPropertyOp30
 70
     1
102
RTVSPropertyOp31
 70
     1
102
RTVSPropertyOp32
 70
     1
102
RTVSPropertyOp33
 70
     1
102
RTVSPropertyOp34
 70
     1
102
RTVSPropertyOp35
 70
     1
102
RTVSPropertyOp36
 70
     1
102
RTVSPropertyOp37
 70
     1
102
RTVSPropertyOp38
 70
     1
102
RTVSPropertyOp39
 70
     1
102
RTVSPropertyOp40
 70
     1
102
RTVSPropertyOp41
 70
     1
102
RTVSPropertyOp42
 70
     1
102
RTVSPropertyOp43
 70
     1
102
RTVSPropertyOp44
 70
     1
102
RTVSPropertyOp45
 70
     1
102
RTVSPropertyOp46
 70
     1
102
RTVSPropertyOp47
 70
     1
102
RTVSPropertyOp48
 70
     1
102
RTVSPropertyOp49
 70
     1
102
RTVSPropertyOp50
 70
     1
102
RTVSPropertyOp51
 70
     0
102
RTVSPropertyOp52
 70
     0
102
RTVSPropertyOp53
 70
     1
102
RTVSPropertyOp54
 70
     1
102
RTVSPropertyOp55
 70
     1
102
RTVSPropertyOp56
 70
     1
102
RTVSPropertyOp57
 70
     1
102
RTVSPropertyOp58
 70
     1
102
RTVSPropertyOp59
 70
     1
102
RTVSPropertyOp60
 70
     1
102
RTVSPropertyOp61
 70
     1
102
RTVSPropertyOp62
 70
     1
  0
XRECORD
  5
73F
102
{ACAD_REACTORS
330
73E
102
}
330
73E
100
AcDbXrecord
280
     1
102
RTVSPost2010Prop28
280
     0
102
RTVSPost2010PropOp28
 70
     1
102
RTVSPost2010Prop29
280
     1
102
RTVSPost2010PropOp29
 70
     1
102
RTVSPost2010Prop30
280
     1
102
RTVSPost2010PropOp30
 70
     1
102
RTVSPost2010Prop31
280
     0
102
RTVSPost2010PropOp31
 70
     1
102
RTVSPost2010Prop32
280
     0
102
RTVSPost2010PropOp32
 70
     1
102
RTVSPost2010Prop33
280
     0
102
RTVSPost2010PropOp33
 70
     1
102
RTVSPost2010Prop34
280
     0
102
RTVSPost2010PropOp34
 70
     1
102
RTVSPost2010Prop35
280
     0
102
RTVSPost2010PropOp35
 70
     1
102
RTVSPost2010Prop36
280
     0
102
RTVSPost2010PropOp36
 70
     1
102
RTVSPost2010Prop37
 90
       50
102
RTVSPost2010PropOp37
 70
     1
102
RTVSPost2010Prop38
140
0.0
102
RTVSPost2010PropOp38
 70
     1
102
RTVSPost2010Prop39
140
1.0
102
RTVSPost2010PropOp39
 70
     1
102
RTVSPost2010Prop40
 90
        0
102
RTVSPost2010PropOp40
 70
     1
102
RTVSPost2010Prop41ColorIndex
 90
       18
102
RTVSPost2010Prop41ColorRGB
 90
        0
102
RTVSPost2010PropOp41
 70
     1
102
RTVSPost2010Prop42
 90
       50
102
RTVSPost2010PropOp42
 70
     1
102
RTVSPost2010Prop43
 90
        3
102
RTVSPost2010PropOp43
 70
     1
102
RTVSPost2010Prop44ColorIndex
 90
        5
102
RTVSPost2010Prop44ColorRGB
 90
      255
102
RTVSPost2010PropOp44
 70
     1
102
RTVSPost2010Prop45
280
     0
102
RTVSPost2010PropOp45
 70
     1
102
RTVSPost2010Prop46
 90
       50
102
RTVSPost2010PropOp46
 70
     1
102
RTVSPost2010Prop47
 90
       50
102
RTVSPost2010PropOp47
 70
     1
102
RTVSPost2010Prop48
 90
       50
102
RTVSPost2010PropOp48
 70
     1
102
RTVSPost2010Prop49
280
     0
102
RTVSPost2010PropOp49
 70
     1
102
RTVSPost2010Prop50
 90
       50
102
RTVSPost2010PropOp50
 70
     1
102
RTVSPost2010Prop51ColorIndex
 90
      256
102
RTVSPost2010Prop51ColorRGB
 90
-16777216
102
RTVSPost2010PropOp51
 70
     0
102
RTVSPost2010Prop52
140
1.0
102
RTVSPost2010PropOp52
 70
     0
102
RTVSPost2010Prop53
 90
        2
102
RTVSPost2010PropOp53
 70
     1
102
RTVSPost2010Prop54
  1
strokes_ogs.tif
102
RTVSPost2010PropOp54
 70
     1
102
RTVSPost2010Prop55
280
     0
102
RTVSPost2010PropOp55
 70
     1
102
RTVSPost2010Prop56
140
1.0
102
RTVSPost2010PropOp56
 70
     1
102
RTVSPost2010Prop57
140
1.0
102
RTVSPost2010PropOp57
 70
     1
102
RTVSPropertyOp0
 70
     1
102
RTVSPropertyOp1
 70
     1
102
RTVSPropertyOp2
 70
     1
102
RTVSPropertyOp3
 70
     1
102
RTVSPropertyOp4
 70
     1
102
RTVSPropertyOp5
 70
     1
102
RTVSPropertyOp6
 70
     1
102
RTVSPropertyOp7
 70
     1
102
RTVSPropertyOp8
 70
     1
102
RTVSPropertyOp9
 70
     1
102
RTVSPropertyOp10
 70
     1
102
RTVSPropertyOp11
 70
     1
102
RTVSPropertyOp12
 70
     1
102
RTVSPropertyOp13
 70
     1
102
RTVSPropertyOp14
 70
     1
102
RTVSPropertyOp15
 70
     1
102
RTVSPropertyOp16
 70
     1
102
RTVSPropertyOp17
 70
     1
102
RTVSPropertyOp18
 70
     1
102
RTVSPropertyOp19
 70
     1
102
RTVSPropertyOp20
 70
     1
102
RTVSPropertyOp21
 70
     1
102
RTVSPropertyOp22
 70
     1
102
RTVSPropertyOp23
 70
     1
102
RTVSPropertyOp24
 70
     1
102
RTVSPropertyOp25
 70
     1
102
RTVSPropertyOp26
 70
     1
102
RTVSPropertyOp27
 70
     1
102
RTVSPropertyOp28
 70
     1
102
RTVSPropertyOp29
 70
     1
102
RTVSPropertyOp30
 70
     1
102
RTVSPropertyOp31
 70
     1
102
RTVSPropertyOp32
 70
     1
102
RTVSPropertyOp33
 70
     1
102
RTVSPropertyOp34
 70
     1
102
RTVSPropertyOp35
 70
     1
102
RTVSPropertyOp36
 70
     1
102
RTVSPropertyOp37
 70
     1
102
RTVSPropertyOp38
 70
     1
102
RTVSPropertyOp39
 70
     1
102
RTVSPropertyOp40
 70
     1
102
RTVSPropertyOp41
 70
     1
102
RTVSPropertyOp42
 70
     1
102
RTVSPropertyOp43
 70
     1
102
RTVSPropertyOp44
 70
     1
102
RTVSPropertyOp45
 70
     1
102
RTVSPropertyOp46
 70
     1
102
RTVSPropertyOp47
 70
     1
102
RTVSPropertyOp48
 70
     1
102
RTVSPropertyOp49
 70
     1
102
RTVSPropertyOp50
 70
     1
102
RTVSPropertyOp51
 70
     0
102
RTVSPropertyOp52
 70
     0
102
RTVSPropertyOp53
 70
     1
102
RTVSPropertyOp54
 70
     1
102
RTVSPropertyOp55
 70
     1
102
RTVSPropertyOp56
 70
     1
102
RTVSPropertyOp57
 70
     1
102
RTVSPropertyOp58
 70
     1
102
RTVSPropertyOp59
 70
     1
102
RTVSPropertyOp60
 70
     1
102
RTVSPropertyOp61
 70
     1
102
RTVSPropertyOp62
 70
     1
  0
ENDSEC
  0
EOF
