  0
SECTION
  2
HEADER
  9
$ACADVER
  1
AC1024
  9
$ACADMAINTVER
 70
   226
  9
$DWGCODEPAGE
  3
ANSI_932
  9
$LASTSAVEDBY
  1
0533013
  9
$INSBASE
 10
0.0
 20
0.0
 30
0.0
  9
$EXTMIN
 10
0.0
 20
-0.0000000000000142
 30
0.0
  9
$EXTMAX
 10
566.7260129999999
 20
403.00001
 30
0.0
  9
$LIMMIN
 10
0.0
 20
0.0
  9
$LIMMAX
 10
420.0
 20
297.0
  9
$ORTHOMODE
 70
     1
  9
$REGENMODE
 70
     1
  9
$FILLMODE
 70
     1
  9
$QTEXTMODE
 70
     0
  9
$MIRRTEXT
 70
     0
  9
$LTSCALE
 40
1.0
  9
$ATTMODE
 70
     1
  9
$TEXTSIZE
 40
3.0
  9
$TRACEWID
 40
1.0
  9
$TEXTSTYLE
  7
STANDARD
  9
$CLAYER
  8
0
  9
$CELTYPE
  6
BYLAYER
  9
$CECOLOR
 62
   256
  9
$CELTSCALE
 40
1.0
  9
$DISPSILH
 70
     1
  9
$DIMSCALE
 40
1.0
  9
$DIMASZ
 40
1.5
  9
$DIMEXO
 40
2.0
  9
$DIMDLI
 40
10.0
  9
$DIMRND
 40
0.0
  9
$DIMDLE
 40
0.0
  9
$DIMEXE
 40
2.0
  9
$DIMTP
 40
0.0
  9
$DIMTM
 40
0.0
  9
$DIMTXT
 40
3.0
  9
$DIMCEN
 40
0.0
  9
$DIMTSZ
 40
0.0
  9
$DIMTOL
 70
     0
  9
$DIMLIM
 70
     0
  9
$DIMTIH
 70
     0
  9
$DIMTOH
 70
     0
  9
$DIMSE1
 70
     0
  9
$DIMSE2
 70
     0
  9
$DIMTAD
 70
     0
  9
$DIMZIN
 70
    12
  9
$DIMBLK
  1

  9
$DIMASO
 70
     1
  9
$DIMSHO
 70
     1
  9
$DIMPOST
  1

  9
$DIMAPOST
  1

  9
$DIMALT
 70
     0
  9
$DIMALTD
 70
     2
  9
$DIMALTF
 40
0.0394
  9
$DIMLFAC
 40
1.0
  9
$DIMTOFL
 70
     1
  9
$DIMTVP
 40
1.0
  9
$DIMTIX
 70
     0
  9
$DIMSOXD
 70
     0
  9
$DIMSAH
 70
     1
  9
$DIMBLK1
  1
DOT1
  9
$DIMBLK2
  1
DOT1
  9
$DIMSTYLE
  2
YKK_OSADOT
  9
$DIMCLRD
 70
     0
  9
$DIMCLRE
 70
     0
  9
$DIMCLRT
 70
     0
  9
$DIMTFAC
 40
1.0
  9
$DIMGAP
 40
0.01
  9
$DIMJUST
 70
     0
  9
$DIMSD1
 70
     0
  9
$DIMSD2
 70
     0
  9
$DIMTOLJ
 70
     1
  9
$DIMTZIN
 70
    12
  9
$DIMALTZ
 70
    12
  9
$DIMALTTZ
 70
    12
  9
$DIMUPT
 70
     0
  9
$DIMDEC
 70
     4
  9
$DIMTDEC
 70
     4
  9
$DIMALTU
 70
     2
  9
$DIMALTTD
 70
     2
  9
$DIMTXSTY
  7
STANDARD
  9
$DIMAUNIT
 70
     0
  9
$DIMADEC
 70
     0
  9
$DIMALTRND
 40
0.0
  9
$DIMAZIN
 70
     0
  9
$DIMDSEP
 70
    46
  9
$DIMATFIT
 70
     3
  9
$DIMFRAC
 70
     0
  9
$DIMLDRBLK
  1

  9
$DIMLUNIT
 70
     2
  9
$DIMLWD
 70
    -2
  9
$DIMLWE
 70
    -2
  9
$DIMTMOVE
 70
     2
  9
$DIMFXL
 40
1.0
  9
$DIMFXLON
 70
     0
  9
$DIMJOGANG
 40
0.7853981633974483
  9
$DIMTFILL
 70
     0
  9
$DIMTFILLCLR
 70
     0
  9
$DIMARCSYM
 70
     0
  9
$DIMLTYPE
  6

  9
$DIMLTEX1
  6

  9
$DIMLTEX2
  6

  9
$DIMTXTDIRECTION
 70
     0
  9
$LUNITS
 70
     2
  9
$LUPREC
 70
     4
  9
$SKETCHINC
 40
1.0
  9
$FILLETRAD
 40
0.0
  9
$AUNITS
 70
     0
  9
$AUPREC
 70
     0
  9
$MENU
  1
.
  9
$ELEVATION
 40
0.0
  9
$PELEVATION
 40
0.0
  9
$THICKNESS
 40
0.0
  9
$LIMCHECK
 70
     0
  9
$CHAMFERA
 40
0.0
  9
$CHAMFERB
 40
0.0
  9
$CHAMFERC
 40
0.0
  9
$CHAMFERD
 40
0.0
  9
$SKPOLY
 70
     0
  9
$TDCREATE
 40
2452591.511585648
  9
$TDUCREATE
 40
2452591.136585648
  9
$TDUPDATE
 40
2460438.684907408
  9
$TDUUPDATE
 40
2460438.309907408
  9
$TDINDWG
 40
0.0045296181
  9
$TDUSRTIMER
 40
0.0045296181
  9
$USRTIMER
 70
     1
  9
$ANGBASE
 50
0.0
  9
$ANGDIR
 70
     0
  9
$PDMODE
 70
     0
  9
$PDSIZE
 40
0.0
  9
$PLINEWID
 40
0.0
  9
$SPLFRAME
 70
     0
  9
$SPLINETYPE
 70
     6
  9
$SPLINESEGS
 70
     8
  9
$HANDSEED
  5
763
  9
$SURFTAB1
 70
     6
  9
$SURFTAB2
 70
     6
  9
$SURFTYPE
 70
     6
  9
$SURFU
 70
     6
  9
$SURFV
 70
     6
  9
$UCSBASE
  2

  9
$UCSNAME
  2

  9
$UCSORG
 10
0.0
 20
0.0
 30
0.0
  9
$UCSXDIR
 10
1.0
 20
0.0
 30
0.0
  9
$UCSYDIR
 10
0.0
 20
1.0
 30
0.0
  9
$UCSORTHOREF
  2

  9
$UCSORTHOVIEW
 70
     0
  9
$UCSORGTOP
 10
0.0
 20
0.0
 30
0.0
  9
$UCSORGBOTTOM
 10
0.0
 20
0.0
 30
0.0
  9
$UCSORGLEFT
 10
0.0
 20
0.0
 30
0.0
  9
$UCSORGRIGHT
 10
0.0
 20
0.0
 30
0.0
  9
$UCSORGFRONT
 10
0.0
 20
0.0
 30
0.0
  9
$UCSORGBACK
 10
0.0
 20
0.0
 30
0.0
  9
$PUCSBASE
  2

  9
$PUCSNAME
  2

  9
$PUCSORG
 10
0.0
 20
0.0
 30
0.0
  9
$PUCSXDIR
 10
1.0
 20
0.0
 30
0.0
  9
$PUCSYDIR
 10
0.0
 20
1.0
 30
0.0
  9
$PUCSORTHOREF
  2

  9
$PUCSORTHOVIEW
 70
     0
  9
$PUCSORGTOP
 10
0.0
 20
0.0
 30
0.0
  9
$PUCSORGBOTTOM
 10
0.0
 20
0.0
 30
0.0
  9
$PUCSORGLEFT
 10
0.0
 20
0.0
 30
0.0
  9
$PUCSORGRIGHT
 10
0.0
 20
0.0
 30
0.0
  9
$PUCSORGFRONT
 10
0.0
 20
0.0
 30
0.0
  9
$PUCSORGBACK
 10
0.0
 20
0.0
 30
0.0
  9
$USERI1
 70
     0
  9
$USERI2
 70
     0
  9
$USERI3
 70
     0
  9
$USERI4
 70
     0
  9
$USERI5
 70
     0
  9
$USERR1
 40
0.0
  9
$USERR2
 40
0.0
  9
$USERR3
 40
0.0
  9
$USERR4
 40
0.0
  9
$USERR5
 40
0.0
  9
$WORLDVIEW
 70
     1
  9
$SHADEDGE
 70
     3
  9
$SHADEDIF
 70
    70
  9
$TILEMODE
 70
     1
  9
$MAXACTVP
 70
    48
  9
$PINSBASE
 10
0.0
 20
0.0
 30
0.0
  9
$PLIMCHECK
 70
     0
  9
$PEXTMIN
 10
1.000000000000000E+20
 20
1.000000000000000E+20
 30
1.000000000000000E+20
  9
$PEXTMAX
 10
-1.000000000000000E+20
 20
-1.000000000000000E+20
 30
-1.000000000000000E+20
  9
$PLIMMIN
 10
0.0
 20
0.0
  9
$PLIMMAX
 10
420.0
 20
297.0
  9
$UNITMODE
 70
     0
  9
$VISRETAIN
 70
     1
  9
$PLINEGEN
 70
     0
  9
$PSLTSCALE
 70
     1
  9
$TREEDEPTH
 70
  3020
  9
$CMLSTYLE
  2
STANDARD
  9
$CMLJUST
 70
     0
  9
$CMLSCALE
 40
1.0
  9
$PROXYGRAPHICS
 70
     1
  9
$MEASUREMENT
 70
     1
  9
$CELWEIGHT
370
    -1
  9
$ENDCAPS
280
     0
  9
$JOINSTYLE
280
     0
  9
$LWDISPLAY
290
     0
  9
$INSUNITS
 70
     0
  9
$HYPERLINKBASE
  1

  9
$STYLESHEET
  1

  9
$XEDIT
290
     1
  9
$CEPSNTYPE
380
     0
  9
$PSTYLEMODE
290
     1
  9
$FINGERPRINTGUID
  2
{A53100CB-EA5A-45F7-9BC9-CCF82D5D120D}
  9
$VERSIONGUID
  2
{14A73ECB-49C2-8041-AF34-E5C38D6B2806}
  9
$EXTNAMES
290
     1
  9
$PSVPSCALE
 40
0.0
  9
$OLESTARTUP
290
     0
  9
$SORTENTS
280
   127
  9
$INDEXCTL
280
     0
  9
$HIDETEXT
280
     0
  9
$XCLIPFRAME
280
     2
  9
$HALOGAP
280
     0
  9
$OBSCOLOR
 70
   257
  9
$OBSLTYPE
280
     0
  9
$INTERSECTIONDISPLAY
280
     0
  9
$INTERSECTIONCOLOR
 70
   257
  9
$DIMASSOC
280
     1
  9
$PROJECTNAME
  1

  9
$CAMERADISPLAY
290
     0
  9
$LENSLENGTH
 40
50.0
  9
$CAMERAHEIGHT
 40
0.0
  9
$STEPSPERSEC
 40
2.0
  9
$STEPSIZE
 40
6.0
  9
$3DDWFPREC
 40
2.0
  9
$PSOLWIDTH
 40
0.25
  9
$PSOLHEIGHT
 40
4.0
  9
$LOFTANG1
 40
1.570796326794896
  9
$LOFTANG2
 40
1.570796326794896
  9
$LOFTMAG1
 40
0.0
  9
$LOFTMAG2
 40
0.0
  9
$LOFTPARAM
 70
     7
  9
$LOFTNORMALS
280
     1
  9
$LATITUDE
 40
37.795
  9
$LONGITUDE
 40
-122.394
  9
$NORTHDIRECTION
 40
0.0
  9
$TIMEZONE
 70
 -8000
  9
$LIGHTGLYPHDISPLAY
280
     1
  9
$TILEMODELIGHTSYNCH
280
     1
  9
$CMATERIAL
347
F1
  9
$SOLIDHIST
280
     0
  9
$SHOWHIST
280
     1
  9
$DWFFRAME
280
     2
  9
$DGNFRAME
280
     0
  9
$REALWORLDSCALE
290
     1
  9
$INTERFERECOLOR
 62
     1
  9
$INTERFEREOBJVS
345
113
  9
$INTERFEREVPVS
346
1C2
  9
$CSHADOW
280
     0
  9
$SHADOWPLANELOCATION
 40
0.0
  0
ENDSEC
  0
SECTION
  2
CLASSES
  0
CLASS
  1
DICTIONARYVAR
  2
AcDbDictionaryVar
  3
ObjectDBX Classes
 90
        0
 91
       12
280
     0
281
     0
  0
CLASS
  1
ACDBDICTIONARYWDFLT
  2
AcDbDictionaryWithDefault
  3
ObjectDBX Classes
 90
        0
 91
        1
280
     0
281
     0
  0
CLASS
  1
MATERIAL
  2
AcDbMaterial
  3
ObjectDBX Classes
 90
     1153
 91
        3
280
     0
281
     0
  0
CLASS
  1
VISUALSTYLE
  2
AcDbVisualStyle
  3
ObjectDBX Classes
 90
     4095
 91
       26
280
     0
281
     0
  0
CLASS
  1
TABLESTYLE
  2
AcDbTableStyle
  3
ObjectDBX Classes
 90
     4095
 91
        1
280
     0
281
     0
  0
CLASS
  1
SCALE
  2
AcDbScale
  3
ObjectDBX Classes
 90
     1153
 91
       33
280
     0
281
     0
  0
CLASS
  1
MLEADERSTYLE
  2
AcDbMLeaderStyle
  3
ACDB_MLEADERSTYLE_CLASS
 90
     4095
 91
        1
280
     0
281
     0
  0
CLASS
  1
CELLSTYLEMAP
  2
AcDbCellStyleMap
  3
ObjectDBX Classes
 90
     1152
 91
        1
280
     0
281
     0
  0
CLASS
  1
ACDBSECTIONVIEWSTYLE
  2
AcDbSectionViewStyle
  3
ObjectDBX Classes
 90
     1025
 91
        1
280
     0
281
     0
  0
CLASS
  1
ACDBDETAILVIEWSTYLE
  2
AcDbDetailViewStyle
  3
ObjectDBX Classes
 90
     1025
 91
        1
280
     0
281
     0
  0
CLASS
  1
RAPIDRTRENDERSETTINGS
  2
AcDbRapidRTRenderSettings
  3
ObjectDBX Classes
 90
     1024
 91
        7
280
     0
281
     0
  0
CLASS
  1
MENTALRAYRENDERSETTINGS
  2
AcDbMentalRayRenderSettings
  3
SCENEOE
 90
     1024
 91
        1
280
     0
281
     0
  0
CLASS
  1
SORTENTSTABLE
  2
AcDbSortentsTable
  3
ObjectDBX Classes
 90
        0
 91
        0
280
     0
281
     0
  0
ENDSEC
  0
SECTION
  2
TABLES
  0
TABLE
  2
VPORT
  5
12
102
{ACAD_XDICTIONARY
360
176
102
}
330
0
100
AcDbSymbolTable
 70
     1
  0
VPORT
  5
EC
330
12
100
AcDbSymbolTableRecord
100
AcDbViewportTableRecord
  2
*ACTIVE
 70
     0
 10
0.0
 20
0.0
 11
1.0
 21
1.0
 12
283.376553703673
 22
201.4964460140363
 13
0.0
 23
0.0
 14
10.0
 24
10.0
 15
10.0
 25
10.0
 16
0.0
 26
0.0
 36
1.0
 17
0.0
 27
0.0
 37
0.0
 40
406.7077174890086
 41
2.155725190839694
 42
50.0
 43
0.0
 44
0.0
 50
0.0
 51
0.0
 71
     0
 72
  1000
 73
     1
 74
     1
 75
     0
 76
     0
 77
     0
 78
     0
281
     0
 65
     1
110
0.0
120
0.0
130
0.0
111
1.0
121
0.0
131
0.0
112
0.0
122
1.0
132
0.0
 79
     0
146
0.0
348
10F
 60
     3
 61
     5
292
     1
282
     1
141
0.0
142
0.0
 63
   250
421
  3355443
1001
ACAD_NAV_VCDISPLAY
1070
     1
  0
ENDTAB
  0
TABLE
  2
LTYPE
  5
D
330
0
100
AcDbSymbolTable
 70
     2
  0
LTYPE
  5
E
330
D
100
AcDbSymbolTableRecord
100
AcDbLinetypeTableRecord
  2
BYBLOCK
 70
     0
  3

 72
    65
 73
     0
 40
0.0
  0
LTYPE
  5
F
330
D
100
AcDbSymbolTableRecord
100
AcDbLinetypeTableRecord
  2
BYLAYER
 70
     0
  3

 72
    65
 73
     0
 40
0.0
  0
LTYPE
  5
5
330
D
100
AcDbSymbolTableRecord
100
AcDbLinetypeTableRecord
  2
CONTINUOUS
 70
     0
  3
Solid line
 72
    65
 73
     0
 40
0.0
  0
LTYPE
  5
2D
330
D
100
AcDbSymbolTableRecord
100
AcDbLinetypeTableRecord
  2
HIDDEN
 70
     0
  3
__ __ __ __ __ __ __ __ __ __ __ __ __ __ __ __
 72
    65
 73
     2
 40
0.375
 49
0.25
 74
     0
 49
-0.125
 74
     0
  0
ENDTAB
  0
TABLE
  2
LAYER
  5
A
102
{ACAD_XDICTIONARY
360
23C
102
}
330
0
100
AcDbSymbolTable
 70
     6
  0
LAYER
  5
4
102
{ACAD_XDICTIONARY
360
1DB
102
}
330
A
100
AcDbSymbolTableRecord
100
AcDbLayerTableRecord
  2
0
 70
     0
 62
     7
  6
CONTINUOUS
370
    -3
390
EF
347
101
  0
LAYER
  5
24
102
{ACAD_XDICTIONARY
360
1DD
102
}
330
A
100
AcDbSymbolTableRecord
100
AcDbLayerTableRecord
  2
YKK_ZWAK
 70
     0
 62
     7
  6
CONTINUOUS
370
    -3
390
EF
347
101
  0
LAYER
  5
E0
102
{ACAD_XDICTIONARY
360
1DF
102
}
330
A
100
AcDbSymbolTableRecord
100
AcDbLayerTableRecord
  2
USER1
 70
     0
 62
     3
  6
CONTINUOUS
370
    -3
390
EF
347
101
  0
LAYER
  5
22E
330
A
100
AcDbSymbolTableRecord
100
AcDbLayerTableRecord
  2
YKK_11
 70
     0
 62
     7
  6
CONTINUOUS
370
    30
390
EF
347
101
1001
AcAecLayerStandard
1000

1000
形材
  0
LAYER
  5
22F
330
A
100
AcDbSymbolTableRecord
100
AcDbLayerTableRecord
  2
YKK_12
 70
     0
 62
     2
  6
CONTINUOUS
370
    13
390
EF
347
101
1001
AcAecLayerStandard
1000

1000
見えがかり線
  0
LAYER
  5
230
330
A
100
AcDbSymbolTableRecord
100
AcDbLayerTableRecord
  2
YKK_D
 70
     0
 62
     6
  6
CONTINUOUS
370
    13
390
EF
347
101
1001
AcAecLayerStandard
1000

1000
寸法線・寸法数字
  0
ENDTAB
  0
TABLE
  2
STYLE
  5
B
330
0
100
AcDbSymbolTable
 70
     3
  0
STYLE
  5
C
330
B
100
AcDbSymbolTableRecord
100
AcDbTextStyleTableRecord
  2
STANDARD
 70
     0
 40
0.0
 41
1.0
 50
0.0
 71
     0
 42
3.0
  3
ROMANS.SHX
  4
EXTFONT.SHX
  0
STYLE
  5
33
330
B
100
AcDbSymbolTableRecord
100
AcDbTextStyleTableRecord
  2
YKK_OSSTYLE1
 70
     0
 40
0.0
 41
0.9
 50
0.0
 71
     0
 42
4.0
  3
romans.shx
  4
EXTFONT.SHX
  0
STYLE
  5
231
330
B
100
AcDbSymbolTableRecord
100
AcDbTextStyleTableRecord
  2
text-b
 70
     0
 40
0.0
 41
1.0
 50
0.0
 71
     0
 42
9.0
  3

  4

1001
ACAD
1000
MS PGothic
1071
    32818
  0
ENDTAB
  0
TABLE
  2
VIEW
  5
10
330
0
100
AcDbSymbolTable
 70
     0
  0
ENDTAB
  0
TABLE
  2
UCS
  5
11
330
0
100
AcDbSymbolTable
 70
     0
  0
ENDTAB
  0
TABLE
  2
APPID
  5
14
330
0
100
AcDbSymbolTable
 70
    10
  0
APPID
  5
15
330
14
100
AcDbSymbolTableRecord
100
AcDbRegAppTableRecord
  2
ACAD
 70
     0
  0
APPID
  5
14B
330
14
100
AcDbSymbolTableRecord
100
AcDbRegAppTableRecord
  2
YKK_AP_LOCKLAYER
 70
     0
  0
APPID
  5
1B0
330
14
100
AcDbSymbolTableRecord
100
AcDbRegAppTableRecord
  2
ACAD_MLEADERVER
 70
     0
  0
APPID
  5
1D1
330
14
100
AcDbSymbolTableRecord
100
AcDbRegAppTableRecord
  2
ACAD_PSEXT
 70
     0
  0
APPID
  5
1D2
330
14
100
AcDbSymbolTableRecord
100
AcDbRegAppTableRecord
  2
ACAD_NAV_VCDISPLAY
 70
     0
  0
APPID
  5
238
330
14
100
AcDbSymbolTableRecord
100
AcDbRegAppTableRecord
  2
AcAecLayerStandard
 70
     0
  0
APPID
  5
239
330
14
100
AcDbSymbolTableRecord
100
AcDbRegAppTableRecord
  2
ACAD_DSTYLE_DIMJOGGED_JOGANGLE_SYMBOL
 70
     0
  0
APPID
  5
23A
330
14
100
AcDbSymbolTableRecord
100
AcDbRegAppTableRecord
  2
ACAD_DSTYLE_DIMJAG
 70
     0
  0
APPID
  5
23B
330
14
100
AcDbSymbolTableRecord
100
AcDbRegAppTableRecord
  2
ACAD_DSTYLE_DIMTALN
 70
     0
  0
APPID
  5
5B2
330
14
100
AcDbSymbolTableRecord
100
AcDbRegAppTableRecord
  2
ACAD_EXEMPT_FROM_CAD_STANDARDS
 70
     0
  0
ENDTAB
  0
TABLE
  2
DIMSTYLE
  5
16
330
0
100
AcDbSymbolTable
 70
     1
100
AcDbDimStyleTable
 71
     1
340
1C
  0
DIMSTYLE
105
1C
330
16
100
AcDbSymbolTableRecord
100
AcDbDimStyleTableRecord
  2
YKK_OSADOT
 70
     0
 41
1.5
 42
2.0
 43
10.0
 44
2.0
 73
     0
 74
     0
 78
    12
140
3.0
141
0.0
143
0.0394
145
1.0
147
0.01
172
     1
173
     1
279
     2
284
    12
285
    12
286
    12
340
C
341
1D
343
1D
344
1D
  0
ENDTAB
  0
TABLE
  2
BLOCK_RECORD
  5
1
330
0
100
AcDbSymbolTable
 70
     2
  0
BLOCK_RECORD
  5
2
102
{ACAD_XDICTIONARY
360
172
102
}
330
1
100
AcDbSymbolTableRecord
100
AcDbBlockTableRecord
  2
*MODEL_SPACE
340
146
 70
     0
280
     1
281
     0
  0
BLOCK_RECORD
  5
7
102
{ACAD_XDICTIONARY
360
174
102
}
330
1
100
AcDbSymbolTableRecord
100
AcDbBlockTableRecord
  2
*PAPER_SPACE
340
147
 70
     0
280
     1
281
     0
  0
BLOCK_RECORD
  5
1D
330
1
100
AcDbSymbolTableRecord
100
AcDbBlockTableRecord
  2
DOT1
340
0
 70
     0
280
     1
281
     0
  0
BLOCK_RECORD
  5
25
330
1
100
AcDbSymbolTableRecord
100
AcDbBlockTableRecord
  2
A201
340
0
102
{BLKREFS
331
23
102
}
 70
     0
280
     1
281
     0
  0
ENDTAB
  0
ENDSEC
  0
SECTION
  2
BLOCKS
  0
BLOCK
  5
3
330
2
100
AcDbEntity
  8
0
100
AcDbBlockBegin
  2
*MODEL_SPACE
 70
     0
 10
0.0
 20
0.0
 30
0.0
  3
*MODEL_SPACE
  1

  0
ENDBLK
  5
6
330
2
100
AcDbEntity
  8
0
100
AcDbBlockEnd
  0
BLOCK
  5
8
330
7
100
AcDbEntity
 67
     1
  8
0
100
AcDbBlockBegin
  2
*PAPER_SPACE
 70
     0
 10
0.0
 20
0.0
 30
0.0
  3
*PAPER_SPACE
  1

  0
ENDBLK
  5
9
330
7
100
AcDbEntity
 67
     1
  8
0
100
AcDbBlockEnd
  0
BLOCK
  5
21
330
1D
100
AcDbEntity
  8
0
100
AcDbBlockBegin
  2
DOT1
 70
     0
 10
0.0
 20
0.0
 30
0.0
  3
DOT1
  1

  0
CIRCLE
  5
1E
330
1D
100
AcDbEntity
  8
0
  6
ByBlock
 62
     0
370
    -2
100
AcDbCircle
 10
0.0
 20
0.0
 30
0.0
 40
0.5
  0
CIRCLE
  5
1F
330
1D
100
AcDbEntity
  8
0
  6
ByBlock
 62
     0
370
    -2
100
AcDbCircle
 10
0.0
 20
0.0
 30
0.0
 40
0.325
  0
LINE
  5
20
330
1D
100
AcDbEntity
  8
0
  6
ByBlock
 62
     0
370
    -2
100
AcDbLine
 10
0.0
 20
0.0
 30
0.0
 11
-1.0
 21
0.0
 31
0.0
  0
ENDBLK
  5
22
330
1D
100
AcDbEntity
  8
0
100
AcDbBlockEnd
  0
BLOCK
  5
DD
330
25
100
AcDbEntity
  8
0
100
AcDbBlockBegin
  2
A201
 70
     0
 10
0.0
 20
0.0
 30
0.0
  3
A201
  1

  0
LINE
  5
26
330
25
100
AcDbEntity
  8
YKK_ZWAK
  6
Continuous
 62
   254
100
AcDbLine
 10
21.000001
 20
8.999499999999999
 30
0.0
 11
544.0000129999999
 21
8.999499999999999
 31
0.0
  0
LINE
  5
27
330
25
100
AcDbEntity
  8
YKK_ZWAK
  6
Continuous
 62
   131
100
AcDbLine
 10
205.000005
 20
21.000001
 30
0.0
 11
297.000007
 21
21.000001
 31
0.0
  0
LINE
  5
28
330
25
100
AcDbEntity
  8
YKK_ZWAK
  6
Continuous
 62
   254
100
AcDbLine
 10
571.000014
 20
34.999501
 30
0.0
 11
21.000001
 21
34.999501
 31
0.0
  0
LINE
  5
29
330
25
100
AcDbEntity
  8
YKK_ZWAK
  6
Continuous
 62
   254
100
AcDbLine
 10
544.0000129999999
 20
33.999501
 30
0.0
 11
21.000001
 21
33.999501
 31
0.0
  0
LINE
  5
2A
330
25
100
AcDbEntity
  8
YKK_ZWAK
  6
Continuous
 62
   254
100
AcDbLine
 10
571.000014
 20
409.99951
 30
0.0
 11
21.000001
 21
409.99951
 31
0.0
  0
LINE
  5
2B
330
25
100
AcDbEntity
  8
YKK_ZWAK
  6
Continuous
 62
   254
100
AcDbLine
 10
21.000001
 20
34.999501
 30
0.0
 11
21.000001
 21
409.99951
 31
0.0
  0
LINE
  5
2C
330
25
100
AcDbEntity
  8
YKK_ZWAK
  6
HIDDEN
 62
   131
100
AcDbLine
 10
24.284751
 20
13.7865
 30
0.0
 11
201.565005
 21
13.7865
 31
0.0
  0
LINE
  5
2E
330
25
100
AcDbEntity
  8
YKK_ZWAK
  6
HIDDEN
 62
   131
100
AcDbLine
 10
24.284751
 20
18.7355
 30
0.0
 11
201.565005
 21
18.7355
 31
0.0
  0
LINE
  5
2F
330
25
100
AcDbEntity
  8
YKK_ZWAK
  6
HIDDEN
 62
   131
100
AcDbLine
 10
24.284751
 20
23.684501
 30
0.0
 11
201.565005
 21
23.684501
 31
0.0
  0
LINE
  5
30
330
25
100
AcDbEntity
  8
YKK_ZWAK
  6
HIDDEN
 62
   131
100
AcDbLine
 10
24.284751
 20
28.633501
 30
0.0
 11
201.565005
 21
28.633501
 31
0.0
  0
LINE
  5
31
330
25
100
AcDbEntity
  8
YKK_ZWAK
  6
Continuous
 62
   254
100
AcDbLine
 10
21.000001
 20
8.999499999999999
 30
0.0
 11
21.000001
 21
33.999501
 31
0.0
  0
TEXT
  5
32
330
25
100
AcDbEntity
  8
YKK_ZWAK
  6
Continuous
 62
   131
100
AcDbText
 10
24.367481
 20
29.394844
 30
0.0
 40
3.0
  1
変 更 記 事
 41
0.9
  7
YKK_OSSTYLE1
100
AcDbText
  0
TEXT
  5
34
330
25
100
AcDbEntity
  8
YKK_ZWAK
  6
Continuous
 62
   254
100
AcDbText
 10
289.94159
 20
12.3725
 30
0.0
 40
5.0
  1
殿
 41
0.9
  7
YKK_OSSTYLE1
100
AcDbText
  0
LINE
  5
35
330
25
100
AcDbEntity
  8
YKK_ZWAK
  6
Continuous
 62
   254
100
AcDbLine
 10
296.000007
 20
33.999501
 30
0.0
 11
296.000007
 21
8.999499999999997
 31
0.0
  0
LINE
  5
36
330
25
100
AcDbEntity
  8
YKK_ZWAK
  6
Continuous
 62
   254
100
AcDbLine
 10
205.000005
 20
33.999501
 30
0.0
 11
205.000005
 21
8.999499999999999
 31
0.0
  0
TEXT
  5
37
330
25
100
AcDbEntity
  8
YKK_ZWAK
  6
Continuous
 62
   131
100
AcDbText
 10
207.692335
 20
17.675001
 30
0.0
 40
3.0
  1
施　　工
 41
0.9
  7
YKK_OSSTYLE1
100
AcDbText
  0
TEXT
  5
38
330
25
100
AcDbEntity
  8
YKK_ZWAK
  6
Continuous
 62
   131
100
AcDbText
 10
207.692335
 20
30.047503
 30
0.0
 40
3.0
  1
設計監理
 41
0.9
  7
YKK_OSSTYLE1
100
AcDbText
  0
TEXT
  5
39
330
25
100
AcDbEntity
  8
YKK_ZWAK
  6
Continuous
 62
   254
100
AcDbText
 10
289.94159
 20
24.745001
 30
0.0
 40
5.0
  1
殿
 41
0.9
  7
YKK_OSSTYLE1
100
AcDbText
  0
LINE
  5
3A
330
25
100
AcDbEntity
  8
YKK_ZWAK
  6
Continuous
 62
   254
100
AcDbLine
 10
19.00000099999999
 20
222.4995055
 30
0.0
 11
21.000001
 21
222.4995055
 31
0.0
  0
LINE
  5
3B
330
25
100
AcDbEntity
  8
YKK_ZWAK
  6
Continuous
 62
     8
100
AcDbLine
 10
296.010007
 20
411.99951
 30
0.0
 11
296.010007
 21
409.99951
 31
0.0
  0
LINE
  5
3C
330
25
100
AcDbEntity
  8
YKK_ZWAK
  6
Continuous
 62
   254
100
AcDbLine
 10
571.000014
 20
409.99951
 30
0.0
 11
571.000014
 21
34.99950100000001
 31
0.0
  0
LINE
  5
3D
330
25
100
AcDbEntity
  8
YKK_ZWAK
  6
Continuous
 62
   254
100
AcDbLine
 10
452.000011
 20
15.9995
 30
0.0
 11
523.9997630000001
 21
15.9995
 31
0.0
  0
LINE
  5
3E
330
25
100
AcDbEntity
  8
YKK_ZWAK
  6
Continuous
 62
   131
100
AcDbLine
 10
437.703011
 20
29.000001
 30
0.0
 11
389.00001
 21
29.000001
 31
0.0
  0
LINE
  5
3F
330
25
100
AcDbEntity
  8
YKK_ZWAK
  6
Continuous
 62
   254
100
AcDbLine
 10
389.00001
 20
33.999501
 30
0.0
 11
389.00001
 21
8.999499999999999
 31
0.0
  0
LINE
  5
40
330
25
100
AcDbEntity
  8
YKK_ZWAK
  6
Continuous
 62
   131
100
AcDbLine
 10
297.000007
 20
21.000001
 30
0.0
 11
389.00001
 21
21.000001
 31
0.0
  0
TEXT
  5
41
330
25
100
AcDbEntity
  8
YKK_ZWAK
  6
Continuous
 62
   131
100
AcDbText
 10
298.5837840303703
 20
17.465002
 30
0.0
 40
3.0
  1
図面内容
 41
0.9
  7
YKK_OSSTYLE1
100
AcDbText
  0
TEXT
  5
42
330
25
100
AcDbEntity
  8
YKK_ZWAK
  6
Continuous
 62
   131
100
AcDbText
 10
298.86588
 20
30.047503
 30
0.0
 40
3.0
  1
工 事 名
 41
0.9
  7
YKK_OSSTYLE1
100
AcDbText
  0
TEXT
  5
43
330
25
100
AcDbEntity
  8
YKK_ZWAK
  6
Continuous
 62
   254
100
AcDbText
 10
377.1653017600134
 20
24.745001
 30
0.0
 40
5.0
  1
工事
 41
0.9
  7
YKK_OSSTYLE1
100
AcDbText
  0
LINE
  5
44
330
25
100
AcDbEntity
  8
YKK_ZWAK
  6
Continuous
 62
   254
100
AcDbLine
 10
452.000011
 20
33.999501
 30
0.0
 11
452.000011
 21
8.999499999999999
 31
0.0
  0
LINE
  5
45
330
25
100
AcDbEntity
  8
YKK_ZWAK
  6
Continuous
 62
   254
100
AcDbLine
 10
437.000011
 20
33.999501
 30
0.0
 11
437.000011
 21
8.999499999999999
 31
0.0
  0
LINE
  5
46
330
25
100
AcDbEntity
  8
YKK_ZWAK
  6
Continuous
 62
   131
100
AcDbLine
 10
443.0516029999999
 20
10.181617
 30
0.0
 11
449.8543709999999
 21
16.984384
 31
0.0
  0
LINE
  5
47
330
25
100
AcDbEntity
  8
YKK_ZWAK
  6
Continuous
 62
   131
100
AcDbLine
 10
421.00001
 20
33.999501
 30
0.0
 11
421.00001
 21
8.999499999999999
 31
0.0
  0
LINE
  5
48
330
25
100
AcDbEntity
  8
YKK_ZWAK
  6
Continuous
 62
   131
100
AcDbLine
 10
405.00001
 20
33.999501
 30
0.0
 11
405.00001
 21
8.999499999999999
 31
0.0
  0
TEXT
  5
49
330
25
100
AcDbEntity
  8
YKK_ZWAK
  6
Continuous
 62
   131
100
AcDbText
 10
392.1820935402985
 20
9.752325
 30
0.0
 40
3.5
  1
 ． ．
 41
0.9
  7
YKK_OSSTYLE1
100
AcDbText
  0
LINE
  5
4A
330
25
100
AcDbEntity
  8
YKK_ZWAK
  6
Continuous
 62
   131
100
AcDbLine
 10
455.5999986
 20
10.4995
 30
0.0
 11
455.5999986
 21
8.999499999999999
 31
0.0
  0
TEXT
  5
4B
330
25
100
AcDbEntity
  8
YKK_ZWAK
  6
Continuous
 62
   131
100
AcDbText
 10
407.8246491020917
 20
29.87075
 30
0.0
 40
3.0
  1
担  当
 41
0.9
  7
YKK_OSSTYLE1
100
AcDbText
  0
TEXT
  5
4C
330
25
100
AcDbEntity
  8
YKK_ZWAK
  6
Continuous
 62
   131
100
AcDbText
 10
392.5636631020918
 20
29.87075
 30
0.0
 40
3.0
  1
照  査
 41
0.9
  7
YKK_OSSTYLE1
100
AcDbText
  0
TEXT
  5
4D
330
25
100
AcDbEntity
  8
YKK_ZWAK
  6
Continuous
 62
   131
100
AcDbText
 10
424.0856971020916
 20
29.883751
 30
0.0
 40
3.0
  1
作  図
 41
0.9
  7
YKK_OSSTYLE1
100
AcDbText
  0
TEXT
  5
4E
330
25
100
AcDbEntity
  8
YKK_ZWAK
  6
Continuous
 62
   131
100
AcDbText
 10
453.905095
 20
30.047501
 30
0.0
 40
3.0
  1
御承認印
 41
0.9
  7
YKK_OSSTYLE1
100
AcDbText
  0
LINE
  5
4F
330
25
100
AcDbEntity
  8
YKK_ZWAK
  6
Continuous
 62
   131
100
AcDbLine
 10
437.703011
 20
29.000001
 30
0.0
 11
452.000011
 21
29.000001
 31
0.0
  0
LINE
  5
50
330
25
100
AcDbEntity
  8
YKK_ZWAK
  6
Continuous
 62
   131
100
AcDbLine
 10
439.264403
 20
21.330812
 30
0.0
 11
446.1882469999999
 21
28.254656
 31
0.0
  0
TEXT
  5
51
330
25
100
AcDbEntity
  8
YKK_ZWAK
  6
Continuous
 62
   131
100
AcDbText
 10
439.5087681020918
 20
30.044463
 30
0.0
 40
3.0
  1
尺  度
 41
0.9
  7
YKK_OSSTYLE1
100
AcDbText
  0
CIRCLE
  5
52
330
25
100
AcDbEntity
  8
YKK_ZWAK
  6
Continuous
 62
     8
100
AcDbCircle
 10
579.426014
 20
83.719502
 30
0.0
 40
6.299999999999999
  0
LINE
  5
53
330
25
100
AcDbEntity
  8
YKK_ZWAK
  6
Continuous
 62
     8
100
AcDbLine
 10
573.1260139999999
 20
69.579502
 30
0.0
 11
585.726014
 21
69.579502
 31
0.0
  0
LINE
  5
54
330
25
100
AcDbEntity
  8
YKK_ZWAK
  6
Continuous
 62
     8
100
AcDbLine
 10
573.1260139999999
 20
55.439501
 30
0.0
 11
585.726014
 21
55.439501
 31
0.0
  0
CIRCLE
  5
55
330
25
100
AcDbEntity
  8
YKK_ZWAK
  6
Continuous
 62
     8
100
AcDbCircle
 10
579.426014
 20
69.579502
 30
0.0
 40
6.299999999999999
  0
CIRCLE
  5
56
330
25
100
AcDbEntity
  8
YKK_ZWAK
  6
Continuous
 62
     8
100
AcDbCircle
 10
579.426014
 20
55.439501
 30
0.0
 40
6.299999999999999
  0
LINE
  5
57
330
25
100
AcDbEntity
  8
YKK_ZWAK
  6
Continuous
 62
     8
100
AcDbLine
 10
573.1260139999999
 20
41.29950099999999
 30
0.0
 11
585.726014
 21
41.29950099999999
 31
0.0
  0
CIRCLE
  5
58
330
25
100
AcDbEntity
  8
YKK_ZWAK
  6
Continuous
 62
     8
100
AcDbCircle
 10
579.426014
 20
41.29950099999999
 30
0.0
 40
6.299999999999999
  0
LINE
  5
59
330
25
100
AcDbEntity
  8
YKK_ZWAK
  6
Continuous
 62
   254
100
AcDbLine
 10
544.0000129999999
 20
33.999501
 30
0.0
 11
544.0000129999999
 21
8.999499999999999
 31
0.0
  0
LINE
  5
5A
330
25
100
AcDbEntity
  8
YKK_ZWAK
  6
Continuous
 62
   254
100
AcDbLine
 10
523.999763
 20
33.999501
 30
0.0
 11
523.999763
 21
8.999499999999999
 31
0.0
  0
ARC
  5
5B
330
25
100
AcDbEntity
  8
YKK_ZWAK
  6
Continuous
 62
   254
100
AcDbCircle
 10
567.2392351536805
 20
16.32442810738698
 30
0.0
 40
3.065267824757687
100
AcDbArc
 50
285.4429145291156
 51
349.9044812349492
  0
ARC
  5
5C
330
25
100
AcDbEntity
  8
YKK_ZWAK
  6
Continuous
 62
   254
100
AcDbCircle
 10
553.6063139979602
 20
13.7174867023487
 30
0.0
 40
7.916047100361496
100
AcDbArc
 50
168.763717703145
 51
199.8007915269944
  0
ARC
  5
5D
330
25
100
AcDbEntity
  8
YKK_ZWAK
  6
Continuous
 62
   254
100
AcDbCircle
 10
550.8444265658145
 20
13.7651723992934
 30
0.0
 40
1.69178303147034
100
AcDbArc
 50
171.0820302641982
 51
216.7192279251594
  0
LINE
  5
5E
330
25
100
AcDbEntity
  8
YKK_ZWAK
  6
Continuous
 62
   254
100
AcDbLine
 10
562.6109469999999
 20
9.566380999999999
 30
0.0
 11
562.6109469999999
 21
20.243049
 31
0.0
  0
LINE
  5
5F
330
25
100
AcDbEntity
  8
YKK_ZWAK
  6
Continuous
 62
   254
100
AcDbLine
 10
559.0198679999999
 20
23.216355
 30
0.0
 11
559.0198679999999
 21
9.566380999999999
 31
0.0
  0
LINE
  5
60
330
25
100
AcDbEntity
  8
YKK_ZWAK
  6
Continuous
 62
   254
100
AcDbLine
 10
557.5139329999999
 20
20.011363
 30
0.0
 11
557.5139329999999
 21
9.585665999999999
 31
0.0
  0
LINE
  5
61
330
25
100
AcDbEntity
  8
YKK_ZWAK
  6
Continuous
 62
   254
100
AcDbLine
 10
554.0193929999999
 20
12.520312
 30
0.0
 11
554.0193929999999
 21
19.470807
 31
0.0
  0
LINE
  5
62
330
25
100
AcDbEntity
  8
YKK_ZWAK
  6
Continuous
 62
   254
100
AcDbLine
 10
557.28225
 20
9.547052
 30
0.0
 11
549.4050419999999
 21
9.527722
 31
0.0
  0
LINE
  5
63
330
25
100
AcDbEntity
  8
YKK_ZWAK
  6
Continuous
 62
   254
100
AcDbLine
 10
550.0035499999999
 20
12.520312
 30
0.0
 11
554.0193929999999
 21
12.520312
 31
0.0
  0
ARC
  5
64
330
25
100
AcDbEntity
  8
YKK_ZWAK
  6
Continuous
 62
   254
100
AcDbCircle
 10
548.6000731256549
 20
12.25485188648019
 30
0.0
 40
2.730646981973357
100
AcDbArc
 50
207.3143541467658
 51
263.5946407473999
  0
ARC
  5
65
330
25
100
AcDbEntity
  8
YKK_ZWAK
  6
Continuous
 62
   254
100
AcDbCircle
 10
550.1786412619477
 20
13.59595698060723
 30
0.0
 40
1.089801345776779
100
AcDbArc
 50
230.9727955865877
 51
260.7549113263807
  0
LINE
  5
66
330
25
100
AcDbEntity
  8
YKK_ZWAK
  6
Continuous
 62
   254
100
AcDbLine
 10
549.4050419999999
 20
9.527722
 30
0.0
 11
548.3431689999999
 21
9.527722
 31
0.0
  0
LINE
  5
67
330
25
100
AcDbEntity
  8
YKK_ZWAK
  6
Continuous
 62
   254
100
AcDbLine
 10
557.5139329999999
 20
9.585665999999999
 30
0.0
 11
557.28225
 21
9.547052
 31
0.0
  0
LINE
  5
68
330
25
100
AcDbEntity
  8
YKK_ZWAK
  6
Continuous
 62
   254
100
AcDbLine
 10
553.7104699999999
 20
12.520312
 30
0.0
 11
553.9614709999999
 21
12.520312
 31
0.0
  0
LINE
  5
69
330
25
100
AcDbEntity
  8
YKK_ZWAK
  6
Continuous
 62
   254
100
AcDbLine
 10
554.0193929999999
 20
12.521084
 30
0.0
 11
554.0201639999999
 21
12.520312
 31
0.0
  0
LINE
  5
6A
330
25
100
AcDbEntity
  8
YKK_ZWAK
  6
Continuous
 62
   254
100
AcDbLine
 10
562.0510419999999
 20
9.566380999999999
 30
0.0
 11
562.6109469999999
 21
9.566380999999999
 31
0.0
  0
LINE
  5
6B
330
25
100
AcDbEntity
  8
YKK_ZWAK
  6
Continuous
 62
   254
100
AcDbLine
 10
559.0198679999999
 20
9.566380999999999
 30
0.0
 11
562.0510419999999
 21
9.566380999999999
 31
0.0
  0
TEXT
  5
6C
330
25
100
AcDbEntity
  8
YKK_ZWAK
  6
Continuous
 62
   131
100
AcDbText
 10
528.4269094036635
 20
29.81226201275971
 30
0.0
 40
3.2
  1
図　番
 41
0.9
  7
YKK_OSSTYLE1
100
AcDbText
  0
TEXT
  5
6D
330
25
100
AcDbEntity
  8
YKK_ZWAK
  6
Continuous
 62
   131
100
AcDbText
 10
526.6276740384662
 20
16.79627902551941
 30
0.0
 40
3.2
  1
通し図番
 41
0.9
  7
YKK_OSSTYLE1
100
AcDbText
  0
LINE
  5
6E
330
25
100
AcDbEntity
  8
YKK_ZWAK
  6
Continuous
 62
   131
100
AcDbLine
 10
523.9997630000001
 20
28.999501
 30
0.0
 11
544.0000129999999
 21
28.999501
 31
0.0
  0
LINE
  5
6F
330
25
100
AcDbEntity
  8
YKK_ZWAK
  6
Continuous
 62
   131
100
AcDbLine
 10
544.0000129999999
 20
16.0
 30
0.0
 11
523.9997630000001
 21
16.0
 31
0.0
  0
LINE
  5
70
330
25
100
AcDbEntity
  8
YKK_ZWAK
  6
Continuous
 62
   254
100
AcDbLine
 10
523.9997630000001
 20
21.000001
 30
0.0
 11
544.0000129999999
 21
21.000001
 31
0.0
  0
TEXT
  5
71
330
25
100
AcDbEntity
  8
YKK_ZWAK
  6
Continuous
 62
   131
100
AcDbText
 10
504.1259643919835
 20
16.73585251703119
 30
0.0
 40
2.828
  1
年   月   日
 41
0.9
  7
YKK_OSSTYLE1
100
AcDbText
  0
ARC
  5
72
330
25
100
AcDbEntity
  8
YKK_ZWAK
  6
Continuous
 62
   254
100
AcDbCircle
 10
550.8002393185706
 20
8.3895515770018
 30
0.0
 40
9.506414110787718
100
AcDbArc
 50
79.38097907997796
 51
112.0582515030204
  0
ARC
  5
73
330
25
100
AcDbEntity
  8
YKK_ZWAK
  6
Continuous
 62
   254
100
AcDbCircle
 10
552.0296015677746
 20
8.668708016133152
 30
0.0
 40
14.82019555938878
100
AcDbArc
 50
78.78009531612654
 51
91.46937906064641
  0
LINE
  5
74
330
25
100
AcDbEntity
  8
YKK_ZWAK
  6
Continuous
 62
   254
100
AcDbLine
 10
553.2471059999998
 20
20.281664
 30
0.0
 11
550.6058966847617
 21
20.23169161124275
 31
0.0
  0
LINE
  5
75
330
25
100
AcDbEntity
  8
YKK_ZWAK
  6
Continuous
 62
   254
100
AcDbLine
 10
553.054042
 20
15.04953
 30
0.0
 11
550.2008929999999
 21
15.046227
 31
0.0
  0
LINE
  5
76
330
25
100
AcDbEntity
  8
YKK_ZWAK
  6
Continuous
 62
   254
100
AcDbLine
 10
554.1872259999998
 20
33.42965
 30
0.0
 11
550.9495989999999
 21
27.69553
 31
0.0
  0
LINE
  5
77
330
25
100
AcDbEntity
  8
YKK_ZWAK
  6
Continuous
 62
   254
100
AcDbLine
 10
551.5971799999999
 20
33.42965
 30
0.0
 11
554.1872259999998
 21
33.42965
 31
0.0
  0
LINE
  5
78
330
25
100
AcDbEntity
  8
YKK_ZWAK
  6
Continuous
 62
   254
100
AcDbLine
 10
548.5941539999999
 20
27.714815
 30
0.0
 11
545.3119789999999
 21
33.352466
 31
0.0
  0
ARC
  5
79
330
25
100
AcDbEntity
  8
YKK_ZWAK
  6
Continuous
 62
   254
100
AcDbCircle
 10
549.6852048288542
 20
20.30975154102348
 30
0.0
 40
3.598113650678814
100
AcDbArc
 50
158.4108324489273
 51
179.7177524498318
  0
ARC
  5
7A
330
25
100
AcDbEntity
  8
YKK_ZWAK
  6
Continuous
 62
   254
100
AcDbCircle
 10
548.5905474303057
 20
14.76560332702041
 30
0.0
 40
2.791490107652263
100
AcDbArc
 50
121.8271136512718
 51
169.0847490152637
  0
LINE
  5
7B
330
25
100
AcDbEntity
  8
YKK_ZWAK
  6
Continuous
 62
   254
100
AcDbLine
 10
549.4050419999999
 20
18.949491
 30
0.0
 11
546.0842659999999
 21
18.949491
 31
0.0
  0
LINE
  5
7C
330
25
100
AcDbEntity
  8
YKK_ZWAK
  6
Continuous
 62
   254
100
AcDbLine
 10
546.0842659999999
 20
18.949491
 30
0.0
 11
546.0842659999999
 21
20.32747631349972
 31
0.0
  0
ARC
  5
7D
330
25
100
AcDbEntity
  8
YKK_ZWAK
  6
Continuous
 62
   254
100
AcDbCircle
 10
550.2070083511939
 20
14.01426078251461
 30
0.0
 40
1.031984336873053
100
AcDbArc
 50
90.33952633950665
 51
178.0363902011776
  0
ARC
  5
7E
330
25
100
AcDbEntity
  8
YKK_ZWAK
  6
Continuous
 62
   254
100
AcDbCircle
 10
550.9109867235568
 20
18.99454401077761
 30
0.0
 40
1.5066184932453
100
AcDbArc
 50
138.4638179599282
 51
181.7135938864666
  0
ARC
  5
7F
330
25
100
AcDbEntity
  8
YKK_ZWAK
  6
Continuous
 62
   254
100
AcDbCircle
 10
550.5106879341921
 20
19.02046022591355
 30
0.0
 40
1.214967561291876
100
AcDbArc
 50
85.50551117325571
 51
126.7803821238645
  0
ARC
  5
80
330
25
100
AcDbEntity
  8
YKK_ZWAK
  6
Continuous
 62
   254
100
AcDbCircle
 10
548.0046195354389
 20
21.10278180976751
 30
0.0
 40
1.745462511199758
100
AcDbArc
 50
109.0212664518441
 51
161.5126404033768
  0
ARC
  5
81
330
25
100
AcDbEntity
  8
YKK_ZWAK
  6
Continuous
 62
   254
100
AcDbCircle
 10
551.6587209545631
 20
10.8558820916358
 30
0.0
 40
12.62863449008531
100
AcDbArc
 50
89.89164772910811
 51
109.3084827099211
  0
LINE
  5
82
330
25
100
AcDbEntity
  8
YKK_ZWAK
  6
Continuous
 62
   254
100
AcDbLine
 10
548.5941539999999
 20
24.529198
 30
0.0
 11
548.5941539999999
 21
27.714815
 31
0.0
  0
LINE
  5
83
330
25
100
AcDbEntity
  8
YKK_ZWAK
  6
Continuous
 62
   254
100
AcDbLine
 10
550.9495989999999
 20
24.529198
 30
0.0
 11
548.5941539999999
 21
24.529198
 31
0.0
  0
LINE
  5
84
330
25
100
AcDbEntity
  8
YKK_ZWAK
  6
Continuous
 62
   254
100
AcDbLine
 10
550.9495989999999
 20
27.69553
 30
0.0
 11
550.9495989999999
 21
24.529198
 31
0.0
  0
LINE
  5
85
330
25
100
AcDbEntity
  8
YKK_ZWAK
  6
Continuous
 62
   254
100
AcDbLine
 10
545.3119789999999
 20
33.352466
 30
0.0
 11
547.8218839999999
 21
33.352466
 31
0.0
  0
LINE
  5
86
330
25
100
AcDbEntity
  8
YKK_ZWAK
  6
Continuous
 62
   254
100
AcDbLine
 10
551.5971799999999
 20
33.42965
 30
0.0
 11
549.7718669999999
 21
29.877219
 31
0.0
  0
LINE
  5
87
330
25
100
AcDbEntity
  8
YKK_ZWAK
  6
Continuous
 62
   254
100
AcDbLine
 10
549.617423
 20
29.993062
 30
0.0
 11
549.7718669999999
 21
29.877219
 31
0.0
  0
LINE
  5
88
330
25
100
AcDbEntity
  8
YKK_ZWAK
  6
Continuous
 62
   254
100
AcDbLine
 10
547.8218839999999
 20
33.352466
 30
0.0
 11
549.617423
 21
29.993062
 31
0.0
  0
ARC
  5
89
330
25
100
AcDbEntity
  8
YKK_ZWAK
  6
Continuous
 62
   254
100
AcDbCircle
 10
568.2860491667818
 20
28.29398616982592
 30
0.0
 40
1.544618833868573
100
AcDbArc
 50
0.001662921437357
 51
89.99603715015133
  0
ARC
  5
8A
330
25
100
AcDbEntity
  8
YKK_ZWAK
  6
Continuous
 62
   254
100
AcDbCircle
 10
559.9851491667818
 20
28.23604216982592
 30
0.0
 40
1.544618833868573
100
AcDbArc
 50
0.001662921437357
 51
89.99603715015133
  0
LINE
  5
8B
330
25
100
AcDbEntity
  8
YKK_ZWAK
  6
Continuous
 62
   254
100
AcDbLine
 10
562.5530279999999
 20
24.625712
 30
0.0
 11
562.5530279999999
 21
33.487594
 31
0.0
  0
LINE
  5
8C
330
25
100
AcDbEntity
  8
YKK_ZWAK
  6
Continuous
 62
   254
100
AcDbLine
 10
554.3282969999999
 20
24.548527
 30
0.0
 11
554.3282969999999
 21
33.410366
 31
0.0
  0
LINE
  5
8D
330
25
100
AcDbEntity
  8
YKK_ZWAK
  6
Continuous
 62
   254
100
AcDbLine
 10
564.985674
 20
24.625712
 30
0.0
 11
562.5530279999999
 21
24.625712
 31
0.0
  0
LINE
  5
8E
330
25
100
AcDbEntity
  8
YKK_ZWAK
  6
Continuous
 62
   254
100
AcDbLine
 10
567.3024909999999
 20
23.216355
 30
0.0
 11
559.0198679999999
 21
23.216355
 31
0.0
  0
LINE
  5
8F
330
25
100
AcDbEntity
  8
YKK_ZWAK
  6
Continuous
 62
   254
100
AcDbLine
 10
563.4797589999999
 20
13.196086
 30
0.0
 11
567.2832059999999
 21
13.196086
 31
0.0
  0
LINE
  5
90
330
25
100
AcDbEntity
  8
YKK_ZWAK
  6
Continuous
 62
   254
100
AcDbLine
 10
566.0089319999999
 20
16.150017
 30
0.0
 11
563.4797589999999
 21
16.150017
 31
0.0
  0
LINE
  5
91
330
25
100
AcDbEntity
  8
YKK_ZWAK
  6
Continuous
 62
   254
100
AcDbLine
 10
562.6109469999999
 20
20.243049
 30
0.0
 11
565.9317039999999
 21
20.243049
 31
0.0
  0
ARC
  5
92
330
25
100
AcDbEntity
  8
YKK_ZWAK
  6
Continuous
 62
   254
100
AcDbCircle
 10
554.2206599964917
 20
20.08146332105004
 30
0.0
 40
3.294016994121146
100
AcDbArc
 50
358.7805904544152
 51
38.76562607988702
  0
ARC
  5
93
330
25
100
AcDbEntity
  8
YKK_ZWAK
  6
Continuous
 62
   254
100
AcDbCircle
 10
552.8971761676833
 20
19.17519964411758
 30
0.0
 40
1.16048018439929
100
AcDbArc
 50
14.75519950164858
 51
72.44994796057074
  0
LINE
  5
94
330
25
100
AcDbEntity
  8
YKK_ZWAK
  6
Continuous
 62
   254
100
AcDbLine
 10
553.054042
 20
17.617318
 30
0.0
 11
553.054042
 21
15.04953
 31
0.0
  0
LINE
  5
95
330
25
100
AcDbEntity
  8
YKK_ZWAK
  6
Continuous
 62
   254
100
AcDbLine
 10
552.552059
 20
17.733161
 30
0.0
 11
553.054042
 21
17.617318
 31
0.0
  0
LINE
  5
96
330
25
100
AcDbEntity
  8
YKK_ZWAK
  6
Continuous
 62
   254
100
AcDbLine
 10
563.4797589999999
 20
16.150017
 30
0.0
 11
563.4797589999999
 21
13.196086
 31
0.0
  0
LINE
  5
97
330
25
100
AcDbEntity
  8
YKK_ZWAK
  6
Continuous
 62
   254
100
AcDbLine
 10
558.981248
 20
27.869273
 30
0.0
 11
556.7030429999999
 21
27.869273
 31
0.0
  0
ARC
  5
98
330
25
100
AcDbEntity
  8
YKK_ZWAK
  6
Continuous
 62
   254
100
AcDbCircle
 10
554.3787962609778
 20
20.07343795583284
 30
0.0
 40
3.177485297559325
100
AcDbArc
 50
40.66422291488031
 51
80.31693568605595
  0
LINE
  5
99
330
25
100
AcDbEntity
  8
YKK_ZWAK
  6
Continuous
 62
   254
100
AcDbLine
 10
556.7030429999999
 20
24.548527
 30
0.0
 11
554.3282969999999
 21
24.548527
 31
0.0
  0
LINE
  5
9A
330
25
100
AcDbEntity
  8
YKK_ZWAK
  6
Continuous
 62
   254
100
AcDbLine
 10
556.7030429999999
 20
27.869273
 30
0.0
 11
556.7030429999999
 21
24.548527
 31
0.0
  0
LINE
  5
9B
330
25
100
AcDbEntity
  8
YKK_ZWAK
  6
Continuous
 62
   254
100
AcDbLine
 10
561.5297559999999
 20
28.236131
 30
0.0
 11
561.5297559999999
 21
24.606427
 31
0.0
  0
LINE
  5
9C
330
25
100
AcDbEntity
  8
YKK_ZWAK
  6
Continuous
 62
   254
100
AcDbLine
 10
559.2901709999999
 20
27.75343
 30
0.0
 11
558.981248
 21
27.869273
 31
0.0
  0
LINE
  5
9D
330
25
100
AcDbEntity
  8
YKK_ZWAK
  6
Continuous
 62
   254
100
AcDbLine
 10
559.2901709999999
 20
24.606427
 30
0.0
 11
559.2901709999999
 21
27.75343
 31
0.0
  0
LINE
  5
9E
330
25
100
AcDbEntity
  8
YKK_ZWAK
  6
Continuous
 62
   254
100
AcDbLine
 10
561.5297559999999
 20
24.606427
 30
0.0
 11
559.2901709999999
 21
24.606427
 31
0.0
  0
ARC
  5
9F
330
25
100
AcDbEntity
  8
YKK_ZWAK
  6
Continuous
 62
   254
100
AcDbCircle
 10
567.1941213188231
 20
20.11358836318034
 30
0.0
 40
3.10079004118515
100
AcDbArc
 50
14.44572328130266
 51
87.08746338393854
  0
ARC
  5
A0
330
25
100
AcDbEntity
  8
YKK_ZWAK
  6
Continuous
 62
   254
100
AcDbCircle
 10
564.3641396550266
 20
17.54165325375583
 30
0.0
 40
2.640498151312115
100
AcDbArc
 50
343.6902032742302
 51
354.7536235027147
  0
ARC
  5
A1
330
25
100
AcDbEntity
  8
YKK_ZWAK
  6
Continuous
 62
   254
100
AcDbCircle
 10
566.0096697130795
 20
17.08269286327273
 30
0.0
 40
0.9326761550249523
100
AcDbArc
 50
269.9546811075475
 51
342.9014484926477
  0
ARC
  5
A2
330
25
100
AcDbEntity
  8
YKK_ZWAK
  6
Continuous
 62
   254
100
AcDbCircle
 10
566.0462388650091
 20
19.37159519913123
 30
0.0
 40
0.8777839045469994
100
AcDbArc
 50
16.43123456657639
 51
96.91661395567537
  0
ARC
  5
A3
330
25
100
AcDbEntity
  8
YKK_ZWAK
  6
Continuous
 62
   254
100
AcDbCircle
 10
564.3794516729927
 20
18.85119467669262
 30
0.0
 40
2.623848066620805
100
AcDbArc
 50
4.934227406569218
 51
17.0355196304784
  0
LINE
  5
A4
330
25
100
AcDbEntity
  8
YKK_ZWAK
  6
Continuous
 62
   254
100
AcDbLine
 10
567.2832059999999
 20
13.196086
 30
0.0
 11
568.0554489999999
 21
13.369828
 31
0.0
  0
LINE
  5
A5
330
25
100
AcDbEntity
  8
YKK_ZWAK
  6
Continuous
 62
   254
100
AcDbLine
 10
566.9808719999999
 20
19.173458
 30
0.0
 11
566.9935759999999
 21
17.29190621930723
 31
0.0
  0
ARC
  5
A6
330
25
100
AcDbEntity
  8
YKK_ZWAK
  6
Continuous
 62
   254
100
AcDbCircle
 10
555.5469745161181
 20
18.15146784902332
 30
0.0
 40
14.90004285451682
100
AcDbArc
 50
350.9902681741729
 51
10.67624520888363
  0
LINE
  5
A7
330
25
100
AcDbEntity
  8
YKK_ZWAK
  6
Continuous
 62
   254
100
AcDbLine
 10
569.8317089999999
 20
24.645041
 30
0.0
 11
567.5727909999999
 21
24.645041
 31
0.0
  0
LINE
  5
A8
330
25
100
AcDbEntity
  8
YKK_ZWAK
  6
Continuous
 62
   254
100
AcDbLine
 10
567.5727909999999
 20
27.77275900000001
 30
0.0
 11
567.2638769999998
 21
27.888602
 31
0.0
  0
LINE
  5
A9
330
25
100
AcDbEntity
  8
YKK_ZWAK
  6
Continuous
 62
   254
100
AcDbLine
 10
567.2638769999998
 20
27.888602
 30
0.0
 11
564.985674
 21
27.888602
 31
0.0
  0
LINE
  5
AA
330
25
100
AcDbEntity
  8
YKK_ZWAK
  6
Continuous
 62
   254
100
AcDbLine
 10
564.985674
 20
27.888602
 30
0.0
 11
564.985674
 21
24.625712
 31
0.0
  0
LINE
  5
AB
330
25
100
AcDbEntity
  8
YKK_ZWAK
  6
Continuous
 62
   254
100
AcDbLine
 10
567.5727909999999
 20
24.645041
 30
0.0
 11
567.5727909999999
 21
27.77275900000001
 31
0.0
  0
LINE
  5
AC
330
25
100
AcDbEntity
  8
YKK_ZWAK
  6
Continuous
 62
   254
100
AcDbLine
 10
567.5727909999999
 20
24.681182
 30
0.0
 11
567.6089329999999
 21
24.645041
 31
0.0
  0
LINE
  5
AD
330
25
100
AcDbEntity
  8
YKK_ZWAK
  6
Continuous
 62
   254
100
AcDbLine
 10
569.8317089999999
 20
28.236131
 30
0.0
 11
569.8317089999999
 21
24.645041
 31
0.0
  0
LINE
  5
AE
330
25
100
AcDbEntity
  8
YKK_ZWAK
  6
Continuous
 62
   254
100
AcDbLine
 10
562.5530279999999
 20
33.487594
 30
0.0
 11
564.8891159999999
 21
33.487594
 31
0.0
  0
LINE
  5
AF
330
25
100
AcDbEntity
  8
YKK_ZWAK
  6
Continuous
 62
   254
100
AcDbLine
 10
556.6258229999999
 20
29.768591
 30
0.0
 11
559.03917
 21
33.44898
 31
0.0
  0
LINE
  5
B0
330
25
100
AcDbEntity
  8
YKK_ZWAK
  6
Continuous
 62
   254
100
AcDbLine
 10
556.6258229999999
 20
33.410366
 30
0.0
 11
556.6258229999999
 21
29.768591
 31
0.0
  0
LINE
  5
B1
330
25
100
AcDbEntity
  8
YKK_ZWAK
  6
Continuous
 62
   254
100
AcDbLine
 10
554.3282969999999
 20
33.410366
 30
0.0
 11
556.6258229999999
 21
33.410366
 31
0.0
  0
LINE
  5
B2
330
25
100
AcDbEntity
  8
YKK_ZWAK
  6
Continuous
 62
   254
100
AcDbLine
 10
559.9852559999999
 20
29.780661
 30
0.0
 11
559.242942
 21
29.780661
 31
0.0
  0
LINE
  5
B3
330
25
100
AcDbEntity
  8
YKK_ZWAK
  6
Continuous
 62
   254
100
AcDbLine
 10
561.7713629999999
 20
33.44898
 30
0.0
 11
559.242942
 21
29.780661
 31
0.0
  0
LINE
  5
B4
330
25
100
AcDbEntity
  8
YKK_ZWAK
  6
Continuous
 62
   254
100
AcDbLine
 10
559.03917
 20
33.44898
 30
0.0
 11
561.7713629999999
 21
33.44898
 31
0.0
  0
LINE
  5
B5
330
25
100
AcDbEntity
  8
YKK_ZWAK
  6
Continuous
 62
   254
100
AcDbLine
 10
569.773765
 20
33.024222
 30
0.0
 11
567.5438419999998
 21
29.838605
 31
0.0
  0
LINE
  5
B6
330
25
100
AcDbEntity
  8
YKK_ZWAK
  6
Continuous
 62
   254
100
AcDbLine
 10
567.3411049999999
 20
33.487594
 30
0.0
 11
570.044065
 21
33.487594
 31
0.0
  0
LINE
  5
B7
330
25
100
AcDbEntity
  8
YKK_ZWAK
  6
Continuous
 62
   254
100
AcDbLine
 10
568.2861559999999
 20
29.838605
 30
0.0
 11
567.5438419999998
 21
29.838605
 31
0.0
  0
LINE
  5
B8
330
25
100
AcDbEntity
  8
YKK_ZWAK
  6
Continuous
 62
   254
100
AcDbLine
 10
564.8891159999999
 20
29.779236
 30
0.0
 11
567.3411049999999
 21
33.487594
 31
0.0
  0
LINE
  5
B9
330
25
100
AcDbEntity
  8
YKK_ZWAK
  6
Continuous
 62
   254
100
AcDbLine
 10
564.8891159999999
 20
33.487594
 30
0.0
 11
564.8891159999999
 21
29.779236
 31
0.0
  0
LINE
  5
BA
330
25
100
AcDbEntity
  8
YKK_ZWAK
  6
Continuous
 62
   254
100
AcDbLine
 10
570.044065
 20
33.487594
 30
0.0
 11
569.773765
 21
33.024222
 31
0.0
  0
LINE
  5
BB
330
25
100
AcDbEntity
  8
YKK_ZWAK
  6
Continuous
 62
     8
100
AcDbLine
 10
573.1260139999999
 20
168.559504
 30
0.0
 11
585.726014
 21
168.559504
 31
0.0
  0
LINE
  5
BC
330
25
100
AcDbEntity
  8
YKK_ZWAK
  6
Continuous
 62
     8
100
AcDbLine
 10
573.1260139999999
 20
154.419504
 30
0.0
 11
585.726014
 21
154.419504
 31
0.0
  0
LINE
  5
BD
330
25
100
AcDbEntity
  8
YKK_ZWAK
  6
Continuous
 62
     8
100
AcDbLine
 10
573.1260139999999
 20
140.279503
 30
0.0
 11
585.726014
 21
140.279503
 31
0.0
  0
LINE
  5
BE
330
25
100
AcDbEntity
  8
YKK_ZWAK
  6
Continuous
 62
     8
100
AcDbLine
 10
573.1260139999999
 20
126.139503
 30
0.0
 11
585.726014
 21
126.139503
 31
0.0
  0
LINE
  5
BF
330
25
100
AcDbEntity
  8
YKK_ZWAK
  6
Continuous
 62
     8
100
AcDbLine
 10
573.1260139999999
 20
111.999503
 30
0.0
 11
585.726014
 21
111.999503
 31
0.0
  0
LINE
  5
C0
330
25
100
AcDbEntity
  8
YKK_ZWAK
  6
Continuous
 62
     8
100
AcDbLine
 10
573.1260139999999
 20
97.85950200000002
 30
0.0
 11
585.726014
 21
97.85950200000002
 31
0.0
  0
LINE
  5
C1
330
25
100
AcDbEntity
  8
YKK_ZWAK
  6
Continuous
 62
     8
100
AcDbLine
 10
573.1260139999999
 20
83.719502
 30
0.0
 11
585.726014
 21
83.719502
 31
0.0
  0
CIRCLE
  5
C2
330
25
100
AcDbEntity
  8
YKK_ZWAK
  6
Continuous
 62
     8
100
AcDbCircle
 10
579.426014
 20
168.559504
 30
0.0
 40
6.299999999999999
  0
CIRCLE
  5
C3
330
25
100
AcDbEntity
  8
YKK_ZWAK
  6
Continuous
 62
     8
100
AcDbCircle
 10
579.426014
 20
140.279503
 30
0.0
 40
6.299999999999999
  0
CIRCLE
  5
C4
330
25
100
AcDbEntity
  8
YKK_ZWAK
  6
Continuous
 62
     8
100
AcDbCircle
 10
579.426014
 20
111.999503
 30
0.0
 40
6.299999999999999
  0
CIRCLE
  5
C5
330
25
100
AcDbEntity
  8
YKK_ZWAK
  6
Continuous
 62
     8
100
AcDbCircle
 10
579.426014
 20
154.419504
 30
0.0
 40
6.299999999999999
  0
CIRCLE
  5
C6
330
25
100
AcDbEntity
  8
YKK_ZWAK
  6
Continuous
 62
     8
100
AcDbCircle
 10
579.426014
 20
126.139503
 30
0.0
 40
6.299999999999999
  0
CIRCLE
  5
C7
330
25
100
AcDbEntity
  8
YKK_ZWAK
  6
Continuous
 62
     8
100
AcDbCircle
 10
579.426014
 20
97.85950200000002
 30
0.0
 40
6.299999999999999
  0
LINE
  5
C8
330
25
100
AcDbEntity
  8
YKK_ZWAK
  6
Continuous
 62
   254
100
AcDbLine
 10
571.000014
 20
222.4995055
 30
0.0
 11
573.0000139999999
 21
222.4995055
 31
0.0
  0
TEXT
  5
C9
330
25
100
AcDbEntity
  8
YKK_ZWAK
  6
Continuous
 62
   131
100
AcDbText
 10
408.1820935402984
 20
9.752325
 30
0.0
 40
3.5
  1
 ． ．
 41
0.9
  7
YKK_OSSTYLE1
100
AcDbText
  0
TEXT
  5
CA
330
25
100
AcDbEntity
  8
YKK_ZWAK
  6
Continuous
 62
   131
100
AcDbText
 10
424.1820935402984
 20
9.752325
 30
0.0
 40
3.5
  1
 ． ．
 41
0.9
  7
YKK_OSSTYLE1
100
AcDbText
  0
LINE
  5
CB
330
25
100
AcDbEntity
  8
YKK_ZWAK
  6
Continuous
 62
   131
100
AcDbLine
 10
459.1999862
 20
10.4995
 30
0.0
 11
459.1999862
 21
8.999499999999999
 31
0.0
  0
LINE
  5
CC
330
25
100
AcDbEntity
  8
YKK_ZWAK
  6
Continuous
 62
   131
100
AcDbLine
 10
462.7999738
 20
10.4995
 30
0.0
 11
462.7999738
 21
8.999499999999999
 31
0.0
  0
LINE
  5
CD
330
25
100
AcDbEntity
  8
YKK_ZWAK
  6
Continuous
 62
   131
100
AcDbLine
 10
466.3999614
 20
10.4995
 30
0.0
 11
466.3999614
 21
8.999499999999999
 31
0.0
  0
LINE
  5
CE
330
25
100
AcDbEntity
  8
YKK_ZWAK
  6
Continuous
 62
   131
100
AcDbLine
 10
469.999949
 20
10.4995
 30
0.0
 11
469.999949
 21
8.999499999999999
 31
0.0
  0
LINE
  5
CF
330
25
100
AcDbEntity
  8
YKK_ZWAK
  6
Continuous
 62
   131
100
AcDbLine
 10
473.5999366
 20
10.4995
 30
0.0
 11
473.5999366
 21
8.999499999999999
 31
0.0
  0
LINE
  5
D0
330
25
100
AcDbEntity
  8
YKK_ZWAK
  6
Continuous
 62
   131
100
AcDbLine
 10
477.1999242
 20
10.4995
 30
0.0
 11
477.1999242
 21
8.999499999999999
 31
0.0
  0
LINE
  5
D1
330
25
100
AcDbEntity
  8
YKK_ZWAK
  6
Continuous
 62
   131
100
AcDbLine
 10
480.7999118
 20
10.4995
 30
0.0
 11
480.7999118
 21
8.999499999999999
 31
0.0
  0
LINE
  5
D2
330
25
100
AcDbEntity
  8
YKK_ZWAK
  6
Continuous
 62
   131
100
AcDbLine
 10
484.3998994000001
 20
10.4995
 30
0.0
 11
484.3998994000001
 21
8.999499999999999
 31
0.0
  0
LINE
  5
D3
330
25
100
AcDbEntity
  8
YKK_ZWAK
  6
Continuous
 62
   131
100
AcDbLine
 10
487.999887
 20
10.4995
 30
0.0
 11
487.999887
 21
8.999499999999999
 31
0.0
  0
LINE
  5
D4
330
25
100
AcDbEntity
  8
YKK_ZWAK
  6
Continuous
 62
   131
100
AcDbLine
 10
491.5998746
 20
10.4995
 30
0.0
 11
491.5998746
 21
8.999499999999999
 31
0.0
  0
LINE
  5
D5
330
25
100
AcDbEntity
  8
YKK_ZWAK
  6
Continuous
 62
   131
100
AcDbLine
 10
495.1998622000001
 20
10.4995
 30
0.0
 11
495.1998622000001
 21
8.999499999999999
 31
0.0
  0
LINE
  5
D6
330
25
100
AcDbEntity
  8
YKK_ZWAK
  6
Continuous
 62
   131
100
AcDbLine
 10
498.7998498000001
 20
10.4995
 30
0.0
 11
498.7998498000001
 21
8.999499999999999
 31
0.0
  0
LINE
  5
D7
330
25
100
AcDbEntity
  8
YKK_ZWAK
  6
Continuous
 62
   131
100
AcDbLine
 10
502.3998374000001
 20
10.4995
 30
0.0
 11
502.3998374000001
 21
8.999499999999999
 31
0.0
  0
LINE
  5
D8
330
25
100
AcDbEntity
  8
YKK_ZWAK
  6
Continuous
 62
   131
100
AcDbLine
 10
505.9998250000001
 20
10.4995
 30
0.0
 11
505.9998250000001
 21
8.999499999999999
 31
0.0
  0
LINE
  5
D9
330
25
100
AcDbEntity
  8
YKK_ZWAK
  6
Continuous
 62
   131
100
AcDbLine
 10
509.5998126000001
 20
10.4995
 30
0.0
 11
509.5998126000001
 21
8.999499999999999
 31
0.0
  0
LINE
  5
DA
330
25
100
AcDbEntity
  8
YKK_ZWAK
  6
Continuous
 62
   131
100
AcDbLine
 10
513.1998002000001
 20
10.4995
 30
0.0
 11
513.1998002000001
 21
8.999499999999999
 31
0.0
  0
LINE
  5
DB
330
25
100
AcDbEntity
  8
YKK_ZWAK
  6
Continuous
 62
   131
100
AcDbLine
 10
516.7997878000001
 20
10.4995
 30
0.0
 11
516.7997878000001
 21
8.999499999999999
 31
0.0
  0
LINE
  5
DC
330
25
100
AcDbEntity
  8
YKK_ZWAK
  6
Continuous
 62
   131
100
AcDbLine
 10
520.3997754000002
 20
10.4995
 30
0.0
 11
520.3997754000002
 21
8.999499999999999
 31
0.0
  0
ENDBLK
  5
DE
330
25
100
AcDbEntity
  8
0
100
AcDbBlockEnd
  0
ENDSEC
  0
SECTION
  2
ENTITIES
  0
INSERT
  5
23
330
2
100
AcDbEntity
  8
YKK_ZWAK
100
AcDbBlockReference
  2
A201
 10
-19.00000099999999
 20
-8.999500000000011
 30
0.0
  0
TEXT
  5
DF
330
2
100
AcDbEntity
  8
USER1
 62
     3
100
AcDbText
 10
290.8550373535164
 20
0.9823849304218583
 30
0.0
 40
3.0
  1
枠バリエーション 【スライディング窓系】
 72
     1
 11
324.5550373535165
 21
2.482384930421858
 31
0.0
100
AcDbText
 73
     2
  0
TEXT
  5
E1
330
2
100
AcDbEntity
  8
USER1
 62
     3
100
AcDbText
 10
311.2978944963736
 20
5.393475022483812
 30
0.0
 40
3.0
  1
EXIMA51 Wb
 72
     1
 11
324.5550373535165
 21
6.893475022483812
 31
0.0
100
AcDbText
 73
     2
  0
TEXT
  5
E3
330
2
100
AcDbEntity
  8
USER1
 62
     3
100
AcDbText
 10
419.999999
 20
15.00049999999999
 30
0.0
 40
4.0
  1
1
100
AcDbText
  0
TEXT
  5
E4
330
2
100
AcDbEntity
  8
USER1
 62
     3
100
AcDbText
 10
425.3809513809524
 20
11.00049999999999
 30
0.0
 40
4.0
  1
1
 72
     1
 11
426.999999
 21
13.00049999999999
 31
0.0
100
AcDbText
 73
     2
  0
LINE
  5
3FA
330
2
100
AcDbEntity
  8
YKK_12
100
AcDbLine
 10
72.99756290203004
 20
57.22883786191675
 30
0.0
 11
72.99753749936655
 21
196.9288327960839
 31
0.0
  0
LINE
  5
3FB
330
2
100
AcDbEntity
  8
YKK_12
100
AcDbLine
 10
72.99753695385482
 20
199.9288327960839
 30
0.0
 11
72.99752026119597
 21
291.7288277302521
 31
0.0
  0
LINE
  5
3FC
330
2
100
AcDbEntity
  8
YKK_12
100
AcDbLine
 10
172.9975629020299
 20
105.6288378619167
 30
0.0
 11
172.9975419262317
 21
196.9288327960851
 31
0.0
  0
LINE
  5
3FD
330
2
100
AcDbEntity
  8
YKK_12
100
AcDbLine
 10
172.9975412369941
 20
199.9288327960839
 30
0.0
 11
172.9975202611958
 21
291.2288277302521
 31
0.0
  0
LINE
  5
3FE
330
2
100
AcDbEntity
  8
YKK_12
100
AcDbLine
 10
326.6968439057176
 20
65.92875186191759
 30
0.0
 11
397.9968370621949
 21
65.92883608993884
 31
0.0
  0
LINE
  5
3FF
330
2
100
AcDbEntity
  8
YKK_12
100
AcDbLine
 10
400.9968370621951
 20
65.92883963389522
 30
0.0
 11
472.2968302186724
 21
65.92892386191727
 31
0.0
  0
LINE
  5
400
330
2
100
AcDbEntity
  8
YKK_12
100
AcDbLine
 10
326.1818439057175
 20
165.9287518619175
 30
0.0
 11
397.9968370621949
 21
165.9288361023865
 31
0.0
  0
LINE
  5
401
330
2
100
AcDbEntity
  8
YKK_12
100
AcDbLine
 10
400.9968370621948
 20
165.9288396214484
 30
0.0
 11
472.8118302186725
 21
165.9289238619175
 31
0.0
  0
TEXT
  5
404
330
2
100
AcDbEntity
  8
USER1
100
AcDbText
 10
52.42526913584618
 20
377.2218991702439
 30
0.0
 40
10.0
  1
(1)引違い窓
  7
text-b
100
AcDbText
  0
TEXT
  5
405
330
2
100
AcDbEntity
  8
USER1
100
AcDbText
 10
53.56901241717458
 20
353.5933332561258
 30
0.0
 40
10.0
  1
つらいち枠
  7
text-b
100
AcDbText
  0
LINE
  5
406
330
2
100
AcDbEntity
  8
USER1
 48
1.5
100
AcDbLine
 10
51.83605787171996
 20
368.8206059833988
 30
0.0
 11
121.8360578717199
 21
368.8206059833988
 31
0.0
  0
LINE
  5
407
330
2
100
AcDbEntity
  8
USER1
 48
1.5
100
AcDbLine
 10
121.8360578717199
 20
368.8206059833988
 30
0.0
 11
121.8360578717199
 21
348.8206059833988
 31
0.0
  0
LINE
  5
408
330
2
100
AcDbEntity
  8
USER1
 48
1.5
100
AcDbLine
 10
121.8360578717199
 20
348.8206059833988
 30
0.0
 11
51.83605787171996
 21
348.8206059833988
 31
0.0
  0
LINE
  5
409
330
2
100
AcDbEntity
  8
USER1
 48
1.5
100
AcDbLine
 10
51.83605787171996
 20
348.8206059833988
 30
0.0
 11
51.83605787171996
 21
368.8206059833988
 31
0.0
  0
TEXT
  5
40A
330
2
100
AcDbEntity
  8
USER1
100
AcDbText
 10
131.1542396899018
 20
353.1956059833988
 30
0.0
 40
10.0
  1
アングルなし
  7
text-b
100
AcDbText
  0
LINE
  5
40B
330
2
100
AcDbEntity
  8
YKK_D
100
AcDbLine
 10
496.9968479789598
 20
63.92883268983234
 30
0.0
 11
496.9968479789598
 21
44.92883786191725
 31
0.0
  0
LINE
  5
40C
330
2
100
AcDbEntity
  8
YKK_D
100
AcDbLine
 10
471.9968479789598
 20
63.92883290483245
 30
0.0
 11
471.9968479789598
 21
44.92883786191725
 31
0.0
  0
LINE
  5
40D
330
2
100
AcDbEntity
  8
YKK_D
100
AcDbLine
 10
496.9968479789598
 20
45.92883786191725
 30
0.0
 11
471.9968479789598
 21
45.92883786191725
 31
0.0
  0
LINE
  5
40E
330
2
100
AcDbEntity
  8
YKK_D
100
AcDbLine
 10
471.9968479789598
 20
63.92883290483245
 30
0.0
 11
471.9968479789598
 21
44.92883786191725
 31
0.0
  0
LINE
  5
40F
330
2
100
AcDbEntity
  8
YKK_D
100
AcDbLine
 10
326.9968479789599
 20
63.92883449583223
 30
0.0
 11
326.9968479789599
 21
44.92883786191725
 31
0.0
  0
LINE
  5
410
330
2
100
AcDbEntity
  8
YKK_D
100
AcDbLine
 10
464.9968479789598
 20
45.92883786191725
 30
0.0
 11
333.9968479789596
 21
45.92883786191725
 31
0.0
  0
LINE
  5
411
330
2
100
AcDbEntity
  8
YKK_D
100
AcDbLine
 10
326.9968479789599
 20
63.92883449583223
 30
0.0
 11
326.9968479789599
 21
44.92883786191725
 31
0.0
  0
LINE
  5
412
330
2
100
AcDbEntity
  8
YKK_D
100
AcDbLine
 10
301.9968479789599
 20
63.92883471083223
 30
0.0
 11
301.9968479789599
 21
44.92883786191725
 31
0.0
  0
LINE
  5
413
330
2
100
AcDbEntity
  8
YKK_D
100
AcDbLine
 10
326.9968479789599
 20
45.92883786191725
 30
0.0
 11
301.9968479789599
 21
45.92883786191725
 31
0.0
  0
LINE
  5
414
330
2
100
AcDbEntity
  8
YKK_D
100
AcDbLine
 10
174.99756290203
 20
105.9288399431428
 30
0.0
 11
213.9975629020427
 21
105.9288399431428
 31
0.0
  0
LINE
  5
415
330
2
100
AcDbEntity
  8
YKK_D
100
AcDbLine
 10
174.99756290203
 20
290.928839943143
 30
0.0
 11
213.9975629020427
 21
290.928839943143
 31
0.0
  0
LINE
  5
416
330
2
100
AcDbEntity
  8
YKK_D
100
AcDbLine
 10
212.9975629020427
 20
112.9288399431428
 30
0.0
 11
212.9975629020427
 21
283.9288399431421
 31
0.0
  0
LINE
  5
417
330
2
100
AcDbEntity
  8
YKK_D
100
AcDbLine
 10
174.99756290203
 20
325.928839943143
 30
0.0
 11
213.9975629020429
 21
325.928839943143
 31
0.0
  0
LINE
  5
418
330
2
100
AcDbEntity
  8
YKK_D
100
AcDbLine
 10
174.99756290203
 20
290.928839943143
 30
0.0
 11
213.9975629020429
 21
290.928839943143
 31
0.0
  0
LINE
  5
419
330
2
100
AcDbEntity
  8
YKK_D
100
AcDbLine
 10
212.9975629020429
 20
325.928839943143
 30
0.0
 11
212.9975629020429
 21
290.928839943143
 31
0.0
  0
LINE
  5
41A
330
2
100
AcDbEntity
  8
YKK_D
100
AcDbLine
 10
70.99752026119609
 20
45.9288361284457
 30
0.0
 11
51.99756290202959
 21
45.9288361284457
 31
0.0
  0
LINE
  5
41B
330
2
100
AcDbEntity
  8
YKK_D
100
AcDbLine
 10
70.99752026119609
 20
35.9288361284457
 30
0.0
 11
51.99756290202959
 21
35.9288361284457
 31
0.0
  0
LINE
  5
41C
330
2
100
AcDbEntity
  8
YKK_D
100
AcDbLine
 10
52.99756290202958
 20
45.9288361284457
 30
0.0
 11
52.99756290202958
 21
35.9288361284457
 31
0.0
  0
LINE
  5
41D
330
2
100
AcDbEntity
  8
YKK_D
100
AcDbLine
 10
52.99756290202958
 20
35.9288361284457
 30
0.0
 11
52.99756290202958
 21
26.00000099999999
 31
0.0
  0
LINE
  5
41E
330
2
100
AcDbEntity
  8
YKK_D
100
AcDbLine
 10
72.99709997426532
 20
127.928837861916
 30
0.0
 11
72.99709997426532
 21
146.928839943143
 31
0.0
  0
LINE
  5
41F
330
2
100
AcDbEntity
  8
YKK_D
100
AcDbLine
 10
172.9975200733237
 20
127.928837861916
 30
0.0
 11
172.9975200733237
 21
146.928839943143
 31
0.0
  0
LINE
  5
420
330
2
100
AcDbEntity
  8
YKK_D
100
AcDbLine
 10
72.99709997426532
 20
145.928839943143
 30
0.0
 11
172.9975200733237
 21
145.928839943143
 31
0.0
  0
LINE
  5
421
330
2
100
AcDbEntity
  8
YKK_D
100
AcDbLine
 10
449.9968302186727
 20
65.92875186191816
 30
0.0
 11
431.0000130000027
 21
65.92875186191816
 31
0.0
  0
LINE
  5
422
330
2
100
AcDbEntity
  8
YKK_D
100
AcDbLine
 10
449.9968302186727
 20
165.9287518619175
 30
0.0
 11
431.0000130000027
 21
165.9287518619175
 31
0.0
  0
LINE
  5
423
330
2
100
AcDbEntity
  8
YKK_D
100
AcDbLine
 10
432.0000130000027
 20
65.92875186191816
 30
0.0
 11
432.0000130000027
 21
165.9287518619175
 31
0.0
  0
LINE
  5
424
330
2
100
AcDbEntity
  8
YKK_11
 48
0.5
100
AcDbLine
 10
152.99756289203
 20
73.82883785191677
 30
0.0
 11
157.99756289203
 21
73.82883785191677
 31
0.0
  0
LINE
  5
425
330
2
100
AcDbEntity
  8
YKK_11
 48
0.5
100
AcDbLine
 10
155.49756289203
 20
76.32883785191677
 30
0.0
 11
155.49756289203
 21
71.32883785191677
 31
0.0
  0
LINE
  5
426
330
2
100
AcDbEntity
  8
YKK_11
 48
0.5
100
AcDbLine
 10
120.49756289203
 20
55.62883785191672
 30
0.0
 11
125.49756289203
 21
55.62883785191672
 31
0.0
  0
LINE
  5
427
330
2
100
AcDbEntity
  8
YKK_11
 48
0.5
100
AcDbLine
 10
122.99756289203
 20
58.12883785191706
 30
0.0
 11
122.99756289203
 21
53.12883785191672
 31
0.0
  0
LINE
  5
428
330
2
100
AcDbEntity
  8
YKK_11
 48
0.5
100
AcDbLine
 10
90.79756289202999
 20
55.42883785191679
 30
0.0
 11
95.79756289202999
 21
55.42883785191679
 31
0.0
  0
LINE
  5
429
330
2
100
AcDbEntity
  8
YKK_11
 48
0.5
100
AcDbLine
 10
93.29756289202999
 20
57.92883785191679
 30
0.0
 11
93.29756289202999
 21
52.92883785191679
 31
0.0
  0
LINE
  5
42A
330
2
100
AcDbEntity
  8
YKK_D
100
AcDbLine
 10
326.9968439057171
 20
167.9288344958314
 30
0.0
 11
326.9968439057171
 21
186.9288378619175
 31
0.0
  0
LINE
  5
42B
330
2
100
AcDbEntity
  8
YKK_D
100
AcDbLine
 10
296.9968439057178
 20
167.9288347538314
 30
0.0
 11
296.9968439057178
 21
186.9288378619175
 31
0.0
  0
LINE
  5
42C
330
2
100
AcDbEntity
  8
YKK_D
100
AcDbLine
 10
326.9968439057171
 20
185.9288378619165
 30
0.0
 11
296.9968439057178
 21
185.9288378619165
 31
0.0
  0
LINE
  5
42D
330
2
100
AcDbEntity
  8
YKK_11
 48
0.5
100
AcDbLine
 10
145.4975202611958
 20
314.9288277302521
 30
0.0
 11
150.4975202611958
 21
314.9288277302521
 31
0.0
  0
LINE
  5
42E
330
2
100
AcDbEntity
  8
YKK_11
 48
0.5
100
AcDbLine
 10
147.9975202611958
 20
317.4288277302521
 30
0.0
 11
147.9975202611958
 21
312.4288277302521
 31
0.0
  0
LINE
  5
42F
330
2
100
AcDbEntity
  8
YKK_11
 48
0.5
100
AcDbLine
 10
88.99752026119598
 20
314.9288277302521
 30
0.0
 11
93.99752026119598
 21
314.9288277302521
 31
0.0
  0
LINE
  5
430
330
2
100
AcDbEntity
  8
YKK_11
 48
0.5
100
AcDbLine
 10
91.49752026119598
 20
317.4288277302521
 30
0.0
 11
91.49752026119598
 21
312.4288277302521
 31
0.0
  0
LINE
  5
431
330
2
100
AcDbEntity
  8
YKK_11
 48
0.5
100
AcDbLine
 10
120.4975202611958
 20
314.9288277302521
 30
0.0
 11
125.4975202611958
 21
314.9288277302521
 31
0.0
  0
LINE
  5
432
330
2
100
AcDbEntity
  8
YKK_11
 48
0.5
100
AcDbLine
 10
122.9975202611958
 20
317.4288277302521
 30
0.0
 11
122.9975202611958
 21
312.4288277302521
 31
0.0
  0
LINE
  5
433
330
2
100
AcDbEntity
  8
YKK_D
100
AcDbLine
 10
472.0000130000001
 20
167.9288329048046
 30
0.0
 11
472.0000130000001
 21
186.9288378619175
 31
0.0
  0
LINE
  5
434
330
2
100
AcDbEntity
  8
YKK_D
100
AcDbLine
 10
502.0000129999999
 20
167.9288326468034
 30
0.0
 11
502.0000129999999
 21
186.9288378619175
 31
0.0
  0
LINE
  5
435
330
2
100
AcDbEntity
  8
YKK_D
100
AcDbLine
 10
472.0000130000001
 20
185.9288378619165
 30
0.0
 11
502.0000129999999
 21
185.9288378619165
 31
0.0
  0
LINE
  5
436
330
2
100
AcDbEntity
  8
YKK_D
100
AcDbLine
 10
70.99752026119609
 20
45.92883786191725
 30
0.0
 11
51.99756290203016
 21
45.92883786191725
 31
0.0
  0
LINE
  5
437
330
2
100
AcDbEntity
  8
YKK_D
100
AcDbLine
 10
70.99752026119609
 20
57.92883786191725
 30
0.0
 11
51.99756290203016
 21
57.92883786191725
 31
0.0
  0
LINE
  5
438
330
2
100
AcDbEntity
  8
YKK_D
100
AcDbLine
 10
52.99756290203015
 20
45.92883786191725
 30
0.0
 11
52.99756290203015
 21
57.92883786191725
 31
0.0
  0
LINE
  5
439
330
2
100
AcDbEntity
  8
YKK_D
100
AcDbLine
 10
174.99756290203
 20
105.9288378619172
 30
0.0
 11
193.9975629020315
 21
105.9288378619172
 31
0.0
  0
LINE
  5
43A
330
2
100
AcDbEntity
  8
YKK_D
100
AcDbLine
 10
174.99756290203
 20
49.92883786191736
 30
0.0
 11
193.9975629020316
 21
49.92883786191736
 31
0.0
  0
LINE
  5
43B
330
2
100
AcDbEntity
  8
YKK_D
100
AcDbLine
 10
192.9975629020315
 20
105.9288378619172
 30
0.0
 11
192.9975629020316
 21
49.92883786191736
 31
0.0
  0
LINE
  5
43C
330
2
100
AcDbEntity
  8
YKK_D
100
AcDbLine
 10
70.99752026119609
 20
325.928827730253
 30
0.0
 11
51.99752026119575
 21
325.928827730253
 31
0.0
  0
LINE
  5
43D
330
2
100
AcDbEntity
  8
YKK_D
100
AcDbLine
 10
70.99752026119609
 20
290.9288277302522
 30
0.0
 11
51.99752026119575
 21
290.9288277302522
 31
0.0
  0
LINE
  5
43E
330
2
100
AcDbEntity
  8
YKK_D
100
AcDbLine
 10
52.99752026119574
 20
325.928827730253
 30
0.0
 11
52.99752026119574
 21
290.9288277302522
 31
0.0
  0
LINE
  5
43F
330
2
100
AcDbEntity
  8
YKK_D
100
AcDbLine
 10
70.99752026119609
 20
325.928827730253
 30
0.0
 11
51.99752026119779
 21
325.928827730253
 31
0.0
  0
LINE
  5
440
330
2
100
AcDbEntity
  8
YKK_D
100
AcDbLine
 10
70.99752026119609
 20
335.928827730253
 30
0.0
 11
51.99752026119779
 21
335.928827730253
 31
0.0
  0
LINE
  5
441
330
2
100
AcDbEntity
  8
YKK_D
100
AcDbLine
 10
52.99752026119779
 20
325.928827730253
 30
0.0
 11
52.99752026119779
 21
335.928827730253
 31
0.0
  0
LINE
  5
442
330
2
100
AcDbEntity
  8
YKK_D
100
AcDbLine
 10
174.99756290203
 20
105.9288378619172
 30
0.0
 11
213.9975629020322
 21
105.9288378619172
 31
0.0
  0
LINE
  5
443
330
2
100
AcDbEntity
  8
YKK_D
100
AcDbLine
 10
174.99756290203
 20
45.92883786191725
 30
0.0
 11
213.9975629020322
 21
45.92883786191725
 31
0.0
  0
LINE
  5
444
330
2
100
AcDbEntity
  8
YKK_D
100
AcDbLine
 10
212.9975629020322
 20
105.9288378619172
 30
0.0
 11
212.9975629020322
 21
45.92883786191725
 31
0.0
  0
CIRCLE
  5
445
330
2
100
AcDbEntity
  8
YKK_D
  6
ByBlock
370
    -2
100
AcDbCircle
 10
496.9968479789598
 20
45.92883786191725
 30
0.0
 40
0.6375
  0
TEXT
  5
446
330
2
100
AcDbEntity
  8
YKK_D
100
AcDbText
 10
479.0423025244144
 20
47.42883786191725
 30
0.0
 40
7.5
  1
25
  7
text-b
100
AcDbText
  0
LINE
  5
447
330
2
100
AcDbEntity
  8
YKK_D
370
    -2
100
AcDbLine
 10
471.9968479789598
 20
45.92883786191725
 30
0.0
 11
465.9346701524683
 21
49.42883786191646
 31
0.0
  0
LINE
  5
448
330
2
100
AcDbEntity
  8
YKK_D
370
    -2
100
AcDbLine
 10
471.9968479789598
 20
45.92883786191725
 30
0.0
 11
465.9346701524683
 21
42.42883786191816
 31
0.0
  0
LINE
  5
449
330
2
100
AcDbEntity
  8
YKK_D
370
    -2
100
AcDbLine
 10
465.9346701524683
 20
49.42883786191646
 30
0.0
 11
465.9346701524683
 21
42.42883786191816
 31
0.0
  0
LINE
  5
44A
330
2
100
AcDbEntity
  8
YKK_D
370
    -2
100
AcDbLine
 10
471.9968479789598
 20
45.92883786191725
 30
0.0
 11
459.8724923259768
 21
45.92883786191725
 31
0.0
  0
LINE
  5
44B
330
2
100
AcDbEntity
  8
YKK_D
370
    -2
100
AcDbLine
 10
326.9968479789599
 20
45.92883786191725
 30
0.0
 11
333.0590258054514
 21
42.42883786191816
 31
0.0
  0
LINE
  5
44C
330
2
100
AcDbEntity
  8
YKK_D
370
    -2
100
AcDbLine
 10
326.9968479789599
 20
45.92883786191725
 30
0.0
 11
333.0590258054514
 21
49.42883786191646
 31
0.0
  0
LINE
  5
44D
330
2
100
AcDbEntity
  8
YKK_D
370
    -2
100
AcDbLine
 10
333.0590258054514
 20
42.42883786191816
 30
0.0
 11
333.0590258054514
 21
49.42883786191646
 31
0.0
  0
LINE
  5
44E
330
2
100
AcDbEntity
  8
YKK_D
370
    -2
100
AcDbLine
 10
326.9968479789599
 20
45.92883786191725
 30
0.0
 11
339.1212036319429
 21
45.92883786191725
 31
0.0
  0
TEXT
  5
44F
330
2
100
AcDbEntity
  8
YKK_D
100
AcDbText
 10
395.4485525244144
 20
47.42883786191725
 30
0.0
 40
7.5
  1
W
  7
text-b
100
AcDbText
  0
CIRCLE
  5
450
330
2
100
AcDbEntity
  8
YKK_D
  6
ByBlock
370
    -2
100
AcDbCircle
 10
301.9968479789599
 20
45.92883786191725
 30
0.0
 40
0.6375
  0
TEXT
  5
451
330
2
100
AcDbEntity
  8
YKK_D
100
AcDbText
 10
309.0423025244144
 20
47.42883786191725
 30
0.0
 40
7.5
  1
25
  7
text-b
100
AcDbText
  0
LINE
  5
452
330
2
100
AcDbEntity
  8
YKK_D
370
    -2
100
AcDbLine
 10
212.9975629020427
 20
105.9288399431428
 30
0.0
 11
216.4975629020418
 21
111.9910177696343
 31
0.0
  0
LINE
  5
453
330
2
100
AcDbEntity
  8
YKK_D
370
    -2
100
AcDbLine
 10
212.9975629020427
 20
105.9288399431428
 30
0.0
 11
209.4975629020435
 21
111.9910177696343
 31
0.0
  0
LINE
  5
454
330
2
100
AcDbEntity
  8
YKK_D
370
    -2
100
AcDbLine
 10
216.4975629020418
 20
111.9910177696343
 30
0.0
 11
209.4975629020435
 21
111.9910177696343
 31
0.0
  0
LINE
  5
455
330
2
100
AcDbEntity
  8
YKK_D
370
    -2
100
AcDbLine
 10
212.9975629020427
 20
105.9288399431428
 30
0.0
 11
212.9975629020427
 21
118.0531955961257
 31
0.0
  0
LINE
  5
456
330
2
100
AcDbEntity
  8
YKK_D
370
    -2
100
AcDbLine
 10
212.9975629020427
 20
290.928839943143
 30
0.0
 11
209.4975629020435
 21
284.866662116651
 31
0.0
  0
LINE
  5
457
330
2
100
AcDbEntity
  8
YKK_D
370
    -2
100
AcDbLine
 10
212.9975629020427
 20
290.928839943143
 30
0.0
 11
216.4975629020418
 21
284.866662116651
 31
0.0
  0
LINE
  5
458
330
2
100
AcDbEntity
  8
YKK_D
370
    -2
100
AcDbLine
 10
209.4975629020435
 20
284.866662116651
 30
0.0
 11
216.4975629020418
 21
284.866662116651
 31
0.0
  0
LINE
  5
459
330
2
100
AcDbEntity
  8
YKK_D
370
    -2
100
AcDbLine
 10
212.9975629020427
 20
290.928839943143
 30
0.0
 11
212.9975629020427
 21
278.804484290159
 31
0.0
  0
TEXT
  5
45A
330
2
100
AcDbEntity
  8
YKK_D
100
AcDbText
 10
211.497562902043
 20
194.934521761324
 30
0.0
 40
7.5
  1
H
 50
90.0
  7
text-b
100
AcDbText
  0
CIRCLE
  5
45B
330
2
100
AcDbEntity
  8
YKK_D
  6
ByBlock
370
    -2
100
AcDbCircle
 10
212.9975629020429
 20
325.928839943143
 30
0.0
 40
0.6375000000000001
  0
TEXT
  5
45C
330
2
100
AcDbEntity
  8
YKK_D
100
AcDbText
 10
211.4975629020431
 20
302.974294488597
 30
0.0
 40
7.5
  1
35
 50
90.0
  7
text-b
100
AcDbText
  0
CIRCLE
  5
45D
330
2
100
AcDbEntity
  8
YKK_D
  6
ByBlock
370
    -2
100
AcDbCircle
 10
52.99756290202958
 20
45.9288361284457
 30
0.0
 40
0.6375000000000001
  0
CIRCLE
  5
45E
330
2
100
AcDbEntity
  8
YKK_D
  6
ByBlock
370
    -2
100
AcDbCircle
 10
52.99756290202958
 20
35.9288361284457
 30
0.0
 40
0.6375
  0
TEXT
  5
45F
330
2
100
AcDbEntity
  8
YKK_D
100
AcDbText
 10
51.49756290202993
 20
27.31643535959642
 30
0.0
 40
7.5
  1
10
 50
90.0
  7
text-b
100
AcDbText
  0
CIRCLE
  5
460
330
2
100
AcDbEntity
  8
YKK_D
  6
ByBlock
370
    -2
100
AcDbCircle
 10
72.99709997426532
 20
145.928839943143
 30
0.0
 40
0.6375
  0
CIRCLE
  5
461
330
2
100
AcDbEntity
  8
YKK_D
  6
ByBlock
370
    -2
100
AcDbCircle
 10
172.9975200733237
 20
145.928839943143
 30
0.0
 40
0.6375
  0
TEXT
  5
462
330
2
100
AcDbEntity
  8
YKK_D
100
AcDbText
 10
114.4319691147035
 20
147.4288399431429
 30
0.0
 40
7.5
  1
100
  7
text-b
100
AcDbText
  0
CIRCLE
  5
463
330
2
100
AcDbEntity
  8
YKK_D
  6
ByBlock
370
    -2
100
AcDbCircle
 10
432.0000130000027
 20
65.92875186191816
 30
0.0
 40
0.6375
  0
CIRCLE
  5
464
330
2
100
AcDbEntity
  8
YKK_D
  6
ByBlock
370
    -2
100
AcDbCircle
 10
432.0000130000027
 20
165.9287518619175
 30
0.0
 40
0.6375000000000001
  0
TEXT
  5
465
330
2
100
AcDbEntity
  8
YKK_D
100
AcDbText
 10
430.5000130000029
 20
107.3634109528265
 30
0.0
 40
7.5
  1
100
 50
90.0
  7
text-b
100
AcDbText
  0
LINE
  5
466
330
2
100
AcDbEntity
  8
YKK_11
  6
ByBlock
 48
0.5
370
    -2
100
AcDbLine
 10
158.8861418920299
 20
75.77386085191676
 30
0.0
 11
171.3675628920299
 21
76.20972160091162
 31
0.0
  0
LINE
  5
467
330
2
100
AcDbEntity
  8
YKK_11
  6
ByBlock
 48
0.5
370
    -2
100
AcDbLine
 10
171.3675628920299
 20
76.20972160091162
 30
0.0
 11
171.3675628920299
 21
51.55883785191679
 31
0.0
  0
LINE
  5
468
330
2
100
AcDbEntity
  8
YKK_11
  6
ByBlock
 48
0.5
370
    -2
100
AcDbLine
 10
171.3675628920299
 20
51.55883785191679
 30
0.0
 11
164.5887545079101
 21
51.55883785191679
 31
0.0
  0
LINE
  5
469
330
2
100
AcDbEntity
  8
YKK_11
  6
ByBlock
 48
0.5
370
    -2
100
AcDbLine
 10
164.5887545079101
 20
51.55883785191679
 30
0.0
 11
163.49756289203
 21
50.92883834863846
 31
0.0
  0
LINE
  5
46A
330
2
100
AcDbEntity
  8
YKK_11
  6
ByBlock
 48
0.5
370
    -2
100
AcDbLine
 10
163.49756289203
 20
50.92883834863846
 30
0.0
 11
163.49756289203
 21
49.92883785191679
 31
0.0
  0
LINE
  5
46B
330
2
100
AcDbEntity
  8
YKK_11
  6
ByBlock
 48
0.5
370
    -2
100
AcDbLine
 10
163.49756289203
 20
49.92883785191679
 30
0.0
 11
167.5393048920299
 21
49.92883785191679
 31
0.0
  0
LINE
  5
46C
330
2
100
AcDbEntity
  8
YKK_11
  6
ByBlock
 48
0.5
370
    -2
100
AcDbLine
 10
167.5393048920299
 20
49.92883785191679
 30
0.0
 11
167.7226078920299
 21
50.04883785191702
 31
0.0
  0
LINE
  5
46D
330
2
100
AcDbEntity
  8
YKK_11
  6
ByBlock
 48
0.5
370
    -2
100
AcDbLine
 10
167.7226078920299
 20
50.04883785191702
 30
0.0
 11
168.27251789203
 21
50.04883785191702
 31
0.0
  0
LINE
  5
46E
330
2
100
AcDbEntity
  8
YKK_11
  6
ByBlock
 48
0.5
370
    -2
100
AcDbLine
 10
168.27251789203
 20
50.04883785191702
 30
0.0
 11
168.4558208920299
 21
49.92883785191679
 31
0.0
  0
LINE
  5
46F
330
2
100
AcDbEntity
  8
YKK_11
  6
ByBlock
 48
0.5
370
    -2
100
AcDbLine
 10
168.4558208920299
 20
49.92883785191679
 30
0.0
 11
168.5393048920299
 21
49.92883785191679
 31
0.0
  0
LINE
  5
470
330
2
100
AcDbEntity
  8
YKK_11
  6
ByBlock
 48
0.5
370
    -2
100
AcDbLine
 10
168.5393048920299
 20
49.92883785191679
 30
0.0
 11
168.7226078920299
 21
50.04883785191702
 31
0.0
  0
LINE
  5
471
330
2
100
AcDbEntity
  8
YKK_11
  6
ByBlock
 48
0.5
370
    -2
100
AcDbLine
 10
168.7226078920299
 20
50.04883785191702
 30
0.0
 11
169.27251789203
 21
50.04883785191702
 31
0.0
  0
LINE
  5
472
330
2
100
AcDbEntity
  8
YKK_11
  6
ByBlock
 48
0.5
370
    -2
100
AcDbLine
 10
169.27251789203
 20
50.04883785191702
 30
0.0
 11
169.4558208920299
 21
49.92883785191679
 31
0.0
  0
LINE
  5
473
330
2
100
AcDbEntity
  8
YKK_11
  6
ByBlock
 48
0.5
370
    -2
100
AcDbLine
 10
169.4558208920299
 20
49.92883785191679
 30
0.0
 11
172.99756289203
 21
49.92883785191679
 31
0.0
  0
LINE
  5
474
330
2
100
AcDbEntity
  8
YKK_11
  6
ByBlock
 48
0.5
370
    -2
100
AcDbLine
 10
172.99756289203
 20
49.92883785191679
 30
0.0
 11
172.99756289203
 21
105.9288378519168
 31
0.0
  0
LINE
  5
475
330
2
100
AcDbEntity
  8
YKK_11
  6
ByBlock
 48
0.5
370
    -2
100
AcDbLine
 10
172.99756289203
 20
105.9288378519168
 30
0.0
 11
171.3675628920299
 21
105.9288378519168
 31
0.0
  0
LINE
  5
476
330
2
100
AcDbEntity
  8
YKK_11
  6
ByBlock
 48
0.5
370
    -2
100
AcDbLine
 10
171.3675628920299
 20
105.9288378519168
 30
0.0
 11
171.3675628920299
 21
103.9288378519168
 31
0.0
  0
LINE
  5
477
330
2
100
AcDbEntity
  8
YKK_11
  6
ByBlock
 48
0.5
370
    -2
100
AcDbLine
 10
171.3675628920299
 20
103.9288378519168
 30
0.0
 11
168.89756289203
 21
103.9288378519168
 31
0.0
  0
LINE
  5
478
330
2
100
AcDbEntity
  8
YKK_11
  6
ByBlock
 48
0.5
370
    -2
100
AcDbLine
 10
168.89756289203
 20
103.9288378519168
 30
0.0
 11
168.89756289203
 21
101.4288378519168
 31
0.0
  0
LINE
  5
479
330
2
100
AcDbEntity
  8
YKK_11
  6
ByBlock
 48
0.5
370
    -2
100
AcDbLine
 10
168.89756289203
 20
101.4288378519168
 30
0.0
 11
169.89756289203
 21
101.4288378519168
 31
0.0
  0
LINE
  5
47A
330
2
100
AcDbEntity
  8
YKK_11
  6
ByBlock
 48
0.5
370
    -2
100
AcDbLine
 10
169.89756289203
 20
101.4288378519168
 30
0.0
 11
169.89756289203
 21
102.9288378519168
 31
0.0
  0
LINE
  5
47B
330
2
100
AcDbEntity
  8
YKK_11
  6
ByBlock
 48
0.5
370
    -2
100
AcDbLine
 10
169.89756289203
 20
102.9288378519168
 30
0.0
 11
171.39756289203
 21
102.9288378519168
 31
0.0
  0
LINE
  5
47C
330
2
100
AcDbEntity
  8
YKK_11
  6
ByBlock
 48
0.5
370
    -2
100
AcDbLine
 10
171.39756289203
 20
102.9288378519168
 30
0.0
 11
171.39756289203
 21
95.92883785191679
 31
0.0
  0
LINE
  5
47D
330
2
100
AcDbEntity
  8
YKK_11
  6
ByBlock
 48
0.5
370
    -2
100
AcDbLine
 10
171.39756289203
 20
95.92883785191679
 30
0.0
 11
169.89756289203
 21
95.92883785191679
 31
0.0
  0
LINE
  5
47E
330
2
100
AcDbEntity
  8
YKK_11
  6
ByBlock
 48
0.5
370
    -2
100
AcDbLine
 10
169.89756289203
 20
95.92883785191679
 30
0.0
 11
169.89756289203
 21
97.42883785191679
 31
0.0
  0
LINE
  5
47F
330
2
100
AcDbEntity
  8
YKK_11
  6
ByBlock
 48
0.5
370
    -2
100
AcDbLine
 10
169.89756289203
 20
97.42883785191679
 30
0.0
 11
168.89756289203
 21
97.42883785191679
 31
0.0
  0
LINE
  5
480
330
2
100
AcDbEntity
  8
YKK_11
  6
ByBlock
 48
0.5
370
    -2
100
AcDbLine
 10
168.89756289203
 20
97.42883785191679
 30
0.0
 11
168.89756289203
 21
94.92883785191679
 31
0.0
  0
LINE
  5
481
330
2
100
AcDbEntity
  8
YKK_11
  6
ByBlock
 48
0.5
370
    -2
100
AcDbLine
 10
168.89756289203
 20
94.92883785191679
 30
0.0
 11
171.3675628920299
 21
94.92883785191679
 31
0.0
  0
LINE
  5
482
330
2
100
AcDbEntity
  8
YKK_11
  6
ByBlock
 48
0.5
370
    -2
100
AcDbLine
 10
171.3675628920299
 20
94.92883785191679
 30
0.0
 11
171.3675628920299
 21
89.92883785191679
 31
0.0
  0
ARC
  5
483
330
2
100
AcDbEntity
  8
YKK_11
  6
ByBlock
 48
0.5
370
    -2
100
AcDbCircle
 10
169.367562565235
 20
89.928838178712
 30
0.0
 40
2.000000326794972
100
AcDbArc
 50
270.0000093619832
 51
359.9999906380168
  0
LINE
  5
484
330
2
100
AcDbEntity
  8
YKK_11
  6
ByBlock
 48
0.5
370
    -2
100
AcDbLine
 10
169.3675628920299
 20
87.9288378519168
 30
0.0
 11
140.0975628920299
 21
87.9288378519168
 31
0.0
  0
LINE
  5
485
330
2
100
AcDbEntity
  8
YKK_11
  6
ByBlock
 48
0.5
370
    -2
100
AcDbLine
 10
140.0975628920299
 20
87.9288378519168
 30
0.0
 11
140.0975628920299
 21
94.92883785191679
 31
0.0
  0
LINE
  5
486
330
2
100
AcDbEntity
  8
YKK_11
  6
ByBlock
 48
0.5
370
    -2
100
AcDbLine
 10
140.0975628920299
 20
94.92883785191679
 30
0.0
 11
141.29756289203
 21
94.92883785191679
 31
0.0
  0
LINE
  5
487
330
2
100
AcDbEntity
  8
YKK_11
  6
ByBlock
 48
0.5
370
    -2
100
AcDbLine
 10
141.29756289203
 20
94.92883785191679
 30
0.0
 11
141.29756289203
 21
104.2288378519167
 31
0.0
  0
ARC
  5
488
330
2
100
AcDbEntity
  8
YKK_11
  6
ByBlock
 48
0.5
370
    -2
100
AcDbCircle
 10
139.5975628920299
 20
104.2288381463656
 30
0.0
 40
1.700000000000027
100
AcDbArc
 50
359.9999900760799
 51
180.00000992392
  0
LINE
  5
489
330
2
100
AcDbEntity
  8
YKK_11
  6
ByBlock
 48
0.5
370
    -2
100
AcDbLine
 10
137.89756289203
 20
104.2288378519167
 30
0.0
 11
137.89756289203
 21
83.92883785191679
 31
0.0
  0
LINE
  5
48A
330
2
100
AcDbEntity
  8
YKK_11
  6
ByBlock
 48
0.5
370
    -2
100
AcDbLine
 10
137.89756289203
 20
83.92883785191679
 30
0.0
 11
121.49756289203
 21
83.92883785191679
 31
0.0
  0
LINE
  5
48B
330
2
100
AcDbEntity
  8
YKK_11
  6
ByBlock
 48
0.5
370
    -2
100
AcDbLine
 10
121.49756289203
 20
83.92883785191679
 30
0.0
 11
121.49756289203
 21
81.42883785191679
 31
0.0
  0
LINE
  5
48C
330
2
100
AcDbEntity
  8
YKK_11
  6
ByBlock
 48
0.5
370
    -2
100
AcDbLine
 10
121.49756289203
 20
81.42883785191679
 30
0.0
 11
122.49756289203
 21
81.42883785191679
 31
0.0
  0
LINE
  5
48D
330
2
100
AcDbEntity
  8
YKK_11
  6
ByBlock
 48
0.5
370
    -2
100
AcDbLine
 10
122.49756289203
 20
81.42883785191679
 30
0.0
 11
122.49756289203
 21
82.9288378519168
 31
0.0
  0
LINE
  5
48E
330
2
100
AcDbEntity
  8
YKK_11
  6
ByBlock
 48
0.5
370
    -2
100
AcDbLine
 10
122.49756289203
 20
82.9288378519168
 30
0.0
 11
123.99756289203
 21
82.9288378519168
 31
0.0
  0
LINE
  5
48F
330
2
100
AcDbEntity
  8
YKK_11
  6
ByBlock
 48
0.5
370
    -2
100
AcDbLine
 10
123.99756289203
 20
82.9288378519168
 30
0.0
 11
123.99756289203
 21
75.9288378519168
 31
0.0
  0
LINE
  5
490
330
2
100
AcDbEntity
  8
YKK_11
  6
ByBlock
 48
0.5
370
    -2
100
AcDbLine
 10
123.99756289203
 20
75.9288378519168
 30
0.0
 11
122.49756289203
 21
75.9288378519168
 31
0.0
  0
LINE
  5
491
330
2
100
AcDbEntity
  8
YKK_11
  6
ByBlock
 48
0.5
370
    -2
100
AcDbLine
 10
122.49756289203
 20
75.9288378519168
 30
0.0
 11
122.49756289203
 21
77.42883785191679
 31
0.0
  0
LINE
  5
492
330
2
100
AcDbEntity
  8
YKK_11
  6
ByBlock
 48
0.5
370
    -2
100
AcDbLine
 10
122.49756289203
 20
77.42883785191679
 30
0.0
 11
121.49756289203
 21
77.42883785191679
 31
0.0
  0
LINE
  5
493
330
2
100
AcDbEntity
  8
YKK_11
  6
ByBlock
 48
0.5
370
    -2
100
AcDbLine
 10
121.49756289203
 20
77.42883785191679
 30
0.0
 11
121.49756289203
 21
75.9288378519168
 31
0.0
  0
ARC
  5
494
330
2
100
AcDbEntity
  8
YKK_11
  6
ByBlock
 48
0.5
370
    -2
100
AcDbCircle
 10
122.4975630554273
 20
75.92883801531446
 30
0.0
 40
1.000000163397485
100
AcDbArc
 50
180.0000093619831
 51
269.9999906380168
  0
LINE
  5
495
330
2
100
AcDbEntity
  8
YKK_11
  6
ByBlock
 48
0.5
370
    -2
100
AcDbLine
 10
122.49756289203
 20
74.92883785191679
 30
0.0
 11
123.99756289203
 21
74.92883785191679
 31
0.0
  0
ARC
  5
496
330
2
100
AcDbEntity
  8
YKK_11
  6
ByBlock
 48
0.5
370
    -2
100
AcDbCircle
 10
123.9975627286325
 20
75.92883801531446
 30
0.0
 40
1.000000163397444
100
AcDbArc
 50
270.0000093619832
 51
359.9999906380168
  0
LINE
  5
497
330
2
100
AcDbEntity
  8
YKK_11
  6
ByBlock
 48
0.5
370
    -2
100
AcDbLine
 10
124.99756289203
 20
75.9288378519168
 30
0.0
 11
124.99756289203
 21
82.72883785191675
 31
0.0
  0
LINE
  5
498
330
2
100
AcDbEntity
  8
YKK_11
  6
ByBlock
 48
0.5
370
    -2
100
AcDbLine
 10
124.99756289203
 20
82.72883785191675
 30
0.0
 11
137.89756289203
 21
82.72883785191675
 31
0.0
  0
LINE
  5
499
330
2
100
AcDbEntity
  8
YKK_11
  6
ByBlock
 48
0.5
370
    -2
100
AcDbLine
 10
137.89756289203
 20
82.72883785191675
 30
0.0
 11
137.89756289203
 21
73.26858385191679
 31
0.0
  0
ARC
  5
49A
330
2
100
AcDbEntity
  8
YKK_11
  6
ByBlock
 48
0.5
370
    -2
100
AcDbCircle
 10
132.8975649762643
 20
73.26858332622203
 30
0.0
 40
4.999997915765616
100
AcDbArc
 50
329.9999931667504
 51
0.0000060240181987
  0
LINE
  5
49B
330
2
100
AcDbEntity
  8
YKK_11
  6
ByBlock
 48
0.5
370
    -2
100
AcDbLine
 10
137.2276898920299
 20
70.76858385191679
 30
0.0
 11
132.6123198920299
 21
62.77452785191678
 31
0.0
  0
ARC
  5
49C
330
2
100
AcDbEntity
  8
YKK_11
  6
ByBlock
 48
0.5
370
    -2
100
AcDbCircle
 10
128.2821928525555
 20
65.27452818894483
 30
0.0
 40
5.000000186312589
100
AcDbArc
 50
271.9999948340378
 51
329.9999967731223
  0
LINE
  5
49D
330
2
100
AcDbEntity
  8
YKK_11
  6
ByBlock
 48
0.5
370
    -2
100
AcDbLine
 10
128.45668989203
 20
60.27757385191705
 30
0.0
 11
92.69756289202996
 21
59.0288380039401
 31
0.0
  0
LINE
  5
49E
330
2
100
AcDbEntity
  8
YKK_11
  6
ByBlock
 48
0.5
370
    -2
100
AcDbLine
 10
92.69756289202996
 20
59.0288380039401
 30
0.0
 11
92.69756289202996
 21
66.5288378519167
 31
0.0
  0
LINE
  5
49F
330
2
100
AcDbEntity
  8
YKK_11
  6
ByBlock
 48
0.5
370
    -2
100
AcDbLine
 10
92.69756289202996
 20
66.5288378519167
 30
0.0
 11
93.73538789202996
 21
67.56666285191704
 31
0.0
  0
LINE
  5
4A0
330
2
100
AcDbEntity
  8
YKK_11
  6
ByBlock
 48
0.5
370
    -2
100
AcDbLine
 10
93.73538789202996
 20
67.56666285191704
 30
0.0
 11
93.80733289202998
 21
67.68235685191678
 31
0.0
  0
ARC
  5
4A1
330
2
100
AcDbEntity
  8
YKK_11
  6
ByBlock
 48
0.5
370
    -2
100
AcDbCircle
 10
92.19756304406315
 20
68.22883791608046
 30
0.0
 40
1.700000152033131
100
AcDbArc
 50
341.2487925534515
 51
180.0000021625345
  0
LINE
  5
4A2
330
2
100
AcDbEntity
  8
YKK_11
  6
ByBlock
 48
0.5
370
    -2
100
AcDbLine
 10
90.49756289203003
 20
68.22883785191675
 30
0.0
 11
90.49756289203003
 21
58.95201248374825
 31
0.0
  0
LINE
  5
4A3
330
2
100
AcDbEntity
  8
YKK_11
  6
ByBlock
 48
0.5
370
    -2
100
AcDbLine
 10
90.49756289203003
 20
58.95201248374825
 30
0.0
 11
81.06266389202994
 21
58.62253785191705
 31
0.0
  0
ARC
  5
4A4
330
2
100
AcDbEntity
  8
YKK_11
  6
ByBlock
 48
0.5
370
    -2
100
AcDbCircle
 10
81.09756257846948
 20
57.62314731035473
 30
0.0
 40
0.9999996864396651
100
AcDbArc
 50
91.99995417441355
 51
179.9999689707617
  0
LINE
  5
4A5
330
2
100
AcDbEntity
  8
YKK_11
  6
ByBlock
 48
0.5
370
    -2
100
AcDbLine
 10
80.09756289202995
 20
57.62314785191676
 30
0.0
 11
80.09756289202995
 21
49.13487090028604
 31
0.0
  0
LINE
  5
4A6
330
2
100
AcDbEntity
  8
YKK_11
  6
ByBlock
 48
0.5
370
    -2
100
AcDbLine
 10
80.09756289202995
 20
49.13487090028604
 30
0.0
 11
74.19756289202997
 21
48.92883798063473
 31
0.0
  0
LINE
  5
4A7
330
2
100
AcDbEntity
  8
YKK_11
  6
ByBlock
 48
0.5
370
    -2
100
AcDbLine
 10
74.19756289202997
 20
48.92883798063473
 30
0.0
 11
74.19756289202997
 21
56.62883785191672
 31
0.0
  0
LINE
  5
4A8
330
2
100
AcDbEntity
  8
YKK_11
  6
ByBlock
 48
0.5
370
    -2
100
AcDbLine
 10
74.19756289202997
 20
56.62883785191672
 30
0.0
 11
74.25756289203002
 21
56.80883785191678
 31
0.0
  0
ARC
  5
4A9
330
2
100
AcDbEntity
  8
YKK_11
  6
ByBlock
 48
0.5
370
    -2
100
AcDbCircle
 10
73.69756291975193
 20
57.22883793508276
 30
0.0
 40
0.7000000277220174
100
AcDbArc
 50
323.1300955469309
 51
180.000006807228
  0
LINE
  5
4AA
330
2
100
AcDbEntity
  8
YKK_11
  6
ByBlock
 48
0.5
370
    -2
100
AcDbLine
 10
72.99756289203003
 20
57.22883785191674
 30
0.0
 11
72.99756289203003
 21
45.92883785191679
 31
0.0
  0
LINE
  5
4AB
330
2
100
AcDbEntity
  8
YKK_11
  6
ByBlock
 48
0.5
370
    -2
100
AcDbLine
 10
72.99756289203003
 20
45.92883785191679
 30
0.0
 11
127.99756289203
 21
45.92883785191679
 31
0.0
  0
LINE
  5
4AC
330
2
100
AcDbEntity
  8
YKK_11
  6
ByBlock
 48
0.5
370
    -2
100
AcDbLine
 10
127.99756289203
 20
45.92883785191679
 30
0.0
 11
127.99756289203
 21
41.59965785191672
 31
0.0
  0
LINE
  5
4AD
330
2
100
AcDbEntity
  8
YKK_11
  6
ByBlock
 48
0.5
370
    -2
100
AcDbLine
 10
127.99756289203
 20
41.59965785191672
 30
0.0
 11
128.1404198920299
 21
41.40799485191677
 31
0.0
  0
LINE
  5
4AE
330
2
100
AcDbEntity
  8
YKK_11
  6
ByBlock
 48
0.5
370
    -2
100
AcDbLine
 10
128.1404198920299
 20
41.40799485191677
 30
0.0
 11
128.1404198920299
 21
40.4496808519168
 31
0.0
  0
LINE
  5
4AF
330
2
100
AcDbEntity
  8
YKK_11
  6
ByBlock
 48
0.5
370
    -2
100
AcDbLine
 10
128.1404198920299
 20
40.4496808519168
 30
0.0
 11
127.99756289203
 21
40.25801785191673
 31
0.0
  0
LINE
  5
4B0
330
2
100
AcDbEntity
  8
YKK_11
  6
ByBlock
 48
0.5
370
    -2
100
AcDbLine
 10
127.99756289203
 20
40.25801785191673
 30
0.0
 11
127.99756289203
 21
35.92883785191679
 31
0.0
  0
LINE
  5
4B1
330
2
100
AcDbEntity
  8
YKK_11
  6
ByBlock
 48
0.5
370
    -2
100
AcDbLine
 10
127.99756289203
 20
35.92883785191679
 30
0.0
 11
129.62756289203
 21
35.92883785191679
 31
0.0
  0
LINE
  5
4B2
330
2
100
AcDbEntity
  8
YKK_11
  6
ByBlock
 48
0.5
370
    -2
100
AcDbLine
 10
129.62756289203
 20
35.92883785191679
 30
0.0
 11
129.62756289203
 21
49.92883785191679
 31
0.0
  0
LINE
  5
4B3
330
2
100
AcDbEntity
  8
YKK_11
  6
ByBlock
 48
0.5
370
    -2
100
AcDbLine
 10
129.62756289203
 20
49.92883785191679
 30
0.0
 11
137.49756289203
 21
49.92883785191679
 31
0.0
  0
LINE
  5
4B4
330
2
100
AcDbEntity
  8
YKK_11
  6
ByBlock
 48
0.5
370
    -2
100
AcDbLine
 10
137.49756289203
 20
49.92883785191679
 30
0.0
 11
137.49756289203
 21
50.92883834863846
 31
0.0
  0
LINE
  5
4B5
330
2
100
AcDbEntity
  8
YKK_11
  6
ByBlock
 48
0.5
370
    -2
100
AcDbLine
 10
137.49756289203
 20
50.92883834863846
 30
0.0
 11
136.4063712761498
 21
51.55883785191679
 31
0.0
  0
LINE
  5
4B6
330
2
100
AcDbEntity
  8
YKK_11
  6
ByBlock
 48
0.5
370
    -2
100
AcDbLine
 10
136.4063712761498
 20
51.55883785191679
 30
0.0
 11
129.62756289203
 21
51.55883785191679
 31
0.0
  0
LINE
  5
4B7
330
2
100
AcDbEntity
  8
YKK_11
  6
ByBlock
 48
0.5
370
    -2
100
AcDbLine
 10
129.62756289203
 20
51.55883785191679
 30
0.0
 11
129.62756289203
 21
55.15883785191704
 31
0.0
  0
LINE
  5
4B8
330
2
100
AcDbEntity
  8
YKK_11
  6
ByBlock
 48
0.5
370
    -2
100
AcDbLine
 10
129.62756289203
 20
55.15883785191704
 30
0.0
 11
126.62756289203
 21
55.15883785191704
 31
0.0
  0
LINE
  5
4B9
330
2
100
AcDbEntity
  8
YKK_11
  6
ByBlock
 48
0.5
370
    -2
100
AcDbLine
 10
126.62756289203
 20
55.15883785191704
 30
0.0
 11
126.62756289203
 21
58.58270632309245
 31
0.0
  0
LINE
  5
4BA
330
2
100
AcDbEntity
  8
YKK_11
  6
ByBlock
 48
0.5
370
    -2
100
AcDbLine
 10
126.62756289203
 20
58.58270632309245
 30
0.0
 11
128.5135768920299
 21
58.64856685191704
 31
0.0
  0
ARC
  5
4BB
330
2
100
AcDbEntity
  8
YKK_11
  6
ByBlock
 48
0.5
370
    -2
100
AcDbCircle
 10
128.282193131295
 20
65.27452705602275
 30
0.0
 40
6.62999902497193
100
AcDbArc
 50
272.0000011381847
 51
330.0000030772624
  0
LINE
  5
4BC
330
2
100
AcDbEntity
  8
YKK_11
  6
ByBlock
 48
0.5
370
    -2
100
AcDbLine
 10
134.0239408920299
 20
61.95952785191707
 30
0.0
 11
138.63931089203
 21
69.95358385191673
 31
0.0
  0
ARC
  5
4BD
330
2
100
AcDbEntity
  8
YKK_11
  6
ByBlock
 48
0.5
370
    -2
100
AcDbCircle
 10
132.8975654547248
 20
73.26858390498739
 30
0.0
 40
6.629997437305035
100
AcDbArc
 50
329.9999866840966
 51
359.9999995413715
  0
LINE
  5
4BE
330
2
100
AcDbEntity
  8
YKK_11
  6
ByBlock
 48
0.5
370
    -2
100
AcDbLine
 10
139.52756289203
 20
73.26858385191679
 30
0.0
 11
139.52756289203
 21
75.09784380138819
 31
0.0
  0
LINE
  5
4BF
330
2
100
AcDbEntity
  8
YKK_11
  6
ByBlock
 48
0.5
370
    -2
100
AcDbLine
 10
139.52756289203
 20
75.09784380138819
 30
0.0
 11
151.9815608920299
 21
75.53274785191707
 31
0.0
  0
LINE
  5
4C0
330
2
100
AcDbEntity
  8
YKK_11
  6
ByBlock
 48
0.5
370
    -2
100
AcDbLine
 10
89.84294489203
 20
57.2981588519168
 30
0.0
 11
81.72756289202993
 21
57.01476323315591
 31
0.0
  0
LINE
  5
4C1
330
2
100
AcDbEntity
  8
YKK_11
  6
ByBlock
 48
0.5
370
    -2
100
AcDbLine
 10
81.72756289202993
 20
57.01476323315591
 30
0.0
 11
81.72756289202993
 21
47.55883785191678
 31
0.0
  0
LINE
  5
4C2
330
2
100
AcDbEntity
  8
YKK_11
  6
ByBlock
 48
0.5
370
    -2
100
AcDbLine
 10
81.72756289202993
 20
47.55883785191678
 30
0.0
 11
127.99756289203
 21
47.55883785191678
 31
0.0
  0
LINE
  5
4C3
330
2
100
AcDbEntity
  8
YKK_11
  6
ByBlock
 48
0.5
370
    -2
100
AcDbLine
 10
127.99756289203
 20
47.55883785191678
 30
0.0
 11
127.99756289203
 21
53.5288378519167
 31
0.0
  0
LINE
  5
4C4
330
2
100
AcDbEntity
  8
YKK_11
  6
ByBlock
 48
0.5
370
    -2
100
AcDbLine
 10
127.99756289203
 20
53.5288378519167
 30
0.0
 11
124.54756289203
 21
53.5288378519167
 31
0.0
  0
LINE
  5
4C5
330
2
100
AcDbEntity
  8
YKK_11
  6
ByBlock
 48
0.5
370
    -2
100
AcDbLine
 10
119.1186738920299
 20
58.32048985191704
 30
0.0
 11
96.61336889202994
 21
57.53458685191674
 31
0.0
  0
LINE
  5
4C6
330
2
100
AcDbEntity
  8
YKK_11
  6
ByBlock
 48
0.5
370
    -2
100
AcDbLine
 10
139.52756289203
 20
76.72883799901194
 30
0.0
 11
171.3675628920299
 21
77.84071546380073
 31
0.0
  0
LINE
  5
4C7
330
2
100
AcDbEntity
  8
YKK_11
  6
ByBlock
 48
0.5
370
    -2
100
AcDbLine
 10
171.3675628920299
 20
77.84071546380073
 30
0.0
 11
171.3675628920299
 21
86.2988378519168
 31
0.0
  0
LINE
  5
4C8
330
2
100
AcDbEntity
  8
YKK_11
  6
ByBlock
 48
0.5
370
    -2
100
AcDbLine
 10
171.3675628920299
 20
86.2988378519168
 30
0.0
 11
139.52756289203
 21
86.2988378519168
 31
0.0
  0
LINE
  5
4C9
330
2
100
AcDbEntity
  8
YKK_11
  6
ByBlock
 48
0.5
370
    -2
100
AcDbLine
 10
139.52756289203
 20
86.2988378519168
 30
0.0
 11
139.52756289203
 21
76.72883799901194
 31
0.0
  0
LINE
  5
4CA
330
2
100
AcDbEntity
  8
YKK_11
  6
ByBlock
 48
0.5
370
    -2
100
AcDbLine
 10
296.9968438957177
 20
165.9287518519175
 30
0.0
 11
296.9968438957177
 21
99.57875185191756
 31
0.0
  0
ARC
  5
4CB
330
2
100
AcDbEntity
  8
YKK_11
  6
ByBlock
 48
0.5
370
    -2
100
AcDbCircle
 10
297.6468438957178
 20
99.57875173933349
 30
0.0
 40
0.6500000000000155
100
AcDbArc
 50
179.9999900760799
 51
0.0000099239201029
  0
LINE
  5
4CC
330
2
100
AcDbEntity
  8
YKK_11
  6
ByBlock
 48
0.5
370
    -2
100
AcDbLine
 10
298.2968438957176
 20
99.57875185191756
 30
0.0
 11
298.2968438957176
 21
102.2987518519176
 31
0.0
  0
LINE
  5
4CD
330
2
100
AcDbEntity
  8
YKK_11
  6
ByBlock
 48
0.5
370
    -2
100
AcDbLine
 10
298.2968438957176
 20
102.2987518519176
 30
0.0
 11
301.9968438957177
 21
102.2987518519176
 31
0.0
  0
LINE
  5
4CE
330
2
100
AcDbEntity
  8
YKK_11
  6
ByBlock
 48
0.5
370
    -2
100
AcDbLine
 10
301.9968438957177
 20
102.2987518519176
 30
0.0
 11
301.9968438957177
 21
95.92875185191758
 31
0.0
  0
LINE
  5
4CF
330
2
100
AcDbEntity
  8
YKK_11
  6
ByBlock
 48
0.5
370
    -2
100
AcDbLine
 10
301.9968438957177
 20
95.92875185191758
 30
0.0
 11
302.9968443924391
 21
95.92875185191758
 31
0.0
  0
LINE
  5
4D0
330
2
100
AcDbEntity
  8
YKK_11
  6
ByBlock
 48
0.5
370
    -2
100
AcDbLine
 10
302.9968443924391
 20
95.92875185191758
 30
0.0
 11
303.6268438957178
 21
97.01994346779759
 31
0.0
  0
LINE
  5
4D1
330
2
100
AcDbEntity
  8
YKK_11
  6
ByBlock
 48
0.5
370
    -2
100
AcDbLine
 10
303.6268438957178
 20
97.01994346779759
 30
0.0
 11
303.6268438957178
 21
102.2987518519176
 31
0.0
  0
LINE
  5
4D2
330
2
100
AcDbEntity
  8
YKK_11
  6
ByBlock
 48
0.5
370
    -2
100
AcDbLine
 10
303.6268438957178
 20
102.2987518519176
 30
0.0
 11
310.3668438957176
 21
102.2987518519176
 31
0.0
  0
LINE
  5
4D3
330
2
100
AcDbEntity
  8
YKK_11
  6
ByBlock
 48
0.5
370
    -2
100
AcDbLine
 10
310.3668438957176
 20
102.2987518519176
 30
0.0
 11
310.3668438957176
 21
67.55875185191723
 31
0.0
  0
LINE
  5
4D4
330
2
100
AcDbEntity
  8
YKK_11
  6
ByBlock
 48
0.5
370
    -2
100
AcDbLine
 10
310.3668438957176
 20
67.55875185191723
 30
0.0
 11
303.6268438957178
 21
67.55875185191723
 31
0.0
  0
LINE
  5
4D5
330
2
100
AcDbEntity
  8
YKK_11
  6
ByBlock
 48
0.5
370
    -2
100
AcDbLine
 10
303.6268438957178
 20
67.55875185191723
 30
0.0
 11
303.6268438957178
 21
76.83756023603724
 31
0.0
  0
LINE
  5
4D6
330
2
100
AcDbEntity
  8
YKK_11
  6
ByBlock
 48
0.5
370
    -2
100
AcDbLine
 10
303.6268438957178
 20
76.83756023603724
 30
0.0
 11
302.9968443924391
 21
77.92875185191724
 31
0.0
  0
LINE
  5
4D7
330
2
100
AcDbEntity
  8
YKK_11
  6
ByBlock
 48
0.5
370
    -2
100
AcDbLine
 10
302.9968443924391
 20
77.92875185191724
 30
0.0
 11
301.9968438957177
 21
77.92875185191724
 31
0.0
  0
LINE
  5
4D8
330
2
100
AcDbEntity
  8
YKK_11
  6
ByBlock
 48
0.5
370
    -2
100
AcDbLine
 10
301.9968438957177
 20
77.92875185191724
 30
0.0
 11
301.9968438957177
 21
71.38700985191724
 31
0.0
  0
LINE
  5
4D9
330
2
100
AcDbEntity
  8
YKK_11
  6
ByBlock
 48
0.5
370
    -2
100
AcDbLine
 10
301.9968438957177
 20
71.38700985191724
 30
0.0
 11
302.1168438957176
 21
71.20370685191722
 31
0.0
  0
LINE
  5
4DA
330
2
100
AcDbEntity
  8
YKK_11
  6
ByBlock
 48
0.5
370
    -2
100
AcDbLine
 10
302.1168438957176
 20
71.20370685191722
 30
0.0
 11
302.1168438957176
 21
70.65379685191761
 31
0.0
  0
LINE
  5
4DB
330
2
100
AcDbEntity
  8
YKK_11
  6
ByBlock
 48
0.5
370
    -2
100
AcDbLine
 10
302.1168438957176
 20
70.65379685191761
 30
0.0
 11
301.9968438957177
 21
70.47049385191724
 31
0.0
  0
LINE
  5
4DC
330
2
100
AcDbEntity
  8
YKK_11
  6
ByBlock
 48
0.5
370
    -2
100
AcDbLine
 10
301.9968438957177
 20
70.47049385191724
 30
0.0
 11
301.9968438957177
 21
70.38700985191758
 31
0.0
  0
LINE
  5
4DD
330
2
100
AcDbEntity
  8
YKK_11
  6
ByBlock
 48
0.5
370
    -2
100
AcDbLine
 10
301.9968438957177
 20
70.38700985191758
 30
0.0
 11
302.1168438957176
 21
70.20370685191721
 31
0.0
  0
LINE
  5
4DE
330
2
100
AcDbEntity
  8
YKK_11
  6
ByBlock
 48
0.5
370
    -2
100
AcDbLine
 10
302.1168438957176
 20
70.20370685191721
 30
0.0
 11
302.1168438957176
 21
69.6537968519176
 31
0.0
  0
LINE
  5
4DF
330
2
100
AcDbEntity
  8
YKK_11
  6
ByBlock
 48
0.5
370
    -2
100
AcDbLine
 10
302.1168438957176
 20
69.6537968519176
 30
0.0
 11
301.9968438957177
 21
69.47049385191724
 31
0.0
  0
LINE
  5
4E0
330
2
100
AcDbEntity
  8
YKK_11
  6
ByBlock
 48
0.5
370
    -2
100
AcDbLine
 10
301.9968438957177
 20
69.47049385191724
 30
0.0
 11
301.9968438957177
 21
65.92875185191758
 31
0.0
  0
LINE
  5
4E1
330
2
100
AcDbEntity
  8
YKK_11
  6
ByBlock
 48
0.5
370
    -2
100
AcDbLine
 10
301.9968438957177
 20
65.92875185191758
 30
0.0
 11
326.9968438957177
 21
65.92875185191758
 31
0.0
  0
LINE
  5
4E2
330
2
100
AcDbEntity
  8
YKK_11
  6
ByBlock
 48
0.5
370
    -2
100
AcDbLine
 10
326.9968438957177
 20
65.92875185191758
 30
0.0
 11
326.9968438957177
 21
68.42875185191758
 31
0.0
  0
LINE
  5
4E3
330
2
100
AcDbEntity
  8
YKK_11
  6
ByBlock
 48
0.5
370
    -2
100
AcDbLine
 10
326.9968438957177
 20
68.42875185191758
 30
0.0
 11
325.9968438957177
 21
68.42875185191758
 31
0.0
  0
LINE
  5
4E4
330
2
100
AcDbEntity
  8
YKK_11
  6
ByBlock
 48
0.5
370
    -2
100
AcDbLine
 10
325.9968438957177
 20
68.42875185191758
 30
0.0
 11
325.9968438957177
 21
67.55875185191723
 31
0.0
  0
LINE
  5
4E5
330
2
100
AcDbEntity
  8
YKK_11
  6
ByBlock
 48
0.5
370
    -2
100
AcDbLine
 10
325.9968438957177
 20
67.55875185191723
 30
0.0
 11
311.9968438957177
 21
67.55875185191723
 31
0.0
  0
LINE
  5
4E6
330
2
100
AcDbEntity
  8
YKK_11
  6
ByBlock
 48
0.5
370
    -2
100
AcDbLine
 10
311.9968438957177
 20
67.55875185191723
 30
0.0
 11
311.9968438957177
 21
113.9287518519175
 31
0.0
  0
LINE
  5
4E7
330
2
100
AcDbEntity
  8
YKK_11
  6
ByBlock
 48
0.5
370
    -2
100
AcDbLine
 10
311.9968438957177
 20
113.9287518519175
 30
0.0
 11
323.4968438957177
 21
113.9287518519175
 31
0.0
  0
ARC
  5
4E8
330
2
100
AcDbEntity
  8
YKK_11
  6
ByBlock
 48
0.5
370
    -2
100
AcDbCircle
 10
323.4968437323201
 20
114.9287520153144
 30
0.0
 40
1.000000163397444
100
AcDbArc
 50
270.0000093619832
 51
359.9999906380168
  0
LINE
  5
4E9
330
2
100
AcDbEntity
  8
YKK_11
  6
ByBlock
 48
0.5
370
    -2
100
AcDbLine
 10
324.4968438957177
 20
114.9287518519175
 30
0.0
 11
324.4968438957177
 21
116.4287518519176
 31
0.0
  0
ARC
  5
4EA
330
2
100
AcDbEntity
  8
YKK_11
  6
ByBlock
 48
0.5
370
    -2
100
AcDbCircle
 10
323.4968437323201
 20
116.4287516885194
 30
0.0
 40
1.000000163397499
100
AcDbArc
 50
0.0000093619831622
 51
89.99999063801684
  0
LINE
  5
4EB
330
2
100
AcDbEntity
  8
YKK_11
  6
ByBlock
 48
0.5
370
    -2
100
AcDbLine
 10
323.4968438957177
 20
117.4287518519176
 30
0.0
 11
321.9968438957177
 21
117.4287518519176
 31
0.0
  0
LINE
  5
4EC
330
2
100
AcDbEntity
  8
YKK_11
  6
ByBlock
 48
0.5
370
    -2
100
AcDbLine
 10
321.9968438957177
 20
117.4287518519176
 30
0.0
 11
321.9968438957177
 21
116.4287518519176
 31
0.0
  0
LINE
  5
4ED
330
2
100
AcDbEntity
  8
YKK_11
  6
ByBlock
 48
0.5
370
    -2
100
AcDbLine
 10
321.9968438957177
 20
116.4287518519176
 30
0.0
 11
323.4968438957177
 21
116.4287518519176
 31
0.0
  0
LINE
  5
4EE
330
2
100
AcDbEntity
  8
YKK_11
  6
ByBlock
 48
0.5
370
    -2
100
AcDbLine
 10
323.4968438957177
 20
116.4287518519176
 30
0.0
 11
323.4968438957177
 21
114.9287518519175
 31
0.0
  0
LINE
  5
4EF
330
2
100
AcDbEntity
  8
YKK_11
  6
ByBlock
 48
0.5
370
    -2
100
AcDbLine
 10
323.4968438957177
 20
114.9287518519175
 30
0.0
 11
316.4968438957177
 21
114.9287518519175
 31
0.0
  0
LINE
  5
4F0
330
2
100
AcDbEntity
  8
YKK_11
  6
ByBlock
 48
0.5
370
    -2
100
AcDbLine
 10
316.4968438957177
 20
114.9287518519175
 30
0.0
 11
316.4968438957177
 21
116.4287518519176
 31
0.0
  0
LINE
  5
4F1
330
2
100
AcDbEntity
  8
YKK_11
  6
ByBlock
 48
0.5
370
    -2
100
AcDbLine
 10
316.4968438957177
 20
116.4287518519176
 30
0.0
 11
317.9968438957177
 21
116.4287518519176
 31
0.0
  0
LINE
  5
4F2
330
2
100
AcDbEntity
  8
YKK_11
  6
ByBlock
 48
0.5
370
    -2
100
AcDbLine
 10
317.9968438957177
 20
116.4287518519176
 30
0.0
 11
317.9968438957177
 21
117.4287518519176
 31
0.0
  0
LINE
  5
4F3
330
2
100
AcDbEntity
  8
YKK_11
  6
ByBlock
 48
0.5
370
    -2
100
AcDbLine
 10
317.9968438957177
 20
117.4287518519176
 30
0.0
 11
316.4968438957177
 21
117.4287518519176
 31
0.0
  0
ARC
  5
4F4
330
2
100
AcDbEntity
  8
YKK_11
  6
ByBlock
 48
0.5
370
    -2
100
AcDbCircle
 10
316.4968440591152
 20
116.4287516885194
 30
0.0
 40
1.000000163397444
100
AcDbArc
 50
90.00000936198317
 51
179.9999906380168
  0
LINE
  5
4F5
330
2
100
AcDbEntity
  8
YKK_11
  6
ByBlock
 48
0.5
370
    -2
100
AcDbLine
 10
315.4968438957177
 20
116.4287518519176
 30
0.0
 11
315.4968438957177
 21
115.1287518519175
 31
0.0
  0
LINE
  5
4F6
330
2
100
AcDbEntity
  8
YKK_11
  6
ByBlock
 48
0.5
370
    -2
100
AcDbLine
 10
315.4968438957177
 20
115.1287518519175
 30
0.0
 11
311.9968438957177
 21
115.1287518519175
 31
0.0
  0
LINE
  5
4F7
330
2
100
AcDbEntity
  8
YKK_11
  6
ByBlock
 48
0.5
370
    -2
100
AcDbLine
 10
311.9968438957177
 20
115.1287518519175
 30
0.0
 11
311.9968438957177
 21
146.7287518519175
 31
0.0
  0
LINE
  5
4F8
330
2
100
AcDbEntity
  8
YKK_11
  6
ByBlock
 48
0.5
370
    -2
100
AcDbLine
 10
311.9968438957177
 20
146.7287518519175
 30
0.0
 11
322.2968438957177
 21
146.7287518519175
 31
0.0
  0
LINE
  5
4F9
330
2
100
AcDbEntity
  8
YKK_11
  6
ByBlock
 48
0.5
370
    -2
100
AcDbLine
 10
322.2968438957177
 20
146.7287518519175
 30
0.0
 11
322.2968438957177
 21
145.2287518519175
 31
0.0
  0
LINE
  5
4FA
330
2
100
AcDbEntity
  8
YKK_11
  6
ByBlock
 48
0.5
370
    -2
100
AcDbLine
 10
322.2968438957177
 20
145.2287518519175
 30
0.0
 11
323.4968438957177
 21
145.2287518519175
 31
0.0
  0
LINE
  5
4FB
330
2
100
AcDbEntity
  8
YKK_11
  6
ByBlock
 48
0.5
370
    -2
100
AcDbLine
 10
323.4968438957177
 20
145.2287518519175
 30
0.0
 11
323.4968438957177
 21
147.6352808401265
 31
0.0
  0
LINE
  5
4FC
330
2
100
AcDbEntity
  8
YKK_11
  6
ByBlock
 48
0.5
370
    -2
100
AcDbLine
 10
323.4968438957177
 20
147.6352808401265
 30
0.0
 11
318.996842170195
 21
148.4287518519176
 31
0.0
  0
LINE
  5
4FD
330
2
100
AcDbEntity
  8
YKK_11
  6
ByBlock
 48
0.5
370
    -2
100
AcDbLine
 10
318.996842170195
 20
148.4287518519176
 30
0.0
 11
311.9968438957177
 21
148.4287518519176
 31
0.0
  0
LINE
  5
4FE
330
2
100
AcDbEntity
  8
YKK_11
  6
ByBlock
 48
0.5
370
    -2
100
AcDbLine
 10
311.9968438957177
 20
148.4287518519176
 30
0.0
 11
311.9968438957177
 21
164.2987518519174
 31
0.0
  0
LINE
  5
4FF
330
2
100
AcDbEntity
  8
YKK_11
  6
ByBlock
 48
0.5
370
    -2
100
AcDbLine
 10
311.9968438957177
 20
164.2987518519174
 30
0.0
 11
326.1818438957176
 21
164.2987518519174
 31
0.0
  0
ARC
  5
500
330
2
100
AcDbEntity
  8
YKK_11
  6
ByBlock
 48
0.5
370
    -2
100
AcDbCircle
 10
326.1818440368799
 20
165.1137518519175
 30
0.0
 40
0.8150000000000668
100
AcDbArc
 50
269.9999900760799
 51
90.0000099239201
  0
LINE
  5
501
330
2
100
AcDbEntity
  8
YKK_11
  6
ByBlock
 48
0.5
370
    -2
100
AcDbLine
 10
326.1818438957176
 20
165.9287518519175
 30
0.0
 11
296.9968438957177
 21
165.9287518519175
 31
0.0
  0
LINE
  5
502
330
2
100
AcDbEntity
  8
YKK_11
  6
ByBlock
 48
0.5
370
    -2
100
AcDbLine
 10
310.3668438957176
 20
103.9287518519176
 30
0.0
 11
310.3668438957176
 21
164.2987518519174
 31
0.0
  0
LINE
  5
503
330
2
100
AcDbEntity
  8
YKK_11
  6
ByBlock
 48
0.5
370
    -2
100
AcDbLine
 10
310.3668438957176
 20
164.2987518519174
 30
0.0
 11
298.6268438957178
 21
164.2987518519174
 31
0.0
  0
LINE
  5
504
330
2
100
AcDbEntity
  8
YKK_11
  6
ByBlock
 48
0.5
370
    -2
100
AcDbLine
 10
298.6268438957178
 20
164.2987518519174
 30
0.0
 11
298.6268438957178
 21
103.9287518519176
 31
0.0
  0
LINE
  5
505
330
2
100
AcDbEntity
  8
YKK_11
  6
ByBlock
 48
0.5
370
    -2
100
AcDbLine
 10
298.6268438957178
 20
103.9287518519176
 30
0.0
 11
310.3668438957176
 21
103.9287518519176
 31
0.0
  0
CIRCLE
  5
506
330
2
100
AcDbEntity
  8
YKK_D
  6
ByBlock
370
    -2
100
AcDbCircle
 10
326.9968439057171
 20
185.9288378619165
 30
0.0
 40
0.6375
  0
CIRCLE
  5
507
330
2
100
AcDbEntity
  8
YKK_D
  6
ByBlock
370
    -2
100
AcDbCircle
 10
296.9968439057178
 20
185.9288378619165
 30
0.0
 40
0.6375
  0
TEXT
  5
508
330
2
100
AcDbEntity
  8
YKK_D
100
AcDbText
 10
306.4570711784448
 20
187.4288378619175
 30
0.0
 40
7.5
  1
30
  7
text-b
100
AcDbText
  0
LINE
  5
509
330
2
100
AcDbEntity
  8
YKK_11
  6
ByBlock
370
    -2
100
AcDbLine
 10
501.9968302086723
 20
99.57892385191758
 30
0.0
 11
501.9968302086723
 21
165.9289238519164
 31
0.0
  0
LINE
  5
50A
330
2
100
AcDbEntity
  8
YKK_11
  6
ByBlock
370
    -2
100
AcDbLine
 10
501.9968302086723
 20
165.9289238519164
 30
0.0
 11
472.8118302086723
 21
165.9289238519164
 31
0.0
  0
ARC
  5
50B
330
2
100
AcDbEntity
  8
YKK_11
  6
ByBlock
370
    -2
100
AcDbCircle
 10
472.8118300675101
 20
165.1139238519164
 30
0.0
 40
0.8150000000000668
100
AcDbArc
 50
89.99999007607989
 51
270.0000099239201
  0
LINE
  5
50C
330
2
100
AcDbEntity
  8
YKK_11
  6
ByBlock
370
    -2
100
AcDbLine
 10
472.8118302086723
 20
164.2989238519166
 30
0.0
 11
486.9968302086723
 21
164.2989238519166
 31
0.0
  0
LINE
  5
50D
330
2
100
AcDbEntity
  8
YKK_11
  6
ByBlock
370
    -2
100
AcDbLine
 10
486.9968302086723
 20
164.2989238519166
 30
0.0
 11
486.9968302086723
 21
117.1289238519175
 31
0.0
  0
LINE
  5
50E
330
2
100
AcDbEntity
  8
YKK_11
  6
ByBlock
370
    -2
100
AcDbLine
 10
486.9968302086723
 20
117.1289238519175
 30
0.0
 11
478.9968302086723
 21
117.1289238519175
 31
0.0
  0
LINE
  5
50F
330
2
100
AcDbEntity
  8
YKK_11
  6
ByBlock
370
    -2
100
AcDbLine
 10
478.9968302086723
 20
117.1289238519175
 30
0.0
 11
478.9968302086723
 21
116.1289238519165
 31
0.0
  0
LINE
  5
510
330
2
100
AcDbEntity
  8
YKK_11
  6
ByBlock
370
    -2
100
AcDbLine
 10
478.9968302086723
 20
116.1289238519165
 30
0.0
 11
479.9603422086724
 21
115.9414238519175
 31
0.0
  0
LINE
  5
511
330
2
100
AcDbEntity
  8
YKK_11
  6
ByBlock
370
    -2
100
AcDbLine
 10
479.9603422086724
 20
115.9414238519175
 30
0.0
 11
480.2384502086725
 21
116.1289238519165
 31
0.0
  0
LINE
  5
512
330
2
100
AcDbEntity
  8
YKK_11
  6
ByBlock
370
    -2
100
AcDbLine
 10
480.2384502086725
 20
116.1289238519165
 30
0.0
 11
486.9968302086723
 21
116.1289238519165
 31
0.0
  0
LINE
  5
513
330
2
100
AcDbEntity
  8
YKK_11
  6
ByBlock
370
    -2
100
AcDbLine
 10
486.9968302086723
 20
116.1289238519165
 30
0.0
 11
486.9968302086723
 21
101.0289238519175
 31
0.0
  0
LINE
  5
514
330
2
100
AcDbEntity
  8
YKK_11
  6
ByBlock
370
    -2
100
AcDbLine
 10
486.9968302086723
 20
101.0289238519175
 30
0.0
 11
479.9968319341952
 21
101.0289238519175
 31
0.0
  0
LINE
  5
515
330
2
100
AcDbEntity
  8
YKK_11
  6
ByBlock
370
    -2
100
AcDbLine
 10
479.9968319341952
 20
101.0289238519175
 30
0.0
 11
475.4968302086723
 21
100.2354528401265
 31
0.0
  0
LINE
  5
516
330
2
100
AcDbEntity
  8
YKK_11
  6
ByBlock
370
    -2
100
AcDbLine
 10
475.4968302086723
 20
100.2354528401265
 30
0.0
 11
475.4968302086723
 21
97.82892385191644
 31
0.0
  0
LINE
  5
517
330
2
100
AcDbEntity
  8
YKK_11
  6
ByBlock
370
    -2
100
AcDbLine
 10
475.4968302086723
 20
97.82892385191644
 30
0.0
 11
476.6968302086723
 21
97.82892385191644
 31
0.0
  0
LINE
  5
518
330
2
100
AcDbEntity
  8
YKK_11
  6
ByBlock
370
    -2
100
AcDbLine
 10
476.6968302086723
 20
97.82892385191644
 30
0.0
 11
476.6968302086723
 21
99.32892385191644
 31
0.0
  0
LINE
  5
519
330
2
100
AcDbEntity
  8
YKK_11
  6
ByBlock
370
    -2
100
AcDbLine
 10
476.6968302086723
 20
99.32892385191644
 30
0.0
 11
486.9968302086723
 21
99.32892385191644
 31
0.0
  0
LINE
  5
51A
330
2
100
AcDbEntity
  8
YKK_11
  6
ByBlock
370
    -2
100
AcDbLine
 10
486.9968302086723
 20
99.32892385191644
 30
0.0
 11
486.9968302086723
 21
67.55892385191725
 31
0.0
  0
LINE
  5
51B
330
2
100
AcDbEntity
  8
YKK_11
  6
ByBlock
370
    -2
100
AcDbLine
 10
486.9968302086723
 20
67.55892385191725
 30
0.0
 11
483.4968302086723
 21
67.55892385191725
 31
0.0
  0
LINE
  5
51C
330
2
100
AcDbEntity
  8
YKK_11
  6
ByBlock
370
    -2
100
AcDbLine
 10
483.4968302086723
 20
67.55892385191725
 30
0.0
 11
483.4968302086723
 21
69.02892385191728
 31
0.0
  0
ARC
  5
51D
330
2
100
AcDbEntity
  8
YKK_11
  6
ByBlock
370
    -2
100
AcDbCircle
 10
482.496830045275
 20
69.02892368851985
 30
0.0
 40
1.000000163397499
100
AcDbArc
 50
0.0000093619831622
 51
89.99999063801684
  0
LINE
  5
51E
330
2
100
AcDbEntity
  8
YKK_11
  6
ByBlock
370
    -2
100
AcDbLine
 10
482.4968302086723
 20
70.02892385191728
 30
0.0
 11
480.9968302086723
 21
70.02892385191728
 31
0.0
  0
LINE
  5
51F
330
2
100
AcDbEntity
  8
YKK_11
  6
ByBlock
370
    -2
100
AcDbLine
 10
480.9968302086723
 20
70.02892385191728
 30
0.0
 11
480.9968302086723
 21
69.02892385191728
 31
0.0
  0
LINE
  5
520
330
2
100
AcDbEntity
  8
YKK_11
  6
ByBlock
370
    -2
100
AcDbLine
 10
480.9968302086723
 20
69.02892385191728
 30
0.0
 11
482.4968302086723
 21
69.02892385191728
 31
0.0
  0
LINE
  5
521
330
2
100
AcDbEntity
  8
YKK_11
  6
ByBlock
370
    -2
100
AcDbLine
 10
482.4968302086723
 20
69.02892385191728
 30
0.0
 11
482.4968302086723
 21
67.52892385191728
 31
0.0
  0
LINE
  5
522
330
2
100
AcDbEntity
  8
YKK_11
  6
ByBlock
370
    -2
100
AcDbLine
 10
482.4968302086723
 20
67.52892385191728
 30
0.0
 11
475.4968302086723
 21
67.52892385191728
 31
0.0
  0
LINE
  5
523
330
2
100
AcDbEntity
  8
YKK_11
  6
ByBlock
370
    -2
100
AcDbLine
 10
475.4968302086723
 20
67.52892385191728
 30
0.0
 11
475.4968302086723
 21
69.02892385191728
 31
0.0
  0
LINE
  5
524
330
2
100
AcDbEntity
  8
YKK_11
  6
ByBlock
370
    -2
100
AcDbLine
 10
475.4968302086723
 20
69.02892385191728
 30
0.0
 11
476.9968302086723
 21
69.02892385191728
 31
0.0
  0
LINE
  5
525
330
2
100
AcDbEntity
  8
YKK_11
  6
ByBlock
370
    -2
100
AcDbLine
 10
476.9968302086723
 20
69.02892385191728
 30
0.0
 11
476.9968302086723
 21
70.02892385191728
 31
0.0
  0
LINE
  5
526
330
2
100
AcDbEntity
  8
YKK_11
  6
ByBlock
370
    -2
100
AcDbLine
 10
476.9968302086723
 20
70.02892385191728
 30
0.0
 11
475.4968302086723
 21
70.02892385191728
 31
0.0
  0
ARC
  5
527
330
2
100
AcDbEntity
  8
YKK_11
  6
ByBlock
370
    -2
100
AcDbCircle
 10
475.4968303720699
 20
69.02892368851985
 30
0.0
 40
1.000000163397444
100
AcDbArc
 50
90.00000936198317
 51
179.9999906380168
  0
LINE
  5
528
330
2
100
AcDbEntity
  8
YKK_11
  6
ByBlock
370
    -2
100
AcDbLine
 10
474.4968302086723
 20
69.02892385191728
 30
0.0
 11
474.4968302086723
 21
67.55892385191725
 31
0.0
  0
LINE
  5
529
330
2
100
AcDbEntity
  8
YKK_11
  6
ByBlock
370
    -2
100
AcDbLine
 10
474.4968302086723
 20
67.55892385191725
 30
0.0
 11
472.9968302086724
 21
67.55892385191725
 31
0.0
  0
LINE
  5
52A
330
2
100
AcDbEntity
  8
YKK_11
  6
ByBlock
370
    -2
100
AcDbLine
 10
472.9968302086724
 20
67.55892385191725
 30
0.0
 11
472.9968302086724
 21
68.42892385191726
 31
0.0
  0
LINE
  5
52B
330
2
100
AcDbEntity
  8
YKK_11
  6
ByBlock
370
    -2
100
AcDbLine
 10
472.9968302086724
 20
68.42892385191726
 30
0.0
 11
471.9968302086723
 21
68.42892385191726
 31
0.0
  0
LINE
  5
52C
330
2
100
AcDbEntity
  8
YKK_11
  6
ByBlock
370
    -2
100
AcDbLine
 10
471.9968302086723
 20
68.42892385191726
 30
0.0
 11
471.9968302086723
 21
65.92892385191726
 31
0.0
  0
LINE
  5
52D
330
2
100
AcDbEntity
  8
YKK_11
  6
ByBlock
370
    -2
100
AcDbLine
 10
471.9968302086723
 20
65.92892385191726
 30
0.0
 11
496.9968302086723
 21
65.92892385191726
 31
0.0
  0
LINE
  5
52E
330
2
100
AcDbEntity
  8
YKK_11
  6
ByBlock
370
    -2
100
AcDbLine
 10
496.9968302086723
 20
65.92892385191726
 30
0.0
 11
496.9968302086723
 21
69.47066585191726
 31
0.0
  0
LINE
  5
52F
330
2
100
AcDbEntity
  8
YKK_11
  6
ByBlock
370
    -2
100
AcDbLine
 10
496.9968302086723
 20
69.47066585191726
 30
0.0
 11
496.8768302086724
 21
69.65396885191728
 31
0.0
  0
LINE
  5
530
330
2
100
AcDbEntity
  8
YKK_11
  6
ByBlock
370
    -2
100
AcDbLine
 10
496.8768302086724
 20
69.65396885191728
 30
0.0
 11
496.8768302086724
 21
70.20387885191723
 31
0.0
  0
LINE
  5
531
330
2
100
AcDbEntity
  8
YKK_11
  6
ByBlock
370
    -2
100
AcDbLine
 10
496.8768302086724
 20
70.20387885191723
 30
0.0
 11
496.9968302086723
 21
70.38718185191726
 31
0.0
  0
LINE
  5
532
330
2
100
AcDbEntity
  8
YKK_11
  6
ByBlock
370
    -2
100
AcDbLine
 10
496.9968302086723
 20
70.38718185191726
 30
0.0
 11
496.9968302086723
 21
70.47066585191726
 31
0.0
  0
LINE
  5
533
330
2
100
AcDbEntity
  8
YKK_11
  6
ByBlock
370
    -2
100
AcDbLine
 10
496.9968302086723
 20
70.47066585191726
 30
0.0
 11
496.8768302086724
 21
70.65396885191728
 31
0.0
  0
LINE
  5
534
330
2
100
AcDbEntity
  8
YKK_11
  6
ByBlock
370
    -2
100
AcDbLine
 10
496.8768302086724
 20
70.65396885191728
 30
0.0
 11
496.8768302086724
 21
71.20387885191724
 31
0.0
  0
LINE
  5
535
330
2
100
AcDbEntity
  8
YKK_11
  6
ByBlock
370
    -2
100
AcDbLine
 10
496.8768302086724
 20
71.20387885191724
 30
0.0
 11
496.9968302086723
 21
71.38718185191726
 31
0.0
  0
LINE
  5
536
330
2
100
AcDbEntity
  8
YKK_11
  6
ByBlock
370
    -2
100
AcDbLine
 10
496.9968302086723
 20
71.38718185191726
 30
0.0
 11
496.9968302086723
 21
77.92892385191726
 31
0.0
  0
LINE
  5
537
330
2
100
AcDbEntity
  8
YKK_11
  6
ByBlock
370
    -2
100
AcDbLine
 10
496.9968302086723
 20
77.92892385191726
 30
0.0
 11
495.9968297119509
 21
77.92892385191726
 31
0.0
  0
LINE
  5
538
330
2
100
AcDbEntity
  8
YKK_11
  6
ByBlock
370
    -2
100
AcDbLine
 10
495.9968297119509
 20
77.92892385191726
 30
0.0
 11
495.3668302086724
 21
76.83773223603679
 31
0.0
  0
LINE
  5
539
330
2
100
AcDbEntity
  8
YKK_11
  6
ByBlock
370
    -2
100
AcDbLine
 10
495.3668302086724
 20
76.83773223603679
 30
0.0
 11
495.3668302086724
 21
67.55892385191725
 31
0.0
  0
LINE
  5
53A
330
2
100
AcDbEntity
  8
YKK_11
  6
ByBlock
370
    -2
100
AcDbLine
 10
495.3668302086724
 20
67.55892385191725
 30
0.0
 11
488.6268302086724
 21
67.55892385191725
 31
0.0
  0
LINE
  5
53B
330
2
100
AcDbEntity
  8
YKK_11
  6
ByBlock
370
    -2
100
AcDbLine
 10
488.6268302086724
 20
67.55892385191725
 30
0.0
 11
488.6268302086724
 21
102.2989238519176
 31
0.0
  0
LINE
  5
53C
330
2
100
AcDbEntity
  8
YKK_11
  6
ByBlock
370
    -2
100
AcDbLine
 10
488.6268302086724
 20
102.2989238519176
 30
0.0
 11
495.3668302086724
 21
102.2989238519176
 31
0.0
  0
LINE
  5
53D
330
2
100
AcDbEntity
  8
YKK_11
  6
ByBlock
370
    -2
100
AcDbLine
 10
495.3668302086724
 20
102.2989238519176
 30
0.0
 11
495.3668302086724
 21
97.0201154677975
 31
0.0
  0
LINE
  5
53E
330
2
100
AcDbEntity
  8
YKK_11
  6
ByBlock
370
    -2
100
AcDbLine
 10
495.3668302086724
 20
97.0201154677975
 30
0.0
 11
495.9968297119509
 21
95.92892385191646
 31
0.0
  0
LINE
  5
53F
330
2
100
AcDbEntity
  8
YKK_11
  6
ByBlock
370
    -2
100
AcDbLine
 10
495.9968297119509
 20
95.92892385191646
 30
0.0
 11
496.9968302086723
 21
95.92892385191646
 31
0.0
  0
LINE
  5
540
330
2
100
AcDbEntity
  8
YKK_11
  6
ByBlock
370
    -2
100
AcDbLine
 10
496.9968302086723
 20
95.92892385191646
 30
0.0
 11
496.9968302086723
 21
102.2989238519176
 31
0.0
  0
LINE
  5
541
330
2
100
AcDbEntity
  8
YKK_11
  6
ByBlock
370
    -2
100
AcDbLine
 10
496.9968302086723
 20
102.2989238519176
 30
0.0
 11
500.6968302086724
 21
102.2989238519176
 31
0.0
  0
LINE
  5
542
330
2
100
AcDbEntity
  8
YKK_11
  6
ByBlock
370
    -2
100
AcDbLine
 10
500.6968302086724
 20
102.2989238519176
 30
0.0
 11
500.6968302086724
 21
99.57892385191758
 31
0.0
  0
ARC
  5
543
330
2
100
AcDbEntity
  8
YKK_11
  6
ByBlock
370
    -2
100
AcDbCircle
 10
501.3468302086725
 20
99.57892373933351
 30
0.0
 40
0.6500000000000439
100
AcDbArc
 50
179.9999900760799
 51
0.0000099239201029
  0
LINE
  5
544
330
2
100
AcDbEntity
  8
YKK_11
  6
ByBlock
 48
0.5
370
    -2
100
AcDbLine
 10
500.3668302086724
 20
103.9289238519164
 30
0.0
 11
500.3668302086724
 21
164.2989238519166
 31
0.0
  0
LINE
  5
545
330
2
100
AcDbEntity
  8
YKK_11
  6
ByBlock
 48
0.5
370
    -2
100
AcDbLine
 10
500.3668302086724
 20
164.2989238519166
 30
0.0
 11
488.6268302086724
 21
164.2989238519166
 31
0.0
  0
LINE
  5
546
330
2
100
AcDbEntity
  8
YKK_11
  6
ByBlock
 48
0.5
370
    -2
100
AcDbLine
 10
488.6268302086724
 20
164.2989238519166
 30
0.0
 11
488.6268302086724
 21
103.9289238519164
 31
0.0
  0
LINE
  5
547
330
2
100
AcDbEntity
  8
YKK_11
  6
ByBlock
 48
0.5
370
    -2
100
AcDbLine
 10
488.6268302086724
 20
103.9289238519164
 30
0.0
 11
500.3668302086724
 21
103.9289238519164
 31
0.0
  0
LINE
  5
548
330
2
100
AcDbEntity
  8
YKK_11
  6
ByBlock
 48
0.5
370
    -2
100
AcDbLine
 10
151.4224292611958
 20
313.028827730252
 30
0.0
 11
171.3975202611958
 21
313.028827730252
 31
0.0
  0
LINE
  5
549
330
2
100
AcDbEntity
  8
YKK_11
  6
ByBlock
 48
0.5
370
    -2
100
AcDbLine
 10
171.3975202611958
 20
313.028827730252
 30
0.0
 11
171.3975202611958
 21
324.328827730252
 31
0.0
  0
LINE
  5
54A
330
2
100
AcDbEntity
  8
YKK_11
  6
ByBlock
 48
0.5
370
    -2
100
AcDbLine
 10
171.3975202611958
 20
324.328827730252
 30
0.0
 11
164.5367498385567
 21
324.328827730252
 31
0.0
  0
LINE
  5
54B
330
2
100
AcDbEntity
  8
YKK_11
  6
ByBlock
 48
0.5
370
    -2
100
AcDbLine
 10
164.5367498385567
 20
324.328827730252
 30
0.0
 11
163.4975202611958
 21
324.9288272814499
 31
0.0
  0
LINE
  5
54C
330
2
100
AcDbEntity
  8
YKK_11
  6
ByBlock
 48
0.5
370
    -2
100
AcDbLine
 10
163.4975202611958
 20
324.9288272814499
 30
0.0
 11
163.4975202611958
 21
325.9288277302521
 31
0.0
  0
LINE
  5
54D
330
2
100
AcDbEntity
  8
YKK_11
  6
ByBlock
 48
0.5
370
    -2
100
AcDbLine
 10
163.4975202611958
 20
325.9288277302521
 30
0.0
 11
172.9975202611958
 21
325.9288277302521
 31
0.0
  0
LINE
  5
54E
330
2
100
AcDbEntity
  8
YKK_11
  6
ByBlock
 48
0.5
370
    -2
100
AcDbLine
 10
172.9975202611958
 20
325.9288277302521
 30
0.0
 11
172.9975202611958
 21
290.9288277302522
 31
0.0
  0
LINE
  5
54F
330
2
100
AcDbEntity
  8
YKK_11
  6
ByBlock
 48
0.5
370
    -2
100
AcDbLine
 10
172.9975202611958
 20
290.9288277302522
 30
0.0
 11
168.8975202611958
 21
290.9288277302522
 31
0.0
  0
LINE
  5
550
330
2
100
AcDbEntity
  8
YKK_11
  6
ByBlock
 48
0.5
370
    -2
100
AcDbLine
 10
168.8975202611958
 20
290.9288277302522
 30
0.0
 11
168.8975202611958
 21
293.4288277302521
 31
0.0
  0
LINE
  5
551
330
2
100
AcDbEntity
  8
YKK_11
  6
ByBlock
 48
0.5
370
    -2
100
AcDbLine
 10
168.8975202611958
 20
293.4288277302521
 30
0.0
 11
169.8975202611958
 21
293.4288277302521
 31
0.0
  0
LINE
  5
552
330
2
100
AcDbEntity
  8
YKK_11
  6
ByBlock
 48
0.5
370
    -2
100
AcDbLine
 10
169.8975202611958
 20
293.4288277302521
 30
0.0
 11
169.8975202611958
 21
291.9288277302521
 31
0.0
  0
LINE
  5
553
330
2
100
AcDbEntity
  8
YKK_11
  6
ByBlock
 48
0.5
370
    -2
100
AcDbLine
 10
169.8975202611958
 20
291.9288277302521
 30
0.0
 11
171.3975202611958
 21
291.9288277302521
 31
0.0
  0
LINE
  5
554
330
2
100
AcDbEntity
  8
YKK_11
  6
ByBlock
 48
0.5
370
    -2
100
AcDbLine
 10
171.3975202611958
 20
291.9288277302521
 30
0.0
 11
171.3975202611958
 21
298.9288277302521
 31
0.0
  0
LINE
  5
555
330
2
100
AcDbEntity
  8
YKK_11
  6
ByBlock
 48
0.5
370
    -2
100
AcDbLine
 10
171.3975202611958
 20
298.9288277302521
 30
0.0
 11
169.8975202611958
 21
298.9288277302521
 31
0.0
  0
LINE
  5
556
330
2
100
AcDbEntity
  8
YKK_11
  6
ByBlock
 48
0.5
370
    -2
100
AcDbLine
 10
169.8975202611958
 20
298.9288277302521
 30
0.0
 11
169.8975202611958
 21
297.4288277302521
 31
0.0
  0
LINE
  5
557
330
2
100
AcDbEntity
  8
YKK_11
  6
ByBlock
 48
0.5
370
    -2
100
AcDbLine
 10
169.8975202611958
 20
297.4288277302521
 30
0.0
 11
168.8975202611958
 21
297.4288277302521
 31
0.0
  0
LINE
  5
558
330
2
100
AcDbEntity
  8
YKK_11
  6
ByBlock
 48
0.5
370
    -2
100
AcDbLine
 10
168.8975202611958
 20
297.4288277302521
 30
0.0
 11
168.8975202611958
 21
299.9288277302521
 31
0.0
  0
LINE
  5
559
330
2
100
AcDbEntity
  8
YKK_11
  6
ByBlock
 48
0.5
370
    -2
100
AcDbLine
 10
168.8975202611958
 20
299.9288277302521
 30
0.0
 11
171.3975202611958
 21
299.9288277302521
 31
0.0
  0
LINE
  5
55A
330
2
100
AcDbEntity
  8
YKK_11
  6
ByBlock
 48
0.5
370
    -2
100
AcDbLine
 10
171.3975202611958
 20
299.9288277302521
 30
0.0
 11
171.3975202611958
 21
311.4288277302521
 31
0.0
  0
LINE
  5
55B
330
2
100
AcDbEntity
  8
YKK_11
  6
ByBlock
 48
0.5
370
    -2
100
AcDbLine
 10
171.3975202611958
 20
311.4288277302521
 30
0.0
 11
142.8975202611958
 21
311.4288277302521
 31
0.0
  0
LINE
  5
55C
330
2
100
AcDbEntity
  8
YKK_11
  6
ByBlock
 48
0.5
370
    -2
100
AcDbLine
 10
142.8975202611958
 20
311.4288277302521
 30
0.0
 11
142.8975202611958
 21
312.4288277302521
 31
0.0
  0
LINE
  5
55D
330
2
100
AcDbEntity
  8
YKK_11
  6
ByBlock
 48
0.5
370
    -2
100
AcDbLine
 10
142.8975202611958
 20
312.4288277302521
 30
0.0
 11
144.5975202611958
 21
312.4288277302521
 31
0.0
  0
LINE
  5
55E
330
2
100
AcDbEntity
  8
YKK_11
  6
ByBlock
 48
0.5
370
    -2
100
AcDbLine
 10
144.5975202611958
 20
312.4288277302521
 30
0.0
 11
144.5975202611958
 21
315.4288277302521
 31
0.0
  0
LINE
  5
55F
330
2
100
AcDbEntity
  8
YKK_11
  6
ByBlock
 48
0.5
370
    -2
100
AcDbLine
 10
144.5975202611958
 20
315.4288277302521
 30
0.0
 11
131.1975202611959
 21
315.4288277302521
 31
0.0
  0
LINE
  5
560
330
2
100
AcDbEntity
  8
YKK_11
  6
ByBlock
 48
0.5
370
    -2
100
AcDbLine
 10
131.1975202611959
 20
315.4288277302521
 30
0.0
 11
131.1975202611959
 21
312.4288277302521
 31
0.0
  0
LINE
  5
561
330
2
100
AcDbEntity
  8
YKK_11
  6
ByBlock
 48
0.5
370
    -2
100
AcDbLine
 10
131.1975202611959
 20
312.4288277302521
 30
0.0
 11
132.8975202611958
 21
312.4288277302521
 31
0.0
  0
LINE
  5
562
330
2
100
AcDbEntity
  8
YKK_11
  6
ByBlock
 48
0.5
370
    -2
100
AcDbLine
 10
132.8975202611958
 20
312.4288277302521
 30
0.0
 11
132.8975202611958
 21
311.4288277302521
 31
0.0
  0
LINE
  5
563
330
2
100
AcDbEntity
  8
YKK_11
  6
ByBlock
 48
0.5
370
    -2
100
AcDbLine
 10
132.8975202611958
 20
311.4288277302521
 30
0.0
 11
125.0975202611959
 21
311.4288277302521
 31
0.0
  0
LINE
  5
564
330
2
100
AcDbEntity
  8
YKK_11
  6
ByBlock
 48
0.5
370
    -2
100
AcDbLine
 10
125.0975202611959
 20
311.4288277302521
 30
0.0
 11
125.0975202611959
 21
305.0288277302521
 31
0.0
  0
LINE
  5
565
330
2
100
AcDbEntity
  8
YKK_11
  6
ByBlock
 48
0.5
370
    -2
100
AcDbLine
 10
125.0975202611959
 20
305.0288277302521
 30
0.0
 11
123.9975202611958
 21
303.9288277302521
 31
0.0
  0
LINE
  5
566
330
2
100
AcDbEntity
  8
YKK_11
  6
ByBlock
 48
0.5
370
    -2
100
AcDbLine
 10
123.9975202611958
 20
303.9288277302521
 30
0.0
 11
123.9975202611958
 21
301.528827730252
 31
0.0
  0
LINE
  5
567
330
2
100
AcDbEntity
  8
YKK_11
  6
ByBlock
 48
0.5
370
    -2
100
AcDbLine
 10
123.9975202611958
 20
301.528827730252
 30
0.0
 11
125.5975202611959
 21
299.9288277302521
 31
0.0
  0
LINE
  5
568
330
2
100
AcDbEntity
  8
YKK_11
  6
ByBlock
 48
0.5
370
    -2
100
AcDbLine
 10
125.5975202611959
 20
299.9288277302521
 30
0.0
 11
125.5975202611959
 21
290.9288277302522
 31
0.0
  0
LINE
  5
569
330
2
100
AcDbEntity
  8
YKK_11
  6
ByBlock
 48
0.5
370
    -2
100
AcDbLine
 10
125.5975202611959
 20
290.9288277302522
 30
0.0
 11
121.4975202611958
 21
290.9288277302522
 31
0.0
  0
LINE
  5
56A
330
2
100
AcDbEntity
  8
YKK_11
  6
ByBlock
 48
0.5
370
    -2
100
AcDbLine
 10
121.4975202611958
 20
290.9288277302522
 30
0.0
 11
121.4975202611958
 21
293.4288277302521
 31
0.0
  0
LINE
  5
56B
330
2
100
AcDbEntity
  8
YKK_11
  6
ByBlock
 48
0.5
370
    -2
100
AcDbLine
 10
121.4975202611958
 20
293.4288277302521
 30
0.0
 11
122.4975202611958
 21
293.4288277302521
 31
0.0
  0
LINE
  5
56C
330
2
100
AcDbEntity
  8
YKK_11
  6
ByBlock
 48
0.5
370
    -2
100
AcDbLine
 10
122.4975202611958
 20
293.4288277302521
 30
0.0
 11
122.4975202611958
 21
291.9288277302521
 31
0.0
  0
LINE
  5
56D
330
2
100
AcDbEntity
  8
YKK_11
  6
ByBlock
 48
0.5
370
    -2
100
AcDbLine
 10
122.4975202611958
 20
291.9288277302521
 30
0.0
 11
123.9975202611958
 21
291.9288277302521
 31
0.0
  0
LINE
  5
56E
330
2
100
AcDbEntity
  8
YKK_11
  6
ByBlock
 48
0.5
370
    -2
100
AcDbLine
 10
123.9975202611958
 20
291.9288277302521
 30
0.0
 11
123.9975202611958
 21
298.9288277302521
 31
0.0
  0
LINE
  5
56F
330
2
100
AcDbEntity
  8
YKK_11
  6
ByBlock
 48
0.5
370
    -2
100
AcDbLine
 10
123.9975202611958
 20
298.9288277302521
 30
0.0
 11
122.4975202611958
 21
298.9288277302521
 31
0.0
  0
LINE
  5
570
330
2
100
AcDbEntity
  8
YKK_11
  6
ByBlock
 48
0.5
370
    -2
100
AcDbLine
 10
122.4975202611958
 20
298.9288277302521
 30
0.0
 11
122.4975202611958
 21
297.4288277302521
 31
0.0
  0
LINE
  5
571
330
2
100
AcDbEntity
  8
YKK_11
  6
ByBlock
 48
0.5
370
    -2
100
AcDbLine
 10
122.4975202611958
 20
297.4288277302521
 30
0.0
 11
121.4975202611958
 21
297.4288277302521
 31
0.0
  0
LINE
  5
572
330
2
100
AcDbEntity
  8
YKK_11
  6
ByBlock
 48
0.5
370
    -2
100
AcDbLine
 10
121.4975202611958
 20
297.4288277302521
 30
0.0
 11
121.4975202611958
 21
311.4288277302521
 31
0.0
  0
LINE
  5
573
330
2
100
AcDbEntity
  8
YKK_11
  6
ByBlock
 48
0.5
370
    -2
100
AcDbLine
 10
121.4975202611958
 20
311.4288277302521
 30
0.0
 11
115.7975202611959
 21
311.4288277302521
 31
0.0
  0
LINE
  5
574
330
2
100
AcDbEntity
  8
YKK_11
  6
ByBlock
 48
0.5
370
    -2
100
AcDbLine
 10
115.7975202611959
 20
311.4288277302521
 30
0.0
 11
115.7975202611959
 21
312.4288277302521
 31
0.0
  0
LINE
  5
575
330
2
100
AcDbEntity
  8
YKK_11
  6
ByBlock
 48
0.5
370
    -2
100
AcDbLine
 10
115.7975202611959
 20
312.4288277302521
 30
0.0
 11
119.5975202611958
 21
312.4288277302521
 31
0.0
  0
LINE
  5
576
330
2
100
AcDbEntity
  8
YKK_11
  6
ByBlock
 48
0.5
370
    -2
100
AcDbLine
 10
119.5975202611958
 20
312.4288277302521
 30
0.0
 11
119.5975202611958
 21
315.4288277302521
 31
0.0
  0
LINE
  5
577
330
2
100
AcDbEntity
  8
YKK_11
  6
ByBlock
 48
0.5
370
    -2
100
AcDbLine
 10
119.5975202611958
 20
315.4288277302521
 30
0.0
 11
104.0975202611958
 21
315.4288277302521
 31
0.0
  0
LINE
  5
578
330
2
100
AcDbEntity
  8
YKK_11
  6
ByBlock
 48
0.5
370
    -2
100
AcDbLine
 10
104.0975202611958
 20
315.4288277302521
 30
0.0
 11
104.0975202611958
 21
312.4288277302521
 31
0.0
  0
LINE
  5
579
330
2
100
AcDbEntity
  8
YKK_11
  6
ByBlock
 48
0.5
370
    -2
100
AcDbLine
 10
104.0975202611958
 20
312.4288277302521
 30
0.0
 11
105.7975202611959
 21
312.4288277302521
 31
0.0
  0
LINE
  5
57A
330
2
100
AcDbEntity
  8
YKK_11
  6
ByBlock
 48
0.5
370
    -2
100
AcDbLine
 10
105.7975202611959
 20
312.4288277302521
 30
0.0
 11
105.7975202611959
 21
311.4288277302521
 31
0.0
  0
LINE
  5
57B
330
2
100
AcDbEntity
  8
YKK_11
  6
ByBlock
 48
0.5
370
    -2
100
AcDbLine
 10
105.7975202611959
 20
311.4288277302521
 30
0.0
 11
92.9475202611959
 21
311.4288277302521
 31
0.0
  0
LINE
  5
57C
330
2
100
AcDbEntity
  8
YKK_11
  6
ByBlock
 48
0.5
370
    -2
100
AcDbLine
 10
92.9475202611959
 20
311.4288277302521
 30
0.0
 11
92.9475202611959
 21
301.5752377302519
 31
0.0
  0
LINE
  5
57D
330
2
100
AcDbEntity
  8
YKK_11
  6
ByBlock
 48
0.5
370
    -2
100
AcDbLine
 10
92.9475202611959
 20
301.5752377302519
 30
0.0
 11
93.04752026119592
 21
301.4020327302521
 31
0.0
  0
LINE
  5
57E
330
2
100
AcDbEntity
  8
YKK_11
  6
ByBlock
 48
0.5
370
    -2
100
AcDbLine
 10
93.04752026119592
 20
301.4020327302521
 30
0.0
 11
93.14752026119595
 21
301.2288277302521
 31
0.0
  0
LINE
  5
57F
330
2
100
AcDbEntity
  8
YKK_11
  6
ByBlock
 48
0.5
370
    -2
100
AcDbLine
 10
93.14752026119595
 20
301.2288277302521
 30
0.0
 11
93.14752026119595
 21
291.8788277302519
 31
0.0
  0
ARC
  5
580
330
2
100
AcDbEntity
  8
YKK_11
  6
ByBlock
 48
0.5
370
    -2
100
AcDbCircle
 10
92.19752026119591
 20
291.8788275657071
 30
0.0
 40
0.9500000000000172
100
AcDbArc
 50
179.9999900760799
 51
0.0000099239201029
  0
LINE
  5
581
330
2
100
AcDbEntity
  8
YKK_11
  6
ByBlock
 48
0.5
370
    -2
100
AcDbLine
 10
91.24752026119585
 20
291.8788277302519
 30
0.0
 11
91.24752026119585
 21
311.4288277302521
 31
0.0
  0
LINE
  5
582
330
2
100
AcDbEntity
  8
YKK_11
  6
ByBlock
 48
0.5
370
    -2
100
AcDbLine
 10
91.24752026119585
 20
311.4288277302521
 30
0.0
 11
74.59752026119588
 21
311.4288277302521
 31
0.0
  0
LINE
  5
583
330
2
100
AcDbEntity
  8
YKK_11
  6
ByBlock
 48
0.5
370
    -2
100
AcDbLine
 10
74.59752026119588
 20
311.4288277302521
 30
0.0
 11
74.59752026119588
 21
291.7288277302521
 31
0.0
  0
ARC
  5
584
330
2
100
AcDbEntity
  8
YKK_11
  6
ByBlock
 48
0.5
370
    -2
100
AcDbCircle
 10
73.79752026119593
 20
291.7288275916881
 30
0.0
 40
0.8000000000000163
100
AcDbArc
 50
179.9999900760799
 51
0.0000099239135891
  0
LINE
  5
585
330
2
100
AcDbEntity
  8
YKK_11
  6
ByBlock
 48
0.5
370
    -2
100
AcDbLine
 10
72.99752026119597
 20
291.7288277302521
 30
0.0
 11
72.99752026119597
 21
325.9288277302521
 31
0.0
  0
LINE
  5
586
330
2
100
AcDbEntity
  8
YKK_11
  6
ByBlock
 48
0.5
370
    -2
100
AcDbLine
 10
72.99752026119597
 20
325.9288277302521
 30
0.0
 11
127.9975202611958
 21
325.9288277302521
 31
0.0
  0
LINE
  5
587
330
2
100
AcDbEntity
  8
YKK_11
  6
ByBlock
 48
0.5
370
    -2
100
AcDbLine
 10
127.9975202611958
 20
325.9288277302521
 30
0.0
 11
127.9975202611958
 21
335.1288277302519
 31
0.0
  0
ARC
  5
588
330
2
100
AcDbEntity
  8
YKK_11
  6
ByBlock
 48
0.5
370
    -2
100
AcDbCircle
 10
128.7975202611959
 20
335.1288278688159
 30
0.0
 40
0.8000000000000092
100
AcDbArc
 50
359.9999900760864
 51
180.0000099239135
  0
LINE
  5
589
330
2
100
AcDbEntity
  8
YKK_11
  6
ByBlock
 48
0.5
370
    -2
100
AcDbLine
 10
129.5975202611959
 20
335.1288277302519
 30
0.0
 11
129.5975202611959
 21
325.9288277302521
 31
0.0
  0
LINE
  5
58A
330
2
100
AcDbEntity
  8
YKK_11
  6
ByBlock
 48
0.5
370
    -2
100
AcDbLine
 10
129.5975202611959
 20
325.9288277302521
 30
0.0
 11
137.4975202611958
 21
325.9288277302521
 31
0.0
  0
LINE
  5
58B
330
2
100
AcDbEntity
  8
YKK_11
  6
ByBlock
 48
0.5
370
    -2
100
AcDbLine
 10
137.4975202611958
 20
325.9288277302521
 30
0.0
 11
137.4975202611958
 21
324.9288272814499
 31
0.0
  0
LINE
  5
58C
330
2
100
AcDbEntity
  8
YKK_11
  6
ByBlock
 48
0.5
370
    -2
100
AcDbLine
 10
137.4975202611958
 20
324.9288272814499
 30
0.0
 11
136.4582906838351
 21
324.328827730252
 31
0.0
  0
LINE
  5
58D
330
2
100
AcDbEntity
  8
YKK_11
  6
ByBlock
 48
0.5
370
    -2
100
AcDbLine
 10
136.4582906838351
 20
324.328827730252
 30
0.0
 11
129.5975202611959
 21
324.328827730252
 31
0.0
  0
LINE
  5
58E
330
2
100
AcDbEntity
  8
YKK_11
  6
ByBlock
 48
0.5
370
    -2
100
AcDbLine
 10
129.5975202611959
 20
324.328827730252
 30
0.0
 11
129.5975202611959
 21
321.328827451038
 31
0.0
  0
LINE
  5
58F
330
2
100
AcDbEntity
  8
YKK_11
  6
ByBlock
 48
0.5
370
    -2
100
AcDbLine
 10
129.5975202611959
 20
321.328827451038
 30
0.0
 11
131.2087619034221
 21
317.028827730252
 31
0.0
  0
LINE
  5
590
330
2
100
AcDbEntity
  8
YKK_11
  6
ByBlock
 48
0.5
370
    -2
100
AcDbLine
 10
131.2087619034221
 20
317.028827730252
 30
0.0
 11
146.4475202611959
 21
317.028827730252
 31
0.0
  0
LINE
  5
591
330
2
100
AcDbEntity
  8
YKK_11
  6
ByBlock
 48
0.5
370
    -2
100
AcDbLine
 10
126.4224292611958
 20
313.028827730252
 30
0.0
 11
129.5975202611959
 21
313.028827730252
 31
0.0
  0
LINE
  5
592
330
2
100
AcDbEntity
  8
YKK_11
  6
ByBlock
 48
0.5
370
    -2
100
AcDbLine
 10
129.5975202611959
 20
313.028827730252
 30
0.0
 11
129.5975202611959
 21
316.7689050113761
 31
0.0
  0
LINE
  5
593
330
2
100
AcDbEntity
  8
YKK_11
  6
ByBlock
 48
0.5
370
    -2
100
AcDbLine
 10
129.5975202611959
 20
316.7689050113761
 30
0.0
 11
127.9975202611958
 21
321.0389034491281
 31
0.0
  0
LINE
  5
594
330
2
100
AcDbEntity
  8
YKK_11
  6
ByBlock
 48
0.5
370
    -2
100
AcDbLine
 10
127.9975202611958
 20
321.0389034491281
 30
0.0
 11
127.9975202611958
 21
324.328827730252
 31
0.0
  0
LINE
  5
595
330
2
100
AcDbEntity
  8
YKK_11
  6
ByBlock
 48
0.5
370
    -2
100
AcDbLine
 10
127.9975202611958
 20
324.328827730252
 30
0.0
 11
74.59752026119588
 21
324.328827730252
 31
0.0
  0
LINE
  5
596
330
2
100
AcDbEntity
  8
YKK_11
  6
ByBlock
 48
0.5
370
    -2
100
AcDbLine
 10
74.59752026119588
 20
324.328827730252
 30
0.0
 11
74.59752026119588
 21
313.028827730252
 31
0.0
  0
LINE
  5
597
330
2
100
AcDbEntity
  8
YKK_11
  6
ByBlock
 48
0.5
370
    -2
100
AcDbLine
 10
74.59752026119588
 20
313.028827730252
 30
0.0
 11
88.07261126119589
 21
313.028827730252
 31
0.0
  0
ARC
  5
598
330
2
100
AcDbEntity
  8
YKK_11
  6
ByBlock
 48
0.5
370
    -2
100
AcDbCircle
 10
91.49751997781084
 20
314.9288273515401
 30
0.0
 40
3.200000283385123
100
AcDbArc
 50
0.000006780814748
 51
38.36652124991834
  0
LINE
  5
599
330
2
100
AcDbEntity
  8
YKK_11
  6
ByBlock
 48
0.5
370
    -2
100
AcDbLine
 10
94.69752026119591
 20
314.9288277302521
 30
0.0
 11
94.69752026119591
 21
313.028827730252
 31
0.0
  0
LINE
  5
59A
330
2
100
AcDbEntity
  8
YKK_11
  6
ByBlock
 48
0.5
370
    -2
100
AcDbLine
 10
94.69752026119591
 20
313.028827730252
 30
0.0
 11
102.4975202611958
 21
313.028827730252
 31
0.0
  0
LINE
  5
59B
330
2
100
AcDbEntity
  8
YKK_11
  6
ByBlock
 48
0.5
370
    -2
100
AcDbLine
 10
102.4975202611958
 20
313.028827730252
 30
0.0
 11
102.4975202611958
 21
316.028827730252
 31
0.0
  0
ARC
  5
59C
330
2
100
AcDbEntity
  8
YKK_11
  6
ByBlock
 48
0.5
370
    -2
100
AcDbCircle
 10
103.4975204245934
 20
316.028827566854
 30
0.0
 40
1.000000163397485
100
AcDbArc
 50
90.00000936198317
 51
179.9999906380103
  0
LINE
  5
59D
330
2
100
AcDbEntity
  8
YKK_11
  6
ByBlock
 48
0.5
370
    -2
100
AcDbLine
 10
103.4975202611958
 20
317.028827730252
 30
0.0
 11
121.4475202611959
 21
317.028827730252
 31
0.0
  0
CIRCLE
  5
59E
330
2
100
AcDbEntity
  8
YKK_D
  6
ByBlock
370
    -2
100
AcDbCircle
 10
472.0000130000001
 20
185.9288378619165
 30
0.0
 40
0.6375
  0
CIRCLE
  5
59F
330
2
100
AcDbEntity
  8
YKK_D
  6
ByBlock
370
    -2
100
AcDbCircle
 10
502.0000129999999
 20
185.9288378619165
 30
0.0
 40
0.6375
  0
TEXT
  5
5A0
330
2
100
AcDbEntity
  8
YKK_D
100
AcDbText
 10
481.4602402727274
 20
187.4288378619175
 30
0.0
 40
7.5
  1
30
  7
text-b
100
AcDbText
  0
TEXT
  5
5A1
330
2
100
AcDbEntity
  8
YKK_D
100
AcDbText
 10
51.33664146462194
 20
45.28449623722678
 30
0.0
 40
7.5
  1
12
 50
90.0
  7
text-b
100
AcDbText
  0
CIRCLE
  5
5A2
330
2
100
AcDbEntity
  8
YKK_D
  6
ByBlock
370
    -2
100
AcDbCircle
 10
52.99756290203015
 20
45.92883786191725
 30
0.0
 40
0.6375
  0
CIRCLE
  5
5A3
330
2
100
AcDbEntity
  8
YKK_D
  6
ByBlock
370
    -2
100
AcDbCircle
 10
52.99756290203015
 20
57.92883786191725
 30
0.0
 40
0.6375000000000001
  0
CIRCLE
  5
5A4
330
2
100
AcDbEntity
  8
YKK_D
  6
ByBlock
370
    -2
100
AcDbCircle
 10
192.9975629020315
 20
105.9288378619172
 30
0.0
 40
0.6375000000000001
  0
CIRCLE
  5
5A5
330
2
100
AcDbEntity
  8
YKK_D
  6
ByBlock
370
    -2
100
AcDbCircle
 10
192.9975629020316
 20
49.92883786191736
 30
0.0
 40
0.6375
  0
TEXT
  5
5A6
330
2
100
AcDbEntity
  8
YKK_D
100
AcDbText
 10
191.4975629020318
 20
72.49559922555374
 30
0.0
 40
7.5
  1
56
 50
90.0
  7
text-b
100
AcDbText
  0
CIRCLE
  5
5A7
330
2
100
AcDbEntity
  8
YKK_D
  6
ByBlock
370
    -2
100
AcDbCircle
 10
52.99752026119574
 20
325.928827730253
 30
0.0
 40
0.6375000000000001
  0
CIRCLE
  5
5A8
330
2
100
AcDbEntity
  8
YKK_D
  6
ByBlock
370
    -2
100
AcDbCircle
 10
52.99752026119574
 20
290.9288277302522
 30
0.0
 40
0.6375
  0
TEXT
  5
5A9
330
2
100
AcDbEntity
  8
YKK_D
100
AcDbText
 10
51.49752026119609
 20
302.9742822757071
 30
0.0
 40
7.5
  1
35
 50
90.0
  7
text-b
100
AcDbText
  0
TEXT
  5
5AA
330
2
100
AcDbEntity
  8
YKK_D
100
AcDbText
 10
51.49752026119813
 20
325.0907595484339
 30
0.0
 40
7.5
  1
10
 50
90.0
  7
text-b
100
AcDbText
  0
CIRCLE
  5
5AB
330
2
100
AcDbEntity
  8
YKK_D
  6
ByBlock
370
    -2
100
AcDbCircle
 10
52.99752026119779
 20
325.928827730253
 30
0.0
 40
0.6375
  0
CIRCLE
  5
5AC
330
2
100
AcDbEntity
  8
YKK_D
  6
ByBlock
370
    -2
100
AcDbCircle
 10
52.99752026119779
 20
335.928827730253
 30
0.0
 40
0.6375000000000001
  0
CIRCLE
  5
5AD
330
2
100
AcDbEntity
  8
YKK_D
  6
ByBlock
370
    -2
100
AcDbCircle
 10
212.9975629020322
 20
45.92883786191725
 30
0.0
 40
0.6375
  0
TEXT
  5
5AE
330
2
100
AcDbEntity
  8
YKK_D
100
AcDbText
 10
211.4975629020325
 20
70.36775831646264
 30
0.0
 40
7.5
  1
60
 50
90.0
  7
text-b
100
AcDbText
  0
ENDSEC
  0
SECTION
  2
OBJECTS
  0
DICTIONARY
  5
1A
330
0
100
AcDbDictionary
281
     1
  3
ACAD_CIP_PREVIOUS_PRODUCT_INFO
350
1D0
  3
ACAD_COLOR
350
11D
  3
ACAD_DETAILVIEWSTYLE
350
1CB
  3
ACAD_GROUP
350
18
  3
ACAD_LAYOUT
350
144
  3
ACAD_MATERIAL
350
F0
  3
ACAD_MLEADERSTYLE
350
142
  3
ACAD_MLINESTYLE
350
19
  3
ACAD_PLOTSETTINGS
350
145
  3
ACAD_PLOTSTYLENAME
350
EE
  3
ACAD_RENDER_ACTIVE_RAPIDRT_SETTINGS
350
1DA
  3
ACAD_RENDER_ACTIVE_SETTINGS
350
6AB
  3
ACAD_SCALELIST
350
120
  3
ACAD_SECTIONVIEWSTYLE
350
1C9
  3
ACAD_TABLESTYLE
350
11E
  3
ACAD_VISUALSTYLE
350
109
  3
ACDB_RECOMPOSE_DATA
350
72A
  3
AcDbVariableDictionary
350
1B9
  0
DICTIONARY
  5
176
330
12
100
AcDbDictionary
280
     1
281
     1
  0
DICTIONARY
  5
23C
330
A
100
AcDbDictionary
280
     1
281
     1
  3
ACAD_LAYERSTATES
360
23D
  0
DICTIONARY
  5
1DB
330
4
100
AcDbDictionary
280
     1
281
     1
  3
ADSK_XREC_LAYER_RECONCILED
360
1DC
  0
DICTIONARY
  5
1DD
330
24
100
AcDbDictionary
280
     1
281
     1
  3
ADSK_XREC_LAYER_RECONCILED
360
1DE
  0
DICTIONARY
  5
1DF
330
E0
100
AcDbDictionary
280
     1
281
     1
  3
ADSK_XREC_LAYER_RECONCILED
360
1E0
  0
DICTIONARY
  5
172
330
2
100
AcDbDictionary
280
     1
281
     1
  3
ACAD_LAYOUTSELFREF
360
173
  0
DICTIONARY
  5
174
330
7
100
AcDbDictionary
280
     1
281
     1
  3
ACAD_LAYOUTSELFREF
360
175
  0
XRECORD
  5
1D0
102
{ACAD_REACTORS
330
1A
102
}
330
1A
100
AcDbXrecord
280
     1
300
ACD
300
2022
300
87545ACD_2022_0F
  0
DICTIONARY
  5
11D
102
{ACAD_REACTORS
330
1A
102
}
330
1A
100
AcDbDictionary
281
     1
  0
DICTIONARY
  5
1CB
102
{ACAD_REACTORS
330
1A
102
}
330
1A
100
AcDbDictionary
281
     1
  3
Metric50
350
1CC
  0
DICTIONARY
  5
18
102
{ACAD_REACTORS
330
1A
102
}
330
1A
100
AcDbDictionary
281
     1
  0
DICTIONARY
  5
144
102
{ACAD_REACTORS
330
1A
102
}
330
1A
100
AcDbDictionary
281
     1
  3
Model
350
146
  3
レイアウト1
350
147
  0
DICTIONARY
  5
F0
102
{ACAD_REACTORS
330
1A
102
}
330
1A
100
AcDbDictionary
281
     1
  3
ByBlock
350
F9
  3
ByLayer
350
F1
  3
Global
350
101
  0
DICTIONARY
  5
142
102
{ACAD_REACTORS
330
1A
102
}
330
1A
100
AcDbDictionary
281
     1
  3
Standard
350
143
  0
DICTIONARY
  5
19
102
{ACAD_REACTORS
330
1A
102
}
330
1A
100
AcDbDictionary
281
     1
  3
STANDARD
350
1B
  0
DICTIONARY
  5
145
102
{ACAD_REACTORS
330
1A
102
}
330
1A
100
AcDbDictionary
281
     1
  0
ACDBDICTIONARYWDFLT
  5
EE
102
{ACAD_REACTORS
330
1A
102
}
330
1A
100
AcDbDictionary
281
     1
  3
Normal
350
EF
100
AcDbDictionaryWithDefault
340
EF
  0
RAPIDRTRENDERSETTINGS
  5
1DA
102
{ACAD_REACTORS
330
1A
102
}
330
1A
100
AcDbRenderSettings
 90
        2
  1
中
290
     1
290
     0
290
     1
290
     1
  1

  1
5 レンダリング レベルを適用
 90
        0
100
AcDbRapidRTRenderSettings
 90
        3
 70
     0
 90
        5
 90
        1
 70
     1
 70
     2
 40
3.0
 40
3.0
290
     1
  0
MENTALRAYRENDERSETTINGS
  5
6AB
102
{ACAD_XDICTIONARY
360
6AC
102
}
102
{ACAD_REACTORS
330
1A
102
}
330
1A
100
AcDbRenderSettings
 90
        2
  1
中間
290
     1
290
     1
290
     1
290
     1
  1

  1

 90
        0
100
AcDbMentalRayRenderSettings
 90
        2
 90
        0
 90
        1
 70
     2
 40
3.0
 40
3.0
 40
0.0500000007450581
 40
0.0500000007450581
 40
0.0500000007450581
 40
0.0500000007450581
 70
     0
290
     0
290
     1
 90
        5
 90
        5
 90
        5
290
     0
 90
      500
290
     0
 40
1.0
 90
    10000
 90
        5
 90
        5
 90
        5
290
     0
 90
      200
290
     0
290
     0
290
     0
 40
1.0
 40
1.0
 40
1500.0
 70
     0
 70
     0
 40
10.0
 70
     0
 70
     0
290
     0
  1

 90
       32
 70
     0
 90
     1048
290
     0
 40
1.0
  0
DICTIONARY
  5
120
102
{ACAD_REACTORS
330
1A
102
}
330
1A
100
AcDbDictionary
281
     1
  3
A0
350
121
  3
A1
350
122
  3
A2
350
123
  3
A3
350
124
  3
A4
350
125
  3
A5
350
126
  3
A6
350
127
  3
A7
350
128
  3
A8
350
129
  3
A9
350
12A
  3
B0
350
12B
  3
B1
350
12C
  3
B2
350
12D
  3
B3
350
12E
  3
B4
350
12F
  3
B5
350
130
  3
B6
350
131
  3
B7
350
132
  3
B8
350
133
  3
B9
350
134
  3
C0
350
135
  3
C1
350
136
  3
C2
350
137
  3
C3
350
138
  3
C4
350
139
  3
C5
350
13A
  3
C6
350
13B
  3
C7
350
13C
  3
C8
350
13D
  3
C9
350
13E
  3
D0
350
13F
  3
D1
350
140
  3
D2
350
141
  0
DICTIONARY
  5
1C9
102
{ACAD_REACTORS
330
1A
102
}
330
1A
100
AcDbDictionary
281
     1
  3
Metric50
350
1CA
  0
DICTIONARY
  5
11E
102
{ACAD_REACTORS
330
1A
102
}
330
1A
100
AcDbDictionary
281
     1
  3
Standard
350
11F
  0
DICTIONARY
  5
109
102
{ACAD_REACTORS
330
1A
102
}
330
1A
100
AcDbDictionary
281
     1
  3
2dWireframe
350
10F
  3
3D Hidden
350
111
  3
3dWireframe
350
110
  3
Basic
350
10E
  3
Brighten
350
115
  3
ColorChange
350
119
  3
Conceptual
350
112
  3
Dim
350
114
  3
EdgeColorOff
350
11C
  3
Facepattern
350
118
  3
Flat
350
10A
  3
FlatWithEdges
350
10B
  3
Gouraud
350
10C
  3
GouraudWithEdges
350
10D
  3
Hidden
350
1C3
  3
JitterOff
350
11A
  3
Linepattern
350
117
  3
OverhangOff
350
11B
  3
Realistic
350
113
  3
Shaded
350
1C8
  3
Shaded with edges
350
1C7
  3
Shades of Gray
350
1C4
  3
Sketchy
350
1C5
  3
Thicken
350
116
  3
Wireframe
350
1C2
  3
X-Ray
350
1C6
  0
XRECORD
  5
72A
102
{ACAD_REACTORS
330
1A
102
}
330
1A
100
AcDbXrecord
280
     1
 90
        1
330
11F
  0
DICTIONARY
  5
1B9
102
{ACAD_REACTORS
330
1A
102
}
330
1A
100
AcDbDictionary
281
     1
  3
CANNOSCALE
350
1BC
  3
CMLEADERSTYLE
350
1BB
  3
CTABLESTYLE
350
1BA
  3
CVIEWDETAILSTYLE
350
6AE
  3
CVIEWSECTIONSTYLE
350
6AF
  3
DIMASSOC
350
1BF
  3
INDEXCTL
350
1BE
  3
LAYEREVAL
350
6B2
  3
LAYERNOTIFY
350
6B3
  3
LIGHTINGUNITS
350
6B1
  3
MSLTSCALE
350
6B0
  3
SORTENTS
350
1BD
  0
DICTIONARY
  5
23D
102
{ACAD_REACTORS
330
23C
102
}
330
23C
100
AcDbDictionary
281
     1
  0
XRECORD
  5
1DC
102
{ACAD_REACTORS
330
1DB
102
}
330
1DB
100
AcDbXrecord
280
     1
290
     1
  0
XRECORD
  5
1DE
102
{ACAD_REACTORS
330
1DD
102
}
330
1DD
100
AcDbXrecord
280
     1
290
     1
  0
XRECORD
  5
1E0
102
{ACAD_REACTORS
330
1DF
102
}
330
1DF
100
AcDbXrecord
280
     1
290
     1
  0
XRECORD
  5
173
102
{ACAD_REACTORS
330
172
102
}
330
172
100
AcDbXrecord
280
     1
340
2
  0
XRECORD
  5
175
102
{ACAD_REACTORS
330
174
102
}
330
174
100
AcDbXrecord
280
     1
340
7
  0
ACDBDETAILVIEWSTYLE
  5
1CC
102
{ACAD_XDICTIONARY
360
761
102
}
102
{ACAD_REACTORS
330
1CB
102
}
330
1CB
100
AcDbModelDocViewStyle
 70
     0
  3
Metric50
290
     0
100
AcDbDetailViewStyle
 70
     0
 71
     0
 90
        3
 71
     1
340
C
 62
   256
 40
5.0
340
0
 62
   256
 40
5.0
300

 40
0.0
280
     1
 71
     2
340
5
 90
       25
 62
   256
 71
     3
340
C
 62
   256
 40
5.0
 90
        0
 40
15.0
 90
        1
300
%<\AcVar ViewDetailId>% (%<\AcVar ViewScale \f "%sn">%)
 71
     4
340
5
 90
       25
 62
   256
340
5
 90
       25
 62
   256
280
     0
  0
LAYOUT
  5
146
102
{ACAD_XDICTIONARY
360
697
102
}
102
{ACAD_REACTORS
330
144
102
}
330
144
100
AcDbPlotSettings
  1

  2
C:\ACAD-I\support\plotters\Default Windows System Printer.pc3
  4
A4
  6

 40
0.0
 41
0.0
 42
0.0
 43
0.0
 44
210.0
 45
297.0
 46
0.0
 47
0.0
 48
0.0
 49
0.0
140
0.0
141
0.0
142
1.0
143
3.584794044813218
 70
 11952
 72
     1
 73
     1
 74
     0
  7
monochrome.ctb
 75
     0
147
0.2789560536809316
 76
     0
 77
     2
 78
   300
148
57.24927452886754
149
1.66610707278906
100
AcDbLayout
  1
Model
 70
     1
 71
     0
 10
0.0
 20
0.0
 11
12.0
 21
9.0
 12
0.0
 22
0.0
 32
0.0
 14
0.0
 24
0.0
 34
0.0
 15
0.0
 25
0.0
 35
0.0
146
0.0
 13
0.0
 23
0.0
 33
0.0
 16
1.0
 26
0.0
 36
0.0
 17
0.0
 27
1.0
 37
0.0
 76
     0
330
2
331
EC
1001
ACAD_PSEXT
1000
C:\ACAD-I\support\plotters\Default Windows System Printer.pc3
1000
Microsoft Print To PDF
1000
PORTPROMPT:
1000

1070
     0
  0
LAYOUT
  5
147
102
{ACAD_REACTORS
330
144
102
}
330
144
100
AcDbPlotSettings
  1

  2
C:\ACAD-I\support\plotters\Default Windows System Printer.pc3
  4
A4
  6

 40
0.0
 41
0.0
 42
0.0
 43
0.0
 44
210.0
 45
297.0
 46
0.0
 47
0.0
 48
0.0
 49
0.0
140
0.0
141
0.0
142
1.0
143
1.0
 70
 15024
 72
     1
 73
     1
 74
     5
  7
monochrome.ctb
 75
    16
147
1.0
 76
     0
 77
     2
 78
   300
148
0.0
149
0.0
100
AcDbLayout
  1
レイアウト1
 70
     1
 71
     1
 10
0.0
 20
0.0
 11
420.0
 21
297.0
 12
0.0
 22
0.0
 32
0.0
 14
1.000000000000000E+20
 24
1.000000000000000E+20
 34
1.000000000000000E+20
 15
-1.000000000000000E+20
 25
-1.000000000000000E+20
 35
-1.000000000000000E+20
146
0.0
 13
0.0
 23
0.0
 33
0.0
 16
1.0
 26
0.0
 36
0.0
 17
0.0
 27
1.0
 37
0.0
 76
     0
330
7
1001
ACAD_PSEXT
1000
C:\ACAD-I\support\plotters\Default Windows System Printer.pc3
1000
Microsoft Print To PDF
1000
PORTPROMPT:
1000

1070
     0
  0
MATERIAL
  5
F9
102
{ACAD_XDICTIONARY
360
FA
102
}
102
{ACAD_REACTORS
330
F0
102
}
330
F0
100
AcDbMaterial
  1
BYBLOCK
 72
     0
 43
0.0208333333333333
 43
0.0
 43
0.0
 43
0.0
 43
0.0
 43
0.0208333333333333
 43
0.0
 43
0.0
 43
0.0
 43
0.0
 43
1.0
 43
0.0
 43
0.0
 43
0.0
 43
0.0
 43
1.0
 77
     0
 47
0.0208333333333333
 47
0.0
 47
0.0
 47
0.0
 47
0.0
 47
0.0208333333333333
 47
0.0
 47
0.0
 47
0.0
 47
0.0
 47
1.0
 47
0.0
 47
0.0
 47
0.0
 47
0.0
 47
1.0
171
     0
 49
0.0208333333333333
 49
0.0
 49
0.0
 49
0.0
 49
0.0
 49
0.0208333333333333
 49
0.0
 49
0.0
 49
0.0
 49
0.0
 49
1.0
 49
0.0
 49
0.0
 49
0.0
 49
0.0
 49
1.0
175
     0
142
0.0208333333333333
142
0.0
142
0.0
142
0.0
142
0.0
142
0.0208333333333333
142
0.0
142
0.0
142
0.0
142
0.0
142
1.0
142
0.0
142
0.0
142
0.0
142
0.0
142
1.0
179
     0
144
0.0208333333333333
144
0.0
144
0.0
144
0.0
144
0.0
144
0.0208333333333333
144
0.0
144
0.0
144
0.0
144
0.0
144
1.0
144
0.0
144
0.0
144
0.0
144
0.0
144
1.0
147
0.0208333333333333
147
0.0
147
0.0
147
0.0
147
0.0
147
0.0208333333333333
147
0.0
147
0.0
147
0.0
147
0.0
147
1.0
147
0.0
147
0.0
147
0.0
147
0.0
147
1.0
  0
MATERIAL
  5
F1
102
{ACAD_XDICTIONARY
360
F2
102
}
102
{ACAD_REACTORS
330
F0
102
}
330
F0
100
AcDbMaterial
  1
BYLAYER
 72
     0
 43
0.0208333333333333
 43
0.0
 43
0.0
 43
0.0
 43
0.0
 43
0.0208333333333333
 43
0.0
 43
0.0
 43
0.0
 43
0.0
 43
1.0
 43
0.0
 43
0.0
 43
0.0
 43
0.0
 43
1.0
 77
     0
 47
0.0208333333333333
 47
0.0
 47
0.0
 47
0.0
 47
0.0
 47
0.0208333333333333
 47
0.0
 47
0.0
 47
0.0
 47
0.0
 47
1.0
 47
0.0
 47
0.0
 47
0.0
 47
0.0
 47
1.0
171
     0
 49
0.0208333333333333
 49
0.0
 49
0.0
 49
0.0
 49
0.0
 49
0.0208333333333333
 49
0.0
 49
0.0
 49
0.0
 49
0.0
 49
1.0
 49
0.0
 49
0.0
 49
0.0
 49
0.0
 49
1.0
175
     0
142
0.0208333333333333
142
0.0
142
0.0
142
0.0
142
0.0
142
0.0208333333333333
142
0.0
142
0.0
142
0.0
142
0.0
142
1.0
142
0.0
142
0.0
142
0.0
142
0.0
142
1.0
179
     0
144
0.0208333333333333
144
0.0
144
0.0
144
0.0
144
0.0
144
0.0208333333333333
144
0.0
144
0.0
144
0.0
144
0.0
144
1.0
144
0.0
144
0.0
144
0.0
144
0.0
144
1.0
147
0.0208333333333333
147
0.0
147
0.0
147
0.0
147
0.0
147
0.0208333333333333
147
0.0
147
0.0
147
0.0
147
0.0
147
1.0
147
0.0
147
0.0
147
0.0
147
0.0
147
1.0
  0
MATERIAL
  5
101
102
{ACAD_XDICTIONARY
360
102
102
}
102
{ACAD_REACTORS
330
F0
102
}
330
F0
100
AcDbMaterial
  1
GLOBAL
 72
     0
 43
0.0208333333333333
 43
0.0
 43
0.0
 43
0.0
 43
0.0
 43
0.0208333333333333
 43
0.0
 43
0.0
 43
0.0
 43
0.0
 43
1.0
 43
0.0
 43
0.0
 43
0.0
 43
0.0
 43
1.0
 77
     0
 47
0.0208333333333333
 47
0.0
 47
0.0
 47
0.0
 47
0.0
 47
0.0208333333333333
 47
0.0
 47
0.0
 47
0.0
 47
0.0
 47
1.0
 47
0.0
 47
0.0
 47
0.0
 47
0.0
 47
1.0
171
     0
 49
0.0208333333333333
 49
0.0
 49
0.0
 49
0.0
 49
0.0
 49
0.0208333333333333
 49
0.0
 49
0.0
 49
0.0
 49
0.0
 49
1.0
 49
0.0
 49
0.0
 49
0.0
 49
0.0
 49
1.0
175
     0
142
0.0208333333333333
142
0.0
142
0.0
142
0.0
142
0.0
142
0.0208333333333333
142
0.0
142
0.0
142
0.0
142
0.0
142
1.0
142
0.0
142
0.0
142
0.0
142
0.0
142
1.0
179
     0
144
0.0208333333333333
144
0.0
144
0.0
144
0.0
144
0.0
144
0.0208333333333333
144
0.0
144
0.0
144
0.0
144
0.0
144
1.0
144
0.0
144
0.0
144
0.0
144
0.0
144
1.0
147
0.0208333333333333
147
0.0
147
0.0
147
0.0
147
0.0
147
0.0208333333333333
147
0.0
147
0.0
147
0.0
147
0.0
147
1.0
147
0.0
147
0.0
147
0.0
147
0.0
147
1.0
  0
MLEADERSTYLE
  5
143
102
{ACAD_REACTORS
330
142
102
}
330
142
100
AcDbMLeaderStyle
179
     2
170
     2
171
     1
172
     0
 90
        2
 40
0.0
 41
0.0
173
     1
 91
-1056964608
340
E
 92
       -2
290
     1
 42
0.09
291
     1
 43
0.36
  3
Standard
 44
0.18
300

342
C
174
     1
178
     6
175
     1
176
     0
 93
-1056964608
 45
0.18
292
     0
297
     0
 46
0.18
 94
-1056964608
 47
1.0
 49
1.0
140
1.0
293
     1
141
0.0
294
     1
177
     0
142
1.0
295
     0
296
     0
143
0.125
271
     0
272
     9
273
     9
  0
MLINESTYLE
  5
1B
102
{ACAD_REACTORS
330
19
102
}
330
19
100
AcDbMlineStyle
  2
STANDARD
 70
     0
  3

 62
   256
 51
90.0
 52
90.0
 71
     2
 49
0.5
 62
   256
  6
BYLAYER
 49
-0.5
 62
   256
  6
BYLAYER
  0
ACDBPLACEHOLDER
  5
EF
102
{ACAD_REACTORS
330
EE
102
}
330
EE
  0
DICTIONARY
  5
6AC
330
6AB
100
AcDbDictionary
280
     1
281
     1
  3
ACAD_XREC_ROUNDTRIP
360
6D4
  3
ADSK_XREC_MENTALRAYSETTINGSINFO
360
6AD
  0
SCALE
  5
121
102
{ACAD_REACTORS
330
120
102
}
330
120
100
AcDbScale
 70
     0
300
1:1
140
1.0
141
1.0
290
     1
  0
SCALE
  5
122
102
{ACAD_REACTORS
330
120
102
}
330
120
100
AcDbScale
 70
     0
300
1:2
140
1.0
141
2.0
290
     0
  0
SCALE
  5
123
102
{ACAD_REACTORS
330
120
102
}
330
120
100
AcDbScale
 70
     0
300
1:4
140
1.0
141
4.0
290
     0
  0
SCALE
  5
124
102
{ACAD_REACTORS
330
120
102
}
330
120
100
AcDbScale
 70
     0
300
1:5
140
1.0
141
5.0
290
     0
  0
SCALE
  5
125
102
{ACAD_REACTORS
330
120
102
}
330
120
100
AcDbScale
 70
     0
300
1:8
140
1.0
141
8.0
290
     0
  0
SCALE
  5
126
102
{ACAD_REACTORS
330
120
102
}
330
120
100
AcDbScale
 70
     0
300
1:10
140
1.0
141
10.0
290
     0
  0
SCALE
  5
127
102
{ACAD_REACTORS
330
120
102
}
330
120
100
AcDbScale
 70
     0
300
1:16
140
1.0
141
16.0
290
     0
  0
SCALE
  5
128
102
{ACAD_REACTORS
330
120
102
}
330
120
100
AcDbScale
 70
     0
300
1:20
140
1.0
141
20.0
290
     0
  0
SCALE
  5
129
102
{ACAD_REACTORS
330
120
102
}
330
120
100
AcDbScale
 70
     0
300
1:30
140
1.0
141
30.0
290
     0
  0
SCALE
  5
12A
102
{ACAD_REACTORS
330
120
102
}
330
120
100
AcDbScale
 70
     0
300
1:40
140
1.0
141
40.0
290
     0
  0
SCALE
  5
12B
102
{ACAD_REACTORS
330
120
102
}
330
120
100
AcDbScale
 70
     0
300
1:50
140
1.0
141
50.0
290
     0
  0
SCALE
  5
12C
102
{ACAD_REACTORS
330
120
102
}
330
120
100
AcDbScale
 70
     0
300
1:100
140
1.0
141
100.0
290
     0
  0
SCALE
  5
12D
102
{ACAD_REACTORS
330
120
102
}
330
120
100
AcDbScale
 70
     0
300
2:1
140
2.0
141
1.0
290
     0
  0
SCALE
  5
12E
102
{ACAD_REACTORS
330
120
102
}
330
120
100
AcDbScale
 70
     0
300
4:1
140
4.0
141
1.0
290
     0
  0
SCALE
  5
12F
102
{ACAD_REACTORS
330
120
102
}
330
120
100
AcDbScale
 70
     0
300
8:1
140
8.0
141
1.0
290
     0
  0
SCALE
  5
130
102
{ACAD_REACTORS
330
120
102
}
330
120
100
AcDbScale
 70
     0
300
10:1
140
10.0
141
1.0
290
     0
  0
SCALE
  5
131
102
{ACAD_REACTORS
330
120
102
}
330
120
100
AcDbScale
 70
     0
300
100:1
140
100.0
141
1.0
290
     0
  0
SCALE
  5
132
102
{ACAD_REACTORS
330
120
102
}
330
120
100
AcDbScale
 70
     0
300
1/128" = 1'-0"
140
0.0078125
141
12.0
290
     0
  0
SCALE
  5
133
102
{ACAD_REACTORS
330
120
102
}
330
120
100
AcDbScale
 70
     0
300
1/64" = 1'-0"
140
0.015625
141
12.0
290
     0
  0
SCALE
  5
134
102
{ACAD_REACTORS
330
120
102
}
330
120
100
AcDbScale
 70
     0
300
1/32" = 1'-0"
140
0.03125
141
12.0
290
     0
  0
SCALE
  5
135
102
{ACAD_REACTORS
330
120
102
}
330
120
100
AcDbScale
 70
     0
300
1/16" = 1'-0"
140
0.0625
141
12.0
290
     0
  0
SCALE
  5
136
102
{ACAD_REACTORS
330
120
102
}
330
120
100
AcDbScale
 70
     0
300
3/32" = 1'-0"
140
0.09375
141
12.0
290
     0
  0
SCALE
  5
137
102
{ACAD_REACTORS
330
120
102
}
330
120
100
AcDbScale
 70
     0
300
1/8" = 1'-0"
140
0.125
141
12.0
290
     0
  0
SCALE
  5
138
102
{ACAD_REACTORS
330
120
102
}
330
120
100
AcDbScale
 70
     0
300
3/16" = 1'-0"
140
0.1875
141
12.0
290
     0
  0
SCALE
  5
139
102
{ACAD_REACTORS
330
120
102
}
330
120
100
AcDbScale
 70
     0
300
1/4" = 1'-0"
140
0.25
141
12.0
290
     0
  0
SCALE
  5
13A
102
{ACAD_REACTORS
330
120
102
}
330
120
100
AcDbScale
 70
     0
300
3/8" = 1'-0"
140
0.375
141
12.0
290
     0
  0
SCALE
  5
13B
102
{ACAD_REACTORS
330
120
102
}
330
120
100
AcDbScale
 70
     0
300
1/2" = 1'-0"
140
0.5
141
12.0
290
     0
  0
SCALE
  5
13C
102
{ACAD_REACTORS
330
120
102
}
330
120
100
AcDbScale
 70
     0
300
3/4" = 1'-0"
140
0.75
141
12.0
290
     0
  0
SCALE
  5
13D
102
{ACAD_REACTORS
330
120
102
}
330
120
100
AcDbScale
 70
     0
300
1" = 1'-0"
140
1.0
141
12.0
290
     0
  0
SCALE
  5
13E
102
{ACAD_REACTORS
330
120
102
}
330
120
100
AcDbScale
 70
     0
300
1-1/2" = 1'-0"
140
1.5
141
12.0
290
     0
  0
SCALE
  5
13F
102
{ACAD_REACTORS
330
120
102
}
330
120
100
AcDbScale
 70
     0
300
3" = 1'-0"
140
3.0
141
12.0
290
     0
  0
SCALE
  5
140
102
{ACAD_REACTORS
330
120
102
}
330
120
100
AcDbScale
 70
     0
300
6" = 1'-0"
140
6.0
141
12.0
290
     0
  0
SCALE
  5
141
102
{ACAD_REACTORS
330
120
102
}
330
120
100
AcDbScale
 70
     0
300
1'-0" = 1'-0"
140
12.0
141
12.0
290
     0
  0
ACDBSECTIONVIEWSTYLE
  5
1CA
102
{ACAD_XDICTIONARY
360
75F
102
}
102
{ACAD_REACTORS
330
1C9
102
}
330
1C9
100
AcDbModelDocViewStyle
 70
     0
  3
Metric50
290
     0
100
AcDbSectionViewStyle
 70
     0
 71
     0
 90
      102
 71
     1
340
C
 62
   256
 40
5.0
340
0
340
0
 62
   256
 40
5.0
300
I, O, Q, S, X, Z
 40
10.0
 90
        0
 40
2.5
 90
        0
 71
     2
340
5
 90
       25
 62
   256
340
5
 90
       50
 62
   256
 40
5.0
 40
2.5
 40
5.0
 71
     3
340
C
 62
   256
 40
5.0
 90
        0
 40
15.0
 90
        1
300
%<\AcVar ViewSectionStartId>%-%<\AcVar ViewSectionEndId>% (%<\AcVar ViewScale \f "%sn">%)
 71
     4
 62
   256
 62
   257
300
ANSI31
 40
1.0
 90
        0
290
     0
290
     0
 90
        6
 40
0.0
 40
1.570796326794896
 40
0.2617993877991494
 40
1.308996938995747
 40
-0.2617993877991494
 40
1.832595714594046
  0
TABLESTYLE
  5
11F
102
{ACAD_XDICTIONARY
360
14C
102
}
102
{ACAD_REACTORS
330
11E
102
}
330
11E
100
AcDbTableStyle
280
     0
  3
Standard
 70
     0
 71
     0
 40
0.06
 41
0.06
280
     0
281
     0
  7
STANDARD
140
0.18
170
     2
 62
     0
 63
     7
283
     0
 90
      512
 91
        0
  1

274
    -2
284
     1
 64
     0
275
    -2
285
     1
 65
     0
276
    -2
286
     1
 66
     0
277
    -2
287
     1
 67
     0
278
    -2
288
     1
 68
     0
279
    -2
289
     1
 69
     0
  7
STANDARD
140
0.25
170
     5
 62
     0
 63
     7
283
     0
 90
      512
 91
        0
  1

274
    -2
284
     1
 64
     0
275
    -2
285
     1
 65
     0
276
    -2
286
     1
 66
     0
277
    -2
287
     1
 67
     0
278
    -2
288
     1
 68
     0
279
    -2
289
     1
 69
     0
  7
STANDARD
140
0.18
170
     5
 62
     0
 63
     7
283
     0
 90
      512
 91
        0
  1

274
    -2
284
     1
 64
     0
275
    -2
285
     1
 65
     0
276
    -2
286
     1
 66
     0
277
    -2
287
     1
 67
     0
278
    -2
288
     1
 68
     0
279
    -2
289
     1
 69
     0
  0
VISUALSTYLE
  5
10F
102
{ACAD_XDICTIONARY
360
735
102
}
102
{ACAD_REACTORS
330
109
102
}
330
109
100
AcDbVisualStyle
  2
2dWireframe
 70
     4
177
     2
291
     0
 71
     0
176
     1
 72
     2
176
     1
 73
     0
176
     1
 90
        0
176
     1
 40
0.6
176
     1
 41
30.0
176
     1
 63
     7
176
     1
 74
     1
176
     1
 91
        4
176
     1
 64
     7
176
     1
 65
   257
176
     1
 75
     1
176
     1
175
     1
176
     1
 42
1.0
176
     1
 92
        0
176
     1
 66
   257
176
     1
 43
1.0
176
     1
 76
     1
176
     1
 77
     6
176
     1
 78
     2
176
     1
 67
     7
176
     1
 79
     5
176
     1
170
     0
176
     1
171
     0
176
     1
290
     0
176
     1
 93
        1
176
     1
 44
0.0
176
     1
173
     0
176
     1
1001
ACAD
1000
AcDbSavedByObjectVersion
1070
     0
  0
VISUALSTYLE
  5
111
102
{ACAD_XDICTIONARY
360
739
102
}
102
{ACAD_REACTORS
330
109
102
}
330
109
100
AcDbVisualStyle
  2
3D Hidden
 70
     6
177
     2
291
     0
 71
     1
176
     1
 72
     2
176
     1
 73
     2
176
     1
 90
        0
176
     1
 40
0.6
176
     1
 41
30.0
176
     1
 63
     7
176
     1
 74
     2
176
     1
 91
        2
176
     1
 64
     7
176
     1
 65
   257
176
     1
 75
     2
176
     1
175
     1
176
     1
 42
179.0
176
     1
 92
        0
176
     1
 66
   257
176
     1
 43
1.0
176
     1
 76
     1
176
     1
 77
     6
176
     1
 78
     2
176
     1
 67
     7
176
     1
 79
     3
176
     1
170
     0
176
     1
171
     0
176
     1
290
     0
176
     1
 93
        1
176
     1
 44
0.0
176
     1
173
     0
176
     1
1001
ACAD
1000
AcDbSavedByObjectVersion
1070
     0
  0
VISUALSTYLE
  5
110
102
{ACAD_XDICTIONARY
360
737
102
}
102
{ACAD_REACTORS
330
109
102
}
330
109
100
AcDbVisualStyle
  2
3dWireframe
 70
     5
177
     2
291
     0
 71
     0
176
     1
 72
     2
176
     1
 73
     0
176
     1
 90
        0
176
     1
 40
0.6
176
     1
 41
30.0
176
     1
 63
     7
176
     1
 74
     1
176
     1
 91
        4
176
     1
 64
     7
176
     1
 65
   257
176
     1
 75
     1
176
     1
175
     1
176
     1
 42
1.0
176
     1
 92
        0
176
     1
 66
   257
176
     1
 43
1.0
176
     1
 76
     1
176
     1
 77
     6
176
     1
 78
     2
176
     1
 67
     7
176
     1
 79
     5
176
     1
170
     0
176
     1
171
     0
176
     1
290
     0
176
     1
 93
        1
176
     1
 44
0.0
176
     1
173
     0
176
     1
1001
ACAD
1000
AcDbSavedByObjectVersion
1070
     0
  0
VISUALSTYLE
  5
10E
102
{ACAD_XDICTIONARY
360
733
102
}
102
{ACAD_REACTORS
330
109
102
}
330
109
100
AcDbVisualStyle
  2
Basic
 70
     7
177
     2
291
     1
 71
     1
176
     1
 72
     0
176
     1
 73
     1
176
     1
 90
        0
176
     1
 40
0.6
176
     1
 41
30.0
176
     1
 63
     7
176
     1
 74
     0
176
     1
 91
        4
176
     1
 64
     7
176
     1
 65
   257
176
     1
 75
     1
176
     1
175
     1
176
     1
 42
1.0
176
     1
 92
        8
176
     1
 66
     7
176
     1
 43
1.0
176
     1
 76
     1
176
     1
 77
     6
176
     1
 78
     2
176
     1
 67
     7
176
     1
 79
     5
176
     1
170
     0
176
     1
171
     0
176
     1
290
     0
176
     1
 93
        1
176
     1
 44
0.0
176
     1
173
     0
176
     1
1001
ACAD
1000
AcDbSavedByObjectVersion
1070
     0
  0
VISUALSTYLE
  5
115
102
{ACAD_XDICTIONARY
360
741
102
}
102
{ACAD_REACTORS
330
109
102
}
330
109
100
AcDbVisualStyle
  2
Brighten
 70
    12
177
     2
291
     1
 71
     2
176
     1
 72
     2
176
     1
 73
     0
176
     1
 90
        0
176
     1
 40
0.6
176
     1
 41
30.0
176
     1
 63
     7
176
     1
 74
     1
176
     1
 91
        4
176
     1
 64
     7
176
     1
 65
   257
176
     1
 75
     1
176
     1
175
     1
176
     1
 42
1.0
176
     1
 92
        8
176
     1
 66
     7
176
     1
 43
1.0
176
     1
 76
     1
176
     1
 77
     6
176
     1
 78
     2
176
     1
 67
     7
176
     1
 79
     5
176
     1
170
     0
176
     1
171
     0
176
     1
290
     0
176
     1
 93
        1
176
     1
 44
50.0
176
     1
173
     0
176
     1
1001
ACAD
1000
AcDbSavedByObjectVersion
1070
     0
  0
VISUALSTYLE
  5
119
102
{ACAD_XDICTIONARY
360
749
102
}
102
{ACAD_REACTORS
330
109
102
}
330
109
100
AcDbVisualStyle
  2
ColorChange
 70
    16
177
     2
291
     1
 71
     2
176
     1
 72
     2
176
     1
 73
     3
176
     1
 90
        0
176
     1
 40
0.6
176
     1
 41
30.0
176
     1
 63
     8
176
     1
 74
     1
176
     1
 91
        4
176
     1
 64
     7
176
     1
 65
   257
176
     1
 75
     1
176
     1
175
     1
176
     1
 42
1.0
176
     1
 92
        8
176
     1
 66
     8
176
     1
 43
1.0
176
     1
 76
     1
176
     1
 77
     6
176
     1
 78
     2
176
     1
 67
     7
176
     1
 79
     5
176
     1
170
     0
176
     1
171
     0
176
     1
290
     0
176
     1
 93
        1
176
     1
 44
0.0
176
     1
173
     0
176
     1
1001
ACAD
1000
AcDbSavedByObjectVersion
1070
     0
  0
VISUALSTYLE
  5
112
102
{ACAD_XDICTIONARY
360
73B
102
}
102
{ACAD_REACTORS
330
109
102
}
330
109
100
AcDbVisualStyle
  2
Conceptual
 70
     9
177
     2
291
     0
 71
     3
176
     1
 72
     2
176
     1
 73
     0
176
     1
 90
        0
176
     1
 40
0.6
176
     1
 41
30.0
176
     1
 63
     7
176
     1
 74
     2
176
     1
 91
        2
176
     1
 64
     7
176
     1
 65
   257
176
     1
 75
     1
176
     1
175
     1
176
     1
 42
179.0
176
     1
 92
        8
176
     1
 66
     7
176
     1
 43
1.0
176
     1
 76
     1
176
     1
 77
     6
176
     1
 78
     2
176
     1
 67
     7
176
     1
 79
     3
176
     1
170
     0
176
     1
171
     0
176
     1
290
     0
176
     1
 93
        1
176
     1
 44
0.0
176
     1
173
     0
176
     1
1001
ACAD
1000
AcDbSavedByObjectVersion
1070
     0
  0
VISUALSTYLE
  5
114
102
{ACAD_XDICTIONARY
360
73F
102
}
102
{ACAD_REACTORS
330
109
102
}
330
109
100
AcDbVisualStyle
  2
Dim
 70
    11
177
     2
291
     1
 71
     2
176
     1
 72
     2
176
     1
 73
     0
176
     1
 90
        0
176
     1
 40
0.6
176
     1
 41
30.0
176
     1
 63
     7
176
     1
 74
     1
176
     1
 91
        4
176
     1
 64
     7
176
     1
 65
   257
176
     1
 75
     1
176
     1
175
     1
176
     1
 42
1.0
176
     1
 92
        8
176
     1
 66
     7
176
     1
 43
1.0
176
     1
 76
     1
176
     1
 77
     6
176
     1
 78
     2
176
     1
 67
     7
176
     1
 79
     5
176
     1
170
     0
176
     1
171
     0
176
     1
290
     0
176
     1
 93
        1
176
     1
 44
-50.0
176
     1
173
     0
176
     1
1001
ACAD
1000
AcDbSavedByObjectVersion
1070
     0
  0
VISUALSTYLE
  5
11C
102
{ACAD_XDICTIONARY
360
74F
102
}
102
{ACAD_REACTORS
330
109
102
}
330
109
100
AcDbVisualStyle
  2
EdgeColorOff
 70
    22
177
     2
291
     1
 71
     2
176
     0
 72
     2
176
     0
 73
     0
176
     0
 90
        0
176
     0
 40
0.6
176
     0
 41
30.0
176
     0
 63
     7
176
     0
 74
     1
176
     0
 91
        4
176
     0
 64
     7
176
     0
 65
   257
176
     0
 75
     1
176
     0
175
     1
176
     0
 42
1.0
176
     0
 92
        8
176
     2
 66
     7
176
     0
 43
1.0
176
     0
 76
     1
176
     0
 77
     6
176
     0
 78
     2
176
     0
 67
     7
176
     0
 79
     5
176
     0
170
     0
176
     0
171
     0
176
     0
290
     0
176
     0
 93
        1
176
     0
 44
0.0
176
     0
173
     0
176
     0
1001
ACAD
1000
AcDbSavedByObjectVersion
1070
     0
  0
VISUALSTYLE
  5
118
102
{ACAD_XDICTIONARY
360
747
102
}
102
{ACAD_REACTORS
330
109
102
}
330
109
100
AcDbVisualStyle
  2
Facepattern
 70
    15
177
     2
291
     1
 71
     2
176
     1
 72
     2
176
     1
 73
     0
176
     1
 90
        0
176
     1
 40
0.6
176
     1
 41
30.0
176
     1
 63
     7
176
     1
 74
     1
176
     1
 91
        4
176
     1
 64
     7
176
     1
 65
   257
176
     1
 75
     1
176
     1
175
     1
176
     1
 42
1.0
176
     1
 92
        8
176
     1
 66
     7
176
     1
 43
1.0
176
     1
 76
     1
176
     1
 77
     6
176
     1
 78
     2
176
     1
 67
     7
176
     1
 79
     5
176
     1
170
     0
176
     1
171
     0
176
     1
290
     0
176
     1
 93
        1
176
     1
 44
0.0
176
     1
173
     0
176
     1
1001
ACAD
1000
AcDbSavedByObjectVersion
1070
     0
  0
VISUALSTYLE
  5
10A
102
{ACAD_XDICTIONARY
360
72B
102
}
102
{ACAD_REACTORS
330
109
102
}
330
109
100
AcDbVisualStyle
  2
Flat
 70
     0
177
     2
291
     1
 71
     2
176
     1
 72
     1
176
     1
 73
     1
176
     1
 90
        2
176
     1
 40
0.6
176
     1
 41
30.0
176
     1
 63
     7
176
     1
 74
     0
176
     1
 91
        4
176
     1
 64
     7
176
     1
 65
   257
176
     1
 75
     1
176
     1
175
     1
176
     1
 42
1.0
176
     1
 92
        8
176
     1
 66
     7
176
     1
 43
1.0
176
     1
 76
     1
176
     1
 77
     6
176
     1
 78
     2
176
     1
 67
     7
176
     1
 79
     5
176
     1
170
     0
176
     1
171
     0
176
     1
290
     0
176
     1
 93
       13
176
     1
 44
0.0
176
     1
173
     0
176
     1
1001
ACAD
1000
AcDbSavedByObjectVersion
1070
     0
  0
VISUALSTYLE
  5
10B
102
{ACAD_XDICTIONARY
360
72D
102
}
102
{ACAD_REACTORS
330
109
102
}
330
109
100
AcDbVisualStyle
  2
FlatWithEdges
 70
     1
177
     2
291
     1
 71
     2
176
     1
 72
     1
176
     1
 73
     1
176
     1
 90
        2
176
     1
 40
0.6
176
     1
 41
30.0
176
     1
 63
     7
176
     1
 74
     1
176
     1
 91
        4
176
     1
 64
     7
176
     1
 65
   257
176
     1
 75
     1
176
     1
175
     1
176
     1
 42
1.0
176
     1
 92
        0
176
     1
 66
   257
176
     1
 43
1.0
176
     1
 76
     1
176
     1
 77
     6
176
     1
 78
     2
176
     1
 67
     7
176
     1
 79
     5
176
     1
170
     0
176
     1
171
     0
176
     1
290
     0
176
     1
 93
       13
176
     1
 44
0.0
176
     1
173
     0
176
     1
1001
ACAD
1000
AcDbSavedByObjectVersion
1070
     0
  0
VISUALSTYLE
  5
10C
102
{ACAD_XDICTIONARY
360
72F
102
}
102
{ACAD_REACTORS
330
109
102
}
330
109
100
AcDbVisualStyle
  2
Gouraud
 70
     2
177
     2
291
     1
 71
     2
176
     1
 72
     2
176
     1
 73
     1
176
     1
 90
        2
176
     1
 40
0.6
176
     1
 41
30.0
176
     1
 63
     7
176
     1
 74
     0
176
     1
 91
        4
176
     1
 64
     7
176
     1
 65
   257
176
     1
 75
     1
176
     1
175
     1
176
     1
 42
1.0
176
     1
 92
        0
176
     1
 66
     7
176
     1
 43
1.0
176
     1
 76
     1
176
     1
 77
     6
176
     1
 78
     2
176
     1
 67
     7
176
     1
 79
     5
176
     1
170
     0
176
     1
171
     0
176
     1
290
     0
176
     1
 93
       13
176
     1
 44
0.0
176
     1
173
     0
176
     1
1001
ACAD
1000
AcDbSavedByObjectVersion
1070
     0
  0
VISUALSTYLE
  5
10D
102
{ACAD_XDICTIONARY
360
731
102
}
102
{ACAD_REACTORS
330
109
102
}
330
109
100
AcDbVisualStyle
  2
GouraudWithEdges
 70
     3
177
     2
291
     1
 71
     2
176
     1
 72
     2
176
     1
 73
     1
176
     1
 90
        2
176
     1
 40
0.6
176
     1
 41
30.0
176
     1
 63
     7
176
     1
 74
     1
176
     1
 91
        4
176
     1
 64
     7
176
     1
 65
   257
176
     1
 75
     1
176
     1
175
     1
176
     1
 42
1.0
176
     1
 92
        0
176
     1
 66
   257
176
     1
 43
1.0
176
     1
 76
     1
176
     1
 77
     6
176
     1
 78
     2
176
     1
 67
     7
176
     1
 79
     5
176
     1
170
     0
176
     1
171
     0
176
     1
290
     0
176
     1
 93
       13
176
     1
 44
0.0
176
     1
173
     0
176
     1
1001
ACAD
1000
AcDbSavedByObjectVersion
1070
     0
  0
VISUALSTYLE
  5
1C3
102
{ACAD_XDICTIONARY
360
753
102
}
102
{ACAD_REACTORS
330
109
102
}
330
109
100
AcDbVisualStyle
  2
Hidden
 70
     6
177
     2
291
     0
 71
     1
176
     1
 72
     2
176
     1
 73
     2
176
     1
 90
        0
176
     1
 40
0.6
176
     1
 41
30.0
176
     1
 63
     7
421
 16777215
176
     1
 74
     2
176
     1
 91
        2
176
     1
 64
     7
176
     1
 65
   257
176
     1
 75
     2
176
     1
175
     1
176
     1
 42
40.0
176
     1
 92
        0
176
     1
 66
   257
176
     1
 43
1.0
176
     1
 76
     1
176
     1
 77
     6
176
     1
 78
     2
176
     1
 67
     7
176
     1
 79
     3
176
     1
170
     0
176
     1
171
     0
176
     1
290
     0
176
     1
 93
        1
176
     1
 44
0.0
176
     1
173
     0
176
     1
1001
ACAD
1000
AcDbSavedByObjectVersion
1070
     0
  0
VISUALSTYLE
  5
11A
102
{ACAD_XDICTIONARY
360
74B
102
}
102
{ACAD_REACTORS
330
109
102
}
330
109
100
AcDbVisualStyle
  2
JitterOff
 70
    20
177
     2
291
     1
 71
     2
176
     0
 72
     2
176
     0
 73
     0
176
     0
 90
        0
176
     0
 40
0.6
176
     0
 41
30.0
176
     0
 63
     7
176
     0
 74
     1
176
     0
 91
        4
176
     0
 64
     7
176
     0
 65
   257
176
     0
 75
     1
176
     0
175
     1
176
     0
 42
1.0
176
     0
 92
       10
176
     2
 66
     7
176
     0
 43
1.0
176
     0
 76
     1
176
     0
 77
     6
176
     0
 78
     2
176
     0
 67
     7
176
     0
 79
     5
176
     0
170
     0
176
     0
171
     0
176
     0
290
     0
176
     0
 93
        1
176
     0
 44
0.0
176
     0
173
     0
176
     0
1001
ACAD
1000
AcDbSavedByObjectVersion
1070
     0
  0
VISUALSTYLE
  5
117
102
{ACAD_XDICTIONARY
360
745
102
}
102
{ACAD_REACTORS
330
109
102
}
330
109
100
AcDbVisualStyle
  2
Linepattern
 70
    14
177
     2
291
     1
 71
     2
176
     1
 72
     2
176
     1
 73
     0
176
     1
 90
        0
176
     1
 40
0.6
176
     1
 41
30.0
176
     1
 63
     7
176
     1
 74
     1
176
     1
 91
        4
176
     1
 64
     7
176
     1
 65
   257
176
     1
 75
     7
176
     1
175
     7
176
     1
 42
1.0
176
     1
 92
        8
176
     1
 66
     7
176
     1
 43
1.0
176
     1
 76
     1
176
     1
 77
     6
176
     1
 78
     2
176
     1
 67
     7
176
     1
 79
     5
176
     1
170
     0
176
     1
171
     0
176
     1
290
     0
176
     1
 93
        1
176
     1
 44
0.0
176
     1
173
     0
176
     1
1001
ACAD
1000
AcDbSavedByObjectVersion
1070
     0
  0
VISUALSTYLE
  5
11B
102
{ACAD_XDICTIONARY
360
74D
102
}
102
{ACAD_REACTORS
330
109
102
}
330
109
100
AcDbVisualStyle
  2
OverhangOff
 70
    21
177
     2
291
     1
 71
     2
176
     0
 72
     2
176
     0
 73
     0
176
     0
 90
        0
176
     0
 40
0.6
176
     0
 41
30.0
176
     0
 63
     7
176
     0
 74
     1
176
     0
 91
        4
176
     0
 64
     7
176
     0
 65
   257
176
     0
 75
     1
176
     0
175
     1
176
     0
 42
1.0
176
     0
 92
        9
176
     2
 66
     7
176
     0
 43
1.0
176
     0
 76
     1
176
     0
 77
     6
176
     0
 78
     2
176
     0
 67
     7
176
     0
 79
     5
176
     0
170
     0
176
     0
171
     0
176
     0
290
     0
176
     0
 93
        1
176
     0
 44
0.0
176
     0
173
     0
176
     0
1001
ACAD
1000
AcDbSavedByObjectVersion
1070
     0
  0
VISUALSTYLE
  5
113
102
{ACAD_XDICTIONARY
360
73D
102
}
102
{ACAD_REACTORS
330
109
102
}
330
109
100
AcDbVisualStyle
  2
Realistic
 70
     8
177
     2
291
     0
 71
     2
176
     1
 72
     2
176
     1
 73
     0
176
     1
 90
        0
176
     1
 40
0.6
176
     1
 41
30.0
176
     1
 63
     7
176
     1
 74
     1
176
     1
 91
        0
176
     1
 64
     7
176
     1
 65
   257
176
     1
 75
     1
176
     1
175
     1
176
     1
 42
1.0
176
     1
 92
        8
176
     1
 66
     8
176
     1
 43
1.0
176
     1
 76
     1
176
     1
 77
     6
176
     1
 78
     2
176
     1
 67
     7
176
     1
 79
     5
176
     1
170
     0
176
     1
171
     0
176
     1
290
     0
176
     1
 93
       13
176
     1
 44
0.0
176
     1
173
     0
176
     1
1001
ACAD
1000
AcDbSavedByObjectVersion
1070
     0
  0
VISUALSTYLE
  5
1C8
102
{ACAD_XDICTIONARY
360
75D
102
}
102
{ACAD_REACTORS
330
109
102
}
330
109
100
AcDbVisualStyle
  2
Shaded
 70
    27
177
     2
291
     0
 71
     2
176
     1
 72
     2
176
     1
 73
     1
176
     1
 90
        2
176
     1
 40
0.6
176
     1
 41
30.0
176
     1
 63
     7
421
 16777215
176
     1
 74
     0
176
     1
 91
        4
176
     1
 64
     7
176
     1
 65
   257
176
     1
 75
     1
176
     1
175
     1
176
     1
 42
1.0
176
     1
 92
        8
176
     1
 66
   257
176
     1
 43
1.0
176
     1
 76
     1
176
     1
 77
     6
176
     1
 78
     2
176
     1
 67
     8
425
  7895160
176
     1
 79
     3
176
     1
170
     0
176
     1
171
     0
176
     1
290
     0
176
     1
 93
        5
176
     1
 44
0.0
176
     1
173
     0
176
     1
1001
ACAD
1000
AcDbSavedByObjectVersion
1070
     0
  0
VISUALSTYLE
  5
1C7
102
{ACAD_XDICTIONARY
360
75B
102
}
102
{ACAD_REACTORS
330
109
102
}
330
109
100
AcDbVisualStyle
  2
Shaded with edges
 70
    26
177
     2
291
     0
 71
     2
176
     1
 72
     2
176
     1
 73
     1
176
     1
 90
        2
176
     1
 40
0.6
176
     1
 41
30.0
176
     1
 63
     7
421
 16777215
176
     1
 74
     1
176
     1
 91
        2
176
     1
 64
     7
176
     1
 65
   257
176
     1
 75
     2
176
     1
175
     1
176
     1
 42
1.0
176
     1
 92
        8
176
     1
 66
   257
176
     1
 43
1.0
176
     1
 76
     1
176
     1
 77
     6
176
     1
 78
     2
176
     1
 67
     7
176
     1
 79
     3
176
     1
170
     0
176
     1
171
     0
176
     1
290
     0
176
     1
 93
        5
176
     1
 44
0.0
176
     1
173
     0
176
     1
1001
ACAD
1000
AcDbSavedByObjectVersion
1070
     0
  0
VISUALSTYLE
  5
1C4
102
{ACAD_XDICTIONARY
360
755
102
}
102
{ACAD_REACTORS
330
109
102
}
330
109
100
AcDbVisualStyle
  2
Shades of Gray
 70
    23
177
     2
291
     0
 71
     2
176
     1
 72
     2
176
     1
 73
     3
176
     1
 90
        0
176
     1
 40
0.6
176
     1
 41
30.0
176
     1
 63
     7
421
 16777215
176
     1
 74
     2
176
     1
 91
        2
176
     1
 64
     7
176
     1
 65
     7
176
     1
 75
     1
176
     1
175
     1
176
     1
 42
40.0
176
     1
 92
        8
176
     1
 66
     7
176
     1
 43
1.0
176
     1
 76
     1
176
     1
 77
     6
176
     1
 78
     2
176
     1
 67
     7
176
     1
 79
     3
176
     1
170
     0
176
     1
171
     0
176
     1
290
     0
176
     1
 93
        1
176
     1
 44
0.0
176
     1
173
     0
176
     1
1001
ACAD
1000
AcDbSavedByObjectVersion
1070
     0
  0
VISUALSTYLE
  5
1C5
102
{ACAD_XDICTIONARY
360
757
102
}
102
{ACAD_REACTORS
330
109
102
}
330
109
100
AcDbVisualStyle
  2
Sketchy
 70
    24
177
     2
291
     0
 71
     1
176
     1
 72
     2
176
     1
 73
     2
176
     1
 90
        0
176
     1
 40
0.6
176
     1
 41
30.0
176
     1
 63
     7
421
 16777215
176
     1
 74
     2
176
     1
 91
        2
176
     1
 64
     7
176
     1
 65
     7
176
     1
 75
     1
176
     1
175
     1
176
     1
 42
40.0
176
     1
 92
       11
176
     1
 66
     7
176
     1
 43
1.0
176
     1
 76
     1
176
     1
 77
     6
176
     1
 78
     2
176
     1
 67
     7
176
     1
 79
     6
176
     1
170
     0
176
     1
171
     0
176
     1
290
     0
176
     1
 93
        1
176
     1
 44
0.0
176
     1
173
     0
176
     1
1001
ACAD
1000
AcDbSavedByObjectVersion
1070
     0
  0
VISUALSTYLE
  5
116
102
{ACAD_XDICTIONARY
360
743
102
}
102
{ACAD_REACTORS
330
109
102
}
330
109
100
AcDbVisualStyle
  2
Thicken
 70
    13
177
     2
291
     1
 71
     2
176
     1
 72
     2
176
     1
 73
     0
176
     1
 90
        0
176
     1
 40
0.6
176
     1
 41
30.0
176
     1
 63
     7
176
     1
 74
     1
176
     1
 91
        4
176
     1
 64
     7
176
     1
 65
   257
176
     1
 75
     1
176
     1
175
     1
176
     1
 42
1.0
176
     1
 92
       12
176
     1
 66
     7
176
     1
 43
1.0
176
     1
 76
     1
176
     1
 77
     6
176
     1
 78
     2
176
     1
 67
     7
176
     1
 79
     5
176
     1
170
     0
176
     1
171
     0
176
     1
290
     0
176
     1
 93
        1
176
     1
 44
0.0
176
     1
173
     0
176
     1
1001
ACAD
1000
AcDbSavedByObjectVersion
1070
     0
  0
VISUALSTYLE
  5
1C2
102
{ACAD_XDICTIONARY
360
751
102
}
102
{ACAD_REACTORS
330
109
102
}
330
109
100
AcDbVisualStyle
  2
Wireframe
 70
     5
177
     2
291
     0
 71
     0
176
     1
 72
     2
176
     1
 73
     0
176
     1
 90
        0
176
     1
 40
0.6
176
     1
 41
30.0
176
     1
 63
     7
421
 16777215
176
     1
 74
     1
176
     1
 91
        4
176
     1
 64
     7
176
     1
 65
   257
176
     1
 75
     1
176
     1
175
     1
176
     1
 42
1.0
176
     1
 92
        0
176
     1
 66
   257
176
     1
 43
1.0
176
     1
 76
     1
176
     1
 77
     6
176
     1
 78
     2
176
     1
 67
     7
176
     1
 79
     3
176
     1
170
     0
176
     1
171
     0
176
     1
290
     0
176
     1
 93
        1
176
     1
 44
0.0
176
     1
173
     0
176
     1
1001
ACAD
1000
AcDbSavedByObjectVersion
1070
     0
  0
VISUALSTYLE
  5
1C6
102
{ACAD_XDICTIONARY
360
759
102
}
102
{ACAD_REACTORS
330
109
102
}
330
109
100
AcDbVisualStyle
  2
X-Ray
 70
    25
177
     2
291
     0
 71
     2
176
     1
 72
     2
176
     1
 73
     1
176
     1
 90
        1
176
     1
 40
0.5
176
     1
 41
30.0
176
     1
 63
     7
421
 16777215
176
     1
 74
     1
176
     1
 91
        0
176
     1
 64
     7
176
     1
 65
   257
176
     1
 75
     1
176
     1
175
     1
176
     1
 42
1.0
176
     1
 92
        8
176
     1
 66
     7
176
     1
 43
1.0
176
     1
 76
     1
176
     1
 77
     6
176
     1
 78
     2
176
     1
 67
     7
176
     1
 79
     3
176
     1
170
     0
176
     1
171
     0
176
     1
290
     0
176
     1
 93
       13
176
     1
 44
0.0
176
     1
173
     0
176
     1
1001
ACAD
1000
AcDbSavedByObjectVersion
1070
     0
  0
DICTIONARYVAR
  5
1BC
102
{ACAD_REACTORS
330
1B9
102
}
330
1B9
100
DictionaryVariables
280
     0
  1
1:1
  0
DICTIONARYVAR
  5
1BB
102
{ACAD_REACTORS
330
1B9
102
}
330
1B9
100
DictionaryVariables
280
     0
  1
STANDARD
  0
DICTIONARYVAR
  5
1BA
102
{ACAD_REACTORS
330
1B9
102
}
330
1B9
100
DictionaryVariables
280
     0
  1
STANDARD
  0
DICTIONARYVAR
  5
6AE
102
{ACAD_REACTORS
330
1B9
102
}
330
1B9
100
DictionaryVariables
280
     0
  1
Metric50
  0
DICTIONARYVAR
  5
6AF
102
{ACAD_REACTORS
330
1B9
102
}
330
1B9
100
DictionaryVariables
280
     0
  1
Metric50
  0
DICTIONARYVAR
  5
1BF
102
{ACAD_REACTORS
330
1B9
102
}
330
1B9
100
DictionaryVariables
280
     0
  1
1
  0
DICTIONARYVAR
  5
1BE
102
{ACAD_REACTORS
330
1B9
102
}
330
1B9
100
DictionaryVariables
280
     0
  1
0
  0
DICTIONARYVAR
  5
6B2
102
{ACAD_REACTORS
330
1B9
102
}
330
1B9
100
DictionaryVariables
280
     0
  1
1
  0
DICTIONARYVAR
  5
6B3
102
{ACAD_REACTORS
330
1B9
102
}
330
1B9
100
DictionaryVariables
280
     0
  1
15
  0
DICTIONARYVAR
  5
6B1
102
{ACAD_REACTORS
330
1B9
102
}
330
1B9
100
DictionaryVariables
280
     0
  1
0
  0
DICTIONARYVAR
  5
6B0
102
{ACAD_REACTORS
330
1B9
102
}
330
1B9
100
DictionaryVariables
280
     0
  1
0
  0
DICTIONARYVAR
  5
1BD
102
{ACAD_REACTORS
330
1B9
102
}
330
1B9
100
DictionaryVariables
280
     0
  1
127
  0
DICTIONARY
  5
761
330
1CC
100
AcDbDictionary
280
     1
281
     1
  3
ACAD_XREC_ROUNDTRIP
360
762
  0
DICTIONARY
  5
697
330
146
100
AcDbDictionary
280
     1
281
     1
  3
ADSK_XREC_LAYOUTTHUMBNAIL
360
709
  0
DICTIONARY
  5
FA
330
F9
100
AcDbDictionary
280
     1
281
     1
  3
BUMPTILE
360
FC
  3
DIFFUSETILE
360
FB
  3
OPACITYTILE
360
FF
  3
REFLECTIONTILE
360
FE
  3
REFRACTIONTILE
360
100
  3
SPECULARTILE
360
FD
  0
DICTIONARY
  5
F2
330
F1
100
AcDbDictionary
280
     1
281
     1
  3
BUMPTILE
360
F4
  3
DIFFUSETILE
360
F3
  3
OPACITYTILE
360
F7
  3
REFLECTIONTILE
360
F6
  3
REFRACTIONTILE
360
F8
  3
SPECULARTILE
360
F5
  0
DICTIONARY
  5
102
330
101
100
AcDbDictionary
280
     1
281
     1
  3
BUMPTILE
360
104
  3
DIFFUSETILE
360
103
  3
OPACITYTILE
360
107
  3
REFLECTIONTILE
360
106
  3
REFRACTIONTILE
360
108
  3
SPECULARTILE
360
105
  0
XRECORD
  5
6D4
102
{ACAD_REACTORS
330
6AC
102
}
330
6AC
100
AcDbXrecord
280
     1
102
ACAD_MENTALRAY_SETTING_RT
330
1DA
 70
     1
  0
XRECORD
  5
6AD
102
{ACAD_REACTORS
330
6AC
102
}
330
6AC
100
AcDbXrecord
280
     1
 70
     2
 71
     3
 72
     0
  0
DICTIONARY
  5
75F
330
1CA
100
AcDbDictionary
280
     1
281
     1
  3
ACAD_XREC_ROUNDTRIP
360
760
  0
DICTIONARY
  5
14C
330
11F
100
AcDbDictionary
280
     1
281
     1
  3
ACAD_ROUNDTRIP_2008_TABLESTYLE_CELLSTYLEMAP
360
729
  0
DICTIONARY
  5
735
330
10F
100
AcDbDictionary
280
     1
281
     1
  3
ACAD_XREC_ROUNDTRIP
360
736
  0
DICTIONARY
  5
739
330
111
100
AcDbDictionary
280
     1
281
     1
  3
ACAD_XREC_ROUNDTRIP
360
73A
  0
DICTIONARY
  5
737
330
110
100
AcDbDictionary
280
     1
281
     1
  3
ACAD_XREC_ROUNDTRIP
360
738
  0
DICTIONARY
  5
733
330
10E
100
AcDbDictionary
280
     1
281
     1
  3
ACAD_XREC_ROUNDTRIP
360
734
  0
DICTIONARY
  5
741
330
115
100
AcDbDictionary
280
     1
281
     1
  3
ACAD_XREC_ROUNDTRIP
360
742
  0
DICTIONARY
  5
749
330
119
100
AcDbDictionary
280
     1
281
     1
  3
ACAD_XREC_ROUNDTRIP
360
74A
  0
DICTIONARY
  5
73B
330
112
100
AcDbDictionary
280
     1
281
     1
  3
ACAD_XREC_ROUNDTRIP
360
73C
  0
DICTIONARY
  5
73F
330
114
100
AcDbDictionary
280
     1
281
     1
  3
ACAD_XREC_ROUNDTRIP
360
740
  0
DICTIONARY
  5
74F
330
11C
100
AcDbDictionary
280
     1
281
     1
  3
ACAD_XREC_ROUNDTRIP
360
750
  0
DICTIONARY
  5
747
330
118
100
AcDbDictionary
280
     1
281
     1
  3
ACAD_XREC_ROUNDTRIP
360
748
  0
DICTIONARY
  5
72B
330
10A
100
AcDbDictionary
280
     1
281
     1
  3
ACAD_XREC_ROUNDTRIP
360
72C
  0
DICTIONARY
  5
72D
330
10B
100
AcDbDictionary
280
     1
281
     1
  3
ACAD_XREC_ROUNDTRIP
360
72E
  0
DICTIONARY
  5
72F
330
10C
100
AcDbDictionary
280
     1
281
     1
  3
ACAD_XREC_ROUNDTRIP
360
730
  0
DICTIONARY
  5
731
330
10D
100
AcDbDictionary
280
     1
281
     1
  3
ACAD_XREC_ROUNDTRIP
360
732
  0
DICTIONARY
  5
753
330
1C3
100
AcDbDictionary
280
     1
281
     1
  3
ACAD_XREC_ROUNDTRIP
360
754
  0
DICTIONARY
  5
74B
330
11A
100
AcDbDictionary
280
     1
281
     1
  3
ACAD_XREC_ROUNDTRIP
360
74C
  0
DICTIONARY
  5
745
330
117
100
AcDbDictionary
280
     1
281
     1
  3
ACAD_XREC_ROUNDTRIP
360
746
  0
DICTIONARY
  5
74D
330
11B
100
AcDbDictionary
280
     1
281
     1
  3
ACAD_XREC_ROUNDTRIP
360
74E
  0
DICTIONARY
  5
73D
330
113
100
AcDbDictionary
280
     1
281
     1
  3
ACAD_XREC_ROUNDTRIP
360
73E
  0
DICTIONARY
  5
75D
330
1C8
100
AcDbDictionary
280
     1
281
     1
  3
ACAD_XREC_ROUNDTRIP
360
75E
  0
DICTIONARY
  5
75B
330
1C7
100
AcDbDictionary
280
     1
281
     1
  3
ACAD_XREC_ROUNDTRIP
360
75C
  0
DICTIONARY
  5
755
330
1C4
100
AcDbDictionary
280
     1
281
     1
  3
ACAD_XREC_ROUNDTRIP
360
756
  0
DICTIONARY
  5
757
330
1C5
100
AcDbDictionary
280
     1
281
     1
  3
ACAD_XREC_ROUNDTRIP
360
758
  0
DICTIONARY
  5
743
330
116
100
AcDbDictionary
280
     1
281
     1
  3
ACAD_XREC_ROUNDTRIP
360
744
  0
DICTIONARY
  5
751
330
1C2
100
AcDbDictionary
280
     1
281
     1
  3
ACAD_XREC_ROUNDTRIP
360
752
  0
DICTIONARY
  5
759
330
1C6
100
AcDbDictionary
280
     1
281
     1
  3
ACAD_XREC_ROUNDTRIP
360
75A
  0
XRECORD
  5
762
102
{ACAD_REACTORS
330
761
102
}
330
761
100
AcDbXrecord
280
     1
102
DISPLAYNAME
  1
Metric50
102
FLAGS
 90
        0
  0
XRECORD
  5
709
102
{ACAD_REACTORS
330
697
102
}
330
697
100
AcDbXrecord
280
     1
310
2800000000010000760000000100080000000000007600000100000001000000000100000000000000000066FFFFFF520000005600000050000000730000003200000031000000500000006F0000004F00000032330000466600006699000052CC000056FF00005000330073333300326633003199330050CC33006FFF3300
310
3200660018336600006666000099660000CC660000FF66000000990000339900006699000099990000CC990000FF99000000CC000033CC000066CC000099CC0000CCCC0000FFCC000000FF000033FF000066FF000099FF0000CCFF0000FFFF00010000331433003354660033539900336FCC003374FF003330003333303333
310
33726633337099333370CC333330FF3333010066331233663354666633539966336FCC663374FF66333000993330339933726699337099993331CC993300FF99330000CC330033CC330066CC330099CC3300CCCC3300FFCC330000FF330033FF330066FF330099FF3300CCFF3300FFFF330000006600330066006600660099
310
006600CC006600FF00660000336600333366006633660099336666CC336652FF33665600666650336666736666663299666631CC666650FF66666F0099664F339966336699664699996666CC996652FF99665600CC665033CC667366CC663299CC6631CCCC6650FFCC666F00FF663333FF661866FF660099FF6600CCFF6600
310
FFFF660000009900330099006600990099009900CC009900FF00990000339900333399006633990099339900CC339900FF33990000669900336699006666990099669900CC669900FF66990000999901339999146699995499999953CC99996FFF99997400CC993033CC993066CC997299CC9970CCCC9970FFCC993400FF99
310
0133FF991266FF995499FF9953CCFF996FFFFF99740000CC303300CC306600CC729900CC70CC00CC35FF00CC000033CC003333CC006633CC009933CC00CC33CC00FF33CC000066CC003366CC006666CC009966CC00CC66CC00FF66CC000099CC003399CC006699CC009999CC00CC99CC00FF99CC0000CCCC0033CCCC0066CC
310
CC0099CCCC00CCCCCC66FFCCCC5200FFCC5633FFCC5066FFCC7399FFCC32CCFFCC31FFFFCC500000FF6F3300FF4F6600FF339900FF46CC00FF66FF00FF520033FF563333FF506633FF739933FF32CC33FF31FF33FF500066FF6F3366FF336666FF5A9966FF00CC66FF14FF66FF540099FF533399FF6F6699FF749999FF30CC
310
99FF30FF99FF7200CCFF7033CCFF7066CCFF3799CCFF01CCCCFF12FFCCFF5400FFFF5333FFFF6F66FFFF7499FFFF30CCFFFF30FFFFFF72000000700D0D0D381A1A1A00282828003535356643434352505050565D5D5D506B6B6B73787878328686863193939350A1A1A16FAEAEAE4FBBBBBB33C9C9C946D6D6D666E4E4E452
310
F1F1F156FFFFFF50000000730000003200000031000000500000006F000000330000008C00000000000000F00000000000000000000000000000000000000000000000000000000000000000000000000000000000000000000000000000000000000000000000000000000000000000000000000000000000000000000000
310
000000000000000000000000000000000000000000000000000000000000000000000000000000000000000000000000000000000000000000000000000000000000000000000000000000000000000000000000000000000000000000000000000000000000000000000000000000000000000000000000F2000000000000
310
000000000000000000000000000000000000000000000000000000000000000000000000000000000000000000000000000000000000000000000000000000000000000000000000000000000000000000000000000000000000000000000000F2F2F2F2F2F2F2F2F2F2F2F2F2F2F2F2F2F2F2F2F2F2F2F2F2F2F2F2F2F2F2
310
F2F2F2F2F2F2F2F2F2F2F2F2F2F2F2F2F2F2F2F2F2F2F2F2F2F2F2F2F2F2F2F2F2F2F2F2F2F2F2F2F2F2F2F2F2F2F2F2F2F2F2F2F22828282828282828282828282828282828282828F2F2F2F275F27575F275F27575F27575F2F275F2F2F275757575757575757575F2757575757575757575F2F2F2F2F2F2F2F2F2F2F2F2
310
0000000000000000000000000000000000000000000000000000000000000000000000000000000000000000000000000000000000000000000000000000000000000000000000000000000000000000000000000000000000000000000000000000F275757575757575757575757575757575757575757575757575757575
310
757575757575757575757575757575757575757575757500F2000000000000000000000000000000000000000000000000F2F2F20000002828280000282828282828282828282828282828000000F200000075000000007500000000F2007500F20000000000000000000000000000000000000000F20000000000F2F2F2F2
310
F2F2F2F2000000000000000000000000000000000000000000000000000000000000000000000000000000000000000000000000000000000000000000000000000000000000000000000000000000000000000000000000000000000000000000000000F27575757575757575757575757575757575757575757575757575
310
7575757575757575757575757575757575757575757575757500F2757500757500000000000000000000000000000000000000F2F2757575757500000000002828282828282828000000000000000000F200000075000000007500000000F2000075F2F2F2F2F2F2F2F2F2F2F2F2F2F2F275757575F275757575757575F2F2
310
F2F2F2F2F2F2F20000000000000000000000000000000000000000000000000000000000000000000000000000000000000000000000000000000000000000000000000000000000000000000000000000000000000000000000000000000000000000000000F2000000000000000000000000000000000000000000000000
310
00000000000000000000000000000000000000000000000000000000F27575757575757575757575757575757575757575757575757575757575757575757575757575757575757575757575757575757575750000007500000000750000000075002800F20000000000000000000000000000750000750075F2F2F2F2F2F2
310
F2F2F2F2F2F2F2F2F20000000000000000000000000000000000000000000000000000000000000000000000000000000000000000000000000000000000000000000000000000000000000000000000000000000000000000000000000000000000000000000000F275757575757575757575757575757575757575757575
310
757575757575757575757575757575757575757575757575757575757500F2000000000000000000000000000000000000000000000000F2F2F200000000000000000000000000000000000000000000F2F2F2F2F200000075000000007500000000F2282800F20000000000000000000000000000000000000000F2000000
310
0000F2F2F2F2F2F2F2F2000000000000000000000000000000000000000000000000000000000000000000000000000000000000000000000000000000000000000000000000000000000000000000000000000000000000000000000000000000000000000000000000F27575757575757575757575757575757575757575
310
7575757575757575757575757575757575757575757575757575757575757500F2000000000000000000000000000000000000000000000000F2F2F200000000000000000000000000000000000000000000F2F2F2F2F275757575757575757575757575752875757500000000000000000000000000000000000000007575
310
7575757575F2F2F2F2F2F2F2F20000000000000000000000000000000000000000000000000000000000000000000000000000000000000000000000000000000000000000000000000000000000000000000000000000000000000000000000000000000000000000000000F2757575757575000000000000000000000000
310
00000000000000000000000000000000000000000000000000000000000000000000F2757575757500000000000000000000000000000000000000000075757575750000000000000000000000000000000000000000F200F27500757575757575757575750075757575F27575757500000000000000000000000000000000
310
F27575757500F2F200F2F2F2F2F2000000000000000000000000000000000000000000000000000000000000000000000000000000000000000000000000000000000000000000000000000000000000000000000000000000000000000000000000000000000000000000000000F2F2F2F2F2F2F2F2F2F2F2C3C3C3C3F2F2
310
F2F2F2F2F2F2F2F2F2F2F2F2F2F2F2F2F2F2F2F2F2F2F2F2F2F2F2F2F2F2F2F2F2F2F2F2F2F2F2F2F2F2F2F2F2F2F2F2F2F2F2F2F2F2F2F2F2F2F2F2F2F2F2F2F2F2F2F2F2F2F2F2F2F2F2F2F2F2F2F2F2F2F2F2F2F2F2F2F2F2F2F2F2F275F2F2F2F275F2F2F2F2F2F2F2F2F2F2F2F2F2F2F2F2F2F2F2F2F2F2F2F2F2F2F2
310
F2F2F2F2F2F2F2F2F2F2F2F2F2F2F2F2F20000000000000000000000000000000000000000000000000000000000000000000000000000000000000000000000000000000000000000000000000000000000000000000000000000000000000000000000000000000000000000000000F200000000000000000000C3C3C3C3
310
00000000000000000000000000000000000000000000000000000000000000000000000000000000000000000000000000000000000000000000000000000000000000000000000000000000000000000000000000000000000000000000000000000000000000000000000000000000000000000000000000000000000000
310
000000000000000000000000000000000000F200ECEC0000000000000000000000000000000000000000000000000000000000000000000000000000000000000000000000000000000000000000000000000000000000000000000000000000000000000000000000000000000000000000F200000000000000000000C3C3
310
C3C30000000000000000000000000000000000000000000000000000000000000000000000000000000000000000000000000000000000000000000000000000000000000000000000000000000000000000000000000000000000000000000000000000000000000000000000000000000000000000000000000000000000
310
0000000000000000000000000000000000000000ECECECECEC00000000000000000000000000000000000000000000000000000000000000000000000000000000000000000000000000000000000000000000000000000000000000000000000000000000000000000000000000000000000000F200000000000000000000
310
C3C3C3C3C3C3C3C3C3C3000000000000000000000000000000F5F500000000000000000000000000000000000000000000000000000000000000000000000000000000000000000000000000000000000000000000000000000000000000000000000000000000000000000000000000000000000000000000000000000000
310
00000000000000000000000000000000000000000000F200ECEC0000000000000000000000000000000000000000000000000000000000000000000000000000000000000000000000000000000000000000000000000000000000000000000000000000000000000000000000000000000000000000F20000000000000000
310
0000000000C3000000000000000000000000000000000000000000F5F50000000000000000000000000000000000000000000000000000000000000000000000000000000000000000000000000000000000000000000000000000000000000000000000000000000000000000000000000000000000000000000000000000
310
000000000000000000000000000000000000000000000000F20000000000000000000000000000000000000000000000000000000000000000000000000000000000000000000000000000000000000000000000000000000000000000000000000000000000000000000000000000000000000000000000F2000000000000
310
00000000000000C3000000000000000000000000000000000000000000F5F500000000000000000000000000000000000000000000000000000000000000000000000000000000000000000000000000C3000000000000C300C30000000000000000000000000000000000C3C3C30000000000000000000000000000000000
310
00C3C300000000000000C3000000000000000000000000000000F200ECEC0000000000000000000000000000000000000000000000000000000000000000000000000000000000000000000000000000000000000000000000000000000000000000000000000000000000000000000000000000000000000000F200000000
310
000000000000C3C3C3C3C3C3C3C3C3F5F5F5F5F5F5F5F5F5F5F5F5F5F5F5F5F5F5000000000000000000000000C3C3C3C3C3C3C3C3C3C3C3C300000000000000000000000000000000000000000000000000C3C3C3C3C3C3C3C3C3C3C3C3C3C3C3C3C3C3C3C3C3C3C3C3C3C3C3C3C3C3C3C3C3C3C3C3C3C3C3C3C3C3C3C3C3
310
C3C3C3C3C3C3C3C3C3C3C3C3C3000000000000000000000000000000ECECECECEC00000000000000000000000000000000000000000000000000000000000000000000000000000000000000000000000000000000000000000000000000000000000000000000000000000000000000000000000000000000000000F20000
310
0000000000000000C3C3C3C30000000000F5F5F5F5000000000000000000000000F5F5F5F500000000000000F5F5F5C3C3C3C3C3C3C300000000C300000000000000000000000000000000000000000000000000C300C3C3C30000C3C3C30000000000000000000000000000000000C3C3C300000000000000000000000000
310
0000000000C3C300C3C3C3C30000C3000000000000000000000000000000F200ECEC0000000000000000000000000000000000000000000000000000000000000000000000000000000000000000000000000000000000000000000000000000000000000000000000000000000000000000000000000000000000000000F2
310
00000000000000000000C3C3C3C30000000000F5F5F5F500F5F5F500000000000000F5F5F50000000000000000000000F50000000000C30000000000C300000000000000000000000000000000000000000000000000C300C3C3C30000C300000000000000000000000000000000000000C3C3C30000000000000000000000
310
0000000000000000C300C3C3C3C30000C3000000000000000000000000000000F200000000000000000000000000000000000000000000000000000000000000000000000000000000000000000000000000000000000000000000000000000000000000000000000000000000000000000000000000000000000000000000
310
00F200000000000000000000000000C3C3C3C3C3C3F5F5F5F5F5F5F5F5F5F5F5F5F5F5F5F5F5000000000000000000000000F50000000000C30000000000C300000000000000000000000000000000000000000000000000C3000000000000C300000000000000000000000000000000000000000000000000000000000000
310
00000000000000000000C300000000000000C3000000000000000000000000000000F200ECEC0000000000000000000000000000000000000000000000000000000000000000000000000000000000000000000000000000000000000000000000000000000000000000000000000000000000000000000000000000000000
310
000000F200000000000000000000000000000000000000DC0000F500F5F5F5F5F5F5F5F5F5F5F5F5F5F500000000000000000000F50000000000C30000000000C300000000000000000000000000000000000000000000000000C3000000000000C30000000000000000000000000000000000000000000000000000000000
310
000000000000000000000000C300000000000000C3000000000000000000000000000000ECECECECEC0000000000000000000000000000000000000000000000000000000000000000000000000000000000000000000000000000000000000000000000000000000000000000000000000000000000000000000000000000
310
0000000000F200000000000000000000000000000000000000DC00000000F5F500000000000000000000F5F500000000000000000000F50000000000C30000000000C300000000000000000000000000000000000000000000000000C3000000000000C3000000000000000000000000000000000000000000000000000000
310
0000000000000000000000000000C3F500F500000000C3000000000000000000000000000000F200ECEC00000000000000000000000000000000000000000000000000000000000000000000000000000000000000000000000000000000000000000000000000000000000000000000000000000000000000000000000000
310
00000000000000F200000000000000000000000000000000000000DC00000000F5F5F50000000000000000000000F5000000000000000000F50000000000C30000000000C300000000000000000000000000000000000000000000000000F5F5F5F5F5F5F5F5DCDCDCDCDCDCDCDCDCDCDCDCDCDCDCDCDCDCDCDCDCDCDCDCDC
310
DCDCDCDCC3C3C3C3C3C3C3DCDCDCDCDCF5F5F5F5F5F5F5F5F5000000000000000000000000000000F20000000000000000000000000000000000000000000000000000000000000000000000000000000000000000000000000000000000000000000000000000000000000000000000000000000000000000000000000000
310
000000000000000000F200000000000000000000000000000000000000DC0000000000F50000000000000000F5000000F500000000F500000000F50000C3C3C3C30000C3C3C3C300000000000000000000000000000000000000000000000000F500F5F5000000000000000000000000000000000000000000000000000000
310
00000000000000C30000000000000000000000F5F5F500F500F5F5000000000000000000000000000000F200ECEC000000000000000000000000000000000000000000000000000000000000000000000000000000000000000000000000000000000000000000000000000000000000000000000000000000000000000000
310
0000000000000000000000F200000000000000000000000000000000000000DC00000000000000000000000000F5F5F50000F5F5F5F5F5F5F5F5F5F5F50000C3C3C3C30000C3C3C3C300000000000000000000000000000000000000000000000000F500F5F500000000000000000000000000000000000000000000000000
310
000000000000000000C3000000000000000000000000000000F500F5F5000000000000000000000000000000ECECECECEC000000000000000000000000000000000000000000000000000000000000000000000000000000000000000000000000000000000000000000000000000000000000000000000000000000000000
310
00000000000000000000000000F200000000000000000000000000000000000000DC00000000000000000000000000F5F5000000F5F5F5F5F5F5F5F5F5F5F50000C3C3C3C30000C3C3C3C300000000000000000000000000000000000000000000000000F500F5F50000000000000000000000000000000000000000000000
310
0000000000000000000000C3000000000000000000000000000000F500F5F5000000000000000000000000000000F200ECEC0000000000000000000000000000000000000000000000000000000000000000000000000000000000000000000000000000000000000000000000000000000000000000000000000000000000
310
000000000000000000000000000000F200000000000000000000000000000000000000DC00000000000000000000000000F5F5F5F5F5F5F50000000000000000F50000C3C3C3C30000000000C3000000000000000000000000000000000000000000000000000000F5F5000000000000000000000000000000000000000000
310
00000000000000000000000000C3000000000000000000000000000000F5000000000000000000000000000000000000F2000000000000000000000000000000000000000000000000000000000000000000000000000000000000000000000000000000000000000000000000000000000000000000000000000000000000
310
0000000000000000000000000000000000F200000000000000000000000000000000000000DC00000000000000000000000000F5F5F5F5F5F5F5F5F5F5F5F5F5F5F5F50000000000C30000000000C3000000000000000000000000000000000000000000000000000000F5F500000000000000000000000000000000000000
310
000000000000000000000000000000C3000000000000000000000000000000F5000000000000000000000000000000000000F200ECEC00000000000000000000000000000000000000000000000000000000000000000000000000000000000000000000000000000000000000000000000000000000000000000000000000
310
00000000000000000000000000000000000000F200000000000000000000000000000000000000DC000000000000000000000000000000000000F5F5F5F5F5F5F5F5F5F5F50000000000C30000000000C3000000000000000000000000000000000000000000000000000000F5F50000000000000000000000000000000000
310
0000000000000000000000000000000000C3000000000000000000000000000000F5000000000000000000000000000000000000ECECECECEC00000000000000000000000000000000000000000000000000000000000000000000000000000000000000000000000000000000000000000000000000000000000000000000
310
000000000000000000000000000000000000000000F200000000000000000000000000000000000000DC000000000000000000000000000000000000F5F500000000000000F5F50000000000C30000000000C3000000000000000000000000000000000000000000000000000000F5F5000000000000000000000000000000
310
00000000000000000000000000000000000000C3000000000000000000000000000000F5000000000000000000000000000000000000F200ECEC000000000000000000000000000000000000000000000000000000000000000000000000000000000000000000000000000000000000000000000000000000000000000000
310
0000000000000000000000000000000000000000000000F200000000000000000000000000000000000000DC000000000000000000000000000000000000F5F500000000000000F5F50000000000C30000000000C300000000000000000000000000000000000000000000000000F500F5F500000000000000000000000000
310
000000000000000000000000000000000000000000C3000000000000000000000000000000F500F5F5000000000000000000000000000000F200000000000000000000000000000000000000000000000000000000000000000000000000000000000000000000000000000000000000000000000000000000000000000000
310
00000000000000000000000000000000000000000000000000F200000000000000000000000000000000000000DC000000000000000000000000000000000000F5F500000000000000F5F50000000000C30000000000C30000000000000000000000000000000000000000000000F5F5F500F5F50000000000000000000000
310
0000000000000000000000000000000000000000000000C30000000000000000000000F5F5F5F5F500F5F5F50000000000000000000000000000F200ECEC0000000000000000000000000000000000000000000000000000000000000000000000000000000000000000000000000000000000000000000000000000000000
310
000000000000000000000000000000000000000000000000000000F200000000000000000000000000000000000000DC000000000000000000000000000000000000F5F500000000000000F5F50000000000C30000000000C30000000000000000000000000000000000000000000000F5F5F5F5F5F5000000000000000000
310
00000000000000000000000000000000000000000000000000C3000000000000000000000000F5F5F5F5F5F5F5F50000000000000000000000000000ECECECECEC0000000000000000000000000000000000000000000000000000000000000000000000000000000000000000000000000000000000000000000000000000
310
0000000000000000000000000000000000000000000000000000000000F200000000000000000000000000000000000000DC000000000000000000000000000000000000F5F5F500000000000000F5C3C3C3C3C3C3C3C3C3C3C3C30000000000000000000000000000000000000000000000F5F50000F5F500000000000000
310
000000000000000000000000000000000000000000000000C3C3C3C3000000000000000000000000000000F5000000F50000000000000000000000000000F200ECEC00000000000000000000000000000000000000000000000000000000000000000000000000000000000000000000000000000000000000000000000000
310
00000000000000000000000000000000000000000000000000000000000000F200000000000000000000000000000000000000DC00000000000000000000000000000000000000F50000000000000000DC0000000000000000000000C3C300000000000000000000000000000000000000000000F5F50000F5F50000000000
310
0000000000000000000000000000000000000000000000000000C3C3C3C3000000000000000000000000000000F5000000F50000000000000000000000000000F20000000000000000000000000000000000000000000000000000000000000000000000000000000000000000000000000000000000000000000000000000
310
000000000000000000000000000000000000000000000000000000000000000000F200000000000000000000000000000000000000DC00000000000000000000000000000000000000000000000000000000DC00000000000000000000C3C3C300000000000000000000000000000000000000000000F5F50000F5F5F5F5F5
310
00000000000000000000000000000000000000000000000000000000C3C3C3C3000000000000000000000000000000F5000000F50000000000000000000000000000F200ECEC000000000000000000000000000000000000000000000000000000000000000000000000000000000000000000000000000000000000000000
310
0000000000000000000000000000000000000000000000000000000000000000000000F200000000000000000000000000000000000000DC00000000000000000000000000000000000000000000000000000000DC0000000000000000000000C30000000000000000000000000000000000000000000000F5F50000F5F5F5
310
F5F5F5000000000000000000000000000000000000000000000000000000C3C3C3C3000000000000000000000000F5F5F5F5000000F50000000000000000000000000000ECECECECEC000000000000000000000000000000000000000000000000000000000000000000000000000000000000000000000000000000000000
310
00000000000000000000000000000000000000000000000000000000000000000000000000F200000000000000000000000000000000000000DC00000000000000000000000000000000000000000000000000000000DC0000000000000000000000C30000000000000000000000000000000000000000000000F5F50000F5
310
F5F500F500000000000000000000000000000000000000000000000000000000C3C3C3C3000000000000000000000000000000F5000000F50000000000000000000000000000F200ECEC0000000000000000000000000000000000000000000000000000000000000000000000000000000000000000000000000000000000
310
000000000000000000000000000000000000000000000000000000000000000000000000000000F200000000000000000000000000000000000000DC00000000000000000000000000000000000000000000000000000000DC0000000000000000000000C30000000000000000000000000000000000000000000000F5F500
310
00F5F500000000000000000000000000000000000000000000000000000000000000000000C3000000000000000000000000000000F5000000F50000000000000000000000000000F2000000000000000000000000000000000000000000000000000000000000000000000000000000000000000000000000000000000000
310
0000000000000000000000000000000000000000000000000000000000000000000000000000000000F200000000000000000000000000000000000000C300000000000000000000000000000000000000000000000000000000C30000000000000000000000C30000000000000000000000000000000000000000000000F5
310
F50000F5F500000000000000000000000000000000000000000000000000000000000000000000C3000000000000000000000000000000F5000000F50000000000000000000000000000F200ECEC00000000000000000000000000000000000000000000000000000000000000000000000000000000000000000000000000
310
00000000000000000000000000000000000000000000000000000000000000000000000000000000000000F200000000000000000000000000000000000000C300000000000000000000000000000000000000000000000000000000C30000000000000000000000C300000000000000000000000000000000000000000000
310
00F5F50000F5F500000000000000000000000000000000000000000000000000000000000000000000C3000000000000000000000000000000F5000000F50000000000000000000000000000ECECECECEC00000000000000000000000000000000000000000000000000000000000000000000000000000000000000000000
310
000000000000000000000000000000000000000000000000000000000000000000000000000000000000000000F200000000000000000000000000000000000000C300000000000000000000000000000000000000000000000000000000C30000000000000000000000C30000000000000000000000000000000000000000
310
000000F5F50000F5F500000000000000000000000000000000000000000000000000000000000000000000C3000000000000000000000000000000F5000000F50000000000000000000000000000F200ECEC000000000000000000000000000000000000000000000000000000000000000000000000000000000000000000
310
0000000000000000000000000000000000000000000000000000000000000000000000000000000000000000000000F200000000000000000000000000000000000000C300000000000000000000000000000000000000000000000000000000C30000000000000000000000C3000000000000000000000000000000000000
310
0000000000F5F50000F5F500000000000000000000000000000000000000000000000000000000000000000000C3000000000000000000000000000000F5000000F50000000000000000000000000000F200000000000000000000000000000000000000000000000000000000000000000000000000000000000000000000
310
00000000000000000000000000000000000000000000000000000000000000000000000000000000000000000000000000F200000000000000000000000000000000000000C300000000000000000000000000000000000000000000000000000000C30000000000000000000000C300000000000000000000000000000000
310
00000000000000F5F50000F5F500000000000000000000000000000000000000000000000000000000000000000000C3000000000000000000000000000000F5000000F50000000000000000000000000000F200ECEC0000000000000000000000000000000000000000000000000000000000000000000000000000000000
310
000000000000000000000000000000000000000000000000000000000000000000000000000000000000000000000000000000F200000000000000000000000000000000000000C300000000000000000000000000000000000000000000000000000000C30000000000000000000000C30000000000000000000000000000
310
000000000000000000F5F50000F5F50000F500000000000000000000000000000000000000000000000000000000000000C3000000000000000000000000000000F5000000F50000000000000000000000000000ECECECECEC0000000000000000000000000000000000000000000000000000000000000000000000000000
310
0000000000000000000000000000000000000000000000000000000000000000000000000000000000000000000000000000000000F200000000000000000000000000000000000000C3C3C3C3C3C3C3C3C3C3C3C3C3C3C3C3C3C3C3C3C3C3C3C3C3C3C3C3C3C30000000000000000000000C3000000000000000000000000
310
0000000000000000000000F5F50000F5F5F5F5F500000000000000000000000000000000000000000000000000000000000000C3000000000000000000000000000000F5000000F50000000000000000000000000000F200ECEC00000000000000000000000000000000000000000000000000000000000000000000000000
310
00000000000000000000000000000000000000000000000000000000000000000000000000000000000000000000000000000000000000F200000000000000000000000000000000000000DC0000000000000000000000C3C3C3C3C3000000000000000000000000DC0000000000000000000000C300000000000000000000
310
00000000000000000000000000F5F50000F5F500000000000000000000000000000000000000000000000000000000000000000000C3000000000000000000000000000000F5000000F50000000000000000000000000000F20000000000000000000000000000000000000000000000000000000000000000000000000000
310
000000000000000000000000000000000000000000000000000000000000000000000000000000000000000000000000000000000000000000F200000000000000000000000000000000000000DC0000000000000000000000C3C3C3C3C3000000000000000000000000DC0000000000000000000000C30000000000000000
310
000000000000000000000000000000F5F50000F5F500000000000000000000000000000000000000000000000000000000000000000000C3000000000000000000000000000000F5000000F50000000000000000000000000000F200ECEC000000000000000000000000000000000000000000000000000000000000000000
310
0000000000000000000000000000000000000000000000000000000000000000000000000000000000000000000000000000000000000000000000F200000000000000000000000000000000000000DC00000000000000000000000000000000000000000000000000000000DC0000000000000000000000C3000000000000
310
0000000000000000000000000000000000F5F50000F5F500000000000000000000000000000000000000000000000000000000000000000000C3000000000000000000000000000000F5000000F50000000000000000000000000000ECECECECEC000000000000000000000000000000000000000000000000000000000000
310
00000000000000000000000000000000000000000000000000000000000000000000000000000000000000000000000000000000000000000000000000F200000000000000000000000000000000000000DC00000000000000000000000000000000000000000000000000000000DC0000000000000000000000C300000000
310
00000000000000000000000000000000000000F5F50000F5F500000000000000000000000000000000000000000000000000000000000000000000C3000000000000000000000000000000F5000000F50000000000000000000000000000F200ECEC0000000000000000000000000000000000000000000000000000000000
310
000000000000000000000000000000000000000000000000000000000000000000000000000000000000000000000000000000000000000000000000000000F200000000000000000000000000000000000000DC00000000000000000000000000000000000000000000000000000000DC0000000000000000000000C30000
310
000000000000000000000000000000000000000000F5F5F5F5F5F5F5F5F5F5DCDCDCDCDCDCDCDCDCDCDCDCDCDCDCDCDCDCDCDCDCDCDCDCDCDCDCDCDCC3C3C3C3C3C3C3DCDCDCDCDCDCF5F5F5F5F5F5F5F5F50000000000000000000000000000F2000000000000000000000000000000000000000000000000000000000000
310
0000000000000000000000000000000000000000000000000000000000000000000000000000000000000000000000000000000000000000000000000000000000F200000000000000000000000000000000000000DC00000000000000000000000000000000000000000000000000000000DC0000000000000000000000C3
310
0000000000000000000000000000000000000000000000C30000000000000000C30000000000000000000000000000000000000000000000000000000000000000000000000000000000C30000000000000000C30000000000000000000000000000F200000000000000000000000000000000000000000000000000000000
310
00000000000000000000000000000000000000000000000000000000000000000000000000000000000000000000000000000000000000000000000000000000000000F200000000000000000000000000000000000000DC00000000000000000000000000000000000000000000000000000000DC00000000000000000000
310
00C30000000000000000000000000000000000000000000000C30000000000000000C30000000000000000000000000000000000000000000000000000000000000000000000000000000000C30000000000000000C30000000000000000000000000000F20000000000000000000000000000000000000000000000000000
310
000000000000000000000000000000000000000000000000000000000000000000000000000000000000000000000000000000000000000000000000000000000000000000F200000000000000000000000000000000000000DC00000000000000000000000000000000000000000000000000000000DC0000000000000000
310
000000C30000000000000000000000000000000000000000000000C30000000000000000C30000000000000000000000000000000000000000000000000000000000000000000000000000000000C30000000000000000C30000000000000000000000000000F2000000000000000000000000000000000000000000000000
310
0000000000000000000000000000000000000000000000000000000000000000000000000000000000000000000000000000000000000000000000000000000000000000000000F200000000000000000000000000000000000000DC00000000000000000000000000000000000000000000000000000000DC000000000000
310
0000000000C30000000000000000000000000000000000000000000000C30000000000000000C30000000000000000000000000000000000000000000000000000000000000000000000000000000000C30000000000000000C30000000000000000000000000000F200000000000000000000000000000000000000000000
310
00000000000000000000000000000000000000000000000000000000000000000000000000000000000000000000000000000000000000000000000000000000000000000000000000F200000000000000000000000000000000000000DC00000000000000000000000000000000000000000000000000000000DC00000000
310
00000000000000C30000000000000000000000000000000000000000000000C30000000000000000C30000000000000000000000000000000000000000000000000000000000000000000000000000000000C30000000000000000C30000000000000000000000000000F20000000000000000000000000000000000000000
310
000000000000000000000000000000000000000000000000000000000000000000000000000000000000000000000000000000000000000000000000000000000000000000000000000000F200000000000000000000000000000000000000DC00000000000000000000000000000000000000000000000000000000DC0000
310
000000000000000000C30000000000000000000000000000000000000000000000C3C3C3C3C3C3C3C3C3C30000000000000000000000000000000000000000000000000000000000000000000000000000000000C3C3C3C3C3C3C3C3C3C30000000000000000000000000000F2000000000000000000000000000000000000
310
0000000000000000000000000000000000000000000000000000000000000000000000000000000000000000000000000000000000000000000000000000000000000000000000000000000000F200000000000000000000000000000000000000DC00000000000000000000000000000000000000000000000000000000DC
310
0000000000000000000000C30000000000000000000000000000000000000000000000000000C3C3C3000000000000000000000000000000000000000000000000000000000000000000000000000000000000000000000000C3C3C3000000000000000000000000000000000000F200000000000000000000000000000000
310
00000000000000000000000000000000000000000000000000000000000000000000000000000000000000000000000000000000000000000000000000000000000000000000000000000000000000F200000000000000000000000000000000000000DC000000000000000000000000000000000000000000000000000000
310
00DC0000000000000000C3C3C3C30000000000000000000000000000000000000000000000000000C3C3C3000000000000000000000000000000000000000000000000000000000000000000000000000000000000000000000000C3C3C3000000000000000000000000000000000000F20000000000000000000000000000
310
000000000000000000000000000000000000000000000000000000000000000000000000000000000000000000000000000000000000000000000000000000000000000000000000000000000000000000F200000000000000000000000000000000000000DC00000000000000000000000000000000000000000000000000
310
000000DC0000000000000000C3C3C3C30000000000000000000000000000000000000000000000000000000000000000000000000000000000000000000000000000000000000000000000000000000000000000000000000000000000000000000000000000000000000000000000000000F2000000000000000000000000
310
0000000000000000000000000000000000000000000000000000000000000000000000000000000000000000000000000000000000000000000000000000000000000000000000000000000000000000000000F200000000000000000000000000000000000000DC0000000000000000000000000000000000000000000000
310
0000000000DC0000000000000000C3C3C3C30000000000000000000000000000000000000000000000000000000000000000000000000000000000000000000000000000000000000000000000000000000000000000000000000000000000000000000000000000000000000000000000000000F200000000000000000000
310
00000000000000000000000000000000000000000000000000000000000000000000000000000000000000000000000000000000000000000000000000000000000000000000000000000000000000000000000000F200000000000000000000000000000000000000DC000000000000000000000000000000000000000000
310
00000000000000DC0000000000000000000000C30000000000000000000000000000000000000000000000000000000000000000000000000000000000000000000000000000000000000000000000000000000000000000000000000000000000000000000000000000000000000000000000000000F20000000000000000
310
000000000000000000000000000000000000000000000000000000000000000000000000000000000000000000000000000000000000000000000000000000000000000000000000000000000000000000000000000000F200000000000000000000000000000000000000DC00000000000000000000000000000000000000
310
000000000000000000DC0000000000000000000000C30000000000000000000000000000000000000000000000000000000000000000000000000000000000000000000000000000000000000000000000000000000000000000000000000000000000000000000000000000000000000000000000000000F2000000000000
310
0000000000000000000000000000000000000000000000000000000000000000000000000000000000000000000000000000000000000000000000000000000000000000000000000000000000000000000000000000000000F200000000000000000000000000000000000000DC0000000000000000000000000000000000
310
0000000000000000000000DC0000000000000000000000C30000000000000000000000000000000000000000000000000000000000000000000000000000000000000000000000000000000000000000000000000000000000000000000000000000000000000000000000000000000000000000000000000000F200000000
310
000000000000000000000000000000000000000000000000000000000000000000000000000000000000000000000000000000000000000000000000000000000000000000000000000000000000000000000000000000000000F2F200000000000000000000000000000000000000DC000000000000000000000000000000
310
00000000000000000000000000DC0000000000000000000000C30000000000000000000000000000000000000000000000000000000000000000000000000000000000000000000000000000000000000000000000000000000000000000000000000000000000000000000000000000000000000000000000000000F20000
310
000000000000000000000000000000000000000000000000000000000000000000000000000000000000000000000000000000000000000000000000000000000000000000000000000000000000000000000000000000000000000000F200000000000000000000000000000000000000DC00000000000000000000000000
310
000000000000000000000000000000DC0000000000000000000000C30000000000000000000000000000000000000000000000000000000000000000000000000000000000000000000000000000000000000000000000000000000000000000000000000000000000000000000000000000000000000000000000000000F2
310
0000000000000000000000000000000000000000000000000000000000000000000000000000000000000000000000000000000000000000000000000000000000000000000000000000000000000000000000000000000000000000000000F200000000000000000000000000000000000000DC0000000000000000000000
310
0000000000000000000000000000000000DC0000000000000000000000C300000000000000000000000000000000000000000000000000000000000000000000000000000000000000000000000000000000000000000000000000000000000000000000000000000000000000000000000000000000000000000000000000
310
00F20000000000000000000000000000000000000000000000000000000000000000000000000000000000000000000000000000000000000000000000000000000000000000000000000000000000000000000000000000000000000000000000F200000000000000000000000000000000000000DC000000000000000000
310
00000000000000000000000000000000000000DC0000000000000000000000C30000000000000000000000000000000000000000000000000000000000000000000000000000000000000000000000000000000000000000000000000000000000000000000000000000000000000000000000000000000000000000000000
310
000000F20000000000000000000000000000000000000000000000000000000000000000000000000000000000000000000000000000000000000000000000000000000000000000000000000000000000000000000000000000000000000000000000F200000000000000000000000000000000000000DC00000000000000
310
000000000000000000000000000000000000000000DC0000000000000000000000C3000000000000000000000000000000000000000000000000000000000000000000000000000000000000000000000000000000000000000000000000000000000000000000000000000000000000000000000000000000000000000000
310
0000000000F20000000000000000000000000000000000000000000000000000000000000000000000000000000000000000000000000000000000000000000000000000000000000000000000000000000000000000000000000000000000000000000000F200000000000000000000000000000000000000DC0000000000
310
0000000000000000000000000000000000000000000000DC0000000000000000000000C300000000000000000000000000000000000000000000000000000000000000000000000000000000000000000000000000000000000000000000000000000000000000000000000000000000000000000000000000000000000000
310
00000000000000F20000000000000000000000000000000000000000000000000000000000000000000000000000000000000000000000000000000000000000000000000000000000000000000000000000000000000000000000000000000000000000000000F200000000000000000000000000000000000000DC000000
310
00000000000000000000000000000000000000000000000000DC0000000000000000000000C30000000000000000000000000000000000000000000000000000000000000000000000000000000000000000000000000000000000000000000000000000000000000000000000000000000000000000000000000000000000
310
000000000000000000F20000000000000000000000000000000000000000000000000000000000000000000000000000000000000000000000000000000000000000000000000000000000000000000000000000000000000000000000000000000000000000000000F200000000000000000000000000000000000000DC00
310
000000000000000000000000000000000000000000000000000000DC0000000000000000000000C3000000000000000000000000000000000000000000000000000000000000000000000000000000000000000000000000000000000000000000000000000000000000000000000000000000000000000000000000000000
310
0000000000000000000000F20000000000000000000000000000000000000000000000000000000000000000000000000000000000000000000000000000000000000000000000000000000000000000000000000000000000000000000000000000000000000000000000F200000000000000000000000000000000000000
310
DC00000000000000000000000000000000000000000000000000000000DC0000000000000000000000C300000000000000000000000000000000000000000000000000000000000000000000000000000000000000000000000000000000000000000000000000000000000000000000000000000000000000000000000000
310
00000000000000000000000000F20000000000000000000000000000000000000000000000000000000000000000000000000000000000000000000000000000000000000000000000000000000000000000000000000000000000000000000000000000000000000000000000F20000000000000000000000000000000000
310
0000DC00000000000000000000000000000000000000000000000000000000DC0000000000000000000000C30000000000000000000000000000000000000000000000000000000000000000000000000000000000000000000000000000000000000000000000000000000000000000000000000000000000000000000000
310
000000000000000000000000000000F20000000000000000000000000000000000000000000000000000000000000000000000000000000000000000000000000000000000000000000000000000000000000000000000000000000000000000000000000000000000000000000000F2000000000000000000000000000000
310
00000000DC00000000000000000000000000000000000000000000000000000000DC0000000000000000000000C3000000000000000000000000000000000000000000000000000000000000000000000000000000000000000000000000000000000000000000000000000000000000000000000000000000000000000000
310
0000000000000000000000000000000000F20000000000000000000000000000000000000000000000000000000000000000000000000000000000000000000000000000000000000000000000000000000000000000000000000000000000000000000000000000000000000000000000F200000000000000000000000000
310
000000000000DC00000000000000000000000000000000000000000000000000000000DC0000000000000000000000C300000000000000000000000000000000000000000000000000000000000000000000000000000000000000000000000000000000000000000000000000000000000000000000000000000000000000
310
00000000000000000000000000000000000000F20000000000000000000000000000000000000000000000000000000000000000000000000000000000000000000000000000000000000000000000000000000000000000000000000000000000000000000000000000000000000000000000F20000000000000000000000
310
0000000000000000DC00000000000000000000000000000000000000000000000000000000DC0000000000000000000000C30000000000000000000000000000000000000000000000000000000000000000000000000000000000000000000000000000000000000000000000000000000000000000000000000000000000
310
000000000000000000000000000000000000000000F20000000000000000000000000000000000000000000000000000000000000000000000000000000000000000000000000000000000000000000000000000000000000000000000000000000000000000000000000000000000000000000000F2000000000000000000
310
00000000000000000000DC00000000000000000000000000000000000000000000000000000000DC0000000000000000000000C3000000000000000000000000000000000000000000000000000000000000000000000000000000000000000000000000000000000000000000000000000000000000000000000000000000
310
0000000000000000000000000000000000000000000000F20000000000000000000000000000000000000000000000000000000000000000000000000000000000000000000000000000000000000000000000000000000000000000000000000000000000000000000000000000000000000000000000F200000000000000
310
000000000000000000000000DC00000000000000000000000000000000000000000000000000000000DC0000000000000000000000C300000000000000000000000000000000000000000000000000000000000000000000000000000000000000000000000000000000000000000000000000000000000000000000000000
310
00000000000000000000000000000000000000000000000000F20000000000000000000000000000000000000000000000000000000000000000000000000000000000000000000000000000000000000000000000000000000000000000000000000000000000000000000000000000000000000000000000F20000000000
310
0000000000000000000000000000DC00000000000000000000000000000000000000000000000000000000DC0000000000000000000000C30000000000000000000000000000000000000000000000000000000000000000000000000000000000000000000000000000000000000000000000000000000000000000000000
310
000000000000000000000000000000000000000000000000000000F20000000000000000000000000000000000000000000000000000000000000000000000000000000000000000000000000000000000000000000000000000000000000000000000000000000000000000000000000000000000000000000000F2000000
310
00000000000000000000000000000000DC00000000000000000000000000000000000000000000000000000000DC0000000000000000000000C3000000000000000000000000000000000000000000000000000000000000000000000000000000000000000000000000000000000000000000000000000000000000000000
310
0000000000000000000000000000000000000000000000000000000000F20000000000000000000000000000000000000000000000000000000000000000000000000000000000000000000000000000000000000000000000000000000000000000000000000000000000000000000000000000000000000000000000F200
310
000000000000000000000000000000000000DC00000000000000000000000000000000000000000000000000000000DC0000000000000000000000C300000000000000000000000000000000000000000000000000000000000000000000000000000000000000000000000000000000000000000000000000000000000000
310
00000000000000000000000000000000000000000000000000000000000000F20000000000000000000000000000000000000000000000000000000000000000000000000000000000000000000000000000000000000000000000000000000000000000000000000000000000000000000000000000000000000000000000
310
F200000000000000000000000000000000000000DC00000000000000000000000000000000000000000000000000000000DC0000000000000000000000C30000000000000000000000000000000000000000000000000000000000000000000000000000000000000000000000000000000000000000000000000000000000
310
000000000000000000000000000000000000000000000000000000000000000000F2000000000000000000000000000000000000000000000000000000000000000000000000000000000000000000000000000000000000000000000000000000000000000000000000000000000000000000000000000000000000000000
310
0000F200000000000000000000000000000000000000DC00000000000000000000000000000000000000000000000000000000DC0000000000000000000000C3000000000000000000000000000000000000000000000000000000000000000000000000000000000000000000000000000000000000000000000000000000
310
0000000000000000000000000000000000000000000000000000000000000000000000F200000000000000000000000000000000000000000000000000000000000000000000000000000000000000000000000000000000000000000000000000000000000000000000000000000000000000000000000000000000000000
310
00000000F200000000000000000000000000000000000000DC00000000000000000000000000000000000000000000000000000000DC00000000000000000000C3C3C3000000000000000000000000000000000000000000000000000000000000000000000000000000000000000000000000000000000000000000000000
310
00000000000000000000000000000000000000000000000000000000000000000000000000F20000000000000000000000000000000000000000000000000000000000000000000000000000000000000000000000000000000000000000000000000000000000000000000000000000000000000000000000000000000000
310
000000000000F200000000000000000000000000000000000000DC00000000000000000000000000000000000000000000000000000000DC0000000000000000000000C3C300000000000000000000000000000000000000000000000000000000000000000000000000000000000000000000000000000000000000000000
310
000000000000000000000000000000000000000000000000000000000000000000000000000000F2000000000000000000000000000000000000000000000000000000000000000000000000000000000000000000000000000000000000000000000000000000000000000000000000000000000000000000000000000000
310
0000000000000000F200000000000000000000000000C3C3C3C3C3C3F5F500000000F500000000000000F5F5F50000000000000000000000F5F5C3C3C3C3C3C3C3C3C3C3C3C3000000000000000000000000000000000000000000000000000000000000000000000000000000000000000000000000000000000000000000
310
0000000000000000000000000000000000000000000000000000000000000000000000000000000000F200000000000000000000000000000000000000000000000000000000000000000000000000000000000000000000000000000000000000000000000000000000000000000000000000000000000000000000000000
310
00000000000000000000F200000000000000000000000000C30000000000F5F5000000F5F5F5000000000000F5F5F50000000000000000000000F5F50000000000000000000000C300000000000000000000000000000000000000000000000000000000000000000000000000000000000000000000000000000000000000
310
00000000000000000000000000000000000000000000000000000000000000000000000000000000000000F20000000000000000000000000000000000000000000000000000000000000000000000000000000000000000000000000000000000000000000000000000000000000000000000000000000000000000000000
310
000000000000000000000000F200000000000000000000000000C30000000000F5F500000000F500000000000000F5F5F50000000000000000000000F5F50000000000000000000000C30000000000000000000000000000000000000000000000000000000000000000000000000000000000000000000000000000000000
310
000000000000000000000000000000000000000000000000000000000000000000000000000000000000000000F2000000000000000000000000000000000000000000000000000000000000000000000000000000000000000000000000000000000000000000000000000000000000000000000000000000000000000000
310
0000000000000000000000000000F200000000000000000000000000C30000000000F5F500000000F500000000000000F5F5F50000000000000000000000F5F50000000000000000000000C3000000000000000000000000000000000000000000000000000000000000000000000000000000000000000000000000000000
310
0000000000000000000000000000000000000000000000000000000000000000000000000000000000000000000000F200000000000000000000000000000000000000000000000000000000000000000000000000000000000000000000000000000000000000000000000000000000000000000000000000000000000000
310
00000000000000000000000000000000F200000000000000000000C3C3C3C30000000000F5F500000000F500000000000000F5F500000000000000000000000000F50000000000000000C3C3C3C300000000000000000000000000000000000000000000000000000000000000000000000000000000000000000000000000
310
00000000000000000000000000000000000000000000000000000000000000000000000000000000000000000000000000F20000000000000000000000000000000000000000000000000000000000000000000000000000000000000000000000000000000000000000000000000000000000000000000000000000000000
310
000000000000000000000000000000000000F200000000000000000000C3C3C3C30000000000F5F500000000F500000000000000F5F500000000000000000000000000F50000000000000000C3C3C3C30000000000000000000000000000000000000000000000000000000000000000000000000000000000000000000000
310
000000000000000000000000000000000000000000000000000000000000000000000000000000000000000000000000000000F2000000000000000000000000000000000000000000000000000000000000000000000000000000000000000000000000000000000000000000000000000000000000000000000000000000
310
0000000000000000000000000000000000000000F200000000000000000000C3C3C3C30000000000F5F5F5F5F5F5F5F5F5F5F50000F5F5F5F5F5F50000F5F5F5F5F5F5F5F5F50000000000000000C3C3C3C3000000000000000000000000000000000000000000000000000000000000000000000000000000000000000000
310
0000000000000000000000000000000000000000000000000000000000000000000000000000000000000000000000000000000000F200000000000000000000000000000000000000000000000000000000000000000000000000000000000000000000000000000000000000000000000000000000000000000000000000
310
00000000000000000000000000000000000000000000F200000000000000000000000000C30000000000F5F5F5F5F5F5F5F5F5F5F5F5F5F5F5F5F5F5F5F5F5F5F5F5F5F5F5F5F5F50000000000000000000000C300000000000000000000000000000000000000000000000000000000000000000000000000000000000000
310
00000000000000000000000000000000000000000000000000000000000000000000000000000000000000000000000000000000000000F20000000000000000000000000000000000000000000000000000000000000000000000000000000000000000000000000000000000000000000000000000000000000000000000
310
000000000000000000000000000000000000000000000000F200000000000000000000000000C30000000000F5F500000000F50000F5F5F5F5F5F5F500F5F5F5F5F5F5000000000000F50000000000000000000000C30000000000000000000000000000000000000000000000000000000000000000000000000000000000
310
000000000000000000000000000000000000000000000000000000000000000000000000000000000000000000000000000000000000000000F2000000000000000000000000000000000000000000000000000000000000000000000000000000000000000000000000000000000000000000000000000000000000000000
310
0000000000000000000000000000000000000000000000000000F200000000000000000000000000C30000000000F5F50000000000000000000000000000F5F50000000000000000000000F50000000000000000000000C3000000000000000000000000000000000000000000000000000000000000000000000000000000
310
0000000000000000000000000000000000000000000000000000000000000000000000000000000000000000000000000000000000000000000000F200000000000000000000000000000000000000000000000000000000000000000000000000000000000000000000000000000000000000000000000000000000000000
310
00000000000000000000000000000000000000000000000000000000F200000000000000000000C3C3C3C3C3C3C3C3C3F5F5F5F5F5F5F5F5F5F5F5F5F5F5F5F5F5F5F5F500000000000000F5F5F5C3C3C3C3C3C3C3C3C3C3C3C300000000000000000000000000000000000000000000000000000000000000000000000000
310
00000000000000000000000000000000000000000000000000000000000000000000000000000000000000000000000000000000000000000000000000F20000000000000000000000000000000000000000000000000000000000000000000000000000000000000000000000000000000000000000000000000000000000
310
000000000000000000000000000000000000000000000000000000000000F200000000000000000000C3C3C3C3000000000000000000000000000000000000000000F5F50000000000000000000000000000000000000000000000000000000000000000000000000000000000000000000000000000000000000000000000
310
000000000000000000000000000000000000000000000000000000000000000000000000000000000000000000000000000000000000000000000000000000F2000000000000000000000000000000000000000000000000000000000000000000000000000000000000000000000000000000000000000000000000000000
310
0000000000000000000000000000000000000000000000000000000000000000F200000000000000000000C3C3C3C3000000000000000000000000000000000000000000F5F5000000000000000000000000000000000000000000000000000000000000000000000000000000000000000000000000000000000000000000
310
0000000000000000000000000000000000000000000000000000000000000000000000000000000000000000000000000000000000000000000000000000000000F200000000000000000000000000000000000000000000000000000000000000000000000000000000000000000000000000000000000000000000000000
310
00000000000000000000000000000000000000000000000000000000000000000000F200000000000000000000000000C3C3C3C3C3C3C3000000000000000000000000000000F5F500000000000000000000000000000000000000000000000000000000000000000000000000000000000000000000000000000000000000
310
00000000000000000000000000000000000000000000000000000000000000000000000000000000000000000000000000000000000000000000000000000000000000F20000000000000000000000000000000000000000000000000000000000000000000000000000000000000000000000000000000000000000000000
310
000000000000000000000000000000000000000000000000000000000000000000000000F2000000000000000000000000000000000000000000000000000000000000000000000000000000000000000000000000000000000000000000000000000000000000000000000000000000000000000000000000000000000000
310
000000000000000000000000000000000000000000000000000000000000000000000000000000000000000000000000000000000000000000000000000000000000000000F2000000000000000000000000000000000000000000000000000000000000000000000000000000000000000000000000000000000000000000
310
0000000000000000000000000000000000000000000000000000000000000000000000000000F200000000000000000000000000000000000000000000000000000000000000000000000000000000000000000000000000000000000000000000000000000000000000000000000000000000000000000000000000000000
310
0000000000000000000000000000000000000000000000000000000000000000000000000000000000000000000000000000000000000000000000000000000000000000000000F200000000000000000000000000000000000000000000000000000000000000000000000000000000000000000000000000000000000000
310
00000000000000000000000000000000000000000000000000000000000000000000000000000000F20000000000000000000000000000000000000000000000000000000000000000000000000000000000000000000000000000000000000000000000000000000000000000000000000000000000000000000000000000
310
00000000000000000000000000000000000000000000000000000000000000000000000000000000000000000000000000000000000000000000000000000000000000000000000000F20000000000000000000000000000000000000000000000000000000000000000000000000000000000000000000000000000000000
310
000000000000000000000000000000000000000000000000000000000000000000000000000000000000F2000000000000000000000000002828282828282828282828282828282828282828282800000000000000000000000000000000000000000000000000000000000000000000000000000000000000000000000000
310
000000000000000000000000000000000000000000000000000000000000000000000000000000000000000000000000000000000000000000000000000000000000000000000000000000F2000000000000000000000000000000000000000000000000000000000000000000000000000000000000000000000000000000
310
0000000000000000000000000000000000000000000000000000000000000000000000000000000000000000F200000000000000000000000000282828282828282828282828282828282828282800280028282828282828282828282828282828282828282828280000000000000000000000000000000000000000000000
310
0000000000000000000000000000000000000000000000000000000000000000000000000000000000000000000000000000000000000000000000000000000000000000000000000000000000F200000000000000000000000000000000000000000000000000000000000000000000000000000000000000000000000000
310
00000000000000000000000000000000000000000000000000000000000000000000000000000000000000000000F20000000000000000000000000028282828282828282828282828282828282828280028002828282828282828282828282828282828282828282828000000000000000000000000000000000000000000
310
00000000000000000000000000000000000000000000000000000000000000000000000000000000000000000000000000000000000000000000000000000000000000000000000000000000000000F20000000000000000000000000000000000000000000000000000000000000000000000000000000000000000000000
310
000000000000000000000000000000000000000000000000000000000000000000000000000000000000000000000000F2000000000000000000000000002828282828282828282828282828282828282828002800282828282828282828282828282828282828282828282800000000000000000000000000000000000000
310
000000000000000000000000000000000000000000000000000000000000000000000000000000000000000000000000000000000000000000000000000000000000000000000000000000000000000000F2000000000000000000000000000000000000000000000000000000000000000000000000000000000000000000
310
0000000000000000000000000000000000000000000000000000000000000000000000000000000000000000000000000000F200000000000000000000000000282828282828282828282828282828282828282800280028282828282828282828282828282828282828282828280000000000000000000000000000000000
310
0000000000000000000000000000000000000000000000000000000000000000000000000000000000000000000000000000000000000000000000000000000000000000000000000000000000000000000000F200000000000000000000000000000000000000000000000000000000000000000000000000000000000000
310
00000000000000000000000000000000000000000000000000000000000000000000000000000000000000000000000000000000F20000000000000000000000000028000000000000000000000000000000000000000028000000000000000000000000000000000000000000000000000000000000000000000000000000
310
00000000000000000000000000000000000000000000000000000000000000000000000000000000000000000000000000000000000000000000000000000000000000000000000000000000000000000000000000F20000000000000000000000000000000000000000000000000000000000000000000000000000000000
310
000000000000000000000000000000000000000000000000000000000000000000000000000000000000000000000000000000000000F2000000000000000000000000002828282828282828282828282828282828282828282800000000000000000000000000000000000000000000000000000000000000000000000000
310
000000000000000000000000000000000000000000000000000000000000000000000000000000000000000000000000000000000000000000000000000000000000000000000000000000000000000000000000000000F2000000000000000000000000000000000000000000000000000000000000000000000000000000
310
0000000000000000000000000000000000000000000000000000000000000000000000000000000000000000000000000000000000000000F200000000000000000000000000282828282828282828282828282828282828282828280000000000000000000000000000000000000000000000000000000000000000000000
310
0000000000000000000000000000000000000000000000000000000000000000000000000000000000000000000000000000000000000000000000000000000000000000000000000000000000000000000000000000000000F200000000000000000000000000000000000000000000000000000000000000000000000000
310
00000000000000000000000000000000000000000000000000000000000000000000000000000000000000000000000000000000000000000000F20000000000000000000000000028282828282828282828282828282828282828282828000000000000000000000000000000000000000000000000000000000000000000
310
00000000000000000000000000000000000000000000000000000000000000000000000000000000000000000000000000000000000000000000000000000000000000000000000000000000000000000000000000000000000000F20000000000000000000000000000000000000000000000000000000000000000000000
310
000000000000000000000000000000000000000000000000000000000000000000000000000000000000000000000000000000000000000000000000F2000000000000000000000000002828282828282828282828282828282828282828282800000000000000000000000000000000000000000000000000000000000000
310
000000000000000000000000000000000000000000000000000000000000000000000000000000000000000000000000000000000000000000000000000000000000000000000000000000000000000000000000000000000000000000F2000000000000000000000000000000000000000000000000000000000000000000
310
0000000000000000000000000000000000000000000000000000000000000000000000000000000000000000000000000000000000000000000000000000F200000000000000000000000000282828282828282828282828282828282828282828280000000000000000000000000000000000000000000000000000000000
310
0000000000000000000000000000000000000000000000000000000000000000000000000000000000000000000000000000000000000000000000000000000000000000000000000000000000000000000000000000000000000000000000F200000000000000000000000000000000000000000000000000000000000000
310
00000000000000000000000000000000000000000000000000000000000000000000000000000000000000000000000000000000000000000000000000000000F20000000000000000000000000028282828282828282828282828282828282828282828000000000000000000000000000000000000000000000000000000
310
00000000000000000000000000000000000000000000000000000000000000000000000000000000000000000000000000000000000000000000000000000000000000000000000000000000000000000000000000000000000000000000000000F20000000000000000000000000000000000000000000000000000000000
310
000000000000000000000000000000000000000000000000000000000000000000000000000000000000000000000000000000000000000000000000000000000000F2000000000000000000000000000000000000000000000000000000000000000000000000000000000000000000000000000000000000000000000000
310
000000000000000000000000000000000000000000000000000000000000000000000000000000000000000000000000000000000000000000000000000000000000000000000000000000000000000000000000000000000000000000000000000000F2000000000000000000000000000000000000000000000000000000
310
0000000000000000000000000000000000000000000000000000000000000000000000000000000000000000000000000000000000000000000000000000000000000000F200000000000000000000000000000000000000000000000000000000000000000000000000000000000000000000000000000000000000000000
310
0000000000000000000000000000000000000000000000000000000000000000000000000000000000000000000000000000000000000000000000000000000000000000000000000000000000000000000000000000000000000000000000000000000000F200000000000000000000000000000000000000000000000000
310
00000000000000000000000000000000000000000000000000000000000000000000000000000000000000000000000000000000000000000000000000000000000000000000F20000000000000000000000000000000000000000000000000000000000000000000000000000000000000000000000000000000000000000
310
00000000000000000000000000000000000000000000000000000000000000000000000000000000000000000000000000000000000000000000000000000000000000000000000000000000000000000000000000000000000000000000000000000000000000F20000000000000000000000000000000000000000000000
310
000000000000000000000000000000000000000000000000000000000000000000000000000000000000000000000000000000000000000000000000000000000000000000000000F2F2F2F2F2F2F2F2F2F2F2F2F2F2F2F2F2F2F2F2F2F2F2F2F2F2F2F2F2F2F2F2F2F2F2F2F2F2F2F2F2F2F2F2F2F2F2F2F2F2F2F2F2F2F2
310
F2F2F2F2F2F2F2F2F2F2F2F2F2F2F2F2F2F2F2F2F2F2F2F2F2ECF2F2F2F2F2F2F2F2F2F2F2F2F2F2F2F2F2F2F2F2F2F2F2F2F2F2F2F2F2F2F2F2F2F2F2F2F2F2F2F2F2F2F2F2F2F2F2F2F2F2F2F2F2F2F2F2F2F2F2F2F2F2F2F2F2F2F2F2F2F2F2F2F2F2F2F2F2F2F2F2000000000000000000000000000000000000000000
310
00000000000000000000000000000000000000000000000000000000000000000000000000000000000000000000000000000000000000000000000000000000000000000000000000000000000000000000000000000000000000000000000000000000000000000000000000000000000000000000000000000000000000
310
00000000000000000000000000000000000000000000000000000000000000000000000000000000000000000000000000000000000000000000000000000000000000000000000000000000000000000000000000000000000000000000000000000000000000000000000000000000000000000000000000000000000000
310
000000000000000000000000000000000000000000000000000000000000
  0
XRECORD
  5
FC
102
{ACAD_REACTORS
330
FA
102
}
330
FA
100
AcDbXrecord
280
     1
270
     1
271
     1
  0
XRECORD
  5
FB
102
{ACAD_REACTORS
330
FA
102
}
330
FA
100
AcDbXrecord
280
     1
270
     1
271
     1
  0
XRECORD
  5
FF
102
{ACAD_REACTORS
330
FA
102
}
330
FA
100
AcDbXrecord
280
     1
270
     1
271
     1
  0
XRECORD
  5
FE
102
{ACAD_REACTORS
330
FA
102
}
330
FA
100
AcDbXrecord
280
     1
270
     1
271
     1
  0
XRECORD
  5
100
102
{ACAD_REACTORS
330
FA
102
}
330
FA
100
AcDbXrecord
280
     1
270
     1
271
     1
  0
XRECORD
  5
FD
102
{ACAD_REACTORS
330
FA
102
}
330
FA
100
AcDbXrecord
280
     1
270
     1
271
     1
  0
XRECORD
  5
F4
102
{ACAD_REACTORS
330
F2
102
}
330
F2
100
AcDbXrecord
280
     1
270
     1
271
     1
  0
XRECORD
  5
F3
102
{ACAD_REACTORS
330
F2
102
}
330
F2
100
AcDbXrecord
280
     1
270
     1
271
     1
  0
XRECORD
  5
F7
102
{ACAD_REACTORS
330
F2
102
}
330
F2
100
AcDbXrecord
280
     1
270
     1
271
     1
  0
XRECORD
  5
F6
102
{ACAD_REACTORS
330
F2
102
}
330
F2
100
AcDbXrecord
280
     1
270
     1
271
     1
  0
XRECORD
  5
F8
102
{ACAD_REACTORS
330
F2
102
}
330
F2
100
AcDbXrecord
280
     1
270
     1
271
     1
  0
XRECORD
  5
F5
102
{ACAD_REACTORS
330
F2
102
}
330
F2
100
AcDbXrecord
280
     1
270
     1
271
     1
  0
XRECORD
  5
104
102
{ACAD_REACTORS
330
102
102
}
330
102
100
AcDbXrecord
280
     1
270
     1
271
     1
  0
XRECORD
  5
103
102
{ACAD_REACTORS
330
102
102
}
330
102
100
AcDbXrecord
280
     1
270
     1
271
     1
  0
XRECORD
  5
107
102
{ACAD_REACTORS
330
102
102
}
330
102
100
AcDbXrecord
280
     1
270
     1
271
     1
  0
XRECORD
  5
106
102
{ACAD_REACTORS
330
102
102
}
330
102
100
AcDbXrecord
280
     1
270
     1
271
     1
  0
XRECORD
  5
108
102
{ACAD_REACTORS
330
102
102
}
330
102
100
AcDbXrecord
280
     1
270
     1
271
     1
  0
XRECORD
  5
105
102
{ACAD_REACTORS
330
102
102
}
330
102
100
AcDbXrecord
280
     1
270
     1
271
     1
  0
XRECORD
  5
760
102
{ACAD_REACTORS
330
75F
102
}
330
75F
100
AcDbXrecord
280
     1
102
DISPLAYNAME
  1
Metric50
102
FLAGS
 90
        0
  0
CELLSTYLEMAP
  5
729
102
{ACAD_REACTORS
330
14C
102
}
330
14C
100
AcDbCellStyleMap
 90
        3
300
CELLSTYLE
  1
TABLEFORMAT_BEGIN
 90
        5
170
     1
 91
        0
 92
    32768
 62
   257
 93
        1
300
CONTENTFORMAT
  1
CONTENTFORMAT_BEGIN
 90
        0
 91
        0
 92
      512
 93
        0
300

 40
0.0
140
1.0
 94
        5
 62
     0
340
C
144
0.25
309
CONTENTFORMAT_END
171
     0
 94
        0
309
TABLEFORMAT_END
  1
CELLSTYLE_BEGIN
 90
        1
 91
        1
300
_TITLE
309
CELLSTYLE_END
300
CELLSTYLE
  1
TABLEFORMAT_BEGIN
 90
        5
170
     1
 91
        0
 92
        0
 62
   257
 93
        1
300
CONTENTFORMAT
  1
CONTENTFORMAT_BEGIN
 90
        0
 91
        0
 92
      512
 93
        0
300

 40
0.0
140
1.0
 94
        5
 62
     0
340
C
144
0.18
309
CONTENTFORMAT_END
171
     0
 94
        0
309
TABLEFORMAT_END
  1
CELLSTYLE_BEGIN
 90
        2
 91
        1
300
_HEADER
309
CELLSTYLE_END
300
CELLSTYLE
  1
TABLEFORMAT_BEGIN
 90
        5
170
     1
 91
        0
 92
        0
 62
   257
 93
        1
300
CONTENTFORMAT
  1
CONTENTFORMAT_BEGIN
 90
        0
 91
        0
 92
      512
 93
        0
300

 40
0.0
140
1.0
 94
        2
 62
     0
340
C
144
0.18
309
CONTENTFORMAT_END
171
     0
 94
        0
309
TABLEFORMAT_END
  1
CELLSTYLE_BEGIN
 90
        3
 91
        2
300
_DATA
309
CELLSTYLE_END
  0
XRECORD
  5
736
102
{ACAD_REACTORS
330
735
102
}
330
735
100
AcDbXrecord
280
     1
102
RTVSPost2010Prop28
280
     1
102
RTVSPost2010PropOp28
 70
     1
102
RTVSPost2010Prop29
280
     1
102
RTVSPost2010PropOp29
 70
     1
102
RTVSPost2010Prop30
280
     0
102
RTVSPost2010PropOp30
 70
     1
102
RTVSPost2010Prop31
280
     0
102
RTVSPost2010PropOp31
 70
     1
102
RTVSPost2010Prop32
280
     0
102
RTVSPost2010PropOp32
 70
     1
102
RTVSPost2010Prop33
280
     0
102
RTVSPost2010PropOp33
 70
     1
102
RTVSPost2010Prop34
280
     0
102
RTVSPost2010PropOp34
 70
     1
102
RTVSPost2010Prop35
280
     0
102
RTVSPost2010PropOp35
 70
     1
102
RTVSPost2010Prop36
280
     0
102
RTVSPost2010PropOp36
 70
     1
102
RTVSPost2010Prop37
 90
       50
102
RTVSPost2010PropOp37
 70
     1
102
RTVSPost2010Prop38
140
0.0
102
RTVSPost2010PropOp38
 70
     1
102
RTVSPost2010Prop39
140
1.0
102
RTVSPost2010PropOp39
 70
     1
102
RTVSPost2010Prop40
 90
        0
102
RTVSPost2010PropOp40
 70
     1
102
RTVSPost2010Prop41ColorIndex
 90
       18
102
RTVSPost2010Prop41ColorRGB
 90
        0
102
RTVSPost2010PropOp41
 70
     1
102
RTVSPost2010Prop42
 90
       50
102
RTVSPost2010PropOp42
 70
     1
102
RTVSPost2010Prop43
 90
        3
102
RTVSPost2010PropOp43
 70
     1
102
RTVSPost2010Prop44ColorIndex
 90
        5
102
RTVSPost2010Prop44ColorRGB
 90
      255
102
RTVSPost2010PropOp44
 70
     1
102
RTVSPost2010Prop45
280
     0
102
RTVSPost2010PropOp45
 70
     1
102
RTVSPost2010Prop46
 90
       50
102
RTVSPost2010PropOp46
 70
     1
102
RTVSPost2010Prop47
 90
       50
102
RTVSPost2010PropOp47
 70
     1
102
RTVSPost2010Prop48
 90
       50
102
RTVSPost2010PropOp48
 70
     1
102
RTVSPost2010Prop49
280
     0
102
RTVSPost2010PropOp49
 70
     1
102
RTVSPost2010Prop50
 90
       50
102
RTVSPost2010PropOp50
 70
     1
102
RTVSPost2010Prop51ColorIndex
 90
      256
102
RTVSPost2010Prop51ColorRGB
 90
-16777216
102
RTVSPost2010PropOp51
 70
     0
102
RTVSPost2010Prop52
140
1.0
102
RTVSPost2010PropOp52
 70
     0
102
RTVSPost2010Prop53
 90
        2
102
RTVSPost2010PropOp53
 70
     1
102
RTVSPost2010Prop54
  1
strokes_ogs.tif
102
RTVSPost2010PropOp54
 70
     1
102
RTVSPost2010Prop55
280
     0
102
RTVSPost2010PropOp55
 70
     1
102
RTVSPost2010Prop56
140
1.0
102
RTVSPost2010PropOp56
 70
     1
102
RTVSPost2010Prop57
140
1.0
102
RTVSPost2010PropOp57
 70
     1
  0
XRECORD
  5
73A
102
{ACAD_REACTORS
330
739
102
}
330
739
100
AcDbXrecord
280
     1
102
RTVSPost2010Prop28
280
     0
102
RTVSPost2010PropOp28
 70
     1
102
RTVSPost2010Prop29
280
     1
102
RTVSPost2010PropOp29
 70
     1
102
RTVSPost2010Prop30
280
     1
102
RTVSPost2010PropOp30
 70
     1
102
RTVSPost2010Prop31
280
     0
102
RTVSPost2010PropOp31
 70
     1
102
RTVSPost2010Prop32
280
     0
102
RTVSPost2010PropOp32
 70
     1
102
RTVSPost2010Prop33
280
     0
102
RTVSPost2010PropOp33
 70
     1
102
RTVSPost2010Prop34
280
     0
102
RTVSPost2010PropOp34
 70
     1
102
RTVSPost2010Prop35
280
     0
102
RTVSPost2010PropOp35
 70
     1
102
RTVSPost2010Prop36
280
     0
102
RTVSPost2010PropOp36
 70
     1
102
RTVSPost2010Prop37
 90
       50
102
RTVSPost2010PropOp37
 70
     1
102
RTVSPost2010Prop38
140
0.0
102
RTVSPost2010PropOp38
 70
     1
102
RTVSPost2010Prop39
140
1.0
102
RTVSPost2010PropOp39
 70
     1
102
RTVSPost2010Prop40
 90
        0
102
RTVSPost2010PropOp40
 70
     1
102
RTVSPost2010Prop41ColorIndex
 90
       18
102
RTVSPost2010Prop41ColorRGB
 90
        0
102
RTVSPost2010PropOp41
 70
     1
102
RTVSPost2010Prop42
 90
       50
102
RTVSPost2010PropOp42
 70
     1
102
RTVSPost2010Prop43
 90
        3
102
RTVSPost2010PropOp43
 70
     1
102
RTVSPost2010Prop44ColorIndex
 90
        5
102
RTVSPost2010Prop44ColorRGB
 90
      255
102
RTVSPost2010PropOp44
 70
     1
102
RTVSPost2010Prop45
280
     0
102
RTVSPost2010PropOp45
 70
     1
102
RTVSPost2010Prop46
 90
       50
102
RTVSPost2010PropOp46
 70
     1
102
RTVSPost2010Prop47
 90
       50
102
RTVSPost2010PropOp47
 70
     1
102
RTVSPost2010Prop48
 90
       50
102
RTVSPost2010PropOp48
 70
     1
102
RTVSPost2010Prop49
280
     0
102
RTVSPost2010PropOp49
 70
     1
102
RTVSPost2010Prop50
 90
       50
102
RTVSPost2010PropOp50
 70
     1
102
RTVSPost2010Prop51ColorIndex
 90
      256
102
RTVSPost2010Prop51ColorRGB
 90
-16777216
102
RTVSPost2010PropOp51
 70
     0
102
RTVSPost2010Prop52
140
1.0
102
RTVSPost2010PropOp52
 70
     0
102
RTVSPost2010Prop53
 90
        2
102
RTVSPost2010PropOp53
 70
     1
102
RTVSPost2010Prop54
  1
strokes_ogs.tif
102
RTVSPost2010PropOp54
 70
     1
102
RTVSPost2010Prop55
280
     0
102
RTVSPost2010PropOp55
 70
     1
102
RTVSPost2010Prop56
140
1.0
102
RTVSPost2010PropOp56
 70
     1
102
RTVSPost2010Prop57
140
1.0
102
RTVSPost2010PropOp57
 70
     1
  0
XRECORD
  5
738
102
{ACAD_REACTORS
330
737
102
}
330
737
100
AcDbXrecord
280
     1
102
RTVSPost2010Prop28
280
     0
102
RTVSPost2010PropOp28
 70
     1
102
RTVSPost2010Prop29
280
     1
102
RTVSPost2010PropOp29
 70
     1
102
RTVSPost2010Prop30
280
     1
102
RTVSPost2010PropOp30
 70
     1
102
RTVSPost2010Prop31
280
     0
102
RTVSPost2010PropOp31
 70
     1
102
RTVSPost2010Prop32
280
     0
102
RTVSPost2010PropOp32
 70
     1
102
RTVSPost2010Prop33
280
     0
102
RTVSPost2010PropOp33
 70
     1
102
RTVSPost2010Prop34
280
     0
102
RTVSPost2010PropOp34
 70
     1
102
RTVSPost2010Prop35
280
     0
102
RTVSPost2010PropOp35
 70
     1
102
RTVSPost2010Prop36
280
     0
102
RTVSPost2010PropOp36
 70
     1
102
RTVSPost2010Prop37
 90
       50
102
RTVSPost2010PropOp37
 70
     1
102
RTVSPost2010Prop38
140
0.0
102
RTVSPost2010PropOp38
 70
     1
102
RTVSPost2010Prop39
140
1.0
102
RTVSPost2010PropOp39
 70
     1
102
RTVSPost2010Prop40
 90
        0
102
RTVSPost2010PropOp40
 70
     1
102
RTVSPost2010Prop41ColorIndex
 90
       18
102
RTVSPost2010Prop41ColorRGB
 90
        0
102
RTVSPost2010PropOp41
 70
     1
102
RTVSPost2010Prop42
 90
       50
102
RTVSPost2010PropOp42
 70
     1
102
RTVSPost2010Prop43
 90
        3
102
RTVSPost2010PropOp43
 70
     1
102
RTVSPost2010Prop44ColorIndex
 90
        5
102
RTVSPost2010Prop44ColorRGB
 90
      255
102
RTVSPost2010PropOp44
 70
     1
102
RTVSPost2010Prop45
280
     0
102
RTVSPost2010PropOp45
 70
     1
102
RTVSPost2010Prop46
 90
       50
102
RTVSPost2010PropOp46
 70
     1
102
RTVSPost2010Prop47
 90
       50
102
RTVSPost2010PropOp47
 70
     1
102
RTVSPost2010Prop48
 90
       50
102
RTVSPost2010PropOp48
 70
     1
102
RTVSPost2010Prop49
280
     0
102
RTVSPost2010PropOp49
 70
     1
102
RTVSPost2010Prop50
 90
       50
102
RTVSPost2010PropOp50
 70
     1
102
RTVSPost2010Prop51ColorIndex
 90
      256
102
RTVSPost2010Prop51ColorRGB
 90
-16777216
102
RTVSPost2010PropOp51
 70
     0
102
RTVSPost2010Prop52
140
1.0
102
RTVSPost2010PropOp52
 70
     0
102
RTVSPost2010Prop53
 90
        2
102
RTVSPost2010PropOp53
 70
     1
102
RTVSPost2010Prop54
  1
strokes_ogs.tif
102
RTVSPost2010PropOp54
 70
     1
102
RTVSPost2010Prop55
280
     0
102
RTVSPost2010PropOp55
 70
     1
102
RTVSPost2010Prop56
140
1.0
102
RTVSPost2010PropOp56
 70
     1
102
RTVSPost2010Prop57
140
1.0
102
RTVSPost2010PropOp57
 70
     1
  0
XRECORD
  5
734
102
{ACAD_REACTORS
330
733
102
}
330
733
100
AcDbXrecord
280
     1
102
RTVSPost2010Prop28
280
     0
102
RTVSPost2010PropOp28
 70
     1
102
RTVSPost2010Prop29
280
     1
102
RTVSPost2010PropOp29
 70
     1
102
RTVSPost2010Prop30
280
     1
102
RTVSPost2010PropOp30
 70
     1
102
RTVSPost2010Prop31
280
     0
102
RTVSPost2010PropOp31
 70
     1
102
RTVSPost2010Prop32
280
     0
102
RTVSPost2010PropOp32
 70
     1
102
RTVSPost2010Prop33
280
     0
102
RTVSPost2010PropOp33
 70
     1
102
RTVSPost2010Prop34
280
     0
102
RTVSPost2010PropOp34
 70
     1
102
RTVSPost2010Prop35
280
     0
102
RTVSPost2010PropOp35
 70
     1
102
RTVSPost2010Prop36
280
     0
102
RTVSPost2010PropOp36
 70
     1
102
RTVSPost2010Prop37
 90
       50
102
RTVSPost2010PropOp37
 70
     1
102
RTVSPost2010Prop38
140
0.0
102
RTVSPost2010PropOp38
 70
     1
102
RTVSPost2010Prop39
140
1.0
102
RTVSPost2010PropOp39
 70
     1
102
RTVSPost2010Prop40
 90
        0
102
RTVSPost2010PropOp40
 70
     1
102
RTVSPost2010Prop41ColorIndex
 90
       18
102
RTVSPost2010Prop41ColorRGB
 90
        0
102
RTVSPost2010PropOp41
 70
     1
102
RTVSPost2010Prop42
 90
       50
102
RTVSPost2010PropOp42
 70
     1
102
RTVSPost2010Prop43
 90
        3
102
RTVSPost2010PropOp43
 70
     1
102
RTVSPost2010Prop44ColorIndex
 90
        5
102
RTVSPost2010Prop44ColorRGB
 90
      255
102
RTVSPost2010PropOp44
 70
     1
102
RTVSPost2010Prop45
280
     0
102
RTVSPost2010PropOp45
 70
     1
102
RTVSPost2010Prop46
 90
       50
102
RTVSPost2010PropOp46
 70
     1
102
RTVSPost2010Prop47
 90
       50
102
RTVSPost2010PropOp47
 70
     1
102
RTVSPost2010Prop48
 90
       50
102
RTVSPost2010PropOp48
 70
     1
102
RTVSPost2010Prop49
280
     0
102
RTVSPost2010PropOp49
 70
     1
102
RTVSPost2010Prop50
 90
       50
102
RTVSPost2010PropOp50
 70
     1
102
RTVSPost2010Prop51ColorIndex
 90
      256
102
RTVSPost2010Prop51ColorRGB
 90
-16777216
102
RTVSPost2010PropOp51
 70
     0
102
RTVSPost2010Prop52
140
1.0
102
RTVSPost2010PropOp52
 70
     0
102
RTVSPost2010Prop53
 90
        2
102
RTVSPost2010PropOp53
 70
     1
102
RTVSPost2010Prop54
  1
strokes_ogs.tif
102
RTVSPost2010PropOp54
 70
     1
102
RTVSPost2010Prop55
280
     0
102
RTVSPost2010PropOp55
 70
     1
102
RTVSPost2010Prop56
140
1.0
102
RTVSPost2010PropOp56
 70
     1
102
RTVSPost2010Prop57
140
1.0
102
RTVSPost2010PropOp57
 70
     1
  0
XRECORD
  5
742
102
{ACAD_REACTORS
330
741
102
}
330
741
100
AcDbXrecord
280
     1
102
RTVSPost2010Prop28
280
     0
102
RTVSPost2010PropOp28
 70
     1
102
RTVSPost2010Prop29
280
     1
102
RTVSPost2010PropOp29
 70
     1
102
RTVSPost2010Prop30
280
     1
102
RTVSPost2010PropOp30
 70
     1
102
RTVSPost2010Prop31
280
     0
102
RTVSPost2010PropOp31
 70
     1
102
RTVSPost2010Prop32
280
     0
102
RTVSPost2010PropOp32
 70
     1
102
RTVSPost2010Prop33
280
     0
102
RTVSPost2010PropOp33
 70
     1
102
RTVSPost2010Prop34
280
     0
102
RTVSPost2010PropOp34
 70
     1
102
RTVSPost2010Prop35
280
     0
102
RTVSPost2010PropOp35
 70
     1
102
RTVSPost2010Prop36
280
     0
102
RTVSPost2010PropOp36
 70
     1
102
RTVSPost2010Prop37
 90
       50
102
RTVSPost2010PropOp37
 70
     1
102
RTVSPost2010Prop38
140
0.0
102
RTVSPost2010PropOp38
 70
     1
102
RTVSPost2010Prop39
140
1.0
102
RTVSPost2010PropOp39
 70
     1
102
RTVSPost2010Prop40
 90
        0
102
RTVSPost2010PropOp40
 70
     1
102
RTVSPost2010Prop41ColorIndex
 90
       18
102
RTVSPost2010Prop41ColorRGB
 90
        0
102
RTVSPost2010PropOp41
 70
     1
102
RTVSPost2010Prop42
 90
       50
102
RTVSPost2010PropOp42
 70
     1
102
RTVSPost2010Prop43
 90
        3
102
RTVSPost2010PropOp43
 70
     1
102
RTVSPost2010Prop44ColorIndex
 90
        5
102
RTVSPost2010Prop44ColorRGB
 90
      255
102
RTVSPost2010PropOp44
 70
     1
102
RTVSPost2010Prop45
280
     0
102
RTVSPost2010PropOp45
 70
     1
102
RTVSPost2010Prop46
 90
       50
102
RTVSPost2010PropOp46
 70
     1
102
RTVSPost2010Prop47
 90
       50
102
RTVSPost2010PropOp47
 70
     1
102
RTVSPost2010Prop48
 90
       50
102
RTVSPost2010PropOp48
 70
     1
102
RTVSPost2010Prop49
280
     0
102
RTVSPost2010PropOp49
 70
     1
102
RTVSPost2010Prop50
 90
       50
102
RTVSPost2010PropOp50
 70
     1
102
RTVSPost2010Prop51ColorIndex
 90
      256
102
RTVSPost2010Prop51ColorRGB
 90
-16777216
102
RTVSPost2010PropOp51
 70
     0
102
RTVSPost2010Prop52
140
1.0
102
RTVSPost2010PropOp52
 70
     0
102
RTVSPost2010Prop53
 90
        2
102
RTVSPost2010PropOp53
 70
     1
102
RTVSPost2010Prop54
  1
strokes_ogs.tif
102
RTVSPost2010PropOp54
 70
     1
102
RTVSPost2010Prop55
280
     0
102
RTVSPost2010PropOp55
 70
     1
102
RTVSPost2010Prop56
140
1.0
102
RTVSPost2010PropOp56
 70
     1
102
RTVSPost2010Prop57
140
1.0
102
RTVSPost2010PropOp57
 70
     1
  0
XRECORD
  5
74A
102
{ACAD_REACTORS
330
749
102
}
330
749
100
AcDbXrecord
280
     1
102
RTVSPost2010Prop28
280
     0
102
RTVSPost2010PropOp28
 70
     1
102
RTVSPost2010Prop29
280
     1
102
RTVSPost2010PropOp29
 70
     1
102
RTVSPost2010Prop30
280
     1
102
RTVSPost2010PropOp30
 70
     1
102
RTVSPost2010Prop31
280
     0
102
RTVSPost2010PropOp31
 70
     1
102
RTVSPost2010Prop32
280
     0
102
RTVSPost2010PropOp32
 70
     1
102
RTVSPost2010Prop33
280
     0
102
RTVSPost2010PropOp33
 70
     1
102
RTVSPost2010Prop34
280
     0
102
RTVSPost2010PropOp34
 70
     1
102
RTVSPost2010Prop35
280
     0
102
RTVSPost2010PropOp35
 70
     1
102
RTVSPost2010Prop36
280
     0
102
RTVSPost2010PropOp36
 70
     1
102
RTVSPost2010Prop37
 90
       50
102
RTVSPost2010PropOp37
 70
     1
102
RTVSPost2010Prop38
140
0.0
102
RTVSPost2010PropOp38
 70
     1
102
RTVSPost2010Prop39
140
1.0
102
RTVSPost2010PropOp39
 70
     1
102
RTVSPost2010Prop40
 90
        0
102
RTVSPost2010PropOp40
 70
     1
102
RTVSPost2010Prop41ColorIndex
 90
       18
102
RTVSPost2010Prop41ColorRGB
 90
        0
102
RTVSPost2010PropOp41
 70
     1
102
RTVSPost2010Prop42
 90
       50
102
RTVSPost2010PropOp42
 70
     1
102
RTVSPost2010Prop43
 90
        3
102
RTVSPost2010PropOp43
 70
     1
102
RTVSPost2010Prop44ColorIndex
 90
        5
102
RTVSPost2010Prop44ColorRGB
 90
      255
102
RTVSPost2010PropOp44
 70
     1
102
RTVSPost2010Prop45
280
     0
102
RTVSPost2010PropOp45
 70
     1
102
RTVSPost2010Prop46
 90
       50
102
RTVSPost2010PropOp46
 70
     1
102
RTVSPost2010Prop47
 90
       50
102
RTVSPost2010PropOp47
 70
     1
102
RTVSPost2010Prop48
 90
       50
102
RTVSPost2010PropOp48
 70
     1
102
RTVSPost2010Prop49
280
     0
102
RTVSPost2010PropOp49
 70
     1
102
RTVSPost2010Prop50
 90
       50
102
RTVSPost2010PropOp50
 70
     1
102
RTVSPost2010Prop51ColorIndex
 90
      256
102
RTVSPost2010Prop51ColorRGB
 90
-16777216
102
RTVSPost2010PropOp51
 70
     0
102
RTVSPost2010Prop52
140
1.0
102
RTVSPost2010PropOp52
 70
     0
102
RTVSPost2010Prop53
 90
        2
102
RTVSPost2010PropOp53
 70
     1
102
RTVSPost2010Prop54
  1
strokes_ogs.tif
102
RTVSPost2010PropOp54
 70
     1
102
RTVSPost2010Prop55
280
     0
102
RTVSPost2010PropOp55
 70
     1
102
RTVSPost2010Prop56
140
1.0
102
RTVSPost2010PropOp56
 70
     1
102
RTVSPost2010Prop57
140
1.0
102
RTVSPost2010PropOp57
 70
     1
  0
XRECORD
  5
73C
102
{ACAD_REACTORS
330
73B
102
}
330
73B
100
AcDbXrecord
280
     1
102
RTVSPost2010Prop28
280
     0
102
RTVSPost2010PropOp28
 70
     1
102
RTVSPost2010Prop29
280
     1
102
RTVSPost2010PropOp29
 70
     1
102
RTVSPost2010Prop30
280
     1
102
RTVSPost2010PropOp30
 70
     1
102
RTVSPost2010Prop31
280
     0
102
RTVSPost2010PropOp31
 70
     1
102
RTVSPost2010Prop32
280
     0
102
RTVSPost2010PropOp32
 70
     1
102
RTVSPost2010Prop33
280
     0
102
RTVSPost2010PropOp33
 70
     1
102
RTVSPost2010Prop34
280
     0
102
RTVSPost2010PropOp34
 70
     1
102
RTVSPost2010Prop35
280
     0
102
RTVSPost2010PropOp35
 70
     1
102
RTVSPost2010Prop36
280
     0
102
RTVSPost2010PropOp36
 70
     1
102
RTVSPost2010Prop37
 90
       50
102
RTVSPost2010PropOp37
 70
     1
102
RTVSPost2010Prop38
140
0.0
102
RTVSPost2010PropOp38
 70
     1
102
RTVSPost2010Prop39
140
1.0
102
RTVSPost2010PropOp39
 70
     1
102
RTVSPost2010Prop40
 90
        0
102
RTVSPost2010PropOp40
 70
     1
102
RTVSPost2010Prop41ColorIndex
 90
       18
102
RTVSPost2010Prop41ColorRGB
 90
        0
102
RTVSPost2010PropOp41
 70
     1
102
RTVSPost2010Prop42
 90
       50
102
RTVSPost2010PropOp42
 70
     1
102
RTVSPost2010Prop43
 90
        3
102
RTVSPost2010PropOp43
 70
     1
102
RTVSPost2010Prop44ColorIndex
 90
        5
102
RTVSPost2010Prop44ColorRGB
 90
      255
102
RTVSPost2010PropOp44
 70
     1
102
RTVSPost2010Prop45
280
     0
102
RTVSPost2010PropOp45
 70
     1
102
RTVSPost2010Prop46
 90
       50
102
RTVSPost2010PropOp46
 70
     1
102
RTVSPost2010Prop47
 90
       50
102
RTVSPost2010PropOp47
 70
     1
102
RTVSPost2010Prop48
 90
       50
102
RTVSPost2010PropOp48
 70
     1
102
RTVSPost2010Prop49
280
     0
102
RTVSPost2010PropOp49
 70
     1
102
RTVSPost2010Prop50
 90
       50
102
RTVSPost2010PropOp50
 70
     1
102
RTVSPost2010Prop51ColorIndex
 90
      256
102
RTVSPost2010Prop51ColorRGB
 90
-16777216
102
RTVSPost2010PropOp51
 70
     0
102
RTVSPost2010Prop52
140
1.0
102
RTVSPost2010PropOp52
 70
     0
102
RTVSPost2010Prop53
 90
        2
102
RTVSPost2010PropOp53
 70
     1
102
RTVSPost2010Prop54
  1
strokes_ogs.tif
102
RTVSPost2010PropOp54
 70
     1
102
RTVSPost2010Prop55
280
     0
102
RTVSPost2010PropOp55
 70
     1
102
RTVSPost2010Prop56
140
1.0
102
RTVSPost2010PropOp56
 70
     1
102
RTVSPost2010Prop57
140
1.0
102
RTVSPost2010PropOp57
 70
     1
  0
XRECORD
  5
740
102
{ACAD_REACTORS
330
73F
102
}
330
73F
100
AcDbXrecord
280
     1
102
RTVSPost2010Prop28
280
     0
102
RTVSPost2010PropOp28
 70
     1
102
RTVSPost2010Prop29
280
     1
102
RTVSPost2010PropOp29
 70
     1
102
RTVSPost2010Prop30
280
     1
102
RTVSPost2010PropOp30
 70
     1
102
RTVSPost2010Prop31
280
     0
102
RTVSPost2010PropOp31
 70
     1
102
RTVSPost2010Prop32
280
     0
102
RTVSPost2010PropOp32
 70
     1
102
RTVSPost2010Prop33
280
     0
102
RTVSPost2010PropOp33
 70
     1
102
RTVSPost2010Prop34
280
     0
102
RTVSPost2010PropOp34
 70
     1
102
RTVSPost2010Prop35
280
     0
102
RTVSPost2010PropOp35
 70
     1
102
RTVSPost2010Prop36
280
     0
102
RTVSPost2010PropOp36
 70
     1
102
RTVSPost2010Prop37
 90
       50
102
RTVSPost2010PropOp37
 70
     1
102
RTVSPost2010Prop38
140
0.0
102
RTVSPost2010PropOp38
 70
     1
102
RTVSPost2010Prop39
140
1.0
102
RTVSPost2010PropOp39
 70
     1
102
RTVSPost2010Prop40
 90
        0
102
RTVSPost2010PropOp40
 70
     1
102
RTVSPost2010Prop41ColorIndex
 90
       18
102
RTVSPost2010Prop41ColorRGB
 90
        0
102
RTVSPost2010PropOp41
 70
     1
102
RTVSPost2010Prop42
 90
       50
102
RTVSPost2010PropOp42
 70
     1
102
RTVSPost2010Prop43
 90
        3
102
RTVSPost2010PropOp43
 70
     1
102
RTVSPost2010Prop44ColorIndex
 90
        5
102
RTVSPost2010Prop44ColorRGB
 90
      255
102
RTVSPost2010PropOp44
 70
     1
102
RTVSPost2010Prop45
280
     0
102
RTVSPost2010PropOp45
 70
     1
102
RTVSPost2010Prop46
 90
       50
102
RTVSPost2010PropOp46
 70
     1
102
RTVSPost2010Prop47
 90
       50
102
RTVSPost2010PropOp47
 70
     1
102
RTVSPost2010Prop48
 90
       50
102
RTVSPost2010PropOp48
 70
     1
102
RTVSPost2010Prop49
280
     0
102
RTVSPost2010PropOp49
 70
     1
102
RTVSPost2010Prop50
 90
       50
102
RTVSPost2010PropOp50
 70
     1
102
RTVSPost2010Prop51ColorIndex
 90
      256
102
RTVSPost2010Prop51ColorRGB
 90
-16777216
102
RTVSPost2010PropOp51
 70
     0
102
RTVSPost2010Prop52
140
1.0
102
RTVSPost2010PropOp52
 70
     0
102
RTVSPost2010Prop53
 90
        2
102
RTVSPost2010PropOp53
 70
     1
102
RTVSPost2010Prop54
  1
strokes_ogs.tif
102
RTVSPost2010PropOp54
 70
     1
102
RTVSPost2010Prop55
280
     0
102
RTVSPost2010PropOp55
 70
     1
102
RTVSPost2010Prop56
140
1.0
102
RTVSPost2010PropOp56
 70
     1
102
RTVSPost2010Prop57
140
1.0
102
RTVSPost2010PropOp57
 70
     1
  0
XRECORD
  5
750
102
{ACAD_REACTORS
330
74F
102
}
330
74F
100
AcDbXrecord
280
     1
102
RTVSPost2010Prop28
280
     0
102
RTVSPost2010PropOp28
 70
     1
102
RTVSPost2010Prop29
280
     1
102
RTVSPost2010PropOp29
 70
     1
102
RTVSPost2010Prop30
280
     1
102
RTVSPost2010PropOp30
 70
     1
102
RTVSPost2010Prop31
280
     0
102
RTVSPost2010PropOp31
 70
     1
102
RTVSPost2010Prop32
280
     0
102
RTVSPost2010PropOp32
 70
     1
102
RTVSPost2010Prop33
280
     0
102
RTVSPost2010PropOp33
 70
     1
102
RTVSPost2010Prop34
280
     0
102
RTVSPost2010PropOp34
 70
     1
102
RTVSPost2010Prop35
280
     0
102
RTVSPost2010PropOp35
 70
     1
102
RTVSPost2010Prop36
280
     0
102
RTVSPost2010PropOp36
 70
     1
102
RTVSPost2010Prop37
 90
       50
102
RTVSPost2010PropOp37
 70
     1
102
RTVSPost2010Prop38
140
0.0
102
RTVSPost2010PropOp38
 70
     1
102
RTVSPost2010Prop39
140
1.0
102
RTVSPost2010PropOp39
 70
     1
102
RTVSPost2010Prop40
 90
        0
102
RTVSPost2010PropOp40
 70
     1
102
RTVSPost2010Prop41ColorIndex
 90
       18
102
RTVSPost2010Prop41ColorRGB
 90
        0
102
RTVSPost2010PropOp41
 70
     1
102
RTVSPost2010Prop42
 90
       50
102
RTVSPost2010PropOp42
 70
     1
102
RTVSPost2010Prop43
 90
        3
102
RTVSPost2010PropOp43
 70
     1
102
RTVSPost2010Prop44ColorIndex
 90
        5
102
RTVSPost2010Prop44ColorRGB
 90
      255
102
RTVSPost2010PropOp44
 70
     1
102
RTVSPost2010Prop45
280
     0
102
RTVSPost2010PropOp45
 70
     1
102
RTVSPost2010Prop46
 90
       50
102
RTVSPost2010PropOp46
 70
     1
102
RTVSPost2010Prop47
 90
       50
102
RTVSPost2010PropOp47
 70
     1
102
RTVSPost2010Prop48
 90
       50
102
RTVSPost2010PropOp48
 70
     1
102
RTVSPost2010Prop49
280
     0
102
RTVSPost2010PropOp49
 70
     1
102
RTVSPost2010Prop50
 90
       50
102
RTVSPost2010PropOp50
 70
     1
102
RTVSPost2010Prop51ColorIndex
 90
      256
102
RTVSPost2010Prop51ColorRGB
 90
-16777216
102
RTVSPost2010PropOp51
 70
     0
102
RTVSPost2010Prop52
140
1.0
102
RTVSPost2010PropOp52
 70
     0
102
RTVSPost2010Prop53
 90
        2
102
RTVSPost2010PropOp53
 70
     1
102
RTVSPost2010Prop54
  1
strokes_ogs.tif
102
RTVSPost2010PropOp54
 70
     1
102
RTVSPost2010Prop55
280
     0
102
RTVSPost2010PropOp55
 70
     1
102
RTVSPost2010Prop56
140
1.0
102
RTVSPost2010PropOp56
 70
     1
102
RTVSPost2010Prop57
140
1.0
102
RTVSPost2010PropOp57
 70
     1
  0
XRECORD
  5
748
102
{ACAD_REACTORS
330
747
102
}
330
747
100
AcDbXrecord
280
     1
102
RTVSPost2010Prop28
280
     0
102
RTVSPost2010PropOp28
 70
     1
102
RTVSPost2010Prop29
280
     1
102
RTVSPost2010PropOp29
 70
     1
102
RTVSPost2010Prop30
280
     1
102
RTVSPost2010PropOp30
 70
     1
102
RTVSPost2010Prop31
280
     0
102
RTVSPost2010PropOp31
 70
     1
102
RTVSPost2010Prop32
280
     0
102
RTVSPost2010PropOp32
 70
     1
102
RTVSPost2010Prop33
280
     0
102
RTVSPost2010PropOp33
 70
     1
102
RTVSPost2010Prop34
280
     0
102
RTVSPost2010PropOp34
 70
     1
102
RTVSPost2010Prop35
280
     0
102
RTVSPost2010PropOp35
 70
     1
102
RTVSPost2010Prop36
280
     0
102
RTVSPost2010PropOp36
 70
     1
102
RTVSPost2010Prop37
 90
       50
102
RTVSPost2010PropOp37
 70
     1
102
RTVSPost2010Prop38
140
0.0
102
RTVSPost2010PropOp38
 70
     1
102
RTVSPost2010Prop39
140
1.0
102
RTVSPost2010PropOp39
 70
     1
102
RTVSPost2010Prop40
 90
        0
102
RTVSPost2010PropOp40
 70
     1
102
RTVSPost2010Prop41ColorIndex
 90
       18
102
RTVSPost2010Prop41ColorRGB
 90
        0
102
RTVSPost2010PropOp41
 70
     1
102
RTVSPost2010Prop42
 90
       50
102
RTVSPost2010PropOp42
 70
     1
102
RTVSPost2010Prop43
 90
        3
102
RTVSPost2010PropOp43
 70
     1
102
RTVSPost2010Prop44ColorIndex
 90
        5
102
RTVSPost2010Prop44ColorRGB
 90
      255
102
RTVSPost2010PropOp44
 70
     1
102
RTVSPost2010Prop45
280
     0
102
RTVSPost2010PropOp45
 70
     1
102
RTVSPost2010Prop46
 90
       50
102
RTVSPost2010PropOp46
 70
     1
102
RTVSPost2010Prop47
 90
       50
102
RTVSPost2010PropOp47
 70
     1
102
RTVSPost2010Prop48
 90
       50
102
RTVSPost2010PropOp48
 70
     1
102
RTVSPost2010Prop49
280
     0
102
RTVSPost2010PropOp49
 70
     1
102
RTVSPost2010Prop50
 90
       50
102
RTVSPost2010PropOp50
 70
     1
102
RTVSPost2010Prop51ColorIndex
 90
      256
102
RTVSPost2010Prop51ColorRGB
 90
-16777216
102
RTVSPost2010PropOp51
 70
     0
102
RTVSPost2010Prop52
140
1.0
102
RTVSPost2010PropOp52
 70
     0
102
RTVSPost2010Prop53
 90
        2
102
RTVSPost2010PropOp53
 70
     1
102
RTVSPost2010Prop54
  1
strokes_ogs.tif
102
RTVSPost2010PropOp54
 70
     1
102
RTVSPost2010Prop55
280
     0
102
RTVSPost2010PropOp55
 70
     1
102
RTVSPost2010Prop56
140
1.0
102
RTVSPost2010PropOp56
 70
     1
102
RTVSPost2010Prop57
140
1.0
102
RTVSPost2010PropOp57
 70
     1
  0
XRECORD
  5
72C
102
{ACAD_REACTORS
330
72B
102
}
330
72B
100
AcDbXrecord
280
     1
102
RTVSPost2010Prop28
280
     0
102
RTVSPost2010PropOp28
 70
     1
102
RTVSPost2010Prop29
280
     1
102
RTVSPost2010PropOp29
 70
     1
102
RTVSPost2010Prop30
280
     1
102
RTVSPost2010PropOp30
 70
     1
102
RTVSPost2010Prop31
280
     0
102
RTVSPost2010PropOp31
 70
     1
102
RTVSPost2010Prop32
280
     0
102
RTVSPost2010PropOp32
 70
     1
102
RTVSPost2010Prop33
280
     0
102
RTVSPost2010PropOp33
 70
     1
102
RTVSPost2010Prop34
280
     0
102
RTVSPost2010PropOp34
 70
     1
102
RTVSPost2010Prop35
280
     0
102
RTVSPost2010PropOp35
 70
     1
102
RTVSPost2010Prop36
280
     0
102
RTVSPost2010PropOp36
 70
     1
102
RTVSPost2010Prop37
 90
       50
102
RTVSPost2010PropOp37
 70
     1
102
RTVSPost2010Prop38
140
0.0
102
RTVSPost2010PropOp38
 70
     1
102
RTVSPost2010Prop39
140
1.0
102
RTVSPost2010PropOp39
 70
     1
102
RTVSPost2010Prop40
 90
        0
102
RTVSPost2010PropOp40
 70
     1
102
RTVSPost2010Prop41ColorIndex
 90
       18
102
RTVSPost2010Prop41ColorRGB
 90
        0
102
RTVSPost2010PropOp41
 70
     1
102
RTVSPost2010Prop42
 90
       50
102
RTVSPost2010PropOp42
 70
     1
102
RTVSPost2010Prop43
 90
        3
102
RTVSPost2010PropOp43
 70
     1
102
RTVSPost2010Prop44ColorIndex
 90
        5
102
RTVSPost2010Prop44ColorRGB
 90
      255
102
RTVSPost2010PropOp44
 70
     1
102
RTVSPost2010Prop45
280
     0
102
RTVSPost2010PropOp45
 70
     1
102
RTVSPost2010Prop46
 90
       50
102
RTVSPost2010PropOp46
 70
     1
102
RTVSPost2010Prop47
 90
       50
102
RTVSPost2010PropOp47
 70
     1
102
RTVSPost2010Prop48
 90
       50
102
RTVSPost2010PropOp48
 70
     1
102
RTVSPost2010Prop49
280
     0
102
RTVSPost2010PropOp49
 70
     1
102
RTVSPost2010Prop50
 90
       50
102
RTVSPost2010PropOp50
 70
     1
102
RTVSPost2010Prop51ColorIndex
 90
      256
102
RTVSPost2010Prop51ColorRGB
 90
-16777216
102
RTVSPost2010PropOp51
 70
     0
102
RTVSPost2010Prop52
140
1.0
102
RTVSPost2010PropOp52
 70
     0
102
RTVSPost2010Prop53
 90
        2
102
RTVSPost2010PropOp53
 70
     1
102
RTVSPost2010Prop54
  1
strokes_ogs.tif
102
RTVSPost2010PropOp54
 70
     1
102
RTVSPost2010Prop55
280
     0
102
RTVSPost2010PropOp55
 70
     1
102
RTVSPost2010Prop56
140
1.0
102
RTVSPost2010PropOp56
 70
     1
102
RTVSPost2010Prop57
140
1.0
102
RTVSPost2010PropOp57
 70
     1
  0
XRECORD
  5
72E
102
{ACAD_REACTORS
330
72D
102
}
330
72D
100
AcDbXrecord
280
     1
102
RTVSPost2010Prop28
280
     0
102
RTVSPost2010PropOp28
 70
     1
102
RTVSPost2010Prop29
280
     1
102
RTVSPost2010PropOp29
 70
     1
102
RTVSPost2010Prop30
280
     1
102
RTVSPost2010PropOp30
 70
     1
102
RTVSPost2010Prop31
280
     0
102
RTVSPost2010PropOp31
 70
     1
102
RTVSPost2010Prop32
280
     0
102
RTVSPost2010PropOp32
 70
     1
102
RTVSPost2010Prop33
280
     0
102
RTVSPost2010PropOp33
 70
     1
102
RTVSPost2010Prop34
280
     0
102
RTVSPost2010PropOp34
 70
     1
102
RTVSPost2010Prop35
280
     0
102
RTVSPost2010PropOp35
 70
     1
102
RTVSPost2010Prop36
280
     0
102
RTVSPost2010PropOp36
 70
     1
102
RTVSPost2010Prop37
 90
       50
102
RTVSPost2010PropOp37
 70
     1
102
RTVSPost2010Prop38
140
0.0
102
RTVSPost2010PropOp38
 70
     1
102
RTVSPost2010Prop39
140
1.0
102
RTVSPost2010PropOp39
 70
     1
102
RTVSPost2010Prop40
 90
        0
102
RTVSPost2010PropOp40
 70
     1
102
RTVSPost2010Prop41ColorIndex
 90
       18
102
RTVSPost2010Prop41ColorRGB
 90
        0
102
RTVSPost2010PropOp41
 70
     1
102
RTVSPost2010Prop42
 90
       50
102
RTVSPost2010PropOp42
 70
     1
102
RTVSPost2010Prop43
 90
        3
102
RTVSPost2010PropOp43
 70
     1
102
RTVSPost2010Prop44ColorIndex
 90
        5
102
RTVSPost2010Prop44ColorRGB
 90
      255
102
RTVSPost2010PropOp44
 70
     1
102
RTVSPost2010Prop45
280
     0
102
RTVSPost2010PropOp45
 70
     1
102
RTVSPost2010Prop46
 90
       50
102
RTVSPost2010PropOp46
 70
     1
102
RTVSPost2010Prop47
 90
       50
102
RTVSPost2010PropOp47
 70
     1
102
RTVSPost2010Prop48
 90
       50
102
RTVSPost2010PropOp48
 70
     1
102
RTVSPost2010Prop49
280
     0
102
RTVSPost2010PropOp49
 70
     1
102
RTVSPost2010Prop50
 90
       50
102
RTVSPost2010PropOp50
 70
     1
102
RTVSPost2010Prop51ColorIndex
 90
      256
102
RTVSPost2010Prop51ColorRGB
 90
-16777216
102
RTVSPost2010PropOp51
 70
     0
102
RTVSPost2010Prop52
140
1.0
102
RTVSPost2010PropOp52
 70
     0
102
RTVSPost2010Prop53
 90
        2
102
RTVSPost2010PropOp53
 70
     1
102
RTVSPost2010Prop54
  1
strokes_ogs.tif
102
RTVSPost2010PropOp54
 70
     1
102
RTVSPost2010Prop55
280
     0
102
RTVSPost2010PropOp55
 70
     1
102
RTVSPost2010Prop56
140
1.0
102
RTVSPost2010PropOp56
 70
     1
102
RTVSPost2010Prop57
140
1.0
102
RTVSPost2010PropOp57
 70
     1
  0
XRECORD
  5
730
102
{ACAD_REACTORS
330
72F
102
}
330
72F
100
AcDbXrecord
280
     1
102
RTVSPost2010Prop28
280
     0
102
RTVSPost2010PropOp28
 70
     1
102
RTVSPost2010Prop29
280
     1
102
RTVSPost2010PropOp29
 70
     1
102
RTVSPost2010Prop30
280
     1
102
RTVSPost2010PropOp30
 70
     1
102
RTVSPost2010Prop31
280
     0
102
RTVSPost2010PropOp31
 70
     1
102
RTVSPost2010Prop32
280
     0
102
RTVSPost2010PropOp32
 70
     1
102
RTVSPost2010Prop33
280
     0
102
RTVSPost2010PropOp33
 70
     1
102
RTVSPost2010Prop34
280
     0
102
RTVSPost2010PropOp34
 70
     1
102
RTVSPost2010Prop35
280
     0
102
RTVSPost2010PropOp35
 70
     1
102
RTVSPost2010Prop36
280
     0
102
RTVSPost2010PropOp36
 70
     1
102
RTVSPost2010Prop37
 90
       50
102
RTVSPost2010PropOp37
 70
     1
102
RTVSPost2010Prop38
140
0.0
102
RTVSPost2010PropOp38
 70
     1
102
RTVSPost2010Prop39
140
1.0
102
RTVSPost2010PropOp39
 70
     1
102
RTVSPost2010Prop40
 90
        0
102
RTVSPost2010PropOp40
 70
     1
102
RTVSPost2010Prop41ColorIndex
 90
       18
102
RTVSPost2010Prop41ColorRGB
 90
        0
102
RTVSPost2010PropOp41
 70
     1
102
RTVSPost2010Prop42
 90
       50
102
RTVSPost2010PropOp42
 70
     1
102
RTVSPost2010Prop43
 90
        3
102
RTVSPost2010PropOp43
 70
     1
102
RTVSPost2010Prop44ColorIndex
 90
        5
102
RTVSPost2010Prop44ColorRGB
 90
      255
102
RTVSPost2010PropOp44
 70
     1
102
RTVSPost2010Prop45
280
     0
102
RTVSPost2010PropOp45
 70
     1
102
RTVSPost2010Prop46
 90
       50
102
RTVSPost2010PropOp46
 70
     1
102
RTVSPost2010Prop47
 90
       50
102
RTVSPost2010PropOp47
 70
     1
102
RTVSPost2010Prop48
 90
       50
102
RTVSPost2010PropOp48
 70
     1
102
RTVSPost2010Prop49
280
     0
102
RTVSPost2010PropOp49
 70
     1
102
RTVSPost2010Prop50
 90
       50
102
RTVSPost2010PropOp50
 70
     1
102
RTVSPost2010Prop51ColorIndex
 90
      256
102
RTVSPost2010Prop51ColorRGB
 90
-16777216
102
RTVSPost2010PropOp51
 70
     0
102
RTVSPost2010Prop52
140
1.0
102
RTVSPost2010PropOp52
 70
     0
102
RTVSPost2010Prop53
 90
        2
102
RTVSPost2010PropOp53
 70
     1
102
RTVSPost2010Prop54
  1
strokes_ogs.tif
102
RTVSPost2010PropOp54
 70
     1
102
RTVSPost2010Prop55
280
     0
102
RTVSPost2010PropOp55
 70
     1
102
RTVSPost2010Prop56
140
1.0
102
RTVSPost2010PropOp56
 70
     1
102
RTVSPost2010Prop57
140
1.0
102
RTVSPost2010PropOp57
 70
     1
  0
XRECORD
  5
732
102
{ACAD_REACTORS
330
731
102
}
330
731
100
AcDbXrecord
280
     1
102
RTVSPost2010Prop28
280
     0
102
RTVSPost2010PropOp28
 70
     1
102
RTVSPost2010Prop29
280
     1
102
RTVSPost2010PropOp29
 70
     1
102
RTVSPost2010Prop30
280
     1
102
RTVSPost2010PropOp30
 70
     1
102
RTVSPost2010Prop31
280
     0
102
RTVSPost2010PropOp31
 70
     1
102
RTVSPost2010Prop32
280
     0
102
RTVSPost2010PropOp32
 70
     1
102
RTVSPost2010Prop33
280
     0
102
RTVSPost2010PropOp33
 70
     1
102
RTVSPost2010Prop34
280
     0
102
RTVSPost2010PropOp34
 70
     1
102
RTVSPost2010Prop35
280
     0
102
RTVSPost2010PropOp35
 70
     1
102
RTVSPost2010Prop36
280
     0
102
RTVSPost2010PropOp36
 70
     1
102
RTVSPost2010Prop37
 90
       50
102
RTVSPost2010PropOp37
 70
     1
102
RTVSPost2010Prop38
140
0.0
102
RTVSPost2010PropOp38
 70
     1
102
RTVSPost2010Prop39
140
1.0
102
RTVSPost2010PropOp39
 70
     1
102
RTVSPost2010Prop40
 90
        0
102
RTVSPost2010PropOp40
 70
     1
102
RTVSPost2010Prop41ColorIndex
 90
       18
102
RTVSPost2010Prop41ColorRGB
 90
        0
102
RTVSPost2010PropOp41
 70
     1
102
RTVSPost2010Prop42
 90
       50
102
RTVSPost2010PropOp42
 70
     1
102
RTVSPost2010Prop43
 90
        3
102
RTVSPost2010PropOp43
 70
     1
102
RTVSPost2010Prop44ColorIndex
 90
        5
102
RTVSPost2010Prop44ColorRGB
 90
      255
102
RTVSPost2010PropOp44
 70
     1
102
RTVSPost2010Prop45
280
     0
102
RTVSPost2010PropOp45
 70
     1
102
RTVSPost2010Prop46
 90
       50
102
RTVSPost2010PropOp46
 70
     1
102
RTVSPost2010Prop47
 90
       50
102
RTVSPost2010PropOp47
 70
     1
102
RTVSPost2010Prop48
 90
       50
102
RTVSPost2010PropOp48
 70
     1
102
RTVSPost2010Prop49
280
     0
102
RTVSPost2010PropOp49
 70
     1
102
RTVSPost2010Prop50
 90
       50
102
RTVSPost2010PropOp50
 70
     1
102
RTVSPost2010Prop51ColorIndex
 90
      256
102
RTVSPost2010Prop51ColorRGB
 90
-16777216
102
RTVSPost2010PropOp51
 70
     0
102
RTVSPost2010Prop52
140
1.0
102
RTVSPost2010PropOp52
 70
     0
102
RTVSPost2010Prop53
 90
        2
102
RTVSPost2010PropOp53
 70
     1
102
RTVSPost2010Prop54
  1
strokes_ogs.tif
102
RTVSPost2010PropOp54
 70
     1
102
RTVSPost2010Prop55
280
     0
102
RTVSPost2010PropOp55
 70
     1
102
RTVSPost2010Prop56
140
1.0
102
RTVSPost2010PropOp56
 70
     1
102
RTVSPost2010Prop57
140
1.0
102
RTVSPost2010PropOp57
 70
     1
  0
XRECORD
  5
754
102
{ACAD_REACTORS
330
753
102
}
330
753
100
AcDbXrecord
280
     1
102
RTVSPost2010Prop28
280
     0
102
RTVSPost2010PropOp28
 70
     1
102
RTVSPost2010Prop29
280
     1
102
RTVSPost2010PropOp29
 70
     1
102
RTVSPost2010Prop30
280
     1
102
RTVSPost2010PropOp30
 70
     1
102
RTVSPost2010Prop31
280
     0
102
RTVSPost2010PropOp31
 70
     1
102
RTVSPost2010Prop32
280
     0
102
RTVSPost2010PropOp32
 70
     1
102
RTVSPost2010Prop33
280
     0
102
RTVSPost2010PropOp33
 70
     1
102
RTVSPost2010Prop34
280
     0
102
RTVSPost2010PropOp34
 70
     1
102
RTVSPost2010Prop35
280
     0
102
RTVSPost2010PropOp35
 70
     1
102
RTVSPost2010Prop36
280
     0
102
RTVSPost2010PropOp36
 70
     1
102
RTVSPost2010Prop37
 90
       50
102
RTVSPost2010PropOp37
 70
     1
102
RTVSPost2010Prop38
140
0.0
102
RTVSPost2010PropOp38
 70
     1
102
RTVSPost2010Prop39
140
1.0
102
RTVSPost2010PropOp39
 70
     1
102
RTVSPost2010Prop40
 90
        0
102
RTVSPost2010PropOp40
 70
     1
102
RTVSPost2010Prop41ColorIndex
 90
       18
102
RTVSPost2010Prop41ColorRGB
 90
        0
102
RTVSPost2010PropOp41
 70
     1
102
RTVSPost2010Prop42
 90
       50
102
RTVSPost2010PropOp42
 70
     1
102
RTVSPost2010Prop43
 90
        3
102
RTVSPost2010PropOp43
 70
     1
102
RTVSPost2010Prop44ColorIndex
 90
        5
102
RTVSPost2010Prop44ColorRGB
 90
      255
102
RTVSPost2010PropOp44
 70
     1
102
RTVSPost2010Prop45
280
     0
102
RTVSPost2010PropOp45
 70
     1
102
RTVSPost2010Prop46
 90
       50
102
RTVSPost2010PropOp46
 70
     1
102
RTVSPost2010Prop47
 90
       50
102
RTVSPost2010PropOp47
 70
     1
102
RTVSPost2010Prop48
 90
       50
102
RTVSPost2010PropOp48
 70
     1
102
RTVSPost2010Prop49
280
     0
102
RTVSPost2010PropOp49
 70
     1
102
RTVSPost2010Prop50
 90
       50
102
RTVSPost2010PropOp50
 70
     1
102
RTVSPost2010Prop51ColorIndex
 90
      256
102
RTVSPost2010Prop51ColorRGB
 90
-16777216
102
RTVSPost2010PropOp51
 70
     0
102
RTVSPost2010Prop52
140
1.0
102
RTVSPost2010PropOp52
 70
     0
102
RTVSPost2010Prop53
 90
        2
102
RTVSPost2010PropOp53
 70
     1
102
RTVSPost2010Prop54
  1
strokes_ogs.tif
102
RTVSPost2010PropOp54
 70
     1
102
RTVSPost2010Prop55
280
     0
102
RTVSPost2010PropOp55
 70
     1
102
RTVSPost2010Prop56
140
1.0
102
RTVSPost2010PropOp56
 70
     1
102
RTVSPost2010Prop57
140
1.0
102
RTVSPost2010PropOp57
 70
     1
  0
XRECORD
  5
74C
102
{ACAD_REACTORS
330
74B
102
}
330
74B
100
AcDbXrecord
280
     1
102
RTVSPost2010Prop28
280
     0
102
RTVSPost2010PropOp28
 70
     1
102
RTVSPost2010Prop29
280
     1
102
RTVSPost2010PropOp29
 70
     1
102
RTVSPost2010Prop30
280
     1
102
RTVSPost2010PropOp30
 70
     1
102
RTVSPost2010Prop31
280
     0
102
RTVSPost2010PropOp31
 70
     1
102
RTVSPost2010Prop32
280
     0
102
RTVSPost2010PropOp32
 70
     1
102
RTVSPost2010Prop33
280
     0
102
RTVSPost2010PropOp33
 70
     1
102
RTVSPost2010Prop34
280
     0
102
RTVSPost2010PropOp34
 70
     1
102
RTVSPost2010Prop35
280
     0
102
RTVSPost2010PropOp35
 70
     1
102
RTVSPost2010Prop36
280
     0
102
RTVSPost2010PropOp36
 70
     1
102
RTVSPost2010Prop37
 90
       50
102
RTVSPost2010PropOp37
 70
     1
102
RTVSPost2010Prop38
140
0.0
102
RTVSPost2010PropOp38
 70
     1
102
RTVSPost2010Prop39
140
1.0
102
RTVSPost2010PropOp39
 70
     1
102
RTVSPost2010Prop40
 90
        0
102
RTVSPost2010PropOp40
 70
     1
102
RTVSPost2010Prop41ColorIndex
 90
       18
102
RTVSPost2010Prop41ColorRGB
 90
        0
102
RTVSPost2010PropOp41
 70
     1
102
RTVSPost2010Prop42
 90
       50
102
RTVSPost2010PropOp42
 70
     1
102
RTVSPost2010Prop43
 90
        3
102
RTVSPost2010PropOp43
 70
     1
102
RTVSPost2010Prop44ColorIndex
 90
        5
102
RTVSPost2010Prop44ColorRGB
 90
      255
102
RTVSPost2010PropOp44
 70
     1
102
RTVSPost2010Prop45
280
     0
102
RTVSPost2010PropOp45
 70
     1
102
RTVSPost2010Prop46
 90
       50
102
RTVSPost2010PropOp46
 70
     1
102
RTVSPost2010Prop47
 90
       50
102
RTVSPost2010PropOp47
 70
     1
102
RTVSPost2010Prop48
 90
       50
102
RTVSPost2010PropOp48
 70
     1
102
RTVSPost2010Prop49
280
     0
102
RTVSPost2010PropOp49
 70
     1
102
RTVSPost2010Prop50
 90
       50
102
RTVSPost2010PropOp50
 70
     1
102
RTVSPost2010Prop51ColorIndex
 90
      256
102
RTVSPost2010Prop51ColorRGB
 90
-16777216
102
RTVSPost2010PropOp51
 70
     0
102
RTVSPost2010Prop52
140
1.0
102
RTVSPost2010PropOp52
 70
     0
102
RTVSPost2010Prop53
 90
        2
102
RTVSPost2010PropOp53
 70
     1
102
RTVSPost2010Prop54
  1
strokes_ogs.tif
102
RTVSPost2010PropOp54
 70
     1
102
RTVSPost2010Prop55
280
     0
102
RTVSPost2010PropOp55
 70
     1
102
RTVSPost2010Prop56
140
1.0
102
RTVSPost2010PropOp56
 70
     1
102
RTVSPost2010Prop57
140
1.0
102
RTVSPost2010PropOp57
 70
     1
  0
XRECORD
  5
746
102
{ACAD_REACTORS
330
745
102
}
330
745
100
AcDbXrecord
280
     1
102
RTVSPost2010Prop28
280
     0
102
RTVSPost2010PropOp28
 70
     1
102
RTVSPost2010Prop29
280
     1
102
RTVSPost2010PropOp29
 70
     1
102
RTVSPost2010Prop30
280
     1
102
RTVSPost2010PropOp30
 70
     1
102
RTVSPost2010Prop31
280
     0
102
RTVSPost2010PropOp31
 70
     1
102
RTVSPost2010Prop32
280
     0
102
RTVSPost2010PropOp32
 70
     1
102
RTVSPost2010Prop33
280
     0
102
RTVSPost2010PropOp33
 70
     1
102
RTVSPost2010Prop34
280
     0
102
RTVSPost2010PropOp34
 70
     1
102
RTVSPost2010Prop35
280
     0
102
RTVSPost2010PropOp35
 70
     1
102
RTVSPost2010Prop36
280
     0
102
RTVSPost2010PropOp36
 70
     1
102
RTVSPost2010Prop37
 90
       50
102
RTVSPost2010PropOp37
 70
     1
102
RTVSPost2010Prop38
140
0.0
102
RTVSPost2010PropOp38
 70
     1
102
RTVSPost2010Prop39
140
1.0
102
RTVSPost2010PropOp39
 70
     1
102
RTVSPost2010Prop40
 90
        0
102
RTVSPost2010PropOp40
 70
     1
102
RTVSPost2010Prop41ColorIndex
 90
       18
102
RTVSPost2010Prop41ColorRGB
 90
        0
102
RTVSPost2010PropOp41
 70
     1
102
RTVSPost2010Prop42
 90
       50
102
RTVSPost2010PropOp42
 70
     1
102
RTVSPost2010Prop43
 90
        3
102
RTVSPost2010PropOp43
 70
     1
102
RTVSPost2010Prop44ColorIndex
 90
        5
102
RTVSPost2010Prop44ColorRGB
 90
      255
102
RTVSPost2010PropOp44
 70
     1
102
RTVSPost2010Prop45
280
     0
102
RTVSPost2010PropOp45
 70
     1
102
RTVSPost2010Prop46
 90
       50
102
RTVSPost2010PropOp46
 70
     1
102
RTVSPost2010Prop47
 90
       50
102
RTVSPost2010PropOp47
 70
     1
102
RTVSPost2010Prop48
 90
       50
102
RTVSPost2010PropOp48
 70
     1
102
RTVSPost2010Prop49
280
     0
102
RTVSPost2010PropOp49
 70
     1
102
RTVSPost2010Prop50
 90
       50
102
RTVSPost2010PropOp50
 70
     1
102
RTVSPost2010Prop51ColorIndex
 90
      256
102
RTVSPost2010Prop51ColorRGB
 90
-16777216
102
RTVSPost2010PropOp51
 70
     0
102
RTVSPost2010Prop52
140
1.0
102
RTVSPost2010PropOp52
 70
     0
102
RTVSPost2010Prop53
 90
        2
102
RTVSPost2010PropOp53
 70
     1
102
RTVSPost2010Prop54
  1
strokes_ogs.tif
102
RTVSPost2010PropOp54
 70
     1
102
RTVSPost2010Prop55
280
     0
102
RTVSPost2010PropOp55
 70
     1
102
RTVSPost2010Prop56
140
1.0
102
RTVSPost2010PropOp56
 70
     1
102
RTVSPost2010Prop57
140
1.0
102
RTVSPost2010PropOp57
 70
     1
  0
XRECORD
  5
74E
102
{ACAD_REACTORS
330
74D
102
}
330
74D
100
AcDbXrecord
280
     1
102
RTVSPost2010Prop28
280
     0
102
RTVSPost2010PropOp28
 70
     1
102
RTVSPost2010Prop29
280
     1
102
RTVSPost2010PropOp29
 70
     1
102
RTVSPost2010Prop30
280
     1
102
RTVSPost2010PropOp30
 70
     1
102
RTVSPost2010Prop31
280
     0
102
RTVSPost2010PropOp31
 70
     1
102
RTVSPost2010Prop32
280
     0
102
RTVSPost2010PropOp32
 70
     1
102
RTVSPost2010Prop33
280
     0
102
RTVSPost2010PropOp33
 70
     1
102
RTVSPost2010Prop34
280
     0
102
RTVSPost2010PropOp34
 70
     1
102
RTVSPost2010Prop35
280
     0
102
RTVSPost2010PropOp35
 70
     1
102
RTVSPost2010Prop36
280
     0
102
RTVSPost2010PropOp36
 70
     1
102
RTVSPost2010Prop37
 90
       50
102
RTVSPost2010PropOp37
 70
     1
102
RTVSPost2010Prop38
140
0.0
102
RTVSPost2010PropOp38
 70
     1
102
RTVSPost2010Prop39
140
1.0
102
RTVSPost2010PropOp39
 70
     1
102
RTVSPost2010Prop40
 90
        0
102
RTVSPost2010PropOp40
 70
     1
102
RTVSPost2010Prop41ColorIndex
 90
       18
102
RTVSPost2010Prop41ColorRGB
 90
        0
102
RTVSPost2010PropOp41
 70
     1
102
RTVSPost2010Prop42
 90
       50
102
RTVSPost2010PropOp42
 70
     1
102
RTVSPost2010Prop43
 90
        3
102
RTVSPost2010PropOp43
 70
     1
102
RTVSPost2010Prop44ColorIndex
 90
        5
102
RTVSPost2010Prop44ColorRGB
 90
      255
102
RTVSPost2010PropOp44
 70
     1
102
RTVSPost2010Prop45
280
     0
102
RTVSPost2010PropOp45
 70
     1
102
RTVSPost2010Prop46
 90
       50
102
RTVSPost2010PropOp46
 70
     1
102
RTVSPost2010Prop47
 90
       50
102
RTVSPost2010PropOp47
 70
     1
102
RTVSPost2010Prop48
 90
       50
102
RTVSPost2010PropOp48
 70
     1
102
RTVSPost2010Prop49
280
     0
102
RTVSPost2010PropOp49
 70
     1
102
RTVSPost2010Prop50
 90
       50
102
RTVSPost2010PropOp50
 70
     1
102
RTVSPost2010Prop51ColorIndex
 90
      256
102
RTVSPost2010Prop51ColorRGB
 90
-16777216
102
RTVSPost2010PropOp51
 70
     0
102
RTVSPost2010Prop52
140
1.0
102
RTVSPost2010PropOp52
 70
     0
102
RTVSPost2010Prop53
 90
        2
102
RTVSPost2010PropOp53
 70
     1
102
RTVSPost2010Prop54
  1
strokes_ogs.tif
102
RTVSPost2010PropOp54
 70
     1
102
RTVSPost2010Prop55
280
     0
102
RTVSPost2010PropOp55
 70
     1
102
RTVSPost2010Prop56
140
1.0
102
RTVSPost2010PropOp56
 70
     1
102
RTVSPost2010Prop57
140
1.0
102
RTVSPost2010PropOp57
 70
     1
  0
XRECORD
  5
73E
102
{ACAD_REACTORS
330
73D
102
}
330
73D
100
AcDbXrecord
280
     1
102
RTVSPost2010Prop28
280
     0
102
RTVSPost2010PropOp28
 70
     1
102
RTVSPost2010Prop29
280
     1
102
RTVSPost2010PropOp29
 70
     1
102
RTVSPost2010Prop30
280
     1
102
RTVSPost2010PropOp30
 70
     1
102
RTVSPost2010Prop31
280
     0
102
RTVSPost2010PropOp31
 70
     1
102
RTVSPost2010Prop32
280
     0
102
RTVSPost2010PropOp32
 70
     1
102
RTVSPost2010Prop33
280
     0
102
RTVSPost2010PropOp33
 70
     1
102
RTVSPost2010Prop34
280
     0
102
RTVSPost2010PropOp34
 70
     1
102
RTVSPost2010Prop35
280
     0
102
RTVSPost2010PropOp35
 70
     1
102
RTVSPost2010Prop36
280
     0
102
RTVSPost2010PropOp36
 70
     1
102
RTVSPost2010Prop37
 90
       50
102
RTVSPost2010PropOp37
 70
     1
102
RTVSPost2010Prop38
140
0.0
102
RTVSPost2010PropOp38
 70
     1
102
RTVSPost2010Prop39
140
1.0
102
RTVSPost2010PropOp39
 70
     1
102
RTVSPost2010Prop40
 90
        0
102
RTVSPost2010PropOp40
 70
     1
102
RTVSPost2010Prop41ColorIndex
 90
       18
102
RTVSPost2010Prop41ColorRGB
 90
        0
102
RTVSPost2010PropOp41
 70
     1
102
RTVSPost2010Prop42
 90
       50
102
RTVSPost2010PropOp42
 70
     1
102
RTVSPost2010Prop43
 90
        3
102
RTVSPost2010PropOp43
 70
     1
102
RTVSPost2010Prop44ColorIndex
 90
        5
102
RTVSPost2010Prop44ColorRGB
 90
      255
102
RTVSPost2010PropOp44
 70
     1
102
RTVSPost2010Prop45
280
     0
102
RTVSPost2010PropOp45
 70
     1
102
RTVSPost2010Prop46
 90
       50
102
RTVSPost2010PropOp46
 70
     1
102
RTVSPost2010Prop47
 90
       50
102
RTVSPost2010PropOp47
 70
     1
102
RTVSPost2010Prop48
 90
       50
102
RTVSPost2010PropOp48
 70
     1
102
RTVSPost2010Prop49
280
     0
102
RTVSPost2010PropOp49
 70
     1
102
RTVSPost2010Prop50
 90
       50
102
RTVSPost2010PropOp50
 70
     1
102
RTVSPost2010Prop51ColorIndex
 90
      256
102
RTVSPost2010Prop51ColorRGB
 90
-16777216
102
RTVSPost2010PropOp51
 70
     0
102
RTVSPost2010Prop52
140
1.0
102
RTVSPost2010PropOp52
 70
     0
102
RTVSPost2010Prop53
 90
        2
102
RTVSPost2010PropOp53
 70
     1
102
RTVSPost2010Prop54
  1
strokes_ogs.tif
102
RTVSPost2010PropOp54
 70
     1
102
RTVSPost2010Prop55
280
     0
102
RTVSPost2010PropOp55
 70
     1
102
RTVSPost2010Prop56
140
1.0
102
RTVSPost2010PropOp56
 70
     1
102
RTVSPost2010Prop57
140
1.0
102
RTVSPost2010PropOp57
 70
     1
  0
XRECORD
  5
75E
102
{ACAD_REACTORS
330
75D
102
}
330
75D
100
AcDbXrecord
280
     1
102
RTVSPost2010Prop28
280
     0
102
RTVSPost2010PropOp28
 70
     1
102
RTVSPost2010Prop29
280
     1
102
RTVSPost2010PropOp29
 70
     1
102
RTVSPost2010Prop30
280
     1
102
RTVSPost2010PropOp30
 70
     1
102
RTVSPost2010Prop31
280
     0
102
RTVSPost2010PropOp31
 70
     1
102
RTVSPost2010Prop32
280
     0
102
RTVSPost2010PropOp32
 70
     1
102
RTVSPost2010Prop33
280
     0
102
RTVSPost2010PropOp33
 70
     1
102
RTVSPost2010Prop34
280
     0
102
RTVSPost2010PropOp34
 70
     1
102
RTVSPost2010Prop35
280
     0
102
RTVSPost2010PropOp35
 70
     1
102
RTVSPost2010Prop36
280
     0
102
RTVSPost2010PropOp36
 70
     1
102
RTVSPost2010Prop37
 90
       50
102
RTVSPost2010PropOp37
 70
     1
102
RTVSPost2010Prop38
140
0.0
102
RTVSPost2010PropOp38
 70
     1
102
RTVSPost2010Prop39
140
1.0
102
RTVSPost2010PropOp39
 70
     1
102
RTVSPost2010Prop40
 90
        0
102
RTVSPost2010PropOp40
 70
     1
102
RTVSPost2010Prop41ColorIndex
 90
       18
102
RTVSPost2010Prop41ColorRGB
 90
        0
102
RTVSPost2010PropOp41
 70
     1
102
RTVSPost2010Prop42
 90
       50
102
RTVSPost2010PropOp42
 70
     1
102
RTVSPost2010Prop43
 90
        3
102
RTVSPost2010PropOp43
 70
     1
102
RTVSPost2010Prop44ColorIndex
 90
        5
102
RTVSPost2010Prop44ColorRGB
 90
      255
102
RTVSPost2010PropOp44
 70
     1
102
RTVSPost2010Prop45
280
     0
102
RTVSPost2010PropOp45
 70
     1
102
RTVSPost2010Prop46
 90
       50
102
RTVSPost2010PropOp46
 70
     1
102
RTVSPost2010Prop47
 90
       50
102
RTVSPost2010PropOp47
 70
     1
102
RTVSPost2010Prop48
 90
       50
102
RTVSPost2010PropOp48
 70
     1
102
RTVSPost2010Prop49
280
     0
102
RTVSPost2010PropOp49
 70
     1
102
RTVSPost2010Prop50
 90
       50
102
RTVSPost2010PropOp50
 70
     1
102
RTVSPost2010Prop51ColorIndex
 90
      256
102
RTVSPost2010Prop51ColorRGB
 90
-16777216
102
RTVSPost2010PropOp51
 70
     0
102
RTVSPost2010Prop52
140
1.0
102
RTVSPost2010PropOp52
 70
     0
102
RTVSPost2010Prop53
 90
        2
102
RTVSPost2010PropOp53
 70
     1
102
RTVSPost2010Prop54
  1
strokes_ogs.tif
102
RTVSPost2010PropOp54
 70
     1
102
RTVSPost2010Prop55
280
     0
102
RTVSPost2010PropOp55
 70
     1
102
RTVSPost2010Prop56
140
1.0
102
RTVSPost2010PropOp56
 70
     1
102
RTVSPost2010Prop57
140
1.0
102
RTVSPost2010PropOp57
 70
     1
  0
XRECORD
  5
75C
102
{ACAD_REACTORS
330
75B
102
}
330
75B
100
AcDbXrecord
280
     1
102
RTVSPost2010Prop28
280
     0
102
RTVSPost2010PropOp28
 70
     1
102
RTVSPost2010Prop29
280
     1
102
RTVSPost2010PropOp29
 70
     1
102
RTVSPost2010Prop30
280
     1
102
RTVSPost2010PropOp30
 70
     1
102
RTVSPost2010Prop31
280
     0
102
RTVSPost2010PropOp31
 70
     1
102
RTVSPost2010Prop32
280
     0
102
RTVSPost2010PropOp32
 70
     1
102
RTVSPost2010Prop33
280
     0
102
RTVSPost2010PropOp33
 70
     1
102
RTVSPost2010Prop34
280
     0
102
RTVSPost2010PropOp34
 70
     1
102
RTVSPost2010Prop35
280
     0
102
RTVSPost2010PropOp35
 70
     1
102
RTVSPost2010Prop36
280
     0
102
RTVSPost2010PropOp36
 70
     1
102
RTVSPost2010Prop37
 90
       50
102
RTVSPost2010PropOp37
 70
     1
102
RTVSPost2010Prop38
140
0.0
102
RTVSPost2010PropOp38
 70
     1
102
RTVSPost2010Prop39
140
1.0
102
RTVSPost2010PropOp39
 70
     1
102
RTVSPost2010Prop40
 90
        0
102
RTVSPost2010PropOp40
 70
     1
102
RTVSPost2010Prop41ColorIndex
 90
       18
102
RTVSPost2010Prop41ColorRGB
 90
        0
102
RTVSPost2010PropOp41
 70
     1
102
RTVSPost2010Prop42
 90
       50
102
RTVSPost2010PropOp42
 70
     1
102
RTVSPost2010Prop43
 90
        3
102
RTVSPost2010PropOp43
 70
     1
102
RTVSPost2010Prop44ColorIndex
 90
        5
102
RTVSPost2010Prop44ColorRGB
 90
      255
102
RTVSPost2010PropOp44
 70
     1
102
RTVSPost2010Prop45
280
     0
102
RTVSPost2010PropOp45
 70
     1
102
RTVSPost2010Prop46
 90
       50
102
RTVSPost2010PropOp46
 70
     1
102
RTVSPost2010Prop47
 90
       50
102
RTVSPost2010PropOp47
 70
     1
102
RTVSPost2010Prop48
 90
       50
102
RTVSPost2010PropOp48
 70
     1
102
RTVSPost2010Prop49
280
     0
102
RTVSPost2010PropOp49
 70
     1
102
RTVSPost2010Prop50
 90
       50
102
RTVSPost2010PropOp50
 70
     1
102
RTVSPost2010Prop51ColorIndex
 90
      256
102
RTVSPost2010Prop51ColorRGB
 90
-16777216
102
RTVSPost2010PropOp51
 70
     0
102
RTVSPost2010Prop52
140
1.0
102
RTVSPost2010PropOp52
 70
     0
102
RTVSPost2010Prop53
 90
        2
102
RTVSPost2010PropOp53
 70
     1
102
RTVSPost2010Prop54
  1
strokes_ogs.tif
102
RTVSPost2010PropOp54
 70
     1
102
RTVSPost2010Prop55
280
     0
102
RTVSPost2010PropOp55
 70
     1
102
RTVSPost2010Prop56
140
1.0
102
RTVSPost2010PropOp56
 70
     1
102
RTVSPost2010Prop57
140
1.0
102
RTVSPost2010PropOp57
 70
     1
  0
XRECORD
  5
756
102
{ACAD_REACTORS
330
755
102
}
330
755
100
AcDbXrecord
280
     1
102
RTVSPost2010Prop28
280
     0
102
RTVSPost2010PropOp28
 70
     1
102
RTVSPost2010Prop29
280
     1
102
RTVSPost2010PropOp29
 70
     1
102
RTVSPost2010Prop30
280
     1
102
RTVSPost2010PropOp30
 70
     1
102
RTVSPost2010Prop31
280
     0
102
RTVSPost2010PropOp31
 70
     1
102
RTVSPost2010Prop32
280
     0
102
RTVSPost2010PropOp32
 70
     1
102
RTVSPost2010Prop33
280
     0
102
RTVSPost2010PropOp33
 70
     1
102
RTVSPost2010Prop34
280
     0
102
RTVSPost2010PropOp34
 70
     1
102
RTVSPost2010Prop35
280
     0
102
RTVSPost2010PropOp35
 70
     1
102
RTVSPost2010Prop36
280
     0
102
RTVSPost2010PropOp36
 70
     1
102
RTVSPost2010Prop37
 90
       50
102
RTVSPost2010PropOp37
 70
     1
102
RTVSPost2010Prop38
140
0.0
102
RTVSPost2010PropOp38
 70
     1
102
RTVSPost2010Prop39
140
1.0
102
RTVSPost2010PropOp39
 70
     1
102
RTVSPost2010Prop40
 90
        0
102
RTVSPost2010PropOp40
 70
     1
102
RTVSPost2010Prop41ColorIndex
 90
       18
102
RTVSPost2010Prop41ColorRGB
 90
        0
102
RTVSPost2010PropOp41
 70
     1
102
RTVSPost2010Prop42
 90
       50
102
RTVSPost2010PropOp42
 70
     1
102
RTVSPost2010Prop43
 90
        3
102
RTVSPost2010PropOp43
 70
     1
102
RTVSPost2010Prop44ColorIndex
 90
        5
102
RTVSPost2010Prop44ColorRGB
 90
      255
102
RTVSPost2010PropOp44
 70
     1
102
RTVSPost2010Prop45
280
     0
102
RTVSPost2010PropOp45
 70
     1
102
RTVSPost2010Prop46
 90
       50
102
RTVSPost2010PropOp46
 70
     1
102
RTVSPost2010Prop47
 90
       50
102
RTVSPost2010PropOp47
 70
     1
102
RTVSPost2010Prop48
 90
       50
102
RTVSPost2010PropOp48
 70
     1
102
RTVSPost2010Prop49
280
     0
102
RTVSPost2010PropOp49
 70
     1
102
RTVSPost2010Prop50
 90
       50
102
RTVSPost2010PropOp50
 70
     1
102
RTVSPost2010Prop51ColorIndex
 90
      256
102
RTVSPost2010Prop51ColorRGB
 90
-16777216
102
RTVSPost2010PropOp51
 70
     0
102
RTVSPost2010Prop52
140
1.0
102
RTVSPost2010PropOp52
 70
     0
102
RTVSPost2010Prop53
 90
        2
102
RTVSPost2010PropOp53
 70
     1
102
RTVSPost2010Prop54
  1
strokes_ogs.tif
102
RTVSPost2010PropOp54
 70
     1
102
RTVSPost2010Prop55
280
     0
102
RTVSPost2010PropOp55
 70
     1
102
RTVSPost2010Prop56
140
1.0
102
RTVSPost2010PropOp56
 70
     1
102
RTVSPost2010Prop57
140
1.0
102
RTVSPost2010PropOp57
 70
     1
  0
XRECORD
  5
758
102
{ACAD_REACTORS
330
757
102
}
330
757
100
AcDbXrecord
280
     1
102
RTVSPost2010Prop28
280
     0
102
RTVSPost2010PropOp28
 70
     1
102
RTVSPost2010Prop29
280
     1
102
RTVSPost2010PropOp29
 70
     1
102
RTVSPost2010Prop30
280
     1
102
RTVSPost2010PropOp30
 70
     1
102
RTVSPost2010Prop31
280
     0
102
RTVSPost2010PropOp31
 70
     1
102
RTVSPost2010Prop32
280
     0
102
RTVSPost2010PropOp32
 70
     1
102
RTVSPost2010Prop33
280
     0
102
RTVSPost2010PropOp33
 70
     1
102
RTVSPost2010Prop34
280
     0
102
RTVSPost2010PropOp34
 70
     1
102
RTVSPost2010Prop35
280
     0
102
RTVSPost2010PropOp35
 70
     1
102
RTVSPost2010Prop36
280
     0
102
RTVSPost2010PropOp36
 70
     1
102
RTVSPost2010Prop37
 90
       50
102
RTVSPost2010PropOp37
 70
     1
102
RTVSPost2010Prop38
140
0.0
102
RTVSPost2010PropOp38
 70
     1
102
RTVSPost2010Prop39
140
1.0
102
RTVSPost2010PropOp39
 70
     1
102
RTVSPost2010Prop40
 90
        0
102
RTVSPost2010PropOp40
 70
     1
102
RTVSPost2010Prop41ColorIndex
 90
       18
102
RTVSPost2010Prop41ColorRGB
 90
        0
102
RTVSPost2010PropOp41
 70
     1
102
RTVSPost2010Prop42
 90
       50
102
RTVSPost2010PropOp42
 70
     1
102
RTVSPost2010Prop43
 90
        3
102
RTVSPost2010PropOp43
 70
     1
102
RTVSPost2010Prop44ColorIndex
 90
        5
102
RTVSPost2010Prop44ColorRGB
 90
      255
102
RTVSPost2010PropOp44
 70
     1
102
RTVSPost2010Prop45
280
     0
102
RTVSPost2010PropOp45
 70
     1
102
RTVSPost2010Prop46
 90
       50
102
RTVSPost2010PropOp46
 70
     1
102
RTVSPost2010Prop47
 90
       50
102
RTVSPost2010PropOp47
 70
     1
102
RTVSPost2010Prop48
 90
       50
102
RTVSPost2010PropOp48
 70
     1
102
RTVSPost2010Prop49
280
     0
102
RTVSPost2010PropOp49
 70
     1
102
RTVSPost2010Prop50
 90
       50
102
RTVSPost2010PropOp50
 70
     1
102
RTVSPost2010Prop51ColorIndex
 90
      256
102
RTVSPost2010Prop51ColorRGB
 90
-16777216
102
RTVSPost2010PropOp51
 70
     0
102
RTVSPost2010Prop52
140
1.0
102
RTVSPost2010PropOp52
 70
     0
102
RTVSPost2010Prop53
 90
        2
102
RTVSPost2010PropOp53
 70
     1
102
RTVSPost2010Prop54
  1
strokes_ogs.tif
102
RTVSPost2010PropOp54
 70
     1
102
RTVSPost2010Prop55
280
     0
102
RTVSPost2010PropOp55
 70
     1
102
RTVSPost2010Prop56
140
1.0
102
RTVSPost2010PropOp56
 70
     1
102
RTVSPost2010Prop57
140
1.0
102
RTVSPost2010PropOp57
 70
     1
  0
XRECORD
  5
744
102
{ACAD_REACTORS
330
743
102
}
330
743
100
AcDbXrecord
280
     1
102
RTVSPost2010Prop28
280
     0
102
RTVSPost2010PropOp28
 70
     1
102
RTVSPost2010Prop29
280
     1
102
RTVSPost2010PropOp29
 70
     1
102
RTVSPost2010Prop30
280
     1
102
RTVSPost2010PropOp30
 70
     1
102
RTVSPost2010Prop31
280
     0
102
RTVSPost2010PropOp31
 70
     1
102
RTVSPost2010Prop32
280
     0
102
RTVSPost2010PropOp32
 70
     1
102
RTVSPost2010Prop33
280
     0
102
RTVSPost2010PropOp33
 70
     1
102
RTVSPost2010Prop34
280
     0
102
RTVSPost2010PropOp34
 70
     1
102
RTVSPost2010Prop35
280
     0
102
RTVSPost2010PropOp35
 70
     1
102
RTVSPost2010Prop36
280
     0
102
RTVSPost2010PropOp36
 70
     1
102
RTVSPost2010Prop37
 90
       50
102
RTVSPost2010PropOp37
 70
     1
102
RTVSPost2010Prop38
140
0.0
102
RTVSPost2010PropOp38
 70
     1
102
RTVSPost2010Prop39
140
1.0
102
RTVSPost2010PropOp39
 70
     1
102
RTVSPost2010Prop40
 90
        0
102
RTVSPost2010PropOp40
 70
     1
102
RTVSPost2010Prop41ColorIndex
 90
       18
102
RTVSPost2010Prop41ColorRGB
 90
        0
102
RTVSPost2010PropOp41
 70
     1
102
RTVSPost2010Prop42
 90
       50
102
RTVSPost2010PropOp42
 70
     1
102
RTVSPost2010Prop43
 90
        3
102
RTVSPost2010PropOp43
 70
     1
102
RTVSPost2010Prop44ColorIndex
 90
        5
102
RTVSPost2010Prop44ColorRGB
 90
      255
102
RTVSPost2010PropOp44
 70
     1
102
RTVSPost2010Prop45
280
     0
102
RTVSPost2010PropOp45
 70
     1
102
RTVSPost2010Prop46
 90
       50
102
RTVSPost2010PropOp46
 70
     1
102
RTVSPost2010Prop47
 90
       50
102
RTVSPost2010PropOp47
 70
     1
102
RTVSPost2010Prop48
 90
       50
102
RTVSPost2010PropOp48
 70
     1
102
RTVSPost2010Prop49
280
     0
102
RTVSPost2010PropOp49
 70
     1
102
RTVSPost2010Prop50
 90
       50
102
RTVSPost2010PropOp50
 70
     1
102
RTVSPost2010Prop51ColorIndex
 90
      256
102
RTVSPost2010Prop51ColorRGB
 90
-16777216
102
RTVSPost2010PropOp51
 70
     0
102
RTVSPost2010Prop52
140
1.0
102
RTVSPost2010PropOp52
 70
     0
102
RTVSPost2010Prop53
 90
        2
102
RTVSPost2010PropOp53
 70
     1
102
RTVSPost2010Prop54
  1
strokes_ogs.tif
102
RTVSPost2010PropOp54
 70
     1
102
RTVSPost2010Prop55
280
     0
102
RTVSPost2010PropOp55
 70
     1
102
RTVSPost2010Prop56
140
1.0
102
RTVSPost2010PropOp56
 70
     1
102
RTVSPost2010Prop57
140
1.0
102
RTVSPost2010PropOp57
 70
     1
  0
XRECORD
  5
752
102
{ACAD_REACTORS
330
751
102
}
330
751
100
AcDbXrecord
280
     1
102
RTVSPost2010Prop28
280
     0
102
RTVSPost2010PropOp28
 70
     1
102
RTVSPost2010Prop29
280
     1
102
RTVSPost2010PropOp29
 70
     1
102
RTVSPost2010Prop30
280
     1
102
RTVSPost2010PropOp30
 70
     1
102
RTVSPost2010Prop31
280
     0
102
RTVSPost2010PropOp31
 70
     1
102
RTVSPost2010Prop32
280
     0
102
RTVSPost2010PropOp32
 70
     1
102
RTVSPost2010Prop33
280
     0
102
RTVSPost2010PropOp33
 70
     1
102
RTVSPost2010Prop34
280
     0
102
RTVSPost2010PropOp34
 70
     1
102
RTVSPost2010Prop35
280
     0
102
RTVSPost2010PropOp35
 70
     1
102
RTVSPost2010Prop36
280
     0
102
RTVSPost2010PropOp36
 70
     1
102
RTVSPost2010Prop37
 90
       50
102
RTVSPost2010PropOp37
 70
     1
102
RTVSPost2010Prop38
140
0.0
102
RTVSPost2010PropOp38
 70
     1
102
RTVSPost2010Prop39
140
1.0
102
RTVSPost2010PropOp39
 70
     1
102
RTVSPost2010Prop40
 90
        0
102
RTVSPost2010PropOp40
 70
     1
102
RTVSPost2010Prop41ColorIndex
 90
       18
102
RTVSPost2010Prop41ColorRGB
 90
        0
102
RTVSPost2010PropOp41
 70
     1
102
RTVSPost2010Prop42
 90
       50
102
RTVSPost2010PropOp42
 70
     1
102
RTVSPost2010Prop43
 90
        3
102
RTVSPost2010PropOp43
 70
     1
102
RTVSPost2010Prop44ColorIndex
 90
        5
102
RTVSPost2010Prop44ColorRGB
 90
      255
102
RTVSPost2010PropOp44
 70
     1
102
RTVSPost2010Prop45
280
     0
102
RTVSPost2010PropOp45
 70
     1
102
RTVSPost2010Prop46
 90
       50
102
RTVSPost2010PropOp46
 70
     1
102
RTVSPost2010Prop47
 90
       50
102
RTVSPost2010PropOp47
 70
     1
102
RTVSPost2010Prop48
 90
       50
102
RTVSPost2010PropOp48
 70
     1
102
RTVSPost2010Prop49
280
     0
102
RTVSPost2010PropOp49
 70
     1
102
RTVSPost2010Prop50
 90
       50
102
RTVSPost2010PropOp50
 70
     1
102
RTVSPost2010Prop51ColorIndex
 90
      256
102
RTVSPost2010Prop51ColorRGB
 90
-16777216
102
RTVSPost2010PropOp51
 70
     0
102
RTVSPost2010Prop52
140
1.0
102
RTVSPost2010PropOp52
 70
     0
102
RTVSPost2010Prop53
 90
        2
102
RTVSPost2010PropOp53
 70
     1
102
RTVSPost2010Prop54
  1
strokes_ogs.tif
102
RTVSPost2010PropOp54
 70
     1
102
RTVSPost2010Prop55
280
     0
102
RTVSPost2010PropOp55
 70
     1
102
RTVSPost2010Prop56
140
1.0
102
RTVSPost2010PropOp56
 70
     1
102
RTVSPost2010Prop57
140
1.0
102
RTVSPost2010PropOp57
 70
     1
  0
XRECORD
  5
75A
102
{ACAD_REACTORS
330
759
102
}
330
759
100
AcDbXrecord
280
     1
102
RTVSPost2010Prop28
280
     0
102
RTVSPost2010PropOp28
 70
     1
102
RTVSPost2010Prop29
280
     1
102
RTVSPost2010PropOp29
 70
     1
102
RTVSPost2010Prop30
280
     1
102
RTVSPost2010PropOp30
 70
     1
102
RTVSPost2010Prop31
280
     0
102
RTVSPost2010PropOp31
 70
     1
102
RTVSPost2010Prop32
280
     0
102
RTVSPost2010PropOp32
 70
     1
102
RTVSPost2010Prop33
280
     0
102
RTVSPost2010PropOp33
 70
     1
102
RTVSPost2010Prop34
280
     0
102
RTVSPost2010PropOp34
 70
     1
102
RTVSPost2010Prop35
280
     0
102
RTVSPost2010PropOp35
 70
     1
102
RTVSPost2010Prop36
280
     0
102
RTVSPost2010PropOp36
 70
     1
102
RTVSPost2010Prop37
 90
       50
102
RTVSPost2010PropOp37
 70
     1
102
RTVSPost2010Prop38
140
0.0
102
RTVSPost2010PropOp38
 70
     1
102
RTVSPost2010Prop39
140
1.0
102
RTVSPost2010PropOp39
 70
     1
102
RTVSPost2010Prop40
 90
        0
102
RTVSPost2010PropOp40
 70
     1
102
RTVSPost2010Prop41ColorIndex
 90
       18
102
RTVSPost2010Prop41ColorRGB
 90
        0
102
RTVSPost2010PropOp41
 70
     1
102
RTVSPost2010Prop42
 90
       50
102
RTVSPost2010PropOp42
 70
     1
102
RTVSPost2010Prop43
 90
        3
102
RTVSPost2010PropOp43
 70
     1
102
RTVSPost2010Prop44ColorIndex
 90
        5
102
RTVSPost2010Prop44ColorRGB
 90
      255
102
RTVSPost2010PropOp44
 70
     1
102
RTVSPost2010Prop45
280
     0
102
RTVSPost2010PropOp45
 70
     1
102
RTVSPost2010Prop46
 90
       50
102
RTVSPost2010PropOp46
 70
     1
102
RTVSPost2010Prop47
 90
       50
102
RTVSPost2010PropOp47
 70
     1
102
RTVSPost2010Prop48
 90
       50
102
RTVSPost2010PropOp48
 70
     1
102
RTVSPost2010Prop49
280
     0
102
RTVSPost2010PropOp49
 70
     1
102
RTVSPost2010Prop50
 90
       50
102
RTVSPost2010PropOp50
 70
     1
102
RTVSPost2010Prop51ColorIndex
 90
      256
102
RTVSPost2010Prop51ColorRGB
 90
-16777216
102
RTVSPost2010PropOp51
 70
     0
102
RTVSPost2010Prop52
140
1.0
102
RTVSPost2010PropOp52
 70
     0
102
RTVSPost2010Prop53
 90
        2
102
RTVSPost2010PropOp53
 70
     1
102
RTVSPost2010Prop54
  1
strokes_ogs.tif
102
RTVSPost2010PropOp54
 70
     1
102
RTVSPost2010Prop55
280
     0
102
RTVSPost2010PropOp55
 70
     1
102
RTVSPost2010Prop56
140
1.0
102
RTVSPost2010PropOp56
 70
     1
102
RTVSPost2010Prop57
140
1.0
102
RTVSPost2010PropOp57
 70
     1
  0
ENDSEC
  0
EOF
