  0
SECTION
  2
HEADER
  9
$ACADVER
  1
AC1018
  9
$ACADMAINTVER
 70
   104
  9
$DWGCODEPAGE
  3
ANSI_932
  9
$LASTSAVEDBY
  1
comuser10
  9
$INSBASE
 10
0.0
 20
0.0
 30
0.0
  9
$EXTMIN
 10
-0.03458757
 20
-0.02459529
 30
-0.00152582
  9
$EXTMAX
 10
1133.48661885
 20
806.02461905
 30
0.00000003
  9
$LIMMIN
 10
0.0
 20
0.0
  9
$LIMMAX
 10
420.0
 20
297.0
  9
$ORTHOMODE
 70
     1
  9
$REGENMODE
 70
     1
  9
$FILLMODE
 70
     1
  9
$QTEXTMODE
 70
     0
  9
$MIRRTEXT
 70
     0
  9
$LTSCALE
 40
1.0
  9
$ATTMODE
 70
     1
  9
$TEXTSIZE
 40
3.0
  9
$TRACEWID
 40
1.0
  9
$TEXTSTYLE
  7
STANDARD
  9
$CLAYER
  8
0
  9
$CELTYPE
  6
BYLAYER
  9
$CECOLOR
 62
   256
  9
$CELTSCALE
 40
1.0
  9
$DISPSILH
 70
     1
  9
$DIMSCALE
 40
1.0
  9
$DIMASZ
 40
1.5
  9
$DIMEXO
 40
2.0
  9
$DIMDLI
 40
10.0
  9
$DIMRND
 40
0.0
  9
$DIMDLE
 40
0.0
  9
$DIMEXE
 40
2.0
  9
$DIMTP
 40
0.0
  9
$DIMTM
 40
0.0
  9
$DIMTXT
 40
3.0
  9
$DIMCEN
 40
0.0
  9
$DIMTSZ
 40
0.0
  9
$DIMTOL
 70
     0
  9
$DIMLIM
 70
     0
  9
$DIMTIH
 70
     0
  9
$DIMTOH
 70
     0
  9
$DIMSE1
 70
     0
  9
$DIMSE2
 70
     0
  9
$DIMTAD
 70
     0
  9
$DIMZIN
 70
    12
  9
$DIMBLK
  1

  9
$DIMASO
 70
     1
  9
$DIMSHO
 70
     1
  9
$DIMPOST
  1

  9
$DIMAPOST
  1

  9
$DIMALT
 70
     0
  9
$DIMALTD
 70
     2
  9
$DIMALTF
 40
0.0394
  9
$DIMLFAC
 40
1.0
  9
$DIMTOFL
 70
     1
  9
$DIMTVP
 40
1.0
  9
$DIMTIX
 70
     0
  9
$DIMSOXD
 70
     0
  9
$DIMSAH
 70
     1
  9
$DIMBLK1
  1
DOT1
  9
$DIMBLK2
  1
DOT1
  9
$DIMSTYLE
  2
YKK_OSADOT
  9
$DIMCLRD
 70
     0
  9
$DIMCLRE
 70
     0
  9
$DIMCLRT
 70
     0
  9
$DIMTFAC
 40
1.0
  9
$DIMGAP
 40
0.01
  9
$DIMJUST
 70
     0
  9
$DIMSD1
 70
     0
  9
$DIMSD2
 70
     0
  9
$DIMTOLJ
 70
     1
  9
$DIMTZIN
 70
    12
  9
$DIMALTZ
 70
    12
  9
$DIMALTTZ
 70
    12
  9
$DIMUPT
 70
     0
  9
$DIMDEC
 70
     4
  9
$DIMTDEC
 70
     4
  9
$DIMALTU
 70
     2
  9
$DIMALTTD
 70
     2
  9
$DIMTXSTY
  7
STANDARD
  9
$DIMAUNIT
 70
     0
  9
$DIMADEC
 70
     0
  9
$DIMALTRND
 40
0.0
  9
$DIMAZIN
 70
     0
  9
$DIMDSEP
 70
    46
  9
$DIMATFIT
 70
     3
  9
$DIMFRAC
 70
     0
  9
$DIMLDRBLK
  1

  9
$DIMLUNIT
 70
     2
  9
$DIMLWD
 70
    -2
  9
$DIMLWE
 70
    -2
  9
$DIMTMOVE
 70
     2
  9
$LUNITS
 70
     2
  9
$LUPREC
 70
     4
  9
$SKETCHINC
 40
1.0
  9
$FILLETRAD
 40
0.0
  9
$AUNITS
 70
     0
  9
$AUPREC
 70
     0
  9
$MENU
  1
.
  9
$ELEVATION
 40
0.0
  9
$PELEVATION
 40
0.0
  9
$THICKNESS
 40
0.0
  9
$LIMCHECK
 70
     0
  9
$CHAMFERA
 40
0.0
  9
$CHAMFERB
 40
0.0
  9
$CHAMFERC
 40
0.0
  9
$CHAMFERD
 40
0.0
  9
$SKPOLY
 70
     0
  9
$TDCREATE
 40
2452591.511585648
  9
$TDUCREATE
 40
2452591.136588310
  9
$TDUPDATE
 40
2458352.420393519
  9
$TDUUPDATE
 40
2458352.045393519
  9
$TDINDWG
 40
0.0347312616
  9
$TDUSRTIMER
 40
0.0347312616
  9
$USRTIMER
 70
     1
  9
$ANGBASE
 50
0.0
  9
$ANGDIR
 70
     0
  9
$PDMODE
 70
     0
  9
$PDSIZE
 40
0.0
  9
$PLINEWID
 40
0.0
  9
$SPLFRAME
 70
     0
  9
$SPLINETYPE
 70
     6
  9
$SPLINESEGS
 70
     8
  9
$HANDSEED
  5
2518
  9
$SURFTAB1
 70
     6
  9
$SURFTAB2
 70
     6
  9
$SURFTYPE
 70
     6
  9
$SURFU
 70
     6
  9
$SURFV
 70
     6
  9
$UCSBASE
  2

  9
$UCSNAME
  2

  9
$UCSORG
 10
0.0
 20
0.0
 30
0.0
  9
$UCSXDIR
 10
1.0
 20
0.0
 30
0.0
  9
$UCSYDIR
 10
0.0
 20
1.0
 30
0.0
  9
$UCSORTHOREF
  2

  9
$UCSORTHOVIEW
 70
     0
  9
$UCSORGTOP
 10
0.0
 20
0.0
 30
0.0
  9
$UCSORGBOTTOM
 10
0.0
 20
0.0
 30
0.0
  9
$UCSORGLEFT
 10
0.0
 20
0.0
 30
0.0
  9
$UCSORGRIGHT
 10
0.0
 20
0.0
 30
0.0
  9
$UCSORGFRONT
 10
0.0
 20
0.0
 30
0.0
  9
$UCSORGBACK
 10
0.0
 20
0.0
 30
0.0
  9
$PUCSBASE
  2

  9
$PUCSNAME
  2

  9
$PUCSORG
 10
0.0
 20
0.0
 30
0.0
  9
$PUCSXDIR
 10
1.0
 20
0.0
 30
0.0
  9
$PUCSYDIR
 10
0.0
 20
1.0
 30
0.0
  9
$PUCSORTHOREF
  2

  9
$PUCSORTHOVIEW
 70
     0
  9
$PUCSORGTOP
 10
0.0
 20
0.0
 30
0.0
  9
$PUCSORGBOTTOM
 10
0.0
 20
0.0
 30
0.0
  9
$PUCSORGLEFT
 10
0.0
 20
0.0
 30
0.0
  9
$PUCSORGRIGHT
 10
0.0
 20
0.0
 30
0.0
  9
$PUCSORGFRONT
 10
0.0
 20
0.0
 30
0.0
  9
$PUCSORGBACK
 10
0.0
 20
0.0
 30
0.0
  9
$USERI1
 70
     0
  9
$USERI2
 70
     0
  9
$USERI3
 70
     0
  9
$USERI4
 70
     0
  9
$USERI5
 70
     0
  9
$USERR1
 40
0.0
  9
$USERR2
 40
0.0
  9
$USERR3
 40
0.0
  9
$USERR4
 40
0.0
  9
$USERR5
 40
0.0
  9
$WORLDVIEW
 70
     1
  9
$SHADEDGE
 70
     3
  9
$SHADEDIF
 70
    70
  9
$TILEMODE
 70
     1
  9
$MAXACTVP
 70
    48
  9
$PINSBASE
 10
0.0
 20
0.0
 30
0.0
  9
$PLIMCHECK
 70
     0
  9
$PEXTMIN
 10
1.00000000E+20
 20
1.00000000E+20
 30
1.00000000E+20
  9
$PEXTMAX
 10
-1.00000000E+20
 20
-1.00000000E+20
 30
-1.00000000E+20
  9
$PLIMMIN
 10
0.0
 20
0.0
  9
$PLIMMAX
 10
420.0
 20
297.0
  9
$UNITMODE
 70
     0
  9
$VISRETAIN
 70
     1
  9
$PLINEGEN
 70
     0
  9
$PSLTSCALE
 70
     1
  9
$TREEDEPTH
 70
  3020
  9
$CMLSTYLE
  2
STANDARD
  9
$CMLJUST
 70
     0
  9
$CMLSCALE
 40
1.0
  9
$PROXYGRAPHICS
 70
     1
  9
$MEASUREMENT
 70
     1
  9
$CELWEIGHT
370
    -1
  9
$ENDCAPS
280
     0
  9
$JOINSTYLE
280
     0
  9
$LWDISPLAY
290
     0
  9
$INSUNITS
 70
     0
  9
$HYPERLINKBASE
  1

  9
$STYLESHEET
  1

  9
$XEDIT
290
     1
  9
$CEPSNTYPE
380
     0
  9
$PSTYLEMODE
290
     1
  9
$FINGERPRINTGUID
  2
{91E490FF-CDF2-4355-A6A2-7E01DFBA3A09}
  9
$VERSIONGUID
  2
{AE76B745-BB55-A044-BAD1-C4D601255A88}
  9
$EXTNAMES
290
     1
  9
$PSVPSCALE
 40
0.0
  9
$OLESTARTUP
290
     0
  9
$SORTENTS
280
   127
  9
$INDEXCTL
280
     0
  9
$HIDETEXT
280
     0
  9
$XCLIPFRAME
290
     0
  9
$HALOGAP
280
     0
  9
$OBSCOLOR
 70
   257
  9
$OBSLTYPE
280
     0
  9
$INTERSECTIONDISPLAY
280
     0
  9
$INTERSECTIONCOLOR
 70
   257
  9
$DIMASSOC
280
     1
  9
$PROJECTNAME
  1

  0
ENDSEC
  0
SECTION
  2
CLASSES
  0
CLASS
  1
DICTIONARYVAR
  2
AcDbDictionaryVar
  3
ObjectDBX Classes
 90
        0
 91
       10
280
     0
281
     0
  0
CLASS
  1
ACDBDICTIONARYWDFLT
  2
AcDbDictionaryWithDefault
  3
ObjectDBX Classes
 90
        0
 91
        1
280
     0
281
     0
  0
CLASS
  1
MATERIAL
  2
AcDbMaterial
  3
ObjectDBX Classes
 90
     1153
 91
        3
280
     0
281
     0
  0
CLASS
  1
VISUALSTYLE
  2
AcDbVisualStyle
  3
ObjectDBX Classes
 90
     4095
 91
       26
280
     0
281
     0
  0
CLASS
  1
TABLESTYLE
  2
AcDbTableStyle
  3
ObjectDBX Classes
 90
     4095
 91
        1
280
     0
281
     0
  0
CLASS
  1
SCALE
  2
AcDbScale
  3
ObjectDBX Classes
 90
     1153
 91
       33
280
     0
281
     0
  0
CLASS
  1
MLEADERSTYLE
  2
AcDbMLeaderStyle
  3
ACDB_MLEADERSTYLE_CLASS
 90
     4095
 91
        1
280
     0
281
     0
  0
CLASS
  1
CELLSTYLEMAP
  2
AcDbCellStyleMap
  3
ObjectDBX Classes
 90
     1152
 91
        2
280
     0
281
     0
  0
CLASS
  1
ACDBSECTIONVIEWSTYLE
  2
AcDbSectionViewStyle
  3
ObjectDBX Classes
 90
     1025
 91
        1
280
     0
281
     0
  0
CLASS
  1
ACDBDETAILVIEWSTYLE
  2
AcDbDetailViewStyle
  3
ObjectDBX Classes
 90
     1025
 91
        1
280
     0
281
     0
  0
CLASS
  1
SORTENTSTABLE
  2
AcDbSortentsTable
  3
ObjectDBX Classes
 90
        0
 91
        1
280
     0
281
     0
  0
CLASS
  1
RAPIDRTRENDERSETTINGS
  2
AcDbRapidRTRenderSettings
  3
ObjectDBX Classes
 90
     1024
 91
        1
280
     0
281
     0
  0
CLASS
  1
MENTALRAYRENDERSETTINGS
  2
AcDbMentalRayRenderSettings
  3
SCENEOE
 90
     1024
 91
        1
280
     0
281
     0
  0
ENDSEC
  0
SECTION
  2
TABLES
  0
TABLE
  2
VPORT
  5
12
102
{ACAD_XDICTIONARY
360
17E
102
}
330
0
100
AcDbSymbolTable
 70
     1
  0
VPORT
  5
F4
330
12
100
AcDbSymbolTableRecord
100
AcDbViewportTableRecord
  2
*ACTIVE
 70
     0
 10
0.0
 20
0.0
 11
1.0
 21
1.0
 12
566.72601564
 22
403.00001188
 13
0.0
 23
0.0
 14
10.0
 24
10.0
 15
10.0
 25
10.0
 16
0.0
 26
0.0
 36
1.0
 17
0.0
 27
0.0
 37
0.0
 40
815.53214627
 41
3.09233792
 42
50.0
 43
0.0
 44
0.0
 50
0.0
 51
0.0
 71
     0
 72
  1000
 73
     1
 74
     1
 75
     0
 76
     0
 77
     0
 78
     0
281
     0
 65
     1
110
0.0
120
0.0
130
0.0
111
1.0
121
0.0
131
0.0
112
0.0
122
1.0
132
0.0
 79
     0
146
0.0
1001
ACAD_NAV_VCDISPLAY
1070
     1
  0
ENDTAB
  0
TABLE
  2
LTYPE
  5
D
330
0
100
AcDbSymbolTable
 70
     2
  0
LTYPE
  5
E
330
D
100
AcDbSymbolTableRecord
100
AcDbLinetypeTableRecord
  2
BYBLOCK
 70
     0
  3

 72
    65
 73
     0
 40
0.0
  0
LTYPE
  5
F
330
D
100
AcDbSymbolTableRecord
100
AcDbLinetypeTableRecord
  2
BYLAYER
 70
     0
  3

 72
    65
 73
     0
 40
0.0
  0
LTYPE
  5
5
330
D
100
AcDbSymbolTableRecord
100
AcDbLinetypeTableRecord
  2
CONTINUOUS
 70
     0
  3
Solid line
 72
    65
 73
     0
 40
0.0
  0
LTYPE
  5
2D
330
D
100
AcDbSymbolTableRecord
100
AcDbLinetypeTableRecord
  2
HIDDEN
 70
     0
  3
__ __ __ __ __ __ __ __ __ __ __ __ __ __ __ __
 72
    65
 73
     2
 40
0.375
 49
0.25
 74
     0
 49
-0.125
 74
     0
  0
ENDTAB
  0
TABLE
  2
LAYER
  5
A
102
{ACAD_XDICTIONARY
360
2A0
102
}
330
0
100
AcDbSymbolTable
 70
     8
  0
LAYER
  5
4
102
{ACAD_XDICTIONARY
360
1DB
102
}
330
A
100
AcDbSymbolTableRecord
100
AcDbLayerTableRecord
  2
0
 70
     0
 62
     7
  6
CONTINUOUS
370
    -3
390
F7
  0
LAYER
  5
24
102
{ACAD_XDICTIONARY
360
1DD
102
}
330
A
100
AcDbSymbolTableRecord
100
AcDbLayerTableRecord
  2
YKK_ZWAK
 70
     0
 62
     7
  6
CONTINUOUS
370
    -3
390
F7
  0
LAYER
  5
E0
102
{ACAD_XDICTIONARY
360
1DF
102
}
330
A
100
AcDbSymbolTableRecord
100
AcDbLayerTableRecord
  2
USER1
 70
     0
 62
     3
  6
CONTINUOUS
370
    -3
390
F7
  0
LAYER
  5
283
102
{ACAD_XDICTIONARY
360
284
102
}
330
A
100
AcDbSymbolTableRecord
100
AcDbLayerTableRecord
  2
YKK_11
 70
     0
 62
     7
  6
CONTINUOUS
370
    30
390
F7
1001
AcAecLayerStandard
1000

1000
形材形状　【中・実線】
  0
LAYER
  5
287
102
{ACAD_XDICTIONARY
360
288
102
}
330
A
100
AcDbSymbolTableRecord
100
AcDbLayerTableRecord
  2
YKK_12
 70
     0
 62
     2
  6
CONTINUOUS
370
    13
390
F7
1001
AcAecLayerStandard
1000

1000
一般線　　　【細・実線】
  0
LAYER
  5
289
102
{ACAD_XDICTIONARY
360
28A
102
}
330
A
100
AcDbSymbolTableRecord
100
AcDbLayerTableRecord
  2
YKK_A1
 70
     0
 62
     4
  6
CONTINUOUS
370
    13
390
F7
1001
AcAecLayerStandard
1000

1000
姿図　　　　【細・実線】
  0
LAYER
  5
28B
102
{ACAD_XDICTIONARY
360
28C
102
}
330
A
100
AcDbSymbolTableRecord
100
AcDbLayerTableRecord
  2
YKK_13
 70
     0
 62
     4
  6
CONTINUOUS
370
    13
390
F7
1001
AcAecLayerStandard
1000

1000
部品形状　【細・実線】
  0
LAYER
  5
28F
102
{ACAD_XDICTIONARY
360
290
102
}
330
A
100
AcDbSymbolTableRecord
100
AcDbLayerTableRecord
  2
YKK_D
 70
     0
 62
     6
  6
CONTINUOUS
370
    13
390
F7
1001
AcAecLayerStandard
1000

1000
寸法
  0
ENDTAB
  0
TABLE
  2
STYLE
  5
B
330
0
100
AcDbSymbolTable
 70
     2
  0
STYLE
  5
C
330
B
100
AcDbSymbolTableRecord
100
AcDbTextStyleTableRecord
  2
STANDARD
 70
     0
 40
0.0
 41
1.0
 50
0.0
 71
     0
 42
3.0
  3
ROMANS.SHX
  4
EXTFONT.SHX
  0
STYLE
  5
33
330
B
100
AcDbSymbolTableRecord
100
AcDbTextStyleTableRecord
  2
YKK_OSSTYLE1
 70
     0
 40
0.0
 41
0.9
 50
0.0
 71
     0
 42
4.0
  3
romans.shx
  4
EXTFONT.SHX
  0
ENDTAB
  0
TABLE
  2
VIEW
  5
10
330
0
100
AcDbSymbolTable
 70
     0
  0
ENDTAB
  0
TABLE
  2
UCS
  5
11
330
0
100
AcDbSymbolTable
 70
     0
  0
ENDTAB
  0
TABLE
  2
APPID
  5
14
330
0
100
AcDbSymbolTable
 70
    15
  0
APPID
  5
15
330
14
100
AcDbSymbolTableRecord
100
AcDbRegAppTableRecord
  2
ACAD
 70
     0
  0
APPID
  5
153
330
14
100
AcDbSymbolTableRecord
100
AcDbRegAppTableRecord
  2
YKK_AP_LOCKLAYER
 70
     0
  0
APPID
  5
1B8
330
14
100
AcDbSymbolTableRecord
100
AcDbRegAppTableRecord
  2
ACAD_MLEADERVER
 70
     0
  0
APPID
  5
1D9
330
14
100
AcDbSymbolTableRecord
100
AcDbRegAppTableRecord
  2
ACAD_PSEXT
 70
     0
  0
APPID
  5
1DA
330
14
100
AcDbSymbolTableRecord
100
AcDbRegAppTableRecord
  2
ACAD_NAV_VCDISPLAY
 70
     0
  0
APPID
  5
223
330
14
100
AcDbSymbolTableRecord
100
AcDbRegAppTableRecord
  2
ACAD_EXEMPT_FROM_CAD_STANDARDS
 70
     0
  0
APPID
  5
297
330
14
100
AcDbSymbolTableRecord
100
AcDbRegAppTableRecord
  2
GENIUS_GENREC_14
 70
     0
  0
APPID
  5
298
330
14
100
AcDbSymbolTableRecord
100
AcDbRegAppTableRecord
  2
GENIUS_GENOBJ-N-REC_13
 70
     0
  0
APPID
  5
299
330
14
100
AcDbSymbolTableRecord
100
AcDbRegAppTableRecord
  2
GENIUS_GENODEF_13
 70
     0
  0
APPID
  5
29A
330
14
100
AcDbSymbolTableRecord
100
AcDbRegAppTableRecord
  2
AcAecLayerStandard
 70
     0
  0
APPID
  5
29B
330
14
100
AcDbSymbolTableRecord
100
AcDbRegAppTableRecord
  2
ACAD_DSTYLE_DIMJOGGED_JOGANGLE_SYMBOL
 70
     0
  0
APPID
  5
29C
330
14
100
AcDbSymbolTableRecord
100
AcDbRegAppTableRecord
  2
YALIB
 70
     0
  0
APPID
  5
29D
330
14
100
AcDbSymbolTableRecord
100
AcDbRegAppTableRecord
  2
ACDBBLOCKREPETAG
 70
     0
  0
APPID
  5
29E
330
14
100
AcDbSymbolTableRecord
100
AcDbRegAppTableRecord
  2
YOBJCUT11022134159
 70
     0
  0
APPID
  5
29F
330
14
100
AcDbSymbolTableRecord
100
AcDbRegAppTableRecord
  2
GENIUS_GENOBJ-N-FIL_13
 70
     0
  0
ENDTAB
  0
TABLE
  2
DIMSTYLE
  5
16
330
0
100
AcDbSymbolTable
 70
     1
100
AcDbDimStyleTable
 71
     1
340
1C
  0
DIMSTYLE
105
1C
330
16
100
AcDbSymbolTableRecord
100
AcDbDimStyleTableRecord
  2
YKK_OSADOT
 70
     0
 41
1.5
 42
2.0
 43
10.0
 44
2.0
 73
     0
 74
     0
 78
    12
140
3.0
141
0.0
143
0.0394
145
1.0
147
0.01
172
     1
173
     1
279
     2
284
    12
285
    12
286
    12
340
C
341
1D
343
1D
344
1D
  0
ENDTAB
  0
TABLE
  2
BLOCK_RECORD
  5
1
330
0
100
AcDbSymbolTable
 70
     2
  0
BLOCK_RECORD
  5
2
102
{ACAD_XDICTIONARY
360
17A
102
}
330
1
100
AcDbSymbolTableRecord
100
AcDbBlockTableRecord
  2
*MODEL_SPACE
340
14E
  0
BLOCK_RECORD
  5
7
102
{ACAD_XDICTIONARY
360
17C
102
}
330
1
100
AcDbSymbolTableRecord
100
AcDbBlockTableRecord
  2
*PAPER_SPACE
340
14F
  0
BLOCK_RECORD
  5
1D
330
1
100
AcDbSymbolTableRecord
100
AcDbBlockTableRecord
  2
DOT1
340
0
  0
BLOCK_RECORD
  5
25
330
1
100
AcDbSymbolTableRecord
100
AcDbBlockTableRecord
  2
A201
340
0
102
{BLKREFS
331
23
102
}
  0
ENDTAB
  0
ENDSEC
  0
SECTION
  2
BLOCKS
  0
BLOCK
  5
3
330
2
100
AcDbEntity
  8
0
100
AcDbBlockBegin
  2
*MODEL_SPACE
 70
     0
 10
0.0
 20
0.0
 30
0.0
  3
*MODEL_SPACE
  1

  0
ENDBLK
  5
6
330
2
100
AcDbEntity
  8
0
100
AcDbBlockEnd
  0
BLOCK
  5
8
330
7
100
AcDbEntity
 67
     1
  8
0
100
AcDbBlockBegin
  2
*PAPER_SPACE
 70
     0
 10
0.0
 20
0.0
 30
0.0
  3
*PAPER_SPACE
  1

  0
ENDBLK
  5
9
330
7
100
AcDbEntity
 67
     1
  8
0
100
AcDbBlockEnd
  0
BLOCK
  5
21
330
1D
100
AcDbEntity
  8
0
100
AcDbBlockBegin
  2
DOT1
 70
     0
 10
0.0
 20
0.0
 30
0.0
  3
DOT1
  1

  0
CIRCLE
  5
1E
330
1D
100
AcDbEntity
  8
0
  6
ByBlock
 62
     0
370
    -2
100
AcDbCircle
 10
0.0
 20
0.0
 30
0.0
 40
0.5
  0
CIRCLE
  5
1F
330
1D
100
AcDbEntity
  8
0
  6
ByBlock
 62
     0
370
    -2
100
AcDbCircle
 10
0.0
 20
0.0
 30
0.0
 40
0.325
  0
LINE
  5
20
330
1D
100
AcDbEntity
  8
0
  6
ByBlock
 62
     0
370
    -2
100
AcDbLine
 10
0.0
 20
0.0
 30
0.0
 11
-1.0
 21
0.0
 31
0.0
  0
ENDBLK
  5
22
330
1D
100
AcDbEntity
  8
0
100
AcDbBlockEnd
  0
BLOCK
  5
DD
330
25
100
AcDbEntity
  8
0
100
AcDbBlockBegin
  2
A201
 70
     0
 10
0.0
 20
0.0
 30
0.0
  3
A201
  1

  0
LINE
  5
26
330
25
100
AcDbEntity
  8
YKK_ZWAK
  6
Continuous
 62
   254
100
AcDbLine
 10
21.000001
 20
8.9995
 30
0.0
 11
544.000013
 21
8.9995
 31
0.0
  0
LINE
  5
27
330
25
100
AcDbEntity
  8
YKK_ZWAK
  6
Continuous
 62
   131
100
AcDbLine
 10
205.000005
 20
21.000001
 30
0.0
 11
297.000007
 21
21.000001
 31
0.0
  0
LINE
  5
28
330
25
100
AcDbEntity
  8
YKK_ZWAK
  6
Continuous
 62
   254
100
AcDbLine
 10
571.000014
 20
34.999501
 30
0.0
 11
21.000001
 21
34.999501
 31
0.0
  0
LINE
  5
29
330
25
100
AcDbEntity
  8
YKK_ZWAK
  6
Continuous
 62
   254
100
AcDbLine
 10
544.000013
 20
33.999501
 30
0.0
 11
21.000001
 21
33.999501
 31
0.0
  0
LINE
  5
2A
330
25
100
AcDbEntity
  8
YKK_ZWAK
  6
Continuous
 62
   254
100
AcDbLine
 10
571.000014
 20
409.99951
 30
0.0
 11
21.000001
 21
409.99951
 31
0.0
  0
LINE
  5
2B
330
25
100
AcDbEntity
  8
YKK_ZWAK
  6
Continuous
 62
   254
100
AcDbLine
 10
21.000001
 20
34.999501
 30
0.0
 11
21.000001
 21
409.99951
 31
0.0
  0
LINE
  5
2C
330
25
100
AcDbEntity
  8
YKK_ZWAK
  6
HIDDEN
 62
   131
100
AcDbLine
 10
24.284751
 20
13.7865
 30
0.0
 11
201.565005
 21
13.7865
 31
0.0
  0
LINE
  5
2E
330
25
100
AcDbEntity
  8
YKK_ZWAK
  6
HIDDEN
 62
   131
100
AcDbLine
 10
24.284751
 20
18.7355
 30
0.0
 11
201.565005
 21
18.7355
 31
0.0
  0
LINE
  5
2F
330
25
100
AcDbEntity
  8
YKK_ZWAK
  6
HIDDEN
 62
   131
100
AcDbLine
 10
24.284751
 20
23.684501
 30
0.0
 11
201.565005
 21
23.684501
 31
0.0
  0
LINE
  5
30
330
25
100
AcDbEntity
  8
YKK_ZWAK
  6
HIDDEN
 62
   131
100
AcDbLine
 10
24.284751
 20
28.633501
 30
0.0
 11
201.565005
 21
28.633501
 31
0.0
  0
LINE
  5
31
330
25
100
AcDbEntity
  8
YKK_ZWAK
  6
Continuous
 62
   254
100
AcDbLine
 10
21.000001
 20
8.9995
 30
0.0
 11
21.000001
 21
33.999501
 31
0.0
  0
TEXT
  5
32
330
25
100
AcDbEntity
  8
YKK_ZWAK
  6
Continuous
 62
   131
100
AcDbText
 10
24.367481
 20
29.394844
 30
0.0
 40
3.0
  1
変 更 記 事
 41
0.9
  7
YKK_OSSTYLE1
100
AcDbText
  0
TEXT
  5
34
330
25
100
AcDbEntity
  8
YKK_ZWAK
  6
Continuous
 62
   254
100
AcDbText
 10
289.94159
 20
12.3725
 30
0.0
 40
5.0
  1
殿
 41
0.9
  7
YKK_OSSTYLE1
100
AcDbText
  0
LINE
  5
35
330
25
100
AcDbEntity
  8
YKK_ZWAK
  6
Continuous
 62
   254
100
AcDbLine
 10
296.000007
 20
33.999501
 30
0.0
 11
296.000007
 21
8.9995
 31
0.0
  0
LINE
  5
36
330
25
100
AcDbEntity
  8
YKK_ZWAK
  6
Continuous
 62
   254
100
AcDbLine
 10
205.000005
 20
33.999501
 30
0.0
 11
205.000005
 21
8.9995
 31
0.0
  0
TEXT
  5
37
330
25
100
AcDbEntity
  8
YKK_ZWAK
  6
Continuous
 62
   131
100
AcDbText
 10
207.692335
 20
17.675001
 30
0.0
 40
3.0
  1
施　　工
 41
0.9
  7
YKK_OSSTYLE1
100
AcDbText
  0
TEXT
  5
38
330
25
100
AcDbEntity
  8
YKK_ZWAK
  6
Continuous
 62
   131
100
AcDbText
 10
207.692335
 20
30.047503
 30
0.0
 40
3.0
  1
設計監理
 41
0.9
  7
YKK_OSSTYLE1
100
AcDbText
  0
TEXT
  5
39
330
25
100
AcDbEntity
  8
YKK_ZWAK
  6
Continuous
 62
   254
100
AcDbText
 10
289.94159
 20
24.745001
 30
0.0
 40
5.0
  1
殿
 41
0.9
  7
YKK_OSSTYLE1
100
AcDbText
  0
LINE
  5
3A
330
25
100
AcDbEntity
  8
YKK_ZWAK
  6
Continuous
 62
   254
100
AcDbLine
 10
19.000001
 20
222.4995055
 30
0.0
 11
21.000001
 21
222.4995055
 31
0.0
  0
LINE
  5
3B
330
25
100
AcDbEntity
  8
YKK_ZWAK
  6
Continuous
 62
     8
100
AcDbLine
 10
296.010007
 20
411.99951
 30
0.0
 11
296.010007
 21
409.99951
 31
0.0
  0
LINE
  5
3C
330
25
100
AcDbEntity
  8
YKK_ZWAK
  6
Continuous
 62
   254
100
AcDbLine
 10
571.000014
 20
409.99951
 30
0.0
 11
571.000014
 21
34.999501
 31
0.0
  0
LINE
  5
3D
330
25
100
AcDbEntity
  8
YKK_ZWAK
  6
Continuous
 62
   254
100
AcDbLine
 10
452.000011
 20
15.9995
 30
0.0
 11
523.999763
 21
15.9995
 31
0.0
  0
LINE
  5
3E
330
25
100
AcDbEntity
  8
YKK_ZWAK
  6
Continuous
 62
   131
100
AcDbLine
 10
437.703011
 20
29.000001
 30
0.0
 11
389.00001
 21
29.000001
 31
0.0
  0
LINE
  5
3F
330
25
100
AcDbEntity
  8
YKK_ZWAK
  6
Continuous
 62
   254
100
AcDbLine
 10
389.00001
 20
33.999501
 30
0.0
 11
389.00001
 21
8.9995
 31
0.0
  0
LINE
  5
40
330
25
100
AcDbEntity
  8
YKK_ZWAK
  6
Continuous
 62
   131
100
AcDbLine
 10
297.000007
 20
21.000001
 30
0.0
 11
389.00001
 21
21.000001
 31
0.0
  0
TEXT
  5
41
330
25
100
AcDbEntity
  8
YKK_ZWAK
  6
Continuous
 62
   131
100
AcDbText
 10
298.58378403
 20
17.465002
 30
0.0
 40
3.0
  1
図面内容
 41
0.9
  7
YKK_OSSTYLE1
100
AcDbText
  0
TEXT
  5
42
330
25
100
AcDbEntity
  8
YKK_ZWAK
  6
Continuous
 62
   131
100
AcDbText
 10
298.86588
 20
30.047503
 30
0.0
 40
3.0
  1
工 事 名
 41
0.9
  7
YKK_OSSTYLE1
100
AcDbText
  0
TEXT
  5
43
330
25
100
AcDbEntity
  8
YKK_ZWAK
  6
Continuous
 62
   254
100
AcDbText
 10
377.16530176
 20
24.745001
 30
0.0
 40
5.0
  1
工事
 41
0.9
  7
YKK_OSSTYLE1
100
AcDbText
  0
LINE
  5
44
330
25
100
AcDbEntity
  8
YKK_ZWAK
  6
Continuous
 62
   254
100
AcDbLine
 10
452.000011
 20
33.999501
 30
0.0
 11
452.000011
 21
8.9995
 31
0.0
  0
LINE
  5
45
330
25
100
AcDbEntity
  8
YKK_ZWAK
  6
Continuous
 62
   254
100
AcDbLine
 10
437.000011
 20
33.999501
 30
0.0
 11
437.000011
 21
8.9995
 31
0.0
  0
LINE
  5
46
330
25
100
AcDbEntity
  8
YKK_ZWAK
  6
Continuous
 62
   131
100
AcDbLine
 10
443.051603
 20
10.181617
 30
0.0
 11
449.854371
 21
16.984384
 31
0.0
  0
LINE
  5
47
330
25
100
AcDbEntity
  8
YKK_ZWAK
  6
Continuous
 62
   131
100
AcDbLine
 10
421.00001
 20
33.999501
 30
0.0
 11
421.00001
 21
8.9995
 31
0.0
  0
LINE
  5
48
330
25
100
AcDbEntity
  8
YKK_ZWAK
  6
Continuous
 62
   131
100
AcDbLine
 10
405.00001
 20
33.999501
 30
0.0
 11
405.00001
 21
8.9995
 31
0.0
  0
TEXT
  5
49
330
25
100
AcDbEntity
  8
YKK_ZWAK
  6
Continuous
 62
   131
100
AcDbText
 10
392.18209354
 20
9.752325
 30
0.0
 40
3.5
  1
 ． ．
 41
0.9
  7
YKK_OSSTYLE1
100
AcDbText
  0
LINE
  5
4A
330
25
100
AcDbEntity
  8
YKK_ZWAK
  6
Continuous
 62
   131
100
AcDbLine
 10
455.5999986
 20
10.4995
 30
0.0
 11
455.5999986
 21
8.9995
 31
0.0
  0
TEXT
  5
4B
330
25
100
AcDbEntity
  8
YKK_ZWAK
  6
Continuous
 62
   131
100
AcDbText
 10
407.8246491
 20
29.87075
 30
0.0
 40
3.0
  1
担  当
 41
0.9
  7
YKK_OSSTYLE1
100
AcDbText
  0
TEXT
  5
4C
330
25
100
AcDbEntity
  8
YKK_ZWAK
  6
Continuous
 62
   131
100
AcDbText
 10
392.5636631
 20
29.87075
 30
0.0
 40
3.0
  1
照  査
 41
0.9
  7
YKK_OSSTYLE1
100
AcDbText
  0
TEXT
  5
4D
330
25
100
AcDbEntity
  8
YKK_ZWAK
  6
Continuous
 62
   131
100
AcDbText
 10
424.0856971
 20
29.883751
 30
0.0
 40
3.0
  1
作  図
 41
0.9
  7
YKK_OSSTYLE1
100
AcDbText
  0
TEXT
  5
4E
330
25
100
AcDbEntity
  8
YKK_ZWAK
  6
Continuous
 62
   131
100
AcDbText
 10
453.905095
 20
30.047501
 30
0.0
 40
3.0
  1
御承認印
 41
0.9
  7
YKK_OSSTYLE1
100
AcDbText
  0
LINE
  5
4F
330
25
100
AcDbEntity
  8
YKK_ZWAK
  6
Continuous
 62
   131
100
AcDbLine
 10
437.703011
 20
29.000001
 30
0.0
 11
452.000011
 21
29.000001
 31
0.0
  0
LINE
  5
50
330
25
100
AcDbEntity
  8
YKK_ZWAK
  6
Continuous
 62
   131
100
AcDbLine
 10
439.264403
 20
21.330812
 30
0.0
 11
446.188247
 21
28.254656
 31
0.0
  0
TEXT
  5
51
330
25
100
AcDbEntity
  8
YKK_ZWAK
  6
Continuous
 62
   131
100
AcDbText
 10
439.5087681
 20
30.044463
 30
0.0
 40
3.0
  1
尺  度
 41
0.9
  7
YKK_OSSTYLE1
100
AcDbText
  0
CIRCLE
  5
52
330
25
100
AcDbEntity
  8
YKK_ZWAK
  6
Continuous
 62
     8
100
AcDbCircle
 10
579.426014
 20
83.719502
 30
0.0
 40
6.299999999999999
  0
LINE
  5
53
330
25
100
AcDbEntity
  8
YKK_ZWAK
  6
Continuous
 62
     8
100
AcDbLine
 10
573.126014
 20
69.579502
 30
0.0
 11
585.726014
 21
69.579502
 31
0.0
  0
LINE
  5
54
330
25
100
AcDbEntity
  8
YKK_ZWAK
  6
Continuous
 62
     8
100
AcDbLine
 10
573.126014
 20
55.439501
 30
0.0
 11
585.726014
 21
55.439501
 31
0.0
  0
CIRCLE
  5
55
330
25
100
AcDbEntity
  8
YKK_ZWAK
  6
Continuous
 62
     8
100
AcDbCircle
 10
579.426014
 20
69.579502
 30
0.0
 40
6.299999999999999
  0
CIRCLE
  5
56
330
25
100
AcDbEntity
  8
YKK_ZWAK
  6
Continuous
 62
     8
100
AcDbCircle
 10
579.426014
 20
55.439501
 30
0.0
 40
6.299999999999999
  0
LINE
  5
57
330
25
100
AcDbEntity
  8
YKK_ZWAK
  6
Continuous
 62
     8
100
AcDbLine
 10
573.126014
 20
41.299501
 30
0.0
 11
585.726014
 21
41.299501
 31
0.0
  0
CIRCLE
  5
58
330
25
100
AcDbEntity
  8
YKK_ZWAK
  6
Continuous
 62
     8
100
AcDbCircle
 10
579.426014
 20
41.299501
 30
0.0
 40
6.299999999999999
  0
LINE
  5
59
330
25
100
AcDbEntity
  8
YKK_ZWAK
  6
Continuous
 62
   254
100
AcDbLine
 10
544.000013
 20
33.999501
 30
0.0
 11
544.000013
 21
8.9995
 31
0.0
  0
LINE
  5
5A
330
25
100
AcDbEntity
  8
YKK_ZWAK
  6
Continuous
 62
   254
100
AcDbLine
 10
523.999763
 20
33.999501
 30
0.0
 11
523.999763
 21
8.9995
 31
0.0
  0
ARC
  5
5B
330
25
100
AcDbEntity
  8
YKK_ZWAK
  6
Continuous
 62
   254
100
AcDbCircle
 10
567.23923515
 20
16.32442811
 30
0.0
 40
3.065267824757687
100
AcDbArc
 50
285.44291453
 51
349.90448123
  0
ARC
  5
5C
330
25
100
AcDbEntity
  8
YKK_ZWAK
  6
Continuous
 62
   254
100
AcDbCircle
 10
553.606314
 20
13.7174867
 30
0.0
 40
7.916047100361496
100
AcDbArc
 50
168.7637177
 51
199.80079153
  0
ARC
  5
5D
330
25
100
AcDbEntity
  8
YKK_ZWAK
  6
Continuous
 62
   254
100
AcDbCircle
 10
550.84442657
 20
13.7651724
 30
0.0
 40
1.69178303147034
100
AcDbArc
 50
171.08203026
 51
216.71922793
  0
LINE
  5
5E
330
25
100
AcDbEntity
  8
YKK_ZWAK
  6
Continuous
 62
   254
100
AcDbLine
 10
562.610947
 20
9.566381
 30
0.0
 11
562.610947
 21
20.243049
 31
0.0
  0
LINE
  5
5F
330
25
100
AcDbEntity
  8
YKK_ZWAK
  6
Continuous
 62
   254
100
AcDbLine
 10
559.019868
 20
23.216355
 30
0.0
 11
559.019868
 21
9.566381
 31
0.0
  0
LINE
  5
60
330
25
100
AcDbEntity
  8
YKK_ZWAK
  6
Continuous
 62
   254
100
AcDbLine
 10
557.513933
 20
20.011363
 30
0.0
 11
557.513933
 21
9.585666
 31
0.0
  0
LINE
  5
61
330
25
100
AcDbEntity
  8
YKK_ZWAK
  6
Continuous
 62
   254
100
AcDbLine
 10
554.019393
 20
12.520312
 30
0.0
 11
554.019393
 21
19.470807
 31
0.0
  0
LINE
  5
62
330
25
100
AcDbEntity
  8
YKK_ZWAK
  6
Continuous
 62
   254
100
AcDbLine
 10
557.28225
 20
9.547052
 30
0.0
 11
549.405042
 21
9.527722
 31
0.0
  0
LINE
  5
63
330
25
100
AcDbEntity
  8
YKK_ZWAK
  6
Continuous
 62
   254
100
AcDbLine
 10
550.00355
 20
12.520312
 30
0.0
 11
554.019393
 21
12.520312
 31
0.0
  0
ARC
  5
64
330
25
100
AcDbEntity
  8
YKK_ZWAK
  6
Continuous
 62
   254
100
AcDbCircle
 10
548.60007313
 20
12.25485189
 30
0.0
 40
2.730646981973357
100
AcDbArc
 50
207.31435415
 51
263.59464075
  0
ARC
  5
65
330
25
100
AcDbEntity
  8
YKK_ZWAK
  6
Continuous
 62
   254
100
AcDbCircle
 10
550.17864126
 20
13.59595698
 30
0.0
 40
1.089801345776779
100
AcDbArc
 50
230.97279559
 51
260.75491133
  0
LINE
  5
66
330
25
100
AcDbEntity
  8
YKK_ZWAK
  6
Continuous
 62
   254
100
AcDbLine
 10
549.405042
 20
9.527722
 30
0.0
 11
548.343169
 21
9.527722
 31
0.0
  0
LINE
  5
67
330
25
100
AcDbEntity
  8
YKK_ZWAK
  6
Continuous
 62
   254
100
AcDbLine
 10
557.513933
 20
9.585666
 30
0.0
 11
557.28225
 21
9.547052
 31
0.0
  0
LINE
  5
68
330
25
100
AcDbEntity
  8
YKK_ZWAK
  6
Continuous
 62
   254
100
AcDbLine
 10
553.71047
 20
12.520312
 30
0.0
 11
553.961471
 21
12.520312
 31
0.0
  0
LINE
  5
69
330
25
100
AcDbEntity
  8
YKK_ZWAK
  6
Continuous
 62
   254
100
AcDbLine
 10
554.019393
 20
12.521084
 30
0.0
 11
554.020164
 21
12.520312
 31
0.0
  0
LINE
  5
6A
330
25
100
AcDbEntity
  8
YKK_ZWAK
  6
Continuous
 62
   254
100
AcDbLine
 10
562.051042
 20
9.566381
 30
0.0
 11
562.610947
 21
9.566381
 31
0.0
  0
LINE
  5
6B
330
25
100
AcDbEntity
  8
YKK_ZWAK
  6
Continuous
 62
   254
100
AcDbLine
 10
559.019868
 20
9.566381
 30
0.0
 11
562.051042
 21
9.566381
 31
0.0
  0
TEXT
  5
6C
330
25
100
AcDbEntity
  8
YKK_ZWAK
  6
Continuous
 62
   131
100
AcDbText
 10
528.4269094
 20
29.81226201
 30
0.0
 40
3.2
  1
図　番
 41
0.9
  7
YKK_OSSTYLE1
100
AcDbText
  0
TEXT
  5
6D
330
25
100
AcDbEntity
  8
YKK_ZWAK
  6
Continuous
 62
   131
100
AcDbText
 10
526.62767404
 20
16.79627903
 30
0.0
 40
3.2
  1
通し図番
 41
0.9
  7
YKK_OSSTYLE1
100
AcDbText
  0
LINE
  5
6E
330
25
100
AcDbEntity
  8
YKK_ZWAK
  6
Continuous
 62
   131
100
AcDbLine
 10
523.999763
 20
28.999501
 30
0.0
 11
544.000013
 21
28.999501
 31
0.0
  0
LINE
  5
6F
330
25
100
AcDbEntity
  8
YKK_ZWAK
  6
Continuous
 62
   131
100
AcDbLine
 10
544.000013
 20
16.0
 30
0.0
 11
523.999763
 21
16.0
 31
0.0
  0
LINE
  5
70
330
25
100
AcDbEntity
  8
YKK_ZWAK
  6
Continuous
 62
   254
100
AcDbLine
 10
523.999763
 20
21.000001
 30
0.0
 11
544.000013
 21
21.000001
 31
0.0
  0
TEXT
  5
71
330
25
100
AcDbEntity
  8
YKK_ZWAK
  6
Continuous
 62
   131
100
AcDbText
 10
504.12596439
 20
16.73585252
 30
0.0
 40
2.828
  1
年   月   日
 41
0.9
  7
YKK_OSSTYLE1
100
AcDbText
  0
ARC
  5
72
330
25
100
AcDbEntity
  8
YKK_ZWAK
  6
Continuous
 62
   254
100
AcDbCircle
 10
550.80023932
 20
8.38955158
 30
0.0
 40
9.506414110787718
100
AcDbArc
 50
79.38097908
 51
112.0582515
  0
ARC
  5
73
330
25
100
AcDbEntity
  8
YKK_ZWAK
  6
Continuous
 62
   254
100
AcDbCircle
 10
552.02960157
 20
8.66870802
 30
0.0
 40
14.82019555938878
100
AcDbArc
 50
78.78009532
 51
91.46937906
  0
LINE
  5
74
330
25
100
AcDbEntity
  8
YKK_ZWAK
  6
Continuous
 62
   254
100
AcDbLine
 10
553.247106
 20
20.281664
 30
0.0
 11
550.60589668
 21
20.23169161
 31
0.0
  0
LINE
  5
75
330
25
100
AcDbEntity
  8
YKK_ZWAK
  6
Continuous
 62
   254
100
AcDbLine
 10
553.054042
 20
15.04953
 30
0.0
 11
550.200893
 21
15.046227
 31
0.0
  0
LINE
  5
76
330
25
100
AcDbEntity
  8
YKK_ZWAK
  6
Continuous
 62
   254
100
AcDbLine
 10
554.187226
 20
33.42965
 30
0.0
 11
550.949599
 21
27.69553
 31
0.0
  0
LINE
  5
77
330
25
100
AcDbEntity
  8
YKK_ZWAK
  6
Continuous
 62
   254
100
AcDbLine
 10
551.59718
 20
33.42965
 30
0.0
 11
554.187226
 21
33.42965
 31
0.0
  0
LINE
  5
78
330
25
100
AcDbEntity
  8
YKK_ZWAK
  6
Continuous
 62
   254
100
AcDbLine
 10
548.594154
 20
27.714815
 30
0.0
 11
545.311979
 21
33.352466
 31
0.0
  0
ARC
  5
79
330
25
100
AcDbEntity
  8
YKK_ZWAK
  6
Continuous
 62
   254
100
AcDbCircle
 10
549.68520483
 20
20.30975154
 30
0.0
 40
3.598113650678814
100
AcDbArc
 50
158.41083245
 51
179.71775245
  0
ARC
  5
7A
330
25
100
AcDbEntity
  8
YKK_ZWAK
  6
Continuous
 62
   254
100
AcDbCircle
 10
548.59054743
 20
14.76560333
 30
0.0
 40
2.791490107652263
100
AcDbArc
 50
121.82711365
 51
169.08474902
  0
LINE
  5
7B
330
25
100
AcDbEntity
  8
YKK_ZWAK
  6
Continuous
 62
   254
100
AcDbLine
 10
549.405042
 20
18.949491
 30
0.0
 11
546.084266
 21
18.949491
 31
0.0
  0
LINE
  5
7C
330
25
100
AcDbEntity
  8
YKK_ZWAK
  6
Continuous
 62
   254
100
AcDbLine
 10
546.084266
 20
18.949491
 30
0.0
 11
546.084266
 21
20.32747631
 31
0.0
  0
ARC
  5
7D
330
25
100
AcDbEntity
  8
YKK_ZWAK
  6
Continuous
 62
   254
100
AcDbCircle
 10
550.20700835
 20
14.01426078
 30
0.0
 40
1.031984336873053
100
AcDbArc
 50
90.33952634
 51
178.0363902
  0
ARC
  5
7E
330
25
100
AcDbEntity
  8
YKK_ZWAK
  6
Continuous
 62
   254
100
AcDbCircle
 10
550.91098672
 20
18.99454401
 30
0.0
 40
1.5066184932453
100
AcDbArc
 50
138.46381796
 51
181.71359389
  0
ARC
  5
7F
330
25
100
AcDbEntity
  8
YKK_ZWAK
  6
Continuous
 62
   254
100
AcDbCircle
 10
550.51068793
 20
19.02046023
 30
0.0
 40
1.214967561291876
100
AcDbArc
 50
85.50551117
 51
126.78038212
  0
ARC
  5
80
330
25
100
AcDbEntity
  8
YKK_ZWAK
  6
Continuous
 62
   254
100
AcDbCircle
 10
548.00461954
 20
21.10278181
 30
0.0
 40
1.745462511199758
100
AcDbArc
 50
109.02126645
 51
161.5126404
  0
ARC
  5
81
330
25
100
AcDbEntity
  8
YKK_ZWAK
  6
Continuous
 62
   254
100
AcDbCircle
 10
551.65872095
 20
10.85588209
 30
0.0
 40
12.62863449008531
100
AcDbArc
 50
89.89164773
 51
109.30848271
  0
LINE
  5
82
330
25
100
AcDbEntity
  8
YKK_ZWAK
  6
Continuous
 62
   254
100
AcDbLine
 10
548.594154
 20
24.529198
 30
0.0
 11
548.594154
 21
27.714815
 31
0.0
  0
LINE
  5
83
330
25
100
AcDbEntity
  8
YKK_ZWAK
  6
Continuous
 62
   254
100
AcDbLine
 10
550.949599
 20
24.529198
 30
0.0
 11
548.594154
 21
24.529198
 31
0.0
  0
LINE
  5
84
330
25
100
AcDbEntity
  8
YKK_ZWAK
  6
Continuous
 62
   254
100
AcDbLine
 10
550.949599
 20
27.69553
 30
0.0
 11
550.949599
 21
24.529198
 31
0.0
  0
LINE
  5
85
330
25
100
AcDbEntity
  8
YKK_ZWAK
  6
Continuous
 62
   254
100
AcDbLine
 10
545.311979
 20
33.352466
 30
0.0
 11
547.821884
 21
33.352466
 31
0.0
  0
LINE
  5
86
330
25
100
AcDbEntity
  8
YKK_ZWAK
  6
Continuous
 62
   254
100
AcDbLine
 10
551.59718
 20
33.42965
 30
0.0
 11
549.771867
 21
29.877219
 31
0.0
  0
LINE
  5
87
330
25
100
AcDbEntity
  8
YKK_ZWAK
  6
Continuous
 62
   254
100
AcDbLine
 10
549.617423
 20
29.993062
 30
0.0
 11
549.771867
 21
29.877219
 31
0.0
  0
LINE
  5
88
330
25
100
AcDbEntity
  8
YKK_ZWAK
  6
Continuous
 62
   254
100
AcDbLine
 10
547.821884
 20
33.352466
 30
0.0
 11
549.617423
 21
29.993062
 31
0.0
  0
ARC
  5
89
330
25
100
AcDbEntity
  8
YKK_ZWAK
  6
Continuous
 62
   254
100
AcDbCircle
 10
568.28604917
 20
28.29398617
 30
0.0
 40
1.544618833868573
100
AcDbArc
 50
0.00166292
 51
89.99603715
  0
ARC
  5
8A
330
25
100
AcDbEntity
  8
YKK_ZWAK
  6
Continuous
 62
   254
100
AcDbCircle
 10
559.98514917
 20
28.23604217
 30
0.0
 40
1.544618833868573
100
AcDbArc
 50
0.00166292
 51
89.99603715
  0
LINE
  5
8B
330
25
100
AcDbEntity
  8
YKK_ZWAK
  6
Continuous
 62
   254
100
AcDbLine
 10
562.553028
 20
24.625712
 30
0.0
 11
562.553028
 21
33.487594
 31
0.0
  0
LINE
  5
8C
330
25
100
AcDbEntity
  8
YKK_ZWAK
  6
Continuous
 62
   254
100
AcDbLine
 10
554.328297
 20
24.548527
 30
0.0
 11
554.328297
 21
33.410366
 31
0.0
  0
LINE
  5
8D
330
25
100
AcDbEntity
  8
YKK_ZWAK
  6
Continuous
 62
   254
100
AcDbLine
 10
564.985674
 20
24.625712
 30
0.0
 11
562.553028
 21
24.625712
 31
0.0
  0
LINE
  5
8E
330
25
100
AcDbEntity
  8
YKK_ZWAK
  6
Continuous
 62
   254
100
AcDbLine
 10
567.302491
 20
23.216355
 30
0.0
 11
559.019868
 21
23.216355
 31
0.0
  0
LINE
  5
8F
330
25
100
AcDbEntity
  8
YKK_ZWAK
  6
Continuous
 62
   254
100
AcDbLine
 10
563.479759
 20
13.196086
 30
0.0
 11
567.283206
 21
13.196086
 31
0.0
  0
LINE
  5
90
330
25
100
AcDbEntity
  8
YKK_ZWAK
  6
Continuous
 62
   254
100
AcDbLine
 10
566.008932
 20
16.150017
 30
0.0
 11
563.479759
 21
16.150017
 31
0.0
  0
LINE
  5
91
330
25
100
AcDbEntity
  8
YKK_ZWAK
  6
Continuous
 62
   254
100
AcDbLine
 10
562.610947
 20
20.243049
 30
0.0
 11
565.931704
 21
20.243049
 31
0.0
  0
ARC
  5
92
330
25
100
AcDbEntity
  8
YKK_ZWAK
  6
Continuous
 62
   254
100
AcDbCircle
 10
554.22066
 20
20.08146332
 30
0.0
 40
3.294016994121146
100
AcDbArc
 50
358.78059045
 51
38.76562608
  0
ARC
  5
93
330
25
100
AcDbEntity
  8
YKK_ZWAK
  6
Continuous
 62
   254
100
AcDbCircle
 10
552.89717617
 20
19.17519964
 30
0.0
 40
1.16048018439929
100
AcDbArc
 50
14.7551995
 51
72.44994796
  0
LINE
  5
94
330
25
100
AcDbEntity
  8
YKK_ZWAK
  6
Continuous
 62
   254
100
AcDbLine
 10
553.054042
 20
17.617318
 30
0.0
 11
553.054042
 21
15.04953
 31
0.0
  0
LINE
  5
95
330
25
100
AcDbEntity
  8
YKK_ZWAK
  6
Continuous
 62
   254
100
AcDbLine
 10
552.552059
 20
17.733161
 30
0.0
 11
553.054042
 21
17.617318
 31
0.0
  0
LINE
  5
96
330
25
100
AcDbEntity
  8
YKK_ZWAK
  6
Continuous
 62
   254
100
AcDbLine
 10
563.479759
 20
16.150017
 30
0.0
 11
563.479759
 21
13.196086
 31
0.0
  0
LINE
  5
97
330
25
100
AcDbEntity
  8
YKK_ZWAK
  6
Continuous
 62
   254
100
AcDbLine
 10
558.981248
 20
27.869273
 30
0.0
 11
556.703043
 21
27.869273
 31
0.0
  0
ARC
  5
98
330
25
100
AcDbEntity
  8
YKK_ZWAK
  6
Continuous
 62
   254
100
AcDbCircle
 10
554.37879626
 20
20.07343796
 30
0.0
 40
3.177485297559325
100
AcDbArc
 50
40.66422291
 51
80.31693569
  0
LINE
  5
99
330
25
100
AcDbEntity
  8
YKK_ZWAK
  6
Continuous
 62
   254
100
AcDbLine
 10
556.703043
 20
24.548527
 30
0.0
 11
554.328297
 21
24.548527
 31
0.0
  0
LINE
  5
9A
330
25
100
AcDbEntity
  8
YKK_ZWAK
  6
Continuous
 62
   254
100
AcDbLine
 10
556.703043
 20
27.869273
 30
0.0
 11
556.703043
 21
24.548527
 31
0.0
  0
LINE
  5
9B
330
25
100
AcDbEntity
  8
YKK_ZWAK
  6
Continuous
 62
   254
100
AcDbLine
 10
561.529756
 20
28.236131
 30
0.0
 11
561.529756
 21
24.606427
 31
0.0
  0
LINE
  5
9C
330
25
100
AcDbEntity
  8
YKK_ZWAK
  6
Continuous
 62
   254
100
AcDbLine
 10
559.290171
 20
27.75343
 30
0.0
 11
558.981248
 21
27.869273
 31
0.0
  0
LINE
  5
9D
330
25
100
AcDbEntity
  8
YKK_ZWAK
  6
Continuous
 62
   254
100
AcDbLine
 10
559.290171
 20
24.606427
 30
0.0
 11
559.290171
 21
27.75343
 31
0.0
  0
LINE
  5
9E
330
25
100
AcDbEntity
  8
YKK_ZWAK
  6
Continuous
 62
   254
100
AcDbLine
 10
561.529756
 20
24.606427
 30
0.0
 11
559.290171
 21
24.606427
 31
0.0
  0
ARC
  5
9F
330
25
100
AcDbEntity
  8
YKK_ZWAK
  6
Continuous
 62
   254
100
AcDbCircle
 10
567.19412132
 20
20.11358836
 30
0.0
 40
3.10079004118515
100
AcDbArc
 50
14.44572328
 51
87.08746338
  0
ARC
  5
A0
330
25
100
AcDbEntity
  8
YKK_ZWAK
  6
Continuous
 62
   254
100
AcDbCircle
 10
564.36413966
 20
17.54165325
 30
0.0
 40
2.640498151312115
100
AcDbArc
 50
343.69020327
 51
354.7536235
  0
ARC
  5
A1
330
25
100
AcDbEntity
  8
YKK_ZWAK
  6
Continuous
 62
   254
100
AcDbCircle
 10
566.00966971
 20
17.08269286
 30
0.0
 40
0.9326761550249523
100
AcDbArc
 50
269.95468111
 51
342.90144849
  0
ARC
  5
A2
330
25
100
AcDbEntity
  8
YKK_ZWAK
  6
Continuous
 62
   254
100
AcDbCircle
 10
566.04623887
 20
19.3715952
 30
0.0
 40
0.8777839045469994
100
AcDbArc
 50
16.43123457
 51
96.91661396
  0
ARC
  5
A3
330
25
100
AcDbEntity
  8
YKK_ZWAK
  6
Continuous
 62
   254
100
AcDbCircle
 10
564.37945167
 20
18.85119468
 30
0.0
 40
2.623848066620805
100
AcDbArc
 50
4.93422741
 51
17.03551963
  0
LINE
  5
A4
330
25
100
AcDbEntity
  8
YKK_ZWAK
  6
Continuous
 62
   254
100
AcDbLine
 10
567.283206
 20
13.196086
 30
0.0
 11
568.055449
 21
13.369828
 31
0.0
  0
LINE
  5
A5
330
25
100
AcDbEntity
  8
YKK_ZWAK
  6
Continuous
 62
   254
100
AcDbLine
 10
566.980872
 20
19.173458
 30
0.0
 11
566.993576
 21
17.29190622
 31
0.0
  0
ARC
  5
A6
330
25
100
AcDbEntity
  8
YKK_ZWAK
  6
Continuous
 62
   254
100
AcDbCircle
 10
555.54697452
 20
18.15146785
 30
0.0
 40
14.90004285451682
100
AcDbArc
 50
350.99026817
 51
10.67624521
  0
LINE
  5
A7
330
25
100
AcDbEntity
  8
YKK_ZWAK
  6
Continuous
 62
   254
100
AcDbLine
 10
569.831709
 20
24.645041
 30
0.0
 11
567.572791
 21
24.645041
 31
0.0
  0
LINE
  5
A8
330
25
100
AcDbEntity
  8
YKK_ZWAK
  6
Continuous
 62
   254
100
AcDbLine
 10
567.572791
 20
27.772759
 30
0.0
 11
567.263877
 21
27.888602
 31
0.0
  0
LINE
  5
A9
330
25
100
AcDbEntity
  8
YKK_ZWAK
  6
Continuous
 62
   254
100
AcDbLine
 10
567.263877
 20
27.888602
 30
0.0
 11
564.985674
 21
27.888602
 31
0.0
  0
LINE
  5
AA
330
25
100
AcDbEntity
  8
YKK_ZWAK
  6
Continuous
 62
   254
100
AcDbLine
 10
564.985674
 20
27.888602
 30
0.0
 11
564.985674
 21
24.625712
 31
0.0
  0
LINE
  5
AB
330
25
100
AcDbEntity
  8
YKK_ZWAK
  6
Continuous
 62
   254
100
AcDbLine
 10
567.572791
 20
24.645041
 30
0.0
 11
567.572791
 21
27.772759
 31
0.0
  0
LINE
  5
AC
330
25
100
AcDbEntity
  8
YKK_ZWAK
  6
Continuous
 62
   254
100
AcDbLine
 10
567.572791
 20
24.681182
 30
0.0
 11
567.608933
 21
24.645041
 31
0.0
  0
LINE
  5
AD
330
25
100
AcDbEntity
  8
YKK_ZWAK
  6
Continuous
 62
   254
100
AcDbLine
 10
569.831709
 20
28.236131
 30
0.0
 11
569.831709
 21
24.645041
 31
0.0
  0
LINE
  5
AE
330
25
100
AcDbEntity
  8
YKK_ZWAK
  6
Continuous
 62
   254
100
AcDbLine
 10
562.553028
 20
33.487594
 30
0.0
 11
564.889116
 21
33.487594
 31
0.0
  0
LINE
  5
AF
330
25
100
AcDbEntity
  8
YKK_ZWAK
  6
Continuous
 62
   254
100
AcDbLine
 10
556.625823
 20
29.768591
 30
0.0
 11
559.03917
 21
33.44898
 31
0.0
  0
LINE
  5
B0
330
25
100
AcDbEntity
  8
YKK_ZWAK
  6
Continuous
 62
   254
100
AcDbLine
 10
556.625823
 20
33.410366
 30
0.0
 11
556.625823
 21
29.768591
 31
0.0
  0
LINE
  5
B1
330
25
100
AcDbEntity
  8
YKK_ZWAK
  6
Continuous
 62
   254
100
AcDbLine
 10
554.328297
 20
33.410366
 30
0.0
 11
556.625823
 21
33.410366
 31
0.0
  0
LINE
  5
B2
330
25
100
AcDbEntity
  8
YKK_ZWAK
  6
Continuous
 62
   254
100
AcDbLine
 10
559.985256
 20
29.780661
 30
0.0
 11
559.242942
 21
29.780661
 31
0.0
  0
LINE
  5
B3
330
25
100
AcDbEntity
  8
YKK_ZWAK
  6
Continuous
 62
   254
100
AcDbLine
 10
561.771363
 20
33.44898
 30
0.0
 11
559.242942
 21
29.780661
 31
0.0
  0
LINE
  5
B4
330
25
100
AcDbEntity
  8
YKK_ZWAK
  6
Continuous
 62
   254
100
AcDbLine
 10
559.03917
 20
33.44898
 30
0.0
 11
561.771363
 21
33.44898
 31
0.0
  0
LINE
  5
B5
330
25
100
AcDbEntity
  8
YKK_ZWAK
  6
Continuous
 62
   254
100
AcDbLine
 10
569.773765
 20
33.024222
 30
0.0
 11
567.543842
 21
29.838605
 31
0.0
  0
LINE
  5
B6
330
25
100
AcDbEntity
  8
YKK_ZWAK
  6
Continuous
 62
   254
100
AcDbLine
 10
567.341105
 20
33.487594
 30
0.0
 11
570.044065
 21
33.487594
 31
0.0
  0
LINE
  5
B7
330
25
100
AcDbEntity
  8
YKK_ZWAK
  6
Continuous
 62
   254
100
AcDbLine
 10
568.286156
 20
29.838605
 30
0.0
 11
567.543842
 21
29.838605
 31
0.0
  0
LINE
  5
B8
330
25
100
AcDbEntity
  8
YKK_ZWAK
  6
Continuous
 62
   254
100
AcDbLine
 10
564.889116
 20
29.779236
 30
0.0
 11
567.341105
 21
33.487594
 31
0.0
  0
LINE
  5
B9
330
25
100
AcDbEntity
  8
YKK_ZWAK
  6
Continuous
 62
   254
100
AcDbLine
 10
564.889116
 20
33.487594
 30
0.0
 11
564.889116
 21
29.779236
 31
0.0
  0
LINE
  5
BA
330
25
100
AcDbEntity
  8
YKK_ZWAK
  6
Continuous
 62
   254
100
AcDbLine
 10
570.044065
 20
33.487594
 30
0.0
 11
569.773765
 21
33.024222
 31
0.0
  0
LINE
  5
BB
330
25
100
AcDbEntity
  8
YKK_ZWAK
  6
Continuous
 62
     8
100
AcDbLine
 10
573.126014
 20
168.559504
 30
0.0
 11
585.726014
 21
168.559504
 31
0.0
  0
LINE
  5
BC
330
25
100
AcDbEntity
  8
YKK_ZWAK
  6
Continuous
 62
     8
100
AcDbLine
 10
573.126014
 20
154.419504
 30
0.0
 11
585.726014
 21
154.419504
 31
0.0
  0
LINE
  5
BD
330
25
100
AcDbEntity
  8
YKK_ZWAK
  6
Continuous
 62
     8
100
AcDbLine
 10
573.126014
 20
140.279503
 30
0.0
 11
585.726014
 21
140.279503
 31
0.0
  0
LINE
  5
BE
330
25
100
AcDbEntity
  8
YKK_ZWAK
  6
Continuous
 62
     8
100
AcDbLine
 10
573.126014
 20
126.139503
 30
0.0
 11
585.726014
 21
126.139503
 31
0.0
  0
LINE
  5
BF
330
25
100
AcDbEntity
  8
YKK_ZWAK
  6
Continuous
 62
     8
100
AcDbLine
 10
573.126014
 20
111.999503
 30
0.0
 11
585.726014
 21
111.999503
 31
0.0
  0
LINE
  5
C0
330
25
100
AcDbEntity
  8
YKK_ZWAK
  6
Continuous
 62
     8
100
AcDbLine
 10
573.126014
 20
97.859502
 30
0.0
 11
585.726014
 21
97.859502
 31
0.0
  0
LINE
  5
C1
330
25
100
AcDbEntity
  8
YKK_ZWAK
  6
Continuous
 62
     8
100
AcDbLine
 10
573.126014
 20
83.719502
 30
0.0
 11
585.726014
 21
83.719502
 31
0.0
  0
CIRCLE
  5
C2
330
25
100
AcDbEntity
  8
YKK_ZWAK
  6
Continuous
 62
     8
100
AcDbCircle
 10
579.426014
 20
168.559504
 30
0.0
 40
6.299999999999999
  0
CIRCLE
  5
C3
330
25
100
AcDbEntity
  8
YKK_ZWAK
  6
Continuous
 62
     8
100
AcDbCircle
 10
579.426014
 20
140.279503
 30
0.0
 40
6.299999999999999
  0
CIRCLE
  5
C4
330
25
100
AcDbEntity
  8
YKK_ZWAK
  6
Continuous
 62
     8
100
AcDbCircle
 10
579.426014
 20
111.999503
 30
0.0
 40
6.299999999999999
  0
CIRCLE
  5
C5
330
25
100
AcDbEntity
  8
YKK_ZWAK
  6
Continuous
 62
     8
100
AcDbCircle
 10
579.426014
 20
154.419504
 30
0.0
 40
6.299999999999999
  0
CIRCLE
  5
C6
330
25
100
AcDbEntity
  8
YKK_ZWAK
  6
Continuous
 62
     8
100
AcDbCircle
 10
579.426014
 20
126.139503
 30
0.0
 40
6.299999999999999
  0
CIRCLE
  5
C7
330
25
100
AcDbEntity
  8
YKK_ZWAK
  6
Continuous
 62
     8
100
AcDbCircle
 10
579.426014
 20
97.859502
 30
0.0
 40
6.299999999999999
  0
LINE
  5
C8
330
25
100
AcDbEntity
  8
YKK_ZWAK
  6
Continuous
 62
   254
100
AcDbLine
 10
571.000014
 20
222.4995055
 30
0.0
 11
573.000014
 21
222.4995055
 31
0.0
  0
TEXT
  5
C9
330
25
100
AcDbEntity
  8
YKK_ZWAK
  6
Continuous
 62
   131
100
AcDbText
 10
408.18209354
 20
9.752325
 30
0.0
 40
3.5
  1
 ． ．
 41
0.9
  7
YKK_OSSTYLE1
100
AcDbText
  0
TEXT
  5
CA
330
25
100
AcDbEntity
  8
YKK_ZWAK
  6
Continuous
 62
   131
100
AcDbText
 10
424.18209354
 20
9.752325
 30
0.0
 40
3.5
  1
 ． ．
 41
0.9
  7
YKK_OSSTYLE1
100
AcDbText
  0
LINE
  5
CB
330
25
100
AcDbEntity
  8
YKK_ZWAK
  6
Continuous
 62
   131
100
AcDbLine
 10
459.1999862
 20
10.4995
 30
0.0
 11
459.1999862
 21
8.9995
 31
0.0
  0
LINE
  5
CC
330
25
100
AcDbEntity
  8
YKK_ZWAK
  6
Continuous
 62
   131
100
AcDbLine
 10
462.7999738
 20
10.4995
 30
0.0
 11
462.7999738
 21
8.9995
 31
0.0
  0
LINE
  5
CD
330
25
100
AcDbEntity
  8
YKK_ZWAK
  6
Continuous
 62
   131
100
AcDbLine
 10
466.3999614
 20
10.4995
 30
0.0
 11
466.3999614
 21
8.9995
 31
0.0
  0
LINE
  5
CE
330
25
100
AcDbEntity
  8
YKK_ZWAK
  6
Continuous
 62
   131
100
AcDbLine
 10
469.999949
 20
10.4995
 30
0.0
 11
469.999949
 21
8.9995
 31
0.0
  0
LINE
  5
CF
330
25
100
AcDbEntity
  8
YKK_ZWAK
  6
Continuous
 62
   131
100
AcDbLine
 10
473.5999366
 20
10.4995
 30
0.0
 11
473.5999366
 21
8.9995
 31
0.0
  0
LINE
  5
D0
330
25
100
AcDbEntity
  8
YKK_ZWAK
  6
Continuous
 62
   131
100
AcDbLine
 10
477.1999242
 20
10.4995
 30
0.0
 11
477.1999242
 21
8.9995
 31
0.0
  0
LINE
  5
D1
330
25
100
AcDbEntity
  8
YKK_ZWAK
  6
Continuous
 62
   131
100
AcDbLine
 10
480.7999118
 20
10.4995
 30
0.0
 11
480.7999118
 21
8.9995
 31
0.0
  0
LINE
  5
D2
330
25
100
AcDbEntity
  8
YKK_ZWAK
  6
Continuous
 62
   131
100
AcDbLine
 10
484.3998994
 20
10.4995
 30
0.0
 11
484.3998994
 21
8.9995
 31
0.0
  0
LINE
  5
D3
330
25
100
AcDbEntity
  8
YKK_ZWAK
  6
Continuous
 62
   131
100
AcDbLine
 10
487.999887
 20
10.4995
 30
0.0
 11
487.999887
 21
8.9995
 31
0.0
  0
LINE
  5
D4
330
25
100
AcDbEntity
  8
YKK_ZWAK
  6
Continuous
 62
   131
100
AcDbLine
 10
491.5998746
 20
10.4995
 30
0.0
 11
491.5998746
 21
8.9995
 31
0.0
  0
LINE
  5
D5
330
25
100
AcDbEntity
  8
YKK_ZWAK
  6
Continuous
 62
   131
100
AcDbLine
 10
495.1998622
 20
10.4995
 30
0.0
 11
495.1998622
 21
8.9995
 31
0.0
  0
LINE
  5
D6
330
25
100
AcDbEntity
  8
YKK_ZWAK
  6
Continuous
 62
   131
100
AcDbLine
 10
498.7998498
 20
10.4995
 30
0.0
 11
498.7998498
 21
8.9995
 31
0.0
  0
LINE
  5
D7
330
25
100
AcDbEntity
  8
YKK_ZWAK
  6
Continuous
 62
   131
100
AcDbLine
 10
502.3998374
 20
10.4995
 30
0.0
 11
502.3998374
 21
8.9995
 31
0.0
  0
LINE
  5
D8
330
25
100
AcDbEntity
  8
YKK_ZWAK
  6
Continuous
 62
   131
100
AcDbLine
 10
505.999825
 20
10.4995
 30
0.0
 11
505.999825
 21
8.9995
 31
0.0
  0
LINE
  5
D9
330
25
100
AcDbEntity
  8
YKK_ZWAK
  6
Continuous
 62
   131
100
AcDbLine
 10
509.5998126
 20
10.4995
 30
0.0
 11
509.5998126
 21
8.9995
 31
0.0
  0
LINE
  5
DA
330
25
100
AcDbEntity
  8
YKK_ZWAK
  6
Continuous
 62
   131
100
AcDbLine
 10
513.1998002
 20
10.4995
 30
0.0
 11
513.1998002
 21
8.9995
 31
0.0
  0
LINE
  5
DB
330
25
100
AcDbEntity
  8
YKK_ZWAK
  6
Continuous
 62
   131
100
AcDbLine
 10
516.7997878
 20
10.4995
 30
0.0
 11
516.7997878
 21
8.9995
 31
0.0
  0
LINE
  5
DC
330
25
100
AcDbEntity
  8
YKK_ZWAK
  6
Continuous
 62
   131
100
AcDbLine
 10
520.3997754
 20
10.4995
 30
0.0
 11
520.3997754
 21
8.9995
 31
0.0
  0
ENDBLK
  5
DE
330
25
100
AcDbEntity
  8
0
100
AcDbBlockEnd
  0
ENDSEC
  0
SECTION
  2
ENTITIES
  0
INSERT
  5
23
330
2
100
AcDbEntity
  8
YKK_ZWAK
100
AcDbBlockReference
  2
A201
 10
-38.000002
 20
-17.999
 30
0.0
 41
2.0
 42
2.0
 43
2.0
  0
TEXT
  5
DF
330
2
100
AcDbEntity
  8
USER1
 62
     3
100
AcDbText
 10
639.11007471
 20
1.96476986
 30
0.0
 40
6.0
  1
たて骨
 72
     1
 11
649.11007471
 21
4.96476986
 31
0.0
100
AcDbText
 73
     2
  0
TEXT
  5
E1
330
2
100
AcDbEntity
  8
USER1
 62
     3
100
AcDbText
 10
624.39578899
 20
10.78695004
 30
0.0
 40
6.0
  1
EXIMA31Wb
 72
     1
 11
649.11007471
 21
13.78695004
 31
0.0
100
AcDbText
 73
     2
  0
TEXT
  5
E3
330
2
100
AcDbEntity
  8
USER1
 62
     3
100
AcDbText
 10
839.999998
 20
30.001
 30
0.0
 40
8.0
  1
1
100
AcDbText
  0
TEXT
  5
E4
330
2
100
AcDbEntity
  8
USER1
 62
     3
100
AcDbText
 10
850.76190276
 20
22.001
 30
0.0
 40
8.0
  1
1
 72
     1
 11
853.999998
 21
26.001
 31
0.0
100
AcDbText
 73
     2
  0
LINE
  5
E6E
330
2
100
AcDbEntity
  8
YKK_D
100
AcDbLine
 10
256.89984386
 20
603.43541102
 30
0.0
 11
256.89984386
 21
585.43541102
 31
0.0
  0
LINE
  5
E6F
330
2
100
AcDbEntity
  8
YKK_D
100
AcDbLine
 10
229.89983165
 20
586.43541102
 30
0.0
 11
256.89984386
 21
586.43541102
 31
0.0
  0
LWPOLYLINE
  5
E70
330
2
100
AcDbEntity
  8
YKK_D
  6
ByBlock
100
AcDbPolyline
 90
        2
 70
     1
 43
0.85
 10
230.00608165
 20
586.43541102
 42
1.0
 10
229.79358165
 20
586.43541102
 42
1.0
  0
LWPOLYLINE
  5
E71
330
2
100
AcDbEntity
  8
YKK_D
  6
ByBlock
100
AcDbPolyline
 90
        2
 70
     1
 43
0.85
 10
256.79359386
 20
586.43541102
 42
1.0
 10
257.00609386
 20
586.43541102
 42
1.0
  0
TEXT
  5
E72
330
2
100
AcDbEntity
  8
YKK_D
100
AcDbText
 10
239.87983775
 20
587.43541102
 30
0.0
 40
6.0
  1
27
100
AcDbText
1001
ACAD
1000
MTEXTBEGIN
1070
    73
1070
     1
1070
    44
1040
1.0
1070
    74
1070
     0
1000
MTEXTEND
  0
LINE
  5
E73
330
2
100
AcDbEntity
  8
YKK_D
100
AcDbLine
 10
182.89981944
 20
603.43541102
 30
0.0
 11
182.89981944
 21
585.43541102
 31
0.0
  0
LINE
  5
E74
330
2
100
AcDbEntity
  8
YKK_D
100
AcDbLine
 10
209.89983165
 20
586.43541102
 30
0.0
 11
182.89981944
 21
586.43541102
 31
0.0
  0
LWPOLYLINE
  5
E75
330
2
100
AcDbEntity
  8
YKK_D
  6
ByBlock
100
AcDbPolyline
 90
        2
 70
     1
 43
0.85
 10
209.79358165
 20
586.43541102
 42
1.0
 10
210.00608165
 20
586.43541102
 42
1.0
  0
LWPOLYLINE
  5
E76
330
2
100
AcDbEntity
  8
YKK_D
  6
ByBlock
100
AcDbPolyline
 90
        2
 70
     1
 43
0.85
 10
183.00606944
 20
586.43541102
 42
1.0
 10
182.79356944
 20
586.43541102
 42
1.0
  0
TEXT
  5
E77
330
2
100
AcDbEntity
  8
YKK_D
100
AcDbText
 10
192.87982555
 20
587.43541102
 30
0.0
 40
6.0
  1
27
100
AcDbText
1001
ACAD
1000
MTEXTBEGIN
1070
    73
1070
     1
1070
    44
1040
1.0
1070
    74
1070
     0
1000
MTEXTEND
  0
LINE
  5
E78
330
2
100
AcDbEntity
  8
YKK_D
100
AcDbLine
 10
209.89983165
 20
603.43541102
 30
0.0
 11
209.89983165
 21
565.43541102
 31
0.0
  0
LINE
  5
E79
330
2
100
AcDbEntity
  8
YKK_D
100
AcDbLine
 10
229.89983165
 20
603.43541102
 30
0.0
 11
229.89983165
 21
565.43541102
 31
0.0
  0
LINE
  5
E7A
330
2
100
AcDbEntity
  8
YKK_D
100
AcDbLine
 10
209.89983165
 20
566.43541102
 30
0.0
 11
229.89983165
 21
566.43541102
 31
0.0
  0
TEXT
  5
E7B
330
2
100
AcDbEntity
  8
YKK_D
100
AcDbText
 10
216.37983165
 20
567.43541102
 30
0.0
 40
6.0
  1
20
100
AcDbText
1001
ACAD
1000
MTEXTBEGIN
1070
    73
1070
     1
1070
    44
1040
1.0
1070
    74
1070
     0
1000
MTEXTEND
  0
LINE
  5
E7C
330
2
100
AcDbEntity
  8
YKK_D
100
AcDbLine
 10
229.89983165
 20
603.43541102
 30
0.0
 11
229.89983165
 21
565.43541102
 31
0.0
  0
LINE
  5
E7D
330
2
100
AcDbEntity
  8
YKK_D
100
AcDbLine
 10
234.89983165
 20
566.43541102
 30
0.0
 11
286.89983164
 21
566.43541102
 31
0.0
  0
LINE
  5
E7E
330
2
100
AcDbEntity
  8
YKK_D
370
    -2
100
AcDbLine
 10
229.89983165
 20
566.43541102
 30
0.0
 11
234.22995867
 21
563.93541102
 31
0.0
  0
LINE
  5
E7F
330
2
100
AcDbEntity
  8
YKK_D
370
    -2
100
AcDbLine
 10
229.89983165
 20
566.43541102
 30
0.0
 11
234.22995867
 21
568.93541102
 31
0.0
  0
LINE
  5
E80
330
2
100
AcDbEntity
  8
YKK_D
370
    -2
100
AcDbLine
 10
234.22995867
 20
563.93541102
 30
0.0
 11
234.22995867
 21
568.93541102
 31
0.0
  0
LINE
  5
E81
330
2
100
AcDbEntity
  8
YKK_D
370
    -2
100
AcDbLine
 10
229.89983165
 20
566.43541102
 30
0.0
 11
238.56008569
 21
566.43541102
 31
0.0
  0
TEXT
  5
E82
330
2
100
AcDbEntity
  8
YKK_D
100
AcDbText
 10
257.37983164
 20
567.23541102
 30
0.0
 40
6.0
  1
W2
100
AcDbText
1001
ACAD
1000
MTEXTBEGIN
1070
    73
1070
     1
1070
    44
1040
1.0
1070
    74
1070
     0
1000
MTEXTEND
  0
LINE
  5
E83
330
2
100
AcDbEntity
  8
YKK_D
100
AcDbLine
 10
209.89983165
 20
603.43541102
 30
0.0
 11
209.89983165
 21
565.43541102
 31
0.0
  0
LINE
  5
E84
330
2
100
AcDbEntity
  8
YKK_D
100
AcDbLine
 10
204.89983165
 20
566.43541102
 30
0.0
 11
152.89981945
 21
566.43541102
 31
0.0
  0
LINE
  5
E85
330
2
100
AcDbEntity
  8
YKK_D
370
    -2
100
AcDbLine
 10
209.89983165
 20
566.43541102
 30
0.0
 11
205.56970463
 21
568.93541102
 31
0.0
  0
LINE
  5
E86
330
2
100
AcDbEntity
  8
YKK_D
370
    -2
100
AcDbLine
 10
209.89983165
 20
566.43541102
 30
0.0
 11
205.56970463
 21
563.93541102
 31
0.0
  0
LINE
  5
E87
330
2
100
AcDbEntity
  8
YKK_D
370
    -2
100
AcDbLine
 10
205.56970463
 20
568.93541102
 30
0.0
 11
205.56970463
 21
563.93541102
 31
0.0
  0
LINE
  5
E88
330
2
100
AcDbEntity
  8
YKK_D
370
    -2
100
AcDbLine
 10
209.89983165
 20
566.43541102
 30
0.0
 11
201.23957761
 21
566.43541102
 31
0.0
  0
TEXT
  5
E89
330
2
100
AcDbEntity
  8
YKK_D
100
AcDbText
 10
175.37982555
 20
567.23541102
 30
0.0
 40
6.0
  1
W1
100
AcDbText
1001
ACAD
1000
MTEXTBEGIN
1070
    73
1070
     1
1070
    44
1040
1.0
1070
    74
1070
     0
1000
MTEXTEND
  0
LINE
  5
E8A
330
2
100
AcDbEntity
  8
YKK_12
100
AcDbLine
 10
183.39981944
 20
667.63541102
 30
0.0
 11
152.89981945
 21
667.63541102
 31
0.0
1001
YALIB
1000
YALIB1603
1000
 L=131 t1=6.8 t2=5 A=12 ta1=1 ta2= 1 SDFLG="1" AFLG1="1" AFLG2="0" MFLG="0" HFLG="0"  
  0
LINE
  5
E8B
330
2
100
AcDbEntity
  8
YKK_12
100
AcDbLine
 10
183.19981944
 20
632.63541101
 30
0.0
 11
152.89981945
 21
632.63541101
 31
0.0
1001
YALIB
1000
YALIB1603
1000
 L=131 t1=6.8 t2=5 A=12 ta1=1 ta2= 1 SDFLG="1" AFLG1="1" AFLG2="0" MFLG="0" HFLG="0"  
  0
LINE
  5
E8C
330
2
100
AcDbEntity
  8
YKK_12
100
AcDbLine
 10
286.89983164
 20
608.06541102
 30
0.0
 11
152.89981945
 21
608.06541102
 31
0.0
1001
YALIB
1000
YALIB1603
1000
 L=131 t1=6.8 t2=5 A=12 ta1=1 ta2= 1 SDFLG="1" AFLG1="1" AFLG2="0" MFLG="0" HFLG="0"  
  0
LINE
  5
E8D
330
2
100
AcDbEntity
  8
YKK_12
100
AcDbLine
 10
286.89983164
 20
672.23541102
 30
0.0
 11
152.89981945
 21
672.23541102
 31
0.0
1001
YALIB
1000
YALIB1603
1000
 L=131 t1=6.8 t2=5 A=12 ta1=1 ta2= 1 SDFLG="1" AFLG1="1" AFLG2="0" MFLG="0" HFLG="0"  
  0
LINE
  5
E8E
330
2
100
AcDbEntity
  8
YKK_12
100
AcDbLine
 10
256.39984386
 20
667.63541102
 30
0.0
 11
286.89983164
 21
667.63541102
 31
0.0
1001
YALIB
1000
YALIB1603
1000
 L=131 t1=6.8 t2=5 A=12 ta1=1 ta2= 1 SDFLG="1" AFLG1="1" AFLG2="0" MFLG="0" HFLG="0"  
  0
LINE
  5
E8F
330
2
100
AcDbEntity
  8
YKK_12
100
AcDbLine
 10
286.89983164
 20
676.43541102
 30
0.0
 11
152.89981945
 21
676.43541102
 31
0.0
1001
YALIB
1000
YALIB1603
1000
 L=131 t1=6.8 t2=5 A=12 ta1=1 ta2= 1 SDFLG="1" AFLG1="1" AFLG2="0" MFLG="0" HFLG="0"  
  0
LINE
  5
E90
330
2
100
AcDbEntity
  8
YKK_12
100
AcDbLine
 10
286.89983164
 20
606.43541102
 30
0.0
 11
152.89981945
 21
606.43541102
 31
0.0
1001
YALIB
1000
YALIB1603
1000
 L=131 t1=6.8 t2=5 A=12 ta1=1 ta2= 1 SDFLG="1" AFLG1="1" AFLG2="0" MFLG="0" HFLG="0"  
  0
LINE
  5
E91
330
2
100
AcDbEntity
  8
YKK_12
100
AcDbLine
 10
256.59984386
 20
632.63541101
 30
0.0
 11
286.89983164
 21
632.63541101
 31
0.0
1001
YALIB
1000
YALIB1603
1000
 L=131 t1=6.8 t2=5 A=12 ta1=1 ta2= 1 SDFLG="1" AFLG1="1" AFLG2="0" MFLG="0" HFLG="0"  
  0
LINE
  5
167B
330
2
100
AcDbEntity
  8
YKK_12
 48
1.5
100
AcDbLine
 10
241.90027707
 20
638.13540574
 30
0.0
 11
286.89984385
 21
638.1354068
 31
0.0
1001
YALIB
1000
YALIB1603
1000
 L=169 t1=6.8 t2=6 A=6 ta1=1 ta2= 1 SDFLG="0" AFLG1="1" AFLG2="0" MFLG="0" HFLG="1"  
  0
LINE
  5
167C
330
2
100
AcDbEntity
  8
YKK_12
 48
1.5
100
AcDbLine
 10
286.89984385
 20
644.1354068
 30
0.0
 11
241.90027682
 21
644.13540574
 31
0.0
1001
YALIB
1000
YALIB1603
1000
 L=169 t1=6.8 t2=6 A=6 ta1=1 ta2= 1 SDFLG="0" AFLG1="1" AFLG2="0" MFLG="0" HFLG="1"  
  0
LINE
  5
167D
330
2
100
AcDbEntity
  8
YKK_12
 48
1.5
100
AcDbLine
 10
241.90027682
 20
644.13540574
 30
0.0
 11
241.90027704
 21
638.13540574
 31
0.0
1001
YALIB
1000
YALIB1603
1000
 L=169 t1=6.8 t2=6 A=6 ta1=1 ta2= 1 SDFLG="0" AFLG1="1" AFLG2="0" MFLG="0" HFLG="1"  
  0
LINE
  5
167E
330
2
100
AcDbEntity
  8
YKK_12
 48
1.5
100
AcDbLine
 10
286.89984385
 20
639.1354068
 30
0.0
 11
241.90027703
 21
639.13540574
 31
0.0
1001
YALIB
1000
YALIB1603
1000
 L=169 t1=6.8 t2=6 A=6 ta1=1 ta2= 1 SDFLG="0" AFLG1="1" AFLG2="0" MFLG="0" HFLG="1"  
  0
LINE
  5
167F
330
2
100
AcDbEntity
  8
YKK_12
 48
1.5
100
AcDbLine
 10
241.90027686
 20
643.13540574
 30
0.0
 11
286.89984385
 21
643.1354068
 31
0.0
1001
YALIB
1000
YALIB1603
1000
 L=169 t1=6.8 t2=6 A=6 ta1=1 ta2= 1 SDFLG="0" AFLG1="1" AFLG2="0" MFLG="0" HFLG="1"  
  0
LINE
  5
1680
330
2
100
AcDbEntity
  8
YKK_12
 48
1.5
100
AcDbLine
 10
241.9002766
 20
656.13540574
 30
0.0
 11
286.89984385
 21
656.1354068
 31
0.0
1001
YALIB
1000
YALIB1603
1000
 L=169 t1=6.8 t2=6 A=6 ta1=1 ta2= 1 SDFLG="0" AFLG1="1" AFLG2="0" MFLG="0" HFLG="1"  
  0
LINE
  5
1681
330
2
100
AcDbEntity
  8
YKK_12
 48
1.5
100
AcDbLine
 10
286.89984385
 20
662.1354068
 30
0.0
 11
241.90027637
 21
662.13540574
 31
0.0
1001
YALIB
1000
YALIB1603
1000
 L=169 t1=6.8 t2=6 A=6 ta1=1 ta2= 1 SDFLG="0" AFLG1="1" AFLG2="0" MFLG="0" HFLG="1"  
  0
LINE
  5
1682
330
2
100
AcDbEntity
  8
YKK_12
 48
1.5
100
AcDbLine
 10
241.90027637
 20
662.13540574
 30
0.0
 11
241.9002766
 21
656.13540574
 31
0.0
1001
YALIB
1000
YALIB1603
1000
 L=169 t1=6.8 t2=6 A=6 ta1=1 ta2= 1 SDFLG="0" AFLG1="1" AFLG2="0" MFLG="0" HFLG="1"  
  0
LINE
  5
1683
330
2
100
AcDbEntity
  8
YKK_12
 48
1.5
100
AcDbLine
 10
286.89984385
 20
657.1354068
 30
0.0
 11
241.90027656
 21
657.13540574
 31
0.0
1001
YALIB
1000
YALIB1603
1000
 L=169 t1=6.8 t2=6 A=6 ta1=1 ta2= 1 SDFLG="0" AFLG1="1" AFLG2="0" MFLG="0" HFLG="1"  
  0
LINE
  5
1684
330
2
100
AcDbEntity
  8
YKK_12
 48
1.5
100
AcDbLine
 10
241.90027641
 20
661.13540574
 30
0.0
 11
286.89984385
 21
661.1354068
 31
0.0
1001
YALIB
1000
YALIB1603
1000
 L=169 t1=6.8 t2=6 A=6 ta1=1 ta2= 1 SDFLG="0" AFLG1="1" AFLG2="0" MFLG="0" HFLG="1"  
  0
LINE
  5
1685
330
2
100
AcDbEntity
  8
YKK_12
 48
1.5
100
AcDbLine
 10
241.90027682
 20
644.13540574
 30
0.0
 11
241.9002766
 21
656.13540574
 31
0.0
1001
YALIB
1000
YALIB1603
1000
 L=169 t1=6.8 t2=6 A=6 ta1=1 ta2= 1 SDFLG="0" AFLG1="1" AFLG2="0" MFLG="0" HFLG="1"  
  0
LINE
  5
1686
330
2
100
AcDbEntity
  8
YKK_12
 48
1.5
100
AcDbLine
 10
251.90027682
 20
644.13540611
 30
0.0
 11
251.9002766
 21
656.13540611
 31
0.0
1001
YALIB
1000
YALIB1603
1000
 L=169 t1=6.8 t2=6 A=6 ta1=1 ta2= 1 SDFLG="0" AFLG1="1" AFLG2="0" MFLG="0" HFLG="1"  
  0
LINE
  5
1687
330
2
100
AcDbEntity
  8
YKK_12
 48
1.5
100
AcDbLine
 10
241.90027682
 20
644.13540574
 30
0.0
 11
251.9002766
 21
656.13540611
 31
0.0
1001
YALIB
1000
YALIB1603
1000
 L=169 t1=6.8 t2=6 A=6 ta1=1 ta2= 1 SDFLG="0" AFLG1="1" AFLG2="0" MFLG="0" HFLG="1"  
  0
LINE
  5
1688
330
2
100
AcDbEntity
  8
YKK_12
 48
1.5
100
AcDbLine
 10
241.9002766
 20
656.13540574
 30
0.0
 11
251.90027682
 21
644.13540611
 31
0.0
1001
YALIB
1000
YALIB1603
1000
 L=169 t1=6.8 t2=6 A=6 ta1=1 ta2= 1 SDFLG="0" AFLG1="1" AFLG2="0" MFLG="0" HFLG="1"  
  0
LINE
  5
1689
330
2
100
AcDbEntity
  8
YKK_13
 48
1.5
100
AcDbLine
 10
258.2986969
 20
663.71855583
 30
0.0
 11
256.71554715
 21
662.13540608
 31
0.0
1001
ACAD
1010
0.0
1020
0.0
1030
0.0
  0
LINE
  5
168A
330
2
100
AcDbEntity
  8
YKK_13
 48
1.5
100
AcDbLine
 10
257.55437779
 20
665.80266385
 30
0.0
 11
253.88711996
 21
662.13540602
 31
0.0
1001
ACAD
1010
0.0
1020
0.0
1030
0.0
  0
LINE
  5
168B
330
2
100
AcDbEntity
  8
YKK_13
 48
1.5
100
AcDbLine
 10
256.55869702
 20
667.6354102
 30
0.0
 11
251.89982426
 21
662.97653744
 31
0.0
1001
ACAD
1010
0.0
1020
0.0
1030
0.0
  0
LINE
  5
168C
330
2
100
AcDbEntity
  8
YKK_13
 48
1.5
100
AcDbLine
 10
253.73026989
 20
667.6354102
 30
0.0
 11
251.89982864
 21
665.80496894
 31
0.0
1001
ACAD
1010
0.0
1020
0.0
1030
0.0
  0
LINE
  5
168D
330
2
100
AcDbEntity
  8
YKK_13
 48
1.5
100
AcDbLine
 10
252.59053184
 20
662.13540599
 30
0.0
 11
251.89982403
 21
662.8261138
 31
0.0
1001
ACAD
1010
0.0
1020
0.0
1030
0.0
  0
LINE
  5
168E
330
2
100
AcDbEntity
  8
YKK_13
 48
1.5
100
AcDbLine
 10
255.4189589
 20
662.13540605
 30
0.0
 11
251.8998284
 21
665.65453655
 31
0.0
1001
ACAD
1010
0.0
1020
0.0
1030
0.0
  0
LINE
  5
168F
330
2
100
AcDbEntity
  8
YKK_13
 48
1.5
100
AcDbLine
 10
258.24738595
 20
662.13540612
 30
0.0
 11
252.74738188
 21
667.6354102
 31
0.0
1001
ACAD
1010
0.0
1020
0.0
1030
0.0
  0
LINE
  5
1690
330
2
100
AcDbEntity
  8
YKK_13
 48
1.5
100
AcDbLine
 10
257.63538939
 20
665.57582981
 30
0.0
 11
255.575809
 21
667.6354102
 31
0.0
1001
ACAD
1010
0.0
1020
0.0
1030
0.0
  0
LINE
  5
1691
330
2
100
AcDbEntity
  8
YKK_13
 48
1.5
100
AcDbLine
 10
251.80982978
 20
667.05002473
 30
0.0
 11
251.80982972
 21
667.01541632
 31
0.0
  0
LINE
  5
1692
330
2
100
AcDbEntity
  8
YKK_13
 48
1.5
100
AcDbLine
 10
251.80982486
 20
664.18541632
 30
0.0
 11
251.80982452
 21
663.98541632
 31
0.0
  0
LINE
  5
1693
330
2
100
AcDbEntity
  8
YKK_13
 48
1.5
100
AcDbLine
 10
248.97983006
 20
667.21542117
 30
0.0
 11
248.97982972
 21
667.01542117
 31
0.0
  0
LINE
  5
1694
330
2
100
AcDbEntity
  8
YKK_13
 48
1.5
100
AcDbLine
 10
248.97982486
 20
664.18542117
 30
0.0
 11
248.97982452
 21
663.98542117
 31
0.0
  0
LINE
  5
1695
330
2
100
AcDbEntity
  8
YKK_13
 48
1.5
100
AcDbLine
 10
250.39482763
 20
665.80041875
 30
0.0
 11
250.39482729
 21
665.60041875
 31
0.0
  0
LINE
  5
1696
330
2
100
AcDbEntity
  8
YKK_13
 48
1.5
100
AcDbLine
 10
250.39482244
 20
662.77041875
 30
0.0
 11
250.39482209
 21
662.57041875
 31
0.0
  0
LINE
  5
1697
330
2
100
AcDbEntity
  8
YKK_13
 48
1.5
100
AcDbLine
 10
247.56482763
 20
665.8004236
 30
0.0
 11
247.56482729
 21
665.6004236
 31
0.0
  0
LINE
  5
1698
330
2
100
AcDbEntity
  8
YKK_13
 48
1.5
100
AcDbLine
 10
247.56482244
 20
662.7704236
 30
0.0
 11
247.56482209
 21
662.5704236
 31
0.0
  0
LINE
  5
1699
330
2
100
AcDbEntity
  8
YKK_13
 48
1.5
100
AcDbLine
 10
250.89982201
 20
662.13540748
 30
0.0
 11
247.89982201
 21
662.13541263
 31
0.0
  0
ARC
  5
169A
330
2
100
AcDbEntity
  8
YKK_13
 48
1.5
100
AcDbCircle
 10
247.89982373
 20
663.13541263
 30
0.0
 40
1.000000000001357
100
AcDbArc
 50
179.99990172
 51
269.99990172
  0
LINE
  5
169B
330
2
100
AcDbEntity
  8
YKK_13
 48
1.5
100
AcDbLine
 10
246.8998245
 20
663.1341698
 30
0.0
 11
246.89982992
 21
666.63542303
 31
0.0
  0
ARC
  5
169C
330
2
100
AcDbEntity
  8
YKK_13
 48
1.5
100
AcDbCircle
 10
247.89982992
 20
666.63542131
 30
0.0
 40
0.9999999999991974
100
AcDbArc
 50
89.99990172
 51
179.99990172
  0
LINE
  5
169D
330
2
100
AcDbEntity
  8
YKK_13
 48
1.5
100
AcDbLine
 10
247.89983164
 20
667.63542131
 30
0.0
 11
250.89983164
 21
667.63541616
 31
0.0
  0
LINE
  5
169E
330
2
100
AcDbEntity
  8
YKK_13
 48
1.5
100
AcDbLine
 10
250.89982201
 20
662.13540748
 30
0.0
 11
258.86410796
 21
662.13539382
 31
0.0
  0
LINE
  5
169F
330
2
100
AcDbEntity
  8
YKK_13
 48
1.5
100
AcDbLine
 10
258.86410356
 20
662.13540614
 30
0.0
 11
256.89983164
 21
667.63540587
 31
0.0
  0
LINE
  5
16A0
330
2
100
AcDbEntity
  8
YKK_13
 48
1.5
100
AcDbLine
 10
256.89983164
 20
667.63540587
 30
0.0
 11
250.89983164
 21
667.63541616
 31
0.0
  0
ARC
  5
16A1
330
2
100
AcDbEntity
  8
YKK_13
 48
1.5
100
AcDbCircle
 10
250.89982992
 20
666.63541616
 30
0.0
 40
1.000000000000334
100
AcDbArc
 50
359.99990172
 51
89.99990172
  0
LINE
  5
16A2
330
2
100
AcDbEntity
  8
YKK_13
 48
1.5
100
AcDbLine
 10
251.89982992
 20
666.63541445
 30
0.0
 11
251.89982373
 21
663.13540577
 31
0.0
  0
ARC
  5
16A3
330
2
100
AcDbEntity
  8
YKK_13
 48
1.5
100
AcDbCircle
 10
250.89982373
 20
663.13540748
 30
0.0
 40
0.9999999999993111
100
AcDbArc
 50
269.99990172
 51
359.99990172
  0
LINE
  5
16A4
330
2
100
AcDbEntity
  8
YKK_13
 48
1.5
100
AcDbLine
 10
253.73026989
 20
632.63540015
 30
0.0
 11
251.89982415
 21
634.46583692
 31
0.0
1001
ACAD
1010
0.0
1020
0.0
1030
0.0
  0
LINE
  5
16A5
330
2
100
AcDbEntity
  8
YKK_13
 48
1.5
100
AcDbLine
 10
256.55869702
 20
632.63540708
 30
0.0
 11
251.89981284
 21
637.29426842
 31
0.0
1001
ACAD
1010
0.0
1020
0.0
1030
0.0
  0
LINE
  5
16A6
330
2
100
AcDbEntity
  8
YKK_13
 48
1.5
100
AcDbLine
 10
257.5543733
 20
634.46815587
 30
0.0
 11
253.88710648
 21
638.13540471
 31
0.0
1001
ACAD
1010
0.0
1020
0.0
1030
0.0
  0
LINE
  5
16A7
330
2
100
AcDbEntity
  8
YKK_13
 48
1.5
100
AcDbLine
 10
258.2986873
 20
636.55226571
 30
0.0
 11
256.71553367
 21
638.13541158
 31
0.0
1001
ACAD
1010
0.0
1020
0.0
1030
0.0
  0
LINE
  5
16A8
330
2
100
AcDbEntity
  8
YKK_13
 48
1.5
100
AcDbLine
 10
257.63538434
 20
634.6949901
 30
0.0
 11
255.575809
 21
632.63540467
 31
0.0
1001
ACAD
1010
0.0
1020
0.0
1030
0.0
  0
LINE
  5
16A9
330
2
100
AcDbEntity
  8
YKK_13
 48
1.5
100
AcDbLine
 10
258.24737248
 20
638.1354153
 30
0.0
 11
252.74738188
 21
632.63539774
 31
0.0
1001
ACAD
1010
0.0
1020
0.0
1030
0.0
  0
LINE
  5
16AA
330
2
100
AcDbEntity
  8
YKK_13
 48
1.5
100
AcDbLine
 10
255.41894542
 20
638.13540843
 30
0.0
 11
251.89982355
 21
634.61626932
 31
0.0
1001
ACAD
1010
0.0
1020
0.0
1030
0.0
  0
LINE
  5
16AB
330
2
100
AcDbEntity
  8
YKK_13
 48
1.5
100
AcDbLine
 10
252.59051836
 20
638.13540157
 30
0.0
 11
251.89981224
 21
637.44469206
 31
0.0
1001
ACAD
1010
0.0
1020
0.0
1030
0.0
  0
LINE
  5
16AC
330
2
100
AcDbEntity
  8
YKK_13
 48
1.5
100
AcDbLine
 10
248.97982903
 20
633.05537753
 30
0.0
 11
248.9798282
 21
633.25537753
 31
0.0
  0
LINE
  5
16AD
330
2
100
AcDbEntity
  8
YKK_13
 48
1.5
100
AcDbLine
 10
248.97981641
 20
636.08537753
 30
0.0
 11
248.97981558
 21
636.28537753
 31
0.0
  0
LINE
  5
16AE
330
2
100
AcDbEntity
  8
YKK_13
 48
1.5
100
AcDbLine
 10
251.80982834
 20
633.22078091
 30
0.0
 11
251.8098282
 21
633.25538932
 31
0.0
  0
LINE
  5
16AF
330
2
100
AcDbEntity
  8
YKK_13
 48
1.5
100
AcDbLine
 10
251.80981641
 20
636.08538932
 30
0.0
 11
251.80981558
 21
636.28538932
 31
0.0
  0
LINE
  5
16B0
330
2
100
AcDbEntity
  8
YKK_13
 48
1.5
100
AcDbLine
 10
247.56482314
 20
634.47037164
 30
0.0
 11
247.5648223
 21
634.67037164
 31
0.0
  0
LINE
  5
16B1
330
2
100
AcDbEntity
  8
YKK_13
 48
1.5
100
AcDbLine
 10
247.56481051
 20
637.50037164
 30
0.0
 11
247.56480968
 21
637.70037164
 31
0.0
  0
LINE
  5
16B2
330
2
100
AcDbEntity
  8
YKK_13
 48
1.5
100
AcDbLine
 10
250.39482314
 20
634.47038343
 30
0.0
 11
250.3948223
 21
634.67038343
 31
0.0
  0
LINE
  5
16B3
330
2
100
AcDbEntity
  8
YKK_13
 48
1.5
100
AcDbLine
 10
250.39481051
 20
637.50038343
 30
0.0
 11
250.39480968
 21
637.70038343
 31
0.0
  0
LINE
  5
16B4
330
2
100
AcDbEntity
  8
YKK_13
 48
1.5
100
AcDbLine
 10
250.89980854
 20
638.13539593
 30
0.0
 11
247.89980854
 21
638.13538343
 31
0.0
  0
ARC
  5
16B5
330
2
100
AcDbEntity
  8
YKK_13
 48
1.5
100
AcDbCircle
 10
247.8998127
 20
637.13538343
 30
0.0
 40
1.000000000001357
100
AcDbArc
 50
90.00023869
 51
180.00023869
  0
LINE
  5
16B6
330
2
100
AcDbEntity
  8
YKK_13
 48
1.5
100
AcDbLine
 10
246.89981347
 20
637.13662381
 30
0.0
 11
246.89982747
 21
633.63537058
 31
0.0
  0
ARC
  5
16B7
330
2
100
AcDbEntity
  8
YKK_13
 48
1.5
100
AcDbCircle
 10
247.89982747
 20
633.63537475
 30
0.0
 40
0.9999999999991972
100
AcDbArc
 50
180.00023869
 51
270.00023869
  0
LINE
  5
16B8
330
2
100
AcDbEntity
  8
YKK_13
 48
1.5
100
AcDbLine
 10
247.89983164
 20
632.63537475
 30
0.0
 11
250.89983164
 21
632.63538725
 31
0.0
  0
LINE
  5
16B9
330
2
100
AcDbEntity
  8
YKK_13
 48
1.5
100
AcDbLine
 10
250.89980854
 20
638.13539593
 30
0.0
 11
258.86409448
 21
638.13542911
 31
0.0
  0
LINE
  5
16BA
330
2
100
AcDbEntity
  8
YKK_13
 48
1.5
100
AcDbLine
 10
258.86409008
 20
638.13541679
 30
0.0
 11
256.89983164
 21
632.63541224
 31
0.0
  0
LINE
  5
16BB
330
2
100
AcDbEntity
  8
YKK_13
 48
1.5
100
AcDbLine
 10
256.89983164
 20
632.63541224
 30
0.0
 11
250.89983164
 21
632.63538725
 31
0.0
  0
ARC
  5
16BC
330
2
100
AcDbEntity
  8
YKK_13
 48
1.5
100
AcDbCircle
 10
250.89982747
 20
633.63538725
 30
0.0
 40
1.000000000000334
100
AcDbArc
 50
270.00023869
 51
0.00023869
  0
LINE
  5
16BD
330
2
100
AcDbEntity
  8
YKK_13
 48
1.5
100
AcDbLine
 10
251.89982747
 20
633.63539141
 30
0.0
 11
251.8998127
 21
637.1354001
 31
0.0
  0
ARC
  5
16BE
330
2
100
AcDbEntity
  8
YKK_13
 48
1.5
100
AcDbCircle
 10
250.8998127
 20
637.13539593
 30
0.0
 40
0.9999999999993107
100
AcDbArc
 50
0.00023869
 51
90.00023869
  0
LINE
  5
16BF
330
2
100
AcDbEntity
  8
YKK_12
 48
1.5
100
AcDbLine
 10
197.89938621
 20
638.13540574
 30
0.0
 11
152.89981943
 21
638.1354068
 31
0.0
1001
YALIB
1000
YALIB1603
1000
 L=169 t1=6.8 t2=6 A=6 ta1=1 ta2= 1 SDFLG="0" AFLG1="1" AFLG2="0" MFLG="0" HFLG="1"  
  0
LINE
  5
16C0
330
2
100
AcDbEntity
  8
YKK_12
 48
1.5
100
AcDbLine
 10
152.89981943
 20
644.1354068
 30
0.0
 11
197.89938646
 21
644.13540574
 31
0.0
1001
YALIB
1000
YALIB1603
1000
 L=169 t1=6.8 t2=6 A=6 ta1=1 ta2= 1 SDFLG="0" AFLG1="1" AFLG2="0" MFLG="0" HFLG="1"  
  0
LINE
  5
16C1
330
2
100
AcDbEntity
  8
YKK_12
 48
1.5
100
AcDbLine
 10
197.89938646
 20
644.13540574
 30
0.0
 11
197.89938624
 21
638.13540574
 31
0.0
1001
YALIB
1000
YALIB1603
1000
 L=169 t1=6.8 t2=6 A=6 ta1=1 ta2= 1 SDFLG="0" AFLG1="1" AFLG2="0" MFLG="0" HFLG="1"  
  0
LINE
  5
16C2
330
2
100
AcDbEntity
  8
YKK_12
 48
1.5
100
AcDbLine
 10
152.89981943
 20
639.1354068
 30
0.0
 11
197.89938624
 21
639.13540574
 31
0.0
1001
YALIB
1000
YALIB1603
1000
 L=169 t1=6.8 t2=6 A=6 ta1=1 ta2= 1 SDFLG="0" AFLG1="1" AFLG2="0" MFLG="0" HFLG="1"  
  0
LINE
  5
16C3
330
2
100
AcDbEntity
  8
YKK_12
 48
1.5
100
AcDbLine
 10
197.89938642
 20
643.13540574
 30
0.0
 11
152.89981943
 21
643.1354068
 31
0.0
1001
YALIB
1000
YALIB1603
1000
 L=169 t1=6.8 t2=6 A=6 ta1=1 ta2= 1 SDFLG="0" AFLG1="1" AFLG2="0" MFLG="0" HFLG="1"  
  0
LINE
  5
16C4
330
2
100
AcDbEntity
  8
YKK_12
 48
1.5
100
AcDbLine
 10
197.89938668
 20
656.13540574
 30
0.0
 11
152.89981943
 21
656.1354068
 31
0.0
1001
YALIB
1000
YALIB1603
1000
 L=169 t1=6.8 t2=6 A=6 ta1=1 ta2= 1 SDFLG="0" AFLG1="1" AFLG2="0" MFLG="0" HFLG="1"  
  0
LINE
  5
16C5
330
2
100
AcDbEntity
  8
YKK_12
 48
1.5
100
AcDbLine
 10
152.89981943
 20
662.1354068
 30
0.0
 11
197.8993869
 21
662.13540574
 31
0.0
1001
YALIB
1000
YALIB1603
1000
 L=169 t1=6.8 t2=6 A=6 ta1=1 ta2= 1 SDFLG="0" AFLG1="1" AFLG2="0" MFLG="0" HFLG="1"  
  0
LINE
  5
16C6
330
2
100
AcDbEntity
  8
YKK_12
 48
1.5
100
AcDbLine
 10
197.8993869
 20
662.13540574
 30
0.0
 11
197.89938668
 21
656.13540574
 31
0.0
1001
YALIB
1000
YALIB1603
1000
 L=169 t1=6.8 t2=6 A=6 ta1=1 ta2= 1 SDFLG="0" AFLG1="1" AFLG2="0" MFLG="0" HFLG="1"  
  0
LINE
  5
16C7
330
2
100
AcDbEntity
  8
YKK_12
 48
1.5
100
AcDbLine
 10
152.89981943
 20
657.1354068
 30
0.0
 11
197.89938672
 21
657.13540574
 31
0.0
1001
YALIB
1000
YALIB1603
1000
 L=169 t1=6.8 t2=6 A=6 ta1=1 ta2= 1 SDFLG="0" AFLG1="1" AFLG2="0" MFLG="0" HFLG="1"  
  0
LINE
  5
16C8
330
2
100
AcDbEntity
  8
YKK_12
 48
1.5
100
AcDbLine
 10
197.89938687
 20
661.13540574
 30
0.0
 11
152.89981943
 21
661.1354068
 31
0.0
1001
YALIB
1000
YALIB1603
1000
 L=169 t1=6.8 t2=6 A=6 ta1=1 ta2= 1 SDFLG="0" AFLG1="1" AFLG2="0" MFLG="0" HFLG="1"  
  0
LINE
  5
16C9
330
2
100
AcDbEntity
  8
YKK_12
 48
1.5
100
AcDbLine
 10
197.89938646
 20
644.13540574
 30
0.0
 11
197.89938668
 21
656.13540574
 31
0.0
1001
YALIB
1000
YALIB1603
1000
 L=169 t1=6.8 t2=6 A=6 ta1=1 ta2= 1 SDFLG="0" AFLG1="1" AFLG2="0" MFLG="0" HFLG="1"  
  0
LINE
  5
16CA
330
2
100
AcDbEntity
  8
YKK_12
 48
1.5
100
AcDbLine
 10
187.89938646
 20
644.13540611
 30
0.0
 11
187.89938668
 21
656.13540611
 31
0.0
1001
YALIB
1000
YALIB1603
1000
 L=169 t1=6.8 t2=6 A=6 ta1=1 ta2= 1 SDFLG="0" AFLG1="1" AFLG2="0" MFLG="0" HFLG="1"  
  0
LINE
  5
16CB
330
2
100
AcDbEntity
  8
YKK_12
 48
1.5
100
AcDbLine
 10
197.89938646
 20
644.13540574
 30
0.0
 11
187.89938668
 21
656.13540611
 31
0.0
1001
YALIB
1000
YALIB1603
1000
 L=169 t1=6.8 t2=6 A=6 ta1=1 ta2= 1 SDFLG="0" AFLG1="1" AFLG2="0" MFLG="0" HFLG="1"  
  0
LINE
  5
16CC
330
2
100
AcDbEntity
  8
YKK_12
 48
1.5
100
AcDbLine
 10
197.89938668
 20
656.13540574
 30
0.0
 11
187.89938646
 21
644.13540611
 31
0.0
1001
YALIB
1000
YALIB1603
1000
 L=169 t1=6.8 t2=6 A=6 ta1=1 ta2= 1 SDFLG="0" AFLG1="1" AFLG2="0" MFLG="0" HFLG="1"  
  0
LINE
  5
16CD
330
2
100
AcDbEntity
  8
YKK_13
 48
1.5
100
AcDbLine
 10
186.06939339
 20
667.6354102
 30
0.0
 11
187.89983464
 21
665.80496894
 31
0.0
1001
ACAD
1010
0.0
1020
0.0
1030
0.0
  0
LINE
  5
16CE
330
2
100
AcDbEntity
  8
YKK_13
 48
1.5
100
AcDbLine
 10
183.24096626
 20
667.6354102
 30
0.0
 11
187.89983902
 21
662.97653744
 31
0.0
1001
ACAD
1010
0.0
1020
0.0
1030
0.0
  0
LINE
  5
16CF
330
2
100
AcDbEntity
  8
YKK_13
 48
1.5
100
AcDbLine
 10
182.24528548
 20
665.80266385
 30
0.0
 11
185.91254332
 21
662.13540602
 31
0.0
1001
ACAD
1010
0.0
1020
0.0
1030
0.0
  0
LINE
  5
16D0
330
2
100
AcDbEntity
  8
YKK_13
 48
1.5
100
AcDbLine
 10
181.50096638
 20
663.71855583
 30
0.0
 11
183.08411613
 21
662.13540608
 31
0.0
1001
ACAD
1010
0.0
1020
0.0
1030
0.0
  0
LINE
  5
16D1
330
2
100
AcDbEntity
  8
YKK_13
 48
1.5
100
AcDbLine
 10
182.16427389
 20
665.57582981
 30
0.0
 11
184.22385427
 21
667.6354102
 31
0.0
1001
ACAD
1010
0.0
1020
0.0
1030
0.0
  0
LINE
  5
16D2
330
2
100
AcDbEntity
  8
YKK_13
 48
1.5
100
AcDbLine
 10
181.55227732
 20
662.13540612
 30
0.0
 11
187.0522814
 21
667.6354102
 31
0.0
1001
ACAD
1010
0.0
1020
0.0
1030
0.0
  0
LINE
  5
16D3
330
2
100
AcDbEntity
  8
YKK_13
 48
1.5
100
AcDbLine
 10
184.38070438
 20
662.13540605
 30
0.0
 11
187.89983487
 21
665.65453655
 31
0.0
1001
ACAD
1010
0.0
1020
0.0
1030
0.0
  0
LINE
  5
16D4
330
2
100
AcDbEntity
  8
YKK_13
 48
1.5
100
AcDbLine
 10
187.20913144
 20
662.13540599
 30
0.0
 11
187.89983925
 21
662.8261138
 31
0.0
1001
ACAD
1010
0.0
1020
0.0
1030
0.0
  0
LINE
  5
16D5
330
2
100
AcDbEntity
  8
YKK_13
 48
1.5
100
AcDbLine
 10
190.81983322
 20
667.21542117
 30
0.0
 11
190.81983356
 21
667.01542117
 31
0.0
  0
LINE
  5
16D6
330
2
100
AcDbEntity
  8
YKK_13
 48
1.5
100
AcDbLine
 10
190.81983841
 20
664.18542117
 30
0.0
 11
190.81983876
 21
663.98542117
 31
0.0
  0
LINE
  5
16D7
330
2
100
AcDbEntity
  8
YKK_13
 48
1.5
100
AcDbLine
 10
187.9898335
 20
667.05002473
 30
0.0
 11
187.98983356
 21
667.01541632
 31
0.0
  0
LINE
  5
16D8
330
2
100
AcDbEntity
  8
YKK_13
 48
1.5
100
AcDbLine
 10
187.98983841
 20
664.18541632
 30
0.0
 11
187.98983876
 21
663.98541632
 31
0.0
  0
LINE
  5
16D9
330
2
100
AcDbEntity
  8
YKK_13
 48
1.5
100
AcDbLine
 10
192.23483564
 20
665.8004236
 30
0.0
 11
192.23483599
 21
665.6004236
 31
0.0
  0
LINE
  5
16DA
330
2
100
AcDbEntity
  8
YKK_13
 48
1.5
100
AcDbLine
 10
192.23484084
 20
662.7704236
 30
0.0
 11
192.23484119
 21
662.5704236
 31
0.0
  0
LINE
  5
16DB
330
2
100
AcDbEntity
  8
YKK_13
 48
1.5
100
AcDbLine
 10
189.40483564
 20
665.80041875
 30
0.0
 11
189.40483599
 21
665.60041875
 31
0.0
  0
LINE
  5
16DC
330
2
100
AcDbEntity
  8
YKK_13
 48
1.5
100
AcDbLine
 10
189.40484084
 20
662.77041875
 30
0.0
 11
189.40484119
 21
662.57041875
 31
0.0
  0
LINE
  5
16DD
330
2
100
AcDbEntity
  8
YKK_13
 48
1.5
100
AcDbLine
 10
188.89984126
 20
662.13540748
 30
0.0
 11
191.89984126
 21
662.13541263
 31
0.0
  0
ARC
  5
16DE
330
2
100
AcDbEntity
  8
YKK_13
 48
1.5
100
AcDbCircle
 10
191.89983955
 20
663.13541263
 30
0.0
 40
1.000000000001357
100
AcDbArc
 50
270.00009828
 51
0.00009828
  0
LINE
  5
16DF
330
2
100
AcDbEntity
  8
YKK_13
 48
1.5
100
AcDbLine
 10
192.89983878
 20
663.1341698
 30
0.0
 11
192.89983335
 21
666.63542303
 31
0.0
  0
ARC
  5
16E0
330
2
100
AcDbEntity
  8
YKK_13
 48
1.5
100
AcDbCircle
 10
191.89983335
 20
666.63542131
 30
0.0
 40
0.9999999999991972
100
AcDbArc
 50
0.00009828
 51
90.00009828
  0
LINE
  5
16E1
330
2
100
AcDbEntity
  8
YKK_13
 48
1.5
100
AcDbLine
 10
191.89983164
 20
667.63542131
 30
0.0
 11
188.89983164
 21
667.63541616
 31
0.0
  0
LINE
  5
16E2
330
2
100
AcDbEntity
  8
YKK_13
 48
1.5
100
AcDbLine
 10
188.89984126
 20
662.13540748
 30
0.0
 11
180.93555532
 21
662.13539382
 31
0.0
  0
LINE
  5
16E3
330
2
100
AcDbEntity
  8
YKK_13
 48
1.5
100
AcDbLine
 10
180.93555972
 20
662.13540614
 30
0.0
 11
182.89983164
 21
667.63540587
 31
0.0
  0
LINE
  5
16E4
330
2
100
AcDbEntity
  8
YKK_13
 48
1.5
100
AcDbLine
 10
182.89983164
 20
667.63540587
 30
0.0
 11
188.89983164
 21
667.63541616
 31
0.0
  0
ARC
  5
16E5
330
2
100
AcDbEntity
  8
YKK_13
 48
1.5
100
AcDbCircle
 10
188.89983335
 20
666.63541616
 30
0.0
 40
1.000000000000334
100
AcDbArc
 50
90.00009828
 51
180.00009828
  0
LINE
  5
16E6
330
2
100
AcDbEntity
  8
YKK_13
 48
1.5
100
AcDbLine
 10
187.89983335
 20
666.63541445
 30
0.0
 11
187.89983955
 21
663.13540577
 31
0.0
  0
ARC
  5
16E7
330
2
100
AcDbEntity
  8
YKK_13
 48
1.5
100
AcDbCircle
 10
188.89983955
 20
663.13540748
 30
0.0
 40
0.9999999999993107
100
AcDbArc
 50
180.00009828
 51
270.00009828
  0
LINE
  5
16E8
330
2
100
AcDbEntity
  8
YKK_13
 48
1.5
100
AcDbLine
 10
181.50097598
 20
636.55226571
 30
0.0
 11
183.0841296
 21
638.13541158
 31
0.0
1001
ACAD
1010
0.0
1020
0.0
1030
0.0
  0
LINE
  5
16E9
330
2
100
AcDbEntity
  8
YKK_13
 48
1.5
100
AcDbLine
 10
182.24528997
 20
634.46815587
 30
0.0
 11
185.91255679
 21
638.13540471
 31
0.0
1001
ACAD
1010
0.0
1020
0.0
1030
0.0
  0
LINE
  5
16EA
330
2
100
AcDbEntity
  8
YKK_13
 48
1.5
100
AcDbLine
 10
183.24096626
 20
632.63540708
 30
0.0
 11
187.89985044
 21
637.29426842
 31
0.0
1001
ACAD
1010
0.0
1020
0.0
1030
0.0
  0
LINE
  5
16EB
330
2
100
AcDbEntity
  8
YKK_13
 48
1.5
100
AcDbLine
 10
186.06939339
 20
632.63540015
 30
0.0
 11
187.89983913
 21
634.46583692
 31
0.0
1001
ACAD
1010
0.0
1020
0.0
1030
0.0
  0
LINE
  5
16EC
330
2
100
AcDbEntity
  8
YKK_13
 48
1.5
100
AcDbLine
 10
187.20914492
 20
638.13540157
 30
0.0
 11
187.89985104
 21
637.44469206
 31
0.0
1001
ACAD
1010
0.0
1020
0.0
1030
0.0
  0
LINE
  5
16ED
330
2
100
AcDbEntity
  8
YKK_13
 48
1.5
100
AcDbLine
 10
184.38071786
 20
638.13540843
 30
0.0
 11
187.89983973
 21
634.61626932
 31
0.0
1001
ACAD
1010
0.0
1020
0.0
1030
0.0
  0
LINE
  5
16EE
330
2
100
AcDbEntity
  8
YKK_13
 48
1.5
100
AcDbLine
 10
181.5522908
 20
638.1354153
 30
0.0
 11
187.0522814
 21
632.63539774
 31
0.0
1001
ACAD
1010
0.0
1020
0.0
1030
0.0
  0
LINE
  5
16EF
330
2
100
AcDbEntity
  8
YKK_13
 48
1.5
100
AcDbLine
 10
182.16427894
 20
634.6949901
 30
0.0
 11
184.22385427
 21
632.63540467
 31
0.0
1001
ACAD
1010
0.0
1020
0.0
1030
0.0
  0
LINE
  5
16F0
330
2
100
AcDbEntity
  8
YKK_13
 48
1.5
100
AcDbLine
 10
187.98983494
 20
633.22078091
 30
0.0
 11
187.98983508
 21
633.25538932
 31
0.0
  0
LINE
  5
16F1
330
2
100
AcDbEntity
  8
YKK_13
 48
1.5
100
AcDbLine
 10
187.98984687
 20
636.08538932
 30
0.0
 11
187.9898477
 21
636.28538932
 31
0.0
  0
LINE
  5
16F2
330
2
100
AcDbEntity
  8
YKK_13
 48
1.5
100
AcDbLine
 10
190.81983425
 20
633.05537753
 30
0.0
 11
190.81983508
 21
633.25537753
 31
0.0
  0
LINE
  5
16F3
330
2
100
AcDbEntity
  8
YKK_13
 48
1.5
100
AcDbLine
 10
190.81984687
 20
636.08537753
 30
0.0
 11
190.8198477
 21
636.28537753
 31
0.0
  0
LINE
  5
16F4
330
2
100
AcDbEntity
  8
YKK_13
 48
1.5
100
AcDbLine
 10
189.40484014
 20
634.47038343
 30
0.0
 11
189.40484097
 21
634.67038343
 31
0.0
  0
LINE
  5
16F5
330
2
100
AcDbEntity
  8
YKK_13
 48
1.5
100
AcDbLine
 10
189.40485276
 20
637.50038343
 30
0.0
 11
189.4048536
 21
637.70038343
 31
0.0
  0
LINE
  5
16F6
330
2
100
AcDbEntity
  8
YKK_13
 48
1.5
100
AcDbLine
 10
192.23484014
 20
634.47037164
 30
0.0
 11
192.23484097
 21
634.67037164
 31
0.0
  0
LINE
  5
16F7
330
2
100
AcDbEntity
  8
YKK_13
 48
1.5
100
AcDbLine
 10
192.23485276
 20
637.50037164
 30
0.0
 11
192.2348536
 21
637.70037164
 31
0.0
  0
LINE
  5
16F8
330
2
100
AcDbEntity
  8
YKK_13
 48
1.5
100
AcDbLine
 10
188.89985474
 20
638.13539593
 30
0.0
 11
191.89985474
 21
638.13538343
 31
0.0
  0
ARC
  5
16F9
330
2
100
AcDbEntity
  8
YKK_13
 48
1.5
100
AcDbCircle
 10
191.89985058
 20
637.13538343
 30
0.0
 40
1.000000000001357
100
AcDbArc
 50
359.99976131
 51
89.99976131
  0
LINE
  5
16FA
330
2
100
AcDbEntity
  8
YKK_13
 48
1.5
100
AcDbLine
 10
192.89984981
 20
637.13662381
 30
0.0
 11
192.8998358
 21
633.63537058
 31
0.0
  0
ARC
  5
16FB
330
2
100
AcDbEntity
  8
YKK_13
 48
1.5
100
AcDbCircle
 10
191.8998358
 20
633.63537475
 30
0.0
 40
0.9999999999991972
100
AcDbArc
 50
269.99976131
 51
359.99976131
  0
LINE
  5
16FC
330
2
100
AcDbEntity
  8
YKK_13
 48
1.5
100
AcDbLine
 10
191.89983164
 20
632.63537475
 30
0.0
 11
188.89983164
 21
632.63538725
 31
0.0
  0
LINE
  5
16FD
330
2
100
AcDbEntity
  8
YKK_13
 48
1.5
100
AcDbLine
 10
188.89985474
 20
638.13539593
 30
0.0
 11
180.9355688
 21
638.13542911
 31
0.0
  0
LINE
  5
16FE
330
2
100
AcDbEntity
  8
YKK_13
 48
1.5
100
AcDbLine
 10
180.9355732
 20
638.13541679
 30
0.0
 11
182.89983164
 21
632.63541224
 31
0.0
  0
LINE
  5
16FF
330
2
100
AcDbEntity
  8
YKK_13
 48
1.5
100
AcDbLine
 10
182.89983164
 20
632.63541224
 30
0.0
 11
188.89983164
 21
632.63538725
 31
0.0
  0
ARC
  5
1700
330
2
100
AcDbEntity
  8
YKK_13
 48
1.5
100
AcDbCircle
 10
188.8998358
 20
633.63538725
 30
0.0
 40
1.000000000000334
100
AcDbArc
 50
179.99976131
 51
269.99976131
  0
LINE
  5
1701
330
2
100
AcDbEntity
  8
YKK_13
 48
1.5
100
AcDbLine
 10
187.8998358
 20
633.63539141
 30
0.0
 11
187.89985058
 21
637.1354001
 31
0.0
  0
ARC
  5
1702
330
2
100
AcDbEntity
  8
YKK_13
 48
1.5
100
AcDbCircle
 10
188.89985058
 20
637.13539593
 30
0.0
 40
0.9999999999993107
100
AcDbArc
 50
89.99976131
 51
179.99976131
  0
LINE
  5
191B
330
2
100
AcDbEntity
  8
YKK_D
100
AcDbLine
 10
182.89983165
 20
679.43541102
 30
0.0
 11
182.89983165
 21
697.43541102
 31
0.0
  0
LINE
  5
191C
330
2
100
AcDbEntity
  8
YKK_D
100
AcDbLine
 10
256.89983165
 20
679.43541102
 30
0.0
 11
256.89983165
 21
697.43541102
 31
0.0
  0
LINE
  5
191D
330
2
100
AcDbEntity
  8
YKK_D
100
AcDbLine
 10
182.89983165
 20
696.43541102
 30
0.0
 11
256.89983165
 21
696.43541102
 31
0.0
  0
LWPOLYLINE
  5
191E
330
2
100
AcDbEntity
  8
YKK_D
  6
ByBlock
100
AcDbPolyline
 90
        2
 70
     1
 43
0.85
 10
183.00608165
 20
696.43541102
 42
1.0
 10
182.79358165
 20
696.43541102
 42
1.0
  0
LWPOLYLINE
  5
191F
330
2
100
AcDbEntity
  8
YKK_D
  6
ByBlock
100
AcDbPolyline
 90
        2
 70
     1
 43
0.85
 10
256.79358165
 20
696.43541102
 42
1.0
 10
257.00608165
 20
696.43541102
 42
1.0
  0
TEXT
  5
1920
330
2
100
AcDbEntity
  8
YKK_D
100
AcDbText
 10
216.37983165
 20
697.43541102
 30
0.0
 40
6.0
  1
74
100
AcDbText
  0
LINE
  5
1921
330
2
100
AcDbEntity
  8
YKK_A1
  6
ByBlock
370
    -2
100
AcDbLine
 10
106.64981945
 20
673.83541102
 30
0.0
 11
135.64981945
 21
673.83541102
 31
0.0
1001
ACDBBLOCKREPETAG
1070
     1
1071
       38
1005
1921
  0
LINE
  5
1922
330
2
100
AcDbEntity
  8
YKK_A1
  6
ByBlock
370
    -2
100
AcDbLine
 10
75.64981945
 20
644.93541102
 30
0.0
 11
136.64981945
 21
644.93541102
 31
0.0
1001
ACDBBLOCKREPETAG
1070
     1
1071
       24
1005
1922
  0
LINE
  5
1923
330
2
100
AcDbEntity
  8
YKK_A1
  6
ByBlock
370
    -2
100
AcDbLine
 10
105.64981945
 20
644.93541102
 30
0.0
 11
105.64981945
 21
674.93541102
 31
0.0
1001
ACDBBLOCKREPETAG
1070
     1
1071
       26
1005
1923
  0
LINE
  5
1924
330
2
100
AcDbEntity
  8
YKK_A1
  6
ByBlock
370
    -2
100
AcDbLine
 10
75.64981945
 20
644.93541102
 30
0.0
 11
75.64981945
 21
674.93541102
 31
0.0
1001
ACDBBLOCKREPETAG
1070
     1
1071
       27
1005
1924
  0
LINE
  5
1925
330
2
100
AcDbEntity
  8
YKK_A1
  6
ByBlock
370
    -2
100
AcDbLine
 10
104.29981945
 20
644.93541102
 30
0.0
 11
104.29981945
 21
673.83541102
 31
0.0
1001
ACDBBLOCKREPETAG
1070
     1
1071
       30
1005
1925
  0
LINE
  5
1926
330
2
100
AcDbEntity
  8
YKK_A1
  6
ByBlock
370
    -2
100
AcDbLine
 10
76.64981945
 20
644.93541102
 30
0.0
 11
76.64981945
 21
673.83541102
 31
0.0
1001
ACDBBLOCKREPETAG
1070
     1
1071
       31
1005
1926
  0
LINE
  5
1927
330
2
100
AcDbEntity
  8
YKK_A1
  6
ByBlock
370
    -2
100
AcDbLine
 10
107.99981945
 20
644.93541102
 30
0.0
 11
107.99981945
 21
673.83541102
 31
0.0
1001
ACDBBLOCKREPETAG
1070
     1
1071
       34
1005
1927
  0
LINE
  5
1928
330
2
100
AcDbEntity
  8
YKK_A1
  6
ByBlock
370
    -2
100
AcDbLine
 10
137.89981945
 20
642.93541102
 30
0.0
 11
137.89981945
 21
676.43541102
 31
0.0
1001
ACDBBLOCKREPETAG
1070
     1
1071
       35
1005
1928
  0
LINE
  5
1929
330
2
100
AcDbEntity
  8
YKK_A1
  6
ByBlock
370
    -2
100
AcDbLine
 10
136.64981945
 20
644.93541102
 30
0.0
 11
136.64981945
 21
674.93541102
 31
0.0
1001
ACDBBLOCKREPETAG
1070
     1
1071
       36
1005
1929
  0
LINE
  5
192A
330
2
100
AcDbEntity
  8
YKK_A1
  6
ByBlock
370
    -2
100
AcDbLine
 10
135.64981945
 20
644.93541102
 30
0.0
 11
135.64981945
 21
673.83541102
 31
0.0
1001
ACDBBLOCKREPETAG
1070
     1
1071
       37
1005
192A
  0
LINE
  5
192B
330
2
100
AcDbEntity
  8
YKK_A1
  6
ByBlock
370
    -2
100
AcDbLine
 10
74.39981945
 20
642.93541102
 30
0.0
 11
137.89981945
 21
642.93541102
 31
0.0
1001
ACDBBLOCKREPETAG
1070
     1
1071
       17
1005
192B
  0
LINE
  5
192C
330
2
100
AcDbEntity
  8
YKK_A1
  6
ByBlock
370
    -2
100
AcDbLine
 10
106.64981945
 20
644.93541102
 30
0.0
 11
106.64981945
 21
674.93541102
 31
0.0
1001
ACDBBLOCKREPETAG
1070
     1
1071
       18
1005
192C
  0
LINE
  5
192D
330
2
100
AcDbEntity
  8
YKK_A1
  6
ByBlock
370
    -2
100
AcDbLine
 10
74.39981945
 20
676.43541102
 30
0.0
 11
137.89981945
 21
676.43541102
 31
0.0
1001
ACDBBLOCKREPETAG
1070
     1
1071
       19
1005
192D
  0
LINE
  5
192E
330
2
100
AcDbEntity
  8
YKK_A1
  6
ByBlock
370
    -2
100
AcDbLine
 10
74.39981945
 20
642.93541102
 30
0.0
 11
74.39981945
 21
676.43541102
 31
0.0
1001
ACDBBLOCKREPETAG
1070
     1
1071
       20
1005
192E
  0
LINE
  5
192F
330
2
100
AcDbEntity
  8
YKK_A1
  6
ByBlock
370
    -2
100
AcDbLine
 10
75.64981945
 20
674.93541102
 30
0.0
 11
136.64981945
 21
674.93541102
 31
0.0
1001
ACDBBLOCKREPETAG
1070
     1
1071
       21
1005
192F
  0
LINE
  5
1930
330
2
100
AcDbEntity
  8
YKK_A1
  6
ByBlock
370
    -2
100
AcDbLine
 10
76.64981945
 20
673.83541102
 30
0.0
 11
105.64981945
 21
673.83541102
 31
0.0
1001
ACDBBLOCKREPETAG
1070
     1
1071
       23
1005
1930
  0
TEXT
  5
1931
330
2
100
AcDbEntity
  8
YKK_A1
100
AcDbText
 10
99.11928225
 20
645.94930417
 30
0.0
 40
6.0
  1
F
100
AcDbText
1001
ACAD
1000
MTEXTBEGIN
1070
    73
1070
     1
1070
    44
1040
1.0
1070
    74
1070
     0
1000
MTEXTEND
  0
TEXT
  5
1932
330
2
100
AcDbEntity
  8
YKK_A1
100
AcDbText
 10
130.11928225
 20
645.94930417
 30
0.0
 40
6.0
  1
F
100
AcDbText
1001
ACAD
1000
MTEXTBEGIN
1070
    73
1070
     1
1070
    44
1040
1.0
1070
    74
1070
     0
1000
MTEXTEND
  0
LINE
  5
193F
330
2
100
AcDbEntity
  8
YKK_D
100
AcDbLine
 10
259.89984386
 20
676.43541102
 30
0.0
 11
277.89984386
 21
676.43541102
 31
0.0
  0
LINE
  5
1940
330
2
100
AcDbEntity
  8
YKK_D
100
AcDbLine
 10
259.89984386
 20
606.43541102
 30
0.0
 11
277.89984386
 21
606.43541102
 31
0.0
  0
LINE
  5
1941
330
2
100
AcDbEntity
  8
YKK_D
100
AcDbLine
 10
276.89984386
 20
676.43541102
 30
0.0
 11
276.89984386
 21
606.43541102
 31
0.0
  0
LWPOLYLINE
  5
1942
330
2
100
AcDbEntity
  8
YKK_D
  6
ByBlock
100
AcDbPolyline
 90
        2
 70
     1
 43
0.85
 10
276.89984386
 20
676.32916102
 42
1.0
 10
276.89984386
 20
676.54166102
 42
1.0
  0
LWPOLYLINE
  5
1943
330
2
100
AcDbEntity
  8
YKK_D
  6
ByBlock
100
AcDbPolyline
 90
        2
 70
     1
 43
0.85
 10
276.89984386
 20
606.54166102
 42
1.0
 10
276.89984386
 20
606.32916102
 42
1.0
  0
TEXT
  5
1944
330
2
100
AcDbEntity
  8
YKK_D
100
AcDbText
 10
275.89984386
 20
637.91541102
 30
0.0
 40
6.0
  1
70
 50
90.0
100
AcDbText
  0
LINE
  5
19C3
330
2
100
AcDbEntity
  8
YKK_D
100
AcDbLine
 10
328.89983164
 20
607.18541103
 30
0.0
 11
328.89983164
 21
588.13541104
 31
0.0
  0
LINE
  5
19C4
330
2
100
AcDbEntity
  8
YKK_D
100
AcDbLine
 10
348.89983164
 20
607.18541104
 30
0.0
 11
348.89983164
 21
588.13541104
 31
0.0
  0
LINE
  5
19C5
330
2
100
AcDbEntity
  8
YKK_D
100
AcDbLine
 10
328.89983164
 20
589.38541104
 30
0.0
 11
348.89983164
 21
589.38541104
 31
0.0
  0
LWPOLYLINE
  5
19C6
330
2
100
AcDbEntity
  8
YKK_D
  6
ByBlock
100
AcDbPolyline
 90
        2
 70
     1
 43
1.0625
 10
329.03264414
 20
589.38541104
 42
1.0
 10
328.76701914
 20
589.38541104
 42
1.0
  0
LWPOLYLINE
  5
19C7
330
2
100
AcDbEntity
  8
YKK_D
  6
ByBlock
100
AcDbPolyline
 90
        2
 70
     1
 43
1.0625
 10
348.76701914
 20
589.38541104
 42
1.0
 10
349.03264414
 20
589.38541104
 42
1.0
  0
TEXT
  5
19C8
330
2
100
AcDbEntity
  8
YKK_D
100
AcDbText
 10
335.59983164
 20
590.63541104
 30
0.0
 40
5.625
  1
20
100
AcDbText
  0
LINE
  5
19D5
330
2
100
AcDbEntity
  8
YKK_D
100
AcDbLine
 10
376.84983164
 20
672.23541103
 30
0.0
 11
395.89983164
 21
672.23541103
 31
0.0
  0
LINE
  5
19D6
330
2
100
AcDbEntity
  8
YKK_D
100
AcDbLine
 10
349.84983164
 20
608.13541103
 30
0.0
 11
395.89983164
 21
608.13541103
 31
0.0
  0
LINE
  5
19D7
330
2
100
AcDbEntity
  8
YKK_D
100
AcDbLine
 10
394.64983164
 20
672.23541103
 30
0.0
 11
394.64983164
 21
608.13541103
 31
0.0
  0
LWPOLYLINE
  5
19D8
330
2
100
AcDbEntity
  8
YKK_D
  6
ByBlock
100
AcDbPolyline
 90
        2
 70
     1
 43
1.0625
 10
394.64983164
 20
672.10259853
 42
1.0
 10
394.64983164
 20
672.36822353
 42
1.0
  0
LWPOLYLINE
  5
19D9
330
2
100
AcDbEntity
  8
YKK_D
  6
ByBlock
100
AcDbPolyline
 90
        2
 70
     1
 43
1.0625
 10
394.64983164
 20
608.26822353
 42
1.0
 10
394.64983164
 20
608.00259853
 42
1.0
  0
TEXT
  5
19DA
330
2
100
AcDbEntity
  8
YKK_D
100
AcDbText
 10
393.39983164
 20
633.13541103
 30
0.0
 40
5.625
  1
64.1
 50
90.0
100
AcDbText
  0
LINE
  5
19ED
330
2
100
AcDbEntity
  8
YKK_D
100
AcDbLine
 10
301.89983164
 20
673.18541103
 30
0.0
 11
301.89983164
 21
694.43541103
 31
0.0
  0
LINE
  5
19EE
330
2
100
AcDbEntity
  8
YKK_D
100
AcDbLine
 10
375.89983164
 20
673.18541103
 30
0.0
 11
375.89983164
 21
694.43541103
 31
0.0
  0
LINE
  5
19EF
330
2
100
AcDbEntity
  8
YKK_D
100
AcDbLine
 10
301.89983164
 20
693.18541103
 30
0.0
 11
375.89983164
 21
693.18541103
 31
0.0
  0
LWPOLYLINE
  5
19F0
330
2
100
AcDbEntity
  8
YKK_D
  6
ByBlock
100
AcDbPolyline
 90
        2
 70
     1
 43
1.0625
 10
302.03264414
 20
693.18541103
 42
1.0
 10
301.76701914
 20
693.18541103
 42
1.0
  0
LWPOLYLINE
  5
19F1
330
2
100
AcDbEntity
  8
YKK_D
  6
ByBlock
100
AcDbPolyline
 90
        2
 70
     1
 43
1.0625
 10
375.76701914
 20
693.18541103
 42
1.0
 10
376.03264414
 20
693.18541103
 42
1.0
  0
TEXT
  5
19F2
330
2
100
AcDbEntity
  8
YKK_D
100
AcDbText
 10
335.59983164
 20
694.43541103
 30
0.0
 40
5.625
  1
74
100
AcDbText
  0
LINE
  5
1AEC
330
2
100
AcDbEntity
  8
YKK_11
  6
ByBlock
 62
     0
 48
0.5
370
    -2
100
AcDbLine
 10
204.89981945
 20
630.63541103
 30
0.0
 11
182.89981945
 21
630.63541103
 31
0.0
  0
LINE
  5
1AED
330
2
100
AcDbEntity
  8
YKK_11
  6
ByBlock
 62
     0
 48
0.5
370
    -2
100
AcDbLine
 10
182.89981945
 20
630.63541103
 30
0.0
 11
182.89981945
 21
632.63541103
 31
0.0
  0
LINE
  5
1AEE
330
2
100
AcDbEntity
  8
YKK_11
  6
ByBlock
 62
     0
 48
0.5
370
    -2
100
AcDbLine
 10
182.89981945
 20
632.63541103
 30
0.0
 11
188.89981945
 21
632.63541103
 31
0.0
  0
LINE
  5
1AEF
330
2
100
AcDbEntity
  8
YKK_11
  6
ByBlock
 62
     0
 48
0.5
370
    -2
100
AcDbLine
 10
188.89981945
 20
632.63541103
 30
0.0
 11
188.89981945
 21
631.93541103
 31
0.0
  0
LINE
  5
1AF0
330
2
100
AcDbEntity
  8
YKK_11
  6
ByBlock
 62
     0
 48
0.5
370
    -2
100
AcDbLine
 10
188.89981945
 20
631.93541103
 30
0.0
 11
189.89982014
 21
631.93541103
 31
0.0
  0
LINE
  5
1AF1
330
2
100
AcDbEntity
  8
YKK_11
  6
ByBlock
 62
     0
 48
0.5
370
    -2
100
AcDbLine
 10
189.89982014
 20
631.93541103
 30
0.0
 11
190.80648676
 21
632.26541103
 31
0.0
  0
LINE
  5
1AF2
330
2
100
AcDbEntity
  8
YKK_11
  6
ByBlock
 62
     0
 48
0.5
370
    -2
100
AcDbLine
 10
190.80648676
 20
632.26541103
 30
0.0
 11
198.94155045
 21
632.26541103
 31
0.0
  0
LINE
  5
1AF3
330
2
100
AcDbEntity
  8
YKK_11
  6
ByBlock
 62
     0
 48
0.5
370
    -2
100
AcDbLine
 10
198.94155045
 20
632.26541103
 30
0.0
 11
199.12485345
 21
632.14541103
 31
0.0
  0
LINE
  5
1AF4
330
2
100
AcDbEntity
  8
YKK_11
  6
ByBlock
 62
     0
 48
0.5
370
    -2
100
AcDbLine
 10
199.12485345
 20
632.14541103
 30
0.0
 11
199.67476245
 21
632.14541103
 31
0.0
  0
LINE
  5
1AF5
330
2
100
AcDbEntity
  8
YKK_11
  6
ByBlock
 62
     0
 48
0.5
370
    -2
100
AcDbLine
 10
199.67476245
 20
632.14541103
 30
0.0
 11
199.85806545
 21
632.26541103
 31
0.0
  0
LINE
  5
1AF6
330
2
100
AcDbEntity
  8
YKK_11
  6
ByBlock
 62
     0
 48
0.5
370
    -2
100
AcDbLine
 10
199.85806545
 20
632.26541103
 30
0.0
 11
199.94155045
 21
632.26541103
 31
0.0
  0
LINE
  5
1AF7
330
2
100
AcDbEntity
  8
YKK_11
  6
ByBlock
 62
     0
 48
0.5
370
    -2
100
AcDbLine
 10
199.94155045
 20
632.26541103
 30
0.0
 11
200.12485345
 21
632.14541103
 31
0.0
  0
LINE
  5
1AF8
330
2
100
AcDbEntity
  8
YKK_11
  6
ByBlock
 62
     0
 48
0.5
370
    -2
100
AcDbLine
 10
200.12485345
 20
632.14541103
 30
0.0
 11
200.67476245
 21
632.14541103
 31
0.0
  0
LINE
  5
1AF9
330
2
100
AcDbEntity
  8
YKK_11
  6
ByBlock
 62
     0
 48
0.5
370
    -2
100
AcDbLine
 10
200.67476245
 20
632.14541103
 30
0.0
 11
200.85806545
 21
632.26541103
 31
0.0
  0
LINE
  5
1AFA
330
2
100
AcDbEntity
  8
YKK_11
  6
ByBlock
 62
     0
 48
0.5
370
    -2
100
AcDbLine
 10
200.85806545
 20
632.26541103
 30
0.0
 11
202.09981945
 21
632.26541103
 31
0.0
  0
ARC
  5
1AFB
330
2
100
AcDbEntity
  8
YKK_11
  6
ByBlock
 62
     0
 48
0.5
370
    -2
100
AcDbCircle
 10
202.09981929
 20
633.26541119
 30
0.0
 40
1.000000163397557
100
AcDbArc
 50
270.00000936
 51
359.99999064
  0
LINE
  5
1AFC
330
2
100
AcDbEntity
  8
YKK_11
  6
ByBlock
 62
     0
 48
0.5
370
    -2
100
AcDbLine
 10
203.09981945
 20
633.26541103
 30
0.0
 11
203.09981945
 21
634.43541103
 31
0.0
  0
ARC
  5
1AFD
330
2
100
AcDbEntity
  8
YKK_11
  6
ByBlock
 62
     0
 48
0.5
370
    -2
100
AcDbCircle
 10
204.5998197
 20
634.43541078
 30
0.0
 40
1.500000245096336
100
AcDbArc
 50
90.00000936
 51
179.99999064
  0
LINE
  5
1AFE
330
2
100
AcDbEntity
  8
YKK_11
  6
ByBlock
 62
     0
 48
0.5
370
    -2
100
AcDbLine
 10
204.59981945
 20
635.93541103
 30
0.0
 11
206.42018188
 21
635.93541103
 31
0.0
  0
LINE
  5
1AFF
330
2
100
AcDbEntity
  8
YKK_11
  6
ByBlock
 62
     0
 48
0.5
370
    -2
100
AcDbLine
 10
206.42018188
 20
635.93541103
 30
0.0
 11
208.49981945
 21
643.69672506
 31
0.0
  0
LINE
  5
1B00
330
2
100
AcDbEntity
  8
YKK_11
  6
ByBlock
 62
     0
 48
0.5
370
    -2
100
AcDbLine
 10
208.49981945
 20
643.69672506
 30
0.0
 11
208.49981945
 21
646.98688303
 31
0.0
  0
LINE
  5
1B01
330
2
100
AcDbEntity
  8
YKK_11
  6
ByBlock
 62
     0
 48
0.5
370
    -2
100
AcDbLine
 10
208.49981945
 20
646.98688303
 30
0.0
 11
208.07555545
 21
647.41114703
 31
0.0
  0
ARC
  5
1B02
330
2
100
AcDbEntity
  8
YKK_11
  6
ByBlock
 62
     0
 48
0.5
370
    -2
100
AcDbCircle
 10
208.49981938
 20
647.8354111
 30
0.0
 40
0.599999902826659
100
AcDbArc
 50
44.99999008
 51
225.00000993
  0
LINE
  5
1B03
330
2
100
AcDbEntity
  8
YKK_11
  6
ByBlock
 62
     0
 48
0.5
370
    -2
100
AcDbLine
 10
208.92408345
 20
648.25967503
 30
0.0
 11
209.69981945
 21
647.48393903
 31
0.0
  0
LINE
  5
1B04
330
2
100
AcDbEntity
  8
YKK_11
  6
ByBlock
 62
     0
 48
0.5
370
    -2
100
AcDbLine
 10
209.69981945
 20
647.48393903
 30
0.0
 11
209.69981945
 21
643.53874205
 31
0.0
  0
LINE
  5
1B05
330
2
100
AcDbEntity
  8
YKK_11
  6
ByBlock
 62
     0
 48
0.5
370
    -2
100
AcDbLine
 10
209.69981945
 20
643.53874205
 30
0.0
 11
206.99264016
 21
633.43541103
 31
0.0
  0
LINE
  5
1B06
330
2
100
AcDbEntity
  8
YKK_11
  6
ByBlock
 62
     0
 48
0.5
370
    -2
100
AcDbLine
 10
206.99264016
 20
633.43541103
 30
0.0
 11
206.39263995
 21
633.43541103
 31
0.0
  0
LINE
  5
1B07
330
2
100
AcDbEntity
  8
YKK_11
  6
ByBlock
 62
     0
 48
0.5
370
    -2
100
AcDbLine
 10
206.39263995
 20
633.43541103
 30
0.0
 11
205.69981995
 21
634.63541103
 31
0.0
  0
LINE
  5
1B08
330
2
100
AcDbEntity
  8
YKK_11
  6
ByBlock
 62
     0
 48
0.5
370
    -2
100
AcDbLine
 10
205.69981995
 20
634.63541103
 30
0.0
 11
204.39981945
 21
634.63541103
 31
0.0
  0
LINE
  5
1B09
330
2
100
AcDbEntity
  8
YKK_11
  6
ByBlock
 62
     0
 48
0.5
370
    -2
100
AcDbLine
 10
204.39981945
 20
634.63541103
 30
0.0
 11
204.39981945
 21
632.83541103
 31
0.0
  0
LINE
  5
1B0A
330
2
100
AcDbEntity
  8
YKK_11
  6
ByBlock
 62
     0
 48
0.5
370
    -2
100
AcDbLine
 10
204.39981945
 20
632.83541103
 30
0.0
 11
204.59981945
 21
632.63541103
 31
0.0
  0
LINE
  5
1B0B
330
2
100
AcDbEntity
  8
YKK_11
  6
ByBlock
 62
     0
 48
0.5
370
    -2
100
AcDbLine
 10
204.59981945
 20
632.63541103
 30
0.0
 11
204.89981945
 21
632.33541103
 31
0.0
  0
LINE
  5
1B0C
330
2
100
AcDbEntity
  8
YKK_11
  6
ByBlock
 62
     0
 48
0.5
370
    -2
100
AcDbLine
 10
204.89981945
 20
632.33541103
 30
0.0
 11
204.89981945
 21
630.63541103
 31
0.0
  0
LINE
  5
1D56
330
2
100
AcDbEntity
  8
YKK_11
  6
ByBlock
 62
     0
 48
0.5
370
    -2
100
AcDbLine
 10
330.82983163
 20
670.30541102
 30
0.0
 11
330.82983163
 21
610.06541102
 31
0.0
  0
LINE
  5
1D57
330
2
100
AcDbEntity
  8
YKK_11
  6
ByBlock
 62
     0
 48
0.5
370
    -2
100
AcDbLine
 10
330.82983163
 20
610.06541102
 30
0.0
 11
346.96983163
 21
610.06541102
 31
0.0
  0
LINE
  5
1D58
330
2
100
AcDbEntity
  8
YKK_11
  6
ByBlock
 62
     0
 48
0.5
370
    -2
100
AcDbLine
 10
346.96983163
 20
610.06541102
 30
0.0
 11
346.96983163
 21
670.30541102
 31
0.0
  0
LINE
  5
1D59
330
2
100
AcDbEntity
  8
YKK_11
  6
ByBlock
 62
     0
 48
0.5
370
    -2
100
AcDbLine
 10
346.96983163
 20
670.30541102
 30
0.0
 11
330.82983163
 21
670.30541102
 31
0.0
  0
LINE
  5
1D5A
330
2
100
AcDbEntity
  8
YKK_11
  6
ByBlock
 62
     0
 48
0.5
370
    -2
100
AcDbLine
 10
330.82983163
 20
670.30541102
 30
0.0
 11
330.82983163
 21
610.06541102
 31
0.0
  0
LINE
  5
1D5B
330
2
100
AcDbEntity
  8
YKK_11
  6
ByBlock
 62
     0
 48
0.5
370
    -2
100
AcDbLine
 10
301.89983163
 20
672.23541102
 30
0.0
 11
375.89983163
 21
672.23541102
 31
0.0
  0
LINE
  5
1D5C
330
2
100
AcDbEntity
  8
YKK_11
  6
ByBlock
 62
     0
 48
0.5
370
    -2
100
AcDbLine
 10
375.89983163
 20
672.23541102
 30
0.0
 11
375.89983163
 21
667.63541102
 31
0.0
  0
LINE
  5
1D5D
330
2
100
AcDbEntity
  8
YKK_11
  6
ByBlock
 62
     0
 48
0.5
370
    -2
100
AcDbLine
 10
375.89983163
 20
667.63541102
 30
0.0
 11
369.89983163
 21
667.63541102
 31
0.0
  0
LINE
  5
1D5E
330
2
100
AcDbEntity
  8
YKK_11
  6
ByBlock
 62
     0
 48
0.5
370
    -2
100
AcDbLine
 10
369.89983163
 20
667.63541102
 30
0.0
 11
369.89983163
 21
668.63541102
 31
0.0
  0
LINE
  5
1D5F
330
2
100
AcDbEntity
  8
YKK_11
  6
ByBlock
 62
     0
 48
0.5
370
    -2
100
AcDbLine
 10
369.89983163
 20
668.63541102
 30
0.0
 11
373.19983163
 21
668.63541102
 31
0.0
  0
LINE
  5
1D60
330
2
100
AcDbEntity
  8
YKK_11
  6
ByBlock
 62
     0
 48
0.5
370
    -2
100
AcDbLine
 10
373.19983163
 20
668.63541102
 30
0.0
 11
373.19983163
 21
670.60541102
 31
0.0
  0
LINE
  5
1D61
330
2
100
AcDbEntity
  8
YKK_11
  6
ByBlock
 62
     0
 48
0.5
370
    -2
100
AcDbLine
 10
373.19983163
 20
670.60541102
 30
0.0
 11
364.69983163
 21
670.60541102
 31
0.0
  0
LINE
  5
1D62
330
2
100
AcDbEntity
  8
YKK_11
  6
ByBlock
 62
     0
 48
0.5
370
    -2
100
AcDbLine
 10
364.69983163
 20
670.60541102
 30
0.0
 11
364.69983163
 21
668.63541102
 31
0.0
  0
LINE
  5
1D63
330
2
100
AcDbEntity
  8
YKK_11
  6
ByBlock
 62
     0
 48
0.5
370
    -2
100
AcDbLine
 10
364.69983163
 20
668.63541102
 30
0.0
 11
365.89983163
 21
668.63541102
 31
0.0
  0
LINE
  5
1D64
330
2
100
AcDbEntity
  8
YKK_11
  6
ByBlock
 62
     0
 48
0.5
370
    -2
100
AcDbLine
 10
365.89983163
 20
668.63541102
 30
0.0
 11
365.89983163
 21
667.63541102
 31
0.0
  0
LINE
  5
1D65
330
2
100
AcDbEntity
  8
YKK_11
  6
ByBlock
 62
     0
 48
0.5
370
    -2
100
AcDbLine
 10
365.89983163
 20
667.63541102
 30
0.0
 11
363.69983163
 21
667.63541102
 31
0.0
  0
LINE
  5
1D66
330
2
100
AcDbEntity
  8
YKK_11
  6
ByBlock
 62
     0
 48
0.5
370
    -2
100
AcDbLine
 10
363.69983163
 20
667.63541102
 30
0.0
 11
363.69983163
 21
670.60541102
 31
0.0
  0
LINE
  5
1D67
330
2
100
AcDbEntity
  8
YKK_11
  6
ByBlock
 62
     0
 48
0.5
370
    -2
100
AcDbLine
 10
363.69983163
 20
670.60541102
 30
0.0
 11
357.35808963
 21
670.60541102
 31
0.0
  0
LINE
  5
1D68
330
2
100
AcDbEntity
  8
YKK_11
  6
ByBlock
 62
     0
 48
0.5
370
    -2
100
AcDbLine
 10
357.35808963
 20
670.60541102
 30
0.0
 11
357.17478663
 21
670.72541102
 31
0.0
  0
LINE
  5
1D69
330
2
100
AcDbEntity
  8
YKK_11
  6
ByBlock
 62
     0
 48
0.5
370
    -2
100
AcDbLine
 10
357.17478663
 20
670.72541102
 30
0.0
 11
356.62487663
 21
670.72541102
 31
0.0
  0
LINE
  5
1D6A
330
2
100
AcDbEntity
  8
YKK_11
  6
ByBlock
 62
     0
 48
0.5
370
    -2
100
AcDbLine
 10
356.62487663
 20
670.72541102
 30
0.0
 11
356.44157363
 21
670.60541102
 31
0.0
  0
LINE
  5
1D6B
330
2
100
AcDbEntity
  8
YKK_11
  6
ByBlock
 62
     0
 48
0.5
370
    -2
100
AcDbLine
 10
356.44157363
 20
670.60541102
 30
0.0
 11
356.35808963
 21
670.60541102
 31
0.0
  0
LINE
  5
1D6C
330
2
100
AcDbEntity
  8
YKK_11
  6
ByBlock
 62
     0
 48
0.5
370
    -2
100
AcDbLine
 10
356.35808963
 20
670.60541102
 30
0.0
 11
356.17478663
 21
670.72541102
 31
0.0
  0
LINE
  5
1D6D
330
2
100
AcDbEntity
  8
YKK_11
  6
ByBlock
 62
     0
 48
0.5
370
    -2
100
AcDbLine
 10
356.17478663
 20
670.72541102
 30
0.0
 11
355.62487663
 21
670.72541102
 31
0.0
  0
LINE
  5
1D6E
330
2
100
AcDbEntity
  8
YKK_11
  6
ByBlock
 62
     0
 48
0.5
370
    -2
100
AcDbLine
 10
355.62487663
 20
670.72541102
 30
0.0
 11
355.44157363
 21
670.60541102
 31
0.0
  0
LINE
  5
1D6F
330
2
100
AcDbEntity
  8
YKK_11
  6
ByBlock
 62
     0
 48
0.5
370
    -2
100
AcDbLine
 10
355.44157363
 20
670.60541102
 30
0.0
 11
348.89983163
 21
670.60541102
 31
0.0
  0
LINE
  5
1D70
330
2
100
AcDbEntity
  8
YKK_11
  6
ByBlock
 62
     0
 48
0.5
370
    -2
100
AcDbLine
 10
348.89983163
 20
670.60541102
 30
0.0
 11
348.89983163
 21
651.33541102
 31
0.0
  0
LINE
  5
1D71
330
2
100
AcDbEntity
  8
YKK_11
  6
ByBlock
 62
     0
 48
0.5
370
    -2
100
AcDbLine
 10
348.89983163
 20
651.33541102
 30
0.0
 11
351.89983163
 21
651.33541102
 31
0.0
  0
LINE
  5
1D72
330
2
100
AcDbEntity
  8
YKK_11
  6
ByBlock
 62
     0
 48
0.5
370
    -2
100
AcDbLine
 10
351.89983163
 20
651.33541102
 30
0.0
 11
351.89983163
 21
647.13541102
 31
0.0
  0
LINE
  5
1D73
330
2
100
AcDbEntity
  8
YKK_11
  6
ByBlock
 62
     0
 48
0.5
370
    -2
100
AcDbLine
 10
351.89983163
 20
647.13541102
 30
0.0
 11
350.89983163
 21
647.13541102
 31
0.0
  0
LINE
  5
1D74
330
2
100
AcDbEntity
  8
YKK_11
  6
ByBlock
 62
     0
 48
0.5
370
    -2
100
AcDbLine
 10
350.89983163
 20
647.13541102
 30
0.0
 11
350.89983163
 21
650.33541102
 31
0.0
  0
LINE
  5
1D75
330
2
100
AcDbEntity
  8
YKK_11
  6
ByBlock
 62
     0
 48
0.5
370
    -2
100
AcDbLine
 10
350.89983163
 20
650.33541102
 30
0.0
 11
348.89983163
 21
650.33541102
 31
0.0
  0
LINE
  5
1D76
330
2
100
AcDbEntity
  8
YKK_11
  6
ByBlock
 62
     0
 48
0.5
370
    -2
100
AcDbLine
 10
348.89983163
 20
650.33541102
 30
0.0
 11
348.89983163
 21
632.26541102
 31
0.0
  0
LINE
  5
1D77
330
2
100
AcDbEntity
  8
YKK_11
  6
ByBlock
 62
     0
 48
0.5
370
    -2
100
AcDbLine
 10
348.89983163
 20
632.26541102
 30
0.0
 11
352.59983163
 21
632.26541102
 31
0.0
  0
LINE
  5
1D78
330
2
100
AcDbEntity
  8
YKK_11
  6
ByBlock
 62
     0
 48
0.5
370
    -2
100
AcDbLine
 10
352.59983163
 20
632.26541102
 30
0.0
 11
352.59983163
 21
633.76938643
 31
0.0
  0
LINE
  5
1D79
330
2
100
AcDbEntity
  8
YKK_11
  6
ByBlock
 62
     0
 48
0.5
370
    -2
100
AcDbLine
 10
352.59983163
 20
633.76938643
 30
0.0
 11
353.09983117
 21
634.63541102
 31
0.0
  0
LINE
  5
1D7A
330
2
100
AcDbEntity
  8
YKK_11
  6
ByBlock
 62
     0
 48
0.5
370
    -2
100
AcDbLine
 10
353.09983117
 20
634.63541102
 30
0.0
 11
353.89983163
 21
634.63541102
 31
0.0
  0
LINE
  5
1D7B
330
2
100
AcDbEntity
  8
YKK_11
  6
ByBlock
 62
     0
 48
0.5
370
    -2
100
AcDbLine
 10
353.89983163
 20
634.63541102
 30
0.0
 11
353.89983163
 21
630.63541102
 31
0.0
  0
LINE
  5
1D7C
330
2
100
AcDbEntity
  8
YKK_11
  6
ByBlock
 62
     0
 48
0.5
370
    -2
100
AcDbLine
 10
353.89983163
 20
630.63541102
 30
0.0
 11
348.89983163
 21
630.63541102
 31
0.0
  0
LINE
  5
1D7D
330
2
100
AcDbEntity
  8
YKK_11
  6
ByBlock
 62
     0
 48
0.5
370
    -2
100
AcDbLine
 10
348.89983163
 20
630.63541102
 30
0.0
 11
348.89983163
 21
608.13541102
 31
0.0
  0
LINE
  5
1D7E
330
2
100
AcDbEntity
  8
YKK_11
  6
ByBlock
 62
     0
 48
0.5
370
    -2
100
AcDbLine
 10
348.89983163
 20
608.13541102
 30
0.0
 11
328.89983163
 21
608.13541102
 31
0.0
  0
LINE
  5
1D7F
330
2
100
AcDbEntity
  8
YKK_11
  6
ByBlock
 62
     0
 48
0.5
370
    -2
100
AcDbLine
 10
328.89983163
 20
608.13541102
 30
0.0
 11
328.89983163
 21
630.63541102
 31
0.0
  0
LINE
  5
1D80
330
2
100
AcDbEntity
  8
YKK_11
  6
ByBlock
 62
     0
 48
0.5
370
    -2
100
AcDbLine
 10
328.89983163
 20
630.63541102
 30
0.0
 11
323.89983163
 21
630.63541102
 31
0.0
  0
LINE
  5
1D81
330
2
100
AcDbEntity
  8
YKK_11
  6
ByBlock
 62
     0
 48
0.5
370
    -2
100
AcDbLine
 10
323.89983163
 20
630.63541102
 30
0.0
 11
323.89983163
 21
634.63541102
 31
0.0
  0
LINE
  5
1D82
330
2
100
AcDbEntity
  8
YKK_11
  6
ByBlock
 62
     0
 48
0.5
370
    -2
100
AcDbLine
 10
323.89983163
 20
634.63541102
 30
0.0
 11
324.69983209
 21
634.63541102
 31
0.0
  0
LINE
  5
1D83
330
2
100
AcDbEntity
  8
YKK_11
  6
ByBlock
 62
     0
 48
0.5
370
    -2
100
AcDbLine
 10
324.69983209
 20
634.63541102
 30
0.0
 11
325.19983163
 21
633.76938643
 31
0.0
  0
LINE
  5
1D84
330
2
100
AcDbEntity
  8
YKK_11
  6
ByBlock
 62
     0
 48
0.5
370
    -2
100
AcDbLine
 10
325.19983163
 20
633.76938643
 30
0.0
 11
325.19983163
 21
632.26541102
 31
0.0
  0
LINE
  5
1D85
330
2
100
AcDbEntity
  8
YKK_11
  6
ByBlock
 62
     0
 48
0.5
370
    -2
100
AcDbLine
 10
325.19983163
 20
632.26541102
 30
0.0
 11
328.89983163
 21
632.26541102
 31
0.0
  0
LINE
  5
1D86
330
2
100
AcDbEntity
  8
YKK_11
  6
ByBlock
 62
     0
 48
0.5
370
    -2
100
AcDbLine
 10
328.89983163
 20
632.26541102
 30
0.0
 11
328.89983163
 21
650.33541102
 31
0.0
  0
LINE
  5
1D87
330
2
100
AcDbEntity
  8
YKK_11
  6
ByBlock
 62
     0
 48
0.5
370
    -2
100
AcDbLine
 10
328.89983163
 20
650.33541102
 30
0.0
 11
326.89983163
 21
650.33541102
 31
0.0
  0
LINE
  5
1D88
330
2
100
AcDbEntity
  8
YKK_11
  6
ByBlock
 62
     0
 48
0.5
370
    -2
100
AcDbLine
 10
326.89983163
 20
650.33541102
 30
0.0
 11
326.89983163
 21
647.13541102
 31
0.0
  0
LINE
  5
1D89
330
2
100
AcDbEntity
  8
YKK_11
  6
ByBlock
 62
     0
 48
0.5
370
    -2
100
AcDbLine
 10
326.89983163
 20
647.13541102
 30
0.0
 11
325.89983163
 21
647.13541102
 31
0.0
  0
LINE
  5
1D8A
330
2
100
AcDbEntity
  8
YKK_11
  6
ByBlock
 62
     0
 48
0.5
370
    -2
100
AcDbLine
 10
325.89983163
 20
647.13541102
 30
0.0
 11
325.89983163
 21
651.33541102
 31
0.0
  0
LINE
  5
1D8B
330
2
100
AcDbEntity
  8
YKK_11
  6
ByBlock
 62
     0
 48
0.5
370
    -2
100
AcDbLine
 10
325.89983163
 20
651.33541102
 30
0.0
 11
328.89983163
 21
651.33541102
 31
0.0
  0
LINE
  5
1D8C
330
2
100
AcDbEntity
  8
YKK_11
  6
ByBlock
 62
     0
 48
0.5
370
    -2
100
AcDbLine
 10
328.89983163
 20
651.33541102
 30
0.0
 11
328.89983163
 21
670.60541102
 31
0.0
  0
LINE
  5
1D8D
330
2
100
AcDbEntity
  8
YKK_11
  6
ByBlock
 62
     0
 48
0.5
370
    -2
100
AcDbLine
 10
328.89983163
 20
670.60541102
 30
0.0
 11
314.09983163
 21
670.60541102
 31
0.0
  0
LINE
  5
1D8E
330
2
100
AcDbEntity
  8
YKK_11
  6
ByBlock
 62
     0
 48
0.5
370
    -2
100
AcDbLine
 10
314.09983163
 20
670.60541102
 30
0.0
 11
314.09983163
 21
667.63541102
 31
0.0
  0
LINE
  5
1D8F
330
2
100
AcDbEntity
  8
YKK_11
  6
ByBlock
 62
     0
 48
0.5
370
    -2
100
AcDbLine
 10
314.09983163
 20
667.63541102
 30
0.0
 11
311.89983163
 21
667.63541102
 31
0.0
  0
LINE
  5
1D90
330
2
100
AcDbEntity
  8
YKK_11
  6
ByBlock
 62
     0
 48
0.5
370
    -2
100
AcDbLine
 10
311.89983163
 20
667.63541102
 30
0.0
 11
311.89983163
 21
668.63541102
 31
0.0
  0
LINE
  5
1D91
330
2
100
AcDbEntity
  8
YKK_11
  6
ByBlock
 62
     0
 48
0.5
370
    -2
100
AcDbLine
 10
311.89983163
 20
668.63541102
 30
0.0
 11
313.09983163
 21
668.63541102
 31
0.0
  0
LINE
  5
1D92
330
2
100
AcDbEntity
  8
YKK_11
  6
ByBlock
 62
     0
 48
0.5
370
    -2
100
AcDbLine
 10
313.09983163
 20
668.63541102
 30
0.0
 11
313.09983163
 21
670.60541102
 31
0.0
  0
LINE
  5
1D93
330
2
100
AcDbEntity
  8
YKK_11
  6
ByBlock
 62
     0
 48
0.5
370
    -2
100
AcDbLine
 10
313.09983163
 20
670.60541102
 30
0.0
 11
304.59983163
 21
670.60541102
 31
0.0
  0
LINE
  5
1D94
330
2
100
AcDbEntity
  8
YKK_11
  6
ByBlock
 62
     0
 48
0.5
370
    -2
100
AcDbLine
 10
304.59983163
 20
670.60541102
 30
0.0
 11
304.59983163
 21
668.63541102
 31
0.0
  0
LINE
  5
1D95
330
2
100
AcDbEntity
  8
YKK_11
  6
ByBlock
 62
     0
 48
0.5
370
    -2
100
AcDbLine
 10
304.59983163
 20
668.63541102
 30
0.0
 11
307.89983163
 21
668.63541102
 31
0.0
  0
LINE
  5
1D96
330
2
100
AcDbEntity
  8
YKK_11
  6
ByBlock
 62
     0
 48
0.5
370
    -2
100
AcDbLine
 10
307.89983163
 20
668.63541102
 30
0.0
 11
307.89983163
 21
667.63541102
 31
0.0
  0
LINE
  5
1D97
330
2
100
AcDbEntity
  8
YKK_11
  6
ByBlock
 62
     0
 48
0.5
370
    -2
100
AcDbLine
 10
307.89983163
 20
667.63541102
 30
0.0
 11
301.89983163
 21
667.63541102
 31
0.0
  0
LINE
  5
1D98
330
2
100
AcDbEntity
  8
YKK_11
  6
ByBlock
 62
     0
 48
0.5
370
    -2
100
AcDbLine
 10
301.89983163
 20
667.63541102
 30
0.0
 11
301.89983163
 21
672.23541102
 31
0.0
  0
LINE
  5
1FC0
330
2
100
AcDbEntity
  8
YKK_11
  6
ByBlock
 62
     0
 48
0.5
370
    -2
100
AcDbLine
 10
234.89984385
 20
630.63541103
 30
0.0
 11
256.89984385
 21
630.63541103
 31
0.0
  0
LINE
  5
1FC1
330
2
100
AcDbEntity
  8
YKK_11
  6
ByBlock
 62
     0
 48
0.5
370
    -2
100
AcDbLine
 10
256.89984385
 20
630.63541103
 30
0.0
 11
256.89984385
 21
632.63541103
 31
0.0
  0
LINE
  5
1FC2
330
2
100
AcDbEntity
  8
YKK_11
  6
ByBlock
 62
     0
 48
0.5
370
    -2
100
AcDbLine
 10
256.89984385
 20
632.63541103
 30
0.0
 11
250.89984385
 21
632.63541103
 31
0.0
  0
LINE
  5
1FC3
330
2
100
AcDbEntity
  8
YKK_11
  6
ByBlock
 62
     0
 48
0.5
370
    -2
100
AcDbLine
 10
250.89984385
 20
632.63541103
 30
0.0
 11
250.89984385
 21
631.93541103
 31
0.0
  0
LINE
  5
1FC4
330
2
100
AcDbEntity
  8
YKK_11
  6
ByBlock
 62
     0
 48
0.5
370
    -2
100
AcDbLine
 10
250.89984385
 20
631.93541103
 30
0.0
 11
249.89984316
 21
631.93541103
 31
0.0
  0
LINE
  5
1FC5
330
2
100
AcDbEntity
  8
YKK_11
  6
ByBlock
 62
     0
 48
0.5
370
    -2
100
AcDbLine
 10
249.89984316
 20
631.93541103
 30
0.0
 11
248.99317654
 21
632.26541103
 31
0.0
  0
LINE
  5
1FC6
330
2
100
AcDbEntity
  8
YKK_11
  6
ByBlock
 62
     0
 48
0.5
370
    -2
100
AcDbLine
 10
248.99317654
 20
632.26541103
 30
0.0
 11
240.85811285
 21
632.26541103
 31
0.0
  0
LINE
  5
1FC7
330
2
100
AcDbEntity
  8
YKK_11
  6
ByBlock
 62
     0
 48
0.5
370
    -2
100
AcDbLine
 10
240.85811285
 20
632.26541103
 30
0.0
 11
240.67480985
 21
632.14541103
 31
0.0
  0
LINE
  5
1FC8
330
2
100
AcDbEntity
  8
YKK_11
  6
ByBlock
 62
     0
 48
0.5
370
    -2
100
AcDbLine
 10
240.67480985
 20
632.14541103
 30
0.0
 11
240.12490085
 21
632.14541103
 31
0.0
  0
LINE
  5
1FC9
330
2
100
AcDbEntity
  8
YKK_11
  6
ByBlock
 62
     0
 48
0.5
370
    -2
100
AcDbLine
 10
240.12490085
 20
632.14541103
 30
0.0
 11
239.94159785
 21
632.26541103
 31
0.0
  0
LINE
  5
1FCA
330
2
100
AcDbEntity
  8
YKK_11
  6
ByBlock
 62
     0
 48
0.5
370
    -2
100
AcDbLine
 10
239.94159785
 20
632.26541103
 30
0.0
 11
239.85811285
 21
632.26541103
 31
0.0
  0
LINE
  5
1FCB
330
2
100
AcDbEntity
  8
YKK_11
  6
ByBlock
 62
     0
 48
0.5
370
    -2
100
AcDbLine
 10
239.85811285
 20
632.26541103
 30
0.0
 11
239.67480985
 21
632.14541103
 31
0.0
  0
LINE
  5
1FCC
330
2
100
AcDbEntity
  8
YKK_11
  6
ByBlock
 62
     0
 48
0.5
370
    -2
100
AcDbLine
 10
239.67480985
 20
632.14541103
 30
0.0
 11
239.12490085
 21
632.14541103
 31
0.0
  0
LINE
  5
1FCD
330
2
100
AcDbEntity
  8
YKK_11
  6
ByBlock
 62
     0
 48
0.5
370
    -2
100
AcDbLine
 10
239.12490085
 20
632.14541103
 30
0.0
 11
238.94159785
 21
632.26541103
 31
0.0
  0
LINE
  5
1FCE
330
2
100
AcDbEntity
  8
YKK_11
  6
ByBlock
 62
     0
 48
0.5
370
    -2
100
AcDbLine
 10
238.94159785
 20
632.26541103
 30
0.0
 11
237.69984385
 21
632.26541103
 31
0.0
  0
ARC
  5
1FCF
330
2
100
AcDbEntity
  8
YKK_11
  6
ByBlock
 62
     0
 48
0.5
370
    -2
100
AcDbCircle
 10
237.69984401
 20
633.26541119
 30
0.0
 40
1.000000163397557
100
AcDbArc
 50
180.00000936
 51
269.99999064
  0
LINE
  5
1FD0
330
2
100
AcDbEntity
  8
YKK_11
  6
ByBlock
 62
     0
 48
0.5
370
    -2
100
AcDbLine
 10
236.69984385
 20
633.26541103
 30
0.0
 11
236.69984385
 21
634.43541103
 31
0.0
  0
ARC
  5
1FD1
330
2
100
AcDbEntity
  8
YKK_11
  6
ByBlock
 62
     0
 48
0.5
370
    -2
100
AcDbCircle
 10
235.1998436
 20
634.43541078
 30
0.0
 40
1.500000245096336
100
AcDbArc
 50
0.00000936
 51
89.99999064
  0
LINE
  5
1FD2
330
2
100
AcDbEntity
  8
YKK_11
  6
ByBlock
 62
     0
 48
0.5
370
    -2
100
AcDbLine
 10
235.19984385
 20
635.93541103
 30
0.0
 11
233.37948141
 21
635.93541103
 31
0.0
  0
LINE
  5
1FD3
330
2
100
AcDbEntity
  8
YKK_11
  6
ByBlock
 62
     0
 48
0.5
370
    -2
100
AcDbLine
 10
233.37948141
 20
635.93541103
 30
0.0
 11
231.29984385
 21
643.69672506
 31
0.0
  0
LINE
  5
1FD4
330
2
100
AcDbEntity
  8
YKK_11
  6
ByBlock
 62
     0
 48
0.5
370
    -2
100
AcDbLine
 10
231.29984385
 20
643.69672506
 30
0.0
 11
231.29984385
 21
646.98688303
 31
0.0
  0
LINE
  5
1FD5
330
2
100
AcDbEntity
  8
YKK_11
  6
ByBlock
 62
     0
 48
0.5
370
    -2
100
AcDbLine
 10
231.29984385
 20
646.98688303
 30
0.0
 11
231.72410785
 21
647.41114703
 31
0.0
  0
ARC
  5
1FD6
330
2
100
AcDbEntity
  8
YKK_11
  6
ByBlock
 62
     0
 48
0.5
370
    -2
100
AcDbCircle
 10
231.29984392
 20
647.8354111
 30
0.0
 40
0.599999902826659
100
AcDbArc
 50
314.99999007
 51
135.00000992
  0
LINE
  5
1FD7
330
2
100
AcDbEntity
  8
YKK_11
  6
ByBlock
 62
     0
 48
0.5
370
    -2
100
AcDbLine
 10
230.87557985
 20
648.25967503
 30
0.0
 11
230.09984385
 21
647.48393903
 31
0.0
  0
LINE
  5
1FD8
330
2
100
AcDbEntity
  8
YKK_11
  6
ByBlock
 62
     0
 48
0.5
370
    -2
100
AcDbLine
 10
230.09984385
 20
647.48393903
 30
0.0
 11
230.09984385
 21
643.53874205
 31
0.0
  0
LINE
  5
1FD9
330
2
100
AcDbEntity
  8
YKK_11
  6
ByBlock
 62
     0
 48
0.5
370
    -2
100
AcDbLine
 10
230.09984385
 20
643.53874205
 30
0.0
 11
232.80702313
 21
633.43541103
 31
0.0
  0
LINE
  5
1FDA
330
2
100
AcDbEntity
  8
YKK_11
  6
ByBlock
 62
     0
 48
0.5
370
    -2
100
AcDbLine
 10
232.80702313
 20
633.43541103
 30
0.0
 11
233.40702335
 21
633.43541103
 31
0.0
  0
LINE
  5
1FDB
330
2
100
AcDbEntity
  8
YKK_11
  6
ByBlock
 62
     0
 48
0.5
370
    -2
100
AcDbLine
 10
233.40702335
 20
633.43541103
 30
0.0
 11
234.09984335
 21
634.63541103
 31
0.0
  0
LINE
  5
1FDC
330
2
100
AcDbEntity
  8
YKK_11
  6
ByBlock
 62
     0
 48
0.5
370
    -2
100
AcDbLine
 10
234.09984335
 20
634.63541103
 30
0.0
 11
235.39984385
 21
634.63541103
 31
0.0
  0
LINE
  5
1FDD
330
2
100
AcDbEntity
  8
YKK_11
  6
ByBlock
 62
     0
 48
0.5
370
    -2
100
AcDbLine
 10
235.39984385
 20
634.63541103
 30
0.0
 11
235.39984385
 21
632.83541103
 31
0.0
  0
LINE
  5
1FDE
330
2
100
AcDbEntity
  8
YKK_11
  6
ByBlock
 62
     0
 48
0.5
370
    -2
100
AcDbLine
 10
235.39984385
 20
632.83541103
 30
0.0
 11
235.19984385
 21
632.63541103
 31
0.0
  0
LINE
  5
1FDF
330
2
100
AcDbEntity
  8
YKK_11
  6
ByBlock
 62
     0
 48
0.5
370
    -2
100
AcDbLine
 10
235.19984385
 20
632.63541103
 30
0.0
 11
234.89984385
 21
632.33541103
 31
0.0
  0
LINE
  5
1FE0
330
2
100
AcDbEntity
  8
YKK_11
  6
ByBlock
 62
     0
 48
0.5
370
    -2
100
AcDbLine
 10
234.89984385
 20
632.33541103
 30
0.0
 11
234.89984385
 21
630.63541103
 31
0.0
  0
LINE
  5
1FE1
330
2
100
AcDbEntity
  8
YKK_11
  6
ByBlock
 62
     0
 48
0.5
370
    -2
100
AcDbLine
 10
211.82983164
 20
670.3054075
 30
0.0
 11
211.82983164
 21
610.0654075
 31
0.0
  0
LINE
  5
1FE2
330
2
100
AcDbEntity
  8
YKK_11
  6
ByBlock
 62
     0
 48
0.5
370
    -2
100
AcDbLine
 10
211.82983164
 20
610.0654075
 30
0.0
 11
227.96983164
 21
610.0654075
 31
0.0
  0
LINE
  5
1FE3
330
2
100
AcDbEntity
  8
YKK_11
  6
ByBlock
 62
     0
 48
0.5
370
    -2
100
AcDbLine
 10
227.96983164
 20
610.0654075
 30
0.0
 11
227.96983164
 21
670.3054075
 31
0.0
  0
LINE
  5
1FE4
330
2
100
AcDbEntity
  8
YKK_11
  6
ByBlock
 62
     0
 48
0.5
370
    -2
100
AcDbLine
 10
227.96983164
 20
670.3054075
 30
0.0
 11
211.82983164
 21
670.3054075
 31
0.0
  0
LINE
  5
1FE5
330
2
100
AcDbEntity
  8
YKK_11
  6
ByBlock
 62
     0
 48
0.5
370
    -2
100
AcDbLine
 10
211.82983164
 20
670.3054075
 30
0.0
 11
211.82983164
 21
610.0654075
 31
0.0
  0
LINE
  5
1FE6
330
2
100
AcDbEntity
  8
YKK_11
  6
ByBlock
 62
     0
 48
0.5
370
    -2
100
AcDbLine
 10
182.89983164
 20
672.2354075
 30
0.0
 11
256.89983164
 21
672.2354075
 31
0.0
  0
LINE
  5
1FE7
330
2
100
AcDbEntity
  8
YKK_11
  6
ByBlock
 62
     0
 48
0.5
370
    -2
100
AcDbLine
 10
256.89983164
 20
672.2354075
 30
0.0
 11
256.89983164
 21
667.6354075
 31
0.0
  0
LINE
  5
1FE8
330
2
100
AcDbEntity
  8
YKK_11
  6
ByBlock
 62
     0
 48
0.5
370
    -2
100
AcDbLine
 10
256.89983164
 20
667.6354075
 30
0.0
 11
250.89983164
 21
667.6354075
 31
0.0
  0
LINE
  5
1FE9
330
2
100
AcDbEntity
  8
YKK_11
  6
ByBlock
 62
     0
 48
0.5
370
    -2
100
AcDbLine
 10
250.89983164
 20
667.6354075
 30
0.0
 11
250.89983164
 21
668.6354075
 31
0.0
  0
LINE
  5
1FEA
330
2
100
AcDbEntity
  8
YKK_11
  6
ByBlock
 62
     0
 48
0.5
370
    -2
100
AcDbLine
 10
250.89983164
 20
668.6354075
 30
0.0
 11
254.19983164
 21
668.6354075
 31
0.0
  0
LINE
  5
1FEB
330
2
100
AcDbEntity
  8
YKK_11
  6
ByBlock
 62
     0
 48
0.5
370
    -2
100
AcDbLine
 10
254.19983164
 20
668.6354075
 30
0.0
 11
254.19983164
 21
670.6054075
 31
0.0
  0
LINE
  5
1FEC
330
2
100
AcDbEntity
  8
YKK_11
  6
ByBlock
 62
     0
 48
0.5
370
    -2
100
AcDbLine
 10
254.19983164
 20
670.6054075
 30
0.0
 11
245.69983164
 21
670.6054075
 31
0.0
  0
LINE
  5
1FED
330
2
100
AcDbEntity
  8
YKK_11
  6
ByBlock
 62
     0
 48
0.5
370
    -2
100
AcDbLine
 10
245.69983164
 20
670.6054075
 30
0.0
 11
245.69983164
 21
668.6354075
 31
0.0
  0
LINE
  5
1FEE
330
2
100
AcDbEntity
  8
YKK_11
  6
ByBlock
 62
     0
 48
0.5
370
    -2
100
AcDbLine
 10
245.69983164
 20
668.6354075
 30
0.0
 11
246.89983164
 21
668.6354075
 31
0.0
  0
LINE
  5
1FEF
330
2
100
AcDbEntity
  8
YKK_11
  6
ByBlock
 62
     0
 48
0.5
370
    -2
100
AcDbLine
 10
246.89983164
 20
668.6354075
 30
0.0
 11
246.89983164
 21
667.6354075
 31
0.0
  0
LINE
  5
1FF0
330
2
100
AcDbEntity
  8
YKK_11
  6
ByBlock
 62
     0
 48
0.5
370
    -2
100
AcDbLine
 10
246.89983164
 20
667.6354075
 30
0.0
 11
244.69983164
 21
667.6354075
 31
0.0
  0
LINE
  5
1FF1
330
2
100
AcDbEntity
  8
YKK_11
  6
ByBlock
 62
     0
 48
0.5
370
    -2
100
AcDbLine
 10
244.69983164
 20
667.6354075
 30
0.0
 11
244.69983164
 21
670.6054075
 31
0.0
  0
LINE
  5
1FF2
330
2
100
AcDbEntity
  8
YKK_11
  6
ByBlock
 62
     0
 48
0.5
370
    -2
100
AcDbLine
 10
244.69983164
 20
670.6054075
 30
0.0
 11
238.35808964
 21
670.6054075
 31
0.0
  0
LINE
  5
1FF3
330
2
100
AcDbEntity
  8
YKK_11
  6
ByBlock
 62
     0
 48
0.5
370
    -2
100
AcDbLine
 10
238.35808964
 20
670.6054075
 30
0.0
 11
238.17478664
 21
670.7254075
 31
0.0
  0
LINE
  5
1FF4
330
2
100
AcDbEntity
  8
YKK_11
  6
ByBlock
 62
     0
 48
0.5
370
    -2
100
AcDbLine
 10
238.17478664
 20
670.7254075
 30
0.0
 11
237.62487664
 21
670.7254075
 31
0.0
  0
LINE
  5
1FF5
330
2
100
AcDbEntity
  8
YKK_11
  6
ByBlock
 62
     0
 48
0.5
370
    -2
100
AcDbLine
 10
237.62487664
 20
670.7254075
 30
0.0
 11
237.44157364
 21
670.6054075
 31
0.0
  0
LINE
  5
1FF6
330
2
100
AcDbEntity
  8
YKK_11
  6
ByBlock
 62
     0
 48
0.5
370
    -2
100
AcDbLine
 10
237.44157364
 20
670.6054075
 30
0.0
 11
237.35808964
 21
670.6054075
 31
0.0
  0
LINE
  5
1FF7
330
2
100
AcDbEntity
  8
YKK_11
  6
ByBlock
 62
     0
 48
0.5
370
    -2
100
AcDbLine
 10
237.35808964
 20
670.6054075
 30
0.0
 11
237.17478664
 21
670.7254075
 31
0.0
  0
LINE
  5
1FF8
330
2
100
AcDbEntity
  8
YKK_11
  6
ByBlock
 62
     0
 48
0.5
370
    -2
100
AcDbLine
 10
237.17478664
 20
670.7254075
 30
0.0
 11
236.62487664
 21
670.7254075
 31
0.0
  0
LINE
  5
1FF9
330
2
100
AcDbEntity
  8
YKK_11
  6
ByBlock
 62
     0
 48
0.5
370
    -2
100
AcDbLine
 10
236.62487664
 20
670.7254075
 30
0.0
 11
236.44157364
 21
670.6054075
 31
0.0
  0
LINE
  5
1FFA
330
2
100
AcDbEntity
  8
YKK_11
  6
ByBlock
 62
     0
 48
0.5
370
    -2
100
AcDbLine
 10
236.44157364
 20
670.6054075
 30
0.0
 11
229.89983164
 21
670.6054075
 31
0.0
  0
LINE
  5
1FFB
330
2
100
AcDbEntity
  8
YKK_11
  6
ByBlock
 62
     0
 48
0.5
370
    -2
100
AcDbLine
 10
229.89983164
 20
670.6054075
 30
0.0
 11
229.89983164
 21
651.3354075
 31
0.0
  0
LINE
  5
1FFC
330
2
100
AcDbEntity
  8
YKK_11
  6
ByBlock
 62
     0
 48
0.5
370
    -2
100
AcDbLine
 10
229.89983164
 20
651.3354075
 30
0.0
 11
232.89983164
 21
651.3354075
 31
0.0
  0
LINE
  5
1FFD
330
2
100
AcDbEntity
  8
YKK_11
  6
ByBlock
 62
     0
 48
0.5
370
    -2
100
AcDbLine
 10
232.89983164
 20
651.3354075
 30
0.0
 11
232.89983164
 21
647.1354075
 31
0.0
  0
LINE
  5
1FFE
330
2
100
AcDbEntity
  8
YKK_11
  6
ByBlock
 62
     0
 48
0.5
370
    -2
100
AcDbLine
 10
232.89983164
 20
647.1354075
 30
0.0
 11
231.89983164
 21
647.1354075
 31
0.0
  0
LINE
  5
1FFF
330
2
100
AcDbEntity
  8
YKK_11
  6
ByBlock
 62
     0
 48
0.5
370
    -2
100
AcDbLine
 10
231.89983164
 20
647.1354075
 30
0.0
 11
231.89983164
 21
650.3354075
 31
0.0
  0
LINE
  5
2000
330
2
100
AcDbEntity
  8
YKK_11
  6
ByBlock
 62
     0
 48
0.5
370
    -2
100
AcDbLine
 10
231.89983164
 20
650.3354075
 30
0.0
 11
229.89983164
 21
650.3354075
 31
0.0
  0
LINE
  5
2001
330
2
100
AcDbEntity
  8
YKK_11
  6
ByBlock
 62
     0
 48
0.5
370
    -2
100
AcDbLine
 10
229.89983164
 20
650.3354075
 30
0.0
 11
229.89983164
 21
632.2654075
 31
0.0
  0
LINE
  5
2002
330
2
100
AcDbEntity
  8
YKK_11
  6
ByBlock
 62
     0
 48
0.5
370
    -2
100
AcDbLine
 10
229.89983164
 20
632.2654075
 30
0.0
 11
233.59983164
 21
632.2654075
 31
0.0
  0
LINE
  5
2003
330
2
100
AcDbEntity
  8
YKK_11
  6
ByBlock
 62
     0
 48
0.5
370
    -2
100
AcDbLine
 10
233.59983164
 20
632.2654075
 30
0.0
 11
233.59983164
 21
633.76938292
 31
0.0
  0
LINE
  5
2004
330
2
100
AcDbEntity
  8
YKK_11
  6
ByBlock
 62
     0
 48
0.5
370
    -2
100
AcDbLine
 10
233.59983164
 20
633.76938292
 30
0.0
 11
234.09983118
 21
634.6354075
 31
0.0
  0
LINE
  5
2005
330
2
100
AcDbEntity
  8
YKK_11
  6
ByBlock
 62
     0
 48
0.5
370
    -2
100
AcDbLine
 10
234.09983118
 20
634.6354075
 30
0.0
 11
234.89983164
 21
634.6354075
 31
0.0
  0
LINE
  5
2006
330
2
100
AcDbEntity
  8
YKK_11
  6
ByBlock
 62
     0
 48
0.5
370
    -2
100
AcDbLine
 10
234.89983164
 20
634.6354075
 30
0.0
 11
234.89983164
 21
630.6354075
 31
0.0
  0
LINE
  5
2007
330
2
100
AcDbEntity
  8
YKK_11
  6
ByBlock
 62
     0
 48
0.5
370
    -2
100
AcDbLine
 10
234.89983164
 20
630.6354075
 30
0.0
 11
229.89983164
 21
630.6354075
 31
0.0
  0
LINE
  5
2008
330
2
100
AcDbEntity
  8
YKK_11
  6
ByBlock
 62
     0
 48
0.5
370
    -2
100
AcDbLine
 10
229.89983164
 20
630.6354075
 30
0.0
 11
229.89983164
 21
608.1354075
 31
0.0
  0
LINE
  5
2009
330
2
100
AcDbEntity
  8
YKK_11
  6
ByBlock
 62
     0
 48
0.5
370
    -2
100
AcDbLine
 10
229.89983164
 20
608.1354075
 30
0.0
 11
209.89983164
 21
608.1354075
 31
0.0
  0
LINE
  5
200A
330
2
100
AcDbEntity
  8
YKK_11
  6
ByBlock
 62
     0
 48
0.5
370
    -2
100
AcDbLine
 10
209.89983164
 20
608.1354075
 30
0.0
 11
209.89983164
 21
630.6354075
 31
0.0
  0
LINE
  5
200B
330
2
100
AcDbEntity
  8
YKK_11
  6
ByBlock
 62
     0
 48
0.5
370
    -2
100
AcDbLine
 10
209.89983164
 20
630.6354075
 30
0.0
 11
204.89983164
 21
630.6354075
 31
0.0
  0
LINE
  5
200C
330
2
100
AcDbEntity
  8
YKK_11
  6
ByBlock
 62
     0
 48
0.5
370
    -2
100
AcDbLine
 10
204.89983164
 20
630.6354075
 30
0.0
 11
204.89983164
 21
634.6354075
 31
0.0
  0
LINE
  5
200D
330
2
100
AcDbEntity
  8
YKK_11
  6
ByBlock
 62
     0
 48
0.5
370
    -2
100
AcDbLine
 10
204.89983164
 20
634.6354075
 30
0.0
 11
205.6998321
 21
634.6354075
 31
0.0
  0
LINE
  5
200E
330
2
100
AcDbEntity
  8
YKK_11
  6
ByBlock
 62
     0
 48
0.5
370
    -2
100
AcDbLine
 10
205.6998321
 20
634.6354075
 30
0.0
 11
206.19983164
 21
633.76938292
 31
0.0
  0
LINE
  5
200F
330
2
100
AcDbEntity
  8
YKK_11
  6
ByBlock
 62
     0
 48
0.5
370
    -2
100
AcDbLine
 10
206.19983164
 20
633.76938292
 30
0.0
 11
206.19983164
 21
632.2654075
 31
0.0
  0
LINE
  5
2010
330
2
100
AcDbEntity
  8
YKK_11
  6
ByBlock
 62
     0
 48
0.5
370
    -2
100
AcDbLine
 10
206.19983164
 20
632.2654075
 30
0.0
 11
209.89983164
 21
632.2654075
 31
0.0
  0
LINE
  5
2011
330
2
100
AcDbEntity
  8
YKK_11
  6
ByBlock
 62
     0
 48
0.5
370
    -2
100
AcDbLine
 10
209.89983164
 20
632.2654075
 30
0.0
 11
209.89983164
 21
650.3354075
 31
0.0
  0
LINE
  5
2012
330
2
100
AcDbEntity
  8
YKK_11
  6
ByBlock
 62
     0
 48
0.5
370
    -2
100
AcDbLine
 10
209.89983164
 20
650.3354075
 30
0.0
 11
207.89983164
 21
650.3354075
 31
0.0
  0
LINE
  5
2013
330
2
100
AcDbEntity
  8
YKK_11
  6
ByBlock
 62
     0
 48
0.5
370
    -2
100
AcDbLine
 10
207.89983164
 20
650.3354075
 30
0.0
 11
207.89983164
 21
647.1354075
 31
0.0
  0
LINE
  5
2014
330
2
100
AcDbEntity
  8
YKK_11
  6
ByBlock
 62
     0
 48
0.5
370
    -2
100
AcDbLine
 10
207.89983164
 20
647.1354075
 30
0.0
 11
206.89983164
 21
647.1354075
 31
0.0
  0
LINE
  5
2015
330
2
100
AcDbEntity
  8
YKK_11
  6
ByBlock
 62
     0
 48
0.5
370
    -2
100
AcDbLine
 10
206.89983164
 20
647.1354075
 30
0.0
 11
206.89983164
 21
651.3354075
 31
0.0
  0
LINE
  5
2016
330
2
100
AcDbEntity
  8
YKK_11
  6
ByBlock
 62
     0
 48
0.5
370
    -2
100
AcDbLine
 10
206.89983164
 20
651.3354075
 30
0.0
 11
209.89983164
 21
651.3354075
 31
0.0
  0
LINE
  5
2017
330
2
100
AcDbEntity
  8
YKK_11
  6
ByBlock
 62
     0
 48
0.5
370
    -2
100
AcDbLine
 10
209.89983164
 20
651.3354075
 30
0.0
 11
209.89983164
 21
670.6054075
 31
0.0
  0
LINE
  5
2018
330
2
100
AcDbEntity
  8
YKK_11
  6
ByBlock
 62
     0
 48
0.5
370
    -2
100
AcDbLine
 10
209.89983164
 20
670.6054075
 30
0.0
 11
195.09983164
 21
670.6054075
 31
0.0
  0
LINE
  5
2019
330
2
100
AcDbEntity
  8
YKK_11
  6
ByBlock
 62
     0
 48
0.5
370
    -2
100
AcDbLine
 10
195.09983164
 20
670.6054075
 30
0.0
 11
195.09983164
 21
667.6354075
 31
0.0
  0
LINE
  5
201A
330
2
100
AcDbEntity
  8
YKK_11
  6
ByBlock
 62
     0
 48
0.5
370
    -2
100
AcDbLine
 10
195.09983164
 20
667.6354075
 30
0.0
 11
192.89983164
 21
667.6354075
 31
0.0
  0
LINE
  5
201B
330
2
100
AcDbEntity
  8
YKK_11
  6
ByBlock
 62
     0
 48
0.5
370
    -2
100
AcDbLine
 10
192.89983164
 20
667.6354075
 30
0.0
 11
192.89983164
 21
668.6354075
 31
0.0
  0
LINE
  5
201C
330
2
100
AcDbEntity
  8
YKK_11
  6
ByBlock
 62
     0
 48
0.5
370
    -2
100
AcDbLine
 10
192.89983164
 20
668.6354075
 30
0.0
 11
194.09983164
 21
668.6354075
 31
0.0
  0
LINE
  5
201D
330
2
100
AcDbEntity
  8
YKK_11
  6
ByBlock
 62
     0
 48
0.5
370
    -2
100
AcDbLine
 10
194.09983164
 20
668.6354075
 30
0.0
 11
194.09983164
 21
670.6054075
 31
0.0
  0
LINE
  5
201E
330
2
100
AcDbEntity
  8
YKK_11
  6
ByBlock
 62
     0
 48
0.5
370
    -2
100
AcDbLine
 10
194.09983164
 20
670.6054075
 30
0.0
 11
185.59983164
 21
670.6054075
 31
0.0
  0
LINE
  5
201F
330
2
100
AcDbEntity
  8
YKK_11
  6
ByBlock
 62
     0
 48
0.5
370
    -2
100
AcDbLine
 10
185.59983164
 20
670.6054075
 30
0.0
 11
185.59983164
 21
668.6354075
 31
0.0
  0
LINE
  5
2020
330
2
100
AcDbEntity
  8
YKK_11
  6
ByBlock
 62
     0
 48
0.5
370
    -2
100
AcDbLine
 10
185.59983164
 20
668.6354075
 30
0.0
 11
188.89983164
 21
668.6354075
 31
0.0
  0
LINE
  5
2021
330
2
100
AcDbEntity
  8
YKK_11
  6
ByBlock
 62
     0
 48
0.5
370
    -2
100
AcDbLine
 10
188.89983164
 20
668.6354075
 30
0.0
 11
188.89983164
 21
667.6354075
 31
0.0
  0
LINE
  5
2022
330
2
100
AcDbEntity
  8
YKK_11
  6
ByBlock
 62
     0
 48
0.5
370
    -2
100
AcDbLine
 10
188.89983164
 20
667.6354075
 30
0.0
 11
182.89983164
 21
667.6354075
 31
0.0
  0
LINE
  5
2023
330
2
100
AcDbEntity
  8
YKK_11
  6
ByBlock
 62
     0
 48
0.5
370
    -2
100
AcDbLine
 10
182.89983164
 20
667.6354075
 30
0.0
 11
182.89983164
 21
672.2354075
 31
0.0
  0
TEXT
  5
2241
330
2
100
AcDbEntity
  8
USER1
100
AcDbText
 10
74.61038384
 20
697.00458915
 30
0.0
 40
5.0
  1
●FIX窓/FIX窓
100
AcDbText
1001
ACAD
1000
MTEXTBEGIN
1070
    73
1070
     1
1070
    44
1040
1.0
1070
    74
1070
     0
1000
MTEXTEND
1000
ACAD_MTEXT_DEFINED_HEIGHT_BEGIN
1070
    46
1040
12.72225376
1000
ACAD_MTEXT_DEFINED_HEIGHT_END
  0
ENDSEC
  0
SECTION
  2
OBJECTS
  0
DICTIONARY
  5
1A
330
0
100
AcDbDictionary
281
     1
  3
ACAD_CIP_PREVIOUS_PRODUCT_INFO
350
1D8
  3
ACAD_COLOR
350
125
  3
ACAD_DETAILVIEWSTYLE
350
1D3
  3
ACAD_GROUP
350
18
  3
ACAD_LAYOUT
350
14C
  3
ACAD_MATERIAL
350
F8
  3
ACAD_MLEADERSTYLE
350
14A
  3
ACAD_MLINESTYLE
350
19
  3
ACAD_PLOTSETTINGS
350
14D
  3
ACAD_PLOTSTYLENAME
350
F6
  3
ACAD_RENDER_ACTIVE_RAPIDRT_SETTINGS
350
237E
  3
ACAD_RENDER_ACTIVE_SETTINGS
350
23CF
  3
ACAD_SCALELIST
350
128
  3
ACAD_SECTIONVIEWSTYLE
350
1D1
  3
ACAD_TABLESTYLE
350
126
  3
ACAD_VISUALSTYLE
350
111
  3
ACDB_RECOMPOSE_DATA
350
24D9
  3
AcDbVariableDictionary
350
1C1
  3
AEC_PROPERTY_SET_DEFS
350
E02
  0
DICTIONARY
  5
17E
330
12
100
AcDbDictionary
280
     1
281
     1
  0
DICTIONARY
  5
2A0
330
A
100
AcDbDictionary
280
     1
281
     1
  3
ACAD_LAYERSTATES
360
2A1
  0
DICTIONARY
  5
1DB
330
4
100
AcDbDictionary
280
     1
281
     1
  3
ADSK_XREC_LAYER_RECONCILED
360
1DC
  0
DICTIONARY
  5
1DD
330
24
100
AcDbDictionary
280
     1
281
     1
  3
ADSK_XREC_LAYER_RECONCILED
360
1DE
  0
DICTIONARY
  5
1DF
330
E0
100
AcDbDictionary
280
     1
281
     1
  3
ADSK_XREC_LAYER_RECONCILED
360
1E0
  0
DICTIONARY
  5
284
330
283
100
AcDbDictionary
280
     1
281
     1
  0
DICTIONARY
  5
288
330
287
100
AcDbDictionary
280
     1
281
     1
  0
DICTIONARY
  5
28A
330
289
100
AcDbDictionary
280
     1
281
     1
  0
DICTIONARY
  5
28C
330
28B
100
AcDbDictionary
280
     1
281
     1
  0
DICTIONARY
  5
290
330
28F
100
AcDbDictionary
280
     1
281
     1
  0
DICTIONARY
  5
17A
330
2
100
AcDbDictionary
280
     1
281
     1
  3
ACAD_LAYOUTSELFREF
360
17B
  3
ACAD_SORTENTS
360
1AAC
  0
DICTIONARY
  5
17C
330
7
100
AcDbDictionary
280
     1
281
     1
  3
ACAD_LAYOUTSELFREF
360
17D
  0
XRECORD
  5
1D8
102
{ACAD_REACTORS
330
1A
102
}
330
1A
100
AcDbXrecord
280
     1
300
ACD
300
2018
300
86830ACD_2018_0F
  0
DICTIONARY
  5
125
102
{ACAD_REACTORS
330
1A
102
}
330
1A
100
AcDbDictionary
281
     1
  0
DICTIONARY
  5
1D3
102
{ACAD_REACTORS
330
1A
102
}
330
1A
100
AcDbDictionary
281
     1
  3
Metric50
350
1D4
  0
DICTIONARY
  5
18
102
{ACAD_REACTORS
330
1A
102
}
330
1A
100
AcDbDictionary
281
     1
  0
DICTIONARY
  5
14C
102
{ACAD_REACTORS
330
1A
102
}
330
1A
100
AcDbDictionary
281
     1
  3
Model
350
14E
  3
レイアウト1
350
14F
  0
DICTIONARY
  5
F8
102
{ACAD_REACTORS
330
1A
102
}
330
1A
100
AcDbDictionary
281
     1
  3
ByBlock
350
101
  3
ByLayer
350
F9
  3
Global
350
109
  0
DICTIONARY
  5
14A
102
{ACAD_REACTORS
330
1A
102
}
330
1A
100
AcDbDictionary
281
     1
  3
Standard
350
14B
  0
DICTIONARY
  5
19
102
{ACAD_REACTORS
330
1A
102
}
330
1A
100
AcDbDictionary
281
     1
  3
STANDARD
350
1B
  0
DICTIONARY
  5
14D
102
{ACAD_REACTORS
330
1A
102
}
330
1A
100
AcDbDictionary
281
     1
  0
ACDBDICTIONARYWDFLT
  5
F6
102
{ACAD_REACTORS
330
1A
102
}
330
1A
100
AcDbDictionary
281
     1
  3
Normal
350
F7
100
AcDbDictionaryWithDefault
340
F7
  0
RAPIDRTRENDERSETTINGS
  5
237E
102
{ACAD_REACTORS
330
1A
102
}
330
1A
100
AcDbRenderSettings
 90
        2
  1
中
290
     1
290
     0
290
     1
290
     1
  1

  1
5 レンダリング レベルを適用
 90
        0
100
AcDbRapidRTRenderSettings
 90
        3
 70
     0
 90
        5
 90
        1
 70
     1
 70
     2
 40
3.0
 40
3.0
290
     1
  0
MENTALRAYRENDERSETTINGS
  5
23CF
102
{ACAD_XDICTIONARY
360
23D0
102
}
102
{ACAD_REACTORS
330
1A
102
}
330
1A
100
AcDbRenderSettings
 90
        2
  1
中間
290
     1
290
     1
290
     1
290
     1
  1

  1

 90
        0
100
AcDbMentalRayRenderSettings
 90
        2
 90
        0
 90
        1
 70
     2
 40
3.0
 40
3.0
 40
0.05
 40
0.05
 40
0.05
 40
0.05
 70
     0
290
     0
290
     1
 90
        5
 90
        5
 90
        5
290
     0
 90
      500
290
     0
 40
1.0
 90
    10000
 90
        5
 90
        5
 90
        5
290
     0
 90
      200
290
     0
290
     0
290
     0
 40
1.0
 40
1.0
 40
1500.0
 70
     0
 70
     0
 40
10.0
 70
     0
 70
     0
290
     0
  1

 90
       32
 70
     0
 90
     1048
290
     0
 40
1.0
  0
DICTIONARY
  5
128
102
{ACAD_REACTORS
330
1A
102
}
330
1A
100
AcDbDictionary
281
     1
  3
A0
350
129
  3
A1
350
12A
  3
A2
350
12B
  3
A3
350
12C
  3
A4
350
12D
  3
A5
350
12E
  3
A6
350
12F
  3
A7
350
130
  3
A8
350
131
  3
A9
350
132
  3
B0
350
133
  3
B1
350
134
  3
B2
350
135
  3
B3
350
136
  3
B4
350
137
  3
B5
350
138
  3
B6
350
139
  3
B7
350
13A
  3
B8
350
13B
  3
B9
350
13C
  3
C0
350
13D
  3
C1
350
13E
  3
C2
350
13F
  3
C3
350
140
  3
C4
350
141
  3
C5
350
142
  3
C6
350
143
  3
C7
350
144
  3
C8
350
145
  3
C9
350
146
  3
D0
350
147
  3
D1
350
148
  3
D2
350
149
  0
DICTIONARY
  5
1D1
102
{ACAD_REACTORS
330
1A
102
}
330
1A
100
AcDbDictionary
281
     1
  3
Metric50
350
1D2
  0
DICTIONARY
  5
126
102
{ACAD_REACTORS
330
1A
102
}
330
1A
100
AcDbDictionary
281
     1
  3
Standard
350
127
  0
DICTIONARY
  5
111
102
{ACAD_REACTORS
330
1A
102
}
330
1A
100
AcDbDictionary
281
     1
  3
2dWireframe
350
117
  3
3D Hidden
350
119
  3
3dWireframe
350
118
  3
Basic
350
116
  3
Brighten
350
11D
  3
ColorChange
350
121
  3
Conceptual
350
11A
  3
Dim
350
11C
  3
EdgeColorOff
350
124
  3
Facepattern
350
120
  3
Flat
350
112
  3
FlatWithEdges
350
113
  3
Gouraud
350
114
  3
GouraudWithEdges
350
115
  3
Hidden
350
1CB
  3
JitterOff
350
122
  3
Linepattern
350
11F
  3
OverhangOff
350
123
  3
Realistic
350
11B
  3
Shaded
350
1D0
  3
Shaded with edges
350
1CF
  3
Shades of Gray
350
1CC
  3
Sketchy
350
1CD
  3
Thicken
350
11E
  3
Wireframe
350
1CA
  3
X-Ray
350
1CE
  0
XRECORD
  5
24D9
102
{ACAD_REACTORS
330
1A
102
}
330
1A
100
AcDbXrecord
280
     1
 90
        1
330
127
  0
DICTIONARY
  5
1C1
102
{ACAD_REACTORS
330
1A
102
}
330
1A
100
AcDbDictionary
281
     1
  3
CANNOSCALE
350
1C4
  3
CMLEADERSTYLE
350
1C3
  3
CTABLESTYLE
350
1C2
  3
CVIEWDETAILSTYLE
350
2294
  3
CVIEWSECTIONSTYLE
350
2295
  3
DIMASSOC
350
1C7
  3
INDEXCTL
350
1C6
  3
SORTENTS
350
1C5
  3
XCLIPFRAME
350
24D7
  0
DICTIONARY
  5
E02
102
{ACAD_REACTORS
330
1A
102
}
330
1A
100
AcDbDictionary
281
     1
  0
DICTIONARY
  5
2A1
102
{ACAD_REACTORS
330
2A0
102
}
330
2A0
100
AcDbDictionary
281
     1
  0
XRECORD
  5
1DC
102
{ACAD_REACTORS
330
1DB
102
}
330
1DB
100
AcDbXrecord
280
     1
290
     1
  0
XRECORD
  5
1DE
102
{ACAD_REACTORS
330
1DD
102
}
330
1DD
100
AcDbXrecord
280
     1
290
     1
  0
XRECORD
  5
1E0
102
{ACAD_REACTORS
330
1DF
102
}
330
1DF
100
AcDbXrecord
280
     1
290
     1
  0
XRECORD
  5
17B
102
{ACAD_REACTORS
330
17A
102
}
330
17A
100
AcDbXrecord
280
     1
340
2
  0
SORTENTSTABLE
  5
1AAC
102
{ACAD_REACTORS
330
17A
102
}
330
17A
100
AcDbSortentsTable
330
2
331
E4
  5
E4
331
23
  5
23
331
2022
  5
F77
331
1FE9
  5
F3E
331
1D8A
  5
1DD6
331
1FF1
  5
F46
331
1D92
  5
1DDE
331
1FF9
  5
F4E
331
2001
  5
F56
331
1FC2
  5
F80
331
1D74
  5
1DC0
331
1AF5
  5
20A8
331
1D7C
  5
1DC8
331
1AFD
  5
20B0
331
1D84
  5
1DD0
331
1B05
  5
20B8
331
E76
  5
F1F
331
E7E
  5
F27
331
E86
  5
F2F
331
19D6
  5
1E46
331
191F
  5
1CCD
331
16CE
  5
193A
331
168F
  5
18F6
331
1927
  5
1CD5
331
16D6
  5
1942
331
1697
  5
18FE
331
192F
  5
1CDD
331
16DE
  5
194A
331
169F
  5
1906
331
16A7
  5
1910
331
2009
  5
F5E
331
1FCA
  5
F88
331
2011
  5
F66
331
1FD2
  5
F90
331
2019
  5
F6E
331
1FDA
  5
F98
331
1FE2
  5
F7B
331
19EE
  5
1E5E
331
1D5D
  5
1DA9
331
1D65
  5
1DB1
331
1D6D
  5
1DB9
331
1AEE
  5
20A1
331
E6F
  5
F18
331
16E0
  5
194C
331
16E8
  5
1954
331
193F
  5
1CED
331
16F0
  5
195C
331
E88
  5
F31
331
16AF
  5
1918
331
E90
  5
F39
331
16F8
  5
19BE
331
16B7
  5
1920
331
19C7
  5
1E37
331
16BF
  5
192B
331
1680
  5
18E7
331
16C7
  5
1933
331
2023
  5
F78
331
1FEA
  5
F3F
331
1D8B
  5
1DD7
331
1FF2
  5
F47
331
1D93
  5
1DDF
331
1FFA
  5
F4F
331
2002
  5
F57
331
1FC3
  5
F81
331
1D75
  5
1DC1
331
1AF6
  5
20A9
331
1D7D
  5
1DC9
331
1AFE
  5
20B1
331
1D85
  5
1DD1
331
1B06
  5
20B9
331
E77
  5
F20
331
E7F
  5
F28
331
E87
  5
F30
331
1700
  5
19C6
331
19D7
  5
1E47
331
1920
  5
1CCE
331
1688
  5
18EF
331
16CF
  5
193B
331
1690
  5
18F7
331
1928
  5
1CD6
331
16D7
  5
1943
331
1698
  5
18FF
331
16DF
  5
194B
331
16A0
  5
1909
331
200A
  5
F5F
331
1FCB
  5
F89
331
2012
  5
F67
331
1FD3
  5
F91
331
201A
  5
F6F
331
1FDB
  5
F99
331
1FE3
  5
F7C
331
1D56
  5
1DE6
331
19EF
  5
1E5F
331
1D5E
  5
1DAA
331
1D66
  5
1DB2
331
1D6E
  5
1DBA
331
1AEF
  5
20A2
331
1930
  5
1CDE
331
16E1
  5
194D
331
16E9
  5
1955
331
16A8
  5
1911
331
1940
  5
1CEE
331
16F1
  5
19B7
331
E89
  5
F32
331
16B0
  5
1919
331
E91
  5
F3A
331
16F9
  5
19BF
331
16B8
  5
1921
331
16C0
  5
192C
331
1681
  5
18E8
331
1FEB
  5
F40
331
1D8C
  5
1DD8
331
1FF3
  5
F48
331
1D94
  5
1DE0
331
1FFB
  5
F50
331
2003
  5
F58
331
1FC4
  5
F82
331
1D76
  5
1DC2
331
1AF7
  5
20AA
331
1D7E
  5
1DCA
331
1AFF
  5
20B2
331
1D86
  5
1DD2
331
1B07
  5
20BA
331
E70
  5
F19
331
E78
  5
F21
331
E80
  5
F29
331
19C8
  5
1E38
331
1701
  5
19C7
331
16C8
  5
1934
331
1689
  5
18F0
331
1921
  5
1CCF
331
19D8
  5
1E48
331
16D0
  5
193C
331
1691
  5
18F8
331
1929
  5
1CD7
331
16D8
  5
1944
331
1699
  5
1900
331
16A1
  5
190A
331
200B
  5
F60
331
1FCC
  5
F8A
331
2013
  5
F68
331
1FD4
  5
F92
331
201B
  5
F70
331
1FDC
  5
F9A
331
1FE4
  5
F7D
331
1D57
  5
1DE7
331
19F0
  5
1E60
331
1D5F
  5
1DAB
331
1D67
  5
1DB3
331
1D6F
  5
1DBB
331
1931
  5
1CDF
331
16E2
  5
194E
331
16EA
  5
1956
331
16A9
  5
1912
331
1941
  5
1CEF
331
16F2
  5
19B8
331
E8A
  5
F33
331
16B1
  5
191A
331
16FA
  5
19C0
331
16B9
  5
1922
331
16C1
  5
192D
331
1682
  5
18E9
331
DF
  5
DF
331
1FEC
  5
F41
331
1D8D
  5
1DD9
331
1FF4
  5
F49
331
1D95
  5
1DE1
331
1FFC
  5
F51
331
2004
  5
F59
331
1FC5
  5
F83
331
1AF0
  5
20A3
331
1D77
  5
1DC3
331
1AF8
  5
20AB
331
1D7F
  5
1DCB
331
1B00
  5
20B3
331
1D87
  5
1DD3
331
1B08
  5
20BB
331
E71
  5
F1A
331
E79
  5
F22
331
E81
  5
F2A
331
1702
  5
19C8
331
16C9
  5
1935
331
168A
  5
18F1
331
1922
  5
1CD0
331
19D9
  5
1E49
331
16D1
  5
193D
331
1692
  5
18F9
331
192A
  5
1CD8
331
16D9
  5
1945
331
169A
  5
1901
331
16A2
  5
190B
331
200C
  5
F61
331
1FCD
  5
F8B
331
2014
  5
F69
331
1FD5
  5
F93
331
201C
  5
F71
331
1FDD
  5
F9B
331
1FE5
  5
F79
331
1D58
  5
1DE8
331
19F1
  5
1E61
331
1D60
  5
1DAC
331
1D68
  5
1DB4
331
1932
  5
1CE0
331
16E3
  5
194F
331
16EB
  5
1957
331
16AA
  5
1913
331
E8B
  5
F34
331
16F3
  5
19B9
331
1942
  5
1CF0
331
16B2
  5
191B
331
16FB
  5
19C1
331
16BA
  5
1923
331
167B
  5
18E2
331
16C2
  5
192E
331
1683
  5
18EA
331
1FED
  5
F42
331
1D8E
  5
1DDA
331
1FF5
  5
F4A
331
1D96
  5
1DE2
331
1FFD
  5
F52
331
2005
  5
F5A
331
1FC6
  5
F84
331
1D70
  5
1DBC
331
1AF1
  5
20A4
331
1D78
  5
1DC4
331
1AF9
  5
20AC
331
1D80
  5
1DCC
331
1B01
  5
20B4
331
1B09
  5
20BC
331
E72
  5
F1B
331
E7A
  5
F23
331
E82
  5
F2B
331
191B
  5
1CC9
331
16CA
  5
1936
331
168B
  5
18F2
331
1923
  5
1CD1
331
19DA
  5
1E4A
331
16D2
  5
193E
331
1693
  5
18FA
331
192B
  5
1CD9
331
16DA
  5
1946
331
169B
  5
1902
331
16A3
  5
190C
331
200D
  5
F62
331
1FCE
  5
F8C
331
2015
  5
F6A
331
1FD6
  5
F94
331
201D
  5
F72
331
1FDE
  5
F9C
331
1FE6
  5
F3B
331
1D59
  5
1DE9
331
19F2
  5
1E62
331
1D61
  5
1DAD
331
1D69
  5
1DB5
331
16E4
  5
1950
331
16EC
  5
1958
331
16AB
  5
1914
331
E8C
  5
F35
331
16F4
  5
19BA
331
1943
  5
1CF1
331
16B3
  5
191C
331
19C3
  5
1E33
331
16FC
  5
19C2
331
16BB
  5
1927
331
167C
  5
18E3
331
16C3
  5
192F
331
1684
  5
18EB
331
E1
  5
E1
331
1FEE
  5
F43
331
1D8F
  5
1DDB
331
1FF6
  5
F4B
331
1D97
  5
1DE3
331
1FFE
  5
F53
331
2006
  5
F5B
331
1FC7
  5
F85
331
1D71
  5
1DBD
331
1AF2
  5
20A5
331
1D79
  5
1DC5
331
1AFA
  5
20AD
331
1D81
  5
1DCD
331
1B02
  5
20B5
331
1B0A
  5
20BD
331
E73
  5
F1C
331
E7B
  5
F24
331
E83
  5
F2C
331
191C
  5
1CCA
331
16CB
  5
1937
331
168C
  5
18F3
331
1924
  5
1CD2
331
16D3
  5
193F
331
1694
  5
18FB
331
192C
  5
1CDA
331
16DB
  5
1947
331
169C
  5
1903
331
16A4
  5
190D
331
200E
  5
F63
331
1FCF
  5
F8D
331
2016
  5
F6B
331
1FD7
  5
F95
331
201E
  5
F73
331
1FDF
  5
F9D
331
1FE7
  5
F3C
331
1D5A
  5
1DE5
331
1D62
  5
1DAE
331
1D6A
  5
1DB6
331
16E5
  5
1951
331
16ED
  5
1959
331
16AC
  5
1915
331
E8D
  5
F36
331
16F5
  5
19BB
331
1944
  5
1CF2
331
16B4
  5
191D
331
19C4
  5
1E34
331
16FD
  5
19C3
331
16BC
  5
1928
331
167D
  5
18E4
331
16C4
  5
1930
331
1685
  5
18EC
331
2020
  5
F75
331
1D88
  5
1DD4
331
1FEF
  5
F44
331
1D90
  5
1DDC
331
1FF7
  5
F4C
331
1D98
  5
1DE4
331
1FFF
  5
F54
331
1FC0
  5
F7E
331
2007
  5
F5C
331
1D72
  5
1DBE
331
1AF3
  5
20A6
331
1D7A
  5
1DC6
331
1AFB
  5
20AE
331
1D82
  5
1DCE
331
1B03
  5
20B6
331
1B0B
  5
20BE
331
E74
  5
F1D
331
E7C
  5
F25
331
E84
  5
F2D
331
191D
  5
1CCB
331
16CC
  5
1938
331
168D
  5
18F4
331
1925
  5
1CD3
331
16D4
  5
1940
331
1695
  5
18FC
331
192D
  5
1CDB
331
16DC
  5
1948
331
169D
  5
1904
331
16A5
  5
190E
331
1FC8
  5
F86
331
200F
  5
F64
331
1FD0
  5
F8E
331
2017
  5
F6C
331
1FD8
  5
F96
331
201F
  5
F74
331
1FE0
  5
F9E
331
1D5B
  5
1DA7
331
1D63
  5
1DAF
331
1D6B
  5
1DB7
331
1AEC
  5
209F
331
16E6
  5
1952
331
16EE
  5
195A
331
16AD
  5
1916
331
E8E
  5
F37
331
16F6
  5
19BC
331
16B5
  5
191E
331
19C5
  5
1E35
331
16FE
  5
19C4
331
16BD
  5
1929
331
167E
  5
18E5
331
16C5
  5
1931
331
1686
  5
18ED
331
E3
  5
E3
331
2021
  5
F76
331
1FE8
  5
F3D
331
1D89
  5
1DD5
331
1FF0
  5
F45
331
1D91
  5
1DDD
331
1FF8
  5
F4D
331
2000
  5
F55
331
1FC1
  5
F7F
331
1D73
  5
1DBF
331
1AF4
  5
20A7
331
1D7B
  5
1DC7
331
1AFC
  5
20AF
331
1D83
  5
1DCF
331
1B04
  5
20B7
331
1B0C
  5
20BF
331
E75
  5
F1E
331
E7D
  5
F26
331
E85
  5
F2E
331
19D5
  5
1E45
331
191E
  5
1CCC
331
16CD
  5
1939
331
168E
  5
18F5
331
1926
  5
1CD4
331
16D5
  5
1941
331
1696
  5
18FD
331
192E
  5
1CDC
331
16DD
  5
1949
331
169E
  5
1905
331
16A6
  5
190F
331
2008
  5
F5D
331
1FC9
  5
F87
331
2010
  5
F65
331
1FD1
  5
F8F
331
2018
  5
F6D
331
1FD9
  5
F97
331
1FE1
  5
F7A
331
19ED
  5
1E5D
331
1D5C
  5
1DA8
331
1D64
  5
1DB0
331
1D6C
  5
1DB8
331
1AED
  5
20A0
331
E6E
  5
F17
331
16E7
  5
1953
331
16EF
  5
195B
331
16AE
  5
1917
331
E8F
  5
F38
331
16F7
  5
19BD
331
16B6
  5
191F
331
19C6
  5
1E36
331
16FF
  5
19C5
331
16BE
  5
192A
331
167F
  5
18E6
331
16C6
  5
1932
331
1687
  5
18EE
  0
XRECORD
  5
17D
102
{ACAD_REACTORS
330
17C
102
}
330
17C
100
AcDbXrecord
280
     1
340
7
  0
ACDBDETAILVIEWSTYLE
  5
1D4
102
{ACAD_XDICTIONARY
360
2516
102
}
102
{ACAD_REACTORS
330
1D3
102
}
330
1D3
100
AcDbModelDocViewStyle
 70
     0
  3
Metric50
290
     0
100
AcDbDetailViewStyle
 70
     0
 71
     0
 90
        3
 71
     1
340
C
 62
   256
 40
5.0
340
0
 62
   256
 40
5.0
300

 40
0.0
280
     1
 71
     2
340
5
 90
       25
 62
   256
 71
     3
340
C
 62
   256
 40
5.0
 90
        0
 40
15.0
 90
        1
300
%<\AcVar ViewDetailId>% (%<\AcVar ViewScale \f "%sn">%)
 71
     4
340
5
 90
       25
 62
   256
340
5
 90
       25
 62
   256
280
     0
  0
LAYOUT
  5
14E
102
{ACAD_XDICTIONARY
360
2280
102
}
102
{ACAD_REACTORS
330
14C
102
}
330
14C
100
AcDbPlotSettings
  1

  2
C:\ACAD-I\support\plotters\Default Windows System Printer.pc3
  4
A4
  6

 40
4.90008307
 41
4.90005732
 42
4.90008545
 43
4.90008545
 44
210.01567078
 45
297.01065063
 46
0.0
 47
0.0
 48
0.0
 49
0.0
140
0.0
141
0.0
142
1.0
143
4.74407451
 70
 11952
 72
     1
 73
     1
 74
     0
  7
monochrome.ctb
 75
     0
147
0.21078927
 76
     0
 77
     2
 78
   300
148
114.54819801
149
3.36220952
100
AcDbLayout
  1
Model
 70
     1
 71
     0
 10
0.0
 20
0.0
 11
12.0
 21
9.0
 12
0.0
 22
0.0
 32
0.0
 14
0.0
 24
0.0
 34
0.0
 15
0.0
 25
0.0
 35
0.0
146
0.0
 13
0.0
 23
0.0
 33
0.0
 16
1.0
 26
0.0
 36
0.0
 17
0.0
 27
1.0
 37
0.0
 76
     0
330
2
331
F4
1001
ACAD_PSEXT
1000
C:\ACAD-I\support\plotters\Default Windows System Printer.pc3
1000
FX ApeosPort-IV C4475
1000
IP_10.230.204.203
1000

1070
     0
  0
LAYOUT
  5
14F
102
{ACAD_REACTORS
330
14C
102
}
330
14C
100
AcDbPlotSettings
  1

  2
C:\ACAD-I\support\plotters\Default Windows System Printer.pc3
  4
A4
  6

 40
4.90008307
 41
4.90005732
 42
4.90008545
 43
4.90008545
 44
210.01567078
 45
297.01065063
 46
0.0
 47
0.0
 48
0.0
 49
0.0
140
0.0
141
0.0
142
1.0
143
1.0
 70
 15024
 72
     1
 73
     1
 74
     5
  7
monochrome.ctb
 75
    16
147
1.0
 76
     0
 77
     2
 78
   300
148
0.0
149
0.0
100
AcDbLayout
  1
レイアウト1
 70
     1
 71
     1
 10
0.0
 20
0.0
 11
420.0
 21
297.0
 12
0.0
 22
0.0
 32
0.0
 14
1.00000000E+20
 24
1.00000000E+20
 34
1.00000000E+20
 15
-1.00000000E+20
 25
-1.00000000E+20
 35
-1.00000000E+20
146
0.0
 13
0.0
 23
0.0
 33
0.0
 16
1.0
 26
0.0
 36
0.0
 17
0.0
 27
1.0
 37
0.0
 76
     0
330
7
1001
ACAD_PSEXT
1000
C:\ACAD-I\support\plotters\Default Windows System Printer.pc3
1000
FX ApeosPort-IV C4475
1000
IP_10.230.204.203
1000

1070
     0
  0
MATERIAL
  5
101
102
{ACAD_XDICTIONARY
360
102
102
}
102
{ACAD_REACTORS
330
F8
102
}
330
F8
100
AcDbMaterial
  1
ByBlock
 72
     0
 43
0.02083333
 43
0.0
 43
0.0
 43
0.0
 43
0.0
 43
0.02083333
 43
0.0
 43
0.0
 43
0.0
 43
0.0
 43
1.0
 43
0.0
 43
0.0
 43
0.0
 43
0.0
 43
1.0
 77
     0
 47
0.02083333
 47
0.0
 47
0.0
 47
0.0
 47
0.0
 47
0.02083333
 47
0.0
 47
0.0
 47
0.0
 47
0.0
 47
1.0
 47
0.0
 47
0.0
 47
0.0
 47
0.0
 47
1.0
171
     0
 49
0.02083333
 49
0.0
 49
0.0
 49
0.0
 49
0.0
 49
0.02083333
 49
0.0
 49
0.0
 49
0.0
 49
0.0
 49
1.0
 49
0.0
 49
0.0
 49
0.0
 49
0.0
 49
1.0
175
     0
142
0.02083333
142
0.0
142
0.0
142
0.0
142
0.0
142
0.02083333
142
0.0
142
0.0
142
0.0
142
0.0
142
1.0
142
0.0
142
0.0
142
0.0
142
0.0
142
1.0
179
     0
144
0.02083333
144
0.0
144
0.0
144
0.0
144
0.0
144
0.02083333
144
0.0
144
0.0
144
0.0
144
0.0
144
1.0
144
0.0
144
0.0
144
0.0
144
0.0
144
1.0
147
0.02083333
147
0.0
147
0.0
147
0.0
147
0.0
147
0.02083333
147
0.0
147
0.0
147
0.0
147
0.0
147
1.0
147
0.0
147
0.0
147
0.0
147
0.0
147
1.0
  0
MATERIAL
  5
F9
102
{ACAD_XDICTIONARY
360
FA
102
}
102
{ACAD_REACTORS
330
F8
102
}
330
F8
100
AcDbMaterial
  1
ByLayer
 72
     0
 43
0.02083333
 43
0.0
 43
0.0
 43
0.0
 43
0.0
 43
0.02083333
 43
0.0
 43
0.0
 43
0.0
 43
0.0
 43
1.0
 43
0.0
 43
0.0
 43
0.0
 43
0.0
 43
1.0
 77
     0
 47
0.02083333
 47
0.0
 47
0.0
 47
0.0
 47
0.0
 47
0.02083333
 47
0.0
 47
0.0
 47
0.0
 47
0.0
 47
1.0
 47
0.0
 47
0.0
 47
0.0
 47
0.0
 47
1.0
171
     0
 49
0.02083333
 49
0.0
 49
0.0
 49
0.0
 49
0.0
 49
0.02083333
 49
0.0
 49
0.0
 49
0.0
 49
0.0
 49
1.0
 49
0.0
 49
0.0
 49
0.0
 49
0.0
 49
1.0
175
     0
142
0.02083333
142
0.0
142
0.0
142
0.0
142
0.0
142
0.02083333
142
0.0
142
0.0
142
0.0
142
0.0
142
1.0
142
0.0
142
0.0
142
0.0
142
0.0
142
1.0
179
     0
144
0.02083333
144
0.0
144
0.0
144
0.0
144
0.0
144
0.02083333
144
0.0
144
0.0
144
0.0
144
0.0
144
1.0
144
0.0
144
0.0
144
0.0
144
0.0
144
1.0
147
0.02083333
147
0.0
147
0.0
147
0.0
147
0.0
147
0.02083333
147
0.0
147
0.0
147
0.0
147
0.0
147
1.0
147
0.0
147
0.0
147
0.0
147
0.0
147
1.0
  0
MATERIAL
  5
109
102
{ACAD_XDICTIONARY
360
10A
102
}
102
{ACAD_REACTORS
330
F8
102
}
330
F8
100
AcDbMaterial
  1
Global
 72
     0
 43
0.02083333
 43
0.0
 43
0.0
 43
0.0
 43
0.0
 43
0.02083333
 43
0.0
 43
0.0
 43
0.0
 43
0.0
 43
1.0
 43
0.0
 43
0.0
 43
0.0
 43
0.0
 43
1.0
 77
     0
 47
0.02083333
 47
0.0
 47
0.0
 47
0.0
 47
0.0
 47
0.02083333
 47
0.0
 47
0.0
 47
0.0
 47
0.0
 47
1.0
 47
0.0
 47
0.0
 47
0.0
 47
0.0
 47
1.0
171
     0
 49
0.02083333
 49
0.0
 49
0.0
 49
0.0
 49
0.0
 49
0.02083333
 49
0.0
 49
0.0
 49
0.0
 49
0.0
 49
1.0
 49
0.0
 49
0.0
 49
0.0
 49
0.0
 49
1.0
175
     0
142
0.02083333
142
0.0
142
0.0
142
0.0
142
0.0
142
0.02083333
142
0.0
142
0.0
142
0.0
142
0.0
142
1.0
142
0.0
142
0.0
142
0.0
142
0.0
142
1.0
179
     0
144
0.02083333
144
0.0
144
0.0
144
0.0
144
0.0
144
0.02083333
144
0.0
144
0.0
144
0.0
144
0.0
144
1.0
144
0.0
144
0.0
144
0.0
144
0.0
144
1.0
147
0.02083333
147
0.0
147
0.0
147
0.0
147
0.0
147
0.02083333
147
0.0
147
0.0
147
0.0
147
0.0
147
1.0
147
0.0
147
0.0
147
0.0
147
0.0
147
1.0
  0
MLEADERSTYLE
  5
14B
102
{ACAD_XDICTIONARY
360
2504
102
}
102
{ACAD_REACTORS
330
14A
102
}
330
14A
100
AcDbMLeaderStyle
170
     2
171
     1
172
     0
 90
        2
 40
0.0
 41
0.0
173
     1
 91
-1056964608
340
E
 92
       -2
290
     1
 42
0.09
291
     1
 43
0.36
  3
Standard
 44
0.18
300

342
C
174
     1
178
     6
175
     1
176
     0
 93
-1056964608
 45
0.18
292
     0
297
     0
 46
0.18
 94
-1056964608
 47
1.0
 49
1.0
140
1.0
293
     1
141
0.0
294
     1
177
     0
142
1.0
295
     0
296
     0
143
0.125
1001
ACAD_MLEADERVER
1070
     2
  0
MLINESTYLE
  5
1B
102
{ACAD_REACTORS
330
19
102
}
330
19
100
AcDbMlineStyle
  2
STANDARD
 70
     0
  3

 62
   256
 51
90.0
 52
90.0
 71
     2
 49
0.5
 62
   256
  6
BYLAYER
 49
-0.5
 62
   256
  6
BYLAYER
  0
ACDBPLACEHOLDER
  5
F7
102
{ACAD_REACTORS
330
F6
102
}
330
F6
  0
DICTIONARY
  5
23D0
330
23CF
100
AcDbDictionary
280
     1
281
     1
  3
ADSK_XREC_MENTALRAYSETTINGSINFO
360
23D1
  0
SCALE
  5
129
102
{ACAD_REACTORS
330
128
102
}
330
128
100
AcDbScale
 70
     0
300
1:1
140
1.0
141
1.0
290
     1
  0
SCALE
  5
12A
102
{ACAD_REACTORS
330
128
102
}
330
128
100
AcDbScale
 70
     0
300
1:2
140
1.0
141
2.0
290
     0
  0
SCALE
  5
12B
102
{ACAD_REACTORS
330
128
102
}
330
128
100
AcDbScale
 70
     0
300
1:4
140
1.0
141
4.0
290
     0
  0
SCALE
  5
12C
102
{ACAD_REACTORS
330
128
102
}
330
128
100
AcDbScale
 70
     0
300
1:5
140
1.0
141
5.0
290
     0
  0
SCALE
  5
12D
102
{ACAD_REACTORS
330
128
102
}
330
128
100
AcDbScale
 70
     0
300
1:8
140
1.0
141
8.0
290
     0
  0
SCALE
  5
12E
102
{ACAD_REACTORS
330
128
102
}
330
128
100
AcDbScale
 70
     0
300
1:10
140
1.0
141
10.0
290
     0
  0
SCALE
  5
12F
102
{ACAD_REACTORS
330
128
102
}
330
128
100
AcDbScale
 70
     0
300
1:16
140
1.0
141
16.0
290
     0
  0
SCALE
  5
130
102
{ACAD_REACTORS
330
128
102
}
330
128
100
AcDbScale
 70
     0
300
1:20
140
1.0
141
20.0
290
     0
  0
SCALE
  5
131
102
{ACAD_REACTORS
330
128
102
}
330
128
100
AcDbScale
 70
     0
300
1:30
140
1.0
141
30.0
290
     0
  0
SCALE
  5
132
102
{ACAD_REACTORS
330
128
102
}
330
128
100
AcDbScale
 70
     0
300
1:40
140
1.0
141
40.0
290
     0
  0
SCALE
  5
133
102
{ACAD_REACTORS
330
128
102
}
330
128
100
AcDbScale
 70
     0
300
1:50
140
1.0
141
50.0
290
     0
  0
SCALE
  5
134
102
{ACAD_REACTORS
330
128
102
}
330
128
100
AcDbScale
 70
     0
300
1:100
140
1.0
141
100.0
290
     0
  0
SCALE
  5
135
102
{ACAD_REACTORS
330
128
102
}
330
128
100
AcDbScale
 70
     0
300
2:1
140
2.0
141
1.0
290
     0
  0
SCALE
  5
136
102
{ACAD_REACTORS
330
128
102
}
330
128
100
AcDbScale
 70
     0
300
4:1
140
4.0
141
1.0
290
     0
  0
SCALE
  5
137
102
{ACAD_REACTORS
330
128
102
}
330
128
100
AcDbScale
 70
     0
300
8:1
140
8.0
141
1.0
290
     0
  0
SCALE
  5
138
102
{ACAD_REACTORS
330
128
102
}
330
128
100
AcDbScale
 70
     0
300
10:1
140
10.0
141
1.0
290
     0
  0
SCALE
  5
139
102
{ACAD_REACTORS
330
128
102
}
330
128
100
AcDbScale
 70
     0
300
100:1
140
100.0
141
1.0
290
     0
  0
SCALE
  5
13A
102
{ACAD_REACTORS
330
128
102
}
330
128
100
AcDbScale
 70
     0
300
1/128" = 1'-0"
140
0.0078125
141
12.0
290
     0
  0
SCALE
  5
13B
102
{ACAD_REACTORS
330
128
102
}
330
128
100
AcDbScale
 70
     0
300
1/64" = 1'-0"
140
0.015625
141
12.0
290
     0
  0
SCALE
  5
13C
102
{ACAD_REACTORS
330
128
102
}
330
128
100
AcDbScale
 70
     0
300
1/32" = 1'-0"
140
0.03125
141
12.0
290
     0
  0
SCALE
  5
13D
102
{ACAD_REACTORS
330
128
102
}
330
128
100
AcDbScale
 70
     0
300
1/16" = 1'-0"
140
0.0625
141
12.0
290
     0
  0
SCALE
  5
13E
102
{ACAD_REACTORS
330
128
102
}
330
128
100
AcDbScale
 70
     0
300
3/32" = 1'-0"
140
0.09375
141
12.0
290
     0
  0
SCALE
  5
13F
102
{ACAD_REACTORS
330
128
102
}
330
128
100
AcDbScale
 70
     0
300
1/8" = 1'-0"
140
0.125
141
12.0
290
     0
  0
SCALE
  5
140
102
{ACAD_REACTORS
330
128
102
}
330
128
100
AcDbScale
 70
     0
300
3/16" = 1'-0"
140
0.1875
141
12.0
290
     0
  0
SCALE
  5
141
102
{ACAD_REACTORS
330
128
102
}
330
128
100
AcDbScale
 70
     0
300
1/4" = 1'-0"
140
0.25
141
12.0
290
     0
  0
SCALE
  5
142
102
{ACAD_REACTORS
330
128
102
}
330
128
100
AcDbScale
 70
     0
300
3/8" = 1'-0"
140
0.375
141
12.0
290
     0
  0
SCALE
  5
143
102
{ACAD_REACTORS
330
128
102
}
330
128
100
AcDbScale
 70
     0
300
1/2" = 1'-0"
140
0.5
141
12.0
290
     0
  0
SCALE
  5
144
102
{ACAD_REACTORS
330
128
102
}
330
128
100
AcDbScale
 70
     0
300
3/4" = 1'-0"
140
0.75
141
12.0
290
     0
  0
SCALE
  5
145
102
{ACAD_REACTORS
330
128
102
}
330
128
100
AcDbScale
 70
     0
300
1" = 1'-0"
140
1.0
141
12.0
290
     0
  0
SCALE
  5
146
102
{ACAD_REACTORS
330
128
102
}
330
128
100
AcDbScale
 70
     0
300
1-1/2" = 1'-0"
140
1.5
141
12.0
290
     0
  0
SCALE
  5
147
102
{ACAD_REACTORS
330
128
102
}
330
128
100
AcDbScale
 70
     0
300
3" = 1'-0"
140
3.0
141
12.0
290
     0
  0
SCALE
  5
148
102
{ACAD_REACTORS
330
128
102
}
330
128
100
AcDbScale
 70
     0
300
6" = 1'-0"
140
6.0
141
12.0
290
     0
  0
SCALE
  5
149
102
{ACAD_REACTORS
330
128
102
}
330
128
100
AcDbScale
 70
     0
300
1'-0" = 1'-0"
140
12.0
141
12.0
290
     0
  0
ACDBSECTIONVIEWSTYLE
  5
1D2
102
{ACAD_XDICTIONARY
360
2514
102
}
102
{ACAD_REACTORS
330
1D1
102
}
330
1D1
100
AcDbModelDocViewStyle
 70
     0
  3
Metric50
290
     0
100
AcDbSectionViewStyle
 70
     0
 71
     0
 90
      102
 71
     1
340
C
 62
   256
 40
5.0
340
0
340
0
 62
   256
 40
5.0
300
I, O, Q, S, X, Z
 40
10.0
 90
        0
 40
2.5
 90
        0
 71
     2
340
5
 90
       25
 62
   256
340
5
 90
       50
 62
   256
 40
5.0
 40
2.5
 40
5.0
 71
     3
340
C
 62
   256
 40
5.0
 90
        0
 40
15.0
 90
        1
300
%<\AcVar ViewSectionStartId>%-%<\AcVar ViewSectionEndId>% (%<\AcVar ViewScale \f "%sn">%)
 71
     4
 62
   256
 62
   257
300
ANSI31
 40
1.0
 90
        0
290
     0
290
     0
 90
        6
 40
0.0
 40
1.57079633
 40
0.26179939
 40
1.30899694
 40
-0.26179939
 40
1.83259571
  0
TABLESTYLE
  5
127
102
{ACAD_XDICTIONARY
360
154
102
}
102
{ACAD_REACTORS
330
126
102
}
330
126
100
AcDbTableStyle
  3
Standard
 70
     0
 71
     0
 40
0.06
 41
0.06
280
     0
281
     0
  7
STANDARD
140
0.18
170
     2
 62
     0
 63
     7
283
     0
274
    -2
284
     1
 64
     0
275
    -2
285
     1
 65
     0
276
    -2
286
     1
 66
     0
277
    -2
287
     1
 67
     0
278
    -2
288
     1
 68
     0
279
    -2
289
     1
 69
     0
  7
STANDARD
140
0.25
170
     5
 62
     0
 63
     7
283
     0
274
    -2
284
     1
 64
     0
275
    -2
285
     1
 65
     0
276
    -2
286
     1
 66
     0
277
    -2
287
     1
 67
     0
278
    -2
288
     1
 68
     0
279
    -2
289
     1
 69
     0
  7
STANDARD
140
0.18
170
     5
 62
     0
 63
     7
283
     0
274
    -2
284
     1
 64
     0
275
    -2
285
     1
 65
     0
276
    -2
286
     1
 66
     0
277
    -2
287
     1
 67
     0
278
    -2
288
     1
 68
     0
279
    -2
289
     1
 69
     0
  0
VISUALSTYLE
  5
117
102
{ACAD_XDICTIONARY
360
24E7
102
}
102
{ACAD_REACTORS
330
111
102
}
330
111
100
AcDbVisualStyle
  2
2dWireframe
 70
     4
 71
     0
 72
     2
 73
     0
 90
        0
 40
-0.6
 41
-30.0
 62
     5
 63
     7
 74
     1
 91
        4
 64
     7
 65
   257
 75
     1
175
     1
 42
1.0
 92
        0
 66
   257
 43
1.0
 76
     1
 77
     6
 78
     2
 67
     7
 79
     5
170
     0
171
     0
290
     0
174
     0
 93
        1
 44
0.0
173
     0
291
     0
 45
0.0
1001
ACAD
1000
AcDbSavedByObjectVersion
1070
     0
  0
VISUALSTYLE
  5
119
102
{ACAD_XDICTIONARY
360
24EB
102
}
102
{ACAD_REACTORS
330
111
102
}
330
111
100
AcDbVisualStyle
  2
3D Hidden
 70
     6
 71
     1
 72
     2
 73
     2
 90
        0
 40
-0.6
 41
-30.0
 62
     5
 63
     7
 74
     2
 91
        2
 64
     7
 65
   257
 75
     2
175
     1
 42
179.0
 92
        0
 66
   257
 43
1.0
 76
     1
 77
     6
 78
     2
 67
     7
 79
     3
170
     0
171
     0
290
     0
174
     0
 93
        1
 44
0.0
173
     0
291
     0
 45
0.0
1001
ACAD
1000
AcDbSavedByObjectVersion
1070
     0
  0
VISUALSTYLE
  5
118
102
{ACAD_XDICTIONARY
360
24E9
102
}
102
{ACAD_REACTORS
330
111
102
}
330
111
100
AcDbVisualStyle
  2
3dWireframe
 70
     5
 71
     0
 72
     2
 73
     0
 90
        0
 40
-0.6
 41
-30.0
 62
     5
 63
     7
 74
     1
 91
        4
 64
     7
 65
   257
 75
     1
175
     1
 42
1.0
 92
        0
 66
   257
 43
1.0
 76
     1
 77
     6
 78
     2
 67
     7
 79
     5
170
     0
171
     0
290
     0
174
     0
 93
        1
 44
0.0
173
     0
291
     0
 45
0.0
1001
ACAD
1000
AcDbSavedByObjectVersion
1070
     0
  0
VISUALSTYLE
  5
116
102
{ACAD_XDICTIONARY
360
24E5
102
}
102
{ACAD_REACTORS
330
111
102
}
330
111
100
AcDbVisualStyle
  2
Basic
 70
     7
 71
     1
 72
     0
 73
     1
 90
        0
 40
-0.6
 41
-30.0
 62
     5
 63
     7
 74
     0
 91
        4
 64
     7
 65
   257
 75
     1
175
     1
 42
1.0
 92
        8
 66
     7
 43
1.0
 76
     1
 77
     6
 78
     2
 67
     7
 79
     5
170
     0
171
     0
290
     0
174
     0
 93
        1
 44
0.0
173
     0
291
     1
 45
0.0
1001
ACAD
1000
AcDbSavedByObjectVersion
1070
     0
  0
VISUALSTYLE
  5
11D
102
{ACAD_XDICTIONARY
360
24F3
102
}
102
{ACAD_REACTORS
330
111
102
}
330
111
100
AcDbVisualStyle
  2
Brighten
 70
    12
 71
     2
 72
     2
 73
     0
 90
        0
 40
-0.6
 41
-30.0
 62
     5
 63
     7
 74
     1
 91
        4
 64
     7
 65
   257
 75
     1
175
     1
 42
1.0
 92
        8
 66
     7
 43
1.0
 76
     1
 77
     6
 78
     2
 67
     7
 79
     5
170
     0
171
     0
290
     0
174
     0
 93
        1
 44
50.0
173
     0
291
     1
 45
0.0
1001
ACAD
1000
AcDbSavedByObjectVersion
1070
     0
  0
VISUALSTYLE
  5
121
102
{ACAD_XDICTIONARY
360
24FB
102
}
102
{ACAD_REACTORS
330
111
102
}
330
111
100
AcDbVisualStyle
  2
ColorChange
 70
    16
 71
     2
 72
     2
 73
     3
 90
        0
 40
-0.6
 41
-30.0
 62
     5
 63
     8
 74
     1
 91
        4
 64
     7
 65
   257
 75
     1
175
     1
 42
1.0
 92
        8
 66
     8
 43
1.0
 76
     1
 77
     6
 78
     2
 67
     7
 79
     5
170
     0
171
     0
290
     0
174
     0
 93
        1
 44
0.0
173
     0
291
     1
 45
0.0
1001
ACAD
1000
AcDbSavedByObjectVersion
1070
     0
  0
VISUALSTYLE
  5
11A
102
{ACAD_XDICTIONARY
360
24ED
102
}
102
{ACAD_REACTORS
330
111
102
}
330
111
100
AcDbVisualStyle
  2
Conceptual
 70
     9
 71
     3
 72
     2
 73
     0
 90
        0
 40
-0.6
 41
-30.0
 62
     5
 63
     7
 74
     2
 91
        2
 64
     7
 65
   257
 75
     1
175
     1
 42
179.0
 92
        8
 66
     7
 43
1.0
 76
     1
 77
     6
 78
     2
 67
     7
 79
     3
170
     0
171
     0
290
     0
174
     0
 93
        1
 44
0.0
173
     0
291
     0
 45
0.0
1001
ACAD
1000
AcDbSavedByObjectVersion
1070
     0
  0
VISUALSTYLE
  5
11C
102
{ACAD_XDICTIONARY
360
24F1
102
}
102
{ACAD_REACTORS
330
111
102
}
330
111
100
AcDbVisualStyle
  2
Dim
 70
    11
 71
     2
 72
     2
 73
     0
 90
        0
 40
-0.6
 41
-30.0
 62
     5
 63
     7
 74
     1
 91
        4
 64
     7
 65
   257
 75
     1
175
     1
 42
1.0
 92
        8
 66
     7
 43
1.0
 76
     1
 77
     6
 78
     2
 67
     7
 79
     5
170
     0
171
     0
290
     0
174
     0
 93
        1
 44
-50.0
173
     0
291
     1
 45
0.0
1001
ACAD
1000
AcDbSavedByObjectVersion
1070
     0
  0
VISUALSTYLE
  5
124
102
{ACAD_XDICTIONARY
360
2501
102
}
102
{ACAD_REACTORS
330
111
102
}
330
111
100
AcDbVisualStyle
  2
EdgeColorOff
 70
    22
 71
     2
 72
     2
 73
     0
 90
        0
 40
-0.6
 41
-30.0
 62
     5
 63
     7
 74
     1
 91
        4
 64
     7
 65
   257
 75
     1
175
     1
 42
1.0
 92
        8
 66
     7
 43
1.0
 76
     1
 77
     6
 78
     2
 67
     7
 79
     5
170
     0
171
     0
290
     0
174
     0
 93
        1
 44
0.0
173
     0
291
     1
 45
0.0
1001
ACAD
1000
AcDbSavedByObjectVersion
1070
     0
  0
VISUALSTYLE
  5
120
102
{ACAD_XDICTIONARY
360
24F9
102
}
102
{ACAD_REACTORS
330
111
102
}
330
111
100
AcDbVisualStyle
  2
Facepattern
 70
    15
 71
     2
 72
     2
 73
     0
 90
        0
 40
-0.6
 41
-30.0
 62
     5
 63
     7
 74
     1
 91
        4
 64
     7
 65
   257
 75
     1
175
     1
 42
1.0
 92
        8
 66
     7
 43
1.0
 76
     1
 77
     6
 78
     2
 67
     7
 79
     5
170
     0
171
     0
290
     0
174
     0
 93
        1
 44
0.0
173
     0
291
     1
 45
0.0
1001
ACAD
1000
AcDbSavedByObjectVersion
1070
     0
  0
VISUALSTYLE
  5
112
102
{ACAD_XDICTIONARY
360
24DD
102
}
102
{ACAD_REACTORS
330
111
102
}
330
111
100
AcDbVisualStyle
  2
Flat
 70
     0
 71
     2
 72
     1
 73
     1
 90
        2
 40
-0.6
 41
30.0
 62
     5
 63
     7
 74
     0
 91
        4
 64
     7
 65
   257
 75
     1
175
     1
 42
1.0
 92
        8
 66
     7
 43
1.0
 76
     1
 77
     6
 78
     2
 67
     7
 79
     5
170
     0
171
     0
290
     0
174
     0
 93
       13
 44
0.0
173
     0
291
     1
 45
0.0
1001
ACAD
1000
AcDbSavedByObjectVersion
1070
     0
  0
VISUALSTYLE
  5
113
102
{ACAD_XDICTIONARY
360
24DF
102
}
102
{ACAD_REACTORS
330
111
102
}
330
111
100
AcDbVisualStyle
  2
FlatWithEdges
 70
     1
 71
     2
 72
     1
 73
     1
 90
        2
 40
-0.6
 41
30.0
 62
     5
 63
     7
 74
     1
 91
        4
 64
     7
 65
   257
 75
     1
175
     1
 42
1.0
 92
        0
 66
   257
 43
1.0
 76
     1
 77
     6
 78
     2
 67
     7
 79
     5
170
     0
171
     0
290
     0
174
     0
 93
       13
 44
0.0
173
     0
291
     1
 45
0.0
1001
ACAD
1000
AcDbSavedByObjectVersion
1070
     0
  0
VISUALSTYLE
  5
114
102
{ACAD_XDICTIONARY
360
24E1
102
}
102
{ACAD_REACTORS
330
111
102
}
330
111
100
AcDbVisualStyle
  2
Gouraud
 70
     2
 71
     2
 72
     2
 73
     1
 90
        2
 40
-0.6
 41
30.0
 62
     5
 63
     7
 74
     0
 91
        4
 64
     7
 65
   257
 75
     1
175
     1
 42
1.0
 92
        0
 66
     7
 43
1.0
 76
     1
 77
     6
 78
     2
 67
     7
 79
     5
170
     0
171
     0
290
     0
174
     0
 93
       13
 44
0.0
173
     0
291
     1
 45
0.0
1001
ACAD
1000
AcDbSavedByObjectVersion
1070
     0
  0
VISUALSTYLE
  5
115
102
{ACAD_XDICTIONARY
360
24E3
102
}
102
{ACAD_REACTORS
330
111
102
}
330
111
100
AcDbVisualStyle
  2
GouraudWithEdges
 70
     3
 71
     2
 72
     2
 73
     1
 90
        2
 40
-0.6
 41
30.0
 62
     5
 63
     7
 74
     1
 91
        4
 64
     7
 65
   257
 75
     1
175
     1
 42
1.0
 92
        0
 66
   257
 43
1.0
 76
     1
 77
     6
 78
     2
 67
     7
 79
     5
170
     0
171
     0
290
     0
174
     0
 93
       13
 44
0.0
173
     0
291
     1
 45
0.0
1001
ACAD
1000
AcDbSavedByObjectVersion
1070
     0
  0
VISUALSTYLE
  5
1CB
102
{ACAD_XDICTIONARY
360
2508
102
}
102
{ACAD_REACTORS
330
111
102
}
330
111
100
AcDbVisualStyle
  2
Hidden
 70
     6
 71
     1
 72
     2
 73
     2
 90
        0
 40
-0.6
 41
-30.0
 62
     5
 63
     7
421
 16777215
 74
     2
 91
        2
 64
     7
 65
   257
 75
     2
175
     1
 42
40.0
 92
        0
 66
   257
 43
1.0
 76
     1
 77
     6
 78
     2
 67
     7
 79
     3
170
     0
171
     0
290
     0
174
     0
 93
        1
 44
0.0
173
     0
291
     0
 45
0.0
1001
ACAD
1000
AcDbSavedByObjectVersion
1070
     0
  0
VISUALSTYLE
  5
122
102
{ACAD_XDICTIONARY
360
24FD
102
}
102
{ACAD_REACTORS
330
111
102
}
330
111
100
AcDbVisualStyle
  2
JitterOff
 70
    20
 71
     2
 72
     2
 73
     0
 90
        0
 40
-0.6
 41
-30.0
 62
     5
 63
     7
 74
     1
 91
        4
 64
     7
 65
   257
 75
     1
175
     1
 42
1.0
 92
       10
 66
     7
 43
1.0
 76
     1
 77
     6
 78
     2
 67
     7
 79
     5
170
     0
171
     0
290
     0
174
     0
 93
        1
 44
0.0
173
     0
291
     1
 45
0.0
1001
ACAD
1000
AcDbSavedByObjectVersion
1070
     0
  0
VISUALSTYLE
  5
11F
102
{ACAD_XDICTIONARY
360
24F7
102
}
102
{ACAD_REACTORS
330
111
102
}
330
111
100
AcDbVisualStyle
  2
Linepattern
 70
    14
 71
     2
 72
     2
 73
     0
 90
        0
 40
-0.6
 41
-30.0
 62
     5
 63
     7
 74
     1
 91
        4
 64
     7
 65
   257
 75
     7
175
     7
 42
1.0
 92
        8
 66
     7
 43
1.0
 76
     1
 77
     6
 78
     2
 67
     7
 79
     5
170
     0
171
     0
290
     0
174
     0
 93
        1
 44
0.0
173
     0
291
     1
 45
0.0
1001
ACAD
1000
AcDbSavedByObjectVersion
1070
     0
  0
VISUALSTYLE
  5
123
102
{ACAD_XDICTIONARY
360
24FF
102
}
102
{ACAD_REACTORS
330
111
102
}
330
111
100
AcDbVisualStyle
  2
OverhangOff
 70
    21
 71
     2
 72
     2
 73
     0
 90
        0
 40
-0.6
 41
-30.0
 62
     5
 63
     7
 74
     1
 91
        4
 64
     7
 65
   257
 75
     1
175
     1
 42
1.0
 92
        9
 66
     7
 43
1.0
 76
     1
 77
     6
 78
     2
 67
     7
 79
     5
170
     0
171
     0
290
     0
174
     0
 93
        1
 44
0.0
173
     0
291
     1
 45
0.0
1001
ACAD
1000
AcDbSavedByObjectVersion
1070
     0
  0
VISUALSTYLE
  5
11B
102
{ACAD_XDICTIONARY
360
24EF
102
}
102
{ACAD_REACTORS
330
111
102
}
330
111
100
AcDbVisualStyle
  2
Realistic
 70
     8
 71
     2
 72
     2
 73
     0
 90
        0
 40
-0.6
 41
-30.0
 62
     5
 63
     7
 74
     1
 91
        0
 64
     7
 65
   257
 75
     1
175
     1
 42
1.0
 92
        8
 66
     8
 43
1.0
 76
     1
 77
     6
 78
     2
 67
     7
 79
     5
170
     0
171
     0
290
     0
174
     0
 93
       13
 44
0.0
173
     0
291
     0
 45
0.0
1001
ACAD
1000
AcDbSavedByObjectVersion
1070
     0
  0
VISUALSTYLE
  5
1D0
102
{ACAD_XDICTIONARY
360
2512
102
}
102
{ACAD_REACTORS
330
111
102
}
330
111
100
AcDbVisualStyle
  2
Shaded
 70
    27
 71
     2
 72
     2
 73
     1
 90
        2
 40
-0.6
 41
30.0
 62
     5
 63
     7
421
 16777215
 74
     0
 91
        4
 64
     7
 65
   257
 75
     1
175
     1
 42
1.0
 92
        8
 66
   257
 43
1.0
 76
     1
 77
     6
 78
     2
 67
     8
425
  7895160
 79
     3
170
     0
171
     0
290
     0
174
     0
 93
        5
 44
0.0
173
     0
291
     0
 45
0.0
1001
ACAD
1000
AcDbSavedByObjectVersion
1070
     0
  0
VISUALSTYLE
  5
1CF
102
{ACAD_XDICTIONARY
360
2510
102
}
102
{ACAD_REACTORS
330
111
102
}
330
111
100
AcDbVisualStyle
  2
Shaded with edges
 70
    26
 71
     2
 72
     2
 73
     1
 90
        2
 40
-0.6
 41
30.0
 62
     5
 63
     7
421
 16777215
 74
     1
 91
        2
 64
     7
 65
   257
 75
     2
175
     1
 42
1.0
 92
        8
 66
   257
 43
1.0
 76
     1
 77
     6
 78
     2
 67
     7
 79
     3
170
     0
171
     0
290
     0
174
     0
 93
        5
 44
0.0
173
     0
291
     0
 45
0.0
1001
ACAD
1000
AcDbSavedByObjectVersion
1070
     0
  0
VISUALSTYLE
  5
1CC
102
{ACAD_XDICTIONARY
360
250A
102
}
102
{ACAD_REACTORS
330
111
102
}
330
111
100
AcDbVisualStyle
  2
Shades of Gray
 70
    23
 71
     2
 72
     2
 73
     3
 90
        0
 40
-0.6
 41
-30.0
 62
     5
 63
     7
421
 16777215
 74
     2
 91
        2
 64
     7
 65
     7
 75
     1
175
     1
 42
40.0
 92
        8
 66
     7
 43
1.0
 76
     1
 77
     6
 78
     2
 67
     7
 79
     3
170
     0
171
     0
290
     0
174
     0
 93
        1
 44
0.0
173
     0
291
     0
 45
0.0
1001
ACAD
1000
AcDbSavedByObjectVersion
1070
     0
  0
VISUALSTYLE
  5
1CD
102
{ACAD_XDICTIONARY
360
250C
102
}
102
{ACAD_REACTORS
330
111
102
}
330
111
100
AcDbVisualStyle
  2
Sketchy
 70
    24
 71
     1
 72
     2
 73
     2
 90
        0
 40
-0.6
 41
-30.0
 62
     5
 63
     7
421
 16777215
 74
     2
 91
        2
 64
     7
 65
     7
 75
     1
175
     1
 42
40.0
 92
       11
 66
     7
 43
1.0
 76
     1
 77
     6
 78
     2
 67
     7
 79
     6
170
     0
171
     0
290
     0
174
     0
 93
        1
 44
0.0
173
     0
291
     0
 45
0.0
1001
ACAD
1000
AcDbSavedByObjectVersion
1070
     0
  0
VISUALSTYLE
  5
11E
102
{ACAD_XDICTIONARY
360
24F5
102
}
102
{ACAD_REACTORS
330
111
102
}
330
111
100
AcDbVisualStyle
  2
Thicken
 70
    13
 71
     2
 72
     2
 73
     0
 90
        0
 40
-0.6
 41
-30.0
 62
     5
 63
     7
 74
     1
 91
        4
 64
     7
 65
   257
 75
     1
175
     1
 42
1.0
 92
       12
 66
     7
 43
1.0
 76
     1
 77
     6
 78
     2
 67
     7
 79
     5
170
     0
171
     0
290
     0
174
     0
 93
        1
 44
0.0
173
     0
291
     1
 45
0.0
1001
ACAD
1000
AcDbSavedByObjectVersion
1070
     0
  0
VISUALSTYLE
  5
1CA
102
{ACAD_XDICTIONARY
360
2506
102
}
102
{ACAD_REACTORS
330
111
102
}
330
111
100
AcDbVisualStyle
  2
Wireframe
 70
     5
 71
     0
 72
     2
 73
     0
 90
        0
 40
-0.6
 41
-30.0
 62
     5
 63
     7
421
 16777215
 74
     1
 91
        4
 64
     7
 65
   257
 75
     1
175
     1
 42
1.0
 92
        0
 66
   257
 43
1.0
 76
     1
 77
     6
 78
     2
 67
     7
 79
     3
170
     0
171
     0
290
     0
174
     0
 93
        1
 44
0.0
173
     0
291
     0
 45
0.0
1001
ACAD
1000
AcDbSavedByObjectVersion
1070
     0
  0
VISUALSTYLE
  5
1CE
102
{ACAD_XDICTIONARY
360
250E
102
}
102
{ACAD_REACTORS
330
111
102
}
330
111
100
AcDbVisualStyle
  2
X-Ray
 70
    25
 71
     2
 72
     2
 73
     1
 90
        1
 40
0.5
 41
-30.0
 62
     5
 63
     7
421
 16777215
 74
     1
 91
        0
 64
     7
 65
   257
 75
     1
175
     1
 42
1.0
 92
        8
 66
     7
 43
1.0
 76
     1
 77
     6
 78
     2
 67
     7
 79
     3
170
     0
171
     0
290
     0
174
     0
 93
       13
 44
0.0
173
     0
291
     0
 45
0.0
1001
ACAD
1000
AcDbSavedByObjectVersion
1070
     0
  0
DICTIONARYVAR
  5
1C4
102
{ACAD_REACTORS
330
1C1
102
}
330
1C1
100
DictionaryVariables
280
     0
  1
1:1
  0
DICTIONARYVAR
  5
1C3
102
{ACAD_REACTORS
330
1C1
102
}
330
1C1
100
DictionaryVariables
280
     0
  1
STANDARD
  0
DICTIONARYVAR
  5
1C2
102
{ACAD_REACTORS
330
1C1
102
}
330
1C1
100
DictionaryVariables
280
     0
  1
STANDARD
  0
DICTIONARYVAR
  5
2294
102
{ACAD_REACTORS
330
1C1
102
}
330
1C1
100
DictionaryVariables
280
     0
  1
Metric50
  0
DICTIONARYVAR
  5
2295
102
{ACAD_REACTORS
330
1C1
102
}
330
1C1
100
DictionaryVariables
280
     0
  1
Metric50
  0
DICTIONARYVAR
  5
1C7
102
{ACAD_REACTORS
330
1C1
102
}
330
1C1
100
DictionaryVariables
280
     0
  1
1
  0
DICTIONARYVAR
  5
1C6
102
{ACAD_REACTORS
330
1C1
102
}
330
1C1
100
DictionaryVariables
280
     0
  1
0
  0
DICTIONARYVAR
  5
1C5
102
{ACAD_REACTORS
330
1C1
102
}
330
1C1
100
DictionaryVariables
280
     0
  1
127
  0
DICTIONARYVAR
  5
24D7
102
{ACAD_REACTORS
330
1C1
102
}
330
1C1
100
DictionaryVariables
280
     0
  1
2
  0
DICTIONARY
  5
2516
330
1D4
100
AcDbDictionary
280
     1
281
     1
  3
ACAD_XREC_ROUNDTRIP
360
2517
  0
DICTIONARY
  5
2280
330
14E
100
AcDbDictionary
280
     1
281
     1
  3
ADSK_XREC_LAYOUTTHUMBNAIL
360
2281
  0
DICTIONARY
  5
102
330
101
100
AcDbDictionary
280
     1
281
     1
  3
ACAD_XREC_ROUNDTRIP
360
24DB
  3
BUMPTILE
360
104
  3
DIFFUSETILE
360
103
  3
OPACITYTILE
360
107
  3
REFLECTIONTILE
360
106
  3
REFRACTIONTILE
360
108
  3
SPECULARTILE
360
105
  0
DICTIONARY
  5
FA
330
F9
100
AcDbDictionary
280
     1
281
     1
  3
ACAD_XREC_ROUNDTRIP
360
24DA
  3
BUMPTILE
360
FC
  3
DIFFUSETILE
360
FB
  3
OPACITYTILE
360
FF
  3
REFLECTIONTILE
360
FE
  3
REFRACTIONTILE
360
100
  3
SPECULARTILE
360
FD
  0
DICTIONARY
  5
10A
330
109
100
AcDbDictionary
280
     1
281
     1
  3
ACAD_XREC_ROUNDTRIP
360
24DC
  3
BUMPTILE
360
10C
  3
DIFFUSETILE
360
10B
  3
OPACITYTILE
360
10F
  3
REFLECTIONTILE
360
10E
  3
REFRACTIONTILE
360
110
  3
SPECULARTILE
360
10D
  0
DICTIONARY
  5
2504
330
14B
100
AcDbDictionary
280
     1
281
     1
  3
ACAD_XREC_ROUNDTRIP
360
2505
  0
XRECORD
  5
23D1
102
{ACAD_REACTORS
330
23D0
102
}
330
23D0
100
AcDbXrecord
280
     1
 70
     2
 71
     3
 72
     0
  0
DICTIONARY
  5
2514
330
1D2
100
AcDbDictionary
280
     1
281
     1
  3
ACAD_XREC_ROUNDTRIP
360
2515
  0
DICTIONARY
  5
154
330
127
100
AcDbDictionary
280
     1
281
     1
  3
ACAD_ROUNDTRIP_2008_TABLESTYLE_CELLSTYLEMAP
360
24D8
  3
ACAD_XREC_ROUNDTRIP
360
2503
  0
DICTIONARY
  5
24E7
330
117
100
AcDbDictionary
280
     1
281
     1
  3
ACAD_XREC_ROUNDTRIP
360
24E8
  0
DICTIONARY
  5
24EB
330
119
100
AcDbDictionary
280
     1
281
     1
  3
ACAD_XREC_ROUNDTRIP
360
24EC
  0
DICTIONARY
  5
24E9
330
118
100
AcDbDictionary
280
     1
281
     1
  3
ACAD_XREC_ROUNDTRIP
360
24EA
  0
DICTIONARY
  5
24E5
330
116
100
AcDbDictionary
280
     1
281
     1
  3
ACAD_XREC_ROUNDTRIP
360
24E6
  0
DICTIONARY
  5
24F3
330
11D
100
AcDbDictionary
280
     1
281
     1
  3
ACAD_XREC_ROUNDTRIP
360
24F4
  0
DICTIONARY
  5
24FB
330
121
100
AcDbDictionary
280
     1
281
     1
  3
ACAD_XREC_ROUNDTRIP
360
24FC
  0
DICTIONARY
  5
24ED
330
11A
100
AcDbDictionary
280
     1
281
     1
  3
ACAD_XREC_ROUNDTRIP
360
24EE
  0
DICTIONARY
  5
24F1
330
11C
100
AcDbDictionary
280
     1
281
     1
  3
ACAD_XREC_ROUNDTRIP
360
24F2
  0
DICTIONARY
  5
2501
330
124
100
AcDbDictionary
280
     1
281
     1
  3
ACAD_XREC_ROUNDTRIP
360
2502
  0
DICTIONARY
  5
24F9
330
120
100
AcDbDictionary
280
     1
281
     1
  3
ACAD_XREC_ROUNDTRIP
360
24FA
  0
DICTIONARY
  5
24DD
330
112
100
AcDbDictionary
280
     1
281
     1
  3
ACAD_XREC_ROUNDTRIP
360
24DE
  0
DICTIONARY
  5
24DF
330
113
100
AcDbDictionary
280
     1
281
     1
  3
ACAD_XREC_ROUNDTRIP
360
24E0
  0
DICTIONARY
  5
24E1
330
114
100
AcDbDictionary
280
     1
281
     1
  3
ACAD_XREC_ROUNDTRIP
360
24E2
  0
DICTIONARY
  5
24E3
330
115
100
AcDbDictionary
280
     1
281
     1
  3
ACAD_XREC_ROUNDTRIP
360
24E4
  0
DICTIONARY
  5
2508
330
1CB
100
AcDbDictionary
280
     1
281
     1
  3
ACAD_XREC_ROUNDTRIP
360
2509
  0
DICTIONARY
  5
24FD
330
122
100
AcDbDictionary
280
     1
281
     1
  3
ACAD_XREC_ROUNDTRIP
360
24FE
  0
DICTIONARY
  5
24F7
330
11F
100
AcDbDictionary
280
     1
281
     1
  3
ACAD_XREC_ROUNDTRIP
360
24F8
  0
DICTIONARY
  5
24FF
330
123
100
AcDbDictionary
280
     1
281
     1
  3
ACAD_XREC_ROUNDTRIP
360
2500
  0
DICTIONARY
  5
24EF
330
11B
100
AcDbDictionary
280
     1
281
     1
  3
ACAD_XREC_ROUNDTRIP
360
24F0
  0
DICTIONARY
  5
2512
330
1D0
100
AcDbDictionary
280
     1
281
     1
  3
ACAD_XREC_ROUNDTRIP
360
2513
  0
DICTIONARY
  5
2510
330
1CF
100
AcDbDictionary
280
     1
281
     1
  3
ACAD_XREC_ROUNDTRIP
360
2511
  0
DICTIONARY
  5
250A
330
1CC
100
AcDbDictionary
280
     1
281
     1
  3
ACAD_XREC_ROUNDTRIP
360
250B
  0
DICTIONARY
  5
250C
330
1CD
100
AcDbDictionary
280
     1
281
     1
  3
ACAD_XREC_ROUNDTRIP
360
250D
  0
DICTIONARY
  5
24F5
330
11E
100
AcDbDictionary
280
     1
281
     1
  3
ACAD_XREC_ROUNDTRIP
360
24F6
  0
DICTIONARY
  5
2506
330
1CA
100
AcDbDictionary
280
     1
281
     1
  3
ACAD_XREC_ROUNDTRIP
360
2507
  0
DICTIONARY
  5
250E
330
1CE
100
AcDbDictionary
280
     1
281
     1
  3
ACAD_XREC_ROUNDTRIP
360
250F
  0
XRECORD
  5
2517
102
{ACAD_REACTORS
330
2516
102
}
330
2516
100
AcDbXrecord
280
     1
102
DISPLAYNAME
  1
Metric50
102
FLAGS
 90
        0
  0
XRECORD
  5
2281
102
{ACAD_REACTORS
330
2280
102
}
330
2280
100
AcDbXrecord
280
     1
310
28000000000100005000000001000800000000000050000001000000010000000001000000000000000000FFFFFFFFFF000000FF000000FF000000FF000000FF000000FF000000FF000000FF000000FF000000FF330000FF660000FF990000FFCC0000FFFF0000FF003300FF333300FF663300FF993300FFCC3300FFFF3300
310
FF006600FF336600FF666600FF996600FFCC6600FFFF6600FF009900FF339900FF669900FF999900FFCC9900FFFF9900FF00CC00FF33CC00FF66CC00FF99CC00FFCCCC00FFFFCC00FF00FF00FF33FF00FF66FF00FF99FF00FFCCFF00FFFFFF00FF000033FF330033FF660033FF990033FFCC0033FFFF0033FF003333FF3333
310
33FF663333FF993333FFCC3333FFFF3333FF006633FF336633FF666633FF996633FFCC6633FFFF6633FF009933FF339933FF669933FF999933FFCC9933FFFF9933FF00CC33FF33CC33FF66CC33FF99CC33FFCCCC33FFFFCC33FF00FF33FF33FF33FF66FF33FF99FF33FFCCFF33FFFFFF33FF000066FF330066FF660066FF99
310
0066FFCC0066FFFF0066FF003366FF333366FF663366FF993366FFCC3366FFFF3366FF006666FF336666FF666666FF996666FFCC6666FFFF6666FF009966FF339966FF669966FF999966FFCC9966FFFF9966FF00CC66FF33CC66FF66CC66FF99CC66FFCCCC66FFFFCC66FF00FF66FF33FF66FF66FF66FF99FF66FFCCFF66FF
310
FFFF66FF000099FF330099FF660099FF990099FFCC0099FFFF0099FF003399FF333399FF663399FF993399FFCC3399FFFF3399FF006699FF336699FF666699FF996699FFCC6699FFFF6699FF009999FF339999FF669999FF999999FFCC9999FFFF9999FF00CC99FF33CC99FF66CC99FF99CC99FFCCCC99FFFFCC99FF00FF99
310
FF33FF99FF66FF99FF99FF99FFCCFF99FFFFFF99FF0000CCFF3300CCFF6600CCFF9900CCFFCC00CCFFFF00CCFF0033CCFF3333CCFF6633CCFF9933CCFFCC33CCFFFF33CCFF0066CCFF3366CCFF6666CCFF9966CCFFCC66CCFFFF66CCFF0099CCFF3399CCFF6699CCFF9999CCFFCC99CCFFFF99CCFF00CCCCFF33CCCCFF66CC
310
CCFF99CCCCFFCCCCCCFFFFCCCCFF00FFCCFF33FFCCFF66FFCCFF99FFCCFFCCFFCCFFFFFFCCFF0000FFFF3300FFFF6600FFFF9900FFFFCC00FFFFFF00FFFF0033FFFF3333FFFF6633FFFF9933FFFFCC33FFFFFF33FFFF0066FFFF3366FFFF6666FFFF9966FFFFCC66FFFFFF66FFFF0099FFFF3399FFFF6699FFFF9999FFFFCC
310
99FFFFFF99FFFF00CCFFFF33CCFFFF66CCFFFF99CCFFFFCCCCFFFFFFCCFFFF00FFFFFF33FFFFFF66FFFFFF99FFFFFFCCFFFFFFFFFFFFFF000000FF0D0D0DFF1A1A1AFF282828FF353535FF434343FF505050FF5D5D5DFF6B6B6BFF787878FF868686FF939393FFA1A1A1FFAEAEAEFFBBBBBBFFC9C9C9FFD6D6D6FFE4E4E4FF
310
F1F1F1FFFFFFFFFF000000FF000000FF000000FF000000FF000000FF000000FF000000FF000000FF000000FF00000000000000000000000000000000000000000000000000000000000000000000000000000000000000000000000000000000000000000000000000000000000000000000000000000000F2F2F2F2F2F2F2
310
F2F2F2F2F2F2F2F2F2F2F2F2F2F2F2F2F2F2F2F2F2F2F2F2F2F2F2F2F2F2F2F2F2F2F2F2F2F2F2F2F2F2F2F2F2F2F2F2F2F2F2F2F2F2F2F2F2F2F2F2F2F2F2F2F2F2F2F2F275F2F275F2F2F2F2F2F275757575757575757575757575F2F2F2F2F2F20000000000000000000000000000000000000000000000000000000000
310
0000000000000000000000000000000000000000000000000000000000000000000000000000000000000000000000000000000000000000000000000000000000000000000000000000000000000000000000000000000000000000000000000000000000000000000000000000000000000000000000000000F275757575
310
75757575757575757575757575757575757575757575757575757575757575F200000000000000000000000000000000F2F2000000000000000028282800000000000000F27575757575757575F27500F275757575757575757575757575F2000000F2F2F2F2F2F20000000000000000000000000000000000000000000000
310
00000000000000000000000000000000000000000000000000000000000000000000000000000000000000000000000000000000000000000000000000000000000000000000000000000000000000000000000000000000000000000000000000000000000000000000000000000000000000000000000000000000F27575
310
757575757575757575757575757575757575757575757575757575757575757575F275007500000000000000000000000000F2F2757575000000282828282828000000000000F20000750000750000F20075F2F2F2F2F2F2F2F2F2F27575757575757575F2F2F2F2F2F2F20000000000000000000000000000000000000000
310
000000000000000000000000000000000000000000000000000000000000000000000000000000000000000000000000000000000000000000000000000000000000000000000000000000000000000000000000000000000000000000000000000000000000000000000000000000000000000000000000000000000000F2
310
7575757575757575757575757575757575757575757575757575757575757575757575F2757575757575757575757575757575757575757575757575757575757575757575757575750000750000750000752828F200000000000000000075007500F2F2F2F2F2F2F2F2F2F2F2000000000000000000000000000000000000
310
00000000000000000000000000000000000000000000000000000000000000000000000000000000000000000000000000000000000000000000000000000000000000000000000000000000000000000000000000000000000000000000000000000000000000000000000000000000000000000000000000000000000000
310
00F27575757575757575757575757575757575757575757575757575757575757575757575F200000000000000000000000000000000F2F2000000000000000000000000000000F2F2F2F2757575757575757575287575000000000000000000000000007575757575F2F2F2F2F2F200000000000000000000000000000000
310
00000000000000000000000000000000000000000000000000000000000000000000000000000000000000000000000000000000000000000000000000000000000000000000000000000000000000000000000000000000000000000000000000000000000000000000000000000000000000000000000000000000000000
310
000000F275757575F2F2F2F2F2F2F2F2F2F2F2F2F2F2F2F2F2F2F2F2F2F2F2F2F2F2F2F2F2F2F2F2757575F2F2F2F2F2F2F2F2F2F2F2F2F2F2F2757575F2F2F2F2F2F2F2F2F2F2F2F2F2F2F275757575757575757575757575757575F2F2F2F2F2F2F2F2F2F2F2757575F2F2F2F2F2F2000000000000000000000000000000
310
00000000000000000000000000000000000000000000000000000000000000000000000000000000000000000000000000000000000000000000000000000000000000000000000000000000000000000000000000000000000000000000000000000000000000000000000000000000000000000000000000000000000000
310
0000000000F2F2F2F2F2F2F2F2F2F2F2F2F2F2F2F2F2F2F2F2F2F2F2F2F2F2F2F2F2F2F2F2F2F2F2F2F2F2F2F2F2F2F2F2F2F2F2F2F2F2F2F2F2F2F2F2F2F2F2F2F2F2F2F2F2F2F2F2F2F2F2F2F2F2F2F2F2F2F2F2F2F2F2F2F2F2F2F2F2F2F2F2F2F2F2F2F2F2F2F2F2F2F2F2F2F2F2F2F200EC0000000000000000000000
310
00000000000000000000000000000000000000000000000000000000000000000000000000000000000000000000000000000000000000000000000000000000000000000000000000000000000000000000000000000000000000000000000000000000000000000000000000000000000000000000000000000000000000
310
00000000000000F20000000000000000000000000000000000000000000000000000000000000000000000000000000000000000000000000000000000000000000000000000000000000000000000000000000000000000000000000000000000000000000000000000000000000000000000F2ECECEC0000000000000000
310
00000000000000000000000000000000000000000000000000000000000000000000000000000000000000000000000000000000000000000000000000000000000000000000000000000000000000000000000000000000000000000000000000000000000000000000000000000000000000000000000000000000000000
310
000000000000000000F20000000000000000000000000000000000000000000000000000000000000000000000000000000000000000000000000000000000000000000000000000000000000000000000000000000000000000000000000000000000000000000000000000000000000000000000F200EC00000000000000
310
00000000000000000000000000000000000000000000000000000000000000000000000000000000000000000000000000000000000000000000000000000000000000000000000000000000000000000000000000000000000000000000000000000000000000000000000000000000000000000000000000000000000000
310
0000000000000000000000F20000000000000000000000000000000000000000000000000000000000000000000000000000000000000000000000000000000000000000000000000000000000000000000000000000000000000000000000000000000000000000000000000000000000000000000000F2ECECEC00000000
310
00000000000000000000000000000000000000000000000000000000000000000000000000000000000000000000000000000000000000000000000000000000000000000000000000000000000000000000000000000000000000000000000000000000000000000000000000000000000000000000000000000000000000
310
00000000000000000000000000F20000000000000000000000000000000000000000000000000000000000000000000000000000000000000000000000000000000000000000000000000000000000000000000000000000000000000000000000000000000000000000000000000000000000000000000000F200EC000000
310
00000000000000000000000000000000000000000000000000000000000000000000000000000000000000000000000000000000000000000000000000000000000000000000000000000000000000000000000000000000000000000000000000000000000000000000000000000000000000000000000000000000000000
310
000000000000000000000000000000F20000000000000000000000000000000000000000000000000000000000000000000000000000000000000000000000000000000000000000000000000000000000000000000000000000000000000000000000000000000000000000000000000000000000000000000000F200EC00
310
00000000000000000000000000000000000000000000000000000000000000000000000000000000000000000000000000000000000000000000000000000000000000000000000000000000000000000000000000000000000000000000000000000000000000000000000000000000000000000000000000000000000000
310
0000000000000000000000000000000000F20000000000000000000000000000000000000000000000000000000000000000000000000000000000000000000000000000000000000000000000000000000000000000000000000000000000000000000000000000000000000000000000000000000000000000000000F2EC
310
ECEC0000000000000000000000000000000000000000000000000000000000000000000000000000000000000000000000000000000000000000000000000000000000000000000000000000000000000000000000000000000000000000000000000000000000000000000000000000000000000000000000000000000000
310
00000000000000000000000000000000000000F20000000000000000000000000000000000000000000000000000000000000000000000000000000000000000000000000000000000000000000000000000000000000000000000000000000000000000000000000000000000000000000000000000000000000000000000
310
F200EC00000000000000000000000000000000000000000000000000000000000000000000000000000000000000000000000000000000000000000000000000000000000000000000000000000000000000000000000000000000000000000000000000000000000000000000000000000000000000000000000000000000
310
000000000000000000000000000000000000000000F2000000000000000000000000000000000000000000000000000000000000000000000000000000000000000000000000000000000000000000000000000000000000000000000000000000000000000000000000000000000000000000000000000000000000000000
310
0000F200EC0000000000000000000000000000000000000000000000000000000000000000000000000000000000000000000000000000000000000000000000000000000000000000000000000000000000000000000000000000000000000000000000000000000000000000000000000000000000000000000000000000
310
0000000000000000000000000000000000000000000000F200000000000000000000000000000000000000000000000000000000000000000000000000000000000000000000000000000000000000000000000000000000000000000000000000000000000000000000000000000000000000000000000000000000000000
310
00000000F2ECECEC0000000000000000000000000000000000000000000000000000000000000000000000000000000000000000000000000000000000000000000000000000000000000000000000000000000000000000000000000000000000000000000000000000000000000000000000000000000000000000000000
310
00000000000000000000000000000000000000000000000000F20000000000000000000000000000000000000000000000000000000000000000000000000000000000000000000000000000000000000000000000000000000000000000000000000000000000000000000000000000000000000000000000000000000000
310
000000000000F200EC00000000000000000000000000000000000000000000000000000000000000000000000000000000000000000000000000000000000000000000000000000000000000000000000000000000000000000000000000000000000000000000000000000000000000000000000000000000000000000000
310
000000000000000000000000000000000000000000000000000000F2000000000000000000000000000000000000000000000000000000000000000000000000000000000000000000000000000000000000000000000000000000000000000000000000000000000000000000000000000000000000000000000000000000
310
0000000000000000F200EC0000000000000000000000000000000000000000000000000000000000000000000000000000000000000000000000000000000000000000000000000000000000000000000000000000000000000000000000000000000000000000000000000000000000000000000000000000000000000000
310
0000000000000000000000000000000000000000000000000000000000F200000000000000000000000000000000000000000000000000000000000000000000000000000000000000000000000000000000000000000000000000000000000000000000000000000000000000000000000000000000000000000000000000
310
00000000000000000000F2ECECEC0000000000000000000000000000000000000000000000000000000000000000000000000000000000000000000000000000000000000000000000000000000000000000000000000000000000000000000000000000000000000000000000000000000000000000000000000000000000
310
00000000000000000000000000000000000000000000000000000000000000F20000000000000000000000000000000000000000000000000000000000000000000000000000000000000000000000000000000000000000000000000000000000000000000000000000000000000000000000000000000000000000000000
310
000000000000000000000000F200EC00000000000000000000000000000000000000000000000000000000000000000000000000000000000000000000000000000000000000000000000000000000000000000000000000000000000000000000000000000000000000000000000000000000000000000000000000000000
310
000000000000000000000000000000000000000000000000000000000000000000F2000000000000000000000000000000000000000000000000000000000000000000000000000000000000000000000000000000000000000000000000000000000000000000000000000000000000000000000000000000000000000000
310
0000000000000000000000000000F2ECECEC00000000000000000000000000000000000000000000000000000000000000000000000000000000000000000000000000000000000000000000000000000000000000000000000000000000000000000000000000000000000000000000000000000000000000000000000000
310
0000000000000000000000000000000000000000000000000000000000000000000000F200000000000000000000000000000000000000000000000000000000000000000000000000000000000000000000000000000000000000000000000000000000000000000000000000000000000000000000000000000000000000
310
00000000000000000000000000000000F200EC000000000000000000000000000000000000000000000000000000000000000000000000000000000000000000000000000000000000000000000000000000000000000000000000000000000000000000000000000000000000000000000000000000000000000000000000
310
00000000000000000000000000000000000000000000000000000000000000000000000000F20000000000000000000000000000000000000000000000000000000000000000000000000000000000000000000000000000000000000000000000000000000000000000000000000000000000000000000000000000000000
310
000000000000000000000000000000000000F200EC00000000000000000000000000000000000000000000000000000000000000000000000000000000000000000000000000000000000000000000000000000000000000000000000000000000000000000000000000000000000000000000000000000000000000000000
310
000000000000000000000000000000000000000000000000000000000000000000000000000000F2000000000000000000000000000000000000000000000000000000000000000000000000000000000000000000000000000000000000000000000000000000000000000000000000000000000000000000000000000000
310
0000000000000000000000000000000000000000F2ECECEC00000000000000000000000000000000000000000000000000000000000000000000000000000000000000000000000000000000000000000000000000000000000000000000000000000000000000000000000000000000000000000000000000000000000000
310
0000000000000000000000000000000000000000000000000000000000000000000000000000000000F200000000000000000000000000000000000000000000000000000000000000000000000000000000000000000000000000000000000000000000000000000000000000000000000000000000000000000000000000
310
00000000000000000000000000000000000000000000F200EC000000000000000000000000000000000000000000000000000000000000000000000000000000000000000000000000000000000000000000000000000000000000000000000000000000000000000000000000000000000000000000000000000000000000
310
00000000000000000000000000000000000000000000000000000000000000000000000000000000000000F20000000000000000000000000000000000000000000000000000000000000000000000000000000000000000000000000000000000000000000000000000000000000000000000000000000000000000000000
310
000000000000000000000000000000000000000000000000F200EC00000000000000000000000000000000000000000000000000000000000000000000000000000000000000000000000000000000000000000000000000000000000000000000000000000000000000000000000000000000000000000000000000000000
310
000000000000000000000000000000000000000000000000000000000000000000000000000000000000000000F2000000000000000000000000000000000000000000000000000000000000000000000000000000000000000000000000000000000000000000000000000000000000000000000000000000000000000000
310
0000000000000000000000000000000000000000000000000000F2ECECEC00000000000000000000000000000000000000000000000000000000000000000000000000000000000000000000000000000000000000000000000000000000000000000000000000000000000000000000000000000000000000000000000000
310
0000000000000000000000000000000000000000000000000000000000000000000000000000000000000000000000F200000000000000000000000000000000000000000000000000000000000000000000000000000000000000000000000000000000000000000000000000000000000000000000000000000000000000
310
00000000000000000000000000000000000000000000000000000000F200EC000000000000000000000000000000000000000000000000000000000000000000000000000000000000000000000000000000000000000000000000000000000000000000000000000000000000000000000000000000000000000000000000
310
00000000000000000000000000000000000000000000000000000000000000000000000000000000000000000000000000F20000000000000000000000000000000000000000000000000000000000000000000000000000000000000000000000000000000000000000000000000000000000000000000000000000000000
310
000000000000000000000000000000000000000000000000000000000000F200EC00000000000000000000000000000000000000000000000000000000000000000000000000000000000000000000000000000000000000000000000000000000000000000000000000000000000000000000000000000000000000000000
310
000000000000000000000000000000000000000000000000000000000000000000000000000000000000000000000000000000F2000000000000000000000000000000000000000000000000000000000000000000000000000000000000000000000000000000000000000000000000000000000000000000000000000000
310
0000000000000000000000000000000000000000000000000000000000000000F2ECECEC00000000000000000000000000000000000000000000000000000000000000000000000000000000000000000000000000000000000000000000000000000000000000000000000000000000000000000000000000000000000000
310
0000000000000000000000000000000000000000000000000000000000000000000000000000000000000000000000000000000000F200000000000000000000000000000000000000000000000000000000000000000000000000000000000000000000000000000000000000000000000000000000000000000000000000
310
00000000000000000000000000000000000000000000000000000000000000000000F200EC000000000000000000000000000000000000000000000000000000000000000000000000000000000000000000000000000000000000000000000000000000000000000000000000000000000000000000000000000000000000
310
00000000000000000000000000000000000000000000000000000000000000000000000000000000000000000000000000000000000000F20000000000000000000000000000000000000000000000000000000000000000000000000000000000000000000000000000000000000000000000000000000000000000000000
310
000000000000000000000000000000000000000000000000000000000000000000000000F2ECECEC000000000000000000000000000000000000000000000000000000000000000000000000000000000000000000000000000000000000000000000000000000000000000000000000000000000000000000000000000000
310
000000000000000000000000000000000000000000000000000000000000000000000000000000000000000000000000000000000000000000F2000000000000000000000000000000000000000000000000000000000000000000000000000000000000000000000000000000000000000000000000000000000000000000
310
0000000000000000000000000000000000000000000000000000000000000000000000000000F200EC0000000000000000000000000000000000000000000000000000000000000000000000000000000000000000000000000000000000000000000000000000000000000000000000000000000000000000000000000000
310
0000000000000000000000000000000000000000000000000000000000000000000000000000000000000000000000000000000000000000000000F200000000000000000000000000000000000000000000000000000000000000000000000000000000000000000000000000000000000000000000000000000000000000
310
00000000000000000000000000000000000000000000000000000000000000000000000000000000F20000000000000000000000000000000000000000000000000000000000000000000000000000000000000000000000000000000000000000000000000000000000000000000000000000000000000000000000000000
310
00000000000000000000000000000000000000000000000000000000000000000000000000000000000000000000000000000000000000000000000000F20000000000000000000000000000000000000000000000000000000000000000000000000000000000000000000000000000000000000000000000000000000000
310
000000000000000000000000000000000000000000000000000000000000000000000000000000000000F2000000000000000000000000000000000000000000000000000000000000000000000000000000000000000000000000000000000000000000000000000000000000000000000000000000000000000000000000
310
000000000000000000000000000000000000000000000000000000000000000000000000000000000000000000000000000000000000000000000000000000F2000000000000000000000000000000000000000000000000000000000000000000000000000000000000000000000000000000000000000000000000000000
310
0000000000000000000000000000000000000000000000000000000000000000000000000000000000000000F200000000000000000000000000000000000000000000000000000000000000000000000000000000000000000000000000000000000000000000000000000000000000000000000000000000000000000000
310
0000000000000000000000000000000000000000000000000000000000000000000000000000000000000000000000000000000000000000000000000000000000F200000000000000000000000000000000000000000000000000000000000000000000000000000000000000000000000000000000000000000000000000
310
00000000000000000000000000000000000000000000000000000000000000000000000000000000000000000000F20000000000000000000000000000000000000000000000000000000000000000000000000000000000000000000000000000000000000000000000000000000000000000000000000000000000000000
310
00000000000000000000000000000000000000000000000000000000000000000000000000000000000000000000000000000000000000000000000000000000000000F20000000000000000000000000000000000000000000000000000000000000000000000000000000000000000000000000000000000000000000000
310
000000000000000000000000000000000000000000000000000000000000000000000000000000000000000000000000F2000000000000000000000000000000000000000000000000000000000000000000000000000000000000000000000000000000000000000000000000000000000000000000000000000000000000
310
000000000000000000000000000000000000000000000000000000000000000000000000000000000000000000000000000000000000000000000000000000000000000000F2000000000000000000000000000000000000000000000000000000000000000000000000000000000000000000000000000000000000000000
310
0000000000000000000000000000000000000000000000000000000000000000000000000000000000000000000000000000F200000000000000000000000000000000000000000000000000000000000000000000000000000000000000000000000000000000000000000000000000000000000000000000000000000000
310
0000000000000000000000000000000000000000000000000000000000000000000000000000000000000000000000000000000000000000000000000000000000000000000000F200000000000000000000000000000000000000000000000000000000000000000000000000000000000000000000000000000000000000
310
00000000000000000000000000000000000000000000000000000000000000000000000000000000000000000000000000000000F20000000000000000000000000000000000000000000000000000000000000000000000000000000000000000000000000000000000000000000000000000000000000000000000000000
310
00000000000000000000000000000000000000000000000000000000000000000000000000000000000000000000000000000000000000000000000000000000000000000000000000F20000000000000000000000000000000000000000000000000000000000000000000000000000000000000000000000000000000000
310
000000000000000000000000000000000000000000000000000000000000000000000000000000000000000000000000000000000000F2000000000000000000000000000000000000000000000000000000000000000000000000000000000000000000000000000000000000000000000000000000000000000000000000
310
000000000000000000000000000000000000000000000000000000000000000000000000000000000000000000000000000000000000000000000000000000000000000000000000000000F2000000000000000000000000000000000000000000000000000000000000000000000000000000000000000000000000000000
310
0000000000000000000000000000000000000000000000000000000000000000000000000000000000000000000000000000000000000000F200000000000000000000000000000000000000000000000000000000000000000000000000000000000000000000000000000000000000000000000000000000000000000000
310
0000000000000000000000000000000000000000000000000000000000000000000000000000000000000000000000000000000000000000000000000000000000000000000000000000000000F200000000000000000000000000000000000000000000000000000000000000000000000000000000000000000000000000
310
00000000000000000000000000000000000000000000000000000000000000000000000000000000000000000000000000000000000000000000F2F200000000000000000000000000000000000000000000000000000000000000000000000000000000000000000000000000000000000000000000000000000000000000
310
00000000000000000000000000000000000000000000000000000000000000000000000000000000000000000000000000000000000000000000000000000000000000000000000000000000000000F20000000000000000000000000000000000000000000000000000000000000000000000000000000000000000000000
310
000000000000000000000000000000000000000000000000000000000000000000000000000000000000000000000000000000000000000000000000F2000000000000000000000000000000000000000000000000000000000000000000000000000000000000000000000000000000000000000000000000000000000000
310
000000000000000000000000000000000000000000000000000000000000000000000000000000000000000000000000000000000000000000000000000000000000000000000000000000000000000000F2000000000000000000000000000000000000000000000000000000000000000000000000000000000000000000
310
0000000000000000000000000000000000000000000000000000000000000000000000000000000000000000000000000000000000000000000000000000F200000000000000000000000000000000000000000000000000000000000000000000000000000000000000000000000000000000000000000000000000000000
310
0000000000000000000000000000000000000000000000000000000000000000000000000000000000000000000000000000000000000000000000000000000000000000000000000000000000000000000000F200000000000000000000000000000000000000000000000000000000000000000000000000000000000000
310
00000000000000000000000000000000000000000000000000000000000000000000000000000000000000000000000000000000000000000000000000000000F20000000000000000000000000000000000000000000000000000000000000000000000000000000000000000000000000000000000000000000000000000
310
00000000000000000000000000000000000000000000000000000000000000000000000000000000000000000000000000000000000000000000000000000000000000000000000000000000000000000000000000F20000000000000000000000000000000000000000000000000000000000000000000000000000000000
310
000000000000000000000000000000000000000000000000000000000000000000000000000000000000000000000000000000000000000000000000000000000000F2000000000000000000000000000000000000000000000000000000000000000000000000000000000000000000000000000000000000000000000000
310
000000000000000000000000000000000000000000000000000000000000000000000000000000000000000000000000000000000000000000000000000000000000000000000000000000000000000000000000000000F2000000000000000000000000000000000000000000000000000000000000000000000000000000
310
0000000000000000000000000000000000000000000000000000000000000000000000000000000000000000000000000000000000000000000000000000000000000000F200000000000000000000000000000000000000000000000000000000000000000000000000000000000000000000000000000000000000000000
310
0000000000000000000000000000000000000000000000000000000000000000000000000000000000000000000000000000000000000000000000000000000000000000000000000000000000000000000000000000000000F200000000000000000000000000000000000000000000000000000000000000000000000000
310
00000000000000000000000000000000000000000000000000000000000000000000000000000000000000000000000000000000000000000000000000000000000000000000F20000000000000000000000000000000000000000000000000000000000000000000000000000000000000000000000000000000000000000
310
00000000000000000000000000000000000000000000000000000000000000000000000000000000000000000000000000000000000000000000000000000000000000000000000000000000000000000000000000000000000000F20000000000000000000000000000000000000000000000000000000000000000000000
310
000000000000000000000000000000000000000000000000000000000000000000000000000000000000000000000000000000000000000000000000000000000000000000000000F2000000000000000000000000000000000000000000000000000000000000000000000000000000000000000000000000000000000000
310
000000000000000000000000000000000000000000000000000000000000000000000000000000000000000000000000000000000000000000000000000000000000000000000000000000000000000000000000000000000000000000F2000000000000000000000000000000000000000000000000000000000000000000
310
0000000000000000000000000000000000000000000000000000000000000000000000000000000000000000000000000000000000000000000000000000000000000000000000000000F200000000000000000000000000000000000000000000000000000000000000000000000000000000000000000000000000000000
310
0000000000000000000000000000000000000000000000000000000000000000000000000000000000000000000000000000000000000000000000000000000000000000000000000000000000000000000000000000000000000000000000F200000000000000000000000000000000000000000000000000000000000000
310
00000000000000000000000000000000000000000000000000000000000000000000000000000000000000000000000000000000000000000000000000000000000000000000000000000000F20000000000000000000000000000000000000000000000000000000000000000000000000000000000000000000000000000
310
00000000000000000000000000000000000000000000000000000000000000000000000000000000000000000000000000000000000000000000000000000000000000000000000000000000000000000000000000000000000000000000000000F20000000000000000000000000000000000000000000000000000000000
310
000000000000000000000000000000000000000000000000000000000000000000000000000000000000000000000000000000000000000000000000000000000000000000000000000000000000F2000000000000000000000000000000000000000000000000000000000000000000000000000000000000000000000000
310
000000000000000000000000000000000000000000000000000000000000000000000000000000000000000000000000000000000000000000000000000000000000000000000000000000000000000000000000000000000000000000000000000000F2000000000000000000000000000000000000000000000000000000
310
0000000000000000000000000000000000000000000000000000000000000000000000000000000000000000000000000000000000000000000000000000000000000000000000000000000000000000F200000000000000000000000000000000000000000000000000000000000000000000000000000000000000000000
310
0000000000000000000000000000000000000000000000000000000000000000000000000000000000000000000000000000000000000000000000000000000000000000000000000000000000000000000000000000000000000000000000000000000000F200000000000000000000000000000000000000000000000000
310
00000000000000000000000000000000000000000000000000000000000000000000000000000000000000000000000000000000000000000000000000000000000000000000000000000000000000000000F20000000000000000000000000000000000000000000000000000000000000000000000000000000000000000
310
00000000000000000000000000000000000000000000000000000000000000000000000000000000000000000000000000000000000000000000000000000000000000000000000000000000000000000000000000000000000000000000000000000000000000F20000000000000000000000000000C3C3C3C3C3C3C3C3C3
310
C3C3C3C3C300000000000000000000000000000000000000000000000000000000000000000000000000000000000000000000000000000000000000000000000000000000000000000000000000000000000000F2000000000000000000000000000000000000000000000000000000000000000000000000000000000000
310
000000000000000000000000000000000000000000000000000000000000000000000000000000000000000000000000000000000000000000000000000000000000000000000000000000000000000000000000000000000000000000000000000000000000000000F200000000000000000000000000000000C3C300C3C3
310
C3C300C3C3000000000000000000000000000000000000000000000000000000000000000000000000000000000000000000000000000000000000000000000000000000000000000000000000000000000000000000F200000000000000000000000000000000000000000000000000000000000000000000000000000000
310
0000000000000000000000000000000000000000000000000000000000000000000000000000000000000000000000000000000000000000000000000000000000000000000000000000000000000000000000000000000000000000000000000000000000000000000000F20000000000000000000000000000000000C3C3
310
C300C3C3C3C3000000000000C300C300000000000000000000000000000000000000000000000000000000000000000000000000000000000000000000000000000000000000000000000000000000000000000000000000F20000000000000000000000000000000000000000000000000000000000000000000000000000
310
00000000000000000000000000000000000000000000000000000000000000000000000000000000000000000000000000000000000000000000000000000000000000000000000000000000000000000000000000000000000000000000000000000000000000000000000000F20000000000000000000000000000000000
310
C3C3C300C300C3C3000000000000C3C3C300000000000000000000000000000000000000000000000000000000000000000000000000000000000000000000000000000000000000000000000000000000000000000000000000F2000000000000000000000000000000000000000000000000000000000000000000000000
310
000000000000000000000000000000000000000000000000000000000000000000000000000000000000000000000000000000000000000000000000000000000000000000000000000000000000000000000000000000000000000000000000000000000000000000000000000000F20000000000000000000000000000DC
310
DCDCDCDCF5F5F5DCDCC3C3C3DC000000C3F5C3C3C3C3C3C30000000000000000000000000000000000000000000000000000000000000000000000000000000000000000000000000000000000000000000000000000000000000000F200000000000000000000000000000000000000000000000000000000000000000000
310
0000000000000000000000000000000000000000000000000000000000000000000000000000000000000000000000000000000000000000000000000000000000000000000000000000000000000000000000000000000000000000000000000000000000000000000000000000000000F200000000000000000000000000
310
000000000000F5F5F500000000C300000000F5F5F500000000C30000000000000000000000000000000000000000000000000000000000000000000000000000000000000000000000000000000000000000000000000000000000000000F20000000000000000000000000000000000000000000000000000000000000000
310
00000000000000000000000000000000000000000000000000000000000000000000000000000000000000000000000000000000000000000000000000000000000000000000000000000000000000000000000000000000000000000000000000000000000000000000000000000000000000F20000000000000000000000
310
0000000000000000F5F5F500000000C300000000F500F500000000C30000000000000000000000000000000000000000000000000000000000000000000000000000000000000000000000000000000000000000000000000000000000000000F2000000000000000000000000000000000000000000000000000000000000
310
000000000000000000000000000000000000000000000000000000000000000000000000000000000000000000000000000000000000000000000000000000000000000000000000000000000000000000000000000000000000000000000000000000000000000000000000000000000000000000F2000000000000000000
310
0000000000DCDCDCF5F5F5F5F5F52D2DC3C3DC000000F500F5F50000C3C30000000000000000000000000000000000000000000000000000000000000000000000000000000000000000000000000000000000000000000000000000000000000000F200000000000000000000000000000000000000000000000000000000
310
0000000000000000000000000000000000000000000000000000000000000000000000000000000000000000000000000000000000000000000000000000000000000000000000000000000000000000000000000000000000000000000000000000000000000000000000000000000000000000000000F20000000000002D
310
2D2D2D2D2D2D00DCDCDCDCDCF5F5F5F5DCDCC3C3DC000000F500F5000000C3C30000000000000000000000000000000000000000000000000000000000000000000000000000000000000000000000000000000000000000000000000000000000000000F20000000000000000000000000000000000000000000000000000
310
00000000000000000000000000000000000000000000000000000000000000000000000000000000000000000000000000000000000000000000000000000000000000000000000000000000000000000000000000000000000000000000000000000000000000000000000000000000000000000000000000F20000000000
310
002D00002D00002D00DCDCDCDCDCF5F5F5F5DCDCDCC3DC000000F500F500000000C30000000000000000000000000000000000000000000000000000000000000000000000000000000000000000000000000000000000000000000000000000000000000000F2000000000000000000000000000000000000000000000000
310
000000000000000000000000000000000000000000000000000000000000000000000000000000000000000000000000000000000000000000000000000000000000000000000000000000000000000000000000000000000000000000000000000000000000000000000000000000000000000000000000000000F2000000
310
0000002D00002D00002D00DCDCDC2D2DF5F5F5F52D2DDCC3DCF5F5F5F5F5F5F5F5F500C30000000000000000000000000000000000000000000000000000000000000000000000000000000000000000000000000000000000000000000000000000000000000000F200000000000000000000000000000000000000000000
310
0000000000000000000000000000000000000000000000000000000000000000000000000000000000000000000000000000000000000000000000000000000000000000000000000000000000000000000000000000000000000000000000000000000000000000000000000000000000000000000000000000000000F200
310
00000000002D2D2D2D2D2D2D00DCDCDCC3F5F5F5F5F5F5C3C3C3DCC3F5F5F5F5F5F5F5C3C3C30000000000000000000000000000000000000000000000000000000000000000000000000000000000000000000000000000000000000000000000000000000000000000F20000000000000000000000000000000000000000
310
00000000000000000000000000000000000000000000000000000000000000000000000000000000000000000000000000000000000000000000000000000000000000000000000000000000000000000000000000000000000000000000000000000000000000000000000000000000000000000000000000000000000000
310
F20000000000000000000000000000000000C3000000000000C3000000C300000000000000C300000000000000000000000000000000000000000000000000000000000000000000000000000000000000000000000000000000000000000000000000000000000000000000F2000000000000000000000000000000000000
310
00000000000000000000000000000000000000000000000000000000000000000000000000000000000000000000000000000000000000000000000000000000000000000000000000000000000000000000000000000000000000000000000000000000000000000000000000000000000000000000000000000000000000
310
0000F20000000000002828282828000000000000C3C3C3C3C3C3C3C3000000C3C3C3C3C3C3C3C3C300000000000000000000000000000000000000000000000000000000000000000000000000000000000000000000000000000000000000000000000000000000000000000000F200000000000000000000000000000000
310
00000000000000000000000000000000000000000000000000000000000000000000000000000000000000000000000000000000000000000000000000000000000000000000000000000000000000000000000000000000000000000000000000000000000000000000000000000000000000000000000000000000000000
310
00000000F20000000000000000002800000000000000000000C3C300000000000000000000000000000000000000000000000000000000000000000000000000000000000000000000000000000000000000000000000000000000000000000000000000000000000000000000000000F20000000000000000000000000000
310
00000000000000000000000000000000000000000000000000000000000000000000000000000000000000000000000000000000000000000000000000000000000000000000000000000000000000000000000000000000000000000000000000000000000000000000000000000000000000000000000000000000000000
310
000000000000F20000000000000000000000000000000000000000000000000000000000000000000000000000000000000000000000000000000000000000000000000000000000000000000000000000000000000000000000000000000000000000000000000000000000000000000000F2000000000000000000000000
310
00000000000000000000000000000000000000000000000000000000000000000000000000000000000000000000000000000000000000000000000000000000000000000000000000000000000000000000000000000000000000000000000000000000000000000000000000000000000000000000000000000000000000
310
0000000000000000F20000000000000000000000000000000000000000000000000000000000000000000000000000000000000000000000000000000000000000000000000000000000000000000000000000000000000000000000000000000000000000000000000000000000000000000000F200000000000000000000
310
00000000000000000000000000000000000000000000000000000000000000000000000000000000000000000000000000000000000000000000000000000000000000000000000000000000000000000000000000000000000000000000000000000000000000000000000000000000000000000000000000000000000000
310
00000000000000000000F20000000000000000000000000000000000000000000000000000000000000000000000000000000000000000000000000000000000000000000000000000000000000000000000000000000000000000000000000000000000000000000000000000000000000000000000F20000000000000000
310
00000000000000000000000000000000000000000000000000000000000000000000000000000000000000000000000000000000000000000000000000000000000000000000000000000000000000000000000000000000000000000000000000000000000000000000000000000000000000000000000000000000000000
310
000000000000000000000000F20000000000000000000000000000000000000000000000000000000000000000000000000000000000000000000000000000000000000000000000000000000000000000000000000000000000000000000000000000000000000000000000000000000000000000000000F2000000000000
310
00000000000000000000000000000000000000000000000000000000000000000000000000000000000000000000000000000000000000000000000000000000000000000000000000000000000000000000000000000000000000000000000000000000000000000000000000000000000000000000000000000000000000
310
0000000000000000000000000000F20000000000000000000000000000000000000000000000000000000000000000000000000000000000000000000000000000000000000000000000000000000000000000000000000000000000000000000000000000000000000000000000000000000000000000000000F200000000
310
00000000000000000000000000000000000000000000000000000000000000000000000000000000000000000000000000000000000000000000000000000000000000000000000000000000000000000000000000000000000000000000000000000000000000000000000000000000000000000000000000000000000000
310
00000000000000000000000000000000F20000000000000000000000000000000000000000000000000000000000000000000000000000000000000000000000000000000000000000000000000000000000000000000000000000000000000000000000000000000000000000000000000000000000000000000000F20000
310
00000000000000000000000000000000000000000000000000000000000000000000000000000000000000000000000000000000000000000000000000000000000000000000000000000000000000000000000000000000000000000000000000000000000000000000000000000000000000000000000000000000000000
310
000000000000000000000000000000000000F20000000000000000000000000000000000000000000000000000000000000000000000000000000000000000000000000000000000000000000000000000000000000000000000000000000000000000000000000000000000000000000000000000000000000000000000F2
310
00000000000000000000000000000000000000000000000000000000000000000000000000000000000000000000000000000000000000000000000000000000000000000000000000000000000000000000000000000000000000000000000000000000000000000000000000000000000000000000000000000000000000
310
0000000000000000000000000000000000000000F200000000000000000000000000000000000000000000000000000000000000000000000000000000000000000000000000000000000000000000000000000000000000000000000000000000000000000000000000000000000000000000000000000000000000000000
310
00F20000000000000000000000000000000000000000000000000000000000000000000000000000000000000000000000000000000000000000000000000000000000000000000000000000000000000000000000000000000000000000000000000000000000000000000000000000000000000000000000000000000000
310
00000000000000000000000000000000000000000000F2F2F2F2F2F2F2F2F2F2F2F2F2F2F2F2F2F2F2F2F2F2F2F2F2F2F2F2F2F2F2F2F2F2F2F2F2F2F2F2F2F2F2F2F2F2F2F2F2F2F2F2F2F2ECF2F2F2F2F2F2F2F2F2F2F2F2F2F2F2F2F2F2F2F2F2F2F2F2F2F2F2F2F2F2F2F2F2F2F2F2F2F2F2F2F2F2F2F2F2F2F2F2F2F2
310
F2F2F2F2000000000000000000000000000000000000000000000000000000000000000000000000000000000000000000000000000000000000000000000000000000000000000000000000000000000000000000000000000000000000000000000000000000000000000000000000000000000000000000000000000000
310
000000000000000000000000000000000000000000000000000000000000000000000000000000000000000000000000000000000000000000000000000000000000000000000000000000000000EC000000000000000000000000000000000000000000000000000000000000000000000000000000000000000000000000
310
000000000000000000000000000000000000000000000000000000000000000000000000000000000000000000000000000000000000000000000000000000000000000000000000000000000000000000
  0
XRECORD
  5
24DB
102
{ACAD_REACTORS
330
102
102
}
330
102
100
AcDbXrecord
280
     1
102
MATERIAL
148
0.0
149
0.0
149
0.0
 93
        0
 94
      127
282
     0
 72
     0
 77
     0
171
     0
175
     0
179
     0
273
     0
  0
XRECORD
  5
104
102
{ACAD_REACTORS
330
102
102
}
330
102
100
AcDbXrecord
280
     1
270
     1
271
     1
  0
XRECORD
  5
103
102
{ACAD_REACTORS
330
102
102
}
330
102
100
AcDbXrecord
280
     1
270
     1
271
     1
  0
XRECORD
  5
107
102
{ACAD_REACTORS
330
102
102
}
330
102
100
AcDbXrecord
280
     1
270
     1
271
     1
  0
XRECORD
  5
106
102
{ACAD_REACTORS
330
102
102
}
330
102
100
AcDbXrecord
280
     1
270
     1
271
     1
  0
XRECORD
  5
108
102
{ACAD_REACTORS
330
102
102
}
330
102
100
AcDbXrecord
280
     1
270
     1
271
     1
  0
XRECORD
  5
105
102
{ACAD_REACTORS
330
102
102
}
330
102
100
AcDbXrecord
280
     1
270
     1
271
     1
  0
XRECORD
  5
24DA
102
{ACAD_REACTORS
330
FA
102
}
330
FA
100
AcDbXrecord
280
     1
102
MATERIAL
148
0.0
149
0.0
149
0.0
 93
        0
 94
      127
282
     0
 72
     0
 77
     0
171
     0
175
     0
179
     0
273
     0
  0
XRECORD
  5
FC
102
{ACAD_REACTORS
330
FA
102
}
330
FA
100
AcDbXrecord
280
     1
270
     1
271
     1
  0
XRECORD
  5
FB
102
{ACAD_REACTORS
330
FA
102
}
330
FA
100
AcDbXrecord
280
     1
270
     1
271
     1
  0
XRECORD
  5
FF
102
{ACAD_REACTORS
330
FA
102
}
330
FA
100
AcDbXrecord
280
     1
270
     1
271
     1
  0
XRECORD
  5
FE
102
{ACAD_REACTORS
330
FA
102
}
330
FA
100
AcDbXrecord
280
     1
270
     1
271
     1
  0
XRECORD
  5
100
102
{ACAD_REACTORS
330
FA
102
}
330
FA
100
AcDbXrecord
280
     1
270
     1
271
     1
  0
XRECORD
  5
FD
102
{ACAD_REACTORS
330
FA
102
}
330
FA
100
AcDbXrecord
280
     1
270
     1
271
     1
  0
XRECORD
  5
24DC
102
{ACAD_REACTORS
330
10A
102
}
330
10A
100
AcDbXrecord
280
     1
102
MATERIAL
148
0.0
149
0.0
149
0.0
 93
        0
 94
      127
282
     0
 72
     0
 77
     0
171
     0
175
     0
179
     0
273
     0
  0
XRECORD
  5
10C
102
{ACAD_REACTORS
330
10A
102
}
330
10A
100
AcDbXrecord
280
     1
270
     1
271
     1
  0
XRECORD
  5
10B
102
{ACAD_REACTORS
330
10A
102
}
330
10A
100
AcDbXrecord
280
     1
270
     1
271
     1
  0
XRECORD
  5
10F
102
{ACAD_REACTORS
330
10A
102
}
330
10A
100
AcDbXrecord
280
     1
270
     1
271
     1
  0
XRECORD
  5
10E
102
{ACAD_REACTORS
330
10A
102
}
330
10A
100
AcDbXrecord
280
     1
270
     1
271
     1
  0
XRECORD
  5
110
102
{ACAD_REACTORS
330
10A
102
}
330
10A
100
AcDbXrecord
280
     1
270
     1
271
     1
  0
XRECORD
  5
10D
102
{ACAD_REACTORS
330
10A
102
}
330
10A
100
AcDbXrecord
280
     1
270
     1
271
     1
  0
XRECORD
  5
2505
102
{ACAD_REACTORS
330
2504
102
}
330
2504
100
AcDbXrecord
280
     1
102
ACAD_ROUNDTRIP_2012_MLEADER_STYLE
298
     1
  0
XRECORD
  5
2515
102
{ACAD_REACTORS
330
2514
102
}
330
2514
100
AcDbXrecord
280
     1
102
DISPLAYNAME
  1
Metric50
102
FLAGS
 90
        0
  0
CELLSTYLEMAP
  5
24D8
102
{ACAD_REACTORS
330
154
102
}
330
154
100
AcDbCellStyleMap
 90
        3
300
CELLSTYLE
  1
TABLEFORMAT_BEGIN
 90
        5
170
     1
 91
        0
 92
    32768
 62
   257
 93
        1
300
CONTENTFORMAT
  1
CONTENTFORMAT_BEGIN
 90
        0
 91
        0
 92
      512
 93
        0
300

 40
0.0
140
1.0
 94
        5
 62
     0
340
C
144
0.25
309
CONTENTFORMAT_END
171
     0
 94
        0
309
TABLEFORMAT_END
  1
CELLSTYLE_BEGIN
 90
        1
 91
        1
300
_TITLE
309
CELLSTYLE_END
300
CELLSTYLE
  1
TABLEFORMAT_BEGIN
 90
        5
170
     1
 91
        0
 92
        0
 62
   257
 93
        1
300
CONTENTFORMAT
  1
CONTENTFORMAT_BEGIN
 90
        0
 91
        0
 92
      512
 93
        0
300

 40
0.0
140
1.0
 94
        5
 62
     0
340
C
144
0.18
309
CONTENTFORMAT_END
171
     0
 94
        0
309
TABLEFORMAT_END
  1
CELLSTYLE_BEGIN
 90
        2
 91
        1
300
_HEADER
309
CELLSTYLE_END
300
CELLSTYLE
  1
TABLEFORMAT_BEGIN
 90
        5
170
     1
 91
        0
 92
        0
 62
   257
 93
        1
300
CONTENTFORMAT
  1
CONTENTFORMAT_BEGIN
 90
        0
 91
        0
 92
      512
 93
        0
300

 40
0.0
140
1.0
 94
        2
 62
     0
340
C
144
0.18
309
CONTENTFORMAT_END
171
     0
 94
        0
309
TABLEFORMAT_END
  1
CELLSTYLE_BEGIN
 90
        3
 91
        2
300
_DATA
309
CELLSTYLE_END
  0
XRECORD
  5
2503
102
{ACAD_REACTORS
330
154
102
}
330
154
100
AcDbXrecord
280
     1
102
ACAD_ROUNDTRIP_PRE2007_TABLESTYLE
 90
      512
 91
        0
  1

 92
      512
 93
        0
  2

 94
      512
 95
        0
  3

  0
XRECORD
  5
24E8
102
{ACAD_REACTORS
330
24E7
102
}
330
24E7
100
AcDbXrecord
280
     1
102
RTVSPost2010Prop28
280
     1
102
RTVSPost2010PropOp28
 70
     1
102
RTVSPost2010Prop29
280
     1
102
RTVSPost2010PropOp29
 70
     1
102
RTVSPost2010Prop30
280
     0
102
RTVSPost2010PropOp30
 70
     1
102
RTVSPost2010Prop31
280
     0
102
RTVSPost2010PropOp31
 70
     1
102
RTVSPost2010Prop32
280
     0
102
RTVSPost2010PropOp32
 70
     1
102
RTVSPost2010Prop33
280
     0
102
RTVSPost2010PropOp33
 70
     1
102
RTVSPost2010Prop34
280
     0
102
RTVSPost2010PropOp34
 70
     1
102
RTVSPost2010Prop35
280
     0
102
RTVSPost2010PropOp35
 70
     1
102
RTVSPost2010Prop36
280
     0
102
RTVSPost2010PropOp36
 70
     1
102
RTVSPost2010Prop37
 90
       50
102
RTVSPost2010PropOp37
 70
     1
102
RTVSPost2010Prop38
140
0.0
102
RTVSPost2010PropOp38
 70
     1
102
RTVSPost2010Prop39
140
1.0
102
RTVSPost2010PropOp39
 70
     1
102
RTVSPost2010Prop40
 90
        0
102
RTVSPost2010PropOp40
 70
     1
102
RTVSPost2010Prop41ColorIndex
 90
       18
102
RTVSPost2010Prop41ColorRGB
 90
        0
102
RTVSPost2010PropOp41
 70
     1
102
RTVSPost2010Prop42
 90
       50
102
RTVSPost2010PropOp42
 70
     1
102
RTVSPost2010Prop43
 90
        3
102
RTVSPost2010PropOp43
 70
     1
102
RTVSPost2010Prop44ColorIndex
 90
        5
102
RTVSPost2010Prop44ColorRGB
 90
      255
102
RTVSPost2010PropOp44
 70
     1
102
RTVSPost2010Prop45
280
     0
102
RTVSPost2010PropOp45
 70
     1
102
RTVSPost2010Prop46
 90
       50
102
RTVSPost2010PropOp46
 70
     1
102
RTVSPost2010Prop47
 90
       50
102
RTVSPost2010PropOp47
 70
     1
102
RTVSPost2010Prop48
 90
       50
102
RTVSPost2010PropOp48
 70
     1
102
RTVSPost2010Prop49
280
     0
102
RTVSPost2010PropOp49
 70
     1
102
RTVSPost2010Prop50
 90
       50
102
RTVSPost2010PropOp50
 70
     1
102
RTVSPost2010Prop51ColorIndex
 90
      256
102
RTVSPost2010Prop51ColorRGB
 90
-16777216
102
RTVSPost2010PropOp51
 70
     0
102
RTVSPost2010Prop52
140
1.0
102
RTVSPost2010PropOp52
 70
     0
102
RTVSPost2010Prop53
 90
        2
102
RTVSPost2010PropOp53
 70
     1
102
RTVSPost2010Prop54
  1
strokes_ogs.tif
102
RTVSPost2010PropOp54
 70
     1
102
RTVSPost2010Prop55
280
     0
102
RTVSPost2010PropOp55
 70
     1
102
RTVSPost2010Prop56
140
1.0
102
RTVSPost2010PropOp56
 70
     1
102
RTVSPost2010Prop57
140
1.0
102
RTVSPost2010PropOp57
 70
     1
102
RTVSPropertyOp0
 70
     1
102
RTVSPropertyOp1
 70
     1
102
RTVSPropertyOp2
 70
     1
102
RTVSPropertyOp3
 70
     1
102
RTVSPropertyOp4
 70
     1
102
RTVSPropertyOp5
 70
     1
102
RTVSPropertyOp6
 70
     1
102
RTVSPropertyOp7
 70
     1
102
RTVSPropertyOp8
 70
     1
102
RTVSPropertyOp9
 70
     1
102
RTVSPropertyOp10
 70
     1
102
RTVSPropertyOp11
 70
     1
102
RTVSPropertyOp12
 70
     1
102
RTVSPropertyOp13
 70
     1
102
RTVSPropertyOp14
 70
     1
102
RTVSPropertyOp15
 70
     1
102
RTVSPropertyOp16
 70
     1
102
RTVSPropertyOp17
 70
     1
102
RTVSPropertyOp18
 70
     1
102
RTVSPropertyOp19
 70
     1
102
RTVSPropertyOp20
 70
     1
102
RTVSPropertyOp21
 70
     1
102
RTVSPropertyOp22
 70
     1
102
RTVSPropertyOp23
 70
     1
102
RTVSPropertyOp24
 70
     1
102
RTVSPropertyOp25
 70
     1
102
RTVSPropertyOp26
 70
     1
102
RTVSPropertyOp27
 70
     1
102
RTVSPropertyOp28
 70
     1
102
RTVSPropertyOp29
 70
     1
102
RTVSPropertyOp30
 70
     1
102
RTVSPropertyOp31
 70
     1
102
RTVSPropertyOp32
 70
     1
102
RTVSPropertyOp33
 70
     1
102
RTVSPropertyOp34
 70
     1
102
RTVSPropertyOp35
 70
     1
102
RTVSPropertyOp36
 70
     1
102
RTVSPropertyOp37
 70
     1
102
RTVSPropertyOp38
 70
     1
102
RTVSPropertyOp39
 70
     1
102
RTVSPropertyOp40
 70
     1
102
RTVSPropertyOp41
 70
     1
102
RTVSPropertyOp42
 70
     1
102
RTVSPropertyOp43
 70
     1
102
RTVSPropertyOp44
 70
     1
102
RTVSPropertyOp45
 70
     1
102
RTVSPropertyOp46
 70
     1
102
RTVSPropertyOp47
 70
     1
102
RTVSPropertyOp48
 70
     1
102
RTVSPropertyOp49
 70
     1
102
RTVSPropertyOp50
 70
     1
102
RTVSPropertyOp51
 70
     0
102
RTVSPropertyOp52
 70
     0
102
RTVSPropertyOp53
 70
     1
102
RTVSPropertyOp54
 70
     1
102
RTVSPropertyOp55
 70
     1
102
RTVSPropertyOp56
 70
     1
102
RTVSPropertyOp57
 70
     1
102
RTVSPropertyOp58
 70
     1
102
RTVSPropertyOp59
 70
     1
102
RTVSPropertyOp60
 70
     1
102
RTVSPropertyOp61
 70
     1
102
RTVSPropertyOp62
 70
     1
  0
XRECORD
  5
24EC
102
{ACAD_REACTORS
330
24EB
102
}
330
24EB
100
AcDbXrecord
280
     1
102
RTVSPost2010Prop28
280
     0
102
RTVSPost2010PropOp28
 70
     1
102
RTVSPost2010Prop29
280
     1
102
RTVSPost2010PropOp29
 70
     1
102
RTVSPost2010Prop30
280
     1
102
RTVSPost2010PropOp30
 70
     1
102
RTVSPost2010Prop31
280
     0
102
RTVSPost2010PropOp31
 70
     1
102
RTVSPost2010Prop32
280
     0
102
RTVSPost2010PropOp32
 70
     1
102
RTVSPost2010Prop33
280
     0
102
RTVSPost2010PropOp33
 70
     1
102
RTVSPost2010Prop34
280
     0
102
RTVSPost2010PropOp34
 70
     1
102
RTVSPost2010Prop35
280
     0
102
RTVSPost2010PropOp35
 70
     1
102
RTVSPost2010Prop36
280
     0
102
RTVSPost2010PropOp36
 70
     1
102
RTVSPost2010Prop37
 90
       50
102
RTVSPost2010PropOp37
 70
     1
102
RTVSPost2010Prop38
140
0.0
102
RTVSPost2010PropOp38
 70
     1
102
RTVSPost2010Prop39
140
1.0
102
RTVSPost2010PropOp39
 70
     1
102
RTVSPost2010Prop40
 90
        0
102
RTVSPost2010PropOp40
 70
     1
102
RTVSPost2010Prop41ColorIndex
 90
       18
102
RTVSPost2010Prop41ColorRGB
 90
        0
102
RTVSPost2010PropOp41
 70
     1
102
RTVSPost2010Prop42
 90
       50
102
RTVSPost2010PropOp42
 70
     1
102
RTVSPost2010Prop43
 90
        3
102
RTVSPost2010PropOp43
 70
     1
102
RTVSPost2010Prop44ColorIndex
 90
        5
102
RTVSPost2010Prop44ColorRGB
 90
      255
102
RTVSPost2010PropOp44
 70
     1
102
RTVSPost2010Prop45
280
     0
102
RTVSPost2010PropOp45
 70
     1
102
RTVSPost2010Prop46
 90
       50
102
RTVSPost2010PropOp46
 70
     1
102
RTVSPost2010Prop47
 90
       50
102
RTVSPost2010PropOp47
 70
     1
102
RTVSPost2010Prop48
 90
       50
102
RTVSPost2010PropOp48
 70
     1
102
RTVSPost2010Prop49
280
     0
102
RTVSPost2010PropOp49
 70
     1
102
RTVSPost2010Prop50
 90
       50
102
RTVSPost2010PropOp50
 70
     1
102
RTVSPost2010Prop51ColorIndex
 90
      256
102
RTVSPost2010Prop51ColorRGB
 90
-16777216
102
RTVSPost2010PropOp51
 70
     0
102
RTVSPost2010Prop52
140
1.0
102
RTVSPost2010PropOp52
 70
     0
102
RTVSPost2010Prop53
 90
        2
102
RTVSPost2010PropOp53
 70
     1
102
RTVSPost2010Prop54
  1
strokes_ogs.tif
102
RTVSPost2010PropOp54
 70
     1
102
RTVSPost2010Prop55
280
     0
102
RTVSPost2010PropOp55
 70
     1
102
RTVSPost2010Prop56
140
1.0
102
RTVSPost2010PropOp56
 70
     1
102
RTVSPost2010Prop57
140
1.0
102
RTVSPost2010PropOp57
 70
     1
102
RTVSPropertyOp0
 70
     1
102
RTVSPropertyOp1
 70
     1
102
RTVSPropertyOp2
 70
     1
102
RTVSPropertyOp3
 70
     1
102
RTVSPropertyOp4
 70
     1
102
RTVSPropertyOp5
 70
     1
102
RTVSPropertyOp6
 70
     1
102
RTVSPropertyOp7
 70
     1
102
RTVSPropertyOp8
 70
     1
102
RTVSPropertyOp9
 70
     1
102
RTVSPropertyOp10
 70
     1
102
RTVSPropertyOp11
 70
     1
102
RTVSPropertyOp12
 70
     1
102
RTVSPropertyOp13
 70
     1
102
RTVSPropertyOp14
 70
     1
102
RTVSPropertyOp15
 70
     1
102
RTVSPropertyOp16
 70
     1
102
RTVSPropertyOp17
 70
     1
102
RTVSPropertyOp18
 70
     1
102
RTVSPropertyOp19
 70
     1
102
RTVSPropertyOp20
 70
     1
102
RTVSPropertyOp21
 70
     1
102
RTVSPropertyOp22
 70
     1
102
RTVSPropertyOp23
 70
     1
102
RTVSPropertyOp24
 70
     1
102
RTVSPropertyOp25
 70
     1
102
RTVSPropertyOp26
 70
     1
102
RTVSPropertyOp27
 70
     1
102
RTVSPropertyOp28
 70
     1
102
RTVSPropertyOp29
 70
     1
102
RTVSPropertyOp30
 70
     1
102
RTVSPropertyOp31
 70
     1
102
RTVSPropertyOp32
 70
     1
102
RTVSPropertyOp33
 70
     1
102
RTVSPropertyOp34
 70
     1
102
RTVSPropertyOp35
 70
     1
102
RTVSPropertyOp36
 70
     1
102
RTVSPropertyOp37
 70
     1
102
RTVSPropertyOp38
 70
     1
102
RTVSPropertyOp39
 70
     1
102
RTVSPropertyOp40
 70
     1
102
RTVSPropertyOp41
 70
     1
102
RTVSPropertyOp42
 70
     1
102
RTVSPropertyOp43
 70
     1
102
RTVSPropertyOp44
 70
     1
102
RTVSPropertyOp45
 70
     1
102
RTVSPropertyOp46
 70
     1
102
RTVSPropertyOp47
 70
     1
102
RTVSPropertyOp48
 70
     1
102
RTVSPropertyOp49
 70
     1
102
RTVSPropertyOp50
 70
     1
102
RTVSPropertyOp51
 70
     0
102
RTVSPropertyOp52
 70
     0
102
RTVSPropertyOp53
 70
     1
102
RTVSPropertyOp54
 70
     1
102
RTVSPropertyOp55
 70
     1
102
RTVSPropertyOp56
 70
     1
102
RTVSPropertyOp57
 70
     1
102
RTVSPropertyOp58
 70
     1
102
RTVSPropertyOp59
 70
     1
102
RTVSPropertyOp60
 70
     1
102
RTVSPropertyOp61
 70
     1
102
RTVSPropertyOp62
 70
     1
  0
XRECORD
  5
24EA
102
{ACAD_REACTORS
330
24E9
102
}
330
24E9
100
AcDbXrecord
280
     1
102
RTVSPost2010Prop28
280
     0
102
RTVSPost2010PropOp28
 70
     1
102
RTVSPost2010Prop29
280
     1
102
RTVSPost2010PropOp29
 70
     1
102
RTVSPost2010Prop30
280
     1
102
RTVSPost2010PropOp30
 70
     1
102
RTVSPost2010Prop31
280
     0
102
RTVSPost2010PropOp31
 70
     1
102
RTVSPost2010Prop32
280
     0
102
RTVSPost2010PropOp32
 70
     1
102
RTVSPost2010Prop33
280
     0
102
RTVSPost2010PropOp33
 70
     1
102
RTVSPost2010Prop34
280
     0
102
RTVSPost2010PropOp34
 70
     1
102
RTVSPost2010Prop35
280
     0
102
RTVSPost2010PropOp35
 70
     1
102
RTVSPost2010Prop36
280
     0
102
RTVSPost2010PropOp36
 70
     1
102
RTVSPost2010Prop37
 90
       50
102
RTVSPost2010PropOp37
 70
     1
102
RTVSPost2010Prop38
140
0.0
102
RTVSPost2010PropOp38
 70
     1
102
RTVSPost2010Prop39
140
1.0
102
RTVSPost2010PropOp39
 70
     1
102
RTVSPost2010Prop40
 90
        0
102
RTVSPost2010PropOp40
 70
     1
102
RTVSPost2010Prop41ColorIndex
 90
       18
102
RTVSPost2010Prop41ColorRGB
 90
        0
102
RTVSPost2010PropOp41
 70
     1
102
RTVSPost2010Prop42
 90
       50
102
RTVSPost2010PropOp42
 70
     1
102
RTVSPost2010Prop43
 90
        3
102
RTVSPost2010PropOp43
 70
     1
102
RTVSPost2010Prop44ColorIndex
 90
        5
102
RTVSPost2010Prop44ColorRGB
 90
      255
102
RTVSPost2010PropOp44
 70
     1
102
RTVSPost2010Prop45
280
     0
102
RTVSPost2010PropOp45
 70
     1
102
RTVSPost2010Prop46
 90
       50
102
RTVSPost2010PropOp46
 70
     1
102
RTVSPost2010Prop47
 90
       50
102
RTVSPost2010PropOp47
 70
     1
102
RTVSPost2010Prop48
 90
       50
102
RTVSPost2010PropOp48
 70
     1
102
RTVSPost2010Prop49
280
     0
102
RTVSPost2010PropOp49
 70
     1
102
RTVSPost2010Prop50
 90
       50
102
RTVSPost2010PropOp50
 70
     1
102
RTVSPost2010Prop51ColorIndex
 90
      256
102
RTVSPost2010Prop51ColorRGB
 90
-16777216
102
RTVSPost2010PropOp51
 70
     0
102
RTVSPost2010Prop52
140
1.0
102
RTVSPost2010PropOp52
 70
     0
102
RTVSPost2010Prop53
 90
        2
102
RTVSPost2010PropOp53
 70
     1
102
RTVSPost2010Prop54
  1
strokes_ogs.tif
102
RTVSPost2010PropOp54
 70
     1
102
RTVSPost2010Prop55
280
     0
102
RTVSPost2010PropOp55
 70
     1
102
RTVSPost2010Prop56
140
1.0
102
RTVSPost2010PropOp56
 70
     1
102
RTVSPost2010Prop57
140
1.0
102
RTVSPost2010PropOp57
 70
     1
102
RTVSPropertyOp0
 70
     1
102
RTVSPropertyOp1
 70
     1
102
RTVSPropertyOp2
 70
     1
102
RTVSPropertyOp3
 70
     1
102
RTVSPropertyOp4
 70
     1
102
RTVSPropertyOp5
 70
     1
102
RTVSPropertyOp6
 70
     1
102
RTVSPropertyOp7
 70
     1
102
RTVSPropertyOp8
 70
     1
102
RTVSPropertyOp9
 70
     1
102
RTVSPropertyOp10
 70
     1
102
RTVSPropertyOp11
 70
     1
102
RTVSPropertyOp12
 70
     1
102
RTVSPropertyOp13
 70
     1
102
RTVSPropertyOp14
 70
     1
102
RTVSPropertyOp15
 70
     1
102
RTVSPropertyOp16
 70
     1
102
RTVSPropertyOp17
 70
     1
102
RTVSPropertyOp18
 70
     1
102
RTVSPropertyOp19
 70
     1
102
RTVSPropertyOp20
 70
     1
102
RTVSPropertyOp21
 70
     1
102
RTVSPropertyOp22
 70
     1
102
RTVSPropertyOp23
 70
     1
102
RTVSPropertyOp24
 70
     1
102
RTVSPropertyOp25
 70
     1
102
RTVSPropertyOp26
 70
     1
102
RTVSPropertyOp27
 70
     1
102
RTVSPropertyOp28
 70
     1
102
RTVSPropertyOp29
 70
     1
102
RTVSPropertyOp30
 70
     1
102
RTVSPropertyOp31
 70
     1
102
RTVSPropertyOp32
 70
     1
102
RTVSPropertyOp33
 70
     1
102
RTVSPropertyOp34
 70
     1
102
RTVSPropertyOp35
 70
     1
102
RTVSPropertyOp36
 70
     1
102
RTVSPropertyOp37
 70
     1
102
RTVSPropertyOp38
 70
     1
102
RTVSPropertyOp39
 70
     1
102
RTVSPropertyOp40
 70
     1
102
RTVSPropertyOp41
 70
     1
102
RTVSPropertyOp42
 70
     1
102
RTVSPropertyOp43
 70
     1
102
RTVSPropertyOp44
 70
     1
102
RTVSPropertyOp45
 70
     1
102
RTVSPropertyOp46
 70
     1
102
RTVSPropertyOp47
 70
     1
102
RTVSPropertyOp48
 70
     1
102
RTVSPropertyOp49
 70
     1
102
RTVSPropertyOp50
 70
     1
102
RTVSPropertyOp51
 70
     0
102
RTVSPropertyOp52
 70
     0
102
RTVSPropertyOp53
 70
     1
102
RTVSPropertyOp54
 70
     1
102
RTVSPropertyOp55
 70
     1
102
RTVSPropertyOp56
 70
     1
102
RTVSPropertyOp57
 70
     1
102
RTVSPropertyOp58
 70
     1
102
RTVSPropertyOp59
 70
     1
102
RTVSPropertyOp60
 70
     1
102
RTVSPropertyOp61
 70
     1
102
RTVSPropertyOp62
 70
     1
  0
XRECORD
  5
24E6
102
{ACAD_REACTORS
330
24E5
102
}
330
24E5
100
AcDbXrecord
280
     1
102
RTVSPost2010Prop28
280
     0
102
RTVSPost2010PropOp28
 70
     1
102
RTVSPost2010Prop29
280
     1
102
RTVSPost2010PropOp29
 70
     1
102
RTVSPost2010Prop30
280
     1
102
RTVSPost2010PropOp30
 70
     1
102
RTVSPost2010Prop31
280
     0
102
RTVSPost2010PropOp31
 70
     1
102
RTVSPost2010Prop32
280
     0
102
RTVSPost2010PropOp32
 70
     1
102
RTVSPost2010Prop33
280
     0
102
RTVSPost2010PropOp33
 70
     1
102
RTVSPost2010Prop34
280
     0
102
RTVSPost2010PropOp34
 70
     1
102
RTVSPost2010Prop35
280
     0
102
RTVSPost2010PropOp35
 70
     1
102
RTVSPost2010Prop36
280
     0
102
RTVSPost2010PropOp36
 70
     1
102
RTVSPost2010Prop37
 90
       50
102
RTVSPost2010PropOp37
 70
     1
102
RTVSPost2010Prop38
140
0.0
102
RTVSPost2010PropOp38
 70
     1
102
RTVSPost2010Prop39
140
1.0
102
RTVSPost2010PropOp39
 70
     1
102
RTVSPost2010Prop40
 90
        0
102
RTVSPost2010PropOp40
 70
     1
102
RTVSPost2010Prop41ColorIndex
 90
       18
102
RTVSPost2010Prop41ColorRGB
 90
        0
102
RTVSPost2010PropOp41
 70
     1
102
RTVSPost2010Prop42
 90
       50
102
RTVSPost2010PropOp42
 70
     1
102
RTVSPost2010Prop43
 90
        3
102
RTVSPost2010PropOp43
 70
     1
102
RTVSPost2010Prop44ColorIndex
 90
        5
102
RTVSPost2010Prop44ColorRGB
 90
      255
102
RTVSPost2010PropOp44
 70
     1
102
RTVSPost2010Prop45
280
     0
102
RTVSPost2010PropOp45
 70
     1
102
RTVSPost2010Prop46
 90
       50
102
RTVSPost2010PropOp46
 70
     1
102
RTVSPost2010Prop47
 90
       50
102
RTVSPost2010PropOp47
 70
     1
102
RTVSPost2010Prop48
 90
       50
102
RTVSPost2010PropOp48
 70
     1
102
RTVSPost2010Prop49
280
     0
102
RTVSPost2010PropOp49
 70
     1
102
RTVSPost2010Prop50
 90
       50
102
RTVSPost2010PropOp50
 70
     1
102
RTVSPost2010Prop51ColorIndex
 90
      256
102
RTVSPost2010Prop51ColorRGB
 90
-16777216
102
RTVSPost2010PropOp51
 70
     0
102
RTVSPost2010Prop52
140
1.0
102
RTVSPost2010PropOp52
 70
     0
102
RTVSPost2010Prop53
 90
        2
102
RTVSPost2010PropOp53
 70
     1
102
RTVSPost2010Prop54
  1
strokes_ogs.tif
102
RTVSPost2010PropOp54
 70
     1
102
RTVSPost2010Prop55
280
     0
102
RTVSPost2010PropOp55
 70
     1
102
RTVSPost2010Prop56
140
1.0
102
RTVSPost2010PropOp56
 70
     1
102
RTVSPost2010Prop57
140
1.0
102
RTVSPost2010PropOp57
 70
     1
102
RTVSPropertyOp0
 70
     1
102
RTVSPropertyOp1
 70
     1
102
RTVSPropertyOp2
 70
     1
102
RTVSPropertyOp3
 70
     1
102
RTVSPropertyOp4
 70
     1
102
RTVSPropertyOp5
 70
     1
102
RTVSPropertyOp6
 70
     1
102
RTVSPropertyOp7
 70
     1
102
RTVSPropertyOp8
 70
     1
102
RTVSPropertyOp9
 70
     1
102
RTVSPropertyOp10
 70
     1
102
RTVSPropertyOp11
 70
     1
102
RTVSPropertyOp12
 70
     1
102
RTVSPropertyOp13
 70
     1
102
RTVSPropertyOp14
 70
     1
102
RTVSPropertyOp15
 70
     1
102
RTVSPropertyOp16
 70
     1
102
RTVSPropertyOp17
 70
     1
102
RTVSPropertyOp18
 70
     1
102
RTVSPropertyOp19
 70
     1
102
RTVSPropertyOp20
 70
     1
102
RTVSPropertyOp21
 70
     1
102
RTVSPropertyOp22
 70
     1
102
RTVSPropertyOp23
 70
     1
102
RTVSPropertyOp24
 70
     1
102
RTVSPropertyOp25
 70
     1
102
RTVSPropertyOp26
 70
     1
102
RTVSPropertyOp27
 70
     1
102
RTVSPropertyOp28
 70
     1
102
RTVSPropertyOp29
 70
     1
102
RTVSPropertyOp30
 70
     1
102
RTVSPropertyOp31
 70
     1
102
RTVSPropertyOp32
 70
     1
102
RTVSPropertyOp33
 70
     1
102
RTVSPropertyOp34
 70
     1
102
RTVSPropertyOp35
 70
     1
102
RTVSPropertyOp36
 70
     1
102
RTVSPropertyOp37
 70
     1
102
RTVSPropertyOp38
 70
     1
102
RTVSPropertyOp39
 70
     1
102
RTVSPropertyOp40
 70
     1
102
RTVSPropertyOp41
 70
     1
102
RTVSPropertyOp42
 70
     1
102
RTVSPropertyOp43
 70
     1
102
RTVSPropertyOp44
 70
     1
102
RTVSPropertyOp45
 70
     1
102
RTVSPropertyOp46
 70
     1
102
RTVSPropertyOp47
 70
     1
102
RTVSPropertyOp48
 70
     1
102
RTVSPropertyOp49
 70
     1
102
RTVSPropertyOp50
 70
     1
102
RTVSPropertyOp51
 70
     0
102
RTVSPropertyOp52
 70
     0
102
RTVSPropertyOp53
 70
     1
102
RTVSPropertyOp54
 70
     1
102
RTVSPropertyOp55
 70
     1
102
RTVSPropertyOp56
 70
     1
102
RTVSPropertyOp57
 70
     1
102
RTVSPropertyOp58
 70
     1
102
RTVSPropertyOp59
 70
     1
102
RTVSPropertyOp60
 70
     1
102
RTVSPropertyOp61
 70
     1
102
RTVSPropertyOp62
 70
     1
  0
XRECORD
  5
24F4
102
{ACAD_REACTORS
330
24F3
102
}
330
24F3
100
AcDbXrecord
280
     1
102
RTVSPost2010Prop28
280
     0
102
RTVSPost2010PropOp28
 70
     1
102
RTVSPost2010Prop29
280
     1
102
RTVSPost2010PropOp29
 70
     1
102
RTVSPost2010Prop30
280
     1
102
RTVSPost2010PropOp30
 70
     1
102
RTVSPost2010Prop31
280
     0
102
RTVSPost2010PropOp31
 70
     1
102
RTVSPost2010Prop32
280
     0
102
RTVSPost2010PropOp32
 70
     1
102
RTVSPost2010Prop33
280
     0
102
RTVSPost2010PropOp33
 70
     1
102
RTVSPost2010Prop34
280
     0
102
RTVSPost2010PropOp34
 70
     1
102
RTVSPost2010Prop35
280
     0
102
RTVSPost2010PropOp35
 70
     1
102
RTVSPost2010Prop36
280
     0
102
RTVSPost2010PropOp36
 70
     1
102
RTVSPost2010Prop37
 90
       50
102
RTVSPost2010PropOp37
 70
     1
102
RTVSPost2010Prop38
140
0.0
102
RTVSPost2010PropOp38
 70
     1
102
RTVSPost2010Prop39
140
1.0
102
RTVSPost2010PropOp39
 70
     1
102
RTVSPost2010Prop40
 90
        0
102
RTVSPost2010PropOp40
 70
     1
102
RTVSPost2010Prop41ColorIndex
 90
       18
102
RTVSPost2010Prop41ColorRGB
 90
        0
102
RTVSPost2010PropOp41
 70
     1
102
RTVSPost2010Prop42
 90
       50
102
RTVSPost2010PropOp42
 70
     1
102
RTVSPost2010Prop43
 90
        3
102
RTVSPost2010PropOp43
 70
     1
102
RTVSPost2010Prop44ColorIndex
 90
        5
102
RTVSPost2010Prop44ColorRGB
 90
      255
102
RTVSPost2010PropOp44
 70
     1
102
RTVSPost2010Prop45
280
     0
102
RTVSPost2010PropOp45
 70
     1
102
RTVSPost2010Prop46
 90
       50
102
RTVSPost2010PropOp46
 70
     1
102
RTVSPost2010Prop47
 90
       50
102
RTVSPost2010PropOp47
 70
     1
102
RTVSPost2010Prop48
 90
       50
102
RTVSPost2010PropOp48
 70
     1
102
RTVSPost2010Prop49
280
     0
102
RTVSPost2010PropOp49
 70
     1
102
RTVSPost2010Prop50
 90
       50
102
RTVSPost2010PropOp50
 70
     1
102
RTVSPost2010Prop51ColorIndex
 90
      256
102
RTVSPost2010Prop51ColorRGB
 90
-16777216
102
RTVSPost2010PropOp51
 70
     0
102
RTVSPost2010Prop52
140
1.0
102
RTVSPost2010PropOp52
 70
     0
102
RTVSPost2010Prop53
 90
        2
102
RTVSPost2010PropOp53
 70
     1
102
RTVSPost2010Prop54
  1
strokes_ogs.tif
102
RTVSPost2010PropOp54
 70
     1
102
RTVSPost2010Prop55
280
     0
102
RTVSPost2010PropOp55
 70
     1
102
RTVSPost2010Prop56
140
1.0
102
RTVSPost2010PropOp56
 70
     1
102
RTVSPost2010Prop57
140
1.0
102
RTVSPost2010PropOp57
 70
     1
102
RTVSPropertyOp0
 70
     1
102
RTVSPropertyOp1
 70
     1
102
RTVSPropertyOp2
 70
     1
102
RTVSPropertyOp3
 70
     1
102
RTVSPropertyOp4
 70
     1
102
RTVSPropertyOp5
 70
     1
102
RTVSPropertyOp6
 70
     1
102
RTVSPropertyOp7
 70
     1
102
RTVSPropertyOp8
 70
     1
102
RTVSPropertyOp9
 70
     1
102
RTVSPropertyOp10
 70
     1
102
RTVSPropertyOp11
 70
     1
102
RTVSPropertyOp12
 70
     1
102
RTVSPropertyOp13
 70
     1
102
RTVSPropertyOp14
 70
     1
102
RTVSPropertyOp15
 70
     1
102
RTVSPropertyOp16
 70
     1
102
RTVSPropertyOp17
 70
     1
102
RTVSPropertyOp18
 70
     1
102
RTVSPropertyOp19
 70
     1
102
RTVSPropertyOp20
 70
     1
102
RTVSPropertyOp21
 70
     1
102
RTVSPropertyOp22
 70
     1
102
RTVSPropertyOp23
 70
     1
102
RTVSPropertyOp24
 70
     1
102
RTVSPropertyOp25
 70
     1
102
RTVSPropertyOp26
 70
     1
102
RTVSPropertyOp27
 70
     1
102
RTVSPropertyOp28
 70
     1
102
RTVSPropertyOp29
 70
     1
102
RTVSPropertyOp30
 70
     1
102
RTVSPropertyOp31
 70
     1
102
RTVSPropertyOp32
 70
     1
102
RTVSPropertyOp33
 70
     1
102
RTVSPropertyOp34
 70
     1
102
RTVSPropertyOp35
 70
     1
102
RTVSPropertyOp36
 70
     1
102
RTVSPropertyOp37
 70
     1
102
RTVSPropertyOp38
 70
     1
102
RTVSPropertyOp39
 70
     1
102
RTVSPropertyOp40
 70
     1
102
RTVSPropertyOp41
 70
     1
102
RTVSPropertyOp42
 70
     1
102
RTVSPropertyOp43
 70
     1
102
RTVSPropertyOp44
 70
     1
102
RTVSPropertyOp45
 70
     1
102
RTVSPropertyOp46
 70
     1
102
RTVSPropertyOp47
 70
     1
102
RTVSPropertyOp48
 70
     1
102
RTVSPropertyOp49
 70
     1
102
RTVSPropertyOp50
 70
     1
102
RTVSPropertyOp51
 70
     0
102
RTVSPropertyOp52
 70
     0
102
RTVSPropertyOp53
 70
     1
102
RTVSPropertyOp54
 70
     1
102
RTVSPropertyOp55
 70
     1
102
RTVSPropertyOp56
 70
     1
102
RTVSPropertyOp57
 70
     1
102
RTVSPropertyOp58
 70
     1
102
RTVSPropertyOp59
 70
     1
102
RTVSPropertyOp60
 70
     1
102
RTVSPropertyOp61
 70
     1
102
RTVSPropertyOp62
 70
     1
  0
XRECORD
  5
24FC
102
{ACAD_REACTORS
330
24FB
102
}
330
24FB
100
AcDbXrecord
280
     1
102
RTVSPost2010Prop28
280
     0
102
RTVSPost2010PropOp28
 70
     1
102
RTVSPost2010Prop29
280
     1
102
RTVSPost2010PropOp29
 70
     1
102
RTVSPost2010Prop30
280
     1
102
RTVSPost2010PropOp30
 70
     1
102
RTVSPost2010Prop31
280
     0
102
RTVSPost2010PropOp31
 70
     1
102
RTVSPost2010Prop32
280
     0
102
RTVSPost2010PropOp32
 70
     1
102
RTVSPost2010Prop33
280
     0
102
RTVSPost2010PropOp33
 70
     1
102
RTVSPost2010Prop34
280
     0
102
RTVSPost2010PropOp34
 70
     1
102
RTVSPost2010Prop35
280
     0
102
RTVSPost2010PropOp35
 70
     1
102
RTVSPost2010Prop36
280
     0
102
RTVSPost2010PropOp36
 70
     1
102
RTVSPost2010Prop37
 90
       50
102
RTVSPost2010PropOp37
 70
     1
102
RTVSPost2010Prop38
140
0.0
102
RTVSPost2010PropOp38
 70
     1
102
RTVSPost2010Prop39
140
1.0
102
RTVSPost2010PropOp39
 70
     1
102
RTVSPost2010Prop40
 90
        0
102
RTVSPost2010PropOp40
 70
     1
102
RTVSPost2010Prop41ColorIndex
 90
       18
102
RTVSPost2010Prop41ColorRGB
 90
        0
102
RTVSPost2010PropOp41
 70
     1
102
RTVSPost2010Prop42
 90
       50
102
RTVSPost2010PropOp42
 70
     1
102
RTVSPost2010Prop43
 90
        3
102
RTVSPost2010PropOp43
 70
     1
102
RTVSPost2010Prop44ColorIndex
 90
        5
102
RTVSPost2010Prop44ColorRGB
 90
      255
102
RTVSPost2010PropOp44
 70
     1
102
RTVSPost2010Prop45
280
     0
102
RTVSPost2010PropOp45
 70
     1
102
RTVSPost2010Prop46
 90
       50
102
RTVSPost2010PropOp46
 70
     1
102
RTVSPost2010Prop47
 90
       50
102
RTVSPost2010PropOp47
 70
     1
102
RTVSPost2010Prop48
 90
       50
102
RTVSPost2010PropOp48
 70
     1
102
RTVSPost2010Prop49
280
     0
102
RTVSPost2010PropOp49
 70
     1
102
RTVSPost2010Prop50
 90
       50
102
RTVSPost2010PropOp50
 70
     1
102
RTVSPost2010Prop51ColorIndex
 90
      256
102
RTVSPost2010Prop51ColorRGB
 90
-16777216
102
RTVSPost2010PropOp51
 70
     0
102
RTVSPost2010Prop52
140
1.0
102
RTVSPost2010PropOp52
 70
     0
102
RTVSPost2010Prop53
 90
        2
102
RTVSPost2010PropOp53
 70
     1
102
RTVSPost2010Prop54
  1
strokes_ogs.tif
102
RTVSPost2010PropOp54
 70
     1
102
RTVSPost2010Prop55
280
     0
102
RTVSPost2010PropOp55
 70
     1
102
RTVSPost2010Prop56
140
1.0
102
RTVSPost2010PropOp56
 70
     1
102
RTVSPost2010Prop57
140
1.0
102
RTVSPost2010PropOp57
 70
     1
102
RTVSPropertyOp0
 70
     1
102
RTVSPropertyOp1
 70
     1
102
RTVSPropertyOp2
 70
     1
102
RTVSPropertyOp3
 70
     1
102
RTVSPropertyOp4
 70
     1
102
RTVSPropertyOp5
 70
     1
102
RTVSPropertyOp6
 70
     1
102
RTVSPropertyOp7
 70
     1
102
RTVSPropertyOp8
 70
     1
102
RTVSPropertyOp9
 70
     1
102
RTVSPropertyOp10
 70
     1
102
RTVSPropertyOp11
 70
     1
102
RTVSPropertyOp12
 70
     1
102
RTVSPropertyOp13
 70
     1
102
RTVSPropertyOp14
 70
     1
102
RTVSPropertyOp15
 70
     1
102
RTVSPropertyOp16
 70
     1
102
RTVSPropertyOp17
 70
     1
102
RTVSPropertyOp18
 70
     1
102
RTVSPropertyOp19
 70
     1
102
RTVSPropertyOp20
 70
     1
102
RTVSPropertyOp21
 70
     1
102
RTVSPropertyOp22
 70
     1
102
RTVSPropertyOp23
 70
     1
102
RTVSPropertyOp24
 70
     1
102
RTVSPropertyOp25
 70
     1
102
RTVSPropertyOp26
 70
     1
102
RTVSPropertyOp27
 70
     1
102
RTVSPropertyOp28
 70
     1
102
RTVSPropertyOp29
 70
     1
102
RTVSPropertyOp30
 70
     1
102
RTVSPropertyOp31
 70
     1
102
RTVSPropertyOp32
 70
     1
102
RTVSPropertyOp33
 70
     1
102
RTVSPropertyOp34
 70
     1
102
RTVSPropertyOp35
 70
     1
102
RTVSPropertyOp36
 70
     1
102
RTVSPropertyOp37
 70
     1
102
RTVSPropertyOp38
 70
     1
102
RTVSPropertyOp39
 70
     1
102
RTVSPropertyOp40
 70
     1
102
RTVSPropertyOp41
 70
     1
102
RTVSPropertyOp42
 70
     1
102
RTVSPropertyOp43
 70
     1
102
RTVSPropertyOp44
 70
     1
102
RTVSPropertyOp45
 70
     1
102
RTVSPropertyOp46
 70
     1
102
RTVSPropertyOp47
 70
     1
102
RTVSPropertyOp48
 70
     1
102
RTVSPropertyOp49
 70
     1
102
RTVSPropertyOp50
 70
     1
102
RTVSPropertyOp51
 70
     0
102
RTVSPropertyOp52
 70
     0
102
RTVSPropertyOp53
 70
     1
102
RTVSPropertyOp54
 70
     1
102
RTVSPropertyOp55
 70
     1
102
RTVSPropertyOp56
 70
     1
102
RTVSPropertyOp57
 70
     1
102
RTVSPropertyOp58
 70
     1
102
RTVSPropertyOp59
 70
     1
102
RTVSPropertyOp60
 70
     1
102
RTVSPropertyOp61
 70
     1
102
RTVSPropertyOp62
 70
     1
  0
XRECORD
  5
24EE
102
{ACAD_REACTORS
330
24ED
102
}
330
24ED
100
AcDbXrecord
280
     1
102
RTVSPost2010Prop28
280
     0
102
RTVSPost2010PropOp28
 70
     1
102
RTVSPost2010Prop29
280
     1
102
RTVSPost2010PropOp29
 70
     1
102
RTVSPost2010Prop30
280
     1
102
RTVSPost2010PropOp30
 70
     1
102
RTVSPost2010Prop31
280
     0
102
RTVSPost2010PropOp31
 70
     1
102
RTVSPost2010Prop32
280
     0
102
RTVSPost2010PropOp32
 70
     1
102
RTVSPost2010Prop33
280
     0
102
RTVSPost2010PropOp33
 70
     1
102
RTVSPost2010Prop34
280
     0
102
RTVSPost2010PropOp34
 70
     1
102
RTVSPost2010Prop35
280
     0
102
RTVSPost2010PropOp35
 70
     1
102
RTVSPost2010Prop36
280
     0
102
RTVSPost2010PropOp36
 70
     1
102
RTVSPost2010Prop37
 90
       50
102
RTVSPost2010PropOp37
 70
     1
102
RTVSPost2010Prop38
140
0.0
102
RTVSPost2010PropOp38
 70
     1
102
RTVSPost2010Prop39
140
1.0
102
RTVSPost2010PropOp39
 70
     1
102
RTVSPost2010Prop40
 90
        0
102
RTVSPost2010PropOp40
 70
     1
102
RTVSPost2010Prop41ColorIndex
 90
       18
102
RTVSPost2010Prop41ColorRGB
 90
        0
102
RTVSPost2010PropOp41
 70
     1
102
RTVSPost2010Prop42
 90
       50
102
RTVSPost2010PropOp42
 70
     1
102
RTVSPost2010Prop43
 90
        3
102
RTVSPost2010PropOp43
 70
     1
102
RTVSPost2010Prop44ColorIndex
 90
        5
102
RTVSPost2010Prop44ColorRGB
 90
      255
102
RTVSPost2010PropOp44
 70
     1
102
RTVSPost2010Prop45
280
     0
102
RTVSPost2010PropOp45
 70
     1
102
RTVSPost2010Prop46
 90
       50
102
RTVSPost2010PropOp46
 70
     1
102
RTVSPost2010Prop47
 90
       50
102
RTVSPost2010PropOp47
 70
     1
102
RTVSPost2010Prop48
 90
       50
102
RTVSPost2010PropOp48
 70
     1
102
RTVSPost2010Prop49
280
     0
102
RTVSPost2010PropOp49
 70
     1
102
RTVSPost2010Prop50
 90
       50
102
RTVSPost2010PropOp50
 70
     1
102
RTVSPost2010Prop51ColorIndex
 90
      256
102
RTVSPost2010Prop51ColorRGB
 90
-16777216
102
RTVSPost2010PropOp51
 70
     0
102
RTVSPost2010Prop52
140
1.0
102
RTVSPost2010PropOp52
 70
     0
102
RTVSPost2010Prop53
 90
        2
102
RTVSPost2010PropOp53
 70
     1
102
RTVSPost2010Prop54
  1
strokes_ogs.tif
102
RTVSPost2010PropOp54
 70
     1
102
RTVSPost2010Prop55
280
     0
102
RTVSPost2010PropOp55
 70
     1
102
RTVSPost2010Prop56
140
1.0
102
RTVSPost2010PropOp56
 70
     1
102
RTVSPost2010Prop57
140
1.0
102
RTVSPost2010PropOp57
 70
     1
102
RTVSPropertyOp0
 70
     1
102
RTVSPropertyOp1
 70
     1
102
RTVSPropertyOp2
 70
     1
102
RTVSPropertyOp3
 70
     1
102
RTVSPropertyOp4
 70
     1
102
RTVSPropertyOp5
 70
     1
102
RTVSPropertyOp6
 70
     1
102
RTVSPropertyOp7
 70
     1
102
RTVSPropertyOp8
 70
     1
102
RTVSPropertyOp9
 70
     1
102
RTVSPropertyOp10
 70
     1
102
RTVSPropertyOp11
 70
     1
102
RTVSPropertyOp12
 70
     1
102
RTVSPropertyOp13
 70
     1
102
RTVSPropertyOp14
 70
     1
102
RTVSPropertyOp15
 70
     1
102
RTVSPropertyOp16
 70
     1
102
RTVSPropertyOp17
 70
     1
102
RTVSPropertyOp18
 70
     1
102
RTVSPropertyOp19
 70
     1
102
RTVSPropertyOp20
 70
     1
102
RTVSPropertyOp21
 70
     1
102
RTVSPropertyOp22
 70
     1
102
RTVSPropertyOp23
 70
     1
102
RTVSPropertyOp24
 70
     1
102
RTVSPropertyOp25
 70
     1
102
RTVSPropertyOp26
 70
     1
102
RTVSPropertyOp27
 70
     1
102
RTVSPropertyOp28
 70
     1
102
RTVSPropertyOp29
 70
     1
102
RTVSPropertyOp30
 70
     1
102
RTVSPropertyOp31
 70
     1
102
RTVSPropertyOp32
 70
     1
102
RTVSPropertyOp33
 70
     1
102
RTVSPropertyOp34
 70
     1
102
RTVSPropertyOp35
 70
     1
102
RTVSPropertyOp36
 70
     1
102
RTVSPropertyOp37
 70
     1
102
RTVSPropertyOp38
 70
     1
102
RTVSPropertyOp39
 70
     1
102
RTVSPropertyOp40
 70
     1
102
RTVSPropertyOp41
 70
     1
102
RTVSPropertyOp42
 70
     1
102
RTVSPropertyOp43
 70
     1
102
RTVSPropertyOp44
 70
     1
102
RTVSPropertyOp45
 70
     1
102
RTVSPropertyOp46
 70
     1
102
RTVSPropertyOp47
 70
     1
102
RTVSPropertyOp48
 70
     1
102
RTVSPropertyOp49
 70
     1
102
RTVSPropertyOp50
 70
     1
102
RTVSPropertyOp51
 70
     0
102
RTVSPropertyOp52
 70
     0
102
RTVSPropertyOp53
 70
     1
102
RTVSPropertyOp54
 70
     1
102
RTVSPropertyOp55
 70
     1
102
RTVSPropertyOp56
 70
     1
102
RTVSPropertyOp57
 70
     1
102
RTVSPropertyOp58
 70
     1
102
RTVSPropertyOp59
 70
     1
102
RTVSPropertyOp60
 70
     1
102
RTVSPropertyOp61
 70
     1
102
RTVSPropertyOp62
 70
     1
  0
XRECORD
  5
24F2
102
{ACAD_REACTORS
330
24F1
102
}
330
24F1
100
AcDbXrecord
280
     1
102
RTVSPost2010Prop28
280
     0
102
RTVSPost2010PropOp28
 70
     1
102
RTVSPost2010Prop29
280
     1
102
RTVSPost2010PropOp29
 70
     1
102
RTVSPost2010Prop30
280
     1
102
RTVSPost2010PropOp30
 70
     1
102
RTVSPost2010Prop31
280
     0
102
RTVSPost2010PropOp31
 70
     1
102
RTVSPost2010Prop32
280
     0
102
RTVSPost2010PropOp32
 70
     1
102
RTVSPost2010Prop33
280
     0
102
RTVSPost2010PropOp33
 70
     1
102
RTVSPost2010Prop34
280
     0
102
RTVSPost2010PropOp34
 70
     1
102
RTVSPost2010Prop35
280
     0
102
RTVSPost2010PropOp35
 70
     1
102
RTVSPost2010Prop36
280
     0
102
RTVSPost2010PropOp36
 70
     1
102
RTVSPost2010Prop37
 90
       50
102
RTVSPost2010PropOp37
 70
     1
102
RTVSPost2010Prop38
140
0.0
102
RTVSPost2010PropOp38
 70
     1
102
RTVSPost2010Prop39
140
1.0
102
RTVSPost2010PropOp39
 70
     1
102
RTVSPost2010Prop40
 90
        0
102
RTVSPost2010PropOp40
 70
     1
102
RTVSPost2010Prop41ColorIndex
 90
       18
102
RTVSPost2010Prop41ColorRGB
 90
        0
102
RTVSPost2010PropOp41
 70
     1
102
RTVSPost2010Prop42
 90
       50
102
RTVSPost2010PropOp42
 70
     1
102
RTVSPost2010Prop43
 90
        3
102
RTVSPost2010PropOp43
 70
     1
102
RTVSPost2010Prop44ColorIndex
 90
        5
102
RTVSPost2010Prop44ColorRGB
 90
      255
102
RTVSPost2010PropOp44
 70
     1
102
RTVSPost2010Prop45
280
     0
102
RTVSPost2010PropOp45
 70
     1
102
RTVSPost2010Prop46
 90
       50
102
RTVSPost2010PropOp46
 70
     1
102
RTVSPost2010Prop47
 90
       50
102
RTVSPost2010PropOp47
 70
     1
102
RTVSPost2010Prop48
 90
       50
102
RTVSPost2010PropOp48
 70
     1
102
RTVSPost2010Prop49
280
     0
102
RTVSPost2010PropOp49
 70
     1
102
RTVSPost2010Prop50
 90
       50
102
RTVSPost2010PropOp50
 70
     1
102
RTVSPost2010Prop51ColorIndex
 90
      256
102
RTVSPost2010Prop51ColorRGB
 90
-16777216
102
RTVSPost2010PropOp51
 70
     0
102
RTVSPost2010Prop52
140
1.0
102
RTVSPost2010PropOp52
 70
     0
102
RTVSPost2010Prop53
 90
        2
102
RTVSPost2010PropOp53
 70
     1
102
RTVSPost2010Prop54
  1
strokes_ogs.tif
102
RTVSPost2010PropOp54
 70
     1
102
RTVSPost2010Prop55
280
     0
102
RTVSPost2010PropOp55
 70
     1
102
RTVSPost2010Prop56
140
1.0
102
RTVSPost2010PropOp56
 70
     1
102
RTVSPost2010Prop57
140
1.0
102
RTVSPost2010PropOp57
 70
     1
102
RTVSPropertyOp0
 70
     1
102
RTVSPropertyOp1
 70
     1
102
RTVSPropertyOp2
 70
     1
102
RTVSPropertyOp3
 70
     1
102
RTVSPropertyOp4
 70
     1
102
RTVSPropertyOp5
 70
     1
102
RTVSPropertyOp6
 70
     1
102
RTVSPropertyOp7
 70
     1
102
RTVSPropertyOp8
 70
     1
102
RTVSPropertyOp9
 70
     1
102
RTVSPropertyOp10
 70
     1
102
RTVSPropertyOp11
 70
     1
102
RTVSPropertyOp12
 70
     1
102
RTVSPropertyOp13
 70
     1
102
RTVSPropertyOp14
 70
     1
102
RTVSPropertyOp15
 70
     1
102
RTVSPropertyOp16
 70
     1
102
RTVSPropertyOp17
 70
     1
102
RTVSPropertyOp18
 70
     1
102
RTVSPropertyOp19
 70
     1
102
RTVSPropertyOp20
 70
     1
102
RTVSPropertyOp21
 70
     1
102
RTVSPropertyOp22
 70
     1
102
RTVSPropertyOp23
 70
     1
102
RTVSPropertyOp24
 70
     1
102
RTVSPropertyOp25
 70
     1
102
RTVSPropertyOp26
 70
     1
102
RTVSPropertyOp27
 70
     1
102
RTVSPropertyOp28
 70
     1
102
RTVSPropertyOp29
 70
     1
102
RTVSPropertyOp30
 70
     1
102
RTVSPropertyOp31
 70
     1
102
RTVSPropertyOp32
 70
     1
102
RTVSPropertyOp33
 70
     1
102
RTVSPropertyOp34
 70
     1
102
RTVSPropertyOp35
 70
     1
102
RTVSPropertyOp36
 70
     1
102
RTVSPropertyOp37
 70
     1
102
RTVSPropertyOp38
 70
     1
102
RTVSPropertyOp39
 70
     1
102
RTVSPropertyOp40
 70
     1
102
RTVSPropertyOp41
 70
     1
102
RTVSPropertyOp42
 70
     1
102
RTVSPropertyOp43
 70
     1
102
RTVSPropertyOp44
 70
     1
102
RTVSPropertyOp45
 70
     1
102
RTVSPropertyOp46
 70
     1
102
RTVSPropertyOp47
 70
     1
102
RTVSPropertyOp48
 70
     1
102
RTVSPropertyOp49
 70
     1
102
RTVSPropertyOp50
 70
     1
102
RTVSPropertyOp51
 70
     0
102
RTVSPropertyOp52
 70
     0
102
RTVSPropertyOp53
 70
     1
102
RTVSPropertyOp54
 70
     1
102
RTVSPropertyOp55
 70
     1
102
RTVSPropertyOp56
 70
     1
102
RTVSPropertyOp57
 70
     1
102
RTVSPropertyOp58
 70
     1
102
RTVSPropertyOp59
 70
     1
102
RTVSPropertyOp60
 70
     1
102
RTVSPropertyOp61
 70
     1
102
RTVSPropertyOp62
 70
     1
  0
XRECORD
  5
2502
102
{ACAD_REACTORS
330
2501
102
}
330
2501
100
AcDbXrecord
280
     1
102
RTVSPost2010Prop28
280
     0
102
RTVSPost2010PropOp28
 70
     1
102
RTVSPost2010Prop29
280
     1
102
RTVSPost2010PropOp29
 70
     1
102
RTVSPost2010Prop30
280
     1
102
RTVSPost2010PropOp30
 70
     1
102
RTVSPost2010Prop31
280
     0
102
RTVSPost2010PropOp31
 70
     1
102
RTVSPost2010Prop32
280
     0
102
RTVSPost2010PropOp32
 70
     1
102
RTVSPost2010Prop33
280
     0
102
RTVSPost2010PropOp33
 70
     1
102
RTVSPost2010Prop34
280
     0
102
RTVSPost2010PropOp34
 70
     1
102
RTVSPost2010Prop35
280
     0
102
RTVSPost2010PropOp35
 70
     1
102
RTVSPost2010Prop36
280
     0
102
RTVSPost2010PropOp36
 70
     1
102
RTVSPost2010Prop37
 90
       50
102
RTVSPost2010PropOp37
 70
     1
102
RTVSPost2010Prop38
140
0.0
102
RTVSPost2010PropOp38
 70
     1
102
RTVSPost2010Prop39
140
1.0
102
RTVSPost2010PropOp39
 70
     1
102
RTVSPost2010Prop40
 90
        0
102
RTVSPost2010PropOp40
 70
     1
102
RTVSPost2010Prop41ColorIndex
 90
       18
102
RTVSPost2010Prop41ColorRGB
 90
        0
102
RTVSPost2010PropOp41
 70
     1
102
RTVSPost2010Prop42
 90
       50
102
RTVSPost2010PropOp42
 70
     1
102
RTVSPost2010Prop43
 90
        3
102
RTVSPost2010PropOp43
 70
     1
102
RTVSPost2010Prop44ColorIndex
 90
        5
102
RTVSPost2010Prop44ColorRGB
 90
      255
102
RTVSPost2010PropOp44
 70
     1
102
RTVSPost2010Prop45
280
     0
102
RTVSPost2010PropOp45
 70
     1
102
RTVSPost2010Prop46
 90
       50
102
RTVSPost2010PropOp46
 70
     1
102
RTVSPost2010Prop47
 90
       50
102
RTVSPost2010PropOp47
 70
     1
102
RTVSPost2010Prop48
 90
       50
102
RTVSPost2010PropOp48
 70
     1
102
RTVSPost2010Prop49
280
     0
102
RTVSPost2010PropOp49
 70
     1
102
RTVSPost2010Prop50
 90
       50
102
RTVSPost2010PropOp50
 70
     1
102
RTVSPost2010Prop51ColorIndex
 90
      256
102
RTVSPost2010Prop51ColorRGB
 90
-16777216
102
RTVSPost2010PropOp51
 70
     0
102
RTVSPost2010Prop52
140
1.0
102
RTVSPost2010PropOp52
 70
     0
102
RTVSPost2010Prop53
 90
        2
102
RTVSPost2010PropOp53
 70
     1
102
RTVSPost2010Prop54
  1
strokes_ogs.tif
102
RTVSPost2010PropOp54
 70
     1
102
RTVSPost2010Prop55
280
     0
102
RTVSPost2010PropOp55
 70
     1
102
RTVSPost2010Prop56
140
1.0
102
RTVSPost2010PropOp56
 70
     1
102
RTVSPost2010Prop57
140
1.0
102
RTVSPost2010PropOp57
 70
     1
102
RTVSPropertyOp0
 70
     0
102
RTVSPropertyOp1
 70
     0
102
RTVSPropertyOp2
 70
     0
102
RTVSPropertyOp3
 70
     0
102
RTVSPropertyOp4
 70
     0
102
RTVSPropertyOp5
 70
     0
102
RTVSPropertyOp6
 70
     0
102
RTVSPropertyOp7
 70
     0
102
RTVSPropertyOp8
 70
     0
102
RTVSPropertyOp9
 70
     0
102
RTVSPropertyOp10
 70
     0
102
RTVSPropertyOp11
 70
     0
102
RTVSPropertyOp12
 70
     0
102
RTVSPropertyOp13
 70
     0
102
RTVSPropertyOp14
 70
     2
102
RTVSPropertyOp15
 70
     0
102
RTVSPropertyOp16
 70
     0
102
RTVSPropertyOp17
 70
     0
102
RTVSPropertyOp18
 70
     0
102
RTVSPropertyOp19
 70
     0
102
RTVSPropertyOp20
 70
     0
102
RTVSPropertyOp21
 70
     0
102
RTVSPropertyOp22
 70
     0
102
RTVSPropertyOp23
 70
     0
102
RTVSPropertyOp24
 70
     0
102
RTVSPropertyOp25
 70
     0
102
RTVSPropertyOp26
 70
     0
102
RTVSPropertyOp27
 70
     0
102
RTVSPropertyOp28
 70
     1
102
RTVSPropertyOp29
 70
     1
102
RTVSPropertyOp30
 70
     1
102
RTVSPropertyOp31
 70
     1
102
RTVSPropertyOp32
 70
     1
102
RTVSPropertyOp33
 70
     1
102
RTVSPropertyOp34
 70
     1
102
RTVSPropertyOp35
 70
     1
102
RTVSPropertyOp36
 70
     1
102
RTVSPropertyOp37
 70
     1
102
RTVSPropertyOp38
 70
     1
102
RTVSPropertyOp39
 70
     1
102
RTVSPropertyOp40
 70
     1
102
RTVSPropertyOp41
 70
     1
102
RTVSPropertyOp42
 70
     1
102
RTVSPropertyOp43
 70
     1
102
RTVSPropertyOp44
 70
     1
102
RTVSPropertyOp45
 70
     1
102
RTVSPropertyOp46
 70
     1
102
RTVSPropertyOp47
 70
     1
102
RTVSPropertyOp48
 70
     1
102
RTVSPropertyOp49
 70
     1
102
RTVSPropertyOp50
 70
     1
102
RTVSPropertyOp51
 70
     0
102
RTVSPropertyOp52
 70
     0
102
RTVSPropertyOp53
 70
     1
102
RTVSPropertyOp54
 70
     1
102
RTVSPropertyOp55
 70
     1
102
RTVSPropertyOp56
 70
     1
102
RTVSPropertyOp57
 70
     1
102
RTVSPropertyOp58
 70
     1
102
RTVSPropertyOp59
 70
     1
102
RTVSPropertyOp60
 70
     1
102
RTVSPropertyOp61
 70
     1
102
RTVSPropertyOp62
 70
     1
  0
XRECORD
  5
24FA
102
{ACAD_REACTORS
330
24F9
102
}
330
24F9
100
AcDbXrecord
280
     1
102
RTVSPost2010Prop28
280
     0
102
RTVSPost2010PropOp28
 70
     1
102
RTVSPost2010Prop29
280
     1
102
RTVSPost2010PropOp29
 70
     1
102
RTVSPost2010Prop30
280
     1
102
RTVSPost2010PropOp30
 70
     1
102
RTVSPost2010Prop31
280
     0
102
RTVSPost2010PropOp31
 70
     1
102
RTVSPost2010Prop32
280
     0
102
RTVSPost2010PropOp32
 70
     1
102
RTVSPost2010Prop33
280
     0
102
RTVSPost2010PropOp33
 70
     1
102
RTVSPost2010Prop34
280
     0
102
RTVSPost2010PropOp34
 70
     1
102
RTVSPost2010Prop35
280
     0
102
RTVSPost2010PropOp35
 70
     1
102
RTVSPost2010Prop36
280
     0
102
RTVSPost2010PropOp36
 70
     1
102
RTVSPost2010Prop37
 90
       50
102
RTVSPost2010PropOp37
 70
     1
102
RTVSPost2010Prop38
140
0.0
102
RTVSPost2010PropOp38
 70
     1
102
RTVSPost2010Prop39
140
1.0
102
RTVSPost2010PropOp39
 70
     1
102
RTVSPost2010Prop40
 90
        0
102
RTVSPost2010PropOp40
 70
     1
102
RTVSPost2010Prop41ColorIndex
 90
       18
102
RTVSPost2010Prop41ColorRGB
 90
        0
102
RTVSPost2010PropOp41
 70
     1
102
RTVSPost2010Prop42
 90
       50
102
RTVSPost2010PropOp42
 70
     1
102
RTVSPost2010Prop43
 90
        3
102
RTVSPost2010PropOp43
 70
     1
102
RTVSPost2010Prop44ColorIndex
 90
        5
102
RTVSPost2010Prop44ColorRGB
 90
      255
102
RTVSPost2010PropOp44
 70
     1
102
RTVSPost2010Prop45
280
     0
102
RTVSPost2010PropOp45
 70
     1
102
RTVSPost2010Prop46
 90
       50
102
RTVSPost2010PropOp46
 70
     1
102
RTVSPost2010Prop47
 90
       50
102
RTVSPost2010PropOp47
 70
     1
102
RTVSPost2010Prop48
 90
       50
102
RTVSPost2010PropOp48
 70
     1
102
RTVSPost2010Prop49
280
     0
102
RTVSPost2010PropOp49
 70
     1
102
RTVSPost2010Prop50
 90
       50
102
RTVSPost2010PropOp50
 70
     1
102
RTVSPost2010Prop51ColorIndex
 90
      256
102
RTVSPost2010Prop51ColorRGB
 90
-16777216
102
RTVSPost2010PropOp51
 70
     0
102
RTVSPost2010Prop52
140
1.0
102
RTVSPost2010PropOp52
 70
     0
102
RTVSPost2010Prop53
 90
        2
102
RTVSPost2010PropOp53
 70
     1
102
RTVSPost2010Prop54
  1
strokes_ogs.tif
102
RTVSPost2010PropOp54
 70
     1
102
RTVSPost2010Prop55
280
     0
102
RTVSPost2010PropOp55
 70
     1
102
RTVSPost2010Prop56
140
1.0
102
RTVSPost2010PropOp56
 70
     1
102
RTVSPost2010Prop57
140
1.0
102
RTVSPost2010PropOp57
 70
     1
102
RTVSPropertyOp0
 70
     1
102
RTVSPropertyOp1
 70
     1
102
RTVSPropertyOp2
 70
     1
102
RTVSPropertyOp3
 70
     1
102
RTVSPropertyOp4
 70
     1
102
RTVSPropertyOp5
 70
     1
102
RTVSPropertyOp6
 70
     1
102
RTVSPropertyOp7
 70
     1
102
RTVSPropertyOp8
 70
     1
102
RTVSPropertyOp9
 70
     1
102
RTVSPropertyOp10
 70
     1
102
RTVSPropertyOp11
 70
     1
102
RTVSPropertyOp12
 70
     1
102
RTVSPropertyOp13
 70
     1
102
RTVSPropertyOp14
 70
     1
102
RTVSPropertyOp15
 70
     1
102
RTVSPropertyOp16
 70
     1
102
RTVSPropertyOp17
 70
     1
102
RTVSPropertyOp18
 70
     1
102
RTVSPropertyOp19
 70
     1
102
RTVSPropertyOp20
 70
     1
102
RTVSPropertyOp21
 70
     1
102
RTVSPropertyOp22
 70
     1
102
RTVSPropertyOp23
 70
     1
102
RTVSPropertyOp24
 70
     1
102
RTVSPropertyOp25
 70
     1
102
RTVSPropertyOp26
 70
     1
102
RTVSPropertyOp27
 70
     1
102
RTVSPropertyOp28
 70
     1
102
RTVSPropertyOp29
 70
     1
102
RTVSPropertyOp30
 70
     1
102
RTVSPropertyOp31
 70
     1
102
RTVSPropertyOp32
 70
     1
102
RTVSPropertyOp33
 70
     1
102
RTVSPropertyOp34
 70
     1
102
RTVSPropertyOp35
 70
     1
102
RTVSPropertyOp36
 70
     1
102
RTVSPropertyOp37
 70
     1
102
RTVSPropertyOp38
 70
     1
102
RTVSPropertyOp39
 70
     1
102
RTVSPropertyOp40
 70
     1
102
RTVSPropertyOp41
 70
     1
102
RTVSPropertyOp42
 70
     1
102
RTVSPropertyOp43
 70
     1
102
RTVSPropertyOp44
 70
     1
102
RTVSPropertyOp45
 70
     1
102
RTVSPropertyOp46
 70
     1
102
RTVSPropertyOp47
 70
     1
102
RTVSPropertyOp48
 70
     1
102
RTVSPropertyOp49
 70
     1
102
RTVSPropertyOp50
 70
     1
102
RTVSPropertyOp51
 70
     0
102
RTVSPropertyOp52
 70
     0
102
RTVSPropertyOp53
 70
     1
102
RTVSPropertyOp54
 70
     1
102
RTVSPropertyOp55
 70
     1
102
RTVSPropertyOp56
 70
     1
102
RTVSPropertyOp57
 70
     1
102
RTVSPropertyOp58
 70
     1
102
RTVSPropertyOp59
 70
     1
102
RTVSPropertyOp60
 70
     1
102
RTVSPropertyOp61
 70
     1
102
RTVSPropertyOp62
 70
     1
  0
XRECORD
  5
24DE
102
{ACAD_REACTORS
330
24DD
102
}
330
24DD
100
AcDbXrecord
280
     1
102
RTVSPost2010Prop28
280
     0
102
RTVSPost2010PropOp28
 70
     1
102
RTVSPost2010Prop29
280
     1
102
RTVSPost2010PropOp29
 70
     1
102
RTVSPost2010Prop30
280
     1
102
RTVSPost2010PropOp30
 70
     1
102
RTVSPost2010Prop31
280
     0
102
RTVSPost2010PropOp31
 70
     1
102
RTVSPost2010Prop32
280
     0
102
RTVSPost2010PropOp32
 70
     1
102
RTVSPost2010Prop33
280
     0
102
RTVSPost2010PropOp33
 70
     1
102
RTVSPost2010Prop34
280
     0
102
RTVSPost2010PropOp34
 70
     1
102
RTVSPost2010Prop35
280
     0
102
RTVSPost2010PropOp35
 70
     1
102
RTVSPost2010Prop36
280
     0
102
RTVSPost2010PropOp36
 70
     1
102
RTVSPost2010Prop37
 90
       50
102
RTVSPost2010PropOp37
 70
     1
102
RTVSPost2010Prop38
140
0.0
102
RTVSPost2010PropOp38
 70
     1
102
RTVSPost2010Prop39
140
1.0
102
RTVSPost2010PropOp39
 70
     1
102
RTVSPost2010Prop40
 90
        0
102
RTVSPost2010PropOp40
 70
     1
102
RTVSPost2010Prop41ColorIndex
 90
       18
102
RTVSPost2010Prop41ColorRGB
 90
        0
102
RTVSPost2010PropOp41
 70
     1
102
RTVSPost2010Prop42
 90
       50
102
RTVSPost2010PropOp42
 70
     1
102
RTVSPost2010Prop43
 90
        3
102
RTVSPost2010PropOp43
 70
     1
102
RTVSPost2010Prop44ColorIndex
 90
        5
102
RTVSPost2010Prop44ColorRGB
 90
      255
102
RTVSPost2010PropOp44
 70
     1
102
RTVSPost2010Prop45
280
     0
102
RTVSPost2010PropOp45
 70
     1
102
RTVSPost2010Prop46
 90
       50
102
RTVSPost2010PropOp46
 70
     1
102
RTVSPost2010Prop47
 90
       50
102
RTVSPost2010PropOp47
 70
     1
102
RTVSPost2010Prop48
 90
       50
102
RTVSPost2010PropOp48
 70
     1
102
RTVSPost2010Prop49
280
     0
102
RTVSPost2010PropOp49
 70
     1
102
RTVSPost2010Prop50
 90
       50
102
RTVSPost2010PropOp50
 70
     1
102
RTVSPost2010Prop51ColorIndex
 90
      256
102
RTVSPost2010Prop51ColorRGB
 90
-16777216
102
RTVSPost2010PropOp51
 70
     0
102
RTVSPost2010Prop52
140
1.0
102
RTVSPost2010PropOp52
 70
     0
102
RTVSPost2010Prop53
 90
        2
102
RTVSPost2010PropOp53
 70
     1
102
RTVSPost2010Prop54
  1
strokes_ogs.tif
102
RTVSPost2010PropOp54
 70
     1
102
RTVSPost2010Prop55
280
     0
102
RTVSPost2010PropOp55
 70
     1
102
RTVSPost2010Prop56
140
1.0
102
RTVSPost2010PropOp56
 70
     1
102
RTVSPost2010Prop57
140
1.0
102
RTVSPost2010PropOp57
 70
     1
102
RTVSPropertyOp0
 70
     1
102
RTVSPropertyOp1
 70
     1
102
RTVSPropertyOp2
 70
     1
102
RTVSPropertyOp3
 70
     1
102
RTVSPropertyOp4
 70
     1
102
RTVSPropertyOp5
 70
     1
102
RTVSPropertyOp6
 70
     1
102
RTVSPropertyOp7
 70
     1
102
RTVSPropertyOp8
 70
     1
102
RTVSPropertyOp9
 70
     1
102
RTVSPropertyOp10
 70
     1
102
RTVSPropertyOp11
 70
     1
102
RTVSPropertyOp12
 70
     1
102
RTVSPropertyOp13
 70
     1
102
RTVSPropertyOp14
 70
     1
102
RTVSPropertyOp15
 70
     1
102
RTVSPropertyOp16
 70
     1
102
RTVSPropertyOp17
 70
     1
102
RTVSPropertyOp18
 70
     1
102
RTVSPropertyOp19
 70
     1
102
RTVSPropertyOp20
 70
     1
102
RTVSPropertyOp21
 70
     1
102
RTVSPropertyOp22
 70
     1
102
RTVSPropertyOp23
 70
     1
102
RTVSPropertyOp24
 70
     1
102
RTVSPropertyOp25
 70
     1
102
RTVSPropertyOp26
 70
     1
102
RTVSPropertyOp27
 70
     1
102
RTVSPropertyOp28
 70
     1
102
RTVSPropertyOp29
 70
     1
102
RTVSPropertyOp30
 70
     1
102
RTVSPropertyOp31
 70
     1
102
RTVSPropertyOp32
 70
     1
102
RTVSPropertyOp33
 70
     1
102
RTVSPropertyOp34
 70
     1
102
RTVSPropertyOp35
 70
     1
102
RTVSPropertyOp36
 70
     1
102
RTVSPropertyOp37
 70
     1
102
RTVSPropertyOp38
 70
     1
102
RTVSPropertyOp39
 70
     1
102
RTVSPropertyOp40
 70
     1
102
RTVSPropertyOp41
 70
     1
102
RTVSPropertyOp42
 70
     1
102
RTVSPropertyOp43
 70
     1
102
RTVSPropertyOp44
 70
     1
102
RTVSPropertyOp45
 70
     1
102
RTVSPropertyOp46
 70
     1
102
RTVSPropertyOp47
 70
     1
102
RTVSPropertyOp48
 70
     1
102
RTVSPropertyOp49
 70
     1
102
RTVSPropertyOp50
 70
     1
102
RTVSPropertyOp51
 70
     0
102
RTVSPropertyOp52
 70
     0
102
RTVSPropertyOp53
 70
     1
102
RTVSPropertyOp54
 70
     1
102
RTVSPropertyOp55
 70
     1
102
RTVSPropertyOp56
 70
     1
102
RTVSPropertyOp57
 70
     1
102
RTVSPropertyOp58
 70
     1
102
RTVSPropertyOp59
 70
     1
102
RTVSPropertyOp60
 70
     1
102
RTVSPropertyOp61
 70
     1
102
RTVSPropertyOp62
 70
     1
  0
XRECORD
  5
24E0
102
{ACAD_REACTORS
330
24DF
102
}
330
24DF
100
AcDbXrecord
280
     1
102
RTVSPost2010Prop28
280
     0
102
RTVSPost2010PropOp28
 70
     1
102
RTVSPost2010Prop29
280
     1
102
RTVSPost2010PropOp29
 70
     1
102
RTVSPost2010Prop30
280
     1
102
RTVSPost2010PropOp30
 70
     1
102
RTVSPost2010Prop31
280
     0
102
RTVSPost2010PropOp31
 70
     1
102
RTVSPost2010Prop32
280
     0
102
RTVSPost2010PropOp32
 70
     1
102
RTVSPost2010Prop33
280
     0
102
RTVSPost2010PropOp33
 70
     1
102
RTVSPost2010Prop34
280
     0
102
RTVSPost2010PropOp34
 70
     1
102
RTVSPost2010Prop35
280
     0
102
RTVSPost2010PropOp35
 70
     1
102
RTVSPost2010Prop36
280
     0
102
RTVSPost2010PropOp36
 70
     1
102
RTVSPost2010Prop37
 90
       50
102
RTVSPost2010PropOp37
 70
     1
102
RTVSPost2010Prop38
140
0.0
102
RTVSPost2010PropOp38
 70
     1
102
RTVSPost2010Prop39
140
1.0
102
RTVSPost2010PropOp39
 70
     1
102
RTVSPost2010Prop40
 90
        0
102
RTVSPost2010PropOp40
 70
     1
102
RTVSPost2010Prop41ColorIndex
 90
       18
102
RTVSPost2010Prop41ColorRGB
 90
        0
102
RTVSPost2010PropOp41
 70
     1
102
RTVSPost2010Prop42
 90
       50
102
RTVSPost2010PropOp42
 70
     1
102
RTVSPost2010Prop43
 90
        3
102
RTVSPost2010PropOp43
 70
     1
102
RTVSPost2010Prop44ColorIndex
 90
        5
102
RTVSPost2010Prop44ColorRGB
 90
      255
102
RTVSPost2010PropOp44
 70
     1
102
RTVSPost2010Prop45
280
     0
102
RTVSPost2010PropOp45
 70
     1
102
RTVSPost2010Prop46
 90
       50
102
RTVSPost2010PropOp46
 70
     1
102
RTVSPost2010Prop47
 90
       50
102
RTVSPost2010PropOp47
 70
     1
102
RTVSPost2010Prop48
 90
       50
102
RTVSPost2010PropOp48
 70
     1
102
RTVSPost2010Prop49
280
     0
102
RTVSPost2010PropOp49
 70
     1
102
RTVSPost2010Prop50
 90
       50
102
RTVSPost2010PropOp50
 70
     1
102
RTVSPost2010Prop51ColorIndex
 90
      256
102
RTVSPost2010Prop51ColorRGB
 90
-16777216
102
RTVSPost2010PropOp51
 70
     0
102
RTVSPost2010Prop52
140
1.0
102
RTVSPost2010PropOp52
 70
     0
102
RTVSPost2010Prop53
 90
        2
102
RTVSPost2010PropOp53
 70
     1
102
RTVSPost2010Prop54
  1
strokes_ogs.tif
102
RTVSPost2010PropOp54
 70
     1
102
RTVSPost2010Prop55
280
     0
102
RTVSPost2010PropOp55
 70
     1
102
RTVSPost2010Prop56
140
1.0
102
RTVSPost2010PropOp56
 70
     1
102
RTVSPost2010Prop57
140
1.0
102
RTVSPost2010PropOp57
 70
     1
102
RTVSPropertyOp0
 70
     1
102
RTVSPropertyOp1
 70
     1
102
RTVSPropertyOp2
 70
     1
102
RTVSPropertyOp3
 70
     1
102
RTVSPropertyOp4
 70
     1
102
RTVSPropertyOp5
 70
     1
102
RTVSPropertyOp6
 70
     1
102
RTVSPropertyOp7
 70
     1
102
RTVSPropertyOp8
 70
     1
102
RTVSPropertyOp9
 70
     1
102
RTVSPropertyOp10
 70
     1
102
RTVSPropertyOp11
 70
     1
102
RTVSPropertyOp12
 70
     1
102
RTVSPropertyOp13
 70
     1
102
RTVSPropertyOp14
 70
     1
102
RTVSPropertyOp15
 70
     1
102
RTVSPropertyOp16
 70
     1
102
RTVSPropertyOp17
 70
     1
102
RTVSPropertyOp18
 70
     1
102
RTVSPropertyOp19
 70
     1
102
RTVSPropertyOp20
 70
     1
102
RTVSPropertyOp21
 70
     1
102
RTVSPropertyOp22
 70
     1
102
RTVSPropertyOp23
 70
     1
102
RTVSPropertyOp24
 70
     1
102
RTVSPropertyOp25
 70
     1
102
RTVSPropertyOp26
 70
     1
102
RTVSPropertyOp27
 70
     1
102
RTVSPropertyOp28
 70
     1
102
RTVSPropertyOp29
 70
     1
102
RTVSPropertyOp30
 70
     1
102
RTVSPropertyOp31
 70
     1
102
RTVSPropertyOp32
 70
     1
102
RTVSPropertyOp33
 70
     1
102
RTVSPropertyOp34
 70
     1
102
RTVSPropertyOp35
 70
     1
102
RTVSPropertyOp36
 70
     1
102
RTVSPropertyOp37
 70
     1
102
RTVSPropertyOp38
 70
     1
102
RTVSPropertyOp39
 70
     1
102
RTVSPropertyOp40
 70
     1
102
RTVSPropertyOp41
 70
     1
102
RTVSPropertyOp42
 70
     1
102
RTVSPropertyOp43
 70
     1
102
RTVSPropertyOp44
 70
     1
102
RTVSPropertyOp45
 70
     1
102
RTVSPropertyOp46
 70
     1
102
RTVSPropertyOp47
 70
     1
102
RTVSPropertyOp48
 70
     1
102
RTVSPropertyOp49
 70
     1
102
RTVSPropertyOp50
 70
     1
102
RTVSPropertyOp51
 70
     0
102
RTVSPropertyOp52
 70
     0
102
RTVSPropertyOp53
 70
     1
102
RTVSPropertyOp54
 70
     1
102
RTVSPropertyOp55
 70
     1
102
RTVSPropertyOp56
 70
     1
102
RTVSPropertyOp57
 70
     1
102
RTVSPropertyOp58
 70
     1
102
RTVSPropertyOp59
 70
     1
102
RTVSPropertyOp60
 70
     1
102
RTVSPropertyOp61
 70
     1
102
RTVSPropertyOp62
 70
     1
  0
XRECORD
  5
24E2
102
{ACAD_REACTORS
330
24E1
102
}
330
24E1
100
AcDbXrecord
280
     1
102
RTVSPost2010Prop28
280
     0
102
RTVSPost2010PropOp28
 70
     1
102
RTVSPost2010Prop29
280
     1
102
RTVSPost2010PropOp29
 70
     1
102
RTVSPost2010Prop30
280
     1
102
RTVSPost2010PropOp30
 70
     1
102
RTVSPost2010Prop31
280
     0
102
RTVSPost2010PropOp31
 70
     1
102
RTVSPost2010Prop32
280
     0
102
RTVSPost2010PropOp32
 70
     1
102
RTVSPost2010Prop33
280
     0
102
RTVSPost2010PropOp33
 70
     1
102
RTVSPost2010Prop34
280
     0
102
RTVSPost2010PropOp34
 70
     1
102
RTVSPost2010Prop35
280
     0
102
RTVSPost2010PropOp35
 70
     1
102
RTVSPost2010Prop36
280
     0
102
RTVSPost2010PropOp36
 70
     1
102
RTVSPost2010Prop37
 90
       50
102
RTVSPost2010PropOp37
 70
     1
102
RTVSPost2010Prop38
140
0.0
102
RTVSPost2010PropOp38
 70
     1
102
RTVSPost2010Prop39
140
1.0
102
RTVSPost2010PropOp39
 70
     1
102
RTVSPost2010Prop40
 90
        0
102
RTVSPost2010PropOp40
 70
     1
102
RTVSPost2010Prop41ColorIndex
 90
       18
102
RTVSPost2010Prop41ColorRGB
 90
        0
102
RTVSPost2010PropOp41
 70
     1
102
RTVSPost2010Prop42
 90
       50
102
RTVSPost2010PropOp42
 70
     1
102
RTVSPost2010Prop43
 90
        3
102
RTVSPost2010PropOp43
 70
     1
102
RTVSPost2010Prop44ColorIndex
 90
        5
102
RTVSPost2010Prop44ColorRGB
 90
      255
102
RTVSPost2010PropOp44
 70
     1
102
RTVSPost2010Prop45
280
     0
102
RTVSPost2010PropOp45
 70
     1
102
RTVSPost2010Prop46
 90
       50
102
RTVSPost2010PropOp46
 70
     1
102
RTVSPost2010Prop47
 90
       50
102
RTVSPost2010PropOp47
 70
     1
102
RTVSPost2010Prop48
 90
       50
102
RTVSPost2010PropOp48
 70
     1
102
RTVSPost2010Prop49
280
     0
102
RTVSPost2010PropOp49
 70
     1
102
RTVSPost2010Prop50
 90
       50
102
RTVSPost2010PropOp50
 70
     1
102
RTVSPost2010Prop51ColorIndex
 90
      256
102
RTVSPost2010Prop51ColorRGB
 90
-16777216
102
RTVSPost2010PropOp51
 70
     0
102
RTVSPost2010Prop52
140
1.0
102
RTVSPost2010PropOp52
 70
     0
102
RTVSPost2010Prop53
 90
        2
102
RTVSPost2010PropOp53
 70
     1
102
RTVSPost2010Prop54
  1
strokes_ogs.tif
102
RTVSPost2010PropOp54
 70
     1
102
RTVSPost2010Prop55
280
     0
102
RTVSPost2010PropOp55
 70
     1
102
RTVSPost2010Prop56
140
1.0
102
RTVSPost2010PropOp56
 70
     1
102
RTVSPost2010Prop57
140
1.0
102
RTVSPost2010PropOp57
 70
     1
102
RTVSPropertyOp0
 70
     1
102
RTVSPropertyOp1
 70
     1
102
RTVSPropertyOp2
 70
     1
102
RTVSPropertyOp3
 70
     1
102
RTVSPropertyOp4
 70
     1
102
RTVSPropertyOp5
 70
     1
102
RTVSPropertyOp6
 70
     1
102
RTVSPropertyOp7
 70
     1
102
RTVSPropertyOp8
 70
     1
102
RTVSPropertyOp9
 70
     1
102
RTVSPropertyOp10
 70
     1
102
RTVSPropertyOp11
 70
     1
102
RTVSPropertyOp12
 70
     1
102
RTVSPropertyOp13
 70
     1
102
RTVSPropertyOp14
 70
     1
102
RTVSPropertyOp15
 70
     1
102
RTVSPropertyOp16
 70
     1
102
RTVSPropertyOp17
 70
     1
102
RTVSPropertyOp18
 70
     1
102
RTVSPropertyOp19
 70
     1
102
RTVSPropertyOp20
 70
     1
102
RTVSPropertyOp21
 70
     1
102
RTVSPropertyOp22
 70
     1
102
RTVSPropertyOp23
 70
     1
102
RTVSPropertyOp24
 70
     1
102
RTVSPropertyOp25
 70
     1
102
RTVSPropertyOp26
 70
     1
102
RTVSPropertyOp27
 70
     1
102
RTVSPropertyOp28
 70
     1
102
RTVSPropertyOp29
 70
     1
102
RTVSPropertyOp30
 70
     1
102
RTVSPropertyOp31
 70
     1
102
RTVSPropertyOp32
 70
     1
102
RTVSPropertyOp33
 70
     1
102
RTVSPropertyOp34
 70
     1
102
RTVSPropertyOp35
 70
     1
102
RTVSPropertyOp36
 70
     1
102
RTVSPropertyOp37
 70
     1
102
RTVSPropertyOp38
 70
     1
102
RTVSPropertyOp39
 70
     1
102
RTVSPropertyOp40
 70
     1
102
RTVSPropertyOp41
 70
     1
102
RTVSPropertyOp42
 70
     1
102
RTVSPropertyOp43
 70
     1
102
RTVSPropertyOp44
 70
     1
102
RTVSPropertyOp45
 70
     1
102
RTVSPropertyOp46
 70
     1
102
RTVSPropertyOp47
 70
     1
102
RTVSPropertyOp48
 70
     1
102
RTVSPropertyOp49
 70
     1
102
RTVSPropertyOp50
 70
     1
102
RTVSPropertyOp51
 70
     0
102
RTVSPropertyOp52
 70
     0
102
RTVSPropertyOp53
 70
     1
102
RTVSPropertyOp54
 70
     1
102
RTVSPropertyOp55
 70
     1
102
RTVSPropertyOp56
 70
     1
102
RTVSPropertyOp57
 70
     1
102
RTVSPropertyOp58
 70
     1
102
RTVSPropertyOp59
 70
     1
102
RTVSPropertyOp60
 70
     1
102
RTVSPropertyOp61
 70
     1
102
RTVSPropertyOp62
 70
     1
  0
XRECORD
  5
24E4
102
{ACAD_REACTORS
330
24E3
102
}
330
24E3
100
AcDbXrecord
280
     1
102
RTVSPost2010Prop28
280
     0
102
RTVSPost2010PropOp28
 70
     1
102
RTVSPost2010Prop29
280
     1
102
RTVSPost2010PropOp29
 70
     1
102
RTVSPost2010Prop30
280
     1
102
RTVSPost2010PropOp30
 70
     1
102
RTVSPost2010Prop31
280
     0
102
RTVSPost2010PropOp31
 70
     1
102
RTVSPost2010Prop32
280
     0
102
RTVSPost2010PropOp32
 70
     1
102
RTVSPost2010Prop33
280
     0
102
RTVSPost2010PropOp33
 70
     1
102
RTVSPost2010Prop34
280
     0
102
RTVSPost2010PropOp34
 70
     1
102
RTVSPost2010Prop35
280
     0
102
RTVSPost2010PropOp35
 70
     1
102
RTVSPost2010Prop36
280
     0
102
RTVSPost2010PropOp36
 70
     1
102
RTVSPost2010Prop37
 90
       50
102
RTVSPost2010PropOp37
 70
     1
102
RTVSPost2010Prop38
140
0.0
102
RTVSPost2010PropOp38
 70
     1
102
RTVSPost2010Prop39
140
1.0
102
RTVSPost2010PropOp39
 70
     1
102
RTVSPost2010Prop40
 90
        0
102
RTVSPost2010PropOp40
 70
     1
102
RTVSPost2010Prop41ColorIndex
 90
       18
102
RTVSPost2010Prop41ColorRGB
 90
        0
102
RTVSPost2010PropOp41
 70
     1
102
RTVSPost2010Prop42
 90
       50
102
RTVSPost2010PropOp42
 70
     1
102
RTVSPost2010Prop43
 90
        3
102
RTVSPost2010PropOp43
 70
     1
102
RTVSPost2010Prop44ColorIndex
 90
        5
102
RTVSPost2010Prop44ColorRGB
 90
      255
102
RTVSPost2010PropOp44
 70
     1
102
RTVSPost2010Prop45
280
     0
102
RTVSPost2010PropOp45
 70
     1
102
RTVSPost2010Prop46
 90
       50
102
RTVSPost2010PropOp46
 70
     1
102
RTVSPost2010Prop47
 90
       50
102
RTVSPost2010PropOp47
 70
     1
102
RTVSPost2010Prop48
 90
       50
102
RTVSPost2010PropOp48
 70
     1
102
RTVSPost2010Prop49
280
     0
102
RTVSPost2010PropOp49
 70
     1
102
RTVSPost2010Prop50
 90
       50
102
RTVSPost2010PropOp50
 70
     1
102
RTVSPost2010Prop51ColorIndex
 90
      256
102
RTVSPost2010Prop51ColorRGB
 90
-16777216
102
RTVSPost2010PropOp51
 70
     0
102
RTVSPost2010Prop52
140
1.0
102
RTVSPost2010PropOp52
 70
     0
102
RTVSPost2010Prop53
 90
        2
102
RTVSPost2010PropOp53
 70
     1
102
RTVSPost2010Prop54
  1
strokes_ogs.tif
102
RTVSPost2010PropOp54
 70
     1
102
RTVSPost2010Prop55
280
     0
102
RTVSPost2010PropOp55
 70
     1
102
RTVSPost2010Prop56
140
1.0
102
RTVSPost2010PropOp56
 70
     1
102
RTVSPost2010Prop57
140
1.0
102
RTVSPost2010PropOp57
 70
     1
102
RTVSPropertyOp0
 70
     1
102
RTVSPropertyOp1
 70
     1
102
RTVSPropertyOp2
 70
     1
102
RTVSPropertyOp3
 70
     1
102
RTVSPropertyOp4
 70
     1
102
RTVSPropertyOp5
 70
     1
102
RTVSPropertyOp6
 70
     1
102
RTVSPropertyOp7
 70
     1
102
RTVSPropertyOp8
 70
     1
102
RTVSPropertyOp9
 70
     1
102
RTVSPropertyOp10
 70
     1
102
RTVSPropertyOp11
 70
     1
102
RTVSPropertyOp12
 70
     1
102
RTVSPropertyOp13
 70
     1
102
RTVSPropertyOp14
 70
     1
102
RTVSPropertyOp15
 70
     1
102
RTVSPropertyOp16
 70
     1
102
RTVSPropertyOp17
 70
     1
102
RTVSPropertyOp18
 70
     1
102
RTVSPropertyOp19
 70
     1
102
RTVSPropertyOp20
 70
     1
102
RTVSPropertyOp21
 70
     1
102
RTVSPropertyOp22
 70
     1
102
RTVSPropertyOp23
 70
     1
102
RTVSPropertyOp24
 70
     1
102
RTVSPropertyOp25
 70
     1
102
RTVSPropertyOp26
 70
     1
102
RTVSPropertyOp27
 70
     1
102
RTVSPropertyOp28
 70
     1
102
RTVSPropertyOp29
 70
     1
102
RTVSPropertyOp30
 70
     1
102
RTVSPropertyOp31
 70
     1
102
RTVSPropertyOp32
 70
     1
102
RTVSPropertyOp33
 70
     1
102
RTVSPropertyOp34
 70
     1
102
RTVSPropertyOp35
 70
     1
102
RTVSPropertyOp36
 70
     1
102
RTVSPropertyOp37
 70
     1
102
RTVSPropertyOp38
 70
     1
102
RTVSPropertyOp39
 70
     1
102
RTVSPropertyOp40
 70
     1
102
RTVSPropertyOp41
 70
     1
102
RTVSPropertyOp42
 70
     1
102
RTVSPropertyOp43
 70
     1
102
RTVSPropertyOp44
 70
     1
102
RTVSPropertyOp45
 70
     1
102
RTVSPropertyOp46
 70
     1
102
RTVSPropertyOp47
 70
     1
102
RTVSPropertyOp48
 70
     1
102
RTVSPropertyOp49
 70
     1
102
RTVSPropertyOp50
 70
     1
102
RTVSPropertyOp51
 70
     0
102
RTVSPropertyOp52
 70
     0
102
RTVSPropertyOp53
 70
     1
102
RTVSPropertyOp54
 70
     1
102
RTVSPropertyOp55
 70
     1
102
RTVSPropertyOp56
 70
     1
102
RTVSPropertyOp57
 70
     1
102
RTVSPropertyOp58
 70
     1
102
RTVSPropertyOp59
 70
     1
102
RTVSPropertyOp60
 70
     1
102
RTVSPropertyOp61
 70
     1
102
RTVSPropertyOp62
 70
     1
  0
XRECORD
  5
2509
102
{ACAD_REACTORS
330
2508
102
}
330
2508
100
AcDbXrecord
280
     1
102
RTVSPost2010Prop28
280
     0
102
RTVSPost2010PropOp28
 70
     1
102
RTVSPost2010Prop29
280
     1
102
RTVSPost2010PropOp29
 70
     1
102
RTVSPost2010Prop30
280
     1
102
RTVSPost2010PropOp30
 70
     1
102
RTVSPost2010Prop31
280
     0
102
RTVSPost2010PropOp31
 70
     1
102
RTVSPost2010Prop32
280
     0
102
RTVSPost2010PropOp32
 70
     1
102
RTVSPost2010Prop33
280
     0
102
RTVSPost2010PropOp33
 70
     1
102
RTVSPost2010Prop34
280
     0
102
RTVSPost2010PropOp34
 70
     1
102
RTVSPost2010Prop35
280
     0
102
RTVSPost2010PropOp35
 70
     1
102
RTVSPost2010Prop36
280
     0
102
RTVSPost2010PropOp36
 70
     1
102
RTVSPost2010Prop37
 90
       50
102
RTVSPost2010PropOp37
 70
     1
102
RTVSPost2010Prop38
140
0.0
102
RTVSPost2010PropOp38
 70
     1
102
RTVSPost2010Prop39
140
1.0
102
RTVSPost2010PropOp39
 70
     1
102
RTVSPost2010Prop40
 90
        0
102
RTVSPost2010PropOp40
 70
     1
102
RTVSPost2010Prop41ColorIndex
 90
       18
102
RTVSPost2010Prop41ColorRGB
 90
        0
102
RTVSPost2010PropOp41
 70
     1
102
RTVSPost2010Prop42
 90
       50
102
RTVSPost2010PropOp42
 70
     1
102
RTVSPost2010Prop43
 90
        3
102
RTVSPost2010PropOp43
 70
     1
102
RTVSPost2010Prop44ColorIndex
 90
        5
102
RTVSPost2010Prop44ColorRGB
 90
      255
102
RTVSPost2010PropOp44
 70
     1
102
RTVSPost2010Prop45
280
     0
102
RTVSPost2010PropOp45
 70
     1
102
RTVSPost2010Prop46
 90
       50
102
RTVSPost2010PropOp46
 70
     1
102
RTVSPost2010Prop47
 90
       50
102
RTVSPost2010PropOp47
 70
     1
102
RTVSPost2010Prop48
 90
       50
102
RTVSPost2010PropOp48
 70
     1
102
RTVSPost2010Prop49
280
     0
102
RTVSPost2010PropOp49
 70
     1
102
RTVSPost2010Prop50
 90
       50
102
RTVSPost2010PropOp50
 70
     1
102
RTVSPost2010Prop51ColorIndex
 90
      256
102
RTVSPost2010Prop51ColorRGB
 90
-16777216
102
RTVSPost2010PropOp51
 70
     0
102
RTVSPost2010Prop52
140
1.0
102
RTVSPost2010PropOp52
 70
     0
102
RTVSPost2010Prop53
 90
        2
102
RTVSPost2010PropOp53
 70
     1
102
RTVSPost2010Prop54
  1
strokes_ogs.tif
102
RTVSPost2010PropOp54
 70
     1
102
RTVSPost2010Prop55
280
     0
102
RTVSPost2010PropOp55
 70
     1
102
RTVSPost2010Prop56
140
1.0
102
RTVSPost2010PropOp56
 70
     1
102
RTVSPost2010Prop57
140
1.0
102
RTVSPost2010PropOp57
 70
     1
102
RTVSPropertyOp0
 70
     1
102
RTVSPropertyOp1
 70
     1
102
RTVSPropertyOp2
 70
     1
102
RTVSPropertyOp3
 70
     1
102
RTVSPropertyOp4
 70
     1
102
RTVSPropertyOp5
 70
     1
102
RTVSPropertyOp6
 70
     1
102
RTVSPropertyOp7
 70
     1
102
RTVSPropertyOp8
 70
     1
102
RTVSPropertyOp9
 70
     1
102
RTVSPropertyOp10
 70
     1
102
RTVSPropertyOp11
 70
     1
102
RTVSPropertyOp12
 70
     1
102
RTVSPropertyOp13
 70
     1
102
RTVSPropertyOp14
 70
     1
102
RTVSPropertyOp15
 70
     1
102
RTVSPropertyOp16
 70
     1
102
RTVSPropertyOp17
 70
     1
102
RTVSPropertyOp18
 70
     1
102
RTVSPropertyOp19
 70
     1
102
RTVSPropertyOp20
 70
     1
102
RTVSPropertyOp21
 70
     1
102
RTVSPropertyOp22
 70
     1
102
RTVSPropertyOp23
 70
     1
102
RTVSPropertyOp24
 70
     1
102
RTVSPropertyOp25
 70
     1
102
RTVSPropertyOp26
 70
     1
102
RTVSPropertyOp27
 70
     1
102
RTVSPropertyOp28
 70
     1
102
RTVSPropertyOp29
 70
     1
102
RTVSPropertyOp30
 70
     1
102
RTVSPropertyOp31
 70
     1
102
RTVSPropertyOp32
 70
     1
102
RTVSPropertyOp33
 70
     1
102
RTVSPropertyOp34
 70
     1
102
RTVSPropertyOp35
 70
     1
102
RTVSPropertyOp36
 70
     1
102
RTVSPropertyOp37
 70
     1
102
RTVSPropertyOp38
 70
     1
102
RTVSPropertyOp39
 70
     1
102
RTVSPropertyOp40
 70
     1
102
RTVSPropertyOp41
 70
     1
102
RTVSPropertyOp42
 70
     1
102
RTVSPropertyOp43
 70
     1
102
RTVSPropertyOp44
 70
     1
102
RTVSPropertyOp45
 70
     1
102
RTVSPropertyOp46
 70
     1
102
RTVSPropertyOp47
 70
     1
102
RTVSPropertyOp48
 70
     1
102
RTVSPropertyOp49
 70
     1
102
RTVSPropertyOp50
 70
     1
102
RTVSPropertyOp51
 70
     0
102
RTVSPropertyOp52
 70
     0
102
RTVSPropertyOp53
 70
     1
102
RTVSPropertyOp54
 70
     1
102
RTVSPropertyOp55
 70
     1
102
RTVSPropertyOp56
 70
     1
102
RTVSPropertyOp57
 70
     1
102
RTVSPropertyOp58
 70
     1
102
RTVSPropertyOp59
 70
     1
102
RTVSPropertyOp60
 70
     1
102
RTVSPropertyOp61
 70
     1
102
RTVSPropertyOp62
 70
     1
  0
XRECORD
  5
24FE
102
{ACAD_REACTORS
330
24FD
102
}
330
24FD
100
AcDbXrecord
280
     1
102
RTVSPost2010Prop28
280
     0
102
RTVSPost2010PropOp28
 70
     1
102
RTVSPost2010Prop29
280
     1
102
RTVSPost2010PropOp29
 70
     1
102
RTVSPost2010Prop30
280
     1
102
RTVSPost2010PropOp30
 70
     1
102
RTVSPost2010Prop31
280
     0
102
RTVSPost2010PropOp31
 70
     1
102
RTVSPost2010Prop32
280
     0
102
RTVSPost2010PropOp32
 70
     1
102
RTVSPost2010Prop33
280
     0
102
RTVSPost2010PropOp33
 70
     1
102
RTVSPost2010Prop34
280
     0
102
RTVSPost2010PropOp34
 70
     1
102
RTVSPost2010Prop35
280
     0
102
RTVSPost2010PropOp35
 70
     1
102
RTVSPost2010Prop36
280
     0
102
RTVSPost2010PropOp36
 70
     1
102
RTVSPost2010Prop37
 90
       50
102
RTVSPost2010PropOp37
 70
     1
102
RTVSPost2010Prop38
140
0.0
102
RTVSPost2010PropOp38
 70
     1
102
RTVSPost2010Prop39
140
1.0
102
RTVSPost2010PropOp39
 70
     1
102
RTVSPost2010Prop40
 90
        0
102
RTVSPost2010PropOp40
 70
     1
102
RTVSPost2010Prop41ColorIndex
 90
       18
102
RTVSPost2010Prop41ColorRGB
 90
        0
102
RTVSPost2010PropOp41
 70
     1
102
RTVSPost2010Prop42
 90
       50
102
RTVSPost2010PropOp42
 70
     1
102
RTVSPost2010Prop43
 90
        3
102
RTVSPost2010PropOp43
 70
     1
102
RTVSPost2010Prop44ColorIndex
 90
        5
102
RTVSPost2010Prop44ColorRGB
 90
      255
102
RTVSPost2010PropOp44
 70
     1
102
RTVSPost2010Prop45
280
     0
102
RTVSPost2010PropOp45
 70
     1
102
RTVSPost2010Prop46
 90
       50
102
RTVSPost2010PropOp46
 70
     1
102
RTVSPost2010Prop47
 90
       50
102
RTVSPost2010PropOp47
 70
     1
102
RTVSPost2010Prop48
 90
       50
102
RTVSPost2010PropOp48
 70
     1
102
RTVSPost2010Prop49
280
     0
102
RTVSPost2010PropOp49
 70
     1
102
RTVSPost2010Prop50
 90
       50
102
RTVSPost2010PropOp50
 70
     1
102
RTVSPost2010Prop51ColorIndex
 90
      256
102
RTVSPost2010Prop51ColorRGB
 90
-16777216
102
RTVSPost2010PropOp51
 70
     0
102
RTVSPost2010Prop52
140
1.0
102
RTVSPost2010PropOp52
 70
     0
102
RTVSPost2010Prop53
 90
        2
102
RTVSPost2010PropOp53
 70
     1
102
RTVSPost2010Prop54
  1
strokes_ogs.tif
102
RTVSPost2010PropOp54
 70
     1
102
RTVSPost2010Prop55
280
     0
102
RTVSPost2010PropOp55
 70
     1
102
RTVSPost2010Prop56
140
1.0
102
RTVSPost2010PropOp56
 70
     1
102
RTVSPost2010Prop57
140
1.0
102
RTVSPost2010PropOp57
 70
     1
102
RTVSPropertyOp0
 70
     0
102
RTVSPropertyOp1
 70
     0
102
RTVSPropertyOp2
 70
     0
102
RTVSPropertyOp3
 70
     0
102
RTVSPropertyOp4
 70
     0
102
RTVSPropertyOp5
 70
     0
102
RTVSPropertyOp6
 70
     0
102
RTVSPropertyOp7
 70
     0
102
RTVSPropertyOp8
 70
     0
102
RTVSPropertyOp9
 70
     0
102
RTVSPropertyOp10
 70
     0
102
RTVSPropertyOp11
 70
     0
102
RTVSPropertyOp12
 70
     0
102
RTVSPropertyOp13
 70
     0
102
RTVSPropertyOp14
 70
     2
102
RTVSPropertyOp15
 70
     0
102
RTVSPropertyOp16
 70
     0
102
RTVSPropertyOp17
 70
     0
102
RTVSPropertyOp18
 70
     0
102
RTVSPropertyOp19
 70
     0
102
RTVSPropertyOp20
 70
     0
102
RTVSPropertyOp21
 70
     0
102
RTVSPropertyOp22
 70
     0
102
RTVSPropertyOp23
 70
     0
102
RTVSPropertyOp24
 70
     0
102
RTVSPropertyOp25
 70
     0
102
RTVSPropertyOp26
 70
     0
102
RTVSPropertyOp27
 70
     0
102
RTVSPropertyOp28
 70
     1
102
RTVSPropertyOp29
 70
     1
102
RTVSPropertyOp30
 70
     1
102
RTVSPropertyOp31
 70
     1
102
RTVSPropertyOp32
 70
     1
102
RTVSPropertyOp33
 70
     1
102
RTVSPropertyOp34
 70
     1
102
RTVSPropertyOp35
 70
     1
102
RTVSPropertyOp36
 70
     1
102
RTVSPropertyOp37
 70
     1
102
RTVSPropertyOp38
 70
     1
102
RTVSPropertyOp39
 70
     1
102
RTVSPropertyOp40
 70
     1
102
RTVSPropertyOp41
 70
     1
102
RTVSPropertyOp42
 70
     1
102
RTVSPropertyOp43
 70
     1
102
RTVSPropertyOp44
 70
     1
102
RTVSPropertyOp45
 70
     1
102
RTVSPropertyOp46
 70
     1
102
RTVSPropertyOp47
 70
     1
102
RTVSPropertyOp48
 70
     1
102
RTVSPropertyOp49
 70
     1
102
RTVSPropertyOp50
 70
     1
102
RTVSPropertyOp51
 70
     0
102
RTVSPropertyOp52
 70
     0
102
RTVSPropertyOp53
 70
     1
102
RTVSPropertyOp54
 70
     1
102
RTVSPropertyOp55
 70
     1
102
RTVSPropertyOp56
 70
     1
102
RTVSPropertyOp57
 70
     1
102
RTVSPropertyOp58
 70
     1
102
RTVSPropertyOp59
 70
     1
102
RTVSPropertyOp60
 70
     1
102
RTVSPropertyOp61
 70
     1
102
RTVSPropertyOp62
 70
     1
  0
XRECORD
  5
24F8
102
{ACAD_REACTORS
330
24F7
102
}
330
24F7
100
AcDbXrecord
280
     1
102
RTVSPost2010Prop28
280
     0
102
RTVSPost2010PropOp28
 70
     1
102
RTVSPost2010Prop29
280
     1
102
RTVSPost2010PropOp29
 70
     1
102
RTVSPost2010Prop30
280
     1
102
RTVSPost2010PropOp30
 70
     1
102
RTVSPost2010Prop31
280
     0
102
RTVSPost2010PropOp31
 70
     1
102
RTVSPost2010Prop32
280
     0
102
RTVSPost2010PropOp32
 70
     1
102
RTVSPost2010Prop33
280
     0
102
RTVSPost2010PropOp33
 70
     1
102
RTVSPost2010Prop34
280
     0
102
RTVSPost2010PropOp34
 70
     1
102
RTVSPost2010Prop35
280
     0
102
RTVSPost2010PropOp35
 70
     1
102
RTVSPost2010Prop36
280
     0
102
RTVSPost2010PropOp36
 70
     1
102
RTVSPost2010Prop37
 90
       50
102
RTVSPost2010PropOp37
 70
     1
102
RTVSPost2010Prop38
140
0.0
102
RTVSPost2010PropOp38
 70
     1
102
RTVSPost2010Prop39
140
1.0
102
RTVSPost2010PropOp39
 70
     1
102
RTVSPost2010Prop40
 90
        0
102
RTVSPost2010PropOp40
 70
     1
102
RTVSPost2010Prop41ColorIndex
 90
       18
102
RTVSPost2010Prop41ColorRGB
 90
        0
102
RTVSPost2010PropOp41
 70
     1
102
RTVSPost2010Prop42
 90
       50
102
RTVSPost2010PropOp42
 70
     1
102
RTVSPost2010Prop43
 90
        3
102
RTVSPost2010PropOp43
 70
     1
102
RTVSPost2010Prop44ColorIndex
 90
        5
102
RTVSPost2010Prop44ColorRGB
 90
      255
102
RTVSPost2010PropOp44
 70
     1
102
RTVSPost2010Prop45
280
     0
102
RTVSPost2010PropOp45
 70
     1
102
RTVSPost2010Prop46
 90
       50
102
RTVSPost2010PropOp46
 70
     1
102
RTVSPost2010Prop47
 90
       50
102
RTVSPost2010PropOp47
 70
     1
102
RTVSPost2010Prop48
 90
       50
102
RTVSPost2010PropOp48
 70
     1
102
RTVSPost2010Prop49
280
     0
102
RTVSPost2010PropOp49
 70
     1
102
RTVSPost2010Prop50
 90
       50
102
RTVSPost2010PropOp50
 70
     1
102
RTVSPost2010Prop51ColorIndex
 90
      256
102
RTVSPost2010Prop51ColorRGB
 90
-16777216
102
RTVSPost2010PropOp51
 70
     0
102
RTVSPost2010Prop52
140
1.0
102
RTVSPost2010PropOp52
 70
     0
102
RTVSPost2010Prop53
 90
        2
102
RTVSPost2010PropOp53
 70
     1
102
RTVSPost2010Prop54
  1
strokes_ogs.tif
102
RTVSPost2010PropOp54
 70
     1
102
RTVSPost2010Prop55
280
     0
102
RTVSPost2010PropOp55
 70
     1
102
RTVSPost2010Prop56
140
1.0
102
RTVSPost2010PropOp56
 70
     1
102
RTVSPost2010Prop57
140
1.0
102
RTVSPost2010PropOp57
 70
     1
102
RTVSPropertyOp0
 70
     1
102
RTVSPropertyOp1
 70
     1
102
RTVSPropertyOp2
 70
     1
102
RTVSPropertyOp3
 70
     1
102
RTVSPropertyOp4
 70
     1
102
RTVSPropertyOp5
 70
     1
102
RTVSPropertyOp6
 70
     1
102
RTVSPropertyOp7
 70
     1
102
RTVSPropertyOp8
 70
     1
102
RTVSPropertyOp9
 70
     1
102
RTVSPropertyOp10
 70
     1
102
RTVSPropertyOp11
 70
     1
102
RTVSPropertyOp12
 70
     1
102
RTVSPropertyOp13
 70
     1
102
RTVSPropertyOp14
 70
     1
102
RTVSPropertyOp15
 70
     1
102
RTVSPropertyOp16
 70
     1
102
RTVSPropertyOp17
 70
     1
102
RTVSPropertyOp18
 70
     1
102
RTVSPropertyOp19
 70
     1
102
RTVSPropertyOp20
 70
     1
102
RTVSPropertyOp21
 70
     1
102
RTVSPropertyOp22
 70
     1
102
RTVSPropertyOp23
 70
     1
102
RTVSPropertyOp24
 70
     1
102
RTVSPropertyOp25
 70
     1
102
RTVSPropertyOp26
 70
     1
102
RTVSPropertyOp27
 70
     1
102
RTVSPropertyOp28
 70
     1
102
RTVSPropertyOp29
 70
     1
102
RTVSPropertyOp30
 70
     1
102
RTVSPropertyOp31
 70
     1
102
RTVSPropertyOp32
 70
     1
102
RTVSPropertyOp33
 70
     1
102
RTVSPropertyOp34
 70
     1
102
RTVSPropertyOp35
 70
     1
102
RTVSPropertyOp36
 70
     1
102
RTVSPropertyOp37
 70
     1
102
RTVSPropertyOp38
 70
     1
102
RTVSPropertyOp39
 70
     1
102
RTVSPropertyOp40
 70
     1
102
RTVSPropertyOp41
 70
     1
102
RTVSPropertyOp42
 70
     1
102
RTVSPropertyOp43
 70
     1
102
RTVSPropertyOp44
 70
     1
102
RTVSPropertyOp45
 70
     1
102
RTVSPropertyOp46
 70
     1
102
RTVSPropertyOp47
 70
     1
102
RTVSPropertyOp48
 70
     1
102
RTVSPropertyOp49
 70
     1
102
RTVSPropertyOp50
 70
     1
102
RTVSPropertyOp51
 70
     0
102
RTVSPropertyOp52
 70
     0
102
RTVSPropertyOp53
 70
     1
102
RTVSPropertyOp54
 70
     1
102
RTVSPropertyOp55
 70
     1
102
RTVSPropertyOp56
 70
     1
102
RTVSPropertyOp57
 70
     1
102
RTVSPropertyOp58
 70
     1
102
RTVSPropertyOp59
 70
     1
102
RTVSPropertyOp60
 70
     1
102
RTVSPropertyOp61
 70
     1
102
RTVSPropertyOp62
 70
     1
  0
XRECORD
  5
2500
102
{ACAD_REACTORS
330
24FF
102
}
330
24FF
100
AcDbXrecord
280
     1
102
RTVSPost2010Prop28
280
     0
102
RTVSPost2010PropOp28
 70
     1
102
RTVSPost2010Prop29
280
     1
102
RTVSPost2010PropOp29
 70
     1
102
RTVSPost2010Prop30
280
     1
102
RTVSPost2010PropOp30
 70
     1
102
RTVSPost2010Prop31
280
     0
102
RTVSPost2010PropOp31
 70
     1
102
RTVSPost2010Prop32
280
     0
102
RTVSPost2010PropOp32
 70
     1
102
RTVSPost2010Prop33
280
     0
102
RTVSPost2010PropOp33
 70
     1
102
RTVSPost2010Prop34
280
     0
102
RTVSPost2010PropOp34
 70
     1
102
RTVSPost2010Prop35
280
     0
102
RTVSPost2010PropOp35
 70
     1
102
RTVSPost2010Prop36
280
     0
102
RTVSPost2010PropOp36
 70
     1
102
RTVSPost2010Prop37
 90
       50
102
RTVSPost2010PropOp37
 70
     1
102
RTVSPost2010Prop38
140
0.0
102
RTVSPost2010PropOp38
 70
     1
102
RTVSPost2010Prop39
140
1.0
102
RTVSPost2010PropOp39
 70
     1
102
RTVSPost2010Prop40
 90
        0
102
RTVSPost2010PropOp40
 70
     1
102
RTVSPost2010Prop41ColorIndex
 90
       18
102
RTVSPost2010Prop41ColorRGB
 90
        0
102
RTVSPost2010PropOp41
 70
     1
102
RTVSPost2010Prop42
 90
       50
102
RTVSPost2010PropOp42
 70
     1
102
RTVSPost2010Prop43
 90
        3
102
RTVSPost2010PropOp43
 70
     1
102
RTVSPost2010Prop44ColorIndex
 90
        5
102
RTVSPost2010Prop44ColorRGB
 90
      255
102
RTVSPost2010PropOp44
 70
     1
102
RTVSPost2010Prop45
280
     0
102
RTVSPost2010PropOp45
 70
     1
102
RTVSPost2010Prop46
 90
       50
102
RTVSPost2010PropOp46
 70
     1
102
RTVSPost2010Prop47
 90
       50
102
RTVSPost2010PropOp47
 70
     1
102
RTVSPost2010Prop48
 90
       50
102
RTVSPost2010PropOp48
 70
     1
102
RTVSPost2010Prop49
280
     0
102
RTVSPost2010PropOp49
 70
     1
102
RTVSPost2010Prop50
 90
       50
102
RTVSPost2010PropOp50
 70
     1
102
RTVSPost2010Prop51ColorIndex
 90
      256
102
RTVSPost2010Prop51ColorRGB
 90
-16777216
102
RTVSPost2010PropOp51
 70
     0
102
RTVSPost2010Prop52
140
1.0
102
RTVSPost2010PropOp52
 70
     0
102
RTVSPost2010Prop53
 90
        2
102
RTVSPost2010PropOp53
 70
     1
102
RTVSPost2010Prop54
  1
strokes_ogs.tif
102
RTVSPost2010PropOp54
 70
     1
102
RTVSPost2010Prop55
280
     0
102
RTVSPost2010PropOp55
 70
     1
102
RTVSPost2010Prop56
140
1.0
102
RTVSPost2010PropOp56
 70
     1
102
RTVSPost2010Prop57
140
1.0
102
RTVSPost2010PropOp57
 70
     1
102
RTVSPropertyOp0
 70
     0
102
RTVSPropertyOp1
 70
     0
102
RTVSPropertyOp2
 70
     0
102
RTVSPropertyOp3
 70
     0
102
RTVSPropertyOp4
 70
     0
102
RTVSPropertyOp5
 70
     0
102
RTVSPropertyOp6
 70
     0
102
RTVSPropertyOp7
 70
     0
102
RTVSPropertyOp8
 70
     0
102
RTVSPropertyOp9
 70
     0
102
RTVSPropertyOp10
 70
     0
102
RTVSPropertyOp11
 70
     0
102
RTVSPropertyOp12
 70
     0
102
RTVSPropertyOp13
 70
     0
102
RTVSPropertyOp14
 70
     2
102
RTVSPropertyOp15
 70
     0
102
RTVSPropertyOp16
 70
     0
102
RTVSPropertyOp17
 70
     0
102
RTVSPropertyOp18
 70
     0
102
RTVSPropertyOp19
 70
     0
102
RTVSPropertyOp20
 70
     0
102
RTVSPropertyOp21
 70
     0
102
RTVSPropertyOp22
 70
     0
102
RTVSPropertyOp23
 70
     0
102
RTVSPropertyOp24
 70
     0
102
RTVSPropertyOp25
 70
     0
102
RTVSPropertyOp26
 70
     0
102
RTVSPropertyOp27
 70
     0
102
RTVSPropertyOp28
 70
     1
102
RTVSPropertyOp29
 70
     1
102
RTVSPropertyOp30
 70
     1
102
RTVSPropertyOp31
 70
     1
102
RTVSPropertyOp32
 70
     1
102
RTVSPropertyOp33
 70
     1
102
RTVSPropertyOp34
 70
     1
102
RTVSPropertyOp35
 70
     1
102
RTVSPropertyOp36
 70
     1
102
RTVSPropertyOp37
 70
     1
102
RTVSPropertyOp38
 70
     1
102
RTVSPropertyOp39
 70
     1
102
RTVSPropertyOp40
 70
     1
102
RTVSPropertyOp41
 70
     1
102
RTVSPropertyOp42
 70
     1
102
RTVSPropertyOp43
 70
     1
102
RTVSPropertyOp44
 70
     1
102
RTVSPropertyOp45
 70
     1
102
RTVSPropertyOp46
 70
     1
102
RTVSPropertyOp47
 70
     1
102
RTVSPropertyOp48
 70
     1
102
RTVSPropertyOp49
 70
     1
102
RTVSPropertyOp50
 70
     1
102
RTVSPropertyOp51
 70
     0
102
RTVSPropertyOp52
 70
     0
102
RTVSPropertyOp53
 70
     1
102
RTVSPropertyOp54
 70
     1
102
RTVSPropertyOp55
 70
     1
102
RTVSPropertyOp56
 70
     1
102
RTVSPropertyOp57
 70
     1
102
RTVSPropertyOp58
 70
     1
102
RTVSPropertyOp59
 70
     1
102
RTVSPropertyOp60
 70
     1
102
RTVSPropertyOp61
 70
     1
102
RTVSPropertyOp62
 70
     1
  0
XRECORD
  5
24F0
102
{ACAD_REACTORS
330
24EF
102
}
330
24EF
100
AcDbXrecord
280
     1
102
RTVSPost2010Prop28
280
     0
102
RTVSPost2010PropOp28
 70
     1
102
RTVSPost2010Prop29
280
     1
102
RTVSPost2010PropOp29
 70
     1
102
RTVSPost2010Prop30
280
     1
102
RTVSPost2010PropOp30
 70
     1
102
RTVSPost2010Prop31
280
     0
102
RTVSPost2010PropOp31
 70
     1
102
RTVSPost2010Prop32
280
     0
102
RTVSPost2010PropOp32
 70
     1
102
RTVSPost2010Prop33
280
     0
102
RTVSPost2010PropOp33
 70
     1
102
RTVSPost2010Prop34
280
     0
102
RTVSPost2010PropOp34
 70
     1
102
RTVSPost2010Prop35
280
     0
102
RTVSPost2010PropOp35
 70
     1
102
RTVSPost2010Prop36
280
     0
102
RTVSPost2010PropOp36
 70
     1
102
RTVSPost2010Prop37
 90
       50
102
RTVSPost2010PropOp37
 70
     1
102
RTVSPost2010Prop38
140
0.0
102
RTVSPost2010PropOp38
 70
     1
102
RTVSPost2010Prop39
140
1.0
102
RTVSPost2010PropOp39
 70
     1
102
RTVSPost2010Prop40
 90
        0
102
RTVSPost2010PropOp40
 70
     1
102
RTVSPost2010Prop41ColorIndex
 90
       18
102
RTVSPost2010Prop41ColorRGB
 90
        0
102
RTVSPost2010PropOp41
 70
     1
102
RTVSPost2010Prop42
 90
       50
102
RTVSPost2010PropOp42
 70
     1
102
RTVSPost2010Prop43
 90
        3
102
RTVSPost2010PropOp43
 70
     1
102
RTVSPost2010Prop44ColorIndex
 90
        5
102
RTVSPost2010Prop44ColorRGB
 90
      255
102
RTVSPost2010PropOp44
 70
     1
102
RTVSPost2010Prop45
280
     0
102
RTVSPost2010PropOp45
 70
     1
102
RTVSPost2010Prop46
 90
       50
102
RTVSPost2010PropOp46
 70
     1
102
RTVSPost2010Prop47
 90
       50
102
RTVSPost2010PropOp47
 70
     1
102
RTVSPost2010Prop48
 90
       50
102
RTVSPost2010PropOp48
 70
     1
102
RTVSPost2010Prop49
280
     0
102
RTVSPost2010PropOp49
 70
     1
102
RTVSPost2010Prop50
 90
       50
102
RTVSPost2010PropOp50
 70
     1
102
RTVSPost2010Prop51ColorIndex
 90
      256
102
RTVSPost2010Prop51ColorRGB
 90
-16777216
102
RTVSPost2010PropOp51
 70
     0
102
RTVSPost2010Prop52
140
1.0
102
RTVSPost2010PropOp52
 70
     0
102
RTVSPost2010Prop53
 90
        2
102
RTVSPost2010PropOp53
 70
     1
102
RTVSPost2010Prop54
  1
strokes_ogs.tif
102
RTVSPost2010PropOp54
 70
     1
102
RTVSPost2010Prop55
280
     0
102
RTVSPost2010PropOp55
 70
     1
102
RTVSPost2010Prop56
140
1.0
102
RTVSPost2010PropOp56
 70
     1
102
RTVSPost2010Prop57
140
1.0
102
RTVSPost2010PropOp57
 70
     1
102
RTVSPropertyOp0
 70
     1
102
RTVSPropertyOp1
 70
     1
102
RTVSPropertyOp2
 70
     1
102
RTVSPropertyOp3
 70
     1
102
RTVSPropertyOp4
 70
     1
102
RTVSPropertyOp5
 70
     1
102
RTVSPropertyOp6
 70
     1
102
RTVSPropertyOp7
 70
     1
102
RTVSPropertyOp8
 70
     1
102
RTVSPropertyOp9
 70
     1
102
RTVSPropertyOp10
 70
     1
102
RTVSPropertyOp11
 70
     1
102
RTVSPropertyOp12
 70
     1
102
RTVSPropertyOp13
 70
     1
102
RTVSPropertyOp14
 70
     1
102
RTVSPropertyOp15
 70
     1
102
RTVSPropertyOp16
 70
     1
102
RTVSPropertyOp17
 70
     1
102
RTVSPropertyOp18
 70
     1
102
RTVSPropertyOp19
 70
     1
102
RTVSPropertyOp20
 70
     1
102
RTVSPropertyOp21
 70
     1
102
RTVSPropertyOp22
 70
     1
102
RTVSPropertyOp23
 70
     1
102
RTVSPropertyOp24
 70
     1
102
RTVSPropertyOp25
 70
     1
102
RTVSPropertyOp26
 70
     1
102
RTVSPropertyOp27
 70
     1
102
RTVSPropertyOp28
 70
     1
102
RTVSPropertyOp29
 70
     1
102
RTVSPropertyOp30
 70
     1
102
RTVSPropertyOp31
 70
     1
102
RTVSPropertyOp32
 70
     1
102
RTVSPropertyOp33
 70
     1
102
RTVSPropertyOp34
 70
     1
102
RTVSPropertyOp35
 70
     1
102
RTVSPropertyOp36
 70
     1
102
RTVSPropertyOp37
 70
     1
102
RTVSPropertyOp38
 70
     1
102
RTVSPropertyOp39
 70
     1
102
RTVSPropertyOp40
 70
     1
102
RTVSPropertyOp41
 70
     1
102
RTVSPropertyOp42
 70
     1
102
RTVSPropertyOp43
 70
     1
102
RTVSPropertyOp44
 70
     1
102
RTVSPropertyOp45
 70
     1
102
RTVSPropertyOp46
 70
     1
102
RTVSPropertyOp47
 70
     1
102
RTVSPropertyOp48
 70
     1
102
RTVSPropertyOp49
 70
     1
102
RTVSPropertyOp50
 70
     1
102
RTVSPropertyOp51
 70
     0
102
RTVSPropertyOp52
 70
     0
102
RTVSPropertyOp53
 70
     1
102
RTVSPropertyOp54
 70
     1
102
RTVSPropertyOp55
 70
     1
102
RTVSPropertyOp56
 70
     1
102
RTVSPropertyOp57
 70
     1
102
RTVSPropertyOp58
 70
     1
102
RTVSPropertyOp59
 70
     1
102
RTVSPropertyOp60
 70
     1
102
RTVSPropertyOp61
 70
     1
102
RTVSPropertyOp62
 70
     1
  0
XRECORD
  5
2513
102
{ACAD_REACTORS
330
2512
102
}
330
2512
100
AcDbXrecord
280
     1
102
RTVSPost2010Prop28
280
     0
102
RTVSPost2010PropOp28
 70
     1
102
RTVSPost2010Prop29
280
     1
102
RTVSPost2010PropOp29
 70
     1
102
RTVSPost2010Prop30
280
     1
102
RTVSPost2010PropOp30
 70
     1
102
RTVSPost2010Prop31
280
     0
102
RTVSPost2010PropOp31
 70
     1
102
RTVSPost2010Prop32
280
     0
102
RTVSPost2010PropOp32
 70
     1
102
RTVSPost2010Prop33
280
     0
102
RTVSPost2010PropOp33
 70
     1
102
RTVSPost2010Prop34
280
     0
102
RTVSPost2010PropOp34
 70
     1
102
RTVSPost2010Prop35
280
     0
102
RTVSPost2010PropOp35
 70
     1
102
RTVSPost2010Prop36
280
     0
102
RTVSPost2010PropOp36
 70
     1
102
RTVSPost2010Prop37
 90
       50
102
RTVSPost2010PropOp37
 70
     1
102
RTVSPost2010Prop38
140
0.0
102
RTVSPost2010PropOp38
 70
     1
102
RTVSPost2010Prop39
140
1.0
102
RTVSPost2010PropOp39
 70
     1
102
RTVSPost2010Prop40
 90
        0
102
RTVSPost2010PropOp40
 70
     1
102
RTVSPost2010Prop41ColorIndex
 90
       18
102
RTVSPost2010Prop41ColorRGB
 90
        0
102
RTVSPost2010PropOp41
 70
     1
102
RTVSPost2010Prop42
 90
       50
102
RTVSPost2010PropOp42
 70
     1
102
RTVSPost2010Prop43
 90
        3
102
RTVSPost2010PropOp43
 70
     1
102
RTVSPost2010Prop44ColorIndex
 90
        5
102
RTVSPost2010Prop44ColorRGB
 90
      255
102
RTVSPost2010PropOp44
 70
     1
102
RTVSPost2010Prop45
280
     0
102
RTVSPost2010PropOp45
 70
     1
102
RTVSPost2010Prop46
 90
       50
102
RTVSPost2010PropOp46
 70
     1
102
RTVSPost2010Prop47
 90
       50
102
RTVSPost2010PropOp47
 70
     1
102
RTVSPost2010Prop48
 90
       50
102
RTVSPost2010PropOp48
 70
     1
102
RTVSPost2010Prop49
280
     0
102
RTVSPost2010PropOp49
 70
     1
102
RTVSPost2010Prop50
 90
       50
102
RTVSPost2010PropOp50
 70
     1
102
RTVSPost2010Prop51ColorIndex
 90
      256
102
RTVSPost2010Prop51ColorRGB
 90
-16777216
102
RTVSPost2010PropOp51
 70
     0
102
RTVSPost2010Prop52
140
1.0
102
RTVSPost2010PropOp52
 70
     0
102
RTVSPost2010Prop53
 90
        2
102
RTVSPost2010PropOp53
 70
     1
102
RTVSPost2010Prop54
  1
strokes_ogs.tif
102
RTVSPost2010PropOp54
 70
     1
102
RTVSPost2010Prop55
280
     0
102
RTVSPost2010PropOp55
 70
     1
102
RTVSPost2010Prop56
140
1.0
102
RTVSPost2010PropOp56
 70
     1
102
RTVSPost2010Prop57
140
1.0
102
RTVSPost2010PropOp57
 70
     1
102
RTVSPropertyOp0
 70
     1
102
RTVSPropertyOp1
 70
     1
102
RTVSPropertyOp2
 70
     1
102
RTVSPropertyOp3
 70
     1
102
RTVSPropertyOp4
 70
     1
102
RTVSPropertyOp5
 70
     1
102
RTVSPropertyOp6
 70
     1
102
RTVSPropertyOp7
 70
     1
102
RTVSPropertyOp8
 70
     1
102
RTVSPropertyOp9
 70
     1
102
RTVSPropertyOp10
 70
     1
102
RTVSPropertyOp11
 70
     1
102
RTVSPropertyOp12
 70
     1
102
RTVSPropertyOp13
 70
     1
102
RTVSPropertyOp14
 70
     1
102
RTVSPropertyOp15
 70
     1
102
RTVSPropertyOp16
 70
     1
102
RTVSPropertyOp17
 70
     1
102
RTVSPropertyOp18
 70
     1
102
RTVSPropertyOp19
 70
     1
102
RTVSPropertyOp20
 70
     1
102
RTVSPropertyOp21
 70
     1
102
RTVSPropertyOp22
 70
     1
102
RTVSPropertyOp23
 70
     1
102
RTVSPropertyOp24
 70
     1
102
RTVSPropertyOp25
 70
     1
102
RTVSPropertyOp26
 70
     1
102
RTVSPropertyOp27
 70
     1
102
RTVSPropertyOp28
 70
     1
102
RTVSPropertyOp29
 70
     1
102
RTVSPropertyOp30
 70
     1
102
RTVSPropertyOp31
 70
     1
102
RTVSPropertyOp32
 70
     1
102
RTVSPropertyOp33
 70
     1
102
RTVSPropertyOp34
 70
     1
102
RTVSPropertyOp35
 70
     1
102
RTVSPropertyOp36
 70
     1
102
RTVSPropertyOp37
 70
     1
102
RTVSPropertyOp38
 70
     1
102
RTVSPropertyOp39
 70
     1
102
RTVSPropertyOp40
 70
     1
102
RTVSPropertyOp41
 70
     1
102
RTVSPropertyOp42
 70
     1
102
RTVSPropertyOp43
 70
     1
102
RTVSPropertyOp44
 70
     1
102
RTVSPropertyOp45
 70
     1
102
RTVSPropertyOp46
 70
     1
102
RTVSPropertyOp47
 70
     1
102
RTVSPropertyOp48
 70
     1
102
RTVSPropertyOp49
 70
     1
102
RTVSPropertyOp50
 70
     1
102
RTVSPropertyOp51
 70
     0
102
RTVSPropertyOp52
 70
     0
102
RTVSPropertyOp53
 70
     1
102
RTVSPropertyOp54
 70
     1
102
RTVSPropertyOp55
 70
     1
102
RTVSPropertyOp56
 70
     1
102
RTVSPropertyOp57
 70
     1
102
RTVSPropertyOp58
 70
     1
102
RTVSPropertyOp59
 70
     1
102
RTVSPropertyOp60
 70
     1
102
RTVSPropertyOp61
 70
     1
102
RTVSPropertyOp62
 70
     1
  0
XRECORD
  5
2511
102
{ACAD_REACTORS
330
2510
102
}
330
2510
100
AcDbXrecord
280
     1
102
RTVSPost2010Prop28
280
     0
102
RTVSPost2010PropOp28
 70
     1
102
RTVSPost2010Prop29
280
     1
102
RTVSPost2010PropOp29
 70
     1
102
RTVSPost2010Prop30
280
     1
102
RTVSPost2010PropOp30
 70
     1
102
RTVSPost2010Prop31
280
     0
102
RTVSPost2010PropOp31
 70
     1
102
RTVSPost2010Prop32
280
     0
102
RTVSPost2010PropOp32
 70
     1
102
RTVSPost2010Prop33
280
     0
102
RTVSPost2010PropOp33
 70
     1
102
RTVSPost2010Prop34
280
     0
102
RTVSPost2010PropOp34
 70
     1
102
RTVSPost2010Prop35
280
     0
102
RTVSPost2010PropOp35
 70
     1
102
RTVSPost2010Prop36
280
     0
102
RTVSPost2010PropOp36
 70
     1
102
RTVSPost2010Prop37
 90
       50
102
RTVSPost2010PropOp37
 70
     1
102
RTVSPost2010Prop38
140
0.0
102
RTVSPost2010PropOp38
 70
     1
102
RTVSPost2010Prop39
140
1.0
102
RTVSPost2010PropOp39
 70
     1
102
RTVSPost2010Prop40
 90
        0
102
RTVSPost2010PropOp40
 70
     1
102
RTVSPost2010Prop41ColorIndex
 90
       18
102
RTVSPost2010Prop41ColorRGB
 90
        0
102
RTVSPost2010PropOp41
 70
     1
102
RTVSPost2010Prop42
 90
       50
102
RTVSPost2010PropOp42
 70
     1
102
RTVSPost2010Prop43
 90
        3
102
RTVSPost2010PropOp43
 70
     1
102
RTVSPost2010Prop44ColorIndex
 90
        5
102
RTVSPost2010Prop44ColorRGB
 90
      255
102
RTVSPost2010PropOp44
 70
     1
102
RTVSPost2010Prop45
280
     0
102
RTVSPost2010PropOp45
 70
     1
102
RTVSPost2010Prop46
 90
       50
102
RTVSPost2010PropOp46
 70
     1
102
RTVSPost2010Prop47
 90
       50
102
RTVSPost2010PropOp47
 70
     1
102
RTVSPost2010Prop48
 90
       50
102
RTVSPost2010PropOp48
 70
     1
102
RTVSPost2010Prop49
280
     0
102
RTVSPost2010PropOp49
 70
     1
102
RTVSPost2010Prop50
 90
       50
102
RTVSPost2010PropOp50
 70
     1
102
RTVSPost2010Prop51ColorIndex
 90
      256
102
RTVSPost2010Prop51ColorRGB
 90
-16777216
102
RTVSPost2010PropOp51
 70
     0
102
RTVSPost2010Prop52
140
1.0
102
RTVSPost2010PropOp52
 70
     0
102
RTVSPost2010Prop53
 90
        2
102
RTVSPost2010PropOp53
 70
     1
102
RTVSPost2010Prop54
  1
strokes_ogs.tif
102
RTVSPost2010PropOp54
 70
     1
102
RTVSPost2010Prop55
280
     0
102
RTVSPost2010PropOp55
 70
     1
102
RTVSPost2010Prop56
140
1.0
102
RTVSPost2010PropOp56
 70
     1
102
RTVSPost2010Prop57
140
1.0
102
RTVSPost2010PropOp57
 70
     1
102
RTVSPropertyOp0
 70
     1
102
RTVSPropertyOp1
 70
     1
102
RTVSPropertyOp2
 70
     1
102
RTVSPropertyOp3
 70
     1
102
RTVSPropertyOp4
 70
     1
102
RTVSPropertyOp5
 70
     1
102
RTVSPropertyOp6
 70
     1
102
RTVSPropertyOp7
 70
     1
102
RTVSPropertyOp8
 70
     1
102
RTVSPropertyOp9
 70
     1
102
RTVSPropertyOp10
 70
     1
102
RTVSPropertyOp11
 70
     1
102
RTVSPropertyOp12
 70
     1
102
RTVSPropertyOp13
 70
     1
102
RTVSPropertyOp14
 70
     1
102
RTVSPropertyOp15
 70
     1
102
RTVSPropertyOp16
 70
     1
102
RTVSPropertyOp17
 70
     1
102
RTVSPropertyOp18
 70
     1
102
RTVSPropertyOp19
 70
     1
102
RTVSPropertyOp20
 70
     1
102
RTVSPropertyOp21
 70
     1
102
RTVSPropertyOp22
 70
     1
102
RTVSPropertyOp23
 70
     1
102
RTVSPropertyOp24
 70
     1
102
RTVSPropertyOp25
 70
     1
102
RTVSPropertyOp26
 70
     1
102
RTVSPropertyOp27
 70
     1
102
RTVSPropertyOp28
 70
     1
102
RTVSPropertyOp29
 70
     1
102
RTVSPropertyOp30
 70
     1
102
RTVSPropertyOp31
 70
     1
102
RTVSPropertyOp32
 70
     1
102
RTVSPropertyOp33
 70
     1
102
RTVSPropertyOp34
 70
     1
102
RTVSPropertyOp35
 70
     1
102
RTVSPropertyOp36
 70
     1
102
RTVSPropertyOp37
 70
     1
102
RTVSPropertyOp38
 70
     1
102
RTVSPropertyOp39
 70
     1
102
RTVSPropertyOp40
 70
     1
102
RTVSPropertyOp41
 70
     1
102
RTVSPropertyOp42
 70
     1
102
RTVSPropertyOp43
 70
     1
102
RTVSPropertyOp44
 70
     1
102
RTVSPropertyOp45
 70
     1
102
RTVSPropertyOp46
 70
     1
102
RTVSPropertyOp47
 70
     1
102
RTVSPropertyOp48
 70
     1
102
RTVSPropertyOp49
 70
     1
102
RTVSPropertyOp50
 70
     1
102
RTVSPropertyOp51
 70
     0
102
RTVSPropertyOp52
 70
     0
102
RTVSPropertyOp53
 70
     1
102
RTVSPropertyOp54
 70
     1
102
RTVSPropertyOp55
 70
     1
102
RTVSPropertyOp56
 70
     1
102
RTVSPropertyOp57
 70
     1
102
RTVSPropertyOp58
 70
     1
102
RTVSPropertyOp59
 70
     1
102
RTVSPropertyOp60
 70
     1
102
RTVSPropertyOp61
 70
     1
102
RTVSPropertyOp62
 70
     1
  0
XRECORD
  5
250B
102
{ACAD_REACTORS
330
250A
102
}
330
250A
100
AcDbXrecord
280
     1
102
RTVSPost2010Prop28
280
     0
102
RTVSPost2010PropOp28
 70
     1
102
RTVSPost2010Prop29
280
     1
102
RTVSPost2010PropOp29
 70
     1
102
RTVSPost2010Prop30
280
     1
102
RTVSPost2010PropOp30
 70
     1
102
RTVSPost2010Prop31
280
     0
102
RTVSPost2010PropOp31
 70
     1
102
RTVSPost2010Prop32
280
     0
102
RTVSPost2010PropOp32
 70
     1
102
RTVSPost2010Prop33
280
     0
102
RTVSPost2010PropOp33
 70
     1
102
RTVSPost2010Prop34
280
     0
102
RTVSPost2010PropOp34
 70
     1
102
RTVSPost2010Prop35
280
     0
102
RTVSPost2010PropOp35
 70
     1
102
RTVSPost2010Prop36
280
     0
102
RTVSPost2010PropOp36
 70
     1
102
RTVSPost2010Prop37
 90
       50
102
RTVSPost2010PropOp37
 70
     1
102
RTVSPost2010Prop38
140
0.0
102
RTVSPost2010PropOp38
 70
     1
102
RTVSPost2010Prop39
140
1.0
102
RTVSPost2010PropOp39
 70
     1
102
RTVSPost2010Prop40
 90
        0
102
RTVSPost2010PropOp40
 70
     1
102
RTVSPost2010Prop41ColorIndex
 90
       18
102
RTVSPost2010Prop41ColorRGB
 90
        0
102
RTVSPost2010PropOp41
 70
     1
102
RTVSPost2010Prop42
 90
       50
102
RTVSPost2010PropOp42
 70
     1
102
RTVSPost2010Prop43
 90
        3
102
RTVSPost2010PropOp43
 70
     1
102
RTVSPost2010Prop44ColorIndex
 90
        5
102
RTVSPost2010Prop44ColorRGB
 90
      255
102
RTVSPost2010PropOp44
 70
     1
102
RTVSPost2010Prop45
280
     0
102
RTVSPost2010PropOp45
 70
     1
102
RTVSPost2010Prop46
 90
       50
102
RTVSPost2010PropOp46
 70
     1
102
RTVSPost2010Prop47
 90
       50
102
RTVSPost2010PropOp47
 70
     1
102
RTVSPost2010Prop48
 90
       50
102
RTVSPost2010PropOp48
 70
     1
102
RTVSPost2010Prop49
280
     0
102
RTVSPost2010PropOp49
 70
     1
102
RTVSPost2010Prop50
 90
       50
102
RTVSPost2010PropOp50
 70
     1
102
RTVSPost2010Prop51ColorIndex
 90
      256
102
RTVSPost2010Prop51ColorRGB
 90
-16777216
102
RTVSPost2010PropOp51
 70
     0
102
RTVSPost2010Prop52
140
1.0
102
RTVSPost2010PropOp52
 70
     0
102
RTVSPost2010Prop53
 90
        2
102
RTVSPost2010PropOp53
 70
     1
102
RTVSPost2010Prop54
  1
strokes_ogs.tif
102
RTVSPost2010PropOp54
 70
     1
102
RTVSPost2010Prop55
280
     0
102
RTVSPost2010PropOp55
 70
     1
102
RTVSPost2010Prop56
140
1.0
102
RTVSPost2010PropOp56
 70
     1
102
RTVSPost2010Prop57
140
1.0
102
RTVSPost2010PropOp57
 70
     1
102
RTVSPropertyOp0
 70
     1
102
RTVSPropertyOp1
 70
     1
102
RTVSPropertyOp2
 70
     1
102
RTVSPropertyOp3
 70
     1
102
RTVSPropertyOp4
 70
     1
102
RTVSPropertyOp5
 70
     1
102
RTVSPropertyOp6
 70
     1
102
RTVSPropertyOp7
 70
     1
102
RTVSPropertyOp8
 70
     1
102
RTVSPropertyOp9
 70
     1
102
RTVSPropertyOp10
 70
     1
102
RTVSPropertyOp11
 70
     1
102
RTVSPropertyOp12
 70
     1
102
RTVSPropertyOp13
 70
     1
102
RTVSPropertyOp14
 70
     1
102
RTVSPropertyOp15
 70
     1
102
RTVSPropertyOp16
 70
     1
102
RTVSPropertyOp17
 70
     1
102
RTVSPropertyOp18
 70
     1
102
RTVSPropertyOp19
 70
     1
102
RTVSPropertyOp20
 70
     1
102
RTVSPropertyOp21
 70
     1
102
RTVSPropertyOp22
 70
     1
102
RTVSPropertyOp23
 70
     1
102
RTVSPropertyOp24
 70
     1
102
RTVSPropertyOp25
 70
     1
102
RTVSPropertyOp26
 70
     1
102
RTVSPropertyOp27
 70
     1
102
RTVSPropertyOp28
 70
     1
102
RTVSPropertyOp29
 70
     1
102
RTVSPropertyOp30
 70
     1
102
RTVSPropertyOp31
 70
     1
102
RTVSPropertyOp32
 70
     1
102
RTVSPropertyOp33
 70
     1
102
RTVSPropertyOp34
 70
     1
102
RTVSPropertyOp35
 70
     1
102
RTVSPropertyOp36
 70
     1
102
RTVSPropertyOp37
 70
     1
102
RTVSPropertyOp38
 70
     1
102
RTVSPropertyOp39
 70
     1
102
RTVSPropertyOp40
 70
     1
102
RTVSPropertyOp41
 70
     1
102
RTVSPropertyOp42
 70
     1
102
RTVSPropertyOp43
 70
     1
102
RTVSPropertyOp44
 70
     1
102
RTVSPropertyOp45
 70
     1
102
RTVSPropertyOp46
 70
     1
102
RTVSPropertyOp47
 70
     1
102
RTVSPropertyOp48
 70
     1
102
RTVSPropertyOp49
 70
     1
102
RTVSPropertyOp50
 70
     1
102
RTVSPropertyOp51
 70
     0
102
RTVSPropertyOp52
 70
     0
102
RTVSPropertyOp53
 70
     1
102
RTVSPropertyOp54
 70
     1
102
RTVSPropertyOp55
 70
     1
102
RTVSPropertyOp56
 70
     1
102
RTVSPropertyOp57
 70
     1
102
RTVSPropertyOp58
 70
     1
102
RTVSPropertyOp59
 70
     1
102
RTVSPropertyOp60
 70
     1
102
RTVSPropertyOp61
 70
     1
102
RTVSPropertyOp62
 70
     1
  0
XRECORD
  5
250D
102
{ACAD_REACTORS
330
250C
102
}
330
250C
100
AcDbXrecord
280
     1
102
RTVSPost2010Prop28
280
     0
102
RTVSPost2010PropOp28
 70
     1
102
RTVSPost2010Prop29
280
     1
102
RTVSPost2010PropOp29
 70
     1
102
RTVSPost2010Prop30
280
     1
102
RTVSPost2010PropOp30
 70
     1
102
RTVSPost2010Prop31
280
     0
102
RTVSPost2010PropOp31
 70
     1
102
RTVSPost2010Prop32
280
     0
102
RTVSPost2010PropOp32
 70
     1
102
RTVSPost2010Prop33
280
     0
102
RTVSPost2010PropOp33
 70
     1
102
RTVSPost2010Prop34
280
     0
102
RTVSPost2010PropOp34
 70
     1
102
RTVSPost2010Prop35
280
     0
102
RTVSPost2010PropOp35
 70
     1
102
RTVSPost2010Prop36
280
     0
102
RTVSPost2010PropOp36
 70
     1
102
RTVSPost2010Prop37
 90
       50
102
RTVSPost2010PropOp37
 70
     1
102
RTVSPost2010Prop38
140
0.0
102
RTVSPost2010PropOp38
 70
     1
102
RTVSPost2010Prop39
140
1.0
102
RTVSPost2010PropOp39
 70
     1
102
RTVSPost2010Prop40
 90
        0
102
RTVSPost2010PropOp40
 70
     1
102
RTVSPost2010Prop41ColorIndex
 90
       18
102
RTVSPost2010Prop41ColorRGB
 90
        0
102
RTVSPost2010PropOp41
 70
     1
102
RTVSPost2010Prop42
 90
       50
102
RTVSPost2010PropOp42
 70
     1
102
RTVSPost2010Prop43
 90
        3
102
RTVSPost2010PropOp43
 70
     1
102
RTVSPost2010Prop44ColorIndex
 90
        5
102
RTVSPost2010Prop44ColorRGB
 90
      255
102
RTVSPost2010PropOp44
 70
     1
102
RTVSPost2010Prop45
280
     0
102
RTVSPost2010PropOp45
 70
     1
102
RTVSPost2010Prop46
 90
       50
102
RTVSPost2010PropOp46
 70
     1
102
RTVSPost2010Prop47
 90
       50
102
RTVSPost2010PropOp47
 70
     1
102
RTVSPost2010Prop48
 90
       50
102
RTVSPost2010PropOp48
 70
     1
102
RTVSPost2010Prop49
280
     0
102
RTVSPost2010PropOp49
 70
     1
102
RTVSPost2010Prop50
 90
       50
102
RTVSPost2010PropOp50
 70
     1
102
RTVSPost2010Prop51ColorIndex
 90
      256
102
RTVSPost2010Prop51ColorRGB
 90
-16777216
102
RTVSPost2010PropOp51
 70
     0
102
RTVSPost2010Prop52
140
1.0
102
RTVSPost2010PropOp52
 70
     0
102
RTVSPost2010Prop53
 90
        2
102
RTVSPost2010PropOp53
 70
     1
102
RTVSPost2010Prop54
  1
strokes_ogs.tif
102
RTVSPost2010PropOp54
 70
     1
102
RTVSPost2010Prop55
280
     0
102
RTVSPost2010PropOp55
 70
     1
102
RTVSPost2010Prop56
140
1.0
102
RTVSPost2010PropOp56
 70
     1
102
RTVSPost2010Prop57
140
1.0
102
RTVSPost2010PropOp57
 70
     1
102
RTVSPropertyOp0
 70
     1
102
RTVSPropertyOp1
 70
     1
102
RTVSPropertyOp2
 70
     1
102
RTVSPropertyOp3
 70
     1
102
RTVSPropertyOp4
 70
     1
102
RTVSPropertyOp5
 70
     1
102
RTVSPropertyOp6
 70
     1
102
RTVSPropertyOp7
 70
     1
102
RTVSPropertyOp8
 70
     1
102
RTVSPropertyOp9
 70
     1
102
RTVSPropertyOp10
 70
     1
102
RTVSPropertyOp11
 70
     1
102
RTVSPropertyOp12
 70
     1
102
RTVSPropertyOp13
 70
     1
102
RTVSPropertyOp14
 70
     1
102
RTVSPropertyOp15
 70
     1
102
RTVSPropertyOp16
 70
     1
102
RTVSPropertyOp17
 70
     1
102
RTVSPropertyOp18
 70
     1
102
RTVSPropertyOp19
 70
     1
102
RTVSPropertyOp20
 70
     1
102
RTVSPropertyOp21
 70
     1
102
RTVSPropertyOp22
 70
     1
102
RTVSPropertyOp23
 70
     1
102
RTVSPropertyOp24
 70
     1
102
RTVSPropertyOp25
 70
     1
102
RTVSPropertyOp26
 70
     1
102
RTVSPropertyOp27
 70
     1
102
RTVSPropertyOp28
 70
     1
102
RTVSPropertyOp29
 70
     1
102
RTVSPropertyOp30
 70
     1
102
RTVSPropertyOp31
 70
     1
102
RTVSPropertyOp32
 70
     1
102
RTVSPropertyOp33
 70
     1
102
RTVSPropertyOp34
 70
     1
102
RTVSPropertyOp35
 70
     1
102
RTVSPropertyOp36
 70
     1
102
RTVSPropertyOp37
 70
     1
102
RTVSPropertyOp38
 70
     1
102
RTVSPropertyOp39
 70
     1
102
RTVSPropertyOp40
 70
     1
102
RTVSPropertyOp41
 70
     1
102
RTVSPropertyOp42
 70
     1
102
RTVSPropertyOp43
 70
     1
102
RTVSPropertyOp44
 70
     1
102
RTVSPropertyOp45
 70
     1
102
RTVSPropertyOp46
 70
     1
102
RTVSPropertyOp47
 70
     1
102
RTVSPropertyOp48
 70
     1
102
RTVSPropertyOp49
 70
     1
102
RTVSPropertyOp50
 70
     1
102
RTVSPropertyOp51
 70
     0
102
RTVSPropertyOp52
 70
     0
102
RTVSPropertyOp53
 70
     1
102
RTVSPropertyOp54
 70
     1
102
RTVSPropertyOp55
 70
     1
102
RTVSPropertyOp56
 70
     1
102
RTVSPropertyOp57
 70
     1
102
RTVSPropertyOp58
 70
     1
102
RTVSPropertyOp59
 70
     1
102
RTVSPropertyOp60
 70
     1
102
RTVSPropertyOp61
 70
     1
102
RTVSPropertyOp62
 70
     1
  0
XRECORD
  5
24F6
102
{ACAD_REACTORS
330
24F5
102
}
330
24F5
100
AcDbXrecord
280
     1
102
RTVSPost2010Prop28
280
     0
102
RTVSPost2010PropOp28
 70
     1
102
RTVSPost2010Prop29
280
     1
102
RTVSPost2010PropOp29
 70
     1
102
RTVSPost2010Prop30
280
     1
102
RTVSPost2010PropOp30
 70
     1
102
RTVSPost2010Prop31
280
     0
102
RTVSPost2010PropOp31
 70
     1
102
RTVSPost2010Prop32
280
     0
102
RTVSPost2010PropOp32
 70
     1
102
RTVSPost2010Prop33
280
     0
102
RTVSPost2010PropOp33
 70
     1
102
RTVSPost2010Prop34
280
     0
102
RTVSPost2010PropOp34
 70
     1
102
RTVSPost2010Prop35
280
     0
102
RTVSPost2010PropOp35
 70
     1
102
RTVSPost2010Prop36
280
     0
102
RTVSPost2010PropOp36
 70
     1
102
RTVSPost2010Prop37
 90
       50
102
RTVSPost2010PropOp37
 70
     1
102
RTVSPost2010Prop38
140
0.0
102
RTVSPost2010PropOp38
 70
     1
102
RTVSPost2010Prop39
140
1.0
102
RTVSPost2010PropOp39
 70
     1
102
RTVSPost2010Prop40
 90
        0
102
RTVSPost2010PropOp40
 70
     1
102
RTVSPost2010Prop41ColorIndex
 90
       18
102
RTVSPost2010Prop41ColorRGB
 90
        0
102
RTVSPost2010PropOp41
 70
     1
102
RTVSPost2010Prop42
 90
       50
102
RTVSPost2010PropOp42
 70
     1
102
RTVSPost2010Prop43
 90
        3
102
RTVSPost2010PropOp43
 70
     1
102
RTVSPost2010Prop44ColorIndex
 90
        5
102
RTVSPost2010Prop44ColorRGB
 90
      255
102
RTVSPost2010PropOp44
 70
     1
102
RTVSPost2010Prop45
280
     0
102
RTVSPost2010PropOp45
 70
     1
102
RTVSPost2010Prop46
 90
       50
102
RTVSPost2010PropOp46
 70
     1
102
RTVSPost2010Prop47
 90
       50
102
RTVSPost2010PropOp47
 70
     1
102
RTVSPost2010Prop48
 90
       50
102
RTVSPost2010PropOp48
 70
     1
102
RTVSPost2010Prop49
280
     0
102
RTVSPost2010PropOp49
 70
     1
102
RTVSPost2010Prop50
 90
       50
102
RTVSPost2010PropOp50
 70
     1
102
RTVSPost2010Prop51ColorIndex
 90
      256
102
RTVSPost2010Prop51ColorRGB
 90
-16777216
102
RTVSPost2010PropOp51
 70
     0
102
RTVSPost2010Prop52
140
1.0
102
RTVSPost2010PropOp52
 70
     0
102
RTVSPost2010Prop53
 90
        2
102
RTVSPost2010PropOp53
 70
     1
102
RTVSPost2010Prop54
  1
strokes_ogs.tif
102
RTVSPost2010PropOp54
 70
     1
102
RTVSPost2010Prop55
280
     0
102
RTVSPost2010PropOp55
 70
     1
102
RTVSPost2010Prop56
140
1.0
102
RTVSPost2010PropOp56
 70
     1
102
RTVSPost2010Prop57
140
1.0
102
RTVSPost2010PropOp57
 70
     1
102
RTVSPropertyOp0
 70
     1
102
RTVSPropertyOp1
 70
     1
102
RTVSPropertyOp2
 70
     1
102
RTVSPropertyOp3
 70
     1
102
RTVSPropertyOp4
 70
     1
102
RTVSPropertyOp5
 70
     1
102
RTVSPropertyOp6
 70
     1
102
RTVSPropertyOp7
 70
     1
102
RTVSPropertyOp8
 70
     1
102
RTVSPropertyOp9
 70
     1
102
RTVSPropertyOp10
 70
     1
102
RTVSPropertyOp11
 70
     1
102
RTVSPropertyOp12
 70
     1
102
RTVSPropertyOp13
 70
     1
102
RTVSPropertyOp14
 70
     1
102
RTVSPropertyOp15
 70
     1
102
RTVSPropertyOp16
 70
     1
102
RTVSPropertyOp17
 70
     1
102
RTVSPropertyOp18
 70
     1
102
RTVSPropertyOp19
 70
     1
102
RTVSPropertyOp20
 70
     1
102
RTVSPropertyOp21
 70
     1
102
RTVSPropertyOp22
 70
     1
102
RTVSPropertyOp23
 70
     1
102
RTVSPropertyOp24
 70
     1
102
RTVSPropertyOp25
 70
     1
102
RTVSPropertyOp26
 70
     1
102
RTVSPropertyOp27
 70
     1
102
RTVSPropertyOp28
 70
     1
102
RTVSPropertyOp29
 70
     1
102
RTVSPropertyOp30
 70
     1
102
RTVSPropertyOp31
 70
     1
102
RTVSPropertyOp32
 70
     1
102
RTVSPropertyOp33
 70
     1
102
RTVSPropertyOp34
 70
     1
102
RTVSPropertyOp35
 70
     1
102
RTVSPropertyOp36
 70
     1
102
RTVSPropertyOp37
 70
     1
102
RTVSPropertyOp38
 70
     1
102
RTVSPropertyOp39
 70
     1
102
RTVSPropertyOp40
 70
     1
102
RTVSPropertyOp41
 70
     1
102
RTVSPropertyOp42
 70
     1
102
RTVSPropertyOp43
 70
     1
102
RTVSPropertyOp44
 70
     1
102
RTVSPropertyOp45
 70
     1
102
RTVSPropertyOp46
 70
     1
102
RTVSPropertyOp47
 70
     1
102
RTVSPropertyOp48
 70
     1
102
RTVSPropertyOp49
 70
     1
102
RTVSPropertyOp50
 70
     1
102
RTVSPropertyOp51
 70
     0
102
RTVSPropertyOp52
 70
     0
102
RTVSPropertyOp53
 70
     1
102
RTVSPropertyOp54
 70
     1
102
RTVSPropertyOp55
 70
     1
102
RTVSPropertyOp56
 70
     1
102
RTVSPropertyOp57
 70
     1
102
RTVSPropertyOp58
 70
     1
102
RTVSPropertyOp59
 70
     1
102
RTVSPropertyOp60
 70
     1
102
RTVSPropertyOp61
 70
     1
102
RTVSPropertyOp62
 70
     1
  0
XRECORD
  5
2507
102
{ACAD_REACTORS
330
2506
102
}
330
2506
100
AcDbXrecord
280
     1
102
RTVSPost2010Prop28
280
     0
102
RTVSPost2010PropOp28
 70
     1
102
RTVSPost2010Prop29
280
     1
102
RTVSPost2010PropOp29
 70
     1
102
RTVSPost2010Prop30
280
     1
102
RTVSPost2010PropOp30
 70
     1
102
RTVSPost2010Prop31
280
     0
102
RTVSPost2010PropOp31
 70
     1
102
RTVSPost2010Prop32
280
     0
102
RTVSPost2010PropOp32
 70
     1
102
RTVSPost2010Prop33
280
     0
102
RTVSPost2010PropOp33
 70
     1
102
RTVSPost2010Prop34
280
     0
102
RTVSPost2010PropOp34
 70
     1
102
RTVSPost2010Prop35
280
     0
102
RTVSPost2010PropOp35
 70
     1
102
RTVSPost2010Prop36
280
     0
102
RTVSPost2010PropOp36
 70
     1
102
RTVSPost2010Prop37
 90
       50
102
RTVSPost2010PropOp37
 70
     1
102
RTVSPost2010Prop38
140
0.0
102
RTVSPost2010PropOp38
 70
     1
102
RTVSPost2010Prop39
140
1.0
102
RTVSPost2010PropOp39
 70
     1
102
RTVSPost2010Prop40
 90
        0
102
RTVSPost2010PropOp40
 70
     1
102
RTVSPost2010Prop41ColorIndex
 90
       18
102
RTVSPost2010Prop41ColorRGB
 90
        0
102
RTVSPost2010PropOp41
 70
     1
102
RTVSPost2010Prop42
 90
       50
102
RTVSPost2010PropOp42
 70
     1
102
RTVSPost2010Prop43
 90
        3
102
RTVSPost2010PropOp43
 70
     1
102
RTVSPost2010Prop44ColorIndex
 90
        5
102
RTVSPost2010Prop44ColorRGB
 90
      255
102
RTVSPost2010PropOp44
 70
     1
102
RTVSPost2010Prop45
280
     0
102
RTVSPost2010PropOp45
 70
     1
102
RTVSPost2010Prop46
 90
       50
102
RTVSPost2010PropOp46
 70
     1
102
RTVSPost2010Prop47
 90
       50
102
RTVSPost2010PropOp47
 70
     1
102
RTVSPost2010Prop48
 90
       50
102
RTVSPost2010PropOp48
 70
     1
102
RTVSPost2010Prop49
280
     0
102
RTVSPost2010PropOp49
 70
     1
102
RTVSPost2010Prop50
 90
       50
102
RTVSPost2010PropOp50
 70
     1
102
RTVSPost2010Prop51ColorIndex
 90
      256
102
RTVSPost2010Prop51ColorRGB
 90
-16777216
102
RTVSPost2010PropOp51
 70
     0
102
RTVSPost2010Prop52
140
1.0
102
RTVSPost2010PropOp52
 70
     0
102
RTVSPost2010Prop53
 90
        2
102
RTVSPost2010PropOp53
 70
     1
102
RTVSPost2010Prop54
  1
strokes_ogs.tif
102
RTVSPost2010PropOp54
 70
     1
102
RTVSPost2010Prop55
280
     0
102
RTVSPost2010PropOp55
 70
     1
102
RTVSPost2010Prop56
140
1.0
102
RTVSPost2010PropOp56
 70
     1
102
RTVSPost2010Prop57
140
1.0
102
RTVSPost2010PropOp57
 70
     1
102
RTVSPropertyOp0
 70
     1
102
RTVSPropertyOp1
 70
     1
102
RTVSPropertyOp2
 70
     1
102
RTVSPropertyOp3
 70
     1
102
RTVSPropertyOp4
 70
     1
102
RTVSPropertyOp5
 70
     1
102
RTVSPropertyOp6
 70
     1
102
RTVSPropertyOp7
 70
     1
102
RTVSPropertyOp8
 70
     1
102
RTVSPropertyOp9
 70
     1
102
RTVSPropertyOp10
 70
     1
102
RTVSPropertyOp11
 70
     1
102
RTVSPropertyOp12
 70
     1
102
RTVSPropertyOp13
 70
     1
102
RTVSPropertyOp14
 70
     1
102
RTVSPropertyOp15
 70
     1
102
RTVSPropertyOp16
 70
     1
102
RTVSPropertyOp17
 70
     1
102
RTVSPropertyOp18
 70
     1
102
RTVSPropertyOp19
 70
     1
102
RTVSPropertyOp20
 70
     1
102
RTVSPropertyOp21
 70
     1
102
RTVSPropertyOp22
 70
     1
102
RTVSPropertyOp23
 70
     1
102
RTVSPropertyOp24
 70
     1
102
RTVSPropertyOp25
 70
     1
102
RTVSPropertyOp26
 70
     1
102
RTVSPropertyOp27
 70
     1
102
RTVSPropertyOp28
 70
     1
102
RTVSPropertyOp29
 70
     1
102
RTVSPropertyOp30
 70
     1
102
RTVSPropertyOp31
 70
     1
102
RTVSPropertyOp32
 70
     1
102
RTVSPropertyOp33
 70
     1
102
RTVSPropertyOp34
 70
     1
102
RTVSPropertyOp35
 70
     1
102
RTVSPropertyOp36
 70
     1
102
RTVSPropertyOp37
 70
     1
102
RTVSPropertyOp38
 70
     1
102
RTVSPropertyOp39
 70
     1
102
RTVSPropertyOp40
 70
     1
102
RTVSPropertyOp41
 70
     1
102
RTVSPropertyOp42
 70
     1
102
RTVSPropertyOp43
 70
     1
102
RTVSPropertyOp44
 70
     1
102
RTVSPropertyOp45
 70
     1
102
RTVSPropertyOp46
 70
     1
102
RTVSPropertyOp47
 70
     1
102
RTVSPropertyOp48
 70
     1
102
RTVSPropertyOp49
 70
     1
102
RTVSPropertyOp50
 70
     1
102
RTVSPropertyOp51
 70
     0
102
RTVSPropertyOp52
 70
     0
102
RTVSPropertyOp53
 70
     1
102
RTVSPropertyOp54
 70
     1
102
RTVSPropertyOp55
 70
     1
102
RTVSPropertyOp56
 70
     1
102
RTVSPropertyOp57
 70
     1
102
RTVSPropertyOp58
 70
     1
102
RTVSPropertyOp59
 70
     1
102
RTVSPropertyOp60
 70
     1
102
RTVSPropertyOp61
 70
     1
102
RTVSPropertyOp62
 70
     1
  0
XRECORD
  5
250F
102
{ACAD_REACTORS
330
250E
102
}
330
250E
100
AcDbXrecord
280
     1
102
RTVSPost2010Prop28
280
     0
102
RTVSPost2010PropOp28
 70
     1
102
RTVSPost2010Prop29
280
     1
102
RTVSPost2010PropOp29
 70
     1
102
RTVSPost2010Prop30
280
     1
102
RTVSPost2010PropOp30
 70
     1
102
RTVSPost2010Prop31
280
     0
102
RTVSPost2010PropOp31
 70
     1
102
RTVSPost2010Prop32
280
     0
102
RTVSPost2010PropOp32
 70
     1
102
RTVSPost2010Prop33
280
     0
102
RTVSPost2010PropOp33
 70
     1
102
RTVSPost2010Prop34
280
     0
102
RTVSPost2010PropOp34
 70
     1
102
RTVSPost2010Prop35
280
     0
102
RTVSPost2010PropOp35
 70
     1
102
RTVSPost2010Prop36
280
     0
102
RTVSPost2010PropOp36
 70
     1
102
RTVSPost2010Prop37
 90
       50
102
RTVSPost2010PropOp37
 70
     1
102
RTVSPost2010Prop38
140
0.0
102
RTVSPost2010PropOp38
 70
     1
102
RTVSPost2010Prop39
140
1.0
102
RTVSPost2010PropOp39
 70
     1
102
RTVSPost2010Prop40
 90
        0
102
RTVSPost2010PropOp40
 70
     1
102
RTVSPost2010Prop41ColorIndex
 90
       18
102
RTVSPost2010Prop41ColorRGB
 90
        0
102
RTVSPost2010PropOp41
 70
     1
102
RTVSPost2010Prop42
 90
       50
102
RTVSPost2010PropOp42
 70
     1
102
RTVSPost2010Prop43
 90
        3
102
RTVSPost2010PropOp43
 70
     1
102
RTVSPost2010Prop44ColorIndex
 90
        5
102
RTVSPost2010Prop44ColorRGB
 90
      255
102
RTVSPost2010PropOp44
 70
     1
102
RTVSPost2010Prop45
280
     0
102
RTVSPost2010PropOp45
 70
     1
102
RTVSPost2010Prop46
 90
       50
102
RTVSPost2010PropOp46
 70
     1
102
RTVSPost2010Prop47
 90
       50
102
RTVSPost2010PropOp47
 70
     1
102
RTVSPost2010Prop48
 90
       50
102
RTVSPost2010PropOp48
 70
     1
102
RTVSPost2010Prop49
280
     0
102
RTVSPost2010PropOp49
 70
     1
102
RTVSPost2010Prop50
 90
       50
102
RTVSPost2010PropOp50
 70
     1
102
RTVSPost2010Prop51ColorIndex
 90
      256
102
RTVSPost2010Prop51ColorRGB
 90
-16777216
102
RTVSPost2010PropOp51
 70
     0
102
RTVSPost2010Prop52
140
1.0
102
RTVSPost2010PropOp52
 70
     0
102
RTVSPost2010Prop53
 90
        2
102
RTVSPost2010PropOp53
 70
     1
102
RTVSPost2010Prop54
  1
strokes_ogs.tif
102
RTVSPost2010PropOp54
 70
     1
102
RTVSPost2010Prop55
280
     0
102
RTVSPost2010PropOp55
 70
     1
102
RTVSPost2010Prop56
140
1.0
102
RTVSPost2010PropOp56
 70
     1
102
RTVSPost2010Prop57
140
1.0
102
RTVSPost2010PropOp57
 70
     1
102
RTVSPropertyOp0
 70
     1
102
RTVSPropertyOp1
 70
     1
102
RTVSPropertyOp2
 70
     1
102
RTVSPropertyOp3
 70
     1
102
RTVSPropertyOp4
 70
     1
102
RTVSPropertyOp5
 70
     1
102
RTVSPropertyOp6
 70
     1
102
RTVSPropertyOp7
 70
     1
102
RTVSPropertyOp8
 70
     1
102
RTVSPropertyOp9
 70
     1
102
RTVSPropertyOp10
 70
     1
102
RTVSPropertyOp11
 70
     1
102
RTVSPropertyOp12
 70
     1
102
RTVSPropertyOp13
 70
     1
102
RTVSPropertyOp14
 70
     1
102
RTVSPropertyOp15
 70
     1
102
RTVSPropertyOp16
 70
     1
102
RTVSPropertyOp17
 70
     1
102
RTVSPropertyOp18
 70
     1
102
RTVSPropertyOp19
 70
     1
102
RTVSPropertyOp20
 70
     1
102
RTVSPropertyOp21
 70
     1
102
RTVSPropertyOp22
 70
     1
102
RTVSPropertyOp23
 70
     1
102
RTVSPropertyOp24
 70
     1
102
RTVSPropertyOp25
 70
     1
102
RTVSPropertyOp26
 70
     1
102
RTVSPropertyOp27
 70
     1
102
RTVSPropertyOp28
 70
     1
102
RTVSPropertyOp29
 70
     1
102
RTVSPropertyOp30
 70
     1
102
RTVSPropertyOp31
 70
     1
102
RTVSPropertyOp32
 70
     1
102
RTVSPropertyOp33
 70
     1
102
RTVSPropertyOp34
 70
     1
102
RTVSPropertyOp35
 70
     1
102
RTVSPropertyOp36
 70
     1
102
RTVSPropertyOp37
 70
     1
102
RTVSPropertyOp38
 70
     1
102
RTVSPropertyOp39
 70
     1
102
RTVSPropertyOp40
 70
     1
102
RTVSPropertyOp41
 70
     1
102
RTVSPropertyOp42
 70
     1
102
RTVSPropertyOp43
 70
     1
102
RTVSPropertyOp44
 70
     1
102
RTVSPropertyOp45
 70
     1
102
RTVSPropertyOp46
 70
     1
102
RTVSPropertyOp47
 70
     1
102
RTVSPropertyOp48
 70
     1
102
RTVSPropertyOp49
 70
     1
102
RTVSPropertyOp50
 70
     1
102
RTVSPropertyOp51
 70
     0
102
RTVSPropertyOp52
 70
     0
102
RTVSPropertyOp53
 70
     1
102
RTVSPropertyOp54
 70
     1
102
RTVSPropertyOp55
 70
     1
102
RTVSPropertyOp56
 70
     1
102
RTVSPropertyOp57
 70
     1
102
RTVSPropertyOp58
 70
     1
102
RTVSPropertyOp59
 70
     1
102
RTVSPropertyOp60
 70
     1
102
RTVSPropertyOp61
 70
     1
102
RTVSPropertyOp62
 70
     1
  0
ENDSEC
  0
EOF
