  0
SECTION
  2
HEADER
  9
$ACADVER
  1
AC1018
  9
$ACADMAINTVER
 70
   104
  9
$DWGCODEPAGE
  3
ANSI_932
  9
$INSBASE
 10
0.0
 20
0.0
 30
0.0
  9
$EXTMIN
 10
-0.99461091
 20
-1.28136176
 30
0.0
  9
$EXTMAX
 10
29700.54801098
 20
21001.28202188
 30
0.0
  9
$LIMMIN
 10
0.0
 20
0.0
  9
$LIMMAX
 10
420.0
 20
297.0
  9
$ORTHOMODE
 70
     1
  9
$REGENMODE
 70
     1
  9
$FILLMODE
 70
     1
  9
$QTEXTMODE
 70
     0
  9
$MIRRTEXT
 70
     0
  9
$LTSCALE
 40
1.0
  9
$ATTMODE
 70
     1
  9
$TEXTSIZE
 40
3.5
  9
$TRACEWID
 40
1.0
  9
$TEXTSTYLE
  7
STANDARD
  9
$CLAYER
  8
0
  9
$CELTYPE
  6
BYLAYER
  9
$CECOLOR
 62
   256
  9
$CELTSCALE
 40
1.0
  9
$DISPSILH
 70
     1
  9
$DIMSCALE
 40
1.0
  9
$DIMASZ
 40
2.5
  9
$DIMEXO
 40
0.625
  9
$DIMDLI
 40
3.75
  9
$DIMRND
 40
0.0
  9
$DIMDLE
 40
0.0
  9
$DIMEXE
 40
1.25
  9
$DIMTP
 40
0.0
  9
$DIMTM
 40
0.0
  9
$DIMTXT
 40
2.5
  9
$DIMCEN
 40
2.5
  9
$DIMTSZ
 40
0.0
  9
$DIMTOL
 70
     0
  9
$DIMLIM
 70
     0
  9
$DIMTIH
 70
     1
  9
$DIMTOH
 70
     0
  9
$DIMSE1
 70
     0
  9
$DIMSE2
 70
     0
  9
$DIMTAD
 70
     1
  9
$DIMZIN
 70
     0
  9
$DIMBLK
  1

  9
$DIMASO
 70
     1
  9
$DIMSHO
 70
     1
  9
$DIMPOST
  1

  9
$DIMAPOST
  1

  9
$DIMALT
 70
     0
  9
$DIMALTD
 70
     2
  9
$DIMALTF
 40
0.0394
  9
$DIMLFAC
 40
1.0
  9
$DIMTOFL
 70
     1
  9
$DIMTVP
 40
1.0
  9
$DIMTIX
 70
     0
  9
$DIMSOXD
 70
     0
  9
$DIMSAH
 70
     0
  9
$DIMBLK1
  1

  9
$DIMBLK2
  1

  9
$DIMSTYLE
  2
STANDARD
  9
$DIMCLRD
 70
     0
  9
$DIMCLRE
 70
     0
  9
$DIMCLRT
 70
     0
  9
$DIMTFAC
 40
1.0
  9
$DIMGAP
 40
0.625
  9
$DIMJUST
 70
     0
  9
$DIMSD1
 70
     0
  9
$DIMSD2
 70
     0
  9
$DIMTOLJ
 70
     1
  9
$DIMTZIN
 70
     0
  9
$DIMALTZ
 70
     0
  9
$DIMALTTZ
 70
     0
  9
$DIMUPT
 70
     0
  9
$DIMDEC
 70
     4
  9
$DIMTDEC
 70
     4
  9
$DIMALTU
 70
     2
  9
$DIMALTTD
 70
     2
  9
$DIMTXSTY
  7
STANDARD
  9
$DIMAUNIT
 70
     0
  9
$DIMADEC
 70
     0
  9
$DIMALTRND
 40
0.0
  9
$DIMAZIN
 70
     0
  9
$DIMDSEP
 70
    46
  9
$DIMATFIT
 70
     3
  9
$DIMFRAC
 70
     0
  9
$DIMLDRBLK
  1

  9
$DIMLUNIT
 70
     2
  9
$DIMLWD
 70
    -2
  9
$DIMLWE
 70
    -2
  9
$DIMTMOVE
 70
     2
  9
$LUNITS
 70
     2
  9
$LUPREC
 70
     4
  9
$SKETCHINC
 40
1.0
  9
$FILLETRAD
 40
0.0
  9
$AUNITS
 70
     0
  9
$AUPREC
 70
     0
  9
$MENU
  1
acad
  9
$ELEVATION
 40
0.0
  9
$PELEVATION
 40
0.0
  9
$THICKNESS
 40
0.0
  9
$LIMCHECK
 70
     0
  9
$CHAMFERA
 40
10.0
  9
$CHAMFERB
 40
10.0
  9
$CHAMFERC
 40
0.0
  9
$CHAMFERD
 40
0.0
  9
$SKPOLY
 70
     0
  9
$TDCREATE
 40
2453046.711942454
  9
$TDUCREATE
 40
2453046.336942454
  9
$TDUPDATE
 40
2457185.495257210
  9
$TDUUPDATE
 40
2457185.120257211
  9
$TDINDWG
 40
0.0430120486
  9
$TDUSRTIMER
 40
0.0430120486
  9
$USRTIMER
 70
     1
  9
$ANGBASE
 50
0.0
  9
$ANGDIR
 70
     0
  9
$PDMODE
 70
     0
  9
$PDSIZE
 40
0.0
  9
$PLINEWID
 40
0.0
  9
$SPLFRAME
 70
     0
  9
$SPLINETYPE
 70
     6
  9
$SPLINESEGS
 70
     8
  9
$HANDSEED
  5
65E
  9
$SURFTAB1
 70
     6
  9
$SURFTAB2
 70
     6
  9
$SURFTYPE
 70
     6
  9
$SURFU
 70
     6
  9
$SURFV
 70
     6
  9
$UCSBASE
  2

  9
$UCSNAME
  2

  9
$UCSORG
 10
0.0
 20
0.0
 30
0.0
  9
$UCSXDIR
 10
1.0
 20
0.0
 30
0.0
  9
$UCSYDIR
 10
0.0
 20
1.0
 30
0.0
  9
$UCSORTHOREF
  2

  9
$UCSORTHOVIEW
 70
     0
  9
$UCSORGTOP
 10
0.0
 20
0.0
 30
0.0
  9
$UCSORGBOTTOM
 10
0.0
 20
0.0
 30
0.0
  9
$UCSORGLEFT
 10
0.0
 20
0.0
 30
0.0
  9
$UCSORGRIGHT
 10
0.0
 20
0.0
 30
0.0
  9
$UCSORGFRONT
 10
0.0
 20
0.0
 30
0.0
  9
$UCSORGBACK
 10
0.0
 20
0.0
 30
0.0
  9
$PUCSBASE
  2

  9
$PUCSNAME
  2

  9
$PUCSORG
 10
0.0
 20
0.0
 30
0.0
  9
$PUCSXDIR
 10
1.0
 20
0.0
 30
0.0
  9
$PUCSYDIR
 10
0.0
 20
1.0
 30
0.0
  9
$PUCSORTHOREF
  2

  9
$PUCSORTHOVIEW
 70
     0
  9
$PUCSORGTOP
 10
0.0
 20
0.0
 30
0.0
  9
$PUCSORGBOTTOM
 10
0.0
 20
0.0
 30
0.0
  9
$PUCSORGLEFT
 10
0.0
 20
0.0
 30
0.0
  9
$PUCSORGRIGHT
 10
0.0
 20
0.0
 30
0.0
  9
$PUCSORGFRONT
 10
0.0
 20
0.0
 30
0.0
  9
$PUCSORGBACK
 10
0.0
 20
0.0
 30
0.0
  9
$USERI1
 70
     0
  9
$USERI2
 70
     0
  9
$USERI3
 70
     0
  9
$USERI4
 70
     0
  9
$USERI5
 70
     0
  9
$USERR1
 40
0.0
  9
$USERR2
 40
0.0
  9
$USERR3
 40
0.0
  9
$USERR4
 40
0.0
  9
$USERR5
 40
0.0
  9
$WORLDVIEW
 70
     1
  9
$SHADEDGE
 70
     3
  9
$SHADEDIF
 70
    70
  9
$TILEMODE
 70
     1
  9
$MAXACTVP
 70
    16
  9
$PINSBASE
 10
0.0
 20
0.0
 30
0.0
  9
$PLIMCHECK
 70
     0
  9
$PEXTMIN
 10
1.00000000E+20
 20
1.00000000E+20
 30
1.00000000E+20
  9
$PEXTMAX
 10
-1.00000000E+20
 20
-1.00000000E+20
 30
-1.00000000E+20
  9
$PLIMMIN
 10
0.0
 20
0.0
  9
$PLIMMAX
 10
420.0
 20
297.0
  9
$UNITMODE
 70
     0
  9
$VISRETAIN
 70
     0
  9
$PLINEGEN
 70
     0
  9
$PSLTSCALE
 70
     1
  9
$TREEDEPTH
 70
  3020
  9
$CMLSTYLE
  2
STANDARD
  9
$CMLJUST
 70
     0
  9
$CMLSCALE
 40
1.0
  9
$PROXYGRAPHICS
 70
     1
  9
$MEASUREMENT
 70
     1
  9
$CELWEIGHT
370
    -1
  9
$ENDCAPS
280
     0
  9
$JOINSTYLE
280
     0
  9
$LWDISPLAY
290
     0
  9
$INSUNITS
 70
     0
  9
$HYPERLINKBASE
  1

  9
$STYLESHEET
  1

  9
$XEDIT
290
     1
  9
$CEPSNTYPE
380
     0
  9
$PSTYLEMODE
290
     1
  9
$FINGERPRINTGUID
  2
{D8741881-F33E-4FF7-AA1C-9B04EAFA6C06}
  9
$VERSIONGUID
  2
{6121A509-3312-42DA-A0BF-331A79EC19AD}
  9
$EXTNAMES
290
     1
  9
$PSVPSCALE
 40
0.0
  9
$OLESTARTUP
290
     0
  9
$SORTENTS
280
   127
  9
$INDEXCTL
280
     0
  9
$HIDETEXT
280
     0
  9
$XCLIPFRAME
290
     0
  9
$HALOGAP
280
     0
  9
$OBSCOLOR
 70
   257
  9
$OBSLTYPE
280
     0
  9
$INTERSECTIONDISPLAY
280
     0
  9
$INTERSECTIONCOLOR
 70
   257
  9
$DIMASSOC
280
     1
  9
$PROJECTNAME
  1

  0
ENDSEC
  0
SECTION
  2
CLASSES
  0
CLASS
  1
DICTIONARYVAR
  2
AcDbDictionaryVar
  3
ObjectDBX Classes
 90
        0
 91
        7
280
     0
281
     0
  0
CLASS
  1
ACDBDICTIONARYWDFLT
  2
AcDbDictionaryWithDefault
  3
ObjectDBX Classes
 90
        0
 91
        1
280
     0
281
     0
  0
CLASS
  1
MATERIAL
  2
AcDbMaterial
  3
ObjectDBX Classes
 90
     1153
 91
        3
280
     0
281
     0
  0
CLASS
  1
VISUALSTYLE
  2
AcDbVisualStyle
  3
ObjectDBX Classes
 90
     4095
 91
       24
280
     0
281
     0
  0
CLASS
  1
TABLESTYLE
  2
AcDbTableStyle
  3
ObjectDBX Classes
 90
     4095
 91
        1
280
     0
281
     0
  0
CLASS
  1
SCALE
  2
AcDbScale
  3
ObjectDBX Classes
 90
     1153
 91
       17
280
     0
281
     0
  0
CLASS
  1
MLEADERSTYLE
  2
AcDbMLeaderStyle
  3
ACDB_MLEADERSTYLE_CLASS
 90
     4095
 91
        1
280
     0
281
     0
  0
CLASS
  1
ACDBSECTIONVIEWSTYLE
  2
AcDbSectionViewStyle
  3
ObjectDBX Classes
 90
     1025
 91
        1
280
     0
281
     0
  0
CLASS
  1
ACDBDETAILVIEWSTYLE
  2
AcDbDetailViewStyle
  3
ObjectDBX Classes
 90
     1025
 91
        1
280
     0
281
     0
  0
CLASS
  1
CELLSTYLEMAP
  2
AcDbCellStyleMap
  3
ObjectDBX Classes
 90
     1152
 91
        2
280
     0
281
     0
  0
ENDSEC
  0
SECTION
  2
TABLES
  0
TABLE
  2
VPORT
  5
12
330
0
100
AcDbSymbolTable
 70
     1
  0
VPORT
  5
57A
330
12
100
AcDbSymbolTableRecord
100
AcDbViewportTableRecord
  2
*ACTIVE
 70
     0
 10
0.0
 20
0.0
 11
1.0
 21
1.0
 12
14849.77670004
 22
10500.00033006
 13
0.0
 23
0.0
 14
10.0
 24
10.0
 15
10.0
 25
10.0
 16
0.0
 26
0.0
 36
1.0
 17
0.0
 27
0.0
 37
0.0
 40
22267.7542257
 41
1.34178905
 42
50.0
 43
0.0
 44
0.0
 50
0.0
 51
0.0
 71
     0
 72
   100
 73
     1
 74
     0
 75
     0
 76
     0
 77
     0
 78
     0
281
     0
 65
     1
110
0.0
120
0.0
130
0.0
111
1.0
121
0.0
131
0.0
112
0.0
122
1.0
132
0.0
 79
     0
146
0.0
1001
ACAD_NAV_VCDISPLAY
1070
     1
  0
ENDTAB
  0
TABLE
  2
LTYPE
  5
D
330
0
100
AcDbSymbolTable
 70
     2
  0
LTYPE
  5
E
330
D
100
AcDbSymbolTableRecord
100
AcDbLinetypeTableRecord
  2
BYBLOCK
 70
     0
  3

 72
    65
 73
     0
 40
0.0
  0
LTYPE
  5
F
330
D
100
AcDbSymbolTableRecord
100
AcDbLinetypeTableRecord
  2
BYLAYER
 70
     0
  3

 72
    65
 73
     0
 40
0.0
  0
LTYPE
  5
5
330
D
100
AcDbSymbolTableRecord
100
AcDbLinetypeTableRecord
  2
CONTINUOUS
 70
     0
  3
Solid line
 72
    65
 73
     0
 40
0.0
  0
LTYPE
  5
2EA
330
D
100
AcDbSymbolTableRecord
100
AcDbLinetypeTableRecord
  2
CENTER
 70
     0
  3
____ _ ____ _ ____ _ ____ _ ____ _ ____ _ ____ 
 72
    65
 73
     4
 40
2.0
 49
1.25
 74
     0
 49
-0.25
 74
     0
 49
0.25
 74
     0
 49
-0.25
 74
     0
  0
ENDTAB
  0
TABLE
  2
LAYER
  5
A
330
0
100
AcDbSymbolTable
 70
     4
  0
LAYER
  5
4
330
A
100
AcDbSymbolTableRecord
100
AcDbLayerTableRecord
  2
0
 70
     0
 62
     7
  6
CONTINUOUS
370
    -3
390
57D
  0
LAYER
  5
1E
330
A
100
AcDbSymbolTableRecord
100
AcDbLayerTableRecord
  2
YKK_F1
 70
     0
 62
     7
  6
CONTINUOUS
370
    -3
390
57D
  0
LAYER
  5
C8
330
A
100
AcDbSymbolTableRecord
100
AcDbLayerTableRecord
  2
YKK_A1
 70
     0
 62
     4
  6
CONTINUOUS
370
    -3
390
57D
  0
LAYER
  5
107
330
A
100
AcDbSymbolTableRecord
100
AcDbLayerTableRecord
  2
YKK_A2
 70
     0
 62
     3
  6
CONTINUOUS
370
    -3
390
57D
  0
ENDTAB
  0
TABLE
  2
STYLE
  5
B
330
0
100
AcDbSymbolTable
 70
     3
  0
STYLE
  5
C
330
B
100
AcDbSymbolTableRecord
100
AcDbTextStyleTableRecord
  2
STANDARD
 70
     0
 40
0.0
 41
1.0
 50
0.0
 71
     0
 42
3.5
  3
txt
  4

  0
STYLE
  5
61
330
B
100
AcDbSymbolTableRecord
100
AcDbTextStyleTableRecord
  2
EXTFONT
 70
     0
 40
0.0
 41
1.0
 50
0.0
 71
     0
 42
3.5
  3
txt.shx
  4
EXTFONT.SHX
  0
STYLE
  5
10F
330
B
100
AcDbSymbolTableRecord
100
AcDbTextStyleTableRecord
  2
YKK_SGSTYLE1
 70
     0
 40
0.0
 41
0.8
 50
0.0
 71
     0
 42
60.0
  3
ROMANS.SHX
  4
EXTFONT.SHX
  0
ENDTAB
  0
TABLE
  2
VIEW
  5
10
330
0
100
AcDbSymbolTable
 70
     0
  0
ENDTAB
  0
TABLE
  2
UCS
  5
11
330
0
100
AcDbSymbolTable
 70
     0
  0
ENDTAB
  0
TABLE
  2
APPID
  5
14
330
0
100
AcDbSymbolTable
 70
     7
  0
APPID
  5
15
330
14
100
AcDbSymbolTableRecord
100
AcDbRegAppTableRecord
  2
ACAD
 70
     0
  0
APPID
  5
CA
330
14
100
AcDbSymbolTableRecord
100
AcDbRegAppTableRecord
  2
ACDBBLOCKREPETAG
 70
     0
  0
APPID
  5
C9
330
14
100
AcDbSymbolTableRecord
100
AcDbRegAppTableRecord
  2
YOBJCUT10512090559
 70
     0
  0
APPID
  5
609
330
14
100
AcDbSymbolTableRecord
100
AcDbRegAppTableRecord
  2
ACAD_MLEADERVER
 70
     0
  0
APPID
  5
61E
330
14
100
AcDbSymbolTableRecord
100
AcDbRegAppTableRecord
  2
ACAD_PSEXT
 70
     0
  0
APPID
  5
61F
330
14
100
AcDbSymbolTableRecord
100
AcDbRegAppTableRecord
  2
ACAD_NAV_VCDISPLAY
 70
     0
  0
APPID
  5
620
330
14
100
AcDbSymbolTableRecord
100
AcDbRegAppTableRecord
  2
YKK_AP_LOCKLAYER
 70
     0
  0
ENDTAB
  0
TABLE
  2
DIMSTYLE
  5
16
330
0
100
AcDbSymbolTable
 70
     1
100
AcDbDimStyleTable
 71
     0
  0
DIMSTYLE
105
1C
330
16
100
AcDbSymbolTableRecord
100
AcDbDimStyleTableRecord
  2
STANDARD
 70
     0
279
     2
340
C
  0
ENDTAB
  0
TABLE
  2
BLOCK_RECORD
  5
1
330
0
100
AcDbSymbolTable
 70
     0
  0
BLOCK_RECORD
  5
2
330
1
100
AcDbSymbolTableRecord
100
AcDbBlockTableRecord
  2
*MODEL_SPACE
340
5D0
  0
BLOCK_RECORD
  5
7
330
1
100
AcDbSymbolTableRecord
100
AcDbBlockTableRecord
  2
*PAPER_SPACE
340
5D1
  0
ENDTAB
  0
ENDSEC
  0
SECTION
  2
BLOCKS
  0
BLOCK
  5
3
330
2
100
AcDbEntity
  8
0
100
AcDbBlockBegin
  2
*MODEL_SPACE
 70
     0
 10
0.0
 20
0.0
 30
0.0
  3
*MODEL_SPACE
  1

  0
ENDBLK
  5
6
330
2
100
AcDbEntity
  8
0
100
AcDbBlockEnd
  0
BLOCK
  5
8
330
7
100
AcDbEntity
 67
     1
  8
0
100
AcDbBlockBegin
  2
*PAPER_SPACE
 70
     0
 10
0.0
 20
0.0
 30
0.0
  3
*PAPER_SPACE
  1

  0
ENDBLK
  5
9
330
7
100
AcDbEntity
 67
     1
  8
0
100
AcDbBlockEnd
  0
ENDSEC
  0
SECTION
  2
ENTITIES
  0
LINE
  5
1D
330
2
100
AcDbEntity
  8
YKK_F1
  6
Continuous
100
AcDbLine
 10
900.039
 20
8457.9363
 30
0.0
 11
28800.039
 21
8457.9363
 31
0.0
  0
LINE
  5
1F
330
2
100
AcDbEntity
  8
YKK_F1
  6
Continuous
100
AcDbLine
 10
5550.039
 20
8707.9363
 30
0.0
 11
28800.039
 21
8707.9363
 31
0.0
  0
LINE
  5
20
330
2
100
AcDbEntity
  8
YKK_F1
  6
Continuous
100
AcDbLine
 10
5550.039
 20
8957.9363
 30
0.0
 11
28800.039
 21
8957.9363
 31
0.0
  0
LINE
  5
21
330
2
100
AcDbEntity
  8
YKK_F1
  6
Continuous
100
AcDbLine
 10
900.039
 20
9207.9363
 30
0.0
 11
28800.039
 21
9207.9363
 31
0.0
  0
LINE
  5
22
330
2
100
AcDbEntity
  8
YKK_F1
  6
Continuous
100
AcDbLine
 10
900.039
 20
9457.9363
 30
0.0
 11
28800.039
 21
9457.9363
 31
0.0
  0
LINE
  5
23
330
2
100
AcDbEntity
  8
YKK_F1
  6
Continuous
100
AcDbLine
 10
900.039
 20
9707.9363
 30
0.0
 11
28800.039
 21
9707.9363
 31
0.0
  0
LINE
  5
24
330
2
100
AcDbEntity
  8
YKK_F1
  6
Continuous
100
AcDbLine
 10
900.039
 20
9957.9363
 30
0.0
 11
28800.039
 21
9957.9363
 31
0.0
  0
LINE
  5
25
330
2
100
AcDbEntity
  8
YKK_F1
  6
Continuous
100
AcDbLine
 10
900.039
 20
10457.9363
 30
0.0
 11
28800.039
 21
10457.9363
 31
0.0
  0
LINE
  5
26
330
2
100
AcDbEntity
  8
YKK_F1
  6
Continuous
100
AcDbLine
 10
900.039
 20
4502.9363
 30
0.0
 11
28800.039
 21
4502.9363
 31
0.0
  0
LINE
  5
27
330
2
100
AcDbEntity
  8
YKK_F1
  6
Continuous
100
AcDbLine
 10
900.039
 20
4252.9363
 30
0.0
 11
28800.039
 21
4252.9363
 31
0.0
  0
LINE
  5
28
330
2
100
AcDbEntity
  8
YKK_F1
  6
Continuous
100
AcDbLine
 10
900.039
 20
4002.9363
 30
0.0
 11
28800.039
 21
4002.9363
 31
0.0
  0
LINE
  5
29
330
2
100
AcDbEntity
  8
YKK_F1
  6
Continuous
100
AcDbLine
 10
900.039
 20
3752.9363
 30
0.0
 11
28800.039
 21
3752.9363
 31
0.0
  0
LINE
  5
2A
330
2
100
AcDbEntity
  8
YKK_F1
  6
Continuous
100
AcDbLine
 10
900.039
 20
3502.9363
 30
0.0
 11
28800.039
 21
3502.9363
 31
0.0
  0
LINE
  5
2B
330
2
100
AcDbEntity
  8
YKK_F1
  6
Continuous
100
AcDbLine
 10
900.039
 20
3252.9363
 30
0.0
 11
28800.039
 21
3252.9363
 31
0.0
  0
LINE
  5
2C
330
2
100
AcDbEntity
  8
YKK_F1
  6
Continuous
100
AcDbLine
 10
5550.039
 20
3002.9363
 30
0.0
 11
28800.039
 21
3002.9363
 31
0.0
  0
LINE
  5
2D
330
2
100
AcDbEntity
  8
YKK_F1
  6
Continuous
100
AcDbLine
 10
5550.039
 20
2752.9363
 30
0.0
 11
28800.039
 21
2752.9363
 31
0.0
  0
LINE
  5
2E
330
2
100
AcDbEntity
  8
YKK_F1
  6
Continuous
100
AcDbLine
 10
900.039
 20
2502.9363
 30
0.0
 11
28800.039
 21
2502.9363
 31
0.0
  0
LINE
  5
2F
330
2
100
AcDbEntity
  8
YKK_F1
  6
Continuous
100
AcDbLine
 10
900.039
 20
7457.9363
 30
0.0
 11
28800.039
 21
7457.9363
 31
0.0
  0
LINE
  5
30
330
2
100
AcDbEntity
  8
YKK_F1
  6
Continuous
100
AcDbLine
 10
900.039
 20
7707.9363
 30
0.0
 11
28800.039
 21
7707.9363
 31
0.0
  0
LINE
  5
31
330
2
100
AcDbEntity
  8
YKK_F1
  6
Continuous
100
AcDbLine
 10
900.039
 20
8207.9363
 30
0.0
 11
28800.039
 21
8207.9363
 31
0.0
  0
LINE
  5
32
330
2
100
AcDbEntity
  8
YKK_F1
  6
Continuous
100
AcDbLine
 10
900.039
 20
2252.9363
 30
0.0
 11
28800.039
 21
2252.9363
 31
0.0
  0
LINE
  5
33
330
2
100
AcDbEntity
  8
YKK_F1
  6
Continuous
100
AcDbLine
 10
659.77445
 20
1949.4363
 30
0.0
 11
29040.229
 21
1949.4363
 31
0.0
  0
LINE
  5
34
330
2
100
AcDbEntity
  8
YKK_F1
  6
Continuous
100
AcDbLine
 10
29027.821
 20
662.59406
 30
0.0
 11
672.18069
 21
662.59406
 31
0.0
  0
LINE
  5
35
330
2
100
AcDbEntity
  8
YKK_F1
  6
Continuous
100
AcDbLine
 10
29015.417
 20
675.00009
 30
0.0
 11
685.15046
 21
675.00009
 31
0.0
  0
LINE
  5
36
330
2
100
AcDbEntity
  8
YKK_F1
  6
Continuous
100
AcDbLine
 10
29002.445
 20
687.97002
 30
0.0
 11
697.5567
 21
687.97002
 31
0.0
  0
LINE
  5
37
330
2
100
AcDbEntity
  8
YKK_F1
  6
Continuous
100
AcDbLine
 10
28990.039
 20
700.94001
 30
0.0
 11
709.96201
 21
700.94001
 31
0.0
  0
LINE
  5
38
330
2
100
AcDbEntity
  8
YKK_F1
  6
Continuous
100
AcDbLine
 10
29040.229
 20
650.18799
 30
0.0
 11
659.77445
 21
650.18799
 31
0.0
  0
LINE
  5
39
330
2
100
AcDbEntity
  8
YKK_F1
  6
Continuous
100
AcDbLine
 10
29190.79
 20
500.75202
 30
0.0
 11
509.77446
 21
500.75202
 31
0.0
  0
LINE
  5
3A
330
2
100
AcDbEntity
  8
YKK_F1
  6
Continuous
100
AcDbLine
 10
900.039
 20
14162.9363
 30
0.0
 11
28800.039
 21
14162.9363
 31
0.0
  0
LINE
  5
3B
330
2
100
AcDbEntity
  8
YKK_F1
  6
Continuous
100
AcDbLine
 10
900.039
 20
16412.9363
 30
0.0
 11
28800.039
 21
16412.9363
 31
0.0
  0
LINE
  5
3C
330
2
100
AcDbEntity
  8
YKK_F1
  6
Continuous
100
AcDbLine
 10
900.039
 20
16162.9363
 30
0.0
 11
28800.039
 21
16162.9363
 31
0.0
  0
LINE
  5
3D
330
2
100
AcDbEntity
  8
YKK_F1
  6
Continuous
100
AcDbLine
 10
900.039
 20
15912.9363
 30
0.0
 11
28800.039
 21
15912.9363
 31
0.0
  0
LINE
  5
3E
330
2
100
AcDbEntity
  8
YKK_F1
  6
Continuous
100
AcDbLine
 10
900.039
 20
15662.9363
 30
0.0
 11
28800.039
 21
15662.9363
 31
0.0
  0
LINE
  5
3F
330
2
100
AcDbEntity
  8
YKK_F1
  6
Continuous
100
AcDbLine
 10
900.039
 20
15412.9363
 30
0.0
 11
28800.039
 21
15412.9363
 31
0.0
  0
LINE
  5
40
330
2
100
AcDbEntity
  8
YKK_F1
  6
Continuous
100
AcDbLine
 10
900.039
 20
15162.9363
 30
0.0
 11
28800.039
 21
15162.9363
 31
0.0
  0
LINE
  5
41
330
2
100
AcDbEntity
  8
YKK_F1
  6
Continuous
100
AcDbLine
 10
5550.039
 20
14912.9363
 30
0.0
 11
28800.039
 21
14912.9363
 31
0.0
  0
LINE
  5
42
330
2
100
AcDbEntity
  8
YKK_F1
  6
Continuous
100
AcDbLine
 10
5550.039
 20
14662.9363
 30
0.0
 11
28800.039
 21
14662.9363
 31
0.0
  0
LINE
  5
43
330
2
100
AcDbEntity
  8
YKK_F1
  6
Continuous
100
AcDbLine
 10
900.039
 20
14412.9363
 30
0.0
 11
28800.039
 21
14412.9363
 31
0.0
  0
LINE
  5
44
330
2
100
AcDbEntity
  8
YKK_F1
  6
Continuous
100
AcDbLine
 10
900.039
 20
19367.9363
 30
0.0
 11
28800.039
 21
19367.9363
 31
0.0
  0
LINE
  5
45
330
2
100
AcDbEntity
  8
YKK_F1
  6
Continuous
100
AcDbLine
 10
900.039
 20
19617.9363
 30
0.0
 11
28800.039
 21
19617.9363
 31
0.0
  0
LINE
  5
46
330
2
100
AcDbEntity
  8
YKK_F1
  6
Continuous
100
AcDbLine
 10
900.039
 20
13662.9363
 30
0.0
 11
28800.039
 21
13662.9363
 31
0.0
  0
LINE
  5
47
330
2
100
AcDbEntity
  8
YKK_F1
  6
Continuous
100
AcDbLine
 10
900.039
 20
13412.9363
 30
0.0
 11
28800.039
 21
13412.9363
 31
0.0
  0
LINE
  5
48
330
2
100
AcDbEntity
  8
YKK_F1
  6
Continuous
100
AcDbLine
 10
900.039
 20
20117.9363
 30
0.0
 11
28800.039
 21
20117.9363
 31
0.0
  0
LINE
  5
49
330
2
100
AcDbEntity
  8
YKK_F1
  6
Continuous
100
AcDbLine
 10
709.96201
 20
20287.219
 30
0.0
 11
28990.039
 21
20287.219
 31
0.0
  0
LINE
  5
4A
330
2
100
AcDbEntity
  8
YKK_F1
  6
Continuous
100
AcDbLine
 10
509.77446
 20
20487.406
 30
0.0
 11
29190.79
 21
20487.406
 31
0.0
  0
LINE
  5
4B
330
2
100
AcDbEntity
  8
YKK_F1
  6
Continuous
100
AcDbLine
 10
697.5567
 20
20299.624
 30
0.0
 11
29002.445
 21
20299.624
 31
0.0
  0
LINE
  5
4C
330
2
100
AcDbEntity
  8
YKK_F1
  6
Continuous
100
AcDbLine
 10
685.15046
 20
20312.594
 30
0.0
 11
29015.417
 21
20312.594
 31
0.0
  0
LINE
  5
4D
330
2
100
AcDbEntity
  8
YKK_F1
  6
Continuous
100
AcDbLine
 10
672.18069
 20
20325.566
 30
0.0
 11
29027.821
 21
20325.566
 31
0.0
  0
LINE
  5
4E
330
2
100
AcDbEntity
  8
YKK_F1
  6
Continuous
100
AcDbLine
 10
659.77445
 20
20337.97
 30
0.0
 11
29040.229
 21
20337.97
 31
0.0
  0
LINE
  5
4F
330
2
100
AcDbEntity
  8
YKK_F1
100
AcDbLine
 10
0.0
 20
21000.0
 30
0.0
 11
29700.0
 21
21000.0
 31
0.0
  0
LINE
  5
50
330
2
100
AcDbEntity
  8
YKK_F1
100
AcDbLine
 10
0.0
 20
0.0
 30
0.0
 11
29700.0
 21
0.0
 31
0.0
  0
LINE
  5
51
330
2
100
AcDbEntity
  8
YKK_F1
  6
Continuous
100
AcDbLine
 10
900.039
 20
10207.9363
 30
0.0
 11
28800.039
 21
10207.9363
 31
0.0
  0
LINE
  5
52
330
2
100
AcDbEntity
  8
YKK_F1
  6
Continuous
100
AcDbLine
 10
900.039
 20
2252.9363
 30
0.0
 11
900.039
 21
20117.9363
 31
0.0
  0
LINE
  5
53
330
2
100
AcDbEntity
  8
YKK_F1
  6
Continuous
100
AcDbLine
 10
709.96201
 20
700.94001
 30
0.0
 11
709.96201
 21
20287.219
 31
0.0
  0
LINE
  5
54
330
2
100
AcDbEntity
  8
YKK_F1
  6
Continuous
100
AcDbLine
 10
697.5567
 20
687.97002
 30
0.0
 11
697.5567
 21
20299.624
 31
0.0
  0
LINE
  5
55
330
2
100
AcDbEntity
  8
YKK_F1
  6
Continuous
100
AcDbLine
 10
685.15046
 20
675.00009
 30
0.0
 11
685.15046
 21
20312.594
 31
0.0
  0
LINE
  5
56
330
2
100
AcDbEntity
  8
YKK_F1
  6
Continuous
100
AcDbLine
 10
672.18069
 20
662.59406
 30
0.0
 11
672.18069
 21
20325.566
 31
0.0
  0
LINE
  5
57
330
2
100
AcDbEntity
  8
YKK_F1
  6
Continuous
100
AcDbLine
 10
659.77445
 20
650.18799
 30
0.0
 11
659.77445
 21
20337.97
 31
0.0
  0
LINE
  5
58
330
2
100
AcDbEntity
  8
YKK_F1
  6
Continuous
100
AcDbLine
 10
509.77446
 20
500.75202
 30
0.0
 11
509.77446
 21
20487.406
 31
0.0
  0
LINE
  5
59
330
2
100
AcDbEntity
  8
YKK_F1
  6
Continuous
100
AcDbLine
 10
5550.039
 20
2252.9363
 30
0.0
 11
5550.039
 21
20117.9363
 31
0.0
  0
LINE
  5
5A
330
2
100
AcDbEntity
  8
YKK_F1
  6
Continuous
100
AcDbLine
 10
10200.039
 20
2252.9363
 30
0.0
 11
10200.039
 21
20117.9363
 31
0.0
  0
LINE
  5
5B
330
2
100
AcDbEntity
  8
YKK_F1
100
AcDbLine
 10
0.0
 20
0.0
 30
0.0
 11
0.0
 21
21000.0
 31
0.0
  0
LINE
  5
5C
330
2
100
AcDbEntity
  8
YKK_F1
  6
Continuous
100
AcDbLine
 10
10604.323
 20
950.75203
 30
0.0
 11
659.77445
 21
950.75203
 31
0.0
  0
LINE
  5
5D
330
2
100
AcDbEntity
  8
YKK_F1
  6
Continuous
100
AcDbLine
 10
10604.323
 20
1200.5641
 30
0.0
 11
659.77445
 21
1200.5641
 31
0.0
  0
LINE
  5
5E
330
2
100
AcDbEntity
  8
YKK_F1
  6
Continuous
100
AcDbLine
 10
10604.323
 20
1450.376
 30
0.0
 11
659.77445
 21
1450.376
 31
0.0
  0
LINE
  5
5F
330
2
100
AcDbEntity
  8
YKK_F1
  6
Continuous
100
AcDbLine
 10
10604.323
 20
1701.3159
 30
0.0
 11
659.77445
 21
1701.3159
 31
0.0
  0
TEXT
  5
60
330
2
100
AcDbEntity
  8
YKK_F1
100
AcDbText
 10
2183.67067185
 20
3772.9363
 30
0.0
 40
200.0
  1
材　　　　　　　質
  7
EXTFONT
 72
     1
 11
3237.00400518
 21
3772.9363
 31
0.0
100
AcDbText
  0
TEXT
  5
62
330
2
100
AcDbEntity
  8
YKK_F1
100
AcDbText
 10
759.96201
 20
1776.3159
 30
0.0
 40
100.0
  1
付記：
  7
EXTFONT
100
AcDbText
  0
TEXT
  5
63
330
2
100
AcDbEntity
  8
YKK_F1
100
AcDbText
 10
1937.00400518
 20
2647.9363
 30
0.0
 40
200.0
  1
(付　　属　　金　　物)
  7
EXTFONT
 72
     1
 11
3237.00400518
 21
2647.9363
 31
0.0
100
AcDbText
  0
TEXT
  5
64
330
2
100
AcDbEntity
  8
YKK_F1
100
AcDbText
 10
2063.67067185
 20
2897.9363
 30
0.0
 40
200.0
  1
建　　具　　金　　物
  7
EXTFONT
 72
     1
 11
3237.00400518
 21
2897.9363
 31
0.0
100
AcDbText
  0
TEXT
  5
65
330
2
100
AcDbEntity
  8
YKK_F1
100
AcDbText
 10
1817.00400518
 20
3272.9363
 30
0.0
 40
200.0
  1
ガラス・種類・ガラス押え
  7
EXTFONT
 72
     1
 11
3237.00400518
 21
3272.9363
 31
0.0
100
AcDbText
  0
TEXT
  5
66
330
2
100
AcDbEntity
  8
YKK_F1
100
AcDbText
 10
2183.67067185
 20
2272.9363
 30
0.0
 40
200.0
  1
備　　　　　　　考
  7
EXTFONT
 72
     1
 11
3237.00400518
 21
2272.9363
 31
0.0
100
AcDbText
  0
TEXT
  5
67
330
2
100
AcDbEntity
  8
YKK_F1
100
AcDbText
 10
2183.67067185
 20
3522.9363
 30
0.0
 40
200.0
  1
仕　　　　　　　上
  7
EXTFONT
 72
     1
 11
3237.00400518
 21
3522.9363
 31
0.0
100
AcDbText
  0
TEXT
  5
68
330
2
100
AcDbEntity
  8
YKK_F1
100
AcDbText
 10
1259.96201
 20
949.6242
 30
0.0
 40
250.0
  1
*
  7
EXTFONT
100
AcDbText
  0
TEXT
  5
69
330
2
100
AcDbEntity
  8
YKK_F1
100
AcDbText
 10
1259.96201
 20
699.6242
 30
0.0
 40
250.0
  1
*
  7
EXTFONT
100
AcDbText
  0
TEXT
  5
6A
330
2
100
AcDbEntity
  8
YKK_F1
100
AcDbText
 10
1259.96201
 20
1200.376
 30
0.0
 40
250.0
  1
*
  7
EXTFONT
100
AcDbText
  0
TEXT
  5
6B
330
2
100
AcDbEntity
  8
YKK_F1
100
AcDbText
 10
1259.96201
 20
1701.3159
 30
0.0
 40
250.0
  1
*
  7
EXTFONT
100
AcDbText
  0
TEXT
  5
6C
330
2
100
AcDbEntity
  8
YKK_F1
100
AcDbText
 10
1259.96201
 20
1450.376
 30
0.0
 40
250.0
  1
*
  7
EXTFONT
100
AcDbText
  0
TEXT
  5
6D
330
2
100
AcDbEntity
  8
YKK_F1
100
AcDbText
 10
2190.33733852
 20
5900.4363
 30
0.0
 40
200.0
  1
姿　　　　　　　図
  7
EXTFONT
 72
     1
 11
3237.00400518
 21
5900.4363
 31
0.0
100
AcDbText
  0
TEXT
  5
6E
330
2
100
AcDbEntity
  8
YKK_F1
100
AcDbText
 10
1703.67067185
 20
4272.9363
 30
0.0
 40
200.0
  1
型式・防音・エアタイト仕様
  7
EXTFONT
 72
     1
 11
3237.00400518
 21
4272.9363
 31
0.0
100
AcDbText
  0
TEXT
  5
6F
330
2
100
AcDbEntity
  8
YKK_F1
100
AcDbText
 10
1283.67067185
 20
4022.9363
 30
0.0
 40
200.0
  1
寸法・見付・見込（枠見付・枠見込）
  7
EXTFONT
 72
     1
 11
3237.00400518
 21
4022.9363
 31
0.0
100
AcDbText
  0
TEXT
  5
70
330
2
100
AcDbEntity
  8
YKK_F1
100
AcDbText
 10
2183.67067185
 20
7832.9363
 30
0.0
 40
200.0
  1
符　号　・　数　量
  7
EXTFONT
 72
     1
 11
3237.00400518
 21
7832.9363
 31
0.0
100
AcDbText
  0
TEXT
  5
71
330
2
100
AcDbEntity
  8
YKK_F1
100
AcDbText
 10
2183.67067185
 20
7477.9363
 30
0.0
 40
200.0
  1
使用箇所・防火仕様
  7
EXTFONT
 72
     1
 11
3237.00400518
 21
7477.9363
 31
0.0
100
AcDbText
  0
TEXT
  5
72
330
2
100
AcDbEntity
  8
YKK_F1
100
AcDbText
 10
1703.67067185
 20
10227.9363
 30
0.0
 40
200.0
  1
型式・防音・エアタイト仕様
  7
EXTFONT
 72
     1
 11
3237.00400518
 21
10227.9363
 31
0.0
100
AcDbText
  0
TEXT
  5
73
330
2
100
AcDbEntity
  8
YKK_F1
100
AcDbText
 10
1937.00400518
 20
8602.9363
 30
0.0
 40
200.0
  1
(付　　属　　金　　物)
  7
EXTFONT
 72
     1
 11
3237.00400518
 21
8602.9363
 31
0.0
100
AcDbText
  0
TEXT
  5
74
330
2
100
AcDbEntity
  8
YKK_F1
100
AcDbText
 10
2063.67067185
 20
8852.9363
 30
0.0
 40
200.0
  1
建　　具　　金　　物
  7
EXTFONT
 72
     1
 11
3237.00400518
 21
8852.9363
 31
0.0
100
AcDbText
  0
TEXT
  5
75
330
2
100
AcDbEntity
  8
YKK_F1
100
AcDbText
 10
1817.00400518
 20
9227.9363
 30
0.0
 40
200.0
  1
ガラス・種類・ガラス押え
  7
EXTFONT
 72
     1
 11
3237.00400518
 21
9227.9363
 31
0.0
100
AcDbText
  0
TEXT
  5
76
330
2
100
AcDbEntity
  8
YKK_F1
100
AcDbText
 10
2183.67067185
 20
9727.9363
 30
0.0
 40
200.0
  1
材　　　　　　　質
  7
EXTFONT
 72
     1
 11
3237.00400518
 21
9727.9363
 31
0.0
100
AcDbText
  0
TEXT
  5
77
330
2
100
AcDbEntity
  8
YKK_F1
100
AcDbText
 10
2183.67067185
 20
8227.9363
 30
0.0
 40
200.0
  1
備　　　　　　　考
  7
EXTFONT
 72
     1
 11
3237.00400518
 21
8227.9363
 31
0.0
100
AcDbText
  0
TEXT
  5
78
330
2
100
AcDbEntity
  8
YKK_F1
100
AcDbText
 10
2183.67067185
 20
9477.9363
 30
0.0
 40
200.0
  1
仕　　　　　　　上
  7
EXTFONT
 72
     1
 11
3237.00400518
 21
9477.9363
 31
0.0
100
AcDbText
  0
TEXT
  5
79
330
2
100
AcDbEntity
  8
YKK_F1
100
AcDbText
 10
1283.67067185
 20
9977.9363
 30
0.0
 40
200.0
  1
寸法・見付・見込（枠見付・枠見込）
  7
EXTFONT
 72
     1
 11
3237.00400518
 21
9977.9363
 31
0.0
100
AcDbText
  0
TEXT
  5
7A
330
2
100
AcDbEntity
  8
0
100
AcDbText
 10
10300.039
 20
3777.9363
 30
0.0
 40
200.0
  1
＊
  7
EXTFONT
100
AcDbText
  0
TEXT
  5
7B
330
2
100
AcDbEntity
  8
0
100
AcDbText
 10
5650.039
 20
3777.9363
 30
0.0
 40
200.0
  1
＊
  7
EXTFONT
100
AcDbText
  0
TEXT
  5
7C
330
2
100
AcDbEntity
  8
0
100
AcDbText
 10
5650.039
 20
3027.9363
 30
0.0
 40
200.0
  1
＊
  7
EXTFONT
100
AcDbText
  0
TEXT
  5
7D
330
2
100
AcDbEntity
  8
0
100
AcDbText
 10
5650.039
 20
2527.9363
 30
0.0
 40
200.0
  1
＊
  7
EXTFONT
100
AcDbText
  0
TEXT
  5
7E
330
2
100
AcDbEntity
  8
0
100
AcDbText
 10
5650.039
 20
2277.9363
 30
0.0
 40
200.0
  1
＊
  7
EXTFONT
100
AcDbText
  0
TEXT
  5
7F
330
2
100
AcDbEntity
  8
0
100
AcDbText
 10
5650.039
 20
2777.9363
 30
0.0
 40
200.0
  1
＊
  7
EXTFONT
100
AcDbText
  0
TEXT
  5
80
330
2
100
AcDbEntity
  8
0
100
AcDbText
 10
5650.039
 20
3277.9363
 30
0.0
 40
200.0
  1
＊
  7
EXTFONT
100
AcDbText
  0
TEXT
  5
81
330
2
100
AcDbEntity
  8
0
100
AcDbText
 10
5650.039
 20
3527.9363
 30
0.0
 40
200.0
  1
＊
  7
EXTFONT
100
AcDbText
  0
LINE
  5
82
330
2
100
AcDbEntity
  8
YKK_F1
  6
Continuous
100
AcDbLine
 10
12103.196
 20
1949.4363
 30
0.0
 11
12103.196
 21
650.18799
 31
0.0
  0
LINE
  5
83
330
2
100
AcDbEntity
  8
YKK_F1
  6
Continuous
100
AcDbLine
 10
10604.323
 20
1949.4363
 30
0.0
 11
10604.323
 21
650.18799
 31
0.0
  0
LINE
  5
84
330
2
100
AcDbEntity
  8
YKK_F1
  6
Continuous
100
AcDbLine
 10
12103.196
 20
1117.6692
 30
0.0
 11
10604.323
 21
1117.6692
 31
0.0
  0
LINE
  5
85
330
2
100
AcDbEntity
  8
YKK_F1
  6
Continuous
100
AcDbLine
 10
12103.196
 20
1534.3986
 30
0.0
 11
10604.323
 21
1534.3986
 31
0.0
  0
TEXT
  5
86
330
2
100
AcDbEntity
  8
YKK_F1
  6
Continuous
100
AcDbText
 10
10820.301
 20
750.0
 30
0.0
 40
150.0
  1
**,**,**
100
AcDbText
  0
TEXT
  5
87
330
2
100
AcDbEntity
  8
YKK_F1
  6
Continuous
100
AcDbText
 10
10820.301
 20
1166.7294
 30
0.0
 40
150.0
  1
**,**,**
100
AcDbText
  0
TEXT
  5
88
330
2
100
AcDbEntity
  8
YKK_F1
  6
Continuous
100
AcDbText
 10
10820.301
 20
1583.4588
 30
0.0
 40
150.0
  1
**,**,**
100
AcDbText
  0
TEXT
  5
89
330
2
100
AcDbEntity
  8
YKK_F1
100
AcDbText
 10
10654.323
 20
1401.2782
 30
0.0
 40
100.0
  1
設計　　年　　月　　日
  7
EXTFONT
100
AcDbText
  0
TEXT
  5
8A
330
2
100
AcDbEntity
  8
YKK_F1
100
AcDbText
 10
10654.323
 20
984.5488
 30
0.0
 40
100.0
  1
測量　　年　　月　　日
  7
EXTFONT
100
AcDbText
  0
TEXT
  5
8B
330
2
100
AcDbEntity
  8
YKK_F1
100
AcDbText
 10
10654.323
 20
1816.3159
 30
0.0
 40
100.0
  1
審査　　年　　月　　日
  7
EXTFONT
100
AcDbText
  0
TEXT
  5
8C
330
2
100
AcDbEntity
  8
0
100
AcDbText
 10
10300.039
 20
3027.9363
 30
0.0
 40
200.0
  1
＊
  7
EXTFONT
100
AcDbText
  0
TEXT
  5
8D
330
2
100
AcDbEntity
  8
0
100
AcDbText
 10
10300.039
 20
2527.9363
 30
0.0
 40
200.0
  1
＊
  7
EXTFONT
100
AcDbText
  0
TEXT
  5
8E
330
2
100
AcDbEntity
  8
0
100
AcDbText
 10
10300.039
 20
2277.9363
 30
0.0
 40
200.0
  1
＊
  7
EXTFONT
100
AcDbText
  0
TEXT
  5
8F
330
2
100
AcDbEntity
  8
0
100
AcDbText
 10
10300.039
 20
2777.9363
 30
0.0
 40
200.0
  1
＊
  7
EXTFONT
100
AcDbText
  0
TEXT
  5
90
330
2
100
AcDbEntity
  8
0
100
AcDbText
 10
10300.039
 20
3277.9363
 30
0.0
 40
200.0
  1
＊
  7
EXTFONT
100
AcDbText
  0
TEXT
  5
91
330
2
100
AcDbEntity
  8
0
100
AcDbText
 10
10300.039
 20
3527.9363
 30
0.0
 40
200.0
  1
＊
  7
EXTFONT
100
AcDbText
  0
TEXT
  5
92
330
2
100
AcDbEntity
  8
0
100
AcDbText
 10
5650.039
 20
4277.9363
 30
0.0
 40
200.0
  1
＊
  7
EXTFONT
100
AcDbText
  0
TEXT
  5
93
330
2
100
AcDbEntity
  8
0
100
AcDbText
 10
5650.039
 20
4027.9363
 30
0.0
 40
200.0
  1
＊
  7
EXTFONT
100
AcDbText
  0
TEXT
  5
94
330
2
100
AcDbEntity
  8
0
100
AcDbText
 10
5650.039
 20
8482.9363
 30
0.0
 40
200.0
  1
ドアクローザー・アームストッパー
  7
EXTFONT
100
AcDbText
  0
TEXT
  5
95
330
2
100
AcDbEntity
  8
0
100
AcDbText
 10
5650.039
 20
8732.9363
 30
0.0
 40
200.0
  1
レバーハンドル錠・握り玉錠・
  7
EXTFONT
100
AcDbText
  0
TEXT
  5
96
330
2
100
AcDbEntity
  8
0
100
AcDbText
 10
5650.039
 20
8982.9363
 30
0.0
 40
200.0
  1
小口キャップ・フランス落し・丁番・
  7
EXTFONT
100
AcDbText
  0
TEXT
  5
97
330
2
100
AcDbEntity
  8
0
100
AcDbText
 10
5650.039
 20
8232.9363
 30
0.0
 40
200.0
  1
YKKAP　EXIMA51e同等品
  7
EXTFONT
100
AcDbText
  0
TEXT
  5
98
330
2
100
AcDbEntity
  8
0
100
AcDbText
 10
5650.039
 20
9482.9363
 30
0.0
 40
200.0
  1
シルバー･ｶﾗｰ(ブロンズ､ステン､ブラック)
  7
EXTFONT
100
AcDbText
  0
TEXT
  5
99
330
2
100
AcDbEntity
  8
0
100
AcDbText
 10
5650.039
 20
9982.9363
 30
0.0
 40
200.0
  1
W=900  H=2,450  見込100
  7
EXTFONT
100
AcDbText
  0
TEXT
  5
9A
330
2
100
AcDbEntity
  8
0
100
AcDbText
 10
5650.039
 20
10232.9363
 30
0.0
 40
170.0
  1
片開きドア 【丁番ドア】 中桟なし (FIX段窓)
  7
EXTFONT
100
AcDbText
  0
TEXT
  5
9B
330
2
100
AcDbEntity
  8
0
100
AcDbText
 10
5850.039
 20
7957.9363
 30
0.0
 40
200.0
  1
＊
  7
EXTFONT
100
AcDbText
  0
CIRCLE
  5
9C
330
2
100
AcDbEntity
  8
YKK_F1
100
AcDbCircle
 10
5950.039
 20
7957.9363
 30
0.0
 40
233.3333333333333
  0
LINE
  5
9D
330
2
100
AcDbEntity
  8
YKK_F1
  6
Continuous
100
AcDbLine
 10
5716.70566667
 20
7957.9363
 30
0.0
 11
6183.37233333
 21
7957.9363
 31
0.0
  0
TEXT
  5
9E
330
2
100
AcDbEntity
  8
0
100
AcDbText
 10
5650.039
 20
7482.9363
 30
0.0
 40
200.0
  1
＊
  7
EXTFONT
100
AcDbText
  0
TEXT
  5
9F
330
2
100
AcDbEntity
  8
YKK_F1
100
AcDbText
 10
5790.039
 20
7757.9363
 30
0.0
 40
160.0
  1
ＡＷ
  7
EXTFONT
100
AcDbText
  0
TEXT
  5
A0
330
2
100
AcDbEntity
  8
0
100
AcDbText
 10
5650.039
 20
9232.9363
 30
0.0
 40
200.0
  1
FL・透明
  7
EXTFONT
100
AcDbText
  0
TEXT
  5
A1
330
2
100
AcDbEntity
  8
0
100
AcDbText
 10
5650.039
 20
9732.9363
 30
0.0
 40
200.0
  1
アルミ製
  7
EXTFONT
100
AcDbText
  0
TEXT
  5
A2
330
2
100
AcDbEntity
  8
0
100
AcDbText
 10
8950.039
 20
7482.9363
 30
0.0
 40
200.0
  1
＊
  7
EXTFONT
100
AcDbText
  0
TEXT
  5
A3
330
2
100
AcDbEntity
  8
0
100
AcDbText
 10
9250.039
 20
7732.9363
 30
0.0
 40
200.0
  1
＊
  7
EXTFONT
100
AcDbText
  0
TEXT
  5
A4
330
2
100
AcDbEntity
  8
YKK_F1
100
AcDbText
 10
9670.039
 20
7732.9363
 30
0.0
 40
200.0
  1
箇所
  7
EXTFONT
100
AcDbText
  0
TEXT
  5
A5
330
2
100
AcDbEntity
  8
0
100
AcDbText
 10
10300.039
 20
4277.9363
 30
0.0
 40
200.0
  1
＊
  7
EXTFONT
100
AcDbText
  0
TEXT
  5
A6
330
2
100
AcDbEntity
  8
0
100
AcDbText
 10
10300.039
 20
4027.9363
 30
0.0
 40
200.0
  1
＊
  7
EXTFONT
100
AcDbText
  0
TEXT
  5
A7
330
2
100
AcDbEntity
  8
0
100
AcDbText
 10
10300.039
 20
9482.9363
 30
0.0
 40
200.0
  1
シルバー･ｶﾗｰ(ブロンズ､ステン､ブラック)
  7
EXTFONT
100
AcDbText
  0
TEXT
  5
A8
330
2
100
AcDbEntity
  8
0
100
AcDbText
 10
10300.039
 20
8232.9363
 30
0.0
 40
200.0
  1
YKKAP　EXIMA51e同等品
  7
EXTFONT
100
AcDbText
  0
TEXT
  5
A9
330
2
100
AcDbEntity
  8
0
100
AcDbText
 10
10300.039
 20
8982.9363
 30
0.0
 40
200.0
  1
小口キャップ・フランス落し・丁番・
  7
EXTFONT
100
AcDbText
  0
TEXT
  5
AA
330
2
100
AcDbEntity
  8
0
100
AcDbText
 10
10300.039
 20
8732.9363
 30
0.0
 40
200.0
  1
レバーハンドル錠・握り玉錠・
  7
EXTFONT
100
AcDbText
  0
TEXT
  5
AB
330
2
100
AcDbEntity
  8
0
100
AcDbText
 10
10300.039
 20
8482.9363
 30
0.0
 40
200.0
  1
ドアクローザー・アームストッパー
  7
EXTFONT
100
AcDbText
  0
TEXT
  5
AC
330
2
100
AcDbEntity
  8
0
100
AcDbText
 10
10300.039
 20
9982.9363
 30
0.0
 40
200.0
  1
W=1,800  H=2,450  見込100
  7
EXTFONT
100
AcDbText
  0
TEXT
  5
AD
330
2
100
AcDbEntity
  8
0
100
AcDbText
 10
10300.039
 20
10232.9363
 30
0.0
 40
170.0
  1
両開きドア 【丁番ドア】 中桟なし (FIX段窓)
  7
EXTFONT
100
AcDbText
  0
TEXT
  5
AE
330
2
100
AcDbEntity
  8
0
100
AcDbText
 10
10500.039
 20
7957.9363
 30
0.0
 40
200.0
  1
＊
  7
EXTFONT
100
AcDbText
  0
CIRCLE
  5
AF
330
2
100
AcDbEntity
  8
YKK_F1
100
AcDbCircle
 10
10600.039
 20
7957.9363
 30
0.0
 40
233.3333333333333
  0
LINE
  5
B0
330
2
100
AcDbEntity
  8
YKK_F1
  6
Continuous
100
AcDbLine
 10
10366.70566667
 20
7957.9363
 30
0.0
 11
10833.37233333
 21
7957.9363
 31
0.0
  0
TEXT
  5
B1
330
2
100
AcDbEntity
  8
0
100
AcDbText
 10
10300.039
 20
7482.9363
 30
0.0
 40
200.0
  1
＊
  7
EXTFONT
100
AcDbText
  0
TEXT
  5
B2
330
2
100
AcDbEntity
  8
YKK_F1
100
AcDbText
 10
10440.039
 20
7757.9363
 30
0.0
 40
160.0
  1
ＡＷ
  7
EXTFONT
100
AcDbText
  0
TEXT
  5
B3
330
2
100
AcDbEntity
  8
0
100
AcDbText
 10
10300.039
 20
9232.9363
 30
0.0
 40
200.0
  1
FL・透明
  7
EXTFONT
100
AcDbText
  0
TEXT
  5
B4
330
2
100
AcDbEntity
  8
0
100
AcDbText
 10
10300.039
 20
9732.9363
 30
0.0
 40
200.0
  1
アルミ製
  7
EXTFONT
100
AcDbText
  0
TEXT
  5
B5
330
2
100
AcDbEntity
  8
0
100
AcDbText
 10
13600.039
 20
7482.9363
 30
0.0
 40
200.0
  1
＊
  7
EXTFONT
100
AcDbText
  0
TEXT
  5
B6
330
2
100
AcDbEntity
  8
0
100
AcDbText
 10
13900.039
 20
7732.9363
 30
0.0
 40
200.0
  1
＊
  7
EXTFONT
100
AcDbText
  0
TEXT
  5
B7
330
2
100
AcDbEntity
  8
YKK_F1
100
AcDbText
 10
14320.039
 20
7732.9363
 30
0.0
 40
200.0
  1
箇所
  7
EXTFONT
100
AcDbText
  0
TEXT
  5
B8
330
2
100
AcDbEntity
  8
0
100
AcDbText
 10
1009.77446
 20
20612.406
 30
0.0
 40
250.0
  1
ＦＡＥ５ＤＲ５２　ＥＸＩＭＡ５１ｅ　ＡＬＣ枠　片開き／両開きドア 【丁番ドア】
  7
EXTFONT
100
AcDbText
  0
TEXT
  5
B9
330
2
100
AcDbEntity
  8
YKK_F1
100
AcDbText
 10
2190.33733852
 20
11855.4363
 30
0.0
 40
200.0
  1
姿　　　　　　　図
  7
EXTFONT
 72
     1
 11
3237.00400518
 21
11855.4363
 31
0.0
100
AcDbText
  0
TEXT
  5
BA
330
2
100
AcDbEntity
  8
YKK_F1
100
AcDbText
 10
2183.67067185
 20
13432.9363
 30
0.0
 40
200.0
  1
使用箇所・防火仕様
  7
EXTFONT
 72
     1
 11
3237.00400518
 21
13432.9363
 31
0.0
100
AcDbText
  0
TEXT
  5
BB
330
2
100
AcDbEntity
  8
YKK_F1
100
AcDbText
 10
2183.67067185
 20
13787.9363
 30
0.0
 40
200.0
  1
符　号　・　数　量
  7
EXTFONT
 72
     1
 11
3237.00400518
 21
13787.9363
 31
0.0
100
AcDbText
  0
TEXT
  5
BC
330
2
100
AcDbEntity
  8
YKK_F1
100
AcDbText
 10
1703.67067185
 20
16182.9363
 30
0.0
 40
200.0
  1
型式・防音・エアタイト仕様
  7
EXTFONT
 72
     1
 11
3237.00400518
 21
16182.9363
 31
0.0
100
AcDbText
  0
TEXT
  5
BD
330
2
100
AcDbEntity
  8
YKK_F1
100
AcDbText
 10
1283.67067185
 20
15932.9363
 30
0.0
 40
200.0
  1
寸法・見付・見込（枠見付・枠見込）
  7
EXTFONT
 72
     1
 11
3237.00400518
 21
15932.9363
 31
0.0
100
AcDbText
  0
TEXT
  5
BE
330
2
100
AcDbEntity
  8
YKK_F1
100
AcDbText
 10
1937.00400518
 20
14557.9363
 30
0.0
 40
200.0
  1
(付　　属　　金　　物)
  7
EXTFONT
 72
     1
 11
3237.00400518
 21
14557.9363
 31
0.0
100
AcDbText
  0
TEXT
  5
BF
330
2
100
AcDbEntity
  8
YKK_F1
100
AcDbText
 10
2063.67067185
 20
14807.9363
 30
0.0
 40
200.0
  1
建　　具　　金　　物
  7
EXTFONT
 72
     1
 11
3237.00400518
 21
14807.9363
 31
0.0
100
AcDbText
  0
TEXT
  5
C0
330
2
100
AcDbEntity
  8
YKK_F1
100
AcDbText
 10
1817.00400518
 20
15182.9363
 30
0.0
 40
200.0
  1
ガラス・種類・ガラス押え
  7
EXTFONT
 72
     1
 11
3237.00400518
 21
15182.9363
 31
0.0
100
AcDbText
  0
TEXT
  5
C1
330
2
100
AcDbEntity
  8
YKK_F1
100
AcDbText
 10
2183.67067185
 20
15682.9363
 30
0.0
 40
200.0
  1
材　　　　　　　質
  7
EXTFONT
 72
     1
 11
3237.00400518
 21
15682.9363
 31
0.0
100
AcDbText
  0
TEXT
  5
C2
330
2
100
AcDbEntity
  8
YKK_F1
100
AcDbText
 10
2183.67067185
 20
14182.9363
 30
0.0
 40
200.0
  1
備　　　　　　　考
  7
EXTFONT
 72
     1
 11
3237.00400518
 21
14182.9363
 31
0.0
100
AcDbText
  0
TEXT
  5
C3
330
2
100
AcDbEntity
  8
YKK_F1
100
AcDbText
 10
2183.67067185
 20
15432.9363
 30
0.0
 40
200.0
  1
仕　　　　　　　上
  7
EXTFONT
 72
     1
 11
3237.00400518
 21
15432.9363
 31
0.0
100
AcDbText
  0
TEXT
  5
C4
330
2
100
AcDbEntity
  8
YKK_F1
100
AcDbText
 10
2190.33733852
 20
17810.4363
 30
0.0
 40
200.0
  1
姿　　　　　　　図
  7
EXTFONT
 72
     1
 11
3237.00400518
 21
17810.4363
 31
0.0
100
AcDbText
  0
TEXT
  5
C5
330
2
100
AcDbEntity
  8
YKK_F1
100
AcDbText
 10
2183.67067185
 20
19742.9363
 30
0.0
 40
200.0
  1
符　号　・　数　量
  7
EXTFONT
 72
     1
 11
3237.00400518
 21
19742.9363
 31
0.0
100
AcDbText
  0
TEXT
  5
C6
330
2
100
AcDbEntity
  8
YKK_F1
100
AcDbText
 10
2183.67067185
 20
19387.9363
 30
0.0
 40
200.0
  1
使用箇所・防火仕様
  7
EXTFONT
 72
     1
 11
3237.00400518
 21
19387.9363
 31
0.0
100
AcDbText
  0
TEXT
  5
E8
330
2
100
AcDbEntity
  8
YKK_F1
100
AcDbText
 10
9670.039
 20
13687.9363
 30
0.0
 40
200.0
  1
箇所
  7
EXTFONT
100
AcDbText
  0
TEXT
  5
E9
330
2
100
AcDbEntity
  8
0
100
AcDbText
 10
9250.039
 20
13687.9363
 30
0.0
 40
200.0
  1
＊
  7
EXTFONT
100
AcDbText
  0
CIRCLE
  5
EA
330
2
100
AcDbEntity
  8
YKK_F1
100
AcDbCircle
 10
5950.039
 20
13912.9363
 30
0.0
 40
233.3333333333333
  0
TEXT
  5
EB
330
2
100
AcDbEntity
  8
YKK_F1
100
AcDbText
 10
5790.039
 20
13712.9363
 30
0.0
 40
160.0
  1
ＡＷ
  7
EXTFONT
100
AcDbText
  0
TEXT
  5
FD
330
2
100
AcDbEntity
  8
0
100
AcDbText
 10
5650.039
 20
13437.9363
 30
0.0
 40
200.0
  1
＊
  7
EXTFONT
100
AcDbText
  0
TEXT
  5
10D
330
2
100
AcDbEntity
  8
0
100
AcDbText
 10
8950.039
 20
13437.9363
 30
0.0
 40
200.0
  1
＊
  7
EXTFONT
100
AcDbText
  0
TEXT
  5
113
330
2
100
AcDbEntity
  8
0
100
AcDbText
 10
5650.039
 20
15437.9363
 30
0.0
 40
200.0
  1
シルバー･ｶﾗｰ(ブロンズ､ステン､ブラック)
  7
EXTFONT
100
AcDbText
  0
TEXT
  5
114
330
2
100
AcDbEntity
  8
0
100
AcDbText
 10
5650.039
 20
14187.9363
 30
0.0
 40
200.0
  1
YKKAP　EXIMA51e同等品
  7
EXTFONT
100
AcDbText
  0
TEXT
  5
115
330
2
100
AcDbEntity
  8
0
100
AcDbText
 10
5650.039
 20
16187.9363
 30
0.0
 40
200.0
  1
片開きドア 【丁番ドア】 中桟なし
  7
EXTFONT
100
AcDbText
  0
TEXT
  5
116
330
2
100
AcDbEntity
  8
0
100
AcDbText
 10
5650.039
 20
15937.9363
 30
0.0
 40
200.0
  1
W=900  H=2,000  見込100
  7
EXTFONT
100
AcDbText
  0
TEXT
  5
117
330
2
100
AcDbEntity
  8
0
100
AcDbText
 10
5650.039
 20
14937.9363
 30
0.0
 40
200.0
  1
小口キャップ・フランス落し・丁番・
  7
EXTFONT
100
AcDbText
  0
TEXT
  5
118
330
2
100
AcDbEntity
  8
0
100
AcDbText
 10
5650.039
 20
14687.9363
 30
0.0
 40
200.0
  1
レバーハンドル錠・握り玉錠・
  7
EXTFONT
100
AcDbText
  0
TEXT
  5
119
330
2
100
AcDbEntity
  8
0
100
AcDbText
 10
5650.039
 20
14437.9363
 30
0.0
 40
200.0
  1
ドアクローザー・アームストッパー
  7
EXTFONT
100
AcDbText
  0
LINE
  5
11A
330
2
100
AcDbEntity
  8
YKK_F1
  6
Continuous
100
AcDbLine
 10
5716.70566667
 20
13912.9363
 30
0.0
 11
6183.37233333
 21
13912.9363
 31
0.0
  0
TEXT
  5
11B
330
2
100
AcDbEntity
  8
0
100
AcDbText
 10
5850.039
 20
13912.9363
 30
0.0
 40
200.0
  1
＊
  7
EXTFONT
100
AcDbText
  0
TEXT
  5
11C
330
2
100
AcDbEntity
  8
0
100
AcDbText
 10
5650.039
 20
15187.9363
 30
0.0
 40
200.0
  1
FL・透明
  7
EXTFONT
100
AcDbText
  0
TEXT
  5
11D
330
2
100
AcDbEntity
  8
0
100
AcDbText
 10
5650.039
 20
15687.9363
 30
0.0
 40
200.0
  1
アルミ製
  7
EXTFONT
100
AcDbText
  0
TEXT
  5
11E
330
2
100
AcDbEntity
  8
YKK_F1
100
AcDbText
 10
14320.039
 20
13687.9363
 30
0.0
 40
200.0
  1
箇所
  7
EXTFONT
100
AcDbText
  0
TEXT
  5
11F
330
2
100
AcDbEntity
  8
0
100
AcDbText
 10
13900.039
 20
13687.9363
 30
0.0
 40
200.0
  1
＊
  7
EXTFONT
100
AcDbText
  0
CIRCLE
  5
120
330
2
100
AcDbEntity
  8
YKK_F1
100
AcDbCircle
 10
10600.039
 20
13912.9363
 30
0.0
 40
233.3333333333333
  0
TEXT
  5
121
330
2
100
AcDbEntity
  8
YKK_F1
100
AcDbText
 10
10440.039
 20
13712.9363
 30
0.0
 40
160.0
  1
ＡＷ
  7
EXTFONT
100
AcDbText
  0
TEXT
  5
13C
330
2
100
AcDbEntity
  8
0
100
AcDbText
 10
10300.039
 20
13437.9363
 30
0.0
 40
200.0
  1
＊
  7
EXTFONT
100
AcDbText
  0
TEXT
  5
14A
330
2
100
AcDbEntity
  8
0
100
AcDbText
 10
13600.039
 20
13437.9363
 30
0.0
 40
200.0
  1
＊
  7
EXTFONT
100
AcDbText
  0
TEXT
  5
14F
330
2
100
AcDbEntity
  8
0
100
AcDbText
 10
10300.039
 20
14437.9363
 30
0.0
 40
200.0
  1
ドアクローザー・アームストッパー
  7
EXTFONT
100
AcDbText
  0
TEXT
  5
150
330
2
100
AcDbEntity
  8
0
100
AcDbText
 10
10300.039
 20
14687.9363
 30
0.0
 40
200.0
  1
レバーハンドル錠・握り玉錠・
  7
EXTFONT
100
AcDbText
  0
TEXT
  5
151
330
2
100
AcDbEntity
  8
0
100
AcDbText
 10
10300.039
 20
14937.9363
 30
0.0
 40
200.0
  1
小口キャップ・フランス落し・丁番・
  7
EXTFONT
100
AcDbText
  0
TEXT
  5
152
330
2
100
AcDbEntity
  8
0
100
AcDbText
 10
10300.039
 20
14187.9363
 30
0.0
 40
200.0
  1
YKKAP　EXIMA51e同等品
  7
EXTFONT
100
AcDbText
  0
TEXT
  5
153
330
2
100
AcDbEntity
  8
0
100
AcDbText
 10
10300.039
 20
15437.9363
 30
0.0
 40
200.0
  1
シルバー･ｶﾗｰ(ブロンズ､ステン､ブラック)
  7
EXTFONT
100
AcDbText
  0
TEXT
  5
154
330
2
100
AcDbEntity
  8
0
100
AcDbText
 10
10300.039
 20
16187.9363
 30
0.0
 40
200.0
  1
両開きドア 【丁番ドア】 中桟なし
  7
EXTFONT
100
AcDbText
  0
TEXT
  5
155
330
2
100
AcDbEntity
  8
0
100
AcDbText
 10
10300.039
 20
15937.9363
 30
0.0
 40
200.0
  1
W=1,800  H=2,000  見込100
  7
EXTFONT
100
AcDbText
  0
LINE
  5
156
330
2
100
AcDbEntity
  8
YKK_F1
  6
Continuous
100
AcDbLine
 10
10366.70566667
 20
13912.9363
 30
0.0
 11
10833.37233333
 21
13912.9363
 31
0.0
  0
TEXT
  5
157
330
2
100
AcDbEntity
  8
0
100
AcDbText
 10
10500.039
 20
13912.9363
 30
0.0
 40
200.0
  1
＊
  7
EXTFONT
100
AcDbText
  0
TEXT
  5
158
330
2
100
AcDbEntity
  8
0
100
AcDbText
 10
10300.039
 20
15187.9363
 30
0.0
 40
200.0
  1
FL・透明
  7
EXTFONT
100
AcDbText
  0
TEXT
  5
159
330
2
100
AcDbEntity
  8
0
100
AcDbText
 10
10300.039
 20
15687.9363
 30
0.0
 40
200.0
  1
アルミ製
  7
EXTFONT
100
AcDbText
  0
TEXT
  5
164
330
2
100
AcDbEntity
  8
0
100
AcDbText
 10
5650.039
 20
19392.9363
 30
0.0
 40
200.0
  1
＊
  7
EXTFONT
100
AcDbText
  0
CIRCLE
  5
165
330
2
100
AcDbEntity
  8
YKK_F1
100
AcDbCircle
 10
5950.039
 20
19867.9363
 30
0.0
 40
233.3333333333333
  0
LINE
  5
166
330
2
100
AcDbEntity
  8
YKK_F1
  6
Continuous
100
AcDbLine
 10
5716.70566667
 20
19867.9363
 30
0.0
 11
6183.37233333
 21
19867.9363
 31
0.0
  0
TEXT
  5
167
330
2
100
AcDbEntity
  8
0
100
AcDbText
 10
5850.039
 20
19867.9363
 30
0.0
 40
200.0
  1
＊
  7
EXTFONT
100
AcDbText
  0
TEXT
  5
168
330
2
100
AcDbEntity
  8
YKK_F1
100
AcDbText
 10
5790.039
 20
19667.9363
 30
0.0
 40
160.0
  1
ＡＷ
  7
EXTFONT
100
AcDbText
  0
TEXT
  5
171
330
2
100
AcDbEntity
  8
0
100
AcDbText
 10
8950.039
 20
19392.9363
 30
0.0
 40
200.0
  1
＊
  7
EXTFONT
100
AcDbText
  0
TEXT
  5
172
330
2
100
AcDbEntity
  8
0
100
AcDbText
 10
9250.039
 20
19642.9363
 30
0.0
 40
200.0
  1
＊
  7
EXTFONT
100
AcDbText
  0
TEXT
  5
173
330
2
100
AcDbEntity
  8
YKK_F1
100
AcDbText
 10
9670.039
 20
19642.9363
 30
0.0
 40
200.0
  1
箇所
  7
EXTFONT
100
AcDbText
  0
TEXT
  5
180
330
2
100
AcDbEntity
  8
0
100
AcDbText
 10
10300.039
 20
19392.9363
 30
0.0
 40
200.0
  1
＊
  7
EXTFONT
100
AcDbText
  0
LINE
  5
181
330
2
100
AcDbEntity
  8
YKK_F1
  6
Continuous
100
AcDbLine
 10
10366.70566667
 20
19867.9363
 30
0.0
 11
10833.37233333
 21
19867.9363
 31
0.0
  0
CIRCLE
  5
182
330
2
100
AcDbEntity
  8
YKK_F1
100
AcDbCircle
 10
10600.039
 20
19867.9363
 30
0.0
 40
233.3333333333333
  0
TEXT
  5
183
330
2
100
AcDbEntity
  8
0
100
AcDbText
 10
10500.039
 20
19867.9363
 30
0.0
 40
200.0
  1
＊
  7
EXTFONT
100
AcDbText
  0
TEXT
  5
184
330
2
100
AcDbEntity
  8
YKK_F1
100
AcDbText
 10
10440.039
 20
19667.9363
 30
0.0
 40
160.0
  1
ＡＷ
  7
EXTFONT
100
AcDbText
  0
TEXT
  5
187
330
2
100
AcDbEntity
  8
0
100
AcDbText
 10
13600.039
 20
19392.9363
 30
0.0
 40
200.0
  1
＊
  7
EXTFONT
100
AcDbText
  0
TEXT
  5
18A
330
2
100
AcDbEntity
  8
0
100
AcDbText
 10
13900.039
 20
19642.9363
 30
0.0
 40
200.0
  1
＊
  7
EXTFONT
100
AcDbText
  0
TEXT
  5
18B
330
2
100
AcDbEntity
  8
YKK_F1
100
AcDbText
 10
14320.039
 20
19642.9363
 30
0.0
 40
200.0
  1
箇所
  7
EXTFONT
100
AcDbText
  0
LINE
  5
18C
330
2
100
AcDbEntity
  8
YKK_F1
  6
Continuous
100
AcDbLine
 10
28990.039
 20
700.94001
 30
0.0
 11
28990.039
 21
20287.219
 31
0.0
  0
LINE
  5
18D
330
2
100
AcDbEntity
  8
YKK_F1
  6
Continuous
100
AcDbLine
 10
29027.821
 20
662.59406
 30
0.0
 11
29027.821
 21
20325.566
 31
0.0
  0
LINE
  5
18E
330
2
100
AcDbEntity
  8
YKK_F1
  6
Continuous
100
AcDbLine
 10
29015.417
 20
675.00009
 30
0.0
 11
29015.417
 21
20312.594
 31
0.0
  0
LINE
  5
18F
330
2
100
AcDbEntity
  8
YKK_F1
  6
Continuous
100
AcDbLine
 10
29002.445
 20
687.97002
 30
0.0
 11
29002.445
 21
20299.624
 31
0.0
  0
LINE
  5
190
330
2
100
AcDbEntity
  8
YKK_F1
  6
Continuous
100
AcDbLine
 10
29040.229
 20
650.18799
 30
0.0
 11
29040.229
 21
20337.97
 31
0.0
  0
LINE
  5
191
330
2
100
AcDbEntity
  8
YKK_F1
  6
Continuous
100
AcDbLine
 10
29190.79
 20
500.75202
 30
0.0
 11
29190.79
 21
20487.406
 31
0.0
  0
LINE
  5
192
330
2
100
AcDbEntity
  8
YKK_F1
  6
Continuous
100
AcDbLine
 10
28800.039
 20
2252.9363
 30
0.0
 11
28800.039
 21
20117.9363
 31
0.0
  0
LINE
  5
193
330
2
100
AcDbEntity
  8
YKK_F1
  6
Continuous
100
AcDbLine
 10
24150.039
 20
2252.9363
 30
0.0
 11
24150.039
 21
20117.9363
 31
0.0
  0
LINE
  5
194
330
2
100
AcDbEntity
  8
YKK_F1
  6
Continuous
100
AcDbLine
 10
19500.039
 20
2252.9363
 30
0.0
 11
19500.039
 21
20117.9363
 31
0.0
  0
LINE
  5
195
330
2
100
AcDbEntity
  8
YKK_F1
  6
Continuous
100
AcDbLine
 10
14850.039
 20
2252.9363
 30
0.0
 11
14850.039
 21
20117.9363
 31
0.0
  0
LINE
  5
196
330
2
100
AcDbEntity
  8
YKK_F1
100
AcDbLine
 10
29700.0
 20
0.0
 30
0.0
 11
29700.0
 21
21000.0
 31
0.0
  0
TEXT
  5
197
330
2
100
AcDbEntity
  8
YKK_F1
100
AcDbText
 10
23900.08866667
 20
975.376
 30
0.0
 40
200.0
  1
建具表－（ＦＡＥ５ＤＲ５２）
  7
EXTFONT
 72
     4
 11
25493.422
 21
1075.376
 31
0.0
100
AcDbText
  0
LINE
  5
198
330
2
100
AcDbEntity
  8
YKK_F1
  6
Continuous
100
AcDbLine
 10
21494.55
 20
1450.376
 30
0.0
 11
27990.79
 21
1450.376
 31
0.0
  0
TEXT
  5
199
330
2
100
AcDbEntity
  8
YKK_F1
100
AcDbText
 10
23686.75533333
 20
1600.376
 30
0.0
 40
200.0
  1
(仮称)○\U+00D7ビル新築工事
  7
EXTFONT
 72
     4
 11
24993.422
 21
1700.376
 31
0.0
100
AcDbText
  0
TEXT
  5
19A
330
2
100
AcDbEntity
  8
0
100
AcDbText
 10
19600.039
 20
3777.9363
 30
0.0
 40
200.0
  1
＊
  7
EXTFONT
100
AcDbText
  0
TEXT
  5
19B
330
2
100
AcDbEntity
  8
0
100
AcDbText
 10
14950.039
 20
3777.9363
 30
0.0
 40
200.0
  1
＊
  7
EXTFONT
100
AcDbText
  0
LINE
  5
19C
330
2
100
AcDbEntity
  8
YKK_F1
  6
Continuous
100
AcDbLine
 10
21494.55
 20
1200.5641
 30
0.0
 11
18496.807
 21
1200.5641
 31
0.0
  0
LINE
  5
19D
330
2
100
AcDbEntity
  8
YKK_F1
  6
Continuous
100
AcDbLine
 10
18496.807
 20
1949.4363
 30
0.0
 11
18496.807
 21
650.18799
 31
0.0
  0
TEXT
  5
19E
330
2
100
AcDbEntity
  8
0
100
AcDbText
 10
14950.039
 20
3027.9363
 30
0.0
 40
200.0
  1
＊
  7
EXTFONT
100
AcDbText
  0
TEXT
  5
19F
330
2
100
AcDbEntity
  8
0
100
AcDbText
 10
14950.039
 20
2527.9363
 30
0.0
 40
200.0
  1
＊
  7
EXTFONT
100
AcDbText
  0
TEXT
  5
1A0
330
2
100
AcDbEntity
  8
0
100
AcDbText
 10
14950.039
 20
2277.9363
 30
0.0
 40
200.0
  1
＊
  7
EXTFONT
100
AcDbText
  0
TEXT
  5
1A1
330
2
100
AcDbEntity
  8
0
100
AcDbText
 10
14950.039
 20
2777.9363
 30
0.0
 40
200.0
  1
＊
  7
EXTFONT
100
AcDbText
  0
TEXT
  5
1A2
330
2
100
AcDbEntity
  8
0
100
AcDbText
 10
14950.039
 20
3277.9363
 30
0.0
 40
200.0
  1
＊
  7
EXTFONT
100
AcDbText
  0
TEXT
  5
1A3
330
2
100
AcDbEntity
  8
0
100
AcDbText
 10
14950.039
 20
3527.9363
 30
0.0
 40
200.0
  1
＊
  7
EXTFONT
100
AcDbText
  0
TEXT
  5
1A4
330
2
100
AcDbEntity
  8
YKK_F1
100
AcDbText
 10
18546.807
 20
1067.4437
 30
0.0
 40
100.0
  1
担当者
  7
EXTFONT
100
AcDbText
  0
TEXT
  5
1A5
330
2
100
AcDbEntity
  8
YKK_F1
100
AcDbText
 10
18546.807
 20
1816.3159
 30
0.0
 40
100.0
  1
管理建築士
  7
EXTFONT
100
AcDbText
  0
LINE
  5
1A6
330
2
100
AcDbEntity
  8
YKK_F1
  6
Continuous
100
AcDbLine
 10
22993.422
 20
1949.4363
 30
0.0
 11
22993.422
 21
650.18799
 31
0.0
  0
LINE
  5
1A7
330
2
100
AcDbEntity
  8
YKK_F1
  6
Continuous
100
AcDbLine
 10
21494.55
 20
1949.4363
 30
0.0
 11
21494.55
 21
650.18799
 31
0.0
  0
TEXT
  5
1A8
330
2
100
AcDbEntity
  8
YKK_F1
100
AcDbText
 10
21544.55
 20
1816.3159
 30
0.0
 40
100.0
  1
設計No.
  7
EXTFONT
100
AcDbText
  0
TEXT
  5
1A9
330
2
100
AcDbEntity
  8
YKK_F1
100
AcDbText
 10
21544.55
 20
1317.2556
 30
0.0
 40
100.0
  1
縮尺
  7
EXTFONT
100
AcDbText
  0
TEXT
  5
1AA
330
2
100
AcDbEntity
  8
0
100
AcDbText
 10
19600.039
 20
3027.9363
 30
0.0
 40
200.0
  1
＊
  7
EXTFONT
100
AcDbText
  0
TEXT
  5
1AB
330
2
100
AcDbEntity
  8
0
100
AcDbText
 10
19600.039
 20
2527.9363
 30
0.0
 40
200.0
  1
＊
  7
EXTFONT
100
AcDbText
  0
TEXT
  5
1AC
330
2
100
AcDbEntity
  8
0
100
AcDbText
 10
19600.039
 20
2277.9363
 30
0.0
 40
200.0
  1
＊
  7
EXTFONT
100
AcDbText
  0
TEXT
  5
1AD
330
2
100
AcDbEntity
  8
0
100
AcDbText
 10
19600.039
 20
2777.9363
 30
0.0
 40
200.0
  1
＊
  7
EXTFONT
100
AcDbText
  0
TEXT
  5
1AE
330
2
100
AcDbEntity
  8
0
100
AcDbText
 10
19600.039
 20
3277.9363
 30
0.0
 40
200.0
  1
＊
  7
EXTFONT
100
AcDbText
  0
TEXT
  5
1AF
330
2
100
AcDbEntity
  8
0
100
AcDbText
 10
19600.039
 20
3527.9363
 30
0.0
 40
200.0
  1
＊
  7
EXTFONT
100
AcDbText
  0
LINE
  5
1B0
330
2
100
AcDbEntity
  8
YKK_F1
  6
Continuous
100
AcDbLine
 10
22594.174
 20
1351.128
 30
0.0
 11
21893.798
 21
800.75199
 31
0.0
  0
TEXT
  5
1B1
330
2
100
AcDbEntity
  8
YKK_F1
  6
Continuous
100
AcDbText
 10
21956.956
 20
1113.7219
 30
0.0
 40
150.0
  1
1
100
AcDbText
  0
TEXT
  5
1B2
330
2
100
AcDbEntity
  8
YKK_F1
  6
Continuous
100
AcDbText
 10
22493.83502704
 20
866.53895907
 30
0.0
 40
150.0
  1
50
100
AcDbText
  0
TEXT
  5
1B3
330
2
100
AcDbEntity
  8
YKK_F1
100
AcDbText
 10
23043.422
 20
1317.2556
 30
0.0
 40
100.0
  1
図面名
  7
EXTFONT
100
AcDbText
  0
TEXT
  5
1B4
330
2
100
AcDbEntity
  8
YKK_F1
100
AcDbText
 10
23043.422
 20
1816.3159
 30
0.0
 40
100.0
  1
名称
  7
EXTFONT
100
AcDbText
  0
TEXT
  5
1B5
330
2
100
AcDbEntity
  8
0
100
AcDbText
 10
14950.039
 20
4277.9363
 30
0.0
 40
200.0
  1
＊
  7
EXTFONT
100
AcDbText
  0
TEXT
  5
1B6
330
2
100
AcDbEntity
  8
0
100
AcDbText
 10
14950.039
 20
4027.9363
 30
0.0
 40
200.0
  1
＊
  7
EXTFONT
100
AcDbText
  0
TEXT
  5
1B7
330
2
100
AcDbEntity
  8
0
100
AcDbText
 10
14950.039
 20
8482.9363
 30
0.0
 40
200.0
  1
ドアクローザー・アームストッパー
  7
EXTFONT
100
AcDbText
  0
TEXT
  5
1B8
330
2
100
AcDbEntity
  8
0
100
AcDbText
 10
14950.039
 20
8732.9363
 30
0.0
 40
200.0
  1
レバーハンドル錠・握り玉錠・
  7
EXTFONT
100
AcDbText
  0
TEXT
  5
1B9
330
2
100
AcDbEntity
  8
0
100
AcDbText
 10
14950.039
 20
8982.9363
 30
0.0
 40
200.0
  1
小口キャップ・フランス落し・丁番・
  7
EXTFONT
100
AcDbText
  0
TEXT
  5
1BA
330
2
100
AcDbEntity
  8
0
100
AcDbText
 10
14950.039
 20
8232.9363
 30
0.0
 40
200.0
  1
YKKAP　EXIMA51e同等品
  7
EXTFONT
100
AcDbText
  0
TEXT
  5
1BB
330
2
100
AcDbEntity
  8
0
100
AcDbText
 10
14950.039
 20
9482.9363
 30
0.0
 40
200.0
  1
シルバー･ｶﾗｰ(ブロンズ､ステン､ブラック)
  7
EXTFONT
100
AcDbText
  0
TEXT
  5
1BC
330
2
100
AcDbEntity
  8
0
100
AcDbText
 10
14950.039
 20
9982.9363
 30
0.0
 40
200.0
  1
W=900  H=2,450  見込100
  7
EXTFONT
100
AcDbText
  0
TEXT
  5
1BD
330
2
100
AcDbEntity
  8
0
100
AcDbText
 10
14950.039
 20
10232.9363
 30
0.0
 40
170.0
  1
片開きドア 【丁番ドア】 中桟あり (FIX段窓)
  7
EXTFONT
100
AcDbText
  0
TEXT
  5
1BE
330
2
100
AcDbEntity
  8
0
100
AcDbText
 10
15150.039
 20
7957.9363
 30
0.0
 40
200.0
  1
＊
  7
EXTFONT
100
AcDbText
  0
CIRCLE
  5
1BF
330
2
100
AcDbEntity
  8
YKK_F1
100
AcDbCircle
 10
15250.039
 20
7957.9363
 30
0.0
 40
233.3333333333333
  0
LINE
  5
1C0
330
2
100
AcDbEntity
  8
YKK_F1
  6
Continuous
100
AcDbLine
 10
15016.70566667
 20
7957.9363
 30
0.0
 11
15483.37233333
 21
7957.9363
 31
0.0
  0
TEXT
  5
1C1
330
2
100
AcDbEntity
  8
0
100
AcDbText
 10
14950.039
 20
7482.9363
 30
0.0
 40
200.0
  1
＊
  7
EXTFONT
100
AcDbText
  0
TEXT
  5
1C2
330
2
100
AcDbEntity
  8
YKK_F1
100
AcDbText
 10
15090.039
 20
7757.9363
 30
0.0
 40
160.0
  1
ＡＷ
  7
EXTFONT
100
AcDbText
  0
TEXT
  5
1C3
330
2
100
AcDbEntity
  8
0
100
AcDbText
 10
14950.039
 20
9232.9363
 30
0.0
 40
200.0
  1
FL・透明
  7
EXTFONT
100
AcDbText
  0
TEXT
  5
1C4
330
2
100
AcDbEntity
  8
0
100
AcDbText
 10
14950.039
 20
9732.9363
 30
0.0
 40
200.0
  1
アルミ製
  7
EXTFONT
100
AcDbText
  0
TEXT
  5
1C5
330
2
100
AcDbEntity
  8
0
100
AcDbText
 10
18250.039
 20
7482.9363
 30
0.0
 40
200.0
  1
＊
  7
EXTFONT
100
AcDbText
  0
TEXT
  5
1C6
330
2
100
AcDbEntity
  8
0
100
AcDbText
 10
18550.039
 20
7732.9363
 30
0.0
 40
200.0
  1
＊
  7
EXTFONT
100
AcDbText
  0
TEXT
  5
1C7
330
2
100
AcDbEntity
  8
YKK_F1
100
AcDbText
 10
18970.039
 20
7732.9363
 30
0.0
 40
200.0
  1
箇所
  7
EXTFONT
100
AcDbText
  0
TEXT
  5
1C8
330
2
100
AcDbEntity
  8
0
100
AcDbText
 10
19600.039
 20
4277.9363
 30
0.0
 40
200.0
  1
＊
  7
EXTFONT
100
AcDbText
  0
TEXT
  5
1C9
330
2
100
AcDbEntity
  8
0
100
AcDbText
 10
19600.039
 20
4027.9363
 30
0.0
 40
200.0
  1
＊
  7
EXTFONT
100
AcDbText
  0
TEXT
  5
1CA
330
2
100
AcDbEntity
  8
0
100
AcDbText
 10
19600.039
 20
9482.9363
 30
0.0
 40
200.0
  1
シルバー･ｶﾗｰ(ブロンズ､ステン､ブラック)
  7
EXTFONT
100
AcDbText
  0
TEXT
  5
1CB
330
2
100
AcDbEntity
  8
0
100
AcDbText
 10
19600.039
 20
8232.9363
 30
0.0
 40
200.0
  1
YKKAP　EXIMA51e同等品
  7
EXTFONT
100
AcDbText
  0
TEXT
  5
1CC
330
2
100
AcDbEntity
  8
0
100
AcDbText
 10
19600.039
 20
8982.9363
 30
0.0
 40
200.0
  1
小口キャップ・フランス落し・丁番・
  7
EXTFONT
100
AcDbText
  0
TEXT
  5
1CD
330
2
100
AcDbEntity
  8
0
100
AcDbText
 10
19600.039
 20
8732.9363
 30
0.0
 40
200.0
  1
レバーハンドル錠・握り玉錠・
  7
EXTFONT
100
AcDbText
  0
TEXT
  5
1CE
330
2
100
AcDbEntity
  8
0
100
AcDbText
 10
19600.039
 20
8482.9363
 30
0.0
 40
200.0
  1
ドアクローザー・アームストッパー
  7
EXTFONT
100
AcDbText
  0
TEXT
  5
1CF
330
2
100
AcDbEntity
  8
0
100
AcDbText
 10
19600.039
 20
9982.9363
 30
0.0
 40
200.0
  1
W=1,800  H=2,450  見込100
  7
EXTFONT
100
AcDbText
  0
TEXT
  5
1D0
330
2
100
AcDbEntity
  8
0
100
AcDbText
 10
19600.039
 20
10232.9363
 30
0.0
 40
170.0
  1
両開きドア 【丁番ドア】 中桟あり (FIX段窓)
  7
EXTFONT
100
AcDbText
  0
TEXT
  5
1D1
330
2
100
AcDbEntity
  8
0
100
AcDbText
 10
19800.039
 20
7957.9363
 30
0.0
 40
200.0
  1
＊
  7
EXTFONT
100
AcDbText
  0
CIRCLE
  5
1D2
330
2
100
AcDbEntity
  8
YKK_F1
100
AcDbCircle
 10
19900.039
 20
7957.9363
 30
0.0
 40
233.3333333333333
  0
TEXT
  5
1D3
330
2
100
AcDbEntity
  8
YKK_F1
100
AcDbText
 10
19740.039
 20
7757.9363
 30
0.0
 40
160.0
  1
ＡＷ
  7
EXTFONT
100
AcDbText
  0
LINE
  5
1D4
330
2
100
AcDbEntity
  8
YKK_F1
  6
Continuous
100
AcDbLine
 10
19666.70566667
 20
7957.9363
 30
0.0
 11
20133.37233333
 21
7957.9363
 31
0.0
  0
TEXT
  5
1D5
330
2
100
AcDbEntity
  8
0
100
AcDbText
 10
19600.039
 20
7482.9363
 30
0.0
 40
200.0
  1
＊
  7
EXTFONT
100
AcDbText
  0
TEXT
  5
1D6
330
2
100
AcDbEntity
  8
0
100
AcDbText
 10
19600.039
 20
9232.9363
 30
0.0
 40
200.0
  1
FL・透明
  7
EXTFONT
100
AcDbText
  0
TEXT
  5
1D7
330
2
100
AcDbEntity
  8
0
100
AcDbText
 10
19600.039
 20
9732.9363
 30
0.0
 40
200.0
  1
アルミ製
  7
EXTFONT
100
AcDbText
  0
TEXT
  5
1D8
330
2
100
AcDbEntity
  8
0
100
AcDbText
 10
22900.039
 20
7482.9363
 30
0.0
 40
200.0
  1
＊
  7
EXTFONT
100
AcDbText
  0
TEXT
  5
1D9
330
2
100
AcDbEntity
  8
0
100
AcDbText
 10
23200.039
 20
7732.9363
 30
0.0
 40
200.0
  1
＊
  7
EXTFONT
100
AcDbText
  0
TEXT
  5
1DA
330
2
100
AcDbEntity
  8
YKK_F1
100
AcDbText
 10
23620.039
 20
7732.9363
 30
0.0
 40
200.0
  1
箇所
  7
EXTFONT
100
AcDbText
  0
TEXT
  5
1DB
330
2
100
AcDbEntity
  8
0
100
AcDbText
 10
24250.039
 20
3777.9363
 30
0.0
 40
200.0
  1
＊
  7
EXTFONT
100
AcDbText
  0
LINE
  5
1DC
330
2
100
AcDbEntity
  8
YKK_F1
  6
Continuous
100
AcDbLine
 10
28890.228
 20
1651.1279
 30
0.0
 11
28090.604
 21
1001.504
 31
0.0
  0
TEXT
  5
1DD
330
2
100
AcDbEntity
  8
YKK_F1
100
AcDbText
 10
28617.37641269
 20
751.11699243
 30
0.0
 40
100.0
  1
枚の内
  7
EXTFONT
100
AcDbText
  0
LINE
  5
1DE
330
2
100
AcDbEntity
  8
YKK_F1
  6
Continuous
100
AcDbLine
 10
27990.79
 20
1949.4363
 30
0.0
 11
27990.79
 21
650.18799
 31
0.0
  0
TEXT
  5
1DF
330
2
100
AcDbEntity
  8
0
100
AcDbText
 10
24250.039
 20
3027.9363
 30
0.0
 40
200.0
  1
＊
  7
EXTFONT
100
AcDbText
  0
TEXT
  5
1E0
330
2
100
AcDbEntity
  8
0
100
AcDbText
 10
24250.039
 20
2277.9363
 30
0.0
 40
200.0
  1
＊
  7
EXTFONT
100
AcDbText
  0
TEXT
  5
1E1
330
2
100
AcDbEntity
  8
0
100
AcDbText
 10
24250.039
 20
2527.9363
 30
0.0
 40
200.0
  1
＊
  7
EXTFONT
100
AcDbText
  0
TEXT
  5
1E2
330
2
100
AcDbEntity
  8
0
100
AcDbText
 10
24250.039
 20
2777.9363
 30
0.0
 40
200.0
  1
＊
  7
EXTFONT
100
AcDbText
  0
TEXT
  5
1E3
330
2
100
AcDbEntity
  8
0
100
AcDbText
 10
24250.039
 20
3277.9363
 30
0.0
 40
200.0
  1
＊
  7
EXTFONT
100
AcDbText
  0
TEXT
  5
1E4
330
2
100
AcDbEntity
  8
0
100
AcDbText
 10
24250.039
 20
3527.9363
 30
0.0
 40
200.0
  1
＊
  7
EXTFONT
100
AcDbText
  0
TEXT
  5
1E5
330
2
100
AcDbEntity
  8
YKK_F1
100
AcDbText
 10
26990.79
 20
1625.376
 30
0.0
 40
150.0
  1
工事設計図
  7
EXTFONT
100
AcDbText
  0
TEXT
  5
1E6
330
2
100
AcDbEntity
  8
YKK_F1
100
AcDbText
 10
28040.79
 20
1816.3159
 30
0.0
 40
100.0
  1
図面No.
  7
EXTFONT
100
AcDbText
  0
TEXT
  5
1E7
330
2
100
AcDbEntity
  8
0
100
AcDbText
 10
24250.039
 20
4277.9363
 30
0.0
 40
200.0
  1
＊
  7
EXTFONT
100
AcDbText
  0
TEXT
  5
1E8
330
2
100
AcDbEntity
  8
0
100
AcDbText
 10
24250.039
 20
4027.9363
 30
0.0
 40
200.0
  1
＊
  7
EXTFONT
100
AcDbText
  0
TEXT
  5
1E9
330
2
100
AcDbEntity
  8
0
100
AcDbText
 10
24250.039
 20
8732.9363
 30
0.0
 40
200.0
  1
＊
  7
EXTFONT
100
AcDbText
  0
CIRCLE
  5
1EA
330
2
100
AcDbEntity
  8
YKK_F1
100
AcDbCircle
 10
24550.039
 20
7957.9363
 30
0.0
 40
233.3333333333333
  0
TEXT
  5
1EB
330
2
100
AcDbEntity
  8
0
100
AcDbText
 10
24450.039
 20
7957.9363
 30
0.0
 40
200.0
  1
＊
  7
EXTFONT
100
AcDbText
  0
LINE
  5
1EC
330
2
100
AcDbEntity
  8
YKK_F1
  6
Continuous
100
AcDbLine
 10
24316.70566667
 20
7957.9363
 30
0.0
 11
24783.37233333
 21
7957.9363
 31
0.0
  0
TEXT
  5
1ED
330
2
100
AcDbEntity
  8
YKK_F1
100
AcDbText
 10
24390.039
 20
7757.9363
 30
0.0
 40
160.0
  1
ＡＷ
  7
EXTFONT
100
AcDbText
  0
TEXT
  5
1EE
330
2
100
AcDbEntity
  8
0
100
AcDbText
 10
24250.039
 20
7482.9363
 30
0.0
 40
200.0
  1
＊
  7
EXTFONT
100
AcDbText
  0
TEXT
  5
1EF
330
2
100
AcDbEntity
  8
0
100
AcDbText
 10
24250.039
 20
8232.9363
 30
0.0
 40
200.0
  1
＊
  7
EXTFONT
100
AcDbText
  0
TEXT
  5
1F0
330
2
100
AcDbEntity
  8
0
100
AcDbText
 10
24250.039
 20
8482.9363
 30
0.0
 40
200.0
  1
＊
  7
EXTFONT
100
AcDbText
  0
TEXT
  5
1F1
330
2
100
AcDbEntity
  8
0
100
AcDbText
 10
24250.039
 20
8982.9363
 30
0.0
 40
200.0
  1
＊
  7
EXTFONT
100
AcDbText
  0
TEXT
  5
1F2
330
2
100
AcDbEntity
  8
0
100
AcDbText
 10
24250.039
 20
9232.9363
 30
0.0
 40
200.0
  1
＊
  7
EXTFONT
100
AcDbText
  0
TEXT
  5
1F3
330
2
100
AcDbEntity
  8
0
100
AcDbText
 10
24250.039
 20
9482.9363
 30
0.0
 40
200.0
  1
＊
  7
EXTFONT
100
AcDbText
  0
TEXT
  5
1F4
330
2
100
AcDbEntity
  8
0
100
AcDbText
 10
24250.039
 20
9982.9363
 30
0.0
 40
200.0
  1
＊
  7
EXTFONT
100
AcDbText
  0
TEXT
  5
1F5
330
2
100
AcDbEntity
  8
0
100
AcDbText
 10
24250.039
 20
9732.9363
 30
0.0
 40
200.0
  1
＊
  7
EXTFONT
100
AcDbText
  0
TEXT
  5
1F6
330
2
100
AcDbEntity
  8
0
100
AcDbText
 10
24250.039
 20
10232.9363
 30
0.0
 40
200.0
  1
＊
  7
EXTFONT
100
AcDbText
  0
TEXT
  5
1F7
330
2
100
AcDbEntity
  8
0
100
AcDbText
 10
27550.039
 20
7482.9363
 30
0.0
 40
200.0
  1
＊
  7
EXTFONT
100
AcDbText
  0
TEXT
  5
1F8
330
2
100
AcDbEntity
  8
0
100
AcDbText
 10
27850.039
 20
7732.9363
 30
0.0
 40
200.0
  1
＊
  7
EXTFONT
100
AcDbText
  0
TEXT
  5
1F9
330
2
100
AcDbEntity
  8
YKK_F1
100
AcDbText
 10
28270.039
 20
7732.9363
 30
0.0
 40
200.0
  1
箇所
  7
EXTFONT
100
AcDbText
  0
TEXT
  5
218
330
2
100
AcDbEntity
  8
0
100
AcDbText
 10
18550.039
 20
13687.9363
 30
0.0
 40
200.0
  1
＊
  7
EXTFONT
100
AcDbText
  0
CIRCLE
  5
219
330
2
100
AcDbEntity
  8
YKK_F1
100
AcDbCircle
 10
15250.039
 20
13912.9363
 30
0.0
 40
233.3333333333333
  0
TEXT
  5
21A
330
2
100
AcDbEntity
  8
YKK_F1
100
AcDbText
 10
15090.039
 20
13712.9363
 30
0.0
 40
160.0
  1
ＡＷ
  7
EXTFONT
100
AcDbText
  0
TEXT
  5
21B
330
2
100
AcDbEntity
  8
YKK_F1
100
AcDbText
 10
18970.039
 20
13687.9363
 30
0.0
 40
200.0
  1
箇所
  7
EXTFONT
100
AcDbText
  0
TEXT
  5
232
330
2
100
AcDbEntity
  8
0
100
AcDbText
 10
14950.039
 20
13437.9363
 30
0.0
 40
200.0
  1
＊
  7
EXTFONT
100
AcDbText
  0
TEXT
  5
23B
330
2
100
AcDbEntity
  8
0
100
AcDbText
 10
18250.039
 20
13437.9363
 30
0.0
 40
200.0
  1
＊
  7
EXTFONT
100
AcDbText
  0
TEXT
  5
240
330
2
100
AcDbEntity
  8
0
100
AcDbText
 10
14950.039
 20
15437.9363
 30
0.0
 40
200.0
  1
シルバー･ｶﾗｰ(ブロンズ､ステン､ブラック)
  7
EXTFONT
100
AcDbText
  0
TEXT
  5
241
330
2
100
AcDbEntity
  8
0
100
AcDbText
 10
14950.039
 20
14187.9363
 30
0.0
 40
200.0
  1
YKKAP　EXIMA51e同等品
  7
EXTFONT
100
AcDbText
  0
TEXT
  5
242
330
2
100
AcDbEntity
  8
0
100
AcDbText
 10
14950.039
 20
15937.9363
 30
0.0
 40
200.0
  1
W=900  H=2,000  見込100
  7
EXTFONT
100
AcDbText
  0
TEXT
  5
243
330
2
100
AcDbEntity
  8
0
100
AcDbText
 10
14950.039
 20
14937.9363
 30
0.0
 40
200.0
  1
小口キャップ・フランス落し・丁番・
  7
EXTFONT
100
AcDbText
  0
TEXT
  5
244
330
2
100
AcDbEntity
  8
0
100
AcDbText
 10
14950.039
 20
14687.9363
 30
0.0
 40
200.0
  1
レバーハンドル錠・握り玉錠・
  7
EXTFONT
100
AcDbText
  0
TEXT
  5
245
330
2
100
AcDbEntity
  8
0
100
AcDbText
 10
14950.039
 20
14437.9363
 30
0.0
 40
200.0
  1
ドアクローザー・アームストッパー
  7
EXTFONT
100
AcDbText
  0
TEXT
  5
246
330
2
100
AcDbEntity
  8
0
100
AcDbText
 10
14950.039
 20
16187.9363
 30
0.0
 40
200.0
  1
片開きドア 【丁番ドア】 中桟あり
  7
EXTFONT
100
AcDbText
  0
LINE
  5
247
330
2
100
AcDbEntity
  8
YKK_F1
  6
Continuous
100
AcDbLine
 10
15016.70566667
 20
13912.9363
 30
0.0
 11
15483.37233333
 21
13912.9363
 31
0.0
  0
LINE
  5
248
330
2
100
AcDbEntity
  8
YKK_F1
  6
Continuous
100
AcDbLine
 10
15016.70566667
 20
13912.9363
 30
0.0
 11
15483.37233333
 21
13912.9363
 31
0.0
  0
TEXT
  5
249
330
2
100
AcDbEntity
  8
0
100
AcDbText
 10
15150.039
 20
13912.9363
 30
0.0
 40
200.0
  1
＊
  7
EXTFONT
100
AcDbText
  0
TEXT
  5
24A
330
2
100
AcDbEntity
  8
0
100
AcDbText
 10
15150.039
 20
13912.9363
 30
0.0
 40
200.0
  1
＊
  7
EXTFONT
100
AcDbText
  0
TEXT
  5
24B
330
2
100
AcDbEntity
  8
0
100
AcDbText
 10
14950.039
 20
15187.9363
 30
0.0
 40
200.0
  1
FL・透明
  7
EXTFONT
100
AcDbText
  0
TEXT
  5
24C
330
2
100
AcDbEntity
  8
0
100
AcDbText
 10
14950.039
 20
15687.9363
 30
0.0
 40
200.0
  1
アルミ製
  7
EXTFONT
100
AcDbText
  0
TEXT
  5
24D
330
2
100
AcDbEntity
  8
0
100
AcDbText
 10
23200.039
 20
13687.9363
 30
0.0
 40
200.0
  1
＊
  7
EXTFONT
100
AcDbText
  0
CIRCLE
  5
24E
330
2
100
AcDbEntity
  8
YKK_F1
100
AcDbCircle
 10
19900.039
 20
13912.9363
 30
0.0
 40
233.3333333333333
  0
TEXT
  5
24F
330
2
100
AcDbEntity
  8
YKK_F1
100
AcDbText
 10
19740.039
 20
13712.9363
 30
0.0
 40
160.0
  1
ＡＷ
  7
EXTFONT
100
AcDbText
  0
TEXT
  5
250
330
2
100
AcDbEntity
  8
YKK_F1
100
AcDbText
 10
23620.039
 20
13687.9363
 30
0.0
 40
200.0
  1
箇所
  7
EXTFONT
100
AcDbText
  0
TEXT
  5
269
330
2
100
AcDbEntity
  8
0
100
AcDbText
 10
19600.039
 20
13437.9363
 30
0.0
 40
200.0
  1
＊
  7
EXTFONT
100
AcDbText
  0
TEXT
  5
27E
330
2
100
AcDbEntity
  8
0
100
AcDbText
 10
22900.039
 20
13437.9363
 30
0.0
 40
200.0
  1
＊
  7
EXTFONT
100
AcDbText
  0
TEXT
  5
283
330
2
100
AcDbEntity
  8
0
100
AcDbText
 10
19600.039
 20
14437.9363
 30
0.0
 40
200.0
  1
ドアクローザー・アームストッパー
  7
EXTFONT
100
AcDbText
  0
TEXT
  5
284
330
2
100
AcDbEntity
  8
0
100
AcDbText
 10
19600.039
 20
14687.9363
 30
0.0
 40
200.0
  1
レバーハンドル錠・握り玉錠・
  7
EXTFONT
100
AcDbText
  0
TEXT
  5
285
330
2
100
AcDbEntity
  8
0
100
AcDbText
 10
19600.039
 20
14937.9363
 30
0.0
 40
200.0
  1
小口キャップ・フランス落し・丁番・
  7
EXTFONT
100
AcDbText
  0
TEXT
  5
286
330
2
100
AcDbEntity
  8
0
100
AcDbText
 10
19600.039
 20
14187.9363
 30
0.0
 40
200.0
  1
YKKAP　EXIMA51e同等品
  7
EXTFONT
100
AcDbText
  0
TEXT
  5
287
330
2
100
AcDbEntity
  8
0
100
AcDbText
 10
19600.039
 20
15437.9363
 30
0.0
 40
200.0
  1
シルバー･ｶﾗｰ(ブロンズ､ステン､ブラック)
  7
EXTFONT
100
AcDbText
  0
TEXT
  5
288
330
2
100
AcDbEntity
  8
0
100
AcDbText
 10
19600.039
 20
16187.9363
 30
0.0
 40
200.0
  1
両開きドア 【丁番ドア】 中桟あり
  7
EXTFONT
100
AcDbText
  0
TEXT
  5
289
330
2
100
AcDbEntity
  8
0
100
AcDbText
 10
19600.039
 20
15937.9363
 30
0.0
 40
200.0
  1
W=1,800  H=2,000  見込100
  7
EXTFONT
100
AcDbText
  0
TEXT
  5
28A
330
2
100
AcDbEntity
  8
0
100
AcDbText
 10
19600.039
 20
15187.9363
 30
0.0
 40
200.0
  1
FL・透明
  7
EXTFONT
100
AcDbText
  0
LINE
  5
28B
330
2
100
AcDbEntity
  8
YKK_F1
  6
Continuous
100
AcDbLine
 10
19666.70566667
 20
13912.9363
 30
0.0
 11
20133.37233333
 21
13912.9363
 31
0.0
  0
TEXT
  5
28C
330
2
100
AcDbEntity
  8
0
100
AcDbText
 10
19800.039
 20
13912.9363
 30
0.0
 40
200.0
  1
＊
  7
EXTFONT
100
AcDbText
  0
TEXT
  5
28D
330
2
100
AcDbEntity
  8
0
100
AcDbText
 10
19600.039
 20
15687.9363
 30
0.0
 40
200.0
  1
アルミ製
  7
EXTFONT
100
AcDbText
  0
TEXT
  5
29D
330
2
100
AcDbEntity
  8
0
100
AcDbText
 10
14950.039
 20
19392.9363
 30
0.0
 40
200.0
  1
＊
  7
EXTFONT
100
AcDbText
  0
LINE
  5
29E
330
2
100
AcDbEntity
  8
YKK_F1
  6
Continuous
100
AcDbLine
 10
15016.70566667
 20
19867.9363
 30
0.0
 11
15483.37233333
 21
19867.9363
 31
0.0
  0
CIRCLE
  5
29F
330
2
100
AcDbEntity
  8
YKK_F1
100
AcDbCircle
 10
15250.039
 20
19867.9363
 30
0.0
 40
233.3333333333333
  0
TEXT
  5
2A0
330
2
100
AcDbEntity
  8
0
100
AcDbText
 10
15150.039
 20
19867.9363
 30
0.0
 40
200.0
  1
＊
  7
EXTFONT
100
AcDbText
  0
TEXT
  5
2A1
330
2
100
AcDbEntity
  8
YKK_F1
100
AcDbText
 10
15090.039
 20
19667.9363
 30
0.0
 40
160.0
  1
ＡＷ
  7
EXTFONT
100
AcDbText
  0
TEXT
  5
2A4
330
2
100
AcDbEntity
  8
0
100
AcDbText
 10
18550.039
 20
19642.9363
 30
0.0
 40
200.0
  1
＊
  7
EXTFONT
100
AcDbText
  0
TEXT
  5
2A5
330
2
100
AcDbEntity
  8
YKK_F1
100
AcDbText
 10
18970.039
 20
19642.9363
 30
0.0
 40
200.0
  1
箇所
  7
EXTFONT
100
AcDbText
  0
TEXT
  5
2B1
330
2
100
AcDbEntity
  8
0
100
AcDbText
 10
19600.039
 20
19392.9363
 30
0.0
 40
200.0
  1
＊
  7
EXTFONT
100
AcDbText
  0
TEXT
  5
2B2
330
2
100
AcDbEntity
  8
YKK_F1
100
AcDbText
 10
19740.039
 20
19667.9363
 30
0.0
 40
160.0
  1
ＡＷ
  7
EXTFONT
100
AcDbText
  0
LINE
  5
2B3
330
2
100
AcDbEntity
  8
YKK_F1
  6
Continuous
100
AcDbLine
 10
19666.70566667
 20
19867.9363
 30
0.0
 11
20133.37233333
 21
19867.9363
 31
0.0
  0
CIRCLE
  5
2B4
330
2
100
AcDbEntity
  8
YKK_F1
100
AcDbCircle
 10
19900.039
 20
19867.9363
 30
0.0
 40
233.3333333333333
  0
TEXT
  5
2B5
330
2
100
AcDbEntity
  8
0
100
AcDbText
 10
19800.039
 20
19867.9363
 30
0.0
 40
200.0
  1
＊
  7
EXTFONT
100
AcDbText
  0
TEXT
  5
2BE
330
2
100
AcDbEntity
  8
0
100
AcDbText
 10
22900.039
 20
19392.9363
 30
0.0
 40
200.0
  1
＊
  7
EXTFONT
100
AcDbText
  0
TEXT
  5
2C1
330
2
100
AcDbEntity
  8
0
100
AcDbText
 10
23200.039
 20
19642.9363
 30
0.0
 40
200.0
  1
＊
  7
EXTFONT
100
AcDbText
  0
TEXT
  5
2C2
330
2
100
AcDbEntity
  8
YKK_F1
100
AcDbText
 10
23620.039
 20
19642.9363
 30
0.0
 40
200.0
  1
箇所
  7
EXTFONT
100
AcDbText
  0
TEXT
  5
2C3
330
2
100
AcDbEntity
  8
YKK_F1
100
AcDbText
 10
28270.039
 20
13687.9363
 30
0.0
 40
200.0
  1
箇所
  7
EXTFONT
100
AcDbText
  0
TEXT
  5
2C4
330
2
100
AcDbEntity
  8
YKK_F1
100
AcDbText
 10
24390.039
 20
13712.9363
 30
0.0
 40
160.0
  1
ＡＷ
  7
EXTFONT
100
AcDbText
  0
CIRCLE
  5
2C5
330
2
100
AcDbEntity
  8
YKK_F1
100
AcDbCircle
 10
24550.039
 20
13912.9363
 30
0.0
 40
233.3333333333333
  0
TEXT
  5
2C6
330
2
100
AcDbEntity
  8
0
100
AcDbText
 10
27850.039
 20
13687.9363
 30
0.0
 40
200.0
  1
＊
  7
EXTFONT
100
AcDbText
  0
TEXT
  5
2C7
330
2
100
AcDbEntity
  8
0
100
AcDbText
 10
24250.039
 20
13437.9363
 30
0.0
 40
200.0
  1
＊
  7
EXTFONT
100
AcDbText
  0
TEXT
  5
2C8
330
2
100
AcDbEntity
  8
0
100
AcDbText
 10
27550.039
 20
13437.9363
 30
0.0
 40
200.0
  1
＊
  7
EXTFONT
100
AcDbText
  0
LINE
  5
2C9
330
2
100
AcDbEntity
  8
YKK_F1
  6
Continuous
100
AcDbLine
 10
24316.70566667
 20
13912.9363
 30
0.0
 11
24783.37233333
 21
13912.9363
 31
0.0
  0
TEXT
  5
2CA
330
2
100
AcDbEntity
  8
0
100
AcDbText
 10
24450.039
 20
13912.9363
 30
0.0
 40
200.0
  1
＊
  7
EXTFONT
100
AcDbText
  0
TEXT
  5
2CB
330
2
100
AcDbEntity
  8
0
100
AcDbText
 10
24250.039
 20
14437.9363
 30
0.0
 40
200.0
  1
＊
  7
EXTFONT
100
AcDbText
  0
TEXT
  5
2CC
330
2
100
AcDbEntity
  8
0
100
AcDbText
 10
24250.039
 20
14187.9363
 30
0.0
 40
200.0
  1
＊
  7
EXTFONT
100
AcDbText
  0
TEXT
  5
2CD
330
2
100
AcDbEntity
  8
0
100
AcDbText
 10
24250.039
 20
14937.9363
 30
0.0
 40
200.0
  1
＊
  7
EXTFONT
100
AcDbText
  0
TEXT
  5
2CE
330
2
100
AcDbEntity
  8
0
100
AcDbText
 10
24250.039
 20
14687.9363
 30
0.0
 40
200.0
  1
＊
  7
EXTFONT
100
AcDbText
  0
TEXT
  5
2CF
330
2
100
AcDbEntity
  8
0
100
AcDbText
 10
24250.039
 20
15187.9363
 30
0.0
 40
200.0
  1
＊
  7
EXTFONT
100
AcDbText
  0
TEXT
  5
2D0
330
2
100
AcDbEntity
  8
0
100
AcDbText
 10
24250.039
 20
16187.9363
 30
0.0
 40
200.0
  1
＊
  7
EXTFONT
100
AcDbText
  0
TEXT
  5
2D1
330
2
100
AcDbEntity
  8
0
100
AcDbText
 10
24250.039
 20
15687.9363
 30
0.0
 40
200.0
  1
＊
  7
EXTFONT
100
AcDbText
  0
TEXT
  5
2D2
330
2
100
AcDbEntity
  8
0
100
AcDbText
 10
24250.039
 20
15437.9363
 30
0.0
 40
200.0
  1
＊
  7
EXTFONT
100
AcDbText
  0
TEXT
  5
2D3
330
2
100
AcDbEntity
  8
0
100
AcDbText
 10
24250.039
 20
15937.9363
 30
0.0
 40
200.0
  1
＊
  7
EXTFONT
100
AcDbText
  0
TEXT
  5
2D4
330
2
100
AcDbEntity
  8
0
100
AcDbText
 10
24250.039
 20
19392.9363
 30
0.0
 40
200.0
  1
＊
  7
EXTFONT
100
AcDbText
  0
LINE
  5
2D5
330
2
100
AcDbEntity
  8
YKK_F1
  6
Continuous
100
AcDbLine
 10
24316.70566667
 20
19867.9363
 30
0.0
 11
24783.37233333
 21
19867.9363
 31
0.0
  0
TEXT
  5
2D6
330
2
100
AcDbEntity
  8
YKK_F1
100
AcDbText
 10
24390.039
 20
19667.9363
 30
0.0
 40
160.0
  1
ＡＷ
  7
EXTFONT
100
AcDbText
  0
CIRCLE
  5
2D7
330
2
100
AcDbEntity
  8
YKK_F1
100
AcDbCircle
 10
24550.039
 20
19867.9363
 30
0.0
 40
233.3333333333333
  0
TEXT
  5
2D8
330
2
100
AcDbEntity
  8
0
100
AcDbText
 10
24450.039
 20
19867.9363
 30
0.0
 40
200.0
  1
＊
  7
EXTFONT
100
AcDbText
  0
TEXT
  5
2D9
330
2
100
AcDbEntity
  8
0
100
AcDbText
 10
27550.039
 20
19392.9363
 30
0.0
 40
200.0
  1
＊
  7
EXTFONT
100
AcDbText
  0
TEXT
  5
2DA
330
2
100
AcDbEntity
  8
0
100
AcDbText
 10
27850.039
 20
19642.9363
 30
0.0
 40
200.0
  1
＊
  7
EXTFONT
100
AcDbText
  0
TEXT
  5
2DB
330
2
100
AcDbEntity
  8
YKK_F1
100
AcDbText
 10
28270.039
 20
19642.9363
 30
0.0
 40
200.0
  1
箇所
  7
EXTFONT
100
AcDbText
  0
LINE
  5
42B
330
2
100
AcDbEntity
  8
YKK_A1
100
AcDbLine
 10
7522.02818124
 20
16882.93749057
 30
0.0
 11
7522.02818124
 21
18845.93749057
 31
0.0
1001
YOBJCUT10512090559
1000
ELV2
1001
ACDBBLOCKREPETAG
1070
     1
1071
       75
1005
0
  0
LINE
  5
42C
330
2
100
AcDbEntity
  8
YKK_A1
100
AcDbLine
 10
7540.02818124
 20
18749.93749057
 30
0.0
 11
7540.02818124
 21
16975.93749057
 31
0.0
1001
YOBJCUT10512090559
1000
ELV2
1001
ACDBBLOCKREPETAG
1070
     1
1071
       94
1005
0
  0
LINE
  5
42D
330
2
100
AcDbEntity
  8
YKK_A1
100
AcDbLine
 10
7460.02818124
 20
16882.93749057
 30
0.0
 11
7460.02818124
 21
18845.93749057
 31
0.0
1001
YOBJCUT10512090559
1000
ELV2
1001
ACDBBLOCKREPETAG
1070
     1
1071
       64
1005
0
  0
LINE
  5
42E
330
2
100
AcDbEntity
  8
YKK_A1
100
AcDbLine
 10
7438.02818124
 20
16882.93749057
 30
0.0
 11
7438.02818124
 21
18882.93749057
 31
0.0
1001
YOBJCUT10512090559
1000
ELV2
1001
ACDBBLOCKREPETAG
1070
     1
1071
       60
1005
0
  0
LINE
  5
42F
330
2
100
AcDbEntity
  8
YKK_A1
100
AcDbLine
 10
7425.02818124
 20
16882.9374674
 30
0.0
 11
7425.02818124
 21
18897.9351326
 31
0.0
1001
YOBJCUT10512090559
1000
ELV2
1001
ACDBBLOCKREPETAG
1070
     1
1071
       34
1005
0
  0
LINE
  5
430
330
2
100
AcDbEntity
  8
YKK_A1
100
AcDbLine
 10
7410.04031143
 20
16882.9374674
 30
0.0
 11
7410.04031143
 21
18897.9351326
 31
0.0
1001
YOBJCUT10512090559
1000
ELV2
1001
ACDBBLOCKREPETAG
1070
     1
1071
       51
1005
0
  0
LINE
  5
431
330
2
100
AcDbEntity
  8
YKK_A1
100
AcDbLine
 10
8290.02818124
 20
16882.93749057
 30
0.0
 11
8290.02818124
 21
18845.93749057
 31
0.0
1001
YOBJCUT10512090559
1000
ELV2
1001
ACDBBLOCKREPETAG
1070
     1
1071
       65
1005
0
  0
LINE
  5
432
330
2
100
AcDbEntity
  8
YKK_A1
100
AcDbLine
 10
8312.02818124
 20
16882.93749057
 30
0.0
 11
8312.02818124
 21
18882.93749057
 31
0.0
1001
YOBJCUT10512090559
1000
ELV2
1001
ACDBBLOCKREPETAG
1070
     1
1071
       61
1005
0
  0
LINE
  5
433
330
2
100
AcDbEntity
  8
YKK_A1
100
AcDbLine
 10
8325.02818124
 20
16882.9374674
 30
0.0
 11
8325.02818124
 21
18897.9351326
 31
0.0
1001
YOBJCUT10512090559
1000
ELV2
1001
ACDBBLOCKREPETAG
1070
     1
1071
       36
1005
0
  0
LINE
  5
434
330
2
100
AcDbEntity
  8
YKK_A1
100
AcDbLine
 10
8340.03768857
 20
16882.9374674
 30
0.0
 11
8340.03768857
 21
18897.9351326
 31
0.0
1001
YOBJCUT10512090559
1000
ELV2
1001
ACDBBLOCKREPETAG
1070
     1
1071
       35
1005
0
  0
LINE
  5
435
330
2
100
AcDbEntity
  8
YKK_A1
100
AcDbLine
 10
8228.02818124
 20
17771.91249673
 30
0.0
 11
8228.02818124
 21
16882.93749057
 31
0.0
1001
ACDBBLOCKREPETAG
1070
     1
1071
      104
1005
0
  0
LINE
  5
436
330
2
100
AcDbEntity
  8
YKK_A1
100
AcDbLine
 10
8210.02818124
 20
16975.93749057
 30
0.0
 11
8210.02818124
 21
17771.91249673
 31
0.0
1001
ACDBBLOCKREPETAG
1070
     1
1071
       93
1005
0
  0
LINE
  5
437
330
2
100
AcDbEntity
  8
YKK_A1
  6
CENTER
100
AcDbLine
 10
7460.02818124
 20
17864.43749057
 30
0.0
 11
8290.02818124
 21
16882.93749057
 31
0.0
  0
LINE
  5
438
330
2
100
AcDbEntity
  8
YKK_A1
100
AcDbLine
 10
7522.02818124
 20
16957.93749057
 30
0.0
 11
8228.02818124
 21
16957.93749057
 31
0.0
1001
ACDBBLOCKREPETAG
1070
     1
1071
       78
1005
0
  0
LINE
  5
439
330
2
100
AcDbEntity
  8
YKK_A1
100
AcDbLine
 10
7522.02818124
 20
16975.93749057
 30
0.0
 11
8228.02818124
 21
16975.93749057
 31
0.0
1001
ACDBBLOCKREPETAG
1070
     1
1071
       73
1005
0
  0
LINE
  5
43A
330
2
100
AcDbEntity
  8
YKK_A1
100
AcDbLine
 10
7410.04031143
 20
16882.9374674
 30
0.0
 11
8340.03768857
 21
16882.9374674
 31
0.0
  0
LINE
  5
43B
330
2
100
AcDbEntity
  8
YKK_A1
100
AcDbLine
 10
8228.02818124
 20
18845.93749057
 30
0.0
 11
8228.02818124
 21
17793.96248462
 31
0.0
1001
ACDBBLOCKREPETAG
1070
     1
1071
       76
1005
0
  0
LINE
  5
43C
330
2
100
AcDbEntity
  8
YKK_A1
  6
CENTER
100
AcDbLine
 10
8290.02818125
 20
18845.93746934
 30
0.0
 11
7460.02818124
 21
17864.43749057
 31
0.0
  0
LINE
  5
43D
330
2
100
AcDbEntity
  8
YKK_A1
100
AcDbLine
 10
8228.02818124
 20
18749.93749057
 30
0.0
 11
7522.02818124
 21
18749.93749057
 31
0.0
1001
ACDBBLOCKREPETAG
1070
     1
1071
       77
1005
0
  0
LINE
  5
43E
330
2
100
AcDbEntity
  8
YKK_A1
100
AcDbLine
 10
8210.02818124
 20
17793.96248462
 30
0.0
 11
8210.02818124
 21
18749.93749057
 31
0.0
1001
ACDBBLOCKREPETAG
1070
     1
1071
      105
1005
0
  0
LINE
  5
43F
330
2
100
AcDbEntity
  8
YKK_A2
100
AcDbLine
 10
8166.5532228
 20
17793.96248462
 30
0.0
 11
8263.15316975
 21
17793.96248462
 31
0.0
1001
ACDBBLOCKREPETAG
1070
     1
1071
      109
1005
0
  0
CIRCLE
  5
440
330
2
100
AcDbEntity
  8
YKK_A2
100
AcDbCircle
 10
8260.52817795
 20
17929.93740902
 30
0.0
 40
20.99998846578801
1001
ACDBBLOCKREPETAG
1070
     1
1071
      107
1005
0
  0
LINE
  5
441
330
2
100
AcDbEntity
  8
YKK_A2
100
AcDbLine
 10
8263.15316975
 20
17771.91249673
 30
0.0
 11
8166.5532228
 21
17771.91249673
 31
0.0
1001
ACDBBLOCKREPETAG
1070
     1
1071
      111
1005
0
  0
ARC
  5
442
330
2
100
AcDbEntity
  8
YKK_A2
100
AcDbCircle
 10
8260.52817795
 20
17782.93748976
 30
0.0
 40
26.24998558223503
100
AcDbArc
 50
204.83458529
 51
155.16541031
1001
ACDBBLOCKREPETAG
1070
     1
1071
      108
1005
0
  0
ARC
  5
443
330
2
100
AcDbEntity
  8
YKK_A2
100
AcDbCircle
 10
8166.5532228
 20
17782.93749067
 30
0.0
 40
11.0249939445387
100
AcDbArc
 50
90.0
 51
270.0
1001
ACDBBLOCKREPETAG
1070
     1
1071
      112
1005
0
  0
ARC
  5
444
330
2
100
AcDbEntity
  8
YKK_A2
100
AcDbCircle
 10
8263.15316975
 20
17782.93749067
 30
0.0
 40
11.0249939445387
100
AcDbArc
 50
270.0
 51
90.0
1001
ACDBBLOCKREPETAG
1070
     1
1071
      110
1005
0
  0
LINE
  5
445
330
2
100
AcDbEntity
  8
YKK_A1
100
AcDbLine
 10
8228.02818124
 20
18767.93749057
 30
0.0
 11
7522.02818124
 21
18767.93749057
 31
0.0
1001
ACDBBLOCKREPETAG
1070
     1
1071
       70
1005
0
  0
LINE
  5
446
330
2
100
AcDbEntity
  8
YKK_A1
100
AcDbLine
 10
8340.03768857
 20
18897.9351326
 30
0.0
 11
7410.04031143
 21
18897.9351326
 31
0.0
1001
ACDBBLOCKREPETAG
1070
     1
1071
       53
1005
0
  0
LINE
  5
447
330
2
100
AcDbEntity
  8
YKK_A1
100
AcDbLine
 10
8325.02818124
 20
18882.93749057
 30
0.0
 11
7425.02818124
 21
18882.93749057
 31
0.0
1001
ACDBBLOCKREPETAG
1070
     1
1071
       54
1005
0
  0
LINE
  5
448
330
2
100
AcDbEntity
  8
YKK_A1
100
AcDbLine
 10
8312.02818124
 20
18858.93749057
 30
0.0
 11
7438.02818124
 21
18858.93749057
 31
0.0
1001
ACDBBLOCKREPETAG
1070
     1
1071
       62
1005
0
  0
LINE
  5
449
330
2
100
AcDbEntity
  8
YKK_A1
100
AcDbLine
 10
8312.02818124
 20
18845.93749057
 30
0.0
 11
7438.02818124
 21
18845.93749057
 31
0.0
1001
ACDBBLOCKREPETAG
1070
     1
1071
       63
1005
0
  0
LINE
  5
44A
330
2
100
AcDbEntity
  8
YKK_A1
100
AcDbLine
 10
11660.02818124
 20
16882.93749057
 30
0.0
 11
11660.02818124
 21
18845.93749057
 31
0.0
1001
YOBJCUT10512090559
1000
ELV2
1001
ACDBBLOCKREPETAG
1070
     1
1071
       64
1005
0
  0
LINE
  5
44B
330
2
100
AcDbEntity
  8
YKK_A1
100
AcDbLine
 10
11638.02818124
 20
16882.93749057
 30
0.0
 11
11638.02818124
 21
18882.93749057
 31
0.0
1001
YOBJCUT10512090559
1000
ELV2
1001
ACDBBLOCKREPETAG
1070
     1
1071
       60
1005
0
  0
LINE
  5
44C
330
2
100
AcDbEntity
  8
YKK_A1
100
AcDbLine
 10
11625.02818124
 20
16882.9374674
 30
0.0
 11
11625.02818124
 21
18897.9351326
 31
0.0
1001
YOBJCUT10512090559
1000
ELV2
1001
ACDBBLOCKREPETAG
1070
     1
1071
       34
1005
0
  0
LINE
  5
44D
330
2
100
AcDbEntity
  8
YKK_A1
100
AcDbLine
 10
11610.04031143
 20
16882.9374674
 30
0.0
 11
11610.04031143
 21
18897.9351326
 31
0.0
1001
YOBJCUT10512090559
1000
ELV2
1001
ACDBBLOCKREPETAG
1070
     1
1071
       51
1005
0
  0
LINE
  5
44E
330
2
100
AcDbEntity
  8
YKK_A1
100
AcDbLine
 10
11722.02818124
 20
16882.93749057
 30
0.0
 11
11722.02818124
 21
18845.93749057
 31
0.0
1001
YOBJCUT10512090559
1000
ELV2
1001
ACDBBLOCKREPETAG
1070
     1
1071
       75
1005
0
  0
LINE
  5
44F
330
2
100
AcDbEntity
  8
YKK_A1
100
AcDbLine
 10
11740.02818124
 20
18749.93749057
 30
0.0
 11
11740.02818124
 21
16975.93749057
 31
0.0
1001
YOBJCUT10512090559
1000
ELV2
1001
ACDBBLOCKREPETAG
1070
     1
1071
       94
1005
0
  0
LINE
  5
450
330
2
100
AcDbEntity
  8
YKK_A1
100
AcDbLine
 10
12534.65818124
 20
18845.93749057
 30
0.0
 11
12534.65818124
 21
16882.93749057
 31
0.0
1001
ACDBBLOCKREPETAG
1070
     1
1071
       88
1005
0
  0
LINE
  5
451
330
2
100
AcDbEntity
  8
YKK_A1
100
AcDbLine
 10
12516.02818124
 20
18845.93749057
 30
0.0
 11
12516.02818124
 21
16882.93749057
 31
0.0
1001
ACDBBLOCKREPETAG
1070
     1
1071
       87
1005
0
  0
LINE
  5
452
330
2
100
AcDbEntity
  8
YKK_A1
100
AcDbLine
 10
13390.02818124
 20
16882.93749057
 30
0.0
 11
13390.02818124
 21
18845.93749057
 31
0.0
1001
YOBJCUT10512090559
1000
ELV2
1001
ACDBBLOCKREPETAG
1070
     1
1071
       65
1005
0
  0
LINE
  5
453
330
2
100
AcDbEntity
  8
YKK_A1
100
AcDbLine
 10
13412.02818124
 20
16882.93749057
 30
0.0
 11
13412.02818124
 21
18882.93749057
 31
0.0
1001
YOBJCUT10512090559
1000
ELV2
1001
ACDBBLOCKREPETAG
1070
     1
1071
       61
1005
0
  0
LINE
  5
454
330
2
100
AcDbEntity
  8
YKK_A1
100
AcDbLine
 10
13425.02818124
 20
16882.9374674
 30
0.0
 11
13425.02818124
 21
18897.9351326
 31
0.0
1001
YOBJCUT10512090559
1000
ELV2
1001
ACDBBLOCKREPETAG
1070
     1
1071
       36
1005
0
  0
LINE
  5
455
330
2
100
AcDbEntity
  8
YKK_A1
100
AcDbLine
 10
13440.03768857
 20
16882.9374674
 30
0.0
 11
13440.03768857
 21
18897.9351326
 31
0.0
1001
YOBJCUT10512090559
1000
ELV2
1001
ACDBBLOCKREPETAG
1070
     1
1071
       35
1005
0
  0
LINE
  5
456
330
2
100
AcDbEntity
  8
YKK_A1
100
AcDbLine
 10
12598.02818124
 20
18845.93749057
 30
0.0
 11
12598.02818124
 21
16882.93749057
 31
0.0
1001
ACDBBLOCKREPETAG
1070
     1
1071
       86
1005
0
  0
LINE
  5
457
330
2
100
AcDbEntity
  8
YKK_A1
100
AcDbLine
 10
12616.02818124
 20
16975.93749057
 30
0.0
 11
12616.02818124
 21
18749.93749057
 31
0.0
1001
ACDBBLOCKREPETAG
1070
     1
1071
       99
1005
0
  0
LINE
  5
458
330
2
100
AcDbEntity
  8
YKK_A1
100
AcDbLine
 10
13328.02818124
 20
16882.93749057
 30
0.0
 11
13328.02818124
 21
18845.93749057
 31
0.0
1001
YOBJCUT10512090559
1000
ELV2
1001
ACDBBLOCKREPETAG
1070
     1
1071
       82
1005
0
  0
LINE
  5
459
330
2
100
AcDbEntity
  8
YKK_A1
100
AcDbLine
 10
13310.02818124
 20
18749.93749057
 30
0.0
 11
13310.02818124
 21
16975.93749057
 31
0.0
1001
YOBJCUT10512090559
1000
ELV2
1001
ACDBBLOCKREPETAG
1070
     1
1071
      100
1005
0
  0
LINE
  5
45A
330
2
100
AcDbEntity
  8
YKK_A1
100
AcDbLine
 10
12434.02818124
 20
16975.93749057
 30
0.0
 11
12434.02818124
 21
17771.91249673
 31
0.0
1001
ACDBBLOCKREPETAG
1070
     1
1071
       93
1005
0
  0
LINE
  5
45B
330
2
100
AcDbEntity
  8
YKK_A1
100
AcDbLine
 10
12452.02818124
 20
17771.91249673
 30
0.0
 11
12452.02818124
 21
16882.93749057
 31
0.0
1001
ACDBBLOCKREPETAG
1070
     1
1071
      105
1005
0
  0
LINE
  5
45C
330
2
100
AcDbEntity
  8
YKK_A1
  6
CENTER
100
AcDbLine
 10
11660.02818124
 20
17864.43749057
 30
0.0
 11
12525.02818124
 21
16882.93749057
 31
0.0
  0
LINE
  5
45D
330
2
100
AcDbEntity
  8
YKK_A1
  6
CENTER
100
AcDbLine
 10
12525.02818124
 20
16882.93749057
 30
0.0
 11
13390.02818124
 21
17864.43749057
 31
0.0
  0
LINE
  5
45E
330
2
100
AcDbEntity
  8
YKK_A1
100
AcDbLine
 10
11610.04031143
 20
16882.9374674
 30
0.0
 11
13440.03768857
 21
16882.9374674
 31
0.0
  0
LINE
  5
45F
330
2
100
AcDbEntity
  8
YKK_A1
100
AcDbLine
 10
11722.02818124
 20
16975.93749057
 30
0.0
 11
12452.02818124
 21
16975.93749057
 31
0.0
1001
ACDBBLOCKREPETAG
1070
     1
1071
       73
1005
0
  0
LINE
  5
460
330
2
100
AcDbEntity
  8
YKK_A1
100
AcDbLine
 10
11722.02818124
 20
16957.93749057
 30
0.0
 11
12452.02818124
 21
16957.93749057
 31
0.0
1001
ACDBBLOCKREPETAG
1070
     1
1071
       78
1005
0
  0
LINE
  5
461
330
2
100
AcDbEntity
  8
YKK_A1
100
AcDbLine
 10
13328.02818124
 20
16975.93749057
 30
0.0
 11
12598.02818124
 21
16975.93749057
 31
0.0
1001
ACDBBLOCKREPETAG
1070
     1
1071
       79
1005
0
  0
LINE
  5
462
330
2
100
AcDbEntity
  8
YKK_A1
100
AcDbLine
 10
13328.02818124
 20
16957.93749057
 30
0.0
 11
12598.02818124
 21
16957.93749057
 31
0.0
1001
ACDBBLOCKREPETAG
1070
     1
1071
       80
1005
0
  0
LINE
  5
463
330
2
100
AcDbEntity
  8
YKK_A1
100
AcDbLine
 10
13412.02818124
 20
18845.93749057
 30
0.0
 11
11638.02818124
 21
18845.93749057
 31
0.0
1001
ACDBBLOCKREPETAG
1070
     1
1071
       63
1005
0
  0
LINE
  5
464
330
2
100
AcDbEntity
  8
YKK_A1
100
AcDbLine
 10
13412.02818124
 20
18858.93749057
 30
0.0
 11
11638.02818124
 21
18858.93749057
 31
0.0
1001
ACDBBLOCKREPETAG
1070
     1
1071
       62
1005
0
  0
LINE
  5
465
330
2
100
AcDbEntity
  8
YKK_A1
100
AcDbLine
 10
13425.02818124
 20
18882.93749057
 30
0.0
 11
11625.02818124
 21
18882.93749057
 31
0.0
1001
ACDBBLOCKREPETAG
1070
     1
1071
       54
1005
0
  0
LINE
  5
466
330
2
100
AcDbEntity
  8
YKK_A1
100
AcDbLine
 10
13440.03768857
 20
18897.9351326
 30
0.0
 11
11610.04031143
 21
18897.9351326
 31
0.0
1001
ACDBBLOCKREPETAG
1070
     1
1071
       53
1005
0
  0
LINE
  5
467
330
2
100
AcDbEntity
  8
YKK_A1
  6
CENTER
100
AcDbLine
 10
13390.02818124
 20
17864.43749057
 30
0.0
 11
12525.02816253
 21
18845.93746934
 31
0.0
  0
LINE
  5
468
330
2
100
AcDbEntity
  8
YKK_A1
100
AcDbLine
 10
12452.02818124
 20
18845.93749057
 30
0.0
 11
12452.02818124
 21
17793.96248462
 31
0.0
1001
ACDBBLOCKREPETAG
1070
     1
1071
       76
1005
0
  0
LINE
  5
469
330
2
100
AcDbEntity
  8
YKK_A1
  6
CENTER
100
AcDbLine
 10
12525.02818124
 20
18845.93749057
 30
0.0
 11
11660.02818124
 21
17864.43749057
 31
0.0
  0
LINE
  5
46A
330
2
100
AcDbEntity
  8
YKK_A1
100
AcDbLine
 10
12434.02818124
 20
17793.96248462
 30
0.0
 11
12434.02818124
 21
18749.93749057
 31
0.0
1001
ACDBBLOCKREPETAG
1070
     1
1071
      106
1005
0
  0
LINE
  5
46B
330
2
100
AcDbEntity
  8
YKK_A2
100
AcDbLine
 10
12390.5532228
 20
17793.96248462
 30
0.0
 11
12487.15316975
 21
17793.96248462
 31
0.0
1001
ACDBBLOCKREPETAG
1070
     1
1071
      110
1005
0
  0
CIRCLE
  5
46C
330
2
100
AcDbEntity
  8
YKK_A2
100
AcDbCircle
 10
12484.52817795
 20
17929.93740902
 30
0.0
 40
20.99998846578801
1001
ACDBBLOCKREPETAG
1070
     1
1071
      108
1005
0
  0
LINE
  5
46D
330
2
100
AcDbEntity
  8
YKK_A2
100
AcDbLine
 10
12487.15316975
 20
17771.91249673
 30
0.0
 11
12390.5532228
 21
17771.91249673
 31
0.0
1001
ACDBBLOCKREPETAG
1070
     1
1071
      112
1005
0
  0
ARC
  5
46E
330
2
100
AcDbEntity
  8
YKK_A2
100
AcDbCircle
 10
12487.15316975
 20
17782.93749067
 30
0.0
 40
11.0249939445387
100
AcDbArc
 50
270.0
 51
90.0
1001
ACDBBLOCKREPETAG
1070
     1
1071
      111
1005
0
  0
ARC
  5
46F
330
2
100
AcDbEntity
  8
YKK_A2
100
AcDbCircle
 10
12484.52817795
 20
17782.93748976
 30
0.0
 40
26.24998558223503
100
AcDbArc
 50
204.83458529
 51
155.16541031
1001
ACDBBLOCKREPETAG
1070
     1
1071
      109
1005
0
  0
ARC
  5
470
330
2
100
AcDbEntity
  8
YKK_A2
100
AcDbCircle
 10
12390.5532228
 20
17782.93749067
 30
0.0
 40
11.0249939445387
100
AcDbArc
 50
90.0
 51
270.0
1001
ACDBBLOCKREPETAG
1070
     1
1071
      113
1005
0
  0
LINE
  5
471
330
2
100
AcDbEntity
  8
YKK_A1
100
AcDbLine
 10
12452.02818124
 20
18749.93749057
 30
0.0
 11
11722.02818124
 21
18749.93749057
 31
0.0
1001
ACDBBLOCKREPETAG
1070
     1
1071
       77
1005
0
  0
LINE
  5
472
330
2
100
AcDbEntity
  8
YKK_A1
100
AcDbLine
 10
12452.02818124
 20
18767.93749057
 30
0.0
 11
11722.02818124
 21
18767.93749057
 31
0.0
1001
ACDBBLOCKREPETAG
1070
     1
1071
       70
1005
0
  0
LINE
  5
473
330
2
100
AcDbEntity
  8
YKK_A1
100
AcDbLine
 10
12598.02818124
 20
18749.93749057
 30
0.0
 11
13328.02818124
 21
18749.93749057
 31
0.0
1001
ACDBBLOCKREPETAG
1070
     1
1071
       84
1005
0
  0
LINE
  5
474
330
2
100
AcDbEntity
  8
YKK_A1
100
AcDbLine
 10
12598.02818124
 20
18767.93749057
 30
0.0
 11
13328.02818124
 21
18767.93749057
 31
0.0
1001
ACDBBLOCKREPETAG
1070
     1
1071
       83
1005
0
  0
LINE
  5
475
330
2
100
AcDbEntity
  8
YKK_A1
100
AcDbLine
 10
17528.02818124
 20
18845.93749057
 30
0.0
 11
17528.02818124
 21
16882.93749057
 31
0.0
1001
ACDBBLOCKREPETAG
1070
     1
1071
      104
1005
0
  0
LINE
  5
476
330
2
100
AcDbEntity
  8
YKK_A1
100
AcDbLine
 10
16710.04031143
 20
16882.9374674
 30
0.0
 11
16710.04031143
 21
18897.9351326
 31
0.0
1001
YOBJCUT10512090559
1000
ELV2
1001
ACDBBLOCKREPETAG
1070
     1
1071
       51
1005
0
  0
LINE
  5
477
330
2
100
AcDbEntity
  8
YKK_A1
100
AcDbLine
 10
16725.02818124
 20
16882.9374674
 30
0.0
 11
16725.02818124
 21
18897.9351326
 31
0.0
1001
YOBJCUT10512090559
1000
ELV2
1001
ACDBBLOCKREPETAG
1070
     1
1071
       34
1005
0
  0
LINE
  5
478
330
2
100
AcDbEntity
  8
YKK_A1
100
AcDbLine
 10
16738.02818124
 20
16882.93749057
 30
0.0
 11
16738.02818124
 21
18882.93749057
 31
0.0
1001
YOBJCUT10512090559
1000
ELV2
1001
ACDBBLOCKREPETAG
1070
     1
1071
       60
1005
0
  0
LINE
  5
479
330
2
100
AcDbEntity
  8
YKK_A1
100
AcDbLine
 10
16760.02818124
 20
16882.93749057
 30
0.0
 11
16760.02818124
 21
18845.93749057
 31
0.0
1001
YOBJCUT10512090559
1000
ELV2
1001
ACDBBLOCKREPETAG
1070
     1
1071
       64
1005
0
  0
LINE
  5
47A
330
2
100
AcDbEntity
  8
YKK_A1
100
AcDbLine
 10
17640.03768857
 20
16882.9374674
 30
0.0
 11
17640.03768857
 21
18897.9351326
 31
0.0
1001
YOBJCUT10512090559
1000
ELV2
1001
ACDBBLOCKREPETAG
1070
     1
1071
       35
1005
0
  0
LINE
  5
47B
330
2
100
AcDbEntity
  8
YKK_A1
100
AcDbLine
 10
17625.02818124
 20
16882.9374674
 30
0.0
 11
17625.02818124
 21
18897.9351326
 31
0.0
1001
YOBJCUT10512090559
1000
ELV2
1001
ACDBBLOCKREPETAG
1070
     1
1071
       36
1005
0
  0
LINE
  5
47C
330
2
100
AcDbEntity
  8
YKK_A1
100
AcDbLine
 10
17612.02818124
 20
16882.93749057
 30
0.0
 11
17612.02818124
 21
18882.93749057
 31
0.0
1001
YOBJCUT10512090559
1000
ELV2
1001
ACDBBLOCKREPETAG
1070
     1
1071
       61
1005
0
  0
LINE
  5
47D
330
2
100
AcDbEntity
  8
YKK_A1
100
AcDbLine
 10
17590.02818124
 20
16882.93749057
 30
0.0
 11
17590.02818124
 21
18845.93749057
 31
0.0
1001
YOBJCUT10512090559
1000
ELV2
1001
ACDBBLOCKREPETAG
1070
     1
1071
       65
1005
0
  0
LINE
  5
47E
330
2
100
AcDbEntity
  8
YKK_A1
100
AcDbLine
 10
16822.02818124
 20
16882.93749057
 30
0.0
 11
16822.02818124
 21
18845.93749057
 31
0.0
1001
YOBJCUT10512090559
1000
ELV2
1001
ACDBBLOCKREPETAG
1070
     1
1071
       75
1005
0
  0
LINE
  5
47F
330
2
100
AcDbEntity
  8
YKK_A1
100
AcDbLine
 10
16840.02818124
 20
17725.43745324
 30
0.0
 11
16840.02818124
 21
16975.93749057
 31
0.0
1001
YOBJCUT10512090559
1000
ELV2
1001
ACDBBLOCKREPETAG
1070
     1
1071
       94
1005
0
  0
LINE
  5
480
330
2
100
AcDbEntity
  8
YKK_A1
100
AcDbLine
 10
17510.02818124
 20
16975.93749057
 30
0.0
 11
17510.02818124
 21
17725.43745324
 31
0.0
1001
ACDBBLOCKREPETAG
1070
     1
1071
       93
1005
0
  0
LINE
  5
481
330
2
100
AcDbEntity
  8
YKK_A1
  6
CENTER
100
AcDbLine
 10
16760.02818124
 20
17864.43749057
 30
0.0
 11
17590.02818124
 21
16882.93749057
 31
0.0
  0
LINE
  5
482
330
2
100
AcDbEntity
  8
YKK_A1
100
AcDbLine
 10
16822.02818124
 20
16975.93749057
 30
0.0
 11
17528.02818124
 21
16975.93749057
 31
0.0
1001
ACDBBLOCKREPETAG
1070
     1
1071
       73
1005
0
  0
LINE
  5
483
330
2
100
AcDbEntity
  8
YKK_A1
100
AcDbLine
 10
16822.02818124
 20
16957.93749057
 30
0.0
 11
17528.02818124
 21
16957.93749057
 31
0.0
1001
ACDBBLOCKREPETAG
1070
     1
1071
       78
1005
0
  0
LINE
  5
484
330
2
100
AcDbEntity
  8
YKK_A1
100
AcDbLine
 10
16710.04031143
 20
16882.9374674
 30
0.0
 11
17640.03768857
 21
16882.9374674
 31
0.0
  0
LINE
  5
485
330
2
100
AcDbEntity
  8
YKK_A1
  6
CENTER
100
AcDbLine
 10
17590.02818125
 20
18845.93746934
 30
0.0
 11
16760.02818124
 21
17864.43749057
 31
0.0
  0
LINE
  5
486
330
2
100
AcDbEntity
  8
YKK_A1
100
AcDbLine
 10
17528.02818124
 20
18749.93749057
 30
0.0
 11
16822.02818124
 21
18749.93749057
 31
0.0
1001
ACDBBLOCKREPETAG
1070
     1
1071
       77
1005
0
  0
LINE
  5
487
330
2
100
AcDbEntity
  8
YKK_A1
100
AcDbLine
 10
16822.02818124
 20
17822.43748415
 30
0.0
 11
17528.02818124
 21
17822.43748415
 31
0.0
  0
LINE
  5
488
330
2
100
AcDbEntity
  8
YKK_A1
100
AcDbLine
 10
16822.02818124
 20
17840.43752198
 30
0.0
 11
17528.02818124
 21
17840.43752198
 31
0.0
  0
LINE
  5
489
330
2
100
AcDbEntity
  8
YKK_A1
100
AcDbLine
 10
16822.02818124
 20
17725.43745324
 30
0.0
 11
17528.02818124
 21
17725.43745324
 31
0.0
  0
LINE
  5
48A
330
2
100
AcDbEntity
  8
YKK_A1
100
AcDbLine
 10
16822.02818124
 20
17743.43745324
 30
0.0
 11
17528.02818124
 21
17743.43745324
 31
0.0
  0
LINE
  5
48B
330
2
100
AcDbEntity
  8
YKK_A1
100
AcDbLine
 10
16840.02818124
 20
18749.93749057
 30
0.0
 11
16840.02818124
 21
17840.43752198
 31
0.0
1001
YOBJCUT10512090559
1000
ELV2
1001
ACDBBLOCKREPETAG
1070
     1
1071
       94
1005
0
  0
LINE
  5
48C
330
2
100
AcDbEntity
  8
YKK_A1
100
AcDbLine
 10
17510.02818124
 20
17840.43752198
 30
0.0
 11
17510.02818124
 21
18749.93749057
 31
0.0
1001
ACDBBLOCKREPETAG
1070
     1
1071
      105
1005
0
  0
CIRCLE
  5
48D
330
2
100
AcDbEntity
  8
YKK_A2
100
AcDbCircle
 10
17466.49553443
 20
17782.93752198
 30
0.0
 40
29.99999999998977
1001
ACDBBLOCKREPETAG
1070
     1
1071
      101
1005
0
  0
LINE
  5
48E
330
2
100
AcDbEntity
  8
YKK_A1
100
AcDbLine
 10
17625.02818124
 20
18882.93749057
 30
0.0
 11
16725.02818124
 21
18882.93749057
 31
0.0
1001
ACDBBLOCKREPETAG
1070
     1
1071
       54
1005
0
  0
LINE
  5
48F
330
2
100
AcDbEntity
  8
YKK_A1
100
AcDbLine
 10
17640.03768857
 20
18897.9351326
 30
0.0
 11
16710.04031143
 21
18897.9351326
 31
0.0
1001
ACDBBLOCKREPETAG
1070
     1
1071
       53
1005
0
  0
LINE
  5
490
330
2
100
AcDbEntity
  8
YKK_A1
100
AcDbLine
 10
17528.02818124
 20
18767.93749057
 30
0.0
 11
16822.02818124
 21
18767.93749057
 31
0.0
1001
ACDBBLOCKREPETAG
1070
     1
1071
       70
1005
0
  0
LINE
  5
491
330
2
100
AcDbEntity
  8
YKK_A1
100
AcDbLine
 10
17612.02818124
 20
18845.93749057
 30
0.0
 11
16738.02818124
 21
18845.93749057
 31
0.0
1001
ACDBBLOCKREPETAG
1070
     1
1071
       63
1005
0
  0
LINE
  5
492
330
2
100
AcDbEntity
  8
YKK_A1
100
AcDbLine
 10
17612.02818124
 20
18858.93749057
 30
0.0
 11
16738.02818124
 21
18858.93749057
 31
0.0
1001
ACDBBLOCKREPETAG
1070
     1
1071
       62
1005
0
  0
LINE
  5
493
330
2
100
AcDbEntity
  8
YKK_A1
100
AcDbLine
 10
21752.02818124
 20
18845.93749057
 30
0.0
 11
21752.02818124
 21
16882.93749057
 31
0.0
1001
ACDBBLOCKREPETAG
1070
     1
1071
      105
1005
0
  0
LINE
  5
494
330
2
100
AcDbEntity
  8
YKK_A1
100
AcDbLine
 10
22628.02818124
 20
16882.93749057
 30
0.0
 11
22628.02818124
 21
18845.93749057
 31
0.0
1001
YOBJCUT10512090559
1000
ELV2
1001
ACDBBLOCKREPETAG
1070
     1
1071
       82
1005
0
  0
LINE
  5
495
330
2
100
AcDbEntity
  8
YKK_A1
100
AcDbLine
 10
21898.02818124
 20
18845.93749057
 30
0.0
 11
21898.02818124
 21
16882.93749057
 31
0.0
1001
ACDBBLOCKREPETAG
1070
     1
1071
       86
1005
0
  0
LINE
  5
496
330
2
100
AcDbEntity
  8
YKK_A1
100
AcDbLine
 10
22740.03768857
 20
16882.9374674
 30
0.0
 11
22740.03768857
 21
18897.9351326
 31
0.0
1001
YOBJCUT10512090559
1000
ELV2
1001
ACDBBLOCKREPETAG
1070
     1
1071
       35
1005
0
  0
LINE
  5
497
330
2
100
AcDbEntity
  8
YKK_A1
100
AcDbLine
 10
22725.02818124
 20
16882.9374674
 30
0.0
 11
22725.02818124
 21
18897.9351326
 31
0.0
1001
YOBJCUT10512090559
1000
ELV2
1001
ACDBBLOCKREPETAG
1070
     1
1071
       36
1005
0
  0
LINE
  5
498
330
2
100
AcDbEntity
  8
YKK_A1
100
AcDbLine
 10
22712.02818124
 20
16882.93749057
 30
0.0
 11
22712.02818124
 21
18882.93749057
 31
0.0
1001
YOBJCUT10512090559
1000
ELV2
1001
ACDBBLOCKREPETAG
1070
     1
1071
       61
1005
0
  0
LINE
  5
499
330
2
100
AcDbEntity
  8
YKK_A1
100
AcDbLine
 10
22690.02818124
 20
16882.93749057
 30
0.0
 11
22690.02818124
 21
18845.93749057
 31
0.0
1001
YOBJCUT10512090559
1000
ELV2
1001
ACDBBLOCKREPETAG
1070
     1
1071
       65
1005
0
  0
LINE
  5
49A
330
2
100
AcDbEntity
  8
YKK_A1
100
AcDbLine
 10
21816.02818124
 20
18845.93749057
 30
0.0
 11
21816.02818124
 21
16882.93749057
 31
0.0
1001
ACDBBLOCKREPETAG
1070
     1
1071
       87
1005
0
  0
LINE
  5
49B
330
2
100
AcDbEntity
  8
YKK_A1
100
AcDbLine
 10
21834.65818124
 20
18845.93749057
 30
0.0
 11
21834.65818124
 21
16882.93749057
 31
0.0
1001
ACDBBLOCKREPETAG
1070
     1
1071
       88
1005
0
  0
LINE
  5
49C
330
2
100
AcDbEntity
  8
YKK_A1
100
AcDbLine
 10
21022.02818124
 20
16882.93749057
 30
0.0
 11
21022.02818124
 21
18845.93749057
 31
0.0
1001
YOBJCUT10512090559
1000
ELV2
1001
ACDBBLOCKREPETAG
1070
     1
1071
       75
1005
0
  0
LINE
  5
49D
330
2
100
AcDbEntity
  8
YKK_A1
100
AcDbLine
 10
20910.04031143
 20
16882.9374674
 30
0.0
 11
20910.04031143
 21
18897.9351326
 31
0.0
1001
YOBJCUT10512090559
1000
ELV2
1001
ACDBBLOCKREPETAG
1070
     1
1071
       51
1005
0
  0
LINE
  5
49E
330
2
100
AcDbEntity
  8
YKK_A1
100
AcDbLine
 10
20925.02818124
 20
16882.9374674
 30
0.0
 11
20925.02818124
 21
18897.9351326
 31
0.0
1001
YOBJCUT10512090559
1000
ELV2
1001
ACDBBLOCKREPETAG
1070
     1
1071
       34
1005
0
  0
LINE
  5
49F
330
2
100
AcDbEntity
  8
YKK_A1
100
AcDbLine
 10
20938.02818124
 20
16882.93749057
 30
0.0
 11
20938.02818124
 21
18882.93749057
 31
0.0
1001
YOBJCUT10512090559
1000
ELV2
1001
ACDBBLOCKREPETAG
1070
     1
1071
       60
1005
0
  0
LINE
  5
4A0
330
2
100
AcDbEntity
  8
YKK_A1
100
AcDbLine
 10
20960.02818124
 20
16882.93749057
 30
0.0
 11
20960.02818124
 21
18845.93749057
 31
0.0
1001
YOBJCUT10512090559
1000
ELV2
1001
ACDBBLOCKREPETAG
1070
     1
1071
       64
1005
0
  0
LINE
  5
4A1
330
2
100
AcDbEntity
  8
YKK_A1
100
AcDbLine
 10
21040.02818124
 20
17725.43745324
 30
0.0
 11
21040.02818124
 21
16975.93749057
 31
0.0
1001
YOBJCUT10512090559
1000
ELV2
1001
ACDBBLOCKREPETAG
1070
     1
1071
       94
1005
0
  0
LINE
  5
4A2
330
2
100
AcDbEntity
  8
YKK_A1
100
AcDbLine
 10
22610.02818124
 20
17725.43745324
 30
0.0
 11
22610.02818124
 21
16975.93749057
 31
0.0
1001
YOBJCUT10512090559
1000
ELV2
1001
ACDBBLOCKREPETAG
1070
     1
1071
      100
1005
0
  0
LINE
  5
4A3
330
2
100
AcDbEntity
  8
YKK_A1
100
AcDbLine
 10
21916.02818124
 20
16975.93749057
 30
0.0
 11
21916.02818124
 21
17725.43745324
 31
0.0
1001
ACDBBLOCKREPETAG
1070
     1
1071
       99
1005
0
  0
LINE
  5
4A4
330
2
100
AcDbEntity
  8
YKK_A1
100
AcDbLine
 10
21734.02818124
 20
16975.93749057
 30
0.0
 11
21734.02818124
 21
17725.43745324
 31
0.0
1001
ACDBBLOCKREPETAG
1070
     1
1071
       93
1005
0
  0
LINE
  5
4A5
330
2
100
AcDbEntity
  8
YKK_A1
  6
CENTER
100
AcDbLine
 10
20960.02818124
 20
17864.43749057
 30
0.0
 11
21825.02818124
 21
16882.93749057
 31
0.0
  0
LINE
  5
4A6
330
2
100
AcDbEntity
  8
YKK_A1
  6
CENTER
100
AcDbLine
 10
21825.02818124
 20
16882.93749057
 30
0.0
 11
22690.02818124
 21
17864.43749057
 31
0.0
  0
LINE
  5
4A7
330
2
100
AcDbEntity
  8
YKK_A1
100
AcDbLine
 10
20910.04031143
 20
16882.9374674
 30
0.0
 11
22740.03768857
 21
16882.9374674
 31
0.0
  0
LINE
  5
4A8
330
2
100
AcDbEntity
  8
YKK_A1
100
AcDbLine
 10
21022.02818124
 20
16957.93749057
 30
0.0
 11
21752.02818124
 21
16957.93749057
 31
0.0
1001
ACDBBLOCKREPETAG
1070
     1
1071
       78
1005
0
  0
LINE
  5
4A9
330
2
100
AcDbEntity
  8
YKK_A1
100
AcDbLine
 10
21022.02818124
 20
16975.93749057
 30
0.0
 11
21752.02818124
 21
16975.93749057
 31
0.0
1001
ACDBBLOCKREPETAG
1070
     1
1071
       73
1005
0
  0
LINE
  5
4AA
330
2
100
AcDbEntity
  8
YKK_A1
100
AcDbLine
 10
22628.02818124
 20
16957.93749057
 30
0.0
 11
21898.02818124
 21
16957.93749057
 31
0.0
1001
ACDBBLOCKREPETAG
1070
     1
1071
       80
1005
0
  0
LINE
  5
4AB
330
2
100
AcDbEntity
  8
YKK_A1
100
AcDbLine
 10
22628.02818124
 20
16975.93749057
 30
0.0
 11
21898.02818124
 21
16975.93749057
 31
0.0
1001
ACDBBLOCKREPETAG
1070
     1
1071
       79
1005
0
  0
LINE
  5
4AC
330
2
100
AcDbEntity
  8
YKK_A1
100
AcDbLine
 10
22740.03768857
 20
18897.9351326
 30
0.0
 11
20910.04031143
 21
18897.9351326
 31
0.0
1001
ACDBBLOCKREPETAG
1070
     1
1071
       53
1005
0
  0
LINE
  5
4AD
330
2
100
AcDbEntity
  8
YKK_A1
100
AcDbLine
 10
22725.02818124
 20
18882.93749057
 30
0.0
 11
20925.02818124
 21
18882.93749057
 31
0.0
1001
ACDBBLOCKREPETAG
1070
     1
1071
       54
1005
0
  0
LINE
  5
4AE
330
2
100
AcDbEntity
  8
YKK_A1
100
AcDbLine
 10
22712.02818124
 20
18858.93749057
 30
0.0
 11
20938.02818124
 21
18858.93749057
 31
0.0
1001
ACDBBLOCKREPETAG
1070
     1
1071
       62
1005
0
  0
LINE
  5
4AF
330
2
100
AcDbEntity
  8
YKK_A1
100
AcDbLine
 10
22712.02818124
 20
18845.93749057
 30
0.0
 11
20938.02818124
 21
18845.93749057
 31
0.0
1001
ACDBBLOCKREPETAG
1070
     1
1071
       63
1005
0
  0
LINE
  5
4B0
330
2
100
AcDbEntity
  8
YKK_A1
100
AcDbLine
 10
21752.02818124
 20
18749.93749057
 30
0.0
 11
21022.02818124
 21
18749.93749057
 31
0.0
1001
ACDBBLOCKREPETAG
1070
     1
1071
       77
1005
0
  0
LINE
  5
4B1
330
2
100
AcDbEntity
  8
YKK_A1
100
AcDbLine
 10
21752.02818124
 20
18767.93749057
 30
0.0
 11
21022.02818124
 21
18767.93749057
 31
0.0
1001
ACDBBLOCKREPETAG
1070
     1
1071
       70
1005
0
  0
LINE
  5
4B2
330
2
100
AcDbEntity
  8
YKK_A1
100
AcDbLine
 10
21022.02818124
 20
17725.43745324
 30
0.0
 11
21752.02818124
 21
17725.43745324
 31
0.0
  0
LINE
  5
4B3
330
2
100
AcDbEntity
  8
YKK_A1
100
AcDbLine
 10
21022.02818124
 20
17743.43745324
 30
0.0
 11
21752.02818124
 21
17743.43745324
 31
0.0
  0
LINE
  5
4B4
330
2
100
AcDbEntity
  8
YKK_A1
100
AcDbLine
 10
21022.02818124
 20
17822.43748415
 30
0.0
 11
21752.02818124
 21
17822.43748415
 31
0.0
  0
LINE
  5
4B5
330
2
100
AcDbEntity
  8
YKK_A1
100
AcDbLine
 10
21022.02818124
 20
17840.43752198
 30
0.0
 11
21752.02818124
 21
17840.43752198
 31
0.0
  0
LINE
  5
4B6
330
2
100
AcDbEntity
  8
YKK_A1
  6
CENTER
100
AcDbLine
 10
21825.02818124
 20
18845.93749057
 30
0.0
 11
20960.02818124
 21
17864.43749057
 31
0.0
  0
LINE
  5
4B7
330
2
100
AcDbEntity
  8
YKK_A1
100
AcDbLine
 10
21040.02818124
 20
18749.93749057
 30
0.0
 11
21040.02818124
 21
17840.43752198
 31
0.0
1001
YOBJCUT10512090559
1000
ELV2
1001
ACDBBLOCKREPETAG
1070
     1
1071
       94
1005
0
  0
LINE
  5
4B8
330
2
100
AcDbEntity
  8
YKK_A1
  6
CENTER
100
AcDbLine
 10
22690.02818124
 20
17864.43749057
 30
0.0
 11
21825.02816253
 21
18845.93746934
 31
0.0
  0
LINE
  5
4B9
330
2
100
AcDbEntity
  8
YKK_A1
100
AcDbLine
 10
22610.02818124
 20
18749.93749057
 30
0.0
 11
22610.02818124
 21
17840.43752198
 31
0.0
1001
YOBJCUT10512090559
1000
ELV2
1001
ACDBBLOCKREPETAG
1070
     1
1071
      100
1005
0
  0
LINE
  5
4BA
330
2
100
AcDbEntity
  8
YKK_A1
100
AcDbLine
 10
21734.02818124
 20
17840.43752198
 30
0.0
 11
21734.02818124
 21
18749.93749057
 31
0.0
1001
ACDBBLOCKREPETAG
1070
     1
1071
      106
1005
0
  0
LINE
  5
4BB
330
2
100
AcDbEntity
  8
YKK_A1
100
AcDbLine
 10
21916.02818124
 20
17840.43752198
 30
0.0
 11
21916.02818124
 21
18749.93749057
 31
0.0
1001
ACDBBLOCKREPETAG
1070
     1
1071
       99
1005
0
  0
LINE
  5
4BC
330
2
100
AcDbEntity
  8
YKK_A1
100
AcDbLine
 10
21898.02818124
 20
17840.43752198
 30
0.0
 11
22628.02818124
 21
17840.43752198
 31
0.0
  0
LINE
  5
4BD
330
2
100
AcDbEntity
  8
YKK_A1
100
AcDbLine
 10
21898.02818124
 20
17822.43748415
 30
0.0
 11
22628.02818124
 21
17822.43748415
 31
0.0
  0
LINE
  5
4BE
330
2
100
AcDbEntity
  8
YKK_A1
100
AcDbLine
 10
21898.02818124
 20
17743.43745324
 30
0.0
 11
22628.02818124
 21
17743.43745324
 31
0.0
  0
LINE
  5
4BF
330
2
100
AcDbEntity
  8
YKK_A1
100
AcDbLine
 10
21898.02818124
 20
17725.43745324
 30
0.0
 11
22628.02818124
 21
17725.43745324
 31
0.0
  0
CIRCLE
  5
4C0
330
2
100
AcDbEntity
  8
YKK_A2
100
AcDbCircle
 10
21690.49553443
 20
17782.93752198
 30
0.0
 40
29.99999999998977
1001
ACDBBLOCKREPETAG
1070
     1
1071
      101
1005
0
  0
LINE
  5
4C1
330
2
100
AcDbEntity
  8
YKK_A1
100
AcDbLine
 10
21898.02818124
 20
18749.93749057
 30
0.0
 11
22628.02818124
 21
18749.93749057
 31
0.0
1001
ACDBBLOCKREPETAG
1070
     1
1071
       84
1005
0
  0
LINE
  5
4C2
330
2
100
AcDbEntity
  8
YKK_A1
100
AcDbLine
 10
21898.02818124
 20
18767.93749057
 30
0.0
 11
22628.02818124
 21
18767.93749057
 31
0.0
1001
ACDBBLOCKREPETAG
1070
     1
1071
       83
1005
0
  0
LINE
  5
4C3
330
2
100
AcDbEntity
  8
YKK_A1
100
AcDbLine
 10
8210.02818124
 20
10795.93749057
 30
0.0
 11
8210.02818124
 21
11591.91249673
 31
0.0
1001
ACDBBLOCKREPETAG
1070
     1
1071
       93
1005
0
  0
LINE
  5
4C4
330
2
100
AcDbEntity
  8
YKK_A1
100
AcDbLine
 10
8228.02818124
 20
11591.91249673
 30
0.0
 11
8228.02818124
 21
10702.93749057
 31
0.0
1001
ACDBBLOCKREPETAG
1070
     1
1071
      104
1005
0
  0
LINE
  5
4C5
330
2
100
AcDbEntity
  8
YKK_A1
100
AcDbLine
 10
8325.02818124
 20
10702.9374674
 30
0.0
 11
8325.02818124
 21
13167.9351326
 31
0.0
1001
YOBJCUT10512090559
1000
ELV2
1001
ACDBBLOCKREPETAG
1070
     1
1071
       36
1005
0
  0
LINE
  5
4C6
330
2
100
AcDbEntity
  8
YKK_A1
100
AcDbLine
 10
8340.03768857
 20
10702.9374674
 30
0.0
 11
8340.03768857
 21
13167.9351326
 31
0.0
1001
YOBJCUT10512090559
1000
ELV2
1001
ACDBBLOCKREPETAG
1070
     1
1071
       35
1005
0
  0
LINE
  5
4C7
330
2
100
AcDbEntity
  8
YKK_A1
100
AcDbLine
 10
7425.02818124
 20
10702.9374674
 30
0.0
 11
7425.02818124
 21
13167.9351326
 31
0.0
1001
YOBJCUT10512090559
1000
ELV2
1001
ACDBBLOCKREPETAG
1070
     1
1071
       34
1005
0
  0
LINE
  5
4C8
330
2
100
AcDbEntity
  8
YKK_A1
100
AcDbLine
 10
7410.04031143
 20
10702.9374674
 30
0.0
 11
7410.04031143
 21
13167.9351326
 31
0.0
1001
YOBJCUT10512090559
1000
ELV2
1001
ACDBBLOCKREPETAG
1070
     1
1071
       51
1005
0
  0
LINE
  5
4C9
330
2
100
AcDbEntity
  8
YKK_A1
100
AcDbLine
 10
7438.02818124
 20
10702.93749057
 30
0.0
 11
7438.02818124
 21
12902.93749057
 31
0.0
1001
YOBJCUT10512090559
1000
ELV2
1001
ACDBBLOCKREPETAG
1070
     1
1071
       60
1005
0
  0
LINE
  5
4CA
330
2
100
AcDbEntity
  8
YKK_A1
100
AcDbLine
 10
7460.02818124
 20
10702.93749057
 30
0.0
 11
7460.02818124
 21
12865.93749057
 31
0.0
1001
YOBJCUT10512090559
1000
ELV2
1001
ACDBBLOCKREPETAG
1070
     1
1071
       64
1005
0
  0
LINE
  5
4CB
330
2
100
AcDbEntity
  8
YKK_A1
100
AcDbLine
 10
8312.02818124
 20
10702.93749057
 30
0.0
 11
8312.02818124
 21
12902.93749057
 31
0.0
1001
YOBJCUT10512090559
1000
ELV2
1001
ACDBBLOCKREPETAG
1070
     1
1071
       61
1005
0
  0
LINE
  5
4CC
330
2
100
AcDbEntity
  8
YKK_A1
100
AcDbLine
 10
8290.02818124
 20
10702.93749057
 30
0.0
 11
8290.02818124
 21
12865.93749057
 31
0.0
1001
YOBJCUT10512090559
1000
ELV2
1001
ACDBBLOCKREPETAG
1070
     1
1071
       65
1005
0
  0
LINE
  5
4CD
330
2
100
AcDbEntity
  8
YKK_A1
100
AcDbLine
 10
7540.02818124
 20
12769.93749057
 30
0.0
 11
7540.02818124
 21
10795.93749057
 31
0.0
1001
YOBJCUT10512090559
1000
ELV2
1001
ACDBBLOCKREPETAG
1070
     1
1071
       94
1005
0
  0
LINE
  5
4CE
330
2
100
AcDbEntity
  8
YKK_A1
100
AcDbLine
 10
7522.02818124
 20
10702.93749057
 30
0.0
 11
7522.02818124
 21
12865.93749057
 31
0.0
1001
YOBJCUT10512090559
1000
ELV2
1001
ACDBBLOCKREPETAG
1070
     1
1071
       75
1005
0
  0
LINE
  5
4CF
330
2
100
AcDbEntity
  8
YKK_A1
  6
CENTER
100
AcDbLine
 10
7460.02818124
 20
11784.43749057
 30
0.0
 11
8290.02818124
 21
10702.93749057
 31
0.0
  0
LINE
  5
4D0
330
2
100
AcDbEntity
  8
YKK_A1
100
AcDbLine
 10
7410.04031143
 20
10702.9374674
 30
0.0
 11
8340.03768857
 21
10702.9374674
 31
0.0
  0
LINE
  5
4D1
330
2
100
AcDbEntity
  8
YKK_A1
100
AcDbLine
 10
7522.02818124
 20
10795.93749057
 30
0.0
 11
8228.02818124
 21
10795.93749057
 31
0.0
1001
ACDBBLOCKREPETAG
1070
     1
1071
       73
1005
0
  0
LINE
  5
4D2
330
2
100
AcDbEntity
  8
YKK_A1
100
AcDbLine
 10
7522.02818124
 20
10777.93749057
 30
0.0
 11
8228.02818124
 21
10777.93749057
 31
0.0
1001
ACDBBLOCKREPETAG
1070
     1
1071
       78
1005
0
  0
TEXT
  5
4D3
330
2
100
AcDbEntity
  8
YKK_A1
100
AcDbText
 10
8197.18600177
 20
13007.60685135
 30
0.0
 40
60.0
  1
F
 41
0.8
  7
YKK_SGSTYLE1
 72
     2
 11
8236.04314463
 21
13007.60685135
 31
0.0
100
AcDbText
  0
LINE
  5
4D4
330
2
100
AcDbEntity
  8
YKK_A1
100
AcDbLine
 10
8312.02818124
 20
12865.93749057
 30
0.0
 11
7438.02818124
 21
12865.93749057
 31
0.0
1001
ACDBBLOCKREPETAG
1070
     1
1071
       63
1005
0
  0
LINE
  5
4D5
330
2
100
AcDbEntity
  8
YKK_A1
100
AcDbLine
 10
8312.02818124
 20
12878.93749057
 30
0.0
 11
7438.02818124
 21
12878.93749057
 31
0.0
1001
ACDBBLOCKREPETAG
1070
     1
1071
       62
1005
0
  0
LINE
  5
4D6
330
2
100
AcDbEntity
  8
YKK_A1
100
AcDbLine
 10
8325.02818124
 20
12902.93749057
 30
0.0
 11
7425.02818124
 21
12902.93749057
 31
0.0
1001
ACDBBLOCKREPETAG
1070
     1
1071
       54
1005
0
  0
LINE
  5
4D7
330
2
100
AcDbEntity
  8
YKK_A1
100
AcDbLine
 10
8325.02818124
 20
12952.93749057
 30
0.0
 11
7425.02818124
 21
12952.93749057
 31
0.0
1001
ACDBBLOCKREPETAG
1070
     1
1071
       53
1005
0
  0
LINE
  5
4D8
330
2
100
AcDbEntity
  8
YKK_A1
100
AcDbLine
 10
8228.02818124
 20
12769.93749057
 30
0.0
 11
7522.02818124
 21
12769.93749057
 31
0.0
1001
ACDBBLOCKREPETAG
1070
     1
1071
       77
1005
0
  0
LINE
  5
4D9
330
2
100
AcDbEntity
  8
YKK_A1
100
AcDbLine
 10
8228.02818124
 20
12787.93749057
 30
0.0
 11
7522.02818124
 21
12787.93749057
 31
0.0
1001
ACDBBLOCKREPETAG
1070
     1
1071
       70
1005
0
  0
LINE
  5
4DA
330
2
100
AcDbEntity
  8
YKK_A1
  6
CENTER
100
AcDbLine
 10
8290.02818124
 20
12865.93746934
 30
0.0
 11
7460.02818124
 21
11784.43749057
 31
0.0
  0
LINE
  5
4DB
330
2
100
AcDbEntity
  8
YKK_A1
100
AcDbLine
 10
8210.02818124
 20
11613.96248462
 30
0.0
 11
8210.02818124
 21
12769.93749057
 31
0.0
1001
ACDBBLOCKREPETAG
1070
     1
1071
      103
1005
0
  0
LINE
  5
4DC
330
2
100
AcDbEntity
  8
YKK_A1
100
AcDbLine
 10
8228.02818124
 20
12865.93749057
 30
0.0
 11
8228.02818124
 21
11613.96248462
 31
0.0
1001
ACDBBLOCKREPETAG
1070
     1
1071
       76
1005
0
  0
CIRCLE
  5
4DD
330
2
100
AcDbEntity
  8
YKK_A2
100
AcDbCircle
 10
8260.52817795
 20
11749.93740902
 30
0.0
 40
20.99998846578801
1001
ACDBBLOCKREPETAG
1070
     1
1071
      106
1005
0
  0
ARC
  5
4DE
330
2
100
AcDbEntity
  8
YKK_A2
100
AcDbCircle
 10
8260.52817795
 20
11602.93748976
 30
0.0
 40
26.24998558223503
100
AcDbArc
 50
204.83458529
 51
155.16541031
1001
ACDBBLOCKREPETAG
1070
     1
1071
      107
1005
0
  0
LINE
  5
4DF
330
2
100
AcDbEntity
  8
YKK_A2
100
AcDbLine
 10
8263.15316975
 20
11591.91249673
 30
0.0
 11
8166.5532228
 21
11591.91249673
 31
0.0
1001
ACDBBLOCKREPETAG
1070
     1
1071
      110
1005
0
  0
LINE
  5
4E0
330
2
100
AcDbEntity
  8
YKK_A2
100
AcDbLine
 10
8166.5532228
 20
11613.96248462
 30
0.0
 11
8263.15316975
 21
11613.96248462
 31
0.0
1001
ACDBBLOCKREPETAG
1070
     1
1071
      108
1005
0
  0
ARC
  5
4E1
330
2
100
AcDbEntity
  8
YKK_A2
100
AcDbCircle
 10
8166.5532228
 20
11602.93749067
 30
0.0
 40
11.0249939445387
100
AcDbArc
 50
90.0
 51
270.0
1001
ACDBBLOCKREPETAG
1070
     1
1071
      111
1005
0
  0
ARC
  5
4E2
330
2
100
AcDbEntity
  8
YKK_A2
100
AcDbCircle
 10
8263.15316975
 20
11602.93749067
 30
0.0
 40
11.0249939445387
100
AcDbArc
 50
270.0
 51
90.0
1001
ACDBBLOCKREPETAG
1070
     1
1071
      109
1005
0
  0
LINE
  5
4E3
330
2
100
AcDbEntity
  8
YKK_A1
100
AcDbLine
 10
8325.02818124
 20
13152.93749057
 30
0.0
 11
7425.02818124
 21
13152.93749057
 31
0.0
1001
ACDBBLOCKREPETAG
1070
     1
1071
       33
1005
0
  0
LINE
  5
4E4
330
2
100
AcDbEntity
  8
YKK_A1
100
AcDbLine
 10
8340.03768857
 20
13167.9351326
 30
0.0
 11
7410.04031143
 21
13167.9351326
 31
0.0
1001
ACDBBLOCKREPETAG
1070
     1
1071
       52
1005
0
  0
LINE
  5
4E5
330
2
100
AcDbEntity
  8
YKK_A1
100
AcDbLine
 10
12452.02818124
 20
11591.91249673
 30
0.0
 11
12452.02818124
 21
10702.93749057
 31
0.0
1001
ACDBBLOCKREPETAG
1070
     1
1071
      102
1005
0
  0
LINE
  5
4E6
330
2
100
AcDbEntity
  8
YKK_A1
100
AcDbLine
 10
12434.02818124
 20
10795.93749057
 30
0.0
 11
12434.02818124
 21
11591.91249673
 31
0.0
1001
ACDBBLOCKREPETAG
1070
     1
1071
       93
1005
0
  0
LINE
  5
4E7
330
2
100
AcDbEntity
  8
YKK_A1
100
AcDbLine
 10
11740.02818124
 20
12769.93749057
 30
0.0
 11
11740.02818124
 21
10795.93749057
 31
0.0
1001
YOBJCUT10512090559
1000
ELV2
1001
ACDBBLOCKREPETAG
1070
     1
1071
       94
1005
0
  0
LINE
  5
4E8
330
2
100
AcDbEntity
  8
YKK_A1
100
AcDbLine
 10
11722.02818124
 20
10702.93749057
 30
0.0
 11
11722.02818124
 21
12865.93749057
 31
0.0
1001
YOBJCUT10512090559
1000
ELV2
1001
ACDBBLOCKREPETAG
1070
     1
1071
       75
1005
0
  0
LINE
  5
4E9
330
2
100
AcDbEntity
  8
YKK_A1
100
AcDbLine
 10
11638.02818124
 20
10702.93749057
 30
0.0
 11
11638.02818124
 21
12902.93749057
 31
0.0
1001
YOBJCUT10512090559
1000
ELV2
1001
ACDBBLOCKREPETAG
1070
     1
1071
       60
1005
0
  0
LINE
  5
4EA
330
2
100
AcDbEntity
  8
YKK_A1
100
AcDbLine
 10
11660.02818124
 20
10702.93749057
 30
0.0
 11
11660.02818124
 21
12865.93749057
 31
0.0
1001
YOBJCUT10512090559
1000
ELV2
1001
ACDBBLOCKREPETAG
1070
     1
1071
       64
1005
0
  0
LINE
  5
4EB
330
2
100
AcDbEntity
  8
YKK_A1
100
AcDbLine
 10
11625.02818124
 20
10702.9374674
 30
0.0
 11
11625.02818124
 21
13167.9351326
 31
0.0
1001
YOBJCUT10512090559
1000
ELV2
1001
ACDBBLOCKREPETAG
1070
     1
1071
       34
1005
0
  0
LINE
  5
4EC
330
2
100
AcDbEntity
  8
YKK_A1
100
AcDbLine
 10
11610.04031143
 20
10702.9374674
 30
0.0
 11
11610.04031143
 21
13167.9351326
 31
0.0
1001
YOBJCUT10512090559
1000
ELV2
1001
ACDBBLOCKREPETAG
1070
     1
1071
       51
1005
0
  0
LINE
  5
4ED
330
2
100
AcDbEntity
  8
YKK_A1
100
AcDbLine
 10
13310.02818124
 20
12769.93749057
 30
0.0
 11
13310.02818124
 21
10795.93749057
 31
0.0
1001
YOBJCUT10512090559
1000
ELV2
1001
ACDBBLOCKREPETAG
1070
     1
1071
      100
1005
0
  0
LINE
  5
4EE
330
2
100
AcDbEntity
  8
YKK_A1
100
AcDbLine
 10
13328.02818124
 20
10702.93749057
 30
0.0
 11
13328.02818124
 21
12865.93749057
 31
0.0
1001
YOBJCUT10512090559
1000
ELV2
1001
ACDBBLOCKREPETAG
1070
     1
1071
       82
1005
0
  0
LINE
  5
4EF
330
2
100
AcDbEntity
  8
YKK_A1
100
AcDbLine
 10
12616.02818124
 20
10795.93749057
 30
0.0
 11
12616.02818124
 21
12769.93749057
 31
0.0
1001
ACDBBLOCKREPETAG
1070
     1
1071
       99
1005
0
  0
LINE
  5
4F0
330
2
100
AcDbEntity
  8
YKK_A1
100
AcDbLine
 10
12598.02818124
 20
12865.93749057
 30
0.0
 11
12598.02818124
 21
10702.93749057
 31
0.0
1001
ACDBBLOCKREPETAG
1070
     1
1071
       86
1005
0
  0
LINE
  5
4F1
330
2
100
AcDbEntity
  8
YKK_A1
100
AcDbLine
 10
13412.02818124
 20
10702.93749057
 30
0.0
 11
13412.02818124
 21
12902.93749057
 31
0.0
1001
YOBJCUT10512090559
1000
ELV2
1001
ACDBBLOCKREPETAG
1070
     1
1071
       61
1005
0
  0
LINE
  5
4F2
330
2
100
AcDbEntity
  8
YKK_A1
100
AcDbLine
 10
13390.02818124
 20
10702.93749057
 30
0.0
 11
13390.02818124
 21
12865.93749057
 31
0.0
1001
YOBJCUT10512090559
1000
ELV2
1001
ACDBBLOCKREPETAG
1070
     1
1071
       65
1005
0
  0
LINE
  5
4F3
330
2
100
AcDbEntity
  8
YKK_A1
100
AcDbLine
 10
12516.02818124
 20
12865.93749057
 30
0.0
 11
12516.02818124
 21
10702.93749057
 31
0.0
1001
ACDBBLOCKREPETAG
1070
     1
1071
       87
1005
0
  0
LINE
  5
4F4
330
2
100
AcDbEntity
  8
YKK_A1
100
AcDbLine
 10
12534.65818124
 20
12865.93749057
 30
0.0
 11
12534.65818124
 21
10702.93749057
 31
0.0
1001
ACDBBLOCKREPETAG
1070
     1
1071
       88
1005
0
  0
LINE
  5
4F5
330
2
100
AcDbEntity
  8
YKK_A1
100
AcDbLine
 10
13425.02818124
 20
10702.9374674
 30
0.0
 11
13425.02818124
 21
13167.9351326
 31
0.0
1001
YOBJCUT10512090559
1000
ELV2
1001
ACDBBLOCKREPETAG
1070
     1
1071
       36
1005
0
  0
LINE
  5
4F6
330
2
100
AcDbEntity
  8
YKK_A1
100
AcDbLine
 10
13440.03768857
 20
10702.9374674
 30
0.0
 11
13440.03768857
 21
13167.9351326
 31
0.0
1001
YOBJCUT10512090559
1000
ELV2
1001
ACDBBLOCKREPETAG
1070
     1
1071
       35
1005
0
  0
LINE
  5
4F7
330
2
100
AcDbEntity
  8
YKK_A1
  6
CENTER
100
AcDbLine
 10
11660.02818124
 20
11784.43749057
 30
0.0
 11
12525.02818124
 21
10702.93749057
 31
0.0
  0
LINE
  5
4F8
330
2
100
AcDbEntity
  8
YKK_A1
  6
CENTER
100
AcDbLine
 10
12525.02818124
 20
10702.93749057
 30
0.0
 11
13390.02818124
 21
11784.43749057
 31
0.0
  0
LINE
  5
4F9
330
2
100
AcDbEntity
  8
YKK_A1
100
AcDbLine
 10
11610.04031143
 20
10702.9374674
 30
0.0
 11
13440.03768857
 21
10702.9374674
 31
0.0
  0
LINE
  5
4FA
330
2
100
AcDbEntity
  8
YKK_A1
100
AcDbLine
 10
11722.02818124
 20
10777.93749057
 30
0.0
 11
12452.02818124
 21
10777.93749057
 31
0.0
1001
ACDBBLOCKREPETAG
1070
     1
1071
       78
1005
0
  0
LINE
  5
4FB
330
2
100
AcDbEntity
  8
YKK_A1
100
AcDbLine
 10
11722.02818124
 20
10795.93749057
 30
0.0
 11
12452.02818124
 21
10795.93749057
 31
0.0
1001
ACDBBLOCKREPETAG
1070
     1
1071
       73
1005
0
  0
LINE
  5
4FC
330
2
100
AcDbEntity
  8
YKK_A1
100
AcDbLine
 10
13328.02818124
 20
10777.93749057
 30
0.0
 11
12598.02818124
 21
10777.93749057
 31
0.0
1001
ACDBBLOCKREPETAG
1070
     1
1071
       80
1005
0
  0
LINE
  5
4FD
330
2
100
AcDbEntity
  8
YKK_A1
100
AcDbLine
 10
13328.02818124
 20
10795.93749057
 30
0.0
 11
12598.02818124
 21
10795.93749057
 31
0.0
1001
ACDBBLOCKREPETAG
1070
     1
1071
       79
1005
0
  0
LINE
  5
4FE
330
2
100
AcDbEntity
  8
YKK_A1
100
AcDbLine
 10
13425.02818124
 20
13152.93749057
 30
0.0
 11
11625.02818124
 21
13152.93749057
 31
0.0
1001
ACDBBLOCKREPETAG
1070
     1
1071
       33
1005
0
  0
LINE
  5
4FF
330
2
100
AcDbEntity
  8
YKK_A1
100
AcDbLine
 10
13440.03768857
 20
13167.9351326
 30
0.0
 11
11610.04031143
 21
13167.9351326
 31
0.0
1001
ACDBBLOCKREPETAG
1070
     1
1071
       52
1005
0
  0
LINE
  5
500
330
2
100
AcDbEntity
  8
YKK_A1
100
AcDbLine
 10
13425.02818124
 20
12952.93749057
 30
0.0
 11
11625.02818124
 21
12952.93749057
 31
0.0
1001
ACDBBLOCKREPETAG
1070
     1
1071
       53
1005
0
  0
LINE
  5
501
330
2
100
AcDbEntity
  8
YKK_A1
100
AcDbLine
 10
13425.02818124
 20
12902.93749057
 30
0.0
 11
11625.02818124
 21
12902.93749057
 31
0.0
1001
ACDBBLOCKREPETAG
1070
     1
1071
       54
1005
0
  0
LINE
  5
502
330
2
100
AcDbEntity
  8
YKK_A1
100
AcDbLine
 10
13412.02818124
 20
12878.93749057
 30
0.0
 11
11638.02818124
 21
12878.93749057
 31
0.0
1001
ACDBBLOCKREPETAG
1070
     1
1071
       62
1005
0
  0
LINE
  5
503
330
2
100
AcDbEntity
  8
YKK_A1
100
AcDbLine
 10
13412.02818124
 20
12865.93749057
 30
0.0
 11
11638.02818124
 21
12865.93749057
 31
0.0
1001
ACDBBLOCKREPETAG
1070
     1
1071
       63
1005
0
  0
LINE
  5
504
330
2
100
AcDbEntity
  8
YKK_A1
  6
CENTER
100
AcDbLine
 10
13390.02818124
 20
11784.43749057
 30
0.0
 11
12525.02816426
 21
12865.93746935
 31
0.0
  0
LINE
  5
505
330
2
100
AcDbEntity
  8
YKK_A1
  6
CENTER
100
AcDbLine
 10
12525.02818124
 20
12865.93749057
 30
0.0
 11
11660.02818124
 21
11784.43749057
 31
0.0
  0
LINE
  5
506
330
2
100
AcDbEntity
  8
YKK_A1
100
AcDbLine
 10
12434.02818124
 20
11613.96248462
 30
0.0
 11
12434.02818124
 21
12769.93749057
 31
0.0
1001
ACDBBLOCKREPETAG
1070
     1
1071
      103
1005
0
  0
LINE
  5
507
330
2
100
AcDbEntity
  8
YKK_A1
100
AcDbLine
 10
12452.02818124
 20
12865.93749057
 30
0.0
 11
12452.02818124
 21
11613.96248462
 31
0.0
1001
ACDBBLOCKREPETAG
1070
     1
1071
       76
1005
0
  0
CIRCLE
  5
508
330
2
100
AcDbEntity
  8
YKK_A2
100
AcDbCircle
 10
12484.52817795
 20
11749.93740902
 30
0.0
 40
20.9999884658119
1001
ACDBBLOCKREPETAG
1070
     1
1071
      157
1005
0
  0
ARC
  5
509
330
2
100
AcDbEntity
  8
YKK_A2
100
AcDbCircle
 10
12484.52817795
 20
11602.93748976
 30
0.0
 40
26.24998558226488
100
AcDbArc
 50
204.83458529
 51
155.16541031
1001
ACDBBLOCKREPETAG
1070
     1
1071
      158
1005
0
  0
ARC
  5
50A
330
2
100
AcDbEntity
  8
YKK_A2
100
AcDbCircle
 10
12390.5532228
 20
11602.93749068
 30
0.0
 40
11.02499394455124
100
AcDbArc
 50
90.0
 51
270.0
1001
ACDBBLOCKREPETAG
1070
     1
1071
      162
1005
0
  0
ARC
  5
50B
330
2
100
AcDbEntity
  8
YKK_A2
100
AcDbCircle
 10
12487.15316975
 20
11602.93749068
 30
0.0
 40
11.02499394455124
100
AcDbArc
 50
270.0
 51
90.0
1001
ACDBBLOCKREPETAG
1070
     1
1071
      160
1005
0
  0
LINE
  5
50C
330
2
100
AcDbEntity
  8
YKK_A2
100
AcDbLine
 10
12487.15316975
 20
11591.91249673
 30
0.0
 11
12390.5532228
 21
11591.91249673
 31
0.0
1001
ACDBBLOCKREPETAG
1070
     1
1071
      161
1005
0
  0
LINE
  5
50D
330
2
100
AcDbEntity
  8
YKK_A2
100
AcDbLine
 10
12390.5532228
 20
11613.96248462
 30
0.0
 11
12487.15316975
 21
11613.96248462
 31
0.0
1001
ACDBBLOCKREPETAG
1070
     1
1071
      159
1005
0
  0
LINE
  5
50E
330
2
100
AcDbEntity
  8
YKK_A1
100
AcDbLine
 10
12452.02818124
 20
12787.93749057
 30
0.0
 11
11722.02818124
 21
12787.93749057
 31
0.0
1001
ACDBBLOCKREPETAG
1070
     1
1071
       70
1005
0
  0
LINE
  5
50F
330
2
100
AcDbEntity
  8
YKK_A1
100
AcDbLine
 10
12452.02818124
 20
12769.93749057
 30
0.0
 11
11722.02818124
 21
12769.93749057
 31
0.0
1001
ACDBBLOCKREPETAG
1070
     1
1071
       77
1005
0
  0
TEXT
  5
510
330
2
100
AcDbEntity
  8
YKK_A1
100
AcDbText
 10
13297.18600178
 20
13007.60685135
 30
0.0
 40
60.0
  1
F
 41
0.8
  7
YKK_SGSTYLE1
 72
     2
 11
13336.04314463
 21
13007.60685135
 31
0.0
100
AcDbText
  0
LINE
  5
511
330
2
100
AcDbEntity
  8
YKK_A1
100
AcDbLine
 10
12598.02818124
 20
12787.93749057
 30
0.0
 11
13328.02818124
 21
12787.93749057
 31
0.0
1001
ACDBBLOCKREPETAG
1070
     1
1071
       83
1005
0
  0
LINE
  5
512
330
2
100
AcDbEntity
  8
YKK_A1
100
AcDbLine
 10
12598.02818124
 20
12769.93749057
 30
0.0
 11
13328.02818124
 21
12769.93749057
 31
0.0
1001
ACDBBLOCKREPETAG
1070
     1
1071
       84
1005
0
  0
LINE
  5
513
330
2
100
AcDbEntity
  8
YKK_A1
100
AcDbLine
 10
17510.02818124
 20
10795.93749057
 30
0.0
 11
17510.02818124
 21
11545.43745324
 31
0.0
1001
ACDBBLOCKREPETAG
1070
     1
1071
       93
1005
0
  0
LINE
  5
514
330
2
100
AcDbEntity
  8
YKK_A1
100
AcDbLine
 10
16840.02818124
 20
11545.43745324
 30
0.0
 11
16840.02818124
 21
10795.93749057
 31
0.0
1001
YOBJCUT10512090559
1000
ELV2
1001
ACDBBLOCKREPETAG
1070
     1
1071
       94
1005
0
  0
LINE
  5
515
330
2
100
AcDbEntity
  8
YKK_A1
100
AcDbLine
 10
16822.02818124
 20
10702.93749057
 30
0.0
 11
16822.02818124
 21
12865.93749057
 31
0.0
1001
YOBJCUT10512090559
1000
ELV2
1001
ACDBBLOCKREPETAG
1070
     1
1071
       75
1005
0
  0
LINE
  5
516
330
2
100
AcDbEntity
  8
YKK_A1
100
AcDbLine
 10
17590.02818124
 20
10702.93749057
 30
0.0
 11
17590.02818124
 21
12865.93749057
 31
0.0
1001
YOBJCUT10512090559
1000
ELV2
1001
ACDBBLOCKREPETAG
1070
     1
1071
       65
1005
0
  0
LINE
  5
517
330
2
100
AcDbEntity
  8
YKK_A1
100
AcDbLine
 10
17612.02818124
 20
10702.93749057
 30
0.0
 11
17612.02818124
 21
12902.93749057
 31
0.0
1001
YOBJCUT10512090559
1000
ELV2
1001
ACDBBLOCKREPETAG
1070
     1
1071
       61
1005
0
  0
LINE
  5
518
330
2
100
AcDbEntity
  8
YKK_A1
100
AcDbLine
 10
16760.02818124
 20
10702.93749057
 30
0.0
 11
16760.02818124
 21
12865.93749057
 31
0.0
1001
YOBJCUT10512090559
1000
ELV2
1001
ACDBBLOCKREPETAG
1070
     1
1071
       64
1005
0
  0
LINE
  5
519
330
2
100
AcDbEntity
  8
YKK_A1
100
AcDbLine
 10
16738.02818124
 20
10702.93749057
 30
0.0
 11
16738.02818124
 21
12902.93749057
 31
0.0
1001
YOBJCUT10512090559
1000
ELV2
1001
ACDBBLOCKREPETAG
1070
     1
1071
       60
1005
0
  0
LINE
  5
51A
330
2
100
AcDbEntity
  8
YKK_A1
100
AcDbLine
 10
16710.04031143
 20
10702.9374674
 30
0.0
 11
16710.04031143
 21
13167.9351326
 31
0.0
1001
YOBJCUT10512090559
1000
ELV2
1001
ACDBBLOCKREPETAG
1070
     1
1071
       51
1005
0
  0
LINE
  5
51B
330
2
100
AcDbEntity
  8
YKK_A1
100
AcDbLine
 10
16725.02818124
 20
10702.9374674
 30
0.0
 11
16725.02818124
 21
13167.9351326
 31
0.0
1001
YOBJCUT10512090559
1000
ELV2
1001
ACDBBLOCKREPETAG
1070
     1
1071
       34
1005
0
  0
LINE
  5
51C
330
2
100
AcDbEntity
  8
YKK_A1
100
AcDbLine
 10
17640.03768857
 20
10702.9374674
 30
0.0
 11
17640.03768857
 21
13167.9351326
 31
0.0
1001
YOBJCUT10512090559
1000
ELV2
1001
ACDBBLOCKREPETAG
1070
     1
1071
       35
1005
0
  0
LINE
  5
51D
330
2
100
AcDbEntity
  8
YKK_A1
100
AcDbLine
 10
17625.02818124
 20
10702.9374674
 30
0.0
 11
17625.02818124
 21
13167.9351326
 31
0.0
1001
YOBJCUT10512090559
1000
ELV2
1001
ACDBBLOCKREPETAG
1070
     1
1071
       36
1005
0
  0
LINE
  5
51E
330
2
100
AcDbEntity
  8
YKK_A1
100
AcDbLine
 10
17528.02818124
 20
12865.93749057
 30
0.0
 11
17528.02818124
 21
10702.93749057
 31
0.0
1001
ACDBBLOCKREPETAG
1070
     1
1071
      104
1005
0
  0
LINE
  5
51F
330
2
100
AcDbEntity
  8
YKK_A1
  6
CENTER
100
AcDbLine
 10
16760.02818124
 20
11784.43749057
 30
0.0
 11
17590.02818124
 21
10702.93749057
 31
0.0
  0
LINE
  5
520
330
2
100
AcDbEntity
  8
YKK_A1
100
AcDbLine
 10
16710.04031143
 20
10702.9374674
 30
0.0
 11
17640.03768857
 21
10702.9374674
 31
0.0
  0
LINE
  5
521
330
2
100
AcDbEntity
  8
YKK_A1
100
AcDbLine
 10
16822.02818124
 20
10777.93749057
 30
0.0
 11
17528.02818124
 21
10777.93749057
 31
0.0
1001
ACDBBLOCKREPETAG
1070
     1
1071
       78
1005
0
  0
LINE
  5
522
330
2
100
AcDbEntity
  8
YKK_A1
100
AcDbLine
 10
16822.02818124
 20
10795.93749057
 30
0.0
 11
17528.02818124
 21
10795.93749057
 31
0.0
1001
ACDBBLOCKREPETAG
1070
     1
1071
       73
1005
0
  0
TEXT
  5
523
330
2
100
AcDbEntity
  8
YKK_A1
100
AcDbText
 10
17497.18600177
 20
13007.60685135
 30
0.0
 40
60.0
  1
F
 41
0.8
  7
YKK_SGSTYLE1
 72
     2
 11
17536.04314463
 21
13007.60685135
 31
0.0
100
AcDbText
  0
LINE
  5
524
330
2
100
AcDbEntity
  8
YKK_A1
100
AcDbLine
 10
17528.02818124
 20
12787.93749057
 30
0.0
 11
16822.02818124
 21
12787.93749057
 31
0.0
1001
ACDBBLOCKREPETAG
1070
     1
1071
       70
1005
0
  0
LINE
  5
525
330
2
100
AcDbEntity
  8
YKK_A1
100
AcDbLine
 10
17528.02818124
 20
12769.93749057
 30
0.0
 11
16822.02818124
 21
12769.93749057
 31
0.0
1001
ACDBBLOCKREPETAG
1070
     1
1071
       77
1005
0
  0
LINE
  5
526
330
2
100
AcDbEntity
  8
YKK_A1
100
AcDbLine
 10
17625.02818124
 20
12952.93749057
 30
0.0
 11
16725.02818124
 21
12952.93749057
 31
0.0
1001
ACDBBLOCKREPETAG
1070
     1
1071
       53
1005
0
  0
LINE
  5
527
330
2
100
AcDbEntity
  8
YKK_A1
100
AcDbLine
 10
17625.02818124
 20
12902.93749057
 30
0.0
 11
16725.02818124
 21
12902.93749057
 31
0.0
1001
ACDBBLOCKREPETAG
1070
     1
1071
       54
1005
0
  0
LINE
  5
528
330
2
100
AcDbEntity
  8
YKK_A1
100
AcDbLine
 10
17612.02818124
 20
12878.93749057
 30
0.0
 11
16738.02818124
 21
12878.93749057
 31
0.0
1001
ACDBBLOCKREPETAG
1070
     1
1071
       62
1005
0
  0
LINE
  5
529
330
2
100
AcDbEntity
  8
YKK_A1
100
AcDbLine
 10
17612.02818124
 20
12865.93749057
 30
0.0
 11
16738.02818124
 21
12865.93749057
 31
0.0
1001
ACDBBLOCKREPETAG
1070
     1
1071
       63
1005
0
  0
LINE
  5
52A
330
2
100
AcDbEntity
  8
YKK_A1
  6
CENTER
100
AcDbLine
 10
17590.02818124
 20
12865.93746934
 30
0.0
 11
16760.02818124
 21
11784.43749057
 31
0.0
  0
LINE
  5
52B
330
2
100
AcDbEntity
  8
YKK_A1
100
AcDbLine
 10
16822.02818124
 20
11545.43745324
 30
0.0
 11
17528.02818124
 21
11545.43745324
 31
0.0
  0
LINE
  5
52C
330
2
100
AcDbEntity
  8
YKK_A1
100
AcDbLine
 10
16822.02818124
 20
11563.43747841
 30
0.0
 11
17528.02818124
 21
11563.43747841
 31
0.0
  0
LINE
  5
52D
330
2
100
AcDbEntity
  8
YKK_A1
100
AcDbLine
 10
16822.02818124
 20
11642.43749681
 30
0.0
 11
17528.02818124
 21
11642.43749681
 31
0.0
  0
LINE
  5
52E
330
2
100
AcDbEntity
  8
YKK_A1
100
AcDbLine
 10
16822.02818124
 20
11660.43752198
 30
0.0
 11
17528.02818124
 21
11660.43752198
 31
0.0
  0
LINE
  5
52F
330
2
100
AcDbEntity
  8
YKK_A1
100
AcDbLine
 10
16840.02818124
 20
12769.93749057
 30
0.0
 11
16840.02818124
 21
11660.43752198
 31
0.0
1001
YOBJCUT10512090559
1000
ELV2
1001
ACDBBLOCKREPETAG
1070
     1
1071
       94
1005
0
  0
LINE
  5
530
330
2
100
AcDbEntity
  8
YKK_A1
100
AcDbLine
 10
17510.02818124
 20
11660.43752198
 30
0.0
 11
17510.02818124
 21
12769.93749057
 31
0.0
1001
ACDBBLOCKREPETAG
1070
     1
1071
      103
1005
0
  0
CIRCLE
  5
531
330
2
100
AcDbEntity
  8
YKK_A2
100
AcDbCircle
 10
17466.49553443
 20
11602.93752198
 30
0.0
 40
29.99999999998977
1001
ACDBBLOCKREPETAG
1070
     1
1071
      101
1005
0
  0
LINE
  5
532
330
2
100
AcDbEntity
  8
YKK_A1
100
AcDbLine
 10
17640.03768857
 20
13167.9351326
 30
0.0
 11
16710.04031143
 21
13167.9351326
 31
0.0
1001
ACDBBLOCKREPETAG
1070
     1
1071
       52
1005
0
  0
LINE
  5
533
330
2
100
AcDbEntity
  8
YKK_A1
100
AcDbLine
 10
17625.02818124
 20
13152.93749057
 30
0.0
 11
16725.02818124
 21
13152.93749057
 31
0.0
1001
ACDBBLOCKREPETAG
1070
     1
1071
       33
1005
0
  0
LINE
  5
534
330
2
100
AcDbEntity
  8
YKK_A1
100
AcDbLine
 10
22610.02818124
 20
11545.43745324
 30
0.0
 11
22610.02818124
 21
10795.93749057
 31
0.0
1001
YOBJCUT10512090559
1000
ELV2
1001
ACDBBLOCKREPETAG
1070
     1
1071
      100
1005
0
  0
LINE
  5
535
330
2
100
AcDbEntity
  8
YKK_A1
100
AcDbLine
 10
21916.02818124
 20
10795.93749057
 30
0.0
 11
21916.02818124
 21
11545.43745324
 31
0.0
1001
ACDBBLOCKREPETAG
1070
     1
1071
       99
1005
0
  0
LINE
  5
536
330
2
100
AcDbEntity
  8
YKK_A1
100
AcDbLine
 10
21734.02818124
 20
10795.93749057
 30
0.0
 11
21734.02818124
 21
11545.43745324
 31
0.0
1001
ACDBBLOCKREPETAG
1070
     1
1071
       93
1005
0
  0
LINE
  5
537
330
2
100
AcDbEntity
  8
YKK_A1
100
AcDbLine
 10
21040.02818124
 20
11545.43745324
 30
0.0
 11
21040.02818124
 21
10795.93749057
 31
0.0
1001
YOBJCUT10512090559
1000
ELV2
1001
ACDBBLOCKREPETAG
1070
     1
1071
       94
1005
0
  0
LINE
  5
538
330
2
100
AcDbEntity
  8
YKK_A1
100
AcDbLine
 10
22740.03768857
 20
10702.9374674
 30
0.0
 11
22740.03768857
 21
13167.9351326
 31
0.0
1001
YOBJCUT10512090559
1000
ELV2
1001
ACDBBLOCKREPETAG
1070
     1
1071
       35
1005
0
  0
LINE
  5
539
330
2
100
AcDbEntity
  8
YKK_A1
100
AcDbLine
 10
22725.02818124
 20
10702.9374674
 30
0.0
 11
22725.02818124
 21
13167.9351326
 31
0.0
1001
YOBJCUT10512090559
1000
ELV2
1001
ACDBBLOCKREPETAG
1070
     1
1071
       36
1005
0
  0
LINE
  5
53A
330
2
100
AcDbEntity
  8
YKK_A1
100
AcDbLine
 10
21834.65818124
 20
12865.93749057
 30
0.0
 11
21834.65818124
 21
10702.93749057
 31
0.0
1001
ACDBBLOCKREPETAG
1070
     1
1071
       88
1005
0
  0
LINE
  5
53B
330
2
100
AcDbEntity
  8
YKK_A1
100
AcDbLine
 10
21816.02818124
 20
12865.93749057
 30
0.0
 11
21816.02818124
 21
10702.93749057
 31
0.0
1001
ACDBBLOCKREPETAG
1070
     1
1071
       87
1005
0
  0
LINE
  5
53C
330
2
100
AcDbEntity
  8
YKK_A1
100
AcDbLine
 10
22690.02818124
 20
10702.93749057
 30
0.0
 11
22690.02818124
 21
12865.93749057
 31
0.0
1001
YOBJCUT10512090559
1000
ELV2
1001
ACDBBLOCKREPETAG
1070
     1
1071
       65
1005
0
  0
LINE
  5
53D
330
2
100
AcDbEntity
  8
YKK_A1
100
AcDbLine
 10
22712.02818124
 20
10702.93749057
 30
0.0
 11
22712.02818124
 21
12902.93749057
 31
0.0
1001
YOBJCUT10512090559
1000
ELV2
1001
ACDBBLOCKREPETAG
1070
     1
1071
       61
1005
0
  0
LINE
  5
53E
330
2
100
AcDbEntity
  8
YKK_A1
100
AcDbLine
 10
21898.02818124
 20
12865.93749057
 30
0.0
 11
21898.02818124
 21
10702.93749057
 31
0.0
1001
ACDBBLOCKREPETAG
1070
     1
1071
       86
1005
0
  0
LINE
  5
53F
330
2
100
AcDbEntity
  8
YKK_A1
100
AcDbLine
 10
22628.02818124
 20
10702.93749057
 30
0.0
 11
22628.02818124
 21
12865.93749057
 31
0.0
1001
YOBJCUT10512090559
1000
ELV2
1001
ACDBBLOCKREPETAG
1070
     1
1071
       82
1005
0
  0
LINE
  5
540
330
2
100
AcDbEntity
  8
YKK_A1
100
AcDbLine
 10
20910.04031143
 20
10702.9374674
 30
0.0
 11
20910.04031143
 21
13167.9351326
 31
0.0
1001
YOBJCUT10512090559
1000
ELV2
1001
ACDBBLOCKREPETAG
1070
     1
1071
       51
1005
0
  0
LINE
  5
541
330
2
100
AcDbEntity
  8
YKK_A1
100
AcDbLine
 10
20925.02818124
 20
10702.9374674
 30
0.0
 11
20925.02818124
 21
13167.9351326
 31
0.0
1001
YOBJCUT10512090559
1000
ELV2
1001
ACDBBLOCKREPETAG
1070
     1
1071
       34
1005
0
  0
LINE
  5
542
330
2
100
AcDbEntity
  8
YKK_A1
100
AcDbLine
 10
20960.02818124
 20
10702.93749057
 30
0.0
 11
20960.02818124
 21
12865.93749057
 31
0.0
1001
YOBJCUT10512090559
1000
ELV2
1001
ACDBBLOCKREPETAG
1070
     1
1071
       64
1005
0
  0
LINE
  5
543
330
2
100
AcDbEntity
  8
YKK_A1
100
AcDbLine
 10
20938.02818124
 20
10702.93749057
 30
0.0
 11
20938.02818124
 21
12902.93749057
 31
0.0
1001
YOBJCUT10512090559
1000
ELV2
1001
ACDBBLOCKREPETAG
1070
     1
1071
       60
1005
0
  0
LINE
  5
544
330
2
100
AcDbEntity
  8
YKK_A1
100
AcDbLine
 10
21022.02818124
 20
10702.93749057
 30
0.0
 11
21022.02818124
 21
12865.93749057
 31
0.0
1001
YOBJCUT10512090559
1000
ELV2
1001
ACDBBLOCKREPETAG
1070
     1
1071
       75
1005
0
  0
LINE
  5
545
330
2
100
AcDbEntity
  8
YKK_A1
100
AcDbLine
 10
21752.02818124
 20
12865.93749057
 30
0.0
 11
21752.02818124
 21
10702.93749057
 31
0.0
1001
ACDBBLOCKREPETAG
1070
     1
1071
      102
1005
0
  0
LINE
  5
546
330
2
100
AcDbEntity
  8
YKK_A1
  6
CENTER
100
AcDbLine
 10
20960.02818124
 20
11784.43749057
 30
0.0
 11
21825.02818124
 21
10702.93749057
 31
0.0
  0
LINE
  5
547
330
2
100
AcDbEntity
  8
YKK_A1
  6
CENTER
100
AcDbLine
 10
21825.02818124
 20
10702.93749057
 30
0.0
 11
22690.02818124
 21
11784.43749057
 31
0.0
  0
LINE
  5
548
330
2
100
AcDbEntity
  8
YKK_A1
100
AcDbLine
 10
20910.04031143
 20
10702.9374674
 30
0.0
 11
22740.03768857
 21
10702.9374674
 31
0.0
  0
LINE
  5
549
330
2
100
AcDbEntity
  8
YKK_A1
100
AcDbLine
 10
21022.02818124
 20
10795.93749057
 30
0.0
 11
21752.02818124
 21
10795.93749057
 31
0.0
1001
ACDBBLOCKREPETAG
1070
     1
1071
       73
1005
0
  0
LINE
  5
54A
330
2
100
AcDbEntity
  8
YKK_A1
100
AcDbLine
 10
21022.02818124
 20
10777.93749057
 30
0.0
 11
21752.02818124
 21
10777.93749057
 31
0.0
1001
ACDBBLOCKREPETAG
1070
     1
1071
       78
1005
0
  0
LINE
  5
54B
330
2
100
AcDbEntity
  8
YKK_A1
100
AcDbLine
 10
22628.02818124
 20
10795.93749057
 30
0.0
 11
21898.02818124
 21
10795.93749057
 31
0.0
1001
ACDBBLOCKREPETAG
1070
     1
1071
       79
1005
0
  0
LINE
  5
54C
330
2
100
AcDbEntity
  8
YKK_A1
100
AcDbLine
 10
22628.02818124
 20
10777.93749057
 30
0.0
 11
21898.02818124
 21
10777.93749057
 31
0.0
1001
ACDBBLOCKREPETAG
1070
     1
1071
       80
1005
0
  0
LINE
  5
54D
330
2
100
AcDbEntity
  8
YKK_A1
100
AcDbLine
 10
22740.03768857
 20
13167.9351326
 30
0.0
 11
20910.04031143
 21
13167.9351326
 31
0.0
1001
ACDBBLOCKREPETAG
1070
     1
1071
       52
1005
0
  0
LINE
  5
54E
330
2
100
AcDbEntity
  8
YKK_A1
100
AcDbLine
 10
22725.02818124
 20
13152.93749057
 30
0.0
 11
20925.02818124
 21
13152.93749057
 31
0.0
1001
ACDBBLOCKREPETAG
1070
     1
1071
       33
1005
0
  0
LINE
  5
54F
330
2
100
AcDbEntity
  8
YKK_A1
100
AcDbLine
 10
22712.02818124
 20
12865.93749057
 30
0.0
 11
20938.02818124
 21
12865.93749057
 31
0.0
1001
ACDBBLOCKREPETAG
1070
     1
1071
       63
1005
0
  0
LINE
  5
550
330
2
100
AcDbEntity
  8
YKK_A1
100
AcDbLine
 10
22712.02818124
 20
12878.93749057
 30
0.0
 11
20938.02818124
 21
12878.93749057
 31
0.0
1001
ACDBBLOCKREPETAG
1070
     1
1071
       62
1005
0
  0
LINE
  5
551
330
2
100
AcDbEntity
  8
YKK_A1
100
AcDbLine
 10
22725.02818124
 20
12902.93749057
 30
0.0
 11
20925.02818124
 21
12902.93749057
 31
0.0
1001
ACDBBLOCKREPETAG
1070
     1
1071
       54
1005
0
  0
LINE
  5
552
330
2
100
AcDbEntity
  8
YKK_A1
100
AcDbLine
 10
22725.02818124
 20
12952.93749057
 30
0.0
 11
20925.02818124
 21
12952.93749057
 31
0.0
1001
ACDBBLOCKREPETAG
1070
     1
1071
       53
1005
0
  0
LINE
  5
553
330
2
100
AcDbEntity
  8
YKK_A1
100
AcDbLine
 10
21752.02818124
 20
12769.93749057
 30
0.0
 11
21022.02818124
 21
12769.93749057
 31
0.0
1001
ACDBBLOCKREPETAG
1070
     1
1071
       77
1005
0
  0
LINE
  5
554
330
2
100
AcDbEntity
  8
YKK_A1
100
AcDbLine
 10
21752.02818124
 20
12787.93749057
 30
0.0
 11
21022.02818124
 21
12787.93749057
 31
0.0
1001
ACDBBLOCKREPETAG
1070
     1
1071
       70
1005
0
  0
LINE
  5
555
330
2
100
AcDbEntity
  8
YKK_A1
  6
CENTER
100
AcDbLine
 10
21825.02818124
 20
12865.93749057
 30
0.0
 11
20960.02818124
 21
11784.43749057
 31
0.0
  0
LINE
  5
556
330
2
100
AcDbEntity
  8
YKK_A1
100
AcDbLine
 10
21752.02818124
 20
11563.43747841
 30
0.0
 11
21022.02818124
 21
11563.43747841
 31
0.0
  0
LINE
  5
557
330
2
100
AcDbEntity
  8
YKK_A1
100
AcDbLine
 10
21752.02818124
 20
11545.43745324
 30
0.0
 11
21022.02818124
 21
11545.43745324
 31
0.0
  0
LINE
  5
558
330
2
100
AcDbEntity
  8
YKK_A1
100
AcDbLine
 10
21752.02818124
 20
11642.43748415
 30
0.0
 11
21022.02818124
 21
11642.43748415
 31
0.0
  0
LINE
  5
559
330
2
100
AcDbEntity
  8
YKK_A1
100
AcDbLine
 10
21752.02818124
 20
11660.43752198
 30
0.0
 11
21022.02818124
 21
11660.43752198
 31
0.0
  0
LINE
  5
55A
330
2
100
AcDbEntity
  8
YKK_A1
100
AcDbLine
 10
21040.02818124
 20
12769.93749057
 30
0.0
 11
21040.02818124
 21
11660.43752198
 31
0.0
1001
YOBJCUT10512090559
1000
ELV2
1001
ACDBBLOCKREPETAG
1070
     1
1071
       94
1005
0
  0
TEXT
  5
55B
330
2
100
AcDbEntity
  8
YKK_A1
100
AcDbText
 10
22597.18600178
 20
13007.60685135
 30
0.0
 40
60.0
  1
F
 41
0.8
  7
YKK_SGSTYLE1
 72
     2
 11
22636.04314463
 21
13007.60685135
 31
0.0
100
AcDbText
  0
LINE
  5
55C
330
2
100
AcDbEntity
  8
YKK_A1
  6
CENTER
100
AcDbLine
 10
22690.02818124
 20
11784.43749057
 30
0.0
 11
21825.02816426
 21
12865.93746935
 31
0.0
  0
LINE
  5
55D
330
2
100
AcDbEntity
  8
YKK_A1
100
AcDbLine
 10
22610.02818124
 20
12769.93749057
 30
0.0
 11
22610.02818124
 21
11660.43752198
 31
0.0
1001
YOBJCUT10512090559
1000
ELV2
1001
ACDBBLOCKREPETAG
1070
     1
1071
      100
1005
0
  0
LINE
  5
55E
330
2
100
AcDbEntity
  8
YKK_A1
100
AcDbLine
 10
21734.02818124
 20
11660.43752198
 30
0.0
 11
21734.02818124
 21
12769.93749057
 31
0.0
1001
ACDBBLOCKREPETAG
1070
     1
1071
      103
1005
0
  0
LINE
  5
55F
330
2
100
AcDbEntity
  8
YKK_A1
100
AcDbLine
 10
21916.02818124
 20
11660.43752198
 30
0.0
 11
21916.02818124
 21
12769.93749057
 31
0.0
1001
ACDBBLOCKREPETAG
1070
     1
1071
       99
1005
0
  0
LINE
  5
560
330
2
100
AcDbEntity
  8
YKK_A1
100
AcDbLine
 10
21898.02818124
 20
11563.43747841
 30
0.0
 11
22628.02818124
 21
11563.43747841
 31
0.0
  0
LINE
  5
561
330
2
100
AcDbEntity
  8
YKK_A1
100
AcDbLine
 10
21898.02818124
 20
11545.43745324
 30
0.0
 11
22628.02818124
 21
11545.43745324
 31
0.0
  0
LINE
  5
562
330
2
100
AcDbEntity
  8
YKK_A1
100
AcDbLine
 10
21898.02818124
 20
11660.43752198
 30
0.0
 11
22628.02818124
 21
11660.43752198
 31
0.0
  0
LINE
  5
563
330
2
100
AcDbEntity
  8
YKK_A1
100
AcDbLine
 10
21898.02818124
 20
11642.43748415
 30
0.0
 11
22628.02818124
 21
11642.43748415
 31
0.0
  0
CIRCLE
  5
564
330
2
100
AcDbEntity
  8
YKK_A2
100
AcDbCircle
 10
21690.49553443
 20
11602.93752198
 30
0.0
 40
29.99999999998977
1001
ACDBBLOCKREPETAG
1070
     1
1071
      101
1005
0
  0
LINE
  5
565
330
2
100
AcDbEntity
  8
YKK_A1
100
AcDbLine
 10
21898.02818124
 20
12769.93749057
 30
0.0
 11
22628.02818124
 21
12769.93749057
 31
0.0
1001
ACDBBLOCKREPETAG
1070
     1
1071
       84
1005
0
  0
LINE
  5
566
330
2
100
AcDbEntity
  8
YKK_A1
100
AcDbLine
 10
21898.02818124
 20
12787.93749057
 30
0.0
 11
22628.02818124
 21
12787.93749057
 31
0.0
1001
ACDBBLOCKREPETAG
1070
     1
1071
       83
1005
0
  0
ENDSEC
  0
SECTION
  2
OBJECTS
  0
DICTIONARY
  5
1A
330
0
100
AcDbDictionary
281
     1
  3
ACAD_CIP_PREVIOUS_PRODUCT_INFO
350
61D
  3
ACAD_COLOR
350
5B0
  3
ACAD_DETAILVIEWSTYLE
350
5C9
  3
ACAD_GROUP
350
18
  3
ACAD_LAYOUT
350
5CF
  3
ACAD_MATERIAL
350
57E
  3
ACAD_MLEADERSTYLE
350
5C5
  3
ACAD_MLINESTYLE
350
19
  3
ACAD_PLOTSETTINGS
350
5CE
  3
ACAD_PLOTSTYLENAME
350
57C
  3
ACAD_SCALELIST
350
5B3
  3
ACAD_SECTIONVIEWSTYLE
350
5C7
  3
ACAD_TABLESTYLE
350
5B1
  3
ACAD_VISUALSTYLE
350
597
  3
ACDB_RECOMPOSE_DATA
350
623
  3
AcDbVariableDictionary
350
610
  0
XRECORD
  5
61D
102
{ACAD_REACTORS
330
1A
102
}
330
1A
100
AcDbXrecord
280
     1
300
ACD
300
2014
300
86063ACD_2014_0F
  0
DICTIONARY
  5
5B0
102
{ACAD_REACTORS
330
1A
102
}
330
1A
100
AcDbDictionary
281
     1
  0
DICTIONARY
  5
5C9
102
{ACAD_REACTORS
330
1A
102
}
330
1A
100
AcDbDictionary
281
     1
  3
Imperial24
350
5CA
  0
DICTIONARY
  5
18
102
{ACAD_REACTORS
330
1A
102
}
330
1A
100
AcDbDictionary
281
     1
  0
DICTIONARY
  5
5CF
102
{ACAD_REACTORS
330
1A
102
}
330
1A
100
AcDbDictionary
281
     1
  3
Model
350
5D0
  3
レイアウト1
350
5D1
  0
DICTIONARY
  5
57E
102
{ACAD_REACTORS
330
1A
102
}
330
1A
100
AcDbDictionary
281
     1
  3
ByBlock
350
587
  3
ByLayer
350
57F
  3
Global
350
58F
  0
DICTIONARY
  5
5C5
102
{ACAD_REACTORS
330
1A
102
}
330
1A
100
AcDbDictionary
281
     1
  3
Standard
350
5C6
  0
DICTIONARY
  5
19
102
{ACAD_REACTORS
330
1A
102
}
330
1A
100
AcDbDictionary
281
     1
  3
STANDARD
350
1B
  0
DICTIONARY
  5
5CE
102
{ACAD_REACTORS
330
1A
102
}
330
1A
100
AcDbDictionary
281
     1
  0
ACDBDICTIONARYWDFLT
  5
57C
102
{ACAD_REACTORS
330
1A
102
}
330
1A
100
AcDbDictionary
281
     1
  3
Normal
350
57D
100
AcDbDictionaryWithDefault
340
57D
  0
DICTIONARY
  5
5B3
102
{ACAD_REACTORS
330
1A
102
}
330
1A
100
AcDbDictionary
281
     1
  3
A0
350
5B4
  3
A1
350
5B5
  3
A2
350
5B6
  3
A3
350
5B7
  3
A4
350
5B8
  3
A5
350
5B9
  3
A6
350
5BA
  3
A7
350
5BB
  3
A8
350
5BC
  3
A9
350
5BD
  3
B0
350
5BE
  3
B1
350
5BF
  3
B2
350
5C0
  3
B3
350
5C1
  3
B4
350
5C2
  3
B5
350
5C3
  3
B6
350
5C4
  0
DICTIONARY
  5
5C7
102
{ACAD_REACTORS
330
1A
102
}
330
1A
100
AcDbDictionary
281
     1
  3
Imperial24
350
5C8
  0
DICTIONARY
  5
5B1
102
{ACAD_REACTORS
330
1A
102
}
330
1A
100
AcDbDictionary
281
     1
  3
Standard
350
5B2
  0
DICTIONARY
  5
597
102
{ACAD_REACTORS
330
1A
102
}
330
1A
100
AcDbDictionary
281
     1
  3
2dWireframe
350
59D
  3
Basic
350
59C
  3
Brighten
350
5A3
  3
ColorChange
350
5A7
  3
Conceptual
350
5A0
  3
Dim
350
5A2
  3
EdgeColorOff
350
5AF
  3
Facepattern
350
5A6
  3
Flat
350
598
  3
FlatWithEdges
350
599
  3
Gouraud
350
59A
  3
GouraudWithEdges
350
59B
  3
Hidden
350
59F
  3
JitterOff
350
5AD
  3
Linepattern
350
5A5
  3
OverhangOff
350
5AE
  3
Realistic
350
5A1
  3
Shaded
350
5AC
  3
Shaded with edges
350
5AB
  3
Shades of Gray
350
5A8
  3
Sketchy
350
5A9
  3
Thicken
350
5A4
  3
Wireframe
350
59E
  3
X-Ray
350
5AA
  0
XRECORD
  5
623
102
{ACAD_REACTORS
330
1A
102
}
330
1A
100
AcDbXrecord
280
     1
 90
        1
330
5B2
  0
DICTIONARY
  5
610
102
{ACAD_REACTORS
330
1A
102
}
330
1A
100
AcDbDictionary
281
     1
  3
CANNOSCALE
350
615
  3
CMLEADERSTYLE
350
612
  3
CTABLESTYLE
350
611
  3
CVIEWDETAILSTYLE
350
613
  3
CVIEWSECTIONSTYLE
350
614
  3
XCLIPFRAME
350
621
  0
ACDBDETAILVIEWSTYLE
  5
5CA
102
{ACAD_XDICTIONARY
360
65C
102
}
102
{ACAD_REACTORS
330
5C9
102
}
330
5C9
100
AcDbModelDocViewStyle
 70
     0
  3
Imperial24
290
     0
100
AcDbDetailViewStyle
 70
     0
 71
     0
 90
        3
 71
     1
340
C
 62
   256
 40
0.24
340
0
 62
   256
 40
0.24
300

 40
0.36
280
     3
 71
     2
340
5
 90
       25
 62
   256
 71
     3
340
C
 62
   256
 40
0.24
 90
        1
 40
0.75
 90
        1
300
%<\AcVar ViewType \f "%tc1">% %<\AcVar ViewDetailId>%\PSCALE %<\AcVar ViewScale \f "%sn">%
 71
     4
340
5
 90
       25
 62
   256
340
5
 90
       25
 62
   256
280
     0
  0
LAYOUT
  5
5D0
102
{ACAD_REACTORS
330
5CF
102
}
330
5CF
100
AcDbPlotSettings
  1

  2
C:\ACAD-I\support\plotters\Default Windows System Printer.pc3
  4
A4
  6

 40
3.17499995
 41
3.17499995
 42
3.17500305
 43
3.17498779
 44
209.88865662
 45
297.05300903
 46
0.0
 47
0.0
 48
0.0
 49
0.0
140
0.0
141
0.0
142
1.0
143
3183.15385876
 70
 11952
 72
     0
 73
     1
 74
     0
  7
monochrome.ctb
 75
     0
147
0.00031415
 76
     0
 77
     2
 78
   300
148
57456.00307712
149
2205.45844029
100
AcDbLayout
  1
Model
 70
     1
 71
     0
 10
0.0
 20
0.0
 11
12.0
 21
9.0
 12
0.0
 22
0.0
 32
0.0
 14
0.0
 24
0.0
 34
0.0
 15
0.0
 25
0.0
 35
0.0
146
0.0
 13
0.0
 23
0.0
 33
0.0
 16
1.0
 26
0.0
 36
0.0
 17
0.0
 27
1.0
 37
0.0
 76
     0
330
2
1001
ACAD_PSEXT
1000
C:\ACAD-I\support\plotters\Default Windows System Printer.pc3
1000
Fiery PRO80 65-55C-KM PS3.0jp
1000
IP_10.230.204.212
1000

1070
     0
  0
LAYOUT
  5
5D1
102
{ACAD_REACTORS
330
5CF
102
}
330
5CF
100
AcDbPlotSettings
  1

  2
C:\ACAD-I\support\plotters\Default Windows System Printer.pc3
  4
A4
  6

 40
3.17499995
 41
3.17499995
 42
3.17500305
 43
3.17498779
 44
209.88865662
 45
297.05300903
 46
0.0
 47
0.0
 48
0.0
 49
0.0
140
0.0
141
0.0
142
1.0
143
1.0
 70
 15024
 72
     0
 73
     1
 74
     5
  7
monochrome.ctb
 75
    16
147
1.0
 76
     0
 77
     2
 78
   300
148
0.0
149
0.0
100
AcDbLayout
  1
レイアウト1
 70
     1
 71
     1
 10
0.0
 20
0.0
 11
420.0
 21
297.0
 12
0.0
 22
0.0
 32
0.0
 14
1.00000000E+20
 24
1.00000000E+20
 34
1.00000000E+20
 15
-1.00000000E+20
 25
-1.00000000E+20
 35
-1.00000000E+20
146
0.0
 13
0.0
 23
0.0
 33
0.0
 16
1.0
 26
0.0
 36
0.0
 17
0.0
 27
1.0
 37
0.0
 76
     0
330
7
1001
ACAD_PSEXT
1000
C:\ACAD-I\support\plotters\Default Windows System Printer.pc3
1000
Fiery PRO80 65-55C-KM PS3.0jp
1000
IP_10.230.204.212
1000

1070
     0
  0
MATERIAL
  5
587
102
{ACAD_XDICTIONARY
360
588
102
}
102
{ACAD_REACTORS
330
57E
102
}
330
57E
100
AcDbMaterial
  1
ByBlock
 72
     0
 43
0.02083333
 43
0.0
 43
0.0
 43
0.0
 43
0.0
 43
0.02083333
 43
0.0
 43
0.0
 43
0.0
 43
0.0
 43
1.0
 43
0.0
 43
0.0
 43
0.0
 43
0.0
 43
1.0
 77
     0
 47
0.02083333
 47
0.0
 47
0.0
 47
0.0
 47
0.0
 47
0.02083333
 47
0.0
 47
0.0
 47
0.0
 47
0.0
 47
1.0
 47
0.0
 47
0.0
 47
0.0
 47
0.0
 47
1.0
171
     0
 49
0.02083333
 49
0.0
 49
0.0
 49
0.0
 49
0.0
 49
0.02083333
 49
0.0
 49
0.0
 49
0.0
 49
0.0
 49
1.0
 49
0.0
 49
0.0
 49
0.0
 49
0.0
 49
1.0
175
     0
142
0.02083333
142
0.0
142
0.0
142
0.0
142
0.0
142
0.02083333
142
0.0
142
0.0
142
0.0
142
0.0
142
1.0
142
0.0
142
0.0
142
0.0
142
0.0
142
1.0
179
     0
144
0.02083333
144
0.0
144
0.0
144
0.0
144
0.0
144
0.02083333
144
0.0
144
0.0
144
0.0
144
0.0
144
1.0
144
0.0
144
0.0
144
0.0
144
0.0
144
1.0
147
0.02083333
147
0.0
147
0.0
147
0.0
147
0.0
147
0.02083333
147
0.0
147
0.0
147
0.0
147
0.0
147
1.0
147
0.0
147
0.0
147
0.0
147
0.0
147
1.0
  0
MATERIAL
  5
57F
102
{ACAD_XDICTIONARY
360
580
102
}
102
{ACAD_REACTORS
330
57E
102
}
330
57E
100
AcDbMaterial
  1
ByLayer
 72
     0
 43
0.02083333
 43
0.0
 43
0.0
 43
0.0
 43
0.0
 43
0.02083333
 43
0.0
 43
0.0
 43
0.0
 43
0.0
 43
1.0
 43
0.0
 43
0.0
 43
0.0
 43
0.0
 43
1.0
 77
     0
 47
0.02083333
 47
0.0
 47
0.0
 47
0.0
 47
0.0
 47
0.02083333
 47
0.0
 47
0.0
 47
0.0
 47
0.0
 47
1.0
 47
0.0
 47
0.0
 47
0.0
 47
0.0
 47
1.0
171
     0
 49
0.02083333
 49
0.0
 49
0.0
 49
0.0
 49
0.0
 49
0.02083333
 49
0.0
 49
0.0
 49
0.0
 49
0.0
 49
1.0
 49
0.0
 49
0.0
 49
0.0
 49
0.0
 49
1.0
175
     0
142
0.02083333
142
0.0
142
0.0
142
0.0
142
0.0
142
0.02083333
142
0.0
142
0.0
142
0.0
142
0.0
142
1.0
142
0.0
142
0.0
142
0.0
142
0.0
142
1.0
179
     0
144
0.02083333
144
0.0
144
0.0
144
0.0
144
0.0
144
0.02083333
144
0.0
144
0.0
144
0.0
144
0.0
144
1.0
144
0.0
144
0.0
144
0.0
144
0.0
144
1.0
147
0.02083333
147
0.0
147
0.0
147
0.0
147
0.0
147
0.02083333
147
0.0
147
0.0
147
0.0
147
0.0
147
1.0
147
0.0
147
0.0
147
0.0
147
0.0
147
1.0
  0
MATERIAL
  5
58F
102
{ACAD_XDICTIONARY
360
590
102
}
102
{ACAD_REACTORS
330
57E
102
}
330
57E
100
AcDbMaterial
  1
Global
 72
     0
 43
0.02083333
 43
0.0
 43
0.0
 43
0.0
 43
0.0
 43
0.02083333
 43
0.0
 43
0.0
 43
0.0
 43
0.0
 43
1.0
 43
0.0
 43
0.0
 43
0.0
 43
0.0
 43
1.0
 77
     0
 47
0.02083333
 47
0.0
 47
0.0
 47
0.0
 47
0.0
 47
0.02083333
 47
0.0
 47
0.0
 47
0.0
 47
0.0
 47
1.0
 47
0.0
 47
0.0
 47
0.0
 47
0.0
 47
1.0
171
     0
 49
0.02083333
 49
0.0
 49
0.0
 49
0.0
 49
0.0
 49
0.02083333
 49
0.0
 49
0.0
 49
0.0
 49
0.0
 49
1.0
 49
0.0
 49
0.0
 49
0.0
 49
0.0
 49
1.0
175
     0
142
0.02083333
142
0.0
142
0.0
142
0.0
142
0.0
142
0.02083333
142
0.0
142
0.0
142
0.0
142
0.0
142
1.0
142
0.0
142
0.0
142
0.0
142
0.0
142
1.0
179
     0
144
0.02083333
144
0.0
144
0.0
144
0.0
144
0.0
144
0.02083333
144
0.0
144
0.0
144
0.0
144
0.0
144
1.0
144
0.0
144
0.0
144
0.0
144
0.0
144
1.0
147
0.02083333
147
0.0
147
0.0
147
0.0
147
0.0
147
0.02083333
147
0.0
147
0.0
147
0.0
147
0.0
147
1.0
147
0.0
147
0.0
147
0.0
147
0.0
147
1.0
  0
MLEADERSTYLE
  5
5C6
102
{ACAD_XDICTIONARY
360
658
102
}
102
{ACAD_REACTORS
330
5C5
102
}
330
5C5
100
AcDbMLeaderStyle
170
     2
171
     1
172
     0
 90
        2
 40
0.0
 41
0.0
173
     1
 91
-1056964608
340
E
 92
       -2
290
     1
 42
0.09
291
     1
 43
0.36
  3
Standard
 44
0.18
300

342
C
174
     1
178
     6
175
     1
176
     0
 93
-1056964608
 45
0.18
292
     0
297
     0
 46
0.18
 94
-1056964608
 47
1.0
 49
1.0
140
1.0
293
     1
141
0.0
294
     1
177
     0
142
1.0
295
     0
296
     0
143
0.125
1001
ACAD_MLEADERVER
1070
     2
  0
MLINESTYLE
  5
1B
102
{ACAD_REACTORS
330
19
102
}
330
19
100
AcDbMlineStyle
  2
STANDARD
 70
     0
  3

 62
   256
 51
90.0
 52
90.0
 71
     2
 49
0.5
 62
   256
  6
BYLAYER
 49
-0.5
 62
   256
  6
BYLAYER
  0
ACDBPLACEHOLDER
  5
57D
102
{ACAD_REACTORS
330
57C
102
}
330
57C
  0
SCALE
  5
5B4
102
{ACAD_REACTORS
330
5B3
102
}
330
5B3
100
AcDbScale
 70
     0
300
1:1
140
1.0
141
1.0
290
     1
  0
SCALE
  5
5B5
102
{ACAD_REACTORS
330
5B3
102
}
330
5B3
100
AcDbScale
 70
     0
300
1/128" = 1'-0"
140
0.0078125
141
12.0
290
     0
  0
SCALE
  5
5B6
102
{ACAD_REACTORS
330
5B3
102
}
330
5B3
100
AcDbScale
 70
     0
300
1/64" = 1'-0"
140
0.015625
141
12.0
290
     0
  0
SCALE
  5
5B7
102
{ACAD_REACTORS
330
5B3
102
}
330
5B3
100
AcDbScale
 70
     0
300
1/32" = 1'-0"
140
0.03125
141
12.0
290
     0
  0
SCALE
  5
5B8
102
{ACAD_REACTORS
330
5B3
102
}
330
5B3
100
AcDbScale
 70
     0
300
1/16" = 1'-0"
140
0.0625
141
12.0
290
     0
  0
SCALE
  5
5B9
102
{ACAD_REACTORS
330
5B3
102
}
330
5B3
100
AcDbScale
 70
     0
300
3/32" = 1'-0"
140
0.09375
141
12.0
290
     0
  0
SCALE
  5
5BA
102
{ACAD_REACTORS
330
5B3
102
}
330
5B3
100
AcDbScale
 70
     0
300
1/8" = 1'-0"
140
0.125
141
12.0
290
     0
  0
SCALE
  5
5BB
102
{ACAD_REACTORS
330
5B3
102
}
330
5B3
100
AcDbScale
 70
     0
300
3/16" = 1'-0"
140
0.1875
141
12.0
290
     0
  0
SCALE
  5
5BC
102
{ACAD_REACTORS
330
5B3
102
}
330
5B3
100
AcDbScale
 70
     0
300
1/4" = 1'-0"
140
0.25
141
12.0
290
     0
  0
SCALE
  5
5BD
102
{ACAD_REACTORS
330
5B3
102
}
330
5B3
100
AcDbScale
 70
     0
300
3/8" = 1'-0"
140
0.375
141
12.0
290
     0
  0
SCALE
  5
5BE
102
{ACAD_REACTORS
330
5B3
102
}
330
5B3
100
AcDbScale
 70
     0
300
1/2" = 1'-0"
140
0.5
141
12.0
290
     0
  0
SCALE
  5
5BF
102
{ACAD_REACTORS
330
5B3
102
}
330
5B3
100
AcDbScale
 70
     0
300
3/4" = 1'-0"
140
0.75
141
12.0
290
     0
  0
SCALE
  5
5C0
102
{ACAD_REACTORS
330
5B3
102
}
330
5B3
100
AcDbScale
 70
     0
300
1" = 1'-0"
140
1.0
141
12.0
290
     0
  0
SCALE
  5
5C1
102
{ACAD_REACTORS
330
5B3
102
}
330
5B3
100
AcDbScale
 70
     0
300
1-1/2" = 1'-0"
140
1.5
141
12.0
290
     0
  0
SCALE
  5
5C2
102
{ACAD_REACTORS
330
5B3
102
}
330
5B3
100
AcDbScale
 70
     0
300
3" = 1'-0"
140
3.0
141
12.0
290
     0
  0
SCALE
  5
5C3
102
{ACAD_REACTORS
330
5B3
102
}
330
5B3
100
AcDbScale
 70
     0
300
6" = 1'-0"
140
6.0
141
12.0
290
     0
  0
SCALE
  5
5C4
102
{ACAD_REACTORS
330
5B3
102
}
330
5B3
100
AcDbScale
 70
     0
300
1'-0" = 1'-0"
140
12.0
141
12.0
290
     0
  0
ACDBSECTIONVIEWSTYLE
  5
5C8
102
{ACAD_XDICTIONARY
360
65A
102
}
102
{ACAD_REACTORS
330
5C7
102
}
330
5C7
100
AcDbModelDocViewStyle
 70
     0
  3
Imperial24
290
     0
100
AcDbSectionViewStyle
 70
     0
 71
     0
 90
      102
 71
     1
340
C
 62
   256
 40
5.0
340
0
340
0
 62
   256
 40
5.0
300
I, O, Q, S, X, Z
 40
10.0
 90
        0
 40
2.5
 90
        0
 71
     2
340
5
 90
       25
 62
   256
340
5
 90
       50
 62
   256
 40
5.0
 40
2.5
 40
5.0
 71
     3
340
C
 62
   256
 40
5.0
 90
        0
 40
15.0
 90
        1
300
%<\AcVar ViewSectionStartId>%-%<\AcVar ViewSectionEndId>% (%<\AcVar ViewScale \f "%sn">%)
 71
     4
 62
   256
 62
   257
300
ANSI31
 40
1.0
 90
        0
290
     0
290
     0
 90
        6
 40
0.0
 40
1.57079633
 40
0.26179939
 40
1.30899694
 40
-0.26179939
 40
1.83259571
  0
TABLESTYLE
  5
5B2
102
{ACAD_XDICTIONARY
360
5D2
102
}
102
{ACAD_REACTORS
330
5B1
102
}
330
5B1
100
AcDbTableStyle
  3
Standard
 70
     0
 71
     0
 40
0.06
 41
0.06
280
     0
281
     0
  7
STANDARD
140
0.18
170
     2
 62
     0
 63
     7
283
     0
274
    -2
284
     1
 64
     0
275
    -2
285
     1
 65
     0
276
    -2
286
     1
 66
     0
277
    -2
287
     1
 67
     0
278
    -2
288
     1
 68
     0
279
    -2
289
     1
 69
     0
  7
STANDARD
140
0.25
170
     5
 62
     0
 63
     7
283
     0
274
    -2
284
     1
 64
     0
275
    -2
285
     1
 65
     0
276
    -2
286
     1
 66
     0
277
    -2
287
     1
 67
     0
278
    -2
288
     1
 68
     0
279
    -2
289
     1
 69
     0
  7
STANDARD
140
0.18
170
     5
 62
     0
 63
     7
283
     0
274
    -2
284
     1
 64
     0
275
    -2
285
     1
 65
     0
276
    -2
286
     1
 66
     0
277
    -2
287
     1
 67
     0
278
    -2
288
     1
 68
     0
279
    -2
289
     1
 69
     0
  0
VISUALSTYLE
  5
59D
102
{ACAD_XDICTIONARY
360
631
102
}
102
{ACAD_REACTORS
330
597
102
}
330
597
100
AcDbVisualStyle
  2
2dWireframe
 70
     4
 71
     0
 72
     2
 73
     0
 90
        0
 40
-0.6
 41
-30.0
 62
     5
 63
     7
421
 16777215
 74
     1
 91
        4
 64
     7
 65
   257
 75
     1
175
     1
 42
1.0
 92
        0
 66
   257
 43
1.0
 76
     1
 77
     6
 78
     2
 67
     7
 79
     5
170
     0
171
     0
290
     0
174
     0
 93
        1
 44
0.0
173
     0
291
     0
 45
0.0
1001
ACAD
1000
AcDbSavedByObjectVersion
1070
     0
  0
VISUALSTYLE
  5
59C
102
{ACAD_XDICTIONARY
360
62F
102
}
102
{ACAD_REACTORS
330
597
102
}
330
597
100
AcDbVisualStyle
  2
Basic
 70
     7
 71
     1
 72
     0
 73
     1
 90
        0
 40
-0.6
 41
-30.0
 62
     5
 63
     7
421
 16777215
 74
     0
 91
        4
 64
     7
 65
   257
 75
     1
175
     1
 42
1.0
 92
        8
 66
     7
 43
1.0
 76
     1
 77
     6
 78
     2
 67
     7
 79
     5
170
     0
171
     0
290
     0
174
     0
 93
        1
 44
0.0
173
     0
291
     1
 45
0.0
1001
ACAD
1000
AcDbSavedByObjectVersion
1070
     0
  0
VISUALSTYLE
  5
5A3
102
{ACAD_XDICTIONARY
360
63D
102
}
102
{ACAD_REACTORS
330
597
102
}
330
597
100
AcDbVisualStyle
  2
Brighten
 70
    12
 71
     2
 72
     2
 73
     0
 90
        0
 40
-0.6
 41
-30.0
 62
     5
 63
     7
421
 16777215
 74
     1
 91
        4
 64
     7
 65
   257
 75
     1
175
     1
 42
1.0
 92
        8
 66
     7
 43
1.0
 76
     1
 77
     6
 78
     2
 67
     7
 79
     5
170
     0
171
     0
290
     0
174
     0
 93
        1
 44
50.0
173
     0
291
     1
 45
0.0
1001
ACAD
1000
AcDbSavedByObjectVersion
1070
     0
  0
VISUALSTYLE
  5
5A7
102
{ACAD_XDICTIONARY
360
645
102
}
102
{ACAD_REACTORS
330
597
102
}
330
597
100
AcDbVisualStyle
  2
ColorChange
 70
    16
 71
     2
 72
     2
 73
     3
 90
        0
 40
-0.6
 41
-30.0
 62
     5
 63
     8
421
  8421504
 74
     1
 91
        4
 64
     7
 65
   257
 75
     1
175
     1
 42
1.0
 92
        8
 66
     8
424
  8421504
 43
1.0
 76
     1
 77
     6
 78
     2
 67
     7
 79
     5
170
     0
171
     0
290
     0
174
     0
 93
        1
 44
0.0
173
     0
291
     1
 45
0.0
1001
ACAD
1000
AcDbSavedByObjectVersion
1070
     0
  0
VISUALSTYLE
  5
5A0
102
{ACAD_XDICTIONARY
360
637
102
}
102
{ACAD_REACTORS
330
597
102
}
330
597
100
AcDbVisualStyle
  2
Conceptual
 70
     9
 71
     3
 72
     2
 73
     0
 90
        0
 40
-0.6
 41
-30.0
 62
     5
 63
     7
421
 16777215
 74
     2
 91
        2
 64
     7
 65
   257
 75
     1
175
     1
 42
179.0
 92
        8
 66
     7
 43
1.0
 76
     1
 77
     6
 78
     2
 67
     7
 79
     3
170
     0
171
     0
290
     0
174
     0
 93
        1
 44
0.0
173
     0
291
     0
 45
0.0
1001
ACAD
1000
AcDbSavedByObjectVersion
1070
     0
  0
VISUALSTYLE
  5
5A2
102
{ACAD_XDICTIONARY
360
63B
102
}
102
{ACAD_REACTORS
330
597
102
}
330
597
100
AcDbVisualStyle
  2
Dim
 70
    11
 71
     2
 72
     2
 73
     0
 90
        0
 40
-0.6
 41
-30.0
 62
     5
 63
     7
421
 16777215
 74
     1
 91
        4
 64
     7
 65
   257
 75
     1
175
     1
 42
1.0
 92
        8
 66
     7
 43
1.0
 76
     1
 77
     6
 78
     2
 67
     7
 79
     5
170
     0
171
     0
290
     0
174
     0
 93
        1
 44
-50.0
173
     0
291
     1
 45
0.0
1001
ACAD
1000
AcDbSavedByObjectVersion
1070
     0
  0
VISUALSTYLE
  5
5AF
102
{ACAD_XDICTIONARY
360
655
102
}
102
{ACAD_REACTORS
330
597
102
}
330
597
100
AcDbVisualStyle
  2
EdgeColorOff
 70
    22
 71
     2
 72
     2
 73
     0
 90
        0
 40
-0.6
 41
-30.0
 62
     5
 63
     7
421
 16777215
 74
     1
 91
        4
 64
     7
 65
   257
 75
     1
175
     1
 42
1.0
 92
        8
 66
     7
 43
1.0
 76
     1
 77
     6
 78
     2
 67
     7
 79
     5
170
     0
171
     0
290
     0
174
     0
 93
        1
 44
0.0
173
     0
291
     1
 45
0.0
1001
ACAD
1000
AcDbSavedByObjectVersion
1070
     0
  0
VISUALSTYLE
  5
5A6
102
{ACAD_XDICTIONARY
360
643
102
}
102
{ACAD_REACTORS
330
597
102
}
330
597
100
AcDbVisualStyle
  2
Facepattern
 70
    15
 71
     2
 72
     2
 73
     0
 90
        0
 40
-0.6
 41
-30.0
 62
     5
 63
     7
421
 16777215
 74
     1
 91
        4
 64
     7
 65
   257
 75
     1
175
     1
 42
1.0
 92
        8
 66
     7
 43
1.0
 76
     1
 77
     6
 78
     2
 67
     7
 79
     5
170
     0
171
     0
290
     0
174
     0
 93
        1
 44
0.0
173
     0
291
     1
 45
0.0
1001
ACAD
1000
AcDbSavedByObjectVersion
1070
     0
  0
VISUALSTYLE
  5
598
102
{ACAD_XDICTIONARY
360
627
102
}
102
{ACAD_REACTORS
330
597
102
}
330
597
100
AcDbVisualStyle
  2
Flat
 70
     0
 71
     2
 72
     1
 73
     1
 90
        2
 40
-0.6
 41
30.0
 62
     5
 63
     7
421
 16777215
 74
     0
 91
        0
 64
     7
 65
   257
 75
     1
175
     1
 42
1.0
 92
        8
 66
     7
 43
1.0
 76
     1
 77
     6
 78
     2
 67
     7
 79
     5
170
     0
171
     0
290
     0
174
     0
 93
       13
 44
0.0
173
     0
291
     1
 45
0.0
1001
ACAD
1000
AcDbSavedByObjectVersion
1070
     0
  0
VISUALSTYLE
  5
599
102
{ACAD_XDICTIONARY
360
629
102
}
102
{ACAD_REACTORS
330
597
102
}
330
597
100
AcDbVisualStyle
  2
FlatWithEdges
 70
     1
 71
     2
 72
     1
 73
     1
 90
        2
 40
-0.6
 41
30.0
 62
     5
 63
     7
421
 16777215
 74
     1
 91
        0
 64
     7
 65
   257
 75
     1
175
     1
 42
1.0
 92
        0
 66
   257
 43
1.0
 76
     1
 77
     6
 78
     2
 67
     7
 79
     5
170
     0
171
     0
290
     0
174
     0
 93
       13
 44
0.0
173
     0
291
     1
 45
0.0
1001
ACAD
1000
AcDbSavedByObjectVersion
1070
     0
  0
VISUALSTYLE
  5
59A
102
{ACAD_XDICTIONARY
360
62B
102
}
102
{ACAD_REACTORS
330
597
102
}
330
597
100
AcDbVisualStyle
  2
Gouraud
 70
     2
 71
     2
 72
     2
 73
     1
 90
        2
 40
-0.6
 41
30.0
 62
     5
 63
     7
421
 16777215
 74
     0
 91
        0
 64
     7
 65
   257
 75
     1
175
     1
 42
1.0
 92
        0
 66
     7
 43
1.0
 76
     1
 77
     6
 78
     2
 67
     7
 79
     5
170
     0
171
     0
290
     0
174
     0
 93
       13
 44
0.0
173
     0
291
     1
 45
0.0
1001
ACAD
1000
AcDbSavedByObjectVersion
1070
     0
  0
VISUALSTYLE
  5
59B
102
{ACAD_XDICTIONARY
360
62D
102
}
102
{ACAD_REACTORS
330
597
102
}
330
597
100
AcDbVisualStyle
  2
GouraudWithEdges
 70
     3
 71
     2
 72
     2
 73
     1
 90
        2
 40
-0.6
 41
30.0
 62
     5
 63
     7
421
 16777215
 74
     1
 91
        0
 64
     7
 65
   257
 75
     1
175
     1
 42
1.0
 92
        0
 66
   257
 43
1.0
 76
     1
 77
     6
 78
     2
 67
     7
 79
     5
170
     0
171
     0
290
     0
174
     0
 93
       13
 44
0.0
173
     0
291
     1
 45
0.0
1001
ACAD
1000
AcDbSavedByObjectVersion
1070
     0
  0
VISUALSTYLE
  5
59F
102
{ACAD_XDICTIONARY
360
635
102
}
102
{ACAD_REACTORS
330
597
102
}
330
597
100
AcDbVisualStyle
  2
Hidden
 70
     6
 71
     1
 72
     2
 73
     2
 90
        0
 40
-0.6
 41
-30.0
 62
     5
 63
     7
421
 16777215
 74
     2
 91
        2
 64
     7
 65
   257
 75
     2
175
     1
 42
40.0
 92
        0
 66
   257
 43
1.0
 76
     1
 77
     6
 78
     2
 67
     7
 79
     3
170
     0
171
     0
290
     0
174
     0
 93
        1
 44
0.0
173
     0
291
     0
 45
0.0
1001
ACAD
1000
AcDbSavedByObjectVersion
1070
     0
  0
VISUALSTYLE
  5
5AD
102
{ACAD_XDICTIONARY
360
651
102
}
102
{ACAD_REACTORS
330
597
102
}
330
597
100
AcDbVisualStyle
  2
JitterOff
 70
    20
 71
     2
 72
     2
 73
     0
 90
        0
 40
-0.6
 41
-30.0
 62
     5
 63
     7
421
 16777215
 74
     1
 91
        4
 64
     7
 65
   257
 75
     1
175
     1
 42
1.0
 92
       10
 66
     7
 43
1.0
 76
     1
 77
     6
 78
     2
 67
     7
 79
     5
170
     0
171
     0
290
     0
174
     0
 93
        1
 44
0.0
173
     0
291
     1
 45
0.0
1001
ACAD
1000
AcDbSavedByObjectVersion
1070
     0
  0
VISUALSTYLE
  5
5A5
102
{ACAD_XDICTIONARY
360
641
102
}
102
{ACAD_REACTORS
330
597
102
}
330
597
100
AcDbVisualStyle
  2
Linepattern
 70
    14
 71
     2
 72
     2
 73
     0
 90
        0
 40
-0.6
 41
-30.0
 62
     5
 63
     7
421
 16777215
 74
     1
 91
        4
 64
     7
 65
   257
 75
     7
175
     7
 42
1.0
 92
        8
 66
     7
 43
1.0
 76
     1
 77
     6
 78
     2
 67
     7
 79
     5
170
     0
171
     0
290
     0
174
     0
 93
        1
 44
0.0
173
     0
291
     1
 45
0.0
1001
ACAD
1000
AcDbSavedByObjectVersion
1070
     0
  0
VISUALSTYLE
  5
5AE
102
{ACAD_XDICTIONARY
360
653
102
}
102
{ACAD_REACTORS
330
597
102
}
330
597
100
AcDbVisualStyle
  2
OverhangOff
 70
    21
 71
     2
 72
     2
 73
     0
 90
        0
 40
-0.6
 41
-30.0
 62
     5
 63
     7
421
 16777215
 74
     1
 91
        4
 64
     7
 65
   257
 75
     1
175
     1
 42
1.0
 92
        9
 66
     7
 43
1.0
 76
     1
 77
     6
 78
     2
 67
     7
 79
     5
170
     0
171
     0
290
     0
174
     0
 93
        1
 44
0.0
173
     0
291
     1
 45
0.0
1001
ACAD
1000
AcDbSavedByObjectVersion
1070
     0
  0
VISUALSTYLE
  5
5A1
102
{ACAD_XDICTIONARY
360
639
102
}
102
{ACAD_REACTORS
330
597
102
}
330
597
100
AcDbVisualStyle
  2
Realistic
 70
     8
 71
     2
 72
     2
 73
     0
 90
        2
 40
-0.6
 41
30.0
 62
     5
 63
     7
421
 16777215
 74
     0
 91
        0
 64
     7
 65
   257
 75
     1
175
     1
 42
1.0
 92
        8
 66
   257
 43
1.0
 76
     1
 77
     6
 78
     2
 67
     7
 79
     3
170
     0
171
     0
290
     0
174
     0
 93
       13
 44
0.0
173
     0
291
     0
 45
0.0
1001
ACAD
1000
AcDbSavedByObjectVersion
1070
     0
  0
VISUALSTYLE
  5
5AC
102
{ACAD_XDICTIONARY
360
64F
102
}
102
{ACAD_REACTORS
330
597
102
}
330
597
100
AcDbVisualStyle
  2
Shaded
 70
    27
 71
     2
 72
     2
 73
     1
 90
        2
 40
-0.6
 41
30.0
 62
     5
 63
     7
421
 16777215
 74
     0
 91
        4
 64
     7
 65
   257
 75
     1
175
     1
 42
1.0
 92
        8
 66
   257
 43
1.0
 76
     1
 77
     6
 78
     2
 67
     8
425
  7895160
 79
     3
170
     0
171
     0
290
     0
174
     0
 93
        5
 44
0.0
173
     0
291
     0
 45
0.0
1001
ACAD
1000
AcDbSavedByObjectVersion
1070
     0
  0
VISUALSTYLE
  5
5AB
102
{ACAD_XDICTIONARY
360
64D
102
}
102
{ACAD_REACTORS
330
597
102
}
330
597
100
AcDbVisualStyle
  2
Shaded with edges
 70
    26
 71
     2
 72
     2
 73
     1
 90
        2
 40
-0.6
 41
30.0
 62
     5
 63
     7
421
 16777215
 74
     1
 91
       10
 64
     7
 65
   257
 75
     2
175
     1
 42
1.0
 92
        8
 66
   257
 43
1.0
 76
     1
 77
     6
 78
     2
 67
     7
 79
     3
170
     0
171
     0
290
     0
174
     0
 93
        5
 44
0.0
173
     0
291
     0
 45
0.0
1001
ACAD
1000
AcDbSavedByObjectVersion
1070
     0
  0
VISUALSTYLE
  5
5A8
102
{ACAD_XDICTIONARY
360
647
102
}
102
{ACAD_REACTORS
330
597
102
}
330
597
100
AcDbVisualStyle
  2
Shades of Gray
 70
    23
 71
     2
 72
     2
 73
     3
 90
        0
 40
-0.6
 41
-30.0
 62
     5
 63
     7
421
 16777215
 74
     2
 91
        2
 64
     7
 65
     7
 75
     1
175
     1
 42
40.0
 92
        8
 66
     7
 43
1.0
 76
     1
 77
     6
 78
     2
 67
     7
 79
     3
170
     0
171
     0
290
     0
174
     0
 93
        1
 44
0.0
173
     0
291
     0
 45
0.0
1001
ACAD
1000
AcDbSavedByObjectVersion
1070
     0
  0
VISUALSTYLE
  5
5A9
102
{ACAD_XDICTIONARY
360
649
102
}
102
{ACAD_REACTORS
330
597
102
}
330
597
100
AcDbVisualStyle
  2
Sketchy
 70
    24
 71
     1
 72
     2
 73
     2
 90
        0
 40
-0.6
 41
-30.0
 62
     5
 63
     7
421
 16777215
 74
     2
 91
        2
 64
     7
 65
     7
 75
     1
175
     1
 42
40.0
 92
       11
 66
     7
 43
1.0
 76
     1
 77
     6
 78
     2
 67
     7
 79
     6
170
     0
171
     0
290
     0
174
     0
 93
        1
 44
0.0
173
     0
291
     0
 45
0.0
1001
ACAD
1000
AcDbSavedByObjectVersion
1070
     0
  0
VISUALSTYLE
  5
5A4
102
{ACAD_XDICTIONARY
360
63F
102
}
102
{ACAD_REACTORS
330
597
102
}
330
597
100
AcDbVisualStyle
  2
Thicken
 70
    13
 71
     2
 72
     2
 73
     0
 90
        0
 40
-0.6
 41
-30.0
 62
     5
 63
     7
421
 16777215
 74
     1
 91
        4
 64
     7
 65
   257
 75
     1
175
     1
 42
1.0
 92
       12
 66
     7
 43
1.0
 76
     1
 77
     6
 78
     2
 67
     7
 79
     5
170
     0
171
     0
290
     0
174
     0
 93
        1
 44
0.0
173
     0
291
     1
 45
0.0
1001
ACAD
1000
AcDbSavedByObjectVersion
1070
     0
  0
VISUALSTYLE
  5
59E
102
{ACAD_XDICTIONARY
360
633
102
}
102
{ACAD_REACTORS
330
597
102
}
330
597
100
AcDbVisualStyle
  2
Wireframe
 70
     5
 71
     0
 72
     2
 73
     0
 90
        0
 40
-0.6
 41
-30.0
 62
     5
 63
     7
421
 16777215
 74
     1
 91
        4
 64
     7
 65
   257
 75
     1
175
     1
 42
1.0
 92
        0
 66
   257
 43
1.0
 76
     1
 77
     6
 78
     2
 67
     7
 79
     3
170
     0
171
     0
290
     0
174
     0
 93
        1
 44
0.0
173
     0
291
     0
 45
0.0
1001
ACAD
1000
AcDbSavedByObjectVersion
1070
     0
  0
VISUALSTYLE
  5
5AA
102
{ACAD_XDICTIONARY
360
64B
102
}
102
{ACAD_REACTORS
330
597
102
}
330
597
100
AcDbVisualStyle
  2
X-Ray
 70
    25
 71
     2
 72
     2
 73
     1
 90
        1
 40
0.5
 41
-30.0
 62
     5
 63
     7
421
 16777215
 74
     1
 91
        0
 64
     7
 65
   257
 75
     1
175
     1
 42
1.0
 92
        8
 66
     7
 43
1.0
 76
     1
 77
     6
 78
     2
 67
     7
 79
     3
170
     0
171
     0
290
     0
174
     0
 93
       13
 44
0.0
173
     0
291
     0
 45
0.0
1001
ACAD
1000
AcDbSavedByObjectVersion
1070
     0
  0
DICTIONARYVAR
  5
615
102
{ACAD_REACTORS
330
610
102
}
330
610
100
DictionaryVariables
280
     0
  1
1:1
  0
DICTIONARYVAR
  5
612
102
{ACAD_REACTORS
330
610
102
}
330
610
100
DictionaryVariables
280
     0
  1
STANDARD
  0
DICTIONARYVAR
  5
611
102
{ACAD_REACTORS
330
610
102
}
330
610
100
DictionaryVariables
280
     0
  1
STANDARD
  0
DICTIONARYVAR
  5
613
102
{ACAD_REACTORS
330
610
102
}
330
610
100
DictionaryVariables
280
     0
  1
Imperial24
  0
DICTIONARYVAR
  5
614
102
{ACAD_REACTORS
330
610
102
}
330
610
100
DictionaryVariables
280
     0
  1
Imperial24
  0
DICTIONARYVAR
  5
621
102
{ACAD_REACTORS
330
610
102
}
330
610
100
DictionaryVariables
280
     0
  1
2
  0
DICTIONARY
  5
65C
330
5CA
100
AcDbDictionary
280
     1
281
     1
  3
ACAD_XREC_ROUNDTRIP
360
65D
  0
DICTIONARY
  5
588
330
587
100
AcDbDictionary
280
     1
281
     1
  3
ACAD_XREC_ROUNDTRIP
360
625
  3
BUMPTILE
360
58A
  3
DIFFUSETILE
360
589
  3
OPACITYTILE
360
58D
  3
REFLECTIONTILE
360
58C
  3
REFRACTIONTILE
360
58E
  3
SPECULARTILE
360
58B
  0
DICTIONARY
  5
580
330
57F
100
AcDbDictionary
280
     1
281
     1
  3
ACAD_XREC_ROUNDTRIP
360
624
  3
BUMPTILE
360
582
  3
DIFFUSETILE
360
581
  3
OPACITYTILE
360
585
  3
REFLECTIONTILE
360
584
  3
REFRACTIONTILE
360
586
  3
SPECULARTILE
360
583
  0
DICTIONARY
  5
590
330
58F
100
AcDbDictionary
280
     1
281
     1
  3
ACAD_XREC_ROUNDTRIP
360
626
  3
BUMPTILE
360
592
  3
DIFFUSETILE
360
591
  3
OPACITYTILE
360
595
  3
REFLECTIONTILE
360
594
  3
REFRACTIONTILE
360
596
  3
SPECULARTILE
360
593
  0
DICTIONARY
  5
658
330
5C6
100
AcDbDictionary
280
     1
281
     1
  3
ACAD_XREC_ROUNDTRIP
360
659
  0
DICTIONARY
  5
65A
330
5C8
100
AcDbDictionary
280
     1
281
     1
  3
ACAD_XREC_ROUNDTRIP
360
65B
  0
DICTIONARY
  5
5D2
330
5B2
100
AcDbDictionary
280
     1
281
     1
  3
ACAD_ROUNDTRIP_2008_TABLESTYLE_CELLSTYLEMAP
360
622
  3
ACAD_XREC_ROUNDTRIP
360
657
  0
DICTIONARY
  5
631
330
59D
100
AcDbDictionary
280
     1
281
     1
  3
ACAD_XREC_ROUNDTRIP
360
632
  0
DICTIONARY
  5
62F
330
59C
100
AcDbDictionary
280
     1
281
     1
  3
ACAD_XREC_ROUNDTRIP
360
630
  0
DICTIONARY
  5
63D
330
5A3
100
AcDbDictionary
280
     1
281
     1
  3
ACAD_XREC_ROUNDTRIP
360
63E
  0
DICTIONARY
  5
645
330
5A7
100
AcDbDictionary
280
     1
281
     1
  3
ACAD_XREC_ROUNDTRIP
360
646
  0
DICTIONARY
  5
637
330
5A0
100
AcDbDictionary
280
     1
281
     1
  3
ACAD_XREC_ROUNDTRIP
360
638
  0
DICTIONARY
  5
63B
330
5A2
100
AcDbDictionary
280
     1
281
     1
  3
ACAD_XREC_ROUNDTRIP
360
63C
  0
DICTIONARY
  5
655
330
5AF
100
AcDbDictionary
280
     1
281
     1
  3
ACAD_XREC_ROUNDTRIP
360
656
  0
DICTIONARY
  5
643
330
5A6
100
AcDbDictionary
280
     1
281
     1
  3
ACAD_XREC_ROUNDTRIP
360
644
  0
DICTIONARY
  5
627
330
598
100
AcDbDictionary
280
     1
281
     1
  3
ACAD_XREC_ROUNDTRIP
360
628
  0
DICTIONARY
  5
629
330
599
100
AcDbDictionary
280
     1
281
     1
  3
ACAD_XREC_ROUNDTRIP
360
62A
  0
DICTIONARY
  5
62B
330
59A
100
AcDbDictionary
280
     1
281
     1
  3
ACAD_XREC_ROUNDTRIP
360
62C
  0
DICTIONARY
  5
62D
330
59B
100
AcDbDictionary
280
     1
281
     1
  3
ACAD_XREC_ROUNDTRIP
360
62E
  0
DICTIONARY
  5
635
330
59F
100
AcDbDictionary
280
     1
281
     1
  3
ACAD_XREC_ROUNDTRIP
360
636
  0
DICTIONARY
  5
651
330
5AD
100
AcDbDictionary
280
     1
281
     1
  3
ACAD_XREC_ROUNDTRIP
360
652
  0
DICTIONARY
  5
641
330
5A5
100
AcDbDictionary
280
     1
281
     1
  3
ACAD_XREC_ROUNDTRIP
360
642
  0
DICTIONARY
  5
653
330
5AE
100
AcDbDictionary
280
     1
281
     1
  3
ACAD_XREC_ROUNDTRIP
360
654
  0
DICTIONARY
  5
639
330
5A1
100
AcDbDictionary
280
     1
281
     1
  3
ACAD_XREC_ROUNDTRIP
360
63A
  0
DICTIONARY
  5
64F
330
5AC
100
AcDbDictionary
280
     1
281
     1
  3
ACAD_XREC_ROUNDTRIP
360
650
  0
DICTIONARY
  5
64D
330
5AB
100
AcDbDictionary
280
     1
281
     1
  3
ACAD_XREC_ROUNDTRIP
360
64E
  0
DICTIONARY
  5
647
330
5A8
100
AcDbDictionary
280
     1
281
     1
  3
ACAD_XREC_ROUNDTRIP
360
648
  0
DICTIONARY
  5
649
330
5A9
100
AcDbDictionary
280
     1
281
     1
  3
ACAD_XREC_ROUNDTRIP
360
64A
  0
DICTIONARY
  5
63F
330
5A4
100
AcDbDictionary
280
     1
281
     1
  3
ACAD_XREC_ROUNDTRIP
360
640
  0
DICTIONARY
  5
633
330
59E
100
AcDbDictionary
280
     1
281
     1
  3
ACAD_XREC_ROUNDTRIP
360
634
  0
DICTIONARY
  5
64B
330
5AA
100
AcDbDictionary
280
     1
281
     1
  3
ACAD_XREC_ROUNDTRIP
360
64C
  0
XRECORD
  5
65D
102
{ACAD_REACTORS
330
65C
102
}
330
65C
100
AcDbXrecord
280
     1
102
DISPLAYNAME
  1
Imperial24
102
FLAGS
 90
        0
  0
XRECORD
  5
625
102
{ACAD_REACTORS
330
588
102
}
330
588
100
AcDbXrecord
280
     1
102
MATERIAL
148
0.0
149
0.0
149
0.0
 93
        0
 94
      127
282
     0
 72
     0
 77
     0
171
     0
175
     0
179
     0
273
     0
  0
XRECORD
  5
58A
102
{ACAD_REACTORS
330
588
102
}
330
588
100
AcDbXrecord
280
     1
270
     1
271
     1
  0
XRECORD
  5
589
102
{ACAD_REACTORS
330
588
102
}
330
588
100
AcDbXrecord
280
     1
270
     1
271
     1
  0
XRECORD
  5
58D
102
{ACAD_REACTORS
330
588
102
}
330
588
100
AcDbXrecord
280
     1
270
     1
271
     1
  0
XRECORD
  5
58C
102
{ACAD_REACTORS
330
588
102
}
330
588
100
AcDbXrecord
280
     1
270
     1
271
     1
  0
XRECORD
  5
58E
102
{ACAD_REACTORS
330
588
102
}
330
588
100
AcDbXrecord
280
     1
270
     1
271
     1
  0
XRECORD
  5
58B
102
{ACAD_REACTORS
330
588
102
}
330
588
100
AcDbXrecord
280
     1
270
     1
271
     1
  0
XRECORD
  5
624
102
{ACAD_REACTORS
330
580
102
}
330
580
100
AcDbXrecord
280
     1
102
MATERIAL
148
0.0
149
0.0
149
0.0
 93
        0
 94
      127
282
     0
 72
     0
 77
     0
171
     0
175
     0
179
     0
273
     0
  0
XRECORD
  5
582
102
{ACAD_REACTORS
330
580
102
}
330
580
100
AcDbXrecord
280
     1
270
     1
271
     1
  0
XRECORD
  5
581
102
{ACAD_REACTORS
330
580
102
}
330
580
100
AcDbXrecord
280
     1
270
     1
271
     1
  0
XRECORD
  5
585
102
{ACAD_REACTORS
330
580
102
}
330
580
100
AcDbXrecord
280
     1
270
     1
271
     1
  0
XRECORD
  5
584
102
{ACAD_REACTORS
330
580
102
}
330
580
100
AcDbXrecord
280
     1
270
     1
271
     1
  0
XRECORD
  5
586
102
{ACAD_REACTORS
330
580
102
}
330
580
100
AcDbXrecord
280
     1
270
     1
271
     1
  0
XRECORD
  5
583
102
{ACAD_REACTORS
330
580
102
}
330
580
100
AcDbXrecord
280
     1
270
     1
271
     1
  0
XRECORD
  5
626
102
{ACAD_REACTORS
330
590
102
}
330
590
100
AcDbXrecord
280
     1
102
MATERIAL
148
0.0
149
0.0
149
0.0
 93
        0
 94
      127
282
     0
 72
     0
 77
     0
171
     0
175
     0
179
     0
273
     0
  0
XRECORD
  5
592
102
{ACAD_REACTORS
330
590
102
}
330
590
100
AcDbXrecord
280
     1
270
     1
271
     1
  0
XRECORD
  5
591
102
{ACAD_REACTORS
330
590
102
}
330
590
100
AcDbXrecord
280
     1
270
     1
271
     1
  0
XRECORD
  5
595
102
{ACAD_REACTORS
330
590
102
}
330
590
100
AcDbXrecord
280
     1
270
     1
271
     1
  0
XRECORD
  5
594
102
{ACAD_REACTORS
330
590
102
}
330
590
100
AcDbXrecord
280
     1
270
     1
271
     1
  0
XRECORD
  5
596
102
{ACAD_REACTORS
330
590
102
}
330
590
100
AcDbXrecord
280
     1
270
     1
271
     1
  0
XRECORD
  5
593
102
{ACAD_REACTORS
330
590
102
}
330
590
100
AcDbXrecord
280
     1
270
     1
271
     1
  0
XRECORD
  5
659
102
{ACAD_REACTORS
330
658
102
}
330
658
100
AcDbXrecord
280
     1
102
ACAD_ROUNDTRIP_2012_MLEADER_STYLE
298
     1
  0
XRECORD
  5
65B
102
{ACAD_REACTORS
330
65A
102
}
330
65A
100
AcDbXrecord
280
     1
102
DISPLAYNAME
  1
Imperial24
102
FLAGS
 90
        0
  0
CELLSTYLEMAP
  5
622
102
{ACAD_REACTORS
330
5D2
102
}
330
5D2
100
AcDbCellStyleMap
 90
        3
300
CELLSTYLE
  1
TABLEFORMAT_BEGIN
 90
        5
170
     1
 91
        0
 92
    32768
 62
   257
 93
        1
300
CONTENTFORMAT
  1
CONTENTFORMAT_BEGIN
 90
        0
 91
        0
 92
      512
 93
        0
300

 40
0.0
140
1.0
 94
        5
 62
     0
340
C
144
0.25
309
CONTENTFORMAT_END
171
     0
 94
        0
309
TABLEFORMAT_END
  1
CELLSTYLE_BEGIN
 90
        1
 91
        1
300
_TITLE
309
CELLSTYLE_END
300
CELLSTYLE
  1
TABLEFORMAT_BEGIN
 90
        5
170
     1
 91
        0
 92
        0
 62
   257
 93
        1
300
CONTENTFORMAT
  1
CONTENTFORMAT_BEGIN
 90
        0
 91
        0
 92
      512
 93
        0
300

 40
0.0
140
1.0
 94
        5
 62
     0
340
C
144
0.18
309
CONTENTFORMAT_END
171
     0
 94
        0
309
TABLEFORMAT_END
  1
CELLSTYLE_BEGIN
 90
        2
 91
        1
300
_HEADER
309
CELLSTYLE_END
300
CELLSTYLE
  1
TABLEFORMAT_BEGIN
 90
        5
170
     1
 91
        0
 92
        0
 62
   257
 93
        1
300
CONTENTFORMAT
  1
CONTENTFORMAT_BEGIN
 90
        0
 91
        0
 92
      512
 93
        0
300

 40
0.0
140
1.0
 94
        2
 62
     0
340
C
144
0.18
309
CONTENTFORMAT_END
171
     0
 94
        0
309
TABLEFORMAT_END
  1
CELLSTYLE_BEGIN
 90
        3
 91
        2
300
_DATA
309
CELLSTYLE_END
  0
XRECORD
  5
657
102
{ACAD_REACTORS
330
5D2
102
}
330
5D2
100
AcDbXrecord
280
     1
102
ACAD_ROUNDTRIP_PRE2007_TABLESTYLE
 90
      512
 91
        0
  1

 92
      512
 93
        0
  2

 94
      512
 95
        0
  3

  0
XRECORD
  5
632
102
{ACAD_REACTORS
330
631
102
}
330
631
100
AcDbXrecord
280
     1
102
RTVSPost2010Prop28
280
     1
102
RTVSPost2010PropOp28
 70
     1
102
RTVSPost2010Prop29
280
     1
102
RTVSPost2010PropOp29
 70
     1
102
RTVSPost2010Prop30
280
     0
102
RTVSPost2010PropOp30
 70
     1
102
RTVSPost2010Prop31
280
     0
102
RTVSPost2010PropOp31
 70
     1
102
RTVSPost2010Prop32
280
     0
102
RTVSPost2010PropOp32
 70
     1
102
RTVSPost2010Prop33
280
     0
102
RTVSPost2010PropOp33
 70
     1
102
RTVSPost2010Prop34
280
     0
102
RTVSPost2010PropOp34
 70
     1
102
RTVSPost2010Prop35
280
     0
102
RTVSPost2010PropOp35
 70
     1
102
RTVSPost2010Prop36
280
     0
102
RTVSPost2010PropOp36
 70
     1
102
RTVSPost2010Prop37
 90
       50
102
RTVSPost2010PropOp37
 70
     1
102
RTVSPost2010Prop38
140
0.0
102
RTVSPost2010PropOp38
 70
     1
102
RTVSPost2010Prop39
140
1.0
102
RTVSPost2010PropOp39
 70
     1
102
RTVSPost2010Prop40
 90
        0
102
RTVSPost2010PropOp40
 70
     1
102
RTVSPost2010Prop41ColorIndex
 90
       18
102
RTVSPost2010Prop41ColorRGB
 90
        0
102
RTVSPost2010PropOp41
 70
     1
102
RTVSPost2010Prop42
 90
       50
102
RTVSPost2010PropOp42
 70
     1
102
RTVSPost2010Prop43
 90
        3
102
RTVSPost2010PropOp43
 70
     1
102
RTVSPost2010Prop44ColorIndex
 90
        5
102
RTVSPost2010Prop44ColorRGB
 90
      255
102
RTVSPost2010PropOp44
 70
     1
102
RTVSPost2010Prop45
280
     0
102
RTVSPost2010PropOp45
 70
     1
102
RTVSPost2010Prop46
 90
       50
102
RTVSPost2010PropOp46
 70
     1
102
RTVSPost2010Prop47
 90
       50
102
RTVSPost2010PropOp47
 70
     1
102
RTVSPost2010Prop48
 90
       50
102
RTVSPost2010PropOp48
 70
     1
102
RTVSPost2010Prop49
280
     0
102
RTVSPost2010PropOp49
 70
     1
102
RTVSPost2010Prop50
 90
       50
102
RTVSPost2010PropOp50
 70
     1
102
RTVSPost2010Prop51ColorIndex
 90
      256
102
RTVSPost2010Prop51ColorRGB
 90
-16777216
102
RTVSPost2010PropOp51
 70
     0
102
RTVSPost2010Prop52
140
1.0
102
RTVSPost2010PropOp52
 70
     0
102
RTVSPost2010Prop53
 90
        2
102
RTVSPost2010PropOp53
 70
     1
102
RTVSPost2010Prop54
  1
strokes_ogs.tif
102
RTVSPost2010PropOp54
 70
     1
102
RTVSPost2010Prop55
280
     0
102
RTVSPost2010PropOp55
 70
     1
102
RTVSPost2010Prop56
140
1.0
102
RTVSPost2010PropOp56
 70
     1
102
RTVSPost2010Prop57
140
1.0
102
RTVSPost2010PropOp57
 70
     1
102
RTVSPropertyOp0
 70
     1
102
RTVSPropertyOp1
 70
     1
102
RTVSPropertyOp2
 70
     1
102
RTVSPropertyOp3
 70
     1
102
RTVSPropertyOp4
 70
     1
102
RTVSPropertyOp5
 70
     1
102
RTVSPropertyOp6
 70
     1
102
RTVSPropertyOp7
 70
     1
102
RTVSPropertyOp8
 70
     1
102
RTVSPropertyOp9
 70
     1
102
RTVSPropertyOp10
 70
     1
102
RTVSPropertyOp11
 70
     1
102
RTVSPropertyOp12
 70
     1
102
RTVSPropertyOp13
 70
     1
102
RTVSPropertyOp14
 70
     1
102
RTVSPropertyOp15
 70
     1
102
RTVSPropertyOp16
 70
     1
102
RTVSPropertyOp17
 70
     1
102
RTVSPropertyOp18
 70
     1
102
RTVSPropertyOp19
 70
     1
102
RTVSPropertyOp20
 70
     1
102
RTVSPropertyOp21
 70
     1
102
RTVSPropertyOp22
 70
     1
102
RTVSPropertyOp23
 70
     1
102
RTVSPropertyOp24
 70
     1
102
RTVSPropertyOp25
 70
     1
102
RTVSPropertyOp26
 70
     1
102
RTVSPropertyOp27
 70
     1
102
RTVSPropertyOp28
 70
     1
102
RTVSPropertyOp29
 70
     1
102
RTVSPropertyOp30
 70
     1
102
RTVSPropertyOp31
 70
     1
102
RTVSPropertyOp32
 70
     1
102
RTVSPropertyOp33
 70
     1
102
RTVSPropertyOp34
 70
     1
102
RTVSPropertyOp35
 70
     1
102
RTVSPropertyOp36
 70
     1
102
RTVSPropertyOp37
 70
     1
102
RTVSPropertyOp38
 70
     1
102
RTVSPropertyOp39
 70
     1
102
RTVSPropertyOp40
 70
     1
102
RTVSPropertyOp41
 70
     1
102
RTVSPropertyOp42
 70
     1
102
RTVSPropertyOp43
 70
     1
102
RTVSPropertyOp44
 70
     1
102
RTVSPropertyOp45
 70
     1
102
RTVSPropertyOp46
 70
     1
102
RTVSPropertyOp47
 70
     1
102
RTVSPropertyOp48
 70
     1
102
RTVSPropertyOp49
 70
     1
102
RTVSPropertyOp50
 70
     1
102
RTVSPropertyOp51
 70
     0
102
RTVSPropertyOp52
 70
     0
102
RTVSPropertyOp53
 70
     1
102
RTVSPropertyOp54
 70
     1
102
RTVSPropertyOp55
 70
     1
102
RTVSPropertyOp56
 70
     1
102
RTVSPropertyOp57
 70
     1
102
RTVSPropertyOp58
 70
     1
102
RTVSPropertyOp59
 70
     1
102
RTVSPropertyOp60
 70
     1
102
RTVSPropertyOp61
 70
     1
102
RTVSPropertyOp62
 70
     1
  0
XRECORD
  5
630
102
{ACAD_REACTORS
330
62F
102
}
330
62F
100
AcDbXrecord
280
     1
102
RTVSPost2010Prop28
280
     0
102
RTVSPost2010PropOp28
 70
     1
102
RTVSPost2010Prop29
280
     1
102
RTVSPost2010PropOp29
 70
     1
102
RTVSPost2010Prop30
280
     1
102
RTVSPost2010PropOp30
 70
     1
102
RTVSPost2010Prop31
280
     0
102
RTVSPost2010PropOp31
 70
     1
102
RTVSPost2010Prop32
280
     0
102
RTVSPost2010PropOp32
 70
     1
102
RTVSPost2010Prop33
280
     0
102
RTVSPost2010PropOp33
 70
     1
102
RTVSPost2010Prop34
280
     0
102
RTVSPost2010PropOp34
 70
     1
102
RTVSPost2010Prop35
280
     0
102
RTVSPost2010PropOp35
 70
     1
102
RTVSPost2010Prop36
280
     0
102
RTVSPost2010PropOp36
 70
     1
102
RTVSPost2010Prop37
 90
       50
102
RTVSPost2010PropOp37
 70
     1
102
RTVSPost2010Prop38
140
0.0
102
RTVSPost2010PropOp38
 70
     1
102
RTVSPost2010Prop39
140
1.0
102
RTVSPost2010PropOp39
 70
     1
102
RTVSPost2010Prop40
 90
        0
102
RTVSPost2010PropOp40
 70
     1
102
RTVSPost2010Prop41ColorIndex
 90
       18
102
RTVSPost2010Prop41ColorRGB
 90
        0
102
RTVSPost2010PropOp41
 70
     1
102
RTVSPost2010Prop42
 90
       50
102
RTVSPost2010PropOp42
 70
     1
102
RTVSPost2010Prop43
 90
        3
102
RTVSPost2010PropOp43
 70
     1
102
RTVSPost2010Prop44ColorIndex
 90
        5
102
RTVSPost2010Prop44ColorRGB
 90
      255
102
RTVSPost2010PropOp44
 70
     1
102
RTVSPost2010Prop45
280
     0
102
RTVSPost2010PropOp45
 70
     1
102
RTVSPost2010Prop46
 90
       50
102
RTVSPost2010PropOp46
 70
     1
102
RTVSPost2010Prop47
 90
       50
102
RTVSPost2010PropOp47
 70
     1
102
RTVSPost2010Prop48
 90
       50
102
RTVSPost2010PropOp48
 70
     1
102
RTVSPost2010Prop49
280
     0
102
RTVSPost2010PropOp49
 70
     1
102
RTVSPost2010Prop50
 90
       50
102
RTVSPost2010PropOp50
 70
     1
102
RTVSPost2010Prop51ColorIndex
 90
      256
102
RTVSPost2010Prop51ColorRGB
 90
-16777216
102
RTVSPost2010PropOp51
 70
     0
102
RTVSPost2010Prop52
140
1.0
102
RTVSPost2010PropOp52
 70
     0
102
RTVSPost2010Prop53
 90
        2
102
RTVSPost2010PropOp53
 70
     1
102
RTVSPost2010Prop54
  1
strokes_ogs.tif
102
RTVSPost2010PropOp54
 70
     1
102
RTVSPost2010Prop55
280
     0
102
RTVSPost2010PropOp55
 70
     1
102
RTVSPost2010Prop56
140
1.0
102
RTVSPost2010PropOp56
 70
     1
102
RTVSPost2010Prop57
140
1.0
102
RTVSPost2010PropOp57
 70
     1
102
RTVSPropertyOp0
 70
     1
102
RTVSPropertyOp1
 70
     1
102
RTVSPropertyOp2
 70
     1
102
RTVSPropertyOp3
 70
     1
102
RTVSPropertyOp4
 70
     1
102
RTVSPropertyOp5
 70
     1
102
RTVSPropertyOp6
 70
     1
102
RTVSPropertyOp7
 70
     1
102
RTVSPropertyOp8
 70
     1
102
RTVSPropertyOp9
 70
     1
102
RTVSPropertyOp10
 70
     1
102
RTVSPropertyOp11
 70
     1
102
RTVSPropertyOp12
 70
     1
102
RTVSPropertyOp13
 70
     1
102
RTVSPropertyOp14
 70
     1
102
RTVSPropertyOp15
 70
     1
102
RTVSPropertyOp16
 70
     1
102
RTVSPropertyOp17
 70
     1
102
RTVSPropertyOp18
 70
     1
102
RTVSPropertyOp19
 70
     1
102
RTVSPropertyOp20
 70
     1
102
RTVSPropertyOp21
 70
     1
102
RTVSPropertyOp22
 70
     1
102
RTVSPropertyOp23
 70
     1
102
RTVSPropertyOp24
 70
     1
102
RTVSPropertyOp25
 70
     1
102
RTVSPropertyOp26
 70
     1
102
RTVSPropertyOp27
 70
     1
102
RTVSPropertyOp28
 70
     1
102
RTVSPropertyOp29
 70
     1
102
RTVSPropertyOp30
 70
     1
102
RTVSPropertyOp31
 70
     1
102
RTVSPropertyOp32
 70
     1
102
RTVSPropertyOp33
 70
     1
102
RTVSPropertyOp34
 70
     1
102
RTVSPropertyOp35
 70
     1
102
RTVSPropertyOp36
 70
     1
102
RTVSPropertyOp37
 70
     1
102
RTVSPropertyOp38
 70
     1
102
RTVSPropertyOp39
 70
     1
102
RTVSPropertyOp40
 70
     1
102
RTVSPropertyOp41
 70
     1
102
RTVSPropertyOp42
 70
     1
102
RTVSPropertyOp43
 70
     1
102
RTVSPropertyOp44
 70
     1
102
RTVSPropertyOp45
 70
     1
102
RTVSPropertyOp46
 70
     1
102
RTVSPropertyOp47
 70
     1
102
RTVSPropertyOp48
 70
     1
102
RTVSPropertyOp49
 70
     1
102
RTVSPropertyOp50
 70
     1
102
RTVSPropertyOp51
 70
     0
102
RTVSPropertyOp52
 70
     0
102
RTVSPropertyOp53
 70
     1
102
RTVSPropertyOp54
 70
     1
102
RTVSPropertyOp55
 70
     1
102
RTVSPropertyOp56
 70
     1
102
RTVSPropertyOp57
 70
     1
102
RTVSPropertyOp58
 70
     1
102
RTVSPropertyOp59
 70
     1
102
RTVSPropertyOp60
 70
     1
102
RTVSPropertyOp61
 70
     1
102
RTVSPropertyOp62
 70
     1
  0
XRECORD
  5
63E
102
{ACAD_REACTORS
330
63D
102
}
330
63D
100
AcDbXrecord
280
     1
102
RTVSPost2010Prop28
280
     0
102
RTVSPost2010PropOp28
 70
     1
102
RTVSPost2010Prop29
280
     1
102
RTVSPost2010PropOp29
 70
     1
102
RTVSPost2010Prop30
280
     1
102
RTVSPost2010PropOp30
 70
     1
102
RTVSPost2010Prop31
280
     0
102
RTVSPost2010PropOp31
 70
     1
102
RTVSPost2010Prop32
280
     0
102
RTVSPost2010PropOp32
 70
     1
102
RTVSPost2010Prop33
280
     0
102
RTVSPost2010PropOp33
 70
     1
102
RTVSPost2010Prop34
280
     0
102
RTVSPost2010PropOp34
 70
     1
102
RTVSPost2010Prop35
280
     0
102
RTVSPost2010PropOp35
 70
     1
102
RTVSPost2010Prop36
280
     0
102
RTVSPost2010PropOp36
 70
     1
102
RTVSPost2010Prop37
 90
       50
102
RTVSPost2010PropOp37
 70
     1
102
RTVSPost2010Prop38
140
0.0
102
RTVSPost2010PropOp38
 70
     1
102
RTVSPost2010Prop39
140
1.0
102
RTVSPost2010PropOp39
 70
     1
102
RTVSPost2010Prop40
 90
        0
102
RTVSPost2010PropOp40
 70
     1
102
RTVSPost2010Prop41ColorIndex
 90
       18
102
RTVSPost2010Prop41ColorRGB
 90
        0
102
RTVSPost2010PropOp41
 70
     1
102
RTVSPost2010Prop42
 90
       50
102
RTVSPost2010PropOp42
 70
     1
102
RTVSPost2010Prop43
 90
        3
102
RTVSPost2010PropOp43
 70
     1
102
RTVSPost2010Prop44ColorIndex
 90
        5
102
RTVSPost2010Prop44ColorRGB
 90
      255
102
RTVSPost2010PropOp44
 70
     1
102
RTVSPost2010Prop45
280
     0
102
RTVSPost2010PropOp45
 70
     1
102
RTVSPost2010Prop46
 90
       50
102
RTVSPost2010PropOp46
 70
     1
102
RTVSPost2010Prop47
 90
       50
102
RTVSPost2010PropOp47
 70
     1
102
RTVSPost2010Prop48
 90
       50
102
RTVSPost2010PropOp48
 70
     1
102
RTVSPost2010Prop49
280
     0
102
RTVSPost2010PropOp49
 70
     1
102
RTVSPost2010Prop50
 90
       50
102
RTVSPost2010PropOp50
 70
     1
102
RTVSPost2010Prop51ColorIndex
 90
      256
102
RTVSPost2010Prop51ColorRGB
 90
-16777216
102
RTVSPost2010PropOp51
 70
     0
102
RTVSPost2010Prop52
140
1.0
102
RTVSPost2010PropOp52
 70
     0
102
RTVSPost2010Prop53
 90
        2
102
RTVSPost2010PropOp53
 70
     1
102
RTVSPost2010Prop54
  1
strokes_ogs.tif
102
RTVSPost2010PropOp54
 70
     1
102
RTVSPost2010Prop55
280
     0
102
RTVSPost2010PropOp55
 70
     1
102
RTVSPost2010Prop56
140
1.0
102
RTVSPost2010PropOp56
 70
     1
102
RTVSPost2010Prop57
140
1.0
102
RTVSPost2010PropOp57
 70
     1
102
RTVSPropertyOp0
 70
     1
102
RTVSPropertyOp1
 70
     1
102
RTVSPropertyOp2
 70
     1
102
RTVSPropertyOp3
 70
     1
102
RTVSPropertyOp4
 70
     1
102
RTVSPropertyOp5
 70
     1
102
RTVSPropertyOp6
 70
     1
102
RTVSPropertyOp7
 70
     1
102
RTVSPropertyOp8
 70
     1
102
RTVSPropertyOp9
 70
     1
102
RTVSPropertyOp10
 70
     1
102
RTVSPropertyOp11
 70
     1
102
RTVSPropertyOp12
 70
     1
102
RTVSPropertyOp13
 70
     1
102
RTVSPropertyOp14
 70
     1
102
RTVSPropertyOp15
 70
     1
102
RTVSPropertyOp16
 70
     1
102
RTVSPropertyOp17
 70
     1
102
RTVSPropertyOp18
 70
     1
102
RTVSPropertyOp19
 70
     1
102
RTVSPropertyOp20
 70
     1
102
RTVSPropertyOp21
 70
     1
102
RTVSPropertyOp22
 70
     1
102
RTVSPropertyOp23
 70
     1
102
RTVSPropertyOp24
 70
     1
102
RTVSPropertyOp25
 70
     1
102
RTVSPropertyOp26
 70
     1
102
RTVSPropertyOp27
 70
     1
102
RTVSPropertyOp28
 70
     1
102
RTVSPropertyOp29
 70
     1
102
RTVSPropertyOp30
 70
     1
102
RTVSPropertyOp31
 70
     1
102
RTVSPropertyOp32
 70
     1
102
RTVSPropertyOp33
 70
     1
102
RTVSPropertyOp34
 70
     1
102
RTVSPropertyOp35
 70
     1
102
RTVSPropertyOp36
 70
     1
102
RTVSPropertyOp37
 70
     1
102
RTVSPropertyOp38
 70
     1
102
RTVSPropertyOp39
 70
     1
102
RTVSPropertyOp40
 70
     1
102
RTVSPropertyOp41
 70
     1
102
RTVSPropertyOp42
 70
     1
102
RTVSPropertyOp43
 70
     1
102
RTVSPropertyOp44
 70
     1
102
RTVSPropertyOp45
 70
     1
102
RTVSPropertyOp46
 70
     1
102
RTVSPropertyOp47
 70
     1
102
RTVSPropertyOp48
 70
     1
102
RTVSPropertyOp49
 70
     1
102
RTVSPropertyOp50
 70
     1
102
RTVSPropertyOp51
 70
     0
102
RTVSPropertyOp52
 70
     0
102
RTVSPropertyOp53
 70
     1
102
RTVSPropertyOp54
 70
     1
102
RTVSPropertyOp55
 70
     1
102
RTVSPropertyOp56
 70
     1
102
RTVSPropertyOp57
 70
     1
102
RTVSPropertyOp58
 70
     1
102
RTVSPropertyOp59
 70
     1
102
RTVSPropertyOp60
 70
     1
102
RTVSPropertyOp61
 70
     1
102
RTVSPropertyOp62
 70
     1
  0
XRECORD
  5
646
102
{ACAD_REACTORS
330
645
102
}
330
645
100
AcDbXrecord
280
     1
102
RTVSPost2010Prop28
280
     0
102
RTVSPost2010PropOp28
 70
     1
102
RTVSPost2010Prop29
280
     1
102
RTVSPost2010PropOp29
 70
     1
102
RTVSPost2010Prop30
280
     1
102
RTVSPost2010PropOp30
 70
     1
102
RTVSPost2010Prop31
280
     0
102
RTVSPost2010PropOp31
 70
     1
102
RTVSPost2010Prop32
280
     0
102
RTVSPost2010PropOp32
 70
     1
102
RTVSPost2010Prop33
280
     0
102
RTVSPost2010PropOp33
 70
     1
102
RTVSPost2010Prop34
280
     0
102
RTVSPost2010PropOp34
 70
     1
102
RTVSPost2010Prop35
280
     0
102
RTVSPost2010PropOp35
 70
     1
102
RTVSPost2010Prop36
280
     0
102
RTVSPost2010PropOp36
 70
     1
102
RTVSPost2010Prop37
 90
       50
102
RTVSPost2010PropOp37
 70
     1
102
RTVSPost2010Prop38
140
0.0
102
RTVSPost2010PropOp38
 70
     1
102
RTVSPost2010Prop39
140
1.0
102
RTVSPost2010PropOp39
 70
     1
102
RTVSPost2010Prop40
 90
        0
102
RTVSPost2010PropOp40
 70
     1
102
RTVSPost2010Prop41ColorIndex
 90
       18
102
RTVSPost2010Prop41ColorRGB
 90
        0
102
RTVSPost2010PropOp41
 70
     1
102
RTVSPost2010Prop42
 90
       50
102
RTVSPost2010PropOp42
 70
     1
102
RTVSPost2010Prop43
 90
        3
102
RTVSPost2010PropOp43
 70
     1
102
RTVSPost2010Prop44ColorIndex
 90
        5
102
RTVSPost2010Prop44ColorRGB
 90
      255
102
RTVSPost2010PropOp44
 70
     1
102
RTVSPost2010Prop45
280
     0
102
RTVSPost2010PropOp45
 70
     1
102
RTVSPost2010Prop46
 90
       50
102
RTVSPost2010PropOp46
 70
     1
102
RTVSPost2010Prop47
 90
       50
102
RTVSPost2010PropOp47
 70
     1
102
RTVSPost2010Prop48
 90
       50
102
RTVSPost2010PropOp48
 70
     1
102
RTVSPost2010Prop49
280
     0
102
RTVSPost2010PropOp49
 70
     1
102
RTVSPost2010Prop50
 90
       50
102
RTVSPost2010PropOp50
 70
     1
102
RTVSPost2010Prop51ColorIndex
 90
      256
102
RTVSPost2010Prop51ColorRGB
 90
-16777216
102
RTVSPost2010PropOp51
 70
     0
102
RTVSPost2010Prop52
140
1.0
102
RTVSPost2010PropOp52
 70
     0
102
RTVSPost2010Prop53
 90
        2
102
RTVSPost2010PropOp53
 70
     1
102
RTVSPost2010Prop54
  1
strokes_ogs.tif
102
RTVSPost2010PropOp54
 70
     1
102
RTVSPost2010Prop55
280
     0
102
RTVSPost2010PropOp55
 70
     1
102
RTVSPost2010Prop56
140
1.0
102
RTVSPost2010PropOp56
 70
     1
102
RTVSPost2010Prop57
140
1.0
102
RTVSPost2010PropOp57
 70
     1
102
RTVSPropertyOp0
 70
     1
102
RTVSPropertyOp1
 70
     1
102
RTVSPropertyOp2
 70
     1
102
RTVSPropertyOp3
 70
     1
102
RTVSPropertyOp4
 70
     1
102
RTVSPropertyOp5
 70
     1
102
RTVSPropertyOp6
 70
     1
102
RTVSPropertyOp7
 70
     1
102
RTVSPropertyOp8
 70
     1
102
RTVSPropertyOp9
 70
     1
102
RTVSPropertyOp10
 70
     1
102
RTVSPropertyOp11
 70
     1
102
RTVSPropertyOp12
 70
     1
102
RTVSPropertyOp13
 70
     1
102
RTVSPropertyOp14
 70
     1
102
RTVSPropertyOp15
 70
     1
102
RTVSPropertyOp16
 70
     1
102
RTVSPropertyOp17
 70
     1
102
RTVSPropertyOp18
 70
     1
102
RTVSPropertyOp19
 70
     1
102
RTVSPropertyOp20
 70
     1
102
RTVSPropertyOp21
 70
     1
102
RTVSPropertyOp22
 70
     1
102
RTVSPropertyOp23
 70
     1
102
RTVSPropertyOp24
 70
     1
102
RTVSPropertyOp25
 70
     1
102
RTVSPropertyOp26
 70
     1
102
RTVSPropertyOp27
 70
     1
102
RTVSPropertyOp28
 70
     1
102
RTVSPropertyOp29
 70
     1
102
RTVSPropertyOp30
 70
     1
102
RTVSPropertyOp31
 70
     1
102
RTVSPropertyOp32
 70
     1
102
RTVSPropertyOp33
 70
     1
102
RTVSPropertyOp34
 70
     1
102
RTVSPropertyOp35
 70
     1
102
RTVSPropertyOp36
 70
     1
102
RTVSPropertyOp37
 70
     1
102
RTVSPropertyOp38
 70
     1
102
RTVSPropertyOp39
 70
     1
102
RTVSPropertyOp40
 70
     1
102
RTVSPropertyOp41
 70
     1
102
RTVSPropertyOp42
 70
     1
102
RTVSPropertyOp43
 70
     1
102
RTVSPropertyOp44
 70
     1
102
RTVSPropertyOp45
 70
     1
102
RTVSPropertyOp46
 70
     1
102
RTVSPropertyOp47
 70
     1
102
RTVSPropertyOp48
 70
     1
102
RTVSPropertyOp49
 70
     1
102
RTVSPropertyOp50
 70
     1
102
RTVSPropertyOp51
 70
     0
102
RTVSPropertyOp52
 70
     0
102
RTVSPropertyOp53
 70
     1
102
RTVSPropertyOp54
 70
     1
102
RTVSPropertyOp55
 70
     1
102
RTVSPropertyOp56
 70
     1
102
RTVSPropertyOp57
 70
     1
102
RTVSPropertyOp58
 70
     1
102
RTVSPropertyOp59
 70
     1
102
RTVSPropertyOp60
 70
     1
102
RTVSPropertyOp61
 70
     1
102
RTVSPropertyOp62
 70
     1
  0
XRECORD
  5
638
102
{ACAD_REACTORS
330
637
102
}
330
637
100
AcDbXrecord
280
     1
102
RTVSPost2010Prop28
280
     0
102
RTVSPost2010PropOp28
 70
     1
102
RTVSPost2010Prop29
280
     1
102
RTVSPost2010PropOp29
 70
     1
102
RTVSPost2010Prop30
280
     1
102
RTVSPost2010PropOp30
 70
     1
102
RTVSPost2010Prop31
280
     0
102
RTVSPost2010PropOp31
 70
     1
102
RTVSPost2010Prop32
280
     0
102
RTVSPost2010PropOp32
 70
     1
102
RTVSPost2010Prop33
280
     0
102
RTVSPost2010PropOp33
 70
     1
102
RTVSPost2010Prop34
280
     0
102
RTVSPost2010PropOp34
 70
     1
102
RTVSPost2010Prop35
280
     0
102
RTVSPost2010PropOp35
 70
     1
102
RTVSPost2010Prop36
280
     0
102
RTVSPost2010PropOp36
 70
     1
102
RTVSPost2010Prop37
 90
       50
102
RTVSPost2010PropOp37
 70
     1
102
RTVSPost2010Prop38
140
0.0
102
RTVSPost2010PropOp38
 70
     1
102
RTVSPost2010Prop39
140
1.0
102
RTVSPost2010PropOp39
 70
     1
102
RTVSPost2010Prop40
 90
        0
102
RTVSPost2010PropOp40
 70
     1
102
RTVSPost2010Prop41ColorIndex
 90
       18
102
RTVSPost2010Prop41ColorRGB
 90
        0
102
RTVSPost2010PropOp41
 70
     1
102
RTVSPost2010Prop42
 90
       50
102
RTVSPost2010PropOp42
 70
     1
102
RTVSPost2010Prop43
 90
        3
102
RTVSPost2010PropOp43
 70
     1
102
RTVSPost2010Prop44ColorIndex
 90
        5
102
RTVSPost2010Prop44ColorRGB
 90
      255
102
RTVSPost2010PropOp44
 70
     1
102
RTVSPost2010Prop45
280
     0
102
RTVSPost2010PropOp45
 70
     1
102
RTVSPost2010Prop46
 90
       50
102
RTVSPost2010PropOp46
 70
     1
102
RTVSPost2010Prop47
 90
       50
102
RTVSPost2010PropOp47
 70
     1
102
RTVSPost2010Prop48
 90
       50
102
RTVSPost2010PropOp48
 70
     1
102
RTVSPost2010Prop49
280
     0
102
RTVSPost2010PropOp49
 70
     1
102
RTVSPost2010Prop50
 90
       50
102
RTVSPost2010PropOp50
 70
     1
102
RTVSPost2010Prop51ColorIndex
 90
      256
102
RTVSPost2010Prop51ColorRGB
 90
-16777216
102
RTVSPost2010PropOp51
 70
     0
102
RTVSPost2010Prop52
140
1.0
102
RTVSPost2010PropOp52
 70
     0
102
RTVSPost2010Prop53
 90
        2
102
RTVSPost2010PropOp53
 70
     1
102
RTVSPost2010Prop54
  1
strokes_ogs.tif
102
RTVSPost2010PropOp54
 70
     1
102
RTVSPost2010Prop55
280
     0
102
RTVSPost2010PropOp55
 70
     1
102
RTVSPost2010Prop56
140
1.0
102
RTVSPost2010PropOp56
 70
     1
102
RTVSPost2010Prop57
140
1.0
102
RTVSPost2010PropOp57
 70
     1
102
RTVSPropertyOp0
 70
     1
102
RTVSPropertyOp1
 70
     1
102
RTVSPropertyOp2
 70
     1
102
RTVSPropertyOp3
 70
     1
102
RTVSPropertyOp4
 70
     1
102
RTVSPropertyOp5
 70
     1
102
RTVSPropertyOp6
 70
     1
102
RTVSPropertyOp7
 70
     1
102
RTVSPropertyOp8
 70
     1
102
RTVSPropertyOp9
 70
     1
102
RTVSPropertyOp10
 70
     1
102
RTVSPropertyOp11
 70
     1
102
RTVSPropertyOp12
 70
     1
102
RTVSPropertyOp13
 70
     1
102
RTVSPropertyOp14
 70
     1
102
RTVSPropertyOp15
 70
     1
102
RTVSPropertyOp16
 70
     1
102
RTVSPropertyOp17
 70
     1
102
RTVSPropertyOp18
 70
     1
102
RTVSPropertyOp19
 70
     1
102
RTVSPropertyOp20
 70
     1
102
RTVSPropertyOp21
 70
     1
102
RTVSPropertyOp22
 70
     1
102
RTVSPropertyOp23
 70
     1
102
RTVSPropertyOp24
 70
     1
102
RTVSPropertyOp25
 70
     1
102
RTVSPropertyOp26
 70
     1
102
RTVSPropertyOp27
 70
     1
102
RTVSPropertyOp28
 70
     1
102
RTVSPropertyOp29
 70
     1
102
RTVSPropertyOp30
 70
     1
102
RTVSPropertyOp31
 70
     1
102
RTVSPropertyOp32
 70
     1
102
RTVSPropertyOp33
 70
     1
102
RTVSPropertyOp34
 70
     1
102
RTVSPropertyOp35
 70
     1
102
RTVSPropertyOp36
 70
     1
102
RTVSPropertyOp37
 70
     1
102
RTVSPropertyOp38
 70
     1
102
RTVSPropertyOp39
 70
     1
102
RTVSPropertyOp40
 70
     1
102
RTVSPropertyOp41
 70
     1
102
RTVSPropertyOp42
 70
     1
102
RTVSPropertyOp43
 70
     1
102
RTVSPropertyOp44
 70
     1
102
RTVSPropertyOp45
 70
     1
102
RTVSPropertyOp46
 70
     1
102
RTVSPropertyOp47
 70
     1
102
RTVSPropertyOp48
 70
     1
102
RTVSPropertyOp49
 70
     1
102
RTVSPropertyOp50
 70
     1
102
RTVSPropertyOp51
 70
     0
102
RTVSPropertyOp52
 70
     0
102
RTVSPropertyOp53
 70
     1
102
RTVSPropertyOp54
 70
     1
102
RTVSPropertyOp55
 70
     1
102
RTVSPropertyOp56
 70
     1
102
RTVSPropertyOp57
 70
     1
102
RTVSPropertyOp58
 70
     1
102
RTVSPropertyOp59
 70
     1
102
RTVSPropertyOp60
 70
     1
102
RTVSPropertyOp61
 70
     1
102
RTVSPropertyOp62
 70
     1
  0
XRECORD
  5
63C
102
{ACAD_REACTORS
330
63B
102
}
330
63B
100
AcDbXrecord
280
     1
102
RTVSPost2010Prop28
280
     0
102
RTVSPost2010PropOp28
 70
     1
102
RTVSPost2010Prop29
280
     1
102
RTVSPost2010PropOp29
 70
     1
102
RTVSPost2010Prop30
280
     1
102
RTVSPost2010PropOp30
 70
     1
102
RTVSPost2010Prop31
280
     0
102
RTVSPost2010PropOp31
 70
     1
102
RTVSPost2010Prop32
280
     0
102
RTVSPost2010PropOp32
 70
     1
102
RTVSPost2010Prop33
280
     0
102
RTVSPost2010PropOp33
 70
     1
102
RTVSPost2010Prop34
280
     0
102
RTVSPost2010PropOp34
 70
     1
102
RTVSPost2010Prop35
280
     0
102
RTVSPost2010PropOp35
 70
     1
102
RTVSPost2010Prop36
280
     0
102
RTVSPost2010PropOp36
 70
     1
102
RTVSPost2010Prop37
 90
       50
102
RTVSPost2010PropOp37
 70
     1
102
RTVSPost2010Prop38
140
0.0
102
RTVSPost2010PropOp38
 70
     1
102
RTVSPost2010Prop39
140
1.0
102
RTVSPost2010PropOp39
 70
     1
102
RTVSPost2010Prop40
 90
        0
102
RTVSPost2010PropOp40
 70
     1
102
RTVSPost2010Prop41ColorIndex
 90
       18
102
RTVSPost2010Prop41ColorRGB
 90
        0
102
RTVSPost2010PropOp41
 70
     1
102
RTVSPost2010Prop42
 90
       50
102
RTVSPost2010PropOp42
 70
     1
102
RTVSPost2010Prop43
 90
        3
102
RTVSPost2010PropOp43
 70
     1
102
RTVSPost2010Prop44ColorIndex
 90
        5
102
RTVSPost2010Prop44ColorRGB
 90
      255
102
RTVSPost2010PropOp44
 70
     1
102
RTVSPost2010Prop45
280
     0
102
RTVSPost2010PropOp45
 70
     1
102
RTVSPost2010Prop46
 90
       50
102
RTVSPost2010PropOp46
 70
     1
102
RTVSPost2010Prop47
 90
       50
102
RTVSPost2010PropOp47
 70
     1
102
RTVSPost2010Prop48
 90
       50
102
RTVSPost2010PropOp48
 70
     1
102
RTVSPost2010Prop49
280
     0
102
RTVSPost2010PropOp49
 70
     1
102
RTVSPost2010Prop50
 90
       50
102
RTVSPost2010PropOp50
 70
     1
102
RTVSPost2010Prop51ColorIndex
 90
      256
102
RTVSPost2010Prop51ColorRGB
 90
-16777216
102
RTVSPost2010PropOp51
 70
     0
102
RTVSPost2010Prop52
140
1.0
102
RTVSPost2010PropOp52
 70
     0
102
RTVSPost2010Prop53
 90
        2
102
RTVSPost2010PropOp53
 70
     1
102
RTVSPost2010Prop54
  1
strokes_ogs.tif
102
RTVSPost2010PropOp54
 70
     1
102
RTVSPost2010Prop55
280
     0
102
RTVSPost2010PropOp55
 70
     1
102
RTVSPost2010Prop56
140
1.0
102
RTVSPost2010PropOp56
 70
     1
102
RTVSPost2010Prop57
140
1.0
102
RTVSPost2010PropOp57
 70
     1
102
RTVSPropertyOp0
 70
     1
102
RTVSPropertyOp1
 70
     1
102
RTVSPropertyOp2
 70
     1
102
RTVSPropertyOp3
 70
     1
102
RTVSPropertyOp4
 70
     1
102
RTVSPropertyOp5
 70
     1
102
RTVSPropertyOp6
 70
     1
102
RTVSPropertyOp7
 70
     1
102
RTVSPropertyOp8
 70
     1
102
RTVSPropertyOp9
 70
     1
102
RTVSPropertyOp10
 70
     1
102
RTVSPropertyOp11
 70
     1
102
RTVSPropertyOp12
 70
     1
102
RTVSPropertyOp13
 70
     1
102
RTVSPropertyOp14
 70
     1
102
RTVSPropertyOp15
 70
     1
102
RTVSPropertyOp16
 70
     1
102
RTVSPropertyOp17
 70
     1
102
RTVSPropertyOp18
 70
     1
102
RTVSPropertyOp19
 70
     1
102
RTVSPropertyOp20
 70
     1
102
RTVSPropertyOp21
 70
     1
102
RTVSPropertyOp22
 70
     1
102
RTVSPropertyOp23
 70
     1
102
RTVSPropertyOp24
 70
     1
102
RTVSPropertyOp25
 70
     1
102
RTVSPropertyOp26
 70
     1
102
RTVSPropertyOp27
 70
     1
102
RTVSPropertyOp28
 70
     1
102
RTVSPropertyOp29
 70
     1
102
RTVSPropertyOp30
 70
     1
102
RTVSPropertyOp31
 70
     1
102
RTVSPropertyOp32
 70
     1
102
RTVSPropertyOp33
 70
     1
102
RTVSPropertyOp34
 70
     1
102
RTVSPropertyOp35
 70
     1
102
RTVSPropertyOp36
 70
     1
102
RTVSPropertyOp37
 70
     1
102
RTVSPropertyOp38
 70
     1
102
RTVSPropertyOp39
 70
     1
102
RTVSPropertyOp40
 70
     1
102
RTVSPropertyOp41
 70
     1
102
RTVSPropertyOp42
 70
     1
102
RTVSPropertyOp43
 70
     1
102
RTVSPropertyOp44
 70
     1
102
RTVSPropertyOp45
 70
     1
102
RTVSPropertyOp46
 70
     1
102
RTVSPropertyOp47
 70
     1
102
RTVSPropertyOp48
 70
     1
102
RTVSPropertyOp49
 70
     1
102
RTVSPropertyOp50
 70
     1
102
RTVSPropertyOp51
 70
     0
102
RTVSPropertyOp52
 70
     0
102
RTVSPropertyOp53
 70
     1
102
RTVSPropertyOp54
 70
     1
102
RTVSPropertyOp55
 70
     1
102
RTVSPropertyOp56
 70
     1
102
RTVSPropertyOp57
 70
     1
102
RTVSPropertyOp58
 70
     1
102
RTVSPropertyOp59
 70
     1
102
RTVSPropertyOp60
 70
     1
102
RTVSPropertyOp61
 70
     1
102
RTVSPropertyOp62
 70
     1
  0
XRECORD
  5
656
102
{ACAD_REACTORS
330
655
102
}
330
655
100
AcDbXrecord
280
     1
102
RTVSPost2010Prop28
280
     0
102
RTVSPost2010PropOp28
 70
     0
102
RTVSPost2010Prop29
280
     1
102
RTVSPost2010PropOp29
 70
     0
102
RTVSPost2010Prop30
280
     1
102
RTVSPost2010PropOp30
 70
     0
102
RTVSPost2010Prop31
280
     0
102
RTVSPost2010PropOp31
 70
     0
102
RTVSPost2010Prop32
280
     0
102
RTVSPost2010PropOp32
 70
     0
102
RTVSPost2010Prop33
280
     0
102
RTVSPost2010PropOp33
 70
     0
102
RTVSPost2010Prop34
280
     0
102
RTVSPost2010PropOp34
 70
     0
102
RTVSPost2010Prop35
280
     0
102
RTVSPost2010PropOp35
 70
     0
102
RTVSPost2010Prop36
280
     0
102
RTVSPost2010PropOp36
 70
     0
102
RTVSPost2010Prop37
 90
       50
102
RTVSPost2010PropOp37
 70
     0
102
RTVSPost2010Prop38
140
0.0
102
RTVSPost2010PropOp38
 70
     0
102
RTVSPost2010Prop39
140
1.0
102
RTVSPost2010PropOp39
 70
     0
102
RTVSPost2010Prop40
 90
        0
102
RTVSPost2010PropOp40
 70
     0
102
RTVSPost2010Prop41ColorIndex
 90
       18
102
RTVSPost2010Prop41ColorRGB
 90
        0
102
RTVSPost2010PropOp41
 70
     0
102
RTVSPost2010Prop42
 90
       50
102
RTVSPost2010PropOp42
 70
     0
102
RTVSPost2010Prop43
 90
        3
102
RTVSPost2010PropOp43
 70
     0
102
RTVSPost2010Prop44ColorIndex
 90
        5
102
RTVSPost2010Prop44ColorRGB
 90
      255
102
RTVSPost2010PropOp44
 70
     0
102
RTVSPost2010Prop45
280
     0
102
RTVSPost2010PropOp45
 70
     0
102
RTVSPost2010Prop46
 90
       50
102
RTVSPost2010PropOp46
 70
     0
102
RTVSPost2010Prop47
 90
       50
102
RTVSPost2010PropOp47
 70
     0
102
RTVSPost2010Prop48
 90
       50
102
RTVSPost2010PropOp48
 70
     0
102
RTVSPost2010Prop49
280
     0
102
RTVSPost2010PropOp49
 70
     0
102
RTVSPost2010Prop50
 90
       50
102
RTVSPost2010PropOp50
 70
     0
102
RTVSPost2010Prop51ColorIndex
 90
      256
102
RTVSPost2010Prop51ColorRGB
 90
-16777216
102
RTVSPost2010PropOp51
 70
     0
102
RTVSPost2010Prop52
140
1.0
102
RTVSPost2010PropOp52
 70
     0
102
RTVSPost2010Prop53
 90
        2
102
RTVSPost2010PropOp53
 70
     0
102
RTVSPost2010Prop54
  1
strokes_ogs.tif
102
RTVSPost2010PropOp54
 70
     0
102
RTVSPost2010Prop55
280
     0
102
RTVSPost2010PropOp55
 70
     0
102
RTVSPost2010Prop56
140
1.0
102
RTVSPost2010PropOp56
 70
     0
102
RTVSPost2010Prop57
140
1.0
102
RTVSPost2010PropOp57
 70
     0
102
RTVSPropertyOp0
 70
     0
102
RTVSPropertyOp1
 70
     0
102
RTVSPropertyOp2
 70
     0
102
RTVSPropertyOp3
 70
     0
102
RTVSPropertyOp4
 70
     0
102
RTVSPropertyOp5
 70
     0
102
RTVSPropertyOp6
 70
     0
102
RTVSPropertyOp7
 70
     0
102
RTVSPropertyOp8
 70
     0
102
RTVSPropertyOp9
 70
     0
102
RTVSPropertyOp10
 70
     0
102
RTVSPropertyOp11
 70
     0
102
RTVSPropertyOp12
 70
     0
102
RTVSPropertyOp13
 70
     0
102
RTVSPropertyOp14
 70
     2
102
RTVSPropertyOp15
 70
     0
102
RTVSPropertyOp16
 70
     0
102
RTVSPropertyOp17
 70
     0
102
RTVSPropertyOp18
 70
     0
102
RTVSPropertyOp19
 70
     0
102
RTVSPropertyOp20
 70
     0
102
RTVSPropertyOp21
 70
     0
102
RTVSPropertyOp22
 70
     0
102
RTVSPropertyOp23
 70
     0
102
RTVSPropertyOp24
 70
     0
102
RTVSPropertyOp25
 70
     0
102
RTVSPropertyOp26
 70
     0
102
RTVSPropertyOp27
 70
     0
102
RTVSPropertyOp28
 70
     0
102
RTVSPropertyOp29
 70
     0
102
RTVSPropertyOp30
 70
     0
102
RTVSPropertyOp31
 70
     0
102
RTVSPropertyOp32
 70
     0
102
RTVSPropertyOp33
 70
     0
102
RTVSPropertyOp34
 70
     0
102
RTVSPropertyOp35
 70
     0
102
RTVSPropertyOp36
 70
     0
102
RTVSPropertyOp37
 70
     0
102
RTVSPropertyOp38
 70
     0
102
RTVSPropertyOp39
 70
     0
102
RTVSPropertyOp40
 70
     0
102
RTVSPropertyOp41
 70
     0
102
RTVSPropertyOp42
 70
     0
102
RTVSPropertyOp43
 70
     0
102
RTVSPropertyOp44
 70
     0
102
RTVSPropertyOp45
 70
     0
102
RTVSPropertyOp46
 70
     0
102
RTVSPropertyOp47
 70
     0
102
RTVSPropertyOp48
 70
     0
102
RTVSPropertyOp49
 70
     0
102
RTVSPropertyOp50
 70
     0
102
RTVSPropertyOp51
 70
     0
102
RTVSPropertyOp52
 70
     0
102
RTVSPropertyOp53
 70
     0
102
RTVSPropertyOp54
 70
     0
102
RTVSPropertyOp55
 70
     0
102
RTVSPropertyOp56
 70
     0
102
RTVSPropertyOp57
 70
     0
102
RTVSPropertyOp58
 70
     0
102
RTVSPropertyOp59
 70
     0
102
RTVSPropertyOp60
 70
     0
102
RTVSPropertyOp61
 70
     0
102
RTVSPropertyOp62
 70
     0
  0
XRECORD
  5
644
102
{ACAD_REACTORS
330
643
102
}
330
643
100
AcDbXrecord
280
     1
102
RTVSPost2010Prop28
280
     0
102
RTVSPost2010PropOp28
 70
     1
102
RTVSPost2010Prop29
280
     1
102
RTVSPost2010PropOp29
 70
     1
102
RTVSPost2010Prop30
280
     1
102
RTVSPost2010PropOp30
 70
     1
102
RTVSPost2010Prop31
280
     0
102
RTVSPost2010PropOp31
 70
     1
102
RTVSPost2010Prop32
280
     0
102
RTVSPost2010PropOp32
 70
     1
102
RTVSPost2010Prop33
280
     0
102
RTVSPost2010PropOp33
 70
     1
102
RTVSPost2010Prop34
280
     0
102
RTVSPost2010PropOp34
 70
     1
102
RTVSPost2010Prop35
280
     0
102
RTVSPost2010PropOp35
 70
     1
102
RTVSPost2010Prop36
280
     0
102
RTVSPost2010PropOp36
 70
     1
102
RTVSPost2010Prop37
 90
       50
102
RTVSPost2010PropOp37
 70
     1
102
RTVSPost2010Prop38
140
0.0
102
RTVSPost2010PropOp38
 70
     1
102
RTVSPost2010Prop39
140
1.0
102
RTVSPost2010PropOp39
 70
     1
102
RTVSPost2010Prop40
 90
        0
102
RTVSPost2010PropOp40
 70
     1
102
RTVSPost2010Prop41ColorIndex
 90
       18
102
RTVSPost2010Prop41ColorRGB
 90
        0
102
RTVSPost2010PropOp41
 70
     1
102
RTVSPost2010Prop42
 90
       50
102
RTVSPost2010PropOp42
 70
     1
102
RTVSPost2010Prop43
 90
        3
102
RTVSPost2010PropOp43
 70
     1
102
RTVSPost2010Prop44ColorIndex
 90
        5
102
RTVSPost2010Prop44ColorRGB
 90
      255
102
RTVSPost2010PropOp44
 70
     1
102
RTVSPost2010Prop45
280
     0
102
RTVSPost2010PropOp45
 70
     1
102
RTVSPost2010Prop46
 90
       50
102
RTVSPost2010PropOp46
 70
     1
102
RTVSPost2010Prop47
 90
       50
102
RTVSPost2010PropOp47
 70
     1
102
RTVSPost2010Prop48
 90
       50
102
RTVSPost2010PropOp48
 70
     1
102
RTVSPost2010Prop49
280
     0
102
RTVSPost2010PropOp49
 70
     1
102
RTVSPost2010Prop50
 90
       50
102
RTVSPost2010PropOp50
 70
     1
102
RTVSPost2010Prop51ColorIndex
 90
      256
102
RTVSPost2010Prop51ColorRGB
 90
-16777216
102
RTVSPost2010PropOp51
 70
     0
102
RTVSPost2010Prop52
140
1.0
102
RTVSPost2010PropOp52
 70
     0
102
RTVSPost2010Prop53
 90
        2
102
RTVSPost2010PropOp53
 70
     1
102
RTVSPost2010Prop54
  1
strokes_ogs.tif
102
RTVSPost2010PropOp54
 70
     1
102
RTVSPost2010Prop55
280
     0
102
RTVSPost2010PropOp55
 70
     1
102
RTVSPost2010Prop56
140
1.0
102
RTVSPost2010PropOp56
 70
     1
102
RTVSPost2010Prop57
140
1.0
102
RTVSPost2010PropOp57
 70
     1
102
RTVSPropertyOp0
 70
     1
102
RTVSPropertyOp1
 70
     1
102
RTVSPropertyOp2
 70
     1
102
RTVSPropertyOp3
 70
     1
102
RTVSPropertyOp4
 70
     1
102
RTVSPropertyOp5
 70
     1
102
RTVSPropertyOp6
 70
     1
102
RTVSPropertyOp7
 70
     1
102
RTVSPropertyOp8
 70
     1
102
RTVSPropertyOp9
 70
     1
102
RTVSPropertyOp10
 70
     1
102
RTVSPropertyOp11
 70
     1
102
RTVSPropertyOp12
 70
     1
102
RTVSPropertyOp13
 70
     1
102
RTVSPropertyOp14
 70
     1
102
RTVSPropertyOp15
 70
     1
102
RTVSPropertyOp16
 70
     1
102
RTVSPropertyOp17
 70
     1
102
RTVSPropertyOp18
 70
     1
102
RTVSPropertyOp19
 70
     1
102
RTVSPropertyOp20
 70
     1
102
RTVSPropertyOp21
 70
     1
102
RTVSPropertyOp22
 70
     1
102
RTVSPropertyOp23
 70
     1
102
RTVSPropertyOp24
 70
     1
102
RTVSPropertyOp25
 70
     1
102
RTVSPropertyOp26
 70
     1
102
RTVSPropertyOp27
 70
     1
102
RTVSPropertyOp28
 70
     1
102
RTVSPropertyOp29
 70
     1
102
RTVSPropertyOp30
 70
     1
102
RTVSPropertyOp31
 70
     1
102
RTVSPropertyOp32
 70
     1
102
RTVSPropertyOp33
 70
     1
102
RTVSPropertyOp34
 70
     1
102
RTVSPropertyOp35
 70
     1
102
RTVSPropertyOp36
 70
     1
102
RTVSPropertyOp37
 70
     1
102
RTVSPropertyOp38
 70
     1
102
RTVSPropertyOp39
 70
     1
102
RTVSPropertyOp40
 70
     1
102
RTVSPropertyOp41
 70
     1
102
RTVSPropertyOp42
 70
     1
102
RTVSPropertyOp43
 70
     1
102
RTVSPropertyOp44
 70
     1
102
RTVSPropertyOp45
 70
     1
102
RTVSPropertyOp46
 70
     1
102
RTVSPropertyOp47
 70
     1
102
RTVSPropertyOp48
 70
     1
102
RTVSPropertyOp49
 70
     1
102
RTVSPropertyOp50
 70
     1
102
RTVSPropertyOp51
 70
     0
102
RTVSPropertyOp52
 70
     0
102
RTVSPropertyOp53
 70
     1
102
RTVSPropertyOp54
 70
     1
102
RTVSPropertyOp55
 70
     1
102
RTVSPropertyOp56
 70
     1
102
RTVSPropertyOp57
 70
     1
102
RTVSPropertyOp58
 70
     1
102
RTVSPropertyOp59
 70
     1
102
RTVSPropertyOp60
 70
     1
102
RTVSPropertyOp61
 70
     1
102
RTVSPropertyOp62
 70
     1
  0
XRECORD
  5
628
102
{ACAD_REACTORS
330
627
102
}
330
627
100
AcDbXrecord
280
     1
102
RTVSPost2010Prop28
280
     0
102
RTVSPost2010PropOp28
 70
     1
102
RTVSPost2010Prop29
280
     1
102
RTVSPost2010PropOp29
 70
     1
102
RTVSPost2010Prop30
280
     1
102
RTVSPost2010PropOp30
 70
     1
102
RTVSPost2010Prop31
280
     0
102
RTVSPost2010PropOp31
 70
     1
102
RTVSPost2010Prop32
280
     0
102
RTVSPost2010PropOp32
 70
     1
102
RTVSPost2010Prop33
280
     0
102
RTVSPost2010PropOp33
 70
     1
102
RTVSPost2010Prop34
280
     0
102
RTVSPost2010PropOp34
 70
     1
102
RTVSPost2010Prop35
280
     0
102
RTVSPost2010PropOp35
 70
     1
102
RTVSPost2010Prop36
280
     0
102
RTVSPost2010PropOp36
 70
     1
102
RTVSPost2010Prop37
 90
       50
102
RTVSPost2010PropOp37
 70
     1
102
RTVSPost2010Prop38
140
0.0
102
RTVSPost2010PropOp38
 70
     1
102
RTVSPost2010Prop39
140
1.0
102
RTVSPost2010PropOp39
 70
     1
102
RTVSPost2010Prop40
 90
        0
102
RTVSPost2010PropOp40
 70
     1
102
RTVSPost2010Prop41ColorIndex
 90
       18
102
RTVSPost2010Prop41ColorRGB
 90
        0
102
RTVSPost2010PropOp41
 70
     1
102
RTVSPost2010Prop42
 90
       50
102
RTVSPost2010PropOp42
 70
     1
102
RTVSPost2010Prop43
 90
        3
102
RTVSPost2010PropOp43
 70
     1
102
RTVSPost2010Prop44ColorIndex
 90
        5
102
RTVSPost2010Prop44ColorRGB
 90
      255
102
RTVSPost2010PropOp44
 70
     1
102
RTVSPost2010Prop45
280
     0
102
RTVSPost2010PropOp45
 70
     1
102
RTVSPost2010Prop46
 90
       50
102
RTVSPost2010PropOp46
 70
     1
102
RTVSPost2010Prop47
 90
       50
102
RTVSPost2010PropOp47
 70
     1
102
RTVSPost2010Prop48
 90
       50
102
RTVSPost2010PropOp48
 70
     1
102
RTVSPost2010Prop49
280
     0
102
RTVSPost2010PropOp49
 70
     1
102
RTVSPost2010Prop50
 90
       50
102
RTVSPost2010PropOp50
 70
     1
102
RTVSPost2010Prop51ColorIndex
 90
      256
102
RTVSPost2010Prop51ColorRGB
 90
-16777216
102
RTVSPost2010PropOp51
 70
     0
102
RTVSPost2010Prop52
140
1.0
102
RTVSPost2010PropOp52
 70
     0
102
RTVSPost2010Prop53
 90
        2
102
RTVSPost2010PropOp53
 70
     1
102
RTVSPost2010Prop54
  1
strokes_ogs.tif
102
RTVSPost2010PropOp54
 70
     1
102
RTVSPost2010Prop55
280
     0
102
RTVSPost2010PropOp55
 70
     1
102
RTVSPost2010Prop56
140
1.0
102
RTVSPost2010PropOp56
 70
     1
102
RTVSPost2010Prop57
140
1.0
102
RTVSPost2010PropOp57
 70
     1
102
RTVSPropertyOp0
 70
     1
102
RTVSPropertyOp1
 70
     1
102
RTVSPropertyOp2
 70
     1
102
RTVSPropertyOp3
 70
     1
102
RTVSPropertyOp4
 70
     1
102
RTVSPropertyOp5
 70
     1
102
RTVSPropertyOp6
 70
     1
102
RTVSPropertyOp7
 70
     1
102
RTVSPropertyOp8
 70
     1
102
RTVSPropertyOp9
 70
     1
102
RTVSPropertyOp10
 70
     1
102
RTVSPropertyOp11
 70
     1
102
RTVSPropertyOp12
 70
     1
102
RTVSPropertyOp13
 70
     1
102
RTVSPropertyOp14
 70
     1
102
RTVSPropertyOp15
 70
     1
102
RTVSPropertyOp16
 70
     1
102
RTVSPropertyOp17
 70
     1
102
RTVSPropertyOp18
 70
     1
102
RTVSPropertyOp19
 70
     1
102
RTVSPropertyOp20
 70
     1
102
RTVSPropertyOp21
 70
     1
102
RTVSPropertyOp22
 70
     1
102
RTVSPropertyOp23
 70
     1
102
RTVSPropertyOp24
 70
     1
102
RTVSPropertyOp25
 70
     1
102
RTVSPropertyOp26
 70
     1
102
RTVSPropertyOp27
 70
     1
102
RTVSPropertyOp28
 70
     1
102
RTVSPropertyOp29
 70
     1
102
RTVSPropertyOp30
 70
     1
102
RTVSPropertyOp31
 70
     1
102
RTVSPropertyOp32
 70
     1
102
RTVSPropertyOp33
 70
     1
102
RTVSPropertyOp34
 70
     1
102
RTVSPropertyOp35
 70
     1
102
RTVSPropertyOp36
 70
     1
102
RTVSPropertyOp37
 70
     1
102
RTVSPropertyOp38
 70
     1
102
RTVSPropertyOp39
 70
     1
102
RTVSPropertyOp40
 70
     1
102
RTVSPropertyOp41
 70
     1
102
RTVSPropertyOp42
 70
     1
102
RTVSPropertyOp43
 70
     1
102
RTVSPropertyOp44
 70
     1
102
RTVSPropertyOp45
 70
     1
102
RTVSPropertyOp46
 70
     1
102
RTVSPropertyOp47
 70
     1
102
RTVSPropertyOp48
 70
     1
102
RTVSPropertyOp49
 70
     1
102
RTVSPropertyOp50
 70
     1
102
RTVSPropertyOp51
 70
     0
102
RTVSPropertyOp52
 70
     0
102
RTVSPropertyOp53
 70
     1
102
RTVSPropertyOp54
 70
     1
102
RTVSPropertyOp55
 70
     1
102
RTVSPropertyOp56
 70
     1
102
RTVSPropertyOp57
 70
     1
102
RTVSPropertyOp58
 70
     1
102
RTVSPropertyOp59
 70
     1
102
RTVSPropertyOp60
 70
     1
102
RTVSPropertyOp61
 70
     1
102
RTVSPropertyOp62
 70
     1
  0
XRECORD
  5
62A
102
{ACAD_REACTORS
330
629
102
}
330
629
100
AcDbXrecord
280
     1
102
RTVSPost2010Prop28
280
     0
102
RTVSPost2010PropOp28
 70
     1
102
RTVSPost2010Prop29
280
     1
102
RTVSPost2010PropOp29
 70
     1
102
RTVSPost2010Prop30
280
     1
102
RTVSPost2010PropOp30
 70
     1
102
RTVSPost2010Prop31
280
     0
102
RTVSPost2010PropOp31
 70
     1
102
RTVSPost2010Prop32
280
     0
102
RTVSPost2010PropOp32
 70
     1
102
RTVSPost2010Prop33
280
     0
102
RTVSPost2010PropOp33
 70
     1
102
RTVSPost2010Prop34
280
     0
102
RTVSPost2010PropOp34
 70
     1
102
RTVSPost2010Prop35
280
     0
102
RTVSPost2010PropOp35
 70
     1
102
RTVSPost2010Prop36
280
     0
102
RTVSPost2010PropOp36
 70
     1
102
RTVSPost2010Prop37
 90
       50
102
RTVSPost2010PropOp37
 70
     1
102
RTVSPost2010Prop38
140
0.0
102
RTVSPost2010PropOp38
 70
     1
102
RTVSPost2010Prop39
140
1.0
102
RTVSPost2010PropOp39
 70
     1
102
RTVSPost2010Prop40
 90
        0
102
RTVSPost2010PropOp40
 70
     1
102
RTVSPost2010Prop41ColorIndex
 90
       18
102
RTVSPost2010Prop41ColorRGB
 90
        0
102
RTVSPost2010PropOp41
 70
     1
102
RTVSPost2010Prop42
 90
       50
102
RTVSPost2010PropOp42
 70
     1
102
RTVSPost2010Prop43
 90
        3
102
RTVSPost2010PropOp43
 70
     1
102
RTVSPost2010Prop44ColorIndex
 90
        5
102
RTVSPost2010Prop44ColorRGB
 90
      255
102
RTVSPost2010PropOp44
 70
     1
102
RTVSPost2010Prop45
280
     0
102
RTVSPost2010PropOp45
 70
     1
102
RTVSPost2010Prop46
 90
       50
102
RTVSPost2010PropOp46
 70
     1
102
RTVSPost2010Prop47
 90
       50
102
RTVSPost2010PropOp47
 70
     1
102
RTVSPost2010Prop48
 90
       50
102
RTVSPost2010PropOp48
 70
     1
102
RTVSPost2010Prop49
280
     0
102
RTVSPost2010PropOp49
 70
     1
102
RTVSPost2010Prop50
 90
       50
102
RTVSPost2010PropOp50
 70
     1
102
RTVSPost2010Prop51ColorIndex
 90
      256
102
RTVSPost2010Prop51ColorRGB
 90
-16777216
102
RTVSPost2010PropOp51
 70
     0
102
RTVSPost2010Prop52
140
1.0
102
RTVSPost2010PropOp52
 70
     0
102
RTVSPost2010Prop53
 90
        2
102
RTVSPost2010PropOp53
 70
     1
102
RTVSPost2010Prop54
  1
strokes_ogs.tif
102
RTVSPost2010PropOp54
 70
     1
102
RTVSPost2010Prop55
280
     0
102
RTVSPost2010PropOp55
 70
     1
102
RTVSPost2010Prop56
140
1.0
102
RTVSPost2010PropOp56
 70
     1
102
RTVSPost2010Prop57
140
1.0
102
RTVSPost2010PropOp57
 70
     1
102
RTVSPropertyOp0
 70
     1
102
RTVSPropertyOp1
 70
     1
102
RTVSPropertyOp2
 70
     1
102
RTVSPropertyOp3
 70
     1
102
RTVSPropertyOp4
 70
     1
102
RTVSPropertyOp5
 70
     1
102
RTVSPropertyOp6
 70
     1
102
RTVSPropertyOp7
 70
     1
102
RTVSPropertyOp8
 70
     1
102
RTVSPropertyOp9
 70
     1
102
RTVSPropertyOp10
 70
     1
102
RTVSPropertyOp11
 70
     1
102
RTVSPropertyOp12
 70
     1
102
RTVSPropertyOp13
 70
     1
102
RTVSPropertyOp14
 70
     1
102
RTVSPropertyOp15
 70
     1
102
RTVSPropertyOp16
 70
     1
102
RTVSPropertyOp17
 70
     1
102
RTVSPropertyOp18
 70
     1
102
RTVSPropertyOp19
 70
     1
102
RTVSPropertyOp20
 70
     1
102
RTVSPropertyOp21
 70
     1
102
RTVSPropertyOp22
 70
     1
102
RTVSPropertyOp23
 70
     1
102
RTVSPropertyOp24
 70
     1
102
RTVSPropertyOp25
 70
     1
102
RTVSPropertyOp26
 70
     1
102
RTVSPropertyOp27
 70
     1
102
RTVSPropertyOp28
 70
     1
102
RTVSPropertyOp29
 70
     1
102
RTVSPropertyOp30
 70
     1
102
RTVSPropertyOp31
 70
     1
102
RTVSPropertyOp32
 70
     1
102
RTVSPropertyOp33
 70
     1
102
RTVSPropertyOp34
 70
     1
102
RTVSPropertyOp35
 70
     1
102
RTVSPropertyOp36
 70
     1
102
RTVSPropertyOp37
 70
     1
102
RTVSPropertyOp38
 70
     1
102
RTVSPropertyOp39
 70
     1
102
RTVSPropertyOp40
 70
     1
102
RTVSPropertyOp41
 70
     1
102
RTVSPropertyOp42
 70
     1
102
RTVSPropertyOp43
 70
     1
102
RTVSPropertyOp44
 70
     1
102
RTVSPropertyOp45
 70
     1
102
RTVSPropertyOp46
 70
     1
102
RTVSPropertyOp47
 70
     1
102
RTVSPropertyOp48
 70
     1
102
RTVSPropertyOp49
 70
     1
102
RTVSPropertyOp50
 70
     1
102
RTVSPropertyOp51
 70
     0
102
RTVSPropertyOp52
 70
     0
102
RTVSPropertyOp53
 70
     1
102
RTVSPropertyOp54
 70
     1
102
RTVSPropertyOp55
 70
     1
102
RTVSPropertyOp56
 70
     1
102
RTVSPropertyOp57
 70
     1
102
RTVSPropertyOp58
 70
     1
102
RTVSPropertyOp59
 70
     1
102
RTVSPropertyOp60
 70
     1
102
RTVSPropertyOp61
 70
     1
102
RTVSPropertyOp62
 70
     1
  0
XRECORD
  5
62C
102
{ACAD_REACTORS
330
62B
102
}
330
62B
100
AcDbXrecord
280
     1
102
RTVSPost2010Prop28
280
     0
102
RTVSPost2010PropOp28
 70
     1
102
RTVSPost2010Prop29
280
     1
102
RTVSPost2010PropOp29
 70
     1
102
RTVSPost2010Prop30
280
     1
102
RTVSPost2010PropOp30
 70
     1
102
RTVSPost2010Prop31
280
     0
102
RTVSPost2010PropOp31
 70
     1
102
RTVSPost2010Prop32
280
     0
102
RTVSPost2010PropOp32
 70
     1
102
RTVSPost2010Prop33
280
     0
102
RTVSPost2010PropOp33
 70
     1
102
RTVSPost2010Prop34
280
     0
102
RTVSPost2010PropOp34
 70
     1
102
RTVSPost2010Prop35
280
     0
102
RTVSPost2010PropOp35
 70
     1
102
RTVSPost2010Prop36
280
     0
102
RTVSPost2010PropOp36
 70
     1
102
RTVSPost2010Prop37
 90
       50
102
RTVSPost2010PropOp37
 70
     1
102
RTVSPost2010Prop38
140
0.0
102
RTVSPost2010PropOp38
 70
     1
102
RTVSPost2010Prop39
140
1.0
102
RTVSPost2010PropOp39
 70
     1
102
RTVSPost2010Prop40
 90
        0
102
RTVSPost2010PropOp40
 70
     1
102
RTVSPost2010Prop41ColorIndex
 90
       18
102
RTVSPost2010Prop41ColorRGB
 90
        0
102
RTVSPost2010PropOp41
 70
     1
102
RTVSPost2010Prop42
 90
       50
102
RTVSPost2010PropOp42
 70
     1
102
RTVSPost2010Prop43
 90
        3
102
RTVSPost2010PropOp43
 70
     1
102
RTVSPost2010Prop44ColorIndex
 90
        5
102
RTVSPost2010Prop44ColorRGB
 90
      255
102
RTVSPost2010PropOp44
 70
     1
102
RTVSPost2010Prop45
280
     0
102
RTVSPost2010PropOp45
 70
     1
102
RTVSPost2010Prop46
 90
       50
102
RTVSPost2010PropOp46
 70
     1
102
RTVSPost2010Prop47
 90
       50
102
RTVSPost2010PropOp47
 70
     1
102
RTVSPost2010Prop48
 90
       50
102
RTVSPost2010PropOp48
 70
     1
102
RTVSPost2010Prop49
280
     0
102
RTVSPost2010PropOp49
 70
     1
102
RTVSPost2010Prop50
 90
       50
102
RTVSPost2010PropOp50
 70
     1
102
RTVSPost2010Prop51ColorIndex
 90
      256
102
RTVSPost2010Prop51ColorRGB
 90
-16777216
102
RTVSPost2010PropOp51
 70
     0
102
RTVSPost2010Prop52
140
1.0
102
RTVSPost2010PropOp52
 70
     0
102
RTVSPost2010Prop53
 90
        2
102
RTVSPost2010PropOp53
 70
     1
102
RTVSPost2010Prop54
  1
strokes_ogs.tif
102
RTVSPost2010PropOp54
 70
     1
102
RTVSPost2010Prop55
280
     0
102
RTVSPost2010PropOp55
 70
     1
102
RTVSPost2010Prop56
140
1.0
102
RTVSPost2010PropOp56
 70
     1
102
RTVSPost2010Prop57
140
1.0
102
RTVSPost2010PropOp57
 70
     1
102
RTVSPropertyOp0
 70
     1
102
RTVSPropertyOp1
 70
     1
102
RTVSPropertyOp2
 70
     1
102
RTVSPropertyOp3
 70
     1
102
RTVSPropertyOp4
 70
     1
102
RTVSPropertyOp5
 70
     1
102
RTVSPropertyOp6
 70
     1
102
RTVSPropertyOp7
 70
     1
102
RTVSPropertyOp8
 70
     1
102
RTVSPropertyOp9
 70
     1
102
RTVSPropertyOp10
 70
     1
102
RTVSPropertyOp11
 70
     1
102
RTVSPropertyOp12
 70
     1
102
RTVSPropertyOp13
 70
     1
102
RTVSPropertyOp14
 70
     1
102
RTVSPropertyOp15
 70
     1
102
RTVSPropertyOp16
 70
     1
102
RTVSPropertyOp17
 70
     1
102
RTVSPropertyOp18
 70
     1
102
RTVSPropertyOp19
 70
     1
102
RTVSPropertyOp20
 70
     1
102
RTVSPropertyOp21
 70
     1
102
RTVSPropertyOp22
 70
     1
102
RTVSPropertyOp23
 70
     1
102
RTVSPropertyOp24
 70
     1
102
RTVSPropertyOp25
 70
     1
102
RTVSPropertyOp26
 70
     1
102
RTVSPropertyOp27
 70
     1
102
RTVSPropertyOp28
 70
     1
102
RTVSPropertyOp29
 70
     1
102
RTVSPropertyOp30
 70
     1
102
RTVSPropertyOp31
 70
     1
102
RTVSPropertyOp32
 70
     1
102
RTVSPropertyOp33
 70
     1
102
RTVSPropertyOp34
 70
     1
102
RTVSPropertyOp35
 70
     1
102
RTVSPropertyOp36
 70
     1
102
RTVSPropertyOp37
 70
     1
102
RTVSPropertyOp38
 70
     1
102
RTVSPropertyOp39
 70
     1
102
RTVSPropertyOp40
 70
     1
102
RTVSPropertyOp41
 70
     1
102
RTVSPropertyOp42
 70
     1
102
RTVSPropertyOp43
 70
     1
102
RTVSPropertyOp44
 70
     1
102
RTVSPropertyOp45
 70
     1
102
RTVSPropertyOp46
 70
     1
102
RTVSPropertyOp47
 70
     1
102
RTVSPropertyOp48
 70
     1
102
RTVSPropertyOp49
 70
     1
102
RTVSPropertyOp50
 70
     1
102
RTVSPropertyOp51
 70
     0
102
RTVSPropertyOp52
 70
     0
102
RTVSPropertyOp53
 70
     1
102
RTVSPropertyOp54
 70
     1
102
RTVSPropertyOp55
 70
     1
102
RTVSPropertyOp56
 70
     1
102
RTVSPropertyOp57
 70
     1
102
RTVSPropertyOp58
 70
     1
102
RTVSPropertyOp59
 70
     1
102
RTVSPropertyOp60
 70
     1
102
RTVSPropertyOp61
 70
     1
102
RTVSPropertyOp62
 70
     1
  0
XRECORD
  5
62E
102
{ACAD_REACTORS
330
62D
102
}
330
62D
100
AcDbXrecord
280
     1
102
RTVSPost2010Prop28
280
     0
102
RTVSPost2010PropOp28
 70
     1
102
RTVSPost2010Prop29
280
     1
102
RTVSPost2010PropOp29
 70
     1
102
RTVSPost2010Prop30
280
     1
102
RTVSPost2010PropOp30
 70
     1
102
RTVSPost2010Prop31
280
     0
102
RTVSPost2010PropOp31
 70
     1
102
RTVSPost2010Prop32
280
     0
102
RTVSPost2010PropOp32
 70
     1
102
RTVSPost2010Prop33
280
     0
102
RTVSPost2010PropOp33
 70
     1
102
RTVSPost2010Prop34
280
     0
102
RTVSPost2010PropOp34
 70
     1
102
RTVSPost2010Prop35
280
     0
102
RTVSPost2010PropOp35
 70
     1
102
RTVSPost2010Prop36
280
     0
102
RTVSPost2010PropOp36
 70
     1
102
RTVSPost2010Prop37
 90
       50
102
RTVSPost2010PropOp37
 70
     1
102
RTVSPost2010Prop38
140
0.0
102
RTVSPost2010PropOp38
 70
     1
102
RTVSPost2010Prop39
140
1.0
102
RTVSPost2010PropOp39
 70
     1
102
RTVSPost2010Prop40
 90
        0
102
RTVSPost2010PropOp40
 70
     1
102
RTVSPost2010Prop41ColorIndex
 90
       18
102
RTVSPost2010Prop41ColorRGB
 90
        0
102
RTVSPost2010PropOp41
 70
     1
102
RTVSPost2010Prop42
 90
       50
102
RTVSPost2010PropOp42
 70
     1
102
RTVSPost2010Prop43
 90
        3
102
RTVSPost2010PropOp43
 70
     1
102
RTVSPost2010Prop44ColorIndex
 90
        5
102
RTVSPost2010Prop44ColorRGB
 90
      255
102
RTVSPost2010PropOp44
 70
     1
102
RTVSPost2010Prop45
280
     0
102
RTVSPost2010PropOp45
 70
     1
102
RTVSPost2010Prop46
 90
       50
102
RTVSPost2010PropOp46
 70
     1
102
RTVSPost2010Prop47
 90
       50
102
RTVSPost2010PropOp47
 70
     1
102
RTVSPost2010Prop48
 90
       50
102
RTVSPost2010PropOp48
 70
     1
102
RTVSPost2010Prop49
280
     0
102
RTVSPost2010PropOp49
 70
     1
102
RTVSPost2010Prop50
 90
       50
102
RTVSPost2010PropOp50
 70
     1
102
RTVSPost2010Prop51ColorIndex
 90
      256
102
RTVSPost2010Prop51ColorRGB
 90
-16777216
102
RTVSPost2010PropOp51
 70
     0
102
RTVSPost2010Prop52
140
1.0
102
RTVSPost2010PropOp52
 70
     0
102
RTVSPost2010Prop53
 90
        2
102
RTVSPost2010PropOp53
 70
     1
102
RTVSPost2010Prop54
  1
strokes_ogs.tif
102
RTVSPost2010PropOp54
 70
     1
102
RTVSPost2010Prop55
280
     0
102
RTVSPost2010PropOp55
 70
     1
102
RTVSPost2010Prop56
140
1.0
102
RTVSPost2010PropOp56
 70
     1
102
RTVSPost2010Prop57
140
1.0
102
RTVSPost2010PropOp57
 70
     1
102
RTVSPropertyOp0
 70
     1
102
RTVSPropertyOp1
 70
     1
102
RTVSPropertyOp2
 70
     1
102
RTVSPropertyOp3
 70
     1
102
RTVSPropertyOp4
 70
     1
102
RTVSPropertyOp5
 70
     1
102
RTVSPropertyOp6
 70
     1
102
RTVSPropertyOp7
 70
     1
102
RTVSPropertyOp8
 70
     1
102
RTVSPropertyOp9
 70
     1
102
RTVSPropertyOp10
 70
     1
102
RTVSPropertyOp11
 70
     1
102
RTVSPropertyOp12
 70
     1
102
RTVSPropertyOp13
 70
     1
102
RTVSPropertyOp14
 70
     1
102
RTVSPropertyOp15
 70
     1
102
RTVSPropertyOp16
 70
     1
102
RTVSPropertyOp17
 70
     1
102
RTVSPropertyOp18
 70
     1
102
RTVSPropertyOp19
 70
     1
102
RTVSPropertyOp20
 70
     1
102
RTVSPropertyOp21
 70
     1
102
RTVSPropertyOp22
 70
     1
102
RTVSPropertyOp23
 70
     1
102
RTVSPropertyOp24
 70
     1
102
RTVSPropertyOp25
 70
     1
102
RTVSPropertyOp26
 70
     1
102
RTVSPropertyOp27
 70
     1
102
RTVSPropertyOp28
 70
     1
102
RTVSPropertyOp29
 70
     1
102
RTVSPropertyOp30
 70
     1
102
RTVSPropertyOp31
 70
     1
102
RTVSPropertyOp32
 70
     1
102
RTVSPropertyOp33
 70
     1
102
RTVSPropertyOp34
 70
     1
102
RTVSPropertyOp35
 70
     1
102
RTVSPropertyOp36
 70
     1
102
RTVSPropertyOp37
 70
     1
102
RTVSPropertyOp38
 70
     1
102
RTVSPropertyOp39
 70
     1
102
RTVSPropertyOp40
 70
     1
102
RTVSPropertyOp41
 70
     1
102
RTVSPropertyOp42
 70
     1
102
RTVSPropertyOp43
 70
     1
102
RTVSPropertyOp44
 70
     1
102
RTVSPropertyOp45
 70
     1
102
RTVSPropertyOp46
 70
     1
102
RTVSPropertyOp47
 70
     1
102
RTVSPropertyOp48
 70
     1
102
RTVSPropertyOp49
 70
     1
102
RTVSPropertyOp50
 70
     1
102
RTVSPropertyOp51
 70
     0
102
RTVSPropertyOp52
 70
     0
102
RTVSPropertyOp53
 70
     1
102
RTVSPropertyOp54
 70
     1
102
RTVSPropertyOp55
 70
     1
102
RTVSPropertyOp56
 70
     1
102
RTVSPropertyOp57
 70
     1
102
RTVSPropertyOp58
 70
     1
102
RTVSPropertyOp59
 70
     1
102
RTVSPropertyOp60
 70
     1
102
RTVSPropertyOp61
 70
     1
102
RTVSPropertyOp62
 70
     1
  0
XRECORD
  5
636
102
{ACAD_REACTORS
330
635
102
}
330
635
100
AcDbXrecord
280
     1
102
RTVSPost2010Prop28
280
     0
102
RTVSPost2010PropOp28
 70
     1
102
RTVSPost2010Prop29
280
     1
102
RTVSPost2010PropOp29
 70
     1
102
RTVSPost2010Prop30
280
     1
102
RTVSPost2010PropOp30
 70
     1
102
RTVSPost2010Prop31
280
     0
102
RTVSPost2010PropOp31
 70
     1
102
RTVSPost2010Prop32
280
     0
102
RTVSPost2010PropOp32
 70
     1
102
RTVSPost2010Prop33
280
     0
102
RTVSPost2010PropOp33
 70
     1
102
RTVSPost2010Prop34
280
     0
102
RTVSPost2010PropOp34
 70
     1
102
RTVSPost2010Prop35
280
     0
102
RTVSPost2010PropOp35
 70
     1
102
RTVSPost2010Prop36
280
     0
102
RTVSPost2010PropOp36
 70
     1
102
RTVSPost2010Prop37
 90
       50
102
RTVSPost2010PropOp37
 70
     1
102
RTVSPost2010Prop38
140
0.0
102
RTVSPost2010PropOp38
 70
     1
102
RTVSPost2010Prop39
140
1.0
102
RTVSPost2010PropOp39
 70
     1
102
RTVSPost2010Prop40
 90
        0
102
RTVSPost2010PropOp40
 70
     1
102
RTVSPost2010Prop41ColorIndex
 90
       18
102
RTVSPost2010Prop41ColorRGB
 90
        0
102
RTVSPost2010PropOp41
 70
     1
102
RTVSPost2010Prop42
 90
       50
102
RTVSPost2010PropOp42
 70
     1
102
RTVSPost2010Prop43
 90
        3
102
RTVSPost2010PropOp43
 70
     1
102
RTVSPost2010Prop44ColorIndex
 90
        5
102
RTVSPost2010Prop44ColorRGB
 90
      255
102
RTVSPost2010PropOp44
 70
     1
102
RTVSPost2010Prop45
280
     0
102
RTVSPost2010PropOp45
 70
     1
102
RTVSPost2010Prop46
 90
       50
102
RTVSPost2010PropOp46
 70
     1
102
RTVSPost2010Prop47
 90
       50
102
RTVSPost2010PropOp47
 70
     1
102
RTVSPost2010Prop48
 90
       50
102
RTVSPost2010PropOp48
 70
     1
102
RTVSPost2010Prop49
280
     0
102
RTVSPost2010PropOp49
 70
     1
102
RTVSPost2010Prop50
 90
       50
102
RTVSPost2010PropOp50
 70
     1
102
RTVSPost2010Prop51ColorIndex
 90
      256
102
RTVSPost2010Prop51ColorRGB
 90
-16777216
102
RTVSPost2010PropOp51
 70
     0
102
RTVSPost2010Prop52
140
1.0
102
RTVSPost2010PropOp52
 70
     0
102
RTVSPost2010Prop53
 90
        2
102
RTVSPost2010PropOp53
 70
     1
102
RTVSPost2010Prop54
  1
strokes_ogs.tif
102
RTVSPost2010PropOp54
 70
     1
102
RTVSPost2010Prop55
280
     0
102
RTVSPost2010PropOp55
 70
     1
102
RTVSPost2010Prop56
140
1.0
102
RTVSPost2010PropOp56
 70
     1
102
RTVSPost2010Prop57
140
1.0
102
RTVSPost2010PropOp57
 70
     1
102
RTVSPropertyOp0
 70
     1
102
RTVSPropertyOp1
 70
     1
102
RTVSPropertyOp2
 70
     1
102
RTVSPropertyOp3
 70
     1
102
RTVSPropertyOp4
 70
     1
102
RTVSPropertyOp5
 70
     1
102
RTVSPropertyOp6
 70
     1
102
RTVSPropertyOp7
 70
     1
102
RTVSPropertyOp8
 70
     1
102
RTVSPropertyOp9
 70
     1
102
RTVSPropertyOp10
 70
     1
102
RTVSPropertyOp11
 70
     1
102
RTVSPropertyOp12
 70
     1
102
RTVSPropertyOp13
 70
     1
102
RTVSPropertyOp14
 70
     1
102
RTVSPropertyOp15
 70
     1
102
RTVSPropertyOp16
 70
     1
102
RTVSPropertyOp17
 70
     1
102
RTVSPropertyOp18
 70
     1
102
RTVSPropertyOp19
 70
     1
102
RTVSPropertyOp20
 70
     1
102
RTVSPropertyOp21
 70
     1
102
RTVSPropertyOp22
 70
     1
102
RTVSPropertyOp23
 70
     1
102
RTVSPropertyOp24
 70
     1
102
RTVSPropertyOp25
 70
     1
102
RTVSPropertyOp26
 70
     1
102
RTVSPropertyOp27
 70
     1
102
RTVSPropertyOp28
 70
     1
102
RTVSPropertyOp29
 70
     1
102
RTVSPropertyOp30
 70
     1
102
RTVSPropertyOp31
 70
     1
102
RTVSPropertyOp32
 70
     1
102
RTVSPropertyOp33
 70
     1
102
RTVSPropertyOp34
 70
     1
102
RTVSPropertyOp35
 70
     1
102
RTVSPropertyOp36
 70
     1
102
RTVSPropertyOp37
 70
     1
102
RTVSPropertyOp38
 70
     1
102
RTVSPropertyOp39
 70
     1
102
RTVSPropertyOp40
 70
     1
102
RTVSPropertyOp41
 70
     1
102
RTVSPropertyOp42
 70
     1
102
RTVSPropertyOp43
 70
     1
102
RTVSPropertyOp44
 70
     1
102
RTVSPropertyOp45
 70
     1
102
RTVSPropertyOp46
 70
     1
102
RTVSPropertyOp47
 70
     1
102
RTVSPropertyOp48
 70
     1
102
RTVSPropertyOp49
 70
     1
102
RTVSPropertyOp50
 70
     1
102
RTVSPropertyOp51
 70
     0
102
RTVSPropertyOp52
 70
     0
102
RTVSPropertyOp53
 70
     1
102
RTVSPropertyOp54
 70
     1
102
RTVSPropertyOp55
 70
     1
102
RTVSPropertyOp56
 70
     1
102
RTVSPropertyOp57
 70
     1
102
RTVSPropertyOp58
 70
     1
102
RTVSPropertyOp59
 70
     1
102
RTVSPropertyOp60
 70
     1
102
RTVSPropertyOp61
 70
     1
102
RTVSPropertyOp62
 70
     1
  0
XRECORD
  5
652
102
{ACAD_REACTORS
330
651
102
}
330
651
100
AcDbXrecord
280
     1
102
RTVSPost2010Prop28
280
     0
102
RTVSPost2010PropOp28
 70
     0
102
RTVSPost2010Prop29
280
     1
102
RTVSPost2010PropOp29
 70
     0
102
RTVSPost2010Prop30
280
     1
102
RTVSPost2010PropOp30
 70
     0
102
RTVSPost2010Prop31
280
     0
102
RTVSPost2010PropOp31
 70
     0
102
RTVSPost2010Prop32
280
     0
102
RTVSPost2010PropOp32
 70
     0
102
RTVSPost2010Prop33
280
     0
102
RTVSPost2010PropOp33
 70
     0
102
RTVSPost2010Prop34
280
     0
102
RTVSPost2010PropOp34
 70
     0
102
RTVSPost2010Prop35
280
     0
102
RTVSPost2010PropOp35
 70
     0
102
RTVSPost2010Prop36
280
     0
102
RTVSPost2010PropOp36
 70
     0
102
RTVSPost2010Prop37
 90
       50
102
RTVSPost2010PropOp37
 70
     0
102
RTVSPost2010Prop38
140
0.0
102
RTVSPost2010PropOp38
 70
     0
102
RTVSPost2010Prop39
140
1.0
102
RTVSPost2010PropOp39
 70
     0
102
RTVSPost2010Prop40
 90
        0
102
RTVSPost2010PropOp40
 70
     0
102
RTVSPost2010Prop41ColorIndex
 90
       18
102
RTVSPost2010Prop41ColorRGB
 90
        0
102
RTVSPost2010PropOp41
 70
     0
102
RTVSPost2010Prop42
 90
       50
102
RTVSPost2010PropOp42
 70
     0
102
RTVSPost2010Prop43
 90
        3
102
RTVSPost2010PropOp43
 70
     0
102
RTVSPost2010Prop44ColorIndex
 90
        5
102
RTVSPost2010Prop44ColorRGB
 90
      255
102
RTVSPost2010PropOp44
 70
     0
102
RTVSPost2010Prop45
280
     0
102
RTVSPost2010PropOp45
 70
     0
102
RTVSPost2010Prop46
 90
       50
102
RTVSPost2010PropOp46
 70
     0
102
RTVSPost2010Prop47
 90
       50
102
RTVSPost2010PropOp47
 70
     0
102
RTVSPost2010Prop48
 90
       50
102
RTVSPost2010PropOp48
 70
     0
102
RTVSPost2010Prop49
280
     0
102
RTVSPost2010PropOp49
 70
     0
102
RTVSPost2010Prop50
 90
       50
102
RTVSPost2010PropOp50
 70
     0
102
RTVSPost2010Prop51ColorIndex
 90
      256
102
RTVSPost2010Prop51ColorRGB
 90
-16777216
102
RTVSPost2010PropOp51
 70
     0
102
RTVSPost2010Prop52
140
1.0
102
RTVSPost2010PropOp52
 70
     0
102
RTVSPost2010Prop53
 90
        2
102
RTVSPost2010PropOp53
 70
     0
102
RTVSPost2010Prop54
  1
strokes_ogs.tif
102
RTVSPost2010PropOp54
 70
     0
102
RTVSPost2010Prop55
280
     0
102
RTVSPost2010PropOp55
 70
     0
102
RTVSPost2010Prop56
140
1.0
102
RTVSPost2010PropOp56
 70
     0
102
RTVSPost2010Prop57
140
1.0
102
RTVSPost2010PropOp57
 70
     0
102
RTVSPropertyOp0
 70
     0
102
RTVSPropertyOp1
 70
     0
102
RTVSPropertyOp2
 70
     0
102
RTVSPropertyOp3
 70
     0
102
RTVSPropertyOp4
 70
     0
102
RTVSPropertyOp5
 70
     0
102
RTVSPropertyOp6
 70
     0
102
RTVSPropertyOp7
 70
     0
102
RTVSPropertyOp8
 70
     0
102
RTVSPropertyOp9
 70
     0
102
RTVSPropertyOp10
 70
     0
102
RTVSPropertyOp11
 70
     0
102
RTVSPropertyOp12
 70
     0
102
RTVSPropertyOp13
 70
     0
102
RTVSPropertyOp14
 70
     2
102
RTVSPropertyOp15
 70
     0
102
RTVSPropertyOp16
 70
     0
102
RTVSPropertyOp17
 70
     0
102
RTVSPropertyOp18
 70
     0
102
RTVSPropertyOp19
 70
     0
102
RTVSPropertyOp20
 70
     0
102
RTVSPropertyOp21
 70
     0
102
RTVSPropertyOp22
 70
     0
102
RTVSPropertyOp23
 70
     0
102
RTVSPropertyOp24
 70
     0
102
RTVSPropertyOp25
 70
     0
102
RTVSPropertyOp26
 70
     0
102
RTVSPropertyOp27
 70
     0
102
RTVSPropertyOp28
 70
     0
102
RTVSPropertyOp29
 70
     0
102
RTVSPropertyOp30
 70
     0
102
RTVSPropertyOp31
 70
     0
102
RTVSPropertyOp32
 70
     0
102
RTVSPropertyOp33
 70
     0
102
RTVSPropertyOp34
 70
     0
102
RTVSPropertyOp35
 70
     0
102
RTVSPropertyOp36
 70
     0
102
RTVSPropertyOp37
 70
     0
102
RTVSPropertyOp38
 70
     0
102
RTVSPropertyOp39
 70
     0
102
RTVSPropertyOp40
 70
     0
102
RTVSPropertyOp41
 70
     0
102
RTVSPropertyOp42
 70
     0
102
RTVSPropertyOp43
 70
     0
102
RTVSPropertyOp44
 70
     0
102
RTVSPropertyOp45
 70
     0
102
RTVSPropertyOp46
 70
     0
102
RTVSPropertyOp47
 70
     0
102
RTVSPropertyOp48
 70
     0
102
RTVSPropertyOp49
 70
     0
102
RTVSPropertyOp50
 70
     0
102
RTVSPropertyOp51
 70
     0
102
RTVSPropertyOp52
 70
     0
102
RTVSPropertyOp53
 70
     0
102
RTVSPropertyOp54
 70
     0
102
RTVSPropertyOp55
 70
     0
102
RTVSPropertyOp56
 70
     0
102
RTVSPropertyOp57
 70
     0
102
RTVSPropertyOp58
 70
     0
102
RTVSPropertyOp59
 70
     0
102
RTVSPropertyOp60
 70
     0
102
RTVSPropertyOp61
 70
     0
102
RTVSPropertyOp62
 70
     0
  0
XRECORD
  5
642
102
{ACAD_REACTORS
330
641
102
}
330
641
100
AcDbXrecord
280
     1
102
RTVSPost2010Prop28
280
     0
102
RTVSPost2010PropOp28
 70
     1
102
RTVSPost2010Prop29
280
     1
102
RTVSPost2010PropOp29
 70
     1
102
RTVSPost2010Prop30
280
     1
102
RTVSPost2010PropOp30
 70
     1
102
RTVSPost2010Prop31
280
     0
102
RTVSPost2010PropOp31
 70
     1
102
RTVSPost2010Prop32
280
     0
102
RTVSPost2010PropOp32
 70
     1
102
RTVSPost2010Prop33
280
     0
102
RTVSPost2010PropOp33
 70
     1
102
RTVSPost2010Prop34
280
     0
102
RTVSPost2010PropOp34
 70
     1
102
RTVSPost2010Prop35
280
     0
102
RTVSPost2010PropOp35
 70
     1
102
RTVSPost2010Prop36
280
     0
102
RTVSPost2010PropOp36
 70
     1
102
RTVSPost2010Prop37
 90
       50
102
RTVSPost2010PropOp37
 70
     1
102
RTVSPost2010Prop38
140
0.0
102
RTVSPost2010PropOp38
 70
     1
102
RTVSPost2010Prop39
140
1.0
102
RTVSPost2010PropOp39
 70
     1
102
RTVSPost2010Prop40
 90
        0
102
RTVSPost2010PropOp40
 70
     1
102
RTVSPost2010Prop41ColorIndex
 90
       18
102
RTVSPost2010Prop41ColorRGB
 90
        0
102
RTVSPost2010PropOp41
 70
     1
102
RTVSPost2010Prop42
 90
       50
102
RTVSPost2010PropOp42
 70
     1
102
RTVSPost2010Prop43
 90
        3
102
RTVSPost2010PropOp43
 70
     1
102
RTVSPost2010Prop44ColorIndex
 90
        5
102
RTVSPost2010Prop44ColorRGB
 90
      255
102
RTVSPost2010PropOp44
 70
     1
102
RTVSPost2010Prop45
280
     0
102
RTVSPost2010PropOp45
 70
     1
102
RTVSPost2010Prop46
 90
       50
102
RTVSPost2010PropOp46
 70
     1
102
RTVSPost2010Prop47
 90
       50
102
RTVSPost2010PropOp47
 70
     1
102
RTVSPost2010Prop48
 90
       50
102
RTVSPost2010PropOp48
 70
     1
102
RTVSPost2010Prop49
280
     0
102
RTVSPost2010PropOp49
 70
     1
102
RTVSPost2010Prop50
 90
       50
102
RTVSPost2010PropOp50
 70
     1
102
RTVSPost2010Prop51ColorIndex
 90
      256
102
RTVSPost2010Prop51ColorRGB
 90
-16777216
102
RTVSPost2010PropOp51
 70
     0
102
RTVSPost2010Prop52
140
1.0
102
RTVSPost2010PropOp52
 70
     0
102
RTVSPost2010Prop53
 90
        2
102
RTVSPost2010PropOp53
 70
     1
102
RTVSPost2010Prop54
  1
strokes_ogs.tif
102
RTVSPost2010PropOp54
 70
     1
102
RTVSPost2010Prop55
280
     0
102
RTVSPost2010PropOp55
 70
     1
102
RTVSPost2010Prop56
140
1.0
102
RTVSPost2010PropOp56
 70
     1
102
RTVSPost2010Prop57
140
1.0
102
RTVSPost2010PropOp57
 70
     1
102
RTVSPropertyOp0
 70
     1
102
RTVSPropertyOp1
 70
     1
102
RTVSPropertyOp2
 70
     1
102
RTVSPropertyOp3
 70
     1
102
RTVSPropertyOp4
 70
     1
102
RTVSPropertyOp5
 70
     1
102
RTVSPropertyOp6
 70
     1
102
RTVSPropertyOp7
 70
     1
102
RTVSPropertyOp8
 70
     1
102
RTVSPropertyOp9
 70
     1
102
RTVSPropertyOp10
 70
     1
102
RTVSPropertyOp11
 70
     1
102
RTVSPropertyOp12
 70
     1
102
RTVSPropertyOp13
 70
     1
102
RTVSPropertyOp14
 70
     1
102
RTVSPropertyOp15
 70
     1
102
RTVSPropertyOp16
 70
     1
102
RTVSPropertyOp17
 70
     1
102
RTVSPropertyOp18
 70
     1
102
RTVSPropertyOp19
 70
     1
102
RTVSPropertyOp20
 70
     1
102
RTVSPropertyOp21
 70
     1
102
RTVSPropertyOp22
 70
     1
102
RTVSPropertyOp23
 70
     1
102
RTVSPropertyOp24
 70
     1
102
RTVSPropertyOp25
 70
     1
102
RTVSPropertyOp26
 70
     1
102
RTVSPropertyOp27
 70
     1
102
RTVSPropertyOp28
 70
     1
102
RTVSPropertyOp29
 70
     1
102
RTVSPropertyOp30
 70
     1
102
RTVSPropertyOp31
 70
     1
102
RTVSPropertyOp32
 70
     1
102
RTVSPropertyOp33
 70
     1
102
RTVSPropertyOp34
 70
     1
102
RTVSPropertyOp35
 70
     1
102
RTVSPropertyOp36
 70
     1
102
RTVSPropertyOp37
 70
     1
102
RTVSPropertyOp38
 70
     1
102
RTVSPropertyOp39
 70
     1
102
RTVSPropertyOp40
 70
     1
102
RTVSPropertyOp41
 70
     1
102
RTVSPropertyOp42
 70
     1
102
RTVSPropertyOp43
 70
     1
102
RTVSPropertyOp44
 70
     1
102
RTVSPropertyOp45
 70
     1
102
RTVSPropertyOp46
 70
     1
102
RTVSPropertyOp47
 70
     1
102
RTVSPropertyOp48
 70
     1
102
RTVSPropertyOp49
 70
     1
102
RTVSPropertyOp50
 70
     1
102
RTVSPropertyOp51
 70
     0
102
RTVSPropertyOp52
 70
     0
102
RTVSPropertyOp53
 70
     1
102
RTVSPropertyOp54
 70
     1
102
RTVSPropertyOp55
 70
     1
102
RTVSPropertyOp56
 70
     1
102
RTVSPropertyOp57
 70
     1
102
RTVSPropertyOp58
 70
     1
102
RTVSPropertyOp59
 70
     1
102
RTVSPropertyOp60
 70
     1
102
RTVSPropertyOp61
 70
     1
102
RTVSPropertyOp62
 70
     1
  0
XRECORD
  5
654
102
{ACAD_REACTORS
330
653
102
}
330
653
100
AcDbXrecord
280
     1
102
RTVSPost2010Prop28
280
     0
102
RTVSPost2010PropOp28
 70
     0
102
RTVSPost2010Prop29
280
     1
102
RTVSPost2010PropOp29
 70
     0
102
RTVSPost2010Prop30
280
     1
102
RTVSPost2010PropOp30
 70
     0
102
RTVSPost2010Prop31
280
     0
102
RTVSPost2010PropOp31
 70
     0
102
RTVSPost2010Prop32
280
     0
102
RTVSPost2010PropOp32
 70
     0
102
RTVSPost2010Prop33
280
     0
102
RTVSPost2010PropOp33
 70
     0
102
RTVSPost2010Prop34
280
     0
102
RTVSPost2010PropOp34
 70
     0
102
RTVSPost2010Prop35
280
     0
102
RTVSPost2010PropOp35
 70
     0
102
RTVSPost2010Prop36
280
     0
102
RTVSPost2010PropOp36
 70
     0
102
RTVSPost2010Prop37
 90
       50
102
RTVSPost2010PropOp37
 70
     0
102
RTVSPost2010Prop38
140
0.0
102
RTVSPost2010PropOp38
 70
     0
102
RTVSPost2010Prop39
140
1.0
102
RTVSPost2010PropOp39
 70
     0
102
RTVSPost2010Prop40
 90
        0
102
RTVSPost2010PropOp40
 70
     0
102
RTVSPost2010Prop41ColorIndex
 90
       18
102
RTVSPost2010Prop41ColorRGB
 90
        0
102
RTVSPost2010PropOp41
 70
     0
102
RTVSPost2010Prop42
 90
       50
102
RTVSPost2010PropOp42
 70
     0
102
RTVSPost2010Prop43
 90
        3
102
RTVSPost2010PropOp43
 70
     0
102
RTVSPost2010Prop44ColorIndex
 90
        5
102
RTVSPost2010Prop44ColorRGB
 90
      255
102
RTVSPost2010PropOp44
 70
     0
102
RTVSPost2010Prop45
280
     0
102
RTVSPost2010PropOp45
 70
     0
102
RTVSPost2010Prop46
 90
       50
102
RTVSPost2010PropOp46
 70
     0
102
RTVSPost2010Prop47
 90
       50
102
RTVSPost2010PropOp47
 70
     0
102
RTVSPost2010Prop48
 90
       50
102
RTVSPost2010PropOp48
 70
     0
102
RTVSPost2010Prop49
280
     0
102
RTVSPost2010PropOp49
 70
     0
102
RTVSPost2010Prop50
 90
       50
102
RTVSPost2010PropOp50
 70
     0
102
RTVSPost2010Prop51ColorIndex
 90
      256
102
RTVSPost2010Prop51ColorRGB
 90
-16777216
102
RTVSPost2010PropOp51
 70
     0
102
RTVSPost2010Prop52
140
1.0
102
RTVSPost2010PropOp52
 70
     0
102
RTVSPost2010Prop53
 90
        2
102
RTVSPost2010PropOp53
 70
     0
102
RTVSPost2010Prop54
  1
strokes_ogs.tif
102
RTVSPost2010PropOp54
 70
     0
102
RTVSPost2010Prop55
280
     0
102
RTVSPost2010PropOp55
 70
     0
102
RTVSPost2010Prop56
140
1.0
102
RTVSPost2010PropOp56
 70
     0
102
RTVSPost2010Prop57
140
1.0
102
RTVSPost2010PropOp57
 70
     0
102
RTVSPropertyOp0
 70
     0
102
RTVSPropertyOp1
 70
     0
102
RTVSPropertyOp2
 70
     0
102
RTVSPropertyOp3
 70
     0
102
RTVSPropertyOp4
 70
     0
102
RTVSPropertyOp5
 70
     0
102
RTVSPropertyOp6
 70
     0
102
RTVSPropertyOp7
 70
     0
102
RTVSPropertyOp8
 70
     0
102
RTVSPropertyOp9
 70
     0
102
RTVSPropertyOp10
 70
     0
102
RTVSPropertyOp11
 70
     0
102
RTVSPropertyOp12
 70
     0
102
RTVSPropertyOp13
 70
     0
102
RTVSPropertyOp14
 70
     2
102
RTVSPropertyOp15
 70
     0
102
RTVSPropertyOp16
 70
     0
102
RTVSPropertyOp17
 70
     0
102
RTVSPropertyOp18
 70
     0
102
RTVSPropertyOp19
 70
     0
102
RTVSPropertyOp20
 70
     0
102
RTVSPropertyOp21
 70
     0
102
RTVSPropertyOp22
 70
     0
102
RTVSPropertyOp23
 70
     0
102
RTVSPropertyOp24
 70
     0
102
RTVSPropertyOp25
 70
     0
102
RTVSPropertyOp26
 70
     0
102
RTVSPropertyOp27
 70
     0
102
RTVSPropertyOp28
 70
     0
102
RTVSPropertyOp29
 70
     0
102
RTVSPropertyOp30
 70
     0
102
RTVSPropertyOp31
 70
     0
102
RTVSPropertyOp32
 70
     0
102
RTVSPropertyOp33
 70
     0
102
RTVSPropertyOp34
 70
     0
102
RTVSPropertyOp35
 70
     0
102
RTVSPropertyOp36
 70
     0
102
RTVSPropertyOp37
 70
     0
102
RTVSPropertyOp38
 70
     0
102
RTVSPropertyOp39
 70
     0
102
RTVSPropertyOp40
 70
     0
102
RTVSPropertyOp41
 70
     0
102
RTVSPropertyOp42
 70
     0
102
RTVSPropertyOp43
 70
     0
102
RTVSPropertyOp44
 70
     0
102
RTVSPropertyOp45
 70
     0
102
RTVSPropertyOp46
 70
     0
102
RTVSPropertyOp47
 70
     0
102
RTVSPropertyOp48
 70
     0
102
RTVSPropertyOp49
 70
     0
102
RTVSPropertyOp50
 70
     0
102
RTVSPropertyOp51
 70
     0
102
RTVSPropertyOp52
 70
     0
102
RTVSPropertyOp53
 70
     0
102
RTVSPropertyOp54
 70
     0
102
RTVSPropertyOp55
 70
     0
102
RTVSPropertyOp56
 70
     0
102
RTVSPropertyOp57
 70
     0
102
RTVSPropertyOp58
 70
     0
102
RTVSPropertyOp59
 70
     0
102
RTVSPropertyOp60
 70
     0
102
RTVSPropertyOp61
 70
     0
102
RTVSPropertyOp62
 70
     0
  0
XRECORD
  5
63A
102
{ACAD_REACTORS
330
639
102
}
330
639
100
AcDbXrecord
280
     1
102
RTVSPost2010Prop28
280
     0
102
RTVSPost2010PropOp28
 70
     1
102
RTVSPost2010Prop29
280
     1
102
RTVSPost2010PropOp29
 70
     1
102
RTVSPost2010Prop30
280
     1
102
RTVSPost2010PropOp30
 70
     1
102
RTVSPost2010Prop31
280
     0
102
RTVSPost2010PropOp31
 70
     1
102
RTVSPost2010Prop32
280
     0
102
RTVSPost2010PropOp32
 70
     1
102
RTVSPost2010Prop33
280
     0
102
RTVSPost2010PropOp33
 70
     1
102
RTVSPost2010Prop34
280
     0
102
RTVSPost2010PropOp34
 70
     1
102
RTVSPost2010Prop35
280
     0
102
RTVSPost2010PropOp35
 70
     1
102
RTVSPost2010Prop36
280
     0
102
RTVSPost2010PropOp36
 70
     1
102
RTVSPost2010Prop37
 90
       50
102
RTVSPost2010PropOp37
 70
     1
102
RTVSPost2010Prop38
140
0.0
102
RTVSPost2010PropOp38
 70
     1
102
RTVSPost2010Prop39
140
1.0
102
RTVSPost2010PropOp39
 70
     1
102
RTVSPost2010Prop40
 90
        0
102
RTVSPost2010PropOp40
 70
     1
102
RTVSPost2010Prop41ColorIndex
 90
       18
102
RTVSPost2010Prop41ColorRGB
 90
        0
102
RTVSPost2010PropOp41
 70
     1
102
RTVSPost2010Prop42
 90
       50
102
RTVSPost2010PropOp42
 70
     1
102
RTVSPost2010Prop43
 90
        3
102
RTVSPost2010PropOp43
 70
     1
102
RTVSPost2010Prop44ColorIndex
 90
        5
102
RTVSPost2010Prop44ColorRGB
 90
      255
102
RTVSPost2010PropOp44
 70
     1
102
RTVSPost2010Prop45
280
     0
102
RTVSPost2010PropOp45
 70
     1
102
RTVSPost2010Prop46
 90
       50
102
RTVSPost2010PropOp46
 70
     1
102
RTVSPost2010Prop47
 90
       50
102
RTVSPost2010PropOp47
 70
     1
102
RTVSPost2010Prop48
 90
       50
102
RTVSPost2010PropOp48
 70
     1
102
RTVSPost2010Prop49
280
     0
102
RTVSPost2010PropOp49
 70
     1
102
RTVSPost2010Prop50
 90
       50
102
RTVSPost2010PropOp50
 70
     1
102
RTVSPost2010Prop51ColorIndex
 90
      256
102
RTVSPost2010Prop51ColorRGB
 90
-16777216
102
RTVSPost2010PropOp51
 70
     0
102
RTVSPost2010Prop52
140
1.0
102
RTVSPost2010PropOp52
 70
     0
102
RTVSPost2010Prop53
 90
        2
102
RTVSPost2010PropOp53
 70
     1
102
RTVSPost2010Prop54
  1
strokes_ogs.tif
102
RTVSPost2010PropOp54
 70
     1
102
RTVSPost2010Prop55
280
     0
102
RTVSPost2010PropOp55
 70
     1
102
RTVSPost2010Prop56
140
1.0
102
RTVSPost2010PropOp56
 70
     1
102
RTVSPost2010Prop57
140
1.0
102
RTVSPost2010PropOp57
 70
     1
102
RTVSPropertyOp0
 70
     1
102
RTVSPropertyOp1
 70
     1
102
RTVSPropertyOp2
 70
     1
102
RTVSPropertyOp3
 70
     1
102
RTVSPropertyOp4
 70
     1
102
RTVSPropertyOp5
 70
     1
102
RTVSPropertyOp6
 70
     1
102
RTVSPropertyOp7
 70
     1
102
RTVSPropertyOp8
 70
     1
102
RTVSPropertyOp9
 70
     1
102
RTVSPropertyOp10
 70
     1
102
RTVSPropertyOp11
 70
     1
102
RTVSPropertyOp12
 70
     1
102
RTVSPropertyOp13
 70
     1
102
RTVSPropertyOp14
 70
     1
102
RTVSPropertyOp15
 70
     1
102
RTVSPropertyOp16
 70
     1
102
RTVSPropertyOp17
 70
     1
102
RTVSPropertyOp18
 70
     1
102
RTVSPropertyOp19
 70
     1
102
RTVSPropertyOp20
 70
     1
102
RTVSPropertyOp21
 70
     1
102
RTVSPropertyOp22
 70
     1
102
RTVSPropertyOp23
 70
     1
102
RTVSPropertyOp24
 70
     1
102
RTVSPropertyOp25
 70
     1
102
RTVSPropertyOp26
 70
     1
102
RTVSPropertyOp27
 70
     1
102
RTVSPropertyOp28
 70
     1
102
RTVSPropertyOp29
 70
     1
102
RTVSPropertyOp30
 70
     1
102
RTVSPropertyOp31
 70
     1
102
RTVSPropertyOp32
 70
     1
102
RTVSPropertyOp33
 70
     1
102
RTVSPropertyOp34
 70
     1
102
RTVSPropertyOp35
 70
     1
102
RTVSPropertyOp36
 70
     1
102
RTVSPropertyOp37
 70
     1
102
RTVSPropertyOp38
 70
     1
102
RTVSPropertyOp39
 70
     1
102
RTVSPropertyOp40
 70
     1
102
RTVSPropertyOp41
 70
     1
102
RTVSPropertyOp42
 70
     1
102
RTVSPropertyOp43
 70
     1
102
RTVSPropertyOp44
 70
     1
102
RTVSPropertyOp45
 70
     1
102
RTVSPropertyOp46
 70
     1
102
RTVSPropertyOp47
 70
     1
102
RTVSPropertyOp48
 70
     1
102
RTVSPropertyOp49
 70
     1
102
RTVSPropertyOp50
 70
     1
102
RTVSPropertyOp51
 70
     0
102
RTVSPropertyOp52
 70
     0
102
RTVSPropertyOp53
 70
     1
102
RTVSPropertyOp54
 70
     1
102
RTVSPropertyOp55
 70
     1
102
RTVSPropertyOp56
 70
     1
102
RTVSPropertyOp57
 70
     1
102
RTVSPropertyOp58
 70
     1
102
RTVSPropertyOp59
 70
     1
102
RTVSPropertyOp60
 70
     1
102
RTVSPropertyOp61
 70
     1
102
RTVSPropertyOp62
 70
     1
  0
XRECORD
  5
650
102
{ACAD_REACTORS
330
64F
102
}
330
64F
100
AcDbXrecord
280
     1
102
RTVSPost2010Prop28
280
     0
102
RTVSPost2010PropOp28
 70
     1
102
RTVSPost2010Prop29
280
     1
102
RTVSPost2010PropOp29
 70
     1
102
RTVSPost2010Prop30
280
     1
102
RTVSPost2010PropOp30
 70
     1
102
RTVSPost2010Prop31
280
     0
102
RTVSPost2010PropOp31
 70
     1
102
RTVSPost2010Prop32
280
     0
102
RTVSPost2010PropOp32
 70
     1
102
RTVSPost2010Prop33
280
     0
102
RTVSPost2010PropOp33
 70
     1
102
RTVSPost2010Prop34
280
     0
102
RTVSPost2010PropOp34
 70
     1
102
RTVSPost2010Prop35
280
     0
102
RTVSPost2010PropOp35
 70
     1
102
RTVSPost2010Prop36
280
     0
102
RTVSPost2010PropOp36
 70
     1
102
RTVSPost2010Prop37
 90
       50
102
RTVSPost2010PropOp37
 70
     1
102
RTVSPost2010Prop38
140
0.0
102
RTVSPost2010PropOp38
 70
     1
102
RTVSPost2010Prop39
140
1.0
102
RTVSPost2010PropOp39
 70
     1
102
RTVSPost2010Prop40
 90
        0
102
RTVSPost2010PropOp40
 70
     1
102
RTVSPost2010Prop41ColorIndex
 90
       18
102
RTVSPost2010Prop41ColorRGB
 90
        0
102
RTVSPost2010PropOp41
 70
     1
102
RTVSPost2010Prop42
 90
       50
102
RTVSPost2010PropOp42
 70
     1
102
RTVSPost2010Prop43
 90
        3
102
RTVSPost2010PropOp43
 70
     1
102
RTVSPost2010Prop44ColorIndex
 90
        5
102
RTVSPost2010Prop44ColorRGB
 90
      255
102
RTVSPost2010PropOp44
 70
     1
102
RTVSPost2010Prop45
280
     0
102
RTVSPost2010PropOp45
 70
     1
102
RTVSPost2010Prop46
 90
       50
102
RTVSPost2010PropOp46
 70
     1
102
RTVSPost2010Prop47
 90
       50
102
RTVSPost2010PropOp47
 70
     1
102
RTVSPost2010Prop48
 90
       50
102
RTVSPost2010PropOp48
 70
     1
102
RTVSPost2010Prop49
280
     0
102
RTVSPost2010PropOp49
 70
     1
102
RTVSPost2010Prop50
 90
       50
102
RTVSPost2010PropOp50
 70
     1
102
RTVSPost2010Prop51ColorIndex
 90
      256
102
RTVSPost2010Prop51ColorRGB
 90
-16777216
102
RTVSPost2010PropOp51
 70
     0
102
RTVSPost2010Prop52
140
1.0
102
RTVSPost2010PropOp52
 70
     0
102
RTVSPost2010Prop53
 90
        2
102
RTVSPost2010PropOp53
 70
     1
102
RTVSPost2010Prop54
  1
strokes_ogs.tif
102
RTVSPost2010PropOp54
 70
     1
102
RTVSPost2010Prop55
280
     0
102
RTVSPost2010PropOp55
 70
     1
102
RTVSPost2010Prop56
140
1.0
102
RTVSPost2010PropOp56
 70
     1
102
RTVSPost2010Prop57
140
1.0
102
RTVSPost2010PropOp57
 70
     1
102
RTVSPropertyOp0
 70
     1
102
RTVSPropertyOp1
 70
     1
102
RTVSPropertyOp2
 70
     1
102
RTVSPropertyOp3
 70
     1
102
RTVSPropertyOp4
 70
     1
102
RTVSPropertyOp5
 70
     1
102
RTVSPropertyOp6
 70
     1
102
RTVSPropertyOp7
 70
     1
102
RTVSPropertyOp8
 70
     1
102
RTVSPropertyOp9
 70
     1
102
RTVSPropertyOp10
 70
     1
102
RTVSPropertyOp11
 70
     1
102
RTVSPropertyOp12
 70
     1
102
RTVSPropertyOp13
 70
     1
102
RTVSPropertyOp14
 70
     1
102
RTVSPropertyOp15
 70
     1
102
RTVSPropertyOp16
 70
     1
102
RTVSPropertyOp17
 70
     1
102
RTVSPropertyOp18
 70
     1
102
RTVSPropertyOp19
 70
     1
102
RTVSPropertyOp20
 70
     1
102
RTVSPropertyOp21
 70
     1
102
RTVSPropertyOp22
 70
     1
102
RTVSPropertyOp23
 70
     1
102
RTVSPropertyOp24
 70
     1
102
RTVSPropertyOp25
 70
     1
102
RTVSPropertyOp26
 70
     1
102
RTVSPropertyOp27
 70
     1
102
RTVSPropertyOp28
 70
     1
102
RTVSPropertyOp29
 70
     1
102
RTVSPropertyOp30
 70
     1
102
RTVSPropertyOp31
 70
     1
102
RTVSPropertyOp32
 70
     1
102
RTVSPropertyOp33
 70
     1
102
RTVSPropertyOp34
 70
     1
102
RTVSPropertyOp35
 70
     1
102
RTVSPropertyOp36
 70
     1
102
RTVSPropertyOp37
 70
     1
102
RTVSPropertyOp38
 70
     1
102
RTVSPropertyOp39
 70
     1
102
RTVSPropertyOp40
 70
     1
102
RTVSPropertyOp41
 70
     1
102
RTVSPropertyOp42
 70
     1
102
RTVSPropertyOp43
 70
     1
102
RTVSPropertyOp44
 70
     1
102
RTVSPropertyOp45
 70
     1
102
RTVSPropertyOp46
 70
     1
102
RTVSPropertyOp47
 70
     1
102
RTVSPropertyOp48
 70
     1
102
RTVSPropertyOp49
 70
     1
102
RTVSPropertyOp50
 70
     1
102
RTVSPropertyOp51
 70
     0
102
RTVSPropertyOp52
 70
     0
102
RTVSPropertyOp53
 70
     1
102
RTVSPropertyOp54
 70
     1
102
RTVSPropertyOp55
 70
     1
102
RTVSPropertyOp56
 70
     1
102
RTVSPropertyOp57
 70
     1
102
RTVSPropertyOp58
 70
     1
102
RTVSPropertyOp59
 70
     1
102
RTVSPropertyOp60
 70
     1
102
RTVSPropertyOp61
 70
     1
102
RTVSPropertyOp62
 70
     1
  0
XRECORD
  5
64E
102
{ACAD_REACTORS
330
64D
102
}
330
64D
100
AcDbXrecord
280
     1
102
RTVSPost2010Prop28
280
     0
102
RTVSPost2010PropOp28
 70
     1
102
RTVSPost2010Prop29
280
     1
102
RTVSPost2010PropOp29
 70
     1
102
RTVSPost2010Prop30
280
     1
102
RTVSPost2010PropOp30
 70
     1
102
RTVSPost2010Prop31
280
     0
102
RTVSPost2010PropOp31
 70
     1
102
RTVSPost2010Prop32
280
     0
102
RTVSPost2010PropOp32
 70
     1
102
RTVSPost2010Prop33
280
     0
102
RTVSPost2010PropOp33
 70
     1
102
RTVSPost2010Prop34
280
     0
102
RTVSPost2010PropOp34
 70
     1
102
RTVSPost2010Prop35
280
     0
102
RTVSPost2010PropOp35
 70
     1
102
RTVSPost2010Prop36
280
     0
102
RTVSPost2010PropOp36
 70
     1
102
RTVSPost2010Prop37
 90
       50
102
RTVSPost2010PropOp37
 70
     1
102
RTVSPost2010Prop38
140
0.0
102
RTVSPost2010PropOp38
 70
     1
102
RTVSPost2010Prop39
140
1.0
102
RTVSPost2010PropOp39
 70
     1
102
RTVSPost2010Prop40
 90
        0
102
RTVSPost2010PropOp40
 70
     1
102
RTVSPost2010Prop41ColorIndex
 90
       18
102
RTVSPost2010Prop41ColorRGB
 90
        0
102
RTVSPost2010PropOp41
 70
     1
102
RTVSPost2010Prop42
 90
       50
102
RTVSPost2010PropOp42
 70
     1
102
RTVSPost2010Prop43
 90
        3
102
RTVSPost2010PropOp43
 70
     1
102
RTVSPost2010Prop44ColorIndex
 90
        5
102
RTVSPost2010Prop44ColorRGB
 90
      255
102
RTVSPost2010PropOp44
 70
     1
102
RTVSPost2010Prop45
280
     0
102
RTVSPost2010PropOp45
 70
     1
102
RTVSPost2010Prop46
 90
       50
102
RTVSPost2010PropOp46
 70
     1
102
RTVSPost2010Prop47
 90
       50
102
RTVSPost2010PropOp47
 70
     1
102
RTVSPost2010Prop48
 90
       50
102
RTVSPost2010PropOp48
 70
     1
102
RTVSPost2010Prop49
280
     0
102
RTVSPost2010PropOp49
 70
     1
102
RTVSPost2010Prop50
 90
       50
102
RTVSPost2010PropOp50
 70
     1
102
RTVSPost2010Prop51ColorIndex
 90
      256
102
RTVSPost2010Prop51ColorRGB
 90
-16777216
102
RTVSPost2010PropOp51
 70
     0
102
RTVSPost2010Prop52
140
1.0
102
RTVSPost2010PropOp52
 70
     0
102
RTVSPost2010Prop53
 90
        2
102
RTVSPost2010PropOp53
 70
     1
102
RTVSPost2010Prop54
  1
strokes_ogs.tif
102
RTVSPost2010PropOp54
 70
     1
102
RTVSPost2010Prop55
280
     0
102
RTVSPost2010PropOp55
 70
     1
102
RTVSPost2010Prop56
140
1.0
102
RTVSPost2010PropOp56
 70
     1
102
RTVSPost2010Prop57
140
1.0
102
RTVSPost2010PropOp57
 70
     1
102
RTVSPropertyOp0
 70
     1
102
RTVSPropertyOp1
 70
     1
102
RTVSPropertyOp2
 70
     1
102
RTVSPropertyOp3
 70
     1
102
RTVSPropertyOp4
 70
     1
102
RTVSPropertyOp5
 70
     1
102
RTVSPropertyOp6
 70
     1
102
RTVSPropertyOp7
 70
     1
102
RTVSPropertyOp8
 70
     1
102
RTVSPropertyOp9
 70
     1
102
RTVSPropertyOp10
 70
     1
102
RTVSPropertyOp11
 70
     1
102
RTVSPropertyOp12
 70
     1
102
RTVSPropertyOp13
 70
     1
102
RTVSPropertyOp14
 70
     1
102
RTVSPropertyOp15
 70
     1
102
RTVSPropertyOp16
 70
     1
102
RTVSPropertyOp17
 70
     1
102
RTVSPropertyOp18
 70
     1
102
RTVSPropertyOp19
 70
     1
102
RTVSPropertyOp20
 70
     1
102
RTVSPropertyOp21
 70
     1
102
RTVSPropertyOp22
 70
     1
102
RTVSPropertyOp23
 70
     1
102
RTVSPropertyOp24
 70
     1
102
RTVSPropertyOp25
 70
     1
102
RTVSPropertyOp26
 70
     1
102
RTVSPropertyOp27
 70
     1
102
RTVSPropertyOp28
 70
     1
102
RTVSPropertyOp29
 70
     1
102
RTVSPropertyOp30
 70
     1
102
RTVSPropertyOp31
 70
     1
102
RTVSPropertyOp32
 70
     1
102
RTVSPropertyOp33
 70
     1
102
RTVSPropertyOp34
 70
     1
102
RTVSPropertyOp35
 70
     1
102
RTVSPropertyOp36
 70
     1
102
RTVSPropertyOp37
 70
     1
102
RTVSPropertyOp38
 70
     1
102
RTVSPropertyOp39
 70
     1
102
RTVSPropertyOp40
 70
     1
102
RTVSPropertyOp41
 70
     1
102
RTVSPropertyOp42
 70
     1
102
RTVSPropertyOp43
 70
     1
102
RTVSPropertyOp44
 70
     1
102
RTVSPropertyOp45
 70
     1
102
RTVSPropertyOp46
 70
     1
102
RTVSPropertyOp47
 70
     1
102
RTVSPropertyOp48
 70
     1
102
RTVSPropertyOp49
 70
     1
102
RTVSPropertyOp50
 70
     1
102
RTVSPropertyOp51
 70
     0
102
RTVSPropertyOp52
 70
     0
102
RTVSPropertyOp53
 70
     1
102
RTVSPropertyOp54
 70
     1
102
RTVSPropertyOp55
 70
     1
102
RTVSPropertyOp56
 70
     1
102
RTVSPropertyOp57
 70
     1
102
RTVSPropertyOp58
 70
     1
102
RTVSPropertyOp59
 70
     1
102
RTVSPropertyOp60
 70
     1
102
RTVSPropertyOp61
 70
     1
102
RTVSPropertyOp62
 70
     1
  0
XRECORD
  5
648
102
{ACAD_REACTORS
330
647
102
}
330
647
100
AcDbXrecord
280
     1
102
RTVSPost2010Prop28
280
     0
102
RTVSPost2010PropOp28
 70
     1
102
RTVSPost2010Prop29
280
     1
102
RTVSPost2010PropOp29
 70
     1
102
RTVSPost2010Prop30
280
     1
102
RTVSPost2010PropOp30
 70
     1
102
RTVSPost2010Prop31
280
     0
102
RTVSPost2010PropOp31
 70
     1
102
RTVSPost2010Prop32
280
     0
102
RTVSPost2010PropOp32
 70
     1
102
RTVSPost2010Prop33
280
     0
102
RTVSPost2010PropOp33
 70
     1
102
RTVSPost2010Prop34
280
     0
102
RTVSPost2010PropOp34
 70
     1
102
RTVSPost2010Prop35
280
     0
102
RTVSPost2010PropOp35
 70
     1
102
RTVSPost2010Prop36
280
     0
102
RTVSPost2010PropOp36
 70
     1
102
RTVSPost2010Prop37
 90
       50
102
RTVSPost2010PropOp37
 70
     1
102
RTVSPost2010Prop38
140
0.0
102
RTVSPost2010PropOp38
 70
     1
102
RTVSPost2010Prop39
140
1.0
102
RTVSPost2010PropOp39
 70
     1
102
RTVSPost2010Prop40
 90
        0
102
RTVSPost2010PropOp40
 70
     1
102
RTVSPost2010Prop41ColorIndex
 90
       18
102
RTVSPost2010Prop41ColorRGB
 90
        0
102
RTVSPost2010PropOp41
 70
     1
102
RTVSPost2010Prop42
 90
       50
102
RTVSPost2010PropOp42
 70
     1
102
RTVSPost2010Prop43
 90
        3
102
RTVSPost2010PropOp43
 70
     1
102
RTVSPost2010Prop44ColorIndex
 90
        5
102
RTVSPost2010Prop44ColorRGB
 90
      255
102
RTVSPost2010PropOp44
 70
     1
102
RTVSPost2010Prop45
280
     0
102
RTVSPost2010PropOp45
 70
     1
102
RTVSPost2010Prop46
 90
       50
102
RTVSPost2010PropOp46
 70
     1
102
RTVSPost2010Prop47
 90
       50
102
RTVSPost2010PropOp47
 70
     1
102
RTVSPost2010Prop48
 90
       50
102
RTVSPost2010PropOp48
 70
     1
102
RTVSPost2010Prop49
280
     0
102
RTVSPost2010PropOp49
 70
     1
102
RTVSPost2010Prop50
 90
       50
102
RTVSPost2010PropOp50
 70
     1
102
RTVSPost2010Prop51ColorIndex
 90
      256
102
RTVSPost2010Prop51ColorRGB
 90
-16777216
102
RTVSPost2010PropOp51
 70
     0
102
RTVSPost2010Prop52
140
1.0
102
RTVSPost2010PropOp52
 70
     0
102
RTVSPost2010Prop53
 90
        2
102
RTVSPost2010PropOp53
 70
     1
102
RTVSPost2010Prop54
  1
strokes_ogs.tif
102
RTVSPost2010PropOp54
 70
     1
102
RTVSPost2010Prop55
280
     0
102
RTVSPost2010PropOp55
 70
     1
102
RTVSPost2010Prop56
140
1.0
102
RTVSPost2010PropOp56
 70
     1
102
RTVSPost2010Prop57
140
1.0
102
RTVSPost2010PropOp57
 70
     1
102
RTVSPropertyOp0
 70
     1
102
RTVSPropertyOp1
 70
     1
102
RTVSPropertyOp2
 70
     1
102
RTVSPropertyOp3
 70
     1
102
RTVSPropertyOp4
 70
     1
102
RTVSPropertyOp5
 70
     1
102
RTVSPropertyOp6
 70
     1
102
RTVSPropertyOp7
 70
     1
102
RTVSPropertyOp8
 70
     1
102
RTVSPropertyOp9
 70
     1
102
RTVSPropertyOp10
 70
     1
102
RTVSPropertyOp11
 70
     1
102
RTVSPropertyOp12
 70
     1
102
RTVSPropertyOp13
 70
     1
102
RTVSPropertyOp14
 70
     1
102
RTVSPropertyOp15
 70
     1
102
RTVSPropertyOp16
 70
     1
102
RTVSPropertyOp17
 70
     1
102
RTVSPropertyOp18
 70
     1
102
RTVSPropertyOp19
 70
     1
102
RTVSPropertyOp20
 70
     1
102
RTVSPropertyOp21
 70
     1
102
RTVSPropertyOp22
 70
     1
102
RTVSPropertyOp23
 70
     1
102
RTVSPropertyOp24
 70
     1
102
RTVSPropertyOp25
 70
     1
102
RTVSPropertyOp26
 70
     1
102
RTVSPropertyOp27
 70
     1
102
RTVSPropertyOp28
 70
     1
102
RTVSPropertyOp29
 70
     1
102
RTVSPropertyOp30
 70
     1
102
RTVSPropertyOp31
 70
     1
102
RTVSPropertyOp32
 70
     1
102
RTVSPropertyOp33
 70
     1
102
RTVSPropertyOp34
 70
     1
102
RTVSPropertyOp35
 70
     1
102
RTVSPropertyOp36
 70
     1
102
RTVSPropertyOp37
 70
     1
102
RTVSPropertyOp38
 70
     1
102
RTVSPropertyOp39
 70
     1
102
RTVSPropertyOp40
 70
     1
102
RTVSPropertyOp41
 70
     1
102
RTVSPropertyOp42
 70
     1
102
RTVSPropertyOp43
 70
     1
102
RTVSPropertyOp44
 70
     1
102
RTVSPropertyOp45
 70
     1
102
RTVSPropertyOp46
 70
     1
102
RTVSPropertyOp47
 70
     1
102
RTVSPropertyOp48
 70
     1
102
RTVSPropertyOp49
 70
     1
102
RTVSPropertyOp50
 70
     1
102
RTVSPropertyOp51
 70
     0
102
RTVSPropertyOp52
 70
     0
102
RTVSPropertyOp53
 70
     1
102
RTVSPropertyOp54
 70
     1
102
RTVSPropertyOp55
 70
     1
102
RTVSPropertyOp56
 70
     1
102
RTVSPropertyOp57
 70
     1
102
RTVSPropertyOp58
 70
     1
102
RTVSPropertyOp59
 70
     1
102
RTVSPropertyOp60
 70
     1
102
RTVSPropertyOp61
 70
     1
102
RTVSPropertyOp62
 70
     1
  0
XRECORD
  5
64A
102
{ACAD_REACTORS
330
649
102
}
330
649
100
AcDbXrecord
280
     1
102
RTVSPost2010Prop28
280
     0
102
RTVSPost2010PropOp28
 70
     1
102
RTVSPost2010Prop29
280
     1
102
RTVSPost2010PropOp29
 70
     1
102
RTVSPost2010Prop30
280
     1
102
RTVSPost2010PropOp30
 70
     1
102
RTVSPost2010Prop31
280
     0
102
RTVSPost2010PropOp31
 70
     1
102
RTVSPost2010Prop32
280
     0
102
RTVSPost2010PropOp32
 70
     1
102
RTVSPost2010Prop33
280
     0
102
RTVSPost2010PropOp33
 70
     1
102
RTVSPost2010Prop34
280
     0
102
RTVSPost2010PropOp34
 70
     1
102
RTVSPost2010Prop35
280
     0
102
RTVSPost2010PropOp35
 70
     1
102
RTVSPost2010Prop36
280
     0
102
RTVSPost2010PropOp36
 70
     1
102
RTVSPost2010Prop37
 90
       50
102
RTVSPost2010PropOp37
 70
     1
102
RTVSPost2010Prop38
140
0.0
102
RTVSPost2010PropOp38
 70
     1
102
RTVSPost2010Prop39
140
1.0
102
RTVSPost2010PropOp39
 70
     1
102
RTVSPost2010Prop40
 90
        0
102
RTVSPost2010PropOp40
 70
     1
102
RTVSPost2010Prop41ColorIndex
 90
       18
102
RTVSPost2010Prop41ColorRGB
 90
        0
102
RTVSPost2010PropOp41
 70
     1
102
RTVSPost2010Prop42
 90
       50
102
RTVSPost2010PropOp42
 70
     1
102
RTVSPost2010Prop43
 90
        3
102
RTVSPost2010PropOp43
 70
     1
102
RTVSPost2010Prop44ColorIndex
 90
        5
102
RTVSPost2010Prop44ColorRGB
 90
      255
102
RTVSPost2010PropOp44
 70
     1
102
RTVSPost2010Prop45
280
     0
102
RTVSPost2010PropOp45
 70
     1
102
RTVSPost2010Prop46
 90
       50
102
RTVSPost2010PropOp46
 70
     1
102
RTVSPost2010Prop47
 90
       50
102
RTVSPost2010PropOp47
 70
     1
102
RTVSPost2010Prop48
 90
       50
102
RTVSPost2010PropOp48
 70
     1
102
RTVSPost2010Prop49
280
     0
102
RTVSPost2010PropOp49
 70
     1
102
RTVSPost2010Prop50
 90
       50
102
RTVSPost2010PropOp50
 70
     1
102
RTVSPost2010Prop51ColorIndex
 90
      256
102
RTVSPost2010Prop51ColorRGB
 90
-16777216
102
RTVSPost2010PropOp51
 70
     0
102
RTVSPost2010Prop52
140
1.0
102
RTVSPost2010PropOp52
 70
     0
102
RTVSPost2010Prop53
 90
        2
102
RTVSPost2010PropOp53
 70
     1
102
RTVSPost2010Prop54
  1
strokes_ogs.tif
102
RTVSPost2010PropOp54
 70
     1
102
RTVSPost2010Prop55
280
     0
102
RTVSPost2010PropOp55
 70
     1
102
RTVSPost2010Prop56
140
1.0
102
RTVSPost2010PropOp56
 70
     1
102
RTVSPost2010Prop57
140
1.0
102
RTVSPost2010PropOp57
 70
     1
102
RTVSPropertyOp0
 70
     1
102
RTVSPropertyOp1
 70
     1
102
RTVSPropertyOp2
 70
     1
102
RTVSPropertyOp3
 70
     1
102
RTVSPropertyOp4
 70
     1
102
RTVSPropertyOp5
 70
     1
102
RTVSPropertyOp6
 70
     1
102
RTVSPropertyOp7
 70
     1
102
RTVSPropertyOp8
 70
     1
102
RTVSPropertyOp9
 70
     1
102
RTVSPropertyOp10
 70
     1
102
RTVSPropertyOp11
 70
     1
102
RTVSPropertyOp12
 70
     1
102
RTVSPropertyOp13
 70
     1
102
RTVSPropertyOp14
 70
     1
102
RTVSPropertyOp15
 70
     1
102
RTVSPropertyOp16
 70
     1
102
RTVSPropertyOp17
 70
     1
102
RTVSPropertyOp18
 70
     1
102
RTVSPropertyOp19
 70
     1
102
RTVSPropertyOp20
 70
     1
102
RTVSPropertyOp21
 70
     1
102
RTVSPropertyOp22
 70
     1
102
RTVSPropertyOp23
 70
     1
102
RTVSPropertyOp24
 70
     1
102
RTVSPropertyOp25
 70
     1
102
RTVSPropertyOp26
 70
     1
102
RTVSPropertyOp27
 70
     1
102
RTVSPropertyOp28
 70
     1
102
RTVSPropertyOp29
 70
     1
102
RTVSPropertyOp30
 70
     1
102
RTVSPropertyOp31
 70
     1
102
RTVSPropertyOp32
 70
     1
102
RTVSPropertyOp33
 70
     1
102
RTVSPropertyOp34
 70
     1
102
RTVSPropertyOp35
 70
     1
102
RTVSPropertyOp36
 70
     1
102
RTVSPropertyOp37
 70
     1
102
RTVSPropertyOp38
 70
     1
102
RTVSPropertyOp39
 70
     1
102
RTVSPropertyOp40
 70
     1
102
RTVSPropertyOp41
 70
     1
102
RTVSPropertyOp42
 70
     1
102
RTVSPropertyOp43
 70
     1
102
RTVSPropertyOp44
 70
     1
102
RTVSPropertyOp45
 70
     1
102
RTVSPropertyOp46
 70
     1
102
RTVSPropertyOp47
 70
     1
102
RTVSPropertyOp48
 70
     1
102
RTVSPropertyOp49
 70
     1
102
RTVSPropertyOp50
 70
     1
102
RTVSPropertyOp51
 70
     0
102
RTVSPropertyOp52
 70
     0
102
RTVSPropertyOp53
 70
     1
102
RTVSPropertyOp54
 70
     1
102
RTVSPropertyOp55
 70
     1
102
RTVSPropertyOp56
 70
     1
102
RTVSPropertyOp57
 70
     1
102
RTVSPropertyOp58
 70
     1
102
RTVSPropertyOp59
 70
     1
102
RTVSPropertyOp60
 70
     1
102
RTVSPropertyOp61
 70
     1
102
RTVSPropertyOp62
 70
     1
  0
XRECORD
  5
640
102
{ACAD_REACTORS
330
63F
102
}
330
63F
100
AcDbXrecord
280
     1
102
RTVSPost2010Prop28
280
     0
102
RTVSPost2010PropOp28
 70
     1
102
RTVSPost2010Prop29
280
     1
102
RTVSPost2010PropOp29
 70
     1
102
RTVSPost2010Prop30
280
     1
102
RTVSPost2010PropOp30
 70
     1
102
RTVSPost2010Prop31
280
     0
102
RTVSPost2010PropOp31
 70
     1
102
RTVSPost2010Prop32
280
     0
102
RTVSPost2010PropOp32
 70
     1
102
RTVSPost2010Prop33
280
     0
102
RTVSPost2010PropOp33
 70
     1
102
RTVSPost2010Prop34
280
     0
102
RTVSPost2010PropOp34
 70
     1
102
RTVSPost2010Prop35
280
     0
102
RTVSPost2010PropOp35
 70
     1
102
RTVSPost2010Prop36
280
     0
102
RTVSPost2010PropOp36
 70
     1
102
RTVSPost2010Prop37
 90
       50
102
RTVSPost2010PropOp37
 70
     1
102
RTVSPost2010Prop38
140
0.0
102
RTVSPost2010PropOp38
 70
     1
102
RTVSPost2010Prop39
140
1.0
102
RTVSPost2010PropOp39
 70
     1
102
RTVSPost2010Prop40
 90
        0
102
RTVSPost2010PropOp40
 70
     1
102
RTVSPost2010Prop41ColorIndex
 90
       18
102
RTVSPost2010Prop41ColorRGB
 90
        0
102
RTVSPost2010PropOp41
 70
     1
102
RTVSPost2010Prop42
 90
       50
102
RTVSPost2010PropOp42
 70
     1
102
RTVSPost2010Prop43
 90
        3
102
RTVSPost2010PropOp43
 70
     1
102
RTVSPost2010Prop44ColorIndex
 90
        5
102
RTVSPost2010Prop44ColorRGB
 90
      255
102
RTVSPost2010PropOp44
 70
     1
102
RTVSPost2010Prop45
280
     0
102
RTVSPost2010PropOp45
 70
     1
102
RTVSPost2010Prop46
 90
       50
102
RTVSPost2010PropOp46
 70
     1
102
RTVSPost2010Prop47
 90
       50
102
RTVSPost2010PropOp47
 70
     1
102
RTVSPost2010Prop48
 90
       50
102
RTVSPost2010PropOp48
 70
     1
102
RTVSPost2010Prop49
280
     0
102
RTVSPost2010PropOp49
 70
     1
102
RTVSPost2010Prop50
 90
       50
102
RTVSPost2010PropOp50
 70
     1
102
RTVSPost2010Prop51ColorIndex
 90
      256
102
RTVSPost2010Prop51ColorRGB
 90
-16777216
102
RTVSPost2010PropOp51
 70
     0
102
RTVSPost2010Prop52
140
1.0
102
RTVSPost2010PropOp52
 70
     0
102
RTVSPost2010Prop53
 90
        2
102
RTVSPost2010PropOp53
 70
     1
102
RTVSPost2010Prop54
  1
strokes_ogs.tif
102
RTVSPost2010PropOp54
 70
     1
102
RTVSPost2010Prop55
280
     0
102
RTVSPost2010PropOp55
 70
     1
102
RTVSPost2010Prop56
140
1.0
102
RTVSPost2010PropOp56
 70
     1
102
RTVSPost2010Prop57
140
1.0
102
RTVSPost2010PropOp57
 70
     1
102
RTVSPropertyOp0
 70
     1
102
RTVSPropertyOp1
 70
     1
102
RTVSPropertyOp2
 70
     1
102
RTVSPropertyOp3
 70
     1
102
RTVSPropertyOp4
 70
     1
102
RTVSPropertyOp5
 70
     1
102
RTVSPropertyOp6
 70
     1
102
RTVSPropertyOp7
 70
     1
102
RTVSPropertyOp8
 70
     1
102
RTVSPropertyOp9
 70
     1
102
RTVSPropertyOp10
 70
     1
102
RTVSPropertyOp11
 70
     1
102
RTVSPropertyOp12
 70
     1
102
RTVSPropertyOp13
 70
     1
102
RTVSPropertyOp14
 70
     1
102
RTVSPropertyOp15
 70
     1
102
RTVSPropertyOp16
 70
     1
102
RTVSPropertyOp17
 70
     1
102
RTVSPropertyOp18
 70
     1
102
RTVSPropertyOp19
 70
     1
102
RTVSPropertyOp20
 70
     1
102
RTVSPropertyOp21
 70
     1
102
RTVSPropertyOp22
 70
     1
102
RTVSPropertyOp23
 70
     1
102
RTVSPropertyOp24
 70
     1
102
RTVSPropertyOp25
 70
     1
102
RTVSPropertyOp26
 70
     1
102
RTVSPropertyOp27
 70
     1
102
RTVSPropertyOp28
 70
     1
102
RTVSPropertyOp29
 70
     1
102
RTVSPropertyOp30
 70
     1
102
RTVSPropertyOp31
 70
     1
102
RTVSPropertyOp32
 70
     1
102
RTVSPropertyOp33
 70
     1
102
RTVSPropertyOp34
 70
     1
102
RTVSPropertyOp35
 70
     1
102
RTVSPropertyOp36
 70
     1
102
RTVSPropertyOp37
 70
     1
102
RTVSPropertyOp38
 70
     1
102
RTVSPropertyOp39
 70
     1
102
RTVSPropertyOp40
 70
     1
102
RTVSPropertyOp41
 70
     1
102
RTVSPropertyOp42
 70
     1
102
RTVSPropertyOp43
 70
     1
102
RTVSPropertyOp44
 70
     1
102
RTVSPropertyOp45
 70
     1
102
RTVSPropertyOp46
 70
     1
102
RTVSPropertyOp47
 70
     1
102
RTVSPropertyOp48
 70
     1
102
RTVSPropertyOp49
 70
     1
102
RTVSPropertyOp50
 70
     1
102
RTVSPropertyOp51
 70
     0
102
RTVSPropertyOp52
 70
     0
102
RTVSPropertyOp53
 70
     1
102
RTVSPropertyOp54
 70
     1
102
RTVSPropertyOp55
 70
     1
102
RTVSPropertyOp56
 70
     1
102
RTVSPropertyOp57
 70
     1
102
RTVSPropertyOp58
 70
     1
102
RTVSPropertyOp59
 70
     1
102
RTVSPropertyOp60
 70
     1
102
RTVSPropertyOp61
 70
     1
102
RTVSPropertyOp62
 70
     1
  0
XRECORD
  5
634
102
{ACAD_REACTORS
330
633
102
}
330
633
100
AcDbXrecord
280
     1
102
RTVSPost2010Prop28
280
     0
102
RTVSPost2010PropOp28
 70
     1
102
RTVSPost2010Prop29
280
     1
102
RTVSPost2010PropOp29
 70
     1
102
RTVSPost2010Prop30
280
     1
102
RTVSPost2010PropOp30
 70
     1
102
RTVSPost2010Prop31
280
     0
102
RTVSPost2010PropOp31
 70
     1
102
RTVSPost2010Prop32
280
     0
102
RTVSPost2010PropOp32
 70
     1
102
RTVSPost2010Prop33
280
     0
102
RTVSPost2010PropOp33
 70
     1
102
RTVSPost2010Prop34
280
     0
102
RTVSPost2010PropOp34
 70
     1
102
RTVSPost2010Prop35
280
     0
102
RTVSPost2010PropOp35
 70
     1
102
RTVSPost2010Prop36
280
     0
102
RTVSPost2010PropOp36
 70
     1
102
RTVSPost2010Prop37
 90
       50
102
RTVSPost2010PropOp37
 70
     1
102
RTVSPost2010Prop38
140
0.0
102
RTVSPost2010PropOp38
 70
     1
102
RTVSPost2010Prop39
140
1.0
102
RTVSPost2010PropOp39
 70
     1
102
RTVSPost2010Prop40
 90
        0
102
RTVSPost2010PropOp40
 70
     1
102
RTVSPost2010Prop41ColorIndex
 90
       18
102
RTVSPost2010Prop41ColorRGB
 90
        0
102
RTVSPost2010PropOp41
 70
     1
102
RTVSPost2010Prop42
 90
       50
102
RTVSPost2010PropOp42
 70
     1
102
RTVSPost2010Prop43
 90
        3
102
RTVSPost2010PropOp43
 70
     1
102
RTVSPost2010Prop44ColorIndex
 90
        5
102
RTVSPost2010Prop44ColorRGB
 90
      255
102
RTVSPost2010PropOp44
 70
     1
102
RTVSPost2010Prop45
280
     0
102
RTVSPost2010PropOp45
 70
     1
102
RTVSPost2010Prop46
 90
       50
102
RTVSPost2010PropOp46
 70
     1
102
RTVSPost2010Prop47
 90
       50
102
RTVSPost2010PropOp47
 70
     1
102
RTVSPost2010Prop48
 90
       50
102
RTVSPost2010PropOp48
 70
     1
102
RTVSPost2010Prop49
280
     0
102
RTVSPost2010PropOp49
 70
     1
102
RTVSPost2010Prop50
 90
       50
102
RTVSPost2010PropOp50
 70
     1
102
RTVSPost2010Prop51ColorIndex
 90
      256
102
RTVSPost2010Prop51ColorRGB
 90
-16777216
102
RTVSPost2010PropOp51
 70
     0
102
RTVSPost2010Prop52
140
1.0
102
RTVSPost2010PropOp52
 70
     0
102
RTVSPost2010Prop53
 90
        2
102
RTVSPost2010PropOp53
 70
     1
102
RTVSPost2010Prop54
  1
strokes_ogs.tif
102
RTVSPost2010PropOp54
 70
     1
102
RTVSPost2010Prop55
280
     0
102
RTVSPost2010PropOp55
 70
     1
102
RTVSPost2010Prop56
140
1.0
102
RTVSPost2010PropOp56
 70
     1
102
RTVSPost2010Prop57
140
1.0
102
RTVSPost2010PropOp57
 70
     1
102
RTVSPropertyOp0
 70
     1
102
RTVSPropertyOp1
 70
     1
102
RTVSPropertyOp2
 70
     1
102
RTVSPropertyOp3
 70
     1
102
RTVSPropertyOp4
 70
     1
102
RTVSPropertyOp5
 70
     1
102
RTVSPropertyOp6
 70
     1
102
RTVSPropertyOp7
 70
     1
102
RTVSPropertyOp8
 70
     1
102
RTVSPropertyOp9
 70
     1
102
RTVSPropertyOp10
 70
     1
102
RTVSPropertyOp11
 70
     1
102
RTVSPropertyOp12
 70
     1
102
RTVSPropertyOp13
 70
     1
102
RTVSPropertyOp14
 70
     1
102
RTVSPropertyOp15
 70
     1
102
RTVSPropertyOp16
 70
     1
102
RTVSPropertyOp17
 70
     1
102
RTVSPropertyOp18
 70
     1
102
RTVSPropertyOp19
 70
     1
102
RTVSPropertyOp20
 70
     1
102
RTVSPropertyOp21
 70
     1
102
RTVSPropertyOp22
 70
     1
102
RTVSPropertyOp23
 70
     1
102
RTVSPropertyOp24
 70
     1
102
RTVSPropertyOp25
 70
     1
102
RTVSPropertyOp26
 70
     1
102
RTVSPropertyOp27
 70
     1
102
RTVSPropertyOp28
 70
     1
102
RTVSPropertyOp29
 70
     1
102
RTVSPropertyOp30
 70
     1
102
RTVSPropertyOp31
 70
     1
102
RTVSPropertyOp32
 70
     1
102
RTVSPropertyOp33
 70
     1
102
RTVSPropertyOp34
 70
     1
102
RTVSPropertyOp35
 70
     1
102
RTVSPropertyOp36
 70
     1
102
RTVSPropertyOp37
 70
     1
102
RTVSPropertyOp38
 70
     1
102
RTVSPropertyOp39
 70
     1
102
RTVSPropertyOp40
 70
     1
102
RTVSPropertyOp41
 70
     1
102
RTVSPropertyOp42
 70
     1
102
RTVSPropertyOp43
 70
     1
102
RTVSPropertyOp44
 70
     1
102
RTVSPropertyOp45
 70
     1
102
RTVSPropertyOp46
 70
     1
102
RTVSPropertyOp47
 70
     1
102
RTVSPropertyOp48
 70
     1
102
RTVSPropertyOp49
 70
     1
102
RTVSPropertyOp50
 70
     1
102
RTVSPropertyOp51
 70
     0
102
RTVSPropertyOp52
 70
     0
102
RTVSPropertyOp53
 70
     1
102
RTVSPropertyOp54
 70
     1
102
RTVSPropertyOp55
 70
     1
102
RTVSPropertyOp56
 70
     1
102
RTVSPropertyOp57
 70
     1
102
RTVSPropertyOp58
 70
     1
102
RTVSPropertyOp59
 70
     1
102
RTVSPropertyOp60
 70
     1
102
RTVSPropertyOp61
 70
     1
102
RTVSPropertyOp62
 70
     1
  0
XRECORD
  5
64C
102
{ACAD_REACTORS
330
64B
102
}
330
64B
100
AcDbXrecord
280
     1
102
RTVSPost2010Prop28
280
     0
102
RTVSPost2010PropOp28
 70
     1
102
RTVSPost2010Prop29
280
     1
102
RTVSPost2010PropOp29
 70
     1
102
RTVSPost2010Prop30
280
     1
102
RTVSPost2010PropOp30
 70
     1
102
RTVSPost2010Prop31
280
     0
102
RTVSPost2010PropOp31
 70
     1
102
RTVSPost2010Prop32
280
     0
102
RTVSPost2010PropOp32
 70
     1
102
RTVSPost2010Prop33
280
     0
102
RTVSPost2010PropOp33
 70
     1
102
RTVSPost2010Prop34
280
     0
102
RTVSPost2010PropOp34
 70
     1
102
RTVSPost2010Prop35
280
     0
102
RTVSPost2010PropOp35
 70
     1
102
RTVSPost2010Prop36
280
     0
102
RTVSPost2010PropOp36
 70
     1
102
RTVSPost2010Prop37
 90
       50
102
RTVSPost2010PropOp37
 70
     1
102
RTVSPost2010Prop38
140
0.0
102
RTVSPost2010PropOp38
 70
     1
102
RTVSPost2010Prop39
140
1.0
102
RTVSPost2010PropOp39
 70
     1
102
RTVSPost2010Prop40
 90
        0
102
RTVSPost2010PropOp40
 70
     1
102
RTVSPost2010Prop41ColorIndex
 90
       18
102
RTVSPost2010Prop41ColorRGB
 90
        0
102
RTVSPost2010PropOp41
 70
     1
102
RTVSPost2010Prop42
 90
       50
102
RTVSPost2010PropOp42
 70
     1
102
RTVSPost2010Prop43
 90
        3
102
RTVSPost2010PropOp43
 70
     1
102
RTVSPost2010Prop44ColorIndex
 90
        5
102
RTVSPost2010Prop44ColorRGB
 90
      255
102
RTVSPost2010PropOp44
 70
     1
102
RTVSPost2010Prop45
280
     0
102
RTVSPost2010PropOp45
 70
     1
102
RTVSPost2010Prop46
 90
       50
102
RTVSPost2010PropOp46
 70
     1
102
RTVSPost2010Prop47
 90
       50
102
RTVSPost2010PropOp47
 70
     1
102
RTVSPost2010Prop48
 90
       50
102
RTVSPost2010PropOp48
 70
     1
102
RTVSPost2010Prop49
280
     0
102
RTVSPost2010PropOp49
 70
     1
102
RTVSPost2010Prop50
 90
       50
102
RTVSPost2010PropOp50
 70
     1
102
RTVSPost2010Prop51ColorIndex
 90
      256
102
RTVSPost2010Prop51ColorRGB
 90
-16777216
102
RTVSPost2010PropOp51
 70
     0
102
RTVSPost2010Prop52
140
1.0
102
RTVSPost2010PropOp52
 70
     0
102
RTVSPost2010Prop53
 90
        2
102
RTVSPost2010PropOp53
 70
     1
102
RTVSPost2010Prop54
  1
strokes_ogs.tif
102
RTVSPost2010PropOp54
 70
     1
102
RTVSPost2010Prop55
280
     0
102
RTVSPost2010PropOp55
 70
     1
102
RTVSPost2010Prop56
140
1.0
102
RTVSPost2010PropOp56
 70
     1
102
RTVSPost2010Prop57
140
1.0
102
RTVSPost2010PropOp57
 70
     1
102
RTVSPropertyOp0
 70
     1
102
RTVSPropertyOp1
 70
     1
102
RTVSPropertyOp2
 70
     1
102
RTVSPropertyOp3
 70
     1
102
RTVSPropertyOp4
 70
     1
102
RTVSPropertyOp5
 70
     1
102
RTVSPropertyOp6
 70
     1
102
RTVSPropertyOp7
 70
     1
102
RTVSPropertyOp8
 70
     1
102
RTVSPropertyOp9
 70
     1
102
RTVSPropertyOp10
 70
     1
102
RTVSPropertyOp11
 70
     1
102
RTVSPropertyOp12
 70
     1
102
RTVSPropertyOp13
 70
     1
102
RTVSPropertyOp14
 70
     1
102
RTVSPropertyOp15
 70
     1
102
RTVSPropertyOp16
 70
     1
102
RTVSPropertyOp17
 70
     1
102
RTVSPropertyOp18
 70
     1
102
RTVSPropertyOp19
 70
     1
102
RTVSPropertyOp20
 70
     1
102
RTVSPropertyOp21
 70
     1
102
RTVSPropertyOp22
 70
     1
102
RTVSPropertyOp23
 70
     1
102
RTVSPropertyOp24
 70
     1
102
RTVSPropertyOp25
 70
     1
102
RTVSPropertyOp26
 70
     1
102
RTVSPropertyOp27
 70
     1
102
RTVSPropertyOp28
 70
     1
102
RTVSPropertyOp29
 70
     1
102
RTVSPropertyOp30
 70
     1
102
RTVSPropertyOp31
 70
     1
102
RTVSPropertyOp32
 70
     1
102
RTVSPropertyOp33
 70
     1
102
RTVSPropertyOp34
 70
     1
102
RTVSPropertyOp35
 70
     1
102
RTVSPropertyOp36
 70
     1
102
RTVSPropertyOp37
 70
     1
102
RTVSPropertyOp38
 70
     1
102
RTVSPropertyOp39
 70
     1
102
RTVSPropertyOp40
 70
     1
102
RTVSPropertyOp41
 70
     1
102
RTVSPropertyOp42
 70
     1
102
RTVSPropertyOp43
 70
     1
102
RTVSPropertyOp44
 70
     1
102
RTVSPropertyOp45
 70
     1
102
RTVSPropertyOp46
 70
     1
102
RTVSPropertyOp47
 70
     1
102
RTVSPropertyOp48
 70
     1
102
RTVSPropertyOp49
 70
     1
102
RTVSPropertyOp50
 70
     1
102
RTVSPropertyOp51
 70
     0
102
RTVSPropertyOp52
 70
     0
102
RTVSPropertyOp53
 70
     1
102
RTVSPropertyOp54
 70
     1
102
RTVSPropertyOp55
 70
     1
102
RTVSPropertyOp56
 70
     1
102
RTVSPropertyOp57
 70
     1
102
RTVSPropertyOp58
 70
     1
102
RTVSPropertyOp59
 70
     1
102
RTVSPropertyOp60
 70
     1
102
RTVSPropertyOp61
 70
     1
102
RTVSPropertyOp62
 70
     1
  0
ENDSEC
  0
EOF
