  0
SECTION
  2
HEADER
  9
$ACADVER
  1
AC1018
  9
$ACADMAINTVER
 70
   104
  9
$DWGCODEPAGE
  3
ANSI_932
  9
$INSBASE
 10
0.0
 20
0.0
 30
0.0
  9
$EXTMIN
 10
-0.45286792
 20
-0.32020964
 30
-0.00000005
  9
$EXTMAX
 10
29700.45328285
 20
21000.32050303
 30
0.0000001
  9
$LIMMIN
 10
0.0
 20
0.0
  9
$LIMMAX
 10
420.0
 20
297.0
  9
$ORTHOMODE
 70
     1
  9
$REGENMODE
 70
     1
  9
$FILLMODE
 70
     1
  9
$QTEXTMODE
 70
     0
  9
$MIRRTEXT
 70
     0
  9
$LTSCALE
 40
1.0
  9
$ATTMODE
 70
     1
  9
$TEXTSIZE
 40
3.5
  9
$TRACEWID
 40
1.0
  9
$TEXTSTYLE
  7
STANDARD
  9
$CLAYER
  8
0
  9
$CELTYPE
  6
BYLAYER
  9
$CECOLOR
 62
   256
  9
$CELTSCALE
 40
1.0
  9
$DISPSILH
 70
     1
  9
$DIMSCALE
 40
1.0
  9
$DIMASZ
 40
2.5
  9
$DIMEXO
 40
0.625
  9
$DIMDLI
 40
3.75
  9
$DIMRND
 40
0.0
  9
$DIMDLE
 40
0.0
  9
$DIMEXE
 40
1.25
  9
$DIMTP
 40
0.0
  9
$DIMTM
 40
0.0
  9
$DIMTXT
 40
2.5
  9
$DIMCEN
 40
2.5
  9
$DIMTSZ
 40
0.0
  9
$DIMTOL
 70
     0
  9
$DIMLIM
 70
     0
  9
$DIMTIH
 70
     1
  9
$DIMTOH
 70
     0
  9
$DIMSE1
 70
     0
  9
$DIMSE2
 70
     0
  9
$DIMTAD
 70
     1
  9
$DIMZIN
 70
     0
  9
$DIMBLK
  1

  9
$DIMASO
 70
     1
  9
$DIMSHO
 70
     1
  9
$DIMPOST
  1

  9
$DIMAPOST
  1

  9
$DIMALT
 70
     0
  9
$DIMALTD
 70
     2
  9
$DIMALTF
 40
0.0394
  9
$DIMLFAC
 40
1.0
  9
$DIMTOFL
 70
     1
  9
$DIMTVP
 40
1.0
  9
$DIMTIX
 70
     0
  9
$DIMSOXD
 70
     0
  9
$DIMSAH
 70
     0
  9
$DIMBLK1
  1

  9
$DIMBLK2
  1

  9
$DIMSTYLE
  2
STANDARD
  9
$DIMCLRD
 70
     0
  9
$DIMCLRE
 70
     0
  9
$DIMCLRT
 70
     0
  9
$DIMTFAC
 40
1.0
  9
$DIMGAP
 40
0.625
  9
$DIMJUST
 70
     0
  9
$DIMSD1
 70
     0
  9
$DIMSD2
 70
     0
  9
$DIMTOLJ
 70
     1
  9
$DIMTZIN
 70
     0
  9
$DIMALTZ
 70
     0
  9
$DIMALTTZ
 70
     0
  9
$DIMUPT
 70
     0
  9
$DIMDEC
 70
     4
  9
$DIMTDEC
 70
     4
  9
$DIMALTU
 70
     2
  9
$DIMALTTD
 70
     2
  9
$DIMTXSTY
  7
STANDARD
  9
$DIMAUNIT
 70
     0
  9
$DIMADEC
 70
     0
  9
$DIMALTRND
 40
0.0
  9
$DIMAZIN
 70
     0
  9
$DIMDSEP
 70
    46
  9
$DIMATFIT
 70
     3
  9
$DIMFRAC
 70
     0
  9
$DIMLDRBLK
  1

  9
$DIMLUNIT
 70
     2
  9
$DIMLWD
 70
    -2
  9
$DIMLWE
 70
    -2
  9
$DIMTMOVE
 70
     2
  9
$LUNITS
 70
     2
  9
$LUPREC
 70
     4
  9
$SKETCHINC
 40
1.0
  9
$FILLETRAD
 40
0.0
  9
$AUNITS
 70
     0
  9
$AUPREC
 70
     0
  9
$MENU
  1
acad
  9
$ELEVATION
 40
0.0
  9
$PELEVATION
 40
0.0
  9
$THICKNESS
 40
0.0
  9
$LIMCHECK
 70
     0
  9
$CHAMFERA
 40
10.0
  9
$CHAMFERB
 40
10.0
  9
$CHAMFERC
 40
0.0
  9
$CHAMFERD
 40
0.0
  9
$SKPOLY
 70
     0
  9
$TDCREATE
 40
2453046.711942454
  9
$TDUCREATE
 40
2453046.336942454
  9
$TDUPDATE
 40
2457185.495511296
  9
$TDUUPDATE
 40
2457185.120511296
  9
$TDINDWG
 40
0.1045001852
  9
$TDUSRTIMER
 40
0.1045001852
  9
$USRTIMER
 70
     1
  9
$ANGBASE
 50
0.0
  9
$ANGDIR
 70
     0
  9
$PDMODE
 70
     0
  9
$PDSIZE
 40
0.0
  9
$PLINEWID
 40
0.0
  9
$SPLFRAME
 70
     0
  9
$SPLINETYPE
 70
     6
  9
$SPLINESEGS
 70
     8
  9
$HANDSEED
  5
310
  9
$SURFTAB1
 70
     6
  9
$SURFTAB2
 70
     6
  9
$SURFTYPE
 70
     6
  9
$SURFU
 70
     6
  9
$SURFV
 70
     6
  9
$UCSBASE
  2

  9
$UCSNAME
  2

  9
$UCSORG
 10
0.0
 20
0.0
 30
0.0
  9
$UCSXDIR
 10
1.0
 20
0.0
 30
0.0
  9
$UCSYDIR
 10
0.0
 20
1.0
 30
0.0
  9
$UCSORTHOREF
  2

  9
$UCSORTHOVIEW
 70
     0
  9
$UCSORGTOP
 10
0.0
 20
0.0
 30
0.0
  9
$UCSORGBOTTOM
 10
0.0
 20
0.0
 30
0.0
  9
$UCSORGLEFT
 10
0.0
 20
0.0
 30
0.0
  9
$UCSORGRIGHT
 10
0.0
 20
0.0
 30
0.0
  9
$UCSORGFRONT
 10
0.0
 20
0.0
 30
0.0
  9
$UCSORGBACK
 10
0.0
 20
0.0
 30
0.0
  9
$PUCSBASE
  2

  9
$PUCSNAME
  2

  9
$PUCSORG
 10
0.0
 20
0.0
 30
0.0
  9
$PUCSXDIR
 10
1.0
 20
0.0
 30
0.0
  9
$PUCSYDIR
 10
0.0
 20
1.0
 30
0.0
  9
$PUCSORTHOREF
  2

  9
$PUCSORTHOVIEW
 70
     0
  9
$PUCSORGTOP
 10
0.0
 20
0.0
 30
0.0
  9
$PUCSORGBOTTOM
 10
0.0
 20
0.0
 30
0.0
  9
$PUCSORGLEFT
 10
0.0
 20
0.0
 30
0.0
  9
$PUCSORGRIGHT
 10
0.0
 20
0.0
 30
0.0
  9
$PUCSORGFRONT
 10
0.0
 20
0.0
 30
0.0
  9
$PUCSORGBACK
 10
0.0
 20
0.0
 30
0.0
  9
$USERI1
 70
     0
  9
$USERI2
 70
     0
  9
$USERI3
 70
     0
  9
$USERI4
 70
     0
  9
$USERI5
 70
     0
  9
$USERR1
 40
0.0
  9
$USERR2
 40
0.0
  9
$USERR3
 40
0.0
  9
$USERR4
 40
0.0
  9
$USERR5
 40
0.0
  9
$WORLDVIEW
 70
     1
  9
$SHADEDGE
 70
     3
  9
$SHADEDIF
 70
    70
  9
$TILEMODE
 70
     1
  9
$MAXACTVP
 70
    16
  9
$PINSBASE
 10
0.0
 20
0.0
 30
0.0
  9
$PLIMCHECK
 70
     0
  9
$PEXTMIN
 10
1.00000000E+20
 20
1.00000000E+20
 30
1.00000000E+20
  9
$PEXTMAX
 10
-1.00000000E+20
 20
-1.00000000E+20
 30
-1.00000000E+20
  9
$PLIMMIN
 10
0.0
 20
0.0
  9
$PLIMMAX
 10
420.0
 20
297.0
  9
$UNITMODE
 70
     0
  9
$VISRETAIN
 70
     0
  9
$PLINEGEN
 70
     0
  9
$PSLTSCALE
 70
     1
  9
$TREEDEPTH
 70
  3020
  9
$CMLSTYLE
  2
STANDARD
  9
$CMLJUST
 70
     0
  9
$CMLSCALE
 40
1.0
  9
$PROXYGRAPHICS
 70
     1
  9
$MEASUREMENT
 70
     1
  9
$CELWEIGHT
370
    -1
  9
$ENDCAPS
280
     0
  9
$JOINSTYLE
280
     0
  9
$LWDISPLAY
290
     0
  9
$INSUNITS
 70
     0
  9
$HYPERLINKBASE
  1

  9
$STYLESHEET
  1

  9
$XEDIT
290
     1
  9
$CEPSNTYPE
380
     0
  9
$PSTYLEMODE
290
     1
  9
$FINGERPRINTGUID
  2
{7E397846-E511-4D54-BC6B-E4812AC8CD0A}
  9
$VERSIONGUID
  2
{FBD9D522-F9F9-4C44-821C-5E3F3F8762E0}
  9
$EXTNAMES
290
     1
  9
$PSVPSCALE
 40
0.0
  9
$OLESTARTUP
290
     0
  9
$SORTENTS
280
   127
  9
$INDEXCTL
280
     0
  9
$HIDETEXT
280
     0
  9
$XCLIPFRAME
290
     0
  9
$HALOGAP
280
     0
  9
$OBSCOLOR
 70
   257
  9
$OBSLTYPE
280
     0
  9
$INTERSECTIONDISPLAY
280
     0
  9
$INTERSECTIONCOLOR
 70
   257
  9
$DIMASSOC
280
     1
  9
$PROJECTNAME
  1

  0
ENDSEC
  0
SECTION
  2
CLASSES
  0
CLASS
  1
DICTIONARYVAR
  2
AcDbDictionaryVar
  3
ObjectDBX Classes
 90
        0
 91
        7
280
     0
281
     0
  0
CLASS
  1
ACDBDICTIONARYWDFLT
  2
AcDbDictionaryWithDefault
  3
ObjectDBX Classes
 90
        0
 91
        1
280
     0
281
     0
  0
CLASS
  1
MATERIAL
  2
AcDbMaterial
  3
ObjectDBX Classes
 90
     1153
 91
        3
280
     0
281
     0
  0
CLASS
  1
VISUALSTYLE
  2
AcDbVisualStyle
  3
ObjectDBX Classes
 90
     4095
 91
       24
280
     0
281
     0
  0
CLASS
  1
TABLESTYLE
  2
AcDbTableStyle
  3
ObjectDBX Classes
 90
     4095
 91
        1
280
     0
281
     0
  0
CLASS
  1
SCALE
  2
AcDbScale
  3
ObjectDBX Classes
 90
     1153
 91
       17
280
     0
281
     0
  0
CLASS
  1
MLEADERSTYLE
  2
AcDbMLeaderStyle
  3
ACDB_MLEADERSTYLE_CLASS
 90
     4095
 91
        1
280
     0
281
     0
  0
CLASS
  1
ACDBSECTIONVIEWSTYLE
  2
AcDbSectionViewStyle
  3
ObjectDBX Classes
 90
     1025
 91
        1
280
     0
281
     0
  0
CLASS
  1
ACDBDETAILVIEWSTYLE
  2
AcDbDetailViewStyle
  3
ObjectDBX Classes
 90
     1025
 91
        1
280
     0
281
     0
  0
CLASS
  1
CELLSTYLEMAP
  2
AcDbCellStyleMap
  3
ObjectDBX Classes
 90
     1152
 91
        2
280
     0
281
     0
  0
ENDSEC
  0
SECTION
  2
TABLES
  0
TABLE
  2
VPORT
  5
12
330
0
100
AcDbSymbolTable
 70
     1
  0
VPORT
  5
22C
330
12
100
AcDbSymbolTableRecord
100
AcDbViewportTableRecord
  2
*ACTIVE
 70
     0
 10
0.0
 20
0.0
 11
1.0
 21
1.0
 12
14850.00020746
 22
10500.00014669
 13
0.0
 23
0.0
 14
10.0
 24
10.0
 15
10.0
 25
10.0
 16
0.0
 26
0.0
 36
1.0
 17
0.0
 27
0.0
 37
0.0
 40
22267.27705243
 41
1.34178905
 42
50.0
 43
0.0
 44
0.0
 50
0.0
 51
0.0
 71
     0
 72
   100
 73
     1
 74
     0
 75
     0
 76
     0
 77
     0
 78
     0
281
     0
 65
     1
110
0.0
120
0.0
130
0.0
111
1.0
121
0.0
131
0.0
112
0.0
122
1.0
132
0.0
 79
     0
146
0.0
1001
ACAD_NAV_VCDISPLAY
1070
     1
  0
ENDTAB
  0
TABLE
  2
LTYPE
  5
D
330
0
100
AcDbSymbolTable
 70
     1
  0
LTYPE
  5
E
330
D
100
AcDbSymbolTableRecord
100
AcDbLinetypeTableRecord
  2
BYBLOCK
 70
     0
  3

 72
    65
 73
     0
 40
0.0
  0
LTYPE
  5
F
330
D
100
AcDbSymbolTableRecord
100
AcDbLinetypeTableRecord
  2
BYLAYER
 70
     0
  3

 72
    65
 73
     0
 40
0.0
  0
LTYPE
  5
5
330
D
100
AcDbSymbolTableRecord
100
AcDbLinetypeTableRecord
  2
CONTINUOUS
 70
     0
  3
Solid line
 72
    65
 73
     0
 40
0.0
  0
ENDTAB
  0
TABLE
  2
LAYER
  5
A
330
0
100
AcDbSymbolTable
 70
     3
  0
LAYER
  5
4
330
A
100
AcDbSymbolTableRecord
100
AcDbLayerTableRecord
  2
0
 70
     0
 62
     7
  6
CONTINUOUS
370
    -3
390
22F
  0
LAYER
  5
1E
330
A
100
AcDbSymbolTableRecord
100
AcDbLayerTableRecord
  2
YKK_F1
 70
     0
 62
     7
  6
CONTINUOUS
370
    -3
390
22F
  0
LAYER
  5
AF
330
A
100
AcDbSymbolTableRecord
100
AcDbLayerTableRecord
  2
YKK_A1
 70
     0
 62
     4
  6
CONTINUOUS
370
    -3
390
22F
  0
ENDTAB
  0
TABLE
  2
STYLE
  5
B
330
0
100
AcDbSymbolTable
 70
     3
  0
STYLE
  5
C
330
B
100
AcDbSymbolTableRecord
100
AcDbTextStyleTableRecord
  2
STANDARD
 70
     0
 40
0.0
 41
1.0
 50
0.0
 71
     0
 42
3.5
  3
txt
  4

  0
STYLE
  5
60
330
B
100
AcDbSymbolTableRecord
100
AcDbTextStyleTableRecord
  2
EXTFONT
 70
     0
 40
0.0
 41
1.0
 50
0.0
 71
     0
 42
3.5
  3
txt.shx
  4
EXTFONT.SHX
  0
STYLE
  5
F1
330
B
100
AcDbSymbolTableRecord
100
AcDbTextStyleTableRecord
  2
YKK_SGSTYLE1
 70
     0
 40
0.0
 41
0.8
 50
0.0
 71
     0
 42
60.0
  3
ROMANS.SHX
  4
EXTFONT.SHX
  0
ENDTAB
  0
TABLE
  2
VIEW
  5
10
330
0
100
AcDbSymbolTable
 70
     0
  0
ENDTAB
  0
TABLE
  2
UCS
  5
11
330
0
100
AcDbSymbolTable
 70
     0
  0
ENDTAB
  0
TABLE
  2
APPID
  5
14
330
0
100
AcDbSymbolTable
 70
     5
  0
APPID
  5
15
330
14
100
AcDbSymbolTableRecord
100
AcDbRegAppTableRecord
  2
ACAD
 70
     0
  0
APPID
  5
2BB
330
14
100
AcDbSymbolTableRecord
100
AcDbRegAppTableRecord
  2
ACAD_MLEADERVER
 70
     0
  0
APPID
  5
2D0
330
14
100
AcDbSymbolTableRecord
100
AcDbRegAppTableRecord
  2
ACAD_PSEXT
 70
     0
  0
APPID
  5
2D1
330
14
100
AcDbSymbolTableRecord
100
AcDbRegAppTableRecord
  2
ACAD_NAV_VCDISPLAY
 70
     0
  0
APPID
  5
2D2
330
14
100
AcDbSymbolTableRecord
100
AcDbRegAppTableRecord
  2
YKK_AP_LOCKLAYER
 70
     0
  0
ENDTAB
  0
TABLE
  2
DIMSTYLE
  5
16
330
0
100
AcDbSymbolTable
 70
     1
100
AcDbDimStyleTable
 71
     0
  0
DIMSTYLE
105
1C
330
16
100
AcDbSymbolTableRecord
100
AcDbDimStyleTableRecord
  2
STANDARD
 70
     0
279
     2
340
C
  0
ENDTAB
  0
TABLE
  2
BLOCK_RECORD
  5
1
330
0
100
AcDbSymbolTable
 70
     0
  0
BLOCK_RECORD
  5
2
330
1
100
AcDbSymbolTableRecord
100
AcDbBlockTableRecord
  2
*MODEL_SPACE
340
282
  0
BLOCK_RECORD
  5
7
330
1
100
AcDbSymbolTableRecord
100
AcDbBlockTableRecord
  2
*PAPER_SPACE
340
283
  0
ENDTAB
  0
ENDSEC
  0
SECTION
  2
BLOCKS
  0
BLOCK
  5
3
330
2
100
AcDbEntity
  8
0
100
AcDbBlockBegin
  2
*MODEL_SPACE
 70
     0
 10
0.0
 20
0.0
 30
0.0
  3
*MODEL_SPACE
  1

  0
ENDBLK
  5
6
330
2
100
AcDbEntity
  8
0
100
AcDbBlockEnd
  0
BLOCK
  5
8
330
7
100
AcDbEntity
 67
     1
  8
0
100
AcDbBlockBegin
  2
*PAPER_SPACE
 70
     0
 10
0.0
 20
0.0
 30
0.0
  3
*PAPER_SPACE
  1

  0
ENDBLK
  5
9
330
7
100
AcDbEntity
 67
     1
  8
0
100
AcDbBlockEnd
  0
ENDSEC
  0
SECTION
  2
ENTITIES
  0
LINE
  5
1D
330
2
100
AcDbEntity
  8
YKK_F1
  6
Continuous
100
AcDbLine
 10
900.039
 20
8457.9363
 30
0.0
 11
28800.039
 21
8457.9363
 31
0.0
  0
LINE
  5
1F
330
2
100
AcDbEntity
  8
YKK_F1
  6
Continuous
100
AcDbLine
 10
5550.039
 20
8707.9363
 30
0.0
 11
28800.039
 21
8707.9363
 31
0.0
  0
LINE
  5
20
330
2
100
AcDbEntity
  8
YKK_F1
  6
Continuous
100
AcDbLine
 10
5550.039
 20
8957.9363
 30
0.0
 11
28800.039
 21
8957.9363
 31
0.0
  0
LINE
  5
21
330
2
100
AcDbEntity
  8
YKK_F1
  6
Continuous
100
AcDbLine
 10
900.039
 20
9207.9363
 30
0.0
 11
28800.039
 21
9207.9363
 31
0.0
  0
LINE
  5
22
330
2
100
AcDbEntity
  8
YKK_F1
  6
Continuous
100
AcDbLine
 10
900.039
 20
9457.9363
 30
0.0
 11
28800.039
 21
9457.9363
 31
0.0
  0
LINE
  5
23
330
2
100
AcDbEntity
  8
YKK_F1
  6
Continuous
100
AcDbLine
 10
900.039
 20
9707.9363
 30
0.0
 11
28800.039
 21
9707.9363
 31
0.0
  0
LINE
  5
24
330
2
100
AcDbEntity
  8
YKK_F1
  6
Continuous
100
AcDbLine
 10
900.039
 20
9957.9363
 30
0.0
 11
28800.039
 21
9957.9363
 31
0.0
  0
LINE
  5
25
330
2
100
AcDbEntity
  8
YKK_F1
  6
Continuous
100
AcDbLine
 10
900.039
 20
10207.9363
 30
0.0
 11
28800.039
 21
10207.9363
 31
0.0
  0
LINE
  5
26
330
2
100
AcDbEntity
  8
YKK_F1
  6
Continuous
100
AcDbLine
 10
900.039
 20
10457.9363
 30
0.0
 11
28800.039
 21
10457.9363
 31
0.0
  0
LINE
  5
27
330
2
100
AcDbEntity
  8
YKK_F1
  6
Continuous
100
AcDbLine
 10
900.039
 20
4502.9363
 30
0.0
 11
28800.039
 21
4502.9363
 31
0.0
  0
LINE
  5
28
330
2
100
AcDbEntity
  8
YKK_F1
  6
Continuous
100
AcDbLine
 10
900.039
 20
4252.9363
 30
0.0
 11
28800.039
 21
4252.9363
 31
0.0
  0
LINE
  5
29
330
2
100
AcDbEntity
  8
YKK_F1
  6
Continuous
100
AcDbLine
 10
900.039
 20
4002.9363
 30
0.0
 11
28800.039
 21
4002.9363
 31
0.0
  0
LINE
  5
2A
330
2
100
AcDbEntity
  8
YKK_F1
  6
Continuous
100
AcDbLine
 10
900.039
 20
3752.9363
 30
0.0
 11
28800.039
 21
3752.9363
 31
0.0
  0
LINE
  5
2B
330
2
100
AcDbEntity
  8
YKK_F1
  6
Continuous
100
AcDbLine
 10
900.039
 20
3502.9363
 30
0.0
 11
28800.039
 21
3502.9363
 31
0.0
  0
LINE
  5
2C
330
2
100
AcDbEntity
  8
YKK_F1
  6
Continuous
100
AcDbLine
 10
900.039
 20
3252.9363
 30
0.0
 11
28800.039
 21
3252.9363
 31
0.0
  0
LINE
  5
2D
330
2
100
AcDbEntity
  8
YKK_F1
  6
Continuous
100
AcDbLine
 10
5550.039
 20
3002.9363
 30
0.0
 11
28800.039
 21
3002.9363
 31
0.0
  0
LINE
  5
2E
330
2
100
AcDbEntity
  8
YKK_F1
  6
Continuous
100
AcDbLine
 10
5550.039
 20
2752.9363
 30
0.0
 11
28800.039
 21
2752.9363
 31
0.0
  0
LINE
  5
2F
330
2
100
AcDbEntity
  8
YKK_F1
  6
Continuous
100
AcDbLine
 10
900.039
 20
2502.9363
 30
0.0
 11
28800.039
 21
2502.9363
 31
0.0
  0
LINE
  5
30
330
2
100
AcDbEntity
  8
YKK_F1
  6
Continuous
100
AcDbLine
 10
900.039
 20
7457.9363
 30
0.0
 11
28800.039
 21
7457.9363
 31
0.0
  0
LINE
  5
31
330
2
100
AcDbEntity
  8
YKK_F1
  6
Continuous
100
AcDbLine
 10
900.039
 20
7707.9363
 30
0.0
 11
28800.039
 21
7707.9363
 31
0.0
  0
LINE
  5
32
330
2
100
AcDbEntity
  8
YKK_F1
  6
Continuous
100
AcDbLine
 10
900.039
 20
8207.9363
 30
0.0
 11
28800.039
 21
8207.9363
 31
0.0
  0
LINE
  5
33
330
2
100
AcDbEntity
  8
YKK_F1
  6
Continuous
100
AcDbLine
 10
900.039
 20
2252.9363
 30
0.0
 11
28800.039
 21
2252.9363
 31
0.0
  0
LINE
  5
34
330
2
100
AcDbEntity
  8
YKK_F1
  6
Continuous
100
AcDbLine
 10
659.77445
 20
1949.4363
 30
0.0
 11
29040.229
 21
1949.4363
 31
0.0
  0
LINE
  5
35
330
2
100
AcDbEntity
  8
YKK_F1
  6
Continuous
100
AcDbLine
 10
29027.821
 20
662.59406
 30
0.0
 11
672.18069
 21
662.59406
 31
0.0
  0
LINE
  5
36
330
2
100
AcDbEntity
  8
YKK_F1
  6
Continuous
100
AcDbLine
 10
29015.417
 20
675.00009
 30
0.0
 11
685.15046
 21
675.00009
 31
0.0
  0
LINE
  5
37
330
2
100
AcDbEntity
  8
YKK_F1
  6
Continuous
100
AcDbLine
 10
29002.445
 20
687.97002
 30
0.0
 11
697.5567
 21
687.97002
 31
0.0
  0
LINE
  5
38
330
2
100
AcDbEntity
  8
YKK_F1
  6
Continuous
100
AcDbLine
 10
28990.039
 20
700.94001
 30
0.0
 11
709.96201
 21
700.94001
 31
0.0
  0
LINE
  5
39
330
2
100
AcDbEntity
  8
YKK_F1
  6
Continuous
100
AcDbLine
 10
29040.229
 20
650.18799
 30
0.0
 11
659.77445
 21
650.18799
 31
0.0
  0
LINE
  5
3A
330
2
100
AcDbEntity
  8
YKK_F1
  6
Continuous
100
AcDbLine
 10
29190.79
 20
500.75202
 30
0.0
 11
509.77446
 21
500.75202
 31
0.0
  0
LINE
  5
3B
330
2
100
AcDbEntity
  8
YKK_F1
  6
Continuous
100
AcDbLine
 10
900.039
 20
14162.9363
 30
0.0
 11
28800.039
 21
14162.9363
 31
0.0
  0
LINE
  5
3C
330
2
100
AcDbEntity
  8
YKK_F1
  6
Continuous
100
AcDbLine
 10
900.039
 20
16412.9363
 30
0.0
 11
28800.039
 21
16412.9363
 31
0.0
  0
LINE
  5
3D
330
2
100
AcDbEntity
  8
YKK_F1
  6
Continuous
100
AcDbLine
 10
900.039
 20
16162.9363
 30
0.0
 11
28800.039
 21
16162.9363
 31
0.0
  0
LINE
  5
3E
330
2
100
AcDbEntity
  8
YKK_F1
  6
Continuous
100
AcDbLine
 10
900.039
 20
15912.9363
 30
0.0
 11
28800.039
 21
15912.9363
 31
0.0
  0
LINE
  5
3F
330
2
100
AcDbEntity
  8
YKK_F1
  6
Continuous
100
AcDbLine
 10
900.039
 20
15662.9363
 30
0.0
 11
28800.039
 21
15662.9363
 31
0.0
  0
LINE
  5
40
330
2
100
AcDbEntity
  8
YKK_F1
  6
Continuous
100
AcDbLine
 10
900.039
 20
15412.9363
 30
0.0
 11
28800.039
 21
15412.9363
 31
0.0
  0
LINE
  5
41
330
2
100
AcDbEntity
  8
YKK_F1
  6
Continuous
100
AcDbLine
 10
900.039
 20
15162.9363
 30
0.0
 11
28800.039
 21
15162.9363
 31
0.0
  0
LINE
  5
42
330
2
100
AcDbEntity
  8
YKK_F1
  6
Continuous
100
AcDbLine
 10
5550.039
 20
14912.9363
 30
0.0
 11
28800.039
 21
14912.9363
 31
0.0
  0
LINE
  5
43
330
2
100
AcDbEntity
  8
YKK_F1
  6
Continuous
100
AcDbLine
 10
5550.039
 20
14662.9363
 30
0.0
 11
28800.039
 21
14662.9363
 31
0.0
  0
LINE
  5
44
330
2
100
AcDbEntity
  8
YKK_F1
  6
Continuous
100
AcDbLine
 10
900.039
 20
14412.9363
 30
0.0
 11
28800.039
 21
14412.9363
 31
0.0
  0
LINE
  5
45
330
2
100
AcDbEntity
  8
YKK_F1
  6
Continuous
100
AcDbLine
 10
900.039
 20
19367.9363
 30
0.0
 11
28800.039
 21
19367.9363
 31
0.0
  0
LINE
  5
46
330
2
100
AcDbEntity
  8
YKK_F1
  6
Continuous
100
AcDbLine
 10
900.039
 20
19617.9363
 30
0.0
 11
28800.039
 21
19617.9363
 31
0.0
  0
LINE
  5
47
330
2
100
AcDbEntity
  8
YKK_F1
  6
Continuous
100
AcDbLine
 10
900.039
 20
13662.9363
 30
0.0
 11
28800.039
 21
13662.9363
 31
0.0
  0
LINE
  5
48
330
2
100
AcDbEntity
  8
YKK_F1
  6
Continuous
100
AcDbLine
 10
900.039
 20
13412.9363
 30
0.0
 11
28800.039
 21
13412.9363
 31
0.0
  0
LINE
  5
49
330
2
100
AcDbEntity
  8
YKK_F1
  6
Continuous
100
AcDbLine
 10
900.039
 20
20117.9363
 30
0.0
 11
28800.039
 21
20117.9363
 31
0.0
  0
LINE
  5
4A
330
2
100
AcDbEntity
  8
YKK_F1
  6
Continuous
100
AcDbLine
 10
709.96201
 20
20287.219
 30
0.0
 11
28990.039
 21
20287.219
 31
0.0
  0
LINE
  5
4B
330
2
100
AcDbEntity
  8
YKK_F1
  6
Continuous
100
AcDbLine
 10
509.77446
 20
20487.406
 30
0.0
 11
29190.79
 21
20487.406
 31
0.0
  0
LINE
  5
4C
330
2
100
AcDbEntity
  8
YKK_F1
  6
Continuous
100
AcDbLine
 10
697.5567
 20
20299.624
 30
0.0
 11
29002.445
 21
20299.624
 31
0.0
  0
LINE
  5
4D
330
2
100
AcDbEntity
  8
YKK_F1
  6
Continuous
100
AcDbLine
 10
685.15046
 20
20312.594
 30
0.0
 11
29015.417
 21
20312.594
 31
0.0
  0
LINE
  5
4E
330
2
100
AcDbEntity
  8
YKK_F1
  6
Continuous
100
AcDbLine
 10
672.18069
 20
20325.566
 30
0.0
 11
29027.821
 21
20325.566
 31
0.0
  0
LINE
  5
4F
330
2
100
AcDbEntity
  8
YKK_F1
  6
Continuous
100
AcDbLine
 10
659.77445
 20
20337.97
 30
0.0
 11
29040.229
 21
20337.97
 31
0.0
  0
LINE
  5
50
330
2
100
AcDbEntity
  8
YKK_F1
100
AcDbLine
 10
0.0
 20
21000.0
 30
0.0
 11
29700.0
 21
21000.0
 31
0.0
  0
LINE
  5
51
330
2
100
AcDbEntity
  8
YKK_F1
100
AcDbLine
 10
0.0
 20
0.0
 30
0.0
 11
29700.0
 21
0.0
 31
0.0
  0
LINE
  5
52
330
2
100
AcDbEntity
  8
YKK_F1
  6
Continuous
100
AcDbLine
 10
900.039
 20
2252.9363
 30
0.0
 11
900.039
 21
20117.9363
 31
0.0
  0
LINE
  5
53
330
2
100
AcDbEntity
  8
YKK_F1
  6
Continuous
100
AcDbLine
 10
709.96201
 20
700.94001
 30
0.0
 11
709.96201
 21
20287.219
 31
0.0
  0
LINE
  5
54
330
2
100
AcDbEntity
  8
YKK_F1
  6
Continuous
100
AcDbLine
 10
697.5567
 20
687.97002
 30
0.0
 11
697.5567
 21
20299.624
 31
0.0
  0
LINE
  5
55
330
2
100
AcDbEntity
  8
YKK_F1
  6
Continuous
100
AcDbLine
 10
685.15046
 20
675.00009
 30
0.0
 11
685.15046
 21
20312.594
 31
0.0
  0
LINE
  5
56
330
2
100
AcDbEntity
  8
YKK_F1
  6
Continuous
100
AcDbLine
 10
672.18069
 20
662.59406
 30
0.0
 11
672.18069
 21
20325.566
 31
0.0
  0
LINE
  5
57
330
2
100
AcDbEntity
  8
YKK_F1
  6
Continuous
100
AcDbLine
 10
659.77445
 20
650.18799
 30
0.0
 11
659.77445
 21
20337.97
 31
0.0
  0
LINE
  5
58
330
2
100
AcDbEntity
  8
YKK_F1
  6
Continuous
100
AcDbLine
 10
509.77446
 20
500.75202
 30
0.0
 11
509.77446
 21
20487.406
 31
0.0
  0
LINE
  5
59
330
2
100
AcDbEntity
  8
YKK_F1
  6
Continuous
100
AcDbLine
 10
5550.039
 20
2252.9363
 30
0.0
 11
5550.039
 21
20117.9363
 31
0.0
  0
LINE
  5
5A
330
2
100
AcDbEntity
  8
YKK_F1
100
AcDbLine
 10
0.0
 20
0.0
 30
0.0
 11
0.0
 21
21000.0
 31
0.0
  0
LINE
  5
5B
330
2
100
AcDbEntity
  8
YKK_F1
  6
Continuous
100
AcDbLine
 10
10604.323
 20
950.75203
 30
0.0
 11
659.77445
 21
950.75203
 31
0.0
  0
LINE
  5
5C
330
2
100
AcDbEntity
  8
YKK_F1
  6
Continuous
100
AcDbLine
 10
10604.323
 20
1200.5641
 30
0.0
 11
659.77445
 21
1200.5641
 31
0.0
  0
LINE
  5
5D
330
2
100
AcDbEntity
  8
YKK_F1
  6
Continuous
100
AcDbLine
 10
10604.323
 20
1450.376
 30
0.0
 11
659.77445
 21
1450.376
 31
0.0
  0
LINE
  5
5E
330
2
100
AcDbEntity
  8
YKK_F1
  6
Continuous
100
AcDbLine
 10
10604.323
 20
1701.3159
 30
0.0
 11
659.77445
 21
1701.3159
 31
0.0
  0
TEXT
  5
5F
330
2
100
AcDbEntity
  8
YKK_F1
100
AcDbText
 10
2183.67067185
 20
3772.9363
 30
0.0
 40
200.0
  1
材　　　　　　　質
  7
EXTFONT
 72
     1
 11
3237.00400518
 21
3772.9363
 31
0.0
100
AcDbText
  0
TEXT
  5
61
330
2
100
AcDbEntity
  8
YKK_F1
100
AcDbText
 10
759.96201
 20
1776.3159
 30
0.0
 40
100.0
  1
付記：
  7
EXTFONT
100
AcDbText
  0
TEXT
  5
62
330
2
100
AcDbEntity
  8
YKK_F1
100
AcDbText
 10
2063.67067185
 20
2897.9363
 30
0.0
 40
200.0
  1
建　　具　　金　　物
  7
EXTFONT
 72
     1
 11
3237.00400518
 21
2897.9363
 31
0.0
100
AcDbText
  0
TEXT
  5
63
330
2
100
AcDbEntity
  8
YKK_F1
100
AcDbText
 10
1817.00400518
 20
3272.9363
 30
0.0
 40
200.0
  1
ガラス・種類・ガラス押え
  7
EXTFONT
 72
     1
 11
3237.00400518
 21
3272.9363
 31
0.0
100
AcDbText
  0
TEXT
  5
64
330
2
100
AcDbEntity
  8
YKK_F1
100
AcDbText
 10
2183.67067185
 20
3522.9363
 30
0.0
 40
200.0
  1
仕　　　　　　　上
  7
EXTFONT
 72
     1
 11
3237.00400518
 21
3522.9363
 31
0.0
100
AcDbText
  0
TEXT
  5
65
330
2
100
AcDbEntity
  8
YKK_F1
100
AcDbText
 10
2183.67067185
 20
2272.9363
 30
0.0
 40
200.0
  1
備　　　　　　　考
  7
EXTFONT
 72
     1
 11
3237.00400518
 21
2272.9363
 31
0.0
100
AcDbText
  0
TEXT
  5
66
330
2
100
AcDbEntity
  8
YKK_F1
100
AcDbText
 10
1937.00400518
 20
2647.9363
 30
0.0
 40
200.0
  1
(付　　属　　金　　物)
  7
EXTFONT
 72
     1
 11
3237.00400518
 21
2647.9363
 31
0.0
100
AcDbText
  0
TEXT
  5
67
330
2
100
AcDbEntity
  8
YKK_F1
100
AcDbText
 10
1259.96201
 20
949.6242
 30
0.0
 40
250.0
  1
*
  7
EXTFONT
100
AcDbText
  0
TEXT
  5
68
330
2
100
AcDbEntity
  8
YKK_F1
100
AcDbText
 10
1259.96201
 20
699.6242
 30
0.0
 40
250.0
  1
*
  7
EXTFONT
100
AcDbText
  0
TEXT
  5
69
330
2
100
AcDbEntity
  8
YKK_F1
100
AcDbText
 10
1259.96201
 20
1200.376
 30
0.0
 40
250.0
  1
*
  7
EXTFONT
100
AcDbText
  0
TEXT
  5
6A
330
2
100
AcDbEntity
  8
YKK_F1
100
AcDbText
 10
1259.96201
 20
1701.3159
 30
0.0
 40
250.0
  1
*
  7
EXTFONT
100
AcDbText
  0
TEXT
  5
6B
330
2
100
AcDbEntity
  8
YKK_F1
100
AcDbText
 10
1259.96201
 20
1450.376
 30
0.0
 40
250.0
  1
*
  7
EXTFONT
100
AcDbText
  0
TEXT
  5
6C
330
2
100
AcDbEntity
  8
YKK_F1
100
AcDbText
 10
2190.33733852
 20
5900.4363
 30
0.0
 40
200.0
  1
姿　　　　　　　図
  7
EXTFONT
 72
     1
 11
3237.00400518
 21
5900.4363
 31
0.0
100
AcDbText
  0
TEXT
  5
6D
330
2
100
AcDbEntity
  8
YKK_F1
100
AcDbText
 10
1703.67067185
 20
4272.9363
 30
0.0
 40
200.0
  1
型式・防音・エアタイト仕様
  7
EXTFONT
 72
     1
 11
3237.00400518
 21
4272.9363
 31
0.0
100
AcDbText
  0
TEXT
  5
6E
330
2
100
AcDbEntity
  8
YKK_F1
100
AcDbText
 10
1283.67067185
 20
4022.9363
 30
0.0
 40
200.0
  1
寸法・見付・見込（枠見付・枠見込）
  7
EXTFONT
 72
     1
 11
3237.00400518
 21
4022.9363
 31
0.0
100
AcDbText
  0
TEXT
  5
6F
330
2
100
AcDbEntity
  8
YKK_F1
100
AcDbText
 10
2063.67067185
 20
8852.9363
 30
0.0
 40
200.0
  1
建　　具　　金　　物
  7
EXTFONT
 72
     1
 11
3237.00400518
 21
8852.9363
 31
0.0
100
AcDbText
  0
TEXT
  5
70
330
2
100
AcDbEntity
  8
YKK_F1
100
AcDbText
 10
1817.00400518
 20
9227.9363
 30
0.0
 40
200.0
  1
ガラス・種類・ガラス押え
  7
EXTFONT
 72
     1
 11
3237.00400518
 21
9227.9363
 31
0.0
100
AcDbText
  0
TEXT
  5
71
330
2
100
AcDbEntity
  8
YKK_F1
100
AcDbText
 10
2183.67067185
 20
9727.9363
 30
0.0
 40
200.0
  1
材　　　　　　　質
  7
EXTFONT
 72
     1
 11
3237.00400518
 21
9727.9363
 31
0.0
100
AcDbText
  0
TEXT
  5
72
330
2
100
AcDbEntity
  8
YKK_F1
100
AcDbText
 10
2183.67067185
 20
9477.9363
 30
0.0
 40
200.0
  1
仕　　　　　　　上
  7
EXTFONT
 72
     1
 11
3237.00400518
 21
9477.9363
 31
0.0
100
AcDbText
  0
TEXT
  5
73
330
2
100
AcDbEntity
  8
YKK_F1
100
AcDbText
 10
2183.67067185
 20
7832.9363
 30
0.0
 40
200.0
  1
符　号　・　数　量
  7
EXTFONT
 72
     1
 11
3237.00400518
 21
7832.9363
 31
0.0
100
AcDbText
  0
TEXT
  5
74
330
2
100
AcDbEntity
  8
YKK_F1
100
AcDbText
 10
2183.67067185
 20
7477.9363
 30
0.0
 40
200.0
  1
使用箇所・防火仕様
  7
EXTFONT
 72
     1
 11
3237.00400518
 21
7477.9363
 31
0.0
100
AcDbText
  0
TEXT
  5
75
330
2
100
AcDbEntity
  8
YKK_F1
100
AcDbText
 10
2183.67067185
 20
8227.9363
 30
0.0
 40
200.0
  1
備　　　　　　　考
  7
EXTFONT
 72
     1
 11
3237.00400518
 21
8227.9363
 31
0.0
100
AcDbText
  0
TEXT
  5
76
330
2
100
AcDbEntity
  8
YKK_F1
100
AcDbText
 10
1937.00400518
 20
8602.9363
 30
0.0
 40
200.0
  1
(付　　属　　金　　物)
  7
EXTFONT
 72
     1
 11
3237.00400518
 21
8602.9363
 31
0.0
100
AcDbText
  0
TEXT
  5
77
330
2
100
AcDbEntity
  8
YKK_F1
100
AcDbText
 10
1703.67067185
 20
10227.9363
 30
0.0
 40
200.0
  1
型式・防音・エアタイト仕様
  7
EXTFONT
 72
     1
 11
3237.00400518
 21
10227.9363
 31
0.0
100
AcDbText
  0
TEXT
  5
78
330
2
100
AcDbEntity
  8
YKK_F1
100
AcDbText
 10
1283.67067185
 20
9977.9363
 30
0.0
 40
200.0
  1
寸法・見付・見込（枠見付・枠見込）
  7
EXTFONT
 72
     1
 11
3237.00400518
 21
9977.9363
 31
0.0
100
AcDbText
  0
TEXT
  5
79
330
2
100
AcDbEntity
  8
0
100
AcDbText
 10
5650.039
 20
3777.9363
 30
0.0
 40
200.0
  1
＊
  7
EXTFONT
100
AcDbText
  0
TEXT
  5
7A
330
2
100
AcDbEntity
  8
0
100
AcDbText
 10
10300.039
 20
3777.9363
 30
0.0
 40
200.0
  1
＊
  7
EXTFONT
100
AcDbText
  0
LINE
  5
7B
330
2
100
AcDbEntity
  8
YKK_F1
  6
Continuous
100
AcDbLine
 10
10200.039
 20
2252.9363
 30
0.0
 11
10200.039
 21
8207.9363
 31
0.0
  0
TEXT
  5
7C
330
2
100
AcDbEntity
  8
0
100
AcDbText
 10
5650.039
 20
3027.9363
 30
0.0
 40
200.0
  1
＊
  7
EXTFONT
100
AcDbText
  0
TEXT
  5
7D
330
2
100
AcDbEntity
  8
0
100
AcDbText
 10
5650.039
 20
2277.9363
 30
0.0
 40
200.0
  1
＊
  7
EXTFONT
100
AcDbText
  0
TEXT
  5
7E
330
2
100
AcDbEntity
  8
0
100
AcDbText
 10
5650.039
 20
2527.9363
 30
0.0
 40
200.0
  1
＊
  7
EXTFONT
100
AcDbText
  0
TEXT
  5
7F
330
2
100
AcDbEntity
  8
0
100
AcDbText
 10
5650.039
 20
2777.9363
 30
0.0
 40
200.0
  1
＊
  7
EXTFONT
100
AcDbText
  0
TEXT
  5
80
330
2
100
AcDbEntity
  8
0
100
AcDbText
 10
5650.039
 20
3277.9363
 30
0.0
 40
200.0
  1
＊
  7
EXTFONT
100
AcDbText
  0
TEXT
  5
81
330
2
100
AcDbEntity
  8
0
100
AcDbText
 10
5650.039
 20
3527.9363
 30
0.0
 40
200.0
  1
＊
  7
EXTFONT
100
AcDbText
  0
LINE
  5
82
330
2
100
AcDbEntity
  8
YKK_F1
  6
Continuous
100
AcDbLine
 10
12103.196
 20
1949.4363
 30
0.0
 11
12103.196
 21
650.18799
 31
0.0
  0
LINE
  5
83
330
2
100
AcDbEntity
  8
YKK_F1
  6
Continuous
100
AcDbLine
 10
10604.323
 20
1949.4363
 30
0.0
 11
10604.323
 21
650.18799
 31
0.0
  0
TEXT
  5
84
330
2
100
AcDbEntity
  8
YKK_F1
100
AcDbText
 10
10654.323
 20
1816.3159
 30
0.0
 40
100.0
  1
審査　　年　　月　　日
  7
EXTFONT
100
AcDbText
  0
LINE
  5
85
330
2
100
AcDbEntity
  8
YKK_F1
  6
Continuous
100
AcDbLine
 10
12103.196
 20
1117.6692
 30
0.0
 11
10604.323
 21
1117.6692
 31
0.0
  0
LINE
  5
86
330
2
100
AcDbEntity
  8
YKK_F1
  6
Continuous
100
AcDbLine
 10
12103.196
 20
1534.3986
 30
0.0
 11
10604.323
 21
1534.3986
 31
0.0
  0
TEXT
  5
87
330
2
100
AcDbEntity
  8
YKK_F1
  6
Continuous
100
AcDbText
 10
10820.301
 20
1166.7294
 30
0.0
 40
150.0
  1
**,**,**
100
AcDbText
  0
TEXT
  5
88
330
2
100
AcDbEntity
  8
YKK_F1
  6
Continuous
100
AcDbText
 10
10820.301
 20
1583.4588
 30
0.0
 40
150.0
  1
**,**,**
100
AcDbText
  0
TEXT
  5
89
330
2
100
AcDbEntity
  8
YKK_F1
100
AcDbText
 10
10654.323
 20
1401.2782
 30
0.0
 40
100.0
  1
設計　　年　　月　　日
  7
EXTFONT
100
AcDbText
  0
TEXT
  5
8A
330
2
100
AcDbEntity
  8
YKK_F1
100
AcDbText
 10
10654.323
 20
984.5488
 30
0.0
 40
100.0
  1
測量　　年　　月　　日
  7
EXTFONT
100
AcDbText
  0
TEXT
  5
8B
330
2
100
AcDbEntity
  8
YKK_F1
  6
Continuous
100
AcDbText
 10
10820.301
 20
750.0
 30
0.0
 40
150.0
  1
**,**,**
100
AcDbText
  0
TEXT
  5
8C
330
2
100
AcDbEntity
  8
0
100
AcDbText
 10
10300.039
 20
3027.9363
 30
0.0
 40
200.0
  1
＊
  7
EXTFONT
100
AcDbText
  0
TEXT
  5
8D
330
2
100
AcDbEntity
  8
0
100
AcDbText
 10
10300.039
 20
2527.9363
 30
0.0
 40
200.0
  1
＊
  7
EXTFONT
100
AcDbText
  0
TEXT
  5
8E
330
2
100
AcDbEntity
  8
0
100
AcDbText
 10
10300.039
 20
2277.9363
 30
0.0
 40
200.0
  1
＊
  7
EXTFONT
100
AcDbText
  0
TEXT
  5
8F
330
2
100
AcDbEntity
  8
0
100
AcDbText
 10
10300.039
 20
2777.9363
 30
0.0
 40
200.0
  1
＊
  7
EXTFONT
100
AcDbText
  0
TEXT
  5
90
330
2
100
AcDbEntity
  8
0
100
AcDbText
 10
10300.039
 20
3277.9363
 30
0.0
 40
200.0
  1
＊
  7
EXTFONT
100
AcDbText
  0
TEXT
  5
91
330
2
100
AcDbEntity
  8
0
100
AcDbText
 10
10300.039
 20
3527.9363
 30
0.0
 40
200.0
  1
＊
  7
EXTFONT
100
AcDbText
  0
TEXT
  5
92
330
2
100
AcDbEntity
  8
0
100
AcDbText
 10
5650.039
 20
4277.9363
 30
0.0
 40
200.0
  1
＊
  7
EXTFONT
100
AcDbText
  0
TEXT
  5
93
330
2
100
AcDbEntity
  8
0
100
AcDbText
 10
5650.039
 20
4027.9363
 30
0.0
 40
200.0
  1
＊
  7
EXTFONT
100
AcDbText
  0
TEXT
  5
94
330
2
100
AcDbEntity
  8
0
100
AcDbText
 10
5650.039
 20
10232.9363
 30
0.0
 40
200.0
  1
引分け戸 【内動タイプ】
  7
EXTFONT
100
AcDbText
  0
TEXT
  5
95
330
2
100
AcDbEntity
  8
0
100
AcDbText
 10
5650.039
 20
9982.9363
 30
0.0
 40
200.0
  1
W=3,600  H=2,000  見込100
  7
EXTFONT
100
AcDbText
  0
TEXT
  5
96
330
2
100
AcDbEntity
  8
0
100
AcDbText
 10
5650.039
 20
8732.9363
 30
0.0
 40
200.0
  1
本締錠・押棒・開口制限ストッパー・
  7
EXTFONT
100
AcDbText
  0
TEXT
  5
97
330
2
100
AcDbEntity
  8
0
100
AcDbText
 10
5650.039
 20
8982.9363
 30
0.0
 40
190.0
  1
召合せ框キャップ・戸車・障子ストッパー・
  7
EXTFONT
100
AcDbText
  0
TEXT
  5
98
330
2
100
AcDbEntity
  8
0
100
AcDbText
 10
5650.039
 20
8232.9363
 30
0.0
 40
200.0
  1
YKKAP　SYSTEMA 510e同等品
  7
EXTFONT
100
AcDbText
  0
TEXT
  5
99
330
2
100
AcDbEntity
  8
0
100
AcDbText
 10
5650.039
 20
9482.9363
 30
0.0
 40
200.0
  1
シルバー･ｶﾗｰ(ブロンズ､ステン､ブラック)
  7
EXTFONT
100
AcDbText
  0
TEXT
  5
9A
330
2
100
AcDbEntity
  8
0
100
AcDbText
 10
5650.039
 20
8482.9363
 30
0.0
 40
200.0
  1
パネル一体型下框
  7
EXTFONT
100
AcDbText
  0
TEXT
  5
9B
330
2
100
AcDbEntity
  8
0
100
AcDbText
 10
5850.039
 20
7957.9363
 30
0.0
 40
200.0
  1
＊
  7
EXTFONT
100
AcDbText
  0
CIRCLE
  5
9C
330
2
100
AcDbEntity
  8
YKK_F1
100
AcDbCircle
 10
5950.039
 20
7957.9363
 30
0.0
 40
233.3333333333333
  0
LINE
  5
9D
330
2
100
AcDbEntity
  8
YKK_F1
  6
Continuous
100
AcDbLine
 10
5716.70566667
 20
7957.9363
 30
0.0
 11
6183.37233333
 21
7957.9363
 31
0.0
  0
TEXT
  5
9E
330
2
100
AcDbEntity
  8
0
100
AcDbText
 10
5650.039
 20
7482.9363
 30
0.0
 40
200.0
  1
＊
  7
EXTFONT
100
AcDbText
  0
TEXT
  5
9F
330
2
100
AcDbEntity
  8
YKK_F1
100
AcDbText
 10
5790.039
 20
7757.9363
 30
0.0
 40
160.0
  1
ＡＷ
  7
EXTFONT
100
AcDbText
  0
TEXT
  5
A0
330
2
100
AcDbEntity
  8
0
100
AcDbText
 10
5650.039
 20
9232.9363
 30
0.0
 40
200.0
  1
FL・透明
  7
EXTFONT
100
AcDbText
  0
TEXT
  5
A1
330
2
100
AcDbEntity
  8
0
100
AcDbText
 10
5650.039
 20
9732.9363
 30
0.0
 40
200.0
  1
アルミ製
  7
EXTFONT
100
AcDbText
  0
TEXT
  5
A2
330
2
100
AcDbEntity
  8
0
100
AcDbText
 10
9250.039
 20
7732.9363
 30
0.0
 40
200.0
  1
＊
  7
EXTFONT
100
AcDbText
  0
TEXT
  5
A3
330
2
100
AcDbEntity
  8
YKK_F1
100
AcDbText
 10
9670.039
 20
7732.9363
 30
0.0
 40
200.0
  1
箇所
  7
EXTFONT
100
AcDbText
  0
TEXT
  5
A4
330
2
100
AcDbEntity
  8
0
100
AcDbText
 10
10300.039
 20
4277.9363
 30
0.0
 40
200.0
  1
＊
  7
EXTFONT
100
AcDbText
  0
TEXT
  5
A5
330
2
100
AcDbEntity
  8
0
100
AcDbText
 10
10300.039
 20
4027.9363
 30
0.0
 40
200.0
  1
＊
  7
EXTFONT
100
AcDbText
  0
TEXT
  5
A6
330
2
100
AcDbEntity
  8
0
100
AcDbText
 10
10500.039
 20
7957.9363
 30
0.0
 40
200.0
  1
＊
  7
EXTFONT
100
AcDbText
  0
CIRCLE
  5
A7
330
2
100
AcDbEntity
  8
YKK_F1
100
AcDbCircle
 10
10600.039
 20
7957.9363
 30
0.0
 40
233.3333333333333
  0
LINE
  5
A8
330
2
100
AcDbEntity
  8
YKK_F1
  6
Continuous
100
AcDbLine
 10
10366.70566667
 20
7957.9363
 30
0.0
 11
10833.37233333
 21
7957.9363
 31
0.0
  0
TEXT
  5
A9
330
2
100
AcDbEntity
  8
0
100
AcDbText
 10
10300.039
 20
7482.9363
 30
0.0
 40
200.0
  1
＊
  7
EXTFONT
100
AcDbText
  0
TEXT
  5
AA
330
2
100
AcDbEntity
  8
YKK_F1
100
AcDbText
 10
10440.039
 20
7757.9363
 30
0.0
 40
160.0
  1
ＡＷ
  7
EXTFONT
100
AcDbText
  0
TEXT
  5
AB
330
2
100
AcDbEntity
  8
0
100
AcDbText
 10
13600.039
 20
7482.9363
 30
0.0
 40
200.0
  1
＊
  7
EXTFONT
100
AcDbText
  0
TEXT
  5
AC
330
2
100
AcDbEntity
  8
0
100
AcDbText
 10
13900.039
 20
7732.9363
 30
0.0
 40
200.0
  1
＊
  7
EXTFONT
100
AcDbText
  0
TEXT
  5
AD
330
2
100
AcDbEntity
  8
YKK_F1
100
AcDbText
 10
14320.039
 20
7732.9363
 30
0.0
 40
200.0
  1
箇所
  7
EXTFONT
100
AcDbText
  0
LINE
  5
AE
330
2
100
AcDbEntity
  8
YKK_A1
100
AcDbLine
 10
8880.04241388
 20
16610.4362995
 30
0.0
 11
8880.04241388
 21
18615.4359174
 31
0.0
  0
LINE
  5
B0
330
2
100
AcDbEntity
  8
YKK_A1
100
AcDbLine
 10
13530.04241388
 20
16610.4362995
 30
0.0
 11
13530.04241388
 21
19165.43601796
 31
0.0
  0
LINE
  5
B1
330
2
100
AcDbEntity
  8
YKK_A1
100
AcDbLine
 10
12005.04241388
 20
10655.4362995
 30
0.0
 11
12005.04241388
 21
12660.43601796
 31
0.0
  0
LINE
  5
B2
330
2
100
AcDbEntity
  8
YKK_A1
100
AcDbLine
 10
7857.03716758
 20
18530.43619351
 30
0.0
 11
6905.04044012
 21
18530.43619351
 31
0.0
  0
LINE
  5
B3
330
2
100
AcDbEntity
  8
YKK_A1
100
AcDbLine
 10
12507.03716758
 20
18530.43619351
 30
0.0
 11
11555.04044012
 21
18530.43619351
 31
0.0
  0
LINE
  5
B4
330
2
100
AcDbEntity
  8
YKK_A1
  6
ByBlock
 48
0.5
100
AcDbLine
 10
7311.0388167
 20
17580.43624773
 30
0.0000001
 11
7431.03880385
 21
17580.43624773
 31
0.00000005
210
-0.0000000004102069
220
0.0
230
-1.0
  0
LINE
  5
B5
330
2
100
AcDbEntity
  8
YKK_A1
  6
ByBlock
 48
0.5
100
AcDbLine
 10
7431.03880385
 20
17640.4362513
 30
0.00000005
 11
7311.0388167
 21
17640.4362513
 31
0.0000001
210
-0.0000000004102069
220
0.0
230
-1.0
  0
LINE
  5
B6
330
2
100
AcDbEntity
  8
YKK_A1
  6
ByBlock
 48
0.5
100
AcDbLine
 10
11961.0388167
 20
17580.43624773
 30
0.0000001
 11
12081.03880385
 21
17580.43624773
 31
0.00000005
210
-0.0000000004102069
220
0.0
230
-1.0
  0
LINE
  5
B7
330
2
100
AcDbEntity
  8
YKK_A1
  6
ByBlock
 48
0.5
100
AcDbLine
 10
12081.03880385
 20
17640.4362513
 30
0.00000005
 11
11961.0388167
 21
17640.4362513
 31
0.0000001
210
-0.0000000004102069
220
0.0
230
-1.0
  0
LINE
  5
B8
330
2
100
AcDbEntity
  8
YKK_A1
  6
ByBlock
 48
0.5
100
AcDbLine
 10
10628.53924943
 20
11685.4362513
 30
0.00000005
 11
10508.53926228
 21
11685.4362513
 31
0.0000001
210
-0.0000000004102069
220
0.0
230
-1.0
  0
LINE
  5
B9
330
2
100
AcDbEntity
  8
YKK_A1
  6
ByBlock
 48
0.5
100
AcDbLine
 10
10508.53926228
 20
11625.43624773
 30
0.0000001
 11
10628.53924943
 21
11625.43624773
 31
0.00000005
210
-0.0000000004102069
220
0.0
230
-1.0
  0
LINE
  5
BA
330
2
100
AcDbEntity
  8
YKK_A1
  6
ByBlock
 48
0.5
100
AcDbLine
 10
9698.24464669
 20
11685.4362513
 30
0.00000005
 11
9818.24463384
 21
11685.4362513
 31
0.0000001
210
0.0000000004102069
220
0.0
230
-1.0
  0
LINE
  5
BB
330
2
100
AcDbEntity
  8
YKK_A1
  6
ByBlock
 48
0.5
100
AcDbLine
 10
9818.24463384
 20
11625.43624773
 30
0.0000001
 11
9698.24464669
 21
11625.43624773
 31
0.00000005
210
0.0000000004102069
220
0.0
230
-1.0
  0
TEXT
  5
BC
330
2
100
AcDbEntity
  8
0
100
AcDbText
 10
1009.77446
 20
20612.406
 30
0.0
 40
250.0
  1
ＦＦＳ５ＳＬ５１　ＳＹＳＴＥＭＡ ５１０ｅ　つらいち枠　片引き戸／引分け戸 【内動タイプ】
  7
EXTFONT
100
AcDbText
  0
TEXT
  5
BD
330
2
100
AcDbEntity
  8
YKK_F1
100
AcDbText
 10
2183.67067185
 20
13432.9363
 30
0.0
 40
200.0
  1
使用箇所・防火仕様
  7
EXTFONT
 72
     1
 11
3237.00400518
 21
13432.9363
 31
0.0
100
AcDbText
  0
TEXT
  5
BE
330
2
100
AcDbEntity
  8
YKK_F1
100
AcDbText
 10
2190.33733852
 20
11855.4363
 30
0.0
 40
200.0
  1
姿　　　　　　　図
  7
EXTFONT
 72
     1
 11
3237.00400518
 21
11855.4363
 31
0.0
100
AcDbText
  0
TEXT
  5
BF
330
2
100
AcDbEntity
  8
YKK_F1
100
AcDbText
 10
2063.67067185
 20
14807.9363
 30
0.0
 40
200.0
  1
建　　具　　金　　物
  7
EXTFONT
 72
     1
 11
3237.00400518
 21
14807.9363
 31
0.0
100
AcDbText
  0
TEXT
  5
C0
330
2
100
AcDbEntity
  8
YKK_F1
100
AcDbText
 10
1817.00400518
 20
15182.9363
 30
0.0
 40
200.0
  1
ガラス・種類・ガラス押え
  7
EXTFONT
 72
     1
 11
3237.00400518
 21
15182.9363
 31
0.0
100
AcDbText
  0
TEXT
  5
C1
330
2
100
AcDbEntity
  8
YKK_F1
100
AcDbText
 10
2183.67067185
 20
15682.9363
 30
0.0
 40
200.0
  1
材　　　　　　　質
  7
EXTFONT
 72
     1
 11
3237.00400518
 21
15682.9363
 31
0.0
100
AcDbText
  0
TEXT
  5
C2
330
2
100
AcDbEntity
  8
YKK_F1
100
AcDbText
 10
2183.67067185
 20
15432.9363
 30
0.0
 40
200.0
  1
仕　　　　　　　上
  7
EXTFONT
 72
     1
 11
3237.00400518
 21
15432.9363
 31
0.0
100
AcDbText
  0
TEXT
  5
C3
330
2
100
AcDbEntity
  8
YKK_F1
100
AcDbText
 10
2183.67067185
 20
13787.9363
 30
0.0
 40
200.0
  1
符　号　・　数　量
  7
EXTFONT
 72
     1
 11
3237.00400518
 21
13787.9363
 31
0.0
100
AcDbText
  0
TEXT
  5
C4
330
2
100
AcDbEntity
  8
YKK_F1
100
AcDbText
 10
2183.67067185
 20
14182.9363
 30
0.0
 40
200.0
  1
備　　　　　　　考
  7
EXTFONT
 72
     1
 11
3237.00400518
 21
14182.9363
 31
0.0
100
AcDbText
  0
TEXT
  5
C5
330
2
100
AcDbEntity
  8
YKK_F1
100
AcDbText
 10
1937.00400518
 20
14557.9363
 30
0.0
 40
200.0
  1
(付　　属　　金　　物)
  7
EXTFONT
 72
     1
 11
3237.00400518
 21
14557.9363
 31
0.0
100
AcDbText
  0
TEXT
  5
C6
330
2
100
AcDbEntity
  8
YKK_F1
100
AcDbText
 10
1283.67067185
 20
15932.9363
 30
0.0
 40
200.0
  1
寸法・見付・見込（枠見付・枠見込）
  7
EXTFONT
 72
     1
 11
3237.00400518
 21
15932.9363
 31
0.0
100
AcDbText
  0
TEXT
  5
C7
330
2
100
AcDbEntity
  8
YKK_F1
100
AcDbText
 10
1703.67067185
 20
16182.9363
 30
0.0
 40
200.0
  1
型式・防音・エアタイト仕様
  7
EXTFONT
 72
     1
 11
3237.00400518
 21
16182.9363
 31
0.0
100
AcDbText
  0
TEXT
  5
C8
330
2
100
AcDbEntity
  8
YKK_F1
100
AcDbText
 10
2183.67067185
 20
19742.9363
 30
0.0
 40
200.0
  1
符　号　・　数　量
  7
EXTFONT
 72
     1
 11
3237.00400518
 21
19742.9363
 31
0.0
100
AcDbText
  0
TEXT
  5
C9
330
2
100
AcDbEntity
  8
YKK_F1
100
AcDbText
 10
2183.67067185
 20
19387.9363
 30
0.0
 40
200.0
  1
使用箇所・防火仕様
  7
EXTFONT
 72
     1
 11
3237.00400518
 21
19387.9363
 31
0.0
100
AcDbText
  0
TEXT
  5
CA
330
2
100
AcDbEntity
  8
YKK_F1
100
AcDbText
 10
2190.33733852
 20
17810.4363
 30
0.0
 40
200.0
  1
姿　　　　　　　図
  7
EXTFONT
 72
     1
 11
3237.00400518
 21
17810.4363
 31
0.0
100
AcDbText
  0
LINE
  5
CB
330
2
100
AcDbEntity
  8
YKK_A1
100
AcDbLine
 10
8875.03716781
 20
16610.4362995
 30
0.0
 11
8875.03716781
 21
18615.4359174
 31
0.0
  0
LINE
  5
CC
330
2
100
AcDbEntity
  8
YKK_A1
100
AcDbLine
 10
7857.03716758
 20
16610.4362995
 30
0.0
 11
7857.03716758
 21
18610.43619955
 31
0.0
  0
LINE
  5
CD
330
2
100
AcDbEntity
  8
YKK_A1
100
AcDbLine
 10
7893.03716758
 20
16610.4362995
 30
0.0
 11
7893.03716758
 21
18610.43619955
 31
0.0
  0
LINE
  5
CE
330
2
100
AcDbEntity
  8
YKK_A1
100
AcDbLine
 10
6882.54044012
 20
18610.43619955
 30
0.0
 11
6882.54044012
 21
16610.4362995
 31
0.0
  0
LINE
  5
CF
330
2
100
AcDbEntity
  8
YKK_A1
100
AcDbLine
 10
6898.04044012
 20
18610.43619955
 30
0.0
 11
6898.04044012
 21
16610.4362995
 31
0.0
  0
LINE
  5
D0
330
2
100
AcDbEntity
  8
YKK_A1
100
AcDbLine
 10
6870.03558612
 20
16610.4362995
 30
0.0
 11
6870.03558612
 21
18615.4359174
 31
0.0
  0
LINE
  5
D1
330
2
100
AcDbEntity
  8
YKK_A1
100
AcDbLine
 10
6875.03716042
 20
16610.4362995
 30
0.0
 11
6875.03716042
 21
18615.4359174
 31
0.0
  0
LINE
  5
D2
330
2
100
AcDbEntity
  8
YKK_A1
100
AcDbLine
 10
6905.04044012
 20
16610.4362995
 30
0.0
 11
6905.04044012
 21
18610.43619955
 31
0.0
  0
LINE
  5
D3
330
2
100
AcDbEntity
  8
YKK_A1
100
AcDbLine
 10
12543.03716758
 20
16610.4362995
 30
0.0
 11
12543.03716758
 21
18610.43619955
 31
0.0
  0
LINE
  5
D4
330
2
100
AcDbEntity
  8
YKK_A1
100
AcDbLine
 10
12507.03716758
 20
16610.4362995
 30
0.0
 11
12507.03716758
 21
18610.43619955
 31
0.0
  0
LINE
  5
D5
330
2
100
AcDbEntity
  8
YKK_A1
100
AcDbLine
 10
11555.04044012
 20
16610.4362995
 30
0.0
 11
11555.04044012
 21
18610.43619955
 31
0.0
  0
LINE
  5
D6
330
2
100
AcDbEntity
  8
YKK_A1
100
AcDbLine
 10
11532.54044012
 20
18610.43619955
 30
0.0
 11
11532.54044012
 21
16610.4362995
 31
0.0
  0
LINE
  5
D7
330
2
100
AcDbEntity
  8
YKK_A1
100
AcDbLine
 10
11548.04044012
 20
18610.43619955
 30
0.0
 11
11548.04044012
 21
16610.4362995
 31
0.0
  0
LINE
  5
D8
330
2
100
AcDbEntity
  8
YKK_A1
100
AcDbLine
 10
13525.03716781
 20
16610.4362995
 30
0.0
 11
13525.03716781
 21
19165.43601796
 31
0.0
  0
LINE
  5
D9
330
2
100
AcDbEntity
  8
YKK_A1
100
AcDbLine
 10
11525.03716042
 20
16610.4362995
 30
0.0
 11
11525.03716042
 21
19165.43601796
 31
0.0
  0
LINE
  5
DA
330
2
100
AcDbEntity
  8
YKK_A1
100
AcDbLine
 10
11520.03558612
 20
16610.4362995
 30
0.0
 11
11520.03558612
 21
19165.43601796
 31
0.0
  0
LINE
  5
DB
330
2
100
AcDbEntity
  8
YKK_F1
  6
Continuous
100
AcDbLine
 10
10200.039
 20
14162.9363
 30
0.0
 11
10200.039
 21
20117.9363
 31
0.0
  0
LINE
  5
DC
330
2
100
AcDbEntity
  8
YKK_A1
  6
ByBlock
 48
0.5
100
AcDbLine
 10
10748.53925632
 20
11655.43624952
 30
0.0
 11
10628.53924943
 21
11724.71827364
 31
0.00000005
210
-0.0000000004102069
220
0.0
230
-1.0
  0
LINE
  5
DD
330
2
100
AcDbEntity
  8
YKK_A1
  6
ByBlock
 48
0.5
100
AcDbLine
 10
10748.53925632
 20
11655.43624952
 30
0.0
 11
10628.53924943
 21
11586.15422538
 31
0.00000005
210
-0.0000000004102069
220
0.0
230
-1.0
  0
LINE
  5
DE
330
2
100
AcDbEntity
  8
YKK_A1
  6
ByBlock
 48
0.5
100
AcDbLine
 10
9578.2446398
 20
11655.43624952
 30
0.0
 11
9698.24464669
 21
11724.71827364
 31
0.00000005
210
0.0000000004102069
220
0.0
230
-1.0
  0
LINE
  5
DF
330
2
100
AcDbEntity
  8
YKK_A1
  6
ByBlock
 48
0.5
100
AcDbLine
 10
9578.2446398
 20
11655.43624952
 30
0.0
 11
9698.24464669
 21
11586.15422538
 31
0.00000005
210
0.0000000004102069
220
0.0
230
-1.0
  0
LINE
  5
E0
330
2
100
AcDbEntity
  8
YKK_A1
100
AcDbLine
 10
8400.03715304
 20
12655.43619349
 30
0.0
 11
12000.03716781
 21
12655.43619349
 31
0.0
  0
LINE
  5
E1
330
2
100
AcDbEntity
  8
YKK_A1
100
AcDbLine
 10
8400.03715304
 20
12655.43629967
 30
0.0
 11
12000.03716781
 21
12655.43629967
 31
0.0
  0
LINE
  5
E2
330
2
100
AcDbEntity
  8
YKK_A1
100
AcDbLine
 10
12005.04241388
 20
12660.43601796
 30
0.0
 11
8395.03558612
 21
12660.43601796
 31
0.0
  0
LINE
  5
E3
330
2
100
AcDbEntity
  8
YKK_A1
100
AcDbLine
 10
8395.03558612
 20
10655.4362995
 30
0.0
 11
12005.04241388
 21
10655.4362995
 31
0.0
  0
CIRCLE
  5
E4
330
2
100
AcDbEntity
  8
YKK_F1
100
AcDbCircle
 10
5950.039
 20
13912.9363
 30
0.0
 40
233.3333333333333
  0
TEXT
  5
E5
330
2
100
AcDbEntity
  8
YKK_F1
100
AcDbText
 10
5790.039
 20
13712.9363
 30
0.0
 40
160.0
  1
ＡＷ
  7
EXTFONT
100
AcDbText
  0
TEXT
  5
E6
330
2
100
AcDbEntity
  8
0
100
AcDbText
 10
5650.039
 20
13437.9363
 30
0.0
 40
200.0
  1
＊
  7
EXTFONT
100
AcDbText
  0
LINE
  5
E7
330
2
100
AcDbEntity
  8
YKK_A1
100
AcDbLine
 10
10202.53873019
 20
10655.4362995
 30
0.0
 11
10202.53873019
 21
12655.43619349
 31
0.0
  0
LINE
  5
E8
330
2
100
AcDbEntity
  8
YKK_A1
100
AcDbLine
 10
10197.53855071
 20
10655.4362995
 30
0.0
 11
10197.53855071
 21
12655.43619349
 31
0.0
  0
LINE
  5
E9
330
2
100
AcDbEntity
  8
YKK_A1
100
AcDbLine
 10
10172.53855071
 20
10655.4362995
 30
0.0
 11
10172.53855071
 21
12655.43619349
 31
0.0
  0
LINE
  5
EA
330
2
100
AcDbEntity
  8
YKK_A1
100
AcDbLine
 10
9306.03715328
 20
10655.4362995
 30
0.0
 11
9306.03715328
 21
12655.43619349
 31
0.0
  0
LINE
  5
EB
330
2
100
AcDbEntity
  8
YKK_A1
100
AcDbLine
 10
9270.03715328
 20
10655.4362995
 30
0.0
 11
9270.03715328
 21
12655.43619349
 31
0.0
  0
LINE
  5
EC
330
2
100
AcDbEntity
  8
YKK_A1
100
AcDbLine
 10
8395.03558612
 20
10655.4362995
 30
0.0
 11
8395.03558612
 21
12660.43601796
 31
0.0
  0
LINE
  5
ED
330
2
100
AcDbEntity
  8
YKK_A1
100
AcDbLine
 10
8400.03715304
 20
10655.4362995
 30
0.0
 11
8400.03715304
 21
12660.43601796
 31
0.0
  0
LINE
  5
EE
330
2
100
AcDbEntity
  8
YKK_A1
100
AcDbLine
 10
8400.03715304
 20
10777.43627851
 30
0.0
 11
9270.03715328
 21
10777.43627851
 31
0.0
  0
LINE
  5
EF
330
2
100
AcDbEntity
  8
YKK_A1
100
AcDbLine
 10
9306.03715328
 20
10777.43627851
 30
0.0
 11
10172.53855071
 21
10777.43627851
 31
0.0
  0
TEXT
  5
F0
330
2
100
AcDbEntity
  8
YKK_A1
100
AcDbText
 10
9142.19497381
 20
10857.97277204
 30
0.0
 40
60.0
  1
F
 41
0.8
  7
YKK_SGSTYLE1
 72
     2
 11
9181.05211667
 21
10857.97277204
 31
0.0
100
AcDbText
  0
LINE
  5
F2
330
2
100
AcDbEntity
  8
YKK_A1
100
AcDbLine
 10
10172.53855071
 20
12575.43619351
 30
0.0
 11
9306.03715328
 21
12575.43619351
 31
0.0
  0
LINE
  5
F3
330
2
100
AcDbEntity
  8
YKK_A1
100
AcDbLine
 10
6870.03558612
 20
16610.4362995
 30
0.0
 11
8880.04241388
 21
16610.4362995
 31
0.0
  0
TEXT
  5
F4
330
2
100
AcDbEntity
  8
0
100
AcDbText
 10
5650.039
 20
15437.9363
 30
0.0
 40
200.0
  1
シルバー･ｶﾗｰ(ブロンズ､ステン､ブラック)
  7
EXTFONT
100
AcDbText
  0
TEXT
  5
F5
330
2
100
AcDbEntity
  8
0
100
AcDbText
 10
5650.039
 20
16187.9363
 30
0.0
 40
200.0
  1
片引き戸 【内動タイプ】
  7
EXTFONT
100
AcDbText
  0
TEXT
  5
F6
330
2
100
AcDbEntity
  8
0
100
AcDbText
 10
5650.039
 20
15937.9363
 30
0.0
 40
200.0
  1
W=2,000  H=2,000  見込100
  7
EXTFONT
100
AcDbText
  0
TEXT
  5
F7
330
2
100
AcDbEntity
  8
0
100
AcDbText
 10
5650.039
 20
14187.9363
 30
0.0
 40
200.0
  1
YKKAP　SYSTEMA 510e同等品
  7
EXTFONT
100
AcDbText
  0
TEXT
  5
F8
330
2
100
AcDbEntity
  8
0
100
AcDbText
 10
5650.039
 20
14937.9363
 30
0.0
 40
190.0
  1
召合せ框キャップ・戸車・障子ストッパー・
  7
EXTFONT
100
AcDbText
  0
TEXT
  5
F9
330
2
100
AcDbEntity
  8
0
100
AcDbText
 10
5650.039
 20
14687.9363
 30
0.0
 40
200.0
  1
本締錠・押棒・開口制限ストッパー・
  7
EXTFONT
100
AcDbText
  0
TEXT
  5
FA
330
2
100
AcDbEntity
  8
0
100
AcDbText
 10
5650.039
 20
14437.9363
 30
0.0
 40
200.0
  1
パネル一体型下框
  7
EXTFONT
100
AcDbText
  0
LINE
  5
FB
330
2
100
AcDbEntity
  8
YKK_F1
  6
Continuous
100
AcDbLine
 10
5716.70566667
 20
13912.9363
 30
0.0
 11
6183.37233333
 21
13912.9363
 31
0.0
  0
TEXT
  5
FC
330
2
100
AcDbEntity
  8
0
100
AcDbText
 10
5850.039
 20
13912.9363
 30
0.0
 40
200.0
  1
＊
  7
EXTFONT
100
AcDbText
  0
TEXT
  5
FD
330
2
100
AcDbEntity
  8
0
100
AcDbText
 10
5650.039
 20
15187.9363
 30
0.0
 40
200.0
  1
FL・透明
  7
EXTFONT
100
AcDbText
  0
TEXT
  5
FE
330
2
100
AcDbEntity
  8
0
100
AcDbText
 10
5650.039
 20
15687.9363
 30
0.0
 40
200.0
  1
アルミ製
  7
EXTFONT
100
AcDbText
  0
LINE
  5
FF
330
2
100
AcDbEntity
  8
YKK_A1
100
AcDbLine
 10
7857.03716758
 20
16732.43627851
 30
0.0
 11
6905.04044012
 21
16732.43627851
 31
0.0
  0
LINE
  5
100
330
2
100
AcDbEntity
  8
YKK_A1
100
AcDbLine
 10
7893.03716758
 20
16732.43627851
 30
0.0
 11
8875.03716781
 21
16732.43627851
 31
0.0
  0
TEXT
  5
101
330
2
100
AcDbEntity
  8
YKK_A1
100
AcDbText
 10
8747.19498835
 20
16812.97277204
 30
0.0
 40
60.0
  1
F
 41
0.8
  7
YKK_SGSTYLE1
 72
     2
 11
8786.05213121
 21
16812.97277204
 31
0.0
100
AcDbText
  0
TEXT
  5
102
330
2
100
AcDbEntity
  8
0
100
AcDbText
 10
13900.039
 20
13687.9363
 30
0.0
 40
200.0
  1
＊
  7
EXTFONT
100
AcDbText
  0
TEXT
  5
103
330
2
100
AcDbEntity
  8
YKK_F1
100
AcDbText
 10
14320.039
 20
13687.9363
 30
0.0
 40
200.0
  1
箇所
  7
EXTFONT
100
AcDbText
  0
LINE
  5
104
330
2
100
AcDbEntity
  8
YKK_A1
100
AcDbLine
 10
10227.53873019
 20
10655.4362995
 30
0.0
 11
10227.53873019
 21
12655.43619349
 31
0.0
  0
LINE
  5
105
330
2
100
AcDbEntity
  8
YKK_A1
100
AcDbLine
 10
11130.03716758
 20
10655.4362995
 30
0.0
 11
11130.03716758
 21
12655.43619349
 31
0.0
  0
LINE
  5
106
330
2
100
AcDbEntity
  8
YKK_A1
100
AcDbLine
 10
11094.03716758
 20
10655.4362995
 30
0.0
 11
11094.03716758
 21
12655.43619349
 31
0.0
  0
LINE
  5
107
330
2
100
AcDbEntity
  8
YKK_A1
100
AcDbLine
 10
12000.03716781
 20
10655.4362995
 30
0.0
 11
12000.03716781
 21
12660.43601796
 31
0.0
  0
LINE
  5
108
330
2
100
AcDbEntity
  8
YKK_A1
100
AcDbLine
 10
11130.03716758
 20
10777.43627851
 30
0.0
 11
12000.03716781
 21
10777.43627851
 31
0.0
  0
LINE
  5
109
330
2
100
AcDbEntity
  8
YKK_A1
100
AcDbLine
 10
10227.53873019
 20
10777.43627851
 30
0.0
 11
11094.03716758
 21
10777.43627851
 31
0.0
  0
TEXT
  5
10A
330
2
100
AcDbEntity
  8
YKK_A1
100
AcDbText
 10
11872.19498835
 20
10857.97277204
 30
0.0
 40
60.0
  1
F
 41
0.8
  7
YKK_SGSTYLE1
 72
     2
 11
11911.05213121
 21
10857.97277204
 31
0.0
100
AcDbText
  0
LINE
  5
10B
330
2
100
AcDbEntity
  8
YKK_A1
100
AcDbLine
 10
10227.53873019
 20
12575.43619351
 30
0.0
 11
11094.03716758
 21
12575.43619351
 31
0.0
  0
TEXT
  5
10C
330
2
100
AcDbEntity
  8
0
100
AcDbText
 10
13600.039
 20
13437.9363
 30
0.0
 40
200.0
  1
＊
  7
EXTFONT
100
AcDbText
  0
LINE
  5
10D
330
2
100
AcDbEntity
  8
YKK_A1
100
AcDbLine
 10
11520.03558612
 20
16610.4362995
 30
0.0
 11
13530.04241388
 21
16610.4362995
 31
0.0
  0
TEXT
  5
10E
330
2
100
AcDbEntity
  8
0
100
AcDbText
 10
10300.039
 20
15437.9363
 30
0.0
 40
200.0
  1
シルバー･ｶﾗｰ(ブロンズ､ステン､ブラック)
  7
EXTFONT
100
AcDbText
  0
TEXT
  5
10F
330
2
100
AcDbEntity
  8
0
100
AcDbText
 10
10300.039
 20
16187.9363
 30
0.0
 40
200.0
  1
片引き戸 【内動タイプ】
  7
EXTFONT
100
AcDbText
  0
TEXT
  5
110
330
2
100
AcDbEntity
  8
0
100
AcDbText
 10
10300.039
 20
15937.9363
 30
0.0
 40
200.0
  1
W=2,000  H=2,550  見込100
  7
EXTFONT
100
AcDbText
  0
TEXT
  5
111
330
2
100
AcDbEntity
  8
0
100
AcDbText
 10
10300.039
 20
14187.9363
 30
0.0
 40
200.0
  1
YKKAP　SYSTEMA 510e同等品
  7
EXTFONT
100
AcDbText
  0
TEXT
  5
112
330
2
100
AcDbEntity
  8
0
100
AcDbText
 10
10300.039
 20
14937.9363
 30
0.0
 40
190.0
  1
召合せ框キャップ・戸車・障子ストッパー・
  7
EXTFONT
100
AcDbText
  0
TEXT
  5
113
330
2
100
AcDbEntity
  8
0
100
AcDbText
 10
10300.039
 20
14687.9363
 30
0.0
 40
200.0
  1
本締錠・押棒・開口制限ストッパー・
  7
EXTFONT
100
AcDbText
  0
TEXT
  5
114
330
2
100
AcDbEntity
  8
0
100
AcDbText
 10
10300.039
 20
14437.9363
 30
0.0
 40
200.0
  1
パネル一体型下框
  7
EXTFONT
100
AcDbText
  0
TEXT
  5
115
330
2
100
AcDbEntity
  8
0
100
AcDbText
 10
10300.039
 20
15187.9363
 30
0.0
 40
200.0
  1
FL・透明
  7
EXTFONT
100
AcDbText
  0
TEXT
  5
116
330
2
100
AcDbEntity
  8
0
100
AcDbText
 10
10300.039
 20
15687.9363
 30
0.0
 40
200.0
  1
アルミ製
  7
EXTFONT
100
AcDbText
  0
LINE
  5
117
330
2
100
AcDbEntity
  8
YKK_A1
100
AcDbLine
 10
12507.03716758
 20
16732.43627851
 30
0.0
 11
11555.04044012
 21
16732.43627851
 31
0.0
  0
LINE
  5
118
330
2
100
AcDbEntity
  8
YKK_A1
100
AcDbLine
 10
12543.03716758
 20
16732.43627851
 30
0.0
 11
13525.03716781
 21
16732.43627851
 31
0.0
  0
TEXT
  5
119
330
2
100
AcDbEntity
  8
YKK_A1
100
AcDbText
 10
13397.19498835
 20
16812.97277204
 30
0.0
 40
60.0
  1
F
 41
0.8
  7
YKK_SGSTYLE1
 72
     2
 11
13436.05213121
 21
16812.97277204
 31
0.0
100
AcDbText
  0
LINE
  5
11A
330
2
100
AcDbEntity
  8
YKK_A1
  6
ByBlock
 48
0.5
100
AcDbLine
 10
10628.53924943
 20
11586.15422538
 30
0.00000005
 11
10628.53924943
 21
11625.43624773
 31
0.00000005
210
-0.0000000004102069
220
0.0
230
-1.0
  0
LINE
  5
11B
330
2
100
AcDbEntity
  8
YKK_A1
  6
ByBlock
 48
0.5
100
AcDbLine
 10
10628.53924943
 20
11685.4362513
 30
0.00000005
 11
10628.53924943
 21
11724.71827364
 31
0.00000005
210
-0.0000000004102069
220
0.0
230
-1.0
  0
LINE
  5
11C
330
2
100
AcDbEntity
  8
YKK_A1
  6
ByBlock
 48
0.5
100
AcDbLine
 10
9698.24464669
 20
11586.15422538
 30
0.00000005
 11
9698.24464669
 21
11625.43624773
 31
0.00000005
210
0.0000000004102069
220
0.0
230
-1.0
  0
LINE
  5
11D
330
2
100
AcDbEntity
  8
YKK_A1
  6
ByBlock
 48
0.5
100
AcDbLine
 10
9698.24464669
 20
11685.4362513
 30
0.00000005
 11
9698.24464669
 21
11724.71827364
 31
0.00000005
210
0.0000000004102069
220
0.0
230
-1.0
  0
LINE
  5
11E
330
2
100
AcDbEntity
  8
YKK_A1
  6
ByBlock
 48
0.5
100
AcDbLine
 10
7551.03881074
 20
17610.43624952
 30
0.0
 11
7431.03880385
 21
17541.15422538
 31
0.00000005
210
-0.0000000004102069
220
0.0
230
-1.0
  0
LINE
  5
11F
330
2
100
AcDbEntity
  8
YKK_A1
  6
ByBlock
 48
0.5
100
AcDbLine
 10
7551.03881074
 20
17610.43624952
 30
0.0
 11
7431.03880385
 21
17679.71827364
 31
0.00000005
210
-0.0000000004102069
220
0.0
230
-1.0
  0
LINE
  5
120
330
2
100
AcDbEntity
  8
YKK_A1
  6
ByBlock
 48
0.5
100
AcDbLine
 10
12201.03881074
 20
17610.43624952
 30
0.0
 11
12081.03880385
 21
17541.15422538
 31
0.00000005
210
-0.0000000004102069
220
0.0
230
-1.0
  0
LINE
  5
121
330
2
100
AcDbEntity
  8
YKK_A1
  6
ByBlock
 48
0.5
100
AcDbLine
 10
12201.03881074
 20
17610.43624952
 30
0.0
 11
12081.03880385
 21
17679.71827364
 31
0.00000005
210
-0.0000000004102069
220
0.0
230
-1.0
  0
LINE
  5
122
330
2
100
AcDbEntity
  8
YKK_A1
100
AcDbLine
 10
8875.03716781
 20
18610.43619955
 30
0.0
 11
6875.03716042
 21
18610.43619955
 31
0.0
  0
LINE
  5
123
330
2
100
AcDbEntity
  8
YKK_A1
100
AcDbLine
 10
8880.04241388
 20
18615.4359174
 30
0.0
 11
6870.03558612
 21
18615.4359174
 31
0.0
  0
TEXT
  5
124
330
2
100
AcDbEntity
  8
0
100
AcDbText
 10
5650.039
 20
19392.9363
 30
0.0
 40
200.0
  1
＊
  7
EXTFONT
100
AcDbText
  0
CIRCLE
  5
125
330
2
100
AcDbEntity
  8
YKK_F1
100
AcDbCircle
 10
5950.039
 20
19867.9363
 30
0.0
 40
233.3333333333333
  0
LINE
  5
126
330
2
100
AcDbEntity
  8
YKK_F1
  6
Continuous
100
AcDbLine
 10
5716.70566667
 20
19867.9363
 30
0.0
 11
6183.37233333
 21
19867.9363
 31
0.0
  0
TEXT
  5
127
330
2
100
AcDbEntity
  8
0
100
AcDbText
 10
5850.039
 20
19867.9363
 30
0.0
 40
200.0
  1
＊
  7
EXTFONT
100
AcDbText
  0
TEXT
  5
128
330
2
100
AcDbEntity
  8
YKK_F1
100
AcDbText
 10
5790.039
 20
19667.9363
 30
0.0
 40
160.0
  1
ＡＷ
  7
EXTFONT
100
AcDbText
  0
TEXT
  5
129
330
2
100
AcDbEntity
  8
0
100
AcDbText
 10
8950.039
 20
19392.9363
 30
0.0
 40
200.0
  1
＊
  7
EXTFONT
100
AcDbText
  0
TEXT
  5
12A
330
2
100
AcDbEntity
  8
0
100
AcDbText
 10
9250.039
 20
19642.9363
 30
0.0
 40
200.0
  1
＊
  7
EXTFONT
100
AcDbText
  0
TEXT
  5
12B
330
2
100
AcDbEntity
  8
YKK_F1
100
AcDbText
 10
9670.039
 20
19642.9363
 30
0.0
 40
200.0
  1
箇所
  7
EXTFONT
100
AcDbText
  0
LINE
  5
12C
330
2
100
AcDbEntity
  8
YKK_A1
100
AcDbLine
 10
13530.04241388
 20
19165.43601796
 30
0.0
 11
11520.03558612
 21
19165.43601796
 31
0.0
  0
LINE
  5
12D
330
2
100
AcDbEntity
  8
YKK_A1
100
AcDbLine
 10
13525.03716781
 20
19160.4362995
 30
0.0
 11
11525.03716042
 21
19160.4362995
 31
0.0
  0
LINE
  5
12E
330
2
100
AcDbEntity
  8
YKK_A1
100
AcDbLine
 10
13525.03716781
 20
18690.43619349
 30
0.0
 11
11525.03716042
 21
18690.43619349
 31
0.0
  0
LINE
  5
12F
330
2
100
AcDbEntity
  8
YKK_A1
100
AcDbLine
 10
13525.03716781
 20
18610.43619349
 30
0.0
 11
11525.03716042
 21
18610.43619349
 31
0.0
  0
TEXT
  5
130
330
2
100
AcDbEntity
  8
0
100
AcDbText
 10
10300.039
 20
19392.9363
 30
0.0
 40
200.0
  1
＊
  7
EXTFONT
100
AcDbText
  0
CIRCLE
  5
131
330
2
100
AcDbEntity
  8
YKK_F1
100
AcDbCircle
 10
10600.039
 20
19867.9363
 30
0.0
 40
233.3333333333333
  0
LINE
  5
132
330
2
100
AcDbEntity
  8
YKK_F1
  6
Continuous
100
AcDbLine
 10
10366.70566667
 20
19867.9363
 30
0.0
 11
10833.37233333
 21
19867.9363
 31
0.0
  0
TEXT
  5
133
330
2
100
AcDbEntity
  8
0
100
AcDbText
 10
10500.039
 20
19867.9363
 30
0.0
 40
200.0
  1
＊
  7
EXTFONT
100
AcDbText
  0
TEXT
  5
134
330
2
100
AcDbEntity
  8
YKK_F1
100
AcDbText
 10
10440.039
 20
19667.9363
 30
0.0
 40
160.0
  1
ＡＷ
  7
EXTFONT
100
AcDbText
  0
TEXT
  5
135
330
2
100
AcDbEntity
  8
0
100
AcDbText
 10
13600.039
 20
19392.9363
 30
0.0
 40
200.0
  1
＊
  7
EXTFONT
100
AcDbText
  0
TEXT
  5
136
330
2
100
AcDbEntity
  8
YKK_A1
100
AcDbText
 10
13397.19498835
 20
18770.97268702
 30
0.0
 40
60.0
  1
F
 41
0.8
  7
YKK_SGSTYLE1
 72
     2
 11
13436.05213121
 21
18770.97268702
 31
0.0
100
AcDbText
  0
TEXT
  5
137
330
2
100
AcDbEntity
  8
0
100
AcDbText
 10
13900.039
 20
19642.9363
 30
0.0
 40
200.0
  1
＊
  7
EXTFONT
100
AcDbText
  0
TEXT
  5
138
330
2
100
AcDbEntity
  8
YKK_F1
100
AcDbText
 10
14320.039
 20
19642.9363
 30
0.0
 40
200.0
  1
箇所
  7
EXTFONT
100
AcDbText
  0
LINE
  5
139
330
2
100
AcDbEntity
  8
YKK_A1
  6
ByBlock
 48
0.5
100
AcDbLine
 10
7431.03880385
 20
17640.4362513
 30
0.00000005
 11
7431.03880385
 21
17679.71827364
 31
0.00000005
210
-0.0000000004102069
220
0.0
230
-1.0
  0
LINE
  5
13A
330
2
100
AcDbEntity
  8
YKK_A1
  6
ByBlock
 48
0.5
100
AcDbLine
 10
7431.03880385
 20
17541.15422538
 30
0.00000005
 11
7431.03880385
 21
17580.43624773
 31
0.00000005
210
-0.0000000004102069
220
0.0
230
-1.0
  0
LINE
  5
13B
330
2
100
AcDbEntity
  8
YKK_A1
  6
ByBlock
 48
0.5
100
AcDbLine
 10
12081.03880385
 20
17640.4362513
 30
0.00000005
 11
12081.03880385
 21
17679.71827364
 31
0.00000005
210
-0.0000000004102069
220
0.0
230
-1.0
  0
LINE
  5
13C
330
2
100
AcDbEntity
  8
YKK_A1
  6
ByBlock
 48
0.5
100
AcDbLine
 10
12081.03880385
 20
17541.15422538
 30
0.00000005
 11
12081.03880385
 21
17580.43624773
 31
0.00000005
210
-0.0000000004102069
220
0.0
230
-1.0
  0
LINE
  5
13D
330
2
100
AcDbEntity
  8
YKK_A1
  6
ByBlock
 48
0.5
100
AcDbLine
 10
10508.53926228
 20
11685.4362513
 30
0.0000001
 11
10508.53926228
 21
11625.43624773
 31
0.0000001
210
-0.0000000004102069
220
0.0
230
-1.0
  0
LINE
  5
13E
330
2
100
AcDbEntity
  8
YKK_A1
  6
ByBlock
 48
0.5
100
AcDbLine
 10
9818.24463384
 20
11685.4362513
 30
0.0000001
 11
9818.24463384
 21
11625.43624773
 31
0.0000001
210
0.0000000004102069
220
0.0
230
-1.0
  0
LINE
  5
13F
330
2
100
AcDbEntity
  8
YKK_A1
  6
ByBlock
 48
0.5
100
AcDbLine
 10
7311.0388167
 20
17640.4362513
 30
0.0000001
 11
7311.0388167
 21
17580.43624773
 31
0.0000001
210
-0.0000000004102069
220
0.0
230
-1.0
  0
LINE
  5
140
330
2
100
AcDbEntity
  8
YKK_A1
  6
ByBlock
 48
0.5
100
AcDbLine
 10
11961.0388167
 20
17640.4362513
 30
0.0000001
 11
11961.0388167
 21
17580.43624773
 31
0.0000001
210
-0.0000000004102069
220
0.0
230
-1.0
  0
LINE
  5
141
330
2
100
AcDbEntity
  8
YKK_F1
  6
Continuous
100
AcDbLine
 10
28990.039
 20
700.94001
 30
0.0
 11
28990.039
 21
20287.219
 31
0.0
  0
LINE
  5
142
330
2
100
AcDbEntity
  8
YKK_F1
  6
Continuous
100
AcDbLine
 10
29027.821
 20
662.59406
 30
0.0
 11
29027.821
 21
20325.566
 31
0.0
  0
LINE
  5
143
330
2
100
AcDbEntity
  8
YKK_F1
  6
Continuous
100
AcDbLine
 10
29015.417
 20
675.00009
 30
0.0
 11
29015.417
 21
20312.594
 31
0.0
  0
LINE
  5
144
330
2
100
AcDbEntity
  8
YKK_F1
  6
Continuous
100
AcDbLine
 10
29002.445
 20
687.97002
 30
0.0
 11
29002.445
 21
20299.624
 31
0.0
  0
LINE
  5
145
330
2
100
AcDbEntity
  8
YKK_F1
  6
Continuous
100
AcDbLine
 10
29040.229
 20
650.18799
 30
0.0
 11
29040.229
 21
20337.97
 31
0.0
  0
LINE
  5
146
330
2
100
AcDbEntity
  8
YKK_F1
  6
Continuous
100
AcDbLine
 10
29190.79
 20
500.75202
 30
0.0
 11
29190.79
 21
20487.406
 31
0.0
  0
LINE
  5
147
330
2
100
AcDbEntity
  8
YKK_F1
  6
Continuous
100
AcDbLine
 10
28800.039
 20
2252.9363
 30
0.0
 11
28800.039
 21
20117.9363
 31
0.0
  0
LINE
  5
148
330
2
100
AcDbEntity
  8
YKK_F1
100
AcDbLine
 10
29700.0
 20
0.0
 30
0.0
 11
29700.0
 21
21000.0
 31
0.0
  0
LINE
  5
149
330
2
100
AcDbEntity
  8
YKK_F1
  6
Continuous
100
AcDbLine
 10
24150.039
 20
2252.9363
 30
0.0
 11
24150.039
 21
20117.9363
 31
0.0
  0
LINE
  5
14A
330
2
100
AcDbEntity
  8
YKK_F1
  6
Continuous
100
AcDbLine
 10
14850.039
 20
2252.9363
 30
0.0
 11
14850.039
 21
20117.9363
 31
0.0
  0
TEXT
  5
14B
330
2
100
AcDbEntity
  8
YKK_F1
100
AcDbText
 10
23900.08866667
 20
975.376
 30
0.0
 40
200.0
  1
建具表－（ＦＦＳ５ＳＬ５１）
  7
EXTFONT
 72
     4
 11
25493.422
 21
1075.376
 31
0.0
100
AcDbText
  0
TEXT
  5
14C
330
2
100
AcDbEntity
  8
YKK_F1
100
AcDbText
 10
23686.75533333
 20
1600.376
 30
0.0
 40
200.0
  1
(仮称)○\U+00D7ビル新築工事
  7
EXTFONT
 72
     4
 11
24993.422
 21
1700.376
 31
0.0
100
AcDbText
  0
LINE
  5
14D
330
2
100
AcDbEntity
  8
YKK_F1
  6
Continuous
100
AcDbLine
 10
21494.55
 20
1450.376
 30
0.0
 11
27990.79
 21
1450.376
 31
0.0
  0
TEXT
  5
14E
330
2
100
AcDbEntity
  8
0
100
AcDbText
 10
14950.039
 20
3777.9363
 30
0.0
 40
200.0
  1
＊
  7
EXTFONT
100
AcDbText
  0
TEXT
  5
14F
330
2
100
AcDbEntity
  8
0
100
AcDbText
 10
19600.039
 20
3777.9363
 30
0.0
 40
200.0
  1
＊
  7
EXTFONT
100
AcDbText
  0
LINE
  5
150
330
2
100
AcDbEntity
  8
YKK_F1
  6
Continuous
100
AcDbLine
 10
19500.039
 20
2252.9363
 30
0.0
 11
19500.039
 21
8207.9363
 31
0.0
  0
LINE
  5
151
330
2
100
AcDbEntity
  8
YKK_F1
  6
Continuous
100
AcDbLine
 10
21494.55
 20
1200.5641
 30
0.0
 11
18496.807
 21
1200.5641
 31
0.0
  0
LINE
  5
152
330
2
100
AcDbEntity
  8
YKK_F1
  6
Continuous
100
AcDbLine
 10
18496.807
 20
1949.4363
 30
0.0
 11
18496.807
 21
650.18799
 31
0.0
  0
TEXT
  5
153
330
2
100
AcDbEntity
  8
0
100
AcDbText
 10
14950.039
 20
3027.9363
 30
0.0
 40
200.0
  1
＊
  7
EXTFONT
100
AcDbText
  0
TEXT
  5
154
330
2
100
AcDbEntity
  8
0
100
AcDbText
 10
14950.039
 20
2277.9363
 30
0.0
 40
200.0
  1
＊
  7
EXTFONT
100
AcDbText
  0
TEXT
  5
155
330
2
100
AcDbEntity
  8
0
100
AcDbText
 10
14950.039
 20
2527.9363
 30
0.0
 40
200.0
  1
＊
  7
EXTFONT
100
AcDbText
  0
TEXT
  5
156
330
2
100
AcDbEntity
  8
0
100
AcDbText
 10
14950.039
 20
2777.9363
 30
0.0
 40
200.0
  1
＊
  7
EXTFONT
100
AcDbText
  0
TEXT
  5
157
330
2
100
AcDbEntity
  8
0
100
AcDbText
 10
14950.039
 20
3277.9363
 30
0.0
 40
200.0
  1
＊
  7
EXTFONT
100
AcDbText
  0
TEXT
  5
158
330
2
100
AcDbEntity
  8
0
100
AcDbText
 10
14950.039
 20
3527.9363
 30
0.0
 40
200.0
  1
＊
  7
EXTFONT
100
AcDbText
  0
TEXT
  5
159
330
2
100
AcDbEntity
  8
YKK_F1
100
AcDbText
 10
18546.807
 20
1067.4437
 30
0.0
 40
100.0
  1
担当者
  7
EXTFONT
100
AcDbText
  0
TEXT
  5
15A
330
2
100
AcDbEntity
  8
YKK_F1
100
AcDbText
 10
18546.807
 20
1816.3159
 30
0.0
 40
100.0
  1
管理建築士
  7
EXTFONT
100
AcDbText
  0
LINE
  5
15B
330
2
100
AcDbEntity
  8
YKK_F1
  6
Continuous
100
AcDbLine
 10
22993.422
 20
1949.4363
 30
0.0
 11
22993.422
 21
650.18799
 31
0.0
  0
LINE
  5
15C
330
2
100
AcDbEntity
  8
YKK_F1
  6
Continuous
100
AcDbLine
 10
21494.55
 20
1949.4363
 30
0.0
 11
21494.55
 21
650.18799
 31
0.0
  0
TEXT
  5
15D
330
2
100
AcDbEntity
  8
YKK_F1
100
AcDbText
 10
21544.55
 20
1816.3159
 30
0.0
 40
100.0
  1
設計No.
  7
EXTFONT
100
AcDbText
  0
TEXT
  5
15E
330
2
100
AcDbEntity
  8
YKK_F1
100
AcDbText
 10
21544.55
 20
1317.2556
 30
0.0
 40
100.0
  1
縮尺
  7
EXTFONT
100
AcDbText
  0
TEXT
  5
15F
330
2
100
AcDbEntity
  8
0
100
AcDbText
 10
19600.039
 20
3027.9363
 30
0.0
 40
200.0
  1
＊
  7
EXTFONT
100
AcDbText
  0
TEXT
  5
160
330
2
100
AcDbEntity
  8
0
100
AcDbText
 10
19600.039
 20
2527.9363
 30
0.0
 40
200.0
  1
＊
  7
EXTFONT
100
AcDbText
  0
TEXT
  5
161
330
2
100
AcDbEntity
  8
0
100
AcDbText
 10
19600.039
 20
2277.9363
 30
0.0
 40
200.0
  1
＊
  7
EXTFONT
100
AcDbText
  0
TEXT
  5
162
330
2
100
AcDbEntity
  8
0
100
AcDbText
 10
19600.039
 20
2777.9363
 30
0.0
 40
200.0
  1
＊
  7
EXTFONT
100
AcDbText
  0
TEXT
  5
163
330
2
100
AcDbEntity
  8
0
100
AcDbText
 10
19600.039
 20
3277.9363
 30
0.0
 40
200.0
  1
＊
  7
EXTFONT
100
AcDbText
  0
TEXT
  5
164
330
2
100
AcDbEntity
  8
0
100
AcDbText
 10
19600.039
 20
3527.9363
 30
0.0
 40
200.0
  1
＊
  7
EXTFONT
100
AcDbText
  0
LINE
  5
165
330
2
100
AcDbEntity
  8
YKK_F1
  6
Continuous
100
AcDbLine
 10
22594.174
 20
1351.128
 30
0.0
 11
21893.798
 21
800.75199
 31
0.0
  0
TEXT
  5
166
330
2
100
AcDbEntity
  8
YKK_F1
  6
Continuous
100
AcDbText
 10
21956.956
 20
1113.7219
 30
0.0
 40
150.0
  1
1
100
AcDbText
  0
TEXT
  5
167
330
2
100
AcDbEntity
  8
YKK_F1
  6
Continuous
100
AcDbText
 10
22493.83502704
 20
866.53895907
 30
0.0
 40
150.0
  1
50
100
AcDbText
  0
TEXT
  5
168
330
2
100
AcDbEntity
  8
YKK_F1
100
AcDbText
 10
23043.422
 20
1317.2556
 30
0.0
 40
100.0
  1
図面名
  7
EXTFONT
100
AcDbText
  0
TEXT
  5
169
330
2
100
AcDbEntity
  8
YKK_F1
100
AcDbText
 10
23043.422
 20
1816.3159
 30
0.0
 40
100.0
  1
名称
  7
EXTFONT
100
AcDbText
  0
TEXT
  5
16A
330
2
100
AcDbEntity
  8
0
100
AcDbText
 10
14950.039
 20
4277.9363
 30
0.0
 40
200.0
  1
＊
  7
EXTFONT
100
AcDbText
  0
TEXT
  5
16B
330
2
100
AcDbEntity
  8
0
100
AcDbText
 10
14950.039
 20
4027.9363
 30
0.0
 40
200.0
  1
＊
  7
EXTFONT
100
AcDbText
  0
TEXT
  5
16C
330
2
100
AcDbEntity
  8
0
100
AcDbText
 10
14950.039
 20
10232.9363
 30
0.0
 40
200.0
  1
引分け戸 【内動タイプ】
  7
EXTFONT
100
AcDbText
  0
TEXT
  5
16D
330
2
100
AcDbEntity
  8
0
100
AcDbText
 10
14950.039
 20
9982.9363
 30
0.0
 40
200.0
  1
W=2,800  H=2,550  見込100
  7
EXTFONT
100
AcDbText
  0
TEXT
  5
16E
330
2
100
AcDbEntity
  8
0
100
AcDbText
 10
14950.039
 20
9482.9363
 30
0.0
 40
200.0
  1
シルバー･ｶﾗｰ(ブロンズ､ステン､ブラック)
  7
EXTFONT
100
AcDbText
  0
TEXT
  5
16F
330
2
100
AcDbEntity
  8
0
100
AcDbText
 10
14950.039
 20
8232.9363
 30
0.0
 40
200.0
  1
YKKAP　SYSTEMA 510e同等品
  7
EXTFONT
100
AcDbText
  0
TEXT
  5
170
330
2
100
AcDbEntity
  8
0
100
AcDbText
 10
14950.039
 20
8982.9363
 30
0.0
 40
190.0
  1
召合せ框キャップ・戸車・障子ストッパー・
  7
EXTFONT
100
AcDbText
  0
TEXT
  5
171
330
2
100
AcDbEntity
  8
0
100
AcDbText
 10
14950.039
 20
8732.9363
 30
0.0
 40
200.0
  1
本締錠・押棒・開口制限ストッパー・
  7
EXTFONT
100
AcDbText
  0
TEXT
  5
172
330
2
100
AcDbEntity
  8
0
100
AcDbText
 10
14950.039
 20
8482.9363
 30
0.0
 40
200.0
  1
パネル一体型下框
  7
EXTFONT
100
AcDbText
  0
TEXT
  5
173
330
2
100
AcDbEntity
  8
0
100
AcDbText
 10
15150.039
 20
7957.9363
 30
0.0
 40
200.0
  1
＊
  7
EXTFONT
100
AcDbText
  0
CIRCLE
  5
174
330
2
100
AcDbEntity
  8
YKK_F1
100
AcDbCircle
 10
15250.039
 20
7957.9363
 30
0.0
 40
233.3333333333333
  0
LINE
  5
175
330
2
100
AcDbEntity
  8
YKK_F1
  6
Continuous
100
AcDbLine
 10
15016.70566667
 20
7957.9363
 30
0.0
 11
15483.37233333
 21
7957.9363
 31
0.0
  0
TEXT
  5
176
330
2
100
AcDbEntity
  8
0
100
AcDbText
 10
14950.039
 20
7482.9363
 30
0.0
 40
200.0
  1
＊
  7
EXTFONT
100
AcDbText
  0
TEXT
  5
177
330
2
100
AcDbEntity
  8
YKK_F1
100
AcDbText
 10
15090.039
 20
7757.9363
 30
0.0
 40
160.0
  1
ＡＷ
  7
EXTFONT
100
AcDbText
  0
TEXT
  5
178
330
2
100
AcDbEntity
  8
0
100
AcDbText
 10
14950.039
 20
9232.9363
 30
0.0
 40
200.0
  1
FL・透明
  7
EXTFONT
100
AcDbText
  0
TEXT
  5
179
330
2
100
AcDbEntity
  8
0
100
AcDbText
 10
14950.039
 20
9732.9363
 30
0.0
 40
200.0
  1
アルミ製
  7
EXTFONT
100
AcDbText
  0
TEXT
  5
17A
330
2
100
AcDbEntity
  8
0
100
AcDbText
 10
18550.039
 20
7732.9363
 30
0.0
 40
200.0
  1
＊
  7
EXTFONT
100
AcDbText
  0
TEXT
  5
17B
330
2
100
AcDbEntity
  8
YKK_F1
100
AcDbText
 10
18970.039
 20
7732.9363
 30
0.0
 40
200.0
  1
箇所
  7
EXTFONT
100
AcDbText
  0
TEXT
  5
17C
330
2
100
AcDbEntity
  8
0
100
AcDbText
 10
19600.039
 20
4277.9363
 30
0.0
 40
200.0
  1
＊
  7
EXTFONT
100
AcDbText
  0
TEXT
  5
17D
330
2
100
AcDbEntity
  8
0
100
AcDbText
 10
19600.039
 20
4027.9363
 30
0.0
 40
200.0
  1
＊
  7
EXTFONT
100
AcDbText
  0
TEXT
  5
17E
330
2
100
AcDbEntity
  8
0
100
AcDbText
 10
19800.039
 20
7957.9363
 30
0.0
 40
200.0
  1
＊
  7
EXTFONT
100
AcDbText
  0
CIRCLE
  5
17F
330
2
100
AcDbEntity
  8
YKK_F1
100
AcDbCircle
 10
19900.039
 20
7957.9363
 30
0.0
 40
233.3333333333333
  0
LINE
  5
180
330
2
100
AcDbEntity
  8
YKK_F1
  6
Continuous
100
AcDbLine
 10
19666.70566667
 20
7957.9363
 30
0.0
 11
20133.37233333
 21
7957.9363
 31
0.0
  0
TEXT
  5
181
330
2
100
AcDbEntity
  8
YKK_F1
100
AcDbText
 10
19740.039
 20
7757.9363
 30
0.0
 40
160.0
  1
ＡＷ
  7
EXTFONT
100
AcDbText
  0
TEXT
  5
182
330
2
100
AcDbEntity
  8
0
100
AcDbText
 10
19600.039
 20
7482.9363
 30
0.0
 40
200.0
  1
＊
  7
EXTFONT
100
AcDbText
  0
TEXT
  5
183
330
2
100
AcDbEntity
  8
0
100
AcDbText
 10
22900.039
 20
7482.9363
 30
0.0
 40
200.0
  1
＊
  7
EXTFONT
100
AcDbText
  0
TEXT
  5
184
330
2
100
AcDbEntity
  8
0
100
AcDbText
 10
23200.039
 20
7732.9363
 30
0.0
 40
200.0
  1
＊
  7
EXTFONT
100
AcDbText
  0
TEXT
  5
185
330
2
100
AcDbEntity
  8
YKK_F1
100
AcDbText
 10
23620.039
 20
7732.9363
 30
0.0
 40
200.0
  1
箇所
  7
EXTFONT
100
AcDbText
  0
TEXT
  5
186
330
2
100
AcDbEntity
  8
0
100
AcDbText
 10
24250.039
 20
3777.9363
 30
0.0
 40
200.0
  1
＊
  7
EXTFONT
100
AcDbText
  0
LINE
  5
187
330
2
100
AcDbEntity
  8
YKK_F1
  6
Continuous
100
AcDbLine
 10
28890.228
 20
1651.1279
 30
0.0
 11
28090.604
 21
1001.504
 31
0.0
  0
TEXT
  5
188
330
2
100
AcDbEntity
  8
YKK_F1
100
AcDbText
 10
28617.37641269
 20
751.11699243
 30
0.0
 40
100.0
  1
枚の内
  7
EXTFONT
100
AcDbText
  0
LINE
  5
189
330
2
100
AcDbEntity
  8
YKK_F1
  6
Continuous
100
AcDbLine
 10
27990.79
 20
1949.4363
 30
0.0
 11
27990.79
 21
650.18799
 31
0.0
  0
TEXT
  5
18A
330
2
100
AcDbEntity
  8
0
100
AcDbText
 10
24250.039
 20
3027.9363
 30
0.0
 40
200.0
  1
＊
  7
EXTFONT
100
AcDbText
  0
TEXT
  5
18B
330
2
100
AcDbEntity
  8
0
100
AcDbText
 10
24250.039
 20
2527.9363
 30
0.0
 40
200.0
  1
＊
  7
EXTFONT
100
AcDbText
  0
TEXT
  5
18C
330
2
100
AcDbEntity
  8
0
100
AcDbText
 10
24250.039
 20
2277.9363
 30
0.0
 40
200.0
  1
＊
  7
EXTFONT
100
AcDbText
  0
TEXT
  5
18D
330
2
100
AcDbEntity
  8
0
100
AcDbText
 10
24250.039
 20
2777.9363
 30
0.0
 40
200.0
  1
＊
  7
EXTFONT
100
AcDbText
  0
TEXT
  5
18E
330
2
100
AcDbEntity
  8
0
100
AcDbText
 10
24250.039
 20
3277.9363
 30
0.0
 40
200.0
  1
＊
  7
EXTFONT
100
AcDbText
  0
TEXT
  5
18F
330
2
100
AcDbEntity
  8
0
100
AcDbText
 10
24250.039
 20
3527.9363
 30
0.0
 40
200.0
  1
＊
  7
EXTFONT
100
AcDbText
  0
TEXT
  5
190
330
2
100
AcDbEntity
  8
YKK_F1
100
AcDbText
 10
26990.79
 20
1625.376
 30
0.0
 40
150.0
  1
工事設計図
  7
EXTFONT
100
AcDbText
  0
TEXT
  5
191
330
2
100
AcDbEntity
  8
YKK_F1
100
AcDbText
 10
28040.79
 20
1816.3159
 30
0.0
 40
100.0
  1
図面No.
  7
EXTFONT
100
AcDbText
  0
TEXT
  5
192
330
2
100
AcDbEntity
  8
0
100
AcDbText
 10
24250.039
 20
4277.9363
 30
0.0
 40
200.0
  1
＊
  7
EXTFONT
100
AcDbText
  0
TEXT
  5
193
330
2
100
AcDbEntity
  8
0
100
AcDbText
 10
24250.039
 20
4027.9363
 30
0.0
 40
200.0
  1
＊
  7
EXTFONT
100
AcDbText
  0
TEXT
  5
194
330
2
100
AcDbEntity
  8
0
100
AcDbText
 10
24250.039
 20
8732.9363
 30
0.0
 40
200.0
  1
＊
  7
EXTFONT
100
AcDbText
  0
TEXT
  5
195
330
2
100
AcDbEntity
  8
0
100
AcDbText
 10
24450.039
 20
7957.9363
 30
0.0
 40
200.0
  1
＊
  7
EXTFONT
100
AcDbText
  0
CIRCLE
  5
196
330
2
100
AcDbEntity
  8
YKK_F1
100
AcDbCircle
 10
24550.039
 20
7957.9363
 30
0.0
 40
233.3333333333333
  0
LINE
  5
197
330
2
100
AcDbEntity
  8
YKK_F1
  6
Continuous
100
AcDbLine
 10
24316.70566667
 20
7957.9363
 30
0.0
 11
24783.37233333
 21
7957.9363
 31
0.0
  0
TEXT
  5
198
330
2
100
AcDbEntity
  8
YKK_F1
100
AcDbText
 10
24390.039
 20
7757.9363
 30
0.0
 40
160.0
  1
ＡＷ
  7
EXTFONT
100
AcDbText
  0
TEXT
  5
199
330
2
100
AcDbEntity
  8
0
100
AcDbText
 10
24250.039
 20
7482.9363
 30
0.0
 40
200.0
  1
＊
  7
EXTFONT
100
AcDbText
  0
TEXT
  5
19A
330
2
100
AcDbEntity
  8
0
100
AcDbText
 10
24250.039
 20
8232.9363
 30
0.0
 40
200.0
  1
＊
  7
EXTFONT
100
AcDbText
  0
TEXT
  5
19B
330
2
100
AcDbEntity
  8
0
100
AcDbText
 10
24250.039
 20
8482.9363
 30
0.0
 40
200.0
  1
＊
  7
EXTFONT
100
AcDbText
  0
TEXT
  5
19C
330
2
100
AcDbEntity
  8
0
100
AcDbText
 10
24250.039
 20
8982.9363
 30
0.0
 40
200.0
  1
＊
  7
EXTFONT
100
AcDbText
  0
TEXT
  5
19D
330
2
100
AcDbEntity
  8
0
100
AcDbText
 10
24250.039
 20
9232.9363
 30
0.0
 40
200.0
  1
＊
  7
EXTFONT
100
AcDbText
  0
TEXT
  5
19E
330
2
100
AcDbEntity
  8
0
100
AcDbText
 10
24250.039
 20
9482.9363
 30
0.0
 40
200.0
  1
＊
  7
EXTFONT
100
AcDbText
  0
TEXT
  5
19F
330
2
100
AcDbEntity
  8
0
100
AcDbText
 10
24250.039
 20
9982.9363
 30
0.0
 40
200.0
  1
＊
  7
EXTFONT
100
AcDbText
  0
TEXT
  5
1A0
330
2
100
AcDbEntity
  8
0
100
AcDbText
 10
24250.039
 20
9732.9363
 30
0.0
 40
200.0
  1
＊
  7
EXTFONT
100
AcDbText
  0
TEXT
  5
1A1
330
2
100
AcDbEntity
  8
0
100
AcDbText
 10
24250.039
 20
10232.9363
 30
0.0
 40
200.0
  1
＊
  7
EXTFONT
100
AcDbText
  0
TEXT
  5
1A2
330
2
100
AcDbEntity
  8
0
100
AcDbText
 10
27550.039
 20
7482.9363
 30
0.0
 40
200.0
  1
＊
  7
EXTFONT
100
AcDbText
  0
TEXT
  5
1A3
330
2
100
AcDbEntity
  8
0
100
AcDbText
 10
27850.039
 20
7732.9363
 30
0.0
 40
200.0
  1
＊
  7
EXTFONT
100
AcDbText
  0
TEXT
  5
1A4
330
2
100
AcDbEntity
  8
YKK_F1
100
AcDbText
 10
28270.039
 20
7732.9363
 30
0.0
 40
200.0
  1
箇所
  7
EXTFONT
100
AcDbText
  0
LINE
  5
1A5
330
2
100
AcDbEntity
  8
YKK_A1
  6
ByBlock
 48
0.5
100
AcDbLine
 10
19942.84612664
 20
11655.43624952
 30
-0.00000005
 11
19822.84611974
 21
11724.71827364
 31
0.0
210
-0.0000000004102069
220
0.0
230
-1.0
  0
LINE
  5
1A6
330
2
100
AcDbEntity
  8
YKK_A1
  6
ByBlock
 48
0.5
100
AcDbLine
 10
19942.84612664
 20
11655.43624952
 30
-0.00000005
 11
19822.84611974
 21
11586.15422538
 31
0.0
210
-0.0000000004102069
220
0.0
230
-1.0
  0
LINE
  5
1A7
330
2
100
AcDbEntity
  8
YKK_A1
  6
ByBlock
 48
0.5
100
AcDbLine
 10
19037.78950461
 20
11655.43624952
 30
-0.00000005
 11
19157.7895115
 21
11724.71827364
 31
0.0
210
0.0000000004102069
220
0.0
230
-1.0
  0
LINE
  5
1A8
330
2
100
AcDbEntity
  8
YKK_A1
  6
ByBlock
 48
0.5
100
AcDbLine
 10
19037.78950461
 20
11655.43624952
 30
-0.00000005
 11
19157.7895115
 21
11586.15422538
 31
0.0
210
0.0000000004102069
220
0.0
230
-1.0
  0
LINE
  5
1A9
330
2
100
AcDbEntity
  8
YKK_A1
100
AcDbLine
 10
20905.04241388
 20
10655.4362995
 30
0.0
 11
20905.04241388
 21
13210.43601796
 31
0.0
  0
LINE
  5
1AA
330
2
100
AcDbEntity
  8
YKK_F1
  6
Continuous
100
AcDbLine
 10
19500.039
 20
14162.9363
 30
0.0
 11
19500.039
 21
20117.9363
 31
0.0
  0
LINE
  5
1AB
330
2
100
AcDbEntity
  8
YKK_A1
  6
ByBlock
 48
0.5
100
AcDbLine
 10
19822.84611974
 20
11685.4362513
 30
0.0
 11
19702.84613259
 21
11685.4362513
 31
0.00000005
210
-0.0000000004102069
220
0.0
230
-1.0
  0
LINE
  5
1AC
330
2
100
AcDbEntity
  8
YKK_A1
  6
ByBlock
 48
0.5
100
AcDbLine
 10
19702.84613259
 20
11625.43624773
 30
0.00000005
 11
19822.84611974
 21
11625.43624773
 31
0.0
210
-0.0000000004102069
220
0.0
230
-1.0
  0
LINE
  5
1AD
330
2
100
AcDbEntity
  8
YKK_A1
  6
ByBlock
 48
0.5
100
AcDbLine
 10
19157.7895115
 20
11685.4362513
 30
0.0
 11
19277.78949865
 21
11685.4362513
 31
0.00000005
210
0.0000000004102069
220
0.0
230
-1.0
  0
LINE
  5
1AE
330
2
100
AcDbEntity
  8
YKK_A1
  6
ByBlock
 48
0.5
100
AcDbLine
 10
19277.78949865
 20
11625.43624773
 30
0.00000005
 11
19157.7895115
 21
11625.43624773
 31
0.0
210
0.0000000004102069
220
0.0
230
-1.0
  0
LINE
  5
1AF
330
2
100
AcDbEntity
  8
YKK_A1
100
AcDbLine
 10
18100.03715304
 20
12655.43619349
 30
0.0
 11
20900.03716781
 21
12655.43619349
 31
0.0
  0
LINE
  5
1B0
330
2
100
AcDbEntity
  8
YKK_A1
100
AcDbLine
 10
18100.03715304
 20
12735.43619349
 30
0.0
 11
20900.03716781
 21
12735.43619349
 31
0.0
  0
LINE
  5
1B1
330
2
100
AcDbEntity
  8
YKK_A1
100
AcDbLine
 10
18095.03558612
 20
10655.4362995
 30
0.0
 11
20905.04241388
 21
10655.4362995
 31
0.0
  0
LINE
  5
1B2
330
2
100
AcDbEntity
  8
YKK_A1
100
AcDbLine
 10
18100.03715304
 20
13205.43629967
 30
0.0
 11
20900.03716781
 21
13205.43629967
 31
0.0
  0
LINE
  5
1B3
330
2
100
AcDbEntity
  8
YKK_A1
100
AcDbLine
 10
20905.04241388
 20
13210.43601796
 30
0.0
 11
18095.03558612
 21
13210.43601796
 31
0.0
  0
CIRCLE
  5
1B4
330
2
100
AcDbEntity
  8
YKK_F1
100
AcDbCircle
 10
15250.039
 20
13912.9363
 30
0.0
 40
233.3333333333333
  0
TEXT
  5
1B5
330
2
100
AcDbEntity
  8
YKK_F1
100
AcDbText
 10
15090.039
 20
13712.9363
 30
0.0
 40
160.0
  1
ＡＷ
  7
EXTFONT
100
AcDbText
  0
TEXT
  5
1B6
330
2
100
AcDbEntity
  8
0
100
AcDbText
 10
14950.039
 20
13437.9363
 30
0.0
 40
200.0
  1
＊
  7
EXTFONT
100
AcDbText
  0
LINE
  5
1B7
330
2
100
AcDbEntity
  8
YKK_A1
100
AcDbLine
 10
19472.53855071
 20
10655.4362995
 30
0.0
 11
19472.53855071
 21
12655.43619349
 31
0.0
  0
LINE
  5
1B8
330
2
100
AcDbEntity
  8
YKK_A1
100
AcDbLine
 10
18805.03715328
 20
10655.4362995
 30
0.0
 11
18805.03715328
 21
12655.43619349
 31
0.0
  0
LINE
  5
1B9
330
2
100
AcDbEntity
  8
YKK_A1
100
AcDbLine
 10
18769.03715328
 20
10655.4362995
 30
0.0
 11
18769.03715328
 21
12655.43619349
 31
0.0
  0
LINE
  5
1BA
330
2
100
AcDbEntity
  8
YKK_A1
100
AcDbLine
 10
18100.03715304
 20
10655.4362995
 30
0.0
 11
18100.03715304
 21
13210.43601796
 31
0.0
  0
LINE
  5
1BB
330
2
100
AcDbEntity
  8
YKK_A1
100
AcDbLine
 10
18095.03558612
 20
10655.4362995
 30
0.0
 11
18095.03558612
 21
13210.43601796
 31
0.0
  0
LINE
  5
1BC
330
2
100
AcDbEntity
  8
YKK_A1
100
AcDbLine
 10
18100.03715304
 20
10777.43627851
 30
0.0
 11
18769.03715328
 21
10777.43627851
 31
0.0
  0
LINE
  5
1BD
330
2
100
AcDbEntity
  8
YKK_A1
100
AcDbLine
 10
18805.03715328
 20
10777.43627851
 30
0.0
 11
19472.53855071
 21
10777.43627851
 31
0.0
  0
TEXT
  5
1BE
330
2
100
AcDbEntity
  8
YKK_A1
100
AcDbText
 10
18641.19497381
 20
10857.97277204
 30
0.0
 40
60.0
  1
F
 41
0.8
  7
YKK_SGSTYLE1
 72
     2
 11
18680.05211667
 21
10857.97277204
 31
0.0
100
AcDbText
  0
LINE
  5
1BF
330
2
100
AcDbEntity
  8
YKK_A1
  6
ByBlock
 48
0.5
100
AcDbLine
 10
19822.84611974
 20
11586.15422538
 30
0.0
 11
19822.84611974
 21
11625.43624773
 31
0.0
210
-0.0000000004102069
220
0.0
230
-1.0
  0
LINE
  5
1C0
330
2
100
AcDbEntity
  8
YKK_A1
  6
ByBlock
 48
0.5
100
AcDbLine
 10
19822.84611974
 20
11685.4362513
 30
0.0
 11
19822.84611974
 21
11724.71827364
 31
0.0
210
-0.0000000004102069
220
0.0
230
-1.0
  0
LINE
  5
1C1
330
2
100
AcDbEntity
  8
YKK_A1
100
AcDbLine
 10
19482.03715304
 20
12735.43619349
 30
0.0
 11
19482.03715304
 21
13205.43629967
 31
0.0
  0
LINE
  5
1C2
330
2
100
AcDbEntity
  8
YKK_A1
100
AcDbLine
 10
19472.53855071
 20
12575.43619351
 30
0.0
 11
18805.03715328
 21
12575.43619351
 31
0.0
  0
TEXT
  5
1C3
330
2
100
AcDbEntity
  8
YKK_A1
100
AcDbText
 10
19354.19497358
 20
12815.97268702
 30
0.0
 40
60.0
  1
F
 41
0.8
  7
YKK_SGSTYLE1
 72
     2
 11
19393.05211643
 21
12815.97268702
 31
0.0
100
AcDbText
  0
LINE
  5
1C4
330
2
100
AcDbEntity
  8
YKK_F1
  6
Continuous
100
AcDbLine
 10
15016.70566667
 20
13912.9363
 30
0.0
 11
15483.37233333
 21
13912.9363
 31
0.0
  0
TEXT
  5
1C5
330
2
100
AcDbEntity
  8
0
100
AcDbText
 10
15150.039
 20
13912.9363
 30
0.0
 40
200.0
  1
＊
  7
EXTFONT
100
AcDbText
  0
TEXT
  5
1C6
330
2
100
AcDbEntity
  8
0
100
AcDbText
 10
14950.039
 20
14437.9363
 30
0.0
 40
200.0
  1
＊
  7
EXTFONT
100
AcDbText
  0
TEXT
  5
1C7
330
2
100
AcDbEntity
  8
0
100
AcDbText
 10
14950.039
 20
14187.9363
 30
0.0
 40
200.0
  1
＊
  7
EXTFONT
100
AcDbText
  0
TEXT
  5
1C8
330
2
100
AcDbEntity
  8
0
100
AcDbText
 10
14950.039
 20
14937.9363
 30
0.0
 40
200.0
  1
＊
  7
EXTFONT
100
AcDbText
  0
TEXT
  5
1C9
330
2
100
AcDbEntity
  8
0
100
AcDbText
 10
14950.039
 20
14687.9363
 30
0.0
 40
200.0
  1
＊
  7
EXTFONT
100
AcDbText
  0
TEXT
  5
1CA
330
2
100
AcDbEntity
  8
0
100
AcDbText
 10
14950.039
 20
15187.9363
 30
0.0
 40
200.0
  1
＊
  7
EXTFONT
100
AcDbText
  0
TEXT
  5
1CB
330
2
100
AcDbEntity
  8
0
100
AcDbText
 10
14950.039
 20
16187.9363
 30
0.0
 40
200.0
  1
＊
  7
EXTFONT
100
AcDbText
  0
TEXT
  5
1CC
330
2
100
AcDbEntity
  8
0
100
AcDbText
 10
14950.039
 20
15687.9363
 30
0.0
 40
200.0
  1
＊
  7
EXTFONT
100
AcDbText
  0
TEXT
  5
1CD
330
2
100
AcDbEntity
  8
0
100
AcDbText
 10
14950.039
 20
15437.9363
 30
0.0
 40
200.0
  1
＊
  7
EXTFONT
100
AcDbText
  0
TEXT
  5
1CE
330
2
100
AcDbEntity
  8
0
100
AcDbText
 10
14950.039
 20
15937.9363
 30
0.0
 40
200.0
  1
＊
  7
EXTFONT
100
AcDbText
  0
TEXT
  5
1CF
330
2
100
AcDbEntity
  8
YKK_F1
100
AcDbText
 10
23620.039
 20
13687.9363
 30
0.0
 40
200.0
  1
箇所
  7
EXTFONT
100
AcDbText
  0
TEXT
  5
1D0
330
2
100
AcDbEntity
  8
0
100
AcDbText
 10
23200.039
 20
13687.9363
 30
0.0
 40
200.0
  1
＊
  7
EXTFONT
100
AcDbText
  0
LINE
  5
1D1
330
2
100
AcDbEntity
  8
YKK_A1
100
AcDbLine
 10
20195.03716758
 20
10655.4362995
 30
0.0
 11
20195.03716758
 21
12655.43619349
 31
0.0
  0
LINE
  5
1D2
330
2
100
AcDbEntity
  8
YKK_A1
100
AcDbLine
 10
19527.53873019
 20
10655.4362995
 30
0.0
 11
19527.53873019
 21
12655.43619349
 31
0.0
  0
LINE
  5
1D3
330
2
100
AcDbEntity
  8
YKK_A1
100
AcDbLine
 10
19502.53873019
 20
10655.4362995
 30
0.0
 11
19502.53873019
 21
12655.43619349
 31
0.0
  0
LINE
  5
1D4
330
2
100
AcDbEntity
  8
YKK_A1
100
AcDbLine
 10
19497.53855071
 20
10655.4362995
 30
0.0
 11
19497.53855071
 21
12655.43619349
 31
0.0
  0
LINE
  5
1D5
330
2
100
AcDbEntity
  8
YKK_A1
100
AcDbLine
 10
20231.03716758
 20
10655.4362995
 30
0.0
 11
20231.03716758
 21
12655.43619349
 31
0.0
  0
LINE
  5
1D6
330
2
100
AcDbEntity
  8
YKK_A1
100
AcDbLine
 10
20900.03716781
 20
10655.4362995
 30
0.0
 11
20900.03716781
 21
13210.43601796
 31
0.0
  0
LINE
  5
1D7
330
2
100
AcDbEntity
  8
YKK_A1
100
AcDbLine
 10
20231.03716758
 20
10777.43627851
 30
0.0
 11
20900.03716781
 21
10777.43627851
 31
0.0
  0
LINE
  5
1D8
330
2
100
AcDbEntity
  8
YKK_A1
100
AcDbLine
 10
19527.53873019
 20
10777.43627851
 30
0.0
 11
20195.03716758
 21
10777.43627851
 31
0.0
  0
LINE
  5
1D9
330
2
100
AcDbEntity
  8
YKK_A1
  6
ByBlock
 48
0.5
100
AcDbLine
 10
19157.7895115
 20
11586.15422538
 30
0.0
 11
19157.7895115
 21
11625.43624773
 31
0.0
210
0.0000000004102069
220
0.0
230
-1.0
  0
LINE
  5
1DA
330
2
100
AcDbEntity
  8
YKK_A1
  6
ByBlock
 48
0.5
100
AcDbLine
 10
19157.7895115
 20
11685.4362513
 30
0.0
 11
19157.7895115
 21
11724.71827364
 31
0.0
210
0.0000000004102069
220
0.0
230
-1.0
  0
TEXT
  5
1DB
330
2
100
AcDbEntity
  8
YKK_A1
100
AcDbText
 10
20772.19498835
 20
10857.97277204
 30
0.0
 40
60.0
  1
F
 41
0.8
  7
YKK_SGSTYLE1
 72
     2
 11
20811.05213121
 21
10857.97277204
 31
0.0
100
AcDbText
  0
LINE
  5
1DC
330
2
100
AcDbEntity
  8
YKK_A1
100
AcDbLine
 10
19518.03715304
 20
12735.43619349
 30
0.0
 11
19518.03715304
 21
13205.43629967
 31
0.0
  0
LINE
  5
1DD
330
2
100
AcDbEntity
  8
YKK_A1
100
AcDbLine
 10
19527.53873019
 20
12575.43619351
 30
0.0
 11
20195.03716758
 21
12575.43619351
 31
0.0
  0
TEXT
  5
1DE
330
2
100
AcDbEntity
  8
YKK_A1
100
AcDbText
 10
20772.19498835
 20
12815.97268702
 30
0.0
 40
60.0
  1
F
 41
0.8
  7
YKK_SGSTYLE1
 72
     2
 11
20811.05213121
 21
12815.97268702
 31
0.0
100
AcDbText
  0
TEXT
  5
1DF
330
2
100
AcDbEntity
  8
0
100
AcDbText
 10
22900.039
 20
13437.9363
 30
0.0
 40
200.0
  1
＊
  7
EXTFONT
100
AcDbText
  0
TEXT
  5
1E0
330
2
100
AcDbEntity
  8
0
100
AcDbText
 10
19600.039
 20
14187.9363
 30
0.0
 40
200.0
  1
＊
  7
EXTFONT
100
AcDbText
  0
TEXT
  5
1E1
330
2
100
AcDbEntity
  8
0
100
AcDbText
 10
19600.039
 20
14437.9363
 30
0.0
 40
200.0
  1
＊
  7
EXTFONT
100
AcDbText
  0
TEXT
  5
1E2
330
2
100
AcDbEntity
  8
0
100
AcDbText
 10
19600.039
 20
14937.9363
 30
0.0
 40
200.0
  1
＊
  7
EXTFONT
100
AcDbText
  0
TEXT
  5
1E3
330
2
100
AcDbEntity
  8
0
100
AcDbText
 10
19600.039
 20
14687.9363
 30
0.0
 40
200.0
  1
＊
  7
EXTFONT
100
AcDbText
  0
TEXT
  5
1E4
330
2
100
AcDbEntity
  8
0
100
AcDbText
 10
19600.039
 20
15187.9363
 30
0.0
 40
200.0
  1
＊
  7
EXTFONT
100
AcDbText
  0
TEXT
  5
1E5
330
2
100
AcDbEntity
  8
0
100
AcDbText
 10
19600.039
 20
16187.9363
 30
0.0
 40
200.0
  1
＊
  7
EXTFONT
100
AcDbText
  0
TEXT
  5
1E6
330
2
100
AcDbEntity
  8
0
100
AcDbText
 10
19600.039
 20
15687.9363
 30
0.0
 40
200.0
  1
＊
  7
EXTFONT
100
AcDbText
  0
TEXT
  5
1E7
330
2
100
AcDbEntity
  8
0
100
AcDbText
 10
19600.039
 20
15437.9363
 30
0.0
 40
200.0
  1
＊
  7
EXTFONT
100
AcDbText
  0
TEXT
  5
1E8
330
2
100
AcDbEntity
  8
0
100
AcDbText
 10
19600.039
 20
15937.9363
 30
0.0
 40
200.0
  1
＊
  7
EXTFONT
100
AcDbText
  0
LINE
  5
1E9
330
2
100
AcDbEntity
  8
YKK_A1
  6
ByBlock
 48
0.5
100
AcDbLine
 10
19702.84613259
 20
11685.4362513
 30
0.00000005
 11
19702.84613259
 21
11625.43624773
 31
0.00000005
210
-0.0000000004102069
220
0.0
230
-1.0
  0
LINE
  5
1EA
330
2
100
AcDbEntity
  8
YKK_A1
  6
ByBlock
 48
0.5
100
AcDbLine
 10
19277.78949865
 20
11685.4362513
 30
0.00000005
 11
19277.78949865
 21
11625.43624773
 31
0.00000005
210
0.0000000004102069
220
0.0
230
-1.0
  0
TEXT
  5
1EB
330
2
100
AcDbEntity
  8
0
100
AcDbText
 10
14950.039
 20
19392.9363
 30
0.0
 40
200.0
  1
＊
  7
EXTFONT
100
AcDbText
  0
CIRCLE
  5
1EC
330
2
100
AcDbEntity
  8
YKK_F1
100
AcDbCircle
 10
15250.039
 20
19867.9363
 30
0.0
 40
233.3333333333333
  0
LINE
  5
1ED
330
2
100
AcDbEntity
  8
YKK_F1
  6
Continuous
100
AcDbLine
 10
15016.70566667
 20
19867.9363
 30
0.0
 11
15483.37233333
 21
19867.9363
 31
0.0
  0
TEXT
  5
1EE
330
2
100
AcDbEntity
  8
0
100
AcDbText
 10
15150.039
 20
19867.9363
 30
0.0
 40
200.0
  1
＊
  7
EXTFONT
100
AcDbText
  0
TEXT
  5
1EF
330
2
100
AcDbEntity
  8
YKK_F1
100
AcDbText
 10
15090.039
 20
19667.9363
 30
0.0
 40
160.0
  1
ＡＷ
  7
EXTFONT
100
AcDbText
  0
TEXT
  5
1F0
330
2
100
AcDbEntity
  8
0
100
AcDbText
 10
18550.039
 20
19642.9363
 30
0.0
 40
200.0
  1
＊
  7
EXTFONT
100
AcDbText
  0
TEXT
  5
1F1
330
2
100
AcDbEntity
  8
YKK_F1
100
AcDbText
 10
18970.039
 20
19642.9363
 30
0.0
 40
200.0
  1
箇所
  7
EXTFONT
100
AcDbText
  0
TEXT
  5
1F2
330
2
100
AcDbEntity
  8
0
100
AcDbText
 10
19600.039
 20
19392.9363
 30
0.0
 40
200.0
  1
＊
  7
EXTFONT
100
AcDbText
  0
TEXT
  5
1F3
330
2
100
AcDbEntity
  8
YKK_F1
100
AcDbText
 10
19740.039
 20
19667.9363
 30
0.0
 40
160.0
  1
ＡＷ
  7
EXTFONT
100
AcDbText
  0
CIRCLE
  5
1F4
330
2
100
AcDbEntity
  8
YKK_F1
100
AcDbCircle
 10
19900.039
 20
19867.9363
 30
0.0
 40
233.3333333333333
  0
LINE
  5
1F5
330
2
100
AcDbEntity
  8
YKK_F1
  6
Continuous
100
AcDbLine
 10
19666.70566667
 20
19867.9363
 30
0.0
 11
20133.37233333
 21
19867.9363
 31
0.0
  0
TEXT
  5
1F6
330
2
100
AcDbEntity
  8
0
100
AcDbText
 10
19800.039
 20
19867.9363
 30
0.0
 40
200.0
  1
＊
  7
EXTFONT
100
AcDbText
  0
TEXT
  5
1F7
330
2
100
AcDbEntity
  8
0
100
AcDbText
 10
22900.039
 20
19392.9363
 30
0.0
 40
200.0
  1
＊
  7
EXTFONT
100
AcDbText
  0
TEXT
  5
1F8
330
2
100
AcDbEntity
  8
0
100
AcDbText
 10
23200.039
 20
19642.9363
 30
0.0
 40
200.0
  1
＊
  7
EXTFONT
100
AcDbText
  0
TEXT
  5
1F9
330
2
100
AcDbEntity
  8
YKK_F1
100
AcDbText
 10
23620.039
 20
19642.9363
 30
0.0
 40
200.0
  1
箇所
  7
EXTFONT
100
AcDbText
  0
TEXT
  5
1FA
330
2
100
AcDbEntity
  8
0
100
AcDbText
 10
27850.039
 20
13687.9363
 30
0.0
 40
200.0
  1
＊
  7
EXTFONT
100
AcDbText
  0
TEXT
  5
1FB
330
2
100
AcDbEntity
  8
YKK_F1
100
AcDbText
 10
28270.039
 20
13687.9363
 30
0.0
 40
200.0
  1
箇所
  7
EXTFONT
100
AcDbText
  0
TEXT
  5
1FC
330
2
100
AcDbEntity
  8
YKK_F1
100
AcDbText
 10
24390.039
 20
13712.9363
 30
0.0
 40
160.0
  1
ＡＷ
  7
EXTFONT
100
AcDbText
  0
CIRCLE
  5
1FD
330
2
100
AcDbEntity
  8
YKK_F1
100
AcDbCircle
 10
24550.039
 20
13912.9363
 30
0.0
 40
233.3333333333333
  0
TEXT
  5
1FE
330
2
100
AcDbEntity
  8
0
100
AcDbText
 10
24250.039
 20
13437.9363
 30
0.0
 40
200.0
  1
＊
  7
EXTFONT
100
AcDbText
  0
TEXT
  5
1FF
330
2
100
AcDbEntity
  8
0
100
AcDbText
 10
27550.039
 20
13437.9363
 30
0.0
 40
200.0
  1
＊
  7
EXTFONT
100
AcDbText
  0
LINE
  5
200
330
2
100
AcDbEntity
  8
YKK_F1
  6
Continuous
100
AcDbLine
 10
24316.70566667
 20
13912.9363
 30
0.0
 11
24783.37233333
 21
13912.9363
 31
0.0
  0
TEXT
  5
201
330
2
100
AcDbEntity
  8
0
100
AcDbText
 10
24450.039
 20
13912.9363
 30
0.0
 40
200.0
  1
＊
  7
EXTFONT
100
AcDbText
  0
TEXT
  5
202
330
2
100
AcDbEntity
  8
0
100
AcDbText
 10
24250.039
 20
14437.9363
 30
0.0
 40
200.0
  1
＊
  7
EXTFONT
100
AcDbText
  0
TEXT
  5
203
330
2
100
AcDbEntity
  8
0
100
AcDbText
 10
24250.039
 20
14187.9363
 30
0.0
 40
200.0
  1
＊
  7
EXTFONT
100
AcDbText
  0
TEXT
  5
204
330
2
100
AcDbEntity
  8
0
100
AcDbText
 10
24250.039
 20
14937.9363
 30
0.0
 40
200.0
  1
＊
  7
EXTFONT
100
AcDbText
  0
TEXT
  5
205
330
2
100
AcDbEntity
  8
0
100
AcDbText
 10
24250.039
 20
14687.9363
 30
0.0
 40
200.0
  1
＊
  7
EXTFONT
100
AcDbText
  0
TEXT
  5
206
330
2
100
AcDbEntity
  8
0
100
AcDbText
 10
24250.039
 20
15187.9363
 30
0.0
 40
200.0
  1
＊
  7
EXTFONT
100
AcDbText
  0
TEXT
  5
207
330
2
100
AcDbEntity
  8
0
100
AcDbText
 10
24250.039
 20
16187.9363
 30
0.0
 40
200.0
  1
＊
  7
EXTFONT
100
AcDbText
  0
TEXT
  5
208
330
2
100
AcDbEntity
  8
0
100
AcDbText
 10
24250.039
 20
15687.9363
 30
0.0
 40
200.0
  1
＊
  7
EXTFONT
100
AcDbText
  0
TEXT
  5
209
330
2
100
AcDbEntity
  8
0
100
AcDbText
 10
24250.039
 20
15437.9363
 30
0.0
 40
200.0
  1
＊
  7
EXTFONT
100
AcDbText
  0
TEXT
  5
20A
330
2
100
AcDbEntity
  8
0
100
AcDbText
 10
24250.039
 20
15937.9363
 30
0.0
 40
200.0
  1
＊
  7
EXTFONT
100
AcDbText
  0
TEXT
  5
20B
330
2
100
AcDbEntity
  8
0
100
AcDbText
 10
24250.039
 20
19392.9363
 30
0.0
 40
200.0
  1
＊
  7
EXTFONT
100
AcDbText
  0
CIRCLE
  5
20C
330
2
100
AcDbEntity
  8
YKK_F1
100
AcDbCircle
 10
24550.039
 20
19867.9363
 30
0.0
 40
233.3333333333333
  0
LINE
  5
20D
330
2
100
AcDbEntity
  8
YKK_F1
  6
Continuous
100
AcDbLine
 10
24316.70566667
 20
19867.9363
 30
0.0
 11
24783.37233333
 21
19867.9363
 31
0.0
  0
TEXT
  5
20E
330
2
100
AcDbEntity
  8
YKK_F1
100
AcDbText
 10
24390.039
 20
19667.9363
 30
0.0
 40
160.0
  1
ＡＷ
  7
EXTFONT
100
AcDbText
  0
TEXT
  5
20F
330
2
100
AcDbEntity
  8
0
100
AcDbText
 10
24450.039
 20
19867.9363
 30
0.0
 40
200.0
  1
＊
  7
EXTFONT
100
AcDbText
  0
TEXT
  5
210
330
2
100
AcDbEntity
  8
0
100
AcDbText
 10
27550.039
 20
19392.9363
 30
0.0
 40
200.0
  1
＊
  7
EXTFONT
100
AcDbText
  0
TEXT
  5
211
330
2
100
AcDbEntity
  8
0
100
AcDbText
 10
27850.039
 20
19642.9363
 30
0.0
 40
200.0
  1
＊
  7
EXTFONT
100
AcDbText
  0
TEXT
  5
212
330
2
100
AcDbEntity
  8
YKK_F1
100
AcDbText
 10
28270.039
 20
19642.9363
 30
0.0
 40
200.0
  1
箇所
  7
EXTFONT
100
AcDbText
  0
ENDSEC
  0
SECTION
  2
OBJECTS
  0
DICTIONARY
  5
1A
330
0
100
AcDbDictionary
281
     1
  3
ACAD_CIP_PREVIOUS_PRODUCT_INFO
350
2CF
  3
ACAD_COLOR
350
262
  3
ACAD_DETAILVIEWSTYLE
350
27B
  3
ACAD_GROUP
350
18
  3
ACAD_LAYOUT
350
281
  3
ACAD_MATERIAL
350
230
  3
ACAD_MLEADERSTYLE
350
277
  3
ACAD_MLINESTYLE
350
19
  3
ACAD_PLOTSETTINGS
350
280
  3
ACAD_PLOTSTYLENAME
350
22E
  3
ACAD_SCALELIST
350
265
  3
ACAD_SECTIONVIEWSTYLE
350
279
  3
ACAD_TABLESTYLE
350
263
  3
ACAD_VISUALSTYLE
350
249
  3
ACDB_RECOMPOSE_DATA
350
2D5
  3
AcDbVariableDictionary
350
2C2
  0
XRECORD
  5
2CF
102
{ACAD_REACTORS
330
1A
102
}
330
1A
100
AcDbXrecord
280
     1
300
ACD
300
2014
300
86063ACD_2014_0F
  0
DICTIONARY
  5
262
102
{ACAD_REACTORS
330
1A
102
}
330
1A
100
AcDbDictionary
281
     1
  0
DICTIONARY
  5
27B
102
{ACAD_REACTORS
330
1A
102
}
330
1A
100
AcDbDictionary
281
     1
  3
Imperial24
350
27C
  0
DICTIONARY
  5
18
102
{ACAD_REACTORS
330
1A
102
}
330
1A
100
AcDbDictionary
281
     1
  0
DICTIONARY
  5
281
102
{ACAD_REACTORS
330
1A
102
}
330
1A
100
AcDbDictionary
281
     1
  3
Model
350
282
  3
レイアウト1
350
283
  0
DICTIONARY
  5
230
102
{ACAD_REACTORS
330
1A
102
}
330
1A
100
AcDbDictionary
281
     1
  3
ByBlock
350
239
  3
ByLayer
350
231
  3
Global
350
241
  0
DICTIONARY
  5
277
102
{ACAD_REACTORS
330
1A
102
}
330
1A
100
AcDbDictionary
281
     1
  3
Standard
350
278
  0
DICTIONARY
  5
19
102
{ACAD_REACTORS
330
1A
102
}
330
1A
100
AcDbDictionary
281
     1
  3
STANDARD
350
1B
  0
DICTIONARY
  5
280
102
{ACAD_REACTORS
330
1A
102
}
330
1A
100
AcDbDictionary
281
     1
  0
ACDBDICTIONARYWDFLT
  5
22E
102
{ACAD_REACTORS
330
1A
102
}
330
1A
100
AcDbDictionary
281
     1
  3
Normal
350
22F
100
AcDbDictionaryWithDefault
340
22F
  0
DICTIONARY
  5
265
102
{ACAD_REACTORS
330
1A
102
}
330
1A
100
AcDbDictionary
281
     1
  3
A0
350
266
  3
A1
350
267
  3
A2
350
268
  3
A3
350
269
  3
A4
350
26A
  3
A5
350
26B
  3
A6
350
26C
  3
A7
350
26D
  3
A8
350
26E
  3
A9
350
26F
  3
B0
350
270
  3
B1
350
271
  3
B2
350
272
  3
B3
350
273
  3
B4
350
274
  3
B5
350
275
  3
B6
350
276
  0
DICTIONARY
  5
279
102
{ACAD_REACTORS
330
1A
102
}
330
1A
100
AcDbDictionary
281
     1
  3
Imperial24
350
27A
  0
DICTIONARY
  5
263
102
{ACAD_REACTORS
330
1A
102
}
330
1A
100
AcDbDictionary
281
     1
  3
Standard
350
264
  0
DICTIONARY
  5
249
102
{ACAD_REACTORS
330
1A
102
}
330
1A
100
AcDbDictionary
281
     1
  3
2dWireframe
350
24F
  3
Basic
350
24E
  3
Brighten
350
255
  3
ColorChange
350
259
  3
Conceptual
350
252
  3
Dim
350
254
  3
EdgeColorOff
350
261
  3
Facepattern
350
258
  3
Flat
350
24A
  3
FlatWithEdges
350
24B
  3
Gouraud
350
24C
  3
GouraudWithEdges
350
24D
  3
Hidden
350
251
  3
JitterOff
350
25F
  3
Linepattern
350
257
  3
OverhangOff
350
260
  3
Realistic
350
253
  3
Shaded
350
25E
  3
Shaded with edges
350
25D
  3
Shades of Gray
350
25A
  3
Sketchy
350
25B
  3
Thicken
350
256
  3
Wireframe
350
250
  3
X-Ray
350
25C
  0
XRECORD
  5
2D5
102
{ACAD_REACTORS
330
1A
102
}
330
1A
100
AcDbXrecord
280
     1
 90
        1
330
264
  0
DICTIONARY
  5
2C2
102
{ACAD_REACTORS
330
1A
102
}
330
1A
100
AcDbDictionary
281
     1
  3
CANNOSCALE
350
2C7
  3
CMLEADERSTYLE
350
2C4
  3
CTABLESTYLE
350
2C3
  3
CVIEWDETAILSTYLE
350
2C5
  3
CVIEWSECTIONSTYLE
350
2C6
  3
XCLIPFRAME
350
2D3
  0
ACDBDETAILVIEWSTYLE
  5
27C
102
{ACAD_XDICTIONARY
360
30E
102
}
102
{ACAD_REACTORS
330
27B
102
}
330
27B
100
AcDbModelDocViewStyle
 70
     0
  3
Imperial24
290
     0
100
AcDbDetailViewStyle
 70
     0
 71
     0
 90
        3
 71
     1
340
C
 62
   256
 40
0.24
340
0
 62
   256
 40
0.24
300

 40
0.36
280
     3
 71
     2
340
5
 90
       25
 62
   256
 71
     3
340
C
 62
   256
 40
0.24
 90
        1
 40
0.75
 90
        1
300
%<\AcVar ViewType \f "%tc1">% %<\AcVar ViewDetailId>%\PSCALE %<\AcVar ViewScale \f "%sn">%
 71
     4
340
5
 90
       25
 62
   256
340
5
 90
       25
 62
   256
280
     0
  0
LAYOUT
  5
282
102
{ACAD_REACTORS
330
281
102
}
330
281
100
AcDbPlotSettings
  1

  2
C:\ACAD-I\support\plotters\Default Windows System Printer.pc3
  4
A4
  6

 40
3.17499995
 41
3.17499995
 42
3.17500305
 43
3.17498779
 44
209.88865662
 45
297.05300903
 46
0.0
 47
0.0
 48
0.0
 49
0.0
140
0.0
141
0.0
142
1.0
143
2995.57833447
 70
 11952
 72
     0
 73
     1
 74
     0
  7
monochrome.ctb
 75
     0
147
0.00033383
 76
     0
 77
     2
 78
   300
148
31865.1105682
149
2169.26406504
100
AcDbLayout
  1
Model
 70
     1
 71
     0
 10
0.0
 20
0.0
 11
12.0
 21
9.0
 12
0.0
 22
0.0
 32
0.0
 14
0.0
 24
0.0
 34
0.0
 15
0.0
 25
0.0
 35
0.0
146
0.0
 13
0.0
 23
0.0
 33
0.0
 16
1.0
 26
0.0
 36
0.0
 17
0.0
 27
1.0
 37
0.0
 76
     0
330
2
1001
ACAD_PSEXT
1000
C:\ACAD-I\support\plotters\Default Windows System Printer.pc3
1000
Fiery PRO80 65-55C-KM PS3.0jp
1000
IP_10.230.204.212
1000

1070
     0
  0
LAYOUT
  5
283
102
{ACAD_REACTORS
330
281
102
}
330
281
100
AcDbPlotSettings
  1

  2
C:\ACAD-I\support\plotters\Default Windows System Printer.pc3
  4
A4
  6

 40
3.17499995
 41
3.17499995
 42
3.17500305
 43
3.17498779
 44
209.88865662
 45
297.05300903
 46
0.0
 47
0.0
 48
0.0
 49
0.0
140
0.0
141
0.0
142
1.0
143
1.0
 70
 15024
 72
     0
 73
     1
 74
     5
  7
monochrome.ctb
 75
    16
147
1.0
 76
     0
 77
     2
 78
   300
148
0.0
149
0.0
100
AcDbLayout
  1
レイアウト1
 70
     1
 71
     1
 10
0.0
 20
0.0
 11
420.0
 21
297.0
 12
0.0
 22
0.0
 32
0.0
 14
1.00000000E+20
 24
1.00000000E+20
 34
1.00000000E+20
 15
-1.00000000E+20
 25
-1.00000000E+20
 35
-1.00000000E+20
146
0.0
 13
0.0
 23
0.0
 33
0.0
 16
1.0
 26
0.0
 36
0.0
 17
0.0
 27
1.0
 37
0.0
 76
     0
330
7
1001
ACAD_PSEXT
1000
C:\ACAD-I\support\plotters\Default Windows System Printer.pc3
1000
Fiery PRO80 65-55C-KM PS3.0jp
1000
IP_10.230.204.212
1000

1070
     0
  0
MATERIAL
  5
239
102
{ACAD_XDICTIONARY
360
23A
102
}
102
{ACAD_REACTORS
330
230
102
}
330
230
100
AcDbMaterial
  1
ByBlock
 72
     0
 43
0.02083333
 43
0.0
 43
0.0
 43
0.0
 43
0.0
 43
0.02083333
 43
0.0
 43
0.0
 43
0.0
 43
0.0
 43
1.0
 43
0.0
 43
0.0
 43
0.0
 43
0.0
 43
1.0
 77
     0
 47
0.02083333
 47
0.0
 47
0.0
 47
0.0
 47
0.0
 47
0.02083333
 47
0.0
 47
0.0
 47
0.0
 47
0.0
 47
1.0
 47
0.0
 47
0.0
 47
0.0
 47
0.0
 47
1.0
171
     0
 49
0.02083333
 49
0.0
 49
0.0
 49
0.0
 49
0.0
 49
0.02083333
 49
0.0
 49
0.0
 49
0.0
 49
0.0
 49
1.0
 49
0.0
 49
0.0
 49
0.0
 49
0.0
 49
1.0
175
     0
142
0.02083333
142
0.0
142
0.0
142
0.0
142
0.0
142
0.02083333
142
0.0
142
0.0
142
0.0
142
0.0
142
1.0
142
0.0
142
0.0
142
0.0
142
0.0
142
1.0
179
     0
144
0.02083333
144
0.0
144
0.0
144
0.0
144
0.0
144
0.02083333
144
0.0
144
0.0
144
0.0
144
0.0
144
1.0
144
0.0
144
0.0
144
0.0
144
0.0
144
1.0
147
0.02083333
147
0.0
147
0.0
147
0.0
147
0.0
147
0.02083333
147
0.0
147
0.0
147
0.0
147
0.0
147
1.0
147
0.0
147
0.0
147
0.0
147
0.0
147
1.0
  0
MATERIAL
  5
231
102
{ACAD_XDICTIONARY
360
232
102
}
102
{ACAD_REACTORS
330
230
102
}
330
230
100
AcDbMaterial
  1
ByLayer
 72
     0
 43
0.02083333
 43
0.0
 43
0.0
 43
0.0
 43
0.0
 43
0.02083333
 43
0.0
 43
0.0
 43
0.0
 43
0.0
 43
1.0
 43
0.0
 43
0.0
 43
0.0
 43
0.0
 43
1.0
 77
     0
 47
0.02083333
 47
0.0
 47
0.0
 47
0.0
 47
0.0
 47
0.02083333
 47
0.0
 47
0.0
 47
0.0
 47
0.0
 47
1.0
 47
0.0
 47
0.0
 47
0.0
 47
0.0
 47
1.0
171
     0
 49
0.02083333
 49
0.0
 49
0.0
 49
0.0
 49
0.0
 49
0.02083333
 49
0.0
 49
0.0
 49
0.0
 49
0.0
 49
1.0
 49
0.0
 49
0.0
 49
0.0
 49
0.0
 49
1.0
175
     0
142
0.02083333
142
0.0
142
0.0
142
0.0
142
0.0
142
0.02083333
142
0.0
142
0.0
142
0.0
142
0.0
142
1.0
142
0.0
142
0.0
142
0.0
142
0.0
142
1.0
179
     0
144
0.02083333
144
0.0
144
0.0
144
0.0
144
0.0
144
0.02083333
144
0.0
144
0.0
144
0.0
144
0.0
144
1.0
144
0.0
144
0.0
144
0.0
144
0.0
144
1.0
147
0.02083333
147
0.0
147
0.0
147
0.0
147
0.0
147
0.02083333
147
0.0
147
0.0
147
0.0
147
0.0
147
1.0
147
0.0
147
0.0
147
0.0
147
0.0
147
1.0
  0
MATERIAL
  5
241
102
{ACAD_XDICTIONARY
360
242
102
}
102
{ACAD_REACTORS
330
230
102
}
330
230
100
AcDbMaterial
  1
Global
 72
     0
 43
0.02083333
 43
0.0
 43
0.0
 43
0.0
 43
0.0
 43
0.02083333
 43
0.0
 43
0.0
 43
0.0
 43
0.0
 43
1.0
 43
0.0
 43
0.0
 43
0.0
 43
0.0
 43
1.0
 77
     0
 47
0.02083333
 47
0.0
 47
0.0
 47
0.0
 47
0.0
 47
0.02083333
 47
0.0
 47
0.0
 47
0.0
 47
0.0
 47
1.0
 47
0.0
 47
0.0
 47
0.0
 47
0.0
 47
1.0
171
     0
 49
0.02083333
 49
0.0
 49
0.0
 49
0.0
 49
0.0
 49
0.02083333
 49
0.0
 49
0.0
 49
0.0
 49
0.0
 49
1.0
 49
0.0
 49
0.0
 49
0.0
 49
0.0
 49
1.0
175
     0
142
0.02083333
142
0.0
142
0.0
142
0.0
142
0.0
142
0.02083333
142
0.0
142
0.0
142
0.0
142
0.0
142
1.0
142
0.0
142
0.0
142
0.0
142
0.0
142
1.0
179
     0
144
0.02083333
144
0.0
144
0.0
144
0.0
144
0.0
144
0.02083333
144
0.0
144
0.0
144
0.0
144
0.0
144
1.0
144
0.0
144
0.0
144
0.0
144
0.0
144
1.0
147
0.02083333
147
0.0
147
0.0
147
0.0
147
0.0
147
0.02083333
147
0.0
147
0.0
147
0.0
147
0.0
147
1.0
147
0.0
147
0.0
147
0.0
147
0.0
147
1.0
  0
MLEADERSTYLE
  5
278
102
{ACAD_XDICTIONARY
360
30A
102
}
102
{ACAD_REACTORS
330
277
102
}
330
277
100
AcDbMLeaderStyle
170
     2
171
     1
172
     0
 90
        2
 40
0.0
 41
0.0
173
     1
 91
-1056964608
340
E
 92
       -2
290
     1
 42
0.09
291
     1
 43
0.36
  3
Standard
 44
0.18
300

342
C
174
     1
178
     6
175
     1
176
     0
 93
-1056964608
 45
0.18
292
     0
297
     0
 46
0.18
 94
-1056964608
 47
1.0
 49
1.0
140
1.0
293
     1
141
0.0
294
     1
177
     0
142
1.0
295
     0
296
     0
143
0.125
1001
ACAD_MLEADERVER
1070
     2
  0
MLINESTYLE
  5
1B
102
{ACAD_REACTORS
330
19
102
}
330
19
100
AcDbMlineStyle
  2
STANDARD
 70
     0
  3

 62
   256
 51
90.0
 52
90.0
 71
     2
 49
0.5
 62
   256
  6
BYLAYER
 49
-0.5
 62
   256
  6
BYLAYER
  0
ACDBPLACEHOLDER
  5
22F
102
{ACAD_REACTORS
330
22E
102
}
330
22E
  0
SCALE
  5
266
102
{ACAD_REACTORS
330
265
102
}
330
265
100
AcDbScale
 70
     0
300
1:1
140
1.0
141
1.0
290
     1
  0
SCALE
  5
267
102
{ACAD_REACTORS
330
265
102
}
330
265
100
AcDbScale
 70
     0
300
1/128" = 1'-0"
140
0.0078125
141
12.0
290
     0
  0
SCALE
  5
268
102
{ACAD_REACTORS
330
265
102
}
330
265
100
AcDbScale
 70
     0
300
1/64" = 1'-0"
140
0.015625
141
12.0
290
     0
  0
SCALE
  5
269
102
{ACAD_REACTORS
330
265
102
}
330
265
100
AcDbScale
 70
     0
300
1/32" = 1'-0"
140
0.03125
141
12.0
290
     0
  0
SCALE
  5
26A
102
{ACAD_REACTORS
330
265
102
}
330
265
100
AcDbScale
 70
     0
300
1/16" = 1'-0"
140
0.0625
141
12.0
290
     0
  0
SCALE
  5
26B
102
{ACAD_REACTORS
330
265
102
}
330
265
100
AcDbScale
 70
     0
300
3/32" = 1'-0"
140
0.09375
141
12.0
290
     0
  0
SCALE
  5
26C
102
{ACAD_REACTORS
330
265
102
}
330
265
100
AcDbScale
 70
     0
300
1/8" = 1'-0"
140
0.125
141
12.0
290
     0
  0
SCALE
  5
26D
102
{ACAD_REACTORS
330
265
102
}
330
265
100
AcDbScale
 70
     0
300
3/16" = 1'-0"
140
0.1875
141
12.0
290
     0
  0
SCALE
  5
26E
102
{ACAD_REACTORS
330
265
102
}
330
265
100
AcDbScale
 70
     0
300
1/4" = 1'-0"
140
0.25
141
12.0
290
     0
  0
SCALE
  5
26F
102
{ACAD_REACTORS
330
265
102
}
330
265
100
AcDbScale
 70
     0
300
3/8" = 1'-0"
140
0.375
141
12.0
290
     0
  0
SCALE
  5
270
102
{ACAD_REACTORS
330
265
102
}
330
265
100
AcDbScale
 70
     0
300
1/2" = 1'-0"
140
0.5
141
12.0
290
     0
  0
SCALE
  5
271
102
{ACAD_REACTORS
330
265
102
}
330
265
100
AcDbScale
 70
     0
300
3/4" = 1'-0"
140
0.75
141
12.0
290
     0
  0
SCALE
  5
272
102
{ACAD_REACTORS
330
265
102
}
330
265
100
AcDbScale
 70
     0
300
1" = 1'-0"
140
1.0
141
12.0
290
     0
  0
SCALE
  5
273
102
{ACAD_REACTORS
330
265
102
}
330
265
100
AcDbScale
 70
     0
300
1-1/2" = 1'-0"
140
1.5
141
12.0
290
     0
  0
SCALE
  5
274
102
{ACAD_REACTORS
330
265
102
}
330
265
100
AcDbScale
 70
     0
300
3" = 1'-0"
140
3.0
141
12.0
290
     0
  0
SCALE
  5
275
102
{ACAD_REACTORS
330
265
102
}
330
265
100
AcDbScale
 70
     0
300
6" = 1'-0"
140
6.0
141
12.0
290
     0
  0
SCALE
  5
276
102
{ACAD_REACTORS
330
265
102
}
330
265
100
AcDbScale
 70
     0
300
1'-0" = 1'-0"
140
12.0
141
12.0
290
     0
  0
ACDBSECTIONVIEWSTYLE
  5
27A
102
{ACAD_XDICTIONARY
360
30C
102
}
102
{ACAD_REACTORS
330
279
102
}
330
279
100
AcDbModelDocViewStyle
 70
     0
  3
Imperial24
290
     0
100
AcDbSectionViewStyle
 70
     0
 71
     0
 90
      102
 71
     1
340
C
 62
   256
 40
5.0
340
0
340
0
 62
   256
 40
5.0
300
I, O, Q, S, X, Z
 40
10.0
 90
        0
 40
2.5
 90
        0
 71
     2
340
5
 90
       25
 62
   256
340
5
 90
       50
 62
   256
 40
5.0
 40
2.5
 40
5.0
 71
     3
340
C
 62
   256
 40
5.0
 90
        0
 40
15.0
 90
        1
300
%<\AcVar ViewSectionStartId>%-%<\AcVar ViewSectionEndId>% (%<\AcVar ViewScale \f "%sn">%)
 71
     4
 62
   256
 62
   257
300
ANSI31
 40
1.0
 90
        0
290
     0
290
     0
 90
        6
 40
0.0
 40
1.57079633
 40
0.26179939
 40
1.30899694
 40
-0.26179939
 40
1.83259571
  0
TABLESTYLE
  5
264
102
{ACAD_XDICTIONARY
360
284
102
}
102
{ACAD_REACTORS
330
263
102
}
330
263
100
AcDbTableStyle
  3
Standard
 70
     0
 71
     0
 40
0.06
 41
0.06
280
     0
281
     0
  7
STANDARD
140
0.18
170
     2
 62
     0
 63
     7
283
     0
274
    -2
284
     1
 64
     0
275
    -2
285
     1
 65
     0
276
    -2
286
     1
 66
     0
277
    -2
287
     1
 67
     0
278
    -2
288
     1
 68
     0
279
    -2
289
     1
 69
     0
  7
STANDARD
140
0.25
170
     5
 62
     0
 63
     7
283
     0
274
    -2
284
     1
 64
     0
275
    -2
285
     1
 65
     0
276
    -2
286
     1
 66
     0
277
    -2
287
     1
 67
     0
278
    -2
288
     1
 68
     0
279
    -2
289
     1
 69
     0
  7
STANDARD
140
0.18
170
     5
 62
     0
 63
     7
283
     0
274
    -2
284
     1
 64
     0
275
    -2
285
     1
 65
     0
276
    -2
286
     1
 66
     0
277
    -2
287
     1
 67
     0
278
    -2
288
     1
 68
     0
279
    -2
289
     1
 69
     0
  0
VISUALSTYLE
  5
24F
102
{ACAD_XDICTIONARY
360
2E3
102
}
102
{ACAD_REACTORS
330
249
102
}
330
249
100
AcDbVisualStyle
  2
2dWireframe
 70
     4
 71
     0
 72
     2
 73
     0
 90
        0
 40
-0.6
 41
-30.0
 62
     5
 63
     7
421
 16777215
 74
     1
 91
        4
 64
     7
 65
   257
 75
     1
175
     1
 42
1.0
 92
        0
 66
   257
 43
1.0
 76
     1
 77
     6
 78
     2
 67
     7
 79
     5
170
     0
171
     0
290
     0
174
     0
 93
        1
 44
0.0
173
     0
291
     0
 45
0.0
1001
ACAD
1000
AcDbSavedByObjectVersion
1070
     0
  0
VISUALSTYLE
  5
24E
102
{ACAD_XDICTIONARY
360
2E1
102
}
102
{ACAD_REACTORS
330
249
102
}
330
249
100
AcDbVisualStyle
  2
Basic
 70
     7
 71
     1
 72
     0
 73
     1
 90
        0
 40
-0.6
 41
-30.0
 62
     5
 63
     7
421
 16777215
 74
     0
 91
        4
 64
     7
 65
   257
 75
     1
175
     1
 42
1.0
 92
        8
 66
     7
 43
1.0
 76
     1
 77
     6
 78
     2
 67
     7
 79
     5
170
     0
171
     0
290
     0
174
     0
 93
        1
 44
0.0
173
     0
291
     1
 45
0.0
1001
ACAD
1000
AcDbSavedByObjectVersion
1070
     0
  0
VISUALSTYLE
  5
255
102
{ACAD_XDICTIONARY
360
2EF
102
}
102
{ACAD_REACTORS
330
249
102
}
330
249
100
AcDbVisualStyle
  2
Brighten
 70
    12
 71
     2
 72
     2
 73
     0
 90
        0
 40
-0.6
 41
-30.0
 62
     5
 63
     7
421
 16777215
 74
     1
 91
        4
 64
     7
 65
   257
 75
     1
175
     1
 42
1.0
 92
        8
 66
     7
 43
1.0
 76
     1
 77
     6
 78
     2
 67
     7
 79
     5
170
     0
171
     0
290
     0
174
     0
 93
        1
 44
50.0
173
     0
291
     1
 45
0.0
1001
ACAD
1000
AcDbSavedByObjectVersion
1070
     0
  0
VISUALSTYLE
  5
259
102
{ACAD_XDICTIONARY
360
2F7
102
}
102
{ACAD_REACTORS
330
249
102
}
330
249
100
AcDbVisualStyle
  2
ColorChange
 70
    16
 71
     2
 72
     2
 73
     3
 90
        0
 40
-0.6
 41
-30.0
 62
     5
 63
     8
421
  8421504
 74
     1
 91
        4
 64
     7
 65
   257
 75
     1
175
     1
 42
1.0
 92
        8
 66
     8
424
  8421504
 43
1.0
 76
     1
 77
     6
 78
     2
 67
     7
 79
     5
170
     0
171
     0
290
     0
174
     0
 93
        1
 44
0.0
173
     0
291
     1
 45
0.0
1001
ACAD
1000
AcDbSavedByObjectVersion
1070
     0
  0
VISUALSTYLE
  5
252
102
{ACAD_XDICTIONARY
360
2E9
102
}
102
{ACAD_REACTORS
330
249
102
}
330
249
100
AcDbVisualStyle
  2
Conceptual
 70
     9
 71
     3
 72
     2
 73
     0
 90
        0
 40
-0.6
 41
-30.0
 62
     5
 63
     7
421
 16777215
 74
     2
 91
        2
 64
     7
 65
   257
 75
     1
175
     1
 42
179.0
 92
        8
 66
     7
 43
1.0
 76
     1
 77
     6
 78
     2
 67
     7
 79
     3
170
     0
171
     0
290
     0
174
     0
 93
        1
 44
0.0
173
     0
291
     0
 45
0.0
1001
ACAD
1000
AcDbSavedByObjectVersion
1070
     0
  0
VISUALSTYLE
  5
254
102
{ACAD_XDICTIONARY
360
2ED
102
}
102
{ACAD_REACTORS
330
249
102
}
330
249
100
AcDbVisualStyle
  2
Dim
 70
    11
 71
     2
 72
     2
 73
     0
 90
        0
 40
-0.6
 41
-30.0
 62
     5
 63
     7
421
 16777215
 74
     1
 91
        4
 64
     7
 65
   257
 75
     1
175
     1
 42
1.0
 92
        8
 66
     7
 43
1.0
 76
     1
 77
     6
 78
     2
 67
     7
 79
     5
170
     0
171
     0
290
     0
174
     0
 93
        1
 44
-50.0
173
     0
291
     1
 45
0.0
1001
ACAD
1000
AcDbSavedByObjectVersion
1070
     0
  0
VISUALSTYLE
  5
261
102
{ACAD_XDICTIONARY
360
307
102
}
102
{ACAD_REACTORS
330
249
102
}
330
249
100
AcDbVisualStyle
  2
EdgeColorOff
 70
    22
 71
     2
 72
     2
 73
     0
 90
        0
 40
-0.6
 41
-30.0
 62
     5
 63
     7
421
 16777215
 74
     1
 91
        4
 64
     7
 65
   257
 75
     1
175
     1
 42
1.0
 92
        8
 66
     7
 43
1.0
 76
     1
 77
     6
 78
     2
 67
     7
 79
     5
170
     0
171
     0
290
     0
174
     0
 93
        1
 44
0.0
173
     0
291
     1
 45
0.0
1001
ACAD
1000
AcDbSavedByObjectVersion
1070
     0
  0
VISUALSTYLE
  5
258
102
{ACAD_XDICTIONARY
360
2F5
102
}
102
{ACAD_REACTORS
330
249
102
}
330
249
100
AcDbVisualStyle
  2
Facepattern
 70
    15
 71
     2
 72
     2
 73
     0
 90
        0
 40
-0.6
 41
-30.0
 62
     5
 63
     7
421
 16777215
 74
     1
 91
        4
 64
     7
 65
   257
 75
     1
175
     1
 42
1.0
 92
        8
 66
     7
 43
1.0
 76
     1
 77
     6
 78
     2
 67
     7
 79
     5
170
     0
171
     0
290
     0
174
     0
 93
        1
 44
0.0
173
     0
291
     1
 45
0.0
1001
ACAD
1000
AcDbSavedByObjectVersion
1070
     0
  0
VISUALSTYLE
  5
24A
102
{ACAD_XDICTIONARY
360
2D9
102
}
102
{ACAD_REACTORS
330
249
102
}
330
249
100
AcDbVisualStyle
  2
Flat
 70
     0
 71
     2
 72
     1
 73
     1
 90
        2
 40
-0.6
 41
30.0
 62
     5
 63
     7
421
 16777215
 74
     0
 91
        0
 64
     7
 65
   257
 75
     1
175
     1
 42
1.0
 92
        8
 66
     7
 43
1.0
 76
     1
 77
     6
 78
     2
 67
     7
 79
     5
170
     0
171
     0
290
     0
174
     0
 93
       13
 44
0.0
173
     0
291
     1
 45
0.0
1001
ACAD
1000
AcDbSavedByObjectVersion
1070
     0
  0
VISUALSTYLE
  5
24B
102
{ACAD_XDICTIONARY
360
2DB
102
}
102
{ACAD_REACTORS
330
249
102
}
330
249
100
AcDbVisualStyle
  2
FlatWithEdges
 70
     1
 71
     2
 72
     1
 73
     1
 90
        2
 40
-0.6
 41
30.0
 62
     5
 63
     7
421
 16777215
 74
     1
 91
        0
 64
     7
 65
   257
 75
     1
175
     1
 42
1.0
 92
        0
 66
   257
 43
1.0
 76
     1
 77
     6
 78
     2
 67
     7
 79
     5
170
     0
171
     0
290
     0
174
     0
 93
       13
 44
0.0
173
     0
291
     1
 45
0.0
1001
ACAD
1000
AcDbSavedByObjectVersion
1070
     0
  0
VISUALSTYLE
  5
24C
102
{ACAD_XDICTIONARY
360
2DD
102
}
102
{ACAD_REACTORS
330
249
102
}
330
249
100
AcDbVisualStyle
  2
Gouraud
 70
     2
 71
     2
 72
     2
 73
     1
 90
        2
 40
-0.6
 41
30.0
 62
     5
 63
     7
421
 16777215
 74
     0
 91
        0
 64
     7
 65
   257
 75
     1
175
     1
 42
1.0
 92
        0
 66
     7
 43
1.0
 76
     1
 77
     6
 78
     2
 67
     7
 79
     5
170
     0
171
     0
290
     0
174
     0
 93
       13
 44
0.0
173
     0
291
     1
 45
0.0
1001
ACAD
1000
AcDbSavedByObjectVersion
1070
     0
  0
VISUALSTYLE
  5
24D
102
{ACAD_XDICTIONARY
360
2DF
102
}
102
{ACAD_REACTORS
330
249
102
}
330
249
100
AcDbVisualStyle
  2
GouraudWithEdges
 70
     3
 71
     2
 72
     2
 73
     1
 90
        2
 40
-0.6
 41
30.0
 62
     5
 63
     7
421
 16777215
 74
     1
 91
        0
 64
     7
 65
   257
 75
     1
175
     1
 42
1.0
 92
        0
 66
   257
 43
1.0
 76
     1
 77
     6
 78
     2
 67
     7
 79
     5
170
     0
171
     0
290
     0
174
     0
 93
       13
 44
0.0
173
     0
291
     1
 45
0.0
1001
ACAD
1000
AcDbSavedByObjectVersion
1070
     0
  0
VISUALSTYLE
  5
251
102
{ACAD_XDICTIONARY
360
2E7
102
}
102
{ACAD_REACTORS
330
249
102
}
330
249
100
AcDbVisualStyle
  2
Hidden
 70
     6
 71
     1
 72
     2
 73
     2
 90
        0
 40
-0.6
 41
-30.0
 62
     5
 63
     7
421
 16777215
 74
     2
 91
        2
 64
     7
 65
   257
 75
     2
175
     1
 42
40.0
 92
        0
 66
   257
 43
1.0
 76
     1
 77
     6
 78
     2
 67
     7
 79
     3
170
     0
171
     0
290
     0
174
     0
 93
        1
 44
0.0
173
     0
291
     0
 45
0.0
1001
ACAD
1000
AcDbSavedByObjectVersion
1070
     0
  0
VISUALSTYLE
  5
25F
102
{ACAD_XDICTIONARY
360
303
102
}
102
{ACAD_REACTORS
330
249
102
}
330
249
100
AcDbVisualStyle
  2
JitterOff
 70
    20
 71
     2
 72
     2
 73
     0
 90
        0
 40
-0.6
 41
-30.0
 62
     5
 63
     7
421
 16777215
 74
     1
 91
        4
 64
     7
 65
   257
 75
     1
175
     1
 42
1.0
 92
       10
 66
     7
 43
1.0
 76
     1
 77
     6
 78
     2
 67
     7
 79
     5
170
     0
171
     0
290
     0
174
     0
 93
        1
 44
0.0
173
     0
291
     1
 45
0.0
1001
ACAD
1000
AcDbSavedByObjectVersion
1070
     0
  0
VISUALSTYLE
  5
257
102
{ACAD_XDICTIONARY
360
2F3
102
}
102
{ACAD_REACTORS
330
249
102
}
330
249
100
AcDbVisualStyle
  2
Linepattern
 70
    14
 71
     2
 72
     2
 73
     0
 90
        0
 40
-0.6
 41
-30.0
 62
     5
 63
     7
421
 16777215
 74
     1
 91
        4
 64
     7
 65
   257
 75
     7
175
     7
 42
1.0
 92
        8
 66
     7
 43
1.0
 76
     1
 77
     6
 78
     2
 67
     7
 79
     5
170
     0
171
     0
290
     0
174
     0
 93
        1
 44
0.0
173
     0
291
     1
 45
0.0
1001
ACAD
1000
AcDbSavedByObjectVersion
1070
     0
  0
VISUALSTYLE
  5
260
102
{ACAD_XDICTIONARY
360
305
102
}
102
{ACAD_REACTORS
330
249
102
}
330
249
100
AcDbVisualStyle
  2
OverhangOff
 70
    21
 71
     2
 72
     2
 73
     0
 90
        0
 40
-0.6
 41
-30.0
 62
     5
 63
     7
421
 16777215
 74
     1
 91
        4
 64
     7
 65
   257
 75
     1
175
     1
 42
1.0
 92
        9
 66
     7
 43
1.0
 76
     1
 77
     6
 78
     2
 67
     7
 79
     5
170
     0
171
     0
290
     0
174
     0
 93
        1
 44
0.0
173
     0
291
     1
 45
0.0
1001
ACAD
1000
AcDbSavedByObjectVersion
1070
     0
  0
VISUALSTYLE
  5
253
102
{ACAD_XDICTIONARY
360
2EB
102
}
102
{ACAD_REACTORS
330
249
102
}
330
249
100
AcDbVisualStyle
  2
Realistic
 70
     8
 71
     2
 72
     2
 73
     0
 90
        2
 40
-0.6
 41
30.0
 62
     5
 63
     7
421
 16777215
 74
     0
 91
        0
 64
     7
 65
   257
 75
     1
175
     1
 42
1.0
 92
        8
 66
   257
 43
1.0
 76
     1
 77
     6
 78
     2
 67
     7
 79
     3
170
     0
171
     0
290
     0
174
     0
 93
       13
 44
0.0
173
     0
291
     0
 45
0.0
1001
ACAD
1000
AcDbSavedByObjectVersion
1070
     0
  0
VISUALSTYLE
  5
25E
102
{ACAD_XDICTIONARY
360
301
102
}
102
{ACAD_REACTORS
330
249
102
}
330
249
100
AcDbVisualStyle
  2
Shaded
 70
    27
 71
     2
 72
     2
 73
     1
 90
        2
 40
-0.6
 41
30.0
 62
     5
 63
     7
421
 16777215
 74
     0
 91
        4
 64
     7
 65
   257
 75
     1
175
     1
 42
1.0
 92
        8
 66
   257
 43
1.0
 76
     1
 77
     6
 78
     2
 67
     8
425
  7895160
 79
     3
170
     0
171
     0
290
     0
174
     0
 93
        5
 44
0.0
173
     0
291
     0
 45
0.0
1001
ACAD
1000
AcDbSavedByObjectVersion
1070
     0
  0
VISUALSTYLE
  5
25D
102
{ACAD_XDICTIONARY
360
2FF
102
}
102
{ACAD_REACTORS
330
249
102
}
330
249
100
AcDbVisualStyle
  2
Shaded with edges
 70
    26
 71
     2
 72
     2
 73
     1
 90
        2
 40
-0.6
 41
30.0
 62
     5
 63
     7
421
 16777215
 74
     1
 91
       10
 64
     7
 65
   257
 75
     2
175
     1
 42
1.0
 92
        8
 66
   257
 43
1.0
 76
     1
 77
     6
 78
     2
 67
     7
 79
     3
170
     0
171
     0
290
     0
174
     0
 93
        5
 44
0.0
173
     0
291
     0
 45
0.0
1001
ACAD
1000
AcDbSavedByObjectVersion
1070
     0
  0
VISUALSTYLE
  5
25A
102
{ACAD_XDICTIONARY
360
2F9
102
}
102
{ACAD_REACTORS
330
249
102
}
330
249
100
AcDbVisualStyle
  2
Shades of Gray
 70
    23
 71
     2
 72
     2
 73
     3
 90
        0
 40
-0.6
 41
-30.0
 62
     5
 63
     7
421
 16777215
 74
     2
 91
        2
 64
     7
 65
     7
 75
     1
175
     1
 42
40.0
 92
        8
 66
     7
 43
1.0
 76
     1
 77
     6
 78
     2
 67
     7
 79
     3
170
     0
171
     0
290
     0
174
     0
 93
        1
 44
0.0
173
     0
291
     0
 45
0.0
1001
ACAD
1000
AcDbSavedByObjectVersion
1070
     0
  0
VISUALSTYLE
  5
25B
102
{ACAD_XDICTIONARY
360
2FB
102
}
102
{ACAD_REACTORS
330
249
102
}
330
249
100
AcDbVisualStyle
  2
Sketchy
 70
    24
 71
     1
 72
     2
 73
     2
 90
        0
 40
-0.6
 41
-30.0
 62
     5
 63
     7
421
 16777215
 74
     2
 91
        2
 64
     7
 65
     7
 75
     1
175
     1
 42
40.0
 92
       11
 66
     7
 43
1.0
 76
     1
 77
     6
 78
     2
 67
     7
 79
     6
170
     0
171
     0
290
     0
174
     0
 93
        1
 44
0.0
173
     0
291
     0
 45
0.0
1001
ACAD
1000
AcDbSavedByObjectVersion
1070
     0
  0
VISUALSTYLE
  5
256
102
{ACAD_XDICTIONARY
360
2F1
102
}
102
{ACAD_REACTORS
330
249
102
}
330
249
100
AcDbVisualStyle
  2
Thicken
 70
    13
 71
     2
 72
     2
 73
     0
 90
        0
 40
-0.6
 41
-30.0
 62
     5
 63
     7
421
 16777215
 74
     1
 91
        4
 64
     7
 65
   257
 75
     1
175
     1
 42
1.0
 92
       12
 66
     7
 43
1.0
 76
     1
 77
     6
 78
     2
 67
     7
 79
     5
170
     0
171
     0
290
     0
174
     0
 93
        1
 44
0.0
173
     0
291
     1
 45
0.0
1001
ACAD
1000
AcDbSavedByObjectVersion
1070
     0
  0
VISUALSTYLE
  5
250
102
{ACAD_XDICTIONARY
360
2E5
102
}
102
{ACAD_REACTORS
330
249
102
}
330
249
100
AcDbVisualStyle
  2
Wireframe
 70
     5
 71
     0
 72
     2
 73
     0
 90
        0
 40
-0.6
 41
-30.0
 62
     5
 63
     7
421
 16777215
 74
     1
 91
        4
 64
     7
 65
   257
 75
     1
175
     1
 42
1.0
 92
        0
 66
   257
 43
1.0
 76
     1
 77
     6
 78
     2
 67
     7
 79
     3
170
     0
171
     0
290
     0
174
     0
 93
        1
 44
0.0
173
     0
291
     0
 45
0.0
1001
ACAD
1000
AcDbSavedByObjectVersion
1070
     0
  0
VISUALSTYLE
  5
25C
102
{ACAD_XDICTIONARY
360
2FD
102
}
102
{ACAD_REACTORS
330
249
102
}
330
249
100
AcDbVisualStyle
  2
X-Ray
 70
    25
 71
     2
 72
     2
 73
     1
 90
        1
 40
0.5
 41
-30.0
 62
     5
 63
     7
421
 16777215
 74
     1
 91
        0
 64
     7
 65
   257
 75
     1
175
     1
 42
1.0
 92
        8
 66
     7
 43
1.0
 76
     1
 77
     6
 78
     2
 67
     7
 79
     3
170
     0
171
     0
290
     0
174
     0
 93
       13
 44
0.0
173
     0
291
     0
 45
0.0
1001
ACAD
1000
AcDbSavedByObjectVersion
1070
     0
  0
DICTIONARYVAR
  5
2C7
102
{ACAD_REACTORS
330
2C2
102
}
330
2C2
100
DictionaryVariables
280
     0
  1
1:1
  0
DICTIONARYVAR
  5
2C4
102
{ACAD_REACTORS
330
2C2
102
}
330
2C2
100
DictionaryVariables
280
     0
  1
STANDARD
  0
DICTIONARYVAR
  5
2C3
102
{ACAD_REACTORS
330
2C2
102
}
330
2C2
100
DictionaryVariables
280
     0
  1
STANDARD
  0
DICTIONARYVAR
  5
2C5
102
{ACAD_REACTORS
330
2C2
102
}
330
2C2
100
DictionaryVariables
280
     0
  1
Imperial24
  0
DICTIONARYVAR
  5
2C6
102
{ACAD_REACTORS
330
2C2
102
}
330
2C2
100
DictionaryVariables
280
     0
  1
Imperial24
  0
DICTIONARYVAR
  5
2D3
102
{ACAD_REACTORS
330
2C2
102
}
330
2C2
100
DictionaryVariables
280
     0
  1
2
  0
DICTIONARY
  5
30E
330
27C
100
AcDbDictionary
280
     1
281
     1
  3
ACAD_XREC_ROUNDTRIP
360
30F
  0
DICTIONARY
  5
23A
330
239
100
AcDbDictionary
280
     1
281
     1
  3
ACAD_XREC_ROUNDTRIP
360
2D7
  3
BUMPTILE
360
23C
  3
DIFFUSETILE
360
23B
  3
OPACITYTILE
360
23F
  3
REFLECTIONTILE
360
23E
  3
REFRACTIONTILE
360
240
  3
SPECULARTILE
360
23D
  0
DICTIONARY
  5
232
330
231
100
AcDbDictionary
280
     1
281
     1
  3
ACAD_XREC_ROUNDTRIP
360
2D6
  3
BUMPTILE
360
234
  3
DIFFUSETILE
360
233
  3
OPACITYTILE
360
237
  3
REFLECTIONTILE
360
236
  3
REFRACTIONTILE
360
238
  3
SPECULARTILE
360
235
  0
DICTIONARY
  5
242
330
241
100
AcDbDictionary
280
     1
281
     1
  3
ACAD_XREC_ROUNDTRIP
360
2D8
  3
BUMPTILE
360
244
  3
DIFFUSETILE
360
243
  3
OPACITYTILE
360
247
  3
REFLECTIONTILE
360
246
  3
REFRACTIONTILE
360
248
  3
SPECULARTILE
360
245
  0
DICTIONARY
  5
30A
330
278
100
AcDbDictionary
280
     1
281
     1
  3
ACAD_XREC_ROUNDTRIP
360
30B
  0
DICTIONARY
  5
30C
330
27A
100
AcDbDictionary
280
     1
281
     1
  3
ACAD_XREC_ROUNDTRIP
360
30D
  0
DICTIONARY
  5
284
330
264
100
AcDbDictionary
280
     1
281
     1
  3
ACAD_ROUNDTRIP_2008_TABLESTYLE_CELLSTYLEMAP
360
2D4
  3
ACAD_XREC_ROUNDTRIP
360
309
  0
DICTIONARY
  5
2E3
330
24F
100
AcDbDictionary
280
     1
281
     1
  3
ACAD_XREC_ROUNDTRIP
360
2E4
  0
DICTIONARY
  5
2E1
330
24E
100
AcDbDictionary
280
     1
281
     1
  3
ACAD_XREC_ROUNDTRIP
360
2E2
  0
DICTIONARY
  5
2EF
330
255
100
AcDbDictionary
280
     1
281
     1
  3
ACAD_XREC_ROUNDTRIP
360
2F0
  0
DICTIONARY
  5
2F7
330
259
100
AcDbDictionary
280
     1
281
     1
  3
ACAD_XREC_ROUNDTRIP
360
2F8
  0
DICTIONARY
  5
2E9
330
252
100
AcDbDictionary
280
     1
281
     1
  3
ACAD_XREC_ROUNDTRIP
360
2EA
  0
DICTIONARY
  5
2ED
330
254
100
AcDbDictionary
280
     1
281
     1
  3
ACAD_XREC_ROUNDTRIP
360
2EE
  0
DICTIONARY
  5
307
330
261
100
AcDbDictionary
280
     1
281
     1
  3
ACAD_XREC_ROUNDTRIP
360
308
  0
DICTIONARY
  5
2F5
330
258
100
AcDbDictionary
280
     1
281
     1
  3
ACAD_XREC_ROUNDTRIP
360
2F6
  0
DICTIONARY
  5
2D9
330
24A
100
AcDbDictionary
280
     1
281
     1
  3
ACAD_XREC_ROUNDTRIP
360
2DA
  0
DICTIONARY
  5
2DB
330
24B
100
AcDbDictionary
280
     1
281
     1
  3
ACAD_XREC_ROUNDTRIP
360
2DC
  0
DICTIONARY
  5
2DD
330
24C
100
AcDbDictionary
280
     1
281
     1
  3
ACAD_XREC_ROUNDTRIP
360
2DE
  0
DICTIONARY
  5
2DF
330
24D
100
AcDbDictionary
280
     1
281
     1
  3
ACAD_XREC_ROUNDTRIP
360
2E0
  0
DICTIONARY
  5
2E7
330
251
100
AcDbDictionary
280
     1
281
     1
  3
ACAD_XREC_ROUNDTRIP
360
2E8
  0
DICTIONARY
  5
303
330
25F
100
AcDbDictionary
280
     1
281
     1
  3
ACAD_XREC_ROUNDTRIP
360
304
  0
DICTIONARY
  5
2F3
330
257
100
AcDbDictionary
280
     1
281
     1
  3
ACAD_XREC_ROUNDTRIP
360
2F4
  0
DICTIONARY
  5
305
330
260
100
AcDbDictionary
280
     1
281
     1
  3
ACAD_XREC_ROUNDTRIP
360
306
  0
DICTIONARY
  5
2EB
330
253
100
AcDbDictionary
280
     1
281
     1
  3
ACAD_XREC_ROUNDTRIP
360
2EC
  0
DICTIONARY
  5
301
330
25E
100
AcDbDictionary
280
     1
281
     1
  3
ACAD_XREC_ROUNDTRIP
360
302
  0
DICTIONARY
  5
2FF
330
25D
100
AcDbDictionary
280
     1
281
     1
  3
ACAD_XREC_ROUNDTRIP
360
300
  0
DICTIONARY
  5
2F9
330
25A
100
AcDbDictionary
280
     1
281
     1
  3
ACAD_XREC_ROUNDTRIP
360
2FA
  0
DICTIONARY
  5
2FB
330
25B
100
AcDbDictionary
280
     1
281
     1
  3
ACAD_XREC_ROUNDTRIP
360
2FC
  0
DICTIONARY
  5
2F1
330
256
100
AcDbDictionary
280
     1
281
     1
  3
ACAD_XREC_ROUNDTRIP
360
2F2
  0
DICTIONARY
  5
2E5
330
250
100
AcDbDictionary
280
     1
281
     1
  3
ACAD_XREC_ROUNDTRIP
360
2E6
  0
DICTIONARY
  5
2FD
330
25C
100
AcDbDictionary
280
     1
281
     1
  3
ACAD_XREC_ROUNDTRIP
360
2FE
  0
XRECORD
  5
30F
102
{ACAD_REACTORS
330
30E
102
}
330
30E
100
AcDbXrecord
280
     1
102
DISPLAYNAME
  1
Imperial24
102
FLAGS
 90
        0
  0
XRECORD
  5
2D7
102
{ACAD_REACTORS
330
23A
102
}
330
23A
100
AcDbXrecord
280
     1
102
MATERIAL
148
0.0
149
0.0
149
0.0
 93
        0
 94
      127
282
     0
 72
     0
 77
     0
171
     0
175
     0
179
     0
273
     0
  0
XRECORD
  5
23C
102
{ACAD_REACTORS
330
23A
102
}
330
23A
100
AcDbXrecord
280
     1
270
     1
271
     1
  0
XRECORD
  5
23B
102
{ACAD_REACTORS
330
23A
102
}
330
23A
100
AcDbXrecord
280
     1
270
     1
271
     1
  0
XRECORD
  5
23F
102
{ACAD_REACTORS
330
23A
102
}
330
23A
100
AcDbXrecord
280
     1
270
     1
271
     1
  0
XRECORD
  5
23E
102
{ACAD_REACTORS
330
23A
102
}
330
23A
100
AcDbXrecord
280
     1
270
     1
271
     1
  0
XRECORD
  5
240
102
{ACAD_REACTORS
330
23A
102
}
330
23A
100
AcDbXrecord
280
     1
270
     1
271
     1
  0
XRECORD
  5
23D
102
{ACAD_REACTORS
330
23A
102
}
330
23A
100
AcDbXrecord
280
     1
270
     1
271
     1
  0
XRECORD
  5
2D6
102
{ACAD_REACTORS
330
232
102
}
330
232
100
AcDbXrecord
280
     1
102
MATERIAL
148
0.0
149
0.0
149
0.0
 93
        0
 94
      127
282
     0
 72
     0
 77
     0
171
     0
175
     0
179
     0
273
     0
  0
XRECORD
  5
234
102
{ACAD_REACTORS
330
232
102
}
330
232
100
AcDbXrecord
280
     1
270
     1
271
     1
  0
XRECORD
  5
233
102
{ACAD_REACTORS
330
232
102
}
330
232
100
AcDbXrecord
280
     1
270
     1
271
     1
  0
XRECORD
  5
237
102
{ACAD_REACTORS
330
232
102
}
330
232
100
AcDbXrecord
280
     1
270
     1
271
     1
  0
XRECORD
  5
236
102
{ACAD_REACTORS
330
232
102
}
330
232
100
AcDbXrecord
280
     1
270
     1
271
     1
  0
XRECORD
  5
238
102
{ACAD_REACTORS
330
232
102
}
330
232
100
AcDbXrecord
280
     1
270
     1
271
     1
  0
XRECORD
  5
235
102
{ACAD_REACTORS
330
232
102
}
330
232
100
AcDbXrecord
280
     1
270
     1
271
     1
  0
XRECORD
  5
2D8
102
{ACAD_REACTORS
330
242
102
}
330
242
100
AcDbXrecord
280
     1
102
MATERIAL
148
0.0
149
0.0
149
0.0
 93
        0
 94
      127
282
     0
 72
     0
 77
     0
171
     0
175
     0
179
     0
273
     0
  0
XRECORD
  5
244
102
{ACAD_REACTORS
330
242
102
}
330
242
100
AcDbXrecord
280
     1
270
     1
271
     1
  0
XRECORD
  5
243
102
{ACAD_REACTORS
330
242
102
}
330
242
100
AcDbXrecord
280
     1
270
     1
271
     1
  0
XRECORD
  5
247
102
{ACAD_REACTORS
330
242
102
}
330
242
100
AcDbXrecord
280
     1
270
     1
271
     1
  0
XRECORD
  5
246
102
{ACAD_REACTORS
330
242
102
}
330
242
100
AcDbXrecord
280
     1
270
     1
271
     1
  0
XRECORD
  5
248
102
{ACAD_REACTORS
330
242
102
}
330
242
100
AcDbXrecord
280
     1
270
     1
271
     1
  0
XRECORD
  5
245
102
{ACAD_REACTORS
330
242
102
}
330
242
100
AcDbXrecord
280
     1
270
     1
271
     1
  0
XRECORD
  5
30B
102
{ACAD_REACTORS
330
30A
102
}
330
30A
100
AcDbXrecord
280
     1
102
ACAD_ROUNDTRIP_2012_MLEADER_STYLE
298
     1
  0
XRECORD
  5
30D
102
{ACAD_REACTORS
330
30C
102
}
330
30C
100
AcDbXrecord
280
     1
102
DISPLAYNAME
  1
Imperial24
102
FLAGS
 90
        0
  0
CELLSTYLEMAP
  5
2D4
102
{ACAD_REACTORS
330
284
102
}
330
284
100
AcDbCellStyleMap
 90
        3
300
CELLSTYLE
  1
TABLEFORMAT_BEGIN
 90
        5
170
     1
 91
        0
 92
    32768
 62
   257
 93
        1
300
CONTENTFORMAT
  1
CONTENTFORMAT_BEGIN
 90
        0
 91
        0
 92
      512
 93
        0
300

 40
0.0
140
1.0
 94
        5
 62
     0
340
C
144
0.25
309
CONTENTFORMAT_END
171
     0
 94
        0
309
TABLEFORMAT_END
  1
CELLSTYLE_BEGIN
 90
        1
 91
        1
300
_TITLE
309
CELLSTYLE_END
300
CELLSTYLE
  1
TABLEFORMAT_BEGIN
 90
        5
170
     1
 91
        0
 92
        0
 62
   257
 93
        1
300
CONTENTFORMAT
  1
CONTENTFORMAT_BEGIN
 90
        0
 91
        0
 92
      512
 93
        0
300

 40
0.0
140
1.0
 94
        5
 62
     0
340
C
144
0.18
309
CONTENTFORMAT_END
171
     0
 94
        0
309
TABLEFORMAT_END
  1
CELLSTYLE_BEGIN
 90
        2
 91
        1
300
_HEADER
309
CELLSTYLE_END
300
CELLSTYLE
  1
TABLEFORMAT_BEGIN
 90
        5
170
     1
 91
        0
 92
        0
 62
   257
 93
        1
300
CONTENTFORMAT
  1
CONTENTFORMAT_BEGIN
 90
        0
 91
        0
 92
      512
 93
        0
300

 40
0.0
140
1.0
 94
        2
 62
     0
340
C
144
0.18
309
CONTENTFORMAT_END
171
     0
 94
        0
309
TABLEFORMAT_END
  1
CELLSTYLE_BEGIN
 90
        3
 91
        2
300
_DATA
309
CELLSTYLE_END
  0
XRECORD
  5
309
102
{ACAD_REACTORS
330
284
102
}
330
284
100
AcDbXrecord
280
     1
102
ACAD_ROUNDTRIP_PRE2007_TABLESTYLE
 90
      512
 91
        0
  1

 92
      512
 93
        0
  2

 94
      512
 95
        0
  3

  0
XRECORD
  5
2E4
102
{ACAD_REACTORS
330
2E3
102
}
330
2E3
100
AcDbXrecord
280
     1
102
RTVSPost2010Prop28
280
     1
102
RTVSPost2010PropOp28
 70
     1
102
RTVSPost2010Prop29
280
     1
102
RTVSPost2010PropOp29
 70
     1
102
RTVSPost2010Prop30
280
     0
102
RTVSPost2010PropOp30
 70
     1
102
RTVSPost2010Prop31
280
     0
102
RTVSPost2010PropOp31
 70
     1
102
RTVSPost2010Prop32
280
     0
102
RTVSPost2010PropOp32
 70
     1
102
RTVSPost2010Prop33
280
     0
102
RTVSPost2010PropOp33
 70
     1
102
RTVSPost2010Prop34
280
     0
102
RTVSPost2010PropOp34
 70
     1
102
RTVSPost2010Prop35
280
     0
102
RTVSPost2010PropOp35
 70
     1
102
RTVSPost2010Prop36
280
     0
102
RTVSPost2010PropOp36
 70
     1
102
RTVSPost2010Prop37
 90
       50
102
RTVSPost2010PropOp37
 70
     1
102
RTVSPost2010Prop38
140
0.0
102
RTVSPost2010PropOp38
 70
     1
102
RTVSPost2010Prop39
140
1.0
102
RTVSPost2010PropOp39
 70
     1
102
RTVSPost2010Prop40
 90
        0
102
RTVSPost2010PropOp40
 70
     1
102
RTVSPost2010Prop41ColorIndex
 90
       18
102
RTVSPost2010Prop41ColorRGB
 90
        0
102
RTVSPost2010PropOp41
 70
     1
102
RTVSPost2010Prop42
 90
       50
102
RTVSPost2010PropOp42
 70
     1
102
RTVSPost2010Prop43
 90
        3
102
RTVSPost2010PropOp43
 70
     1
102
RTVSPost2010Prop44ColorIndex
 90
        5
102
RTVSPost2010Prop44ColorRGB
 90
      255
102
RTVSPost2010PropOp44
 70
     1
102
RTVSPost2010Prop45
280
     0
102
RTVSPost2010PropOp45
 70
     1
102
RTVSPost2010Prop46
 90
       50
102
RTVSPost2010PropOp46
 70
     1
102
RTVSPost2010Prop47
 90
       50
102
RTVSPost2010PropOp47
 70
     1
102
RTVSPost2010Prop48
 90
       50
102
RTVSPost2010PropOp48
 70
     1
102
RTVSPost2010Prop49
280
     0
102
RTVSPost2010PropOp49
 70
     1
102
RTVSPost2010Prop50
 90
       50
102
RTVSPost2010PropOp50
 70
     1
102
RTVSPost2010Prop51ColorIndex
 90
      256
102
RTVSPost2010Prop51ColorRGB
 90
-16777216
102
RTVSPost2010PropOp51
 70
     0
102
RTVSPost2010Prop52
140
1.0
102
RTVSPost2010PropOp52
 70
     0
102
RTVSPost2010Prop53
 90
        2
102
RTVSPost2010PropOp53
 70
     1
102
RTVSPost2010Prop54
  1
strokes_ogs.tif
102
RTVSPost2010PropOp54
 70
     1
102
RTVSPost2010Prop55
280
     0
102
RTVSPost2010PropOp55
 70
     1
102
RTVSPost2010Prop56
140
1.0
102
RTVSPost2010PropOp56
 70
     1
102
RTVSPost2010Prop57
140
1.0
102
RTVSPost2010PropOp57
 70
     1
102
RTVSPropertyOp0
 70
     1
102
RTVSPropertyOp1
 70
     1
102
RTVSPropertyOp2
 70
     1
102
RTVSPropertyOp3
 70
     1
102
RTVSPropertyOp4
 70
     1
102
RTVSPropertyOp5
 70
     1
102
RTVSPropertyOp6
 70
     1
102
RTVSPropertyOp7
 70
     1
102
RTVSPropertyOp8
 70
     1
102
RTVSPropertyOp9
 70
     1
102
RTVSPropertyOp10
 70
     1
102
RTVSPropertyOp11
 70
     1
102
RTVSPropertyOp12
 70
     1
102
RTVSPropertyOp13
 70
     1
102
RTVSPropertyOp14
 70
     1
102
RTVSPropertyOp15
 70
     1
102
RTVSPropertyOp16
 70
     1
102
RTVSPropertyOp17
 70
     1
102
RTVSPropertyOp18
 70
     1
102
RTVSPropertyOp19
 70
     1
102
RTVSPropertyOp20
 70
     1
102
RTVSPropertyOp21
 70
     1
102
RTVSPropertyOp22
 70
     1
102
RTVSPropertyOp23
 70
     1
102
RTVSPropertyOp24
 70
     1
102
RTVSPropertyOp25
 70
     1
102
RTVSPropertyOp26
 70
     1
102
RTVSPropertyOp27
 70
     1
102
RTVSPropertyOp28
 70
     1
102
RTVSPropertyOp29
 70
     1
102
RTVSPropertyOp30
 70
     1
102
RTVSPropertyOp31
 70
     1
102
RTVSPropertyOp32
 70
     1
102
RTVSPropertyOp33
 70
     1
102
RTVSPropertyOp34
 70
     1
102
RTVSPropertyOp35
 70
     1
102
RTVSPropertyOp36
 70
     1
102
RTVSPropertyOp37
 70
     1
102
RTVSPropertyOp38
 70
     1
102
RTVSPropertyOp39
 70
     1
102
RTVSPropertyOp40
 70
     1
102
RTVSPropertyOp41
 70
     1
102
RTVSPropertyOp42
 70
     1
102
RTVSPropertyOp43
 70
     1
102
RTVSPropertyOp44
 70
     1
102
RTVSPropertyOp45
 70
     1
102
RTVSPropertyOp46
 70
     1
102
RTVSPropertyOp47
 70
     1
102
RTVSPropertyOp48
 70
     1
102
RTVSPropertyOp49
 70
     1
102
RTVSPropertyOp50
 70
     1
102
RTVSPropertyOp51
 70
     0
102
RTVSPropertyOp52
 70
     0
102
RTVSPropertyOp53
 70
     1
102
RTVSPropertyOp54
 70
     1
102
RTVSPropertyOp55
 70
     1
102
RTVSPropertyOp56
 70
     1
102
RTVSPropertyOp57
 70
     1
102
RTVSPropertyOp58
 70
     1
102
RTVSPropertyOp59
 70
     1
102
RTVSPropertyOp60
 70
     1
102
RTVSPropertyOp61
 70
     1
102
RTVSPropertyOp62
 70
     1
  0
XRECORD
  5
2E2
102
{ACAD_REACTORS
330
2E1
102
}
330
2E1
100
AcDbXrecord
280
     1
102
RTVSPost2010Prop28
280
     0
102
RTVSPost2010PropOp28
 70
     1
102
RTVSPost2010Prop29
280
     1
102
RTVSPost2010PropOp29
 70
     1
102
RTVSPost2010Prop30
280
     1
102
RTVSPost2010PropOp30
 70
     1
102
RTVSPost2010Prop31
280
     0
102
RTVSPost2010PropOp31
 70
     1
102
RTVSPost2010Prop32
280
     0
102
RTVSPost2010PropOp32
 70
     1
102
RTVSPost2010Prop33
280
     0
102
RTVSPost2010PropOp33
 70
     1
102
RTVSPost2010Prop34
280
     0
102
RTVSPost2010PropOp34
 70
     1
102
RTVSPost2010Prop35
280
     0
102
RTVSPost2010PropOp35
 70
     1
102
RTVSPost2010Prop36
280
     0
102
RTVSPost2010PropOp36
 70
     1
102
RTVSPost2010Prop37
 90
       50
102
RTVSPost2010PropOp37
 70
     1
102
RTVSPost2010Prop38
140
0.0
102
RTVSPost2010PropOp38
 70
     1
102
RTVSPost2010Prop39
140
1.0
102
RTVSPost2010PropOp39
 70
     1
102
RTVSPost2010Prop40
 90
        0
102
RTVSPost2010PropOp40
 70
     1
102
RTVSPost2010Prop41ColorIndex
 90
       18
102
RTVSPost2010Prop41ColorRGB
 90
        0
102
RTVSPost2010PropOp41
 70
     1
102
RTVSPost2010Prop42
 90
       50
102
RTVSPost2010PropOp42
 70
     1
102
RTVSPost2010Prop43
 90
        3
102
RTVSPost2010PropOp43
 70
     1
102
RTVSPost2010Prop44ColorIndex
 90
        5
102
RTVSPost2010Prop44ColorRGB
 90
      255
102
RTVSPost2010PropOp44
 70
     1
102
RTVSPost2010Prop45
280
     0
102
RTVSPost2010PropOp45
 70
     1
102
RTVSPost2010Prop46
 90
       50
102
RTVSPost2010PropOp46
 70
     1
102
RTVSPost2010Prop47
 90
       50
102
RTVSPost2010PropOp47
 70
     1
102
RTVSPost2010Prop48
 90
       50
102
RTVSPost2010PropOp48
 70
     1
102
RTVSPost2010Prop49
280
     0
102
RTVSPost2010PropOp49
 70
     1
102
RTVSPost2010Prop50
 90
       50
102
RTVSPost2010PropOp50
 70
     1
102
RTVSPost2010Prop51ColorIndex
 90
      256
102
RTVSPost2010Prop51ColorRGB
 90
-16777216
102
RTVSPost2010PropOp51
 70
     0
102
RTVSPost2010Prop52
140
1.0
102
RTVSPost2010PropOp52
 70
     0
102
RTVSPost2010Prop53
 90
        2
102
RTVSPost2010PropOp53
 70
     1
102
RTVSPost2010Prop54
  1
strokes_ogs.tif
102
RTVSPost2010PropOp54
 70
     1
102
RTVSPost2010Prop55
280
     0
102
RTVSPost2010PropOp55
 70
     1
102
RTVSPost2010Prop56
140
1.0
102
RTVSPost2010PropOp56
 70
     1
102
RTVSPost2010Prop57
140
1.0
102
RTVSPost2010PropOp57
 70
     1
102
RTVSPropertyOp0
 70
     1
102
RTVSPropertyOp1
 70
     1
102
RTVSPropertyOp2
 70
     1
102
RTVSPropertyOp3
 70
     1
102
RTVSPropertyOp4
 70
     1
102
RTVSPropertyOp5
 70
     1
102
RTVSPropertyOp6
 70
     1
102
RTVSPropertyOp7
 70
     1
102
RTVSPropertyOp8
 70
     1
102
RTVSPropertyOp9
 70
     1
102
RTVSPropertyOp10
 70
     1
102
RTVSPropertyOp11
 70
     1
102
RTVSPropertyOp12
 70
     1
102
RTVSPropertyOp13
 70
     1
102
RTVSPropertyOp14
 70
     1
102
RTVSPropertyOp15
 70
     1
102
RTVSPropertyOp16
 70
     1
102
RTVSPropertyOp17
 70
     1
102
RTVSPropertyOp18
 70
     1
102
RTVSPropertyOp19
 70
     1
102
RTVSPropertyOp20
 70
     1
102
RTVSPropertyOp21
 70
     1
102
RTVSPropertyOp22
 70
     1
102
RTVSPropertyOp23
 70
     1
102
RTVSPropertyOp24
 70
     1
102
RTVSPropertyOp25
 70
     1
102
RTVSPropertyOp26
 70
     1
102
RTVSPropertyOp27
 70
     1
102
RTVSPropertyOp28
 70
     1
102
RTVSPropertyOp29
 70
     1
102
RTVSPropertyOp30
 70
     1
102
RTVSPropertyOp31
 70
     1
102
RTVSPropertyOp32
 70
     1
102
RTVSPropertyOp33
 70
     1
102
RTVSPropertyOp34
 70
     1
102
RTVSPropertyOp35
 70
     1
102
RTVSPropertyOp36
 70
     1
102
RTVSPropertyOp37
 70
     1
102
RTVSPropertyOp38
 70
     1
102
RTVSPropertyOp39
 70
     1
102
RTVSPropertyOp40
 70
     1
102
RTVSPropertyOp41
 70
     1
102
RTVSPropertyOp42
 70
     1
102
RTVSPropertyOp43
 70
     1
102
RTVSPropertyOp44
 70
     1
102
RTVSPropertyOp45
 70
     1
102
RTVSPropertyOp46
 70
     1
102
RTVSPropertyOp47
 70
     1
102
RTVSPropertyOp48
 70
     1
102
RTVSPropertyOp49
 70
     1
102
RTVSPropertyOp50
 70
     1
102
RTVSPropertyOp51
 70
     0
102
RTVSPropertyOp52
 70
     0
102
RTVSPropertyOp53
 70
     1
102
RTVSPropertyOp54
 70
     1
102
RTVSPropertyOp55
 70
     1
102
RTVSPropertyOp56
 70
     1
102
RTVSPropertyOp57
 70
     1
102
RTVSPropertyOp58
 70
     1
102
RTVSPropertyOp59
 70
     1
102
RTVSPropertyOp60
 70
     1
102
RTVSPropertyOp61
 70
     1
102
RTVSPropertyOp62
 70
     1
  0
XRECORD
  5
2F0
102
{ACAD_REACTORS
330
2EF
102
}
330
2EF
100
AcDbXrecord
280
     1
102
RTVSPost2010Prop28
280
     0
102
RTVSPost2010PropOp28
 70
     1
102
RTVSPost2010Prop29
280
     1
102
RTVSPost2010PropOp29
 70
     1
102
RTVSPost2010Prop30
280
     1
102
RTVSPost2010PropOp30
 70
     1
102
RTVSPost2010Prop31
280
     0
102
RTVSPost2010PropOp31
 70
     1
102
RTVSPost2010Prop32
280
     0
102
RTVSPost2010PropOp32
 70
     1
102
RTVSPost2010Prop33
280
     0
102
RTVSPost2010PropOp33
 70
     1
102
RTVSPost2010Prop34
280
     0
102
RTVSPost2010PropOp34
 70
     1
102
RTVSPost2010Prop35
280
     0
102
RTVSPost2010PropOp35
 70
     1
102
RTVSPost2010Prop36
280
     0
102
RTVSPost2010PropOp36
 70
     1
102
RTVSPost2010Prop37
 90
       50
102
RTVSPost2010PropOp37
 70
     1
102
RTVSPost2010Prop38
140
0.0
102
RTVSPost2010PropOp38
 70
     1
102
RTVSPost2010Prop39
140
1.0
102
RTVSPost2010PropOp39
 70
     1
102
RTVSPost2010Prop40
 90
        0
102
RTVSPost2010PropOp40
 70
     1
102
RTVSPost2010Prop41ColorIndex
 90
       18
102
RTVSPost2010Prop41ColorRGB
 90
        0
102
RTVSPost2010PropOp41
 70
     1
102
RTVSPost2010Prop42
 90
       50
102
RTVSPost2010PropOp42
 70
     1
102
RTVSPost2010Prop43
 90
        3
102
RTVSPost2010PropOp43
 70
     1
102
RTVSPost2010Prop44ColorIndex
 90
        5
102
RTVSPost2010Prop44ColorRGB
 90
      255
102
RTVSPost2010PropOp44
 70
     1
102
RTVSPost2010Prop45
280
     0
102
RTVSPost2010PropOp45
 70
     1
102
RTVSPost2010Prop46
 90
       50
102
RTVSPost2010PropOp46
 70
     1
102
RTVSPost2010Prop47
 90
       50
102
RTVSPost2010PropOp47
 70
     1
102
RTVSPost2010Prop48
 90
       50
102
RTVSPost2010PropOp48
 70
     1
102
RTVSPost2010Prop49
280
     0
102
RTVSPost2010PropOp49
 70
     1
102
RTVSPost2010Prop50
 90
       50
102
RTVSPost2010PropOp50
 70
     1
102
RTVSPost2010Prop51ColorIndex
 90
      256
102
RTVSPost2010Prop51ColorRGB
 90
-16777216
102
RTVSPost2010PropOp51
 70
     0
102
RTVSPost2010Prop52
140
1.0
102
RTVSPost2010PropOp52
 70
     0
102
RTVSPost2010Prop53
 90
        2
102
RTVSPost2010PropOp53
 70
     1
102
RTVSPost2010Prop54
  1
strokes_ogs.tif
102
RTVSPost2010PropOp54
 70
     1
102
RTVSPost2010Prop55
280
     0
102
RTVSPost2010PropOp55
 70
     1
102
RTVSPost2010Prop56
140
1.0
102
RTVSPost2010PropOp56
 70
     1
102
RTVSPost2010Prop57
140
1.0
102
RTVSPost2010PropOp57
 70
     1
102
RTVSPropertyOp0
 70
     1
102
RTVSPropertyOp1
 70
     1
102
RTVSPropertyOp2
 70
     1
102
RTVSPropertyOp3
 70
     1
102
RTVSPropertyOp4
 70
     1
102
RTVSPropertyOp5
 70
     1
102
RTVSPropertyOp6
 70
     1
102
RTVSPropertyOp7
 70
     1
102
RTVSPropertyOp8
 70
     1
102
RTVSPropertyOp9
 70
     1
102
RTVSPropertyOp10
 70
     1
102
RTVSPropertyOp11
 70
     1
102
RTVSPropertyOp12
 70
     1
102
RTVSPropertyOp13
 70
     1
102
RTVSPropertyOp14
 70
     1
102
RTVSPropertyOp15
 70
     1
102
RTVSPropertyOp16
 70
     1
102
RTVSPropertyOp17
 70
     1
102
RTVSPropertyOp18
 70
     1
102
RTVSPropertyOp19
 70
     1
102
RTVSPropertyOp20
 70
     1
102
RTVSPropertyOp21
 70
     1
102
RTVSPropertyOp22
 70
     1
102
RTVSPropertyOp23
 70
     1
102
RTVSPropertyOp24
 70
     1
102
RTVSPropertyOp25
 70
     1
102
RTVSPropertyOp26
 70
     1
102
RTVSPropertyOp27
 70
     1
102
RTVSPropertyOp28
 70
     1
102
RTVSPropertyOp29
 70
     1
102
RTVSPropertyOp30
 70
     1
102
RTVSPropertyOp31
 70
     1
102
RTVSPropertyOp32
 70
     1
102
RTVSPropertyOp33
 70
     1
102
RTVSPropertyOp34
 70
     1
102
RTVSPropertyOp35
 70
     1
102
RTVSPropertyOp36
 70
     1
102
RTVSPropertyOp37
 70
     1
102
RTVSPropertyOp38
 70
     1
102
RTVSPropertyOp39
 70
     1
102
RTVSPropertyOp40
 70
     1
102
RTVSPropertyOp41
 70
     1
102
RTVSPropertyOp42
 70
     1
102
RTVSPropertyOp43
 70
     1
102
RTVSPropertyOp44
 70
     1
102
RTVSPropertyOp45
 70
     1
102
RTVSPropertyOp46
 70
     1
102
RTVSPropertyOp47
 70
     1
102
RTVSPropertyOp48
 70
     1
102
RTVSPropertyOp49
 70
     1
102
RTVSPropertyOp50
 70
     1
102
RTVSPropertyOp51
 70
     0
102
RTVSPropertyOp52
 70
     0
102
RTVSPropertyOp53
 70
     1
102
RTVSPropertyOp54
 70
     1
102
RTVSPropertyOp55
 70
     1
102
RTVSPropertyOp56
 70
     1
102
RTVSPropertyOp57
 70
     1
102
RTVSPropertyOp58
 70
     1
102
RTVSPropertyOp59
 70
     1
102
RTVSPropertyOp60
 70
     1
102
RTVSPropertyOp61
 70
     1
102
RTVSPropertyOp62
 70
     1
  0
XRECORD
  5
2F8
102
{ACAD_REACTORS
330
2F7
102
}
330
2F7
100
AcDbXrecord
280
     1
102
RTVSPost2010Prop28
280
     0
102
RTVSPost2010PropOp28
 70
     1
102
RTVSPost2010Prop29
280
     1
102
RTVSPost2010PropOp29
 70
     1
102
RTVSPost2010Prop30
280
     1
102
RTVSPost2010PropOp30
 70
     1
102
RTVSPost2010Prop31
280
     0
102
RTVSPost2010PropOp31
 70
     1
102
RTVSPost2010Prop32
280
     0
102
RTVSPost2010PropOp32
 70
     1
102
RTVSPost2010Prop33
280
     0
102
RTVSPost2010PropOp33
 70
     1
102
RTVSPost2010Prop34
280
     0
102
RTVSPost2010PropOp34
 70
     1
102
RTVSPost2010Prop35
280
     0
102
RTVSPost2010PropOp35
 70
     1
102
RTVSPost2010Prop36
280
     0
102
RTVSPost2010PropOp36
 70
     1
102
RTVSPost2010Prop37
 90
       50
102
RTVSPost2010PropOp37
 70
     1
102
RTVSPost2010Prop38
140
0.0
102
RTVSPost2010PropOp38
 70
     1
102
RTVSPost2010Prop39
140
1.0
102
RTVSPost2010PropOp39
 70
     1
102
RTVSPost2010Prop40
 90
        0
102
RTVSPost2010PropOp40
 70
     1
102
RTVSPost2010Prop41ColorIndex
 90
       18
102
RTVSPost2010Prop41ColorRGB
 90
        0
102
RTVSPost2010PropOp41
 70
     1
102
RTVSPost2010Prop42
 90
       50
102
RTVSPost2010PropOp42
 70
     1
102
RTVSPost2010Prop43
 90
        3
102
RTVSPost2010PropOp43
 70
     1
102
RTVSPost2010Prop44ColorIndex
 90
        5
102
RTVSPost2010Prop44ColorRGB
 90
      255
102
RTVSPost2010PropOp44
 70
     1
102
RTVSPost2010Prop45
280
     0
102
RTVSPost2010PropOp45
 70
     1
102
RTVSPost2010Prop46
 90
       50
102
RTVSPost2010PropOp46
 70
     1
102
RTVSPost2010Prop47
 90
       50
102
RTVSPost2010PropOp47
 70
     1
102
RTVSPost2010Prop48
 90
       50
102
RTVSPost2010PropOp48
 70
     1
102
RTVSPost2010Prop49
280
     0
102
RTVSPost2010PropOp49
 70
     1
102
RTVSPost2010Prop50
 90
       50
102
RTVSPost2010PropOp50
 70
     1
102
RTVSPost2010Prop51ColorIndex
 90
      256
102
RTVSPost2010Prop51ColorRGB
 90
-16777216
102
RTVSPost2010PropOp51
 70
     0
102
RTVSPost2010Prop52
140
1.0
102
RTVSPost2010PropOp52
 70
     0
102
RTVSPost2010Prop53
 90
        2
102
RTVSPost2010PropOp53
 70
     1
102
RTVSPost2010Prop54
  1
strokes_ogs.tif
102
RTVSPost2010PropOp54
 70
     1
102
RTVSPost2010Prop55
280
     0
102
RTVSPost2010PropOp55
 70
     1
102
RTVSPost2010Prop56
140
1.0
102
RTVSPost2010PropOp56
 70
     1
102
RTVSPost2010Prop57
140
1.0
102
RTVSPost2010PropOp57
 70
     1
102
RTVSPropertyOp0
 70
     1
102
RTVSPropertyOp1
 70
     1
102
RTVSPropertyOp2
 70
     1
102
RTVSPropertyOp3
 70
     1
102
RTVSPropertyOp4
 70
     1
102
RTVSPropertyOp5
 70
     1
102
RTVSPropertyOp6
 70
     1
102
RTVSPropertyOp7
 70
     1
102
RTVSPropertyOp8
 70
     1
102
RTVSPropertyOp9
 70
     1
102
RTVSPropertyOp10
 70
     1
102
RTVSPropertyOp11
 70
     1
102
RTVSPropertyOp12
 70
     1
102
RTVSPropertyOp13
 70
     1
102
RTVSPropertyOp14
 70
     1
102
RTVSPropertyOp15
 70
     1
102
RTVSPropertyOp16
 70
     1
102
RTVSPropertyOp17
 70
     1
102
RTVSPropertyOp18
 70
     1
102
RTVSPropertyOp19
 70
     1
102
RTVSPropertyOp20
 70
     1
102
RTVSPropertyOp21
 70
     1
102
RTVSPropertyOp22
 70
     1
102
RTVSPropertyOp23
 70
     1
102
RTVSPropertyOp24
 70
     1
102
RTVSPropertyOp25
 70
     1
102
RTVSPropertyOp26
 70
     1
102
RTVSPropertyOp27
 70
     1
102
RTVSPropertyOp28
 70
     1
102
RTVSPropertyOp29
 70
     1
102
RTVSPropertyOp30
 70
     1
102
RTVSPropertyOp31
 70
     1
102
RTVSPropertyOp32
 70
     1
102
RTVSPropertyOp33
 70
     1
102
RTVSPropertyOp34
 70
     1
102
RTVSPropertyOp35
 70
     1
102
RTVSPropertyOp36
 70
     1
102
RTVSPropertyOp37
 70
     1
102
RTVSPropertyOp38
 70
     1
102
RTVSPropertyOp39
 70
     1
102
RTVSPropertyOp40
 70
     1
102
RTVSPropertyOp41
 70
     1
102
RTVSPropertyOp42
 70
     1
102
RTVSPropertyOp43
 70
     1
102
RTVSPropertyOp44
 70
     1
102
RTVSPropertyOp45
 70
     1
102
RTVSPropertyOp46
 70
     1
102
RTVSPropertyOp47
 70
     1
102
RTVSPropertyOp48
 70
     1
102
RTVSPropertyOp49
 70
     1
102
RTVSPropertyOp50
 70
     1
102
RTVSPropertyOp51
 70
     0
102
RTVSPropertyOp52
 70
     0
102
RTVSPropertyOp53
 70
     1
102
RTVSPropertyOp54
 70
     1
102
RTVSPropertyOp55
 70
     1
102
RTVSPropertyOp56
 70
     1
102
RTVSPropertyOp57
 70
     1
102
RTVSPropertyOp58
 70
     1
102
RTVSPropertyOp59
 70
     1
102
RTVSPropertyOp60
 70
     1
102
RTVSPropertyOp61
 70
     1
102
RTVSPropertyOp62
 70
     1
  0
XRECORD
  5
2EA
102
{ACAD_REACTORS
330
2E9
102
}
330
2E9
100
AcDbXrecord
280
     1
102
RTVSPost2010Prop28
280
     0
102
RTVSPost2010PropOp28
 70
     1
102
RTVSPost2010Prop29
280
     1
102
RTVSPost2010PropOp29
 70
     1
102
RTVSPost2010Prop30
280
     1
102
RTVSPost2010PropOp30
 70
     1
102
RTVSPost2010Prop31
280
     0
102
RTVSPost2010PropOp31
 70
     1
102
RTVSPost2010Prop32
280
     0
102
RTVSPost2010PropOp32
 70
     1
102
RTVSPost2010Prop33
280
     0
102
RTVSPost2010PropOp33
 70
     1
102
RTVSPost2010Prop34
280
     0
102
RTVSPost2010PropOp34
 70
     1
102
RTVSPost2010Prop35
280
     0
102
RTVSPost2010PropOp35
 70
     1
102
RTVSPost2010Prop36
280
     0
102
RTVSPost2010PropOp36
 70
     1
102
RTVSPost2010Prop37
 90
       50
102
RTVSPost2010PropOp37
 70
     1
102
RTVSPost2010Prop38
140
0.0
102
RTVSPost2010PropOp38
 70
     1
102
RTVSPost2010Prop39
140
1.0
102
RTVSPost2010PropOp39
 70
     1
102
RTVSPost2010Prop40
 90
        0
102
RTVSPost2010PropOp40
 70
     1
102
RTVSPost2010Prop41ColorIndex
 90
       18
102
RTVSPost2010Prop41ColorRGB
 90
        0
102
RTVSPost2010PropOp41
 70
     1
102
RTVSPost2010Prop42
 90
       50
102
RTVSPost2010PropOp42
 70
     1
102
RTVSPost2010Prop43
 90
        3
102
RTVSPost2010PropOp43
 70
     1
102
RTVSPost2010Prop44ColorIndex
 90
        5
102
RTVSPost2010Prop44ColorRGB
 90
      255
102
RTVSPost2010PropOp44
 70
     1
102
RTVSPost2010Prop45
280
     0
102
RTVSPost2010PropOp45
 70
     1
102
RTVSPost2010Prop46
 90
       50
102
RTVSPost2010PropOp46
 70
     1
102
RTVSPost2010Prop47
 90
       50
102
RTVSPost2010PropOp47
 70
     1
102
RTVSPost2010Prop48
 90
       50
102
RTVSPost2010PropOp48
 70
     1
102
RTVSPost2010Prop49
280
     0
102
RTVSPost2010PropOp49
 70
     1
102
RTVSPost2010Prop50
 90
       50
102
RTVSPost2010PropOp50
 70
     1
102
RTVSPost2010Prop51ColorIndex
 90
      256
102
RTVSPost2010Prop51ColorRGB
 90
-16777216
102
RTVSPost2010PropOp51
 70
     0
102
RTVSPost2010Prop52
140
1.0
102
RTVSPost2010PropOp52
 70
     0
102
RTVSPost2010Prop53
 90
        2
102
RTVSPost2010PropOp53
 70
     1
102
RTVSPost2010Prop54
  1
strokes_ogs.tif
102
RTVSPost2010PropOp54
 70
     1
102
RTVSPost2010Prop55
280
     0
102
RTVSPost2010PropOp55
 70
     1
102
RTVSPost2010Prop56
140
1.0
102
RTVSPost2010PropOp56
 70
     1
102
RTVSPost2010Prop57
140
1.0
102
RTVSPost2010PropOp57
 70
     1
102
RTVSPropertyOp0
 70
     1
102
RTVSPropertyOp1
 70
     1
102
RTVSPropertyOp2
 70
     1
102
RTVSPropertyOp3
 70
     1
102
RTVSPropertyOp4
 70
     1
102
RTVSPropertyOp5
 70
     1
102
RTVSPropertyOp6
 70
     1
102
RTVSPropertyOp7
 70
     1
102
RTVSPropertyOp8
 70
     1
102
RTVSPropertyOp9
 70
     1
102
RTVSPropertyOp10
 70
     1
102
RTVSPropertyOp11
 70
     1
102
RTVSPropertyOp12
 70
     1
102
RTVSPropertyOp13
 70
     1
102
RTVSPropertyOp14
 70
     1
102
RTVSPropertyOp15
 70
     1
102
RTVSPropertyOp16
 70
     1
102
RTVSPropertyOp17
 70
     1
102
RTVSPropertyOp18
 70
     1
102
RTVSPropertyOp19
 70
     1
102
RTVSPropertyOp20
 70
     1
102
RTVSPropertyOp21
 70
     1
102
RTVSPropertyOp22
 70
     1
102
RTVSPropertyOp23
 70
     1
102
RTVSPropertyOp24
 70
     1
102
RTVSPropertyOp25
 70
     1
102
RTVSPropertyOp26
 70
     1
102
RTVSPropertyOp27
 70
     1
102
RTVSPropertyOp28
 70
     1
102
RTVSPropertyOp29
 70
     1
102
RTVSPropertyOp30
 70
     1
102
RTVSPropertyOp31
 70
     1
102
RTVSPropertyOp32
 70
     1
102
RTVSPropertyOp33
 70
     1
102
RTVSPropertyOp34
 70
     1
102
RTVSPropertyOp35
 70
     1
102
RTVSPropertyOp36
 70
     1
102
RTVSPropertyOp37
 70
     1
102
RTVSPropertyOp38
 70
     1
102
RTVSPropertyOp39
 70
     1
102
RTVSPropertyOp40
 70
     1
102
RTVSPropertyOp41
 70
     1
102
RTVSPropertyOp42
 70
     1
102
RTVSPropertyOp43
 70
     1
102
RTVSPropertyOp44
 70
     1
102
RTVSPropertyOp45
 70
     1
102
RTVSPropertyOp46
 70
     1
102
RTVSPropertyOp47
 70
     1
102
RTVSPropertyOp48
 70
     1
102
RTVSPropertyOp49
 70
     1
102
RTVSPropertyOp50
 70
     1
102
RTVSPropertyOp51
 70
     0
102
RTVSPropertyOp52
 70
     0
102
RTVSPropertyOp53
 70
     1
102
RTVSPropertyOp54
 70
     1
102
RTVSPropertyOp55
 70
     1
102
RTVSPropertyOp56
 70
     1
102
RTVSPropertyOp57
 70
     1
102
RTVSPropertyOp58
 70
     1
102
RTVSPropertyOp59
 70
     1
102
RTVSPropertyOp60
 70
     1
102
RTVSPropertyOp61
 70
     1
102
RTVSPropertyOp62
 70
     1
  0
XRECORD
  5
2EE
102
{ACAD_REACTORS
330
2ED
102
}
330
2ED
100
AcDbXrecord
280
     1
102
RTVSPost2010Prop28
280
     0
102
RTVSPost2010PropOp28
 70
     1
102
RTVSPost2010Prop29
280
     1
102
RTVSPost2010PropOp29
 70
     1
102
RTVSPost2010Prop30
280
     1
102
RTVSPost2010PropOp30
 70
     1
102
RTVSPost2010Prop31
280
     0
102
RTVSPost2010PropOp31
 70
     1
102
RTVSPost2010Prop32
280
     0
102
RTVSPost2010PropOp32
 70
     1
102
RTVSPost2010Prop33
280
     0
102
RTVSPost2010PropOp33
 70
     1
102
RTVSPost2010Prop34
280
     0
102
RTVSPost2010PropOp34
 70
     1
102
RTVSPost2010Prop35
280
     0
102
RTVSPost2010PropOp35
 70
     1
102
RTVSPost2010Prop36
280
     0
102
RTVSPost2010PropOp36
 70
     1
102
RTVSPost2010Prop37
 90
       50
102
RTVSPost2010PropOp37
 70
     1
102
RTVSPost2010Prop38
140
0.0
102
RTVSPost2010PropOp38
 70
     1
102
RTVSPost2010Prop39
140
1.0
102
RTVSPost2010PropOp39
 70
     1
102
RTVSPost2010Prop40
 90
        0
102
RTVSPost2010PropOp40
 70
     1
102
RTVSPost2010Prop41ColorIndex
 90
       18
102
RTVSPost2010Prop41ColorRGB
 90
        0
102
RTVSPost2010PropOp41
 70
     1
102
RTVSPost2010Prop42
 90
       50
102
RTVSPost2010PropOp42
 70
     1
102
RTVSPost2010Prop43
 90
        3
102
RTVSPost2010PropOp43
 70
     1
102
RTVSPost2010Prop44ColorIndex
 90
        5
102
RTVSPost2010Prop44ColorRGB
 90
      255
102
RTVSPost2010PropOp44
 70
     1
102
RTVSPost2010Prop45
280
     0
102
RTVSPost2010PropOp45
 70
     1
102
RTVSPost2010Prop46
 90
       50
102
RTVSPost2010PropOp46
 70
     1
102
RTVSPost2010Prop47
 90
       50
102
RTVSPost2010PropOp47
 70
     1
102
RTVSPost2010Prop48
 90
       50
102
RTVSPost2010PropOp48
 70
     1
102
RTVSPost2010Prop49
280
     0
102
RTVSPost2010PropOp49
 70
     1
102
RTVSPost2010Prop50
 90
       50
102
RTVSPost2010PropOp50
 70
     1
102
RTVSPost2010Prop51ColorIndex
 90
      256
102
RTVSPost2010Prop51ColorRGB
 90
-16777216
102
RTVSPost2010PropOp51
 70
     0
102
RTVSPost2010Prop52
140
1.0
102
RTVSPost2010PropOp52
 70
     0
102
RTVSPost2010Prop53
 90
        2
102
RTVSPost2010PropOp53
 70
     1
102
RTVSPost2010Prop54
  1
strokes_ogs.tif
102
RTVSPost2010PropOp54
 70
     1
102
RTVSPost2010Prop55
280
     0
102
RTVSPost2010PropOp55
 70
     1
102
RTVSPost2010Prop56
140
1.0
102
RTVSPost2010PropOp56
 70
     1
102
RTVSPost2010Prop57
140
1.0
102
RTVSPost2010PropOp57
 70
     1
102
RTVSPropertyOp0
 70
     1
102
RTVSPropertyOp1
 70
     1
102
RTVSPropertyOp2
 70
     1
102
RTVSPropertyOp3
 70
     1
102
RTVSPropertyOp4
 70
     1
102
RTVSPropertyOp5
 70
     1
102
RTVSPropertyOp6
 70
     1
102
RTVSPropertyOp7
 70
     1
102
RTVSPropertyOp8
 70
     1
102
RTVSPropertyOp9
 70
     1
102
RTVSPropertyOp10
 70
     1
102
RTVSPropertyOp11
 70
     1
102
RTVSPropertyOp12
 70
     1
102
RTVSPropertyOp13
 70
     1
102
RTVSPropertyOp14
 70
     1
102
RTVSPropertyOp15
 70
     1
102
RTVSPropertyOp16
 70
     1
102
RTVSPropertyOp17
 70
     1
102
RTVSPropertyOp18
 70
     1
102
RTVSPropertyOp19
 70
     1
102
RTVSPropertyOp20
 70
     1
102
RTVSPropertyOp21
 70
     1
102
RTVSPropertyOp22
 70
     1
102
RTVSPropertyOp23
 70
     1
102
RTVSPropertyOp24
 70
     1
102
RTVSPropertyOp25
 70
     1
102
RTVSPropertyOp26
 70
     1
102
RTVSPropertyOp27
 70
     1
102
RTVSPropertyOp28
 70
     1
102
RTVSPropertyOp29
 70
     1
102
RTVSPropertyOp30
 70
     1
102
RTVSPropertyOp31
 70
     1
102
RTVSPropertyOp32
 70
     1
102
RTVSPropertyOp33
 70
     1
102
RTVSPropertyOp34
 70
     1
102
RTVSPropertyOp35
 70
     1
102
RTVSPropertyOp36
 70
     1
102
RTVSPropertyOp37
 70
     1
102
RTVSPropertyOp38
 70
     1
102
RTVSPropertyOp39
 70
     1
102
RTVSPropertyOp40
 70
     1
102
RTVSPropertyOp41
 70
     1
102
RTVSPropertyOp42
 70
     1
102
RTVSPropertyOp43
 70
     1
102
RTVSPropertyOp44
 70
     1
102
RTVSPropertyOp45
 70
     1
102
RTVSPropertyOp46
 70
     1
102
RTVSPropertyOp47
 70
     1
102
RTVSPropertyOp48
 70
     1
102
RTVSPropertyOp49
 70
     1
102
RTVSPropertyOp50
 70
     1
102
RTVSPropertyOp51
 70
     0
102
RTVSPropertyOp52
 70
     0
102
RTVSPropertyOp53
 70
     1
102
RTVSPropertyOp54
 70
     1
102
RTVSPropertyOp55
 70
     1
102
RTVSPropertyOp56
 70
     1
102
RTVSPropertyOp57
 70
     1
102
RTVSPropertyOp58
 70
     1
102
RTVSPropertyOp59
 70
     1
102
RTVSPropertyOp60
 70
     1
102
RTVSPropertyOp61
 70
     1
102
RTVSPropertyOp62
 70
     1
  0
XRECORD
  5
308
102
{ACAD_REACTORS
330
307
102
}
330
307
100
AcDbXrecord
280
     1
102
RTVSPost2010Prop28
280
     0
102
RTVSPost2010PropOp28
 70
     0
102
RTVSPost2010Prop29
280
     1
102
RTVSPost2010PropOp29
 70
     0
102
RTVSPost2010Prop30
280
     1
102
RTVSPost2010PropOp30
 70
     0
102
RTVSPost2010Prop31
280
     0
102
RTVSPost2010PropOp31
 70
     0
102
RTVSPost2010Prop32
280
     0
102
RTVSPost2010PropOp32
 70
     0
102
RTVSPost2010Prop33
280
     0
102
RTVSPost2010PropOp33
 70
     0
102
RTVSPost2010Prop34
280
     0
102
RTVSPost2010PropOp34
 70
     0
102
RTVSPost2010Prop35
280
     0
102
RTVSPost2010PropOp35
 70
     0
102
RTVSPost2010Prop36
280
     0
102
RTVSPost2010PropOp36
 70
     0
102
RTVSPost2010Prop37
 90
       50
102
RTVSPost2010PropOp37
 70
     0
102
RTVSPost2010Prop38
140
0.0
102
RTVSPost2010PropOp38
 70
     0
102
RTVSPost2010Prop39
140
1.0
102
RTVSPost2010PropOp39
 70
     0
102
RTVSPost2010Prop40
 90
        0
102
RTVSPost2010PropOp40
 70
     0
102
RTVSPost2010Prop41ColorIndex
 90
       18
102
RTVSPost2010Prop41ColorRGB
 90
        0
102
RTVSPost2010PropOp41
 70
     0
102
RTVSPost2010Prop42
 90
       50
102
RTVSPost2010PropOp42
 70
     0
102
RTVSPost2010Prop43
 90
        3
102
RTVSPost2010PropOp43
 70
     0
102
RTVSPost2010Prop44ColorIndex
 90
        5
102
RTVSPost2010Prop44ColorRGB
 90
      255
102
RTVSPost2010PropOp44
 70
     0
102
RTVSPost2010Prop45
280
     0
102
RTVSPost2010PropOp45
 70
     0
102
RTVSPost2010Prop46
 90
       50
102
RTVSPost2010PropOp46
 70
     0
102
RTVSPost2010Prop47
 90
       50
102
RTVSPost2010PropOp47
 70
     0
102
RTVSPost2010Prop48
 90
       50
102
RTVSPost2010PropOp48
 70
     0
102
RTVSPost2010Prop49
280
     0
102
RTVSPost2010PropOp49
 70
     0
102
RTVSPost2010Prop50
 90
       50
102
RTVSPost2010PropOp50
 70
     0
102
RTVSPost2010Prop51ColorIndex
 90
      256
102
RTVSPost2010Prop51ColorRGB
 90
-16777216
102
RTVSPost2010PropOp51
 70
     0
102
RTVSPost2010Prop52
140
1.0
102
RTVSPost2010PropOp52
 70
     0
102
RTVSPost2010Prop53
 90
        2
102
RTVSPost2010PropOp53
 70
     0
102
RTVSPost2010Prop54
  1
strokes_ogs.tif
102
RTVSPost2010PropOp54
 70
     0
102
RTVSPost2010Prop55
280
     0
102
RTVSPost2010PropOp55
 70
     0
102
RTVSPost2010Prop56
140
1.0
102
RTVSPost2010PropOp56
 70
     0
102
RTVSPost2010Prop57
140
1.0
102
RTVSPost2010PropOp57
 70
     0
102
RTVSPropertyOp0
 70
     0
102
RTVSPropertyOp1
 70
     0
102
RTVSPropertyOp2
 70
     0
102
RTVSPropertyOp3
 70
     0
102
RTVSPropertyOp4
 70
     0
102
RTVSPropertyOp5
 70
     0
102
RTVSPropertyOp6
 70
     0
102
RTVSPropertyOp7
 70
     0
102
RTVSPropertyOp8
 70
     0
102
RTVSPropertyOp9
 70
     0
102
RTVSPropertyOp10
 70
     0
102
RTVSPropertyOp11
 70
     0
102
RTVSPropertyOp12
 70
     0
102
RTVSPropertyOp13
 70
     0
102
RTVSPropertyOp14
 70
     2
102
RTVSPropertyOp15
 70
     0
102
RTVSPropertyOp16
 70
     0
102
RTVSPropertyOp17
 70
     0
102
RTVSPropertyOp18
 70
     0
102
RTVSPropertyOp19
 70
     0
102
RTVSPropertyOp20
 70
     0
102
RTVSPropertyOp21
 70
     0
102
RTVSPropertyOp22
 70
     0
102
RTVSPropertyOp23
 70
     0
102
RTVSPropertyOp24
 70
     0
102
RTVSPropertyOp25
 70
     0
102
RTVSPropertyOp26
 70
     0
102
RTVSPropertyOp27
 70
     0
102
RTVSPropertyOp28
 70
     0
102
RTVSPropertyOp29
 70
     0
102
RTVSPropertyOp30
 70
     0
102
RTVSPropertyOp31
 70
     0
102
RTVSPropertyOp32
 70
     0
102
RTVSPropertyOp33
 70
     0
102
RTVSPropertyOp34
 70
     0
102
RTVSPropertyOp35
 70
     0
102
RTVSPropertyOp36
 70
     0
102
RTVSPropertyOp37
 70
     0
102
RTVSPropertyOp38
 70
     0
102
RTVSPropertyOp39
 70
     0
102
RTVSPropertyOp40
 70
     0
102
RTVSPropertyOp41
 70
     0
102
RTVSPropertyOp42
 70
     0
102
RTVSPropertyOp43
 70
     0
102
RTVSPropertyOp44
 70
     0
102
RTVSPropertyOp45
 70
     0
102
RTVSPropertyOp46
 70
     0
102
RTVSPropertyOp47
 70
     0
102
RTVSPropertyOp48
 70
     0
102
RTVSPropertyOp49
 70
     0
102
RTVSPropertyOp50
 70
     0
102
RTVSPropertyOp51
 70
     0
102
RTVSPropertyOp52
 70
     0
102
RTVSPropertyOp53
 70
     0
102
RTVSPropertyOp54
 70
     0
102
RTVSPropertyOp55
 70
     0
102
RTVSPropertyOp56
 70
     0
102
RTVSPropertyOp57
 70
     0
102
RTVSPropertyOp58
 70
     0
102
RTVSPropertyOp59
 70
     0
102
RTVSPropertyOp60
 70
     0
102
RTVSPropertyOp61
 70
     0
102
RTVSPropertyOp62
 70
     0
  0
XRECORD
  5
2F6
102
{ACAD_REACTORS
330
2F5
102
}
330
2F5
100
AcDbXrecord
280
     1
102
RTVSPost2010Prop28
280
     0
102
RTVSPost2010PropOp28
 70
     1
102
RTVSPost2010Prop29
280
     1
102
RTVSPost2010PropOp29
 70
     1
102
RTVSPost2010Prop30
280
     1
102
RTVSPost2010PropOp30
 70
     1
102
RTVSPost2010Prop31
280
     0
102
RTVSPost2010PropOp31
 70
     1
102
RTVSPost2010Prop32
280
     0
102
RTVSPost2010PropOp32
 70
     1
102
RTVSPost2010Prop33
280
     0
102
RTVSPost2010PropOp33
 70
     1
102
RTVSPost2010Prop34
280
     0
102
RTVSPost2010PropOp34
 70
     1
102
RTVSPost2010Prop35
280
     0
102
RTVSPost2010PropOp35
 70
     1
102
RTVSPost2010Prop36
280
     0
102
RTVSPost2010PropOp36
 70
     1
102
RTVSPost2010Prop37
 90
       50
102
RTVSPost2010PropOp37
 70
     1
102
RTVSPost2010Prop38
140
0.0
102
RTVSPost2010PropOp38
 70
     1
102
RTVSPost2010Prop39
140
1.0
102
RTVSPost2010PropOp39
 70
     1
102
RTVSPost2010Prop40
 90
        0
102
RTVSPost2010PropOp40
 70
     1
102
RTVSPost2010Prop41ColorIndex
 90
       18
102
RTVSPost2010Prop41ColorRGB
 90
        0
102
RTVSPost2010PropOp41
 70
     1
102
RTVSPost2010Prop42
 90
       50
102
RTVSPost2010PropOp42
 70
     1
102
RTVSPost2010Prop43
 90
        3
102
RTVSPost2010PropOp43
 70
     1
102
RTVSPost2010Prop44ColorIndex
 90
        5
102
RTVSPost2010Prop44ColorRGB
 90
      255
102
RTVSPost2010PropOp44
 70
     1
102
RTVSPost2010Prop45
280
     0
102
RTVSPost2010PropOp45
 70
     1
102
RTVSPost2010Prop46
 90
       50
102
RTVSPost2010PropOp46
 70
     1
102
RTVSPost2010Prop47
 90
       50
102
RTVSPost2010PropOp47
 70
     1
102
RTVSPost2010Prop48
 90
       50
102
RTVSPost2010PropOp48
 70
     1
102
RTVSPost2010Prop49
280
     0
102
RTVSPost2010PropOp49
 70
     1
102
RTVSPost2010Prop50
 90
       50
102
RTVSPost2010PropOp50
 70
     1
102
RTVSPost2010Prop51ColorIndex
 90
      256
102
RTVSPost2010Prop51ColorRGB
 90
-16777216
102
RTVSPost2010PropOp51
 70
     0
102
RTVSPost2010Prop52
140
1.0
102
RTVSPost2010PropOp52
 70
     0
102
RTVSPost2010Prop53
 90
        2
102
RTVSPost2010PropOp53
 70
     1
102
RTVSPost2010Prop54
  1
strokes_ogs.tif
102
RTVSPost2010PropOp54
 70
     1
102
RTVSPost2010Prop55
280
     0
102
RTVSPost2010PropOp55
 70
     1
102
RTVSPost2010Prop56
140
1.0
102
RTVSPost2010PropOp56
 70
     1
102
RTVSPost2010Prop57
140
1.0
102
RTVSPost2010PropOp57
 70
     1
102
RTVSPropertyOp0
 70
     1
102
RTVSPropertyOp1
 70
     1
102
RTVSPropertyOp2
 70
     1
102
RTVSPropertyOp3
 70
     1
102
RTVSPropertyOp4
 70
     1
102
RTVSPropertyOp5
 70
     1
102
RTVSPropertyOp6
 70
     1
102
RTVSPropertyOp7
 70
     1
102
RTVSPropertyOp8
 70
     1
102
RTVSPropertyOp9
 70
     1
102
RTVSPropertyOp10
 70
     1
102
RTVSPropertyOp11
 70
     1
102
RTVSPropertyOp12
 70
     1
102
RTVSPropertyOp13
 70
     1
102
RTVSPropertyOp14
 70
     1
102
RTVSPropertyOp15
 70
     1
102
RTVSPropertyOp16
 70
     1
102
RTVSPropertyOp17
 70
     1
102
RTVSPropertyOp18
 70
     1
102
RTVSPropertyOp19
 70
     1
102
RTVSPropertyOp20
 70
     1
102
RTVSPropertyOp21
 70
     1
102
RTVSPropertyOp22
 70
     1
102
RTVSPropertyOp23
 70
     1
102
RTVSPropertyOp24
 70
     1
102
RTVSPropertyOp25
 70
     1
102
RTVSPropertyOp26
 70
     1
102
RTVSPropertyOp27
 70
     1
102
RTVSPropertyOp28
 70
     1
102
RTVSPropertyOp29
 70
     1
102
RTVSPropertyOp30
 70
     1
102
RTVSPropertyOp31
 70
     1
102
RTVSPropertyOp32
 70
     1
102
RTVSPropertyOp33
 70
     1
102
RTVSPropertyOp34
 70
     1
102
RTVSPropertyOp35
 70
     1
102
RTVSPropertyOp36
 70
     1
102
RTVSPropertyOp37
 70
     1
102
RTVSPropertyOp38
 70
     1
102
RTVSPropertyOp39
 70
     1
102
RTVSPropertyOp40
 70
     1
102
RTVSPropertyOp41
 70
     1
102
RTVSPropertyOp42
 70
     1
102
RTVSPropertyOp43
 70
     1
102
RTVSPropertyOp44
 70
     1
102
RTVSPropertyOp45
 70
     1
102
RTVSPropertyOp46
 70
     1
102
RTVSPropertyOp47
 70
     1
102
RTVSPropertyOp48
 70
     1
102
RTVSPropertyOp49
 70
     1
102
RTVSPropertyOp50
 70
     1
102
RTVSPropertyOp51
 70
     0
102
RTVSPropertyOp52
 70
     0
102
RTVSPropertyOp53
 70
     1
102
RTVSPropertyOp54
 70
     1
102
RTVSPropertyOp55
 70
     1
102
RTVSPropertyOp56
 70
     1
102
RTVSPropertyOp57
 70
     1
102
RTVSPropertyOp58
 70
     1
102
RTVSPropertyOp59
 70
     1
102
RTVSPropertyOp60
 70
     1
102
RTVSPropertyOp61
 70
     1
102
RTVSPropertyOp62
 70
     1
  0
XRECORD
  5
2DA
102
{ACAD_REACTORS
330
2D9
102
}
330
2D9
100
AcDbXrecord
280
     1
102
RTVSPost2010Prop28
280
     0
102
RTVSPost2010PropOp28
 70
     1
102
RTVSPost2010Prop29
280
     1
102
RTVSPost2010PropOp29
 70
     1
102
RTVSPost2010Prop30
280
     1
102
RTVSPost2010PropOp30
 70
     1
102
RTVSPost2010Prop31
280
     0
102
RTVSPost2010PropOp31
 70
     1
102
RTVSPost2010Prop32
280
     0
102
RTVSPost2010PropOp32
 70
     1
102
RTVSPost2010Prop33
280
     0
102
RTVSPost2010PropOp33
 70
     1
102
RTVSPost2010Prop34
280
     0
102
RTVSPost2010PropOp34
 70
     1
102
RTVSPost2010Prop35
280
     0
102
RTVSPost2010PropOp35
 70
     1
102
RTVSPost2010Prop36
280
     0
102
RTVSPost2010PropOp36
 70
     1
102
RTVSPost2010Prop37
 90
       50
102
RTVSPost2010PropOp37
 70
     1
102
RTVSPost2010Prop38
140
0.0
102
RTVSPost2010PropOp38
 70
     1
102
RTVSPost2010Prop39
140
1.0
102
RTVSPost2010PropOp39
 70
     1
102
RTVSPost2010Prop40
 90
        0
102
RTVSPost2010PropOp40
 70
     1
102
RTVSPost2010Prop41ColorIndex
 90
       18
102
RTVSPost2010Prop41ColorRGB
 90
        0
102
RTVSPost2010PropOp41
 70
     1
102
RTVSPost2010Prop42
 90
       50
102
RTVSPost2010PropOp42
 70
     1
102
RTVSPost2010Prop43
 90
        3
102
RTVSPost2010PropOp43
 70
     1
102
RTVSPost2010Prop44ColorIndex
 90
        5
102
RTVSPost2010Prop44ColorRGB
 90
      255
102
RTVSPost2010PropOp44
 70
     1
102
RTVSPost2010Prop45
280
     0
102
RTVSPost2010PropOp45
 70
     1
102
RTVSPost2010Prop46
 90
       50
102
RTVSPost2010PropOp46
 70
     1
102
RTVSPost2010Prop47
 90
       50
102
RTVSPost2010PropOp47
 70
     1
102
RTVSPost2010Prop48
 90
       50
102
RTVSPost2010PropOp48
 70
     1
102
RTVSPost2010Prop49
280
     0
102
RTVSPost2010PropOp49
 70
     1
102
RTVSPost2010Prop50
 90
       50
102
RTVSPost2010PropOp50
 70
     1
102
RTVSPost2010Prop51ColorIndex
 90
      256
102
RTVSPost2010Prop51ColorRGB
 90
-16777216
102
RTVSPost2010PropOp51
 70
     0
102
RTVSPost2010Prop52
140
1.0
102
RTVSPost2010PropOp52
 70
     0
102
RTVSPost2010Prop53
 90
        2
102
RTVSPost2010PropOp53
 70
     1
102
RTVSPost2010Prop54
  1
strokes_ogs.tif
102
RTVSPost2010PropOp54
 70
     1
102
RTVSPost2010Prop55
280
     0
102
RTVSPost2010PropOp55
 70
     1
102
RTVSPost2010Prop56
140
1.0
102
RTVSPost2010PropOp56
 70
     1
102
RTVSPost2010Prop57
140
1.0
102
RTVSPost2010PropOp57
 70
     1
102
RTVSPropertyOp0
 70
     1
102
RTVSPropertyOp1
 70
     1
102
RTVSPropertyOp2
 70
     1
102
RTVSPropertyOp3
 70
     1
102
RTVSPropertyOp4
 70
     1
102
RTVSPropertyOp5
 70
     1
102
RTVSPropertyOp6
 70
     1
102
RTVSPropertyOp7
 70
     1
102
RTVSPropertyOp8
 70
     1
102
RTVSPropertyOp9
 70
     1
102
RTVSPropertyOp10
 70
     1
102
RTVSPropertyOp11
 70
     1
102
RTVSPropertyOp12
 70
     1
102
RTVSPropertyOp13
 70
     1
102
RTVSPropertyOp14
 70
     1
102
RTVSPropertyOp15
 70
     1
102
RTVSPropertyOp16
 70
     1
102
RTVSPropertyOp17
 70
     1
102
RTVSPropertyOp18
 70
     1
102
RTVSPropertyOp19
 70
     1
102
RTVSPropertyOp20
 70
     1
102
RTVSPropertyOp21
 70
     1
102
RTVSPropertyOp22
 70
     1
102
RTVSPropertyOp23
 70
     1
102
RTVSPropertyOp24
 70
     1
102
RTVSPropertyOp25
 70
     1
102
RTVSPropertyOp26
 70
     1
102
RTVSPropertyOp27
 70
     1
102
RTVSPropertyOp28
 70
     1
102
RTVSPropertyOp29
 70
     1
102
RTVSPropertyOp30
 70
     1
102
RTVSPropertyOp31
 70
     1
102
RTVSPropertyOp32
 70
     1
102
RTVSPropertyOp33
 70
     1
102
RTVSPropertyOp34
 70
     1
102
RTVSPropertyOp35
 70
     1
102
RTVSPropertyOp36
 70
     1
102
RTVSPropertyOp37
 70
     1
102
RTVSPropertyOp38
 70
     1
102
RTVSPropertyOp39
 70
     1
102
RTVSPropertyOp40
 70
     1
102
RTVSPropertyOp41
 70
     1
102
RTVSPropertyOp42
 70
     1
102
RTVSPropertyOp43
 70
     1
102
RTVSPropertyOp44
 70
     1
102
RTVSPropertyOp45
 70
     1
102
RTVSPropertyOp46
 70
     1
102
RTVSPropertyOp47
 70
     1
102
RTVSPropertyOp48
 70
     1
102
RTVSPropertyOp49
 70
     1
102
RTVSPropertyOp50
 70
     1
102
RTVSPropertyOp51
 70
     0
102
RTVSPropertyOp52
 70
     0
102
RTVSPropertyOp53
 70
     1
102
RTVSPropertyOp54
 70
     1
102
RTVSPropertyOp55
 70
     1
102
RTVSPropertyOp56
 70
     1
102
RTVSPropertyOp57
 70
     1
102
RTVSPropertyOp58
 70
     1
102
RTVSPropertyOp59
 70
     1
102
RTVSPropertyOp60
 70
     1
102
RTVSPropertyOp61
 70
     1
102
RTVSPropertyOp62
 70
     1
  0
XRECORD
  5
2DC
102
{ACAD_REACTORS
330
2DB
102
}
330
2DB
100
AcDbXrecord
280
     1
102
RTVSPost2010Prop28
280
     0
102
RTVSPost2010PropOp28
 70
     1
102
RTVSPost2010Prop29
280
     1
102
RTVSPost2010PropOp29
 70
     1
102
RTVSPost2010Prop30
280
     1
102
RTVSPost2010PropOp30
 70
     1
102
RTVSPost2010Prop31
280
     0
102
RTVSPost2010PropOp31
 70
     1
102
RTVSPost2010Prop32
280
     0
102
RTVSPost2010PropOp32
 70
     1
102
RTVSPost2010Prop33
280
     0
102
RTVSPost2010PropOp33
 70
     1
102
RTVSPost2010Prop34
280
     0
102
RTVSPost2010PropOp34
 70
     1
102
RTVSPost2010Prop35
280
     0
102
RTVSPost2010PropOp35
 70
     1
102
RTVSPost2010Prop36
280
     0
102
RTVSPost2010PropOp36
 70
     1
102
RTVSPost2010Prop37
 90
       50
102
RTVSPost2010PropOp37
 70
     1
102
RTVSPost2010Prop38
140
0.0
102
RTVSPost2010PropOp38
 70
     1
102
RTVSPost2010Prop39
140
1.0
102
RTVSPost2010PropOp39
 70
     1
102
RTVSPost2010Prop40
 90
        0
102
RTVSPost2010PropOp40
 70
     1
102
RTVSPost2010Prop41ColorIndex
 90
       18
102
RTVSPost2010Prop41ColorRGB
 90
        0
102
RTVSPost2010PropOp41
 70
     1
102
RTVSPost2010Prop42
 90
       50
102
RTVSPost2010PropOp42
 70
     1
102
RTVSPost2010Prop43
 90
        3
102
RTVSPost2010PropOp43
 70
     1
102
RTVSPost2010Prop44ColorIndex
 90
        5
102
RTVSPost2010Prop44ColorRGB
 90
      255
102
RTVSPost2010PropOp44
 70
     1
102
RTVSPost2010Prop45
280
     0
102
RTVSPost2010PropOp45
 70
     1
102
RTVSPost2010Prop46
 90
       50
102
RTVSPost2010PropOp46
 70
     1
102
RTVSPost2010Prop47
 90
       50
102
RTVSPost2010PropOp47
 70
     1
102
RTVSPost2010Prop48
 90
       50
102
RTVSPost2010PropOp48
 70
     1
102
RTVSPost2010Prop49
280
     0
102
RTVSPost2010PropOp49
 70
     1
102
RTVSPost2010Prop50
 90
       50
102
RTVSPost2010PropOp50
 70
     1
102
RTVSPost2010Prop51ColorIndex
 90
      256
102
RTVSPost2010Prop51ColorRGB
 90
-16777216
102
RTVSPost2010PropOp51
 70
     0
102
RTVSPost2010Prop52
140
1.0
102
RTVSPost2010PropOp52
 70
     0
102
RTVSPost2010Prop53
 90
        2
102
RTVSPost2010PropOp53
 70
     1
102
RTVSPost2010Prop54
  1
strokes_ogs.tif
102
RTVSPost2010PropOp54
 70
     1
102
RTVSPost2010Prop55
280
     0
102
RTVSPost2010PropOp55
 70
     1
102
RTVSPost2010Prop56
140
1.0
102
RTVSPost2010PropOp56
 70
     1
102
RTVSPost2010Prop57
140
1.0
102
RTVSPost2010PropOp57
 70
     1
102
RTVSPropertyOp0
 70
     1
102
RTVSPropertyOp1
 70
     1
102
RTVSPropertyOp2
 70
     1
102
RTVSPropertyOp3
 70
     1
102
RTVSPropertyOp4
 70
     1
102
RTVSPropertyOp5
 70
     1
102
RTVSPropertyOp6
 70
     1
102
RTVSPropertyOp7
 70
     1
102
RTVSPropertyOp8
 70
     1
102
RTVSPropertyOp9
 70
     1
102
RTVSPropertyOp10
 70
     1
102
RTVSPropertyOp11
 70
     1
102
RTVSPropertyOp12
 70
     1
102
RTVSPropertyOp13
 70
     1
102
RTVSPropertyOp14
 70
     1
102
RTVSPropertyOp15
 70
     1
102
RTVSPropertyOp16
 70
     1
102
RTVSPropertyOp17
 70
     1
102
RTVSPropertyOp18
 70
     1
102
RTVSPropertyOp19
 70
     1
102
RTVSPropertyOp20
 70
     1
102
RTVSPropertyOp21
 70
     1
102
RTVSPropertyOp22
 70
     1
102
RTVSPropertyOp23
 70
     1
102
RTVSPropertyOp24
 70
     1
102
RTVSPropertyOp25
 70
     1
102
RTVSPropertyOp26
 70
     1
102
RTVSPropertyOp27
 70
     1
102
RTVSPropertyOp28
 70
     1
102
RTVSPropertyOp29
 70
     1
102
RTVSPropertyOp30
 70
     1
102
RTVSPropertyOp31
 70
     1
102
RTVSPropertyOp32
 70
     1
102
RTVSPropertyOp33
 70
     1
102
RTVSPropertyOp34
 70
     1
102
RTVSPropertyOp35
 70
     1
102
RTVSPropertyOp36
 70
     1
102
RTVSPropertyOp37
 70
     1
102
RTVSPropertyOp38
 70
     1
102
RTVSPropertyOp39
 70
     1
102
RTVSPropertyOp40
 70
     1
102
RTVSPropertyOp41
 70
     1
102
RTVSPropertyOp42
 70
     1
102
RTVSPropertyOp43
 70
     1
102
RTVSPropertyOp44
 70
     1
102
RTVSPropertyOp45
 70
     1
102
RTVSPropertyOp46
 70
     1
102
RTVSPropertyOp47
 70
     1
102
RTVSPropertyOp48
 70
     1
102
RTVSPropertyOp49
 70
     1
102
RTVSPropertyOp50
 70
     1
102
RTVSPropertyOp51
 70
     0
102
RTVSPropertyOp52
 70
     0
102
RTVSPropertyOp53
 70
     1
102
RTVSPropertyOp54
 70
     1
102
RTVSPropertyOp55
 70
     1
102
RTVSPropertyOp56
 70
     1
102
RTVSPropertyOp57
 70
     1
102
RTVSPropertyOp58
 70
     1
102
RTVSPropertyOp59
 70
     1
102
RTVSPropertyOp60
 70
     1
102
RTVSPropertyOp61
 70
     1
102
RTVSPropertyOp62
 70
     1
  0
XRECORD
  5
2DE
102
{ACAD_REACTORS
330
2DD
102
}
330
2DD
100
AcDbXrecord
280
     1
102
RTVSPost2010Prop28
280
     0
102
RTVSPost2010PropOp28
 70
     1
102
RTVSPost2010Prop29
280
     1
102
RTVSPost2010PropOp29
 70
     1
102
RTVSPost2010Prop30
280
     1
102
RTVSPost2010PropOp30
 70
     1
102
RTVSPost2010Prop31
280
     0
102
RTVSPost2010PropOp31
 70
     1
102
RTVSPost2010Prop32
280
     0
102
RTVSPost2010PropOp32
 70
     1
102
RTVSPost2010Prop33
280
     0
102
RTVSPost2010PropOp33
 70
     1
102
RTVSPost2010Prop34
280
     0
102
RTVSPost2010PropOp34
 70
     1
102
RTVSPost2010Prop35
280
     0
102
RTVSPost2010PropOp35
 70
     1
102
RTVSPost2010Prop36
280
     0
102
RTVSPost2010PropOp36
 70
     1
102
RTVSPost2010Prop37
 90
       50
102
RTVSPost2010PropOp37
 70
     1
102
RTVSPost2010Prop38
140
0.0
102
RTVSPost2010PropOp38
 70
     1
102
RTVSPost2010Prop39
140
1.0
102
RTVSPost2010PropOp39
 70
     1
102
RTVSPost2010Prop40
 90
        0
102
RTVSPost2010PropOp40
 70
     1
102
RTVSPost2010Prop41ColorIndex
 90
       18
102
RTVSPost2010Prop41ColorRGB
 90
        0
102
RTVSPost2010PropOp41
 70
     1
102
RTVSPost2010Prop42
 90
       50
102
RTVSPost2010PropOp42
 70
     1
102
RTVSPost2010Prop43
 90
        3
102
RTVSPost2010PropOp43
 70
     1
102
RTVSPost2010Prop44ColorIndex
 90
        5
102
RTVSPost2010Prop44ColorRGB
 90
      255
102
RTVSPost2010PropOp44
 70
     1
102
RTVSPost2010Prop45
280
     0
102
RTVSPost2010PropOp45
 70
     1
102
RTVSPost2010Prop46
 90
       50
102
RTVSPost2010PropOp46
 70
     1
102
RTVSPost2010Prop47
 90
       50
102
RTVSPost2010PropOp47
 70
     1
102
RTVSPost2010Prop48
 90
       50
102
RTVSPost2010PropOp48
 70
     1
102
RTVSPost2010Prop49
280
     0
102
RTVSPost2010PropOp49
 70
     1
102
RTVSPost2010Prop50
 90
       50
102
RTVSPost2010PropOp50
 70
     1
102
RTVSPost2010Prop51ColorIndex
 90
      256
102
RTVSPost2010Prop51ColorRGB
 90
-16777216
102
RTVSPost2010PropOp51
 70
     0
102
RTVSPost2010Prop52
140
1.0
102
RTVSPost2010PropOp52
 70
     0
102
RTVSPost2010Prop53
 90
        2
102
RTVSPost2010PropOp53
 70
     1
102
RTVSPost2010Prop54
  1
strokes_ogs.tif
102
RTVSPost2010PropOp54
 70
     1
102
RTVSPost2010Prop55
280
     0
102
RTVSPost2010PropOp55
 70
     1
102
RTVSPost2010Prop56
140
1.0
102
RTVSPost2010PropOp56
 70
     1
102
RTVSPost2010Prop57
140
1.0
102
RTVSPost2010PropOp57
 70
     1
102
RTVSPropertyOp0
 70
     1
102
RTVSPropertyOp1
 70
     1
102
RTVSPropertyOp2
 70
     1
102
RTVSPropertyOp3
 70
     1
102
RTVSPropertyOp4
 70
     1
102
RTVSPropertyOp5
 70
     1
102
RTVSPropertyOp6
 70
     1
102
RTVSPropertyOp7
 70
     1
102
RTVSPropertyOp8
 70
     1
102
RTVSPropertyOp9
 70
     1
102
RTVSPropertyOp10
 70
     1
102
RTVSPropertyOp11
 70
     1
102
RTVSPropertyOp12
 70
     1
102
RTVSPropertyOp13
 70
     1
102
RTVSPropertyOp14
 70
     1
102
RTVSPropertyOp15
 70
     1
102
RTVSPropertyOp16
 70
     1
102
RTVSPropertyOp17
 70
     1
102
RTVSPropertyOp18
 70
     1
102
RTVSPropertyOp19
 70
     1
102
RTVSPropertyOp20
 70
     1
102
RTVSPropertyOp21
 70
     1
102
RTVSPropertyOp22
 70
     1
102
RTVSPropertyOp23
 70
     1
102
RTVSPropertyOp24
 70
     1
102
RTVSPropertyOp25
 70
     1
102
RTVSPropertyOp26
 70
     1
102
RTVSPropertyOp27
 70
     1
102
RTVSPropertyOp28
 70
     1
102
RTVSPropertyOp29
 70
     1
102
RTVSPropertyOp30
 70
     1
102
RTVSPropertyOp31
 70
     1
102
RTVSPropertyOp32
 70
     1
102
RTVSPropertyOp33
 70
     1
102
RTVSPropertyOp34
 70
     1
102
RTVSPropertyOp35
 70
     1
102
RTVSPropertyOp36
 70
     1
102
RTVSPropertyOp37
 70
     1
102
RTVSPropertyOp38
 70
     1
102
RTVSPropertyOp39
 70
     1
102
RTVSPropertyOp40
 70
     1
102
RTVSPropertyOp41
 70
     1
102
RTVSPropertyOp42
 70
     1
102
RTVSPropertyOp43
 70
     1
102
RTVSPropertyOp44
 70
     1
102
RTVSPropertyOp45
 70
     1
102
RTVSPropertyOp46
 70
     1
102
RTVSPropertyOp47
 70
     1
102
RTVSPropertyOp48
 70
     1
102
RTVSPropertyOp49
 70
     1
102
RTVSPropertyOp50
 70
     1
102
RTVSPropertyOp51
 70
     0
102
RTVSPropertyOp52
 70
     0
102
RTVSPropertyOp53
 70
     1
102
RTVSPropertyOp54
 70
     1
102
RTVSPropertyOp55
 70
     1
102
RTVSPropertyOp56
 70
     1
102
RTVSPropertyOp57
 70
     1
102
RTVSPropertyOp58
 70
     1
102
RTVSPropertyOp59
 70
     1
102
RTVSPropertyOp60
 70
     1
102
RTVSPropertyOp61
 70
     1
102
RTVSPropertyOp62
 70
     1
  0
XRECORD
  5
2E0
102
{ACAD_REACTORS
330
2DF
102
}
330
2DF
100
AcDbXrecord
280
     1
102
RTVSPost2010Prop28
280
     0
102
RTVSPost2010PropOp28
 70
     1
102
RTVSPost2010Prop29
280
     1
102
RTVSPost2010PropOp29
 70
     1
102
RTVSPost2010Prop30
280
     1
102
RTVSPost2010PropOp30
 70
     1
102
RTVSPost2010Prop31
280
     0
102
RTVSPost2010PropOp31
 70
     1
102
RTVSPost2010Prop32
280
     0
102
RTVSPost2010PropOp32
 70
     1
102
RTVSPost2010Prop33
280
     0
102
RTVSPost2010PropOp33
 70
     1
102
RTVSPost2010Prop34
280
     0
102
RTVSPost2010PropOp34
 70
     1
102
RTVSPost2010Prop35
280
     0
102
RTVSPost2010PropOp35
 70
     1
102
RTVSPost2010Prop36
280
     0
102
RTVSPost2010PropOp36
 70
     1
102
RTVSPost2010Prop37
 90
       50
102
RTVSPost2010PropOp37
 70
     1
102
RTVSPost2010Prop38
140
0.0
102
RTVSPost2010PropOp38
 70
     1
102
RTVSPost2010Prop39
140
1.0
102
RTVSPost2010PropOp39
 70
     1
102
RTVSPost2010Prop40
 90
        0
102
RTVSPost2010PropOp40
 70
     1
102
RTVSPost2010Prop41ColorIndex
 90
       18
102
RTVSPost2010Prop41ColorRGB
 90
        0
102
RTVSPost2010PropOp41
 70
     1
102
RTVSPost2010Prop42
 90
       50
102
RTVSPost2010PropOp42
 70
     1
102
RTVSPost2010Prop43
 90
        3
102
RTVSPost2010PropOp43
 70
     1
102
RTVSPost2010Prop44ColorIndex
 90
        5
102
RTVSPost2010Prop44ColorRGB
 90
      255
102
RTVSPost2010PropOp44
 70
     1
102
RTVSPost2010Prop45
280
     0
102
RTVSPost2010PropOp45
 70
     1
102
RTVSPost2010Prop46
 90
       50
102
RTVSPost2010PropOp46
 70
     1
102
RTVSPost2010Prop47
 90
       50
102
RTVSPost2010PropOp47
 70
     1
102
RTVSPost2010Prop48
 90
       50
102
RTVSPost2010PropOp48
 70
     1
102
RTVSPost2010Prop49
280
     0
102
RTVSPost2010PropOp49
 70
     1
102
RTVSPost2010Prop50
 90
       50
102
RTVSPost2010PropOp50
 70
     1
102
RTVSPost2010Prop51ColorIndex
 90
      256
102
RTVSPost2010Prop51ColorRGB
 90
-16777216
102
RTVSPost2010PropOp51
 70
     0
102
RTVSPost2010Prop52
140
1.0
102
RTVSPost2010PropOp52
 70
     0
102
RTVSPost2010Prop53
 90
        2
102
RTVSPost2010PropOp53
 70
     1
102
RTVSPost2010Prop54
  1
strokes_ogs.tif
102
RTVSPost2010PropOp54
 70
     1
102
RTVSPost2010Prop55
280
     0
102
RTVSPost2010PropOp55
 70
     1
102
RTVSPost2010Prop56
140
1.0
102
RTVSPost2010PropOp56
 70
     1
102
RTVSPost2010Prop57
140
1.0
102
RTVSPost2010PropOp57
 70
     1
102
RTVSPropertyOp0
 70
     1
102
RTVSPropertyOp1
 70
     1
102
RTVSPropertyOp2
 70
     1
102
RTVSPropertyOp3
 70
     1
102
RTVSPropertyOp4
 70
     1
102
RTVSPropertyOp5
 70
     1
102
RTVSPropertyOp6
 70
     1
102
RTVSPropertyOp7
 70
     1
102
RTVSPropertyOp8
 70
     1
102
RTVSPropertyOp9
 70
     1
102
RTVSPropertyOp10
 70
     1
102
RTVSPropertyOp11
 70
     1
102
RTVSPropertyOp12
 70
     1
102
RTVSPropertyOp13
 70
     1
102
RTVSPropertyOp14
 70
     1
102
RTVSPropertyOp15
 70
     1
102
RTVSPropertyOp16
 70
     1
102
RTVSPropertyOp17
 70
     1
102
RTVSPropertyOp18
 70
     1
102
RTVSPropertyOp19
 70
     1
102
RTVSPropertyOp20
 70
     1
102
RTVSPropertyOp21
 70
     1
102
RTVSPropertyOp22
 70
     1
102
RTVSPropertyOp23
 70
     1
102
RTVSPropertyOp24
 70
     1
102
RTVSPropertyOp25
 70
     1
102
RTVSPropertyOp26
 70
     1
102
RTVSPropertyOp27
 70
     1
102
RTVSPropertyOp28
 70
     1
102
RTVSPropertyOp29
 70
     1
102
RTVSPropertyOp30
 70
     1
102
RTVSPropertyOp31
 70
     1
102
RTVSPropertyOp32
 70
     1
102
RTVSPropertyOp33
 70
     1
102
RTVSPropertyOp34
 70
     1
102
RTVSPropertyOp35
 70
     1
102
RTVSPropertyOp36
 70
     1
102
RTVSPropertyOp37
 70
     1
102
RTVSPropertyOp38
 70
     1
102
RTVSPropertyOp39
 70
     1
102
RTVSPropertyOp40
 70
     1
102
RTVSPropertyOp41
 70
     1
102
RTVSPropertyOp42
 70
     1
102
RTVSPropertyOp43
 70
     1
102
RTVSPropertyOp44
 70
     1
102
RTVSPropertyOp45
 70
     1
102
RTVSPropertyOp46
 70
     1
102
RTVSPropertyOp47
 70
     1
102
RTVSPropertyOp48
 70
     1
102
RTVSPropertyOp49
 70
     1
102
RTVSPropertyOp50
 70
     1
102
RTVSPropertyOp51
 70
     0
102
RTVSPropertyOp52
 70
     0
102
RTVSPropertyOp53
 70
     1
102
RTVSPropertyOp54
 70
     1
102
RTVSPropertyOp55
 70
     1
102
RTVSPropertyOp56
 70
     1
102
RTVSPropertyOp57
 70
     1
102
RTVSPropertyOp58
 70
     1
102
RTVSPropertyOp59
 70
     1
102
RTVSPropertyOp60
 70
     1
102
RTVSPropertyOp61
 70
     1
102
RTVSPropertyOp62
 70
     1
  0
XRECORD
  5
2E8
102
{ACAD_REACTORS
330
2E7
102
}
330
2E7
100
AcDbXrecord
280
     1
102
RTVSPost2010Prop28
280
     0
102
RTVSPost2010PropOp28
 70
     1
102
RTVSPost2010Prop29
280
     1
102
RTVSPost2010PropOp29
 70
     1
102
RTVSPost2010Prop30
280
     1
102
RTVSPost2010PropOp30
 70
     1
102
RTVSPost2010Prop31
280
     0
102
RTVSPost2010PropOp31
 70
     1
102
RTVSPost2010Prop32
280
     0
102
RTVSPost2010PropOp32
 70
     1
102
RTVSPost2010Prop33
280
     0
102
RTVSPost2010PropOp33
 70
     1
102
RTVSPost2010Prop34
280
     0
102
RTVSPost2010PropOp34
 70
     1
102
RTVSPost2010Prop35
280
     0
102
RTVSPost2010PropOp35
 70
     1
102
RTVSPost2010Prop36
280
     0
102
RTVSPost2010PropOp36
 70
     1
102
RTVSPost2010Prop37
 90
       50
102
RTVSPost2010PropOp37
 70
     1
102
RTVSPost2010Prop38
140
0.0
102
RTVSPost2010PropOp38
 70
     1
102
RTVSPost2010Prop39
140
1.0
102
RTVSPost2010PropOp39
 70
     1
102
RTVSPost2010Prop40
 90
        0
102
RTVSPost2010PropOp40
 70
     1
102
RTVSPost2010Prop41ColorIndex
 90
       18
102
RTVSPost2010Prop41ColorRGB
 90
        0
102
RTVSPost2010PropOp41
 70
     1
102
RTVSPost2010Prop42
 90
       50
102
RTVSPost2010PropOp42
 70
     1
102
RTVSPost2010Prop43
 90
        3
102
RTVSPost2010PropOp43
 70
     1
102
RTVSPost2010Prop44ColorIndex
 90
        5
102
RTVSPost2010Prop44ColorRGB
 90
      255
102
RTVSPost2010PropOp44
 70
     1
102
RTVSPost2010Prop45
280
     0
102
RTVSPost2010PropOp45
 70
     1
102
RTVSPost2010Prop46
 90
       50
102
RTVSPost2010PropOp46
 70
     1
102
RTVSPost2010Prop47
 90
       50
102
RTVSPost2010PropOp47
 70
     1
102
RTVSPost2010Prop48
 90
       50
102
RTVSPost2010PropOp48
 70
     1
102
RTVSPost2010Prop49
280
     0
102
RTVSPost2010PropOp49
 70
     1
102
RTVSPost2010Prop50
 90
       50
102
RTVSPost2010PropOp50
 70
     1
102
RTVSPost2010Prop51ColorIndex
 90
      256
102
RTVSPost2010Prop51ColorRGB
 90
-16777216
102
RTVSPost2010PropOp51
 70
     0
102
RTVSPost2010Prop52
140
1.0
102
RTVSPost2010PropOp52
 70
     0
102
RTVSPost2010Prop53
 90
        2
102
RTVSPost2010PropOp53
 70
     1
102
RTVSPost2010Prop54
  1
strokes_ogs.tif
102
RTVSPost2010PropOp54
 70
     1
102
RTVSPost2010Prop55
280
     0
102
RTVSPost2010PropOp55
 70
     1
102
RTVSPost2010Prop56
140
1.0
102
RTVSPost2010PropOp56
 70
     1
102
RTVSPost2010Prop57
140
1.0
102
RTVSPost2010PropOp57
 70
     1
102
RTVSPropertyOp0
 70
     1
102
RTVSPropertyOp1
 70
     1
102
RTVSPropertyOp2
 70
     1
102
RTVSPropertyOp3
 70
     1
102
RTVSPropertyOp4
 70
     1
102
RTVSPropertyOp5
 70
     1
102
RTVSPropertyOp6
 70
     1
102
RTVSPropertyOp7
 70
     1
102
RTVSPropertyOp8
 70
     1
102
RTVSPropertyOp9
 70
     1
102
RTVSPropertyOp10
 70
     1
102
RTVSPropertyOp11
 70
     1
102
RTVSPropertyOp12
 70
     1
102
RTVSPropertyOp13
 70
     1
102
RTVSPropertyOp14
 70
     1
102
RTVSPropertyOp15
 70
     1
102
RTVSPropertyOp16
 70
     1
102
RTVSPropertyOp17
 70
     1
102
RTVSPropertyOp18
 70
     1
102
RTVSPropertyOp19
 70
     1
102
RTVSPropertyOp20
 70
     1
102
RTVSPropertyOp21
 70
     1
102
RTVSPropertyOp22
 70
     1
102
RTVSPropertyOp23
 70
     1
102
RTVSPropertyOp24
 70
     1
102
RTVSPropertyOp25
 70
     1
102
RTVSPropertyOp26
 70
     1
102
RTVSPropertyOp27
 70
     1
102
RTVSPropertyOp28
 70
     1
102
RTVSPropertyOp29
 70
     1
102
RTVSPropertyOp30
 70
     1
102
RTVSPropertyOp31
 70
     1
102
RTVSPropertyOp32
 70
     1
102
RTVSPropertyOp33
 70
     1
102
RTVSPropertyOp34
 70
     1
102
RTVSPropertyOp35
 70
     1
102
RTVSPropertyOp36
 70
     1
102
RTVSPropertyOp37
 70
     1
102
RTVSPropertyOp38
 70
     1
102
RTVSPropertyOp39
 70
     1
102
RTVSPropertyOp40
 70
     1
102
RTVSPropertyOp41
 70
     1
102
RTVSPropertyOp42
 70
     1
102
RTVSPropertyOp43
 70
     1
102
RTVSPropertyOp44
 70
     1
102
RTVSPropertyOp45
 70
     1
102
RTVSPropertyOp46
 70
     1
102
RTVSPropertyOp47
 70
     1
102
RTVSPropertyOp48
 70
     1
102
RTVSPropertyOp49
 70
     1
102
RTVSPropertyOp50
 70
     1
102
RTVSPropertyOp51
 70
     0
102
RTVSPropertyOp52
 70
     0
102
RTVSPropertyOp53
 70
     1
102
RTVSPropertyOp54
 70
     1
102
RTVSPropertyOp55
 70
     1
102
RTVSPropertyOp56
 70
     1
102
RTVSPropertyOp57
 70
     1
102
RTVSPropertyOp58
 70
     1
102
RTVSPropertyOp59
 70
     1
102
RTVSPropertyOp60
 70
     1
102
RTVSPropertyOp61
 70
     1
102
RTVSPropertyOp62
 70
     1
  0
XRECORD
  5
304
102
{ACAD_REACTORS
330
303
102
}
330
303
100
AcDbXrecord
280
     1
102
RTVSPost2010Prop28
280
     0
102
RTVSPost2010PropOp28
 70
     0
102
RTVSPost2010Prop29
280
     1
102
RTVSPost2010PropOp29
 70
     0
102
RTVSPost2010Prop30
280
     1
102
RTVSPost2010PropOp30
 70
     0
102
RTVSPost2010Prop31
280
     0
102
RTVSPost2010PropOp31
 70
     0
102
RTVSPost2010Prop32
280
     0
102
RTVSPost2010PropOp32
 70
     0
102
RTVSPost2010Prop33
280
     0
102
RTVSPost2010PropOp33
 70
     0
102
RTVSPost2010Prop34
280
     0
102
RTVSPost2010PropOp34
 70
     0
102
RTVSPost2010Prop35
280
     0
102
RTVSPost2010PropOp35
 70
     0
102
RTVSPost2010Prop36
280
     0
102
RTVSPost2010PropOp36
 70
     0
102
RTVSPost2010Prop37
 90
       50
102
RTVSPost2010PropOp37
 70
     0
102
RTVSPost2010Prop38
140
0.0
102
RTVSPost2010PropOp38
 70
     0
102
RTVSPost2010Prop39
140
1.0
102
RTVSPost2010PropOp39
 70
     0
102
RTVSPost2010Prop40
 90
        0
102
RTVSPost2010PropOp40
 70
     0
102
RTVSPost2010Prop41ColorIndex
 90
       18
102
RTVSPost2010Prop41ColorRGB
 90
        0
102
RTVSPost2010PropOp41
 70
     0
102
RTVSPost2010Prop42
 90
       50
102
RTVSPost2010PropOp42
 70
     0
102
RTVSPost2010Prop43
 90
        3
102
RTVSPost2010PropOp43
 70
     0
102
RTVSPost2010Prop44ColorIndex
 90
        5
102
RTVSPost2010Prop44ColorRGB
 90
      255
102
RTVSPost2010PropOp44
 70
     0
102
RTVSPost2010Prop45
280
     0
102
RTVSPost2010PropOp45
 70
     0
102
RTVSPost2010Prop46
 90
       50
102
RTVSPost2010PropOp46
 70
     0
102
RTVSPost2010Prop47
 90
       50
102
RTVSPost2010PropOp47
 70
     0
102
RTVSPost2010Prop48
 90
       50
102
RTVSPost2010PropOp48
 70
     0
102
RTVSPost2010Prop49
280
     0
102
RTVSPost2010PropOp49
 70
     0
102
RTVSPost2010Prop50
 90
       50
102
RTVSPost2010PropOp50
 70
     0
102
RTVSPost2010Prop51ColorIndex
 90
      256
102
RTVSPost2010Prop51ColorRGB
 90
-16777216
102
RTVSPost2010PropOp51
 70
     0
102
RTVSPost2010Prop52
140
1.0
102
RTVSPost2010PropOp52
 70
     0
102
RTVSPost2010Prop53
 90
        2
102
RTVSPost2010PropOp53
 70
     0
102
RTVSPost2010Prop54
  1
strokes_ogs.tif
102
RTVSPost2010PropOp54
 70
     0
102
RTVSPost2010Prop55
280
     0
102
RTVSPost2010PropOp55
 70
     0
102
RTVSPost2010Prop56
140
1.0
102
RTVSPost2010PropOp56
 70
     0
102
RTVSPost2010Prop57
140
1.0
102
RTVSPost2010PropOp57
 70
     0
102
RTVSPropertyOp0
 70
     0
102
RTVSPropertyOp1
 70
     0
102
RTVSPropertyOp2
 70
     0
102
RTVSPropertyOp3
 70
     0
102
RTVSPropertyOp4
 70
     0
102
RTVSPropertyOp5
 70
     0
102
RTVSPropertyOp6
 70
     0
102
RTVSPropertyOp7
 70
     0
102
RTVSPropertyOp8
 70
     0
102
RTVSPropertyOp9
 70
     0
102
RTVSPropertyOp10
 70
     0
102
RTVSPropertyOp11
 70
     0
102
RTVSPropertyOp12
 70
     0
102
RTVSPropertyOp13
 70
     0
102
RTVSPropertyOp14
 70
     2
102
RTVSPropertyOp15
 70
     0
102
RTVSPropertyOp16
 70
     0
102
RTVSPropertyOp17
 70
     0
102
RTVSPropertyOp18
 70
     0
102
RTVSPropertyOp19
 70
     0
102
RTVSPropertyOp20
 70
     0
102
RTVSPropertyOp21
 70
     0
102
RTVSPropertyOp22
 70
     0
102
RTVSPropertyOp23
 70
     0
102
RTVSPropertyOp24
 70
     0
102
RTVSPropertyOp25
 70
     0
102
RTVSPropertyOp26
 70
     0
102
RTVSPropertyOp27
 70
     0
102
RTVSPropertyOp28
 70
     0
102
RTVSPropertyOp29
 70
     0
102
RTVSPropertyOp30
 70
     0
102
RTVSPropertyOp31
 70
     0
102
RTVSPropertyOp32
 70
     0
102
RTVSPropertyOp33
 70
     0
102
RTVSPropertyOp34
 70
     0
102
RTVSPropertyOp35
 70
     0
102
RTVSPropertyOp36
 70
     0
102
RTVSPropertyOp37
 70
     0
102
RTVSPropertyOp38
 70
     0
102
RTVSPropertyOp39
 70
     0
102
RTVSPropertyOp40
 70
     0
102
RTVSPropertyOp41
 70
     0
102
RTVSPropertyOp42
 70
     0
102
RTVSPropertyOp43
 70
     0
102
RTVSPropertyOp44
 70
     0
102
RTVSPropertyOp45
 70
     0
102
RTVSPropertyOp46
 70
     0
102
RTVSPropertyOp47
 70
     0
102
RTVSPropertyOp48
 70
     0
102
RTVSPropertyOp49
 70
     0
102
RTVSPropertyOp50
 70
     0
102
RTVSPropertyOp51
 70
     0
102
RTVSPropertyOp52
 70
     0
102
RTVSPropertyOp53
 70
     0
102
RTVSPropertyOp54
 70
     0
102
RTVSPropertyOp55
 70
     0
102
RTVSPropertyOp56
 70
     0
102
RTVSPropertyOp57
 70
     0
102
RTVSPropertyOp58
 70
     0
102
RTVSPropertyOp59
 70
     0
102
RTVSPropertyOp60
 70
     0
102
RTVSPropertyOp61
 70
     0
102
RTVSPropertyOp62
 70
     0
  0
XRECORD
  5
2F4
102
{ACAD_REACTORS
330
2F3
102
}
330
2F3
100
AcDbXrecord
280
     1
102
RTVSPost2010Prop28
280
     0
102
RTVSPost2010PropOp28
 70
     1
102
RTVSPost2010Prop29
280
     1
102
RTVSPost2010PropOp29
 70
     1
102
RTVSPost2010Prop30
280
     1
102
RTVSPost2010PropOp30
 70
     1
102
RTVSPost2010Prop31
280
     0
102
RTVSPost2010PropOp31
 70
     1
102
RTVSPost2010Prop32
280
     0
102
RTVSPost2010PropOp32
 70
     1
102
RTVSPost2010Prop33
280
     0
102
RTVSPost2010PropOp33
 70
     1
102
RTVSPost2010Prop34
280
     0
102
RTVSPost2010PropOp34
 70
     1
102
RTVSPost2010Prop35
280
     0
102
RTVSPost2010PropOp35
 70
     1
102
RTVSPost2010Prop36
280
     0
102
RTVSPost2010PropOp36
 70
     1
102
RTVSPost2010Prop37
 90
       50
102
RTVSPost2010PropOp37
 70
     1
102
RTVSPost2010Prop38
140
0.0
102
RTVSPost2010PropOp38
 70
     1
102
RTVSPost2010Prop39
140
1.0
102
RTVSPost2010PropOp39
 70
     1
102
RTVSPost2010Prop40
 90
        0
102
RTVSPost2010PropOp40
 70
     1
102
RTVSPost2010Prop41ColorIndex
 90
       18
102
RTVSPost2010Prop41ColorRGB
 90
        0
102
RTVSPost2010PropOp41
 70
     1
102
RTVSPost2010Prop42
 90
       50
102
RTVSPost2010PropOp42
 70
     1
102
RTVSPost2010Prop43
 90
        3
102
RTVSPost2010PropOp43
 70
     1
102
RTVSPost2010Prop44ColorIndex
 90
        5
102
RTVSPost2010Prop44ColorRGB
 90
      255
102
RTVSPost2010PropOp44
 70
     1
102
RTVSPost2010Prop45
280
     0
102
RTVSPost2010PropOp45
 70
     1
102
RTVSPost2010Prop46
 90
       50
102
RTVSPost2010PropOp46
 70
     1
102
RTVSPost2010Prop47
 90
       50
102
RTVSPost2010PropOp47
 70
     1
102
RTVSPost2010Prop48
 90
       50
102
RTVSPost2010PropOp48
 70
     1
102
RTVSPost2010Prop49
280
     0
102
RTVSPost2010PropOp49
 70
     1
102
RTVSPost2010Prop50
 90
       50
102
RTVSPost2010PropOp50
 70
     1
102
RTVSPost2010Prop51ColorIndex
 90
      256
102
RTVSPost2010Prop51ColorRGB
 90
-16777216
102
RTVSPost2010PropOp51
 70
     0
102
RTVSPost2010Prop52
140
1.0
102
RTVSPost2010PropOp52
 70
     0
102
RTVSPost2010Prop53
 90
        2
102
RTVSPost2010PropOp53
 70
     1
102
RTVSPost2010Prop54
  1
strokes_ogs.tif
102
RTVSPost2010PropOp54
 70
     1
102
RTVSPost2010Prop55
280
     0
102
RTVSPost2010PropOp55
 70
     1
102
RTVSPost2010Prop56
140
1.0
102
RTVSPost2010PropOp56
 70
     1
102
RTVSPost2010Prop57
140
1.0
102
RTVSPost2010PropOp57
 70
     1
102
RTVSPropertyOp0
 70
     1
102
RTVSPropertyOp1
 70
     1
102
RTVSPropertyOp2
 70
     1
102
RTVSPropertyOp3
 70
     1
102
RTVSPropertyOp4
 70
     1
102
RTVSPropertyOp5
 70
     1
102
RTVSPropertyOp6
 70
     1
102
RTVSPropertyOp7
 70
     1
102
RTVSPropertyOp8
 70
     1
102
RTVSPropertyOp9
 70
     1
102
RTVSPropertyOp10
 70
     1
102
RTVSPropertyOp11
 70
     1
102
RTVSPropertyOp12
 70
     1
102
RTVSPropertyOp13
 70
     1
102
RTVSPropertyOp14
 70
     1
102
RTVSPropertyOp15
 70
     1
102
RTVSPropertyOp16
 70
     1
102
RTVSPropertyOp17
 70
     1
102
RTVSPropertyOp18
 70
     1
102
RTVSPropertyOp19
 70
     1
102
RTVSPropertyOp20
 70
     1
102
RTVSPropertyOp21
 70
     1
102
RTVSPropertyOp22
 70
     1
102
RTVSPropertyOp23
 70
     1
102
RTVSPropertyOp24
 70
     1
102
RTVSPropertyOp25
 70
     1
102
RTVSPropertyOp26
 70
     1
102
RTVSPropertyOp27
 70
     1
102
RTVSPropertyOp28
 70
     1
102
RTVSPropertyOp29
 70
     1
102
RTVSPropertyOp30
 70
     1
102
RTVSPropertyOp31
 70
     1
102
RTVSPropertyOp32
 70
     1
102
RTVSPropertyOp33
 70
     1
102
RTVSPropertyOp34
 70
     1
102
RTVSPropertyOp35
 70
     1
102
RTVSPropertyOp36
 70
     1
102
RTVSPropertyOp37
 70
     1
102
RTVSPropertyOp38
 70
     1
102
RTVSPropertyOp39
 70
     1
102
RTVSPropertyOp40
 70
     1
102
RTVSPropertyOp41
 70
     1
102
RTVSPropertyOp42
 70
     1
102
RTVSPropertyOp43
 70
     1
102
RTVSPropertyOp44
 70
     1
102
RTVSPropertyOp45
 70
     1
102
RTVSPropertyOp46
 70
     1
102
RTVSPropertyOp47
 70
     1
102
RTVSPropertyOp48
 70
     1
102
RTVSPropertyOp49
 70
     1
102
RTVSPropertyOp50
 70
     1
102
RTVSPropertyOp51
 70
     0
102
RTVSPropertyOp52
 70
     0
102
RTVSPropertyOp53
 70
     1
102
RTVSPropertyOp54
 70
     1
102
RTVSPropertyOp55
 70
     1
102
RTVSPropertyOp56
 70
     1
102
RTVSPropertyOp57
 70
     1
102
RTVSPropertyOp58
 70
     1
102
RTVSPropertyOp59
 70
     1
102
RTVSPropertyOp60
 70
     1
102
RTVSPropertyOp61
 70
     1
102
RTVSPropertyOp62
 70
     1
  0
XRECORD
  5
306
102
{ACAD_REACTORS
330
305
102
}
330
305
100
AcDbXrecord
280
     1
102
RTVSPost2010Prop28
280
     0
102
RTVSPost2010PropOp28
 70
     0
102
RTVSPost2010Prop29
280
     1
102
RTVSPost2010PropOp29
 70
     0
102
RTVSPost2010Prop30
280
     1
102
RTVSPost2010PropOp30
 70
     0
102
RTVSPost2010Prop31
280
     0
102
RTVSPost2010PropOp31
 70
     0
102
RTVSPost2010Prop32
280
     0
102
RTVSPost2010PropOp32
 70
     0
102
RTVSPost2010Prop33
280
     0
102
RTVSPost2010PropOp33
 70
     0
102
RTVSPost2010Prop34
280
     0
102
RTVSPost2010PropOp34
 70
     0
102
RTVSPost2010Prop35
280
     0
102
RTVSPost2010PropOp35
 70
     0
102
RTVSPost2010Prop36
280
     0
102
RTVSPost2010PropOp36
 70
     0
102
RTVSPost2010Prop37
 90
       50
102
RTVSPost2010PropOp37
 70
     0
102
RTVSPost2010Prop38
140
0.0
102
RTVSPost2010PropOp38
 70
     0
102
RTVSPost2010Prop39
140
1.0
102
RTVSPost2010PropOp39
 70
     0
102
RTVSPost2010Prop40
 90
        0
102
RTVSPost2010PropOp40
 70
     0
102
RTVSPost2010Prop41ColorIndex
 90
       18
102
RTVSPost2010Prop41ColorRGB
 90
        0
102
RTVSPost2010PropOp41
 70
     0
102
RTVSPost2010Prop42
 90
       50
102
RTVSPost2010PropOp42
 70
     0
102
RTVSPost2010Prop43
 90
        3
102
RTVSPost2010PropOp43
 70
     0
102
RTVSPost2010Prop44ColorIndex
 90
        5
102
RTVSPost2010Prop44ColorRGB
 90
      255
102
RTVSPost2010PropOp44
 70
     0
102
RTVSPost2010Prop45
280
     0
102
RTVSPost2010PropOp45
 70
     0
102
RTVSPost2010Prop46
 90
       50
102
RTVSPost2010PropOp46
 70
     0
102
RTVSPost2010Prop47
 90
       50
102
RTVSPost2010PropOp47
 70
     0
102
RTVSPost2010Prop48
 90
       50
102
RTVSPost2010PropOp48
 70
     0
102
RTVSPost2010Prop49
280
     0
102
RTVSPost2010PropOp49
 70
     0
102
RTVSPost2010Prop50
 90
       50
102
RTVSPost2010PropOp50
 70
     0
102
RTVSPost2010Prop51ColorIndex
 90
      256
102
RTVSPost2010Prop51ColorRGB
 90
-16777216
102
RTVSPost2010PropOp51
 70
     0
102
RTVSPost2010Prop52
140
1.0
102
RTVSPost2010PropOp52
 70
     0
102
RTVSPost2010Prop53
 90
        2
102
RTVSPost2010PropOp53
 70
     0
102
RTVSPost2010Prop54
  1
strokes_ogs.tif
102
RTVSPost2010PropOp54
 70
     0
102
RTVSPost2010Prop55
280
     0
102
RTVSPost2010PropOp55
 70
     0
102
RTVSPost2010Prop56
140
1.0
102
RTVSPost2010PropOp56
 70
     0
102
RTVSPost2010Prop57
140
1.0
102
RTVSPost2010PropOp57
 70
     0
102
RTVSPropertyOp0
 70
     0
102
RTVSPropertyOp1
 70
     0
102
RTVSPropertyOp2
 70
     0
102
RTVSPropertyOp3
 70
     0
102
RTVSPropertyOp4
 70
     0
102
RTVSPropertyOp5
 70
     0
102
RTVSPropertyOp6
 70
     0
102
RTVSPropertyOp7
 70
     0
102
RTVSPropertyOp8
 70
     0
102
RTVSPropertyOp9
 70
     0
102
RTVSPropertyOp10
 70
     0
102
RTVSPropertyOp11
 70
     0
102
RTVSPropertyOp12
 70
     0
102
RTVSPropertyOp13
 70
     0
102
RTVSPropertyOp14
 70
     2
102
RTVSPropertyOp15
 70
     0
102
RTVSPropertyOp16
 70
     0
102
RTVSPropertyOp17
 70
     0
102
RTVSPropertyOp18
 70
     0
102
RTVSPropertyOp19
 70
     0
102
RTVSPropertyOp20
 70
     0
102
RTVSPropertyOp21
 70
     0
102
RTVSPropertyOp22
 70
     0
102
RTVSPropertyOp23
 70
     0
102
RTVSPropertyOp24
 70
     0
102
RTVSPropertyOp25
 70
     0
102
RTVSPropertyOp26
 70
     0
102
RTVSPropertyOp27
 70
     0
102
RTVSPropertyOp28
 70
     0
102
RTVSPropertyOp29
 70
     0
102
RTVSPropertyOp30
 70
     0
102
RTVSPropertyOp31
 70
     0
102
RTVSPropertyOp32
 70
     0
102
RTVSPropertyOp33
 70
     0
102
RTVSPropertyOp34
 70
     0
102
RTVSPropertyOp35
 70
     0
102
RTVSPropertyOp36
 70
     0
102
RTVSPropertyOp37
 70
     0
102
RTVSPropertyOp38
 70
     0
102
RTVSPropertyOp39
 70
     0
102
RTVSPropertyOp40
 70
     0
102
RTVSPropertyOp41
 70
     0
102
RTVSPropertyOp42
 70
     0
102
RTVSPropertyOp43
 70
     0
102
RTVSPropertyOp44
 70
     0
102
RTVSPropertyOp45
 70
     0
102
RTVSPropertyOp46
 70
     0
102
RTVSPropertyOp47
 70
     0
102
RTVSPropertyOp48
 70
     0
102
RTVSPropertyOp49
 70
     0
102
RTVSPropertyOp50
 70
     0
102
RTVSPropertyOp51
 70
     0
102
RTVSPropertyOp52
 70
     0
102
RTVSPropertyOp53
 70
     0
102
RTVSPropertyOp54
 70
     0
102
RTVSPropertyOp55
 70
     0
102
RTVSPropertyOp56
 70
     0
102
RTVSPropertyOp57
 70
     0
102
RTVSPropertyOp58
 70
     0
102
RTVSPropertyOp59
 70
     0
102
RTVSPropertyOp60
 70
     0
102
RTVSPropertyOp61
 70
     0
102
RTVSPropertyOp62
 70
     0
  0
XRECORD
  5
2EC
102
{ACAD_REACTORS
330
2EB
102
}
330
2EB
100
AcDbXrecord
280
     1
102
RTVSPost2010Prop28
280
     0
102
RTVSPost2010PropOp28
 70
     1
102
RTVSPost2010Prop29
280
     1
102
RTVSPost2010PropOp29
 70
     1
102
RTVSPost2010Prop30
280
     1
102
RTVSPost2010PropOp30
 70
     1
102
RTVSPost2010Prop31
280
     0
102
RTVSPost2010PropOp31
 70
     1
102
RTVSPost2010Prop32
280
     0
102
RTVSPost2010PropOp32
 70
     1
102
RTVSPost2010Prop33
280
     0
102
RTVSPost2010PropOp33
 70
     1
102
RTVSPost2010Prop34
280
     0
102
RTVSPost2010PropOp34
 70
     1
102
RTVSPost2010Prop35
280
     0
102
RTVSPost2010PropOp35
 70
     1
102
RTVSPost2010Prop36
280
     0
102
RTVSPost2010PropOp36
 70
     1
102
RTVSPost2010Prop37
 90
       50
102
RTVSPost2010PropOp37
 70
     1
102
RTVSPost2010Prop38
140
0.0
102
RTVSPost2010PropOp38
 70
     1
102
RTVSPost2010Prop39
140
1.0
102
RTVSPost2010PropOp39
 70
     1
102
RTVSPost2010Prop40
 90
        0
102
RTVSPost2010PropOp40
 70
     1
102
RTVSPost2010Prop41ColorIndex
 90
       18
102
RTVSPost2010Prop41ColorRGB
 90
        0
102
RTVSPost2010PropOp41
 70
     1
102
RTVSPost2010Prop42
 90
       50
102
RTVSPost2010PropOp42
 70
     1
102
RTVSPost2010Prop43
 90
        3
102
RTVSPost2010PropOp43
 70
     1
102
RTVSPost2010Prop44ColorIndex
 90
        5
102
RTVSPost2010Prop44ColorRGB
 90
      255
102
RTVSPost2010PropOp44
 70
     1
102
RTVSPost2010Prop45
280
     0
102
RTVSPost2010PropOp45
 70
     1
102
RTVSPost2010Prop46
 90
       50
102
RTVSPost2010PropOp46
 70
     1
102
RTVSPost2010Prop47
 90
       50
102
RTVSPost2010PropOp47
 70
     1
102
RTVSPost2010Prop48
 90
       50
102
RTVSPost2010PropOp48
 70
     1
102
RTVSPost2010Prop49
280
     0
102
RTVSPost2010PropOp49
 70
     1
102
RTVSPost2010Prop50
 90
       50
102
RTVSPost2010PropOp50
 70
     1
102
RTVSPost2010Prop51ColorIndex
 90
      256
102
RTVSPost2010Prop51ColorRGB
 90
-16777216
102
RTVSPost2010PropOp51
 70
     0
102
RTVSPost2010Prop52
140
1.0
102
RTVSPost2010PropOp52
 70
     0
102
RTVSPost2010Prop53
 90
        2
102
RTVSPost2010PropOp53
 70
     1
102
RTVSPost2010Prop54
  1
strokes_ogs.tif
102
RTVSPost2010PropOp54
 70
     1
102
RTVSPost2010Prop55
280
     0
102
RTVSPost2010PropOp55
 70
     1
102
RTVSPost2010Prop56
140
1.0
102
RTVSPost2010PropOp56
 70
     1
102
RTVSPost2010Prop57
140
1.0
102
RTVSPost2010PropOp57
 70
     1
102
RTVSPropertyOp0
 70
     1
102
RTVSPropertyOp1
 70
     1
102
RTVSPropertyOp2
 70
     1
102
RTVSPropertyOp3
 70
     1
102
RTVSPropertyOp4
 70
     1
102
RTVSPropertyOp5
 70
     1
102
RTVSPropertyOp6
 70
     1
102
RTVSPropertyOp7
 70
     1
102
RTVSPropertyOp8
 70
     1
102
RTVSPropertyOp9
 70
     1
102
RTVSPropertyOp10
 70
     1
102
RTVSPropertyOp11
 70
     1
102
RTVSPropertyOp12
 70
     1
102
RTVSPropertyOp13
 70
     1
102
RTVSPropertyOp14
 70
     1
102
RTVSPropertyOp15
 70
     1
102
RTVSPropertyOp16
 70
     1
102
RTVSPropertyOp17
 70
     1
102
RTVSPropertyOp18
 70
     1
102
RTVSPropertyOp19
 70
     1
102
RTVSPropertyOp20
 70
     1
102
RTVSPropertyOp21
 70
     1
102
RTVSPropertyOp22
 70
     1
102
RTVSPropertyOp23
 70
     1
102
RTVSPropertyOp24
 70
     1
102
RTVSPropertyOp25
 70
     1
102
RTVSPropertyOp26
 70
     1
102
RTVSPropertyOp27
 70
     1
102
RTVSPropertyOp28
 70
     1
102
RTVSPropertyOp29
 70
     1
102
RTVSPropertyOp30
 70
     1
102
RTVSPropertyOp31
 70
     1
102
RTVSPropertyOp32
 70
     1
102
RTVSPropertyOp33
 70
     1
102
RTVSPropertyOp34
 70
     1
102
RTVSPropertyOp35
 70
     1
102
RTVSPropertyOp36
 70
     1
102
RTVSPropertyOp37
 70
     1
102
RTVSPropertyOp38
 70
     1
102
RTVSPropertyOp39
 70
     1
102
RTVSPropertyOp40
 70
     1
102
RTVSPropertyOp41
 70
     1
102
RTVSPropertyOp42
 70
     1
102
RTVSPropertyOp43
 70
     1
102
RTVSPropertyOp44
 70
     1
102
RTVSPropertyOp45
 70
     1
102
RTVSPropertyOp46
 70
     1
102
RTVSPropertyOp47
 70
     1
102
RTVSPropertyOp48
 70
     1
102
RTVSPropertyOp49
 70
     1
102
RTVSPropertyOp50
 70
     1
102
RTVSPropertyOp51
 70
     0
102
RTVSPropertyOp52
 70
     0
102
RTVSPropertyOp53
 70
     1
102
RTVSPropertyOp54
 70
     1
102
RTVSPropertyOp55
 70
     1
102
RTVSPropertyOp56
 70
     1
102
RTVSPropertyOp57
 70
     1
102
RTVSPropertyOp58
 70
     1
102
RTVSPropertyOp59
 70
     1
102
RTVSPropertyOp60
 70
     1
102
RTVSPropertyOp61
 70
     1
102
RTVSPropertyOp62
 70
     1
  0
XRECORD
  5
302
102
{ACAD_REACTORS
330
301
102
}
330
301
100
AcDbXrecord
280
     1
102
RTVSPost2010Prop28
280
     0
102
RTVSPost2010PropOp28
 70
     1
102
RTVSPost2010Prop29
280
     1
102
RTVSPost2010PropOp29
 70
     1
102
RTVSPost2010Prop30
280
     1
102
RTVSPost2010PropOp30
 70
     1
102
RTVSPost2010Prop31
280
     0
102
RTVSPost2010PropOp31
 70
     1
102
RTVSPost2010Prop32
280
     0
102
RTVSPost2010PropOp32
 70
     1
102
RTVSPost2010Prop33
280
     0
102
RTVSPost2010PropOp33
 70
     1
102
RTVSPost2010Prop34
280
     0
102
RTVSPost2010PropOp34
 70
     1
102
RTVSPost2010Prop35
280
     0
102
RTVSPost2010PropOp35
 70
     1
102
RTVSPost2010Prop36
280
     0
102
RTVSPost2010PropOp36
 70
     1
102
RTVSPost2010Prop37
 90
       50
102
RTVSPost2010PropOp37
 70
     1
102
RTVSPost2010Prop38
140
0.0
102
RTVSPost2010PropOp38
 70
     1
102
RTVSPost2010Prop39
140
1.0
102
RTVSPost2010PropOp39
 70
     1
102
RTVSPost2010Prop40
 90
        0
102
RTVSPost2010PropOp40
 70
     1
102
RTVSPost2010Prop41ColorIndex
 90
       18
102
RTVSPost2010Prop41ColorRGB
 90
        0
102
RTVSPost2010PropOp41
 70
     1
102
RTVSPost2010Prop42
 90
       50
102
RTVSPost2010PropOp42
 70
     1
102
RTVSPost2010Prop43
 90
        3
102
RTVSPost2010PropOp43
 70
     1
102
RTVSPost2010Prop44ColorIndex
 90
        5
102
RTVSPost2010Prop44ColorRGB
 90
      255
102
RTVSPost2010PropOp44
 70
     1
102
RTVSPost2010Prop45
280
     0
102
RTVSPost2010PropOp45
 70
     1
102
RTVSPost2010Prop46
 90
       50
102
RTVSPost2010PropOp46
 70
     1
102
RTVSPost2010Prop47
 90
       50
102
RTVSPost2010PropOp47
 70
     1
102
RTVSPost2010Prop48
 90
       50
102
RTVSPost2010PropOp48
 70
     1
102
RTVSPost2010Prop49
280
     0
102
RTVSPost2010PropOp49
 70
     1
102
RTVSPost2010Prop50
 90
       50
102
RTVSPost2010PropOp50
 70
     1
102
RTVSPost2010Prop51ColorIndex
 90
      256
102
RTVSPost2010Prop51ColorRGB
 90
-16777216
102
RTVSPost2010PropOp51
 70
     0
102
RTVSPost2010Prop52
140
1.0
102
RTVSPost2010PropOp52
 70
     0
102
RTVSPost2010Prop53
 90
        2
102
RTVSPost2010PropOp53
 70
     1
102
RTVSPost2010Prop54
  1
strokes_ogs.tif
102
RTVSPost2010PropOp54
 70
     1
102
RTVSPost2010Prop55
280
     0
102
RTVSPost2010PropOp55
 70
     1
102
RTVSPost2010Prop56
140
1.0
102
RTVSPost2010PropOp56
 70
     1
102
RTVSPost2010Prop57
140
1.0
102
RTVSPost2010PropOp57
 70
     1
102
RTVSPropertyOp0
 70
     1
102
RTVSPropertyOp1
 70
     1
102
RTVSPropertyOp2
 70
     1
102
RTVSPropertyOp3
 70
     1
102
RTVSPropertyOp4
 70
     1
102
RTVSPropertyOp5
 70
     1
102
RTVSPropertyOp6
 70
     1
102
RTVSPropertyOp7
 70
     1
102
RTVSPropertyOp8
 70
     1
102
RTVSPropertyOp9
 70
     1
102
RTVSPropertyOp10
 70
     1
102
RTVSPropertyOp11
 70
     1
102
RTVSPropertyOp12
 70
     1
102
RTVSPropertyOp13
 70
     1
102
RTVSPropertyOp14
 70
     1
102
RTVSPropertyOp15
 70
     1
102
RTVSPropertyOp16
 70
     1
102
RTVSPropertyOp17
 70
     1
102
RTVSPropertyOp18
 70
     1
102
RTVSPropertyOp19
 70
     1
102
RTVSPropertyOp20
 70
     1
102
RTVSPropertyOp21
 70
     1
102
RTVSPropertyOp22
 70
     1
102
RTVSPropertyOp23
 70
     1
102
RTVSPropertyOp24
 70
     1
102
RTVSPropertyOp25
 70
     1
102
RTVSPropertyOp26
 70
     1
102
RTVSPropertyOp27
 70
     1
102
RTVSPropertyOp28
 70
     1
102
RTVSPropertyOp29
 70
     1
102
RTVSPropertyOp30
 70
     1
102
RTVSPropertyOp31
 70
     1
102
RTVSPropertyOp32
 70
     1
102
RTVSPropertyOp33
 70
     1
102
RTVSPropertyOp34
 70
     1
102
RTVSPropertyOp35
 70
     1
102
RTVSPropertyOp36
 70
     1
102
RTVSPropertyOp37
 70
     1
102
RTVSPropertyOp38
 70
     1
102
RTVSPropertyOp39
 70
     1
102
RTVSPropertyOp40
 70
     1
102
RTVSPropertyOp41
 70
     1
102
RTVSPropertyOp42
 70
     1
102
RTVSPropertyOp43
 70
     1
102
RTVSPropertyOp44
 70
     1
102
RTVSPropertyOp45
 70
     1
102
RTVSPropertyOp46
 70
     1
102
RTVSPropertyOp47
 70
     1
102
RTVSPropertyOp48
 70
     1
102
RTVSPropertyOp49
 70
     1
102
RTVSPropertyOp50
 70
     1
102
RTVSPropertyOp51
 70
     0
102
RTVSPropertyOp52
 70
     0
102
RTVSPropertyOp53
 70
     1
102
RTVSPropertyOp54
 70
     1
102
RTVSPropertyOp55
 70
     1
102
RTVSPropertyOp56
 70
     1
102
RTVSPropertyOp57
 70
     1
102
RTVSPropertyOp58
 70
     1
102
RTVSPropertyOp59
 70
     1
102
RTVSPropertyOp60
 70
     1
102
RTVSPropertyOp61
 70
     1
102
RTVSPropertyOp62
 70
     1
  0
XRECORD
  5
300
102
{ACAD_REACTORS
330
2FF
102
}
330
2FF
100
AcDbXrecord
280
     1
102
RTVSPost2010Prop28
280
     0
102
RTVSPost2010PropOp28
 70
     1
102
RTVSPost2010Prop29
280
     1
102
RTVSPost2010PropOp29
 70
     1
102
RTVSPost2010Prop30
280
     1
102
RTVSPost2010PropOp30
 70
     1
102
RTVSPost2010Prop31
280
     0
102
RTVSPost2010PropOp31
 70
     1
102
RTVSPost2010Prop32
280
     0
102
RTVSPost2010PropOp32
 70
     1
102
RTVSPost2010Prop33
280
     0
102
RTVSPost2010PropOp33
 70
     1
102
RTVSPost2010Prop34
280
     0
102
RTVSPost2010PropOp34
 70
     1
102
RTVSPost2010Prop35
280
     0
102
RTVSPost2010PropOp35
 70
     1
102
RTVSPost2010Prop36
280
     0
102
RTVSPost2010PropOp36
 70
     1
102
RTVSPost2010Prop37
 90
       50
102
RTVSPost2010PropOp37
 70
     1
102
RTVSPost2010Prop38
140
0.0
102
RTVSPost2010PropOp38
 70
     1
102
RTVSPost2010Prop39
140
1.0
102
RTVSPost2010PropOp39
 70
     1
102
RTVSPost2010Prop40
 90
        0
102
RTVSPost2010PropOp40
 70
     1
102
RTVSPost2010Prop41ColorIndex
 90
       18
102
RTVSPost2010Prop41ColorRGB
 90
        0
102
RTVSPost2010PropOp41
 70
     1
102
RTVSPost2010Prop42
 90
       50
102
RTVSPost2010PropOp42
 70
     1
102
RTVSPost2010Prop43
 90
        3
102
RTVSPost2010PropOp43
 70
     1
102
RTVSPost2010Prop44ColorIndex
 90
        5
102
RTVSPost2010Prop44ColorRGB
 90
      255
102
RTVSPost2010PropOp44
 70
     1
102
RTVSPost2010Prop45
280
     0
102
RTVSPost2010PropOp45
 70
     1
102
RTVSPost2010Prop46
 90
       50
102
RTVSPost2010PropOp46
 70
     1
102
RTVSPost2010Prop47
 90
       50
102
RTVSPost2010PropOp47
 70
     1
102
RTVSPost2010Prop48
 90
       50
102
RTVSPost2010PropOp48
 70
     1
102
RTVSPost2010Prop49
280
     0
102
RTVSPost2010PropOp49
 70
     1
102
RTVSPost2010Prop50
 90
       50
102
RTVSPost2010PropOp50
 70
     1
102
RTVSPost2010Prop51ColorIndex
 90
      256
102
RTVSPost2010Prop51ColorRGB
 90
-16777216
102
RTVSPost2010PropOp51
 70
     0
102
RTVSPost2010Prop52
140
1.0
102
RTVSPost2010PropOp52
 70
     0
102
RTVSPost2010Prop53
 90
        2
102
RTVSPost2010PropOp53
 70
     1
102
RTVSPost2010Prop54
  1
strokes_ogs.tif
102
RTVSPost2010PropOp54
 70
     1
102
RTVSPost2010Prop55
280
     0
102
RTVSPost2010PropOp55
 70
     1
102
RTVSPost2010Prop56
140
1.0
102
RTVSPost2010PropOp56
 70
     1
102
RTVSPost2010Prop57
140
1.0
102
RTVSPost2010PropOp57
 70
     1
102
RTVSPropertyOp0
 70
     1
102
RTVSPropertyOp1
 70
     1
102
RTVSPropertyOp2
 70
     1
102
RTVSPropertyOp3
 70
     1
102
RTVSPropertyOp4
 70
     1
102
RTVSPropertyOp5
 70
     1
102
RTVSPropertyOp6
 70
     1
102
RTVSPropertyOp7
 70
     1
102
RTVSPropertyOp8
 70
     1
102
RTVSPropertyOp9
 70
     1
102
RTVSPropertyOp10
 70
     1
102
RTVSPropertyOp11
 70
     1
102
RTVSPropertyOp12
 70
     1
102
RTVSPropertyOp13
 70
     1
102
RTVSPropertyOp14
 70
     1
102
RTVSPropertyOp15
 70
     1
102
RTVSPropertyOp16
 70
     1
102
RTVSPropertyOp17
 70
     1
102
RTVSPropertyOp18
 70
     1
102
RTVSPropertyOp19
 70
     1
102
RTVSPropertyOp20
 70
     1
102
RTVSPropertyOp21
 70
     1
102
RTVSPropertyOp22
 70
     1
102
RTVSPropertyOp23
 70
     1
102
RTVSPropertyOp24
 70
     1
102
RTVSPropertyOp25
 70
     1
102
RTVSPropertyOp26
 70
     1
102
RTVSPropertyOp27
 70
     1
102
RTVSPropertyOp28
 70
     1
102
RTVSPropertyOp29
 70
     1
102
RTVSPropertyOp30
 70
     1
102
RTVSPropertyOp31
 70
     1
102
RTVSPropertyOp32
 70
     1
102
RTVSPropertyOp33
 70
     1
102
RTVSPropertyOp34
 70
     1
102
RTVSPropertyOp35
 70
     1
102
RTVSPropertyOp36
 70
     1
102
RTVSPropertyOp37
 70
     1
102
RTVSPropertyOp38
 70
     1
102
RTVSPropertyOp39
 70
     1
102
RTVSPropertyOp40
 70
     1
102
RTVSPropertyOp41
 70
     1
102
RTVSPropertyOp42
 70
     1
102
RTVSPropertyOp43
 70
     1
102
RTVSPropertyOp44
 70
     1
102
RTVSPropertyOp45
 70
     1
102
RTVSPropertyOp46
 70
     1
102
RTVSPropertyOp47
 70
     1
102
RTVSPropertyOp48
 70
     1
102
RTVSPropertyOp49
 70
     1
102
RTVSPropertyOp50
 70
     1
102
RTVSPropertyOp51
 70
     0
102
RTVSPropertyOp52
 70
     0
102
RTVSPropertyOp53
 70
     1
102
RTVSPropertyOp54
 70
     1
102
RTVSPropertyOp55
 70
     1
102
RTVSPropertyOp56
 70
     1
102
RTVSPropertyOp57
 70
     1
102
RTVSPropertyOp58
 70
     1
102
RTVSPropertyOp59
 70
     1
102
RTVSPropertyOp60
 70
     1
102
RTVSPropertyOp61
 70
     1
102
RTVSPropertyOp62
 70
     1
  0
XRECORD
  5
2FA
102
{ACAD_REACTORS
330
2F9
102
}
330
2F9
100
AcDbXrecord
280
     1
102
RTVSPost2010Prop28
280
     0
102
RTVSPost2010PropOp28
 70
     1
102
RTVSPost2010Prop29
280
     1
102
RTVSPost2010PropOp29
 70
     1
102
RTVSPost2010Prop30
280
     1
102
RTVSPost2010PropOp30
 70
     1
102
RTVSPost2010Prop31
280
     0
102
RTVSPost2010PropOp31
 70
     1
102
RTVSPost2010Prop32
280
     0
102
RTVSPost2010PropOp32
 70
     1
102
RTVSPost2010Prop33
280
     0
102
RTVSPost2010PropOp33
 70
     1
102
RTVSPost2010Prop34
280
     0
102
RTVSPost2010PropOp34
 70
     1
102
RTVSPost2010Prop35
280
     0
102
RTVSPost2010PropOp35
 70
     1
102
RTVSPost2010Prop36
280
     0
102
RTVSPost2010PropOp36
 70
     1
102
RTVSPost2010Prop37
 90
       50
102
RTVSPost2010PropOp37
 70
     1
102
RTVSPost2010Prop38
140
0.0
102
RTVSPost2010PropOp38
 70
     1
102
RTVSPost2010Prop39
140
1.0
102
RTVSPost2010PropOp39
 70
     1
102
RTVSPost2010Prop40
 90
        0
102
RTVSPost2010PropOp40
 70
     1
102
RTVSPost2010Prop41ColorIndex
 90
       18
102
RTVSPost2010Prop41ColorRGB
 90
        0
102
RTVSPost2010PropOp41
 70
     1
102
RTVSPost2010Prop42
 90
       50
102
RTVSPost2010PropOp42
 70
     1
102
RTVSPost2010Prop43
 90
        3
102
RTVSPost2010PropOp43
 70
     1
102
RTVSPost2010Prop44ColorIndex
 90
        5
102
RTVSPost2010Prop44ColorRGB
 90
      255
102
RTVSPost2010PropOp44
 70
     1
102
RTVSPost2010Prop45
280
     0
102
RTVSPost2010PropOp45
 70
     1
102
RTVSPost2010Prop46
 90
       50
102
RTVSPost2010PropOp46
 70
     1
102
RTVSPost2010Prop47
 90
       50
102
RTVSPost2010PropOp47
 70
     1
102
RTVSPost2010Prop48
 90
       50
102
RTVSPost2010PropOp48
 70
     1
102
RTVSPost2010Prop49
280
     0
102
RTVSPost2010PropOp49
 70
     1
102
RTVSPost2010Prop50
 90
       50
102
RTVSPost2010PropOp50
 70
     1
102
RTVSPost2010Prop51ColorIndex
 90
      256
102
RTVSPost2010Prop51ColorRGB
 90
-16777216
102
RTVSPost2010PropOp51
 70
     0
102
RTVSPost2010Prop52
140
1.0
102
RTVSPost2010PropOp52
 70
     0
102
RTVSPost2010Prop53
 90
        2
102
RTVSPost2010PropOp53
 70
     1
102
RTVSPost2010Prop54
  1
strokes_ogs.tif
102
RTVSPost2010PropOp54
 70
     1
102
RTVSPost2010Prop55
280
     0
102
RTVSPost2010PropOp55
 70
     1
102
RTVSPost2010Prop56
140
1.0
102
RTVSPost2010PropOp56
 70
     1
102
RTVSPost2010Prop57
140
1.0
102
RTVSPost2010PropOp57
 70
     1
102
RTVSPropertyOp0
 70
     1
102
RTVSPropertyOp1
 70
     1
102
RTVSPropertyOp2
 70
     1
102
RTVSPropertyOp3
 70
     1
102
RTVSPropertyOp4
 70
     1
102
RTVSPropertyOp5
 70
     1
102
RTVSPropertyOp6
 70
     1
102
RTVSPropertyOp7
 70
     1
102
RTVSPropertyOp8
 70
     1
102
RTVSPropertyOp9
 70
     1
102
RTVSPropertyOp10
 70
     1
102
RTVSPropertyOp11
 70
     1
102
RTVSPropertyOp12
 70
     1
102
RTVSPropertyOp13
 70
     1
102
RTVSPropertyOp14
 70
     1
102
RTVSPropertyOp15
 70
     1
102
RTVSPropertyOp16
 70
     1
102
RTVSPropertyOp17
 70
     1
102
RTVSPropertyOp18
 70
     1
102
RTVSPropertyOp19
 70
     1
102
RTVSPropertyOp20
 70
     1
102
RTVSPropertyOp21
 70
     1
102
RTVSPropertyOp22
 70
     1
102
RTVSPropertyOp23
 70
     1
102
RTVSPropertyOp24
 70
     1
102
RTVSPropertyOp25
 70
     1
102
RTVSPropertyOp26
 70
     1
102
RTVSPropertyOp27
 70
     1
102
RTVSPropertyOp28
 70
     1
102
RTVSPropertyOp29
 70
     1
102
RTVSPropertyOp30
 70
     1
102
RTVSPropertyOp31
 70
     1
102
RTVSPropertyOp32
 70
     1
102
RTVSPropertyOp33
 70
     1
102
RTVSPropertyOp34
 70
     1
102
RTVSPropertyOp35
 70
     1
102
RTVSPropertyOp36
 70
     1
102
RTVSPropertyOp37
 70
     1
102
RTVSPropertyOp38
 70
     1
102
RTVSPropertyOp39
 70
     1
102
RTVSPropertyOp40
 70
     1
102
RTVSPropertyOp41
 70
     1
102
RTVSPropertyOp42
 70
     1
102
RTVSPropertyOp43
 70
     1
102
RTVSPropertyOp44
 70
     1
102
RTVSPropertyOp45
 70
     1
102
RTVSPropertyOp46
 70
     1
102
RTVSPropertyOp47
 70
     1
102
RTVSPropertyOp48
 70
     1
102
RTVSPropertyOp49
 70
     1
102
RTVSPropertyOp50
 70
     1
102
RTVSPropertyOp51
 70
     0
102
RTVSPropertyOp52
 70
     0
102
RTVSPropertyOp53
 70
     1
102
RTVSPropertyOp54
 70
     1
102
RTVSPropertyOp55
 70
     1
102
RTVSPropertyOp56
 70
     1
102
RTVSPropertyOp57
 70
     1
102
RTVSPropertyOp58
 70
     1
102
RTVSPropertyOp59
 70
     1
102
RTVSPropertyOp60
 70
     1
102
RTVSPropertyOp61
 70
     1
102
RTVSPropertyOp62
 70
     1
  0
XRECORD
  5
2FC
102
{ACAD_REACTORS
330
2FB
102
}
330
2FB
100
AcDbXrecord
280
     1
102
RTVSPost2010Prop28
280
     0
102
RTVSPost2010PropOp28
 70
     1
102
RTVSPost2010Prop29
280
     1
102
RTVSPost2010PropOp29
 70
     1
102
RTVSPost2010Prop30
280
     1
102
RTVSPost2010PropOp30
 70
     1
102
RTVSPost2010Prop31
280
     0
102
RTVSPost2010PropOp31
 70
     1
102
RTVSPost2010Prop32
280
     0
102
RTVSPost2010PropOp32
 70
     1
102
RTVSPost2010Prop33
280
     0
102
RTVSPost2010PropOp33
 70
     1
102
RTVSPost2010Prop34
280
     0
102
RTVSPost2010PropOp34
 70
     1
102
RTVSPost2010Prop35
280
     0
102
RTVSPost2010PropOp35
 70
     1
102
RTVSPost2010Prop36
280
     0
102
RTVSPost2010PropOp36
 70
     1
102
RTVSPost2010Prop37
 90
       50
102
RTVSPost2010PropOp37
 70
     1
102
RTVSPost2010Prop38
140
0.0
102
RTVSPost2010PropOp38
 70
     1
102
RTVSPost2010Prop39
140
1.0
102
RTVSPost2010PropOp39
 70
     1
102
RTVSPost2010Prop40
 90
        0
102
RTVSPost2010PropOp40
 70
     1
102
RTVSPost2010Prop41ColorIndex
 90
       18
102
RTVSPost2010Prop41ColorRGB
 90
        0
102
RTVSPost2010PropOp41
 70
     1
102
RTVSPost2010Prop42
 90
       50
102
RTVSPost2010PropOp42
 70
     1
102
RTVSPost2010Prop43
 90
        3
102
RTVSPost2010PropOp43
 70
     1
102
RTVSPost2010Prop44ColorIndex
 90
        5
102
RTVSPost2010Prop44ColorRGB
 90
      255
102
RTVSPost2010PropOp44
 70
     1
102
RTVSPost2010Prop45
280
     0
102
RTVSPost2010PropOp45
 70
     1
102
RTVSPost2010Prop46
 90
       50
102
RTVSPost2010PropOp46
 70
     1
102
RTVSPost2010Prop47
 90
       50
102
RTVSPost2010PropOp47
 70
     1
102
RTVSPost2010Prop48
 90
       50
102
RTVSPost2010PropOp48
 70
     1
102
RTVSPost2010Prop49
280
     0
102
RTVSPost2010PropOp49
 70
     1
102
RTVSPost2010Prop50
 90
       50
102
RTVSPost2010PropOp50
 70
     1
102
RTVSPost2010Prop51ColorIndex
 90
      256
102
RTVSPost2010Prop51ColorRGB
 90
-16777216
102
RTVSPost2010PropOp51
 70
     0
102
RTVSPost2010Prop52
140
1.0
102
RTVSPost2010PropOp52
 70
     0
102
RTVSPost2010Prop53
 90
        2
102
RTVSPost2010PropOp53
 70
     1
102
RTVSPost2010Prop54
  1
strokes_ogs.tif
102
RTVSPost2010PropOp54
 70
     1
102
RTVSPost2010Prop55
280
     0
102
RTVSPost2010PropOp55
 70
     1
102
RTVSPost2010Prop56
140
1.0
102
RTVSPost2010PropOp56
 70
     1
102
RTVSPost2010Prop57
140
1.0
102
RTVSPost2010PropOp57
 70
     1
102
RTVSPropertyOp0
 70
     1
102
RTVSPropertyOp1
 70
     1
102
RTVSPropertyOp2
 70
     1
102
RTVSPropertyOp3
 70
     1
102
RTVSPropertyOp4
 70
     1
102
RTVSPropertyOp5
 70
     1
102
RTVSPropertyOp6
 70
     1
102
RTVSPropertyOp7
 70
     1
102
RTVSPropertyOp8
 70
     1
102
RTVSPropertyOp9
 70
     1
102
RTVSPropertyOp10
 70
     1
102
RTVSPropertyOp11
 70
     1
102
RTVSPropertyOp12
 70
     1
102
RTVSPropertyOp13
 70
     1
102
RTVSPropertyOp14
 70
     1
102
RTVSPropertyOp15
 70
     1
102
RTVSPropertyOp16
 70
     1
102
RTVSPropertyOp17
 70
     1
102
RTVSPropertyOp18
 70
     1
102
RTVSPropertyOp19
 70
     1
102
RTVSPropertyOp20
 70
     1
102
RTVSPropertyOp21
 70
     1
102
RTVSPropertyOp22
 70
     1
102
RTVSPropertyOp23
 70
     1
102
RTVSPropertyOp24
 70
     1
102
RTVSPropertyOp25
 70
     1
102
RTVSPropertyOp26
 70
     1
102
RTVSPropertyOp27
 70
     1
102
RTVSPropertyOp28
 70
     1
102
RTVSPropertyOp29
 70
     1
102
RTVSPropertyOp30
 70
     1
102
RTVSPropertyOp31
 70
     1
102
RTVSPropertyOp32
 70
     1
102
RTVSPropertyOp33
 70
     1
102
RTVSPropertyOp34
 70
     1
102
RTVSPropertyOp35
 70
     1
102
RTVSPropertyOp36
 70
     1
102
RTVSPropertyOp37
 70
     1
102
RTVSPropertyOp38
 70
     1
102
RTVSPropertyOp39
 70
     1
102
RTVSPropertyOp40
 70
     1
102
RTVSPropertyOp41
 70
     1
102
RTVSPropertyOp42
 70
     1
102
RTVSPropertyOp43
 70
     1
102
RTVSPropertyOp44
 70
     1
102
RTVSPropertyOp45
 70
     1
102
RTVSPropertyOp46
 70
     1
102
RTVSPropertyOp47
 70
     1
102
RTVSPropertyOp48
 70
     1
102
RTVSPropertyOp49
 70
     1
102
RTVSPropertyOp50
 70
     1
102
RTVSPropertyOp51
 70
     0
102
RTVSPropertyOp52
 70
     0
102
RTVSPropertyOp53
 70
     1
102
RTVSPropertyOp54
 70
     1
102
RTVSPropertyOp55
 70
     1
102
RTVSPropertyOp56
 70
     1
102
RTVSPropertyOp57
 70
     1
102
RTVSPropertyOp58
 70
     1
102
RTVSPropertyOp59
 70
     1
102
RTVSPropertyOp60
 70
     1
102
RTVSPropertyOp61
 70
     1
102
RTVSPropertyOp62
 70
     1
  0
XRECORD
  5
2F2
102
{ACAD_REACTORS
330
2F1
102
}
330
2F1
100
AcDbXrecord
280
     1
102
RTVSPost2010Prop28
280
     0
102
RTVSPost2010PropOp28
 70
     1
102
RTVSPost2010Prop29
280
     1
102
RTVSPost2010PropOp29
 70
     1
102
RTVSPost2010Prop30
280
     1
102
RTVSPost2010PropOp30
 70
     1
102
RTVSPost2010Prop31
280
     0
102
RTVSPost2010PropOp31
 70
     1
102
RTVSPost2010Prop32
280
     0
102
RTVSPost2010PropOp32
 70
     1
102
RTVSPost2010Prop33
280
     0
102
RTVSPost2010PropOp33
 70
     1
102
RTVSPost2010Prop34
280
     0
102
RTVSPost2010PropOp34
 70
     1
102
RTVSPost2010Prop35
280
     0
102
RTVSPost2010PropOp35
 70
     1
102
RTVSPost2010Prop36
280
     0
102
RTVSPost2010PropOp36
 70
     1
102
RTVSPost2010Prop37
 90
       50
102
RTVSPost2010PropOp37
 70
     1
102
RTVSPost2010Prop38
140
0.0
102
RTVSPost2010PropOp38
 70
     1
102
RTVSPost2010Prop39
140
1.0
102
RTVSPost2010PropOp39
 70
     1
102
RTVSPost2010Prop40
 90
        0
102
RTVSPost2010PropOp40
 70
     1
102
RTVSPost2010Prop41ColorIndex
 90
       18
102
RTVSPost2010Prop41ColorRGB
 90
        0
102
RTVSPost2010PropOp41
 70
     1
102
RTVSPost2010Prop42
 90
       50
102
RTVSPost2010PropOp42
 70
     1
102
RTVSPost2010Prop43
 90
        3
102
RTVSPost2010PropOp43
 70
     1
102
RTVSPost2010Prop44ColorIndex
 90
        5
102
RTVSPost2010Prop44ColorRGB
 90
      255
102
RTVSPost2010PropOp44
 70
     1
102
RTVSPost2010Prop45
280
     0
102
RTVSPost2010PropOp45
 70
     1
102
RTVSPost2010Prop46
 90
       50
102
RTVSPost2010PropOp46
 70
     1
102
RTVSPost2010Prop47
 90
       50
102
RTVSPost2010PropOp47
 70
     1
102
RTVSPost2010Prop48
 90
       50
102
RTVSPost2010PropOp48
 70
     1
102
RTVSPost2010Prop49
280
     0
102
RTVSPost2010PropOp49
 70
     1
102
RTVSPost2010Prop50
 90
       50
102
RTVSPost2010PropOp50
 70
     1
102
RTVSPost2010Prop51ColorIndex
 90
      256
102
RTVSPost2010Prop51ColorRGB
 90
-16777216
102
RTVSPost2010PropOp51
 70
     0
102
RTVSPost2010Prop52
140
1.0
102
RTVSPost2010PropOp52
 70
     0
102
RTVSPost2010Prop53
 90
        2
102
RTVSPost2010PropOp53
 70
     1
102
RTVSPost2010Prop54
  1
strokes_ogs.tif
102
RTVSPost2010PropOp54
 70
     1
102
RTVSPost2010Prop55
280
     0
102
RTVSPost2010PropOp55
 70
     1
102
RTVSPost2010Prop56
140
1.0
102
RTVSPost2010PropOp56
 70
     1
102
RTVSPost2010Prop57
140
1.0
102
RTVSPost2010PropOp57
 70
     1
102
RTVSPropertyOp0
 70
     1
102
RTVSPropertyOp1
 70
     1
102
RTVSPropertyOp2
 70
     1
102
RTVSPropertyOp3
 70
     1
102
RTVSPropertyOp4
 70
     1
102
RTVSPropertyOp5
 70
     1
102
RTVSPropertyOp6
 70
     1
102
RTVSPropertyOp7
 70
     1
102
RTVSPropertyOp8
 70
     1
102
RTVSPropertyOp9
 70
     1
102
RTVSPropertyOp10
 70
     1
102
RTVSPropertyOp11
 70
     1
102
RTVSPropertyOp12
 70
     1
102
RTVSPropertyOp13
 70
     1
102
RTVSPropertyOp14
 70
     1
102
RTVSPropertyOp15
 70
     1
102
RTVSPropertyOp16
 70
     1
102
RTVSPropertyOp17
 70
     1
102
RTVSPropertyOp18
 70
     1
102
RTVSPropertyOp19
 70
     1
102
RTVSPropertyOp20
 70
     1
102
RTVSPropertyOp21
 70
     1
102
RTVSPropertyOp22
 70
     1
102
RTVSPropertyOp23
 70
     1
102
RTVSPropertyOp24
 70
     1
102
RTVSPropertyOp25
 70
     1
102
RTVSPropertyOp26
 70
     1
102
RTVSPropertyOp27
 70
     1
102
RTVSPropertyOp28
 70
     1
102
RTVSPropertyOp29
 70
     1
102
RTVSPropertyOp30
 70
     1
102
RTVSPropertyOp31
 70
     1
102
RTVSPropertyOp32
 70
     1
102
RTVSPropertyOp33
 70
     1
102
RTVSPropertyOp34
 70
     1
102
RTVSPropertyOp35
 70
     1
102
RTVSPropertyOp36
 70
     1
102
RTVSPropertyOp37
 70
     1
102
RTVSPropertyOp38
 70
     1
102
RTVSPropertyOp39
 70
     1
102
RTVSPropertyOp40
 70
     1
102
RTVSPropertyOp41
 70
     1
102
RTVSPropertyOp42
 70
     1
102
RTVSPropertyOp43
 70
     1
102
RTVSPropertyOp44
 70
     1
102
RTVSPropertyOp45
 70
     1
102
RTVSPropertyOp46
 70
     1
102
RTVSPropertyOp47
 70
     1
102
RTVSPropertyOp48
 70
     1
102
RTVSPropertyOp49
 70
     1
102
RTVSPropertyOp50
 70
     1
102
RTVSPropertyOp51
 70
     0
102
RTVSPropertyOp52
 70
     0
102
RTVSPropertyOp53
 70
     1
102
RTVSPropertyOp54
 70
     1
102
RTVSPropertyOp55
 70
     1
102
RTVSPropertyOp56
 70
     1
102
RTVSPropertyOp57
 70
     1
102
RTVSPropertyOp58
 70
     1
102
RTVSPropertyOp59
 70
     1
102
RTVSPropertyOp60
 70
     1
102
RTVSPropertyOp61
 70
     1
102
RTVSPropertyOp62
 70
     1
  0
XRECORD
  5
2E6
102
{ACAD_REACTORS
330
2E5
102
}
330
2E5
100
AcDbXrecord
280
     1
102
RTVSPost2010Prop28
280
     0
102
RTVSPost2010PropOp28
 70
     1
102
RTVSPost2010Prop29
280
     1
102
RTVSPost2010PropOp29
 70
     1
102
RTVSPost2010Prop30
280
     1
102
RTVSPost2010PropOp30
 70
     1
102
RTVSPost2010Prop31
280
     0
102
RTVSPost2010PropOp31
 70
     1
102
RTVSPost2010Prop32
280
     0
102
RTVSPost2010PropOp32
 70
     1
102
RTVSPost2010Prop33
280
     0
102
RTVSPost2010PropOp33
 70
     1
102
RTVSPost2010Prop34
280
     0
102
RTVSPost2010PropOp34
 70
     1
102
RTVSPost2010Prop35
280
     0
102
RTVSPost2010PropOp35
 70
     1
102
RTVSPost2010Prop36
280
     0
102
RTVSPost2010PropOp36
 70
     1
102
RTVSPost2010Prop37
 90
       50
102
RTVSPost2010PropOp37
 70
     1
102
RTVSPost2010Prop38
140
0.0
102
RTVSPost2010PropOp38
 70
     1
102
RTVSPost2010Prop39
140
1.0
102
RTVSPost2010PropOp39
 70
     1
102
RTVSPost2010Prop40
 90
        0
102
RTVSPost2010PropOp40
 70
     1
102
RTVSPost2010Prop41ColorIndex
 90
       18
102
RTVSPost2010Prop41ColorRGB
 90
        0
102
RTVSPost2010PropOp41
 70
     1
102
RTVSPost2010Prop42
 90
       50
102
RTVSPost2010PropOp42
 70
     1
102
RTVSPost2010Prop43
 90
        3
102
RTVSPost2010PropOp43
 70
     1
102
RTVSPost2010Prop44ColorIndex
 90
        5
102
RTVSPost2010Prop44ColorRGB
 90
      255
102
RTVSPost2010PropOp44
 70
     1
102
RTVSPost2010Prop45
280
     0
102
RTVSPost2010PropOp45
 70
     1
102
RTVSPost2010Prop46
 90
       50
102
RTVSPost2010PropOp46
 70
     1
102
RTVSPost2010Prop47
 90
       50
102
RTVSPost2010PropOp47
 70
     1
102
RTVSPost2010Prop48
 90
       50
102
RTVSPost2010PropOp48
 70
     1
102
RTVSPost2010Prop49
280
     0
102
RTVSPost2010PropOp49
 70
     1
102
RTVSPost2010Prop50
 90
       50
102
RTVSPost2010PropOp50
 70
     1
102
RTVSPost2010Prop51ColorIndex
 90
      256
102
RTVSPost2010Prop51ColorRGB
 90
-16777216
102
RTVSPost2010PropOp51
 70
     0
102
RTVSPost2010Prop52
140
1.0
102
RTVSPost2010PropOp52
 70
     0
102
RTVSPost2010Prop53
 90
        2
102
RTVSPost2010PropOp53
 70
     1
102
RTVSPost2010Prop54
  1
strokes_ogs.tif
102
RTVSPost2010PropOp54
 70
     1
102
RTVSPost2010Prop55
280
     0
102
RTVSPost2010PropOp55
 70
     1
102
RTVSPost2010Prop56
140
1.0
102
RTVSPost2010PropOp56
 70
     1
102
RTVSPost2010Prop57
140
1.0
102
RTVSPost2010PropOp57
 70
     1
102
RTVSPropertyOp0
 70
     1
102
RTVSPropertyOp1
 70
     1
102
RTVSPropertyOp2
 70
     1
102
RTVSPropertyOp3
 70
     1
102
RTVSPropertyOp4
 70
     1
102
RTVSPropertyOp5
 70
     1
102
RTVSPropertyOp6
 70
     1
102
RTVSPropertyOp7
 70
     1
102
RTVSPropertyOp8
 70
     1
102
RTVSPropertyOp9
 70
     1
102
RTVSPropertyOp10
 70
     1
102
RTVSPropertyOp11
 70
     1
102
RTVSPropertyOp12
 70
     1
102
RTVSPropertyOp13
 70
     1
102
RTVSPropertyOp14
 70
     1
102
RTVSPropertyOp15
 70
     1
102
RTVSPropertyOp16
 70
     1
102
RTVSPropertyOp17
 70
     1
102
RTVSPropertyOp18
 70
     1
102
RTVSPropertyOp19
 70
     1
102
RTVSPropertyOp20
 70
     1
102
RTVSPropertyOp21
 70
     1
102
RTVSPropertyOp22
 70
     1
102
RTVSPropertyOp23
 70
     1
102
RTVSPropertyOp24
 70
     1
102
RTVSPropertyOp25
 70
     1
102
RTVSPropertyOp26
 70
     1
102
RTVSPropertyOp27
 70
     1
102
RTVSPropertyOp28
 70
     1
102
RTVSPropertyOp29
 70
     1
102
RTVSPropertyOp30
 70
     1
102
RTVSPropertyOp31
 70
     1
102
RTVSPropertyOp32
 70
     1
102
RTVSPropertyOp33
 70
     1
102
RTVSPropertyOp34
 70
     1
102
RTVSPropertyOp35
 70
     1
102
RTVSPropertyOp36
 70
     1
102
RTVSPropertyOp37
 70
     1
102
RTVSPropertyOp38
 70
     1
102
RTVSPropertyOp39
 70
     1
102
RTVSPropertyOp40
 70
     1
102
RTVSPropertyOp41
 70
     1
102
RTVSPropertyOp42
 70
     1
102
RTVSPropertyOp43
 70
     1
102
RTVSPropertyOp44
 70
     1
102
RTVSPropertyOp45
 70
     1
102
RTVSPropertyOp46
 70
     1
102
RTVSPropertyOp47
 70
     1
102
RTVSPropertyOp48
 70
     1
102
RTVSPropertyOp49
 70
     1
102
RTVSPropertyOp50
 70
     1
102
RTVSPropertyOp51
 70
     0
102
RTVSPropertyOp52
 70
     0
102
RTVSPropertyOp53
 70
     1
102
RTVSPropertyOp54
 70
     1
102
RTVSPropertyOp55
 70
     1
102
RTVSPropertyOp56
 70
     1
102
RTVSPropertyOp57
 70
     1
102
RTVSPropertyOp58
 70
     1
102
RTVSPropertyOp59
 70
     1
102
RTVSPropertyOp60
 70
     1
102
RTVSPropertyOp61
 70
     1
102
RTVSPropertyOp62
 70
     1
  0
XRECORD
  5
2FE
102
{ACAD_REACTORS
330
2FD
102
}
330
2FD
100
AcDbXrecord
280
     1
102
RTVSPost2010Prop28
280
     0
102
RTVSPost2010PropOp28
 70
     1
102
RTVSPost2010Prop29
280
     1
102
RTVSPost2010PropOp29
 70
     1
102
RTVSPost2010Prop30
280
     1
102
RTVSPost2010PropOp30
 70
     1
102
RTVSPost2010Prop31
280
     0
102
RTVSPost2010PropOp31
 70
     1
102
RTVSPost2010Prop32
280
     0
102
RTVSPost2010PropOp32
 70
     1
102
RTVSPost2010Prop33
280
     0
102
RTVSPost2010PropOp33
 70
     1
102
RTVSPost2010Prop34
280
     0
102
RTVSPost2010PropOp34
 70
     1
102
RTVSPost2010Prop35
280
     0
102
RTVSPost2010PropOp35
 70
     1
102
RTVSPost2010Prop36
280
     0
102
RTVSPost2010PropOp36
 70
     1
102
RTVSPost2010Prop37
 90
       50
102
RTVSPost2010PropOp37
 70
     1
102
RTVSPost2010Prop38
140
0.0
102
RTVSPost2010PropOp38
 70
     1
102
RTVSPost2010Prop39
140
1.0
102
RTVSPost2010PropOp39
 70
     1
102
RTVSPost2010Prop40
 90
        0
102
RTVSPost2010PropOp40
 70
     1
102
RTVSPost2010Prop41ColorIndex
 90
       18
102
RTVSPost2010Prop41ColorRGB
 90
        0
102
RTVSPost2010PropOp41
 70
     1
102
RTVSPost2010Prop42
 90
       50
102
RTVSPost2010PropOp42
 70
     1
102
RTVSPost2010Prop43
 90
        3
102
RTVSPost2010PropOp43
 70
     1
102
RTVSPost2010Prop44ColorIndex
 90
        5
102
RTVSPost2010Prop44ColorRGB
 90
      255
102
RTVSPost2010PropOp44
 70
     1
102
RTVSPost2010Prop45
280
     0
102
RTVSPost2010PropOp45
 70
     1
102
RTVSPost2010Prop46
 90
       50
102
RTVSPost2010PropOp46
 70
     1
102
RTVSPost2010Prop47
 90
       50
102
RTVSPost2010PropOp47
 70
     1
102
RTVSPost2010Prop48
 90
       50
102
RTVSPost2010PropOp48
 70
     1
102
RTVSPost2010Prop49
280
     0
102
RTVSPost2010PropOp49
 70
     1
102
RTVSPost2010Prop50
 90
       50
102
RTVSPost2010PropOp50
 70
     1
102
RTVSPost2010Prop51ColorIndex
 90
      256
102
RTVSPost2010Prop51ColorRGB
 90
-16777216
102
RTVSPost2010PropOp51
 70
     0
102
RTVSPost2010Prop52
140
1.0
102
RTVSPost2010PropOp52
 70
     0
102
RTVSPost2010Prop53
 90
        2
102
RTVSPost2010PropOp53
 70
     1
102
RTVSPost2010Prop54
  1
strokes_ogs.tif
102
RTVSPost2010PropOp54
 70
     1
102
RTVSPost2010Prop55
280
     0
102
RTVSPost2010PropOp55
 70
     1
102
RTVSPost2010Prop56
140
1.0
102
RTVSPost2010PropOp56
 70
     1
102
RTVSPost2010Prop57
140
1.0
102
RTVSPost2010PropOp57
 70
     1
102
RTVSPropertyOp0
 70
     1
102
RTVSPropertyOp1
 70
     1
102
RTVSPropertyOp2
 70
     1
102
RTVSPropertyOp3
 70
     1
102
RTVSPropertyOp4
 70
     1
102
RTVSPropertyOp5
 70
     1
102
RTVSPropertyOp6
 70
     1
102
RTVSPropertyOp7
 70
     1
102
RTVSPropertyOp8
 70
     1
102
RTVSPropertyOp9
 70
     1
102
RTVSPropertyOp10
 70
     1
102
RTVSPropertyOp11
 70
     1
102
RTVSPropertyOp12
 70
     1
102
RTVSPropertyOp13
 70
     1
102
RTVSPropertyOp14
 70
     1
102
RTVSPropertyOp15
 70
     1
102
RTVSPropertyOp16
 70
     1
102
RTVSPropertyOp17
 70
     1
102
RTVSPropertyOp18
 70
     1
102
RTVSPropertyOp19
 70
     1
102
RTVSPropertyOp20
 70
     1
102
RTVSPropertyOp21
 70
     1
102
RTVSPropertyOp22
 70
     1
102
RTVSPropertyOp23
 70
     1
102
RTVSPropertyOp24
 70
     1
102
RTVSPropertyOp25
 70
     1
102
RTVSPropertyOp26
 70
     1
102
RTVSPropertyOp27
 70
     1
102
RTVSPropertyOp28
 70
     1
102
RTVSPropertyOp29
 70
     1
102
RTVSPropertyOp30
 70
     1
102
RTVSPropertyOp31
 70
     1
102
RTVSPropertyOp32
 70
     1
102
RTVSPropertyOp33
 70
     1
102
RTVSPropertyOp34
 70
     1
102
RTVSPropertyOp35
 70
     1
102
RTVSPropertyOp36
 70
     1
102
RTVSPropertyOp37
 70
     1
102
RTVSPropertyOp38
 70
     1
102
RTVSPropertyOp39
 70
     1
102
RTVSPropertyOp40
 70
     1
102
RTVSPropertyOp41
 70
     1
102
RTVSPropertyOp42
 70
     1
102
RTVSPropertyOp43
 70
     1
102
RTVSPropertyOp44
 70
     1
102
RTVSPropertyOp45
 70
     1
102
RTVSPropertyOp46
 70
     1
102
RTVSPropertyOp47
 70
     1
102
RTVSPropertyOp48
 70
     1
102
RTVSPropertyOp49
 70
     1
102
RTVSPropertyOp50
 70
     1
102
RTVSPropertyOp51
 70
     0
102
RTVSPropertyOp52
 70
     0
102
RTVSPropertyOp53
 70
     1
102
RTVSPropertyOp54
 70
     1
102
RTVSPropertyOp55
 70
     1
102
RTVSPropertyOp56
 70
     1
102
RTVSPropertyOp57
 70
     1
102
RTVSPropertyOp58
 70
     1
102
RTVSPropertyOp59
 70
     1
102
RTVSPropertyOp60
 70
     1
102
RTVSPropertyOp61
 70
     1
102
RTVSPropertyOp62
 70
     1
  0
ENDSEC
  0
EOF
