  0
SECTION
  2
HEADER
  9
$ACADVER
  1
AC1018
  9
$ACADMAINTVER
 70
   104
  9
$DWGCODEPAGE
  3
ANSI_932
  9
$LASTSAVEDBY
  1
0803015
  9
$INSBASE
 10
0.0
 20
0.0
 30
0.0
  9
$EXTMIN
 10
-1.75047013
 20
-1.22064724
 30
-0.00000003
  9
$EXTMAX
 10
28682.76623725
 20
20001.22083351
 30
0.00000008
  9
$LIMMIN
 10
0.0
 20
0.0
  9
$LIMMAX
 10
420.0
 20
330.0
  9
$ORTHOMODE
 70
     1
  9
$REGENMODE
 70
     1
  9
$FILLMODE
 70
     1
  9
$QTEXTMODE
 70
     0
  9
$MIRRTEXT
 70
     0
  9
$LTSCALE
 40
1.0
  9
$ATTMODE
 70
     1
  9
$TEXTSIZE
 40
0.2
  9
$TRACEWID
 40
0.05
  9
$TEXTSTYLE
  7
STANDARD
  9
$CLAYER
  8
0
  9
$CELTYPE
  6
BYLAYER
  9
$CECOLOR
 62
   256
  9
$CELTSCALE
 40
1.0
  9
$DISPSILH
 70
     1
  9
$DIMSCALE
 40
1.0
  9
$DIMASZ
 40
0.18
  9
$DIMEXO
 40
0.0625
  9
$DIMDLI
 40
0.38
  9
$DIMRND
 40
0.0
  9
$DIMDLE
 40
0.0
  9
$DIMEXE
 40
0.18
  9
$DIMTP
 40
0.0
  9
$DIMTM
 40
0.0
  9
$DIMTXT
 40
0.18
  9
$DIMCEN
 40
0.09
  9
$DIMTSZ
 40
0.0
  9
$DIMTOL
 70
     0
  9
$DIMLIM
 70
     0
  9
$DIMTIH
 70
     1
  9
$DIMTOH
 70
     1
  9
$DIMSE1
 70
     0
  9
$DIMSE2
 70
     0
  9
$DIMTAD
 70
     0
  9
$DIMZIN
 70
     0
  9
$DIMBLK
  1

  9
$DIMASO
 70
     1
  9
$DIMSHO
 70
     0
  9
$DIMPOST
  1

  9
$DIMAPOST
  1

  9
$DIMALT
 70
     0
  9
$DIMALTD
 70
     2
  9
$DIMALTF
 40
25.4
  9
$DIMLFAC
 40
1.0
  9
$DIMTOFL
 70
     0
  9
$DIMTVP
 40
0.0
  9
$DIMTIX
 70
     0
  9
$DIMSOXD
 70
     0
  9
$DIMSAH
 70
     0
  9
$DIMBLK1
  1

  9
$DIMBLK2
  1

  9
$DIMSTYLE
  2
STANDARD
  9
$DIMCLRD
 70
     0
  9
$DIMCLRE
 70
     0
  9
$DIMCLRT
 70
     0
  9
$DIMTFAC
 40
1.0
  9
$DIMGAP
 40
0.09
  9
$DIMJUST
 70
     0
  9
$DIMSD1
 70
     0
  9
$DIMSD2
 70
     0
  9
$DIMTOLJ
 70
     1
  9
$DIMTZIN
 70
     0
  9
$DIMALTZ
 70
     0
  9
$DIMALTTZ
 70
     0
  9
$DIMUPT
 70
     0
  9
$DIMDEC
 70
     4
  9
$DIMTDEC
 70
     4
  9
$DIMALTU
 70
     2
  9
$DIMALTTD
 70
     2
  9
$DIMTXSTY
  7
STANDARD
  9
$DIMAUNIT
 70
     0
  9
$DIMADEC
 70
     0
  9
$DIMALTRND
 40
0.0
  9
$DIMAZIN
 70
     0
  9
$DIMDSEP
 70
    46
  9
$DIMATFIT
 70
     3
  9
$DIMFRAC
 70
     0
  9
$DIMLDRBLK
  1

  9
$DIMLUNIT
 70
     2
  9
$DIMLWD
 70
    -2
  9
$DIMLWE
 70
    -2
  9
$DIMTMOVE
 70
     2
  9
$LUNITS
 70
     2
  9
$LUPREC
 70
     4
  9
$SKETCHINC
 40
0.1
  9
$FILLETRAD
 40
1.0
  9
$AUNITS
 70
     0
  9
$AUPREC
 70
     0
  9
$MENU
  1
tool/YKK
  9
$ELEVATION
 40
0.0
  9
$PELEVATION
 40
0.0
  9
$THICKNESS
 40
0.0
  9
$LIMCHECK
 70
     0
  9
$CHAMFERA
 40
0.0
  9
$CHAMFERB
 40
0.0
  9
$CHAMFERC
 40
0.0
  9
$CHAMFERD
 40
0.0
  9
$SKPOLY
 70
     0
  9
$TDCREATE
 40
2453046.711875000
  9
$TDUCREATE
 40
2453046.336879873
  9
$TDUPDATE
 40
2459629.388958334
  9
$TDUUPDATE
 40
2459629.013958334
  9
$TDINDWG
 40
0.5256591435
  9
$TDUSRTIMER
 40
0.5256591435
  9
$USRTIMER
 70
     1
  9
$ANGBASE
 50
0.0
  9
$ANGDIR
 70
     0
  9
$PDMODE
 70
     0
  9
$PDSIZE
 40
0.0
  9
$PLINEWID
 40
0.0
  9
$SPLFRAME
 70
     0
  9
$SPLINETYPE
 70
     6
  9
$SPLINESEGS
 70
     8
  9
$HANDSEED
  5
1347
  9
$SURFTAB1
 70
     6
  9
$SURFTAB2
 70
     6
  9
$SURFTYPE
 70
     6
  9
$SURFU
 70
     6
  9
$SURFV
 70
     6
  9
$UCSBASE
  2

  9
$UCSNAME
  2

  9
$UCSORG
 10
0.0
 20
0.0
 30
0.0
  9
$UCSXDIR
 10
1.0
 20
0.0
 30
0.0
  9
$UCSYDIR
 10
0.0
 20
1.0
 30
0.0
  9
$UCSORTHOREF
  2

  9
$UCSORTHOVIEW
 70
     0
  9
$UCSORGTOP
 10
0.0
 20
0.0
 30
0.0
  9
$UCSORGBOTTOM
 10
0.0
 20
0.0
 30
0.0
  9
$UCSORGLEFT
 10
0.0
 20
0.0
 30
0.0
  9
$UCSORGRIGHT
 10
0.0
 20
0.0
 30
0.0
  9
$UCSORGFRONT
 10
0.0
 20
0.0
 30
0.0
  9
$UCSORGBACK
 10
0.0
 20
0.0
 30
0.0
  9
$PUCSBASE
  2

  9
$PUCSNAME
  2

  9
$PUCSORG
 10
0.0
 20
0.0
 30
0.0
  9
$PUCSXDIR
 10
1.0
 20
0.0
 30
0.0
  9
$PUCSYDIR
 10
0.0
 20
1.0
 30
0.0
  9
$PUCSORTHOREF
  2

  9
$PUCSORTHOVIEW
 70
     0
  9
$PUCSORGTOP
 10
0.0
 20
0.0
 30
0.0
  9
$PUCSORGBOTTOM
 10
0.0
 20
0.0
 30
0.0
  9
$PUCSORGLEFT
 10
0.0
 20
0.0
 30
0.0
  9
$PUCSORGRIGHT
 10
0.0
 20
0.0
 30
0.0
  9
$PUCSORGFRONT
 10
0.0
 20
0.0
 30
0.0
  9
$PUCSORGBACK
 10
0.0
 20
0.0
 30
0.0
  9
$USERI1
 70
     0
  9
$USERI2
 70
     0
  9
$USERI3
 70
     0
  9
$USERI4
 70
     0
  9
$USERI5
 70
     0
  9
$USERR1
 40
0.0
  9
$USERR2
 40
0.0
  9
$USERR3
 40
0.0
  9
$USERR4
 40
0.0
  9
$USERR5
 40
0.0
  9
$WORLDVIEW
 70
     1
  9
$SHADEDGE
 70
     3
  9
$SHADEDIF
 70
    70
  9
$TILEMODE
 70
     1
  9
$MAXACTVP
 70
    16
  9
$PINSBASE
 10
0.0
 20
0.0
 30
0.0
  9
$PLIMCHECK
 70
     0
  9
$PEXTMIN
 10
1.00000000E+20
 20
1.00000000E+20
 30
1.00000000E+20
  9
$PEXTMAX
 10
-1.00000000E+20
 20
-1.00000000E+20
 30
-1.00000000E+20
  9
$PLIMMIN
 10
0.0
 20
0.0
  9
$PLIMMAX
 10
12.0
 20
9.0
  9
$UNITMODE
 70
     0
  9
$VISRETAIN
 70
     0
  9
$PLINEGEN
 70
     0
  9
$PSLTSCALE
 70
     0
  9
$TREEDEPTH
 70
  3020
  9
$CMLSTYLE
  2
STANDARD
  9
$CMLJUST
 70
     0
  9
$CMLSCALE
 40
1.0
  9
$PROXYGRAPHICS
 70
     1
  9
$MEASUREMENT
 70
     1
  9
$CELWEIGHT
370
    -1
  9
$ENDCAPS
280
     0
  9
$JOINSTYLE
280
     0
  9
$LWDISPLAY
290
     0
  9
$INSUNITS
 70
     0
  9
$HYPERLINKBASE
  1

  9
$STYLESHEET
  1

  9
$XEDIT
290
     1
  9
$CEPSNTYPE
380
     0
  9
$PSTYLEMODE
290
     1
  9
$FINGERPRINTGUID
  2
{E31CE056-CC6C-4C4C-8DB2-88217F11519C}
  9
$VERSIONGUID
  2
{9DA21A41-380F-3046-854D-FF6F0B8CED94}
  9
$EXTNAMES
290
     1
  9
$PSVPSCALE
 40
0.0
  9
$OLESTARTUP
290
     0
  9
$SORTENTS
280
   127
  9
$INDEXCTL
280
     0
  9
$HIDETEXT
280
     0
  9
$XCLIPFRAME
290
     0
  9
$HALOGAP
280
     0
  9
$OBSCOLOR
 70
   257
  9
$OBSLTYPE
280
     0
  9
$INTERSECTIONDISPLAY
280
     0
  9
$INTERSECTIONCOLOR
 70
   257
  9
$DIMASSOC
280
     1
  9
$PROJECTNAME
  1

  0
ENDSEC
  0
SECTION
  2
CLASSES
  0
CLASS
  1
DICTIONARYVAR
  2
AcDbDictionaryVar
  3
ObjectDBX Classes
 90
        0
 91
        7
280
     0
281
     0
  0
CLASS
  1
ACDBDICTIONARYWDFLT
  2
AcDbDictionaryWithDefault
  3
ObjectDBX Classes
 90
        0
 91
        1
280
     0
281
     0
  0
CLASS
  1
MATERIAL
  2
AcDbMaterial
  3
ObjectDBX Classes
 90
     1153
 91
        3
280
     0
281
     0
  0
CLASS
  1
VISUALSTYLE
  2
AcDbVisualStyle
  3
ObjectDBX Classes
 90
     4095
 91
       24
280
     0
281
     0
  0
CLASS
  1
TABLESTYLE
  2
AcDbTableStyle
  3
ObjectDBX Classes
 90
     4095
 91
        1
280
     0
281
     0
  0
CLASS
  1
SCALE
  2
AcDbScale
  3
ObjectDBX Classes
 90
     1153
 91
       17
280
     0
281
     0
  0
CLASS
  1
MLEADERSTYLE
  2
AcDbMLeaderStyle
  3
ACDB_MLEADERSTYLE_CLASS
 90
     4095
 91
        1
280
     0
281
     0
  0
CLASS
  1
ACDBSECTIONVIEWSTYLE
  2
AcDbSectionViewStyle
  3
ObjectDBX Classes
 90
     1025
 91
        2
280
     0
281
     0
  0
CLASS
  1
ACDBDETAILVIEWSTYLE
  2
AcDbDetailViewStyle
  3
ObjectDBX Classes
 90
     1025
 91
        2
280
     0
281
     0
  0
CLASS
  1
CELLSTYLEMAP
  2
AcDbCellStyleMap
  3
ObjectDBX Classes
 90
     1152
 91
        2
280
     0
281
     0
  0
CLASS
  1
RAPIDRTRENDERSETTINGS
  2
AcDbRapidRTRenderSettings
  3
ObjectDBX Classes
 90
     1024
 91
        1
280
     0
281
     0
  0
CLASS
  1
MENTALRAYRENDERSETTINGS
  2
AcDbMentalRayRenderSettings
  3
SCENEOE
 90
     1024
 91
        1
280
     0
281
     0
  0
CLASS
  1
SORTENTSTABLE
  2
AcDbSortentsTable
  3
ObjectDBX Classes
 90
        0
 91
        0
280
     0
281
     0
  0
ENDSEC
  0
SECTION
  2
TABLES
  0
TABLE
  2
VPORT
  5
12
102
{ACAD_XDICTIONARY
360
CEB
102
}
330
0
100
AcDbSymbolTable
 70
     1
  0
VPORT
  5
BDC
330
12
100
AcDbSymbolTableRecord
100
AcDbViewportTableRecord
  2
*ACTIVE
 70
     0
 10
0.0
 20
0.0
 11
1.0
 21
1.0
 12
14340.50788356
 22
10000.00009314
 13
0.0
 23
0.0
 14
1.0
 24
1.0
 15
10.0
 25
10.0
 16
0.0
 26
0.0
 36
1.0
 17
0.0
 27
0.0
 37
0.0
 40
20233.6835788
 41
2.57722008
 42
50.0
 43
0.0
 44
0.0
 50
0.0
 51
0.0
 71
     0
 72
   100
 73
     1
 74
     0
 75
     0
 76
     0
 77
     0
 78
     0
281
     0
 65
     1
110
0.0
120
0.0
130
0.0
111
1.0
121
0.0
131
0.0
112
0.0
122
1.0
132
0.0
 79
     0
146
0.0
1001
ACAD_NAV_VCDISPLAY
1070
     1
  0
ENDTAB
  0
TABLE
  2
LTYPE
  5
D
330
0
100
AcDbSymbolTable
 70
     2
  0
LTYPE
  5
E
330
D
100
AcDbSymbolTableRecord
100
AcDbLinetypeTableRecord
  2
BYBLOCK
 70
     0
  3

 72
    65
 73
     0
 40
0.0
  0
LTYPE
  5
F
330
D
100
AcDbSymbolTableRecord
100
AcDbLinetypeTableRecord
  2
BYLAYER
 70
     0
  3

 72
    65
 73
     0
 40
0.0
  0
LTYPE
  5
5
330
D
100
AcDbSymbolTableRecord
100
AcDbLinetypeTableRecord
  2
CONTINUOUS
 70
     0
  3
Solid line
 72
    65
 73
     0
 40
0.0
  0
LTYPE
  5
D86
330
D
100
AcDbSymbolTableRecord
100
AcDbLinetypeTableRecord
  2
YHIDDEN_1
 70
     0
  3
破線尺度1－ － － － － － －
 72
    65
 73
     2
 40
4.0
 49
3.0
 74
     0
 49
-1.0
 74
     0
  0
ENDTAB
  0
TABLE
  2
LAYER
  5
A
102
{ACAD_XDICTIONARY
360
CDB
102
}
330
0
100
AcDbSymbolTable
 70
    11
  0
LAYER
  5
4
102
{ACAD_XDICTIONARY
360
CC2
102
}
330
A
100
AcDbSymbolTableRecord
100
AcDbLayerTableRecord
  2
0
 70
     0
 62
     7
  6
CONTINUOUS
370
    -3
390
BDF
  0
LAYER
  5
48
102
{ACAD_XDICTIONARY
360
CC4
102
}
330
A
100
AcDbSymbolTableRecord
100
AcDbLayerTableRecord
  2
YKK_IN
 70
     0
 62
     1
  6
CONTINUOUS
370
    -3
390
BDF
  0
LAYER
  5
29
102
{ACAD_XDICTIONARY
360
CC6
102
}
330
A
100
AcDbSymbolTableRecord
100
AcDbLayerTableRecord
  2
YKK_F1
 70
     0
 62
     7
  6
CONTINUOUS
370
    -3
390
BDF
  0
LAYER
  5
20
102
{ACAD_XDICTIONARY
360
CC8
102
}
330
A
100
AcDbSymbolTableRecord
100
AcDbLayerTableRecord
  2
YKK_N1
 70
     0
 62
     2
  6
CONTINUOUS
370
    -3
390
BDF
  0
LAYER
  5
44
102
{ACAD_XDICTIONARY
360
CCA
102
}
330
A
100
AcDbSymbolTableRecord
100
AcDbLayerTableRecord
  2
YKK_Z1
 70
     0
 62
     7
  6
CONTINUOUS
370
    -3
390
BDF
  0
LAYER
  5
42
102
{ACAD_XDICTIONARY
360
CCC
102
}
330
A
100
AcDbSymbolTableRecord
100
AcDbLayerTableRecord
  2
YKK_A1
 70
     0
 62
     4
  6
CONTINUOUS
370
    -3
390
BDF
  0
LAYER
  5
40
102
{ACAD_XDICTIONARY
360
CCE
102
}
330
A
100
AcDbSymbolTableRecord
100
AcDbLayerTableRecord
  2
YKK_A2
 70
     0
 62
     3
  6
CONTINUOUS
370
    -3
390
BDF
  0
LAYER
  5
3E
102
{ACAD_XDICTIONARY
360
CD0
102
}
330
A
100
AcDbSymbolTableRecord
100
AcDbLayerTableRecord
  2
YKK_B1
 70
     0
 62
     4
  6
CONTINUOUS
370
    -3
390
BDF
  0
LAYER
  5
3C
102
{ACAD_XDICTIONARY
360
CD2
102
}
330
A
100
AcDbSymbolTableRecord
100
AcDbLayerTableRecord
  2
YKK_C1
 70
     0
 62
     4
  6
CONTINUOUS
370
    -3
390
BDF
  0
LAYER
  5
3A
102
{ACAD_XDICTIONARY
360
CD4
102
}
330
A
100
AcDbSymbolTableRecord
100
AcDbLayerTableRecord
  2
YKK_B2
 70
     0
 62
     5
  6
CONTINUOUS
370
    -3
390
BDF
  0
LAYER
  5
38
102
{ACAD_XDICTIONARY
360
CD6
102
}
330
A
100
AcDbSymbolTableRecord
100
AcDbLayerTableRecord
  2
YKK_C2
 70
     0
 62
     5
  6
CONTINUOUS
370
    -3
390
BDF
  0
ENDTAB
  0
TABLE
  2
STYLE
  5
B
330
0
100
AcDbSymbolTable
 70
     3
  0
STYLE
  5
C
330
B
100
AcDbSymbolTableRecord
100
AcDbTextStyleTableRecord
  2
STANDARD
 70
     0
 40
0.0
 41
1.0
 50
0.0
 71
     0
 42
0.2
  3
txt.shx
  4
bigfont.shx
  0
STYLE
  5
1E
330
B
100
AcDbSymbolTableRecord
100
AcDbTextStyleTableRecord
  2
EXTFONT
 70
     0
 40
60.0
 41
1.0
 50
0.0
 71
     0
 42
60.0
  3
txt.shx
  4
EXTFONT
  0
STYLE
  5
25
330
B
100
AcDbSymbolTableRecord
100
AcDbTextStyleTableRecord
  2
YKK_SGSTYLE1
 70
     0
 40
0.0
 41
0.8
 50
0.0
 71
     0
 42
60.0
  3
ROMANS.SHX
  4
EXTFONT.SHX
  0
ENDTAB
  0
TABLE
  2
VIEW
  5
10
330
0
100
AcDbSymbolTable
 70
     0
  0
ENDTAB
  0
TABLE
  2
UCS
  5
11
330
0
100
AcDbSymbolTable
 70
     0
  0
ENDTAB
  0
TABLE
  2
APPID
  5
14
330
0
100
AcDbSymbolTable
 70
    16
  0
APPID
  5
15
330
14
100
AcDbSymbolTableRecord
100
AcDbRegAppTableRecord
  2
ACAD
 70
     0
  0
APPID
  5
50
330
14
100
AcDbSymbolTableRecord
100
AcDbRegAppTableRecord
  2
ACDBBLOCKREPETAG
 70
     0
  0
APPID
  5
F3
330
14
100
AcDbSymbolTableRecord
100
AcDbRegAppTableRecord
  2
MYHANDLE
 70
     0
  0
APPID
  5
E4
330
14
100
AcDbSymbolTableRecord
100
AcDbRegAppTableRecord
  2
GROUP
 70
     0
  0
APPID
  5
4F
330
14
100
AcDbSymbolTableRecord
100
AcDbRegAppTableRecord
  2
YOBJCUT10512090559
 70
     0
  0
APPID
  5
C6C
330
14
100
AcDbSymbolTableRecord
100
AcDbRegAppTableRecord
  2
ACAD_MLEADERVER
 70
     0
  0
APPID
  5
C82
330
14
100
AcDbSymbolTableRecord
100
AcDbRegAppTableRecord
  2
ACAD_PSEXT
 70
     0
  0
APPID
  5
C83
330
14
100
AcDbSymbolTableRecord
100
AcDbRegAppTableRecord
  2
ACAD_NAV_VCDISPLAY
 70
     0
  0
APPID
  5
C84
330
14
100
AcDbSymbolTableRecord
100
AcDbRegAppTableRecord
  2
YKK_AP_LOCKLAYER
 70
     0
  0
APPID
  5
D88
330
14
100
AcDbSymbolTableRecord
100
AcDbRegAppTableRecord
  2
AcAecLayerStandard
 70
     0
  0
APPID
  5
D89
330
14
100
AcDbSymbolTableRecord
100
AcDbRegAppTableRecord
  2
YOBJCUT10930154517
 70
     0
  0
APPID
  5
D8A
330
14
100
AcDbSymbolTableRecord
100
AcDbRegAppTableRecord
  2
YOBJCUT10930154538
 70
     0
  0
APPID
  5
D8B
330
14
100
AcDbSymbolTableRecord
100
AcDbRegAppTableRecord
  2
YOBJCUT10930154551
 70
     0
  0
APPID
  5
D8C
330
14
100
AcDbSymbolTableRecord
100
AcDbRegAppTableRecord
  2
YOBJCUT10930154511
 70
     0
  0
APPID
  5
D8D
330
14
100
AcDbSymbolTableRecord
100
AcDbRegAppTableRecord
  2
YOBJCUT10930154627
 70
     0
  0
APPID
  5
11E7
330
14
100
AcDbSymbolTableRecord
100
AcDbRegAppTableRecord
  2
ACAD_EXEMPT_FROM_CAD_STANDARDS
 70
     0
  0
ENDTAB
  0
TABLE
  2
DIMSTYLE
  5
16
330
0
100
AcDbSymbolTable
 70
     1
100
AcDbDimStyleTable
 71
     1
340
1C
  0
DIMSTYLE
105
1C
330
16
100
AcDbSymbolTableRecord
100
AcDbDimStyleTableRecord
  2
STANDARD
 70
     0
279
     2
340
C
  0
ENDTAB
  0
TABLE
  2
BLOCK_RECORD
  5
1
330
0
100
AcDbSymbolTable
 70
     0
  0
BLOCK_RECORD
  5
2
330
1
100
AcDbSymbolTableRecord
100
AcDbBlockTableRecord
  2
*MODEL_SPACE
340
C33
  0
BLOCK_RECORD
  5
7
330
1
100
AcDbSymbolTableRecord
100
AcDbBlockTableRecord
  2
*PAPER_SPACE
340
C34
  0
ENDTAB
  0
ENDSEC
  0
SECTION
  2
BLOCKS
  0
BLOCK
  5
3
330
2
100
AcDbEntity
  8
0
100
AcDbBlockBegin
  2
*MODEL_SPACE
 70
     0
 10
0.0
 20
0.0
 30
0.0
  3
*MODEL_SPACE
  1

  0
ENDBLK
  5
6
330
2
100
AcDbEntity
  8
0
100
AcDbBlockEnd
  0
BLOCK
  5
8
330
7
100
AcDbEntity
 67
     1
  8
0
100
AcDbBlockBegin
  2
*PAPER_SPACE
 70
     0
 10
0.0
 20
0.0
 30
0.0
  3
*PAPER_SPACE
  1

  0
ENDBLK
  5
9
330
7
100
AcDbEntity
 67
     1
  8
0
100
AcDbBlockEnd
  0
ENDSEC
  0
SECTION
  2
ENTITIES
  0
LINE
  5
28
330
2
100
AcDbEntity
  8
YKK_F1
100
AcDbLine
 10
0.0
 20
19500.0
 30
0.0
 11
28500.0
 21
19500.0
 31
0.0
  0
LINE
  5
2A
330
2
100
AcDbEntity
  8
YKK_F1
100
AcDbLine
 10
0.0
 20
20000.0
 30
0.0
 11
28681.0155
 21
20000.0
 31
0.0
  0
LINE
  5
2B
330
2
100
AcDbEntity
  8
YKK_F1
100
AcDbLine
 10
0.0
 20
0.0
 30
0.0
 11
28681.0155
 21
0.0
 31
0.0
  0
LINE
  5
2C
330
2
100
AcDbEntity
  8
YKK_F1
100
AcDbLine
 10
0.0
 20
19050.0
 30
0.0
 11
28500.0
 21
19050.0
 31
0.0
  0
LINE
  5
2D
330
2
100
AcDbEntity
  8
YKK_F1
100
AcDbLine
 10
0.0
 20
18600.0
 30
0.0
 11
28500.0
 21
18600.0
 31
0.0
  0
LINE
  5
2E
330
2
100
AcDbEntity
  8
YKK_F1
100
AcDbLine
 10
0.0
 20
6500.0
 30
0.0
 11
28500.0
 21
6500.0
 31
0.0
  0
LINE
  5
2F
330
2
100
AcDbEntity
  8
YKK_F1
100
AcDbLine
 10
0.0
 20
6050.0
 30
0.0
 11
28500.0
 21
6050.0
 31
0.0
  0
LINE
  5
30
330
2
100
AcDbEntity
  8
YKK_F1
100
AcDbLine
 10
0.0
 20
5600.0
 30
0.0
 11
28500.0
 21
5600.0
 31
0.0
  0
LINE
  5
31
330
2
100
AcDbEntity
  8
YKK_F1
100
AcDbLine
 10
0.0
 20
13000.0
 30
0.0
 11
28500.0
 21
13000.0
 31
0.0
  0
LINE
  5
32
330
2
100
AcDbEntity
  8
YKK_F1
100
AcDbLine
 10
0.0
 20
12550.0
 30
0.0
 11
28500.0
 21
12550.0
 31
0.0
  0
LINE
  5
33
330
2
100
AcDbEntity
  8
YKK_F1
100
AcDbLine
 10
0.0
 20
12100.0
 30
0.0
 11
28500.0
 21
12100.0
 31
0.0
  0
LINE
  5
34
330
2
100
AcDbEntity
  8
YKK_F1
100
AcDbLine
 10
0.0
 20
0.0
 30
0.0
 11
0.0
 21
20000.0
 31
0.0
  0
LINE
  5
35
330
2
100
AcDbEntity
  8
YKK_F1
100
AcDbLine
 10
11400.0
 20
0.0
 30
0.0
 11
11400.0
 21
19500.0
 31
0.0
  0
LINE
  5
36
330
2
100
AcDbEntity
  8
YKK_F1
100
AcDbLine
 10
5700.0
 20
0.0
 30
0.0
 11
5700.0
 21
19500.0
 31
0.0
  0
POINT
  5
37
330
2
100
AcDbEntity
  8
YKK_C2
100
AcDbPoint
 10
0.0
 20
0.0
 30
0.0
  0
POINT
  5
39
330
2
100
AcDbEntity
  8
YKK_B2
100
AcDbPoint
 10
0.0
 20
0.0
 30
0.0
  0
POINT
  5
3B
330
2
100
AcDbEntity
  8
YKK_C1
100
AcDbPoint
 10
0.0
 20
0.0
 30
0.0
  0
POINT
  5
3D
330
2
100
AcDbEntity
  8
YKK_B1
100
AcDbPoint
 10
0.0
 20
0.0
 30
0.0
  0
POINT
  5
3F
330
2
100
AcDbEntity
  8
YKK_A2
100
AcDbPoint
 10
0.0
 20
0.0
 30
0.0
  0
POINT
  5
41
330
2
100
AcDbEntity
  8
YKK_A1
100
AcDbPoint
 10
0.0
 20
0.0
 30
0.0
  0
POINT
  5
43
330
2
100
AcDbEntity
  8
YKK_Z1
100
AcDbPoint
 10
0.0
 20
0.0
 30
0.0
  0
POINT
  5
45
330
2
100
AcDbEntity
  8
YKK_N1
100
AcDbPoint
 10
0.0
 20
0.0
 30
0.0
  0
POINT
  5
46
330
2
100
AcDbEntity
  8
YKK_F1
100
AcDbPoint
 10
0.0
 20
0.0
 30
0.0
  0
POINT
  5
47
330
2
100
AcDbEntity
  8
YKK_IN
100
AcDbPoint
 10
0.0
 20
0.0
 30
0.0
  0
TEXT
  5
49
330
2
100
AcDbEntity
  8
0
100
AcDbText
 10
500.0
 20
19625.0
 30
0.0
 40
250.0
  1
ＦＲＥ３１Ｅ０１　ＥＸＩＭＡ３１ｅ　ＲＣ枠　ＦＩＸ窓
  7
EXTFONT
100
AcDbText
  0
TEXT
  5
25E
330
2
100
AcDbEntity
  8
0
100
AcDbText
 10
100.0
 20
18737.5
 30
0.0
 40
175.0
  1
W＝900　H＝1,500
  7
EXTFONT
100
AcDbText
  0
TEXT
  5
25F
330
2
100
AcDbEntity
  8
0
100
AcDbText
 10
100.0
 20
19187.5
 30
0.0
 40
175.0
  1
FIX窓 FIX段窓
  7
EXTFONT
100
AcDbText
  0
LINE
  5
662
330
2
100
AcDbEntity
  8
YKK_F1
100
AcDbLine
 10
22800.0
 20
0.0
 30
0.0
 11
22800.0
 21
19500.0
 31
0.0
  0
LINE
  5
663
330
2
100
AcDbEntity
  8
YKK_F1
100
AcDbLine
 10
17100.0
 20
0.0
 30
0.0
 11
17100.0
 21
19500.0
 31
0.0
  0
LINE
  5
664
330
2
100
AcDbEntity
  8
YKK_F1
100
AcDbLine
 10
28681.0155
 20
0.0
 30
0.0
 11
28681.0155
 21
20000.0
 31
0.0
  0
LINE
  5
665
330
2
100
AcDbEntity
  8
YKK_F1
100
AcDbLine
 10
28500.0
 20
0.0
 30
0.0
 11
28500.0
 21
20000.0
 31
0.0
  0
LINE
  5
FBC
330
2
100
AcDbEntity
  8
YKK_Z1
100
AcDbLine
 10
1276.66730241
 20
13998.59592011
 30
0.0
 11
1283.32577869
 21
14005.25439639
 31
0.0
  0
LINE
  5
FBD
330
2
100
AcDbEntity
  8
YKK_Z1
100
AcDbLine
 10
1276.66730241
 20
13885.45883512
 30
0.0
 11
1373.73675475
 21
13982.52828746
 31
0.0
  0
LINE
  5
FBE
330
2
100
AcDbEntity
  8
YKK_Z1
100
AcDbLine
 10
1389.8043874
 20
13885.45883512
 30
0.0
 11
1479.59995082
 21
13975.25439855
 31
0.0
  0
LINE
  5
FBF
330
2
100
AcDbEntity
  8
YKK_Z1
100
AcDbLine
 10
1502.94147239
 20
13885.45883512
 30
0.0
 11
1622.73703581
 21
14005.25439855
 31
0.0
  0
LINE
  5
FC0
330
2
100
AcDbEntity
  8
YKK_Z1
100
AcDbLine
 10
1616.07855738
 20
13885.45883512
 30
0.0
 11
1671.67793576
 21
13941.0582135
 31
0.0
  0
LINE
  5
FC1
330
2
100
AcDbEntity
  8
YKK_Z1
100
AcDbLine
 10
1276.66730241
 20
13994.35332011
 30
0.0
 11
1287.56837869
 21
14005.25439639
 31
0.0
  0
LINE
  5
FC2
330
2
100
AcDbEntity
  8
YKK_Z1
100
AcDbLine
 10
1280.90990241
 20
13885.45883512
 30
0.0
 11
1375.28965413
 21
13979.83858684
 31
0.0
  0
LINE
  5
FC3
330
2
100
AcDbEntity
  8
YKK_Z1
100
AcDbLine
 10
1394.0469874
 20
13885.45883512
 30
0.0
 11
1483.84255082
 21
13975.25439855
 31
0.0
  0
LINE
  5
FC4
330
2
100
AcDbEntity
  8
YKK_Z1
100
AcDbLine
 10
1507.18407239
 20
13885.45883512
 30
0.0
 11
1626.97963581
 21
14005.25439855
 31
0.0
  0
LINE
  5
FC5
330
2
100
AcDbEntity
  8
YKK_Z1
100
AcDbLine
 10
1620.32115738
 20
13885.45883512
 30
0.0
 11
1671.69738826
 21
13936.835066
 31
0.0
  0
LINE
  5
FC6
330
2
100
AcDbEntity
  8
YKK_Z1
100
AcDbLine
 10
1276.66730241
 20
13984.45382011
 30
0.0
 11
1297.46787869
 21
14005.25439639
 31
0.0
  0
LINE
  5
FC7
330
2
100
AcDbEntity
  8
YKK_Z1
100
AcDbLine
 10
1290.80940241
 20
13885.45883512
 30
0.0
 11
1380.60496583
 21
13975.25439855
 31
0.0
  0
LINE
  5
FC8
330
2
100
AcDbEntity
  8
YKK_Z1
100
AcDbLine
 10
1403.9464874
 20
13885.45883512
 30
0.0
 11
1493.74205082
 21
13975.25439855
 31
0.0
  0
LINE
  5
FC9
330
2
100
AcDbEntity
  8
YKK_Z1
100
AcDbLine
 10
1517.08357239
 20
13885.45883512
 30
0.0
 11
1636.87913581
 21
14005.25439855
 31
0.0
  0
LINE
  5
FCA
330
2
100
AcDbEntity
  8
YKK_Z1
100
AcDbLine
 10
1630.22065738
 20
13885.45883512
 30
0.0
 11
1671.74277789
 21
13926.98095563
 31
0.0
  0
LINE
  5
FCB
330
2
100
AcDbEntity
  8
YKK_Z1
  6
Continuous
 48
1.5
370
    13
100
AcDbLine
 10
2987.49999843
 20
17747.00850876
 30
0.0
 11
2889.10309004
 21
17747.00850876
 31
0.0
  0
LINE
  5
FCC
330
2
100
AcDbEntity
  8
YKK_Z1
  6
Continuous
 48
1.5
370
    13
100
AcDbLine
 10
2987.49999843
 20
17735.50850876
 30
0.0
 11
2987.49999843
 21
17747.00850876
 31
0.0
  0
LINE
  5
FCD
330
2
100
AcDbEntity
  8
YKK_Z1
  6
Continuous
 48
1.5
370
    13
100
AcDbLine
 10
2889.10309004
 20
17735.50850876
 30
0.0
 11
2987.49999843
 21
17735.50850876
 31
0.0
  0
LINE
  5
FCE
330
2
100
AcDbEntity
  8
YKK_Z1
  6
Continuous
 48
1.5
370
    13
100
AcDbLine
 10
2987.99999843
 20
17747.50850876
 30
0.0
 11
2889.10309004
 21
17747.50850876
 31
0.0
  0
LINE
  5
FCF
330
2
100
AcDbEntity
  8
YKK_Z1
  6
Continuous
 48
1.5
370
    13
100
AcDbLine
 10
2987.99999843
 20
17735.00850876
 30
0.0
 11
2987.99999843
 21
17747.50850876
 31
0.0
  0
LINE
  5
FD0
330
2
100
AcDbEntity
  8
YKK_Z1
  6
Continuous
 48
1.5
370
    13
100
AcDbLine
 10
2889.10309004
 20
17735.00850876
 30
0.0
 11
2987.99999843
 21
17735.00850876
 31
0.0
  0
LINE
  5
FD1
330
2
100
AcDbEntity
  8
YKK_Z1
  6
Continuous
 48
1.5
370
    13
100
AcDbLine
 10
1545.98170613
 20
15597.25591241
 30
0.0
 11
1545.98170613
 21
15688.52072378
 31
0.0
  0
LINE
  5
FD2
330
2
100
AcDbEntity
  8
YKK_Z1
  6
Continuous
 48
1.5
370
    13
100
AcDbLine
 10
1534.48170613
 20
15597.25591241
 30
0.0
 11
1545.98170613
 21
15597.25591241
 31
0.0
  0
LINE
  5
FD3
330
2
100
AcDbEntity
  8
YKK_Z1
  6
Continuous
 48
1.5
370
    13
100
AcDbLine
 10
1534.48170613
 20
15688.52072378
 30
0.0
 11
1534.48170613
 21
15597.25591241
 31
0.0
  0
LINE
  5
FD4
330
2
100
AcDbEntity
  8
YKK_Z1
  6
Continuous
 48
1.5
370
    13
100
AcDbLine
 10
1546.48170613
 20
15596.75591241
 30
0.0
 11
1546.48170613
 21
15688.52072378
 31
0.0
  0
LINE
  5
FD5
330
2
100
AcDbEntity
  8
YKK_Z1
  6
Continuous
 48
1.5
370
    13
100
AcDbLine
 10
1533.98170613
 20
15596.75591241
 30
0.0
 11
1546.48170613
 21
15596.75591241
 31
0.0
  0
LINE
  5
FD6
330
2
100
AcDbEntity
  8
YKK_Z1
  6
Continuous
 48
1.5
370
    13
100
AcDbLine
 10
1533.98170613
 20
15688.52072378
 30
0.0
 11
1533.98170613
 21
15596.75591241
 31
0.0
  0
LINE
  5
FD7
330
2
100
AcDbEntity
  8
YKK_Z1
  6
Continuous
 48
1.5
370
    13
100
AcDbLine
 10
1547.34787921
 20
14005.25439855
 30
0.0
 11
1671.38223773
 21
14005.25439855
 31
0.0
  0
LINE
  5
FD8
330
2
100
AcDbEntity
  8
YKK_Z1
  6
Continuous
 48
1.5
370
    13
100
AcDbLine
 10
1530.02737113
 20
13975.25439855
 30
0.0
 11
1547.34787921
 21
14005.25439855
 31
0.0
  0
LINE
  5
FD9
330
2
100
AcDbEntity
  8
YKK_Z1
  6
Continuous
 48
1.5
370
    13
100
AcDbLine
 10
1377.93633647
 20
13975.25439855
 30
0.0
 11
1530.02737113
 21
13975.25439855
 31
0.0
  0
LINE
  5
FDA
330
2
100
AcDbEntity
  8
YKK_Z1
  6
Continuous
 48
1.5
370
    13
100
AcDbLine
 10
1360.61582964
 20
14005.25439639
 30
0.0
 11
1377.93633647
 21
13975.25439855
 31
0.0
  0
LINE
  5
FDB
330
2
100
AcDbEntity
  8
YKK_Z1
  6
Continuous
 48
1.5
370
    13
100
AcDbLine
 10
1276.66730241
 20
14005.25439639
 30
0.0
 11
1360.61582964
 21
14005.25439639
 31
0.0
  0
LINE
  5
FDC
330
2
100
AcDbEntity
  8
YKK_Z1
  6
Continuous
 48
1.5
370
    13
100
AcDbLine
 10
1546.4818538
 20
14006.75439855
 30
0.0
 11
1672.8753444
 21
14006.75439855
 31
0.0
  0
LINE
  5
FDD
330
2
100
AcDbEntity
  8
YKK_Z1
  6
Continuous
 48
1.5
370
    13
100
AcDbLine
 10
1529.16134573
 20
13976.75439855
 30
0.0
 11
1546.4818538
 21
14006.75439855
 31
0.0
  0
LINE
  5
FDE
330
2
100
AcDbEntity
  8
YKK_Z1
  6
Continuous
 48
1.5
370
    13
100
AcDbLine
 10
1378.80236188
 20
13976.75439855
 30
0.0
 11
1529.16134573
 21
13976.75439855
 31
0.0
  0
LINE
  5
FDF
330
2
100
AcDbEntity
  8
YKK_Z1
  6
Continuous
 48
1.5
370
    13
100
AcDbLine
 10
1361.48185505
 20
14006.75439639
 30
0.0
 11
1378.80236188
 21
13976.75439855
 31
0.0
  0
LINE
  5
FE0
330
2
100
AcDbEntity
  8
YKK_Z1
  6
Continuous
 48
1.5
370
    13
100
AcDbLine
 10
1276.66730241
 20
14006.75439639
 30
0.0
 11
1361.48185505
 21
14006.75439639
 31
0.0
  0
LINE
  5
FE1
330
2
100
AcDbEntity
  8
YKK_C1
  6
YHIDDEN_1
 48
1.5
370
    13
100
AcDbLine
 10
1426.4818538
 20
14031.75439639
 30
0.0
 11
1496.4818538
 21
14031.75439639
 31
0.0
  0
LINE
  5
FE2
330
2
100
AcDbEntity
  8
YKK_C1
  6
YHIDDEN_1
 48
1.5
370
    13
100
AcDbLine
 10
1496.4818538
 20
14056.75439639
 30
0.0
 11
1496.4818538
 21
14031.75439639
 31
0.0
  0
LINE
  5
FE3
330
2
100
AcDbEntity
  8
YKK_C1
  6
YHIDDEN_1
 48
1.5
370
    13
100
AcDbLine
 10
1426.4818538
 20
14056.75439638
 30
0.0
 11
1426.4818538
 21
14031.75439639
 31
0.0
  0
LINE
  5
FE4
330
2
100
AcDbEntity
  8
YKK_Z1
  6
Continuous
 48
1.5
370
    30
100
AcDbLine
 10
1346.48186937
 20
15581.75432576
 30
0.0
 11
1346.48186937
 21
15688.28924983
 31
0.0
  0
LINE
  5
FE5
330
2
100
AcDbEntity
  8
YKK_Z1
  6
Continuous
 48
1.5
370
    30
100
AcDbLine
 10
1411.48186937
 20
15571.75432576
 30
0.0
 11
1356.48186937
 21
15571.75432576
 31
0.0
  0
LINE
  5
FE6
330
2
100
AcDbEntity
  8
YKK_Z1
  6
Continuous
 48
1.5
370
    30
100
AcDbLine
 10
1422.73186937
 20
15616.75432576
 30
0.0
 11
1411.48186937
 21
15571.75432576
 31
0.0
  0
LINE
  5
FE7
330
2
100
AcDbEntity
  8
YKK_Z1
  6
Continuous
 48
1.5
370
    30
100
AcDbLine
 10
1422.73186937
 20
15616.75432576
 30
0.0
 11
1496.48186937
 21
15616.75432576
 31
0.0
  0
LINE
  5
FE8
330
2
100
AcDbEntity
  8
YKK_Z1
  6
Continuous
 48
1.5
370
    30
100
AcDbLine
 10
1496.48186937
 20
15688.28924983
 30
0.0
 11
1496.48186937
 21
15616.75432576
 31
0.0
  0
LINE
  5
FE9
330
2
100
AcDbEntity
  8
YKK_Z1
  6
Continuous
 48
1.5
370
    30
100
AcDbLine
 10
1346.48186937
 20
15581.75432576
 30
0.0
 11
1356.48186937
 21
15571.75432576
 31
0.0
  0
LINE
  5
FEA
330
2
100
AcDbEntity
  8
YKK_Z1
  6
Continuous
 48
1.5
370
    13
100
AcDbLine
 10
1347.98186937
 20
15582.3756461
 30
0.0
 11
1357.10318972
 21
15573.25432576
 31
0.0
  0
LINE
  5
FEB
330
2
100
AcDbEntity
  8
YKK_Z1
  6
Continuous
 48
1.5
370
    13
100
AcDbLine
 10
1347.98186937
 20
15688.28924983
 30
0.0
 11
1347.98186937
 21
15582.3756461
 31
0.0
  0
LINE
  5
FEC
330
2
100
AcDbEntity
  8
YKK_Z1
  6
Continuous
 48
1.5
370
    13
100
AcDbLine
 10
1357.10318972
 20
15573.25432576
 30
0.0
 11
1410.31070476
 21
15573.25432576
 31
0.0
  0
LINE
  5
FED
330
2
100
AcDbEntity
  8
YKK_Z1
  6
Continuous
 48
1.5
370
    13
100
AcDbLine
 10
1410.31070476
 20
15573.25432576
 30
0.0
 11
1421.56070476
 21
15618.25432576
 31
0.0
  0
LINE
  5
FEE
330
2
100
AcDbEntity
  8
YKK_Z1
  6
Continuous
 48
1.5
370
    13
100
AcDbLine
 10
1494.98186937
 20
15618.25432576
 30
0.0
 11
1494.98186937
 21
15688.28924983
 31
0.0
  0
LINE
  5
FEF
330
2
100
AcDbEntity
  8
YKK_Z1
  6
Continuous
 48
1.5
370
    13
100
AcDbLine
 10
1421.56070476
 20
15618.25432576
 30
0.0
 11
1494.98186937
 21
15618.25432576
 31
0.0
  0
LINE
  5
FF0
330
2
100
AcDbEntity
  8
YKK_Z1
  6
Continuous
 48
1.5
370
    30
100
AcDbLine
 10
1426.03186937
 20
15572.20432576
 30
0.0
 11
1411.93186937
 21
15572.20432576
 31
0.0
  0
LINE
  5
FF1
330
2
100
AcDbEntity
  8
YKK_Z1
  6
Continuous
 48
1.5
370
    30
100
AcDbLine
 10
1426.48186937
 20
15571.75432576
 30
0.0
 11
1426.03186937
 21
15572.20432576
 31
0.0
  0
LINE
  5
FF2
330
2
100
AcDbEntity
  8
YKK_Z1
  6
Continuous
 48
1.5
370
    30
100
AcDbLine
 10
1411.48186937
 20
15571.75432576
 30
0.0
 11
1411.93186937
 21
15572.20432576
 31
0.0
  0
LINE
  5
FF3
330
2
100
AcDbEntity
  8
YKK_Z1
  6
Continuous
 48
1.5
370
    13
100
AcDbLine
 10
1414.3102965
 20
15581.75432576
 30
0.0
 11
1413.87239366
 21
15581.31642293
 31
0.0
  0
LINE
  5
FF4
330
2
100
AcDbEntity
  8
YKK_Z1
  6
Continuous
 48
1.5
370
    13
100
AcDbLine
 10
1419.96715075
 20
15581.75432576
 30
0.0
 11
1411.98677558
 21
15573.77395059
 31
0.0
  0
LINE
  5
FF5
330
2
100
AcDbEntity
  8
YKK_Z1
  6
Continuous
 48
1.5
370
    13
100
AcDbLine
 10
1425.624005
 20
15581.75432576
 30
0.0
 11
1416.074005
 21
15572.20432576
 31
0.0
  0
LINE
  5
FF6
330
2
100
AcDbEntity
  8
YKK_Z1
  6
Continuous
 48
1.5
370
    13
100
AcDbLine
 10
1426.48186937
 20
15576.95533589
 30
0.0
 11
1421.73085925
 21
15572.20432576
 31
0.0
  0
LINE
  5
FF7
330
2
100
AcDbEntity
  8
YKK_Z1
  6
Continuous
 48
1.5
370
    13
100
AcDbLine
 10
1347.98186937
 20
15611.79641662
 30
0.0
 11
1424.47470258
 21
15688.28924983
 31
0.0
  0
LINE
  5
FF8
330
2
100
AcDbEntity
  8
YKK_Z1
  6
Continuous
 48
1.5
370
    13
100
AcDbLine
 10
1347.98186937
 20
15607.55377593
 30
0.0
 11
1428.71734327
 21
15688.28924983
 31
0.0
  0
LINE
  5
FF9
330
2
100
AcDbEntity
  8
YKK_Z1
  6
Continuous
 48
1.5
370
    13
100
AcDbLine
 10
1347.98186937
 20
15597.65428099
 30
0.0
 11
1438.61683821
 21
15688.28924983
 31
0.0
  0
LINE
  5
FFA
330
2
100
AcDbEntity
  8
YKK_Z1
  6
Continuous
 48
1.5
370
    13
100
AcDbLine
 10
1453.43472788
 20
15618.25432576
 30
0.0
 11
1494.98186937
 21
15659.80146725
 31
0.0
  0
LINE
  5
FFB
330
2
100
AcDbEntity
  8
YKK_Z1
  6
Continuous
 48
1.5
370
    13
100
AcDbLine
 10
1457.67736857
 20
15618.25432576
 30
0.0
 11
1494.98186937
 21
15655.55882656
 31
0.0
  0
LINE
  5
FFC
330
2
100
AcDbEntity
  8
YKK_Z1
  6
Continuous
 48
1.5
370
    13
100
AcDbLine
 10
1467.57686351
 20
15618.25432576
 30
0.0
 11
1494.98186937
 21
15645.65933163
 31
0.0
  0
LINE
  5
FFD
330
2
100
AcDbEntity
  8
YKK_Z1
  6
Continuous
 48
1.5
370
    30
100
AcDbLine
 10
1421.48185382
 20
14047.75439639
 30
0.0
 11
1321.48185382
 21
14047.75439639
 31
0.0
  0
LINE
  5
FFE
330
2
100
AcDbEntity
  8
YKK_Z1
  6
Continuous
 48
1.5
370
    30
100
AcDbLine
 10
1321.48185382
 20
14047.75439639
 30
0.0
 11
1321.48185382
 21
14056.75439639
 31
0.0
  0
LINE
  5
FFF
330
2
100
AcDbEntity
  8
YKK_Z1
  6
Continuous
 48
1.5
370
    30
100
AcDbLine
 10
1321.48185382
 20
14056.75439639
 30
0.0
 11
1421.48185382
 21
14056.75439639
 31
0.0
  0
LINE
  5
1000
330
2
100
AcDbEntity
  8
YKK_Z1
  6
Continuous
 48
1.5
370
    30
100
AcDbLine
 10
1421.48185382
 20
14056.75439639
 30
0.0
 11
1421.48185382
 21
14047.75439639
 31
0.0
  0
LINE
  5
1001
330
2
100
AcDbEntity
  8
YKK_Z1
  6
Continuous
 48
1.5
370
    30
100
AcDbLine
 10
1313.48185382
 20
14047.75439639
 30
0.0
 11
1275.16730241
 21
14047.75439639
 31
0.0
  0
LINE
  5
1002
330
2
100
AcDbEntity
  8
YKK_Z1
  6
Continuous
 48
1.5
370
    30
100
AcDbLine
 10
1275.16730241
 20
14056.75439639
 30
0.0
 11
1313.48185382
 21
14056.75439639
 31
0.0
  0
LINE
  5
1003
330
2
100
AcDbEntity
  8
YKK_Z1
  6
Continuous
 48
1.5
370
    30
100
AcDbLine
 10
1313.48185382
 20
14056.75439639
 30
0.0
 11
1313.48185382
 21
14047.75439639
 31
0.0
  0
LINE
  5
1004
330
2
100
AcDbEntity
  8
YKK_Z1
  6
Continuous
 48
1.5
370
    30
100
AcDbLine
 10
1321.48185382
 20
14052.75439639
 30
0.0
 11
1313.48185382
 21
14052.75439639
 31
0.0
  0
LINE
  5
1005
330
2
100
AcDbEntity
  8
YKK_Z1
  6
Continuous
 48
1.5
370
    13
100
AcDbLine
 10
1421.78185382
 20
14056.45439639
 30
0.0
 11
1426.4818538
 21
14056.45439639
 31
0.0
  0
LINE
  5
1006
330
2
100
AcDbEntity
  8
YKK_Z1
  6
Continuous
 48
1.5
370
    13
100
AcDbLine
 10
1421.48185382
 20
14056.75439639
 30
0.0
 11
1421.78185382
 21
14056.45439639
 31
0.0
  0
LINE
  5
1007
330
2
100
AcDbEntity
  8
YKK_Z1
  6
Continuous
 48
1.5
370
    13
100
AcDbLine
 10
1422.99657244
 20
14046.75439639
 30
0.0
 11
1426.48185347
 21
14050.23967741
 31
0.0
  0
LINE
  5
1008
330
2
100
AcDbEntity
  8
YKK_Z1
  6
Continuous
 48
1.5
370
    13
100
AcDbLine
 10
1421.48185382
 20
14050.89653201
 30
0.0
 11
1426.48185377
 21
14055.89653197
 31
0.0
  0
LINE
  5
1009
330
2
100
AcDbEntity
  8
YKK_Z1
  6
Continuous
 48
1.5
370
    13
100
AcDbLine
 10
1421.48185382
 20
14056.55338626
 30
0.0
 11
1421.58235888
 21
14056.65389133
 31
0.0
  0
LINE
  5
100A
330
2
100
AcDbEntity
  8
YKK_Z1
  6
Continuous
 48
1.5
370
    30
100
AcDbLine
 10
1486.48185411
 20
14047.75439855
 30
0.0
 11
1586.48185411
 21
14047.75439855
 31
0.0
  0
LINE
  5
100B
330
2
100
AcDbEntity
  8
YKK_Z1
  6
Continuous
 48
1.5
370
    30
100
AcDbLine
 10
1586.48185411
 20
14047.75439855
 30
0.0
 11
1586.48185411
 21
14056.75439855
 31
0.0
  0
LINE
  5
100C
330
2
100
AcDbEntity
  8
YKK_Z1
  6
Continuous
 48
1.5
370
    30
100
AcDbLine
 10
1586.48185411
 20
14056.75439855
 30
0.0
 11
1486.48185411
 21
14056.75439855
 31
0.0
  0
LINE
  5
100D
330
2
100
AcDbEntity
  8
YKK_Z1
  6
Continuous
 48
1.5
370
    30
100
AcDbLine
 10
1486.48185411
 20
14056.75439855
 30
0.0
 11
1486.48185411
 21
14047.75439855
 31
0.0
  0
LINE
  5
100E
330
2
100
AcDbEntity
  8
YKK_Z1
  6
Continuous
 48
1.5
370
    30
100
AcDbLine
 10
1594.48185411
 20
14047.75439855
 30
0.0
 11
1672.8753444
 21
14047.75439855
 31
0.0
  0
LINE
  5
100F
330
2
100
AcDbEntity
  8
YKK_Z1
  6
Continuous
 48
1.5
370
    30
100
AcDbLine
 10
1672.8753444
 20
14056.75439855
 30
0.0
 11
1594.48185411
 21
14056.75439855
 31
0.0
  0
LINE
  5
1010
330
2
100
AcDbEntity
  8
YKK_Z1
  6
Continuous
 48
1.5
370
    30
100
AcDbLine
 10
1594.48185411
 20
14056.75439855
 30
0.0
 11
1594.48185411
 21
14047.75439855
 31
0.0
  0
LINE
  5
1011
330
2
100
AcDbEntity
  8
YKK_Z1
  6
Continuous
 48
1.5
370
    30
100
AcDbLine
 10
1586.48185411
 20
14052.75439855
 30
0.0
 11
1594.48185411
 21
14052.75439855
 31
0.0
  0
LINE
  5
1012
330
2
100
AcDbEntity
  8
YKK_Z1
  6
Continuous
 48
1.5
370
    13
100
AcDbLine
 10
1486.18185406
 20
14056.45439315
 30
0.0
 11
1481.4818538
 21
14056.45439315
 31
0.0
  0
LINE
  5
1013
330
2
100
AcDbEntity
  8
YKK_Z1
  6
Continuous
 48
1.5
370
    13
100
AcDbLine
 10
1486.48185406
 20
14056.75439315
 30
0.0
 11
1486.18185406
 21
14056.45439315
 31
0.0
  0
LINE
  5
1014
330
2
100
AcDbEntity
  8
YKK_Z1
  6
Continuous
 48
1.5
370
    13
100
AcDbLine
 10
1486.48185406
 20
14056.55338303
 30
0.0
 11
1486.38134899
 21
14056.65388809
 31
0.0
  0
LINE
  5
1015
330
2
100
AcDbEntity
  8
YKK_Z1
  6
Continuous
 48
1.5
370
    13
100
AcDbLine
 10
1486.48185406
 20
14052.4112474
 30
0.0
 11
1481.4818538
 21
14047.41124715
 31
0.0
  0
LINE
  5
1016
330
2
100
AcDbEntity
  8
YKK_Z1
  6
Continuous
 48
1.5
370
    13
100
AcDbLine
 10
1484.86814556
 20
14056.45439315
 30
0.0
 11
1481.4818538
 21
14053.0681014
 31
0.0
  0
LINE
  5
1017
330
2
100
AcDbEntity
  8
YKK_Z1
  6
Continuous
 48
1.5
370
    30
100
AcDbLine
 10
3002.99999966
 20
17935.00833681
 30
0.0
 11
2889.10309004
 21
17935.00833681
 31
0.0
  0
LINE
  5
1018
330
2
100
AcDbEntity
  8
YKK_Z1
  6
Continuous
 48
1.5
370
    30
100
AcDbLine
 10
3012.99999966
 20
17870.00833681
 30
0.0
 11
3012.99999966
 21
17925.00833681
 31
0.0
  0
LINE
  5
1019
330
2
100
AcDbEntity
  8
YKK_Z1
  6
Continuous
 48
1.5
370
    30
100
AcDbLine
 10
2967.99999966
 20
17858.75833681
 30
0.0
 11
3012.99999966
 21
17870.00833681
 31
0.0
  0
LINE
  5
101A
330
2
100
AcDbEntity
  8
YKK_Z1
  6
Continuous
 48
1.5
370
    30
100
AcDbLine
 10
2967.99999966
 20
17858.75833681
 30
0.0
 11
2967.99999966
 21
17785.00866695
 31
0.0
  0
LINE
  5
101B
330
2
100
AcDbEntity
  8
YKK_Z1
  6
Continuous
 48
1.5
370
    30
100
AcDbLine
 10
2888.91110533
 20
17785.00833681
 30
0.0
 11
2967.99999966
 21
17785.00833681
 31
0.0
  0
LINE
  5
101C
330
2
100
AcDbEntity
  8
YKK_Z1
  6
Continuous
 48
1.5
370
    30
100
AcDbLine
 10
3002.99999966
 20
17935.00833681
 30
0.0
 11
3012.99999966
 21
17925.00833681
 31
0.0
  0
LINE
  5
101D
330
2
100
AcDbEntity
  8
YKK_Z1
  6
Continuous
 48
1.5
370
    13
100
AcDbLine
 10
3002.37867932
 20
17933.50833681
 30
0.0
 11
3011.49999966
 21
17924.38701646
 31
0.0
  0
LINE
  5
101E
330
2
100
AcDbEntity
  8
YKK_Z1
  6
Continuous
 48
1.5
370
    13
100
AcDbLine
 10
2889.10309004
 20
17933.50833681
 30
0.0
 11
3002.37867932
 21
17933.50833681
 31
0.0
  0
LINE
  5
101F
330
2
100
AcDbEntity
  8
YKK_Z1
  6
Continuous
 48
1.5
370
    13
100
AcDbLine
 10
3011.49999966
 20
17924.59412324
 30
0.0
 11
3011.49999966
 21
17871.17950142
 31
0.0
  0
LINE
  5
1020
330
2
100
AcDbEntity
  8
YKK_Z1
  6
Continuous
 48
1.5
370
    13
100
AcDbLine
 10
3011.49999966
 20
17871.17950142
 30
0.0
 11
2966.49999966
 21
17859.92950142
 31
0.0
  0
LINE
  5
1021
330
2
100
AcDbEntity
  8
YKK_Z1
  6
Continuous
 48
1.5
370
    13
100
AcDbLine
 10
2966.49999966
 20
17786.50833681
 30
0.0
 11
2889.10309004
 21
17786.50833681
 31
0.0
  0
LINE
  5
1022
330
2
100
AcDbEntity
  8
YKK_Z1
  6
Continuous
 48
1.5
370
    13
100
AcDbLine
 10
2966.49999966
 20
17859.92950142
 30
0.0
 11
2966.49999966
 21
17786.50833681
 31
0.0
  0
LINE
  5
1023
330
2
100
AcDbEntity
  8
YKK_Z1
  6
Continuous
 48
1.5
370
    30
100
AcDbLine
 10
3012.54999966
 20
17855.45833681
 30
0.0
 11
3012.54999966
 21
17869.55833681
 31
0.0
  0
LINE
  5
1024
330
2
100
AcDbEntity
  8
YKK_Z1
  6
Continuous
 48
1.5
370
    30
100
AcDbLine
 10
3012.99999966
 20
17855.00833681
 30
0.0
 11
3012.54999966
 21
17855.45833681
 31
0.0
  0
LINE
  5
1025
330
2
100
AcDbEntity
  8
YKK_Z1
  6
Continuous
 48
1.5
370
    30
100
AcDbLine
 10
3012.99999966
 20
17870.00833681
 30
0.0
 11
3012.54999966
 21
17869.55833681
 31
0.0
  0
LINE
  5
1026
330
2
100
AcDbEntity
  8
YKK_Z1
  6
Continuous
 48
1.5
370
    13
100
AcDbLine
 10
3002.99999966
 20
17867.17990968
 30
0.0
 11
3003.43790249
 21
17867.61781252
 31
0.0
  0
LINE
  5
1027
330
2
100
AcDbEntity
  8
YKK_Z1
  6
Continuous
 48
1.5
370
    13
100
AcDbLine
 10
3002.99999966
 20
17861.52305543
 30
0.0
 11
3010.98037483
 21
17869.5034306
 31
0.0
  0
LINE
  5
1028
330
2
100
AcDbEntity
  8
YKK_Z1
  6
Continuous
 48
1.5
370
    13
100
AcDbLine
 10
3002.99999966
 20
17855.86620118
 30
0.0
 11
3012.54999966
 21
17865.41620118
 31
0.0
  0
LINE
  5
1029
330
2
100
AcDbEntity
  8
YKK_Z1
  6
Continuous
 48
1.5
370
    13
100
AcDbLine
 10
3007.79898953
 20
17855.00833681
 30
0.0
 11
3012.54999966
 21
17859.75934693
 31
0.0
  0
LINE
  5
102A
330
2
100
AcDbEntity
  8
YKK_Z1
  6
Continuous
 48
1.5
370
    13
100
AcDbLine
 10
2889.10309004
 20
17877.46877236
 30
0.0
 11
2945.14265449
 21
17933.50833681
 31
0.0
  0
LINE
  5
102B
330
2
100
AcDbEntity
  8
YKK_Z1
  6
Continuous
 48
1.5
370
    13
100
AcDbLine
 10
2889.10309004
 20
17873.22613167
 30
0.0
 11
2949.38529517
 21
17933.50833681
 31
0.0
  0
LINE
  5
102C
330
2
100
AcDbEntity
  8
YKK_Z1
  6
Continuous
 48
1.5
370
    13
100
AcDbLine
 10
2889.10309004
 20
17863.32663674
 30
0.0
 11
2959.28479011
 21
17933.50833681
 31
0.0
  0
LINE
  5
102D
330
2
100
AcDbEntity
  8
YKK_Z1
  6
Continuous
 48
1.5
370
    13
100
AcDbLine
 10
2897.13760385
 20
17786.50833681
 30
0.0
 11
2966.49999966
 21
17855.87073261
 31
0.0
  0
LINE
  5
102E
330
2
100
AcDbEntity
  8
YKK_Z1
  6
Continuous
 48
1.5
370
    13
100
AcDbLine
 10
2901.38024454
 20
17786.50833681
 30
0.0
 11
2966.49999966
 21
17851.62809193
 31
0.0
  0
LINE
  5
102F
330
2
100
AcDbEntity
  8
YKK_Z1
  6
Continuous
 48
1.5
370
    13
100
AcDbLine
 10
2911.27973948
 20
17786.50833681
 30
0.0
 11
2966.49999966
 21
17841.72859699
 31
0.0
  0
LINE
  5
1030
330
2
100
AcDbEntity
  8
YKK_Z1
  6
Continuous
 48
1.5
370
    13
100
AcDbLine
 10
1426.7818538
 20
14041.75439639
 30
0.0
 11
1361.54956582
 21
14006.6371179
 31
0.0
  0
LINE
  5
1031
330
2
100
AcDbEntity
  8
YKK_Z1
  6
Continuous
 48
1.5
370
    13
100
AcDbLine
 10
1481.4818538
 20
14042.05439639
 30
0.0
 11
1546.4818538
 21
14006.75439855
 31
0.0
  0
LINE
  5
1032
330
2
100
AcDbEntity
  8
YKK_Z1
  6
Continuous
 48
1.5
370
    13
100
AcDbLine
 10
1498.2818538
 20
15578.55766332
 30
0.0
 11
1519.6378575
 21
15599.91366701
 31
0.0
  0
LINE
  5
1033
330
2
100
AcDbEntity
  8
YKK_Z1
  6
Continuous
 48
1.5
370
    13
100
AcDbLine
 10
1520.08280689
 20
15573.15589869
 30
0.0
 11
1516.8647185
 21
15576.37398708
 31
0.0
  0
LINE
  5
1034
330
2
100
AcDbEntity
  8
YKK_Z1
  6
Continuous
 48
1.5
370
    13
100
AcDbLine
 10
1515.8849226
 20
15577.35378297
 30
0.0
 11
1496.4818591
 21
15596.75684648
 31
0.0
  0
LINE
  5
1035
330
2
100
AcDbEntity
  8
YKK_Z1
  6
Continuous
 48
1.5
370
    13
100
AcDbLine
 10
1521.09366066
 20
15592.14504492
 30
0.0
 11
1496.48144803
 21
15616.75725755
 31
0.0
  0
LINE
  5
1036
330
2
100
AcDbEntity
  8
YKK_Z1
  6
Continuous
 48
1.5
370
    13
100
AcDbLine
 10
1496.48184584
 20
15596.75765536
 30
0.0
 11
1516.48144803
 21
15616.75725755
 31
0.0
  0
LINE
  5
1037
330
2
100
AcDbEntity
  8
YKK_Z1
  6
Continuous
 48
1.5
370
    30
100
AcDbLine
 10
1524.62515632
 20
15573.29987686
 30
0.0
 11
1516.48144803
 21
15616.75725755
 31
0.0
1001
YOBJCUT10930154517
1000
DET1
1001
YOBJCUT10930154538
1000
DET1
1001
YOBJCUT10930154551
1000
DET1
  0
LINE
  5
1038
330
2
100
AcDbEntity
  8
YKK_Z1
  6
Continuous
 48
1.5
370
    13
100
AcDbLine
 10
1513.02489364
 20
15573.30070315
 30
0.0
 11
1515.8176041
 21
15576.09341362
 31
0.0
  0
LINE
  5
1039
330
2
100
AcDbEntity
  8
YKK_Z1
  6
Continuous
 48
1.5
370
    13
100
AcDbLine
 10
1517.51466038
 20
15577.79046989
 30
0.0
 11
1517.82426188
 21
15578.1000714
 31
0.0
  0
LINE
  5
103A
330
2
100
AcDbEntity
  8
YKK_Z1
  6
Continuous
 48
1.5
370
    13
100
AcDbLine
 10
1518.26634732
 20
15578.54215684
 30
0.0
 11
1518.28008687
 21
15578.55589639
 31
0.0
  0
LINE
  5
103B
330
2
100
AcDbEntity
  8
YKK_Z1
  6
Continuous
 48
1.5
370
    13
100
AcDbLine
 10
1519.28008687
 20
15579.55589639
 30
0.0
 11
1522.79426697
 21
15583.07007648
 31
0.0
  0
LINE
  5
103C
330
2
100
AcDbEntity
  8
YKK_Z1
  6
Continuous
 48
1.5
370
    13
100
AcDbLine
 10
1496.48144803
 20
15616.75725755
 30
0.0
 11
1516.48144803
 21
15636.75725755
 31
0.0
  0
LINE
  5
103D
330
2
100
AcDbEntity
  8
YKK_Z1
  6
Continuous
 48
1.5
370
    13
100
AcDbLine
 10
1516.48144803
 20
15616.75725755
 30
0.0
 11
1496.48144803
 21
15636.75725755
 31
0.0
  0
LINE
  5
103E
330
2
100
AcDbEntity
  8
YKK_Z1
  6
Continuous
 48
1.5
370
    13
100
AcDbLine
 10
1516.48144803
 20
15636.75725755
 30
0.0
 11
1496.48144803
 21
15656.75725755
 31
0.0
  0
LINE
  5
103F
330
2
100
AcDbEntity
  8
YKK_Z1
  6
Continuous
 48
1.5
370
    13
100
AcDbLine
 10
1516.48144803
 20
15656.75725755
 30
0.0
 11
1496.48144803
 21
15676.75725755
 31
0.0
  0
LINE
  5
1040
330
2
100
AcDbEntity
  8
YKK_Z1
  6
Continuous
 48
1.5
370
    13
100
AcDbLine
 10
1516.48144803
 20
15676.75725755
 30
0.0
 11
1504.7179818
 21
15688.52072378
 31
0.0
  0
LINE
  5
1041
330
2
100
AcDbEntity
  8
YKK_Z1
  6
Continuous
 48
1.5
370
    13
100
AcDbLine
 10
1496.48144803
 20
15636.75725755
 30
0.0
 11
1516.48144803
 21
15656.75725755
 31
0.0
  0
LINE
  5
1042
330
2
100
AcDbEntity
  8
YKK_Z1
  6
Continuous
 48
1.5
370
    13
100
AcDbLine
 10
1496.48144803
 20
15656.75725755
 30
0.0
 11
1516.48144803
 21
15676.75725755
 31
0.0
  0
LINE
  5
1043
330
2
100
AcDbEntity
  8
YKK_Z1
  6
Continuous
 48
1.5
370
    13
100
AcDbLine
 10
1496.48144803
 20
15676.75725755
 30
0.0
 11
1508.24491426
 21
15688.52072378
 31
0.0
  0
LINE
  5
1044
330
2
100
AcDbEntity
  8
YKK_Z1
  6
Continuous
 48
1.5
370
    30
100
AcDbLine
 10
1516.48144803
 20
15616.75725755
 30
0.0
 11
1516.48144803
 21
15688.52072378
 31
0.0
  0
LINE
  5
1045
330
2
100
AcDbEntity
  8
YKK_Z1
  6
Continuous
 48
1.5
370
    30
100
AcDbLine
 10
1496.48144803
 20
15688.52072378
 30
0.0
 11
1496.48144803
 21
15616.75725755
 31
0.0
  0
LINE
  5
1046
330
2
100
AcDbEntity
  8
YKK_Z1
  6
Continuous
 48
1.5
370
    30
100
AcDbLine
 10
1516.48144803
 20
15637.63581239
 30
0.0
 11
1516.48144803
 21
15678.17146614
 31
0.0
  0
LINE
  5
1047
330
2
100
AcDbEntity
  8
YKK_Z1
  6
Continuous
 48
1.5
370
    30
100
AcDbLine
 10
1533.98144803
 20
15639.78114027
 30
0.0
 11
1533.98144803
 21
15676.02613826
 31
0.0
  0
LINE
  5
1048
330
2
100
AcDbEntity
  8
YKK_Z1
  6
Continuous
 48
1.5
370
    13
100
AcDbLine
 10
2968.00025084
 20
17765.00866695
 30
0.0
 11
2948.00025084
 21
17785.00866695
 31
0.0
  0
LINE
  5
1049
330
2
100
AcDbEntity
  8
YKK_Z1
  6
Continuous
 48
1.5
370
    13
100
AcDbLine
 10
2968.00025084
 20
17785.00866695
 30
0.0
 11
2948.00025084
 21
17765.00866695
 31
0.0
  0
LINE
  5
104A
330
2
100
AcDbEntity
  8
YKK_Z1
  6
Continuous
 48
1.5
370
    13
100
AcDbLine
 10
2948.00025084
 20
17785.00866695
 30
0.0
 11
2928.00025084
 21
17765.00866695
 31
0.0
  0
LINE
  5
104B
330
2
100
AcDbEntity
  8
YKK_Z1
  6
Continuous
 48
1.5
370
    13
100
AcDbLine
 10
2928.00025084
 20
17785.00866695
 30
0.0
 11
2908.00025084
 21
17765.00866695
 31
0.0
  0
LINE
  5
104C
330
2
100
AcDbEntity
  8
YKK_Z1
  6
Continuous
 48
1.5
370
    13
100
AcDbLine
 10
2908.00025084
 20
17785.00866695
 30
0.0
 11
2889.10309004
 21
17766.11150615
 31
0.0
  0
LINE
  5
104D
330
2
100
AcDbEntity
  8
YKK_Z1
  6
Continuous
 48
1.5
370
    13
100
AcDbLine
 10
2948.00025084
 20
17765.00866695
 30
0.0
 11
2928.00025084
 21
17785.00866695
 31
0.0
  0
LINE
  5
104E
330
2
100
AcDbEntity
  8
YKK_Z1
  6
Continuous
 48
1.5
370
    13
100
AcDbLine
 10
2928.00025084
 20
17765.00866695
 30
0.0
 11
2908.00025084
 21
17785.00866695
 31
0.0
  0
LINE
  5
104F
330
2
100
AcDbEntity
  8
YKK_Z1
  6
Continuous
 48
1.5
370
    13
100
AcDbLine
 10
2908.00025084
 20
17765.00866695
 30
0.0
 11
2889.10309004
 21
17783.90582775
 31
0.0
  0
LINE
  5
1050
330
2
100
AcDbEntity
  8
YKK_Z1
  6
Continuous
 48
1.5
370
    30
100
AcDbLine
 10
2968.00025084
 20
17765.00866695
 30
0.0
 11
2889.10309004
 21
17765.00866695
 31
0.0
  0
LINE
  5
1051
330
2
100
AcDbEntity
  8
YKK_Z1
  6
Continuous
 48
1.5
370
    30
100
AcDbLine
 10
2889.10309004
 20
17785.00866695
 30
0.0
 11
2968.00025084
 21
17785.00866695
 31
0.0
  0
LINE
  5
1052
330
2
100
AcDbEntity
  8
YKK_Z1
  6
Continuous
 48
1.5
370
    13
100
AcDbLine
 10
2990.75109592
 20
17762.25835447
 30
0.0
 11
2968.00025084
 21
17785.00866695
 31
0.0
  0
LINE
  5
1053
330
2
100
AcDbEntity
  8
YKK_Z1
  6
Continuous
 48
1.5
370
    13
100
AcDbLine
 10
2987.99953204
 20
17785.00834382
 30
0.0
 11
2968.00031555
 21
17765.00865913
 31
0.0
  0
LINE
  5
1054
330
2
100
AcDbEntity
  8
YKK_Z1
  6
Continuous
 48
1.5
370
    13
100
AcDbLine
 10
3011.60000022
 20
17761.40970414
 30
0.0
 11
3008.38243102
 21
17764.62719801
 31
0.0
  0
LINE
  5
1055
330
2
100
AcDbEntity
  8
YKK_Z1
  6
Continuous
 48
1.5
370
    13
100
AcDbLine
 10
3007.40263028
 20
17765.60697582
 30
0.0
 11
2988.0007025
 21
17785.0084494
 31
0.0
  0
LINE
  5
1056
330
2
100
AcDbEntity
  8
YKK_Z1
  6
Continuous
 48
1.5
370
    30
100
AcDbLine
 10
3004.20000022
 20
17760.6325384
 30
0.0
 11
2968.00025084
 21
17765.00866695
 31
0.0
1001
YOBJCUT10930154511
1000
DET1
1001
YOBJCUT10930154627
1000
DET1
  0
LINE
  5
1057
330
2
100
AcDbEntity
  8
YKK_Z1
  6
Continuous
 48
1.5
370
    30
100
AcDbLine
 10
2906.58604224
 20
17765.00866695
 30
0.0
 11
2947.121696
 21
17765.00866695
 31
0.0
  0
LINE
  5
1058
330
2
100
AcDbEntity
  8
YKK_Z1
  6
Continuous
 48
1.5
370
    30
100
AcDbLine
 10
2908.73137012
 20
17747.50866695
 30
0.0
 11
2944.97636812
 21
17747.50866695
 31
0.0
  0
LINE
  5
1059
330
2
100
AcDbEntity
  8
YKK_Z1
  6
Continuous
 48
1.5
370
    13
100
AcDbLine
 10
3006.19864456
 20
17783.20811648
 30
0.0
 11
2985.84272413
 21
17762.85171951
 31
0.0
  0
LINE
  5
105A
330
2
100
AcDbEntity
  8
YKK_Z1
  6
Continuous
 48
1.5
370
    13
100
AcDbLine
 10
3011.45522718
 20
17768.46505626
 30
0.0
 11
3008.66243925
 21
17765.67220295
 31
0.0
  0
LINE
  5
105B
330
2
100
AcDbEntity
  8
YKK_Z1
  6
Continuous
 48
1.5
370
    13
100
AcDbLine
 10
3006.96536844
 20
17763.9750924
 30
0.0
 11
3006.6560526
 21
17763.66576933
 31
0.0
  0
LINE
  5
105C
330
2
100
AcDbEntity
  8
YKK_Z1
  6
Continuous
 48
1.5
370
    13
100
AcDbLine
 10
3006.213782
 20
17763.22348837
 30
0.0
 11
3006.20000022
 21
17763.20970627
 31
0.0
  0
LINE
  5
105D
330
2
100
AcDbEntity
  8
YKK_Z1
  6
Continuous
 48
1.5
370
    13
100
AcDbLine
 10
3005.20000022
 20
17762.20968286
 30
0.0
 11
3003.68513272
 21
17760.69477989
 31
0.0
  0
LINE
  5
105E
330
2
100
AcDbEntity
  8
YKK_Z1
  6
Continuous
 48
1.5
370
    30
100
AcDbLine
 10
2998.30000024
 20
17785.00833737
 30
0.0
 11
2968.00025084
 21
17785.00866695
 31
0.0
  0
LINE
  5
105F
330
2
100
AcDbEntity
  8
YKK_Z1
  6
Continuous
 48
1.5
370
    13
100
AcDbLine
 10
1496.276025
 20
15611.49333018
 30
0.0
 11
1496.476025
 21
15611.49333018
 31
0.0
  0
LINE
  5
1060
330
2
100
AcDbEntity
  8
YKK_Z1
  6
Continuous
 48
1.5
370
    30
100
AcDbLine
 10
1496.4818538
 20
15586.45589639
 30
0.0
 11
1496.48186937
 21
15616.75767889
 31
0.0
  0
LINE
  5
1061
330
2
100
AcDbEntity
  8
YKK_Z1
  6
Continuous
 48
1.5
370
    13
100
AcDbLine
 10
3968.50000178
 20
17747.00850876
 30
0.0
 11
4066.89691017
 21
17747.00850876
 31
0.0
  0
LINE
  5
1062
330
2
100
AcDbEntity
  8
YKK_Z1
  6
Continuous
 48
1.5
370
    13
100
AcDbLine
 10
3968.50000178
 20
17735.50850876
 30
0.0
 11
3968.50000178
 21
17747.00850876
 31
0.0
  0
LINE
  5
1063
330
2
100
AcDbEntity
  8
YKK_Z1
  6
Continuous
 48
1.5
370
    13
100
AcDbLine
 10
4066.89691017
 20
17735.50850876
 30
0.0
 11
3968.50000178
 21
17735.50850876
 31
0.0
  0
LINE
  5
1064
330
2
100
AcDbEntity
  8
YKK_Z1
  6
Continuous
 48
1.5
370
    13
100
AcDbLine
 10
3968.00000178
 20
17747.50850876
 30
0.0
 11
4066.89691017
 21
17747.50850876
 31
0.0
  0
LINE
  5
1065
330
2
100
AcDbEntity
  8
YKK_Z1
  6
Continuous
 48
1.5
370
    13
100
AcDbLine
 10
3968.00000178
 20
17735.00850876
 30
0.0
 11
3968.00000178
 21
17747.50850876
 31
0.0
  0
LINE
  5
1066
330
2
100
AcDbEntity
  8
YKK_Z1
  6
Continuous
 48
1.5
370
    13
100
AcDbLine
 10
4066.89691017
 20
17735.00850876
 30
0.0
 11
3968.00000178
 21
17735.00850876
 31
0.0
  0
LINE
  5
1067
330
2
100
AcDbEntity
  8
YKK_Z1
  6
Continuous
 48
1.5
370
    30
100
AcDbLine
 10
3953.00000055
 20
17935.00833681
 30
0.0
 11
4066.89691017
 21
17935.00833681
 31
0.0
  0
LINE
  5
1068
330
2
100
AcDbEntity
  8
YKK_Z1
  6
Continuous
 48
1.5
370
    30
100
AcDbLine
 10
3943.00000055
 20
17870.00833681
 30
0.0
 11
3943.00000055
 21
17925.00833681
 31
0.0
  0
LINE
  5
1069
330
2
100
AcDbEntity
  8
YKK_Z1
  6
Continuous
 48
1.5
370
    30
100
AcDbLine
 10
3988.00000055
 20
17858.75833681
 30
0.0
 11
3943.00000055
 21
17870.00833681
 31
0.0
  0
LINE
  5
106A
330
2
100
AcDbEntity
  8
YKK_Z1
  6
Continuous
 48
1.5
370
    30
100
AcDbLine
 10
3988.00000055
 20
17858.75833681
 30
0.0
 11
3988.00000055
 21
17785.00866695
 31
0.0
  0
LINE
  5
106B
330
2
100
AcDbEntity
  8
YKK_Z1
  6
Continuous
 48
1.5
370
    30
100
AcDbLine
 10
4067.08889488
 20
17785.00833681
 30
0.0
 11
3988.00000055
 21
17785.00833681
 31
0.0
  0
LINE
  5
106C
330
2
100
AcDbEntity
  8
YKK_Z1
  6
Continuous
 48
1.5
370
    30
100
AcDbLine
 10
3953.00000055
 20
17935.00833681
 30
0.0
 11
3943.00000055
 21
17925.00833681
 31
0.0
  0
LINE
  5
106D
330
2
100
AcDbEntity
  8
YKK_Z1
  6
Continuous
 48
1.5
370
    13
100
AcDbLine
 10
3953.62132089
 20
17933.50833681
 30
0.0
 11
3944.50000055
 21
17924.38701646
 31
0.0
  0
LINE
  5
106E
330
2
100
AcDbEntity
  8
YKK_Z1
  6
Continuous
 48
1.5
370
    13
100
AcDbLine
 10
4066.89691017
 20
17933.50833681
 30
0.0
 11
3953.62132089
 21
17933.50833681
 31
0.0
  0
LINE
  5
106F
330
2
100
AcDbEntity
  8
YKK_Z1
  6
Continuous
 48
1.5
370
    13
100
AcDbLine
 10
3944.50000055
 20
17924.59412324
 30
0.0
 11
3944.50000055
 21
17871.17950142
 31
0.0
  0
LINE
  5
1070
330
2
100
AcDbEntity
  8
YKK_Z1
  6
Continuous
 48
1.5
370
    13
100
AcDbLine
 10
3944.50000055
 20
17871.17950142
 30
0.0
 11
3989.50000055
 21
17859.92950142
 31
0.0
  0
LINE
  5
1071
330
2
100
AcDbEntity
  8
YKK_Z1
  6
Continuous
 48
1.5
370
    13
100
AcDbLine
 10
3989.50000055
 20
17786.50833681
 30
0.0
 11
4066.89691017
 21
17786.50833681
 31
0.0
  0
LINE
  5
1072
330
2
100
AcDbEntity
  8
YKK_Z1
  6
Continuous
 48
1.5
370
    13
100
AcDbLine
 10
3989.50000055
 20
17859.92950142
 30
0.0
 11
3989.50000055
 21
17786.50833681
 31
0.0
  0
LINE
  5
1073
330
2
100
AcDbEntity
  8
YKK_Z1
  6
Continuous
 48
1.5
370
    30
100
AcDbLine
 10
3943.45000055
 20
17855.45833681
 30
0.0
 11
3943.45000055
 21
17869.55833681
 31
0.0
  0
LINE
  5
1074
330
2
100
AcDbEntity
  8
YKK_Z1
  6
Continuous
 48
1.5
370
    30
100
AcDbLine
 10
3943.00000055
 20
17855.00833681
 30
0.0
 11
3943.45000055
 21
17855.45833681
 31
0.0
  0
LINE
  5
1075
330
2
100
AcDbEntity
  8
YKK_Z1
  6
Continuous
 48
1.5
370
    30
100
AcDbLine
 10
3943.00000055
 20
17870.00833681
 30
0.0
 11
3943.45000055
 21
17869.55833681
 31
0.0
  0
LINE
  5
1076
330
2
100
AcDbEntity
  8
YKK_Z1
  6
Continuous
 48
1.5
370
    13
100
AcDbLine
 10
3950.17157342
 20
17855.00833681
 30
0.0
 11
3953.00000055
 21
17857.83676393
 31
0.0
  0
LINE
  5
1077
330
2
100
AcDbEntity
  8
YKK_Z1
  6
Continuous
 48
1.5
370
    13
100
AcDbLine
 10
3944.51471917
 20
17855.00833681
 30
0.0
 11
3953.00000055
 21
17863.49361818
 31
0.0
  0
LINE
  5
1078
330
2
100
AcDbEntity
  8
YKK_Z1
  6
Continuous
 48
1.5
370
    13
100
AcDbLine
 10
3943.45000055
 20
17859.60047243
 30
0.0
 11
3951.68629205
 21
17867.83676393
 31
0.0
  0
LINE
  5
1079
330
2
100
AcDbEntity
  8
YKK_Z1
  6
Continuous
 48
1.5
370
    13
100
AcDbLine
 10
3943.45000055
 20
17865.25732668
 30
0.0
 11
3947.16080865
 21
17868.96813478
 31
0.0
  0
LINE
  5
107A
330
2
100
AcDbEntity
  8
YKK_Z1
  6
Continuous
 48
1.5
370
    13
100
AcDbLine
 10
4066.89691017
 20
17877.46877236
 30
0.0
 11
4010.85734572
 21
17933.50833681
 31
0.0
  0
LINE
  5
107B
330
2
100
AcDbEntity
  8
YKK_Z1
  6
Continuous
 48
1.5
370
    13
100
AcDbLine
 10
4066.89691017
 20
17873.22613167
 30
0.0
 11
4006.61470503
 21
17933.50833681
 31
0.0
  0
LINE
  5
107C
330
2
100
AcDbEntity
  8
YKK_Z1
  6
Continuous
 48
1.5
370
    13
100
AcDbLine
 10
4066.89691017
 20
17863.32663674
 30
0.0
 11
3996.7152101
 21
17933.50833681
 31
0.0
  0
LINE
  5
107D
330
2
100
AcDbEntity
  8
YKK_Z1
  6
Continuous
 48
1.5
370
    13
100
AcDbLine
 10
4058.86239635
 20
17786.50833681
 30
0.0
 11
3989.50000055
 21
17855.87073261
 31
0.0
  0
LINE
  5
107E
330
2
100
AcDbEntity
  8
YKK_Z1
  6
Continuous
 48
1.5
370
    13
100
AcDbLine
 10
4054.61975567
 20
17786.50833681
 30
0.0
 11
3989.50000055
 21
17851.62809193
 31
0.0
  0
LINE
  5
107F
330
2
100
AcDbEntity
  8
YKK_Z1
  6
Continuous
 48
1.5
370
    13
100
AcDbLine
 10
4044.72026073
 20
17786.50833681
 30
0.0
 11
3989.50000055
 21
17841.72859699
 31
0.0
  0
LINE
  5
1080
330
2
100
AcDbEntity
  8
YKK_Z1
  6
Continuous
 48
1.5
370
    13
100
AcDbLine
 10
3987.99974937
 20
17765.00866695
 30
0.0
 11
4007.99974937
 21
17785.00866695
 31
0.0
  0
LINE
  5
1081
330
2
100
AcDbEntity
  8
YKK_Z1
  6
Continuous
 48
1.5
370
    13
100
AcDbLine
 10
3987.99974937
 20
17785.00866695
 30
0.0
 11
4007.99974937
 21
17765.00866695
 31
0.0
  0
LINE
  5
1082
330
2
100
AcDbEntity
  8
YKK_Z1
  6
Continuous
 48
1.5
370
    13
100
AcDbLine
 10
4007.99974937
 20
17785.00866695
 30
0.0
 11
4027.99974937
 21
17765.00866695
 31
0.0
  0
LINE
  5
1083
330
2
100
AcDbEntity
  8
YKK_Z1
  6
Continuous
 48
1.5
370
    13
100
AcDbLine
 10
4027.99974937
 20
17785.00866695
 30
0.0
 11
4047.99974937
 21
17765.00866695
 31
0.0
  0
LINE
  5
1084
330
2
100
AcDbEntity
  8
YKK_Z1
  6
Continuous
 48
1.5
370
    13
100
AcDbLine
 10
4047.99974937
 20
17785.00866695
 30
0.0
 11
4066.89691017
 21
17766.11150615
 31
0.0
  0
LINE
  5
1085
330
2
100
AcDbEntity
  8
YKK_Z1
  6
Continuous
 48
1.5
370
    13
100
AcDbLine
 10
4007.99974937
 20
17765.00866695
 30
0.0
 11
4027.99974937
 21
17785.00866695
 31
0.0
  0
LINE
  5
1086
330
2
100
AcDbEntity
  8
YKK_Z1
  6
Continuous
 48
1.5
370
    13
100
AcDbLine
 10
4027.99974937
 20
17765.00866695
 30
0.0
 11
4047.99974937
 21
17785.00866695
 31
0.0
  0
LINE
  5
1087
330
2
100
AcDbEntity
  8
YKK_Z1
  6
Continuous
 48
1.5
370
    13
100
AcDbLine
 10
4047.99974937
 20
17765.00866695
 30
0.0
 11
4066.89691017
 21
17783.90582775
 31
0.0
  0
LINE
  5
1088
330
2
100
AcDbEntity
  8
YKK_Z1
  6
Continuous
 48
1.5
370
    30
100
AcDbLine
 10
3987.99974937
 20
17765.00866695
 30
0.0
 11
4066.89691017
 21
17765.00866695
 31
0.0
  0
LINE
  5
1089
330
2
100
AcDbEntity
  8
YKK_Z1
  6
Continuous
 48
1.5
370
    30
100
AcDbLine
 10
4066.89691017
 20
17785.00866695
 30
0.0
 11
3987.99974937
 21
17785.00866695
 31
0.0
  0
LINE
  5
108A
330
2
100
AcDbEntity
  8
YKK_Z1
  6
Continuous
 48
1.5
370
    13
100
AcDbLine
 10
3965.24890429
 20
17762.25835447
 30
0.0
 11
3987.99974937
 21
17785.00866695
 31
0.0
  0
LINE
  5
108B
330
2
100
AcDbEntity
  8
YKK_Z1
  6
Continuous
 48
1.5
370
    13
100
AcDbLine
 10
3968.00046817
 20
17785.00834382
 30
0.0
 11
3987.99968466
 21
17765.00865913
 31
0.0
  0
LINE
  5
108C
330
2
100
AcDbEntity
  8
YKK_Z1
  6
Continuous
 48
1.5
370
    13
100
AcDbLine
 10
3944.39999999
 20
17761.40970414
 30
0.0
 11
3947.61756918
 21
17764.62719801
 31
0.0
  0
LINE
  5
108D
330
2
100
AcDbEntity
  8
YKK_Z1
  6
Continuous
 48
1.5
370
    13
100
AcDbLine
 10
3948.59736993
 20
17765.60697582
 30
0.0
 11
3967.99929771
 21
17785.0084494
 31
0.0
  0
LINE
  5
108E
330
2
100
AcDbEntity
  8
YKK_Z1
  6
Continuous
 48
1.5
370
    30
100
AcDbLine
 10
3951.79999999
 20
17760.6325384
 30
0.0
 11
3987.99974937
 21
17765.00866695
 31
0.0
1001
YOBJCUT10930154511
1000
DET1
1001
YOBJCUT10930154627
1000
DET1
  0
LINE
  5
108F
330
2
100
AcDbEntity
  8
YKK_Z1
  6
Continuous
 48
1.5
370
    30
100
AcDbLine
 10
4049.41395797
 20
17765.00866695
 30
0.0
 11
4008.87830421
 21
17765.00866695
 31
0.0
  0
LINE
  5
1090
330
2
100
AcDbEntity
  8
YKK_Z1
  6
Continuous
 48
1.5
370
    30
100
AcDbLine
 10
4047.26863009
 20
17747.50866695
 30
0.0
 11
4011.02363209
 21
17747.50866695
 31
0.0
  0
LINE
  5
1091
330
2
100
AcDbEntity
  8
YKK_Z1
  6
Continuous
 48
1.5
370
    13
100
AcDbLine
 10
3949.80135565
 20
17783.20811648
 30
0.0
 11
3970.15727608
 21
17762.85171951
 31
0.0
  0
LINE
  5
1092
330
2
100
AcDbEntity
  8
YKK_Z1
  6
Continuous
 48
1.5
370
    13
100
AcDbLine
 10
3944.54477303
 20
17768.46505626
 30
0.0
 11
3947.33756096
 21
17765.67220295
 31
0.0
  0
LINE
  5
1093
330
2
100
AcDbEntity
  8
YKK_Z1
  6
Continuous
 48
1.5
370
    13
100
AcDbLine
 10
3949.03463177
 20
17763.9750924
 30
0.0
 11
3949.34394761
 21
17763.66576933
 31
0.0
  0
LINE
  5
1094
330
2
100
AcDbEntity
  8
YKK_Z1
  6
Continuous
 48
1.5
370
    13
100
AcDbLine
 10
3949.78621821
 20
17763.22348837
 30
0.0
 11
3949.79999999
 21
17763.20970627
 31
0.0
  0
LINE
  5
1095
330
2
100
AcDbEntity
  8
YKK_Z1
  6
Continuous
 48
1.5
370
    13
100
AcDbLine
 10
3950.79999999
 20
17762.20968286
 30
0.0
 11
3952.31486749
 21
17760.69477989
 31
0.0
  0
LINE
  5
1096
330
2
100
AcDbEntity
  8
YKK_Z1
  6
Continuous
 48
1.5
370
    30
100
AcDbLine
 10
3957.69999997
 20
17785.00833737
 30
0.0
 11
3987.99974937
 21
17785.00866695
 31
0.0
  0
LINE
  5
1097
330
2
100
AcDbEntity
  8
YKK_B1
100
AcDbLine
 10
2988.00000021
 20
17745.00833738
 30
0.0
 11
2988.00000021
 21
17725.00833738
 31
0.0
  0
LINE
  5
1098
330
2
100
AcDbEntity
  8
YKK_B1
100
AcDbLine
 10
2988.00000021
 20
17725.00833738
 30
0.0
 11
3013.00000021
 21
17725.00833738
 31
0.0
  0
LINE
  5
1099
330
2
100
AcDbEntity
  8
YKK_B1
100
AcDbLine
 10
3013.00000021
 20
17725.00833738
 30
0.0
 11
3013.00000025
 21
17785.00833736
 31
0.0
  0
LINE
  5
109A
330
2
100
AcDbEntity
  8
YKK_B1
100
AcDbLine
 10
2998.00000025
 20
17794.00833736
 30
0.0
 11
2998.00000021
 21
17785.00811649
 31
0.0
  0
LINE
  5
109B
330
2
100
AcDbEntity
  8
YKK_B1
100
AcDbLine
 10
2998.00000021
 20
17785.00811649
 30
0.0
 11
3028.00000025
 21
17785.00833736
 31
0.0
  0
LINE
  5
109C
330
2
100
AcDbEntity
  8
YKK_B1
100
AcDbLine
 10
3028.00000025
 20
17785.00833736
 30
0.0
 11
3028.00000025
 21
17817.00833736
 31
0.0
  0
LINE
  5
109D
330
2
100
AcDbEntity
  8
YKK_B1
100
AcDbLine
 10
3028.00000025
 20
17817.00833736
 30
0.0
 11
3005.00000025
 21
17817.00833736
 31
0.0
  0
LINE
  5
109E
330
2
100
AcDbEntity
  8
YKK_B1
100
AcDbLine
 10
3005.00000025
 20
17817.00833736
 30
0.0
 11
3005.00000025
 21
17835.00833736
 31
0.0
  0
LINE
  5
109F
330
2
100
AcDbEntity
  8
YKK_B1
100
AcDbLine
 10
3005.00000025
 20
17835.00833736
 30
0.0
 11
3028.00000025
 21
17835.00833736
 31
0.0
  0
LINE
  5
10A0
330
2
100
AcDbEntity
  8
YKK_B1
100
AcDbLine
 10
3028.00000025
 20
17835.00833736
 30
0.0
 11
3028.00000025
 21
17855.00833736
 31
0.0
  0
LINE
  5
10A1
330
2
100
AcDbEntity
  8
YKK_B1
100
AcDbLine
 10
3028.00000025
 20
17855.00833736
 30
0.0
 11
2998.00000025
 21
17855.00833736
 31
0.0
  0
LINE
  5
10A2
330
2
100
AcDbEntity
  8
YKK_B1
100
AcDbLine
 10
2998.00000025
 20
17855.00833736
 30
0.0
 11
2998.00000025
 21
17846.00833736
 31
0.0
  0
LINE
  5
10A3
330
2
100
AcDbEntity
  8
YKK_B1
100
AcDbLine
 10
3460.50000023
 20
17854.90833736
 30
0.0
 11
3495.50000023
 21
17854.90833736
 31
0.0
  0
LINE
  5
10A4
330
2
100
AcDbEntity
  8
YKK_B1
100
AcDbLine
 10
3495.50000023
 20
17854.90833736
 30
0.0
 11
3495.50000023
 21
17835.00833736
 31
0.0
  0
LINE
  5
10A5
330
2
100
AcDbEntity
  8
YKK_B1
100
AcDbLine
 10
3495.50000023
 20
17835.00833736
 30
0.0
 11
3460.50000023
 21
17835.00833736
 31
0.0
  0
LINE
  5
10A6
330
2
100
AcDbEntity
  8
YKK_B1
100
AcDbLine
 10
3460.50000023
 20
17835.00833736
 30
0.0
 11
3460.50000023
 21
17854.90833736
 31
0.0
  0
LINE
  5
10A7
330
2
100
AcDbEntity
  8
YKK_B1
100
AcDbLine
 10
3460.50000023
 20
17817.00833736
 30
0.0
 11
3495.50000023
 21
17817.00833736
 31
0.0
  0
LINE
  5
10A8
330
2
100
AcDbEntity
  8
YKK_B1
100
AcDbLine
 10
3495.50000023
 20
17817.00833736
 30
0.0
 11
3495.50000023
 21
17785.10833736
 31
0.0
  0
LINE
  5
10A9
330
2
100
AcDbEntity
  8
YKK_B1
100
AcDbLine
 10
3495.50000023
 20
17785.10833736
 30
0.0
 11
3460.50000023
 21
17785.10833736
 31
0.0
  0
LINE
  5
10AA
330
2
100
AcDbEntity
  8
YKK_B1
100
AcDbLine
 10
3460.50000023
 20
17785.10833736
 30
0.0
 11
3460.50000023
 21
17817.00833736
 31
0.0
  0
LINE
  5
10AB
330
2
100
AcDbEntity
  8
YKK_B1
100
AcDbLine
 10
3473.50000023
 20
17835.00833736
 30
0.0
 11
3473.50000023
 21
17817.00833736
 31
0.0
  0
LINE
  5
10AC
330
2
100
AcDbEntity
  8
YKK_B1
100
AcDbLine
 10
3968.0
 20
17745.00833738
 30
0.0
 11
3968.0
 21
17725.00833738
 31
0.0
  0
LINE
  5
10AD
330
2
100
AcDbEntity
  8
YKK_B1
100
AcDbLine
 10
3968.0
 20
17725.00833738
 30
0.0
 11
3943.0
 21
17725.00833738
 31
0.0
  0
LINE
  5
10AE
330
2
100
AcDbEntity
  8
YKK_B1
100
AcDbLine
 10
3943.0
 20
17725.00833738
 30
0.0
 11
3942.99999996
 21
17785.00833736
 31
0.0
  0
LINE
  5
10AF
330
2
100
AcDbEntity
  8
YKK_B1
100
AcDbLine
 10
3957.99999996
 20
17794.00833736
 30
0.0
 11
3958.0
 21
17785.00811649
 31
0.0
  0
LINE
  5
10B0
330
2
100
AcDbEntity
  8
YKK_B1
100
AcDbLine
 10
3958.0
 20
17785.00811649
 30
0.0
 11
3927.99999996
 21
17785.00833736
 31
0.0
  0
LINE
  5
10B1
330
2
100
AcDbEntity
  8
YKK_B1
100
AcDbLine
 10
3927.99999996
 20
17785.00833736
 30
0.0
 11
3927.99999996
 21
17817.00833736
 31
0.0
  0
LINE
  5
10B2
330
2
100
AcDbEntity
  8
YKK_B1
100
AcDbLine
 10
3927.99999996
 20
17817.00833736
 30
0.0
 11
3950.99999996
 21
17817.00833736
 31
0.0
  0
LINE
  5
10B3
330
2
100
AcDbEntity
  8
YKK_B1
100
AcDbLine
 10
3950.99999996
 20
17817.00833736
 30
0.0
 11
3950.99999996
 21
17835.00833736
 31
0.0
  0
LINE
  5
10B4
330
2
100
AcDbEntity
  8
YKK_B1
100
AcDbLine
 10
3950.99999996
 20
17835.00833736
 30
0.0
 11
3927.99999996
 21
17835.00833736
 31
0.0
  0
LINE
  5
10B5
330
2
100
AcDbEntity
  8
YKK_B1
100
AcDbLine
 10
3927.99999996
 20
17835.00833736
 30
0.0
 11
3927.99999996
 21
17855.00833736
 31
0.0
  0
LINE
  5
10B6
330
2
100
AcDbEntity
  8
YKK_B1
100
AcDbLine
 10
3927.99999996
 20
17855.00833736
 30
0.0
 11
3957.99999996
 21
17855.00833736
 31
0.0
  0
LINE
  5
10B7
330
2
100
AcDbEntity
  8
YKK_B1
100
AcDbLine
 10
3957.99999996
 20
17855.00833736
 30
0.0
 11
3957.99999996
 21
17846.00833736
 31
0.0
  0
LINE
  5
10B8
330
2
100
AcDbEntity
  8
YKK_B1
100
AcDbLine
 10
3020.00000024
 20
17826.00833737
 30
0.0
 11
3468.50000024
 21
17826.00833737
 31
0.0
  0
LINE
  5
10B9
330
2
100
AcDbEntity
  8
YKK_B1
100
AcDbLine
 10
3487.50000024
 20
17826.00833737
 30
0.0
 11
3935.99999997
 21
17826.00833737
 31
0.0
  0
LINE
  5
10BA
330
2
100
AcDbEntity
  8
YKK_B1
100
AcDbLine
 10
3038.00000025
 20
17855.00833737
 30
0.0
 11
3917.99999996
 21
17855.00833737
 31
0.0
  0
LINE
  5
10BB
330
2
100
AcDbEntity
  8
YKK_B1
100
AcDbLine
 10
3038.00000025
 20
17785.00833737
 30
0.0
 11
3917.99999996
 21
17785.00833737
 31
0.0
  0
LINE
  5
10BC
330
2
100
AcDbEntity
  8
YKK_N1
100
AcDbLine
 10
3495.50000024
 20
17680.00833738
 30
0.0
 11
3495.50000024
 21
17310.00833738
 31
0.0
  0
LINE
  5
10BD
330
2
100
AcDbEntity
  8
YKK_N1
100
AcDbLine
 10
3460.50000024
 20
17680.00833738
 30
0.0
 11
3460.50000024
 21
17310.00833738
 31
0.0
  0
LINE
  5
10BE
330
2
100
AcDbEntity
  8
YKK_N1
100
AcDbLine
 10
3028.00000024
 20
17680.00833738
 30
0.0
 11
3028.00000024
 21
17110.00833738
 31
0.0
  0
LINE
  5
10BF
330
2
100
AcDbEntity
  8
YKK_N1
100
AcDbLine
 10
3928.00000024
 20
17680.00833738
 30
0.0
 11
3928.00000024
 21
17110.00833738
 31
0.0
  0
LINE
  5
10C0
330
2
100
AcDbEntity
  8
YKK_N1
100
AcDbLine
 10
3460.50000024
 20
17340.00833738
 30
0.0
 11
3495.50000024
 21
17340.00833738
 31
0.0
  0
CIRCLE
  5
10C1
330
2
100
AcDbEntity
  8
YKK_N1
100
AcDbCircle
 10
3495.50000024
 20
17340.00833738
 30
0.0
 40
10.0
  0
CIRCLE
  5
10C2
330
2
100
AcDbEntity
  8
YKK_N1
100
AcDbCircle
 10
3495.50000024
 20
17340.00833738
 30
0.0
 40
10.0
  0
CIRCLE
  5
10C3
330
2
100
AcDbEntity
  8
YKK_N1
100
AcDbCircle
 10
3495.50000024
 20
17340.00833738
 30
0.0
 40
6.5
  0
CIRCLE
  5
10C4
330
2
100
AcDbEntity
  8
YKK_N1
100
AcDbCircle
 10
3495.50000024
 20
17340.00833738
 30
0.0
 40
6.5
  0
TEXT
  5
10C5
330
2
100
AcDbEntity
  8
YKK_N1
100
AcDbText
 10
3426.61504115
 20
17252.96881052
 30
0.0
 40
60.0
  1
35
 41
0.8
  7
YKK_SGSTYLE1
100
AcDbText
  0
LINE
  5
10C6
330
2
100
AcDbEntity
  8
YKK_N1
100
AcDbLine
 10
3028.00000024
 20
17140.00833738
 30
0.0
 11
3928.00000024
 21
17140.00833738
 31
0.0
  0
TEXT
  5
10C7
330
2
100
AcDbEntity
  8
YKK_N1
100
AcDbText
 10
3362.55193102
 20
17150.00833738
 30
0.0
 40
60.0
  1
W=900
 41
0.8
  7
YKK_SGSTYLE1
100
AcDbText
  0
TEXT
  5
10C8
330
2
100
AcDbEntity
  8
YKK_N1
100
AcDbText
 10
3072.55353113
 20
17350.00833738
 30
0.0
 40
60.0
  1
W1=432.5
 41
0.8
  7
YKK_SGSTYLE1
100
AcDbText
  0
LINE
  5
10C9
330
2
100
AcDbEntity
  8
YKK_N1
100
AcDbLine
 10
3028.00000024
 20
17340.00833738
 30
0.0
 11
3460.50000024
 21
17340.00833738
 31
0.0
  0
LINE
  5
10CA
330
2
100
AcDbEntity
  8
YKK_N1
  6
ByBlock
100
AcDbLine
 10
3114.60254062
 20
17090.00833738
 30
0.0
 11
3114.60254062
 21
17190.00833738
 31
0.0
  0
LINE
  5
10CB
330
2
100
AcDbEntity
  8
YKK_N1
  6
ByBlock
100
AcDbLine
 10
3028.00000024
 20
17140.00833738
 30
0.0
 11
3114.60254062
 21
17090.00833738
 31
0.0
  0
LINE
  5
10CC
330
2
100
AcDbEntity
  8
YKK_N1
  6
ByBlock
100
AcDbLine
 10
3114.60254062
 20
17190.00833738
 30
0.0
 11
3028.00000024
 21
17140.00833738
 31
0.0
  0
CIRCLE
  5
10CD
330
2
100
AcDbEntity
  8
YKK_N1
100
AcDbCircle
 10
3028.00000024
 20
17340.00833738
 30
0.0
 40
6.5
  0
CIRCLE
  5
10CE
330
2
100
AcDbEntity
  8
YKK_N1
100
AcDbCircle
 10
3028.00000024
 20
17340.00833738
 30
0.0
 40
6.5
  0
CIRCLE
  5
10CF
330
2
100
AcDbEntity
  8
YKK_N1
100
AcDbCircle
 10
3028.00000024
 20
17340.00833738
 30
0.0
 40
10.0
  0
CIRCLE
  5
10D0
330
2
100
AcDbEntity
  8
YKK_N1
100
AcDbCircle
 10
3028.00000024
 20
17340.00833738
 30
0.0
 40
10.0
  0
CIRCLE
  5
10D1
330
2
100
AcDbEntity
  8
YKK_N1
100
AcDbCircle
 10
3460.50000024
 20
17340.00833738
 30
0.0
 40
10.0
  0
CIRCLE
  5
10D2
330
2
100
AcDbEntity
  8
YKK_N1
100
AcDbCircle
 10
3460.50000024
 20
17340.00833738
 30
0.0
 40
10.0
  0
CIRCLE
  5
10D3
330
2
100
AcDbEntity
  8
YKK_N1
100
AcDbCircle
 10
3460.50000024
 20
17340.00833738
 30
0.0
 40
6.5
  0
CIRCLE
  5
10D4
330
2
100
AcDbEntity
  8
YKK_N1
100
AcDbCircle
 10
3460.50000024
 20
17340.00833738
 30
0.0
 40
6.5
  0
LINE
  5
10D5
330
2
100
AcDbEntity
  8
YKK_N1
100
AcDbLine
 10
3495.50000024
 20
17340.00833738
 30
0.0
 11
3928.00000024
 21
17340.00833738
 31
0.0
  0
TEXT
  5
10D6
330
2
100
AcDbEntity
  8
YKK_N1
100
AcDbText
 10
3540.05353113
 20
17350.00833738
 30
0.0
 40
60.0
  1
W2=432.5
 41
0.8
  7
YKK_SGSTYLE1
100
AcDbText
  0
LINE
  5
10D7
330
2
100
AcDbEntity
  8
YKK_N1
  6
ByBlock
100
AcDbLine
 10
3841.39745986
 20
17090.00833738
 30
0.0
 11
3928.00000024
 21
17140.00833738
 31
0.0
  0
LINE
  5
10D8
330
2
100
AcDbEntity
  8
YKK_N1
  6
ByBlock
100
AcDbLine
 10
3841.39745986
 20
17190.00833738
 30
0.0
 11
3841.39745986
 21
17090.00833738
 31
0.0
  0
LINE
  5
10D9
330
2
100
AcDbEntity
  8
YKK_N1
  6
ByBlock
100
AcDbLine
 10
3928.00000024
 20
17140.00833738
 30
0.0
 11
3841.39745986
 21
17190.00833738
 31
0.0
  0
CIRCLE
  5
10DA
330
2
100
AcDbEntity
  8
YKK_N1
100
AcDbCircle
 10
3928.00000024
 20
17340.00833738
 30
0.0
 40
10.0
  0
CIRCLE
  5
10DB
330
2
100
AcDbEntity
  8
YKK_N1
100
AcDbCircle
 10
3928.00000024
 20
17340.00833738
 30
0.0
 40
10.0
  0
CIRCLE
  5
10DC
330
2
100
AcDbEntity
  8
YKK_N1
100
AcDbCircle
 10
3928.00000024
 20
17340.00833738
 30
0.0
 40
6.5
  0
CIRCLE
  5
10DD
330
2
100
AcDbEntity
  8
YKK_N1
100
AcDbCircle
 10
3928.00000024
 20
17340.00833738
 30
0.0
 40
6.5
  0
LINE
  5
10DE
330
2
100
AcDbEntity
  8
YKK_C1
100
AcDbLine
 10
1536.48185377
 20
15596.75589642
 30
0.0
 11
1556.48185377
 21
15596.75589642
 31
0.0
  0
LINE
  5
10DF
330
2
100
AcDbEntity
  8
YKK_C1
100
AcDbLine
 10
1556.48185377
 20
15596.75589642
 30
0.0
 11
1556.48185377
 21
15571.75589642
 31
0.0
  0
LINE
  5
10E0
330
2
100
AcDbEntity
  8
YKK_C1
100
AcDbLine
 10
1556.48185377
 20
15571.75589642
 30
0.0
 11
1496.48185379
 21
15571.75589638
 31
0.0
  0
LINE
  5
10E1
330
2
100
AcDbEntity
  8
YKK_C1
100
AcDbLine
 10
1487.48185379
 20
15586.75589638
 30
0.0
 11
1496.48207467
 21
15586.75589642
 31
0.0
  0
LINE
  5
10E2
330
2
100
AcDbEntity
  8
YKK_C1
100
AcDbLine
 10
1496.48207467
 20
15586.75589642
 30
0.0
 11
1496.48185379
 21
15556.75589638
 31
0.0
  0
LINE
  5
10E3
330
2
100
AcDbEntity
  8
YKK_C1
100
AcDbLine
 10
1496.48185379
 20
15556.75589638
 30
0.0
 11
1464.48185379
 21
15556.75589638
 31
0.0
  0
LINE
  5
10E4
330
2
100
AcDbEntity
  8
YKK_C1
100
AcDbLine
 10
1464.48185379
 20
15556.75589638
 30
0.0
 11
1464.48185379
 21
15579.75589638
 31
0.0
  0
LINE
  5
10E5
330
2
100
AcDbEntity
  8
YKK_C1
100
AcDbLine
 10
1464.48185379
 20
15579.75589638
 30
0.0
 11
1446.48185379
 21
15579.75589638
 31
0.0
  0
LINE
  5
10E6
330
2
100
AcDbEntity
  8
YKK_C1
100
AcDbLine
 10
1446.48185379
 20
15579.75589638
 30
0.0
 11
1446.48185379
 21
15556.75589638
 31
0.0
  0
LINE
  5
10E7
330
2
100
AcDbEntity
  8
YKK_C1
100
AcDbLine
 10
1446.48185379
 20
15556.75589638
 30
0.0
 11
1426.48185379
 21
15556.75589638
 31
0.0
  0
LINE
  5
10E8
330
2
100
AcDbEntity
  8
YKK_C1
100
AcDbLine
 10
1426.48185379
 20
15556.75589638
 30
0.0
 11
1426.48185379
 21
15586.75589638
 31
0.0
  0
LINE
  5
10E9
330
2
100
AcDbEntity
  8
YKK_C1
100
AcDbLine
 10
1426.48185379
 20
15586.75589638
 30
0.0
 11
1435.48185379
 21
15586.75589638
 31
0.0
  0
LINE
  5
10EA
330
2
100
AcDbEntity
  8
YKK_C1
100
AcDbLine
 10
1426.48185379
 20
15006.75439638
 30
0.0
 11
1426.48185379
 21
15041.75439638
 31
0.0
  0
LINE
  5
10EB
330
2
100
AcDbEntity
  8
YKK_C1
100
AcDbLine
 10
1426.48185379
 20
15041.75439638
 30
0.0
 11
1446.48185378
 21
15041.75439638
 31
0.0
  0
LINE
  5
10EC
330
2
100
AcDbEntity
  8
YKK_C1
100
AcDbLine
 10
1446.48185378
 20
15041.75439638
 30
0.0
 11
1446.48185379
 21
15006.75439638
 31
0.0
  0
LINE
  5
10ED
330
2
100
AcDbEntity
  8
YKK_C1
100
AcDbLine
 10
1464.48185379
 20
15041.75439638
 30
0.0
 11
1464.48185379
 21
15006.75439638
 31
0.0
  0
LINE
  5
10EE
330
2
100
AcDbEntity
  8
YKK_C1
100
AcDbLine
 10
1464.48185379
 20
15006.75439638
 30
0.0
 11
1496.48185379
 21
15006.75439638
 31
0.0
  0
LINE
  5
10EF
330
2
100
AcDbEntity
  8
YKK_C1
100
AcDbLine
 10
1496.48185379
 20
15006.75439638
 30
0.0
 11
1496.48185379
 21
15056.75439638
 31
0.0
  0
LINE
  5
10F0
330
2
100
AcDbEntity
  8
YKK_C1
100
AcDbLine
 10
1496.48185379
 20
15053.75439638
 30
0.0
 11
1479.48185379
 21
15053.75439638
 31
0.0
  0
LINE
  5
10F1
330
2
100
AcDbEntity
  8
YKK_C1
100
AcDbLine
 10
1479.48185379
 20
15053.75439638
 30
0.0
 11
1479.48185379
 21
15041.75439638
 31
0.0
  0
LINE
  5
10F2
330
2
100
AcDbEntity
  8
YKK_C1
100
AcDbLine
 10
1479.48185379
 20
15041.75439638
 30
0.0
 11
1464.48185379
 21
15041.75439638
 31
0.0
  0
LINE
  5
10F3
330
2
100
AcDbEntity
  8
YKK_C1
100
AcDbLine
 10
1464.48185379
 20
15020.75439638
 30
0.0
 11
1426.48185379
 21
15020.75439638
 31
0.0
  0
LINE
  5
10F4
330
2
100
AcDbEntity
  8
YKK_C1
100
AcDbLine
 10
1426.48185379
 20
14041.75439638
 30
0.0
 11
1435.48185379
 21
14041.75439638
 31
0.0
  0
LINE
  5
10F5
330
2
100
AcDbEntity
  8
YKK_C1
100
AcDbLine
 10
1472.48185379
 20
14041.75439638
 30
0.0
 11
1481.48185379
 21
14041.75439638
 31
0.0
  0
LINE
  5
10F6
330
2
100
AcDbEntity
  8
YKK_C1
100
AcDbLine
 10
1481.48185379
 20
14041.75439638
 30
0.0
 11
1481.48185379
 21
14176.75439638
 31
0.0
  0
LINE
  5
10F7
330
2
100
AcDbEntity
  8
YKK_C1
100
AcDbLine
 10
1481.48185379
 20
14176.75439638
 30
0.0
 11
1464.48185379
 21
14176.75439638
 31
0.0
  0
LINE
  5
10F8
330
2
100
AcDbEntity
  8
YKK_C1
100
AcDbLine
 10
1464.48185379
 20
14176.75439638
 30
0.0
 11
1464.48185379
 21
14148.25439638
 31
0.0
  0
LINE
  5
10F9
330
2
100
AcDbEntity
  8
YKK_C1
100
AcDbLine
 10
1426.48185379
 20
14176.75439638
 30
0.0
 11
1446.48185379
 21
14176.75439638
 31
0.0
  0
LINE
  5
10FA
330
2
100
AcDbEntity
  8
YKK_C1
100
AcDbLine
 10
1446.48185379
 20
14176.75439638
 30
0.0
 11
1446.48185379
 21
14148.25439638
 31
0.0
  0
LINE
  5
10FB
330
2
100
AcDbEntity
  8
YKK_C1
100
AcDbLine
 10
1426.48185379
 20
14148.25439638
 30
0.0
 11
1481.48185379
 21
14148.25439638
 31
0.0
  0
LINE
  5
10FC
330
2
100
AcDbEntity
  8
YKK_C1
100
AcDbLine
 10
1481.48185379
 20
14066.75439638
 30
0.0
 11
1426.50037231
 21
14066.75439638
 31
0.0
  0
LINE
  5
10FD
330
2
100
AcDbEntity
  8
YKK_C1
100
AcDbLine
 10
1426.48185379
 20
14041.75439638
 30
0.0
 11
1426.48185379
 21
14176.75439638
 31
0.0
  0
LINE
  5
10FE
330
2
100
AcDbEntity
  8
YKK_C1
100
AcDbLine
 10
1455.4818538
 20
15564.75589639
 30
0.0
 11
1455.48185379
 21
15033.75439639
 31
0.0
  0
LINE
  5
10FF
330
2
100
AcDbEntity
  8
YKK_C1
100
AcDbLine
 10
1455.4818538
 20
15014.75439639
 30
0.0
 11
1455.4818538
 21
14168.75439639
 31
0.0
  0
LINE
  5
1100
330
2
100
AcDbEntity
  8
YKK_C1
100
AcDbLine
 10
1556.48163292
 20
15561.75589642
 30
0.0
 11
1556.48163292
 21
14056.75439639
 31
0.0
  0
LINE
  5
1101
330
2
100
AcDbEntity
  8
YKK_C1
100
AcDbLine
 10
1496.4818538
 20
15546.75589638
 30
0.0
 11
1496.4818538
 21
15066.75439639
 31
0.0
  0
LINE
  5
1102
330
2
100
AcDbEntity
  8
YKK_C1
100
AcDbLine
 10
1426.4818538
 20
15051.75439638
 30
0.0
 11
1426.4818538
 21
15546.75589638
 31
0.0
  0
LINE
  5
1103
330
2
100
AcDbEntity
  8
YKK_C1
100
AcDbLine
 10
1496.4818538
 20
14996.75439638
 30
0.0
 11
1496.4818538
 21
14056.75439639
 31
0.0
  0
LINE
  5
1104
330
2
100
AcDbEntity
  8
YKK_C1
100
AcDbLine
 10
1426.4818538
 20
14186.75439638
 30
0.0
 11
1426.4818538
 21
14996.75439638
 31
0.0
  0
LINE
  5
1105
330
2
100
AcDbEntity
  8
YKK_N1
100
AcDbLine
 10
1941.48185377
 20
14056.75435022
 30
0.0
 11
1941.48185377
 21
15006.75435022
 31
0.0
  0
LINE
  5
1106
330
2
100
AcDbEntity
  8
YKK_N1
100
AcDbLine
 10
2141.48185377
 20
14056.75435022
 30
0.0
 11
2141.48185377
 21
15555.75435022
 31
0.0
  0
LINE
  5
1107
330
2
100
AcDbEntity
  8
YKK_N1
100
AcDbLine
 10
1601.48185377
 20
14056.75435022
 30
0.0
 11
2171.48185377
 21
14056.75435022
 31
0.0
  0
LINE
  5
1108
330
2
100
AcDbEntity
  8
YKK_N1
  6
ByBlock
100
AcDbLine
 10
2191.48185377
 20
14143.3568906
 30
0.0
 11
2091.48185377
 21
14143.3568906
 31
0.0
  0
LINE
  5
1109
330
2
100
AcDbEntity
  8
YKK_N1
  6
ByBlock
100
AcDbLine
 10
2091.48185377
 20
14143.3568906
 30
0.0
 11
2141.48185377
 21
14056.75435022
 31
0.0
  0
CIRCLE
  5
110A
330
2
100
AcDbEntity
  8
YKK_N1
100
AcDbCircle
 10
1941.48185377
 20
14056.75435022
 30
0.0
 40
10.0
  0
CIRCLE
  5
110B
330
2
100
AcDbEntity
  8
YKK_N1
100
AcDbCircle
 10
1941.48185377
 20
14056.75435022
 30
0.0
 40
10.0
  0
CIRCLE
  5
110C
330
2
100
AcDbEntity
  8
YKK_N1
100
AcDbCircle
 10
1941.48185377
 20
14056.75435022
 30
0.0
 40
6.5
  0
CIRCLE
  5
110D
330
2
100
AcDbEntity
  8
YKK_N1
100
AcDbCircle
 10
1941.48185377
 20
14056.75435022
 30
0.0
 40
6.5
  0
LINE
  5
110E
330
2
100
AcDbEntity
  8
YKK_N1
  6
ByBlock
100
AcDbLine
 10
2141.48185377
 20
14056.75435022
 30
0.0
 11
2191.48185377
 21
14143.3568906
 31
0.0
  0
LINE
  5
110F
330
2
100
AcDbEntity
  8
YKK_N1
  6
ByBlock
100
AcDbLine
 10
2141.48185377
 20
14056.75435022
 30
0.0
 11
2141.48185377
 21
14156.75435022
 31
0.0
  0
LINE
  5
1110
330
2
100
AcDbEntity
  8
YKK_N1
100
AcDbLine
 10
1941.48185377
 20
15056.75435022
 30
0.0
 11
1941.48185377
 21
15556.75435022
 31
0.0
  0
TEXT
  5
1111
330
2
100
AcDbEntity
  8
YKK_N1
100
AcDbText
 10
2131.48185377
 20
14644.84451125
 30
0.0
 40
60.0
  1
H=1500
 50
90.0
 41
0.8
  7
YKK_SGSTYLE1
100
AcDbText
  0
TEXT
  5
1112
330
2
100
AcDbEntity
  8
YKK_N1
100
AcDbText
 10
1931.48185377
 20
14376.57688541
 30
0.0
 40
60.0
  1
H1=950
 50
90.0
 41
0.8
  7
YKK_SGSTYLE1
100
AcDbText
  0
LINE
  5
1113
330
2
100
AcDbEntity
  8
YKK_N1
100
AcDbLine
 10
1601.48185377
 20
15006.75435022
 30
0.0
 11
1971.48185377
 21
15006.75435022
 31
0.0
  0
LINE
  5
1114
330
2
100
AcDbEntity
  8
YKK_N1
100
AcDbLine
 10
1601.48185377
 20
15056.75435022
 30
0.0
 11
1971.48185377
 21
15056.75435022
 31
0.0
  0
CIRCLE
  5
1115
330
2
100
AcDbEntity
  8
YKK_N1
100
AcDbCircle
 10
1941.48185377
 20
15056.75435022
 30
0.0
 40
10.0
  0
CIRCLE
  5
1116
330
2
100
AcDbEntity
  8
YKK_N1
100
AcDbCircle
 10
1941.48185377
 20
15056.75435022
 30
0.0
 40
10.0
  0
CIRCLE
  5
1117
330
2
100
AcDbEntity
  8
YKK_N1
100
AcDbCircle
 10
1941.48185377
 20
15056.75435022
 30
0.0
 40
6.5
  0
CIRCLE
  5
1118
330
2
100
AcDbEntity
  8
YKK_N1
100
AcDbCircle
 10
1941.48185377
 20
15056.75435022
 30
0.0
 40
6.5
  0
CIRCLE
  5
1119
330
2
100
AcDbEntity
  8
YKK_N1
100
AcDbCircle
 10
1941.48185377
 20
15006.75435022
 30
0.0
 40
6.5
  0
CIRCLE
  5
111A
330
2
100
AcDbEntity
  8
YKK_N1
100
AcDbCircle
 10
1941.48185377
 20
15006.75435022
 30
0.0
 40
6.5
  0
LINE
  5
111B
330
2
100
AcDbEntity
  8
YKK_N1
100
AcDbLine
 10
1941.48185377
 20
15056.75435022
 30
0.0
 11
1941.48185377
 21
15006.75435022
 31
0.0
  0
CIRCLE
  5
111C
330
2
100
AcDbEntity
  8
YKK_N1
100
AcDbCircle
 10
1941.48185377
 20
15006.75435022
 30
0.0
 40
10.0
  0
CIRCLE
  5
111D
330
2
100
AcDbEntity
  8
YKK_N1
100
AcDbCircle
 10
1941.48185377
 20
15006.75435022
 30
0.0
 40
10.0
  0
TEXT
  5
111E
330
2
100
AcDbEntity
  8
YKK_N1
100
AcDbText
 10
2039.90450843
 20
15004.04541287
 30
0.0
 40
60.0
  1
50
 50
90.0
 41
0.8
  7
YKK_SGSTYLE1
100
AcDbText
  0
LINE
  5
111F
330
2
100
AcDbEntity
  8
YKK_N1
100
AcDbLine
 10
1601.48185377
 20
15556.75435022
 30
0.0
 11
2171.48185377
 21
15556.75435022
 31
0.0
  0
LINE
  5
1120
330
2
100
AcDbEntity
  8
YKK_N1
  6
ByBlock
100
AcDbLine
 10
2091.48185377
 20
15470.15180984
 30
0.0
 11
2191.48185377
 21
15470.15180984
 31
0.0
  0
LINE
  5
1121
330
2
100
AcDbEntity
  8
YKK_N1
  6
ByBlock
100
AcDbLine
 10
2141.48185377
 20
15556.75435022
 30
0.0
 11
2091.48185377
 21
15470.15180984
 31
0.0
  0
CIRCLE
  5
1122
330
2
100
AcDbEntity
  8
YKK_N1
100
AcDbCircle
 10
1941.48185377
 20
15556.75435022
 30
0.0
 40
10.0
  0
CIRCLE
  5
1123
330
2
100
AcDbEntity
  8
YKK_N1
100
AcDbCircle
 10
1941.48185377
 20
15556.75435022
 30
0.0
 40
10.0
  0
CIRCLE
  5
1124
330
2
100
AcDbEntity
  8
YKK_N1
100
AcDbCircle
 10
1941.48185377
 20
15556.75435022
 30
0.0
 40
6.5
  0
CIRCLE
  5
1125
330
2
100
AcDbEntity
  8
YKK_N1
100
AcDbCircle
 10
1941.48185377
 20
15556.75435022
 30
0.0
 40
6.5
  0
TEXT
  5
1126
330
2
100
AcDbEntity
  8
YKK_N1
100
AcDbText
 10
1931.48185377
 20
15135.16165607
 30
0.0
 40
60.0
  1
H2=500
 50
90.0
 41
0.8
  7
YKK_SGSTYLE1
100
AcDbText
  0
LINE
  5
1127
330
2
100
AcDbEntity
  8
YKK_N1
  6
ByBlock
100
AcDbLine
 10
2141.48185377
 20
15556.75435022
 30
0.0
 11
2141.48185377
 21
15456.75435022
 31
0.0
  0
LINE
  5
1128
330
2
100
AcDbEntity
  8
YKK_N1
  6
ByBlock
100
AcDbLine
 10
2191.48185377
 20
15470.15180984
 30
0.0
 11
2141.48185377
 21
15556.75435022
 31
0.0
  0
LINE
  5
1129
330
2
100
AcDbEntity
  8
YKK_A1
100
AcDbLine
 10
2988.00000021
 20
14056.75439639
 30
0.0
 11
2988.00000021
 21
15596.7558964
 31
0.0
  0
LINE
  5
112A
330
2
100
AcDbEntity
  8
YKK_A1
100
AcDbLine
 10
3013.00000021
 20
14056.75439639
 30
0.0
 11
3013.00000021
 21
15596.7558964
 31
0.0
  0
LINE
  5
112B
330
2
100
AcDbEntity
  8
YKK_A1
100
AcDbLine
 10
3028.00000025
 20
14056.75439639
 30
0.0
 11
3028.00000025
 21
15596.7558964
 31
0.0
  0
LINE
  5
112C
330
2
100
AcDbEntity
  8
YKK_A1
100
AcDbLine
 10
3460.50000023
 20
15056.75439638
 30
0.0
 11
3460.50000023
 21
15556.75521719
 31
0.0
  0
LINE
  5
112D
330
2
100
AcDbEntity
  8
YKK_A1
100
AcDbLine
 10
3495.50000023
 20
15056.75439638
 30
0.0
 11
3495.50000023
 21
15556.75521719
 31
0.0
  0
LINE
  5
112E
330
2
100
AcDbEntity
  8
YKK_A1
100
AcDbLine
 10
3927.99999996
 20
14056.75439639
 30
0.0
 11
3927.99999996
 21
15596.7558964
 31
0.0
  0
LINE
  5
112F
330
2
100
AcDbEntity
  8
YKK_A1
100
AcDbLine
 10
3943.0
 20
14056.75439639
 30
0.0
 11
3943.0
 21
15596.7558964
 31
0.0
  0
LINE
  5
1130
330
2
100
AcDbEntity
  8
YKK_A1
100
AcDbLine
 10
3968.0
 20
14056.75439639
 30
0.0
 11
3968.0
 21
15596.7558964
 31
0.0
  0
LINE
  5
1131
330
2
100
AcDbEntity
  8
YKK_A1
100
AcDbLine
 10
3968.0
 20
15596.7558964
 30
0.0
 11
2988.00000021
 21
15596.7558964
 31
0.0
  0
LINE
  5
1132
330
2
100
AcDbEntity
  8
YKK_A1
100
AcDbLine
 10
3028.00000025
 20
15571.7558964
 30
0.0
 11
3927.99999996
 21
15571.7558964
 31
0.0
  0
LINE
  5
1133
330
2
100
AcDbEntity
  8
YKK_A1
100
AcDbLine
 10
3028.00000025
 20
15556.75521719
 30
0.0
 11
3927.99999996
 21
15556.75521719
 31
0.0
  0
LINE
  5
1134
330
2
100
AcDbEntity
  8
YKK_A1
100
AcDbLine
 10
3028.00000025
 20
15056.75439638
 30
0.0
 11
3927.99999996
 21
15056.75439638
 31
0.0
  0
LINE
  5
1135
330
2
100
AcDbEntity
  8
YKK_A1
100
AcDbLine
 10
3028.00000025
 20
15006.75439638
 30
0.0
 11
3927.99999996
 21
15006.75439638
 31
0.0
  0
LINE
  5
1136
330
2
100
AcDbEntity
  8
YKK_A1
100
AcDbLine
 10
3028.00000025
 20
14176.75439638
 30
0.0
 11
3927.99999996
 21
14176.75439638
 31
0.0
  0
LINE
  5
1137
330
2
100
AcDbEntity
  8
YKK_A1
100
AcDbLine
 10
2988.00000021
 20
14056.75439639
 30
0.0
 11
3968.0
 21
14056.75439639
 31
0.0
  0
TEXT
  5
1138
330
2
100
AcDbEntity
  8
YKK_A1
100
AcDbText
 10
3332.65782076
 20
15137.29088991
 30
0.0
 40
60.0
  1
F
 41
0.8
  7
YKK_SGSTYLE1
 72
     2
 11
3371.51496362
 21
15137.29088991
 31
0.0
100
AcDbText
  0
TEXT
  5
1139
330
2
100
AcDbEntity
  8
YKK_A1
100
AcDbText
 10
3800.15782049
 20
15137.29088991
 30
0.0
 40
60.0
  1
F
 41
0.8
  7
YKK_SGSTYLE1
 72
     2
 11
3839.01496335
 21
15137.29088991
 31
0.0
100
AcDbText
  0
TEXT
  5
113A
330
2
100
AcDbEntity
  8
YKK_A1
100
AcDbText
 10
3800.15782049
 20
14257.29088991
 30
0.0
 40
60.0
  1
F
 41
0.8
  7
YKK_SGSTYLE1
 72
     2
 11
3839.01496335
 21
14257.29088991
 31
0.0
100
AcDbText
  0
LINE
  5
113B
330
2
100
AcDbEntity
  8
YKK_N1
100
AcDbLine
 10
4013.0
 20
14056.75435022
 30
0.0
 11
4383.0
 21
14056.75435022
 31
0.0
  0
LINE
  5
113C
330
2
100
AcDbEntity
  8
YKK_N1
  6
ByBlock
100
AcDbLine
 10
4403.0
 20
14143.3568906
 30
0.0
 11
4303.0
 21
14143.3568906
 31
0.0
  0
LINE
  5
113D
330
2
100
AcDbEntity
  8
YKK_N1
  6
ByBlock
100
AcDbLine
 10
4303.0
 20
14143.3568906
 30
0.0
 11
4353.0
 21
14056.75435022
 31
0.0
  0
TEXT
  5
113E
330
2
100
AcDbEntity
  8
YKK_N1
100
AcDbText
 10
4343.0
 20
14649.35921903
 30
0.0
 40
60.0
  1
H=1500
 50
90.0
 41
0.8
  7
YKK_SGSTYLE1
100
AcDbText
  0
LINE
  5
113F
330
2
100
AcDbEntity
  8
YKK_N1
100
AcDbLine
 10
4013.0
 20
15556.75435022
 30
0.0
 11
4383.0
 21
15556.75435022
 31
0.0
  0
LINE
  5
1140
330
2
100
AcDbEntity
  8
YKK_N1
  6
ByBlock
100
AcDbLine
 10
4353.0
 20
15556.75435022
 30
0.0
 11
4303.0
 21
15470.15180984
 31
0.0
  0
LINE
  5
1141
330
2
100
AcDbEntity
  8
YKK_N1
  6
ByBlock
100
AcDbLine
 10
4303.0
 20
15470.15180984
 30
0.0
 11
4403.0
 21
15470.15180984
 31
0.0
  0
LINE
  5
1142
330
2
100
AcDbEntity
  8
YKK_N1
100
AcDbLine
 10
3029.00000024
 20
13671.75439639
 30
0.0
 11
3927.00000024
 21
13671.75439639
 31
0.0
  0
TEXT
  5
1143
330
2
100
AcDbEntity
  8
YKK_N1
100
AcDbText
 10
3356.77851278
 20
13681.75439639
 30
0.0
 40
60.0
  1
W=900
 41
0.8
  7
YKK_SGSTYLE1
100
AcDbText
  0
LINE
  5
1144
330
2
100
AcDbEntity
  8
YKK_N1
100
AcDbLine
 10
3028.00000024
 20
14011.75439639
 30
0.0
 11
3028.00000024
 21
13641.75439639
 31
0.0
  0
LINE
  5
1145
330
2
100
AcDbEntity
  8
YKK_N1
  6
ByBlock
100
AcDbLine
 10
3114.60254062
 20
13621.75439639
 30
0.0
 11
3114.60254062
 21
13721.75439639
 31
0.0
  0
LINE
  5
1146
330
2
100
AcDbEntity
  8
YKK_N1
  6
ByBlock
100
AcDbLine
 10
3028.00000024
 20
13671.75439639
 30
0.0
 11
3128.00000024
 21
13671.75439639
 31
0.0
  0
LINE
  5
1147
330
2
100
AcDbEntity
  8
YKK_N1
  6
ByBlock
100
AcDbLine
 10
3028.00000024
 20
13671.75439639
 30
0.0
 11
3114.60254062
 21
13621.75439639
 31
0.0
  0
LINE
  5
1148
330
2
100
AcDbEntity
  8
YKK_N1
  6
ByBlock
100
AcDbLine
 10
3114.60254062
 20
13721.75439639
 30
0.0
 11
3028.00000024
 21
13671.75439639
 31
0.0
  0
LINE
  5
1149
330
2
100
AcDbEntity
  8
YKK_N1
100
AcDbLine
 10
3928.00000024
 20
14011.75439639
 30
0.0
 11
3928.00000024
 21
13641.75439639
 31
0.0
  0
LINE
  5
114A
330
2
100
AcDbEntity
  8
YKK_N1
  6
ByBlock
100
AcDbLine
 10
3841.39745986
 20
13621.75439639
 30
0.0
 11
3928.00000024
 21
13671.75439639
 31
0.0
  0
LINE
  5
114B
330
2
100
AcDbEntity
  8
YKK_N1
  6
ByBlock
100
AcDbLine
 10
3928.00000024
 20
13671.75439639
 30
0.0
 11
3841.39745986
 21
13721.75439639
 31
0.0
  0
LINE
  5
114C
330
2
100
AcDbEntity
  8
YKK_N1
  6
ByBlock
100
AcDbLine
 10
3841.39745986
 20
13721.75439639
 30
0.0
 11
3841.39745986
 21
13621.75439639
 31
0.0
  0
LINE
  5
114D
330
2
100
AcDbEntity
  8
YKK_N1
  6
ByBlock
100
AcDbLine
 10
3928.00000024
 20
13671.75439639
 30
0.0
 11
3828.00000024
 21
13671.75439639
 31
0.0
  0
LINE
  5
114E
330
2
100
AcDbEntity
  8
YKK_N1
100
AcDbLine
 10
4353.0
 20
14057.75435022
 30
0.0
 11
4353.0
 21
15555.75435022
 31
0.0
  0
LINE
  5
114F
330
2
100
AcDbEntity
  8
YKK_N1
  6
ByBlock
100
AcDbLine
 10
4353.0
 20
14056.75435022
 30
0.0
 11
4403.0
 21
14143.3568906
 31
0.0
  0
LINE
  5
1150
330
2
100
AcDbEntity
  8
YKK_N1
  6
ByBlock
100
AcDbLine
 10
4353.0
 20
14056.75435022
 30
0.0
 11
4353.0
 21
14156.75435022
 31
0.0
  0
LINE
  5
1151
330
2
100
AcDbEntity
  8
YKK_N1
  6
ByBlock
100
AcDbLine
 10
4403.0
 20
15470.15180984
 30
0.0
 11
4353.0
 21
15556.75435022
 31
0.0
  0
LINE
  5
1152
330
2
100
AcDbEntity
  8
YKK_N1
  6
ByBlock
100
AcDbLine
 10
4353.0
 20
15556.75435022
 30
0.0
 11
4353.0
 21
15456.75435022
 31
0.0
  0
LINE
  5
1153
330
2
100
AcDbEntity
  8
YKK_Z1
  6
Continuous
 48
1.5
370
    13
100
AcDbLine
 10
2987.49999843
 20
16547.372905
 30
0.0
 11
2889.10309004
 21
16547.372905
 31
0.0
  0
LINE
  5
1154
330
2
100
AcDbEntity
  8
YKK_Z1
  6
Continuous
 48
1.5
370
    13
100
AcDbLine
 10
2987.49999843
 20
16535.872905
 30
0.0
 11
2987.49999843
 21
16547.372905
 31
0.0
  0
LINE
  5
1155
330
2
100
AcDbEntity
  8
YKK_Z1
  6
Continuous
 48
1.5
370
    13
100
AcDbLine
 10
2889.10309004
 20
16535.872905
 30
0.0
 11
2987.49999843
 21
16535.872905
 31
0.0
  0
LINE
  5
1156
330
2
100
AcDbEntity
  8
YKK_Z1
  6
Continuous
 48
1.5
370
    13
100
AcDbLine
 10
2987.99999843
 20
16547.872905
 30
0.0
 11
2889.10309004
 21
16547.872905
 31
0.0
  0
LINE
  5
1157
330
2
100
AcDbEntity
  8
YKK_Z1
  6
Continuous
 48
1.5
370
    13
100
AcDbLine
 10
2987.99999843
 20
16535.372905
 30
0.0
 11
2987.99999843
 21
16547.872905
 31
0.0
  0
LINE
  5
1158
330
2
100
AcDbEntity
  8
YKK_Z1
  6
Continuous
 48
1.5
370
    13
100
AcDbLine
 10
2889.10309004
 20
16535.372905
 30
0.0
 11
2987.99999843
 21
16535.372905
 31
0.0
  0
LINE
  5
1159
330
2
100
AcDbEntity
  8
YKK_Z1
  6
Continuous
 48
1.5
370
    30
100
AcDbLine
 10
3002.99999966
 20
16735.37273305
 30
0.0
 11
2889.10309004
 21
16735.37273305
 31
0.0
  0
LINE
  5
115A
330
2
100
AcDbEntity
  8
YKK_Z1
  6
Continuous
 48
1.5
370
    30
100
AcDbLine
 10
3012.99999966
 20
16670.37273305
 30
0.0
 11
3012.99999966
 21
16725.37273305
 31
0.0
  0
LINE
  5
115B
330
2
100
AcDbEntity
  8
YKK_Z1
  6
Continuous
 48
1.5
370
    30
100
AcDbLine
 10
2967.99999966
 20
16659.12273305
 30
0.0
 11
3012.99999966
 21
16670.37273305
 31
0.0
  0
LINE
  5
115C
330
2
100
AcDbEntity
  8
YKK_Z1
  6
Continuous
 48
1.5
370
    30
100
AcDbLine
 10
2967.99999966
 20
16659.12273305
 30
0.0
 11
2967.99999966
 21
16585.37306319
 31
0.0
  0
LINE
  5
115D
330
2
100
AcDbEntity
  8
YKK_Z1
  6
Continuous
 48
1.5
370
    30
100
AcDbLine
 10
2888.91110533
 20
16585.37273305
 30
0.0
 11
2967.99999966
 21
16585.37273305
 31
0.0
  0
LINE
  5
115E
330
2
100
AcDbEntity
  8
YKK_Z1
  6
Continuous
 48
1.5
370
    30
100
AcDbLine
 10
3002.99999966
 20
16735.37273305
 30
0.0
 11
3012.99999966
 21
16725.37273305
 31
0.0
  0
LINE
  5
115F
330
2
100
AcDbEntity
  8
YKK_Z1
  6
Continuous
 48
1.5
370
    13
100
AcDbLine
 10
3002.37867932
 20
16733.87273305
 30
0.0
 11
3011.49999966
 21
16724.7514127
 31
0.0
  0
LINE
  5
1160
330
2
100
AcDbEntity
  8
YKK_Z1
  6
Continuous
 48
1.5
370
    13
100
AcDbLine
 10
2889.10309004
 20
16733.87273305
 30
0.0
 11
3002.37867932
 21
16733.87273305
 31
0.0
  0
LINE
  5
1161
330
2
100
AcDbEntity
  8
YKK_Z1
  6
Continuous
 48
1.5
370
    13
100
AcDbLine
 10
3011.49999966
 20
16724.95851948
 30
0.0
 11
3011.49999966
 21
16671.54389766
 31
0.0
  0
LINE
  5
1162
330
2
100
AcDbEntity
  8
YKK_Z1
  6
Continuous
 48
1.5
370
    13
100
AcDbLine
 10
3011.49999966
 20
16671.54389766
 30
0.0
 11
2966.49999966
 21
16660.29389766
 31
0.0
  0
LINE
  5
1163
330
2
100
AcDbEntity
  8
YKK_Z1
  6
Continuous
 48
1.5
370
    13
100
AcDbLine
 10
2966.49999966
 20
16586.87273305
 30
0.0
 11
2889.10309004
 21
16586.87273305
 31
0.0
  0
LINE
  5
1164
330
2
100
AcDbEntity
  8
YKK_Z1
  6
Continuous
 48
1.5
370
    13
100
AcDbLine
 10
2966.49999966
 20
16660.29389766
 30
0.0
 11
2966.49999966
 21
16586.87273305
 31
0.0
  0
LINE
  5
1165
330
2
100
AcDbEntity
  8
YKK_Z1
  6
Continuous
 48
1.5
370
    30
100
AcDbLine
 10
3012.54999966
 20
16655.82273305
 30
0.0
 11
3012.54999966
 21
16669.92273305
 31
0.0
  0
LINE
  5
1166
330
2
100
AcDbEntity
  8
YKK_Z1
  6
Continuous
 48
1.5
370
    30
100
AcDbLine
 10
3012.99999966
 20
16655.37273305
 30
0.0
 11
3012.54999966
 21
16655.82273305
 31
0.0
  0
LINE
  5
1167
330
2
100
AcDbEntity
  8
YKK_Z1
  6
Continuous
 48
1.5
370
    30
100
AcDbLine
 10
3012.99999966
 20
16670.37273305
 30
0.0
 11
3012.54999966
 21
16669.92273305
 31
0.0
  0
LINE
  5
1168
330
2
100
AcDbEntity
  8
YKK_Z1
  6
Continuous
 48
1.5
370
    13
100
AcDbLine
 10
3002.99999966
 20
16667.54430592
 30
0.0
 11
3003.43790249
 21
16667.98220875
 31
0.0
  0
LINE
  5
1169
330
2
100
AcDbEntity
  8
YKK_Z1
  6
Continuous
 48
1.5
370
    13
100
AcDbLine
 10
3002.99999966
 20
16661.88745167
 30
0.0
 11
3010.98037483
 21
16669.86782684
 31
0.0
  0
LINE
  5
116A
330
2
100
AcDbEntity
  8
YKK_Z1
  6
Continuous
 48
1.5
370
    13
100
AcDbLine
 10
3002.99999966
 20
16656.23059742
 30
0.0
 11
3012.54999966
 21
16665.78059742
 31
0.0
  0
LINE
  5
116B
330
2
100
AcDbEntity
  8
YKK_Z1
  6
Continuous
 48
1.5
370
    13
100
AcDbLine
 10
3007.79898953
 20
16655.37273305
 30
0.0
 11
3012.54999966
 21
16660.12374317
 31
0.0
  0
LINE
  5
116C
330
2
100
AcDbEntity
  8
YKK_Z1
  6
Continuous
 48
1.5
370
    13
100
AcDbLine
 10
2889.10309004
 20
16677.8331686
 30
0.0
 11
2945.14265449
 21
16733.87273305
 31
0.0
  0
LINE
  5
116D
330
2
100
AcDbEntity
  8
YKK_Z1
  6
Continuous
 48
1.5
370
    13
100
AcDbLine
 10
2889.10309004
 20
16673.59052791
 30
0.0
 11
2949.38529517
 21
16733.87273305
 31
0.0
  0
LINE
  5
116E
330
2
100
AcDbEntity
  8
YKK_Z1
  6
Continuous
 48
1.5
370
    13
100
AcDbLine
 10
2889.10309004
 20
16663.69103297
 30
0.0
 11
2959.28479011
 21
16733.87273305
 31
0.0
  0
LINE
  5
116F
330
2
100
AcDbEntity
  8
YKK_Z1
  6
Continuous
 48
1.5
370
    13
100
AcDbLine
 10
2897.13760385
 20
16586.87273305
 30
0.0
 11
2966.49999966
 21
16656.23512885
 31
0.0
  0
LINE
  5
1170
330
2
100
AcDbEntity
  8
YKK_Z1
  6
Continuous
 48
1.5
370
    13
100
AcDbLine
 10
2901.38024454
 20
16586.87273305
 30
0.0
 11
2966.49999966
 21
16651.99248817
 31
0.0
  0
LINE
  5
1171
330
2
100
AcDbEntity
  8
YKK_Z1
  6
Continuous
 48
1.5
370
    13
100
AcDbLine
 10
2911.27973948
 20
16586.87273305
 30
0.0
 11
2966.49999966
 21
16642.09299323
 31
0.0
  0
LINE
  5
1172
330
2
100
AcDbEntity
  8
YKK_Z1
  6
Continuous
 48
1.5
370
    13
100
AcDbLine
 10
2968.00025084
 20
16565.37306319
 30
0.0
 11
2948.00025084
 21
16585.37306319
 31
0.0
  0
LINE
  5
1173
330
2
100
AcDbEntity
  8
YKK_Z1
  6
Continuous
 48
1.5
370
    13
100
AcDbLine
 10
2968.00025084
 20
16585.37306319
 30
0.0
 11
2948.00025084
 21
16565.37306319
 31
0.0
  0
LINE
  5
1174
330
2
100
AcDbEntity
  8
YKK_Z1
  6
Continuous
 48
1.5
370
    13
100
AcDbLine
 10
2948.00025084
 20
16585.37306319
 30
0.0
 11
2928.00025084
 21
16565.37306319
 31
0.0
  0
LINE
  5
1175
330
2
100
AcDbEntity
  8
YKK_Z1
  6
Continuous
 48
1.5
370
    13
100
AcDbLine
 10
2928.00025084
 20
16585.37306319
 30
0.0
 11
2908.00025084
 21
16565.37306319
 31
0.0
  0
LINE
  5
1176
330
2
100
AcDbEntity
  8
YKK_Z1
  6
Continuous
 48
1.5
370
    13
100
AcDbLine
 10
2908.00025084
 20
16585.37306319
 30
0.0
 11
2889.10309004
 21
16566.47590239
 31
0.0
  0
LINE
  5
1177
330
2
100
AcDbEntity
  8
YKK_Z1
  6
Continuous
 48
1.5
370
    13
100
AcDbLine
 10
2948.00025084
 20
16565.37306319
 30
0.0
 11
2928.00025084
 21
16585.37306319
 31
0.0
  0
LINE
  5
1178
330
2
100
AcDbEntity
  8
YKK_Z1
  6
Continuous
 48
1.5
370
    13
100
AcDbLine
 10
2928.00025084
 20
16565.37306319
 30
0.0
 11
2908.00025084
 21
16585.37306319
 31
0.0
  0
LINE
  5
1179
330
2
100
AcDbEntity
  8
YKK_Z1
  6
Continuous
 48
1.5
370
    13
100
AcDbLine
 10
2908.00025084
 20
16565.37306319
 30
0.0
 11
2889.10309004
 21
16584.27022399
 31
0.0
  0
LINE
  5
117A
330
2
100
AcDbEntity
  8
YKK_Z1
  6
Continuous
 48
1.5
370
    30
100
AcDbLine
 10
2968.00025084
 20
16565.37306319
 30
0.0
 11
2889.10309004
 21
16565.37306319
 31
0.0
  0
LINE
  5
117B
330
2
100
AcDbEntity
  8
YKK_Z1
  6
Continuous
 48
1.5
370
    30
100
AcDbLine
 10
2889.10309004
 20
16585.37306319
 30
0.0
 11
2968.00025084
 21
16585.37306319
 31
0.0
  0
LINE
  5
117C
330
2
100
AcDbEntity
  8
YKK_Z1
  6
Continuous
 48
1.5
370
    13
100
AcDbLine
 10
2990.75109592
 20
16562.6227507
 30
0.0
 11
2968.00025084
 21
16585.37306319
 31
0.0
  0
LINE
  5
117D
330
2
100
AcDbEntity
  8
YKK_Z1
  6
Continuous
 48
1.5
370
    13
100
AcDbLine
 10
2987.99953204
 20
16585.37274005
 30
0.0
 11
2968.00031555
 21
16565.37305537
 31
0.0
  0
LINE
  5
117E
330
2
100
AcDbEntity
  8
YKK_Z1
  6
Continuous
 48
1.5
370
    13
100
AcDbLine
 10
3011.60000022
 20
16561.77410038
 30
0.0
 11
3008.38243102
 21
16564.99159425
 31
0.0
  0
LINE
  5
117F
330
2
100
AcDbEntity
  8
YKK_Z1
  6
Continuous
 48
1.5
370
    13
100
AcDbLine
 10
3007.40263028
 20
16565.97137206
 30
0.0
 11
2988.0007025
 21
16585.37284564
 31
0.0
  0
LINE
  5
1180
330
2
100
AcDbEntity
  8
YKK_Z1
  6
Continuous
 48
1.5
370
    30
100
AcDbLine
 10
3004.20000022
 20
16560.99693464
 30
0.0
 11
2968.00025084
 21
16565.37306319
 31
0.0
1001
YOBJCUT10930154511
1000
DET1
1001
YOBJCUT10930154627
1000
DET1
  0
LINE
  5
1181
330
2
100
AcDbEntity
  8
YKK_Z1
  6
Continuous
 48
1.5
370
    30
100
AcDbLine
 10
2906.58604224
 20
16565.37306319
 30
0.0
 11
2947.121696
 21
16565.37306319
 31
0.0
  0
LINE
  5
1182
330
2
100
AcDbEntity
  8
YKK_Z1
  6
Continuous
 48
1.5
370
    30
100
AcDbLine
 10
2908.73137012
 20
16547.87306319
 30
0.0
 11
2944.97636812
 21
16547.87306319
 31
0.0
  0
LINE
  5
1183
330
2
100
AcDbEntity
  8
YKK_Z1
  6
Continuous
 48
1.5
370
    13
100
AcDbLine
 10
3006.19864456
 20
16583.57251272
 30
0.0
 11
2985.84272413
 21
16563.21611575
 31
0.0
  0
LINE
  5
1184
330
2
100
AcDbEntity
  8
YKK_Z1
  6
Continuous
 48
1.5
370
    13
100
AcDbLine
 10
3011.45522718
 20
16568.8294525
 30
0.0
 11
3008.66243925
 21
16566.03659919
 31
0.0
  0
LINE
  5
1185
330
2
100
AcDbEntity
  8
YKK_Z1
  6
Continuous
 48
1.5
370
    13
100
AcDbLine
 10
3006.96536844
 20
16564.33948864
 30
0.0
 11
3006.6560526
 21
16564.03016557
 31
0.0
  0
LINE
  5
1186
330
2
100
AcDbEntity
  8
YKK_Z1
  6
Continuous
 48
1.5
370
    13
100
AcDbLine
 10
3006.213782
 20
16563.58788461
 30
0.0
 11
3006.20000022
 21
16563.57410251
 31
0.0
  0
LINE
  5
1187
330
2
100
AcDbEntity
  8
YKK_Z1
  6
Continuous
 48
1.5
370
    13
100
AcDbLine
 10
3005.20000022
 20
16562.5740791
 30
0.0
 11
3003.68513272
 21
16561.05917613
 31
0.0
  0
LINE
  5
1188
330
2
100
AcDbEntity
  8
YKK_Z1
  6
Continuous
 48
1.5
370
    30
100
AcDbLine
 10
2998.30000024
 20
16585.37273361
 30
0.0
 11
2968.00025084
 21
16585.37306319
 31
0.0
  0
LINE
  5
1189
330
2
100
AcDbEntity
  8
YKK_Z1
  6
Continuous
 48
1.5
370
    13
100
AcDbLine
 10
3968.50000178
 20
16547.372905
 30
0.0
 11
4066.89691017
 21
16547.372905
 31
0.0
  0
LINE
  5
118A
330
2
100
AcDbEntity
  8
YKK_Z1
  6
Continuous
 48
1.5
370
    13
100
AcDbLine
 10
3968.50000178
 20
16535.872905
 30
0.0
 11
3968.50000178
 21
16547.372905
 31
0.0
  0
LINE
  5
118B
330
2
100
AcDbEntity
  8
YKK_Z1
  6
Continuous
 48
1.5
370
    13
100
AcDbLine
 10
4066.89691017
 20
16535.872905
 30
0.0
 11
3968.50000178
 21
16535.872905
 31
0.0
  0
LINE
  5
118C
330
2
100
AcDbEntity
  8
YKK_Z1
  6
Continuous
 48
1.5
370
    13
100
AcDbLine
 10
3968.00000178
 20
16547.872905
 30
0.0
 11
4066.89691017
 21
16547.872905
 31
0.0
  0
LINE
  5
118D
330
2
100
AcDbEntity
  8
YKK_Z1
  6
Continuous
 48
1.5
370
    13
100
AcDbLine
 10
3968.00000178
 20
16535.372905
 30
0.0
 11
3968.00000178
 21
16547.872905
 31
0.0
  0
LINE
  5
118E
330
2
100
AcDbEntity
  8
YKK_Z1
  6
Continuous
 48
1.5
370
    13
100
AcDbLine
 10
4066.89691017
 20
16535.372905
 30
0.0
 11
3968.00000178
 21
16535.372905
 31
0.0
  0
LINE
  5
118F
330
2
100
AcDbEntity
  8
YKK_Z1
  6
Continuous
 48
1.5
370
    30
100
AcDbLine
 10
3953.00000055
 20
16735.37273305
 30
0.0
 11
4066.89691017
 21
16735.37273305
 31
0.0
  0
LINE
  5
1190
330
2
100
AcDbEntity
  8
YKK_Z1
  6
Continuous
 48
1.5
370
    30
100
AcDbLine
 10
3943.00000055
 20
16670.37273305
 30
0.0
 11
3943.00000055
 21
16725.37273305
 31
0.0
  0
LINE
  5
1191
330
2
100
AcDbEntity
  8
YKK_Z1
  6
Continuous
 48
1.5
370
    30
100
AcDbLine
 10
3988.00000055
 20
16659.12273305
 30
0.0
 11
3943.00000055
 21
16670.37273305
 31
0.0
  0
LINE
  5
1192
330
2
100
AcDbEntity
  8
YKK_Z1
  6
Continuous
 48
1.5
370
    30
100
AcDbLine
 10
3988.00000055
 20
16659.12273305
 30
0.0
 11
3988.00000055
 21
16585.37306319
 31
0.0
  0
LINE
  5
1193
330
2
100
AcDbEntity
  8
YKK_Z1
  6
Continuous
 48
1.5
370
    30
100
AcDbLine
 10
4067.08889488
 20
16585.37273305
 30
0.0
 11
3988.00000055
 21
16585.37273305
 31
0.0
  0
LINE
  5
1194
330
2
100
AcDbEntity
  8
YKK_Z1
  6
Continuous
 48
1.5
370
    30
100
AcDbLine
 10
3953.00000055
 20
16735.37273305
 30
0.0
 11
3943.00000055
 21
16725.37273305
 31
0.0
  0
LINE
  5
1195
330
2
100
AcDbEntity
  8
YKK_Z1
  6
Continuous
 48
1.5
370
    13
100
AcDbLine
 10
3953.62132089
 20
16733.87273305
 30
0.0
 11
3944.50000055
 21
16724.7514127
 31
0.0
  0
LINE
  5
1196
330
2
100
AcDbEntity
  8
YKK_Z1
  6
Continuous
 48
1.5
370
    13
100
AcDbLine
 10
4066.89691017
 20
16733.87273305
 30
0.0
 11
3953.62132089
 21
16733.87273305
 31
0.0
  0
LINE
  5
1197
330
2
100
AcDbEntity
  8
YKK_Z1
  6
Continuous
 48
1.5
370
    13
100
AcDbLine
 10
3944.50000055
 20
16724.95851948
 30
0.0
 11
3944.50000055
 21
16671.54389766
 31
0.0
  0
LINE
  5
1198
330
2
100
AcDbEntity
  8
YKK_Z1
  6
Continuous
 48
1.5
370
    13
100
AcDbLine
 10
3944.50000055
 20
16671.54389766
 30
0.0
 11
3989.50000055
 21
16660.29389766
 31
0.0
  0
LINE
  5
1199
330
2
100
AcDbEntity
  8
YKK_Z1
  6
Continuous
 48
1.5
370
    13
100
AcDbLine
 10
3989.50000055
 20
16586.87273305
 30
0.0
 11
4066.89691017
 21
16586.87273305
 31
0.0
  0
LINE
  5
119A
330
2
100
AcDbEntity
  8
YKK_Z1
  6
Continuous
 48
1.5
370
    13
100
AcDbLine
 10
3989.50000055
 20
16660.29389766
 30
0.0
 11
3989.50000055
 21
16586.87273305
 31
0.0
  0
LINE
  5
119B
330
2
100
AcDbEntity
  8
YKK_Z1
  6
Continuous
 48
1.5
370
    30
100
AcDbLine
 10
3943.45000055
 20
16655.82273305
 30
0.0
 11
3943.45000055
 21
16669.92273305
 31
0.0
  0
LINE
  5
119C
330
2
100
AcDbEntity
  8
YKK_Z1
  6
Continuous
 48
1.5
370
    30
100
AcDbLine
 10
3943.00000055
 20
16655.37273305
 30
0.0
 11
3943.45000055
 21
16655.82273305
 31
0.0
  0
LINE
  5
119D
330
2
100
AcDbEntity
  8
YKK_Z1
  6
Continuous
 48
1.5
370
    30
100
AcDbLine
 10
3943.00000055
 20
16670.37273305
 30
0.0
 11
3943.45000055
 21
16669.92273305
 31
0.0
  0
LINE
  5
119E
330
2
100
AcDbEntity
  8
YKK_Z1
  6
Continuous
 48
1.5
370
    13
100
AcDbLine
 10
3950.17157342
 20
16655.37273305
 30
0.0
 11
3953.00000055
 21
16658.20116017
 31
0.0
  0
LINE
  5
119F
330
2
100
AcDbEntity
  8
YKK_Z1
  6
Continuous
 48
1.5
370
    13
100
AcDbLine
 10
3944.51471917
 20
16655.37273305
 30
0.0
 11
3953.00000055
 21
16663.85801442
 31
0.0
  0
LINE
  5
11A0
330
2
100
AcDbEntity
  8
YKK_Z1
  6
Continuous
 48
1.5
370
    13
100
AcDbLine
 10
3943.45000055
 20
16659.96486867
 30
0.0
 11
3951.68629205
 21
16668.20116017
 31
0.0
  0
LINE
  5
11A1
330
2
100
AcDbEntity
  8
YKK_Z1
  6
Continuous
 48
1.5
370
    13
100
AcDbLine
 10
3943.45000055
 20
16665.62172292
 30
0.0
 11
3947.16080865
 21
16669.33253102
 31
0.0
  0
LINE
  5
11A2
330
2
100
AcDbEntity
  8
YKK_Z1
  6
Continuous
 48
1.5
370
    13
100
AcDbLine
 10
4066.89691017
 20
16677.8331686
 30
0.0
 11
4010.85734572
 21
16733.87273305
 31
0.0
  0
LINE
  5
11A3
330
2
100
AcDbEntity
  8
YKK_Z1
  6
Continuous
 48
1.5
370
    13
100
AcDbLine
 10
4066.89691017
 20
16673.59052791
 30
0.0
 11
4006.61470503
 21
16733.87273305
 31
0.0
  0
LINE
  5
11A4
330
2
100
AcDbEntity
  8
YKK_Z1
  6
Continuous
 48
1.5
370
    13
100
AcDbLine
 10
4066.89691017
 20
16663.69103297
 30
0.0
 11
3996.7152101
 21
16733.87273305
 31
0.0
  0
LINE
  5
11A5
330
2
100
AcDbEntity
  8
YKK_Z1
  6
Continuous
 48
1.5
370
    13
100
AcDbLine
 10
4058.86239635
 20
16586.87273305
 30
0.0
 11
3989.50000055
 21
16656.23512885
 31
0.0
  0
LINE
  5
11A6
330
2
100
AcDbEntity
  8
YKK_Z1
  6
Continuous
 48
1.5
370
    13
100
AcDbLine
 10
4054.61975567
 20
16586.87273305
 30
0.0
 11
3989.50000055
 21
16651.99248817
 31
0.0
  0
LINE
  5
11A7
330
2
100
AcDbEntity
  8
YKK_Z1
  6
Continuous
 48
1.5
370
    13
100
AcDbLine
 10
4044.72026073
 20
16586.87273305
 30
0.0
 11
3989.50000055
 21
16642.09299323
 31
0.0
  0
LINE
  5
11A8
330
2
100
AcDbEntity
  8
YKK_Z1
  6
Continuous
 48
1.5
370
    13
100
AcDbLine
 10
3987.99974937
 20
16565.37306319
 30
0.0
 11
4007.99974937
 21
16585.37306319
 31
0.0
  0
LINE
  5
11A9
330
2
100
AcDbEntity
  8
YKK_Z1
  6
Continuous
 48
1.5
370
    13
100
AcDbLine
 10
3987.99974937
 20
16585.37306319
 30
0.0
 11
4007.99974937
 21
16565.37306319
 31
0.0
  0
LINE
  5
11AA
330
2
100
AcDbEntity
  8
YKK_Z1
  6
Continuous
 48
1.5
370
    13
100
AcDbLine
 10
4007.99974937
 20
16585.37306319
 30
0.0
 11
4027.99974937
 21
16565.37306319
 31
0.0
  0
LINE
  5
11AB
330
2
100
AcDbEntity
  8
YKK_Z1
  6
Continuous
 48
1.5
370
    13
100
AcDbLine
 10
4027.99974937
 20
16585.37306319
 30
0.0
 11
4047.99974937
 21
16565.37306319
 31
0.0
  0
LINE
  5
11AC
330
2
100
AcDbEntity
  8
YKK_Z1
  6
Continuous
 48
1.5
370
    13
100
AcDbLine
 10
4047.99974937
 20
16585.37306319
 30
0.0
 11
4066.89691017
 21
16566.47590239
 31
0.0
  0
LINE
  5
11AD
330
2
100
AcDbEntity
  8
YKK_Z1
  6
Continuous
 48
1.5
370
    13
100
AcDbLine
 10
4007.99974937
 20
16565.37306319
 30
0.0
 11
4027.99974937
 21
16585.37306319
 31
0.0
  0
LINE
  5
11AE
330
2
100
AcDbEntity
  8
YKK_Z1
  6
Continuous
 48
1.5
370
    13
100
AcDbLine
 10
4027.99974937
 20
16565.37306319
 30
0.0
 11
4047.99974937
 21
16585.37306319
 31
0.0
  0
LINE
  5
11AF
330
2
100
AcDbEntity
  8
YKK_Z1
  6
Continuous
 48
1.5
370
    13
100
AcDbLine
 10
4047.99974937
 20
16565.37306319
 30
0.0
 11
4066.89691017
 21
16584.27022399
 31
0.0
  0
LINE
  5
11B0
330
2
100
AcDbEntity
  8
YKK_Z1
  6
Continuous
 48
1.5
370
    30
100
AcDbLine
 10
3987.99974937
 20
16565.37306319
 30
0.0
 11
4066.89691017
 21
16565.37306319
 31
0.0
  0
LINE
  5
11B1
330
2
100
AcDbEntity
  8
YKK_Z1
  6
Continuous
 48
1.5
370
    30
100
AcDbLine
 10
4066.89691017
 20
16585.37306319
 30
0.0
 11
3987.99974937
 21
16585.37306319
 31
0.0
  0
LINE
  5
11B2
330
2
100
AcDbEntity
  8
YKK_Z1
  6
Continuous
 48
1.5
370
    13
100
AcDbLine
 10
3965.24890429
 20
16562.6227507
 30
0.0
 11
3987.99974937
 21
16585.37306319
 31
0.0
  0
LINE
  5
11B3
330
2
100
AcDbEntity
  8
YKK_Z1
  6
Continuous
 48
1.5
370
    13
100
AcDbLine
 10
3968.00046817
 20
16585.37274005
 30
0.0
 11
3987.99968466
 21
16565.37305537
 31
0.0
  0
LINE
  5
11B4
330
2
100
AcDbEntity
  8
YKK_Z1
  6
Continuous
 48
1.5
370
    13
100
AcDbLine
 10
3944.39999999
 20
16561.77410038
 30
0.0
 11
3947.61756918
 21
16564.99159425
 31
0.0
  0
LINE
  5
11B5
330
2
100
AcDbEntity
  8
YKK_Z1
  6
Continuous
 48
1.5
370
    13
100
AcDbLine
 10
3948.59736993
 20
16565.97137206
 30
0.0
 11
3967.99929771
 21
16585.37284564
 31
0.0
  0
LINE
  5
11B6
330
2
100
AcDbEntity
  8
YKK_Z1
  6
Continuous
 48
1.5
370
    30
100
AcDbLine
 10
3951.79999999
 20
16560.99693464
 30
0.0
 11
3987.99974937
 21
16565.37306319
 31
0.0
1001
YOBJCUT10930154511
1000
DET1
1001
YOBJCUT10930154627
1000
DET1
  0
LINE
  5
11B7
330
2
100
AcDbEntity
  8
YKK_Z1
  6
Continuous
 48
1.5
370
    30
100
AcDbLine
 10
4049.41395797
 20
16565.37306319
 30
0.0
 11
4008.87830421
 21
16565.37306319
 31
0.0
  0
LINE
  5
11B8
330
2
100
AcDbEntity
  8
YKK_Z1
  6
Continuous
 48
1.5
370
    30
100
AcDbLine
 10
4047.26863009
 20
16547.87306319
 30
0.0
 11
4011.02363209
 21
16547.87306319
 31
0.0
  0
LINE
  5
11B9
330
2
100
AcDbEntity
  8
YKK_Z1
  6
Continuous
 48
1.5
370
    13
100
AcDbLine
 10
3949.80135565
 20
16583.57251272
 30
0.0
 11
3970.15727608
 21
16563.21611575
 31
0.0
  0
LINE
  5
11BA
330
2
100
AcDbEntity
  8
YKK_Z1
  6
Continuous
 48
1.5
370
    13
100
AcDbLine
 10
3944.54477303
 20
16568.8294525
 30
0.0
 11
3947.33756096
 21
16566.03659919
 31
0.0
  0
LINE
  5
11BB
330
2
100
AcDbEntity
  8
YKK_Z1
  6
Continuous
 48
1.5
370
    13
100
AcDbLine
 10
3949.03463177
 20
16564.33948864
 30
0.0
 11
3949.34394761
 21
16564.03016557
 31
0.0
  0
LINE
  5
11BC
330
2
100
AcDbEntity
  8
YKK_Z1
  6
Continuous
 48
1.5
370
    13
100
AcDbLine
 10
3949.78621821
 20
16563.58788461
 30
0.0
 11
3949.79999999
 21
16563.57410251
 31
0.0
  0
LINE
  5
11BD
330
2
100
AcDbEntity
  8
YKK_Z1
  6
Continuous
 48
1.5
370
    13
100
AcDbLine
 10
3950.79999999
 20
16562.5740791
 30
0.0
 11
3952.31486749
 21
16561.05917613
 31
0.0
  0
LINE
  5
11BE
330
2
100
AcDbEntity
  8
YKK_Z1
  6
Continuous
 48
1.5
370
    30
100
AcDbLine
 10
3957.69999997
 20
16585.37273361
 30
0.0
 11
3987.99974937
 21
16585.37306319
 31
0.0
  0
LINE
  5
11BF
330
2
100
AcDbEntity
  8
YKK_B1
100
AcDbLine
 10
2988.00000021
 20
16545.37273362
 30
0.0
 11
2988.00000021
 21
16525.37273362
 31
0.0
  0
LINE
  5
11C0
330
2
100
AcDbEntity
  8
YKK_B1
100
AcDbLine
 10
2988.00000021
 20
16525.37273362
 30
0.0
 11
3013.00000021
 21
16525.37273362
 31
0.0
  0
LINE
  5
11C1
330
2
100
AcDbEntity
  8
YKK_B1
100
AcDbLine
 10
3013.00000021
 20
16525.37273362
 30
0.0
 11
3013.00000025
 21
16585.3727336
 31
0.0
  0
LINE
  5
11C2
330
2
100
AcDbEntity
  8
YKK_B1
100
AcDbLine
 10
2998.00000025
 20
16594.3727336
 30
0.0
 11
2998.00000021
 21
16585.37251273
 31
0.0
  0
LINE
  5
11C3
330
2
100
AcDbEntity
  8
YKK_B1
100
AcDbLine
 10
2998.00000021
 20
16585.37251273
 30
0.0
 11
3028.00000025
 21
16585.3727336
 31
0.0
  0
LINE
  5
11C4
330
2
100
AcDbEntity
  8
YKK_B1
100
AcDbLine
 10
3028.00000025
 20
16585.3727336
 30
0.0
 11
3028.00000025
 21
16617.3727336
 31
0.0
  0
LINE
  5
11C5
330
2
100
AcDbEntity
  8
YKK_B1
100
AcDbLine
 10
3028.00000025
 20
16617.3727336
 30
0.0
 11
3005.00000025
 21
16617.3727336
 31
0.0
  0
LINE
  5
11C6
330
2
100
AcDbEntity
  8
YKK_B1
100
AcDbLine
 10
3005.00000025
 20
16617.3727336
 30
0.0
 11
3005.00000025
 21
16635.3727336
 31
0.0
  0
LINE
  5
11C7
330
2
100
AcDbEntity
  8
YKK_B1
100
AcDbLine
 10
3005.00000025
 20
16635.3727336
 30
0.0
 11
3028.00000025
 21
16635.3727336
 31
0.0
  0
LINE
  5
11C8
330
2
100
AcDbEntity
  8
YKK_B1
100
AcDbLine
 10
3028.00000025
 20
16635.3727336
 30
0.0
 11
3028.00000025
 21
16655.3727336
 31
0.0
  0
LINE
  5
11C9
330
2
100
AcDbEntity
  8
YKK_B1
100
AcDbLine
 10
3028.00000025
 20
16655.3727336
 30
0.0
 11
2998.00000025
 21
16655.3727336
 31
0.0
  0
LINE
  5
11CA
330
2
100
AcDbEntity
  8
YKK_B1
100
AcDbLine
 10
2998.00000025
 20
16655.3727336
 30
0.0
 11
2998.00000025
 21
16646.3727336
 31
0.0
  0
LINE
  5
11CB
330
2
100
AcDbEntity
  8
YKK_B1
100
AcDbLine
 10
3968.0
 20
16545.37273362
 30
0.0
 11
3968.0
 21
16525.37273362
 31
0.0
  0
LINE
  5
11CC
330
2
100
AcDbEntity
  8
YKK_B1
100
AcDbLine
 10
3968.0
 20
16525.37273362
 30
0.0
 11
3943.0
 21
16525.37273362
 31
0.0
  0
LINE
  5
11CD
330
2
100
AcDbEntity
  8
YKK_B1
100
AcDbLine
 10
3943.0
 20
16525.37273362
 30
0.0
 11
3942.99999996
 21
16585.3727336
 31
0.0
  0
LINE
  5
11CE
330
2
100
AcDbEntity
  8
YKK_B1
100
AcDbLine
 10
3957.99999996
 20
16594.3727336
 30
0.0
 11
3958.0
 21
16585.37251273
 31
0.0
  0
LINE
  5
11CF
330
2
100
AcDbEntity
  8
YKK_B1
100
AcDbLine
 10
3958.0
 20
16585.37251273
 30
0.0
 11
3927.99999996
 21
16585.3727336
 31
0.0
  0
LINE
  5
11D0
330
2
100
AcDbEntity
  8
YKK_B1
100
AcDbLine
 10
3927.99999996
 20
16585.3727336
 30
0.0
 11
3927.99999996
 21
16617.3727336
 31
0.0
  0
LINE
  5
11D1
330
2
100
AcDbEntity
  8
YKK_B1
100
AcDbLine
 10
3927.99999996
 20
16617.3727336
 30
0.0
 11
3950.99999996
 21
16617.3727336
 31
0.0
  0
LINE
  5
11D2
330
2
100
AcDbEntity
  8
YKK_B1
100
AcDbLine
 10
3950.99999996
 20
16617.3727336
 30
0.0
 11
3950.99999996
 21
16635.3727336
 31
0.0
  0
LINE
  5
11D3
330
2
100
AcDbEntity
  8
YKK_B1
100
AcDbLine
 10
3950.99999996
 20
16635.3727336
 30
0.0
 11
3927.99999996
 21
16635.3727336
 31
0.0
  0
LINE
  5
11D4
330
2
100
AcDbEntity
  8
YKK_B1
100
AcDbLine
 10
3927.99999996
 20
16635.3727336
 30
0.0
 11
3927.99999996
 21
16655.3727336
 31
0.0
  0
LINE
  5
11D5
330
2
100
AcDbEntity
  8
YKK_B1
100
AcDbLine
 10
3927.99999996
 20
16655.3727336
 30
0.0
 11
3957.99999996
 21
16655.3727336
 31
0.0
  0
LINE
  5
11D6
330
2
100
AcDbEntity
  8
YKK_B1
100
AcDbLine
 10
3957.99999996
 20
16655.3727336
 30
0.0
 11
3957.99999996
 21
16646.3727336
 31
0.0
  0
LINE
  5
11D7
330
2
100
AcDbEntity
  8
YKK_B1
100
AcDbLine
 10
3020.00000024
 20
16626.37273361
 30
0.0
 11
3935.99999997
 21
16626.37273361
 31
0.0
  0
LINE
  5
11D8
330
2
100
AcDbEntity
  8
YKK_B1
100
AcDbLine
 10
3038.00000025
 20
16655.37273361
 30
0.0
 11
3917.99999996
 21
16655.37273361
 31
0.0
  0
LINE
  5
11D9
330
2
100
AcDbEntity
  8
YKK_B1
100
AcDbLine
 10
3038.00000025
 20
16585.37273361
 30
0.0
 11
3917.99999996
 21
16585.37273361
 31
0.0
  0
LINE
  5
11DA
330
2
100
AcDbEntity
  8
YKK_N1
100
AcDbLine
 10
3028.00000024
 20
16480.37273362
 30
0.0
 11
3028.00000024
 21
16110.37273362
 31
0.0
  0
LINE
  5
11DB
330
2
100
AcDbEntity
  8
YKK_N1
100
AcDbLine
 10
3928.00000024
 20
16480.37273362
 30
0.0
 11
3928.00000024
 21
16110.37273362
 31
0.0
  0
LINE
  5
11DC
330
2
100
AcDbEntity
  8
YKK_N1
100
AcDbLine
 10
3028.00000024
 20
16140.37273362
 30
0.0
 11
3928.00000024
 21
16140.37273362
 31
0.0
  0
TEXT
  5
11DD
330
2
100
AcDbEntity
  8
YKK_N1
100
AcDbText
 10
3362.55193102
 20
16150.37273362
 30
0.0
 40
60.0
  1
W=900
 41
0.8
  7
YKK_SGSTYLE1
100
AcDbText
  0
LINE
  5
11DE
330
2
100
AcDbEntity
  8
YKK_N1
  6
ByBlock
100
AcDbLine
 10
3114.60254062
 20
16090.37273362
 30
0.0
 11
3114.60254062
 21
16190.37273362
 31
0.0
  0
LINE
  5
11DF
330
2
100
AcDbEntity
  8
YKK_N1
  6
ByBlock
100
AcDbLine
 10
3028.00000024
 20
16140.37273362
 30
0.0
 11
3114.60254062
 21
16090.37273362
 31
0.0
  0
LINE
  5
11E0
330
2
100
AcDbEntity
  8
YKK_N1
  6
ByBlock
100
AcDbLine
 10
3114.60254062
 20
16190.37273362
 30
0.0
 11
3028.00000024
 21
16140.37273362
 31
0.0
  0
LINE
  5
11E1
330
2
100
AcDbEntity
  8
YKK_N1
  6
ByBlock
100
AcDbLine
 10
3841.39745986
 20
16090.37273362
 30
0.0
 11
3928.00000024
 21
16140.37273362
 31
0.0
  0
LINE
  5
11E2
330
2
100
AcDbEntity
  8
YKK_N1
  6
ByBlock
100
AcDbLine
 10
3841.39745986
 20
16190.37273362
 30
0.0
 11
3841.39745986
 21
16090.37273362
 31
0.0
  0
LINE
  5
11E3
330
2
100
AcDbEntity
  8
YKK_N1
  6
ByBlock
100
AcDbLine
 10
3928.00000024
 20
16140.37273362
 30
0.0
 11
3841.39745986
 21
16190.37273362
 31
0.0
  0
ENDSEC
  0
SECTION
  2
OBJECTS
  0
DICTIONARY
  5
1A
330
0
100
AcDbDictionary
281
     1
  3
ACAD_CIP_PREVIOUS_PRODUCT_INFO
350
C81
  3
ACAD_COLOR
350
C12
  3
ACAD_DETAILVIEWSTYLE
350
C2B
  3
ACAD_GROUP
350
18
  3
ACAD_LAYOUT
350
C32
  3
ACAD_MATERIAL
350
BE0
  3
ACAD_MLEADERSTYLE
350
C27
  3
ACAD_MLINESTYLE
350
19
  3
ACAD_PLOTSETTINGS
350
C31
  3
ACAD_PLOTSTYLENAME
350
BDE
  3
ACAD_RENDER_ACTIVE_RAPIDRT_SETTINGS
350
D39
  3
ACAD_RENDER_ACTIVE_SETTINGS
350
12FB
  3
ACAD_SCALELIST
350
C15
  3
ACAD_SECTIONVIEWSTYLE
350
C29
  3
ACAD_TABLESTYLE
350
C13
  3
ACAD_VISUALSTYLE
350
BF9
  3
ACDB_RECOMPOSE_DATA
350
1308
  3
AcDbVariableDictionary
350
C73
  0
DICTIONARY
  5
CEB
330
12
100
AcDbDictionary
280
     1
281
     1
  0
DICTIONARY
  5
CDB
330
A
100
AcDbDictionary
280
     1
281
     1
  3
ACAD_LAYERSTATES
360
CDC
  0
DICTIONARY
  5
CC2
330
4
100
AcDbDictionary
280
     1
281
     1
  3
ADSK_XREC_LAYER_RECONCILED
360
CC3
  0
DICTIONARY
  5
CC4
330
48
100
AcDbDictionary
280
     1
281
     1
  3
ADSK_XREC_LAYER_RECONCILED
360
CC5
  0
DICTIONARY
  5
CC6
330
29
100
AcDbDictionary
280
     1
281
     1
  3
ADSK_XREC_LAYER_RECONCILED
360
CC7
  0
DICTIONARY
  5
CC8
330
20
100
AcDbDictionary
280
     1
281
     1
  3
ADSK_XREC_LAYER_RECONCILED
360
CC9
  0
DICTIONARY
  5
CCA
330
44
100
AcDbDictionary
280
     1
281
     1
  3
ADSK_XREC_LAYER_RECONCILED
360
CCB
  0
DICTIONARY
  5
CCC
330
42
100
AcDbDictionary
280
     1
281
     1
  3
ADSK_XREC_LAYER_RECONCILED
360
CCD
  0
DICTIONARY
  5
CCE
330
40
100
AcDbDictionary
280
     1
281
     1
  3
ADSK_XREC_LAYER_RECONCILED
360
CCF
  0
DICTIONARY
  5
CD0
330
3E
100
AcDbDictionary
280
     1
281
     1
  3
ADSK_XREC_LAYER_RECONCILED
360
CD1
  0
DICTIONARY
  5
CD2
330
3C
100
AcDbDictionary
280
     1
281
     1
  3
ADSK_XREC_LAYER_RECONCILED
360
CD3
  0
DICTIONARY
  5
CD4
330
3A
100
AcDbDictionary
280
     1
281
     1
  3
ADSK_XREC_LAYER_RECONCILED
360
CD5
  0
DICTIONARY
  5
CD6
330
38
100
AcDbDictionary
280
     1
281
     1
  3
ADSK_XREC_LAYER_RECONCILED
360
CD7
  0
XRECORD
  5
C81
102
{ACAD_REACTORS
330
1A
102
}
330
1A
100
AcDbXrecord
280
     1
300
ACD
300
2018
300
86830ACD_2018_0F
  0
DICTIONARY
  5
C12
102
{ACAD_REACTORS
330
1A
102
}
330
1A
100
AcDbDictionary
281
     1
  0
DICTIONARY
  5
C2B
102
{ACAD_REACTORS
330
1A
102
}
330
1A
100
AcDbDictionary
281
     1
  3
Imperial24
350
C2C
  3
Metric50
350
D2B
  0
DICTIONARY
  5
18
102
{ACAD_REACTORS
330
1A
102
}
330
1A
100
AcDbDictionary
281
     1
  0
DICTIONARY
  5
C32
102
{ACAD_REACTORS
330
1A
102
}
330
1A
100
AcDbDictionary
281
     1
  3
Model
350
C33
  3
レイアウト1
350
C34
  0
DICTIONARY
  5
BE0
102
{ACAD_REACTORS
330
1A
102
}
330
1A
100
AcDbDictionary
281
     1
  3
ByBlock
350
BE9
  3
ByLayer
350
BE1
  3
Global
350
BF1
  0
DICTIONARY
  5
C27
102
{ACAD_REACTORS
330
1A
102
}
330
1A
100
AcDbDictionary
281
     1
  3
Standard
350
C28
  0
DICTIONARY
  5
19
102
{ACAD_REACTORS
330
1A
102
}
330
1A
100
AcDbDictionary
281
     1
  3
STANDARD
350
1B
  0
DICTIONARY
  5
C31
102
{ACAD_REACTORS
330
1A
102
}
330
1A
100
AcDbDictionary
281
     1
  0
ACDBDICTIONARYWDFLT
  5
BDE
102
{ACAD_REACTORS
330
1A
102
}
330
1A
100
AcDbDictionary
281
     1
  3
Normal
350
BDF
100
AcDbDictionaryWithDefault
340
BDF
  0
RAPIDRTRENDERSETTINGS
  5
D39
102
{ACAD_REACTORS
330
1A
102
}
330
1A
100
AcDbRenderSettings
 90
        2
  1
中
290
     1
290
     0
290
     1
290
     1
  1

  1
5 レンダリング レベルを適用
 90
        0
100
AcDbRapidRTRenderSettings
 90
        3
 70
     0
 90
        5
 90
        1
 70
     1
 70
     2
 40
3.0
 40
3.0
290
     1
  0
MENTALRAYRENDERSETTINGS
  5
12FB
102
{ACAD_XDICTIONARY
360
12FC
102
}
102
{ACAD_REACTORS
330
1A
102
}
330
1A
100
AcDbRenderSettings
 90
        2
  1
中間
290
     1
290
     1
290
     1
290
     1
  1

  1

 90
        0
100
AcDbMentalRayRenderSettings
 90
        2
 90
        0
 90
        1
 70
     2
 40
3.0
 40
3.0
 40
0.05
 40
0.05
 40
0.05
 40
0.05
 70
     0
290
     0
290
     1
 90
        5
 90
        5
 90
        5
290
     0
 90
      500
290
     0
 40
1.0
 90
    10000
 90
        5
 90
        5
 90
        5
290
     0
 90
      200
290
     0
290
     0
290
     0
 40
1.0
 40
1.0
 40
1500.0
 70
     0
 70
     0
 40
10.0
 70
     0
 70
     0
290
     0
  1

 90
       32
 70
     0
 90
     1048
290
     0
 40
1.0
  0
DICTIONARY
  5
C15
102
{ACAD_REACTORS
330
1A
102
}
330
1A
100
AcDbDictionary
281
     1
  3
A0
350
C16
  3
A1
350
C17
  3
A2
350
C18
  3
A3
350
C19
  3
A4
350
C1A
  3
A5
350
C1B
  3
A6
350
C1C
  3
A7
350
C1D
  3
A8
350
C1E
  3
A9
350
C1F
  3
B0
350
C20
  3
B1
350
C21
  3
B2
350
C22
  3
B3
350
C23
  3
B4
350
C24
  3
B5
350
C25
  3
B6
350
C26
  0
DICTIONARY
  5
C29
102
{ACAD_REACTORS
330
1A
102
}
330
1A
100
AcDbDictionary
281
     1
  3
Imperial24
350
C2A
  3
Metric50
350
D2A
  0
DICTIONARY
  5
C13
102
{ACAD_REACTORS
330
1A
102
}
330
1A
100
AcDbDictionary
281
     1
  3
Standard
350
C14
  0
DICTIONARY
  5
BF9
102
{ACAD_REACTORS
330
1A
102
}
330
1A
100
AcDbDictionary
281
     1
  3
2dWireframe
350
BFF
  3
Basic
350
BFE
  3
Brighten
350
C05
  3
ColorChange
350
C09
  3
Conceptual
350
C02
  3
Dim
350
C04
  3
EdgeColorOff
350
C11
  3
Facepattern
350
C08
  3
Flat
350
BFA
  3
FlatWithEdges
350
BFB
  3
Gouraud
350
BFC
  3
GouraudWithEdges
350
BFD
  3
Hidden
350
C01
  3
JitterOff
350
C0F
  3
Linepattern
350
C07
  3
OverhangOff
350
C10
  3
Realistic
350
C03
  3
Shaded
350
C0E
  3
Shaded with edges
350
C0D
  3
Shades of Gray
350
C0A
  3
Sketchy
350
C0B
  3
Thicken
350
C06
  3
Wireframe
350
C00
  3
X-Ray
350
C0C
  0
XRECORD
  5
1308
102
{ACAD_REACTORS
330
1A
102
}
330
1A
100
AcDbXrecord
280
     1
 90
        1
330
C14
  0
DICTIONARY
  5
C73
102
{ACAD_REACTORS
330
1A
102
}
330
1A
100
AcDbDictionary
281
     1
  3
CANNOSCALE
350
C78
  3
CMLEADERSTYLE
350
C75
  3
CTABLESTYLE
350
C74
  3
CVIEWDETAILSTYLE
350
C76
  3
CVIEWSECTIONSTYLE
350
C77
  3
XCLIPFRAME
350
1306
  0
DICTIONARY
  5
CDC
102
{ACAD_REACTORS
330
CDB
102
}
330
CDB
100
AcDbDictionary
281
     1
  0
XRECORD
  5
CC3
102
{ACAD_REACTORS
330
CC2
102
}
330
CC2
100
AcDbXrecord
280
     1
290
     1
  0
XRECORD
  5
CC5
102
{ACAD_REACTORS
330
CC4
102
}
330
CC4
100
AcDbXrecord
280
     1
290
     1
  0
XRECORD
  5
CC7
102
{ACAD_REACTORS
330
CC6
102
}
330
CC6
100
AcDbXrecord
280
     1
290
     1
  0
XRECORD
  5
CC9
102
{ACAD_REACTORS
330
CC8
102
}
330
CC8
100
AcDbXrecord
280
     1
290
     1
  0
XRECORD
  5
CCB
102
{ACAD_REACTORS
330
CCA
102
}
330
CCA
100
AcDbXrecord
280
     1
290
     1
  0
XRECORD
  5
CCD
102
{ACAD_REACTORS
330
CCC
102
}
330
CCC
100
AcDbXrecord
280
     1
290
     1
  0
XRECORD
  5
CCF
102
{ACAD_REACTORS
330
CCE
102
}
330
CCE
100
AcDbXrecord
280
     1
290
     1
  0
XRECORD
  5
CD1
102
{ACAD_REACTORS
330
CD0
102
}
330
CD0
100
AcDbXrecord
280
     1
290
     1
  0
XRECORD
  5
CD3
102
{ACAD_REACTORS
330
CD2
102
}
330
CD2
100
AcDbXrecord
280
     1
290
     1
  0
XRECORD
  5
CD5
102
{ACAD_REACTORS
330
CD4
102
}
330
CD4
100
AcDbXrecord
280
     1
290
     1
  0
XRECORD
  5
CD7
102
{ACAD_REACTORS
330
CD6
102
}
330
CD6
100
AcDbXrecord
280
     1
290
     1
  0
ACDBDETAILVIEWSTYLE
  5
C2C
102
{ACAD_XDICTIONARY
360
1341
102
}
102
{ACAD_REACTORS
330
C2B
102
}
330
C2B
100
AcDbModelDocViewStyle
 70
     0
  3
Imperial24
290
     0
100
AcDbDetailViewStyle
 70
     0
 71
     0
 90
        3
 71
     1
340
C
 62
   256
 40
0.24
340
0
 62
   256
 40
0.24
300

 40
0.36
280
     3
 71
     2
340
5
 90
       25
 62
   256
 71
     3
340
C
 62
   256
 40
0.24
 90
        1
 40
0.75
 90
        1
300
%<\AcVar ViewType \f "%tc1">% %<\AcVar ViewDetailId>%\PSCALE %<\AcVar ViewScale \f "%sn">%
 71
     4
340
5
 90
       25
 62
   256
340
5
 90
       25
 62
   256
280
     0
  0
ACDBDETAILVIEWSTYLE
  5
D2B
102
{ACAD_XDICTIONARY
360
1345
102
}
102
{ACAD_REACTORS
330
C2B
102
}
330
C2B
100
AcDbModelDocViewStyle
 70
     0
  3
Metric50
290
     0
100
AcDbDetailViewStyle
 70
     0
 71
     0
 90
        3
 71
     1
340
C
 62
   256
 40
5.0
340
0
 62
   256
 40
5.0
300

 40
0.0
280
     1
 71
     2
340
5
 90
       25
 62
   256
 71
     3
340
C
 62
   256
 40
5.0
 90
        0
 40
15.0
 90
        1
300
%<\AcVar ViewDetailId>% (%<\AcVar ViewScale \f "%sn">%)
 71
     4
340
5
 90
       25
 62
   256
340
5
 90
       25
 62
   256
280
     0
  0
LAYOUT
  5
C33
102
{ACAD_XDICTIONARY
360
D27
102
}
102
{ACAD_REACTORS
330
C32
102
}
330
C32
100
AcDbPlotSettings
  1

  2
C:\ACAD-I\support\plotters\Default Windows System Printer.pc3
  4
A4
  6

 40
3.17499995
 41
3.17499995
 42
3.17500305
 43
3.17498779
 44
209.88865662
 45
297.05300903
 46
0.0
 47
0.0
 48
0.0
 49
0.0
140
0.0
141
0.0
142
1.0
143
3031.53538538
 70
 11952
 72
     0
 73
     1
 74
     0
  7
monochrome.ctb
 75
     0
147
0.00032987
 76
     0
 77
     2
 78
   300
148
49716.89191176
149
2100.1002977
100
AcDbLayout
  1
Model
 70
     1
 71
     0
 10
0.0
 20
0.0
 11
12.0
 21
9.0
 12
0.0
 22
0.0
 32
0.0
 14
0.0
 24
0.0
 34
0.0
 15
0.0
 25
0.0
 35
0.0
146
0.0
 13
0.0
 23
0.0
 33
0.0
 16
1.0
 26
0.0
 36
0.0
 17
0.0
 27
1.0
 37
0.0
 76
     0
330
2
331
BDC
1001
ACAD_PSEXT
1000
C:\ACAD-I\support\plotters\Default Windows System Printer.pc3
1000
Fiery PRO80 65-55C-KM PS3.0jp
1000
IP_10.230.204.212
1000

1070
     0
  0
LAYOUT
  5
C34
102
{ACAD_REACTORS
330
C32
102
}
330
C32
100
AcDbPlotSettings
  1

  2
C:\ACAD-I\support\plotters\Default Windows System Printer.pc3
  4
A4
  6

 40
3.17499995
 41
3.17499995
 42
3.17500305
 43
3.17498779
 44
209.88865662
 45
297.05300903
 46
0.0
 47
0.0
 48
0.0
 49
0.0
140
0.0
141
0.0
142
1.0
143
1.0
 70
 15024
 72
     0
 73
     1
 74
     5
  7
monochrome.ctb
 75
    16
147
1.0
 76
     0
 77
     2
 78
   300
148
0.0
149
0.0
100
AcDbLayout
  1
レイアウト1
 70
     0
 71
     1
 10
0.0
 20
0.0
 11
12.0
 21
9.0
 12
0.0
 22
0.0
 32
0.0
 14
1.00000000E+20
 24
1.00000000E+20
 34
1.00000000E+20
 15
-1.00000000E+20
 25
-1.00000000E+20
 35
-1.00000000E+20
146
0.0
 13
0.0
 23
0.0
 33
0.0
 16
1.0
 26
0.0
 36
0.0
 17
0.0
 27
1.0
 37
0.0
 76
     0
330
7
1001
ACAD_PSEXT
1000
C:\ACAD-I\support\plotters\Default Windows System Printer.pc3
1000
Fiery PRO80 65-55C-KM PS3.0jp
1000
IP_10.230.204.212
1000

1070
     0
  0
MATERIAL
  5
BE9
102
{ACAD_XDICTIONARY
360
BEA
102
}
102
{ACAD_REACTORS
330
BE0
102
}
330
BE0
100
AcDbMaterial
  1
ByBlock
 72
     0
 43
0.02083333
 43
0.0
 43
0.0
 43
0.0
 43
0.0
 43
0.02083333
 43
0.0
 43
0.0
 43
0.0
 43
0.0
 43
1.0
 43
0.0
 43
0.0
 43
0.0
 43
0.0
 43
1.0
 77
     0
 47
0.02083333
 47
0.0
 47
0.0
 47
0.0
 47
0.0
 47
0.02083333
 47
0.0
 47
0.0
 47
0.0
 47
0.0
 47
1.0
 47
0.0
 47
0.0
 47
0.0
 47
0.0
 47
1.0
171
     0
 49
0.02083333
 49
0.0
 49
0.0
 49
0.0
 49
0.0
 49
0.02083333
 49
0.0
 49
0.0
 49
0.0
 49
0.0
 49
1.0
 49
0.0
 49
0.0
 49
0.0
 49
0.0
 49
1.0
175
     0
142
0.02083333
142
0.0
142
0.0
142
0.0
142
0.0
142
0.02083333
142
0.0
142
0.0
142
0.0
142
0.0
142
1.0
142
0.0
142
0.0
142
0.0
142
0.0
142
1.0
179
     0
144
0.02083333
144
0.0
144
0.0
144
0.0
144
0.0
144
0.02083333
144
0.0
144
0.0
144
0.0
144
0.0
144
1.0
144
0.0
144
0.0
144
0.0
144
0.0
144
1.0
147
0.02083333
147
0.0
147
0.0
147
0.0
147
0.0
147
0.02083333
147
0.0
147
0.0
147
0.0
147
0.0
147
1.0
147
0.0
147
0.0
147
0.0
147
0.0
147
1.0
  0
MATERIAL
  5
BE1
102
{ACAD_XDICTIONARY
360
BE2
102
}
102
{ACAD_REACTORS
330
BE0
102
}
330
BE0
100
AcDbMaterial
  1
ByLayer
 72
     0
 43
0.02083333
 43
0.0
 43
0.0
 43
0.0
 43
0.0
 43
0.02083333
 43
0.0
 43
0.0
 43
0.0
 43
0.0
 43
1.0
 43
0.0
 43
0.0
 43
0.0
 43
0.0
 43
1.0
 77
     0
 47
0.02083333
 47
0.0
 47
0.0
 47
0.0
 47
0.0
 47
0.02083333
 47
0.0
 47
0.0
 47
0.0
 47
0.0
 47
1.0
 47
0.0
 47
0.0
 47
0.0
 47
0.0
 47
1.0
171
     0
 49
0.02083333
 49
0.0
 49
0.0
 49
0.0
 49
0.0
 49
0.02083333
 49
0.0
 49
0.0
 49
0.0
 49
0.0
 49
1.0
 49
0.0
 49
0.0
 49
0.0
 49
0.0
 49
1.0
175
     0
142
0.02083333
142
0.0
142
0.0
142
0.0
142
0.0
142
0.02083333
142
0.0
142
0.0
142
0.0
142
0.0
142
1.0
142
0.0
142
0.0
142
0.0
142
0.0
142
1.0
179
     0
144
0.02083333
144
0.0
144
0.0
144
0.0
144
0.0
144
0.02083333
144
0.0
144
0.0
144
0.0
144
0.0
144
1.0
144
0.0
144
0.0
144
0.0
144
0.0
144
1.0
147
0.02083333
147
0.0
147
0.0
147
0.0
147
0.0
147
0.02083333
147
0.0
147
0.0
147
0.0
147
0.0
147
1.0
147
0.0
147
0.0
147
0.0
147
0.0
147
1.0
  0
MATERIAL
  5
BF1
102
{ACAD_XDICTIONARY
360
BF2
102
}
102
{ACAD_REACTORS
330
BE0
102
}
330
BE0
100
AcDbMaterial
  1
Global
 72
     0
 43
0.02083333
 43
0.0
 43
0.0
 43
0.0
 43
0.0
 43
0.02083333
 43
0.0
 43
0.0
 43
0.0
 43
0.0
 43
1.0
 43
0.0
 43
0.0
 43
0.0
 43
0.0
 43
1.0
 77
     0
 47
0.02083333
 47
0.0
 47
0.0
 47
0.0
 47
0.0
 47
0.02083333
 47
0.0
 47
0.0
 47
0.0
 47
0.0
 47
1.0
 47
0.0
 47
0.0
 47
0.0
 47
0.0
 47
1.0
171
     0
 49
0.02083333
 49
0.0
 49
0.0
 49
0.0
 49
0.0
 49
0.02083333
 49
0.0
 49
0.0
 49
0.0
 49
0.0
 49
1.0
 49
0.0
 49
0.0
 49
0.0
 49
0.0
 49
1.0
175
     0
142
0.02083333
142
0.0
142
0.0
142
0.0
142
0.0
142
0.02083333
142
0.0
142
0.0
142
0.0
142
0.0
142
1.0
142
0.0
142
0.0
142
0.0
142
0.0
142
1.0
179
     0
144
0.02083333
144
0.0
144
0.0
144
0.0
144
0.0
144
0.02083333
144
0.0
144
0.0
144
0.0
144
0.0
144
1.0
144
0.0
144
0.0
144
0.0
144
0.0
144
1.0
147
0.02083333
147
0.0
147
0.0
147
0.0
147
0.0
147
0.02083333
147
0.0
147
0.0
147
0.0
147
0.0
147
1.0
147
0.0
147
0.0
147
0.0
147
0.0
147
1.0
  0
MLEADERSTYLE
  5
C28
102
{ACAD_XDICTIONARY
360
133D
102
}
102
{ACAD_REACTORS
330
C27
102
}
330
C27
100
AcDbMLeaderStyle
170
     2
171
     1
172
     0
 90
        2
 40
0.0
 41
0.0
173
     1
 91
-1056964608
340
E
 92
       -2
290
     1
 42
0.09
291
     1
 43
0.36
  3
Standard
 44
0.18
300

342
C
174
     1
178
     6
175
     1
176
     0
 93
-1056964608
 45
0.18
292
     0
297
     0
 46
0.18
 94
-1056964608
 47
1.0
 49
1.0
140
1.0
293
     1
141
0.0
294
     1
177
     0
142
1.0
295
     0
296
     0
143
0.125
1001
ACAD_MLEADERVER
1070
     2
  0
MLINESTYLE
  5
1B
102
{ACAD_REACTORS
330
19
102
}
330
19
100
AcDbMlineStyle
  2
STANDARD
 70
     0
  3

 62
   256
 51
90.0
 52
90.0
 71
     2
 49
0.5
 62
   256
  6
BYLAYER
 49
-0.5
 62
   256
  6
BYLAYER
  0
ACDBPLACEHOLDER
  5
BDF
102
{ACAD_REACTORS
330
BDE
102
}
330
BDE
  0
DICTIONARY
  5
12FC
330
12FB
100
AcDbDictionary
280
     1
281
     1
  3
ADSK_XREC_MENTALRAYSETTINGSINFO
360
12FD
  0
SCALE
  5
C16
102
{ACAD_REACTORS
330
C15
102
}
330
C15
100
AcDbScale
 70
     0
300
1:1
140
1.0
141
1.0
290
     1
  0
SCALE
  5
C17
102
{ACAD_REACTORS
330
C15
102
}
330
C15
100
AcDbScale
 70
     0
300
1/128" = 1'-0"
140
0.0078125
141
12.0
290
     0
  0
SCALE
  5
C18
102
{ACAD_REACTORS
330
C15
102
}
330
C15
100
AcDbScale
 70
     0
300
1/64" = 1'-0"
140
0.015625
141
12.0
290
     0
  0
SCALE
  5
C19
102
{ACAD_REACTORS
330
C15
102
}
330
C15
100
AcDbScale
 70
     0
300
1/32" = 1'-0"
140
0.03125
141
12.0
290
     0
  0
SCALE
  5
C1A
102
{ACAD_REACTORS
330
C15
102
}
330
C15
100
AcDbScale
 70
     0
300
1/16" = 1'-0"
140
0.0625
141
12.0
290
     0
  0
SCALE
  5
C1B
102
{ACAD_REACTORS
330
C15
102
}
330
C15
100
AcDbScale
 70
     0
300
3/32" = 1'-0"
140
0.09375
141
12.0
290
     0
  0
SCALE
  5
C1C
102
{ACAD_REACTORS
330
C15
102
}
330
C15
100
AcDbScale
 70
     0
300
1/8" = 1'-0"
140
0.125
141
12.0
290
     0
  0
SCALE
  5
C1D
102
{ACAD_REACTORS
330
C15
102
}
330
C15
100
AcDbScale
 70
     0
300
3/16" = 1'-0"
140
0.1875
141
12.0
290
     0
  0
SCALE
  5
C1E
102
{ACAD_REACTORS
330
C15
102
}
330
C15
100
AcDbScale
 70
     0
300
1/4" = 1'-0"
140
0.25
141
12.0
290
     0
  0
SCALE
  5
C1F
102
{ACAD_REACTORS
330
C15
102
}
330
C15
100
AcDbScale
 70
     0
300
3/8" = 1'-0"
140
0.375
141
12.0
290
     0
  0
SCALE
  5
C20
102
{ACAD_REACTORS
330
C15
102
}
330
C15
100
AcDbScale
 70
     0
300
1/2" = 1'-0"
140
0.5
141
12.0
290
     0
  0
SCALE
  5
C21
102
{ACAD_REACTORS
330
C15
102
}
330
C15
100
AcDbScale
 70
     0
300
3/4" = 1'-0"
140
0.75
141
12.0
290
     0
  0
SCALE
  5
C22
102
{ACAD_REACTORS
330
C15
102
}
330
C15
100
AcDbScale
 70
     0
300
1" = 1'-0"
140
1.0
141
12.0
290
     0
  0
SCALE
  5
C23
102
{ACAD_REACTORS
330
C15
102
}
330
C15
100
AcDbScale
 70
     0
300
1-1/2" = 1'-0"
140
1.5
141
12.0
290
     0
  0
SCALE
  5
C24
102
{ACAD_REACTORS
330
C15
102
}
330
C15
100
AcDbScale
 70
     0
300
3" = 1'-0"
140
3.0
141
12.0
290
     0
  0
SCALE
  5
C25
102
{ACAD_REACTORS
330
C15
102
}
330
C15
100
AcDbScale
 70
     0
300
6" = 1'-0"
140
6.0
141
12.0
290
     0
  0
SCALE
  5
C26
102
{ACAD_REACTORS
330
C15
102
}
330
C15
100
AcDbScale
 70
     0
300
1'-0" = 1'-0"
140
12.0
141
12.0
290
     0
  0
ACDBSECTIONVIEWSTYLE
  5
C2A
102
{ACAD_XDICTIONARY
360
133F
102
}
102
{ACAD_REACTORS
330
C29
102
}
330
C29
100
AcDbModelDocViewStyle
 70
     0
  3
Imperial24
290
     0
100
AcDbSectionViewStyle
 70
     0
 71
     0
 90
      102
 71
     1
340
C
 62
   256
 40
5.0
340
0
340
0
 62
   256
 40
5.0
300
I, O, Q, S, X, Z
 40
10.0
 90
        0
 40
2.5
 90
        0
 71
     2
340
5
 90
       25
 62
   256
340
5
 90
       50
 62
   256
 40
5.0
 40
2.5
 40
5.0
 71
     3
340
C
 62
   256
 40
5.0
 90
        0
 40
15.0
 90
        1
300
%<\AcVar ViewSectionStartId>%-%<\AcVar ViewSectionEndId>% (%<\AcVar ViewScale \f "%sn">%)
 71
     4
 62
   256
 62
   257
300
ANSI31
 40
1.0
 90
        0
290
     0
290
     0
 90
        6
 40
0.0
 40
1.57079633
 40
0.26179939
 40
1.30899694
 40
-0.26179939
 40
1.83259571
  0
ACDBSECTIONVIEWSTYLE
  5
D2A
102
{ACAD_XDICTIONARY
360
1343
102
}
102
{ACAD_REACTORS
330
C29
102
}
330
C29
100
AcDbModelDocViewStyle
 70
     0
  3
Metric50
290
     0
100
AcDbSectionViewStyle
 70
     0
 71
     0
 90
      102
 71
     1
340
C
 62
   256
 40
5.0
340
0
340
0
 62
   256
 40
5.0
300
I, O, Q, S, X, Z
 40
10.0
 90
        0
 40
2.5
 90
        0
 71
     2
340
5
 90
       25
 62
   256
340
5
 90
       50
 62
   256
 40
5.0
 40
2.5
 40
5.0
 71
     3
340
C
 62
   256
 40
5.0
 90
        0
 40
15.0
 90
        1
300
%<\AcVar ViewSectionStartId>%-%<\AcVar ViewSectionEndId>% (%<\AcVar ViewScale \f "%sn">%)
 71
     4
 62
   256
 62
   257
300
ANSI31
 40
1.0
 90
        0
290
     0
290
     0
 90
        6
 40
0.0
 40
1.57079633
 40
0.26179939
 40
1.30899694
 40
-0.26179939
 40
1.83259571
  0
TABLESTYLE
  5
C14
102
{ACAD_XDICTIONARY
360
C35
102
}
102
{ACAD_REACTORS
330
C13
102
}
330
C13
100
AcDbTableStyle
  3
Standard
 70
     0
 71
     0
 40
0.06
 41
0.06
280
     0
281
     0
  7
STANDARD
140
0.18
170
     2
 62
     0
 63
     7
283
     0
274
    -2
284
     1
 64
     0
275
    -2
285
     1
 65
     0
276
    -2
286
     1
 66
     0
277
    -2
287
     1
 67
     0
278
    -2
288
     1
 68
     0
279
    -2
289
     1
 69
     0
  7
STANDARD
140
0.25
170
     5
 62
     0
 63
     7
283
     0
274
    -2
284
     1
 64
     0
275
    -2
285
     1
 65
     0
276
    -2
286
     1
 66
     0
277
    -2
287
     1
 67
     0
278
    -2
288
     1
 68
     0
279
    -2
289
     1
 69
     0
  7
STANDARD
140
0.18
170
     5
 62
     0
 63
     7
283
     0
274
    -2
284
     1
 64
     0
275
    -2
285
     1
 65
     0
276
    -2
286
     1
 66
     0
277
    -2
287
     1
 67
     0
278
    -2
288
     1
 68
     0
279
    -2
289
     1
 69
     0
  0
VISUALSTYLE
  5
BFF
102
{ACAD_XDICTIONARY
360
1316
102
}
102
{ACAD_REACTORS
330
BF9
102
}
330
BF9
100
AcDbVisualStyle
  2
2dWireframe
 70
     4
 71
     0
 72
     2
 73
     0
 90
        0
 40
-0.6
 41
-30.0
 62
     5
 63
     7
421
 16777215
 74
     1
 91
        4
 64
     7
 65
   257
 75
     1
175
     1
 42
1.0
 92
        0
 66
   257
 43
1.0
 76
     1
 77
     6
 78
     2
 67
     7
 79
     5
170
     0
171
     0
290
     0
174
     0
 93
        1
 44
0.0
173
     0
291
     0
 45
0.0
1001
ACAD
1000
AcDbSavedByObjectVersion
1070
     0
  0
VISUALSTYLE
  5
BFE
102
{ACAD_XDICTIONARY
360
1314
102
}
102
{ACAD_REACTORS
330
BF9
102
}
330
BF9
100
AcDbVisualStyle
  2
Basic
 70
     7
 71
     1
 72
     0
 73
     1
 90
        0
 40
-0.6
 41
-30.0
 62
     5
 63
     7
421
 16777215
 74
     0
 91
        4
 64
     7
 65
   257
 75
     1
175
     1
 42
1.0
 92
        8
 66
     7
 43
1.0
 76
     1
 77
     6
 78
     2
 67
     7
 79
     5
170
     0
171
     0
290
     0
174
     0
 93
        1
 44
0.0
173
     0
291
     1
 45
0.0
1001
ACAD
1000
AcDbSavedByObjectVersion
1070
     0
  0
VISUALSTYLE
  5
C05
102
{ACAD_XDICTIONARY
360
1322
102
}
102
{ACAD_REACTORS
330
BF9
102
}
330
BF9
100
AcDbVisualStyle
  2
Brighten
 70
    12
 71
     2
 72
     2
 73
     0
 90
        0
 40
-0.6
 41
-30.0
 62
     5
 63
     7
421
 16777215
 74
     1
 91
        4
 64
     7
 65
   257
 75
     1
175
     1
 42
1.0
 92
        8
 66
     7
 43
1.0
 76
     1
 77
     6
 78
     2
 67
     7
 79
     5
170
     0
171
     0
290
     0
174
     0
 93
        1
 44
50.0
173
     0
291
     1
 45
0.0
1001
ACAD
1000
AcDbSavedByObjectVersion
1070
     0
  0
VISUALSTYLE
  5
C09
102
{ACAD_XDICTIONARY
360
132A
102
}
102
{ACAD_REACTORS
330
BF9
102
}
330
BF9
100
AcDbVisualStyle
  2
ColorChange
 70
    16
 71
     2
 72
     2
 73
     3
 90
        0
 40
-0.6
 41
-30.0
 62
     5
 63
     8
421
  8421504
 74
     1
 91
        4
 64
     7
 65
   257
 75
     1
175
     1
 42
1.0
 92
        8
 66
     8
424
  8421504
 43
1.0
 76
     1
 77
     6
 78
     2
 67
     7
 79
     5
170
     0
171
     0
290
     0
174
     0
 93
        1
 44
0.0
173
     0
291
     1
 45
0.0
1001
ACAD
1000
AcDbSavedByObjectVersion
1070
     0
  0
VISUALSTYLE
  5
C02
102
{ACAD_XDICTIONARY
360
131C
102
}
102
{ACAD_REACTORS
330
BF9
102
}
330
BF9
100
AcDbVisualStyle
  2
Conceptual
 70
     9
 71
     3
 72
     2
 73
     0
 90
        0
 40
-0.6
 41
-30.0
 62
     5
 63
     7
421
 16777215
 74
     2
 91
        2
 64
     7
 65
   257
 75
     1
175
     1
 42
179.0
 92
        8
 66
     7
 43
1.0
 76
     1
 77
     6
 78
     2
 67
     7
 79
     3
170
     0
171
     0
290
     0
174
     0
 93
        1
 44
0.0
173
     0
291
     0
 45
0.0
1001
ACAD
1000
AcDbSavedByObjectVersion
1070
     0
  0
VISUALSTYLE
  5
C04
102
{ACAD_XDICTIONARY
360
1320
102
}
102
{ACAD_REACTORS
330
BF9
102
}
330
BF9
100
AcDbVisualStyle
  2
Dim
 70
    11
 71
     2
 72
     2
 73
     0
 90
        0
 40
-0.6
 41
-30.0
 62
     5
 63
     7
421
 16777215
 74
     1
 91
        4
 64
     7
 65
   257
 75
     1
175
     1
 42
1.0
 92
        8
 66
     7
 43
1.0
 76
     1
 77
     6
 78
     2
 67
     7
 79
     5
170
     0
171
     0
290
     0
174
     0
 93
        1
 44
-50.0
173
     0
291
     1
 45
0.0
1001
ACAD
1000
AcDbSavedByObjectVersion
1070
     0
  0
VISUALSTYLE
  5
C11
102
{ACAD_XDICTIONARY
360
133A
102
}
102
{ACAD_REACTORS
330
BF9
102
}
330
BF9
100
AcDbVisualStyle
  2
EdgeColorOff
 70
    22
 71
     2
 72
     2
 73
     0
 90
        0
 40
-0.6
 41
-30.0
 62
     5
 63
     7
421
 16777215
 74
     1
 91
        4
 64
     7
 65
   257
 75
     1
175
     1
 42
1.0
 92
        8
 66
     7
 43
1.0
 76
     1
 77
     6
 78
     2
 67
     7
 79
     5
170
     0
171
     0
290
     0
174
     0
 93
        1
 44
0.0
173
     0
291
     1
 45
0.0
1001
ACAD
1000
AcDbSavedByObjectVersion
1070
     0
  0
VISUALSTYLE
  5
C08
102
{ACAD_XDICTIONARY
360
1328
102
}
102
{ACAD_REACTORS
330
BF9
102
}
330
BF9
100
AcDbVisualStyle
  2
Facepattern
 70
    15
 71
     2
 72
     2
 73
     0
 90
        0
 40
-0.6
 41
-30.0
 62
     5
 63
     7
421
 16777215
 74
     1
 91
        4
 64
     7
 65
   257
 75
     1
175
     1
 42
1.0
 92
        8
 66
     7
 43
1.0
 76
     1
 77
     6
 78
     2
 67
     7
 79
     5
170
     0
171
     0
290
     0
174
     0
 93
        1
 44
0.0
173
     0
291
     1
 45
0.0
1001
ACAD
1000
AcDbSavedByObjectVersion
1070
     0
  0
VISUALSTYLE
  5
BFA
102
{ACAD_XDICTIONARY
360
130C
102
}
102
{ACAD_REACTORS
330
BF9
102
}
330
BF9
100
AcDbVisualStyle
  2
Flat
 70
     0
 71
     2
 72
     1
 73
     1
 90
        2
 40
-0.6
 41
30.0
 62
     5
 63
     7
421
 16777215
 74
     0
 91
        0
 64
     7
 65
   257
 75
     1
175
     1
 42
1.0
 92
        8
 66
     7
 43
1.0
 76
     1
 77
     6
 78
     2
 67
     7
 79
     5
170
     0
171
     0
290
     0
174
     0
 93
       13
 44
0.0
173
     0
291
     1
 45
0.0
1001
ACAD
1000
AcDbSavedByObjectVersion
1070
     0
  0
VISUALSTYLE
  5
BFB
102
{ACAD_XDICTIONARY
360
130E
102
}
102
{ACAD_REACTORS
330
BF9
102
}
330
BF9
100
AcDbVisualStyle
  2
FlatWithEdges
 70
     1
 71
     2
 72
     1
 73
     1
 90
        2
 40
-0.6
 41
30.0
 62
     5
 63
     7
421
 16777215
 74
     1
 91
        0
 64
     7
 65
   257
 75
     1
175
     1
 42
1.0
 92
        0
 66
   257
 43
1.0
 76
     1
 77
     6
 78
     2
 67
     7
 79
     5
170
     0
171
     0
290
     0
174
     0
 93
       13
 44
0.0
173
     0
291
     1
 45
0.0
1001
ACAD
1000
AcDbSavedByObjectVersion
1070
     0
  0
VISUALSTYLE
  5
BFC
102
{ACAD_XDICTIONARY
360
1310
102
}
102
{ACAD_REACTORS
330
BF9
102
}
330
BF9
100
AcDbVisualStyle
  2
Gouraud
 70
     2
 71
     2
 72
     2
 73
     1
 90
        2
 40
-0.6
 41
30.0
 62
     5
 63
     7
421
 16777215
 74
     0
 91
        0
 64
     7
 65
   257
 75
     1
175
     1
 42
1.0
 92
        0
 66
     7
 43
1.0
 76
     1
 77
     6
 78
     2
 67
     7
 79
     5
170
     0
171
     0
290
     0
174
     0
 93
       13
 44
0.0
173
     0
291
     1
 45
0.0
1001
ACAD
1000
AcDbSavedByObjectVersion
1070
     0
  0
VISUALSTYLE
  5
BFD
102
{ACAD_XDICTIONARY
360
1312
102
}
102
{ACAD_REACTORS
330
BF9
102
}
330
BF9
100
AcDbVisualStyle
  2
GouraudWithEdges
 70
     3
 71
     2
 72
     2
 73
     1
 90
        2
 40
-0.6
 41
30.0
 62
     5
 63
     7
421
 16777215
 74
     1
 91
        0
 64
     7
 65
   257
 75
     1
175
     1
 42
1.0
 92
        0
 66
   257
 43
1.0
 76
     1
 77
     6
 78
     2
 67
     7
 79
     5
170
     0
171
     0
290
     0
174
     0
 93
       13
 44
0.0
173
     0
291
     1
 45
0.0
1001
ACAD
1000
AcDbSavedByObjectVersion
1070
     0
  0
VISUALSTYLE
  5
C01
102
{ACAD_XDICTIONARY
360
131A
102
}
102
{ACAD_REACTORS
330
BF9
102
}
330
BF9
100
AcDbVisualStyle
  2
Hidden
 70
     6
 71
     1
 72
     2
 73
     2
 90
        0
 40
-0.6
 41
-30.0
 62
     5
 63
     7
421
 16777215
 74
     2
 91
        2
 64
     7
 65
   257
 75
     2
175
     1
 42
40.0
 92
        0
 66
   257
 43
1.0
 76
     1
 77
     6
 78
     2
 67
     7
 79
     3
170
     0
171
     0
290
     0
174
     0
 93
        1
 44
0.0
173
     0
291
     0
 45
0.0
1001
ACAD
1000
AcDbSavedByObjectVersion
1070
     0
  0
VISUALSTYLE
  5
C0F
102
{ACAD_XDICTIONARY
360
1336
102
}
102
{ACAD_REACTORS
330
BF9
102
}
330
BF9
100
AcDbVisualStyle
  2
JitterOff
 70
    20
 71
     2
 72
     2
 73
     0
 90
        0
 40
-0.6
 41
-30.0
 62
     5
 63
     7
421
 16777215
 74
     1
 91
        4
 64
     7
 65
   257
 75
     1
175
     1
 42
1.0
 92
       10
 66
     7
 43
1.0
 76
     1
 77
     6
 78
     2
 67
     7
 79
     5
170
     0
171
     0
290
     0
174
     0
 93
        1
 44
0.0
173
     0
291
     1
 45
0.0
1001
ACAD
1000
AcDbSavedByObjectVersion
1070
     0
  0
VISUALSTYLE
  5
C07
102
{ACAD_XDICTIONARY
360
1326
102
}
102
{ACAD_REACTORS
330
BF9
102
}
330
BF9
100
AcDbVisualStyle
  2
Linepattern
 70
    14
 71
     2
 72
     2
 73
     0
 90
        0
 40
-0.6
 41
-30.0
 62
     5
 63
     7
421
 16777215
 74
     1
 91
        4
 64
     7
 65
   257
 75
     7
175
     7
 42
1.0
 92
        8
 66
     7
 43
1.0
 76
     1
 77
     6
 78
     2
 67
     7
 79
     5
170
     0
171
     0
290
     0
174
     0
 93
        1
 44
0.0
173
     0
291
     1
 45
0.0
1001
ACAD
1000
AcDbSavedByObjectVersion
1070
     0
  0
VISUALSTYLE
  5
C10
102
{ACAD_XDICTIONARY
360
1338
102
}
102
{ACAD_REACTORS
330
BF9
102
}
330
BF9
100
AcDbVisualStyle
  2
OverhangOff
 70
    21
 71
     2
 72
     2
 73
     0
 90
        0
 40
-0.6
 41
-30.0
 62
     5
 63
     7
421
 16777215
 74
     1
 91
        4
 64
     7
 65
   257
 75
     1
175
     1
 42
1.0
 92
        9
 66
     7
 43
1.0
 76
     1
 77
     6
 78
     2
 67
     7
 79
     5
170
     0
171
     0
290
     0
174
     0
 93
        1
 44
0.0
173
     0
291
     1
 45
0.0
1001
ACAD
1000
AcDbSavedByObjectVersion
1070
     0
  0
VISUALSTYLE
  5
C03
102
{ACAD_XDICTIONARY
360
131E
102
}
102
{ACAD_REACTORS
330
BF9
102
}
330
BF9
100
AcDbVisualStyle
  2
Realistic
 70
     8
 71
     2
 72
     2
 73
     0
 90
        2
 40
-0.6
 41
30.0
 62
     5
 63
     7
421
 16777215
 74
     0
 91
        0
 64
     7
 65
   257
 75
     1
175
     1
 42
1.0
 92
        8
 66
   257
 43
1.0
 76
     1
 77
     6
 78
     2
 67
     7
 79
     3
170
     0
171
     0
290
     0
174
     0
 93
       13
 44
0.0
173
     0
291
     0
 45
0.0
1001
ACAD
1000
AcDbSavedByObjectVersion
1070
     0
  0
VISUALSTYLE
  5
C0E
102
{ACAD_XDICTIONARY
360
1334
102
}
102
{ACAD_REACTORS
330
BF9
102
}
330
BF9
100
AcDbVisualStyle
  2
Shaded
 70
    27
 71
     2
 72
     2
 73
     1
 90
        2
 40
-0.6
 41
30.0
 62
     5
 63
     7
421
 16777215
 74
     0
 91
        4
 64
     7
 65
   257
 75
     1
175
     1
 42
1.0
 92
        8
 66
   257
 43
1.0
 76
     1
 77
     6
 78
     2
 67
     8
425
  7895160
 79
     3
170
     0
171
     0
290
     0
174
     0
 93
        5
 44
0.0
173
     0
291
     0
 45
0.0
1001
ACAD
1000
AcDbSavedByObjectVersion
1070
     0
  0
VISUALSTYLE
  5
C0D
102
{ACAD_XDICTIONARY
360
1332
102
}
102
{ACAD_REACTORS
330
BF9
102
}
330
BF9
100
AcDbVisualStyle
  2
Shaded with edges
 70
    26
 71
     2
 72
     2
 73
     1
 90
        2
 40
-0.6
 41
30.0
 62
     5
 63
     7
421
 16777215
 74
     1
 91
        2
 64
     7
 65
   257
 75
     2
175
     1
 42
1.0
 92
        8
 66
   257
 43
1.0
 76
     1
 77
     6
 78
     2
 67
     7
 79
     3
170
     0
171
     0
290
     0
174
     0
 93
        5
 44
0.0
173
     0
291
     0
 45
0.0
1001
ACAD
1000
AcDbSavedByObjectVersion
1070
     0
  0
VISUALSTYLE
  5
C0A
102
{ACAD_XDICTIONARY
360
132C
102
}
102
{ACAD_REACTORS
330
BF9
102
}
330
BF9
100
AcDbVisualStyle
  2
Shades of Gray
 70
    23
 71
     2
 72
     2
 73
     3
 90
        0
 40
-0.6
 41
-30.0
 62
     5
 63
     7
421
 16777215
 74
     2
 91
        2
 64
     7
 65
     7
 75
     1
175
     1
 42
40.0
 92
        8
 66
     7
 43
1.0
 76
     1
 77
     6
 78
     2
 67
     7
 79
     3
170
     0
171
     0
290
     0
174
     0
 93
        1
 44
0.0
173
     0
291
     0
 45
0.0
1001
ACAD
1000
AcDbSavedByObjectVersion
1070
     0
  0
VISUALSTYLE
  5
C0B
102
{ACAD_XDICTIONARY
360
132E
102
}
102
{ACAD_REACTORS
330
BF9
102
}
330
BF9
100
AcDbVisualStyle
  2
Sketchy
 70
    24
 71
     1
 72
     2
 73
     2
 90
        0
 40
-0.6
 41
-30.0
 62
     5
 63
     7
421
 16777215
 74
     2
 91
        2
 64
     7
 65
     7
 75
     1
175
     1
 42
40.0
 92
       11
 66
     7
 43
1.0
 76
     1
 77
     6
 78
     2
 67
     7
 79
     6
170
     0
171
     0
290
     0
174
     0
 93
        1
 44
0.0
173
     0
291
     0
 45
0.0
1001
ACAD
1000
AcDbSavedByObjectVersion
1070
     0
  0
VISUALSTYLE
  5
C06
102
{ACAD_XDICTIONARY
360
1324
102
}
102
{ACAD_REACTORS
330
BF9
102
}
330
BF9
100
AcDbVisualStyle
  2
Thicken
 70
    13
 71
     2
 72
     2
 73
     0
 90
        0
 40
-0.6
 41
-30.0
 62
     5
 63
     7
421
 16777215
 74
     1
 91
        4
 64
     7
 65
   257
 75
     1
175
     1
 42
1.0
 92
       12
 66
     7
 43
1.0
 76
     1
 77
     6
 78
     2
 67
     7
 79
     5
170
     0
171
     0
290
     0
174
     0
 93
        1
 44
0.0
173
     0
291
     1
 45
0.0
1001
ACAD
1000
AcDbSavedByObjectVersion
1070
     0
  0
VISUALSTYLE
  5
C00
102
{ACAD_XDICTIONARY
360
1318
102
}
102
{ACAD_REACTORS
330
BF9
102
}
330
BF9
100
AcDbVisualStyle
  2
Wireframe
 70
     5
 71
     0
 72
     2
 73
     0
 90
        0
 40
-0.6
 41
-30.0
 62
     5
 63
     7
421
 16777215
 74
     1
 91
        4
 64
     7
 65
   257
 75
     1
175
     1
 42
1.0
 92
        0
 66
   257
 43
1.0
 76
     1
 77
     6
 78
     2
 67
     7
 79
     3
170
     0
171
     0
290
     0
174
     0
 93
        1
 44
0.0
173
     0
291
     0
 45
0.0
1001
ACAD
1000
AcDbSavedByObjectVersion
1070
     0
  0
VISUALSTYLE
  5
C0C
102
{ACAD_XDICTIONARY
360
1330
102
}
102
{ACAD_REACTORS
330
BF9
102
}
330
BF9
100
AcDbVisualStyle
  2
X-Ray
 70
    25
 71
     2
 72
     2
 73
     1
 90
        1
 40
0.5
 41
-30.0
 62
     5
 63
     7
421
 16777215
 74
     1
 91
        0
 64
     7
 65
   257
 75
     1
175
     1
 42
1.0
 92
        8
 66
     7
 43
1.0
 76
     1
 77
     6
 78
     2
 67
     7
 79
     3
170
     0
171
     0
290
     0
174
     0
 93
       13
 44
0.0
173
     0
291
     0
 45
0.0
1001
ACAD
1000
AcDbSavedByObjectVersion
1070
     0
  0
DICTIONARYVAR
  5
C78
102
{ACAD_REACTORS
330
C73
102
}
330
C73
100
DictionaryVariables
280
     0
  1
1:1
  0
DICTIONARYVAR
  5
C75
102
{ACAD_REACTORS
330
C73
102
}
330
C73
100
DictionaryVariables
280
     0
  1
STANDARD
  0
DICTIONARYVAR
  5
C74
102
{ACAD_REACTORS
330
C73
102
}
330
C73
100
DictionaryVariables
280
     0
  1
STANDARD
  0
DICTIONARYVAR
  5
C76
102
{ACAD_REACTORS
330
C73
102
}
330
C73
100
DictionaryVariables
280
     0
  1
Imperial24
  0
DICTIONARYVAR
  5
C77
102
{ACAD_REACTORS
330
C73
102
}
330
C73
100
DictionaryVariables
280
     0
  1
Imperial24
  0
DICTIONARYVAR
  5
1306
102
{ACAD_REACTORS
330
C73
102
}
330
C73
100
DictionaryVariables
280
     0
  1
2
  0
DICTIONARY
  5
1341
330
C2C
100
AcDbDictionary
280
     1
281
     1
  3
ACAD_XREC_ROUNDTRIP
360
1342
  0
DICTIONARY
  5
1345
330
D2B
100
AcDbDictionary
280
     1
281
     1
  3
ACAD_XREC_ROUNDTRIP
360
1346
  0
DICTIONARY
  5
D27
330
C33
100
AcDbDictionary
280
     1
281
     1
  3
ADSK_XREC_LAYOUTTHUMBNAIL
360
D28
  0
DICTIONARY
  5
BEA
330
BE9
100
AcDbDictionary
280
     1
281
     1
  3
ACAD_XREC_ROUNDTRIP
360
130A
  3
BUMPTILE
360
BEC
  3
DIFFUSETILE
360
BEB
  3
OPACITYTILE
360
BEF
  3
REFLECTIONTILE
360
BEE
  3
REFRACTIONTILE
360
BF0
  3
SPECULARTILE
360
BED
  0
DICTIONARY
  5
BE2
330
BE1
100
AcDbDictionary
280
     1
281
     1
  3
ACAD_XREC_ROUNDTRIP
360
1309
  3
BUMPTILE
360
BE4
  3
DIFFUSETILE
360
BE3
  3
OPACITYTILE
360
BE7
  3
REFLECTIONTILE
360
BE6
  3
REFRACTIONTILE
360
BE8
  3
SPECULARTILE
360
BE5
  0
DICTIONARY
  5
BF2
330
BF1
100
AcDbDictionary
280
     1
281
     1
  3
ACAD_XREC_ROUNDTRIP
360
130B
  3
BUMPTILE
360
BF4
  3
DIFFUSETILE
360
BF3
  3
OPACITYTILE
360
BF7
  3
REFLECTIONTILE
360
BF6
  3
REFRACTIONTILE
360
BF8
  3
SPECULARTILE
360
BF5
  0
DICTIONARY
  5
133D
330
C28
100
AcDbDictionary
280
     1
281
     1
  3
ACAD_XREC_ROUNDTRIP
360
133E
  0
XRECORD
  5
12FD
102
{ACAD_REACTORS
330
12FC
102
}
330
12FC
100
AcDbXrecord
280
     1
 70
     2
 71
     3
 72
     0
  0
DICTIONARY
  5
133F
330
C2A
100
AcDbDictionary
280
     1
281
     1
  3
ACAD_XREC_ROUNDTRIP
360
1340
  0
DICTIONARY
  5
1343
330
D2A
100
AcDbDictionary
280
     1
281
     1
  3
ACAD_XREC_ROUNDTRIP
360
1344
  0
DICTIONARY
  5
C35
330
C14
100
AcDbDictionary
280
     1
281
     1
  3
ACAD_ROUNDTRIP_2008_TABLESTYLE_CELLSTYLEMAP
360
1307
  3
ACAD_XREC_ROUNDTRIP
360
133C
  0
DICTIONARY
  5
1316
330
BFF
100
AcDbDictionary
280
     1
281
     1
  3
ACAD_XREC_ROUNDTRIP
360
1317
  0
DICTIONARY
  5
1314
330
BFE
100
AcDbDictionary
280
     1
281
     1
  3
ACAD_XREC_ROUNDTRIP
360
1315
  0
DICTIONARY
  5
1322
330
C05
100
AcDbDictionary
280
     1
281
     1
  3
ACAD_XREC_ROUNDTRIP
360
1323
  0
DICTIONARY
  5
132A
330
C09
100
AcDbDictionary
280
     1
281
     1
  3
ACAD_XREC_ROUNDTRIP
360
132B
  0
DICTIONARY
  5
131C
330
C02
100
AcDbDictionary
280
     1
281
     1
  3
ACAD_XREC_ROUNDTRIP
360
131D
  0
DICTIONARY
  5
1320
330
C04
100
AcDbDictionary
280
     1
281
     1
  3
ACAD_XREC_ROUNDTRIP
360
1321
  0
DICTIONARY
  5
133A
330
C11
100
AcDbDictionary
280
     1
281
     1
  3
ACAD_XREC_ROUNDTRIP
360
133B
  0
DICTIONARY
  5
1328
330
C08
100
AcDbDictionary
280
     1
281
     1
  3
ACAD_XREC_ROUNDTRIP
360
1329
  0
DICTIONARY
  5
130C
330
BFA
100
AcDbDictionary
280
     1
281
     1
  3
ACAD_XREC_ROUNDTRIP
360
130D
  0
DICTIONARY
  5
130E
330
BFB
100
AcDbDictionary
280
     1
281
     1
  3
ACAD_XREC_ROUNDTRIP
360
130F
  0
DICTIONARY
  5
1310
330
BFC
100
AcDbDictionary
280
     1
281
     1
  3
ACAD_XREC_ROUNDTRIP
360
1311
  0
DICTIONARY
  5
1312
330
BFD
100
AcDbDictionary
280
     1
281
     1
  3
ACAD_XREC_ROUNDTRIP
360
1313
  0
DICTIONARY
  5
131A
330
C01
100
AcDbDictionary
280
     1
281
     1
  3
ACAD_XREC_ROUNDTRIP
360
131B
  0
DICTIONARY
  5
1336
330
C0F
100
AcDbDictionary
280
     1
281
     1
  3
ACAD_XREC_ROUNDTRIP
360
1337
  0
DICTIONARY
  5
1326
330
C07
100
AcDbDictionary
280
     1
281
     1
  3
ACAD_XREC_ROUNDTRIP
360
1327
  0
DICTIONARY
  5
1338
330
C10
100
AcDbDictionary
280
     1
281
     1
  3
ACAD_XREC_ROUNDTRIP
360
1339
  0
DICTIONARY
  5
131E
330
C03
100
AcDbDictionary
280
     1
281
     1
  3
ACAD_XREC_ROUNDTRIP
360
131F
  0
DICTIONARY
  5
1334
330
C0E
100
AcDbDictionary
280
     1
281
     1
  3
ACAD_XREC_ROUNDTRIP
360
1335
  0
DICTIONARY
  5
1332
330
C0D
100
AcDbDictionary
280
     1
281
     1
  3
ACAD_XREC_ROUNDTRIP
360
1333
  0
DICTIONARY
  5
132C
330
C0A
100
AcDbDictionary
280
     1
281
     1
  3
ACAD_XREC_ROUNDTRIP
360
132D
  0
DICTIONARY
  5
132E
330
C0B
100
AcDbDictionary
280
     1
281
     1
  3
ACAD_XREC_ROUNDTRIP
360
132F
  0
DICTIONARY
  5
1324
330
C06
100
AcDbDictionary
280
     1
281
     1
  3
ACAD_XREC_ROUNDTRIP
360
1325
  0
DICTIONARY
  5
1318
330
C00
100
AcDbDictionary
280
     1
281
     1
  3
ACAD_XREC_ROUNDTRIP
360
1319
  0
DICTIONARY
  5
1330
330
C0C
100
AcDbDictionary
280
     1
281
     1
  3
ACAD_XREC_ROUNDTRIP
360
1331
  0
XRECORD
  5
1342
102
{ACAD_REACTORS
330
1341
102
}
330
1341
100
AcDbXrecord
280
     1
102
DISPLAYNAME
  1
Imperial24
102
FLAGS
 90
        0
  0
XRECORD
  5
1346
102
{ACAD_REACTORS
330
1345
102
}
330
1345
100
AcDbXrecord
280
     1
102
DISPLAYNAME
  1
Metric50
102
FLAGS
 90
        0
  0
XRECORD
  5
D28
102
{ACAD_REACTORS
330
D27
102
}
330
D27
100
AcDbXrecord
280
     1
310
2800000000010000630000000100080000000000006300000100000001000000000100000000000000000000FFFFFF52000000FF000000FF000000FF000000FF000000FF000000FF000000FF000000FF000000FF330000FF660000FF990000FFCC0000FFFF0000FF003300FF333300FF663300FF993300FFCC3300FFFF3300
310
FF006600FF336600FF666600FF996600FFCC6600FFFF6600FF009900FF339900FF669900FF999900FFCC9900FFFF9900FF00CC00FF33CC00FF66CC00FF99CC00FFCCCC00FFFFCC00FF00FF00FF33FF00FF66FF00FF99FF00FFCCFF00FFFFFF00FF000033FF330033FF660033FF990033FFCC0033FFFF0033FF003333FF3333
310
33FF663333FF993333FFCC3333FFFF3333FF006633FF336633FF666633FF996633FFCC6633FFFF6633FF009933FF339933FF669933FF999933FFCC9933FFFF9933FF00CC33FF33CC33FF66CC33FF99CC33FFCCCC33FFFFCC33FF00FF33FF33FF33FF66FF33FF99FF33FFCCFF33FFFFFF33FF000066FF330066FF660066FF99
310
0066FFCC0066FFFF0066FF003366FF333366FF663366FF993366FFCC3366FFFF3366FF006666FF336666FF666666FF996666FFCC6666FFFF6666FF009966FF339966FF669966FF999966FFCC9966FFFF9966FF00CC66FF33CC66FF66CC66FF99CC66FFCCCC66FFFFCC66FF00FF66FF33FF66FF66FF66FF99FF66FFCCFF66FF
310
FFFF66FF000099FF330099FF660099FF990099FFCC0099FFFF0099FF003399FF333399FF663399FF993399FFCC3399FFFF3399FF006699FF336699FF666699FF996699FFCC6699FFFF6699FF009999FF339999FF669999FF999999FFCC9999FFFF9999FF00CC99FF33CC99FF66CC99FF99CC99FFCCCC99FFFFCC99FF00FF99
310
FF33FF99FF66FF99FF99FF99FFCCFF99FFFFFF99FF0000CCFF3300CCFF6600CCFF9900CCFFCC00CCFFFF00CCFF0033CCFF3333CCFF6633CCFF9933CCFFCC33CCFFFF33CCFF0066CCFF3366CCFF6666CCFF9966CCFFCC66CCFFFF66CCFF0099CCFF3399CCFF6699CCFF9999CCFFCC99CCFFFF99CCFF00CCCCFF33CCCCFF66CC
310
CCFF99CCCCFFCCCCCCFFFFCCCCFF00FFCCFF33FFCCFF66FFCCFF99FFCCFFCCFFCCFFFFFFCCFF0000FFFF3300FFFF6600FFFF9900FFFFCC00FFFFFF00FFFF0033FFFF3333FFFF6633FFFF9933FFFFCC33FFFFFF33FFFF0066FFFF3366FFFF6666FFFF9966FFFFCC66FFFFFF66FFFF0099FFFF3399FFFF6699FFFF9999FFFFCC
310
99FFFFFF99FFFF00CCFFFF33CCFFFF66CCFFFF99CCFFFFCCCCFFFFFFCCFFFF00FFFFFF33FFFFFF66FFFFFF99FFFFFFCCFFFFFFFFFFFFFF000000FF0D0D0DFF1A1A1AFF282828FF353535FF434343FF505050FF5D5D5DFF6B6B6BFF787878FF868686FF939393FFA1A1A1FFAEAEAEFFBBBBBBFFC9C9C9FFD6D6D6FFE4E4E4FF
310
F1F1F1FFFFFFFFFF000000FF000000FF000000FF000000FF000000FF000000FF000000FF000000FF000000FF000000FF00000000000000000000000000000000000000000000000000000000000000000000000000000000000000000000000000000000000000000000000000000000000000000000000000000000000000
310
00000000000000000000000000000000000000000000000000000000000000000000000000000000000000000000000000000000000000000000000000000000000000000000000000000000000000000000000000000000000000000000000000000000000000000000000000000000000000000000000000000000000000
310
0000000000000000000000000000000000000000000000000000000000000000000000000000000000000000000000000000000000000000000000000000000000000000000000000000000000000000000000000000000000000000000000000000000000000000000000BEF5F5F5F5F5F5F5F5F5F5F5F5F5F5F5F5F5F5F5
310
F5F5F5F5F5F5F5F5F5F5F5F5F5F5F5F5F5F5F5F5F5F5F5F5F5F5F5F5F5F5F5F5F5F5F5F5F5F5F5F5F5F5F5F5F5F5F5F5F5F5F5F5F5F5F5F5F5F5F5F5F5F5F5F5F5F5F5F5F5F5F5F5F5F5F5F5F5F5F5F5F5F5F5F5F5F5F5F5F5F5F5F5F5F5F5F5F5F5F5F5F5F5F5F5F5F5F5F5F5F5F5F5F5F5F5F5F5F5F5F5F5F50000000000
310
00000000000000000000000000000000000000000000000000000000000000000000000000000000000000000000000000000000000000000000000000000000000000000000000000000000000000000000000000000000000000000000000000000000000000000000000000F50000000000000000000000000000000000
310
00000000000000000000F5000000000000000000000000000000000000000000000000000000F5000000000000000000000000000000000000000000000000000000F5000000000000000000000000000000000000000000000000000000F5000000000000000000000000000000000000000000000000000000F5F5000000
310
000000000000000000000000000000000000000000000000000000000000000000000000000000000000000000000000000000000000000000000000000000000000000000000000000000000000000000000000000000000000000000000000000000000000000000000000000000F5000000000000000000000000000000
310
000000000000000000000000F5000000000000000000000000000000000000000000000000000000F5000000000000000000000000000000000000000000000000000000F5000000000000000000000000000000000000000000000000000000F5000000000000000000000000000000000000000000000000000000F5F500
310
0000000000000000000000000000000000000000000000000000000000000000000000000000000000000000000000000000000000000000000000000000000000000000000000000000000000000000000000000000000000000000000000000000000000000000000000000000000000F500000000000000000000000000
310
0000000000000000000000000000F5000000000000000000000000000000000000000000000000000000F5000000000000000000000000000000000000000000000000000000F5000000000000000000000000000000000000000000000000000000F5000000000000000000000000000000000000000000000000000000F5
310
F5000000000000000000000000000000000000000000000000000000000000000000000000000000000000000000000000000000000000000000000000000000000000000000000000000000000000000000000000000000000000000000000000000000000000000000000000000000000000F50000000000000000000000
310
00000000000000000000000000000000F5000000000000000000000000000000000000000000000000000000F5000000000000000000000000000000000000000000000000000000F5000000000000000000000000000000000000000000000000000000F50000000000000000000000000000000000000000000000000000
310
00F5F5000000000000000000000000000000000000000000000000000000000000000000000000000000000000000000000000000000000000000000000000000000000000000000000000000000000000000000000000000000000000000000000000000000000000000000000000000000000000F5000000000000000000
310
000000000000000000000000000000000000F5000000000000000000000000000000000000000000000000000000F5000000000000000000000000000000000000000000000000000000F5000000000000000000000000000000000000000000000000000000F5000000000000000000000000000000000000000000000000
310
000000F5F5000000000000000000000000000000000000000000000000000000000000000000000000000000000000000000000000000000000000000000000000000000000000000000000000000000000000000000000000000000000000000000000000000000000000000000000000000000000000F500000000000000
310
0000000000000000000000000000000000000000F5000000000000000000000000000000000000000000000000000000F5000000000000000000000000000000000000000000000000000000F5000000000000000000000000000000000000000000000000000000F500000000000000000000000000000000000000000000
310
0000000000F5F5000000000000000000000000000000000000000000000000000000000000000000000000000000000000000000000000000000000000000000000000000000000000000000000000000000000000000000000000000000000000000000000000000000000000000000000000000000000000F50000000000
310
00000000000000000000000000000000000000000000F5000000000000000000000000000000000000000000000000000000F5000000000000000000000000000000000000000000000000000000F5000000000000000000000000000000000000000000000000000000F50000000000000000000000000000000000000000
310
00000000000000F5F5000000000000000000000000000000000000000000000000000000000000000000000000000000000000000000000000000000000000000000000000000000000000000000000000000000000000000000000000000000000000000000000000000000000000000000000000000000000000F5000000
310
000000000000000000000000000000000000000000000000F5000000000000000000000000000000000000000000000000000000F5000000000000000000000000000000000000000000000000000000F5000000000000000000000000000000000000000000000000000000F5000000000000000000000000000000000000
310
000000000000000000F5F5000000000000000000000000000000000000000000000000000000000000000000000000000000000000000000000000000000000000000000000000000000000000000000000000000000000000000000000000000000000000000000000000000000000000000000000000000000000000F500
310
0000000000000000000000000000000000000000000000000000F5000000000000000000000000000000000000000000000000000000F5000000000000000000000000000000000000000000000000000000F5000000000000000000000000000000000000000000000000000000F500000000000000000000000000000000
310
0000000000000000000000F5F5000000000000000000000000000000000000000000000000000000000000000000000000000000000000000000000000000000000000000000000000000000000000000000000000000000000000000000000000000000000000000000000000000000000000000000000000000000000000
310
F5000000000000000000000000000000000000000000000000000000F5000000000000000000000000000000000000000000000000000000F5000000000000000000000000000000000000000000000000000000F5000000000000000000000000000000000000000000000000000000F50000000000000000000000000000
310
00000000000000000000000000F5F500000000000000000000000000000000000000000000000000000000000000000000000000000000000000000000000000000000000000000000000000000000000000000000000000000000000000000000000000000000000000000000000000000000000000000000000000000000
310
0000F5000000000000000000000000000000000000000000000000000000F5000000000000000000000000000000000000000000000000000000F5000000000000000000000000000000000000000000000000000000F5000000000000000000000000000000000000000000000000000000F5000000000000000000000000
310
000000000000000000000000000000F5F50000000000000000000000000000000000000000000000000000000000000000000000000000000000000000000000000000000000000000000000000000000000000000000000000000000000000000000000000000000000000000000000000000000000000000000000000000
310
00000000F5000000000000000000000000000000000000000000000000000000F5000000000000000000000000000000000000000000000000000000F5000000000000000000000000000000000000000000000000000000F5000000000000000000000000000000000000000000000000000000F500000000000000000000
310
0000000000000000000000000000000000F5F5000000000000000000000000000000000000000000000000000000000000000000000000000000000000000000000000000000000000000000000000000000000000000000000000000000000000000000000000000000000000000000000000000000000000000000000000
310
000000000000F5000000000000000000000000000000000000000000000000000000F5000000000000000000000000000000000000000000000000000000F5000000000000000000000000000000000000000000000000000000F5000000000000000000000000000000000000000000000000000000F50000000000000000
310
00000000000000000000000000000000000000F5F500000000000000000000000000000000000000000000000000000000000000000000000000000000000000000000000000000000000000000000000000000000000000000000000000000000000000000000000000000000000000000000000000000000000000000000
310
0000000000000000F5000000000000000000000000000000000000000000000000000000F5000000000000000000000000000000000000000000000000000000F5000000000000000000000000000000000000000000000000000000F5000000000000000000000000000000000000000000000000000000F5000000000000
310
000000000000000000000000000000000000000000F5F50000000000000000000000000000000000000000000000000000000000000000000000000000000000000000000000000000000000000000000000000000000000000000000000000000000000000000000000000000000000000000000000000000000000000000
310
00000000000000000000F5000000000000000000000000000000000000000000000000000000F5000000000000000000000000000000000000000000000000000000F5000000000000000000000000000000000000000000000000000000F5000000000000000000000000000000000000000000000000000000F500000000
310
0000000000000000000000000000000000000000000000F5F5000000000000000000000000000000000000000000000000000000000000000000000000000000000000000000000000000000000000000000000000000000000000000000000000000000000000000000000000000000000000000000000000000000000000
310
000000000000000000000000F5000000000000000000000000000000000000000000000000000000F5000000000000000000000000000000000000000000000000000000F5000000000000000000000000000000000000000000000000000000F5000000000000000000000000000000000000000000000000000000F50000
310
00000000000000000000000000000000000000000000000000F5F500000000000000000000000000000000000000000000000000000000000000000000000000000000000000000000000000000000000000000000000000000000000000000000000000000000000000000000000000000000000000000000000000000000
310
0000000000000000000000000000F5000000000000000000000000000000000000000000000000000000F5000000000000000000000000000000000000000000000000000000F5000000000000000000000000000000000000000000000000000000F5000000000000000000000000000000000000000000000000000000F5
310
000000000000000000000000000000000000000000000000000000F5F50000000000000000000000000000000000000000000000000000000000000000000000000000000000000000000000000000000000000000000000000000000000000000000000000000000000000000000000000000000000000000000000000000
310
00000000000000000000000000000000F5000000000000000000000000000000000000000000000000000000F5000000000000000000000000000000000000000000000000000000F5000000000000000000000000000000000000000000000000000000F50000000000000000000000000000000000000000000000000000
310
00F5000000000000000000000000000000000000000000000000000000F5F5000000000000000000000000000000000000000000000000000000000000000000000000000000000000000000000000000000000000000000000000000000000000000000000000000000000000000000000000000000000000000000000000
310
000000000000000000000000000000000000F5000000000000000000000000000000000000000000000000000000F5000000000000000000000000000000000000000000000000000000F5000000000000000000000000000000000000000000000000000000F5000000000000000000000000000000000000000000000000
310
000000F5000000000000000000000000000000000000000000000000000000F5F500000000000000000000000000000000000000000000000000000000000000000000000000000000000000000000000000000000000000000000000000000000000000000000000000000000000000000000000000000000000000000000
310
0000000000000000000000000000000000000000F5000000000000000000000000000000000000000000000000000000F5000000000000000000000000000000000000000000000000000000F5000000000000000000000000000000000000000000000000000000F500000000000000000000000000000000000000000000
310
0000000000F5000000000000000000000000000000000000000000000000000000F5F50000000000000000000000000000000000000000000000000000000000000000000000000000000000000000000000000000000000000000000000000000000000000000000000000000000000000000000000000000000000000000
310
00000000000000000000000000000000000000000000F5000000000000000000000000000000000000000000000000000000F5000000000000000000000000000000000000000000000000000000F5000000000000000000000000000000000000000000000000000000F50000000000000000000000000000000000000000
310
00000000000000F5000000000000000000000000000000000000000000000000000000F5F5000000000000000000000000000000000000000000000000000000000000000000000000000000000000000000000000000000000000000000000000000000000000000000000000000000000000000000000000000000000000
310
000000000000000000000000000000000000000000000000F5000000000000000000000000000000000000000000000000000000F5000000000000000000000000000000000000000000000000000000F5000000000000000000000000000000000000000000000000000000F5000000000000000000000000000000000000
310
000000000000000000F5000000000000000000000000000000000000000000000000000000F5F500000000000000000000000000000000000000000000000000000000000000000000000000000000000000000000000000000000000000000000000000000000000000000000000000000000000000000000000000000000
310
0000000000000000000000000000000000000000000000000000F5000000000000000000000000000000000000000000000000000000F5000000000000000000000000000000000000000000000000000000F5000000000000000000000000000000000000000000000000000000F500000000000000000000000000000000
310
0000000000000000000000F5000000000000000000000000000000000000000000000000000000F5F50000000000000000000000000000000000000000000000000000000000000000000000000000000000000000000000000000000000000000000000000000000000000000000000000000000000000000000000000000
310
00000000000000000000000000000000000000000000000000000000F5000000000000000000000000000000000000000000000000000000F5000000000000000000000000000000000000000000000000000000F5000000000000000000000000000000000000000000000000000000F50000000000000000000000000000
310
00000000000000000000000000F5000000000000000000000000000000000000000000000000000000F5F5000000000000000000000000000000000000000000000000000000000000000000000000000000000000000000000000000000000000000000000000000000000000000000000000000000000000000000000000
310
000000000000000000000000000000000000000000000000000000000000F5000000000000000000000000000000000000000000000000000000F5000000000000000000000000000000000000000000000000000000F5000000000000000000000000000000000000000000000000000000F5000000000000000000000000
310
000000000000000000000000000000F5000000000000000000000000000000000000000000000000000000F5F500000000000000000000000000000000000000000000000000000000000000000000000000000000000000000000000000000000000000000000000000000000000000000000000000000000000000000000
310
0000000000000000000000000000000000000000000000000000000000000000F5000000000000000000000000000000000000000000000000000000F5000000000000000000000000000000000000000000000000000000F5000000000000000000000000000000000000000000000000000000F500000000000000000000
310
0000000000000000000000000000000000F5000000000000000000000000000000000000000000000000000000F5F50000000000000000000000000000000000000000000000000000000000000000000000000000000000000000000000000000000000000000000000000000000000000000000000000000000000000000
310
00000000000000000000000000000000000000000000000000000000000000000000F5F5F5F5F5F5F5F5F5F5F5F5F5F5F5F5F5F5F5F5F5F5F5F5F5F5F5F5F5F5F5F5F5F5F5F5F5F5F5F5F5F5F5F5F5F5F5F5F5F5F5F5F5F5F5F5F5F5F5F5F5F5F5F5F5F5F5F5F5F5F5F5F5F5F5F5F5F5F5F5F5F5F5F5F5F5F5F5F5F5F5F5F5
310
F5F5F5F5F5F5F5F5F5F5F5F5F5F5F5F5F5F5F5F5F5F5F5F5F5F5F5F5F5F5F5F5F5F5F5F5F5F5F5F5F5F5F5F5F5F5F5F5F5000000000000000000000000000000000000000000000000000000000000000000000000000000000000000000000000000000000000000000000000000000000000000000000000000000000000
310
000000000000000000000000000000000000000000000000000000000000000000000000F5000000000000000000000000000000000000000000000000000000F5000000000000000000000000000000000000000000000000000000F5000000000000000000000000000000000000000000000000000000F5000000000000
310
000000000000000000000000000000000000000000F5000000000000000000000000000000000000000000000000000000F5F500000000000000000000000000000000000000000000000000000000000000000000000000000000000000000000000000000000000000000000000000000000000000000000000000000000
310
0000000000000000000000000000000000000000000000000000000000000000000000000000F5F5F5F5F5F5F5F5F5F5F5F5F5F5F5F5F5F5F5F5F5F5F5F5F5F5F5F5F5F5F5F5F5F5F5F5F5F5F5F5F5F5F5F5F5F5F5F5F5F5F5F5F5F5F5F5F5F5F5F5F5F5F5F5F5F5F5F5F5F5F5F5F5F5F5F5F5F5F5F5F5F5F5F5F5F5F5F5F5
310
F5F5F5F5F5F5F5F5F5F5F5F5F5F5F5F5F5F5F5F5F5F5F5F5F5F5F5F5F5F5F5F5F5F5F5F5F5F5F5F5F5F5F5F5F5F5F5F5F5F5F5F5F50000000000000000000000000000000000000000000000000000000000000000000000000000000000000000000000000000000000000000000000000000000000000000000000000000
310
00000000000000000000000000000000000000000000000000000000000000000000000000000000F5000000000000000000000000000000000000000000000000000000F5000000000000000000000000000000000000000000000000000000F5000000000000000000000000000000000000000000000000000000F50000
310
00000000000000000000000000000000000000000000000000F5000000000000000000000000000000000000000000000000000000F5F5000000000000000000000000000000000000000000000000000000000000000000000000000000000000000000000000000000000000000000000000000000000000000000000000
310
000000000000000000000000000000000000000000000000000000000000000000000000000000000000F5F5F5F5F5F5F5F5F5F5F5F5F5F5F5F5F5F5F5F5F5F5F5F5F5F5F5F5F5F5F5F5F5F5F5F5F5F5F5F5F5F5F5F5F5F5F5F5F5F5F5F5F5F5F5F5F5F5F5F5F5F5F5F5F5F5F5F5F5F5F5F5F5F5F5F5F5F5F5F5F5F5F5F5F5
310
F5F5F5F5F5F5F5F5F5F5F5F5F5F5F5F5F5F5F5F5F5F5F5F5F5F5F5F5F5F5F5F5F5F5F5F5F5F5F5F5F5F5F5F5F5F5F5F5F5F5F5F5F5F5F5F5F500000000000000000000000000000000000000000000000000000000000000000000000000000000000000000000000000000000000000000000000000000000000000000000
310
0000000000000000000000000000000000000000000000000000000000000000000000000000000000000000F5000000000000000000000000000000000000000000000000000000F5000000000000000000000000000000000000000000000000000000F50000000000000000000000000000000000000000000000000000
310
00F5000000000000000000000000000000000000000000000000000000F5000000000000000000000000000000000000000000000000000000F5F50000000000000000000000000000000000000000000000000000000000000000000000000000000000000000000000000000000000000000000000000000000000000000
310
00000000000000000000000000000000000000000000000000000000000000000000000000000000000000000000F5000000000000000000000000000000000000000000000000000000F5000000000000000000000000000000000000000000000000000000F5000000000000000000000000000000000000000000000000
310
000000F5000000000000000000000000000000000000000000000000000000F5000000000000000000000000000000000000000000000000000000F5F5000000000000000000000000000000000000000000000000000000000000000000000000000000000000000000000000000000000000000000000000000000000000
310
000000000000000000000000000000000000000000000000000000000000000000000000000000000000000000000000F5000000000000000000000000000000000000000000000000000000F5000000000000000000000000000000000000000000000000000000F500000000000000000000000000000000000000000000
310
0000000000F5000000000000000000000000000000000000000000000000000000F5000000000000000000000000000000000000000000000000000000F5F500000000000000000000000000000000000000000000000000000000000000000000000000000000000000000000000000000000000000000000000000000000
310
0000000000000000000000000000000000000000000000000000000000000000000000000000000000000000000000000000F5000000000000000000000000000000000000000000000000000000F5000000000000000000000000000000000000000000000000000000F50000000000000000000000000000000000000000
310
00000000000000F5000000000000000000000000000000000000000000000000000000F5000000000000000000000000000000000000000000000000000000F5F50000000000000000000000000000000000000000000000000000000000000000000000000000000000000000000000000000000000000000000000000000
310
00000000000000000000000000000000000000000000000000000000000000000000000000000000000000000000000000000000F5000000000000000000000000000000000000000000000000000000F5000000000000000000000000000000000000000000000000000000F5000000000000000000000000000000000000
310
000000000000000000F5000000000000000000000000000000000000000000000000000000F5000000000000000000000000000000000000000000000000000000F5F5000000000000000000000000000000000000000000000000000000000000000000000000000000000000000000000000000000000000000000000000
310
000000000000000000000000000000000000000000000000000000000000000000000000000000000000000000000000000000000000F5000000000000000000000000000000000000000000000000000000F5000000000000000000000000000000000000000000000000000000F500000000000000000000000000000000
310
0000000000000000000000F5000000000000000000000000000000000000000000000000000000F5000000000000000000000000000000000000000000000000000000F5F500000000000000000000000000000000000000000000000000000000000000000000000000000000000000000000000000000000000000000000
310
0000000000000000000000000000000000000000000000000000000000000000000000000000000000000000000000000000000000000000F5000000000000000000000000000000000000000000000000000000F5000000000000000000000000000000000000000000000000000000F50000000000000000000000000000
310
00000000000000000000000000F5000000000000000000000000000000000000000000000000000000F5000000000000000000000000000000000000000000000000000000F5F50000000000000000000000000000000000000000000000000000000000000000000000000000000000000000000000000000000000000000
310
00000000000000000000000000000000000000000000000000000000000000000000000000000000000000000000000000000000000000000000F5000000000000000000000000000000000000000000000000000000F5000000000000000000000000000000000000000000000000000000F5000000000000000000000000
310
000000000000000000000000000000F5000000000000000000000000000000000000000000000000000000F5000000000000000000000000000000000000000000000000000000F5F5000000000000000000000000000000000000000000000000000000000000000000000000000000000000000000000000000000000000
310
000000000000000000000000000000000000000000000000000000000000000000000000000000000000000000000000000000000000000000000000F5000000000000000000000000000000000000000000000000000000F5000000000000000000000000000000000000000000000000000000F500000000000000000000
310
0000000000000000000000000000000000F5000000000000000000000000000000000000000000000000000000F5000000000000000000000000000000000000000000000000000000F5F500000000000000000000000000000000000000000000000000000000000000000000000000000000000000000000000000000000
310
0000000000000000000000000000000000000000000000000000000000000000000000000000000000000000000000000000000000000000000000000000F5000000000000000000000000000000000000000000000000000000F5000000000000000000000000000000000000000000000000000000F50000000000000000
310
00000000000000000000000000000000000000F5000000000000000000000000000000000000000000000000000000F5000000000000000000000000000000000000000000000000000000F5F50000000000000000000000000000000000000000000000000000000000000000000000000000000000000000000000000000
310
00000000000000000000000000000000000000000000000000000000000000000000000000000000000000000000000000000000000000000000000000000000F5000000000000000000000000000000000000000000000000000000F5000000000000000000000000000000000000000000000000000000F5000000000000
310
000000000000000000000000000000000000000000F5000000000000000000000000000000000000000000000000000000F5000000000000000000000000000000000000000000000000000000F5F5000000000000000000000000000000000000000000000000000000000000000000000000000000000000000000000000
310
000000000000000000000000000000000000000000000000000000000000000000000000000000000000000000000000000000000000000000000000000000000000F5000000000000000000000000000000000000000000000000000000F5000000000000000000000000000000000000000000000000000000F500000000
310
0000000000000000000000000000000000000000000000F5000000000000000000000000000000000000000000000000000000F5000000000000000000000000000000000000000000000000000000F5F500000000000000000000000000000000000000000000000000000000000000000000000000000000000000000000
310
0000000000000000000000000000000000000000000000000000000000000000000000000000000000000000000000000000000000000000000000000000000000000000F5000000000000000000000000000000000000000000000000000000F5000000000000000000000000000000000000000000000000000000F50000
310
00000000000000000000000000000000000000000000000000F5000000000000000000000000000000000000000000000000000000F5000000000000000000000000000000000000000000000000000000F5F50000000000000000000000000000000000000000000000000000000000000000000000000000000000000000
310
00000000000000000000000000000000000000000000000000000000000000000000000000000000000000000000000000000000000000000000000000000000000000000000F5000000000000000000000000000000000000000000000000000000F5000000000000000000000000000000000000000000000000000000F5
310
000000000000000000000000000000000000000000000000000000F5000000000000000000000000000000000000000000000000000000F5000000000000000000000000000000000000000000000000000000F5F5000000000000000000000000000000000000000000000000000000000000000000000000000000000000
310
000000000000000000000000000000000000000000000000000000000000000000000000000000000000000000000000000000000000000000000000000000000000000000000000F5000000000000000000000000000000000000000000000000000000F50000000000000000000000000000000000000000000000000000
310
00F5000000000000000000000000000000000000000000000000000000F5000000000000000000000000000000000000000000000000000000F5000000000000000000000000000000000000000000000000000000F5F500000000000000000000000000000000000000000000000000000000000000000000000000000000
310
0000000000000000000000000000000000000000000000000000000000000000000000000000000000000000000000000000000000000000000000000000000000000000000000000000F5000000000000000000000000000000000000000000000000000000F5000000000000000000000000000000000000000000000000
310
000000F5000000000000000000000000000000000000000000000000000000F5000000000000000000000000000000000000000000000000000000F5000000000000000000000000000000000000000000000000000000F5F50000000000000000000000000000000000000000000000000000000000000000000000000000
310
00000000000000000000000000000000000000000000000000000000000000000000000000000000000000000000000000000000000000000000000000000000000000000000000000000000F5000000000000000000000000000000000000000000000000000000F500000000000000000000000000000000000000000000
310
0000000000F5000000000000000000000000000000000000000000000000000000F5000000000000000000000000000000000000000000000000000000F5000000000000000000000000000000000000000000000000000000F5F5000000000000000000000000000000000000000000000000000000000000000000000000
310
000000000000000000000000000000000000000000000000000000000000000000000000000000000000000000000000000000000000000000000000000000000000000000000000000000000000F5000000000000000000000000000000000000000000000000000000F50000000000000000000000000000000000000000
310
00000000000000F5000000000000000000000000000000000000000000000000000000F5000000000000000000000000000000000000000000000000000000F5000000000000000000000000000000000000000000000000000000F5F500000000000000000000000000000000000000000000000000000000000000000000
310
0000000000000000000000000000000000000000000000000000000000000000000000000000000000000000000000000000000000000000000000000000000000000000000000000000000000000000F5000000000000000000000000000000000000000000000000000000F5000000000000000000000000000000000000
310
000000000000000000F5000000000000000000000000000000000000000000000000000000F5000000000000000000000000000000000000000000000000000000F5000000000000000000000000000000000000000000000000000000F5F50000000000000000000000000000000000000000000000000000000000000000
310
00000000000000000000000000000000000000000000000000000000000000000000000000000000000000000000000000000000000000000000000000000000000000000000000000000000000000000000F5000000000000000000000000000000000000000000000000000000F500000000000000000000000000000000
310
0000000000000000000000F5000000000000000000000000000000000000000000000000000000F5000000000000000000000000000000000000000000000000000000F5000000000000000000000000000000000000000000000000000000F5F5000000000000000000000000000000000000000000000000000000000000
310
000000000000000000000000000000000000000000000000000000000000000000000000000000000000000000000000000000000000000000000000000000000000000000000000000000000000000000000000F5000000000000000000000000000000000000000000000000000000F50000000000000000000000000000
310
00000000000000000000000000F5000000000000000000000000000000000000000000000000000000F5000000000000000000000000000000000000000000000000000000F5000000000000000000000000000000000000000000000000000000F5F500000000000000000000000000000000000000000000000000000000
310
0000000000000000000000000000000000000000000000000000000000000000000000000000000000000000000000000000000000000000000000000000000000000000000000000000000000000000000000000000F5000000000000000000000000000000000000000000000000000000F5000000000000000000000000
310
000000000000000000000000000000F5000000000000000000000000000000000000000000000000000000F5000000000000000000000000000000000000000000000000000000F5000000000000000000000000000000000000000000000000000000F5F50000000000000000000000000000000000000000000000000000
310
00000000000000000000000000000000000000000000000000000000000000000000000000000000000000000000000000000000000000000000000000000000000000000000000000000000000000000000000000000000F5000000000000000000000000000000000000000000000000000000F500000000000000000000
310
0000000000000000000000000000000000F5000000000000000000000000000000000000000000000000000000F5000000000000000000000000000000000000000000000000000000F5000000000000000000000000000000000000000000000000000000F5F5000000000000000000000000000000000000000000000000
310
000000000000000000000000000000000000000000000000000000000000000000000000000000000000000000000000000000000000000000000000000000000000000000000000000000000000000000000000000000000000F5000000000000000000000000000000000000000000000000000000F50000000000000000
310
00000000000000000000000000000000000000F5000000000000000000000000000000000000000000000000000000F5000000000000000000000000000000000000000000000000000000F5000000000000000000000000000000000000000000000000000000F5F500000000000000000000000000000000000000000000
310
0000000000000000000000000000000000000000000000000000000000000000000000000000000000000000000000000000000000000000000000000000000000000000000000000000000000000000000000000000000000000000F5000000000000000000000000000000000000000000000000000000F5000000000000
310
000000000000000000000000000000000000000000F5000000000000000000000000000000000000000000000000000000F5000000000000000000000000000000000000000000000000000000F5000000000000000000000000000000000000000000000000000000F5F50000000000000000000000000000000000000000
310
00000000000000000000000000000000000000000000000000000000000000000000000000000000000000000000000000000000000000000000000000000000000000000000000000000000000000000000000000000000000000000000F5000000000000000000000000000000000000000000000000000000F500000000
310
0000000000000000000000000000000000000000000000F5000000000000000000000000000000000000000000000000000000F5000000000000000000000000000000000000000000000000000000F5000000000000000000000000000000000000000000000000000000F5F5000000000000000000000000000000000000
310
000000000000000000000000000000000000000000000000000000000000000000000000000000000000000000000000000000000000000000000000000000000000000000000000000000000000000000000000000000000000000000000000F5F5F5F5F5F5F5F5F5F5F5F5F5F5F5F5F5F5F5F5F5F5F5F5F5F5F5F5F5F5F5
310
F5F5F5F5F5F5F5F5F5F5F5F5F5F5F5F5F5F5F5F5F5F5F5F5F5F5F5F5F5F5F5F5F5F5F5F5F5F5F5F5F5F5F5F5F5F5F5F5F5F5F5F5F5F5F5F5F5F5F5F5F5F5F5F5F5F5F5F5F5F5F5F5F5F5F5F5F5F5F5F5F5F5F5F5F5F5F5F5F5F5F5F5F5F5F5F5F5F5F5F5F5F5F5F5F5F5F5F5F5F5F500000000000000000000000000000000
310
0000000000000000000000000000000000000000000000000000000000000000000000000000000000000000000000000000000000000000000000000000000000000000000000000000000000000000000000000000000000000000000000000000F5000000000000000000000000000000000000000000000000000000F5
310
000000000000000000000000000000000000000000000000000000F5000000000000000000000000000000000000000000000000000000F5000000000000000000000000000000000000000000000000000000F5000000000000000000000000000000000000000000000000000000F5F50000000000000000000000000000
310
00000000000000000000000000000000000000000000000000000000000000000000000000000000000000000000000000000000000000000000000000000000000000000000000000000000000000000000000000000000000000000000000000000000F5F5F5F5F5F5F5F5F5F5F5F5F5F5F5F5F5F5F5F5F5F5F5F5F5F5F5
310
F5F5F5F5F5F5F5F5F5F5F5F5F5F5F5F5F5F5F5F5F5F5F5F5F5F5F5F5F5F5F5F5F5F5F5F5F5F5F5F5F5F5F5F5F5F5F5F5F5F5F5F5F5F5F5F5F5F5F5F5F5F5F5F5F5F5F5F5F5F5F5F5F5F5F5F5F5F5F5F5F5F5F5F5F5F5F5F5F5F5F5F5F5F5F5F5F5F5F5F5F5F5F5F5F5F5F5F5F5F5F5F5F5F5F5000000000000000000000000
310
000000000000000000000000000000000000000000000000000000000000000000000000000000000000000000000000000000000000000000000000000000000000000000000000000000000000000000000000000000000000000000000000000000000000F5000000000000000000000000000000000000000000000000
310
000000F5000000000000000000000000000000000000000000000000000000F5000000000000000000000000000000000000000000000000000000F5000000000000000000000000000000000000000000000000000000F5000000000000000000000000000000000000000000000000000000F5F500000000000000000000
310
0000000000000000000000000000000000000000000000000000000000000000000000000000000000000000000000000000000000000000000000000000000000000000000000000000000000000000000000000000000000000000000000000000000000000000F500000000000000000000000000000000000000000000
310
0000000000F5000000000000000000000000000000000000000000000000000000F5000000000000000000000000000000000000000000000000000000F5000000000000000000000000000000000000000000000000000000F5000000000000000000000000000000000000000000000000000000F5F50000000000000000
310
00000000000000000000000000000000000000000000000000000000000000000000000000000000000000000000000000000000000000000000000000000000000000000000000000000000000000000000000000000000000000000000000000000000000000000000F5F5F5F5F5F5F5F5F5F5F5F5F5F5F5F5F5F5F5F5F5
310
F5F5F5F5F5F5F5F5F5F5F5F5F5F5F5F5F5F5F5F5F5F5F5F5F5F5F5F5F5F5F5F5F5F5F5F5F5F5F5F5F5F5F5F5F5F5F5F5F5F5F5F5F5F5F5F5F5F5F5F5F5F5F5F5F5F5F5F5F5F5F5F5F5F5F5F5F5F5F5F5F5F5F5F5F5F5F5F5F5F5F5F5F5F5F5F5F5F5F5F5F5F5F5F5F5F5F5F5F5F5F5F5F5F5F5F5F5F5F5F5F5000000000000
310
000000000000000000000000000000000000000000000000000000000000000000000000000000000000000000000000000000000000000000000000000000000000000000000000000000000000000000000000000000000000000000000000000000000000000000000000F5000000000000000000000000000000000000
310
000000000000000000F5000000000000000000000000000000000000000000000000000000F5000000000000000000000000000000000000000000000000000000F5000000000000000000000000000000000000000000000000000000F5000000000000000000000000000000000000000000000000000000F5F500000000
310
0000000000000000000000000000000000000000000000000000000000000000000000000000000000000000000000000000000000000000000000000000000000000000000000000000000000000000000000000000000000000000000000000000000000000000000000000000F500000000000000000000000000000000
310
0000000000000000000000F5000000000000000000000000000000000000000000000000000000F5000000000000000000000000000000000000000000000000000000F5000000000000000000000000000000000000000000000000000000F5000000000000000000000000000000000000000000000000000000F5F50000
310
00000000000000000000000000000000000000000000000000000000000000000000000000000000000000000000000000000000000000000000000000000000000000000000000000000000000000000000000000000000000000000000000000000000000000000000000000000000F50000000000000000000000000000
310
DCDCDCDCDCDC00000000000000F5000000000000000000000000000000000000000000000000000000F5000000000000000000000000000000000000000000000000000000F5000000000000000000000000000000000000000000000000000000F5000000000000000000000000000000000000000000000000000000F5F5
310
000000000000000000000000000000000000000000000000000000000000000000000000000000000000000000000000000000000000000000000000000000000000000000000000000000000000000000000000000000000000000000000000000000000000000000000000000000000000F5000000000000F5F5F5000000
310
0000DC00000000DC00000000000000F5000000000000000000000000000000000000000000000000000000F5000000000000000000000000000000000000000000000000000000F5000000000000000000000000000000000000000000000000000000F5000000000000000000000000000000000000000000000000000000
310
F5F5000000000000000000000000000000000000000000000000000000000000000000000000000000000000000000000000000000000000000000000000000000000000000000000000000000000000000000000000000000000000000000000000000000000000000000000000000000000000F50000000000002DDCDCDC
310
DC0000002D2D2D2D2DDCDCDC0000000000F5000000000000000000000000000000000000000000000000000000F5000000000000000000000000000000000000000000000000000000F5000000000000000000000000000000000000000000000000000000F500000000000000000000000000000000000000000000000000
310
0000F5F5000000000000000000000000000000000000000000000000000000000000000000000000000000000000000000000000000000000000000000000000000000000000000000000000000000000000000000000000000000000000000000000000000000000000000000000000000000000000F50000000000002D2D
310
00DCDC0000002D0000002D2D00DC0000000000F5000000000000000000000000000000000000000000000000000000F5000000000000000000000000000000000000000000000000000000F5000000000000000000000000000000000000000000000000000000F50000000000000000000000000000000000000000000000
310
00000000F5F5000000000000000000000000000000000000000000000000000000000000000000000000000000000000000000000000000000000000000000000000000000000000000000000000000000000000000000000000000000000000000000000000000000000000000000000000000000000000F5000000000000
310
2D2D00DCDC0000002D000000002D00DC0000000000F5000000000000000000000000000000000000000000000000000000F5000000000000000000000000000000000000000000000000000000F5000000000000000000000000000000000000000000000000000000F5000000000000000000000000000000000000000000
310
000000000000F5F5000000000000000000000000000000000000000000000000000000000000000000000000000000000000000000000000000000000000000000000000000000000000000000000000000000000000000000000000000000000000000000000000000000000000000000000000000000000000F500000000
310
00002D2D00DCDC0000002D000000002DDCDC0000000000F5000000000000000000000000000000000000000000000000000000F5000000000000000000000000000000000000000000000000000000F5000000000000000000000000000000000000000000000000000000F500000000000000000000000000000000000000
310
0000000000000000F5F5000000000000000000000000000000000000000000000000000000000000000000000000000000000000000000000000000000000000000000000000000000000000000000000000000000000000000000000000000000000000000000000000000000000000000000000000000000000000F50000
310
000000002DDCDCDCDC0000002D2D2D2D2D2DDCDC0000000000F5000000000000000000000000000000000000000000000000000000F5000000000000000000000000000000000000000000000000000000F5000000000000000000000000000000000000000000000000000000F50000000000000000000000000000000000
310
00000000000000000000F5F5000000000000000000000000000000000000000000000000000000000000000000000000000000000000000000000000000000000000000000000000000000000000000000000000000000000000000000000000000000000000000000000000000000000000000000000000000000000000F5
310
0000000000002D2D00DCDC0000002D002D002D2D00DC0000000000F5000000000000000000000000000000000000000000000000000000F5000000000000000000000000000000000000000000000000000000F5000000000000000000000000000000000000000000000000000000F5000000000000000000000000000000
310
000000000000000000000000F5F50000000000000000000000000000000000000000000000000000000000000000000000000000000000000000000000000000000000000000000000000000000000000000000000000000000000000000000000000000000000000000000000000000000000000000000000000000000000
310
00F50000000000002D2D00DCDC0000002D002D00002DDCDC0000000000F5000000000000000000000000000000000000000000000000000000F5000000000000000000000000000000000000000000000000000000F5000000000000000000000000000000000000000000000000000000F500000000000000000000000000
310
0000000000000000000000000000F5F5000000000000000000000000000000000000000000000000000000000000000000000000000000000000000000000000000000000000000000000000000000000000000000000000000000000000000000000000000000000000000000000000000000000000000000000000000000
310
000000F50000000000002DDCDCDCDC0000002D2D2D2D2DDCDCDC0000000000F5000000000000000000000000000000000000000000000000000000F5000000000000000000000000000000000000000000000000000000F5000000000000000000000000000000000000000000000000000000F50000000000000000000000
310
00000000000000000000000000000000F5F500000000000000000000000000000000000000000000000000000000000000000000000000000000000000000000000000000000000000000000000000000000000000000000000000000000000000000000000000000000000000000000000000000000000000000000000000
310
0000000000F5000000000000F5F500000000000000000000000000000000000000F5000000000000000000000000000000000000000000000000000000F5000000000000000000000000000000000000000000000000000000F5000000000000000000000000000000000000000000000000000000F5000000000000000000
310
000000000000000000000000000000000000F5F50000000000000000000000000000000000000000000000000000000000000000000000000000000000000000000000000000000000000000000000000000000000000000000000000000000000000000000000000000000000000000000000000000000000000000000000
310
00000000000000F5000000000000000000000000000000DC0000DC0000000000000000F5000000000000000000000000000000000000000000000000000000F5000000000000000000000000000000000000000000000000000000F5000000000000000000000000000000000000000000000000000000F500000000000000
310
0000000000000000000000000000000000000000F5F5000000000000000000000000000000000000000000000000000000000000000000000000000000000000000000000000000000000000000000000000000000000000000000000000000000000000000000000000000000000000000000000000000000000000000000
310
000000000000000000F50000000000000000000000000000DCDCDCDCDCDC00000000000000F5000000000000000000000000000000000000000000000000000000F5000000000000000000000000000000000000000000000000000000F5000000000000000000000000000000000000000000000000000000F50000000000
310
00000000000000000000000000000000000000000000F5F500000000000000000000000000000000000000000000000000000000000000000000000000000000000000000000000000000000000000000000000000000000000000000000000000000000000000000000000000000000000000000000000000000000000000
310
0000000000000000000000F50000000000000000000000000000DC00000000DC00000000000000F5000000000000000000000000000000000000000000000000000000F5000000000000000000000000000000000000000000000000000000F5000000000000000000000000000000000000000000000000000000F5000000
310
000000000000000000000000000000000000000000000000F5F50000000000000000000000000000000000000000000000000000000000000000000000000000000000000000000000000000000000000000000000000000000000000000000000000000000000000000000000000000000000000000000000000000000000
310
00000000000000000000000000F500000000000000000000000000F52D2D2D2D2D2D00000000000000F5000000000000000000000000000000000000000000000000000000F5000000000000000000000000000000000000000000000000000000F5000000000000000000000000000000000000000000000000000000F500
310
0000000000000000000000000000000000000000000000000000F5F5000000000000000000000000000000000000000000000000000000000000000000000000000000000000000000000000000000000000000000000000000000000000000000000000000000000000000000000000000000000000000000000000000000
310
000000000000000000000000000000F500000000000000000000000000F5F500000000F500000000000000F5000000000000000000000000000000000000000000000000000000F5000000000000000000000000000000000000000000000000000000F5000000000000000000000000000000000000000000000000000000
310
F5000000000000000000000000000000000000000000000000000000F5F500000000000000000000000000000000000000000000000000000000000000000000000000000000000000000000000000000000000000000000000000000000000000000000000000000000000000000000000000000000000000000000000000
310
0000000000000000000000000000000000F50000000000000000000000000000DCDC0000DCDC00000000000000F5000000000000000000000000000000000000000000000000000000F5000000000000000000000000000000000000000000000000000000F500000000000000000000000000000000000000000000000000
310
0000F5000000000000000000000000000000000000000000000000000000F5F50000000000000000000000000000000000000000000000000000000000000000000000000000000000000000000000000000000000000000000000000000000000000000000000000000000000000000000000000000000000000000000000
310
00000000000000000000000000000000000000F50000000000000000000000000000DCDCDCDCDCDC00000000000000F5000000000000000000000000000000000000000000000000000000F5000000000000000000000000000000000000000000000000000000F50000000000000000000000000000000000000000000000
310
00000000F5000000000000000000000000000000000000000000000000000000F5F5000000000000000000000000000000000000000000000000000000000000000000000000000000000000000000000000000000000000000000000000000000000000000000000000000000000000000000000000000000000000000000
310
000000000000000000000000000000000000000000F50000000000000000000000000000DCDCDCDCDCDC00000000000000F5000000000000000000000000000000000000000000000000000000F5000000000000000000000000000000000000000000000000000000F5000000000000000000000000000000000000000000
310
000000000000F5000000000000000000000000000000000000000000000000000000F5F500000000000000000000000000000000000000000000000000000000000000000000000000000000000000000000000000000000000000000000000000000000000000000000000000000000000000000000000000000000000000
310
0000000000000000000000000000000000000000000000F500000000000000000000000000F5DC00DC0000DC00000000000000F5000000000000000000000000000000000000000000000000000000F5000000000000000000000000000000000000000000000000000000F500000000000000000000000000000000000000
310
0000000000000000F5000000000000000000000000000000000000000000000000000000F5F50000000000000000000000000000000000000000000000000000000000000000000000000000000000000000000000000000000000000000000000000000000000000000000000000000000000000000000000000000000000
310
00000000000000000000000000000000000000000000000000F500000000000000000000000000F52D2D2D2D2D2D00000000000000F5000000000000000000000000000000000000000000000000000000F5000000000000000000000000000000000000000000000000000000F50000000000000000000000000000000000
310
00000000000000000000F5000000000000000000000000000000000000000000000000000000F5F5000000000000000000000000000000000000000000000000000000000000000000000000000000000000000000000000000000000000000000000000000000000000000000000000000000000000000000000000000000
310
000000000000000000000000000000000000000000000000000000F5000000000000000000000000000000000000000000000000000000F5000000000000000000000000000000000000000000000000000000F5000000000000000000000000000000000000000000000000000000F5000000000000000000000000000000
310
000000000000000000000000F5000000000000000000000000000000000000000000000000000000F5F500000000000000000000000000000000000000000000000000000000000000000000000000000000000000000000000000000000000000000000000000000000000000000000000000000000000000000000000000
310
0000000000000000000000000000000000000000000000000000000000F5000000000000000000000000000000000000000000000000000000F5000000000000000000000000000000000000000000000000000000F5000000000000000000000000000000000000000000000000000000F500000000000000000000000000
310
0000000000000000000000000000F5000000000000000000000000000000000000000000000000000000F5F50000000000000000000000000000000000000000000000000000000000000000000000000000000000000000000000000000000000000000000000000000000000000000000000000000000000000000000000
310
00000000000000000000000000000000000000000000000000000000000000F5000000000000000000000000000000000000000000000000000000F5000000000000000000000000000000000000000000000000000000F5000000000000000000000000000000000000000000000000000000F50000000000000000000000
310
00000000000000000000000000000000F5000000000000000000000000000000000000000000000000000000F5F5000000000000000000000000000000000000000000000000000000000000000000000000000000000000000000000000000000000000000000000000000000000000000000000000000000000000000000
310
000000000000000000000000000000000000000000000000000000000000000000F5F5F5F5F5F5F5F5F5F5F5F5F5F5F5F5F5F5F5F5F5F5F5F5F5F5F5F5F5F5F5F5F5F5F5F5F5F5F5F5F5F5F5F5F5F5F5F5F5F5F5F5F5F5F5F5F5F5F5F5F5F5F5F5F5F5F5F5F5F5F5F5F5F5F5F5F5F5F5F5F5F5F5F5F5F5F5F5F5F5F5F5F5F5
310
F5F5F5F5F5F5F5F5F5F5F5F5F5F5F5F5F5F5F5F5F5F5F5F5F5F5F5F5F5F5F5F5F5F5F5F5F5F5F5F5F5F5F5F5F5F5F5F500000000000000000000000000000000000000000000000000000000000000000000000000000000000000000000000000000000000000000000000000000000000000000000000000000000000000
310
0000000000000000000000000000000000000000000000000000000000000000000000F5F5F5F5F5F5F5F5F5F5F5F500000000000000000000000000000000F5000000000000000000000000000000000000000000000000000000F5000000000000000000000000000000000000000000000000000000F500000000000000
310
0000000000000000000000000000000000000000F5000000000000000000000000000000000000000000000000000000F5F50000000000000000000000000000000000000000000000000000000000000000000000000000000000000000000000000000000000000000000000000000000000000000000000000000000000
310
00000000000000000000000000000000000000000000000000000000000000000000000000F5F5F5F5F5F5F5F5F5F5F5F5F5F5F5F5F5F5F5F5F5F5F5F5F5F5F5F5F5F5F5F5F5F5F5F5F5F5F5F5F5F5F5F5F5F5F5F5F5F5F5F5F5F5F5F5F5F5F5F5F5F5F5F5F5F5F5F5F5F5F5F5F5F5F5F5F5F5F5F5F5F5F5F5F5F5F5F5F5F5
310
F5F5F5F5F5F5F5F5F5F5F5F5F5F5F5F5F5F5F5F5F5F5F5F5F5F5F5F5F5F5F5F5F5F5F5F5F5F5F5F5F5F5F5F5F5F5F5F5F5F5F5F5000000000000000000000000000000000000000000000000000000000000000000000000000000000000000000000000000000000000000000000000000000000000000000000000000000
310
000000000000000000000000000000000000000000000000000000000000000000000000000000F5F5F5F5F5F5F5F5F5F5000000000000000000000000000000000000F5000000000000000000000000000000000000000000000000000000F5000000000000000000000000000000000000000000000000000000F5000000
310
000000000000000000000000000000000000000000000000F5000000000000000000000000000000000000000000000000000000F5F500000000000000000000000000000000000000000000000000000000000000000000000000000000000000000000000000000000000000000000000000000000000000000000000000
310
0000000000000000000000000000000000000000000000000000000000000000000000000000000000F5F5F5F5F5F5F5F5F5F5F5F5F5F5F5F5F5F5F5F5F5F5F5F5F5F5F5F5F5F5F5F5F5F5F5F5F5F5F5F5F5F5F5F5F5F5F5F5F5F5F5F5F5F5F5F5F5F5F5F5F5F5F5F5F5F5F5F5F5F5F5F5F5F5F5F5F5F5F5F5F5F5F5F5F5F5
310
F5F5F5F5F5F5F5F5F5F5F5F5F5F5F5F5F5F5F5F5F5F5F5F5F5F5F5F5F5F5F5F5F5F5F5F5F5F5F5F5F5F5F5F5F5F5F5F5F5F5F5F5F5F5F5F50000000000000000000000000000000000000000000000000000000000000000000000000000000000000000000000000000000000000000000000000000000000000000000000
310
00000000000000000000000000000000000000000000000000000000000000000000000000000000000000F50000F5F5F5F5F5F5F5F5F5F5F5F500F5F5F5F5F5F5F5F5F5F5F5F500F5F5F5F5F500F5F5F5F5F5F5F5000000000000000000000000000000000000000000000000000000000000000000000000000000000000
310
0000000000000000000000000000000000000000000000000000000000000000000000000000000000000000000000000000000000000000F5F5000000000000000000000000000000000000000000000000000000000000000000000000000000000000000000000000000000000000000000000000000000000000000000
310
000000000000000000000000000000000000000000000000000000000000000000000000000000000000000000F5F5F5F5F5F5F5F5F5F5F5F5F5F5F5F5F5F5F5F5F5F5F5F5F5F5F5F5F5F5F5F5F5F5F5F5F5F5F5F5F5F5F5F5F5F5F5F5F5F5F5F5F5F5F5F5F5F5F5F5F5F5F5F5F5F5F5F5F5F5F5F5F5F5F5F5F5F5F5F5F5F5
310
F5F5F5F5F5F5F5F5F5F5F5F5F5F5F5F5F5F5F5F5F5F5F5F5F5F5F5F5F5F5F5F5F5F5F5F5F5F5F5F5F5F5F5F5F5F5F5F5F5F5F5F5F5F5F5F5F5F5F5F500000000000000000000000000000000000000000000000000000000000000000000000000000000000000000000000000000000000000000000000000000000000000
310
00000000000000000000000000000000000000000000000000000000000000000000000000000000000000000000000000000000000000000000000000000000000000000000000000000000000000000000000000000000000000000000000000000000000000000000000000000000000000000000000000000000000000
310
0000000000000000000000000000000000000000000000000000000000000000000000000000000000000000000000000000000000000000000000000000000000000000000000000000000000000000000000000000000000000000000000000000000000000000000000000000000000000000000000
  0
XRECORD
  5
130A
102
{ACAD_REACTORS
330
BEA
102
}
330
BEA
100
AcDbXrecord
280
     1
102
MATERIAL
148
0.0
149
0.0
149
0.0
 93
        0
 94
      127
282
     0
 72
     0
 77
     0
171
     0
175
     0
179
     0
273
     0
  0
XRECORD
  5
BEC
102
{ACAD_REACTORS
330
BEA
102
}
330
BEA
100
AcDbXrecord
280
     1
270
     1
271
     1
  0
XRECORD
  5
BEB
102
{ACAD_REACTORS
330
BEA
102
}
330
BEA
100
AcDbXrecord
280
     1
270
     1
271
     1
  0
XRECORD
  5
BEF
102
{ACAD_REACTORS
330
BEA
102
}
330
BEA
100
AcDbXrecord
280
     1
270
     1
271
     1
  0
XRECORD
  5
BEE
102
{ACAD_REACTORS
330
BEA
102
}
330
BEA
100
AcDbXrecord
280
     1
270
     1
271
     1
  0
XRECORD
  5
BF0
102
{ACAD_REACTORS
330
BEA
102
}
330
BEA
100
AcDbXrecord
280
     1
270
     1
271
     1
  0
XRECORD
  5
BED
102
{ACAD_REACTORS
330
BEA
102
}
330
BEA
100
AcDbXrecord
280
     1
270
     1
271
     1
  0
XRECORD
  5
1309
102
{ACAD_REACTORS
330
BE2
102
}
330
BE2
100
AcDbXrecord
280
     1
102
MATERIAL
148
0.0
149
0.0
149
0.0
 93
        0
 94
      127
282
     0
 72
     0
 77
     0
171
     0
175
     0
179
     0
273
     0
  0
XRECORD
  5
BE4
102
{ACAD_REACTORS
330
BE2
102
}
330
BE2
100
AcDbXrecord
280
     1
270
     1
271
     1
  0
XRECORD
  5
BE3
102
{ACAD_REACTORS
330
BE2
102
}
330
BE2
100
AcDbXrecord
280
     1
270
     1
271
     1
  0
XRECORD
  5
BE7
102
{ACAD_REACTORS
330
BE2
102
}
330
BE2
100
AcDbXrecord
280
     1
270
     1
271
     1
  0
XRECORD
  5
BE6
102
{ACAD_REACTORS
330
BE2
102
}
330
BE2
100
AcDbXrecord
280
     1
270
     1
271
     1
  0
XRECORD
  5
BE8
102
{ACAD_REACTORS
330
BE2
102
}
330
BE2
100
AcDbXrecord
280
     1
270
     1
271
     1
  0
XRECORD
  5
BE5
102
{ACAD_REACTORS
330
BE2
102
}
330
BE2
100
AcDbXrecord
280
     1
270
     1
271
     1
  0
XRECORD
  5
130B
102
{ACAD_REACTORS
330
BF2
102
}
330
BF2
100
AcDbXrecord
280
     1
102
MATERIAL
148
0.0
149
0.0
149
0.0
 93
        0
 94
      127
282
     0
 72
     0
 77
     0
171
     0
175
     0
179
     0
273
     0
  0
XRECORD
  5
BF4
102
{ACAD_REACTORS
330
BF2
102
}
330
BF2
100
AcDbXrecord
280
     1
270
     1
271
     1
  0
XRECORD
  5
BF3
102
{ACAD_REACTORS
330
BF2
102
}
330
BF2
100
AcDbXrecord
280
     1
270
     1
271
     1
  0
XRECORD
  5
BF7
102
{ACAD_REACTORS
330
BF2
102
}
330
BF2
100
AcDbXrecord
280
     1
270
     1
271
     1
  0
XRECORD
  5
BF6
102
{ACAD_REACTORS
330
BF2
102
}
330
BF2
100
AcDbXrecord
280
     1
270
     1
271
     1
  0
XRECORD
  5
BF8
102
{ACAD_REACTORS
330
BF2
102
}
330
BF2
100
AcDbXrecord
280
     1
270
     1
271
     1
  0
XRECORD
  5
BF5
102
{ACAD_REACTORS
330
BF2
102
}
330
BF2
100
AcDbXrecord
280
     1
270
     1
271
     1
  0
XRECORD
  5
133E
102
{ACAD_REACTORS
330
133D
102
}
330
133D
100
AcDbXrecord
280
     1
102
ACAD_ROUNDTRIP_2012_MLEADER_STYLE
298
     1
  0
XRECORD
  5
1340
102
{ACAD_REACTORS
330
133F
102
}
330
133F
100
AcDbXrecord
280
     1
102
DISPLAYNAME
  1
Imperial24
102
FLAGS
 90
        0
  0
XRECORD
  5
1344
102
{ACAD_REACTORS
330
1343
102
}
330
1343
100
AcDbXrecord
280
     1
102
DISPLAYNAME
  1
Metric50
102
FLAGS
 90
        0
  0
CELLSTYLEMAP
  5
1307
102
{ACAD_REACTORS
330
C35
102
}
330
C35
100
AcDbCellStyleMap
 90
        3
300
CELLSTYLE
  1
TABLEFORMAT_BEGIN
 90
        5
170
     1
 91
        0
 92
    32768
 62
   257
 93
        1
300
CONTENTFORMAT
  1
CONTENTFORMAT_BEGIN
 90
        0
 91
        0
 92
      512
 93
        0
300

 40
0.0
140
1.0
 94
        5
 62
     0
340
C
144
0.25
309
CONTENTFORMAT_END
171
     0
 94
        0
309
TABLEFORMAT_END
  1
CELLSTYLE_BEGIN
 90
        1
 91
        1
300
_TITLE
309
CELLSTYLE_END
300
CELLSTYLE
  1
TABLEFORMAT_BEGIN
 90
        5
170
     1
 91
        0
 92
        0
 62
   257
 93
        1
300
CONTENTFORMAT
  1
CONTENTFORMAT_BEGIN
 90
        0
 91
        0
 92
      512
 93
        0
300

 40
0.0
140
1.0
 94
        5
 62
     0
340
C
144
0.18
309
CONTENTFORMAT_END
171
     0
 94
        0
309
TABLEFORMAT_END
  1
CELLSTYLE_BEGIN
 90
        2
 91
        1
300
_HEADER
309
CELLSTYLE_END
300
CELLSTYLE
  1
TABLEFORMAT_BEGIN
 90
        5
170
     1
 91
        0
 92
        0
 62
   257
 93
        1
300
CONTENTFORMAT
  1
CONTENTFORMAT_BEGIN
 90
        0
 91
        0
 92
      512
 93
        0
300

 40
0.0
140
1.0
 94
        2
 62
     0
340
C
144
0.18
309
CONTENTFORMAT_END
171
     0
 94
        0
309
TABLEFORMAT_END
  1
CELLSTYLE_BEGIN
 90
        3
 91
        2
300
_DATA
309
CELLSTYLE_END
  0
XRECORD
  5
133C
102
{ACAD_REACTORS
330
C35
102
}
330
C35
100
AcDbXrecord
280
     1
102
ACAD_ROUNDTRIP_PRE2007_TABLESTYLE
 90
      512
 91
        0
  1

 92
      512
 93
        0
  2

 94
      512
 95
        0
  3

  0
XRECORD
  5
1317
102
{ACAD_REACTORS
330
1316
102
}
330
1316
100
AcDbXrecord
280
     1
102
RTVSPost2010Prop28
280
     1
102
RTVSPost2010PropOp28
 70
     1
102
RTVSPost2010Prop29
280
     1
102
RTVSPost2010PropOp29
 70
     1
102
RTVSPost2010Prop30
280
     0
102
RTVSPost2010PropOp30
 70
     1
102
RTVSPost2010Prop31
280
     0
102
RTVSPost2010PropOp31
 70
     1
102
RTVSPost2010Prop32
280
     0
102
RTVSPost2010PropOp32
 70
     1
102
RTVSPost2010Prop33
280
     0
102
RTVSPost2010PropOp33
 70
     1
102
RTVSPost2010Prop34
280
     0
102
RTVSPost2010PropOp34
 70
     1
102
RTVSPost2010Prop35
280
     0
102
RTVSPost2010PropOp35
 70
     1
102
RTVSPost2010Prop36
280
     0
102
RTVSPost2010PropOp36
 70
     1
102
RTVSPost2010Prop37
 90
       50
102
RTVSPost2010PropOp37
 70
     1
102
RTVSPost2010Prop38
140
0.0
102
RTVSPost2010PropOp38
 70
     1
102
RTVSPost2010Prop39
140
1.0
102
RTVSPost2010PropOp39
 70
     1
102
RTVSPost2010Prop40
 90
        0
102
RTVSPost2010PropOp40
 70
     1
102
RTVSPost2010Prop41ColorIndex
 90
       18
102
RTVSPost2010Prop41ColorRGB
 90
        0
102
RTVSPost2010PropOp41
 70
     1
102
RTVSPost2010Prop42
 90
       50
102
RTVSPost2010PropOp42
 70
     1
102
RTVSPost2010Prop43
 90
        3
102
RTVSPost2010PropOp43
 70
     1
102
RTVSPost2010Prop44ColorIndex
 90
        5
102
RTVSPost2010Prop44ColorRGB
 90
      255
102
RTVSPost2010PropOp44
 70
     1
102
RTVSPost2010Prop45
280
     0
102
RTVSPost2010PropOp45
 70
     1
102
RTVSPost2010Prop46
 90
       50
102
RTVSPost2010PropOp46
 70
     1
102
RTVSPost2010Prop47
 90
       50
102
RTVSPost2010PropOp47
 70
     1
102
RTVSPost2010Prop48
 90
       50
102
RTVSPost2010PropOp48
 70
     1
102
RTVSPost2010Prop49
280
     0
102
RTVSPost2010PropOp49
 70
     1
102
RTVSPost2010Prop50
 90
       50
102
RTVSPost2010PropOp50
 70
     1
102
RTVSPost2010Prop51ColorIndex
 90
      256
102
RTVSPost2010Prop51ColorRGB
 90
-16777216
102
RTVSPost2010PropOp51
 70
     0
102
RTVSPost2010Prop52
140
1.0
102
RTVSPost2010PropOp52
 70
     0
102
RTVSPost2010Prop53
 90
        2
102
RTVSPost2010PropOp53
 70
     1
102
RTVSPost2010Prop54
  1
strokes_ogs.tif
102
RTVSPost2010PropOp54
 70
     1
102
RTVSPost2010Prop55
280
     0
102
RTVSPost2010PropOp55
 70
     1
102
RTVSPost2010Prop56
140
1.0
102
RTVSPost2010PropOp56
 70
     1
102
RTVSPost2010Prop57
140
1.0
102
RTVSPost2010PropOp57
 70
     1
102
RTVSPropertyOp0
 70
     1
102
RTVSPropertyOp1
 70
     1
102
RTVSPropertyOp2
 70
     1
102
RTVSPropertyOp3
 70
     1
102
RTVSPropertyOp4
 70
     1
102
RTVSPropertyOp5
 70
     1
102
RTVSPropertyOp6
 70
     1
102
RTVSPropertyOp7
 70
     1
102
RTVSPropertyOp8
 70
     1
102
RTVSPropertyOp9
 70
     1
102
RTVSPropertyOp10
 70
     1
102
RTVSPropertyOp11
 70
     1
102
RTVSPropertyOp12
 70
     1
102
RTVSPropertyOp13
 70
     1
102
RTVSPropertyOp14
 70
     1
102
RTVSPropertyOp15
 70
     1
102
RTVSPropertyOp16
 70
     1
102
RTVSPropertyOp17
 70
     1
102
RTVSPropertyOp18
 70
     1
102
RTVSPropertyOp19
 70
     1
102
RTVSPropertyOp20
 70
     1
102
RTVSPropertyOp21
 70
     1
102
RTVSPropertyOp22
 70
     1
102
RTVSPropertyOp23
 70
     1
102
RTVSPropertyOp24
 70
     1
102
RTVSPropertyOp25
 70
     1
102
RTVSPropertyOp26
 70
     1
102
RTVSPropertyOp27
 70
     1
102
RTVSPropertyOp28
 70
     1
102
RTVSPropertyOp29
 70
     1
102
RTVSPropertyOp30
 70
     1
102
RTVSPropertyOp31
 70
     1
102
RTVSPropertyOp32
 70
     1
102
RTVSPropertyOp33
 70
     1
102
RTVSPropertyOp34
 70
     1
102
RTVSPropertyOp35
 70
     1
102
RTVSPropertyOp36
 70
     1
102
RTVSPropertyOp37
 70
     1
102
RTVSPropertyOp38
 70
     1
102
RTVSPropertyOp39
 70
     1
102
RTVSPropertyOp40
 70
     1
102
RTVSPropertyOp41
 70
     1
102
RTVSPropertyOp42
 70
     1
102
RTVSPropertyOp43
 70
     1
102
RTVSPropertyOp44
 70
     1
102
RTVSPropertyOp45
 70
     1
102
RTVSPropertyOp46
 70
     1
102
RTVSPropertyOp47
 70
     1
102
RTVSPropertyOp48
 70
     1
102
RTVSPropertyOp49
 70
     1
102
RTVSPropertyOp50
 70
     1
102
RTVSPropertyOp51
 70
     0
102
RTVSPropertyOp52
 70
     0
102
RTVSPropertyOp53
 70
     1
102
RTVSPropertyOp54
 70
     1
102
RTVSPropertyOp55
 70
     1
102
RTVSPropertyOp56
 70
     1
102
RTVSPropertyOp57
 70
     1
102
RTVSPropertyOp58
 70
     1
102
RTVSPropertyOp59
 70
     1
102
RTVSPropertyOp60
 70
     1
102
RTVSPropertyOp61
 70
     1
102
RTVSPropertyOp62
 70
     1
  0
XRECORD
  5
1315
102
{ACAD_REACTORS
330
1314
102
}
330
1314
100
AcDbXrecord
280
     1
102
RTVSPost2010Prop28
280
     0
102
RTVSPost2010PropOp28
 70
     1
102
RTVSPost2010Prop29
280
     1
102
RTVSPost2010PropOp29
 70
     1
102
RTVSPost2010Prop30
280
     1
102
RTVSPost2010PropOp30
 70
     1
102
RTVSPost2010Prop31
280
     0
102
RTVSPost2010PropOp31
 70
     1
102
RTVSPost2010Prop32
280
     0
102
RTVSPost2010PropOp32
 70
     1
102
RTVSPost2010Prop33
280
     0
102
RTVSPost2010PropOp33
 70
     1
102
RTVSPost2010Prop34
280
     0
102
RTVSPost2010PropOp34
 70
     1
102
RTVSPost2010Prop35
280
     0
102
RTVSPost2010PropOp35
 70
     1
102
RTVSPost2010Prop36
280
     0
102
RTVSPost2010PropOp36
 70
     1
102
RTVSPost2010Prop37
 90
       50
102
RTVSPost2010PropOp37
 70
     1
102
RTVSPost2010Prop38
140
0.0
102
RTVSPost2010PropOp38
 70
     1
102
RTVSPost2010Prop39
140
1.0
102
RTVSPost2010PropOp39
 70
     1
102
RTVSPost2010Prop40
 90
        0
102
RTVSPost2010PropOp40
 70
     1
102
RTVSPost2010Prop41ColorIndex
 90
       18
102
RTVSPost2010Prop41ColorRGB
 90
        0
102
RTVSPost2010PropOp41
 70
     1
102
RTVSPost2010Prop42
 90
       50
102
RTVSPost2010PropOp42
 70
     1
102
RTVSPost2010Prop43
 90
        3
102
RTVSPost2010PropOp43
 70
     1
102
RTVSPost2010Prop44ColorIndex
 90
        5
102
RTVSPost2010Prop44ColorRGB
 90
      255
102
RTVSPost2010PropOp44
 70
     1
102
RTVSPost2010Prop45
280
     0
102
RTVSPost2010PropOp45
 70
     1
102
RTVSPost2010Prop46
 90
       50
102
RTVSPost2010PropOp46
 70
     1
102
RTVSPost2010Prop47
 90
       50
102
RTVSPost2010PropOp47
 70
     1
102
RTVSPost2010Prop48
 90
       50
102
RTVSPost2010PropOp48
 70
     1
102
RTVSPost2010Prop49
280
     0
102
RTVSPost2010PropOp49
 70
     1
102
RTVSPost2010Prop50
 90
       50
102
RTVSPost2010PropOp50
 70
     1
102
RTVSPost2010Prop51ColorIndex
 90
      256
102
RTVSPost2010Prop51ColorRGB
 90
-16777216
102
RTVSPost2010PropOp51
 70
     0
102
RTVSPost2010Prop52
140
1.0
102
RTVSPost2010PropOp52
 70
     0
102
RTVSPost2010Prop53
 90
        2
102
RTVSPost2010PropOp53
 70
     1
102
RTVSPost2010Prop54
  1
strokes_ogs.tif
102
RTVSPost2010PropOp54
 70
     1
102
RTVSPost2010Prop55
280
     0
102
RTVSPost2010PropOp55
 70
     1
102
RTVSPost2010Prop56
140
1.0
102
RTVSPost2010PropOp56
 70
     1
102
RTVSPost2010Prop57
140
1.0
102
RTVSPost2010PropOp57
 70
     1
102
RTVSPropertyOp0
 70
     1
102
RTVSPropertyOp1
 70
     1
102
RTVSPropertyOp2
 70
     1
102
RTVSPropertyOp3
 70
     1
102
RTVSPropertyOp4
 70
     1
102
RTVSPropertyOp5
 70
     1
102
RTVSPropertyOp6
 70
     1
102
RTVSPropertyOp7
 70
     1
102
RTVSPropertyOp8
 70
     1
102
RTVSPropertyOp9
 70
     1
102
RTVSPropertyOp10
 70
     1
102
RTVSPropertyOp11
 70
     1
102
RTVSPropertyOp12
 70
     1
102
RTVSPropertyOp13
 70
     1
102
RTVSPropertyOp14
 70
     1
102
RTVSPropertyOp15
 70
     1
102
RTVSPropertyOp16
 70
     1
102
RTVSPropertyOp17
 70
     1
102
RTVSPropertyOp18
 70
     1
102
RTVSPropertyOp19
 70
     1
102
RTVSPropertyOp20
 70
     1
102
RTVSPropertyOp21
 70
     1
102
RTVSPropertyOp22
 70
     1
102
RTVSPropertyOp23
 70
     1
102
RTVSPropertyOp24
 70
     1
102
RTVSPropertyOp25
 70
     1
102
RTVSPropertyOp26
 70
     1
102
RTVSPropertyOp27
 70
     1
102
RTVSPropertyOp28
 70
     1
102
RTVSPropertyOp29
 70
     1
102
RTVSPropertyOp30
 70
     1
102
RTVSPropertyOp31
 70
     1
102
RTVSPropertyOp32
 70
     1
102
RTVSPropertyOp33
 70
     1
102
RTVSPropertyOp34
 70
     1
102
RTVSPropertyOp35
 70
     1
102
RTVSPropertyOp36
 70
     1
102
RTVSPropertyOp37
 70
     1
102
RTVSPropertyOp38
 70
     1
102
RTVSPropertyOp39
 70
     1
102
RTVSPropertyOp40
 70
     1
102
RTVSPropertyOp41
 70
     1
102
RTVSPropertyOp42
 70
     1
102
RTVSPropertyOp43
 70
     1
102
RTVSPropertyOp44
 70
     1
102
RTVSPropertyOp45
 70
     1
102
RTVSPropertyOp46
 70
     1
102
RTVSPropertyOp47
 70
     1
102
RTVSPropertyOp48
 70
     1
102
RTVSPropertyOp49
 70
     1
102
RTVSPropertyOp50
 70
     1
102
RTVSPropertyOp51
 70
     0
102
RTVSPropertyOp52
 70
     0
102
RTVSPropertyOp53
 70
     1
102
RTVSPropertyOp54
 70
     1
102
RTVSPropertyOp55
 70
     1
102
RTVSPropertyOp56
 70
     1
102
RTVSPropertyOp57
 70
     1
102
RTVSPropertyOp58
 70
     1
102
RTVSPropertyOp59
 70
     1
102
RTVSPropertyOp60
 70
     1
102
RTVSPropertyOp61
 70
     1
102
RTVSPropertyOp62
 70
     1
  0
XRECORD
  5
1323
102
{ACAD_REACTORS
330
1322
102
}
330
1322
100
AcDbXrecord
280
     1
102
RTVSPost2010Prop28
280
     0
102
RTVSPost2010PropOp28
 70
     1
102
RTVSPost2010Prop29
280
     1
102
RTVSPost2010PropOp29
 70
     1
102
RTVSPost2010Prop30
280
     1
102
RTVSPost2010PropOp30
 70
     1
102
RTVSPost2010Prop31
280
     0
102
RTVSPost2010PropOp31
 70
     1
102
RTVSPost2010Prop32
280
     0
102
RTVSPost2010PropOp32
 70
     1
102
RTVSPost2010Prop33
280
     0
102
RTVSPost2010PropOp33
 70
     1
102
RTVSPost2010Prop34
280
     0
102
RTVSPost2010PropOp34
 70
     1
102
RTVSPost2010Prop35
280
     0
102
RTVSPost2010PropOp35
 70
     1
102
RTVSPost2010Prop36
280
     0
102
RTVSPost2010PropOp36
 70
     1
102
RTVSPost2010Prop37
 90
       50
102
RTVSPost2010PropOp37
 70
     1
102
RTVSPost2010Prop38
140
0.0
102
RTVSPost2010PropOp38
 70
     1
102
RTVSPost2010Prop39
140
1.0
102
RTVSPost2010PropOp39
 70
     1
102
RTVSPost2010Prop40
 90
        0
102
RTVSPost2010PropOp40
 70
     1
102
RTVSPost2010Prop41ColorIndex
 90
       18
102
RTVSPost2010Prop41ColorRGB
 90
        0
102
RTVSPost2010PropOp41
 70
     1
102
RTVSPost2010Prop42
 90
       50
102
RTVSPost2010PropOp42
 70
     1
102
RTVSPost2010Prop43
 90
        3
102
RTVSPost2010PropOp43
 70
     1
102
RTVSPost2010Prop44ColorIndex
 90
        5
102
RTVSPost2010Prop44ColorRGB
 90
      255
102
RTVSPost2010PropOp44
 70
     1
102
RTVSPost2010Prop45
280
     0
102
RTVSPost2010PropOp45
 70
     1
102
RTVSPost2010Prop46
 90
       50
102
RTVSPost2010PropOp46
 70
     1
102
RTVSPost2010Prop47
 90
       50
102
RTVSPost2010PropOp47
 70
     1
102
RTVSPost2010Prop48
 90
       50
102
RTVSPost2010PropOp48
 70
     1
102
RTVSPost2010Prop49
280
     0
102
RTVSPost2010PropOp49
 70
     1
102
RTVSPost2010Prop50
 90
       50
102
RTVSPost2010PropOp50
 70
     1
102
RTVSPost2010Prop51ColorIndex
 90
      256
102
RTVSPost2010Prop51ColorRGB
 90
-16777216
102
RTVSPost2010PropOp51
 70
     0
102
RTVSPost2010Prop52
140
1.0
102
RTVSPost2010PropOp52
 70
     0
102
RTVSPost2010Prop53
 90
        2
102
RTVSPost2010PropOp53
 70
     1
102
RTVSPost2010Prop54
  1
strokes_ogs.tif
102
RTVSPost2010PropOp54
 70
     1
102
RTVSPost2010Prop55
280
     0
102
RTVSPost2010PropOp55
 70
     1
102
RTVSPost2010Prop56
140
1.0
102
RTVSPost2010PropOp56
 70
     1
102
RTVSPost2010Prop57
140
1.0
102
RTVSPost2010PropOp57
 70
     1
102
RTVSPropertyOp0
 70
     1
102
RTVSPropertyOp1
 70
     1
102
RTVSPropertyOp2
 70
     1
102
RTVSPropertyOp3
 70
     1
102
RTVSPropertyOp4
 70
     1
102
RTVSPropertyOp5
 70
     1
102
RTVSPropertyOp6
 70
     1
102
RTVSPropertyOp7
 70
     1
102
RTVSPropertyOp8
 70
     1
102
RTVSPropertyOp9
 70
     1
102
RTVSPropertyOp10
 70
     1
102
RTVSPropertyOp11
 70
     1
102
RTVSPropertyOp12
 70
     1
102
RTVSPropertyOp13
 70
     1
102
RTVSPropertyOp14
 70
     1
102
RTVSPropertyOp15
 70
     1
102
RTVSPropertyOp16
 70
     1
102
RTVSPropertyOp17
 70
     1
102
RTVSPropertyOp18
 70
     1
102
RTVSPropertyOp19
 70
     1
102
RTVSPropertyOp20
 70
     1
102
RTVSPropertyOp21
 70
     1
102
RTVSPropertyOp22
 70
     1
102
RTVSPropertyOp23
 70
     1
102
RTVSPropertyOp24
 70
     1
102
RTVSPropertyOp25
 70
     1
102
RTVSPropertyOp26
 70
     1
102
RTVSPropertyOp27
 70
     1
102
RTVSPropertyOp28
 70
     1
102
RTVSPropertyOp29
 70
     1
102
RTVSPropertyOp30
 70
     1
102
RTVSPropertyOp31
 70
     1
102
RTVSPropertyOp32
 70
     1
102
RTVSPropertyOp33
 70
     1
102
RTVSPropertyOp34
 70
     1
102
RTVSPropertyOp35
 70
     1
102
RTVSPropertyOp36
 70
     1
102
RTVSPropertyOp37
 70
     1
102
RTVSPropertyOp38
 70
     1
102
RTVSPropertyOp39
 70
     1
102
RTVSPropertyOp40
 70
     1
102
RTVSPropertyOp41
 70
     1
102
RTVSPropertyOp42
 70
     1
102
RTVSPropertyOp43
 70
     1
102
RTVSPropertyOp44
 70
     1
102
RTVSPropertyOp45
 70
     1
102
RTVSPropertyOp46
 70
     1
102
RTVSPropertyOp47
 70
     1
102
RTVSPropertyOp48
 70
     1
102
RTVSPropertyOp49
 70
     1
102
RTVSPropertyOp50
 70
     1
102
RTVSPropertyOp51
 70
     0
102
RTVSPropertyOp52
 70
     0
102
RTVSPropertyOp53
 70
     1
102
RTVSPropertyOp54
 70
     1
102
RTVSPropertyOp55
 70
     1
102
RTVSPropertyOp56
 70
     1
102
RTVSPropertyOp57
 70
     1
102
RTVSPropertyOp58
 70
     1
102
RTVSPropertyOp59
 70
     1
102
RTVSPropertyOp60
 70
     1
102
RTVSPropertyOp61
 70
     1
102
RTVSPropertyOp62
 70
     1
  0
XRECORD
  5
132B
102
{ACAD_REACTORS
330
132A
102
}
330
132A
100
AcDbXrecord
280
     1
102
RTVSPost2010Prop28
280
     0
102
RTVSPost2010PropOp28
 70
     1
102
RTVSPost2010Prop29
280
     1
102
RTVSPost2010PropOp29
 70
     1
102
RTVSPost2010Prop30
280
     1
102
RTVSPost2010PropOp30
 70
     1
102
RTVSPost2010Prop31
280
     0
102
RTVSPost2010PropOp31
 70
     1
102
RTVSPost2010Prop32
280
     0
102
RTVSPost2010PropOp32
 70
     1
102
RTVSPost2010Prop33
280
     0
102
RTVSPost2010PropOp33
 70
     1
102
RTVSPost2010Prop34
280
     0
102
RTVSPost2010PropOp34
 70
     1
102
RTVSPost2010Prop35
280
     0
102
RTVSPost2010PropOp35
 70
     1
102
RTVSPost2010Prop36
280
     0
102
RTVSPost2010PropOp36
 70
     1
102
RTVSPost2010Prop37
 90
       50
102
RTVSPost2010PropOp37
 70
     1
102
RTVSPost2010Prop38
140
0.0
102
RTVSPost2010PropOp38
 70
     1
102
RTVSPost2010Prop39
140
1.0
102
RTVSPost2010PropOp39
 70
     1
102
RTVSPost2010Prop40
 90
        0
102
RTVSPost2010PropOp40
 70
     1
102
RTVSPost2010Prop41ColorIndex
 90
       18
102
RTVSPost2010Prop41ColorRGB
 90
        0
102
RTVSPost2010PropOp41
 70
     1
102
RTVSPost2010Prop42
 90
       50
102
RTVSPost2010PropOp42
 70
     1
102
RTVSPost2010Prop43
 90
        3
102
RTVSPost2010PropOp43
 70
     1
102
RTVSPost2010Prop44ColorIndex
 90
        5
102
RTVSPost2010Prop44ColorRGB
 90
      255
102
RTVSPost2010PropOp44
 70
     1
102
RTVSPost2010Prop45
280
     0
102
RTVSPost2010PropOp45
 70
     1
102
RTVSPost2010Prop46
 90
       50
102
RTVSPost2010PropOp46
 70
     1
102
RTVSPost2010Prop47
 90
       50
102
RTVSPost2010PropOp47
 70
     1
102
RTVSPost2010Prop48
 90
       50
102
RTVSPost2010PropOp48
 70
     1
102
RTVSPost2010Prop49
280
     0
102
RTVSPost2010PropOp49
 70
     1
102
RTVSPost2010Prop50
 90
       50
102
RTVSPost2010PropOp50
 70
     1
102
RTVSPost2010Prop51ColorIndex
 90
      256
102
RTVSPost2010Prop51ColorRGB
 90
-16777216
102
RTVSPost2010PropOp51
 70
     0
102
RTVSPost2010Prop52
140
1.0
102
RTVSPost2010PropOp52
 70
     0
102
RTVSPost2010Prop53
 90
        2
102
RTVSPost2010PropOp53
 70
     1
102
RTVSPost2010Prop54
  1
strokes_ogs.tif
102
RTVSPost2010PropOp54
 70
     1
102
RTVSPost2010Prop55
280
     0
102
RTVSPost2010PropOp55
 70
     1
102
RTVSPost2010Prop56
140
1.0
102
RTVSPost2010PropOp56
 70
     1
102
RTVSPost2010Prop57
140
1.0
102
RTVSPost2010PropOp57
 70
     1
102
RTVSPropertyOp0
 70
     1
102
RTVSPropertyOp1
 70
     1
102
RTVSPropertyOp2
 70
     1
102
RTVSPropertyOp3
 70
     1
102
RTVSPropertyOp4
 70
     1
102
RTVSPropertyOp5
 70
     1
102
RTVSPropertyOp6
 70
     1
102
RTVSPropertyOp7
 70
     1
102
RTVSPropertyOp8
 70
     1
102
RTVSPropertyOp9
 70
     1
102
RTVSPropertyOp10
 70
     1
102
RTVSPropertyOp11
 70
     1
102
RTVSPropertyOp12
 70
     1
102
RTVSPropertyOp13
 70
     1
102
RTVSPropertyOp14
 70
     1
102
RTVSPropertyOp15
 70
     1
102
RTVSPropertyOp16
 70
     1
102
RTVSPropertyOp17
 70
     1
102
RTVSPropertyOp18
 70
     1
102
RTVSPropertyOp19
 70
     1
102
RTVSPropertyOp20
 70
     1
102
RTVSPropertyOp21
 70
     1
102
RTVSPropertyOp22
 70
     1
102
RTVSPropertyOp23
 70
     1
102
RTVSPropertyOp24
 70
     1
102
RTVSPropertyOp25
 70
     1
102
RTVSPropertyOp26
 70
     1
102
RTVSPropertyOp27
 70
     1
102
RTVSPropertyOp28
 70
     1
102
RTVSPropertyOp29
 70
     1
102
RTVSPropertyOp30
 70
     1
102
RTVSPropertyOp31
 70
     1
102
RTVSPropertyOp32
 70
     1
102
RTVSPropertyOp33
 70
     1
102
RTVSPropertyOp34
 70
     1
102
RTVSPropertyOp35
 70
     1
102
RTVSPropertyOp36
 70
     1
102
RTVSPropertyOp37
 70
     1
102
RTVSPropertyOp38
 70
     1
102
RTVSPropertyOp39
 70
     1
102
RTVSPropertyOp40
 70
     1
102
RTVSPropertyOp41
 70
     1
102
RTVSPropertyOp42
 70
     1
102
RTVSPropertyOp43
 70
     1
102
RTVSPropertyOp44
 70
     1
102
RTVSPropertyOp45
 70
     1
102
RTVSPropertyOp46
 70
     1
102
RTVSPropertyOp47
 70
     1
102
RTVSPropertyOp48
 70
     1
102
RTVSPropertyOp49
 70
     1
102
RTVSPropertyOp50
 70
     1
102
RTVSPropertyOp51
 70
     0
102
RTVSPropertyOp52
 70
     0
102
RTVSPropertyOp53
 70
     1
102
RTVSPropertyOp54
 70
     1
102
RTVSPropertyOp55
 70
     1
102
RTVSPropertyOp56
 70
     1
102
RTVSPropertyOp57
 70
     1
102
RTVSPropertyOp58
 70
     1
102
RTVSPropertyOp59
 70
     1
102
RTVSPropertyOp60
 70
     1
102
RTVSPropertyOp61
 70
     1
102
RTVSPropertyOp62
 70
     1
  0
XRECORD
  5
131D
102
{ACAD_REACTORS
330
131C
102
}
330
131C
100
AcDbXrecord
280
     1
102
RTVSPost2010Prop28
280
     0
102
RTVSPost2010PropOp28
 70
     1
102
RTVSPost2010Prop29
280
     1
102
RTVSPost2010PropOp29
 70
     1
102
RTVSPost2010Prop30
280
     1
102
RTVSPost2010PropOp30
 70
     1
102
RTVSPost2010Prop31
280
     0
102
RTVSPost2010PropOp31
 70
     1
102
RTVSPost2010Prop32
280
     0
102
RTVSPost2010PropOp32
 70
     1
102
RTVSPost2010Prop33
280
     0
102
RTVSPost2010PropOp33
 70
     1
102
RTVSPost2010Prop34
280
     0
102
RTVSPost2010PropOp34
 70
     1
102
RTVSPost2010Prop35
280
     0
102
RTVSPost2010PropOp35
 70
     1
102
RTVSPost2010Prop36
280
     0
102
RTVSPost2010PropOp36
 70
     1
102
RTVSPost2010Prop37
 90
       50
102
RTVSPost2010PropOp37
 70
     1
102
RTVSPost2010Prop38
140
0.0
102
RTVSPost2010PropOp38
 70
     1
102
RTVSPost2010Prop39
140
1.0
102
RTVSPost2010PropOp39
 70
     1
102
RTVSPost2010Prop40
 90
        0
102
RTVSPost2010PropOp40
 70
     1
102
RTVSPost2010Prop41ColorIndex
 90
       18
102
RTVSPost2010Prop41ColorRGB
 90
        0
102
RTVSPost2010PropOp41
 70
     1
102
RTVSPost2010Prop42
 90
       50
102
RTVSPost2010PropOp42
 70
     1
102
RTVSPost2010Prop43
 90
        3
102
RTVSPost2010PropOp43
 70
     1
102
RTVSPost2010Prop44ColorIndex
 90
        5
102
RTVSPost2010Prop44ColorRGB
 90
      255
102
RTVSPost2010PropOp44
 70
     1
102
RTVSPost2010Prop45
280
     0
102
RTVSPost2010PropOp45
 70
     1
102
RTVSPost2010Prop46
 90
       50
102
RTVSPost2010PropOp46
 70
     1
102
RTVSPost2010Prop47
 90
       50
102
RTVSPost2010PropOp47
 70
     1
102
RTVSPost2010Prop48
 90
       50
102
RTVSPost2010PropOp48
 70
     1
102
RTVSPost2010Prop49
280
     0
102
RTVSPost2010PropOp49
 70
     1
102
RTVSPost2010Prop50
 90
       50
102
RTVSPost2010PropOp50
 70
     1
102
RTVSPost2010Prop51ColorIndex
 90
      256
102
RTVSPost2010Prop51ColorRGB
 90
-16777216
102
RTVSPost2010PropOp51
 70
     0
102
RTVSPost2010Prop52
140
1.0
102
RTVSPost2010PropOp52
 70
     0
102
RTVSPost2010Prop53
 90
        2
102
RTVSPost2010PropOp53
 70
     1
102
RTVSPost2010Prop54
  1
strokes_ogs.tif
102
RTVSPost2010PropOp54
 70
     1
102
RTVSPost2010Prop55
280
     0
102
RTVSPost2010PropOp55
 70
     1
102
RTVSPost2010Prop56
140
1.0
102
RTVSPost2010PropOp56
 70
     1
102
RTVSPost2010Prop57
140
1.0
102
RTVSPost2010PropOp57
 70
     1
102
RTVSPropertyOp0
 70
     1
102
RTVSPropertyOp1
 70
     1
102
RTVSPropertyOp2
 70
     1
102
RTVSPropertyOp3
 70
     1
102
RTVSPropertyOp4
 70
     1
102
RTVSPropertyOp5
 70
     1
102
RTVSPropertyOp6
 70
     1
102
RTVSPropertyOp7
 70
     1
102
RTVSPropertyOp8
 70
     1
102
RTVSPropertyOp9
 70
     1
102
RTVSPropertyOp10
 70
     1
102
RTVSPropertyOp11
 70
     1
102
RTVSPropertyOp12
 70
     1
102
RTVSPropertyOp13
 70
     1
102
RTVSPropertyOp14
 70
     1
102
RTVSPropertyOp15
 70
     1
102
RTVSPropertyOp16
 70
     1
102
RTVSPropertyOp17
 70
     1
102
RTVSPropertyOp18
 70
     1
102
RTVSPropertyOp19
 70
     1
102
RTVSPropertyOp20
 70
     1
102
RTVSPropertyOp21
 70
     1
102
RTVSPropertyOp22
 70
     1
102
RTVSPropertyOp23
 70
     1
102
RTVSPropertyOp24
 70
     1
102
RTVSPropertyOp25
 70
     1
102
RTVSPropertyOp26
 70
     1
102
RTVSPropertyOp27
 70
     1
102
RTVSPropertyOp28
 70
     1
102
RTVSPropertyOp29
 70
     1
102
RTVSPropertyOp30
 70
     1
102
RTVSPropertyOp31
 70
     1
102
RTVSPropertyOp32
 70
     1
102
RTVSPropertyOp33
 70
     1
102
RTVSPropertyOp34
 70
     1
102
RTVSPropertyOp35
 70
     1
102
RTVSPropertyOp36
 70
     1
102
RTVSPropertyOp37
 70
     1
102
RTVSPropertyOp38
 70
     1
102
RTVSPropertyOp39
 70
     1
102
RTVSPropertyOp40
 70
     1
102
RTVSPropertyOp41
 70
     1
102
RTVSPropertyOp42
 70
     1
102
RTVSPropertyOp43
 70
     1
102
RTVSPropertyOp44
 70
     1
102
RTVSPropertyOp45
 70
     1
102
RTVSPropertyOp46
 70
     1
102
RTVSPropertyOp47
 70
     1
102
RTVSPropertyOp48
 70
     1
102
RTVSPropertyOp49
 70
     1
102
RTVSPropertyOp50
 70
     1
102
RTVSPropertyOp51
 70
     0
102
RTVSPropertyOp52
 70
     0
102
RTVSPropertyOp53
 70
     1
102
RTVSPropertyOp54
 70
     1
102
RTVSPropertyOp55
 70
     1
102
RTVSPropertyOp56
 70
     1
102
RTVSPropertyOp57
 70
     1
102
RTVSPropertyOp58
 70
     1
102
RTVSPropertyOp59
 70
     1
102
RTVSPropertyOp60
 70
     1
102
RTVSPropertyOp61
 70
     1
102
RTVSPropertyOp62
 70
     1
  0
XRECORD
  5
1321
102
{ACAD_REACTORS
330
1320
102
}
330
1320
100
AcDbXrecord
280
     1
102
RTVSPost2010Prop28
280
     0
102
RTVSPost2010PropOp28
 70
     1
102
RTVSPost2010Prop29
280
     1
102
RTVSPost2010PropOp29
 70
     1
102
RTVSPost2010Prop30
280
     1
102
RTVSPost2010PropOp30
 70
     1
102
RTVSPost2010Prop31
280
     0
102
RTVSPost2010PropOp31
 70
     1
102
RTVSPost2010Prop32
280
     0
102
RTVSPost2010PropOp32
 70
     1
102
RTVSPost2010Prop33
280
     0
102
RTVSPost2010PropOp33
 70
     1
102
RTVSPost2010Prop34
280
     0
102
RTVSPost2010PropOp34
 70
     1
102
RTVSPost2010Prop35
280
     0
102
RTVSPost2010PropOp35
 70
     1
102
RTVSPost2010Prop36
280
     0
102
RTVSPost2010PropOp36
 70
     1
102
RTVSPost2010Prop37
 90
       50
102
RTVSPost2010PropOp37
 70
     1
102
RTVSPost2010Prop38
140
0.0
102
RTVSPost2010PropOp38
 70
     1
102
RTVSPost2010Prop39
140
1.0
102
RTVSPost2010PropOp39
 70
     1
102
RTVSPost2010Prop40
 90
        0
102
RTVSPost2010PropOp40
 70
     1
102
RTVSPost2010Prop41ColorIndex
 90
       18
102
RTVSPost2010Prop41ColorRGB
 90
        0
102
RTVSPost2010PropOp41
 70
     1
102
RTVSPost2010Prop42
 90
       50
102
RTVSPost2010PropOp42
 70
     1
102
RTVSPost2010Prop43
 90
        3
102
RTVSPost2010PropOp43
 70
     1
102
RTVSPost2010Prop44ColorIndex
 90
        5
102
RTVSPost2010Prop44ColorRGB
 90
      255
102
RTVSPost2010PropOp44
 70
     1
102
RTVSPost2010Prop45
280
     0
102
RTVSPost2010PropOp45
 70
     1
102
RTVSPost2010Prop46
 90
       50
102
RTVSPost2010PropOp46
 70
     1
102
RTVSPost2010Prop47
 90
       50
102
RTVSPost2010PropOp47
 70
     1
102
RTVSPost2010Prop48
 90
       50
102
RTVSPost2010PropOp48
 70
     1
102
RTVSPost2010Prop49
280
     0
102
RTVSPost2010PropOp49
 70
     1
102
RTVSPost2010Prop50
 90
       50
102
RTVSPost2010PropOp50
 70
     1
102
RTVSPost2010Prop51ColorIndex
 90
      256
102
RTVSPost2010Prop51ColorRGB
 90
-16777216
102
RTVSPost2010PropOp51
 70
     0
102
RTVSPost2010Prop52
140
1.0
102
RTVSPost2010PropOp52
 70
     0
102
RTVSPost2010Prop53
 90
        2
102
RTVSPost2010PropOp53
 70
     1
102
RTVSPost2010Prop54
  1
strokes_ogs.tif
102
RTVSPost2010PropOp54
 70
     1
102
RTVSPost2010Prop55
280
     0
102
RTVSPost2010PropOp55
 70
     1
102
RTVSPost2010Prop56
140
1.0
102
RTVSPost2010PropOp56
 70
     1
102
RTVSPost2010Prop57
140
1.0
102
RTVSPost2010PropOp57
 70
     1
102
RTVSPropertyOp0
 70
     1
102
RTVSPropertyOp1
 70
     1
102
RTVSPropertyOp2
 70
     1
102
RTVSPropertyOp3
 70
     1
102
RTVSPropertyOp4
 70
     1
102
RTVSPropertyOp5
 70
     1
102
RTVSPropertyOp6
 70
     1
102
RTVSPropertyOp7
 70
     1
102
RTVSPropertyOp8
 70
     1
102
RTVSPropertyOp9
 70
     1
102
RTVSPropertyOp10
 70
     1
102
RTVSPropertyOp11
 70
     1
102
RTVSPropertyOp12
 70
     1
102
RTVSPropertyOp13
 70
     1
102
RTVSPropertyOp14
 70
     1
102
RTVSPropertyOp15
 70
     1
102
RTVSPropertyOp16
 70
     1
102
RTVSPropertyOp17
 70
     1
102
RTVSPropertyOp18
 70
     1
102
RTVSPropertyOp19
 70
     1
102
RTVSPropertyOp20
 70
     1
102
RTVSPropertyOp21
 70
     1
102
RTVSPropertyOp22
 70
     1
102
RTVSPropertyOp23
 70
     1
102
RTVSPropertyOp24
 70
     1
102
RTVSPropertyOp25
 70
     1
102
RTVSPropertyOp26
 70
     1
102
RTVSPropertyOp27
 70
     1
102
RTVSPropertyOp28
 70
     1
102
RTVSPropertyOp29
 70
     1
102
RTVSPropertyOp30
 70
     1
102
RTVSPropertyOp31
 70
     1
102
RTVSPropertyOp32
 70
     1
102
RTVSPropertyOp33
 70
     1
102
RTVSPropertyOp34
 70
     1
102
RTVSPropertyOp35
 70
     1
102
RTVSPropertyOp36
 70
     1
102
RTVSPropertyOp37
 70
     1
102
RTVSPropertyOp38
 70
     1
102
RTVSPropertyOp39
 70
     1
102
RTVSPropertyOp40
 70
     1
102
RTVSPropertyOp41
 70
     1
102
RTVSPropertyOp42
 70
     1
102
RTVSPropertyOp43
 70
     1
102
RTVSPropertyOp44
 70
     1
102
RTVSPropertyOp45
 70
     1
102
RTVSPropertyOp46
 70
     1
102
RTVSPropertyOp47
 70
     1
102
RTVSPropertyOp48
 70
     1
102
RTVSPropertyOp49
 70
     1
102
RTVSPropertyOp50
 70
     1
102
RTVSPropertyOp51
 70
     0
102
RTVSPropertyOp52
 70
     0
102
RTVSPropertyOp53
 70
     1
102
RTVSPropertyOp54
 70
     1
102
RTVSPropertyOp55
 70
     1
102
RTVSPropertyOp56
 70
     1
102
RTVSPropertyOp57
 70
     1
102
RTVSPropertyOp58
 70
     1
102
RTVSPropertyOp59
 70
     1
102
RTVSPropertyOp60
 70
     1
102
RTVSPropertyOp61
 70
     1
102
RTVSPropertyOp62
 70
     1
  0
XRECORD
  5
133B
102
{ACAD_REACTORS
330
133A
102
}
330
133A
100
AcDbXrecord
280
     1
102
RTVSPost2010Prop28
280
     0
102
RTVSPost2010PropOp28
 70
     0
102
RTVSPost2010Prop29
280
     1
102
RTVSPost2010PropOp29
 70
     0
102
RTVSPost2010Prop30
280
     1
102
RTVSPost2010PropOp30
 70
     0
102
RTVSPost2010Prop31
280
     0
102
RTVSPost2010PropOp31
 70
     0
102
RTVSPost2010Prop32
280
     0
102
RTVSPost2010PropOp32
 70
     0
102
RTVSPost2010Prop33
280
     0
102
RTVSPost2010PropOp33
 70
     0
102
RTVSPost2010Prop34
280
     0
102
RTVSPost2010PropOp34
 70
     0
102
RTVSPost2010Prop35
280
     0
102
RTVSPost2010PropOp35
 70
     0
102
RTVSPost2010Prop36
280
     0
102
RTVSPost2010PropOp36
 70
     0
102
RTVSPost2010Prop37
 90
       50
102
RTVSPost2010PropOp37
 70
     0
102
RTVSPost2010Prop38
140
0.0
102
RTVSPost2010PropOp38
 70
     0
102
RTVSPost2010Prop39
140
1.0
102
RTVSPost2010PropOp39
 70
     0
102
RTVSPost2010Prop40
 90
        0
102
RTVSPost2010PropOp40
 70
     0
102
RTVSPost2010Prop41ColorIndex
 90
       18
102
RTVSPost2010Prop41ColorRGB
 90
        0
102
RTVSPost2010PropOp41
 70
     0
102
RTVSPost2010Prop42
 90
       50
102
RTVSPost2010PropOp42
 70
     0
102
RTVSPost2010Prop43
 90
        3
102
RTVSPost2010PropOp43
 70
     0
102
RTVSPost2010Prop44ColorIndex
 90
        5
102
RTVSPost2010Prop44ColorRGB
 90
      255
102
RTVSPost2010PropOp44
 70
     0
102
RTVSPost2010Prop45
280
     0
102
RTVSPost2010PropOp45
 70
     0
102
RTVSPost2010Prop46
 90
       50
102
RTVSPost2010PropOp46
 70
     0
102
RTVSPost2010Prop47
 90
       50
102
RTVSPost2010PropOp47
 70
     0
102
RTVSPost2010Prop48
 90
       50
102
RTVSPost2010PropOp48
 70
     0
102
RTVSPost2010Prop49
280
     0
102
RTVSPost2010PropOp49
 70
     0
102
RTVSPost2010Prop50
 90
       50
102
RTVSPost2010PropOp50
 70
     0
102
RTVSPost2010Prop51ColorIndex
 90
      256
102
RTVSPost2010Prop51ColorRGB
 90
-16777216
102
RTVSPost2010PropOp51
 70
     0
102
RTVSPost2010Prop52
140
1.0
102
RTVSPost2010PropOp52
 70
     0
102
RTVSPost2010Prop53
 90
        2
102
RTVSPost2010PropOp53
 70
     0
102
RTVSPost2010Prop54
  1
strokes_ogs.tif
102
RTVSPost2010PropOp54
 70
     0
102
RTVSPost2010Prop55
280
     0
102
RTVSPost2010PropOp55
 70
     0
102
RTVSPost2010Prop56
140
1.0
102
RTVSPost2010PropOp56
 70
     0
102
RTVSPost2010Prop57
140
1.0
102
RTVSPost2010PropOp57
 70
     0
102
RTVSPropertyOp0
 70
     0
102
RTVSPropertyOp1
 70
     0
102
RTVSPropertyOp2
 70
     0
102
RTVSPropertyOp3
 70
     0
102
RTVSPropertyOp4
 70
     0
102
RTVSPropertyOp5
 70
     0
102
RTVSPropertyOp6
 70
     0
102
RTVSPropertyOp7
 70
     0
102
RTVSPropertyOp8
 70
     0
102
RTVSPropertyOp9
 70
     0
102
RTVSPropertyOp10
 70
     0
102
RTVSPropertyOp11
 70
     0
102
RTVSPropertyOp12
 70
     0
102
RTVSPropertyOp13
 70
     0
102
RTVSPropertyOp14
 70
     2
102
RTVSPropertyOp15
 70
     0
102
RTVSPropertyOp16
 70
     0
102
RTVSPropertyOp17
 70
     0
102
RTVSPropertyOp18
 70
     0
102
RTVSPropertyOp19
 70
     0
102
RTVSPropertyOp20
 70
     0
102
RTVSPropertyOp21
 70
     0
102
RTVSPropertyOp22
 70
     0
102
RTVSPropertyOp23
 70
     0
102
RTVSPropertyOp24
 70
     0
102
RTVSPropertyOp25
 70
     0
102
RTVSPropertyOp26
 70
     0
102
RTVSPropertyOp27
 70
     0
102
RTVSPropertyOp28
 70
     0
102
RTVSPropertyOp29
 70
     0
102
RTVSPropertyOp30
 70
     0
102
RTVSPropertyOp31
 70
     0
102
RTVSPropertyOp32
 70
     0
102
RTVSPropertyOp33
 70
     0
102
RTVSPropertyOp34
 70
     0
102
RTVSPropertyOp35
 70
     0
102
RTVSPropertyOp36
 70
     0
102
RTVSPropertyOp37
 70
     0
102
RTVSPropertyOp38
 70
     0
102
RTVSPropertyOp39
 70
     0
102
RTVSPropertyOp40
 70
     0
102
RTVSPropertyOp41
 70
     0
102
RTVSPropertyOp42
 70
     0
102
RTVSPropertyOp43
 70
     0
102
RTVSPropertyOp44
 70
     0
102
RTVSPropertyOp45
 70
     0
102
RTVSPropertyOp46
 70
     0
102
RTVSPropertyOp47
 70
     0
102
RTVSPropertyOp48
 70
     0
102
RTVSPropertyOp49
 70
     0
102
RTVSPropertyOp50
 70
     0
102
RTVSPropertyOp51
 70
     0
102
RTVSPropertyOp52
 70
     0
102
RTVSPropertyOp53
 70
     0
102
RTVSPropertyOp54
 70
     0
102
RTVSPropertyOp55
 70
     0
102
RTVSPropertyOp56
 70
     0
102
RTVSPropertyOp57
 70
     0
102
RTVSPropertyOp58
 70
     0
102
RTVSPropertyOp59
 70
     0
102
RTVSPropertyOp60
 70
     0
102
RTVSPropertyOp61
 70
     0
102
RTVSPropertyOp62
 70
     0
  0
XRECORD
  5
1329
102
{ACAD_REACTORS
330
1328
102
}
330
1328
100
AcDbXrecord
280
     1
102
RTVSPost2010Prop28
280
     0
102
RTVSPost2010PropOp28
 70
     1
102
RTVSPost2010Prop29
280
     1
102
RTVSPost2010PropOp29
 70
     1
102
RTVSPost2010Prop30
280
     1
102
RTVSPost2010PropOp30
 70
     1
102
RTVSPost2010Prop31
280
     0
102
RTVSPost2010PropOp31
 70
     1
102
RTVSPost2010Prop32
280
     0
102
RTVSPost2010PropOp32
 70
     1
102
RTVSPost2010Prop33
280
     0
102
RTVSPost2010PropOp33
 70
     1
102
RTVSPost2010Prop34
280
     0
102
RTVSPost2010PropOp34
 70
     1
102
RTVSPost2010Prop35
280
     0
102
RTVSPost2010PropOp35
 70
     1
102
RTVSPost2010Prop36
280
     0
102
RTVSPost2010PropOp36
 70
     1
102
RTVSPost2010Prop37
 90
       50
102
RTVSPost2010PropOp37
 70
     1
102
RTVSPost2010Prop38
140
0.0
102
RTVSPost2010PropOp38
 70
     1
102
RTVSPost2010Prop39
140
1.0
102
RTVSPost2010PropOp39
 70
     1
102
RTVSPost2010Prop40
 90
        0
102
RTVSPost2010PropOp40
 70
     1
102
RTVSPost2010Prop41ColorIndex
 90
       18
102
RTVSPost2010Prop41ColorRGB
 90
        0
102
RTVSPost2010PropOp41
 70
     1
102
RTVSPost2010Prop42
 90
       50
102
RTVSPost2010PropOp42
 70
     1
102
RTVSPost2010Prop43
 90
        3
102
RTVSPost2010PropOp43
 70
     1
102
RTVSPost2010Prop44ColorIndex
 90
        5
102
RTVSPost2010Prop44ColorRGB
 90
      255
102
RTVSPost2010PropOp44
 70
     1
102
RTVSPost2010Prop45
280
     0
102
RTVSPost2010PropOp45
 70
     1
102
RTVSPost2010Prop46
 90
       50
102
RTVSPost2010PropOp46
 70
     1
102
RTVSPost2010Prop47
 90
       50
102
RTVSPost2010PropOp47
 70
     1
102
RTVSPost2010Prop48
 90
       50
102
RTVSPost2010PropOp48
 70
     1
102
RTVSPost2010Prop49
280
     0
102
RTVSPost2010PropOp49
 70
     1
102
RTVSPost2010Prop50
 90
       50
102
RTVSPost2010PropOp50
 70
     1
102
RTVSPost2010Prop51ColorIndex
 90
      256
102
RTVSPost2010Prop51ColorRGB
 90
-16777216
102
RTVSPost2010PropOp51
 70
     0
102
RTVSPost2010Prop52
140
1.0
102
RTVSPost2010PropOp52
 70
     0
102
RTVSPost2010Prop53
 90
        2
102
RTVSPost2010PropOp53
 70
     1
102
RTVSPost2010Prop54
  1
strokes_ogs.tif
102
RTVSPost2010PropOp54
 70
     1
102
RTVSPost2010Prop55
280
     0
102
RTVSPost2010PropOp55
 70
     1
102
RTVSPost2010Prop56
140
1.0
102
RTVSPost2010PropOp56
 70
     1
102
RTVSPost2010Prop57
140
1.0
102
RTVSPost2010PropOp57
 70
     1
102
RTVSPropertyOp0
 70
     1
102
RTVSPropertyOp1
 70
     1
102
RTVSPropertyOp2
 70
     1
102
RTVSPropertyOp3
 70
     1
102
RTVSPropertyOp4
 70
     1
102
RTVSPropertyOp5
 70
     1
102
RTVSPropertyOp6
 70
     1
102
RTVSPropertyOp7
 70
     1
102
RTVSPropertyOp8
 70
     1
102
RTVSPropertyOp9
 70
     1
102
RTVSPropertyOp10
 70
     1
102
RTVSPropertyOp11
 70
     1
102
RTVSPropertyOp12
 70
     1
102
RTVSPropertyOp13
 70
     1
102
RTVSPropertyOp14
 70
     1
102
RTVSPropertyOp15
 70
     1
102
RTVSPropertyOp16
 70
     1
102
RTVSPropertyOp17
 70
     1
102
RTVSPropertyOp18
 70
     1
102
RTVSPropertyOp19
 70
     1
102
RTVSPropertyOp20
 70
     1
102
RTVSPropertyOp21
 70
     1
102
RTVSPropertyOp22
 70
     1
102
RTVSPropertyOp23
 70
     1
102
RTVSPropertyOp24
 70
     1
102
RTVSPropertyOp25
 70
     1
102
RTVSPropertyOp26
 70
     1
102
RTVSPropertyOp27
 70
     1
102
RTVSPropertyOp28
 70
     1
102
RTVSPropertyOp29
 70
     1
102
RTVSPropertyOp30
 70
     1
102
RTVSPropertyOp31
 70
     1
102
RTVSPropertyOp32
 70
     1
102
RTVSPropertyOp33
 70
     1
102
RTVSPropertyOp34
 70
     1
102
RTVSPropertyOp35
 70
     1
102
RTVSPropertyOp36
 70
     1
102
RTVSPropertyOp37
 70
     1
102
RTVSPropertyOp38
 70
     1
102
RTVSPropertyOp39
 70
     1
102
RTVSPropertyOp40
 70
     1
102
RTVSPropertyOp41
 70
     1
102
RTVSPropertyOp42
 70
     1
102
RTVSPropertyOp43
 70
     1
102
RTVSPropertyOp44
 70
     1
102
RTVSPropertyOp45
 70
     1
102
RTVSPropertyOp46
 70
     1
102
RTVSPropertyOp47
 70
     1
102
RTVSPropertyOp48
 70
     1
102
RTVSPropertyOp49
 70
     1
102
RTVSPropertyOp50
 70
     1
102
RTVSPropertyOp51
 70
     0
102
RTVSPropertyOp52
 70
     0
102
RTVSPropertyOp53
 70
     1
102
RTVSPropertyOp54
 70
     1
102
RTVSPropertyOp55
 70
     1
102
RTVSPropertyOp56
 70
     1
102
RTVSPropertyOp57
 70
     1
102
RTVSPropertyOp58
 70
     1
102
RTVSPropertyOp59
 70
     1
102
RTVSPropertyOp60
 70
     1
102
RTVSPropertyOp61
 70
     1
102
RTVSPropertyOp62
 70
     1
  0
XRECORD
  5
130D
102
{ACAD_REACTORS
330
130C
102
}
330
130C
100
AcDbXrecord
280
     1
102
RTVSPost2010Prop28
280
     0
102
RTVSPost2010PropOp28
 70
     1
102
RTVSPost2010Prop29
280
     1
102
RTVSPost2010PropOp29
 70
     1
102
RTVSPost2010Prop30
280
     1
102
RTVSPost2010PropOp30
 70
     1
102
RTVSPost2010Prop31
280
     0
102
RTVSPost2010PropOp31
 70
     1
102
RTVSPost2010Prop32
280
     0
102
RTVSPost2010PropOp32
 70
     1
102
RTVSPost2010Prop33
280
     0
102
RTVSPost2010PropOp33
 70
     1
102
RTVSPost2010Prop34
280
     0
102
RTVSPost2010PropOp34
 70
     1
102
RTVSPost2010Prop35
280
     0
102
RTVSPost2010PropOp35
 70
     1
102
RTVSPost2010Prop36
280
     0
102
RTVSPost2010PropOp36
 70
     1
102
RTVSPost2010Prop37
 90
       50
102
RTVSPost2010PropOp37
 70
     1
102
RTVSPost2010Prop38
140
0.0
102
RTVSPost2010PropOp38
 70
     1
102
RTVSPost2010Prop39
140
1.0
102
RTVSPost2010PropOp39
 70
     1
102
RTVSPost2010Prop40
 90
        0
102
RTVSPost2010PropOp40
 70
     1
102
RTVSPost2010Prop41ColorIndex
 90
       18
102
RTVSPost2010Prop41ColorRGB
 90
        0
102
RTVSPost2010PropOp41
 70
     1
102
RTVSPost2010Prop42
 90
       50
102
RTVSPost2010PropOp42
 70
     1
102
RTVSPost2010Prop43
 90
        3
102
RTVSPost2010PropOp43
 70
     1
102
RTVSPost2010Prop44ColorIndex
 90
        5
102
RTVSPost2010Prop44ColorRGB
 90
      255
102
RTVSPost2010PropOp44
 70
     1
102
RTVSPost2010Prop45
280
     0
102
RTVSPost2010PropOp45
 70
     1
102
RTVSPost2010Prop46
 90
       50
102
RTVSPost2010PropOp46
 70
     1
102
RTVSPost2010Prop47
 90
       50
102
RTVSPost2010PropOp47
 70
     1
102
RTVSPost2010Prop48
 90
       50
102
RTVSPost2010PropOp48
 70
     1
102
RTVSPost2010Prop49
280
     0
102
RTVSPost2010PropOp49
 70
     1
102
RTVSPost2010Prop50
 90
       50
102
RTVSPost2010PropOp50
 70
     1
102
RTVSPost2010Prop51ColorIndex
 90
      256
102
RTVSPost2010Prop51ColorRGB
 90
-16777216
102
RTVSPost2010PropOp51
 70
     0
102
RTVSPost2010Prop52
140
1.0
102
RTVSPost2010PropOp52
 70
     0
102
RTVSPost2010Prop53
 90
        2
102
RTVSPost2010PropOp53
 70
     1
102
RTVSPost2010Prop54
  1
strokes_ogs.tif
102
RTVSPost2010PropOp54
 70
     1
102
RTVSPost2010Prop55
280
     0
102
RTVSPost2010PropOp55
 70
     1
102
RTVSPost2010Prop56
140
1.0
102
RTVSPost2010PropOp56
 70
     1
102
RTVSPost2010Prop57
140
1.0
102
RTVSPost2010PropOp57
 70
     1
102
RTVSPropertyOp0
 70
     1
102
RTVSPropertyOp1
 70
     1
102
RTVSPropertyOp2
 70
     1
102
RTVSPropertyOp3
 70
     1
102
RTVSPropertyOp4
 70
     1
102
RTVSPropertyOp5
 70
     1
102
RTVSPropertyOp6
 70
     1
102
RTVSPropertyOp7
 70
     1
102
RTVSPropertyOp8
 70
     1
102
RTVSPropertyOp9
 70
     1
102
RTVSPropertyOp10
 70
     1
102
RTVSPropertyOp11
 70
     1
102
RTVSPropertyOp12
 70
     1
102
RTVSPropertyOp13
 70
     1
102
RTVSPropertyOp14
 70
     1
102
RTVSPropertyOp15
 70
     1
102
RTVSPropertyOp16
 70
     1
102
RTVSPropertyOp17
 70
     1
102
RTVSPropertyOp18
 70
     1
102
RTVSPropertyOp19
 70
     1
102
RTVSPropertyOp20
 70
     1
102
RTVSPropertyOp21
 70
     1
102
RTVSPropertyOp22
 70
     1
102
RTVSPropertyOp23
 70
     1
102
RTVSPropertyOp24
 70
     1
102
RTVSPropertyOp25
 70
     1
102
RTVSPropertyOp26
 70
     1
102
RTVSPropertyOp27
 70
     1
102
RTVSPropertyOp28
 70
     1
102
RTVSPropertyOp29
 70
     1
102
RTVSPropertyOp30
 70
     1
102
RTVSPropertyOp31
 70
     1
102
RTVSPropertyOp32
 70
     1
102
RTVSPropertyOp33
 70
     1
102
RTVSPropertyOp34
 70
     1
102
RTVSPropertyOp35
 70
     1
102
RTVSPropertyOp36
 70
     1
102
RTVSPropertyOp37
 70
     1
102
RTVSPropertyOp38
 70
     1
102
RTVSPropertyOp39
 70
     1
102
RTVSPropertyOp40
 70
     1
102
RTVSPropertyOp41
 70
     1
102
RTVSPropertyOp42
 70
     1
102
RTVSPropertyOp43
 70
     1
102
RTVSPropertyOp44
 70
     1
102
RTVSPropertyOp45
 70
     1
102
RTVSPropertyOp46
 70
     1
102
RTVSPropertyOp47
 70
     1
102
RTVSPropertyOp48
 70
     1
102
RTVSPropertyOp49
 70
     1
102
RTVSPropertyOp50
 70
     1
102
RTVSPropertyOp51
 70
     0
102
RTVSPropertyOp52
 70
     0
102
RTVSPropertyOp53
 70
     1
102
RTVSPropertyOp54
 70
     1
102
RTVSPropertyOp55
 70
     1
102
RTVSPropertyOp56
 70
     1
102
RTVSPropertyOp57
 70
     1
102
RTVSPropertyOp58
 70
     1
102
RTVSPropertyOp59
 70
     1
102
RTVSPropertyOp60
 70
     1
102
RTVSPropertyOp61
 70
     1
102
RTVSPropertyOp62
 70
     1
  0
XRECORD
  5
130F
102
{ACAD_REACTORS
330
130E
102
}
330
130E
100
AcDbXrecord
280
     1
102
RTVSPost2010Prop28
280
     0
102
RTVSPost2010PropOp28
 70
     1
102
RTVSPost2010Prop29
280
     1
102
RTVSPost2010PropOp29
 70
     1
102
RTVSPost2010Prop30
280
     1
102
RTVSPost2010PropOp30
 70
     1
102
RTVSPost2010Prop31
280
     0
102
RTVSPost2010PropOp31
 70
     1
102
RTVSPost2010Prop32
280
     0
102
RTVSPost2010PropOp32
 70
     1
102
RTVSPost2010Prop33
280
     0
102
RTVSPost2010PropOp33
 70
     1
102
RTVSPost2010Prop34
280
     0
102
RTVSPost2010PropOp34
 70
     1
102
RTVSPost2010Prop35
280
     0
102
RTVSPost2010PropOp35
 70
     1
102
RTVSPost2010Prop36
280
     0
102
RTVSPost2010PropOp36
 70
     1
102
RTVSPost2010Prop37
 90
       50
102
RTVSPost2010PropOp37
 70
     1
102
RTVSPost2010Prop38
140
0.0
102
RTVSPost2010PropOp38
 70
     1
102
RTVSPost2010Prop39
140
1.0
102
RTVSPost2010PropOp39
 70
     1
102
RTVSPost2010Prop40
 90
        0
102
RTVSPost2010PropOp40
 70
     1
102
RTVSPost2010Prop41ColorIndex
 90
       18
102
RTVSPost2010Prop41ColorRGB
 90
        0
102
RTVSPost2010PropOp41
 70
     1
102
RTVSPost2010Prop42
 90
       50
102
RTVSPost2010PropOp42
 70
     1
102
RTVSPost2010Prop43
 90
        3
102
RTVSPost2010PropOp43
 70
     1
102
RTVSPost2010Prop44ColorIndex
 90
        5
102
RTVSPost2010Prop44ColorRGB
 90
      255
102
RTVSPost2010PropOp44
 70
     1
102
RTVSPost2010Prop45
280
     0
102
RTVSPost2010PropOp45
 70
     1
102
RTVSPost2010Prop46
 90
       50
102
RTVSPost2010PropOp46
 70
     1
102
RTVSPost2010Prop47
 90
       50
102
RTVSPost2010PropOp47
 70
     1
102
RTVSPost2010Prop48
 90
       50
102
RTVSPost2010PropOp48
 70
     1
102
RTVSPost2010Prop49
280
     0
102
RTVSPost2010PropOp49
 70
     1
102
RTVSPost2010Prop50
 90
       50
102
RTVSPost2010PropOp50
 70
     1
102
RTVSPost2010Prop51ColorIndex
 90
      256
102
RTVSPost2010Prop51ColorRGB
 90
-16777216
102
RTVSPost2010PropOp51
 70
     0
102
RTVSPost2010Prop52
140
1.0
102
RTVSPost2010PropOp52
 70
     0
102
RTVSPost2010Prop53
 90
        2
102
RTVSPost2010PropOp53
 70
     1
102
RTVSPost2010Prop54
  1
strokes_ogs.tif
102
RTVSPost2010PropOp54
 70
     1
102
RTVSPost2010Prop55
280
     0
102
RTVSPost2010PropOp55
 70
     1
102
RTVSPost2010Prop56
140
1.0
102
RTVSPost2010PropOp56
 70
     1
102
RTVSPost2010Prop57
140
1.0
102
RTVSPost2010PropOp57
 70
     1
102
RTVSPropertyOp0
 70
     1
102
RTVSPropertyOp1
 70
     1
102
RTVSPropertyOp2
 70
     1
102
RTVSPropertyOp3
 70
     1
102
RTVSPropertyOp4
 70
     1
102
RTVSPropertyOp5
 70
     1
102
RTVSPropertyOp6
 70
     1
102
RTVSPropertyOp7
 70
     1
102
RTVSPropertyOp8
 70
     1
102
RTVSPropertyOp9
 70
     1
102
RTVSPropertyOp10
 70
     1
102
RTVSPropertyOp11
 70
     1
102
RTVSPropertyOp12
 70
     1
102
RTVSPropertyOp13
 70
     1
102
RTVSPropertyOp14
 70
     1
102
RTVSPropertyOp15
 70
     1
102
RTVSPropertyOp16
 70
     1
102
RTVSPropertyOp17
 70
     1
102
RTVSPropertyOp18
 70
     1
102
RTVSPropertyOp19
 70
     1
102
RTVSPropertyOp20
 70
     1
102
RTVSPropertyOp21
 70
     1
102
RTVSPropertyOp22
 70
     1
102
RTVSPropertyOp23
 70
     1
102
RTVSPropertyOp24
 70
     1
102
RTVSPropertyOp25
 70
     1
102
RTVSPropertyOp26
 70
     1
102
RTVSPropertyOp27
 70
     1
102
RTVSPropertyOp28
 70
     1
102
RTVSPropertyOp29
 70
     1
102
RTVSPropertyOp30
 70
     1
102
RTVSPropertyOp31
 70
     1
102
RTVSPropertyOp32
 70
     1
102
RTVSPropertyOp33
 70
     1
102
RTVSPropertyOp34
 70
     1
102
RTVSPropertyOp35
 70
     1
102
RTVSPropertyOp36
 70
     1
102
RTVSPropertyOp37
 70
     1
102
RTVSPropertyOp38
 70
     1
102
RTVSPropertyOp39
 70
     1
102
RTVSPropertyOp40
 70
     1
102
RTVSPropertyOp41
 70
     1
102
RTVSPropertyOp42
 70
     1
102
RTVSPropertyOp43
 70
     1
102
RTVSPropertyOp44
 70
     1
102
RTVSPropertyOp45
 70
     1
102
RTVSPropertyOp46
 70
     1
102
RTVSPropertyOp47
 70
     1
102
RTVSPropertyOp48
 70
     1
102
RTVSPropertyOp49
 70
     1
102
RTVSPropertyOp50
 70
     1
102
RTVSPropertyOp51
 70
     0
102
RTVSPropertyOp52
 70
     0
102
RTVSPropertyOp53
 70
     1
102
RTVSPropertyOp54
 70
     1
102
RTVSPropertyOp55
 70
     1
102
RTVSPropertyOp56
 70
     1
102
RTVSPropertyOp57
 70
     1
102
RTVSPropertyOp58
 70
     1
102
RTVSPropertyOp59
 70
     1
102
RTVSPropertyOp60
 70
     1
102
RTVSPropertyOp61
 70
     1
102
RTVSPropertyOp62
 70
     1
  0
XRECORD
  5
1311
102
{ACAD_REACTORS
330
1310
102
}
330
1310
100
AcDbXrecord
280
     1
102
RTVSPost2010Prop28
280
     0
102
RTVSPost2010PropOp28
 70
     1
102
RTVSPost2010Prop29
280
     1
102
RTVSPost2010PropOp29
 70
     1
102
RTVSPost2010Prop30
280
     1
102
RTVSPost2010PropOp30
 70
     1
102
RTVSPost2010Prop31
280
     0
102
RTVSPost2010PropOp31
 70
     1
102
RTVSPost2010Prop32
280
     0
102
RTVSPost2010PropOp32
 70
     1
102
RTVSPost2010Prop33
280
     0
102
RTVSPost2010PropOp33
 70
     1
102
RTVSPost2010Prop34
280
     0
102
RTVSPost2010PropOp34
 70
     1
102
RTVSPost2010Prop35
280
     0
102
RTVSPost2010PropOp35
 70
     1
102
RTVSPost2010Prop36
280
     0
102
RTVSPost2010PropOp36
 70
     1
102
RTVSPost2010Prop37
 90
       50
102
RTVSPost2010PropOp37
 70
     1
102
RTVSPost2010Prop38
140
0.0
102
RTVSPost2010PropOp38
 70
     1
102
RTVSPost2010Prop39
140
1.0
102
RTVSPost2010PropOp39
 70
     1
102
RTVSPost2010Prop40
 90
        0
102
RTVSPost2010PropOp40
 70
     1
102
RTVSPost2010Prop41ColorIndex
 90
       18
102
RTVSPost2010Prop41ColorRGB
 90
        0
102
RTVSPost2010PropOp41
 70
     1
102
RTVSPost2010Prop42
 90
       50
102
RTVSPost2010PropOp42
 70
     1
102
RTVSPost2010Prop43
 90
        3
102
RTVSPost2010PropOp43
 70
     1
102
RTVSPost2010Prop44ColorIndex
 90
        5
102
RTVSPost2010Prop44ColorRGB
 90
      255
102
RTVSPost2010PropOp44
 70
     1
102
RTVSPost2010Prop45
280
     0
102
RTVSPost2010PropOp45
 70
     1
102
RTVSPost2010Prop46
 90
       50
102
RTVSPost2010PropOp46
 70
     1
102
RTVSPost2010Prop47
 90
       50
102
RTVSPost2010PropOp47
 70
     1
102
RTVSPost2010Prop48
 90
       50
102
RTVSPost2010PropOp48
 70
     1
102
RTVSPost2010Prop49
280
     0
102
RTVSPost2010PropOp49
 70
     1
102
RTVSPost2010Prop50
 90
       50
102
RTVSPost2010PropOp50
 70
     1
102
RTVSPost2010Prop51ColorIndex
 90
      256
102
RTVSPost2010Prop51ColorRGB
 90
-16777216
102
RTVSPost2010PropOp51
 70
     0
102
RTVSPost2010Prop52
140
1.0
102
RTVSPost2010PropOp52
 70
     0
102
RTVSPost2010Prop53
 90
        2
102
RTVSPost2010PropOp53
 70
     1
102
RTVSPost2010Prop54
  1
strokes_ogs.tif
102
RTVSPost2010PropOp54
 70
     1
102
RTVSPost2010Prop55
280
     0
102
RTVSPost2010PropOp55
 70
     1
102
RTVSPost2010Prop56
140
1.0
102
RTVSPost2010PropOp56
 70
     1
102
RTVSPost2010Prop57
140
1.0
102
RTVSPost2010PropOp57
 70
     1
102
RTVSPropertyOp0
 70
     1
102
RTVSPropertyOp1
 70
     1
102
RTVSPropertyOp2
 70
     1
102
RTVSPropertyOp3
 70
     1
102
RTVSPropertyOp4
 70
     1
102
RTVSPropertyOp5
 70
     1
102
RTVSPropertyOp6
 70
     1
102
RTVSPropertyOp7
 70
     1
102
RTVSPropertyOp8
 70
     1
102
RTVSPropertyOp9
 70
     1
102
RTVSPropertyOp10
 70
     1
102
RTVSPropertyOp11
 70
     1
102
RTVSPropertyOp12
 70
     1
102
RTVSPropertyOp13
 70
     1
102
RTVSPropertyOp14
 70
     1
102
RTVSPropertyOp15
 70
     1
102
RTVSPropertyOp16
 70
     1
102
RTVSPropertyOp17
 70
     1
102
RTVSPropertyOp18
 70
     1
102
RTVSPropertyOp19
 70
     1
102
RTVSPropertyOp20
 70
     1
102
RTVSPropertyOp21
 70
     1
102
RTVSPropertyOp22
 70
     1
102
RTVSPropertyOp23
 70
     1
102
RTVSPropertyOp24
 70
     1
102
RTVSPropertyOp25
 70
     1
102
RTVSPropertyOp26
 70
     1
102
RTVSPropertyOp27
 70
     1
102
RTVSPropertyOp28
 70
     1
102
RTVSPropertyOp29
 70
     1
102
RTVSPropertyOp30
 70
     1
102
RTVSPropertyOp31
 70
     1
102
RTVSPropertyOp32
 70
     1
102
RTVSPropertyOp33
 70
     1
102
RTVSPropertyOp34
 70
     1
102
RTVSPropertyOp35
 70
     1
102
RTVSPropertyOp36
 70
     1
102
RTVSPropertyOp37
 70
     1
102
RTVSPropertyOp38
 70
     1
102
RTVSPropertyOp39
 70
     1
102
RTVSPropertyOp40
 70
     1
102
RTVSPropertyOp41
 70
     1
102
RTVSPropertyOp42
 70
     1
102
RTVSPropertyOp43
 70
     1
102
RTVSPropertyOp44
 70
     1
102
RTVSPropertyOp45
 70
     1
102
RTVSPropertyOp46
 70
     1
102
RTVSPropertyOp47
 70
     1
102
RTVSPropertyOp48
 70
     1
102
RTVSPropertyOp49
 70
     1
102
RTVSPropertyOp50
 70
     1
102
RTVSPropertyOp51
 70
     0
102
RTVSPropertyOp52
 70
     0
102
RTVSPropertyOp53
 70
     1
102
RTVSPropertyOp54
 70
     1
102
RTVSPropertyOp55
 70
     1
102
RTVSPropertyOp56
 70
     1
102
RTVSPropertyOp57
 70
     1
102
RTVSPropertyOp58
 70
     1
102
RTVSPropertyOp59
 70
     1
102
RTVSPropertyOp60
 70
     1
102
RTVSPropertyOp61
 70
     1
102
RTVSPropertyOp62
 70
     1
  0
XRECORD
  5
1313
102
{ACAD_REACTORS
330
1312
102
}
330
1312
100
AcDbXrecord
280
     1
102
RTVSPost2010Prop28
280
     0
102
RTVSPost2010PropOp28
 70
     1
102
RTVSPost2010Prop29
280
     1
102
RTVSPost2010PropOp29
 70
     1
102
RTVSPost2010Prop30
280
     1
102
RTVSPost2010PropOp30
 70
     1
102
RTVSPost2010Prop31
280
     0
102
RTVSPost2010PropOp31
 70
     1
102
RTVSPost2010Prop32
280
     0
102
RTVSPost2010PropOp32
 70
     1
102
RTVSPost2010Prop33
280
     0
102
RTVSPost2010PropOp33
 70
     1
102
RTVSPost2010Prop34
280
     0
102
RTVSPost2010PropOp34
 70
     1
102
RTVSPost2010Prop35
280
     0
102
RTVSPost2010PropOp35
 70
     1
102
RTVSPost2010Prop36
280
     0
102
RTVSPost2010PropOp36
 70
     1
102
RTVSPost2010Prop37
 90
       50
102
RTVSPost2010PropOp37
 70
     1
102
RTVSPost2010Prop38
140
0.0
102
RTVSPost2010PropOp38
 70
     1
102
RTVSPost2010Prop39
140
1.0
102
RTVSPost2010PropOp39
 70
     1
102
RTVSPost2010Prop40
 90
        0
102
RTVSPost2010PropOp40
 70
     1
102
RTVSPost2010Prop41ColorIndex
 90
       18
102
RTVSPost2010Prop41ColorRGB
 90
        0
102
RTVSPost2010PropOp41
 70
     1
102
RTVSPost2010Prop42
 90
       50
102
RTVSPost2010PropOp42
 70
     1
102
RTVSPost2010Prop43
 90
        3
102
RTVSPost2010PropOp43
 70
     1
102
RTVSPost2010Prop44ColorIndex
 90
        5
102
RTVSPost2010Prop44ColorRGB
 90
      255
102
RTVSPost2010PropOp44
 70
     1
102
RTVSPost2010Prop45
280
     0
102
RTVSPost2010PropOp45
 70
     1
102
RTVSPost2010Prop46
 90
       50
102
RTVSPost2010PropOp46
 70
     1
102
RTVSPost2010Prop47
 90
       50
102
RTVSPost2010PropOp47
 70
     1
102
RTVSPost2010Prop48
 90
       50
102
RTVSPost2010PropOp48
 70
     1
102
RTVSPost2010Prop49
280
     0
102
RTVSPost2010PropOp49
 70
     1
102
RTVSPost2010Prop50
 90
       50
102
RTVSPost2010PropOp50
 70
     1
102
RTVSPost2010Prop51ColorIndex
 90
      256
102
RTVSPost2010Prop51ColorRGB
 90
-16777216
102
RTVSPost2010PropOp51
 70
     0
102
RTVSPost2010Prop52
140
1.0
102
RTVSPost2010PropOp52
 70
     0
102
RTVSPost2010Prop53
 90
        2
102
RTVSPost2010PropOp53
 70
     1
102
RTVSPost2010Prop54
  1
strokes_ogs.tif
102
RTVSPost2010PropOp54
 70
     1
102
RTVSPost2010Prop55
280
     0
102
RTVSPost2010PropOp55
 70
     1
102
RTVSPost2010Prop56
140
1.0
102
RTVSPost2010PropOp56
 70
     1
102
RTVSPost2010Prop57
140
1.0
102
RTVSPost2010PropOp57
 70
     1
102
RTVSPropertyOp0
 70
     1
102
RTVSPropertyOp1
 70
     1
102
RTVSPropertyOp2
 70
     1
102
RTVSPropertyOp3
 70
     1
102
RTVSPropertyOp4
 70
     1
102
RTVSPropertyOp5
 70
     1
102
RTVSPropertyOp6
 70
     1
102
RTVSPropertyOp7
 70
     1
102
RTVSPropertyOp8
 70
     1
102
RTVSPropertyOp9
 70
     1
102
RTVSPropertyOp10
 70
     1
102
RTVSPropertyOp11
 70
     1
102
RTVSPropertyOp12
 70
     1
102
RTVSPropertyOp13
 70
     1
102
RTVSPropertyOp14
 70
     1
102
RTVSPropertyOp15
 70
     1
102
RTVSPropertyOp16
 70
     1
102
RTVSPropertyOp17
 70
     1
102
RTVSPropertyOp18
 70
     1
102
RTVSPropertyOp19
 70
     1
102
RTVSPropertyOp20
 70
     1
102
RTVSPropertyOp21
 70
     1
102
RTVSPropertyOp22
 70
     1
102
RTVSPropertyOp23
 70
     1
102
RTVSPropertyOp24
 70
     1
102
RTVSPropertyOp25
 70
     1
102
RTVSPropertyOp26
 70
     1
102
RTVSPropertyOp27
 70
     1
102
RTVSPropertyOp28
 70
     1
102
RTVSPropertyOp29
 70
     1
102
RTVSPropertyOp30
 70
     1
102
RTVSPropertyOp31
 70
     1
102
RTVSPropertyOp32
 70
     1
102
RTVSPropertyOp33
 70
     1
102
RTVSPropertyOp34
 70
     1
102
RTVSPropertyOp35
 70
     1
102
RTVSPropertyOp36
 70
     1
102
RTVSPropertyOp37
 70
     1
102
RTVSPropertyOp38
 70
     1
102
RTVSPropertyOp39
 70
     1
102
RTVSPropertyOp40
 70
     1
102
RTVSPropertyOp41
 70
     1
102
RTVSPropertyOp42
 70
     1
102
RTVSPropertyOp43
 70
     1
102
RTVSPropertyOp44
 70
     1
102
RTVSPropertyOp45
 70
     1
102
RTVSPropertyOp46
 70
     1
102
RTVSPropertyOp47
 70
     1
102
RTVSPropertyOp48
 70
     1
102
RTVSPropertyOp49
 70
     1
102
RTVSPropertyOp50
 70
     1
102
RTVSPropertyOp51
 70
     0
102
RTVSPropertyOp52
 70
     0
102
RTVSPropertyOp53
 70
     1
102
RTVSPropertyOp54
 70
     1
102
RTVSPropertyOp55
 70
     1
102
RTVSPropertyOp56
 70
     1
102
RTVSPropertyOp57
 70
     1
102
RTVSPropertyOp58
 70
     1
102
RTVSPropertyOp59
 70
     1
102
RTVSPropertyOp60
 70
     1
102
RTVSPropertyOp61
 70
     1
102
RTVSPropertyOp62
 70
     1
  0
XRECORD
  5
131B
102
{ACAD_REACTORS
330
131A
102
}
330
131A
100
AcDbXrecord
280
     1
102
RTVSPost2010Prop28
280
     0
102
RTVSPost2010PropOp28
 70
     1
102
RTVSPost2010Prop29
280
     1
102
RTVSPost2010PropOp29
 70
     1
102
RTVSPost2010Prop30
280
     1
102
RTVSPost2010PropOp30
 70
     1
102
RTVSPost2010Prop31
280
     0
102
RTVSPost2010PropOp31
 70
     1
102
RTVSPost2010Prop32
280
     0
102
RTVSPost2010PropOp32
 70
     1
102
RTVSPost2010Prop33
280
     0
102
RTVSPost2010PropOp33
 70
     1
102
RTVSPost2010Prop34
280
     0
102
RTVSPost2010PropOp34
 70
     1
102
RTVSPost2010Prop35
280
     0
102
RTVSPost2010PropOp35
 70
     1
102
RTVSPost2010Prop36
280
     0
102
RTVSPost2010PropOp36
 70
     1
102
RTVSPost2010Prop37
 90
       50
102
RTVSPost2010PropOp37
 70
     1
102
RTVSPost2010Prop38
140
0.0
102
RTVSPost2010PropOp38
 70
     1
102
RTVSPost2010Prop39
140
1.0
102
RTVSPost2010PropOp39
 70
     1
102
RTVSPost2010Prop40
 90
        0
102
RTVSPost2010PropOp40
 70
     1
102
RTVSPost2010Prop41ColorIndex
 90
       18
102
RTVSPost2010Prop41ColorRGB
 90
        0
102
RTVSPost2010PropOp41
 70
     1
102
RTVSPost2010Prop42
 90
       50
102
RTVSPost2010PropOp42
 70
     1
102
RTVSPost2010Prop43
 90
        3
102
RTVSPost2010PropOp43
 70
     1
102
RTVSPost2010Prop44ColorIndex
 90
        5
102
RTVSPost2010Prop44ColorRGB
 90
      255
102
RTVSPost2010PropOp44
 70
     1
102
RTVSPost2010Prop45
280
     0
102
RTVSPost2010PropOp45
 70
     1
102
RTVSPost2010Prop46
 90
       50
102
RTVSPost2010PropOp46
 70
     1
102
RTVSPost2010Prop47
 90
       50
102
RTVSPost2010PropOp47
 70
     1
102
RTVSPost2010Prop48
 90
       50
102
RTVSPost2010PropOp48
 70
     1
102
RTVSPost2010Prop49
280
     0
102
RTVSPost2010PropOp49
 70
     1
102
RTVSPost2010Prop50
 90
       50
102
RTVSPost2010PropOp50
 70
     1
102
RTVSPost2010Prop51ColorIndex
 90
      256
102
RTVSPost2010Prop51ColorRGB
 90
-16777216
102
RTVSPost2010PropOp51
 70
     0
102
RTVSPost2010Prop52
140
1.0
102
RTVSPost2010PropOp52
 70
     0
102
RTVSPost2010Prop53
 90
        2
102
RTVSPost2010PropOp53
 70
     1
102
RTVSPost2010Prop54
  1
strokes_ogs.tif
102
RTVSPost2010PropOp54
 70
     1
102
RTVSPost2010Prop55
280
     0
102
RTVSPost2010PropOp55
 70
     1
102
RTVSPost2010Prop56
140
1.0
102
RTVSPost2010PropOp56
 70
     1
102
RTVSPost2010Prop57
140
1.0
102
RTVSPost2010PropOp57
 70
     1
102
RTVSPropertyOp0
 70
     1
102
RTVSPropertyOp1
 70
     1
102
RTVSPropertyOp2
 70
     1
102
RTVSPropertyOp3
 70
     1
102
RTVSPropertyOp4
 70
     1
102
RTVSPropertyOp5
 70
     1
102
RTVSPropertyOp6
 70
     1
102
RTVSPropertyOp7
 70
     1
102
RTVSPropertyOp8
 70
     1
102
RTVSPropertyOp9
 70
     1
102
RTVSPropertyOp10
 70
     1
102
RTVSPropertyOp11
 70
     1
102
RTVSPropertyOp12
 70
     1
102
RTVSPropertyOp13
 70
     1
102
RTVSPropertyOp14
 70
     1
102
RTVSPropertyOp15
 70
     1
102
RTVSPropertyOp16
 70
     1
102
RTVSPropertyOp17
 70
     1
102
RTVSPropertyOp18
 70
     1
102
RTVSPropertyOp19
 70
     1
102
RTVSPropertyOp20
 70
     1
102
RTVSPropertyOp21
 70
     1
102
RTVSPropertyOp22
 70
     1
102
RTVSPropertyOp23
 70
     1
102
RTVSPropertyOp24
 70
     1
102
RTVSPropertyOp25
 70
     1
102
RTVSPropertyOp26
 70
     1
102
RTVSPropertyOp27
 70
     1
102
RTVSPropertyOp28
 70
     1
102
RTVSPropertyOp29
 70
     1
102
RTVSPropertyOp30
 70
     1
102
RTVSPropertyOp31
 70
     1
102
RTVSPropertyOp32
 70
     1
102
RTVSPropertyOp33
 70
     1
102
RTVSPropertyOp34
 70
     1
102
RTVSPropertyOp35
 70
     1
102
RTVSPropertyOp36
 70
     1
102
RTVSPropertyOp37
 70
     1
102
RTVSPropertyOp38
 70
     1
102
RTVSPropertyOp39
 70
     1
102
RTVSPropertyOp40
 70
     1
102
RTVSPropertyOp41
 70
     1
102
RTVSPropertyOp42
 70
     1
102
RTVSPropertyOp43
 70
     1
102
RTVSPropertyOp44
 70
     1
102
RTVSPropertyOp45
 70
     1
102
RTVSPropertyOp46
 70
     1
102
RTVSPropertyOp47
 70
     1
102
RTVSPropertyOp48
 70
     1
102
RTVSPropertyOp49
 70
     1
102
RTVSPropertyOp50
 70
     1
102
RTVSPropertyOp51
 70
     0
102
RTVSPropertyOp52
 70
     0
102
RTVSPropertyOp53
 70
     1
102
RTVSPropertyOp54
 70
     1
102
RTVSPropertyOp55
 70
     1
102
RTVSPropertyOp56
 70
     1
102
RTVSPropertyOp57
 70
     1
102
RTVSPropertyOp58
 70
     1
102
RTVSPropertyOp59
 70
     1
102
RTVSPropertyOp60
 70
     1
102
RTVSPropertyOp61
 70
     1
102
RTVSPropertyOp62
 70
     1
  0
XRECORD
  5
1337
102
{ACAD_REACTORS
330
1336
102
}
330
1336
100
AcDbXrecord
280
     1
102
RTVSPost2010Prop28
280
     0
102
RTVSPost2010PropOp28
 70
     0
102
RTVSPost2010Prop29
280
     1
102
RTVSPost2010PropOp29
 70
     0
102
RTVSPost2010Prop30
280
     1
102
RTVSPost2010PropOp30
 70
     0
102
RTVSPost2010Prop31
280
     0
102
RTVSPost2010PropOp31
 70
     0
102
RTVSPost2010Prop32
280
     0
102
RTVSPost2010PropOp32
 70
     0
102
RTVSPost2010Prop33
280
     0
102
RTVSPost2010PropOp33
 70
     0
102
RTVSPost2010Prop34
280
     0
102
RTVSPost2010PropOp34
 70
     0
102
RTVSPost2010Prop35
280
     0
102
RTVSPost2010PropOp35
 70
     0
102
RTVSPost2010Prop36
280
     0
102
RTVSPost2010PropOp36
 70
     0
102
RTVSPost2010Prop37
 90
       50
102
RTVSPost2010PropOp37
 70
     0
102
RTVSPost2010Prop38
140
0.0
102
RTVSPost2010PropOp38
 70
     0
102
RTVSPost2010Prop39
140
1.0
102
RTVSPost2010PropOp39
 70
     0
102
RTVSPost2010Prop40
 90
        0
102
RTVSPost2010PropOp40
 70
     0
102
RTVSPost2010Prop41ColorIndex
 90
       18
102
RTVSPost2010Prop41ColorRGB
 90
        0
102
RTVSPost2010PropOp41
 70
     0
102
RTVSPost2010Prop42
 90
       50
102
RTVSPost2010PropOp42
 70
     0
102
RTVSPost2010Prop43
 90
        3
102
RTVSPost2010PropOp43
 70
     0
102
RTVSPost2010Prop44ColorIndex
 90
        5
102
RTVSPost2010Prop44ColorRGB
 90
      255
102
RTVSPost2010PropOp44
 70
     0
102
RTVSPost2010Prop45
280
     0
102
RTVSPost2010PropOp45
 70
     0
102
RTVSPost2010Prop46
 90
       50
102
RTVSPost2010PropOp46
 70
     0
102
RTVSPost2010Prop47
 90
       50
102
RTVSPost2010PropOp47
 70
     0
102
RTVSPost2010Prop48
 90
       50
102
RTVSPost2010PropOp48
 70
     0
102
RTVSPost2010Prop49
280
     0
102
RTVSPost2010PropOp49
 70
     0
102
RTVSPost2010Prop50
 90
       50
102
RTVSPost2010PropOp50
 70
     0
102
RTVSPost2010Prop51ColorIndex
 90
      256
102
RTVSPost2010Prop51ColorRGB
 90
-16777216
102
RTVSPost2010PropOp51
 70
     0
102
RTVSPost2010Prop52
140
1.0
102
RTVSPost2010PropOp52
 70
     0
102
RTVSPost2010Prop53
 90
        2
102
RTVSPost2010PropOp53
 70
     0
102
RTVSPost2010Prop54
  1
strokes_ogs.tif
102
RTVSPost2010PropOp54
 70
     0
102
RTVSPost2010Prop55
280
     0
102
RTVSPost2010PropOp55
 70
     0
102
RTVSPost2010Prop56
140
1.0
102
RTVSPost2010PropOp56
 70
     0
102
RTVSPost2010Prop57
140
1.0
102
RTVSPost2010PropOp57
 70
     0
102
RTVSPropertyOp0
 70
     0
102
RTVSPropertyOp1
 70
     0
102
RTVSPropertyOp2
 70
     0
102
RTVSPropertyOp3
 70
     0
102
RTVSPropertyOp4
 70
     0
102
RTVSPropertyOp5
 70
     0
102
RTVSPropertyOp6
 70
     0
102
RTVSPropertyOp7
 70
     0
102
RTVSPropertyOp8
 70
     0
102
RTVSPropertyOp9
 70
     0
102
RTVSPropertyOp10
 70
     0
102
RTVSPropertyOp11
 70
     0
102
RTVSPropertyOp12
 70
     0
102
RTVSPropertyOp13
 70
     0
102
RTVSPropertyOp14
 70
     2
102
RTVSPropertyOp15
 70
     0
102
RTVSPropertyOp16
 70
     0
102
RTVSPropertyOp17
 70
     0
102
RTVSPropertyOp18
 70
     0
102
RTVSPropertyOp19
 70
     0
102
RTVSPropertyOp20
 70
     0
102
RTVSPropertyOp21
 70
     0
102
RTVSPropertyOp22
 70
     0
102
RTVSPropertyOp23
 70
     0
102
RTVSPropertyOp24
 70
     0
102
RTVSPropertyOp25
 70
     0
102
RTVSPropertyOp26
 70
     0
102
RTVSPropertyOp27
 70
     0
102
RTVSPropertyOp28
 70
     0
102
RTVSPropertyOp29
 70
     0
102
RTVSPropertyOp30
 70
     0
102
RTVSPropertyOp31
 70
     0
102
RTVSPropertyOp32
 70
     0
102
RTVSPropertyOp33
 70
     0
102
RTVSPropertyOp34
 70
     0
102
RTVSPropertyOp35
 70
     0
102
RTVSPropertyOp36
 70
     0
102
RTVSPropertyOp37
 70
     0
102
RTVSPropertyOp38
 70
     0
102
RTVSPropertyOp39
 70
     0
102
RTVSPropertyOp40
 70
     0
102
RTVSPropertyOp41
 70
     0
102
RTVSPropertyOp42
 70
     0
102
RTVSPropertyOp43
 70
     0
102
RTVSPropertyOp44
 70
     0
102
RTVSPropertyOp45
 70
     0
102
RTVSPropertyOp46
 70
     0
102
RTVSPropertyOp47
 70
     0
102
RTVSPropertyOp48
 70
     0
102
RTVSPropertyOp49
 70
     0
102
RTVSPropertyOp50
 70
     0
102
RTVSPropertyOp51
 70
     0
102
RTVSPropertyOp52
 70
     0
102
RTVSPropertyOp53
 70
     0
102
RTVSPropertyOp54
 70
     0
102
RTVSPropertyOp55
 70
     0
102
RTVSPropertyOp56
 70
     0
102
RTVSPropertyOp57
 70
     0
102
RTVSPropertyOp58
 70
     0
102
RTVSPropertyOp59
 70
     0
102
RTVSPropertyOp60
 70
     0
102
RTVSPropertyOp61
 70
     0
102
RTVSPropertyOp62
 70
     0
  0
XRECORD
  5
1327
102
{ACAD_REACTORS
330
1326
102
}
330
1326
100
AcDbXrecord
280
     1
102
RTVSPost2010Prop28
280
     0
102
RTVSPost2010PropOp28
 70
     1
102
RTVSPost2010Prop29
280
     1
102
RTVSPost2010PropOp29
 70
     1
102
RTVSPost2010Prop30
280
     1
102
RTVSPost2010PropOp30
 70
     1
102
RTVSPost2010Prop31
280
     0
102
RTVSPost2010PropOp31
 70
     1
102
RTVSPost2010Prop32
280
     0
102
RTVSPost2010PropOp32
 70
     1
102
RTVSPost2010Prop33
280
     0
102
RTVSPost2010PropOp33
 70
     1
102
RTVSPost2010Prop34
280
     0
102
RTVSPost2010PropOp34
 70
     1
102
RTVSPost2010Prop35
280
     0
102
RTVSPost2010PropOp35
 70
     1
102
RTVSPost2010Prop36
280
     0
102
RTVSPost2010PropOp36
 70
     1
102
RTVSPost2010Prop37
 90
       50
102
RTVSPost2010PropOp37
 70
     1
102
RTVSPost2010Prop38
140
0.0
102
RTVSPost2010PropOp38
 70
     1
102
RTVSPost2010Prop39
140
1.0
102
RTVSPost2010PropOp39
 70
     1
102
RTVSPost2010Prop40
 90
        0
102
RTVSPost2010PropOp40
 70
     1
102
RTVSPost2010Prop41ColorIndex
 90
       18
102
RTVSPost2010Prop41ColorRGB
 90
        0
102
RTVSPost2010PropOp41
 70
     1
102
RTVSPost2010Prop42
 90
       50
102
RTVSPost2010PropOp42
 70
     1
102
RTVSPost2010Prop43
 90
        3
102
RTVSPost2010PropOp43
 70
     1
102
RTVSPost2010Prop44ColorIndex
 90
        5
102
RTVSPost2010Prop44ColorRGB
 90
      255
102
RTVSPost2010PropOp44
 70
     1
102
RTVSPost2010Prop45
280
     0
102
RTVSPost2010PropOp45
 70
     1
102
RTVSPost2010Prop46
 90
       50
102
RTVSPost2010PropOp46
 70
     1
102
RTVSPost2010Prop47
 90
       50
102
RTVSPost2010PropOp47
 70
     1
102
RTVSPost2010Prop48
 90
       50
102
RTVSPost2010PropOp48
 70
     1
102
RTVSPost2010Prop49
280
     0
102
RTVSPost2010PropOp49
 70
     1
102
RTVSPost2010Prop50
 90
       50
102
RTVSPost2010PropOp50
 70
     1
102
RTVSPost2010Prop51ColorIndex
 90
      256
102
RTVSPost2010Prop51ColorRGB
 90
-16777216
102
RTVSPost2010PropOp51
 70
     0
102
RTVSPost2010Prop52
140
1.0
102
RTVSPost2010PropOp52
 70
     0
102
RTVSPost2010Prop53
 90
        2
102
RTVSPost2010PropOp53
 70
     1
102
RTVSPost2010Prop54
  1
strokes_ogs.tif
102
RTVSPost2010PropOp54
 70
     1
102
RTVSPost2010Prop55
280
     0
102
RTVSPost2010PropOp55
 70
     1
102
RTVSPost2010Prop56
140
1.0
102
RTVSPost2010PropOp56
 70
     1
102
RTVSPost2010Prop57
140
1.0
102
RTVSPost2010PropOp57
 70
     1
102
RTVSPropertyOp0
 70
     1
102
RTVSPropertyOp1
 70
     1
102
RTVSPropertyOp2
 70
     1
102
RTVSPropertyOp3
 70
     1
102
RTVSPropertyOp4
 70
     1
102
RTVSPropertyOp5
 70
     1
102
RTVSPropertyOp6
 70
     1
102
RTVSPropertyOp7
 70
     1
102
RTVSPropertyOp8
 70
     1
102
RTVSPropertyOp9
 70
     1
102
RTVSPropertyOp10
 70
     1
102
RTVSPropertyOp11
 70
     1
102
RTVSPropertyOp12
 70
     1
102
RTVSPropertyOp13
 70
     1
102
RTVSPropertyOp14
 70
     1
102
RTVSPropertyOp15
 70
     1
102
RTVSPropertyOp16
 70
     1
102
RTVSPropertyOp17
 70
     1
102
RTVSPropertyOp18
 70
     1
102
RTVSPropertyOp19
 70
     1
102
RTVSPropertyOp20
 70
     1
102
RTVSPropertyOp21
 70
     1
102
RTVSPropertyOp22
 70
     1
102
RTVSPropertyOp23
 70
     1
102
RTVSPropertyOp24
 70
     1
102
RTVSPropertyOp25
 70
     1
102
RTVSPropertyOp26
 70
     1
102
RTVSPropertyOp27
 70
     1
102
RTVSPropertyOp28
 70
     1
102
RTVSPropertyOp29
 70
     1
102
RTVSPropertyOp30
 70
     1
102
RTVSPropertyOp31
 70
     1
102
RTVSPropertyOp32
 70
     1
102
RTVSPropertyOp33
 70
     1
102
RTVSPropertyOp34
 70
     1
102
RTVSPropertyOp35
 70
     1
102
RTVSPropertyOp36
 70
     1
102
RTVSPropertyOp37
 70
     1
102
RTVSPropertyOp38
 70
     1
102
RTVSPropertyOp39
 70
     1
102
RTVSPropertyOp40
 70
     1
102
RTVSPropertyOp41
 70
     1
102
RTVSPropertyOp42
 70
     1
102
RTVSPropertyOp43
 70
     1
102
RTVSPropertyOp44
 70
     1
102
RTVSPropertyOp45
 70
     1
102
RTVSPropertyOp46
 70
     1
102
RTVSPropertyOp47
 70
     1
102
RTVSPropertyOp48
 70
     1
102
RTVSPropertyOp49
 70
     1
102
RTVSPropertyOp50
 70
     1
102
RTVSPropertyOp51
 70
     0
102
RTVSPropertyOp52
 70
     0
102
RTVSPropertyOp53
 70
     1
102
RTVSPropertyOp54
 70
     1
102
RTVSPropertyOp55
 70
     1
102
RTVSPropertyOp56
 70
     1
102
RTVSPropertyOp57
 70
     1
102
RTVSPropertyOp58
 70
     1
102
RTVSPropertyOp59
 70
     1
102
RTVSPropertyOp60
 70
     1
102
RTVSPropertyOp61
 70
     1
102
RTVSPropertyOp62
 70
     1
  0
XRECORD
  5
1339
102
{ACAD_REACTORS
330
1338
102
}
330
1338
100
AcDbXrecord
280
     1
102
RTVSPost2010Prop28
280
     0
102
RTVSPost2010PropOp28
 70
     0
102
RTVSPost2010Prop29
280
     1
102
RTVSPost2010PropOp29
 70
     0
102
RTVSPost2010Prop30
280
     1
102
RTVSPost2010PropOp30
 70
     0
102
RTVSPost2010Prop31
280
     0
102
RTVSPost2010PropOp31
 70
     0
102
RTVSPost2010Prop32
280
     0
102
RTVSPost2010PropOp32
 70
     0
102
RTVSPost2010Prop33
280
     0
102
RTVSPost2010PropOp33
 70
     0
102
RTVSPost2010Prop34
280
     0
102
RTVSPost2010PropOp34
 70
     0
102
RTVSPost2010Prop35
280
     0
102
RTVSPost2010PropOp35
 70
     0
102
RTVSPost2010Prop36
280
     0
102
RTVSPost2010PropOp36
 70
     0
102
RTVSPost2010Prop37
 90
       50
102
RTVSPost2010PropOp37
 70
     0
102
RTVSPost2010Prop38
140
0.0
102
RTVSPost2010PropOp38
 70
     0
102
RTVSPost2010Prop39
140
1.0
102
RTVSPost2010PropOp39
 70
     0
102
RTVSPost2010Prop40
 90
        0
102
RTVSPost2010PropOp40
 70
     0
102
RTVSPost2010Prop41ColorIndex
 90
       18
102
RTVSPost2010Prop41ColorRGB
 90
        0
102
RTVSPost2010PropOp41
 70
     0
102
RTVSPost2010Prop42
 90
       50
102
RTVSPost2010PropOp42
 70
     0
102
RTVSPost2010Prop43
 90
        3
102
RTVSPost2010PropOp43
 70
     0
102
RTVSPost2010Prop44ColorIndex
 90
        5
102
RTVSPost2010Prop44ColorRGB
 90
      255
102
RTVSPost2010PropOp44
 70
     0
102
RTVSPost2010Prop45
280
     0
102
RTVSPost2010PropOp45
 70
     0
102
RTVSPost2010Prop46
 90
       50
102
RTVSPost2010PropOp46
 70
     0
102
RTVSPost2010Prop47
 90
       50
102
RTVSPost2010PropOp47
 70
     0
102
RTVSPost2010Prop48
 90
       50
102
RTVSPost2010PropOp48
 70
     0
102
RTVSPost2010Prop49
280
     0
102
RTVSPost2010PropOp49
 70
     0
102
RTVSPost2010Prop50
 90
       50
102
RTVSPost2010PropOp50
 70
     0
102
RTVSPost2010Prop51ColorIndex
 90
      256
102
RTVSPost2010Prop51ColorRGB
 90
-16777216
102
RTVSPost2010PropOp51
 70
     0
102
RTVSPost2010Prop52
140
1.0
102
RTVSPost2010PropOp52
 70
     0
102
RTVSPost2010Prop53
 90
        2
102
RTVSPost2010PropOp53
 70
     0
102
RTVSPost2010Prop54
  1
strokes_ogs.tif
102
RTVSPost2010PropOp54
 70
     0
102
RTVSPost2010Prop55
280
     0
102
RTVSPost2010PropOp55
 70
     0
102
RTVSPost2010Prop56
140
1.0
102
RTVSPost2010PropOp56
 70
     0
102
RTVSPost2010Prop57
140
1.0
102
RTVSPost2010PropOp57
 70
     0
102
RTVSPropertyOp0
 70
     0
102
RTVSPropertyOp1
 70
     0
102
RTVSPropertyOp2
 70
     0
102
RTVSPropertyOp3
 70
     0
102
RTVSPropertyOp4
 70
     0
102
RTVSPropertyOp5
 70
     0
102
RTVSPropertyOp6
 70
     0
102
RTVSPropertyOp7
 70
     0
102
RTVSPropertyOp8
 70
     0
102
RTVSPropertyOp9
 70
     0
102
RTVSPropertyOp10
 70
     0
102
RTVSPropertyOp11
 70
     0
102
RTVSPropertyOp12
 70
     0
102
RTVSPropertyOp13
 70
     0
102
RTVSPropertyOp14
 70
     2
102
RTVSPropertyOp15
 70
     0
102
RTVSPropertyOp16
 70
     0
102
RTVSPropertyOp17
 70
     0
102
RTVSPropertyOp18
 70
     0
102
RTVSPropertyOp19
 70
     0
102
RTVSPropertyOp20
 70
     0
102
RTVSPropertyOp21
 70
     0
102
RTVSPropertyOp22
 70
     0
102
RTVSPropertyOp23
 70
     0
102
RTVSPropertyOp24
 70
     0
102
RTVSPropertyOp25
 70
     0
102
RTVSPropertyOp26
 70
     0
102
RTVSPropertyOp27
 70
     0
102
RTVSPropertyOp28
 70
     0
102
RTVSPropertyOp29
 70
     0
102
RTVSPropertyOp30
 70
     0
102
RTVSPropertyOp31
 70
     0
102
RTVSPropertyOp32
 70
     0
102
RTVSPropertyOp33
 70
     0
102
RTVSPropertyOp34
 70
     0
102
RTVSPropertyOp35
 70
     0
102
RTVSPropertyOp36
 70
     0
102
RTVSPropertyOp37
 70
     0
102
RTVSPropertyOp38
 70
     0
102
RTVSPropertyOp39
 70
     0
102
RTVSPropertyOp40
 70
     0
102
RTVSPropertyOp41
 70
     0
102
RTVSPropertyOp42
 70
     0
102
RTVSPropertyOp43
 70
     0
102
RTVSPropertyOp44
 70
     0
102
RTVSPropertyOp45
 70
     0
102
RTVSPropertyOp46
 70
     0
102
RTVSPropertyOp47
 70
     0
102
RTVSPropertyOp48
 70
     0
102
RTVSPropertyOp49
 70
     0
102
RTVSPropertyOp50
 70
     0
102
RTVSPropertyOp51
 70
     0
102
RTVSPropertyOp52
 70
     0
102
RTVSPropertyOp53
 70
     0
102
RTVSPropertyOp54
 70
     0
102
RTVSPropertyOp55
 70
     0
102
RTVSPropertyOp56
 70
     0
102
RTVSPropertyOp57
 70
     0
102
RTVSPropertyOp58
 70
     0
102
RTVSPropertyOp59
 70
     0
102
RTVSPropertyOp60
 70
     0
102
RTVSPropertyOp61
 70
     0
102
RTVSPropertyOp62
 70
     0
  0
XRECORD
  5
131F
102
{ACAD_REACTORS
330
131E
102
}
330
131E
100
AcDbXrecord
280
     1
102
RTVSPost2010Prop28
280
     0
102
RTVSPost2010PropOp28
 70
     1
102
RTVSPost2010Prop29
280
     1
102
RTVSPost2010PropOp29
 70
     1
102
RTVSPost2010Prop30
280
     1
102
RTVSPost2010PropOp30
 70
     1
102
RTVSPost2010Prop31
280
     0
102
RTVSPost2010PropOp31
 70
     1
102
RTVSPost2010Prop32
280
     0
102
RTVSPost2010PropOp32
 70
     1
102
RTVSPost2010Prop33
280
     0
102
RTVSPost2010PropOp33
 70
     1
102
RTVSPost2010Prop34
280
     0
102
RTVSPost2010PropOp34
 70
     1
102
RTVSPost2010Prop35
280
     0
102
RTVSPost2010PropOp35
 70
     1
102
RTVSPost2010Prop36
280
     0
102
RTVSPost2010PropOp36
 70
     1
102
RTVSPost2010Prop37
 90
       50
102
RTVSPost2010PropOp37
 70
     1
102
RTVSPost2010Prop38
140
0.0
102
RTVSPost2010PropOp38
 70
     1
102
RTVSPost2010Prop39
140
1.0
102
RTVSPost2010PropOp39
 70
     1
102
RTVSPost2010Prop40
 90
        0
102
RTVSPost2010PropOp40
 70
     1
102
RTVSPost2010Prop41ColorIndex
 90
       18
102
RTVSPost2010Prop41ColorRGB
 90
        0
102
RTVSPost2010PropOp41
 70
     1
102
RTVSPost2010Prop42
 90
       50
102
RTVSPost2010PropOp42
 70
     1
102
RTVSPost2010Prop43
 90
        3
102
RTVSPost2010PropOp43
 70
     1
102
RTVSPost2010Prop44ColorIndex
 90
        5
102
RTVSPost2010Prop44ColorRGB
 90
      255
102
RTVSPost2010PropOp44
 70
     1
102
RTVSPost2010Prop45
280
     0
102
RTVSPost2010PropOp45
 70
     1
102
RTVSPost2010Prop46
 90
       50
102
RTVSPost2010PropOp46
 70
     1
102
RTVSPost2010Prop47
 90
       50
102
RTVSPost2010PropOp47
 70
     1
102
RTVSPost2010Prop48
 90
       50
102
RTVSPost2010PropOp48
 70
     1
102
RTVSPost2010Prop49
280
     0
102
RTVSPost2010PropOp49
 70
     1
102
RTVSPost2010Prop50
 90
       50
102
RTVSPost2010PropOp50
 70
     1
102
RTVSPost2010Prop51ColorIndex
 90
      256
102
RTVSPost2010Prop51ColorRGB
 90
-16777216
102
RTVSPost2010PropOp51
 70
     0
102
RTVSPost2010Prop52
140
1.0
102
RTVSPost2010PropOp52
 70
     0
102
RTVSPost2010Prop53
 90
        2
102
RTVSPost2010PropOp53
 70
     1
102
RTVSPost2010Prop54
  1
strokes_ogs.tif
102
RTVSPost2010PropOp54
 70
     1
102
RTVSPost2010Prop55
280
     0
102
RTVSPost2010PropOp55
 70
     1
102
RTVSPost2010Prop56
140
1.0
102
RTVSPost2010PropOp56
 70
     1
102
RTVSPost2010Prop57
140
1.0
102
RTVSPost2010PropOp57
 70
     1
102
RTVSPropertyOp0
 70
     1
102
RTVSPropertyOp1
 70
     1
102
RTVSPropertyOp2
 70
     1
102
RTVSPropertyOp3
 70
     1
102
RTVSPropertyOp4
 70
     1
102
RTVSPropertyOp5
 70
     1
102
RTVSPropertyOp6
 70
     1
102
RTVSPropertyOp7
 70
     1
102
RTVSPropertyOp8
 70
     1
102
RTVSPropertyOp9
 70
     1
102
RTVSPropertyOp10
 70
     1
102
RTVSPropertyOp11
 70
     1
102
RTVSPropertyOp12
 70
     1
102
RTVSPropertyOp13
 70
     1
102
RTVSPropertyOp14
 70
     1
102
RTVSPropertyOp15
 70
     1
102
RTVSPropertyOp16
 70
     1
102
RTVSPropertyOp17
 70
     1
102
RTVSPropertyOp18
 70
     1
102
RTVSPropertyOp19
 70
     1
102
RTVSPropertyOp20
 70
     1
102
RTVSPropertyOp21
 70
     1
102
RTVSPropertyOp22
 70
     1
102
RTVSPropertyOp23
 70
     1
102
RTVSPropertyOp24
 70
     1
102
RTVSPropertyOp25
 70
     1
102
RTVSPropertyOp26
 70
     1
102
RTVSPropertyOp27
 70
     1
102
RTVSPropertyOp28
 70
     1
102
RTVSPropertyOp29
 70
     1
102
RTVSPropertyOp30
 70
     1
102
RTVSPropertyOp31
 70
     1
102
RTVSPropertyOp32
 70
     1
102
RTVSPropertyOp33
 70
     1
102
RTVSPropertyOp34
 70
     1
102
RTVSPropertyOp35
 70
     1
102
RTVSPropertyOp36
 70
     1
102
RTVSPropertyOp37
 70
     1
102
RTVSPropertyOp38
 70
     1
102
RTVSPropertyOp39
 70
     1
102
RTVSPropertyOp40
 70
     1
102
RTVSPropertyOp41
 70
     1
102
RTVSPropertyOp42
 70
     1
102
RTVSPropertyOp43
 70
     1
102
RTVSPropertyOp44
 70
     1
102
RTVSPropertyOp45
 70
     1
102
RTVSPropertyOp46
 70
     1
102
RTVSPropertyOp47
 70
     1
102
RTVSPropertyOp48
 70
     1
102
RTVSPropertyOp49
 70
     1
102
RTVSPropertyOp50
 70
     1
102
RTVSPropertyOp51
 70
     0
102
RTVSPropertyOp52
 70
     0
102
RTVSPropertyOp53
 70
     1
102
RTVSPropertyOp54
 70
     1
102
RTVSPropertyOp55
 70
     1
102
RTVSPropertyOp56
 70
     1
102
RTVSPropertyOp57
 70
     1
102
RTVSPropertyOp58
 70
     1
102
RTVSPropertyOp59
 70
     1
102
RTVSPropertyOp60
 70
     1
102
RTVSPropertyOp61
 70
     1
102
RTVSPropertyOp62
 70
     1
  0
XRECORD
  5
1335
102
{ACAD_REACTORS
330
1334
102
}
330
1334
100
AcDbXrecord
280
     1
102
RTVSPost2010Prop28
280
     0
102
RTVSPost2010PropOp28
 70
     1
102
RTVSPost2010Prop29
280
     1
102
RTVSPost2010PropOp29
 70
     1
102
RTVSPost2010Prop30
280
     1
102
RTVSPost2010PropOp30
 70
     1
102
RTVSPost2010Prop31
280
     0
102
RTVSPost2010PropOp31
 70
     1
102
RTVSPost2010Prop32
280
     0
102
RTVSPost2010PropOp32
 70
     1
102
RTVSPost2010Prop33
280
     0
102
RTVSPost2010PropOp33
 70
     1
102
RTVSPost2010Prop34
280
     0
102
RTVSPost2010PropOp34
 70
     1
102
RTVSPost2010Prop35
280
     0
102
RTVSPost2010PropOp35
 70
     1
102
RTVSPost2010Prop36
280
     0
102
RTVSPost2010PropOp36
 70
     1
102
RTVSPost2010Prop37
 90
       50
102
RTVSPost2010PropOp37
 70
     1
102
RTVSPost2010Prop38
140
0.0
102
RTVSPost2010PropOp38
 70
     1
102
RTVSPost2010Prop39
140
1.0
102
RTVSPost2010PropOp39
 70
     1
102
RTVSPost2010Prop40
 90
        0
102
RTVSPost2010PropOp40
 70
     1
102
RTVSPost2010Prop41ColorIndex
 90
       18
102
RTVSPost2010Prop41ColorRGB
 90
        0
102
RTVSPost2010PropOp41
 70
     1
102
RTVSPost2010Prop42
 90
       50
102
RTVSPost2010PropOp42
 70
     1
102
RTVSPost2010Prop43
 90
        3
102
RTVSPost2010PropOp43
 70
     1
102
RTVSPost2010Prop44ColorIndex
 90
        5
102
RTVSPost2010Prop44ColorRGB
 90
      255
102
RTVSPost2010PropOp44
 70
     1
102
RTVSPost2010Prop45
280
     0
102
RTVSPost2010PropOp45
 70
     1
102
RTVSPost2010Prop46
 90
       50
102
RTVSPost2010PropOp46
 70
     1
102
RTVSPost2010Prop47
 90
       50
102
RTVSPost2010PropOp47
 70
     1
102
RTVSPost2010Prop48
 90
       50
102
RTVSPost2010PropOp48
 70
     1
102
RTVSPost2010Prop49
280
     0
102
RTVSPost2010PropOp49
 70
     1
102
RTVSPost2010Prop50
 90
       50
102
RTVSPost2010PropOp50
 70
     1
102
RTVSPost2010Prop51ColorIndex
 90
      256
102
RTVSPost2010Prop51ColorRGB
 90
-16777216
102
RTVSPost2010PropOp51
 70
     0
102
RTVSPost2010Prop52
140
1.0
102
RTVSPost2010PropOp52
 70
     0
102
RTVSPost2010Prop53
 90
        2
102
RTVSPost2010PropOp53
 70
     1
102
RTVSPost2010Prop54
  1
strokes_ogs.tif
102
RTVSPost2010PropOp54
 70
     1
102
RTVSPost2010Prop55
280
     0
102
RTVSPost2010PropOp55
 70
     1
102
RTVSPost2010Prop56
140
1.0
102
RTVSPost2010PropOp56
 70
     1
102
RTVSPost2010Prop57
140
1.0
102
RTVSPost2010PropOp57
 70
     1
102
RTVSPropertyOp0
 70
     1
102
RTVSPropertyOp1
 70
     1
102
RTVSPropertyOp2
 70
     1
102
RTVSPropertyOp3
 70
     1
102
RTVSPropertyOp4
 70
     1
102
RTVSPropertyOp5
 70
     1
102
RTVSPropertyOp6
 70
     1
102
RTVSPropertyOp7
 70
     1
102
RTVSPropertyOp8
 70
     1
102
RTVSPropertyOp9
 70
     1
102
RTVSPropertyOp10
 70
     1
102
RTVSPropertyOp11
 70
     1
102
RTVSPropertyOp12
 70
     1
102
RTVSPropertyOp13
 70
     1
102
RTVSPropertyOp14
 70
     1
102
RTVSPropertyOp15
 70
     1
102
RTVSPropertyOp16
 70
     1
102
RTVSPropertyOp17
 70
     1
102
RTVSPropertyOp18
 70
     1
102
RTVSPropertyOp19
 70
     1
102
RTVSPropertyOp20
 70
     1
102
RTVSPropertyOp21
 70
     1
102
RTVSPropertyOp22
 70
     1
102
RTVSPropertyOp23
 70
     1
102
RTVSPropertyOp24
 70
     1
102
RTVSPropertyOp25
 70
     1
102
RTVSPropertyOp26
 70
     1
102
RTVSPropertyOp27
 70
     1
102
RTVSPropertyOp28
 70
     1
102
RTVSPropertyOp29
 70
     1
102
RTVSPropertyOp30
 70
     1
102
RTVSPropertyOp31
 70
     1
102
RTVSPropertyOp32
 70
     1
102
RTVSPropertyOp33
 70
     1
102
RTVSPropertyOp34
 70
     1
102
RTVSPropertyOp35
 70
     1
102
RTVSPropertyOp36
 70
     1
102
RTVSPropertyOp37
 70
     1
102
RTVSPropertyOp38
 70
     1
102
RTVSPropertyOp39
 70
     1
102
RTVSPropertyOp40
 70
     1
102
RTVSPropertyOp41
 70
     1
102
RTVSPropertyOp42
 70
     1
102
RTVSPropertyOp43
 70
     1
102
RTVSPropertyOp44
 70
     1
102
RTVSPropertyOp45
 70
     1
102
RTVSPropertyOp46
 70
     1
102
RTVSPropertyOp47
 70
     1
102
RTVSPropertyOp48
 70
     1
102
RTVSPropertyOp49
 70
     1
102
RTVSPropertyOp50
 70
     1
102
RTVSPropertyOp51
 70
     0
102
RTVSPropertyOp52
 70
     0
102
RTVSPropertyOp53
 70
     1
102
RTVSPropertyOp54
 70
     1
102
RTVSPropertyOp55
 70
     1
102
RTVSPropertyOp56
 70
     1
102
RTVSPropertyOp57
 70
     1
102
RTVSPropertyOp58
 70
     1
102
RTVSPropertyOp59
 70
     1
102
RTVSPropertyOp60
 70
     1
102
RTVSPropertyOp61
 70
     1
102
RTVSPropertyOp62
 70
     1
  0
XRECORD
  5
1333
102
{ACAD_REACTORS
330
1332
102
}
330
1332
100
AcDbXrecord
280
     1
102
RTVSPost2010Prop28
280
     0
102
RTVSPost2010PropOp28
 70
     1
102
RTVSPost2010Prop29
280
     1
102
RTVSPost2010PropOp29
 70
     1
102
RTVSPost2010Prop30
280
     1
102
RTVSPost2010PropOp30
 70
     1
102
RTVSPost2010Prop31
280
     0
102
RTVSPost2010PropOp31
 70
     1
102
RTVSPost2010Prop32
280
     0
102
RTVSPost2010PropOp32
 70
     1
102
RTVSPost2010Prop33
280
     0
102
RTVSPost2010PropOp33
 70
     1
102
RTVSPost2010Prop34
280
     0
102
RTVSPost2010PropOp34
 70
     1
102
RTVSPost2010Prop35
280
     0
102
RTVSPost2010PropOp35
 70
     1
102
RTVSPost2010Prop36
280
     0
102
RTVSPost2010PropOp36
 70
     1
102
RTVSPost2010Prop37
 90
       50
102
RTVSPost2010PropOp37
 70
     1
102
RTVSPost2010Prop38
140
0.0
102
RTVSPost2010PropOp38
 70
     1
102
RTVSPost2010Prop39
140
1.0
102
RTVSPost2010PropOp39
 70
     1
102
RTVSPost2010Prop40
 90
        0
102
RTVSPost2010PropOp40
 70
     1
102
RTVSPost2010Prop41ColorIndex
 90
       18
102
RTVSPost2010Prop41ColorRGB
 90
        0
102
RTVSPost2010PropOp41
 70
     1
102
RTVSPost2010Prop42
 90
       50
102
RTVSPost2010PropOp42
 70
     1
102
RTVSPost2010Prop43
 90
        3
102
RTVSPost2010PropOp43
 70
     1
102
RTVSPost2010Prop44ColorIndex
 90
        5
102
RTVSPost2010Prop44ColorRGB
 90
      255
102
RTVSPost2010PropOp44
 70
     1
102
RTVSPost2010Prop45
280
     0
102
RTVSPost2010PropOp45
 70
     1
102
RTVSPost2010Prop46
 90
       50
102
RTVSPost2010PropOp46
 70
     1
102
RTVSPost2010Prop47
 90
       50
102
RTVSPost2010PropOp47
 70
     1
102
RTVSPost2010Prop48
 90
       50
102
RTVSPost2010PropOp48
 70
     1
102
RTVSPost2010Prop49
280
     0
102
RTVSPost2010PropOp49
 70
     1
102
RTVSPost2010Prop50
 90
       50
102
RTVSPost2010PropOp50
 70
     1
102
RTVSPost2010Prop51ColorIndex
 90
      256
102
RTVSPost2010Prop51ColorRGB
 90
-16777216
102
RTVSPost2010PropOp51
 70
     0
102
RTVSPost2010Prop52
140
1.0
102
RTVSPost2010PropOp52
 70
     0
102
RTVSPost2010Prop53
 90
        2
102
RTVSPost2010PropOp53
 70
     1
102
RTVSPost2010Prop54
  1
strokes_ogs.tif
102
RTVSPost2010PropOp54
 70
     1
102
RTVSPost2010Prop55
280
     0
102
RTVSPost2010PropOp55
 70
     1
102
RTVSPost2010Prop56
140
1.0
102
RTVSPost2010PropOp56
 70
     1
102
RTVSPost2010Prop57
140
1.0
102
RTVSPost2010PropOp57
 70
     1
102
RTVSPropertyOp0
 70
     1
102
RTVSPropertyOp1
 70
     1
102
RTVSPropertyOp2
 70
     1
102
RTVSPropertyOp3
 70
     1
102
RTVSPropertyOp4
 70
     1
102
RTVSPropertyOp5
 70
     1
102
RTVSPropertyOp6
 70
     1
102
RTVSPropertyOp7
 70
     1
102
RTVSPropertyOp8
 70
     1
102
RTVSPropertyOp9
 70
     1
102
RTVSPropertyOp10
 70
     1
102
RTVSPropertyOp11
 70
     1
102
RTVSPropertyOp12
 70
     1
102
RTVSPropertyOp13
 70
     1
102
RTVSPropertyOp14
 70
     1
102
RTVSPropertyOp15
 70
     1
102
RTVSPropertyOp16
 70
     1
102
RTVSPropertyOp17
 70
     1
102
RTVSPropertyOp18
 70
     1
102
RTVSPropertyOp19
 70
     1
102
RTVSPropertyOp20
 70
     1
102
RTVSPropertyOp21
 70
     1
102
RTVSPropertyOp22
 70
     1
102
RTVSPropertyOp23
 70
     1
102
RTVSPropertyOp24
 70
     1
102
RTVSPropertyOp25
 70
     1
102
RTVSPropertyOp26
 70
     1
102
RTVSPropertyOp27
 70
     1
102
RTVSPropertyOp28
 70
     1
102
RTVSPropertyOp29
 70
     1
102
RTVSPropertyOp30
 70
     1
102
RTVSPropertyOp31
 70
     1
102
RTVSPropertyOp32
 70
     1
102
RTVSPropertyOp33
 70
     1
102
RTVSPropertyOp34
 70
     1
102
RTVSPropertyOp35
 70
     1
102
RTVSPropertyOp36
 70
     1
102
RTVSPropertyOp37
 70
     1
102
RTVSPropertyOp38
 70
     1
102
RTVSPropertyOp39
 70
     1
102
RTVSPropertyOp40
 70
     1
102
RTVSPropertyOp41
 70
     1
102
RTVSPropertyOp42
 70
     1
102
RTVSPropertyOp43
 70
     1
102
RTVSPropertyOp44
 70
     1
102
RTVSPropertyOp45
 70
     1
102
RTVSPropertyOp46
 70
     1
102
RTVSPropertyOp47
 70
     1
102
RTVSPropertyOp48
 70
     1
102
RTVSPropertyOp49
 70
     1
102
RTVSPropertyOp50
 70
     1
102
RTVSPropertyOp51
 70
     0
102
RTVSPropertyOp52
 70
     0
102
RTVSPropertyOp53
 70
     1
102
RTVSPropertyOp54
 70
     1
102
RTVSPropertyOp55
 70
     1
102
RTVSPropertyOp56
 70
     1
102
RTVSPropertyOp57
 70
     1
102
RTVSPropertyOp58
 70
     1
102
RTVSPropertyOp59
 70
     1
102
RTVSPropertyOp60
 70
     1
102
RTVSPropertyOp61
 70
     1
102
RTVSPropertyOp62
 70
     1
  0
XRECORD
  5
132D
102
{ACAD_REACTORS
330
132C
102
}
330
132C
100
AcDbXrecord
280
     1
102
RTVSPost2010Prop28
280
     0
102
RTVSPost2010PropOp28
 70
     1
102
RTVSPost2010Prop29
280
     1
102
RTVSPost2010PropOp29
 70
     1
102
RTVSPost2010Prop30
280
     1
102
RTVSPost2010PropOp30
 70
     1
102
RTVSPost2010Prop31
280
     0
102
RTVSPost2010PropOp31
 70
     1
102
RTVSPost2010Prop32
280
     0
102
RTVSPost2010PropOp32
 70
     1
102
RTVSPost2010Prop33
280
     0
102
RTVSPost2010PropOp33
 70
     1
102
RTVSPost2010Prop34
280
     0
102
RTVSPost2010PropOp34
 70
     1
102
RTVSPost2010Prop35
280
     0
102
RTVSPost2010PropOp35
 70
     1
102
RTVSPost2010Prop36
280
     0
102
RTVSPost2010PropOp36
 70
     1
102
RTVSPost2010Prop37
 90
       50
102
RTVSPost2010PropOp37
 70
     1
102
RTVSPost2010Prop38
140
0.0
102
RTVSPost2010PropOp38
 70
     1
102
RTVSPost2010Prop39
140
1.0
102
RTVSPost2010PropOp39
 70
     1
102
RTVSPost2010Prop40
 90
        0
102
RTVSPost2010PropOp40
 70
     1
102
RTVSPost2010Prop41ColorIndex
 90
       18
102
RTVSPost2010Prop41ColorRGB
 90
        0
102
RTVSPost2010PropOp41
 70
     1
102
RTVSPost2010Prop42
 90
       50
102
RTVSPost2010PropOp42
 70
     1
102
RTVSPost2010Prop43
 90
        3
102
RTVSPost2010PropOp43
 70
     1
102
RTVSPost2010Prop44ColorIndex
 90
        5
102
RTVSPost2010Prop44ColorRGB
 90
      255
102
RTVSPost2010PropOp44
 70
     1
102
RTVSPost2010Prop45
280
     0
102
RTVSPost2010PropOp45
 70
     1
102
RTVSPost2010Prop46
 90
       50
102
RTVSPost2010PropOp46
 70
     1
102
RTVSPost2010Prop47
 90
       50
102
RTVSPost2010PropOp47
 70
     1
102
RTVSPost2010Prop48
 90
       50
102
RTVSPost2010PropOp48
 70
     1
102
RTVSPost2010Prop49
280
     0
102
RTVSPost2010PropOp49
 70
     1
102
RTVSPost2010Prop50
 90
       50
102
RTVSPost2010PropOp50
 70
     1
102
RTVSPost2010Prop51ColorIndex
 90
      256
102
RTVSPost2010Prop51ColorRGB
 90
-16777216
102
RTVSPost2010PropOp51
 70
     0
102
RTVSPost2010Prop52
140
1.0
102
RTVSPost2010PropOp52
 70
     0
102
RTVSPost2010Prop53
 90
        2
102
RTVSPost2010PropOp53
 70
     1
102
RTVSPost2010Prop54
  1
strokes_ogs.tif
102
RTVSPost2010PropOp54
 70
     1
102
RTVSPost2010Prop55
280
     0
102
RTVSPost2010PropOp55
 70
     1
102
RTVSPost2010Prop56
140
1.0
102
RTVSPost2010PropOp56
 70
     1
102
RTVSPost2010Prop57
140
1.0
102
RTVSPost2010PropOp57
 70
     1
102
RTVSPropertyOp0
 70
     1
102
RTVSPropertyOp1
 70
     1
102
RTVSPropertyOp2
 70
     1
102
RTVSPropertyOp3
 70
     1
102
RTVSPropertyOp4
 70
     1
102
RTVSPropertyOp5
 70
     1
102
RTVSPropertyOp6
 70
     1
102
RTVSPropertyOp7
 70
     1
102
RTVSPropertyOp8
 70
     1
102
RTVSPropertyOp9
 70
     1
102
RTVSPropertyOp10
 70
     1
102
RTVSPropertyOp11
 70
     1
102
RTVSPropertyOp12
 70
     1
102
RTVSPropertyOp13
 70
     1
102
RTVSPropertyOp14
 70
     1
102
RTVSPropertyOp15
 70
     1
102
RTVSPropertyOp16
 70
     1
102
RTVSPropertyOp17
 70
     1
102
RTVSPropertyOp18
 70
     1
102
RTVSPropertyOp19
 70
     1
102
RTVSPropertyOp20
 70
     1
102
RTVSPropertyOp21
 70
     1
102
RTVSPropertyOp22
 70
     1
102
RTVSPropertyOp23
 70
     1
102
RTVSPropertyOp24
 70
     1
102
RTVSPropertyOp25
 70
     1
102
RTVSPropertyOp26
 70
     1
102
RTVSPropertyOp27
 70
     1
102
RTVSPropertyOp28
 70
     1
102
RTVSPropertyOp29
 70
     1
102
RTVSPropertyOp30
 70
     1
102
RTVSPropertyOp31
 70
     1
102
RTVSPropertyOp32
 70
     1
102
RTVSPropertyOp33
 70
     1
102
RTVSPropertyOp34
 70
     1
102
RTVSPropertyOp35
 70
     1
102
RTVSPropertyOp36
 70
     1
102
RTVSPropertyOp37
 70
     1
102
RTVSPropertyOp38
 70
     1
102
RTVSPropertyOp39
 70
     1
102
RTVSPropertyOp40
 70
     1
102
RTVSPropertyOp41
 70
     1
102
RTVSPropertyOp42
 70
     1
102
RTVSPropertyOp43
 70
     1
102
RTVSPropertyOp44
 70
     1
102
RTVSPropertyOp45
 70
     1
102
RTVSPropertyOp46
 70
     1
102
RTVSPropertyOp47
 70
     1
102
RTVSPropertyOp48
 70
     1
102
RTVSPropertyOp49
 70
     1
102
RTVSPropertyOp50
 70
     1
102
RTVSPropertyOp51
 70
     0
102
RTVSPropertyOp52
 70
     0
102
RTVSPropertyOp53
 70
     1
102
RTVSPropertyOp54
 70
     1
102
RTVSPropertyOp55
 70
     1
102
RTVSPropertyOp56
 70
     1
102
RTVSPropertyOp57
 70
     1
102
RTVSPropertyOp58
 70
     1
102
RTVSPropertyOp59
 70
     1
102
RTVSPropertyOp60
 70
     1
102
RTVSPropertyOp61
 70
     1
102
RTVSPropertyOp62
 70
     1
  0
XRECORD
  5
132F
102
{ACAD_REACTORS
330
132E
102
}
330
132E
100
AcDbXrecord
280
     1
102
RTVSPost2010Prop28
280
     0
102
RTVSPost2010PropOp28
 70
     1
102
RTVSPost2010Prop29
280
     1
102
RTVSPost2010PropOp29
 70
     1
102
RTVSPost2010Prop30
280
     1
102
RTVSPost2010PropOp30
 70
     1
102
RTVSPost2010Prop31
280
     0
102
RTVSPost2010PropOp31
 70
     1
102
RTVSPost2010Prop32
280
     0
102
RTVSPost2010PropOp32
 70
     1
102
RTVSPost2010Prop33
280
     0
102
RTVSPost2010PropOp33
 70
     1
102
RTVSPost2010Prop34
280
     0
102
RTVSPost2010PropOp34
 70
     1
102
RTVSPost2010Prop35
280
     0
102
RTVSPost2010PropOp35
 70
     1
102
RTVSPost2010Prop36
280
     0
102
RTVSPost2010PropOp36
 70
     1
102
RTVSPost2010Prop37
 90
       50
102
RTVSPost2010PropOp37
 70
     1
102
RTVSPost2010Prop38
140
0.0
102
RTVSPost2010PropOp38
 70
     1
102
RTVSPost2010Prop39
140
1.0
102
RTVSPost2010PropOp39
 70
     1
102
RTVSPost2010Prop40
 90
        0
102
RTVSPost2010PropOp40
 70
     1
102
RTVSPost2010Prop41ColorIndex
 90
       18
102
RTVSPost2010Prop41ColorRGB
 90
        0
102
RTVSPost2010PropOp41
 70
     1
102
RTVSPost2010Prop42
 90
       50
102
RTVSPost2010PropOp42
 70
     1
102
RTVSPost2010Prop43
 90
        3
102
RTVSPost2010PropOp43
 70
     1
102
RTVSPost2010Prop44ColorIndex
 90
        5
102
RTVSPost2010Prop44ColorRGB
 90
      255
102
RTVSPost2010PropOp44
 70
     1
102
RTVSPost2010Prop45
280
     0
102
RTVSPost2010PropOp45
 70
     1
102
RTVSPost2010Prop46
 90
       50
102
RTVSPost2010PropOp46
 70
     1
102
RTVSPost2010Prop47
 90
       50
102
RTVSPost2010PropOp47
 70
     1
102
RTVSPost2010Prop48
 90
       50
102
RTVSPost2010PropOp48
 70
     1
102
RTVSPost2010Prop49
280
     0
102
RTVSPost2010PropOp49
 70
     1
102
RTVSPost2010Prop50
 90
       50
102
RTVSPost2010PropOp50
 70
     1
102
RTVSPost2010Prop51ColorIndex
 90
      256
102
RTVSPost2010Prop51ColorRGB
 90
-16777216
102
RTVSPost2010PropOp51
 70
     0
102
RTVSPost2010Prop52
140
1.0
102
RTVSPost2010PropOp52
 70
     0
102
RTVSPost2010Prop53
 90
        2
102
RTVSPost2010PropOp53
 70
     1
102
RTVSPost2010Prop54
  1
strokes_ogs.tif
102
RTVSPost2010PropOp54
 70
     1
102
RTVSPost2010Prop55
280
     0
102
RTVSPost2010PropOp55
 70
     1
102
RTVSPost2010Prop56
140
1.0
102
RTVSPost2010PropOp56
 70
     1
102
RTVSPost2010Prop57
140
1.0
102
RTVSPost2010PropOp57
 70
     1
102
RTVSPropertyOp0
 70
     1
102
RTVSPropertyOp1
 70
     1
102
RTVSPropertyOp2
 70
     1
102
RTVSPropertyOp3
 70
     1
102
RTVSPropertyOp4
 70
     1
102
RTVSPropertyOp5
 70
     1
102
RTVSPropertyOp6
 70
     1
102
RTVSPropertyOp7
 70
     1
102
RTVSPropertyOp8
 70
     1
102
RTVSPropertyOp9
 70
     1
102
RTVSPropertyOp10
 70
     1
102
RTVSPropertyOp11
 70
     1
102
RTVSPropertyOp12
 70
     1
102
RTVSPropertyOp13
 70
     1
102
RTVSPropertyOp14
 70
     1
102
RTVSPropertyOp15
 70
     1
102
RTVSPropertyOp16
 70
     1
102
RTVSPropertyOp17
 70
     1
102
RTVSPropertyOp18
 70
     1
102
RTVSPropertyOp19
 70
     1
102
RTVSPropertyOp20
 70
     1
102
RTVSPropertyOp21
 70
     1
102
RTVSPropertyOp22
 70
     1
102
RTVSPropertyOp23
 70
     1
102
RTVSPropertyOp24
 70
     1
102
RTVSPropertyOp25
 70
     1
102
RTVSPropertyOp26
 70
     1
102
RTVSPropertyOp27
 70
     1
102
RTVSPropertyOp28
 70
     1
102
RTVSPropertyOp29
 70
     1
102
RTVSPropertyOp30
 70
     1
102
RTVSPropertyOp31
 70
     1
102
RTVSPropertyOp32
 70
     1
102
RTVSPropertyOp33
 70
     1
102
RTVSPropertyOp34
 70
     1
102
RTVSPropertyOp35
 70
     1
102
RTVSPropertyOp36
 70
     1
102
RTVSPropertyOp37
 70
     1
102
RTVSPropertyOp38
 70
     1
102
RTVSPropertyOp39
 70
     1
102
RTVSPropertyOp40
 70
     1
102
RTVSPropertyOp41
 70
     1
102
RTVSPropertyOp42
 70
     1
102
RTVSPropertyOp43
 70
     1
102
RTVSPropertyOp44
 70
     1
102
RTVSPropertyOp45
 70
     1
102
RTVSPropertyOp46
 70
     1
102
RTVSPropertyOp47
 70
     1
102
RTVSPropertyOp48
 70
     1
102
RTVSPropertyOp49
 70
     1
102
RTVSPropertyOp50
 70
     1
102
RTVSPropertyOp51
 70
     0
102
RTVSPropertyOp52
 70
     0
102
RTVSPropertyOp53
 70
     1
102
RTVSPropertyOp54
 70
     1
102
RTVSPropertyOp55
 70
     1
102
RTVSPropertyOp56
 70
     1
102
RTVSPropertyOp57
 70
     1
102
RTVSPropertyOp58
 70
     1
102
RTVSPropertyOp59
 70
     1
102
RTVSPropertyOp60
 70
     1
102
RTVSPropertyOp61
 70
     1
102
RTVSPropertyOp62
 70
     1
  0
XRECORD
  5
1325
102
{ACAD_REACTORS
330
1324
102
}
330
1324
100
AcDbXrecord
280
     1
102
RTVSPost2010Prop28
280
     0
102
RTVSPost2010PropOp28
 70
     1
102
RTVSPost2010Prop29
280
     1
102
RTVSPost2010PropOp29
 70
     1
102
RTVSPost2010Prop30
280
     1
102
RTVSPost2010PropOp30
 70
     1
102
RTVSPost2010Prop31
280
     0
102
RTVSPost2010PropOp31
 70
     1
102
RTVSPost2010Prop32
280
     0
102
RTVSPost2010PropOp32
 70
     1
102
RTVSPost2010Prop33
280
     0
102
RTVSPost2010PropOp33
 70
     1
102
RTVSPost2010Prop34
280
     0
102
RTVSPost2010PropOp34
 70
     1
102
RTVSPost2010Prop35
280
     0
102
RTVSPost2010PropOp35
 70
     1
102
RTVSPost2010Prop36
280
     0
102
RTVSPost2010PropOp36
 70
     1
102
RTVSPost2010Prop37
 90
       50
102
RTVSPost2010PropOp37
 70
     1
102
RTVSPost2010Prop38
140
0.0
102
RTVSPost2010PropOp38
 70
     1
102
RTVSPost2010Prop39
140
1.0
102
RTVSPost2010PropOp39
 70
     1
102
RTVSPost2010Prop40
 90
        0
102
RTVSPost2010PropOp40
 70
     1
102
RTVSPost2010Prop41ColorIndex
 90
       18
102
RTVSPost2010Prop41ColorRGB
 90
        0
102
RTVSPost2010PropOp41
 70
     1
102
RTVSPost2010Prop42
 90
       50
102
RTVSPost2010PropOp42
 70
     1
102
RTVSPost2010Prop43
 90
        3
102
RTVSPost2010PropOp43
 70
     1
102
RTVSPost2010Prop44ColorIndex
 90
        5
102
RTVSPost2010Prop44ColorRGB
 90
      255
102
RTVSPost2010PropOp44
 70
     1
102
RTVSPost2010Prop45
280
     0
102
RTVSPost2010PropOp45
 70
     1
102
RTVSPost2010Prop46
 90
       50
102
RTVSPost2010PropOp46
 70
     1
102
RTVSPost2010Prop47
 90
       50
102
RTVSPost2010PropOp47
 70
     1
102
RTVSPost2010Prop48
 90
       50
102
RTVSPost2010PropOp48
 70
     1
102
RTVSPost2010Prop49
280
     0
102
RTVSPost2010PropOp49
 70
     1
102
RTVSPost2010Prop50
 90
       50
102
RTVSPost2010PropOp50
 70
     1
102
RTVSPost2010Prop51ColorIndex
 90
      256
102
RTVSPost2010Prop51ColorRGB
 90
-16777216
102
RTVSPost2010PropOp51
 70
     0
102
RTVSPost2010Prop52
140
1.0
102
RTVSPost2010PropOp52
 70
     0
102
RTVSPost2010Prop53
 90
        2
102
RTVSPost2010PropOp53
 70
     1
102
RTVSPost2010Prop54
  1
strokes_ogs.tif
102
RTVSPost2010PropOp54
 70
     1
102
RTVSPost2010Prop55
280
     0
102
RTVSPost2010PropOp55
 70
     1
102
RTVSPost2010Prop56
140
1.0
102
RTVSPost2010PropOp56
 70
     1
102
RTVSPost2010Prop57
140
1.0
102
RTVSPost2010PropOp57
 70
     1
102
RTVSPropertyOp0
 70
     1
102
RTVSPropertyOp1
 70
     1
102
RTVSPropertyOp2
 70
     1
102
RTVSPropertyOp3
 70
     1
102
RTVSPropertyOp4
 70
     1
102
RTVSPropertyOp5
 70
     1
102
RTVSPropertyOp6
 70
     1
102
RTVSPropertyOp7
 70
     1
102
RTVSPropertyOp8
 70
     1
102
RTVSPropertyOp9
 70
     1
102
RTVSPropertyOp10
 70
     1
102
RTVSPropertyOp11
 70
     1
102
RTVSPropertyOp12
 70
     1
102
RTVSPropertyOp13
 70
     1
102
RTVSPropertyOp14
 70
     1
102
RTVSPropertyOp15
 70
     1
102
RTVSPropertyOp16
 70
     1
102
RTVSPropertyOp17
 70
     1
102
RTVSPropertyOp18
 70
     1
102
RTVSPropertyOp19
 70
     1
102
RTVSPropertyOp20
 70
     1
102
RTVSPropertyOp21
 70
     1
102
RTVSPropertyOp22
 70
     1
102
RTVSPropertyOp23
 70
     1
102
RTVSPropertyOp24
 70
     1
102
RTVSPropertyOp25
 70
     1
102
RTVSPropertyOp26
 70
     1
102
RTVSPropertyOp27
 70
     1
102
RTVSPropertyOp28
 70
     1
102
RTVSPropertyOp29
 70
     1
102
RTVSPropertyOp30
 70
     1
102
RTVSPropertyOp31
 70
     1
102
RTVSPropertyOp32
 70
     1
102
RTVSPropertyOp33
 70
     1
102
RTVSPropertyOp34
 70
     1
102
RTVSPropertyOp35
 70
     1
102
RTVSPropertyOp36
 70
     1
102
RTVSPropertyOp37
 70
     1
102
RTVSPropertyOp38
 70
     1
102
RTVSPropertyOp39
 70
     1
102
RTVSPropertyOp40
 70
     1
102
RTVSPropertyOp41
 70
     1
102
RTVSPropertyOp42
 70
     1
102
RTVSPropertyOp43
 70
     1
102
RTVSPropertyOp44
 70
     1
102
RTVSPropertyOp45
 70
     1
102
RTVSPropertyOp46
 70
     1
102
RTVSPropertyOp47
 70
     1
102
RTVSPropertyOp48
 70
     1
102
RTVSPropertyOp49
 70
     1
102
RTVSPropertyOp50
 70
     1
102
RTVSPropertyOp51
 70
     0
102
RTVSPropertyOp52
 70
     0
102
RTVSPropertyOp53
 70
     1
102
RTVSPropertyOp54
 70
     1
102
RTVSPropertyOp55
 70
     1
102
RTVSPropertyOp56
 70
     1
102
RTVSPropertyOp57
 70
     1
102
RTVSPropertyOp58
 70
     1
102
RTVSPropertyOp59
 70
     1
102
RTVSPropertyOp60
 70
     1
102
RTVSPropertyOp61
 70
     1
102
RTVSPropertyOp62
 70
     1
  0
XRECORD
  5
1319
102
{ACAD_REACTORS
330
1318
102
}
330
1318
100
AcDbXrecord
280
     1
102
RTVSPost2010Prop28
280
     0
102
RTVSPost2010PropOp28
 70
     1
102
RTVSPost2010Prop29
280
     1
102
RTVSPost2010PropOp29
 70
     1
102
RTVSPost2010Prop30
280
     1
102
RTVSPost2010PropOp30
 70
     1
102
RTVSPost2010Prop31
280
     0
102
RTVSPost2010PropOp31
 70
     1
102
RTVSPost2010Prop32
280
     0
102
RTVSPost2010PropOp32
 70
     1
102
RTVSPost2010Prop33
280
     0
102
RTVSPost2010PropOp33
 70
     1
102
RTVSPost2010Prop34
280
     0
102
RTVSPost2010PropOp34
 70
     1
102
RTVSPost2010Prop35
280
     0
102
RTVSPost2010PropOp35
 70
     1
102
RTVSPost2010Prop36
280
     0
102
RTVSPost2010PropOp36
 70
     1
102
RTVSPost2010Prop37
 90
       50
102
RTVSPost2010PropOp37
 70
     1
102
RTVSPost2010Prop38
140
0.0
102
RTVSPost2010PropOp38
 70
     1
102
RTVSPost2010Prop39
140
1.0
102
RTVSPost2010PropOp39
 70
     1
102
RTVSPost2010Prop40
 90
        0
102
RTVSPost2010PropOp40
 70
     1
102
RTVSPost2010Prop41ColorIndex
 90
       18
102
RTVSPost2010Prop41ColorRGB
 90
        0
102
RTVSPost2010PropOp41
 70
     1
102
RTVSPost2010Prop42
 90
       50
102
RTVSPost2010PropOp42
 70
     1
102
RTVSPost2010Prop43
 90
        3
102
RTVSPost2010PropOp43
 70
     1
102
RTVSPost2010Prop44ColorIndex
 90
        5
102
RTVSPost2010Prop44ColorRGB
 90
      255
102
RTVSPost2010PropOp44
 70
     1
102
RTVSPost2010Prop45
280
     0
102
RTVSPost2010PropOp45
 70
     1
102
RTVSPost2010Prop46
 90
       50
102
RTVSPost2010PropOp46
 70
     1
102
RTVSPost2010Prop47
 90
       50
102
RTVSPost2010PropOp47
 70
     1
102
RTVSPost2010Prop48
 90
       50
102
RTVSPost2010PropOp48
 70
     1
102
RTVSPost2010Prop49
280
     0
102
RTVSPost2010PropOp49
 70
     1
102
RTVSPost2010Prop50
 90
       50
102
RTVSPost2010PropOp50
 70
     1
102
RTVSPost2010Prop51ColorIndex
 90
      256
102
RTVSPost2010Prop51ColorRGB
 90
-16777216
102
RTVSPost2010PropOp51
 70
     0
102
RTVSPost2010Prop52
140
1.0
102
RTVSPost2010PropOp52
 70
     0
102
RTVSPost2010Prop53
 90
        2
102
RTVSPost2010PropOp53
 70
     1
102
RTVSPost2010Prop54
  1
strokes_ogs.tif
102
RTVSPost2010PropOp54
 70
     1
102
RTVSPost2010Prop55
280
     0
102
RTVSPost2010PropOp55
 70
     1
102
RTVSPost2010Prop56
140
1.0
102
RTVSPost2010PropOp56
 70
     1
102
RTVSPost2010Prop57
140
1.0
102
RTVSPost2010PropOp57
 70
     1
102
RTVSPropertyOp0
 70
     1
102
RTVSPropertyOp1
 70
     1
102
RTVSPropertyOp2
 70
     1
102
RTVSPropertyOp3
 70
     1
102
RTVSPropertyOp4
 70
     1
102
RTVSPropertyOp5
 70
     1
102
RTVSPropertyOp6
 70
     1
102
RTVSPropertyOp7
 70
     1
102
RTVSPropertyOp8
 70
     1
102
RTVSPropertyOp9
 70
     1
102
RTVSPropertyOp10
 70
     1
102
RTVSPropertyOp11
 70
     1
102
RTVSPropertyOp12
 70
     1
102
RTVSPropertyOp13
 70
     1
102
RTVSPropertyOp14
 70
     1
102
RTVSPropertyOp15
 70
     1
102
RTVSPropertyOp16
 70
     1
102
RTVSPropertyOp17
 70
     1
102
RTVSPropertyOp18
 70
     1
102
RTVSPropertyOp19
 70
     1
102
RTVSPropertyOp20
 70
     1
102
RTVSPropertyOp21
 70
     1
102
RTVSPropertyOp22
 70
     1
102
RTVSPropertyOp23
 70
     1
102
RTVSPropertyOp24
 70
     1
102
RTVSPropertyOp25
 70
     1
102
RTVSPropertyOp26
 70
     1
102
RTVSPropertyOp27
 70
     1
102
RTVSPropertyOp28
 70
     1
102
RTVSPropertyOp29
 70
     1
102
RTVSPropertyOp30
 70
     1
102
RTVSPropertyOp31
 70
     1
102
RTVSPropertyOp32
 70
     1
102
RTVSPropertyOp33
 70
     1
102
RTVSPropertyOp34
 70
     1
102
RTVSPropertyOp35
 70
     1
102
RTVSPropertyOp36
 70
     1
102
RTVSPropertyOp37
 70
     1
102
RTVSPropertyOp38
 70
     1
102
RTVSPropertyOp39
 70
     1
102
RTVSPropertyOp40
 70
     1
102
RTVSPropertyOp41
 70
     1
102
RTVSPropertyOp42
 70
     1
102
RTVSPropertyOp43
 70
     1
102
RTVSPropertyOp44
 70
     1
102
RTVSPropertyOp45
 70
     1
102
RTVSPropertyOp46
 70
     1
102
RTVSPropertyOp47
 70
     1
102
RTVSPropertyOp48
 70
     1
102
RTVSPropertyOp49
 70
     1
102
RTVSPropertyOp50
 70
     1
102
RTVSPropertyOp51
 70
     0
102
RTVSPropertyOp52
 70
     0
102
RTVSPropertyOp53
 70
     1
102
RTVSPropertyOp54
 70
     1
102
RTVSPropertyOp55
 70
     1
102
RTVSPropertyOp56
 70
     1
102
RTVSPropertyOp57
 70
     1
102
RTVSPropertyOp58
 70
     1
102
RTVSPropertyOp59
 70
     1
102
RTVSPropertyOp60
 70
     1
102
RTVSPropertyOp61
 70
     1
102
RTVSPropertyOp62
 70
     1
  0
XRECORD
  5
1331
102
{ACAD_REACTORS
330
1330
102
}
330
1330
100
AcDbXrecord
280
     1
102
RTVSPost2010Prop28
280
     0
102
RTVSPost2010PropOp28
 70
     1
102
RTVSPost2010Prop29
280
     1
102
RTVSPost2010PropOp29
 70
     1
102
RTVSPost2010Prop30
280
     1
102
RTVSPost2010PropOp30
 70
     1
102
RTVSPost2010Prop31
280
     0
102
RTVSPost2010PropOp31
 70
     1
102
RTVSPost2010Prop32
280
     0
102
RTVSPost2010PropOp32
 70
     1
102
RTVSPost2010Prop33
280
     0
102
RTVSPost2010PropOp33
 70
     1
102
RTVSPost2010Prop34
280
     0
102
RTVSPost2010PropOp34
 70
     1
102
RTVSPost2010Prop35
280
     0
102
RTVSPost2010PropOp35
 70
     1
102
RTVSPost2010Prop36
280
     0
102
RTVSPost2010PropOp36
 70
     1
102
RTVSPost2010Prop37
 90
       50
102
RTVSPost2010PropOp37
 70
     1
102
RTVSPost2010Prop38
140
0.0
102
RTVSPost2010PropOp38
 70
     1
102
RTVSPost2010Prop39
140
1.0
102
RTVSPost2010PropOp39
 70
     1
102
RTVSPost2010Prop40
 90
        0
102
RTVSPost2010PropOp40
 70
     1
102
RTVSPost2010Prop41ColorIndex
 90
       18
102
RTVSPost2010Prop41ColorRGB
 90
        0
102
RTVSPost2010PropOp41
 70
     1
102
RTVSPost2010Prop42
 90
       50
102
RTVSPost2010PropOp42
 70
     1
102
RTVSPost2010Prop43
 90
        3
102
RTVSPost2010PropOp43
 70
     1
102
RTVSPost2010Prop44ColorIndex
 90
        5
102
RTVSPost2010Prop44ColorRGB
 90
      255
102
RTVSPost2010PropOp44
 70
     1
102
RTVSPost2010Prop45
280
     0
102
RTVSPost2010PropOp45
 70
     1
102
RTVSPost2010Prop46
 90
       50
102
RTVSPost2010PropOp46
 70
     1
102
RTVSPost2010Prop47
 90
       50
102
RTVSPost2010PropOp47
 70
     1
102
RTVSPost2010Prop48
 90
       50
102
RTVSPost2010PropOp48
 70
     1
102
RTVSPost2010Prop49
280
     0
102
RTVSPost2010PropOp49
 70
     1
102
RTVSPost2010Prop50
 90
       50
102
RTVSPost2010PropOp50
 70
     1
102
RTVSPost2010Prop51ColorIndex
 90
      256
102
RTVSPost2010Prop51ColorRGB
 90
-16777216
102
RTVSPost2010PropOp51
 70
     0
102
RTVSPost2010Prop52
140
1.0
102
RTVSPost2010PropOp52
 70
     0
102
RTVSPost2010Prop53
 90
        2
102
RTVSPost2010PropOp53
 70
     1
102
RTVSPost2010Prop54
  1
strokes_ogs.tif
102
RTVSPost2010PropOp54
 70
     1
102
RTVSPost2010Prop55
280
     0
102
RTVSPost2010PropOp55
 70
     1
102
RTVSPost2010Prop56
140
1.0
102
RTVSPost2010PropOp56
 70
     1
102
RTVSPost2010Prop57
140
1.0
102
RTVSPost2010PropOp57
 70
     1
102
RTVSPropertyOp0
 70
     1
102
RTVSPropertyOp1
 70
     1
102
RTVSPropertyOp2
 70
     1
102
RTVSPropertyOp3
 70
     1
102
RTVSPropertyOp4
 70
     1
102
RTVSPropertyOp5
 70
     1
102
RTVSPropertyOp6
 70
     1
102
RTVSPropertyOp7
 70
     1
102
RTVSPropertyOp8
 70
     1
102
RTVSPropertyOp9
 70
     1
102
RTVSPropertyOp10
 70
     1
102
RTVSPropertyOp11
 70
     1
102
RTVSPropertyOp12
 70
     1
102
RTVSPropertyOp13
 70
     1
102
RTVSPropertyOp14
 70
     1
102
RTVSPropertyOp15
 70
     1
102
RTVSPropertyOp16
 70
     1
102
RTVSPropertyOp17
 70
     1
102
RTVSPropertyOp18
 70
     1
102
RTVSPropertyOp19
 70
     1
102
RTVSPropertyOp20
 70
     1
102
RTVSPropertyOp21
 70
     1
102
RTVSPropertyOp22
 70
     1
102
RTVSPropertyOp23
 70
     1
102
RTVSPropertyOp24
 70
     1
102
RTVSPropertyOp25
 70
     1
102
RTVSPropertyOp26
 70
     1
102
RTVSPropertyOp27
 70
     1
102
RTVSPropertyOp28
 70
     1
102
RTVSPropertyOp29
 70
     1
102
RTVSPropertyOp30
 70
     1
102
RTVSPropertyOp31
 70
     1
102
RTVSPropertyOp32
 70
     1
102
RTVSPropertyOp33
 70
     1
102
RTVSPropertyOp34
 70
     1
102
RTVSPropertyOp35
 70
     1
102
RTVSPropertyOp36
 70
     1
102
RTVSPropertyOp37
 70
     1
102
RTVSPropertyOp38
 70
     1
102
RTVSPropertyOp39
 70
     1
102
RTVSPropertyOp40
 70
     1
102
RTVSPropertyOp41
 70
     1
102
RTVSPropertyOp42
 70
     1
102
RTVSPropertyOp43
 70
     1
102
RTVSPropertyOp44
 70
     1
102
RTVSPropertyOp45
 70
     1
102
RTVSPropertyOp46
 70
     1
102
RTVSPropertyOp47
 70
     1
102
RTVSPropertyOp48
 70
     1
102
RTVSPropertyOp49
 70
     1
102
RTVSPropertyOp50
 70
     1
102
RTVSPropertyOp51
 70
     0
102
RTVSPropertyOp52
 70
     0
102
RTVSPropertyOp53
 70
     1
102
RTVSPropertyOp54
 70
     1
102
RTVSPropertyOp55
 70
     1
102
RTVSPropertyOp56
 70
     1
102
RTVSPropertyOp57
 70
     1
102
RTVSPropertyOp58
 70
     1
102
RTVSPropertyOp59
 70
     1
102
RTVSPropertyOp60
 70
     1
102
RTVSPropertyOp61
 70
     1
102
RTVSPropertyOp62
 70
     1
  0
ENDSEC
  0
EOF
