  0
SECTION
  2
HEADER
  9
$ACADVER
  1
AC1018
  9
$ACADMAINTVER
 70
   104
  9
$DWGCODEPAGE
  3
ANSI_932
  9
$INSBASE
 10
0.0
 20
0.0
 30
0.0
  9
$EXTMIN
 10
-0.43733037
 20
-0.30496157
 30
0.0
  9
$EXTMAX
 10
28681.45323106
 20
20000.30524098
 30
0.0
  9
$LIMMIN
 10
0.0
 20
0.0
  9
$LIMMAX
 10
420.0
 20
330.0
  9
$ORTHOMODE
 70
     0
  9
$REGENMODE
 70
     1
  9
$FILLMODE
 70
     1
  9
$QTEXTMODE
 70
     0
  9
$MIRRTEXT
 70
     0
  9
$LTSCALE
 40
1.0
  9
$ATTMODE
 70
     1
  9
$TEXTSIZE
 40
0.2
  9
$TRACEWID
 40
0.05
  9
$TEXTSTYLE
  7
STANDARD
  9
$CLAYER
  8
0
  9
$CELTYPE
  6
ByLayer
  9
$CECOLOR
 62
   256
  9
$CELTSCALE
 40
1.0
  9
$DISPSILH
 70
     1
  9
$DIMSCALE
 40
1.0
  9
$DIMASZ
 40
0.18
  9
$DIMEXO
 40
0.0625
  9
$DIMDLI
 40
0.38
  9
$DIMRND
 40
0.0
  9
$DIMDLE
 40
0.0
  9
$DIMEXE
 40
0.18
  9
$DIMTP
 40
0.0
  9
$DIMTM
 40
0.0
  9
$DIMTXT
 40
0.18
  9
$DIMCEN
 40
0.09
  9
$DIMTSZ
 40
0.0
  9
$DIMTOL
 70
     0
  9
$DIMLIM
 70
     0
  9
$DIMTIH
 70
     1
  9
$DIMTOH
 70
     1
  9
$DIMSE1
 70
     0
  9
$DIMSE2
 70
     0
  9
$DIMTAD
 70
     0
  9
$DIMZIN
 70
     0
  9
$DIMBLK
  1

  9
$DIMASO
 70
     1
  9
$DIMSHO
 70
     0
  9
$DIMPOST
  1

  9
$DIMAPOST
  1

  9
$DIMALT
 70
     0
  9
$DIMALTD
 70
     2
  9
$DIMALTF
 40
25.4
  9
$DIMLFAC
 40
1.0
  9
$DIMTOFL
 70
     0
  9
$DIMTVP
 40
0.0
  9
$DIMTIX
 70
     0
  9
$DIMSOXD
 70
     0
  9
$DIMSAH
 70
     0
  9
$DIMBLK1
  1

  9
$DIMBLK2
  1

  9
$DIMSTYLE
  2
STANDARD
  9
$DIMCLRD
 70
     0
  9
$DIMCLRE
 70
     0
  9
$DIMCLRT
 70
     0
  9
$DIMTFAC
 40
1.0
  9
$DIMGAP
 40
0.09
  9
$DIMJUST
 70
     0
  9
$DIMSD1
 70
     0
  9
$DIMSD2
 70
     0
  9
$DIMTOLJ
 70
     1
  9
$DIMTZIN
 70
     0
  9
$DIMALTZ
 70
     0
  9
$DIMALTTZ
 70
     0
  9
$DIMUPT
 70
     0
  9
$DIMDEC
 70
     4
  9
$DIMTDEC
 70
     4
  9
$DIMALTU
 70
     2
  9
$DIMALTTD
 70
     2
  9
$DIMTXSTY
  7
STANDARD
  9
$DIMAUNIT
 70
     0
  9
$DIMADEC
 70
     0
  9
$DIMALTRND
 40
0.0
  9
$DIMAZIN
 70
     0
  9
$DIMDSEP
 70
    46
  9
$DIMATFIT
 70
     3
  9
$DIMFRAC
 70
     0
  9
$DIMLDRBLK
  1

  9
$DIMLUNIT
 70
     2
  9
$DIMLWD
 70
    -2
  9
$DIMLWE
 70
    -2
  9
$DIMTMOVE
 70
     2
  9
$LUNITS
 70
     2
  9
$LUPREC
 70
     4
  9
$SKETCHINC
 40
0.1
  9
$FILLETRAD
 40
0.0
  9
$AUNITS
 70
     0
  9
$AUPREC
 70
     0
  9
$MENU
  1
c:\acadwin\support\acad
  9
$ELEVATION
 40
0.0
  9
$PELEVATION
 40
0.0
  9
$THICKNESS
 40
0.0
  9
$LIMCHECK
 70
     0
  9
$CHAMFERA
 40
0.0
  9
$CHAMFERB
 40
0.0
  9
$CHAMFERC
 40
0.0
  9
$CHAMFERD
 40
0.0
  9
$SKPOLY
 70
     0
  9
$TDCREATE
 40
2453068.801933044
  9
$TDUCREATE
 40
2453068.426933044
  9
$TDUPDATE
 40
2457185.495964433
  9
$TDUUPDATE
 40
2457185.120964433
  9
$TDINDWG
 40
0.0616513773
  9
$TDUSRTIMER
 40
0.0616513773
  9
$USRTIMER
 70
     1
  9
$ANGBASE
 50
0.0
  9
$ANGDIR
 70
     0
  9
$PDMODE
 70
     0
  9
$PDSIZE
 40
0.0
  9
$PLINEWID
 40
0.0
  9
$SPLFRAME
 70
     0
  9
$SPLINETYPE
 70
     6
  9
$SPLINESEGS
 70
     8
  9
$HANDSEED
  5
62F
  9
$SURFTAB1
 70
     6
  9
$SURFTAB2
 70
     6
  9
$SURFTYPE
 70
     6
  9
$SURFU
 70
     6
  9
$SURFV
 70
     6
  9
$UCSBASE
  2

  9
$UCSNAME
  2

  9
$UCSORG
 10
0.0
 20
0.0
 30
0.0
  9
$UCSXDIR
 10
1.0
 20
0.0
 30
0.0
  9
$UCSYDIR
 10
0.0
 20
1.0
 30
0.0
  9
$UCSORTHOREF
  2

  9
$UCSORTHOVIEW
 70
     0
  9
$UCSORGTOP
 10
0.0
 20
0.0
 30
0.0
  9
$UCSORGBOTTOM
 10
0.0
 20
0.0
 30
0.0
  9
$UCSORGLEFT
 10
0.0
 20
0.0
 30
0.0
  9
$UCSORGRIGHT
 10
0.0
 20
0.0
 30
0.0
  9
$UCSORGFRONT
 10
0.0
 20
0.0
 30
0.0
  9
$UCSORGBACK
 10
0.0
 20
0.0
 30
0.0
  9
$PUCSBASE
  2

  9
$PUCSNAME
  2

  9
$PUCSORG
 10
0.0
 20
0.0
 30
0.0
  9
$PUCSXDIR
 10
1.0
 20
0.0
 30
0.0
  9
$PUCSYDIR
 10
0.0
 20
1.0
 30
0.0
  9
$PUCSORTHOREF
  2

  9
$PUCSORTHOVIEW
 70
     0
  9
$PUCSORGTOP
 10
0.0
 20
0.0
 30
0.0
  9
$PUCSORGBOTTOM
 10
0.0
 20
0.0
 30
0.0
  9
$PUCSORGLEFT
 10
0.0
 20
0.0
 30
0.0
  9
$PUCSORGRIGHT
 10
0.0
 20
0.0
 30
0.0
  9
$PUCSORGFRONT
 10
0.0
 20
0.0
 30
0.0
  9
$PUCSORGBACK
 10
0.0
 20
0.0
 30
0.0
  9
$USERI1
 70
     0
  9
$USERI2
 70
     0
  9
$USERI3
 70
     0
  9
$USERI4
 70
     0
  9
$USERI5
 70
     0
  9
$USERR1
 40
0.0
  9
$USERR2
 40
0.0
  9
$USERR3
 40
0.0
  9
$USERR4
 40
0.0
  9
$USERR5
 40
0.0
  9
$WORLDVIEW
 70
     1
  9
$SHADEDGE
 70
     3
  9
$SHADEDIF
 70
    70
  9
$TILEMODE
 70
     1
  9
$MAXACTVP
 70
    16
  9
$PINSBASE
 10
0.0
 20
0.0
 30
0.0
  9
$PLIMCHECK
 70
     0
  9
$PEXTMIN
 10
1.00000000E+20
 20
1.00000000E+20
 30
1.00000000E+20
  9
$PEXTMAX
 10
-1.00000000E+20
 20
-1.00000000E+20
 30
-1.00000000E+20
  9
$PLIMMIN
 10
0.0
 20
0.0
  9
$PLIMMAX
 10
12.0
 20
9.0
  9
$UNITMODE
 70
     0
  9
$VISRETAIN
 70
     0
  9
$PLINEGEN
 70
     0
  9
$PSLTSCALE
 70
     0
  9
$TREEDEPTH
 70
  3020
  9
$CMLSTYLE
  2
Standard
  9
$CMLJUST
 70
     0
  9
$CMLSCALE
 40
1.0
  9
$PROXYGRAPHICS
 70
     1
  9
$MEASUREMENT
 70
     1
  9
$CELWEIGHT
370
    -1
  9
$ENDCAPS
280
     0
  9
$JOINSTYLE
280
     0
  9
$LWDISPLAY
290
     0
  9
$INSUNITS
 70
     0
  9
$HYPERLINKBASE
  1

  9
$STYLESHEET
  1

  9
$XEDIT
290
     1
  9
$CEPSNTYPE
380
     0
  9
$PSTYLEMODE
290
     1
  9
$FINGERPRINTGUID
  2
{68EEE64F-D217-4116-A577-8689562A43AD}
  9
$VERSIONGUID
  2
{BBB669A3-2A7F-4DCF-89A4-EB3C6DBAC011}
  9
$EXTNAMES
290
     1
  9
$PSVPSCALE
 40
0.0
  9
$OLESTARTUP
290
     0
  9
$SORTENTS
280
   127
  9
$INDEXCTL
280
     0
  9
$HIDETEXT
280
     0
  9
$XCLIPFRAME
290
     0
  9
$HALOGAP
280
     0
  9
$OBSCOLOR
 70
   257
  9
$OBSLTYPE
280
     0
  9
$INTERSECTIONDISPLAY
280
     0
  9
$INTERSECTIONCOLOR
 70
   257
  9
$DIMASSOC
280
     1
  9
$PROJECTNAME
  1

  0
ENDSEC
  0
SECTION
  2
CLASSES
  0
CLASS
  1
ACDBDICTIONARYWDFLT
  2
AcDbDictionaryWithDefault
  3
ObjectDBX Classes
 90
        0
 91
        1
280
     0
281
     0
  0
CLASS
  1
MATERIAL
  2
AcDbMaterial
  3
ObjectDBX Classes
 90
     1153
 91
        3
280
     0
281
     0
  0
CLASS
  1
VISUALSTYLE
  2
AcDbVisualStyle
  3
ObjectDBX Classes
 90
     4095
 91
       24
280
     0
281
     0
  0
CLASS
  1
TABLESTYLE
  2
AcDbTableStyle
  3
ObjectDBX Classes
 90
     4095
 91
        1
280
     0
281
     0
  0
CLASS
  1
SCALE
  2
AcDbScale
  3
ObjectDBX Classes
 90
     1153
 91
       17
280
     0
281
     0
  0
CLASS
  1
MLEADERSTYLE
  2
AcDbMLeaderStyle
  3
ACDB_MLEADERSTYLE_CLASS
 90
     4095
 91
        1
280
     0
281
     0
  0
CLASS
  1
ACDBSECTIONVIEWSTYLE
  2
AcDbSectionViewStyle
  3
ObjectDBX Classes
 90
     1025
 91
        1
280
     0
281
     0
  0
CLASS
  1
ACDBDETAILVIEWSTYLE
  2
AcDbDetailViewStyle
  3
ObjectDBX Classes
 90
     1025
 91
        1
280
     0
281
     0
  0
CLASS
  1
CELLSTYLEMAP
  2
AcDbCellStyleMap
  3
ObjectDBX Classes
 90
     1152
 91
        2
280
     0
281
     0
  0
CLASS
  1
DICTIONARYVAR
  2
AcDbDictionaryVar
  3
ObjectDBX Classes
 90
        0
 91
        7
280
     0
281
     0
  0
ENDSEC
  0
SECTION
  2
TABLES
  0
TABLE
  2
VPORT
  5
4E7
330
0
100
AcDbSymbolTable
 70
     1
  0
VPORT
  5
551
330
4E7
100
AcDbSymbolTableRecord
100
AcDbViewportTableRecord
  2
*ACTIVE
 70
     0
 10
0.0
 20
0.0
 11
1.0
 21
1.0
 12
14340.50795035
 22
10000.00013971
 13
0.0
 23
0.0
 14
1.0
 24
1.0
 15
10.0
 25
10.0
 16
0.0
 26
0.0
 36
1.0
 17
0.0
 27
0.0
 37
0.0
 40
21503.30364591
 41
1.34178905
 42
50.0
 43
0.0
 44
0.0
 50
0.0
 51
0.0
 71
     0
 72
   100
 73
     1
 74
     0
 75
     0
 76
     0
 77
     0
 78
     0
281
     0
 65
     1
110
0.0
120
0.0
130
0.0
111
1.0
121
0.0
131
0.0
112
0.0
122
1.0
132
0.0
 79
     0
146
0.0
1001
ACAD_NAV_VCDISPLAY
1070
     1
  0
ENDTAB
  0
TABLE
  2
LTYPE
  5
4E4
330
0
100
AcDbSymbolTable
 70
     2
  0
LTYPE
  5
4F2
330
4E4
100
AcDbSymbolTableRecord
100
AcDbLinetypeTableRecord
  2
ByBlock
 70
     0
  3

 72
    65
 73
     0
 40
0.0
  0
LTYPE
  5
4F3
330
4E4
100
AcDbSymbolTableRecord
100
AcDbLinetypeTableRecord
  2
ByLayer
 70
     0
  3

 72
    65
 73
     0
 40
0.0
  0
LTYPE
  5
4F4
330
4E4
100
AcDbSymbolTableRecord
100
AcDbLinetypeTableRecord
  2
CONTINUOUS
 70
     0
  3
Solid line
 72
    65
 73
     0
 40
0.0
  0
LTYPE
  5
503
330
4E4
100
AcDbSymbolTableRecord
100
AcDbLinetypeTableRecord
  2
CENTER
 70
     0
  3
____ _ ____ _ ____ _ ____ _ ____ _ ____ _ ____ 
 72
    65
 73
     4
 40
2.0
 49
1.25
 74
     0
 49
-0.25
 74
     0
 49
0.25
 74
     0
 49
-0.25
 74
     0
  0
ENDTAB
  0
TABLE
  2
LAYER
  5
4E1
330
0
100
AcDbSymbolTable
 70
    11
  0
LAYER
  5
4EF
330
4E1
100
AcDbSymbolTableRecord
100
AcDbLayerTableRecord
  2
0
 70
     0
 62
     7
  6
CONTINUOUS
370
    -3
390
4EE
  0
LAYER
  5
506
330
4E1
100
AcDbSymbolTableRecord
100
AcDbLayerTableRecord
  2
YKK_IN
 70
     0
 62
     1
  6
CONTINUOUS
370
    -3
390
4EE
  0
LAYER
  5
507
330
4E1
100
AcDbSymbolTableRecord
100
AcDbLayerTableRecord
  2
YKK_F1
 70
     0
 62
     7
  6
CONTINUOUS
370
    -3
390
4EE
  0
LAYER
  5
508
330
4E1
100
AcDbSymbolTableRecord
100
AcDbLayerTableRecord
  2
YKK_N1
 70
     0
 62
     2
  6
CONTINUOUS
370
    -3
390
4EE
  0
LAYER
  5
509
330
4E1
100
AcDbSymbolTableRecord
100
AcDbLayerTableRecord
  2
YKK_Z1
 70
     0
 62
     7
  6
CONTINUOUS
370
    -3
390
4EE
  0
LAYER
  5
50A
330
4E1
100
AcDbSymbolTableRecord
100
AcDbLayerTableRecord
  2
YKK_A1
 70
     0
 62
     4
  6
CONTINUOUS
370
    -3
390
4EE
  0
LAYER
  5
50B
330
4E1
100
AcDbSymbolTableRecord
100
AcDbLayerTableRecord
  2
YKK_A2
 70
     0
 62
     3
  6
CONTINUOUS
370
    -3
390
4EE
  0
LAYER
  5
50C
330
4E1
100
AcDbSymbolTableRecord
100
AcDbLayerTableRecord
  2
YKK_B1
 70
     0
 62
     4
  6
CONTINUOUS
370
    -3
390
4EE
  0
LAYER
  5
50D
330
4E1
100
AcDbSymbolTableRecord
100
AcDbLayerTableRecord
  2
YKK_C1
 70
     0
 62
     4
  6
CONTINUOUS
370
    -3
390
4EE
  0
LAYER
  5
50E
330
4E1
100
AcDbSymbolTableRecord
100
AcDbLayerTableRecord
  2
YKK_B2
 70
     0
 62
     5
  6
CONTINUOUS
370
    -3
390
4EE
  0
LAYER
  5
50F
330
4E1
100
AcDbSymbolTableRecord
100
AcDbLayerTableRecord
  2
YKK_C2
 70
     0
 62
     5
  6
CONTINUOUS
370
    -3
390
4EE
  0
ENDTAB
  0
TABLE
  2
STYLE
  5
4E2
330
0
100
AcDbSymbolTable
 70
     3
  0
STYLE
  5
4F0
330
4E2
100
AcDbSymbolTableRecord
100
AcDbTextStyleTableRecord
  2
STANDARD
 70
     0
 40
0.0
 41
1.0
 50
0.0
 71
     0
 42
0.2
  3
txt.shx
  4

  0
STYLE
  5
501
330
4E2
100
AcDbSymbolTableRecord
100
AcDbTextStyleTableRecord
  2
EXTFONT
 70
     0
 40
60.0
 41
1.0
 50
0.0
 71
     0
 42
60.0
  3
txt.shx
  4
EXTFONT
  0
STYLE
  5
502
330
4E2
100
AcDbSymbolTableRecord
100
AcDbTextStyleTableRecord
  2
YKK_SGSTYLE1
 70
     0
 40
0.0
 41
0.8
 50
0.0
 71
     0
 42
60.0
  3
ROMANS.SHX
  4
EXTFONT.SHX
  0
ENDTAB
  0
TABLE
  2
VIEW
  5
4E5
330
0
100
AcDbSymbolTable
 70
     0
  0
ENDTAB
  0
TABLE
  2
UCS
  5
4E6
330
0
100
AcDbSymbolTable
 70
     0
  0
ENDTAB
  0
TABLE
  2
APPID
  5
4E8
330
0
100
AcDbSymbolTable
 70
     5
  0
APPID
  5
4F1
330
4E8
100
AcDbSymbolTableRecord
100
AcDbRegAppTableRecord
  2
ACAD
 70
     0
  0
APPID
  5
5DA
330
4E8
100
AcDbSymbolTableRecord
100
AcDbRegAppTableRecord
  2
ACAD_MLEADERVER
 70
     0
  0
APPID
  5
5EF
330
4E8
100
AcDbSymbolTableRecord
100
AcDbRegAppTableRecord
  2
ACAD_PSEXT
 70
     0
  0
APPID
  5
5F0
330
4E8
100
AcDbSymbolTableRecord
100
AcDbRegAppTableRecord
  2
ACAD_NAV_VCDISPLAY
 70
     0
  0
APPID
  5
5F1
330
4E8
100
AcDbSymbolTableRecord
100
AcDbRegAppTableRecord
  2
YKK_AP_LOCKLAYER
 70
     0
  0
ENDTAB
  0
TABLE
  2
DIMSTYLE
  5
4E9
330
0
100
AcDbSymbolTable
 70
     1
100
AcDbDimStyleTable
 71
     0
  0
DIMSTYLE
105
505
330
4E9
100
AcDbSymbolTableRecord
100
AcDbDimStyleTableRecord
  2
STANDARD
 70
     0
279
     2
340
4F0
  0
ENDTAB
  0
TABLE
  2
BLOCK_RECORD
  5
4E0
330
0
100
AcDbSymbolTable
 70
     0
  0
BLOCK_RECORD
  5
4FD
102
{ACAD_XDICTIONARY
360
519
102
}
330
4E0
100
AcDbSymbolTableRecord
100
AcDbBlockTableRecord
  2
*Model_Space
340
500
  0
BLOCK_RECORD
  5
4F9
102
{ACAD_XDICTIONARY
360
51B
102
}
330
4E0
100
AcDbSymbolTableRecord
100
AcDbBlockTableRecord
  2
*Paper_Space
340
4FC
  0
ENDTAB
  0
ENDSEC
  0
SECTION
  2
BLOCKS
  0
BLOCK
  5
512
330
4FD
100
AcDbEntity
  8
0
100
AcDbBlockBegin
  2
*Model_Space
 70
     0
 10
0.0
 20
0.0
 30
0.0
  3
*Model_Space
  1

  0
ENDBLK
  5
513
330
4FD
100
AcDbEntity
  8
0
100
AcDbBlockEnd
  0
BLOCK
  5
510
330
4F9
100
AcDbEntity
 67
     1
  8
0
100
AcDbBlockBegin
  2
*Paper_Space
 70
     0
 10
0.0
 20
0.0
 30
0.0
  3
*Paper_Space
  1

  0
ENDBLK
  5
511
330
4F9
100
AcDbEntity
 67
     1
  8
0
100
AcDbBlockEnd
  0
ENDSEC
  0
SECTION
  2
ENTITIES
  0
LINE
  5
1D
330
4FD
100
AcDbEntity
  8
YKK_F1
100
AcDbLine
 10
0.0
 20
19500.0
 30
0.0
 11
28500.0
 21
19500.0
 31
0.0
  0
LINE
  5
1F
330
4FD
100
AcDbEntity
  8
YKK_F1
100
AcDbLine
 10
0.0
 20
20000.0
 30
0.0
 11
28681.0155
 21
20000.0
 31
0.0
  0
LINE
  5
20
330
4FD
100
AcDbEntity
  8
YKK_F1
100
AcDbLine
 10
0.0
 20
0.0
 30
0.0
 11
28681.0155
 21
0.0
 31
0.0
  0
LINE
  5
21
330
4FD
100
AcDbEntity
  8
YKK_F1
100
AcDbLine
 10
0.0
 20
19050.0
 30
0.0
 11
28500.0
 21
19050.0
 31
0.0
  0
LINE
  5
22
330
4FD
100
AcDbEntity
  8
YKK_F1
100
AcDbLine
 10
0.0
 20
18600.0
 30
0.0
 11
28500.0
 21
18600.0
 31
0.0
  0
LINE
  5
23
330
4FD
100
AcDbEntity
  8
YKK_F1
100
AcDbLine
 10
0.0
 20
13000.0
 30
0.0
 11
28500.0
 21
13000.0
 31
0.0
  0
LINE
  5
24
330
4FD
100
AcDbEntity
  8
YKK_F1
100
AcDbLine
 10
0.0
 20
6500.0
 30
0.0
 11
28500.0
 21
6500.0
 31
0.0
  0
LINE
  5
25
330
4FD
100
AcDbEntity
  8
YKK_F1
100
AcDbLine
 10
0.0
 20
12550.0
 30
0.0
 11
28500.0
 21
12550.0
 31
0.0
  0
LINE
  5
26
330
4FD
100
AcDbEntity
  8
YKK_F1
100
AcDbLine
 10
0.0
 20
12100.0
 30
0.0
 11
28500.0
 21
12100.0
 31
0.0
  0
LINE
  5
27
330
4FD
100
AcDbEntity
  8
YKK_F1
100
AcDbLine
 10
0.0
 20
6050.0
 30
0.0
 11
28500.0
 21
6050.0
 31
0.0
  0
LINE
  5
28
330
4FD
100
AcDbEntity
  8
YKK_F1
100
AcDbLine
 10
0.0
 20
5600.0
 30
0.0
 11
28500.0
 21
5600.0
 31
0.0
  0
LINE
  5
29
330
4FD
100
AcDbEntity
  8
YKK_F1
100
AcDbLine
 10
0.0
 20
0.0
 30
0.0
 11
0.0
 21
20000.0
 31
0.0
  0
LINE
  5
2A
330
4FD
100
AcDbEntity
  8
YKK_F1
100
AcDbLine
 10
11400.0
 20
0.0
 30
0.0
 11
11400.0
 21
19500.0
 31
0.0
  0
LINE
  5
2B
330
4FD
100
AcDbEntity
  8
YKK_F1
100
AcDbLine
 10
5700.0
 20
0.0
 30
0.0
 11
5700.0
 21
19500.0
 31
0.0
  0
POINT
  5
2C
330
4FD
100
AcDbEntity
  8
YKK_C2
100
AcDbPoint
 10
0.0
 20
0.0
 30
0.0
  0
POINT
  5
2E
330
4FD
100
AcDbEntity
  8
YKK_B2
100
AcDbPoint
 10
0.0
 20
0.0
 30
0.0
  0
POINT
  5
30
330
4FD
100
AcDbEntity
  8
YKK_C1
100
AcDbPoint
 10
0.0
 20
0.0
 30
0.0
  0
POINT
  5
32
330
4FD
100
AcDbEntity
  8
YKK_B1
100
AcDbPoint
 10
0.0
 20
0.0
 30
0.0
  0
POINT
  5
34
330
4FD
100
AcDbEntity
  8
YKK_A2
100
AcDbPoint
 10
0.0
 20
0.0
 30
0.0
  0
POINT
  5
36
330
4FD
100
AcDbEntity
  8
YKK_A1
100
AcDbPoint
 10
0.0
 20
0.0
 30
0.0
  0
POINT
  5
38
330
4FD
100
AcDbEntity
  8
YKK_Z1
100
AcDbPoint
 10
0.0
 20
0.0
 30
0.0
  0
POINT
  5
3A
330
4FD
100
AcDbEntity
  8
YKK_N1
100
AcDbPoint
 10
0.0
 20
0.0
 30
0.0
  0
POINT
  5
3C
330
4FD
100
AcDbEntity
  8
YKK_F1
100
AcDbPoint
 10
0.0
 20
0.0
 30
0.0
  0
POINT
  5
3D
330
4FD
100
AcDbEntity
  8
YKK_IN
100
AcDbPoint
 10
0.0
 20
0.0
 30
0.0
  0
TEXT
  5
3F
330
4FD
100
AcDbEntity
  8
0
100
AcDbText
 10
500.0
 20
19625.0
 30
0.0
 40
250.0
  1
ＦＲＳ５ＦＸ２１　ＳＹＳＴＥＭＡ５２０ｅ　ＲＣ枠　ＦＩＸ窓
  7
EXTFONT
100
AcDbText
  0
LINE
  5
41
330
4FD
100
AcDbEntity
  8
YKK_N1
  6
Continuous
100
AcDbLine
 10
4642.5000321
 20
15615.6905962
 30
0.0
 11
4642.5000321
 21
18015.6905962
 31
0.0
  0
LINE
  5
42
330
4FD
100
AcDbEntity
  8
YKK_Z1
  6
Continuous
100
AcDbLine
 10
3877.50015717
 20
15615.69058286
 30
0.0
 11
3877.50015717
 21
17390.69058286
 31
0.0
  0
LINE
  5
43
330
4FD
100
AcDbEntity
  8
YKK_N1
  6
Continuous
100
AcDbLine
 10
4442.5000321
 20
15615.6905962
 30
0.0
 11
4442.5000321
 21
17515.6905962
 31
0.0
  0
LINE
  5
44
330
4FD
100
AcDbEntity
  8
YKK_C1
100
AcDbLine
 10
3987.50005832
 20
15725.69066551
 30
0.0
 11
3987.50005832
 21
17530.69063953
 31
0.0
  0
LINE
  5
45
330
4FD
100
AcDbEntity
  8
YKK_C1
100
AcDbLine
 10
3963.50005832
 20
17530.69063953
 30
0.0
 11
3963.50005832
 21
15725.69050022
 31
0.0
  0
LINE
  5
46
330
4FD
100
AcDbEntity
  8
YKK_C1
100
AcDbLine
 10
4042.50002781
 20
17505.69063953
 30
0.0
 11
4042.50002781
 21
15625.69058286
 31
0.0
  0
LINE
  5
47
330
4FD
100
AcDbEntity
  8
YKK_C1
100
AcDbLine
 10
3942.50002755
 20
17505.69063953
 30
0.0
 11
3942.50002781
 21
15750.69058286
 31
0.0
  0
LINE
  5
48
330
4FD
100
AcDbEntity
  8
YKK_N1
  6
Continuous
100
AcDbLine
 10
3142.5000321
 20
15615.6905962
 30
0.0
 11
3142.5000321
 21
18015.6905962
 31
0.0
  0
LINE
  5
49
330
4FD
100
AcDbEntity
  8
YKK_A1
100
AcDbLine
 10
1007.49999832
 20
18025.6905962
 30
0.0
 11
1007.49999832
 21
15615.6907475
 31
0.0
  0
LINE
  5
4A
330
4FD
100
AcDbEntity
  8
YKK_A1
100
AcDbLine
 10
997.5
 20
18025.6905962
 30
0.0
 11
997.5
 21
15615.6907475
 31
0.0
  0
LINE
  5
4B
330
4FD
100
AcDbEntity
  8
YKK_A1
100
AcDbLine
 10
1779.99993872
 20
18025.6905962
 30
0.0
 11
1779.99993872
 21
15615.6907475
 31
0.0
  0
LINE
  5
4C
330
4FD
100
AcDbEntity
  8
YKK_A1
100
AcDbLine
 10
1834.99993544
 20
18025.6905962
 30
0.0
 11
1834.99993544
 21
15615.6907475
 31
0.0
  0
LINE
  5
4D
330
4FD
100
AcDbEntity
  8
YKK_A1
100
AcDbLine
 10
2617.49987865
 20
18025.6905962
 30
0.0
 11
2617.49987865
 21
15615.6907475
 31
0.0
  0
LINE
  5
4E
330
4FD
100
AcDbEntity
  8
YKK_A1
100
AcDbLine
 10
2607.49987584
 20
15615.6907475
 30
0.0
 11
2607.49987584
 21
18025.6905962
 31
0.0
  0
LINE
  5
4F
330
4FD
100
AcDbEntity
  8
YKK_N1
  6
Continuous
100
AcDbLine
 10
2942.5000321
 20
15615.6905962
 30
0.0
 11
2942.5000321
 21
17515.6905962
 31
0.0
  0
LINE
  5
50
330
4FD
100
AcDbEntity
  8
YKK_Z1
  6
Continuous
100
AcDbLine
 10
927.49999654
 20
13922.5
 30
0.0
 11
907.49999307
 21
13942.5
 31
0.0
  0
LINE
  5
51
330
4FD
100
AcDbEntity
  8
YKK_Z1
  6
Continuous
100
AcDbLine
 10
927.50001039
 20
13942.5
 30
0.0
 11
907.50002078
 21
13922.5
 31
0.0
  0
LINE
  5
52
330
4FD
100
AcDbEntity
  8
YKK_Z1
  6
Continuous
100
AcDbLine
 10
947.5
 20
13985.51530285
 30
0.0
 11
904.4847195
 21
13942.5
 31
0.0
  0
LINE
  5
53
330
4FD
100
AcDbEntity
  8
YKK_Z1
  6
Continuous
100
AcDbLine
 10
947.5
 20
13977.03002074
 30
0.0
 11
912.9699972
 21
13942.5
 31
0.0
  0
LINE
  5
54
330
4FD
100
AcDbEntity
  8
YKK_Z1
  6
Continuous
100
AcDbLine
 10
977.5
 20
14122.5
 30
0.0
 11
607.5
 21
14122.5
 31
0.0
  0
LINE
  5
55
330
4FD
100
AcDbEntity
  8
YKK_Z1
  6
CENTER
100
AcDbLine
 10
962.5
 20
14032.5
 30
0.0
 11
607.5
 21
14032.5
 31
0.0
  0
LINE
  5
57
330
4FD
100
AcDbEntity
  8
YKK_Z1
  6
Continuous
100
AcDbLine
 10
992.5
 20
14137.5
 30
0.0
 11
607.5
 21
14137.5
 31
0.0
  0
LINE
  5
58
330
4FD
100
AcDbEntity
  8
YKK_Z1
  6
Continuous
100
AcDbLine
 10
984.5
 20
14129.5
 30
0.0
 11
607.5
 21
14129.5
 31
0.0
  0
LINE
  5
59
330
4FD
100
AcDbEntity
  8
YKK_Z1
  6
Continuous
100
AcDbLine
 10
607.5
 20
13942.5
 30
0.0
 11
947.5
 21
13942.5
 31
0.0
  0
LINE
  5
5A
330
4FD
100
AcDbEntity
  8
YKK_Z1
  6
Continuous
100
AcDbLine
 10
947.5
 20
13922.5
 30
0.0
 11
607.5
 21
13922.5
 31
0.0
  0
TEXT
  5
5B
330
4FD
100
AcDbEntity
  8
YKK_N1
  6
Continuous
100
AcDbText
 10
842.5
 20
13384.5
 30
0.0
 40
60.0
  1
45
100
AcDbText
  0
LINE
  5
5C
330
4FD
100
AcDbEntity
  8
YKK_Z1
  6
Continuous
100
AcDbLine
 10
647.49994804
 20
13922.5
 30
0.0
 11
627.49994457
 21
13942.5
 31
0.0
  0
LINE
  5
5D
330
4FD
100
AcDbEntity
  8
YKK_Z1
  6
Continuous
100
AcDbLine
 10
647.50015588
 20
13942.5
 30
0.0
 11
627.50016628
 21
13922.5
 31
0.0
  0
LINE
  5
5E
330
4FD
100
AcDbEntity
  8
YKK_Z1
  6
Continuous
100
AcDbLine
 10
787.49990647
 20
14122.5
 30
0.0
 11
607.5
 21
13942.5
 31
0.0
  0
LINE
  5
5F
330
4FD
100
AcDbEntity
  8
YKK_Z1
  6
Continuous
100
AcDbLine
 10
795.98518417
 20
14122.5
 30
0.0
 11
615.9852777
 21
13942.5
 31
0.0
  0
LINE
  5
60
330
4FD
100
AcDbEntity
  8
YKK_Z1
  6
Continuous
100
AcDbLine
 10
607.50017667
 20
13942.5
 30
0.0
 11
607.5
 21
13942.49982333
 31
0.0
  0
LINE
  5
61
330
4FD
100
AcDbEntity
  8
YKK_Z1
  6
Continuous
100
AcDbLine
 10
627.49994457
 20
13922.5
 30
0.0
 11
607.5
 21
13942.49994111
 31
0.0
  0
LINE
  5
62
330
4FD
100
AcDbEntity
  8
YKK_Z1
  6
Continuous
100
AcDbLine
 10
627.50016628
 20
13942.5
 30
0.0
 11
607.50017667
 21
13922.5
 31
0.0
  0
LINE
  5
63
330
4FD
100
AcDbEntity
  8
YKK_Z1
  6
Continuous
100
AcDbLine
 10
892.5
 20
14137.5
 30
0.0
 11
892.5
 21
14129.5
 31
0.0
  0
LINE
  5
64
330
4FD
100
AcDbEntity
  8
YKK_Z1
  6
Continuous
100
AcDbLine
 10
882.5
 20
14137.5
 30
0.0
 11
882.5
 21
14129.5
 31
0.0
  0
LINE
  5
65
330
4FD
100
AcDbEntity
  8
YKK_Z1
  6
Continuous
100
AcDbLine
 10
887.49998961
 20
13922.5
 30
0.0
 11
867.49998614
 21
13942.5
 31
0.0
  0
LINE
  5
66
330
4FD
100
AcDbEntity
  8
YKK_Z1
  6
Continuous
100
AcDbLine
 10
887.50003118
 20
13942.5
 30
0.0
 11
867.50004157
 21
13922.5
 31
0.0
  0
LINE
  5
67
330
4FD
100
AcDbEntity
  8
YKK_Z1
  6
Continuous
100
AcDbLine
 10
907.49999307
 20
13922.5
 30
0.0
 11
887.49998961
 21
13942.5
 31
0.0
  0
LINE
  5
68
330
4FD
100
AcDbEntity
  8
YKK_Z1
  6
Continuous
100
AcDbLine
 10
907.50002078
 20
13942.5
 30
0.0
 11
887.50003118
 21
13922.5
 31
0.0
  0
LINE
  5
69
330
4FD
100
AcDbEntity
  8
YKK_Z1
  6
Continuous
100
AcDbLine
 10
847.49998268
 20
13922.5
 30
0.0
 11
827.49997922
 21
13942.5
 31
0.0
  0
LINE
  5
6A
330
4FD
100
AcDbEntity
  8
YKK_Z1
  6
Continuous
100
AcDbLine
 10
847.50005196
 20
13942.5
 30
0.0
 11
827.50006235
 21
13922.5
 31
0.0
  0
LINE
  5
6B
330
4FD
100
AcDbEntity
  8
YKK_Z1
  6
Continuous
100
AcDbLine
 10
827.49997922
 20
13922.5
 30
0.0
 11
807.49997575
 21
13942.5
 31
0.0
  0
LINE
  5
6C
330
4FD
100
AcDbEntity
  8
YKK_Z1
  6
Continuous
100
AcDbLine
 10
827.50006235
 20
13942.5
 30
0.0
 11
807.50007275
 21
13922.5
 31
0.0
  0
LINE
  5
6D
330
4FD
100
AcDbEntity
  8
YKK_Z1
  6
Continuous
100
AcDbLine
 10
672.5
 20
14137.5
 30
0.0
 11
672.5
 21
14129.5
 31
0.0
  0
LINE
  5
6E
330
4FD
100
AcDbEntity
  8
YKK_Z1
  6
Continuous
100
AcDbLine
 10
662.5
 20
14137.5
 30
0.0
 11
662.5
 21
14129.5
 31
0.0
  0
LINE
  5
6F
330
4FD
100
AcDbEntity
  8
YKK_Z1
  6
Continuous
100
AcDbLine
 10
782.5
 20
14137.5
 30
0.0
 11
782.5
 21
14129.5
 31
0.0
  0
LINE
  5
70
330
4FD
100
AcDbEntity
  8
YKK_Z1
  6
Continuous
100
AcDbLine
 10
772.5
 20
14137.5
 30
0.0
 11
772.5
 21
14129.5
 31
0.0
  0
LINE
  5
71
330
4FD
100
AcDbEntity
  8
YKK_Z1
  6
Continuous
100
AcDbLine
 10
707.49995843
 20
13922.5
 30
0.0
 11
687.49995497
 21
13942.5
 31
0.0
  0
LINE
  5
72
330
4FD
100
AcDbEntity
  8
YKK_Z1
  6
Continuous
100
AcDbLine
 10
707.50012471
 20
13942.5
 30
0.0
 11
687.5001351
 21
13922.5
 31
0.0
  0
LINE
  5
73
330
4FD
100
AcDbEntity
  8
YKK_Z1
  6
Continuous
100
AcDbLine
 10
687.49995497
 20
13922.5
 30
0.0
 11
667.4999515
 21
13942.5
 31
0.0
  0
LINE
  5
74
330
4FD
100
AcDbEntity
  8
YKK_Z1
  6
Continuous
100
AcDbLine
 10
667.4999515
 20
13922.5
 30
0.0
 11
647.49994804
 21
13942.5
 31
0.0
  0
LINE
  5
75
330
4FD
100
AcDbEntity
  8
YKK_Z1
  6
Continuous
100
AcDbLine
 10
687.5001351
 20
13942.5
 30
0.0
 11
667.50014549
 21
13922.5
 31
0.0
  0
LINE
  5
76
330
4FD
100
AcDbEntity
  8
YKK_Z1
  6
Continuous
100
AcDbLine
 10
667.50014549
 20
13942.5
 30
0.0
 11
647.50015588
 21
13922.5
 31
0.0
  0
LINE
  5
77
330
4FD
100
AcDbEntity
  8
YKK_Z1
  6
Continuous
100
AcDbLine
 10
767.49996882
 20
13922.5
 30
0.0
 11
747.49996536
 21
13942.5
 31
0.0
  0
LINE
  5
78
330
4FD
100
AcDbEntity
  8
YKK_Z1
  6
Continuous
100
AcDbLine
 10
767.50009353
 20
13942.5
 30
0.0
 11
747.50010392
 21
13922.5
 31
0.0
  0
LINE
  5
79
330
4FD
100
AcDbEntity
  8
YKK_Z1
  6
Continuous
100
AcDbLine
 10
747.49996536
 20
13922.5
 30
0.0
 11
727.49996189
 21
13942.5
 31
0.0
  0
LINE
  5
7A
330
4FD
100
AcDbEntity
  8
YKK_Z1
  6
Continuous
100
AcDbLine
 10
727.49996189
 20
13922.5
 30
0.0
 11
707.49995843
 21
13942.5
 31
0.0
  0
LINE
  5
7B
330
4FD
100
AcDbEntity
  8
YKK_Z1
  6
Continuous
100
AcDbLine
 10
747.50010392
 20
13942.5
 30
0.0
 11
727.50011432
 21
13922.5
 31
0.0
  0
LINE
  5
7C
330
4FD
100
AcDbEntity
  8
YKK_Z1
  6
Continuous
100
AcDbLine
 10
727.50011432
 20
13942.5
 30
0.0
 11
707.50012471
 21
13922.5
 31
0.0
  0
LINE
  5
7D
330
4FD
100
AcDbEntity
  8
YKK_Z1
  6
Continuous
100
AcDbLine
 10
787.49997229
 20
13922.5
 30
0.0
 11
767.49996882
 21
13942.5
 31
0.0
  0
LINE
  5
7E
330
4FD
100
AcDbEntity
  8
YKK_Z1
  6
Continuous
100
AcDbLine
 10
787.50008314
 20
13942.5
 30
0.0
 11
767.50009353
 21
13922.5
 31
0.0
  0
LINE
  5
7F
330
4FD
100
AcDbEntity
  8
YKK_Z1
  6
Continuous
100
AcDbLine
 10
815.78416547
 20
14122.5
 30
0.0
 11
635.784259
 21
13942.5
 31
0.0
  0
LINE
  5
80
330
4FD
100
AcDbEntity
  8
YKK_Z1
  6
Continuous
100
AcDbLine
 10
807.49997575
 20
13922.5
 30
0.0
 11
787.49997229
 21
13942.5
 31
0.0
  0
LINE
  5
81
330
4FD
100
AcDbEntity
  8
YKK_Z1
  6
Continuous
100
AcDbLine
 10
807.50007275
 20
13942.5
 30
0.0
 11
787.50008314
 21
13922.5
 31
0.0
  0
LINE
  5
82
330
4FD
100
AcDbEntity
  8
YKK_Z1
  6
Continuous
100
AcDbLine
 10
867.49998614
 20
13922.5
 30
0.0
 11
847.49998268
 21
13942.5
 31
0.0
  0
LINE
  5
83
330
4FD
100
AcDbEntity
  8
YKK_Z1
  6
Continuous
100
AcDbLine
 10
867.50004157
 20
13942.5
 30
0.0
 11
847.50005196
 21
13922.5
 31
0.0
  0
LINE
  5
84
330
4FD
100
AcDbEntity
  8
YKK_Z1
  6
CENTER
100
AcDbLine
 10
2887.59697923
 20
15615.69058286
 30
0.0
 11
3387.59697923
 21
15615.69058286
 31
0.0
  0
TEXT
  5
85
330
4FD
100
AcDbEntity
  8
YKK_N1
  6
Continuous
100
AcDbText
 10
2128.07246465
 20
14112.50122352
 30
0.0
 40
60.0
  1
70
 50
90.0
100
AcDbText
  0
LINE
  5
86
330
4FD
100
AcDbEntity
  8
YKK_B1
100
AcDbLine
 10
2622.49959636
 20
14027.5000023
 30
0.0
 11
1819.99993872
 21
14027.5000023
 31
0.0
  0
LINE
  5
87
330
4FD
100
AcDbEntity
  8
YKK_B1
100
AcDbLine
 10
1819.99993872
 20
14051.5000023
 30
0.0
 11
2622.49975159
 21
14051.5000023
 31
0.0
  0
LINE
  5
88
330
4FD
100
AcDbEntity
  8
YKK_N1
  6
Continuous
100
AcDbLine
 10
2240.07246465
 20
13972.49998694
 30
0.0
 11
2015.07246465
 21
13972.49998694
 31
0.0
  0
LINE
  5
89
330
4FD
100
AcDbEntity
  8
YKK_B1
100
AcDbLine
 10
1844.99993872
 20
14002.5000023
 30
0.0
 11
2597.49987865
 21
14002.5000023
 31
0.0
  0
LINE
  5
8A
330
4FD
100
AcDbEntity
  8
YKK_B1
100
AcDbLine
 10
1844.99993872
 20
14072.49998694
 30
0.0
 11
2597.49987865
 21
14072.49998694
 31
0.0
  0
TEXT
  5
8B
330
4FD
100
AcDbEntity
  8
YKK_N1
  6
Continuous
100
AcDbText
 10
2074.68531898
 20
13584.5
 30
0.0
 40
60.0
  1
772.5
100
AcDbText
  0
LINE
  5
8C
330
4FD
100
AcDbEntity
  8
YKK_N1
  6
Continuous
100
AcDbLine
 10
1835.0
 20
13572.5
 30
0.0
 11
2607.5
 21
13572.5
 31
0.0
  0
LINE
  5
8D
330
4FD
100
AcDbEntity
  8
YKK_N1
  6
Continuous
100
AcDbLine
 10
1007.5
 20
13372.5
 30
0.0
 11
2607.5
 21
13372.5
 31
0.0
  0
LINE
  5
8E
330
4FD
100
AcDbEntity
  8
YKK_N1
  6
Continuous
100
AcDbLine
 10
1835.0
 20
13912.5
 30
0.0
 11
1835.0
 21
13572.5
 31
0.0
  0
LINE
  5
8F
330
4FD
100
AcDbEntity
  8
YKK_N1
  6
Continuous
100
AcDbLine
 10
1780.0
 20
13912.5
 30
0.0
 11
1780.0
 21
13572.5
 31
0.0
  0
LINE
  5
92
330
4FD
100
AcDbEntity
  8
YKK_N1
  6
Continuous
100
AcDbLine
 10
1007.5
 20
13912.5
 30
0.0
 11
1007.5
 21
13372.5
 31
0.0
  0
LINE
  5
93
330
4FD
100
AcDbEntity
  8
YKK_N1
  6
Continuous
100
AcDbLine
 10
962.5
 20
13912.5
 30
0.0
 11
962.5
 21
13372.5
 31
0.0
  0
LINE
  5
94
330
4FD
100
AcDbEntity
  8
YKK_N1
  6
Continuous
100
AcDbLine
 10
1007.5
 20
13572.5
 30
0.0
 11
1780.0
 21
13572.5
 31
0.0
  0
CIRCLE
  5
95
330
4FD
100
AcDbEntity
  8
YKK_N1
100
AcDbCircle
 10
962.5
 20
13372.5
 30
0.0
 40
10.0
  0
CIRCLE
  5
96
330
4FD
100
AcDbEntity
  8
YKK_N1
100
AcDbCircle
 10
962.5
 20
13372.5
 30
0.0
 40
6.5
  0
LINE
  5
97
330
4FD
100
AcDbEntity
  8
YKK_N1
  6
Continuous
100
AcDbLine
 10
1094.10254038
 20
13422.5
 30
0.0
 11
1094.10254038
 21
13322.5
 31
0.0
  0
LINE
  5
98
330
4FD
100
AcDbEntity
  8
YKK_N1
  6
Continuous
100
AcDbLine
 10
962.5
 20
13372.5
 30
0.0
 11
1007.5
 21
13372.5
 31
0.0
  0
LINE
  5
99
330
4FD
100
AcDbEntity
  8
YKK_N1
  6
Continuous
100
AcDbLine
 10
1007.5
 20
13372.5
 30
0.0
 11
1094.10254038
 21
13322.5
 31
0.0
  0
LINE
  5
9A
330
4FD
100
AcDbEntity
  8
YKK_N1
  6
Continuous
100
AcDbLine
 10
1094.10254038
 20
13422.5
 30
0.0
 11
1007.5
 21
13372.5
 31
0.0
  0
CIRCLE
  5
9B
330
4FD
100
AcDbEntity
  8
YKK_N1
100
AcDbCircle
 10
1007.5
 20
13572.5
 30
0.0
 40
10.0
  0
CIRCLE
  5
9C
330
4FD
100
AcDbEntity
  8
YKK_N1
100
AcDbCircle
 10
1007.5
 20
13572.5
 30
0.0
 40
6.5
  0
TEXT
  5
9D
330
4FD
100
AcDbEntity
  8
YKK_N1
  6
Continuous
100
AcDbText
 10
1253.96429674
 20
13584.5
 30
0.0
 40
60.0
  1
772.5
100
AcDbText
  0
TEXT
  5
9E
330
4FD
100
AcDbEntity
  8
YKK_N1
  6
Continuous
100
AcDbText
 10
1749.67198227
 20
13497.71520307
 30
0.0
 40
60.0
  1
55
100
AcDbText
  0
TEXT
  5
9F
330
4FD
100
AcDbEntity
  8
YKK_N1
  6
Continuous
100
AcDbText
 10
1606.04720169
 20
13384.5
 30
0.0
 40
60.0
  1
W=1600
100
AcDbText
  0
CIRCLE
  5
A0
330
4FD
100
AcDbEntity
  8
YKK_N1
100
AcDbCircle
 10
1780.0
 20
13572.5
 30
0.0
 40
10.0
  0
LINE
  5
A1
330
4FD
100
AcDbEntity
  8
YKK_N1
100
AcDbLine
 10
1835.0
 20
13572.5
 30
0.0
 11
1780.0
 21
13572.5
 31
0.0
  0
CIRCLE
  5
A2
330
4FD
100
AcDbEntity
  8
YKK_N1
100
AcDbCircle
 10
1780.0
 20
13572.5
 30
0.0
 40
6.5
  0
CIRCLE
  5
A3
330
4FD
100
AcDbEntity
  8
YKK_N1
100
AcDbCircle
 10
1835.0
 20
13572.5
 30
0.0
 40
10.0
  0
CIRCLE
  5
A4
330
4FD
100
AcDbEntity
  8
YKK_N1
100
AcDbCircle
 10
1835.0
 20
13572.5
 30
0.0
 40
6.5
  0
LINE
  5
A5
330
4FD
100
AcDbEntity
  8
YKK_B1
100
AcDbLine
 10
1017.49999879
 20
14002.5000023
 30
0.0
 11
1769.99993872
 21
14002.5000023
 31
0.0
  0
LINE
  5
A6
330
4FD
100
AcDbEntity
  8
YKK_B1
100
AcDbLine
 10
1017.49999879
 20
14072.49998694
 30
0.0
 11
1769.99993872
 21
14072.49998694
 31
0.0
  0
LINE
  5
A7
330
4FD
100
AcDbEntity
  8
YKK_B1
100
AcDbLine
 10
1794.99993872
 20
14027.5000023
 30
0.0
 11
992.50029938
 21
14027.5000023
 31
0.0
  0
LINE
  5
A8
330
4FD
100
AcDbEntity
  8
YKK_B1
100
AcDbLine
 10
992.50013409
 20
14051.5000023
 30
0.0
 11
1794.99993872
 21
14051.5000023
 31
0.0
  0
LINE
  5
A9
330
4FD
100
AcDbEntity
  8
YKK_Z1
  6
Continuous
100
AcDbLine
 10
947.5
 20
14077.5
 30
0.0
 11
977.5
 21
14087.5
 31
0.0
  0
LINE
  5
AA
330
4FD
100
AcDbEntity
  8
YKK_B1
100
AcDbLine
 10
962.49999879
 20
14061.5
 30
0.0
 11
962.49999879
 21
14072.5
 31
0.0
  0
LINE
  5
AB
330
4FD
100
AcDbEntity
  8
YKK_B1
100
AcDbLine
 10
1007.49999879
 20
14072.5
 30
0.0
 11
1007.49999879
 21
14058.5
 31
0.0
  0
LINE
  5
AC
330
4FD
100
AcDbEntity
  8
YKK_B1
100
AcDbLine
 10
970.99999879
 20
14072.5
 30
0.0
 11
970.99999879
 21
14020.5
 31
0.0
  0
LINE
  5
AD
330
4FD
100
AcDbEntity
  8
YKK_B1
100
AcDbLine
 10
1007.49999879
 20
14058.5
 30
0.0
 11
970.99999879
 21
14058.5
 31
0.0
  0
LINE
  5
AE
330
4FD
100
AcDbEntity
  8
YKK_B1
100
AcDbLine
 10
962.49999879
 20
13982.5
 30
0.0
 11
962.49999879
 21
13972.5
 31
0.0
  0
LINE
  5
AF
330
4FD
100
AcDbEntity
  8
YKK_B1
100
AcDbLine
 10
962.49999879
 20
13972.5
 30
0.0
 11
1007.49999879
 21
13972.5
 31
0.0
  0
LINE
  5
B0
330
4FD
100
AcDbEntity
  8
YKK_B1
100
AcDbLine
 10
1007.49999879
 20
13972.5
 30
0.0
 11
1007.49999879
 21
14020.5
 31
0.0
  0
LINE
  5
B1
330
4FD
100
AcDbEntity
  8
YKK_B1
100
AcDbLine
 10
1007.49999879
 20
14020.5
 30
0.0
 11
970.99999879
 21
14020.5
 31
0.0
  0
LINE
  5
B2
330
4FD
100
AcDbEntity
  8
YKK_Z1
  6
Continuous
100
AcDbLine
 10
977.5
 20
14087.5
 30
0.0
 11
977.5
 21
14122.5
 31
0.0
  0
LINE
  5
B3
330
4FD
100
AcDbEntity
  8
YKK_Z1
  6
Continuous
100
AcDbLine
 10
992.5
 20
14072.5
 30
0.0
 11
992.5
 21
14137.5
 31
0.0
  0
LINE
  5
B4
330
4FD
100
AcDbEntity
  8
YKK_Z1
  6
Continuous
100
AcDbLine
 10
984.5
 20
14072.5
 30
0.0
 11
984.5
 21
14129.5
 31
0.0
  0
LINE
  5
B5
330
4FD
100
AcDbEntity
  8
YKK_B1
100
AcDbLine
 10
962.49999879
 20
14072.5
 30
0.0
 11
1007.49999879
 21
14072.5
 31
0.0
  0
LINE
  5
B6
330
4FD
100
AcDbEntity
  8
YKK_Z1
  6
Continuous
100
AcDbLine
 10
947.5
 20
13957.23102915
 30
0.0
 11
932.7689785
 21
13942.5
 31
0.0
  0
LINE
  5
B7
330
4FD
100
AcDbEntity
  8
YKK_Z1
  6
Continuous
100
AcDbLine
 10
947.5
 20
13942.5
 30
0.0
 11
947.5
 21
13922.5
 31
0.0
  0
LINE
  5
B9
330
4FD
100
AcDbEntity
  8
YKK_Z1
  6
Continuous
100
AcDbLine
 10
947.5
 20
13922.5
 30
0.0
 11
927.49999654
 21
13942.5
 31
0.0
  0
LINE
  5
BA
330
4FD
100
AcDbEntity
  8
YKK_Z1
  6
Continuous
100
AcDbLine
 10
947.5
 20
13942.5
 30
0.0
 11
927.50001039
 21
13922.5
 31
0.0
  0
LINE
  5
BB
330
4FD
100
AcDbEntity
  8
YKK_Z1
  6
Continuous
100
AcDbLine
 10
947.5
 20
13942.5
 30
0.0
 11
947.5
 21
14077.5
 31
0.0
  0
LINE
  5
BC
330
4FD
100
AcDbEntity
  8
YKK_B1
100
AcDbLine
 10
1779.99993872
 20
13972.5
 30
0.0
 11
1834.99993872
 21
13972.5
 31
0.0
  0
LINE
  5
BD
330
4FD
100
AcDbEntity
  8
YKK_B1
100
AcDbLine
 10
1834.99993872
 20
14020.5
 30
0.0
 11
1779.99993872
 21
14020.5
 31
0.0
  0
LINE
  5
BE
330
4FD
100
AcDbEntity
  8
YKK_B1
100
AcDbLine
 10
1834.99993872
 20
14058.5
 30
0.0
 11
1779.99993872
 21
14058.5
 31
0.0
  0
LINE
  5
BF
330
4FD
100
AcDbEntity
  8
YKK_B1
100
AcDbLine
 10
1779.99993872
 20
14072.5
 30
0.0
 11
1834.99993872
 21
14072.5
 31
0.0
  0
LINE
  5
C0
330
4FD
100
AcDbEntity
  8
YKK_B1
100
AcDbLine
 10
1779.99993872
 20
14058.5
 30
0.0
 11
1779.99993872
 21
14072.5
 31
0.0
  0
LINE
  5
C1
330
4FD
100
AcDbEntity
  8
YKK_B1
100
AcDbLine
 10
1779.99993872
 20
14020.5
 30
0.0
 11
1779.99993872
 21
13972.5
 31
0.0
  0
LINE
  5
C2
330
4FD
100
AcDbEntity
  8
YKK_B1
100
AcDbLine
 10
1834.99993872
 20
14072.5
 30
0.0
 11
1834.99993872
 21
14058.5
 31
0.0
  0
LINE
  5
C3
330
4FD
100
AcDbEntity
  8
YKK_B1
100
AcDbLine
 10
1813.99993872
 20
14049.8
 30
0.0
 11
1811.49993872
 21
14049.8
 31
0.0
  0
LINE
  5
C4
330
4FD
100
AcDbEntity
  8
YKK_B1
100
AcDbLine
 10
1811.49993872
 20
14058.5
 30
0.0
 11
1811.49993872
 21
14049.8
 31
0.0
  0
LINE
  5
C5
330
4FD
100
AcDbEntity
  8
YKK_B1
100
AcDbLine
 10
1817.99993872
 20
14058.5
 30
0.0
 11
1817.99993872
 21
14020.5
 31
0.0
  0
LINE
  5
C6
330
4FD
100
AcDbEntity
  8
YKK_B1
100
AcDbLine
 10
1813.99993872
 20
14020.5
 30
0.0
 11
1813.99993872
 21
14049.8
 31
0.0
  0
LINE
  5
C7
330
4FD
100
AcDbEntity
  8
YKK_B1
100
AcDbLine
 10
1834.99993872
 20
13972.5
 30
0.0
 11
1834.99993872
 21
14020.5
 31
0.0
  0
LINE
  5
CA
330
4FD
100
AcDbEntity
  8
YKK_N1
  6
Continuous
100
AcDbLine
 10
2652.5
 20
13912.5
 30
0.0
 11
2652.5
 21
13372.5
 31
0.0
  0
LINE
  5
CB
330
4FD
100
AcDbEntity
  8
YKK_N1
  6
Continuous
100
AcDbLine
 10
2607.5
 20
13912.5
 30
0.0
 11
2607.5
 21
13372.5
 31
0.0
  0
CIRCLE
  5
CC
330
4FD
100
AcDbEntity
  8
YKK_N1
100
AcDbCircle
 10
2652.5
 20
13372.5
 30
0.0
 40
10.0
  0
CIRCLE
  5
CD
330
4FD
100
AcDbEntity
  8
YKK_N1
100
AcDbCircle
 10
2652.5
 20
13372.5
 30
0.0
 40
6.5
  0
LINE
  5
CE
330
4FD
100
AcDbEntity
  8
YKK_N1
  6
Continuous
100
AcDbLine
 10
2607.5
 20
13372.5
 30
0.0
 11
2652.5
 21
13372.5
 31
0.0
  0
LINE
  5
CF
330
4FD
100
AcDbEntity
  8
YKK_N1
  6
Continuous
100
AcDbLine
 10
2520.89745962
 20
13422.5
 30
0.0
 11
2520.89745962
 21
13322.5
 31
0.0
  0
LINE
  5
D0
330
4FD
100
AcDbEntity
  8
YKK_N1
  6
Continuous
100
AcDbLine
 10
2607.5
 20
13372.5
 30
0.0
 11
2520.89745962
 21
13322.5
 31
0.0
  0
LINE
  5
D1
330
4FD
100
AcDbEntity
  8
YKK_N1
  6
Continuous
100
AcDbLine
 10
2520.89745962
 20
13422.5
 30
0.0
 11
2607.5
 21
13372.5
 31
0.0
  0
CIRCLE
  5
D2
330
4FD
100
AcDbEntity
  8
YKK_N1
100
AcDbCircle
 10
2607.5
 20
13572.5
 30
0.0
 40
10.0
  0
CIRCLE
  5
D3
330
4FD
100
AcDbEntity
  8
YKK_N1
100
AcDbCircle
 10
2607.5
 20
13572.5
 30
0.0
 40
6.5
  0
TEXT
  5
D4
330
4FD
100
AcDbEntity
  8
YKK_N1
  6
Continuous
100
AcDbText
 10
2667.5
 20
13384.5
 30
0.0
 40
60.0
  1
45
100
AcDbText
  0
LINE
  5
D5
330
4FD
100
AcDbEntity
  8
YKK_Z1
  6
Continuous
100
AcDbLine
 10
2667.5
 20
14077.5
 30
0.0
 11
2637.5
 21
14087.5
 31
0.0
  0
LINE
  5
D6
330
4FD
100
AcDbEntity
  8
YKK_Z1
  6
Continuous
100
AcDbLine
 10
2637.5
 20
14122.5
 30
0.0
 11
3007.5
 21
14122.5
 31
0.0
  0
LINE
  5
D7
330
4FD
100
AcDbEntity
  8
YKK_Z1
  6
CENTER
100
AcDbLine
 10
2652.5
 20
14032.5
 30
0.0
 11
3007.5
 21
14032.5
 31
0.0
  0
LINE
  5
D8
330
4FD
100
AcDbEntity
  8
YKK_Z1
  6
Continuous
100
AcDbLine
 10
2622.5
 20
14137.5
 30
0.0
 11
3007.5
 21
14137.5
 31
0.0
  0
LINE
  5
D9
330
4FD
100
AcDbEntity
  8
YKK_Z1
  6
Continuous
100
AcDbLine
 10
2630.5
 20
14129.5
 30
0.0
 11
3007.5
 21
14129.5
 31
0.0
  0
CIRCLE
  5
DA
330
4FD
100
AcDbEntity
  8
YKK_N1
100
AcDbCircle
 10
2240.07246465
 20
13972.49998694
 30
0.0
 40
6.5
  0
CIRCLE
  5
DB
330
4FD
100
AcDbEntity
  8
YKK_N1
100
AcDbCircle
 10
2240.07246465
 20
13972.49998694
 30
0.0
 40
10.0
  0
CIRCLE
  5
DC
330
4FD
100
AcDbEntity
  8
YKK_N1
100
AcDbCircle
 10
2240.07246465
 20
14072.49998694
 30
0.0
 40
6.5
  0
CIRCLE
  5
DD
330
4FD
100
AcDbEntity
  8
YKK_N1
100
AcDbCircle
 10
2240.07246465
 20
14072.49998694
 30
0.0
 40
10.0
  0
CIRCLE
  5
DE
330
4FD
100
AcDbEntity
  8
YKK_N1
100
AcDbCircle
 10
2140.07246465
 20
14002.49998694
 30
0.0
 40
6.5
  0
CIRCLE
  5
DF
330
4FD
100
AcDbEntity
  8
YKK_N1
100
AcDbCircle
 10
2140.07246465
 20
14002.49998694
 30
0.0
 40
10.0
  0
CIRCLE
  5
E0
330
4FD
100
AcDbEntity
  8
YKK_N1
100
AcDbCircle
 10
2140.07246465
 20
14072.49998694
 30
0.0
 40
6.5
  0
CIRCLE
  5
E1
330
4FD
100
AcDbEntity
  8
YKK_N1
100
AcDbCircle
 10
2140.07246465
 20
14072.49998694
 30
0.0
 40
10.0
  0
LINE
  5
E2
330
4FD
100
AcDbEntity
  8
YKK_N1
  6
Continuous
100
AcDbLine
 10
2240.07246465
 20
13972.49751377
 30
0.0
 11
2240.07246465
 21
14072.49998694
 31
0.0
  0
TEXT
  5
E3
330
4FD
100
AcDbEntity
  8
YKK_N1
  6
Continuous
100
AcDbText
 10
2228.07246465
 20
14097.49998694
 30
0.0
 40
60.0
  1
100
 50
90.0
100
AcDbText
  0
LINE
  5
E4
330
4FD
100
AcDbEntity
  8
YKK_N1
  6
Continuous
100
AcDbLine
 10
2140.07246465
 20
14002.49998694
 30
0.0
 11
2140.07246465
 21
14072.49998694
 31
0.0
  0
LINE
  5
E5
330
4FD
100
AcDbEntity
  8
YKK_B1
100
AcDbLine
 10
2652.49987865
 20
14061.5
 30
0.0
 11
2652.49987865
 21
14072.5
 31
0.0
  0
LINE
  5
E6
330
4FD
100
AcDbEntity
  8
YKK_B1
100
AcDbLine
 10
2607.49987865
 20
14072.5
 30
0.0
 11
2607.49987865
 21
14058.5
 31
0.0
  0
LINE
  5
E7
330
4FD
100
AcDbEntity
  8
YKK_B1
100
AcDbLine
 10
2643.99987865
 20
14072.5
 30
0.0
 11
2643.99987865
 21
14020.5
 31
0.0
  0
LINE
  5
E8
330
4FD
100
AcDbEntity
  8
YKK_B1
100
AcDbLine
 10
2607.49987865
 20
14058.5
 30
0.0
 11
2643.99987865
 21
14058.5
 31
0.0
  0
LINE
  5
E9
330
4FD
100
AcDbEntity
  8
YKK_B1
100
AcDbLine
 10
2607.49987865
 20
14020.5
 30
0.0
 11
2643.99987865
 21
14020.5
 31
0.0
  0
LINE
  5
EA
330
4FD
100
AcDbEntity
  8
YKK_B1
100
AcDbLine
 10
2652.49987865
 20
13972.5
 30
0.0
 11
2607.49987865
 21
13972.5
 31
0.0
  0
LINE
  5
EB
330
4FD
100
AcDbEntity
  8
YKK_B1
100
AcDbLine
 10
2607.49987865
 20
13972.5
 30
0.0
 11
2607.49987865
 21
14020.5
 31
0.0
  0
LINE
  5
EC
330
4FD
100
AcDbEntity
  8
YKK_B1
100
AcDbLine
 10
2652.49987865
 20
13982.5
 30
0.0
 11
2652.49987865
 21
13972.5
 31
0.0
  0
LINE
  5
ED
330
4FD
100
AcDbEntity
  8
YKK_B1
100
AcDbLine
 10
2652.49987865
 20
14072.5
 30
0.0
 11
2607.49987865
 21
14072.5
 31
0.0
  0
LINE
  5
EE
330
4FD
100
AcDbEntity
  8
YKK_Z1
  6
Continuous
100
AcDbLine
 10
2637.5
 20
14087.5
 30
0.0
 11
2637.5
 21
14122.5
 31
0.0
  0
LINE
  5
EF
330
4FD
100
AcDbEntity
  8
YKK_Z1
  6
Continuous
100
AcDbLine
 10
2622.5
 20
14072.5
 30
0.0
 11
2622.5
 21
14137.5
 31
0.0
  0
LINE
  5
F0
330
4FD
100
AcDbEntity
  8
YKK_Z1
  6
Continuous
100
AcDbLine
 10
2630.5
 20
14072.5
 30
0.0
 11
2630.5
 21
14129.5
 31
0.0
  0
LINE
  5
F1
330
4FD
100
AcDbEntity
  8
YKK_Z1
  6
Continuous
100
AcDbLine
 10
2927.50004503
 20
13922.5
 30
0.0
 11
2947.5000485
 21
13942.5
 31
0.0
  0
LINE
  5
F2
330
4FD
100
AcDbEntity
  8
YKK_Z1
  6
Continuous
100
AcDbLine
 10
2927.4998649
 20
13942.5
 30
0.0
 11
2947.49985451
 21
13922.5
 31
0.0
  0
LINE
  5
F3
330
4FD
100
AcDbEntity
  8
YKK_Z1
  6
Continuous
100
AcDbLine
 10
3007.5
 20
13942.5
 30
0.0
 11
2667.5
 21
13942.5
 31
0.0
  0
LINE
  5
F4
330
4FD
100
AcDbEntity
  8
YKK_Z1
  6
Continuous
100
AcDbLine
 10
2667.5
 20
13922.5
 30
0.0
 11
3007.5
 21
13922.5
 31
0.0
  0
LINE
  5
F5
330
4FD
100
AcDbEntity
  8
YKK_Z1
  6
Continuous
100
AcDbLine
 10
2867.50003464
 20
13922.5
 30
0.0
 11
2887.50003811
 21
13942.5
 31
0.0
  0
LINE
  5
F6
330
4FD
100
AcDbEntity
  8
YKK_Z1
  6
Continuous
100
AcDbLine
 10
2867.49989608
 20
13942.5
 30
0.0
 11
2887.49988568
 21
13922.5
 31
0.0
  0
LINE
  5
F7
330
4FD
100
AcDbEntity
  8
YKK_Z1
  6
Continuous
100
AcDbLine
 10
2887.50003811
 20
13922.5
 30
0.0
 11
2907.50004157
 21
13942.5
 31
0.0
  0
LINE
  5
F8
330
4FD
100
AcDbEntity
  8
YKK_Z1
  6
Continuous
100
AcDbLine
 10
2907.50004157
 20
13922.5
 30
0.0
 11
2927.50004503
 21
13942.5
 31
0.0
  0
LINE
  5
F9
330
4FD
100
AcDbEntity
  8
YKK_Z1
  6
Continuous
100
AcDbLine
 10
2887.49988568
 20
13942.5
 30
0.0
 11
2907.49987529
 21
13922.5
 31
0.0
  0
LINE
  5
FA
330
4FD
100
AcDbEntity
  8
YKK_Z1
  6
Continuous
100
AcDbLine
 10
2907.49987529
 20
13942.5
 30
0.0
 11
2927.4998649
 21
13922.5
 31
0.0
  0
LINE
  5
FB
330
4FD
100
AcDbEntity
  8
YKK_Z1
  6
Continuous
100
AcDbLine
 10
2832.5
 20
14137.5
 30
0.0
 11
2832.5
 21
14129.5
 31
0.0
  0
LINE
  5
FC
330
4FD
100
AcDbEntity
  8
YKK_Z1
  6
Continuous
100
AcDbLine
 10
2842.5
 20
14137.5
 30
0.0
 11
2842.5
 21
14129.5
 31
0.0
  0
LINE
  5
FD
330
4FD
100
AcDbEntity
  8
YKK_Z1
  6
Continuous
100
AcDbLine
 10
2827.50002771
 20
13922.5
 30
0.0
 11
2847.50003118
 21
13942.5
 31
0.0
  0
LINE
  5
FE
330
4FD
100
AcDbEntity
  8
YKK_Z1
  6
Continuous
100
AcDbLine
 10
2827.49991686
 20
13942.5
 30
0.0
 11
2847.49990647
 21
13922.5
 31
0.0
  0
LINE
  5
FF
330
4FD
100
AcDbEntity
  8
YKK_Z1
  6
Continuous
100
AcDbLine
 10
2787.50002078
 20
13922.5
 30
0.0
 11
2807.50002425
 21
13942.5
 31
0.0
  0
LINE
  5
100
330
4FD
100
AcDbEntity
  8
YKK_Z1
  6
Continuous
100
AcDbLine
 10
2787.49993765
 20
13942.5
 30
0.0
 11
2807.49992725
 21
13922.5
 31
0.0
  0
LINE
  5
101
330
4FD
100
AcDbEntity
  8
YKK_Z1
  6
Continuous
100
AcDbLine
 10
2807.50002425
 20
13922.5
 30
0.0
 11
2827.50002771
 21
13942.5
 31
0.0
  0
LINE
  5
102
330
4FD
100
AcDbEntity
  8
YKK_Z1
  6
Continuous
100
AcDbLine
 10
2807.49992725
 20
13942.5
 30
0.0
 11
2827.49991686
 21
13922.5
 31
0.0
  0
LINE
  5
103
330
4FD
100
AcDbEntity
  8
YKK_Z1
  6
Continuous
100
AcDbLine
 10
2847.50003118
 20
13922.5
 30
0.0
 11
2867.50003464
 21
13942.5
 31
0.0
  0
LINE
  5
104
330
4FD
100
AcDbEntity
  8
YKK_Z1
  6
Continuous
100
AcDbLine
 10
2847.49990647
 20
13942.5
 30
0.0
 11
2867.49989608
 21
13922.5
 31
0.0
  0
LINE
  5
105
330
4FD
100
AcDbEntity
  8
YKK_Z1
  6
Continuous
100
AcDbLine
 10
2722.5
 20
14137.5
 30
0.0
 11
2722.5
 21
14129.5
 31
0.0
  0
LINE
  5
106
330
4FD
100
AcDbEntity
  8
YKK_Z1
  6
Continuous
100
AcDbLine
 10
2732.5
 20
14137.5
 30
0.0
 11
2732.5
 21
14129.5
 31
0.0
  0
LINE
  5
107
330
4FD
100
AcDbEntity
  8
YKK_Z1
  6
Continuous
100
AcDbLine
 10
2667.5
 20
13922.5
 30
0.0
 11
2687.50000346
 21
13942.5
 31
0.0
  0
LINE
  5
108
330
4FD
100
AcDbEntity
  8
YKK_Z1
  6
Continuous
100
AcDbLine
 10
2667.5
 20
13942.5
 30
0.0
 11
2687.49998961
 21
13922.5
 31
0.0
  0
LINE
  5
109
330
4FD
100
AcDbEntity
  8
YKK_Z1
  6
Continuous
100
AcDbLine
 10
2667.5
 20
13942.5
 30
0.0
 11
2667.5
 21
13922.5
 31
0.0
  0
LINE
  5
10B
330
4FD
100
AcDbEntity
  8
YKK_Z1
  6
Continuous
100
AcDbLine
 10
2687.50000346
 20
13922.5
 30
0.0
 11
2707.50000693
 21
13942.5
 31
0.0
  0
LINE
  5
10C
330
4FD
100
AcDbEntity
  8
YKK_Z1
  6
Continuous
100
AcDbLine
 10
2707.50000693
 20
13922.5
 30
0.0
 11
2727.50001039
 21
13942.5
 31
0.0
  0
LINE
  5
10D
330
4FD
100
AcDbEntity
  8
YKK_Z1
  6
Continuous
100
AcDbLine
 10
2727.50001039
 20
13922.5
 30
0.0
 11
2747.50001386
 21
13942.5
 31
0.0
  0
LINE
  5
10E
330
4FD
100
AcDbEntity
  8
YKK_Z1
  6
Continuous
100
AcDbLine
 10
2687.49998961
 20
13942.5
 30
0.0
 11
2707.49997922
 21
13922.5
 31
0.0
  0
LINE
  5
10F
330
4FD
100
AcDbEntity
  8
YKK_Z1
  6
Continuous
100
AcDbLine
 10
2707.49997922
 20
13942.5
 30
0.0
 11
2727.49996882
 21
13922.5
 31
0.0
  0
LINE
  5
110
330
4FD
100
AcDbEntity
  8
YKK_Z1
  6
Continuous
100
AcDbLine
 10
2727.49996882
 20
13942.5
 30
0.0
 11
2747.49995843
 21
13922.5
 31
0.0
  0
LINE
  5
111
330
4FD
100
AcDbEntity
  8
YKK_Z1
  6
Continuous
100
AcDbLine
 10
2667.5
 20
13942.5
 30
0.0
 11
2667.5
 21
14077.5
 31
0.0
  0
LINE
  5
112
330
4FD
100
AcDbEntity
  8
YKK_Z1
  6
Continuous
100
AcDbLine
 10
2747.50001386
 20
13922.5
 30
0.0
 11
2767.50001732
 21
13942.5
 31
0.0
  0
LINE
  5
113
330
4FD
100
AcDbEntity
  8
YKK_Z1
  6
Continuous
100
AcDbLine
 10
2747.49995843
 20
13942.5
 30
0.0
 11
2767.49994804
 21
13922.5
 31
0.0
  0
LINE
  5
114
330
4FD
100
AcDbEntity
  8
YKK_Z1
  6
Continuous
100
AcDbLine
 10
2767.50001732
 20
13922.5
 30
0.0
 11
2787.50002078
 21
13942.5
 31
0.0
  0
LINE
  5
115
330
4FD
100
AcDbEntity
  8
YKK_Z1
  6
Continuous
100
AcDbLine
 10
2767.49994804
 20
13942.5
 30
0.0
 11
2787.49993765
 21
13922.5
 31
0.0
  0
LINE
  5
116
330
4FD
100
AcDbEntity
  8
YKK_Z1
  6
Continuous
100
AcDbLine
 10
2710.51507474
 20
13942.5
 30
0.0
 11
2890.51510592
 21
14122.5
 31
0.0
  0
LINE
  5
117
330
4FD
100
AcDbEntity
  8
YKK_Z1
  6
Continuous
100
AcDbLine
 10
2719.00035832
 20
13942.5
 30
0.0
 11
2899.0003895
 21
14122.5
 31
0.0
  0
LINE
  5
118
330
4FD
100
AcDbEntity
  8
YKK_Z1
  6
Continuous
100
AcDbLine
 10
2738.79935334
 20
13942.5
 30
0.0
 11
2918.79938452
 21
14122.5
 31
0.0
  0
LINE
  5
119
330
4FD
100
AcDbEntity
  8
YKK_Z1
  6
Continuous
100
AcDbLine
 10
2942.5
 20
14137.5
 30
0.0
 11
2942.5
 21
14129.5
 31
0.0
  0
LINE
  5
11A
330
4FD
100
AcDbEntity
  8
YKK_Z1
  6
Continuous
100
AcDbLine
 10
2952.5
 20
14137.5
 30
0.0
 11
2952.5
 21
14129.5
 31
0.0
  0
LINE
  5
11B
330
4FD
100
AcDbEntity
  8
YKK_Z1
  6
Continuous
100
AcDbLine
 10
2947.5000485
 20
13922.5
 30
0.0
 11
2967.50005196
 21
13942.5
 31
0.0
  0
LINE
  5
11C
330
4FD
100
AcDbEntity
  8
YKK_Z1
  6
Continuous
100
AcDbLine
 10
2947.49985451
 20
13942.5
 30
0.0
 11
2967.49984412
 21
13922.5
 31
0.0
  0
LINE
  5
11E
330
4FD
100
AcDbEntity
  8
YKK_Z1
  6
Continuous
100
AcDbLine
 10
2987.50005543
 20
13922.5
 30
0.0
 11
3007.5
 21
13942.49994111
 31
0.0
  0
LINE
  5
11F
330
4FD
100
AcDbEntity
  8
YKK_Z1
  6
Continuous
100
AcDbLine
 10
2987.49983372
 20
13942.5
 30
0.0
 11
3007.49982333
 21
13922.5
 31
0.0
  0
LINE
  5
120
330
4FD
100
AcDbEntity
  8
YKK_Z1
  6
Continuous
100
AcDbLine
 10
3007.49982333
 20
13942.5
 30
0.0
 11
3007.5
 21
13942.49982333
 31
0.0
  0
LINE
  5
121
330
4FD
100
AcDbEntity
  8
YKK_Z1
  6
Continuous
100
AcDbLine
 10
2967.50005196
 20
13922.5
 30
0.0
 11
2987.50005543
 21
13942.5
 31
0.0
  0
LINE
  5
122
330
4FD
100
AcDbEntity
  8
YKK_Z1
  6
Continuous
100
AcDbLine
 10
2967.49984412
 20
13942.5
 30
0.0
 11
2987.49983372
 21
13922.5
 31
0.0
  0
LINE
  5
123
330
4FD
100
AcDbEntity
  8
YKK_A1
100
AcDbLine
 10
1834.99993544
 20
15740.69070081
 30
0.0
 11
2607.49987584
 21
15740.69070081
 31
0.0
  0
LINE
  5
124
330
4FD
100
AcDbEntity
  8
YKK_N1
  6
Continuous
100
AcDbLine
 10
1835.0
 20
15215.6907475
 30
0.0
 11
2607.5
 21
15215.6907475
 31
0.0
  0
LINE
  5
125
330
4FD
100
AcDbEntity
  8
YKK_A1
100
AcDbLine
 10
2617.49987865
 20
15615.6907475
 30
0.0
 11
997.5
 21
15615.6907475
 31
0.0
  0
LINE
  5
126
330
4FD
100
AcDbEntity
  8
YKK_N1
  6
Continuous
100
AcDbLine
 10
1007.5
 20
15015.6907475
 30
0.0
 11
2607.5
 21
15015.6907475
 31
0.0
  0
LINE
  5
127
330
4FD
100
AcDbEntity
  8
YKK_N1
  6
Continuous
100
AcDbLine
 10
1780.0
 20
15555.6907475
 30
0.0
 11
1780.0
 21
15215.6907475
 31
0.0
  0
LINE
  5
128
330
4FD
100
AcDbEntity
  8
YKK_N1
  6
Continuous
100
AcDbLine
 10
1835.0
 20
15555.6907475
 30
0.0
 11
1835.0
 21
15215.6907475
 31
0.0
  0
LINE
  5
129
330
4FD
100
AcDbEntity
  8
YKK_N1
  6
Continuous
100
AcDbLine
 10
1007.5
 20
15555.6907475
 30
0.0
 11
1007.5
 21
15015.6907475
 31
0.0
  0
LINE
  5
12A
330
4FD
100
AcDbEntity
  8
YKK_N1
  6
Continuous
100
AcDbLine
 10
1007.5
 20
15215.6907475
 30
0.0
 11
1780.0
 21
15215.6907475
 31
0.0
  0
LINE
  5
12B
330
4FD
100
AcDbEntity
  8
YKK_N1
  6
Continuous
100
AcDbLine
 10
1094.10254038
 20
15065.6907475
 30
0.0
 11
1094.10254038
 21
14965.6907475
 31
0.0
  0
LINE
  5
12C
330
4FD
100
AcDbEntity
  8
YKK_N1
  6
Continuous
100
AcDbLine
 10
1094.10254038
 20
15065.6907475
 30
0.0
 11
1007.5
 21
15015.6907475
 31
0.0
  0
LINE
  5
12D
330
4FD
100
AcDbEntity
  8
YKK_N1
  6
Continuous
100
AcDbLine
 10
1007.5
 20
15015.6907475
 30
0.0
 11
1094.10254038
 21
14965.6907475
 31
0.0
  0
CIRCLE
  5
12E
330
4FD
100
AcDbEntity
  8
YKK_N1
100
AcDbCircle
 10
1007.5
 20
15215.6907475
 30
0.0
 40
10.0
  0
CIRCLE
  5
12F
330
4FD
100
AcDbEntity
  8
YKK_N1
100
AcDbCircle
 10
1007.5
 20
15215.6907475
 30
0.0
 40
6.5
  0
TEXT
  5
130
330
4FD
100
AcDbEntity
  8
YKK_N1
  6
Continuous
100
AcDbText
 10
1254.75148622
 20
15227.6907475
 30
0.0
 40
60.0
  1
772.5
100
AcDbText
  0
TEXT
  5
131
330
4FD
100
AcDbEntity
  8
YKK_N1
  6
Continuous
100
AcDbText
 10
1603.55493053
 20
15027.6907475
 30
0.0
 40
60.0
  1
W=1600
100
AcDbText
  0
CIRCLE
  5
132
330
4FD
100
AcDbEntity
  8
YKK_N1
100
AcDbCircle
 10
1780.0
 20
15215.6907475
 30
0.0
 40
10.0
  0
TEXT
  5
133
330
4FD
100
AcDbEntity
  8
YKK_N1
  6
Continuous
100
AcDbText
 10
1749.67198227
 20
15140.90595057
 30
0.0
 40
60.0
  1
55
100
AcDbText
  0
LINE
  5
134
330
4FD
100
AcDbEntity
  8
YKK_N1
100
AcDbLine
 10
1835.0
 20
15215.6907475
 30
0.0
 11
1780.0
 21
15215.6907475
 31
0.0
  0
CIRCLE
  5
135
330
4FD
100
AcDbEntity
  8
YKK_N1
100
AcDbCircle
 10
1780.0
 20
15215.6907475
 30
0.0
 40
6.5
  0
CIRCLE
  5
136
330
4FD
100
AcDbEntity
  8
YKK_N1
100
AcDbCircle
 10
1835.0
 20
15215.6907475
 30
0.0
 40
10.0
  0
CIRCLE
  5
137
330
4FD
100
AcDbEntity
  8
YKK_N1
100
AcDbCircle
 10
1835.0
 20
15215.6907475
 30
0.0
 40
6.5
  0
LINE
  5
138
330
4FD
100
AcDbEntity
  8
YKK_A1
100
AcDbLine
 10
1007.49999832
 20
15740.69070081
 30
0.0
 11
1779.99993872
 21
15740.69070081
 31
0.0
  0
TEXT
  5
139
330
4FD
100
AcDbEntity
  8
YKK_A1
100
AcDbText
 10
1711.14279586
 20
15770.69070081
 30
0.0
 40
60.0
  1
F
 41
0.8
  7
YKK_SGSTYLE1
 72
     2
 11
1749.99993872
 21
15770.69070081
 31
0.0
100
AcDbText
  0
LINE
  5
13B
330
4FD
100
AcDbEntity
  8
YKK_N1
  6
Continuous
100
AcDbLine
 10
2607.5
 20
15555.6907475
 30
0.0
 11
2607.5
 21
15015.6907475
 31
0.0
  0
LINE
  5
13C
330
4FD
100
AcDbEntity
  8
YKK_N1
  6
Continuous
100
AcDbLine
 10
2520.89745962
 20
15065.6907475
 30
0.0
 11
2520.89745962
 21
14965.6907475
 31
0.0
  0
LINE
  5
13D
330
4FD
100
AcDbEntity
  8
YKK_N1
  6
Continuous
100
AcDbLine
 10
2520.89745962
 20
15065.6907475
 30
0.0
 11
2607.5
 21
15015.6907475
 31
0.0
  0
LINE
  5
13E
330
4FD
100
AcDbEntity
  8
YKK_N1
  6
Continuous
100
AcDbLine
 10
2607.5
 20
15015.6907475
 30
0.0
 11
2520.89745962
 21
14965.6907475
 31
0.0
  0
TEXT
  5
13F
330
4FD
100
AcDbEntity
  8
YKK_N1
  6
Continuous
100
AcDbText
 10
2079.3788409
 20
15227.6907475
 30
0.0
 40
60.0
  1
772.5
100
AcDbText
  0
CIRCLE
  5
140
330
4FD
100
AcDbEntity
  8
YKK_N1
100
AcDbCircle
 10
2607.5
 20
15215.6907475
 30
0.0
 40
10.0
  0
CIRCLE
  5
141
330
4FD
100
AcDbEntity
  8
YKK_N1
100
AcDbCircle
 10
2607.5
 20
15215.6907475
 30
0.0
 40
6.5
  0
TEXT
  5
142
330
4FD
100
AcDbEntity
  8
YKK_A1
100
AcDbText
 10
2538.64273298
 20
15770.69070081
 30
0.0
 40
60.0
  1
F
 41
0.8
  7
YKK_SGSTYLE1
 72
     2
 11
2577.49987584
 21
15770.69070081
 31
0.0
100
AcDbText
  0
CIRCLE
  5
143
330
4FD
100
AcDbEntity
  8
YKK_N1
100
AcDbCircle
 10
2942.5000321
 20
15615.69058286
 30
0.0
 40
10.0
  0
CIRCLE
  5
144
330
4FD
100
AcDbEntity
  8
YKK_N1
100
AcDbCircle
 10
2942.5000321
 20
15615.69058286
 30
0.0
 40
6.5
  0
LINE
  5
145
330
4FD
100
AcDbEntity
  8
YKK_N1
  6
Continuous
100
AcDbLine
 10
2692.5000321
 20
15615.6905962
 30
0.0
 11
3142.5000321
 21
15615.6905962
 31
0.0
  0
LINE
  5
146
330
4FD
100
AcDbEntity
  8
YKK_N1
  6
Continuous
100
AcDbLine
 10
3142.5000321
 20
15615.6905962
 30
0.0
 11
3192.5000321
 21
15702.29313658
 31
0.0
  0
LINE
  5
147
330
4FD
100
AcDbEntity
  8
YKK_N1
  6
Continuous
100
AcDbLine
 10
3092.5000321
 20
15702.29313658
 30
0.0
 11
3192.5000321
 21
15702.29313658
 31
0.0
  0
LINE
  5
148
330
4FD
100
AcDbEntity
  8
YKK_N1
  6
Continuous
100
AcDbLine
 10
3092.5000321
 20
15702.29313658
 30
0.0
 11
3142.5000321
 21
15615.6905962
 31
0.0
  0
LINE
  5
149
330
4FD
100
AcDbEntity
  8
YKK_Z1
  6
Continuous
100
AcDbLine
 10
4397.50002781
 20
15605.69058286
 30
0.0
 11
4347.50002781
 21
15605.69058286
 31
0.0
  0
LINE
  5
14A
330
4FD
100
AcDbEntity
  8
YKK_Z1
  6
Continuous
100
AcDbLine
 10
4347.50002781
 20
15615.69058286
 30
0.0
 11
4397.50002781
 21
15615.69058286
 31
0.0
  0
LINE
  5
14B
330
4FD
100
AcDbEntity
  8
YKK_N1
  6
Continuous
100
AcDbLine
 10
4192.5000321
 20
15615.6905962
 30
0.0
 11
4642.5000321
 21
15615.6905962
 31
0.0
  0
LINE
  5
14C
330
4FD
100
AcDbEntity
  8
YKK_N1
  6
Continuous
100
AcDbLine
 10
4192.5000321
 20
15600.6905962
 30
0.0
 11
4642.5000321
 21
15600.6905962
 31
0.0
  0
LINE
  5
14D
330
4FD
100
AcDbEntity
  8
YKK_Z1
  6
Continuous
100
AcDbLine
 10
4442.50015717
 20
15557.20529929
 30
0.0
 11
4270.98547045
 21
15385.69058286
 31
0.0
  0
LINE
  5
14E
330
4FD
100
AcDbEntity
  8
YKK_Z1
  6
Continuous
100
AcDbLine
 10
4442.50015717
 20
15565.69058286
 30
0.0
 11
4262.50018835
 21
15385.69058286
 31
0.0
  0
LINE
  5
14F
330
4FD
100
AcDbEntity
  8
YKK_Z1
  6
Continuous
100
AcDbLine
 10
4442.50015717
 20
15537.40630427
 30
0.0
 11
4290.78446204
 21
15385.69058286
 31
0.0
  0
LINE
  5
150
330
4FD
100
AcDbEntity
  8
YKK_Z1
  6
Continuous
100
AcDbLine
 10
4442.50015717
 20
15565.69058286
 30
0.0
 11
3742.50015717
 21
15565.69058286
 31
0.0
  0
LINE
  5
151
330
4FD
100
AcDbEntity
  8
YKK_Z1
  6
Continuous
100
AcDbLine
 10
3742.50015717
 20
15385.69058286
 30
0.0
 11
4442.50015717
 21
15385.69058286
 31
0.0
  0
LINE
  5
152
330
4FD
100
AcDbEntity
  8
YKK_Z1
  6
Continuous
100
AcDbLine
 10
3876.81468323
 20
15565.69058286
 30
0.0
 11
3742.50015717
 21
15431.37603354
 31
0.0
  0
LINE
  5
153
330
4FD
100
AcDbEntity
  8
YKK_Z1
  6
Continuous
100
AcDbLine
 10
3857.01569164
 20
15565.69058286
 30
0.0
 11
3742.50015717
 21
15451.17502856
 31
0.0
  0
LINE
  5
154
330
4FD
100
AcDbEntity
  8
YKK_Z1
  6
Continuous
100
AcDbLine
 10
3848.53040953
 20
15565.69058286
 30
0.0
 11
3742.50015717
 21
15459.66031214
 31
0.0
  0
LINE
  5
155
330
4FD
100
AcDbEntity
  8
YKK_Z1
  6
Continuous
100
AcDbLine
 10
4154.00056546
 20
15565.69058286
 30
0.0
 11
3974.00059664
 21
15385.69058286
 31
0.0
  0
LINE
  5
156
330
4FD
100
AcDbEntity
  8
YKK_Z1
  6
Continuous
100
AcDbLine
 10
4145.51528335
 20
15565.69058286
 30
0.0
 11
3965.51531453
 21
15385.69058286
 31
0.0
  0
LINE
  5
157
330
4FD
100
AcDbEntity
  8
YKK_Z1
  6
Continuous
100
AcDbLine
 10
4173.79955705
 20
15565.69058286
 30
0.0
 11
3993.79958822
 21
15385.69058286
 31
0.0
  0
TEXT
  5
158
330
4FD
100
AcDbEntity
  8
YKK_N1
  6
Continuous
100
AcDbText
 10
3767.49341403
 20
16123.1766725
 30
0.0
 40
60.0
  1
100
100
AcDbText
  0
LINE
  5
159
330
4FD
100
AcDbEntity
  8
YKK_Z1
  6
Continuous
100
AcDbLine
 10
3827.50015717
 20
15615.69058286
 30
0.0
 11
3777.50015717
 21
15615.69058286
 31
0.0
  0
LINE
  5
15A
330
4FD
100
AcDbEntity
  8
YKK_Z1
  6
Continuous
100
AcDbLine
 10
3777.50015717
 20
15605.69058286
 30
0.0
 11
3827.50015717
 21
15605.69058286
 31
0.0
  0
LINE
  5
15B
330
4FD
100
AcDbEntity
  8
YKK_Z1
  6
ByBlock
 62
     0
100
AcDbLine
 10
3304.52370952
 20
15675.69058286
 30
0.0
 11
3269.88269352
 21
15615.69058286
 31
0.0
  0
LINE
  5
15C
330
4FD
100
AcDbEntity
  8
YKK_Z1
  6
ByBlock
 62
     0
100
AcDbLine
 10
3269.88269352
 20
15615.69058286
 30
0.0
 11
3235.24167752
 21
15675.69058286
 31
0.0
  0
LINE
  5
15D
330
4FD
100
AcDbEntity
  8
YKK_Z1
  6
ByBlock
 62
     0
100
AcDbLine
 10
3235.24167752
 20
15675.69058286
 30
0.0
 11
3304.52370952
 21
15675.69058286
 31
0.0
  0
TEXT
  5
15E
330
4FD
100
AcDbEntity
  8
YKK_Z1
100
AcDbText
 10
3309.88269352
 20
15625.69058286
 30
0.0
 40
60.0
  1
FL
 41
0.8
  7
YKK_SGSTYLE1
 72
     2
 11
3387.59697923
 21
15625.69058286
 31
0.0
100
AcDbText
  0
LINE
  5
15F
330
4FD
100
AcDbEntity
  8
YKK_Z1
  6
Continuous
100
AcDbLine
 10
3742.50015717
 20
15605.69058286
 30
0.0
 11
3772.50015717
 21
15605.69058286
 31
0.0
  0
LINE
  5
160
330
4FD
100
AcDbEntity
  8
YKK_Z1
  6
Continuous
100
AcDbLine
 10
3772.50015717
 20
15615.69058286
 30
0.0
 11
3742.50015717
 21
15615.69058286
 31
0.0
  0
LINE
  5
161
330
4FD
100
AcDbEntity
  8
YKK_Z1
  6
Continuous
100
AcDbLine
 10
3777.50015717
 20
15615.69058286
 30
0.0
 11
3777.50015717
 21
15605.69058286
 31
0.0
  0
LINE
  5
162
330
4FD
100
AcDbEntity
  8
YKK_Z1
  6
Continuous
100
AcDbLine
 10
3777.50015717
 20
15611.69058286
 30
0.0
 11
3772.50015717
 21
15611.69058286
 31
0.0
  0
LINE
  5
163
330
4FD
100
AcDbEntity
  8
YKK_Z1
  6
Continuous
100
AcDbLine
 10
3772.50015717
 20
15605.69058286
 30
0.0
 11
3772.50015717
 21
15615.69058286
 31
0.0
  0
LINE
  5
164
330
4FD
100
AcDbEntity
  8
YKK_Z1
  6
Continuous
100
AcDbLine
 10
4122.50002781
 20
15605.69058286
 30
0.0
 11
4072.50002781
 21
15605.69058286
 31
0.0
  0
LINE
  5
165
330
4FD
100
AcDbEntity
  8
YKK_Z1
  6
Continuous
100
AcDbLine
 10
4072.50002781
 20
15615.69058286
 30
0.0
 11
4122.50002781
 21
15615.69058286
 31
0.0
  0
LINE
  5
166
330
4FD
100
AcDbEntity
  8
YKK_C1
100
AcDbLine
 10
4012.50002781
 20
15717.86446852
 30
0.0
 11
3994.50002781
 21
15714.69058286
 31
0.0
  0
LINE
  5
167
330
4FD
100
AcDbEntity
  8
YKK_C1
100
AcDbLine
 10
3994.50002781
 20
15737.69058286
 30
0.0
 11
4012.50002781
 21
15737.69058286
 31
0.0
  0
LINE
  5
168
330
4FD
100
AcDbEntity
  8
YKK_C1
100
AcDbLine
 10
4012.50002781
 20
15600.69058286
 30
0.0
 11
4003.50002781
 21
15600.69058286
 31
0.0
  0
LINE
  5
169
330
4FD
100
AcDbEntity
  8
YKK_C1
100
AcDbLine
 10
3994.50002781
 20
15725.19058286
 30
0.0
 11
3994.50002781
 21
15740.69058286
 31
0.0
  0
LINE
  5
16A
330
4FD
100
AcDbEntity
  8
YKK_Z1
  6
Continuous
100
AcDbLine
 10
4012.50002781
 20
15611.69058286
 30
0.0
 11
4017.50002781
 21
15611.69058286
 31
0.0
  0
LINE
  5
16B
330
4FD
100
AcDbEntity
  8
YKK_Z1
  6
Continuous
100
AcDbLine
 10
4017.50002781
 20
15605.69058286
 30
0.0
 11
4017.50002781
 21
15615.69058286
 31
0.0
  0
LINE
  5
16C
330
4FD
100
AcDbEntity
  8
YKK_Z1
  6
Continuous
100
AcDbLine
 10
4072.50002781
 20
15605.69058286
 30
0.0
 11
4072.50002781
 21
15615.69058286
 31
0.0
  0
LINE
  5
16D
330
4FD
100
AcDbEntity
  8
YKK_Z1
  6
Continuous
100
AcDbLine
 10
4067.50002781
 20
15605.69058286
 30
0.0
 11
4017.50002781
 21
15605.69058286
 31
0.0
  0
LINE
  5
16E
330
4FD
100
AcDbEntity
  8
YKK_Z1
  6
Continuous
100
AcDbLine
 10
4067.50002781
 20
15615.69058286
 30
0.0
 11
4067.50002781
 21
15605.69058286
 31
0.0
  0
LINE
  5
16F
330
4FD
100
AcDbEntity
  8
YKK_Z1
  6
Continuous
100
AcDbLine
 10
4017.50002781
 20
15615.69058286
 30
0.0
 11
4067.50002781
 21
15615.69058286
 31
0.0
  0
LINE
  5
170
330
4FD
100
AcDbEntity
  8
YKK_Z1
  6
Continuous
100
AcDbLine
 10
4067.50002781
 20
15611.69058286
 30
0.0
 11
4072.50002781
 21
15611.69058286
 31
0.0
  0
LINE
  5
171
330
4FD
100
AcDbEntity
  8
YKK_C1
100
AcDbLine
 10
4012.50002781
 20
15740.69058286
 30
0.0
 11
4012.50002781
 21
15600.69058286
 31
0.0
  0
LINE
  5
172
330
4FD
100
AcDbEntity
  8
YKK_C1
100
AcDbLine
 10
3961.30015717
 20
15720.62058286
 30
0.0
 11
3961.30015717
 21
15715.69058286
 31
0.0
  0
LINE
  5
173
330
4FD
100
AcDbEntity
  8
YKK_C1
100
AcDbLine
 10
3956.50015717
 20
15740.69058286
 30
0.0
 11
3956.50015717
 21
15720.62058286
 31
0.0
  0
LINE
  5
174
330
4FD
100
AcDbEntity
  8
YKK_C1
100
AcDbLine
 10
3952.50002781
 20
15677.45385267
 30
0.0
 11
3952.50002781
 21
15714.69058286
 31
0.0
  0
LINE
  5
175
330
4FD
100
AcDbEntity
  8
YKK_C1
100
AcDbLine
 10
3942.50015717
 20
15685.69058286
 30
0.0
 11
3942.50015717
 21
15740.69058286
 31
0.0
  0
LINE
  5
176
330
4FD
100
AcDbEntity
  8
YKK_C1
100
AcDbLine
 10
3948.63002781
 20
15714.69058286
 30
0.0
 11
3948.63002781
 21
15720.62058286
 31
0.0
  0
LINE
  5
177
330
4FD
100
AcDbEntity
  8
YKK_C1
100
AcDbLine
 10
3951.50002781
 20
15600.69058286
 30
0.0
 11
3942.50002781
 21
15600.69058286
 31
0.0
  0
LINE
  5
178
330
4FD
100
AcDbEntity
  8
YKK_Z1
  6
Continuous
100
AcDbLine
 10
3942.50015717
 20
15611.69058286
 30
0.0
 11
3937.50015717
 21
15611.69058286
 31
0.0
  0
LINE
  5
179
330
4FD
100
AcDbEntity
  8
YKK_Z1
  6
Continuous
100
AcDbLine
 10
3937.50015717
 20
15605.69058286
 30
0.0
 11
3937.50015717
 21
15615.69058286
 31
0.0
  0
LINE
  5
17A
330
4FD
100
AcDbEntity
  8
YKK_Z1
  6
Continuous
100
AcDbLine
 10
3887.50015717
 20
15615.69058286
 30
0.0
 11
3887.50015717
 21
15605.69058286
 31
0.0
  0
LINE
  5
17B
330
4FD
100
AcDbEntity
  8
YKK_Z1
  6
Continuous
100
AcDbLine
 10
3937.50015717
 20
15615.69058286
 30
0.0
 11
3887.50015717
 21
15615.69058286
 31
0.0
  0
LINE
  5
17C
330
4FD
100
AcDbEntity
  8
YKK_Z1
  6
Continuous
100
AcDbLine
 10
3887.50015717
 20
15605.69058286
 30
0.0
 11
3937.50015717
 21
15605.69058286
 31
0.0
  0
LINE
  5
17D
330
4FD
100
AcDbEntity
  8
YKK_C1
100
AcDbLine
 10
3942.50002781
 20
15600.69058286
 30
0.0
 11
3942.50002781
 21
15675.69058286
 31
0.0
  0
LINE
  5
17E
330
4FD
100
AcDbEntity
  8
YKK_C1
100
AcDbLine
 10
3942.50015717
 20
15720.62058286
 30
0.0
 11
3961.30015717
 21
15720.62058286
 31
0.0
  0
LINE
  5
17F
330
4FD
100
AcDbEntity
  8
YKK_C1
100
AcDbLine
 10
3942.50015717
 20
15740.69058286
 30
0.0
 11
3956.50015717
 21
15740.69058286
 31
0.0
  0
LINE
  5
180
330
4FD
100
AcDbEntity
  8
YKK_C1
100
AcDbLine
 10
3942.50002781
 20
15675.69058286
 30
0.0
 11
3952.50002781
 21
15677.45385267
 31
0.0
  0
LINE
  5
181
330
4FD
100
AcDbEntity
  8
YKK_Z1
  6
Continuous
100
AcDbLine
 10
3882.50015717
 20
15615.69058286
 30
0.0
 11
3832.50015717
 21
15615.69058286
 31
0.0
  0
LINE
  5
182
330
4FD
100
AcDbEntity
  8
YKK_Z1
  6
Continuous
100
AcDbLine
 10
3832.50015717
 20
15605.69058286
 30
0.0
 11
3882.50015717
 21
15605.69058286
 31
0.0
  0
LINE
  5
183
330
4FD
100
AcDbEntity
  8
YKK_Z1
  6
Continuous
100
AcDbLine
 10
3832.50015717
 20
15615.69058286
 30
0.0
 11
3832.50015717
 21
15605.69058286
 31
0.0
  0
LINE
  5
184
330
4FD
100
AcDbEntity
  8
YKK_Z1
  6
Continuous
100
AcDbLine
 10
3832.50015717
 20
15611.69058286
 30
0.0
 11
3827.50015717
 21
15611.69058286
 31
0.0
  0
LINE
  5
185
330
4FD
100
AcDbEntity
  8
YKK_Z1
  6
Continuous
100
AcDbLine
 10
3827.50015717
 20
15605.69058286
 30
0.0
 11
3827.50015717
 21
15615.69058286
 31
0.0
  0
LINE
  5
186
330
4FD
100
AcDbEntity
  8
YKK_Z1
  6
Continuous
100
AcDbLine
 10
3882.50015717
 20
15605.69058286
 30
0.0
 11
3882.50015717
 21
15615.69058286
 31
0.0
  0
LINE
  5
187
330
4FD
100
AcDbEntity
  8
YKK_Z1
  6
Continuous
100
AcDbLine
 10
3887.50015717
 20
15611.69058286
 30
0.0
 11
3882.50015717
 21
15611.69058286
 31
0.0
  0
LINE
  5
188
330
4FD
100
AcDbEntity
  8
YKK_C1
100
AcDbLine
 10
3942.50002781
 20
15668.69058286
 30
0.0
 11
4012.50002781
 21
15668.69058286
 31
0.0
  0
LINE
  5
189
330
4FD
100
AcDbEntity
  8
YKK_C1
100
AcDbLine
 10
3942.50002781
 20
15620.69058286
 30
0.0
 11
4012.50002781
 21
15620.69058286
 31
0.0
  0
LINE
  5
18A
330
4FD
100
AcDbEntity
  8
YKK_C1
100
AcDbLine
 10
3994.50002781
 20
15714.69058286
 30
0.0
 11
3948.63002781
 21
15714.69058286
 31
0.0
  0
LINE
  5
18B
330
4FD
100
AcDbEntity
  8
YKK_Z1
  6
Continuous
100
AcDbLine
 10
4342.50002781
 20
15611.69058286
 30
0.0
 11
4347.50002781
 21
15611.69058286
 31
0.0
  0
LINE
  5
18C
330
4FD
100
AcDbEntity
  8
YKK_Z1
  6
Continuous
100
AcDbLine
 10
4342.50002781
 20
15615.69058286
 30
0.0
 11
4342.50002781
 21
15605.69058286
 31
0.0
  0
LINE
  5
18D
330
4FD
100
AcDbEntity
  8
YKK_Z1
  6
Continuous
100
AcDbLine
 10
4292.50002781
 20
15605.69058286
 30
0.0
 11
4292.50002781
 21
15615.69058286
 31
0.0
  0
LINE
  5
18E
330
4FD
100
AcDbEntity
  8
YKK_Z1
  6
Continuous
100
AcDbLine
 10
4287.50002781
 20
15611.69058286
 30
0.0
 11
4292.50002781
 21
15611.69058286
 31
0.0
  0
LINE
  5
18F
330
4FD
100
AcDbEntity
  8
YKK_Z1
  6
Continuous
100
AcDbLine
 10
4287.50002781
 20
15615.69058286
 30
0.0
 11
4287.50002781
 21
15605.69058286
 31
0.0
  0
LINE
  5
190
330
4FD
100
AcDbEntity
  8
YKK_Z1
  6
Continuous
100
AcDbLine
 10
4342.50002781
 20
15605.69058286
 30
0.0
 11
4292.50002781
 21
15605.69058286
 31
0.0
  0
LINE
  5
191
330
4FD
100
AcDbEntity
  8
YKK_Z1
  6
Continuous
100
AcDbLine
 10
4292.50002781
 20
15615.69058286
 30
0.0
 11
4342.50002781
 21
15615.69058286
 31
0.0
  0
LINE
  5
192
330
4FD
100
AcDbEntity
  8
YKK_Z1
  6
Continuous
100
AcDbLine
 10
4347.50002781
 20
15605.69058286
 30
0.0
 11
4347.50002781
 21
15615.69058286
 31
0.0
  0
LINE
  5
193
330
4FD
100
AcDbEntity
  8
YKK_Z1
  6
Continuous
100
AcDbLine
 10
4237.50002781
 20
15605.69058286
 30
0.0
 11
4237.50002781
 21
15615.69058286
 31
0.0
  0
LINE
  5
194
330
4FD
100
AcDbEntity
  8
YKK_Z1
  6
Continuous
100
AcDbLine
 10
4232.50002781
 20
15611.69058286
 30
0.0
 11
4237.50002781
 21
15611.69058286
 31
0.0
  0
LINE
  5
195
330
4FD
100
AcDbEntity
  8
YKK_Z1
  6
Continuous
100
AcDbLine
 10
4232.50002781
 20
15615.69058286
 30
0.0
 11
4232.50002781
 21
15605.69058286
 31
0.0
  0
LINE
  5
196
330
4FD
100
AcDbEntity
  8
YKK_Z1
  6
Continuous
100
AcDbLine
 10
4182.50002781
 20
15605.69058286
 30
0.0
 11
4182.50002781
 21
15615.69058286
 31
0.0
  0
LINE
  5
197
330
4FD
100
AcDbEntity
  8
YKK_Z1
  6
Continuous
100
AcDbLine
 10
4177.50002781
 20
15611.69058286
 30
0.0
 11
4182.50002781
 21
15611.69058286
 31
0.0
  0
LINE
  5
198
330
4FD
100
AcDbEntity
  8
YKK_Z1
  6
Continuous
100
AcDbLine
 10
4177.50002781
 20
15615.69058286
 30
0.0
 11
4177.50002781
 21
15605.69058286
 31
0.0
  0
LINE
  5
199
330
4FD
100
AcDbEntity
  8
YKK_Z1
  6
Continuous
100
AcDbLine
 10
4232.50002781
 20
15605.69058286
 30
0.0
 11
4182.50002781
 21
15605.69058286
 31
0.0
  0
LINE
  5
19A
330
4FD
100
AcDbEntity
  8
YKK_Z1
  6
Continuous
100
AcDbLine
 10
4182.50002781
 20
15615.69058286
 30
0.0
 11
4232.50002781
 21
15615.69058286
 31
0.0
  0
LINE
  5
19B
330
4FD
100
AcDbEntity
  8
YKK_Z1
  6
Continuous
100
AcDbLine
 10
4127.50002781
 20
15605.69058286
 30
0.0
 11
4127.50002781
 21
15615.69058286
 31
0.0
  0
LINE
  5
19C
330
4FD
100
AcDbEntity
  8
YKK_Z1
  6
Continuous
100
AcDbLine
 10
4122.50002781
 20
15611.69058286
 30
0.0
 11
4127.50002781
 21
15611.69058286
 31
0.0
  0
LINE
  5
19D
330
4FD
100
AcDbEntity
  8
YKK_Z1
  6
Continuous
100
AcDbLine
 10
4122.50002781
 20
15615.69058286
 30
0.0
 11
4122.50002781
 21
15605.69058286
 31
0.0
  0
LINE
  5
19E
330
4FD
100
AcDbEntity
  8
YKK_Z1
  6
Continuous
100
AcDbLine
 10
4177.50002781
 20
15605.69058286
 30
0.0
 11
4127.50002781
 21
15605.69058286
 31
0.0
  0
LINE
  5
19F
330
4FD
100
AcDbEntity
  8
YKK_Z1
  6
Continuous
100
AcDbLine
 10
4127.50002781
 20
15615.69058286
 30
0.0
 11
4177.50002781
 21
15615.69058286
 31
0.0
  0
LINE
  5
1A0
330
4FD
100
AcDbEntity
  8
YKK_Z1
  6
Continuous
100
AcDbLine
 10
4287.50002781
 20
15605.69058286
 30
0.0
 11
4237.50002781
 21
15605.69058286
 31
0.0
  0
LINE
  5
1A1
330
4FD
100
AcDbEntity
  8
YKK_Z1
  6
Continuous
100
AcDbLine
 10
4237.50002781
 20
15615.69058286
 30
0.0
 11
4287.50002781
 21
15615.69058286
 31
0.0
  0
CIRCLE
  5
1A2
330
4FD
100
AcDbEntity
  8
YKK_N1
100
AcDbCircle
 10
3942.50015288
 20
16004.54288782
 30
0.0
 40
6.5
  0
CIRCLE
  5
1A3
330
4FD
100
AcDbEntity
  8
YKK_N1
100
AcDbCircle
 10
3942.50015288
 20
16004.54288782
 30
0.0
 40
10.0
  0
CIRCLE
  5
1A4
330
4FD
100
AcDbEntity
  8
YKK_N1
100
AcDbCircle
 10
4012.50015288
 20
16004.54288782
 30
0.0
 40
6.5
  0
CIRCLE
  5
1A5
330
4FD
100
AcDbEntity
  8
YKK_N1
100
AcDbCircle
 10
4012.50015288
 20
16004.54288782
 30
0.0
 40
10.0
  0
CIRCLE
  5
1A6
330
4FD
100
AcDbEntity
  8
YKK_N1
100
AcDbCircle
 10
4042.50015288
 20
16104.54288782
 30
0.0
 40
6.5
  0
CIRCLE
  5
1A7
330
4FD
100
AcDbEntity
  8
YKK_N1
100
AcDbCircle
 10
4042.50015288
 20
16104.54288782
 30
0.0
 40
10.0
  0
CIRCLE
  5
1A8
330
4FD
100
AcDbEntity
  8
YKK_N1
100
AcDbCircle
 10
3942.50015288
 20
16104.54288782
 30
0.0
 40
6.5
  0
CIRCLE
  5
1A9
330
4FD
100
AcDbEntity
  8
YKK_N1
100
AcDbCircle
 10
3942.50015288
 20
16104.54288782
 30
0.0
 40
10.0
  0
LINE
  5
1AA
330
4FD
100
AcDbEntity
  8
YKK_N1
100
AcDbLine
 10
4012.50002781
 20
16004.54290115
 30
0.0
 11
4012.50002781
 21
15879.54290115
 31
0.0
  0
LINE
  5
1AB
330
4FD
100
AcDbEntity
  8
YKK_N1
  6
Continuous
100
AcDbLine
 10
4042.50002781
 20
16104.54290115
 30
0.0
 11
4042.50002781
 21
15879.54290115
 31
0.0
  0
TEXT
  5
1AC
330
4FD
100
AcDbEntity
  8
YKK_N1
  6
Continuous
100
AcDbText
 10
3824.75840975
 20
16018.97571534
 30
0.0
 40
60.0
  1
70
100
AcDbText
  0
LINE
  5
1AD
330
4FD
100
AcDbEntity
  8
YKK_N1
  6
Continuous
100
AcDbLine
 10
4042.50250097
 20
16104.54290115
 30
0.0
 11
3942.50002781
 21
16104.54290115
 31
0.0
  0
LINE
  5
1AE
330
4FD
100
AcDbEntity
  8
YKK_N1
  6
Continuous
100
AcDbLine
 10
4012.50002781
 20
16004.54290115
 30
0.0
 11
3942.50002781
 21
16004.54290115
 31
0.0
  0
LINE
  5
1AF
330
4FD
100
AcDbEntity
  8
YKK_N1
  6
Continuous
100
AcDbLine
 10
4592.5000321
 20
15702.29313658
 30
0.0
 11
4692.5000321
 21
15702.29313658
 31
0.0
  0
LINE
  5
1B0
330
4FD
100
AcDbEntity
  8
YKK_N1
  6
Continuous
100
AcDbLine
 10
4642.5000321
 20
15615.6905962
 30
0.0
 11
4692.5000321
 21
15702.29313658
 31
0.0
  0
LINE
  5
1B1
330
4FD
100
AcDbEntity
  8
YKK_Z1
  6
CENTER
100
AcDbLine
 10
4387.59697923
 20
15615.69058286
 30
0.0
 11
4887.59697923
 21
15615.69058286
 31
0.0
  0
CIRCLE
  5
1B2
330
4FD
100
AcDbEntity
  8
YKK_N1
100
AcDbCircle
 10
4642.5000321
 20
15600.6905962
 30
0.0
 40
10.0
  0
CIRCLE
  5
1B3
330
4FD
100
AcDbEntity
  8
YKK_N1
100
AcDbCircle
 10
4642.5000321
 20
15600.6905962
 30
0.0
 40
6.5
  0
CIRCLE
  5
1B4
330
4FD
100
AcDbEntity
  8
YKK_N1
100
AcDbCircle
 10
4442.50015717
 20
15615.69058286
 30
0.0
 40
10.0
  0
CIRCLE
  5
1B5
330
4FD
100
AcDbEntity
  8
YKK_N1
100
AcDbCircle
 10
4442.50015717
 20
15615.69058286
 30
0.0
 40
6.5
  0
TEXT
  5
1B6
330
4FD
100
AcDbEntity
  8
YKK_N1
  6
Continuous
100
AcDbText
 10
4630.5000321
 20
15479.10996083
 30
0.0
 40
60.0
  1
15
 50
90.0
 72
     4
 11
4600.5000321
 21
15519.10996083
 31
0.0
100
AcDbText
  0
LINE
  5
1B7
330
4FD
100
AcDbEntity
  8
YKK_N1
  6
Continuous
100
AcDbLine
 10
4642.5000321
 20
15615.6905962
 30
0.0
 11
4642.5000321
 21
15600.6905962
 31
0.0
  0
LINE
  5
1B8
330
4FD
100
AcDbEntity
  8
YKK_N1
  6
Continuous
100
AcDbLine
 10
4592.5000321
 20
15702.29313658
 30
0.0
 11
4642.5000321
 21
15615.6905962
 31
0.0
  0
LINE
  5
1B9
330
4FD
100
AcDbEntity
  8
YKK_Z1
  6
Continuous
100
AcDbLine
 10
4442.50015717
 20
15605.69058286
 30
0.0
 11
4402.50002781
 21
15605.69058286
 31
0.0
  0
LINE
  5
1BA
330
4FD
100
AcDbEntity
  8
YKK_Z1
  6
Continuous
100
AcDbLine
 10
4402.50002781
 20
15615.69058286
 30
0.0
 11
4442.50015717
 21
15615.69058286
 31
0.0
  0
LINE
  5
1BB
330
4FD
100
AcDbEntity
  8
YKK_Z1
  6
Continuous
100
AcDbLine
 10
4402.50002781
 20
15605.69058286
 30
0.0
 11
4402.50002781
 21
15615.69058286
 31
0.0
  0
LINE
  5
1BC
330
4FD
100
AcDbEntity
  8
YKK_Z1
  6
Continuous
100
AcDbLine
 10
4397.50002781
 20
15611.69058286
 30
0.0
 11
4402.50002781
 21
15611.69058286
 31
0.0
  0
LINE
  5
1BD
330
4FD
100
AcDbEntity
  8
YKK_Z1
  6
Continuous
100
AcDbLine
 10
4397.50002781
 20
15615.69058286
 30
0.0
 11
4397.50002781
 21
15605.69058286
 31
0.0
  0
TEXT
  5
1BE
330
4FD
100
AcDbEntity
  8
YKK_Z1
100
AcDbText
 10
4809.88269352
 20
15625.69058286
 30
0.0
 40
60.0
  1
FL
 41
0.8
  7
YKK_SGSTYLE1
 72
     2
 11
4887.59697923
 21
15625.69058286
 31
0.0
100
AcDbText
  0
LINE
  5
1BF
330
4FD
100
AcDbEntity
  8
YKK_Z1
  6
ByBlock
 62
     0
100
AcDbLine
 10
4769.88269352
 20
15615.69058286
 30
0.0
 11
4735.24167752
 21
15675.69058286
 31
0.0
  0
LINE
  5
1C0
330
4FD
100
AcDbEntity
  8
YKK_Z1
  6
ByBlock
 62
     0
100
AcDbLine
 10
4735.24167752
 20
15675.69058286
 30
0.0
 11
4804.52370952
 21
15675.69058286
 31
0.0
  0
LINE
  5
1C1
330
4FD
100
AcDbEntity
  8
YKK_Z1
  6
ByBlock
 62
     0
100
AcDbLine
 10
4804.52370952
 20
15675.69058286
 30
0.0
 11
4769.88269352
 21
15615.69058286
 31
0.0
  0
TEXT
  5
1C2
330
4FD
100
AcDbEntity
  8
0
100
AcDbText
 10
100.0
 20
18737.5
 30
0.0
 40
200.0
  1
W＝1,600　H＝2,400
  7
EXTFONT
100
AcDbText
  0
TEXT
  5
1C3
330
4FD
100
AcDbEntity
  8
0
100
AcDbText
 10
100.0
 20
19187.5
 30
0.0
 40
200.0
  1
FIX窓（巾木）　一般タイプ
  7
EXTFONT
100
AcDbText
  0
TEXT
  5
1C4
330
4FD
100
AcDbEntity
  8
YKK_N1
  6
Continuous
100
AcDbText
 10
2930.5000321
 20
17686.1905962
 30
0.0
 40
60.0
  1
445
 50
90.0
 72
     4
 11
2900.5000321
 21
17766.1905962
 31
0.0
100
AcDbText
  0
LINE
  5
1C5
330
4FD
100
AcDbEntity
  8
YKK_N1
  6
Continuous
100
AcDbLine
 10
2942.5000321
 20
17570.6905962
 30
0.0
 11
2942.5000321
 21
18015.6905962
 31
0.0
  0
LINE
  5
1C6
330
4FD
100
AcDbEntity
  8
YKK_A1
100
AcDbLine
 10
1834.99993544
 20
17570.69062601
 30
0.0
 11
2607.49987584
 21
17570.69062601
 31
0.0
  0
LINE
  5
1C7
330
4FD
100
AcDbEntity
  8
YKK_A1
100
AcDbLine
 10
2607.49987584
 20
17515.69062928
 30
0.0
 11
1834.99993544
 21
17515.69062928
 31
0.0
  0
LINE
  5
1C8
330
4FD
100
AcDbEntity
  8
YKK_A1
100
AcDbLine
 10
1779.99993872
 20
17515.69062928
 30
0.0
 11
1007.49999832
 21
17515.69062928
 31
0.0
  0
LINE
  5
1C9
330
4FD
100
AcDbEntity
  8
YKK_A1
100
AcDbLine
 10
1007.49999832
 20
17570.69062601
 30
0.0
 11
1779.99993872
 21
17570.69062601
 31
0.0
  0
TEXT
  5
1CA
330
4FD
100
AcDbEntity
  8
YKK_A1
100
AcDbText
 10
1711.14279586
 20
17600.69062601
 30
0.0
 40
60.0
  1
F
 41
0.8
  7
YKK_SGSTYLE1
 72
     2
 11
1749.99993872
 21
17600.69062601
 31
0.0
100
AcDbText
  0
TEXT
  5
1CB
330
4FD
100
AcDbEntity
  8
YKK_N1
  6
Continuous
100
AcDbText
 10
2930.5000321
 20
16480.25610081
 30
0.0
 40
60.0
  1
1900
 50
90.0
 72
     4
 11
2900.5000321
 21
16570.25610081
 31
0.0
100
AcDbText
  0
TEXT
  5
1CC
330
4FD
100
AcDbEntity
  8
YKK_N1
  6
Continuous
100
AcDbText
 10
3130.5000321
 20
16637.61616864
 30
0.0
 40
60.0
  1
H=2400
 50
90.0
 72
     4
 11
3100.5000321
 21
16797.61616864
 31
0.0
100
AcDbText
  0
TEXT
  5
1CD
330
4FD
100
AcDbEntity
  8
YKK_A1
100
AcDbText
 10
2538.64273298
 20
17600.69062601
 30
0.0
 40
60.0
  1
F
 41
0.8
  7
YKK_SGSTYLE1
 72
     2
 11
2577.49987584
 21
17600.69062601
 31
0.0
100
AcDbText
  0
CIRCLE
  5
1CE
330
4FD
100
AcDbEntity
  8
YKK_N1
100
AcDbCircle
 10
2942.5000321
 20
17515.6905962
 30
0.0
 40
10.0
  0
CIRCLE
  5
1CF
330
4FD
100
AcDbEntity
  8
YKK_N1
100
AcDbCircle
 10
2942.5000321
 20
17515.6905962
 30
0.0
 40
6.5
  0
CIRCLE
  5
1D0
330
4FD
100
AcDbEntity
  8
YKK_N1
100
AcDbCircle
 10
2942.5000321
 20
17570.6905962
 30
0.0
 40
10.0
  0
CIRCLE
  5
1D1
330
4FD
100
AcDbEntity
  8
YKK_N1
100
AcDbCircle
 10
2942.5000321
 20
17570.6905962
 30
0.0
 40
6.5
  0
LINE
  5
1D2
330
4FD
100
AcDbEntity
  8
YKK_N1
  6
Continuous
100
AcDbLine
 10
2692.5000321
 20
17570.6905962
 30
0.0
 11
2942.5000321
 21
17570.6905962
 31
0.0
  0
LINE
  5
1D3
330
4FD
100
AcDbEntity
  8
YKK_N1
  6
Continuous
100
AcDbLine
 10
2692.5000321
 20
17515.6905962
 30
0.0
 11
2942.5000321
 21
17515.6905962
 31
0.0
  0
TEXT
  5
1D4
330
4FD
100
AcDbEntity
  8
YKK_N1
  6
Continuous
100
AcDbText
 10
3017.49392083
 20
17491.71970166
 30
0.0
 40
60.0
  1
55
 50
90.0
 72
     4
 11
2987.49392083
 21
17541.71970166
 31
0.0
100
AcDbText
  0
LINE
  5
1D5
330
4FD
100
AcDbEntity
  8
YKK_N1
100
AcDbLine
 10
2942.5000321
 20
17570.6905962
 30
0.0
 11
2942.5000321
 21
17515.6905962
 31
0.0
  0
LINE
  5
1D6
330
4FD
100
AcDbEntity
  8
YKK_A1
100
AcDbLine
 10
2607.49987584
 20
18015.6905962
 30
0.0
 11
1834.99993544
 21
18015.6905962
 31
0.0
  0
LINE
  5
1D7
330
4FD
100
AcDbEntity
  8
YKK_A1
100
AcDbLine
 10
2617.49987865
 20
18025.6905962
 30
0.0
 11
997.5
 21
18025.6905962
 31
0.0
  0
LINE
  5
1D8
330
4FD
100
AcDbEntity
  8
YKK_A1
100
AcDbLine
 10
1779.99993872
 20
18015.6905962
 30
0.0
 11
1007.49999832
 21
18015.6905962
 31
0.0
  0
CIRCLE
  5
1D9
330
4FD
100
AcDbEntity
  8
YKK_N1
100
AcDbCircle
 10
2942.5000321
 20
18015.6905962
 30
0.0
 40
10.0
  0
CIRCLE
  5
1DA
330
4FD
100
AcDbEntity
  8
YKK_N1
100
AcDbCircle
 10
2942.5000321
 20
18015.6905962
 30
0.0
 40
6.5
  0
LINE
  5
1DB
330
4FD
100
AcDbEntity
  8
YKK_N1
  6
Continuous
100
AcDbLine
 10
2692.5000321
 20
18015.6905962
 30
0.0
 11
3142.5000321
 21
18015.6905962
 31
0.0
  0
LINE
  5
1DC
330
4FD
100
AcDbEntity
  8
YKK_N1
  6
Continuous
100
AcDbLine
 10
3192.5000321
 20
17929.08805582
 30
0.0
 11
3142.5000321
 21
18015.6905962
 31
0.0
  0
LINE
  5
1DD
330
4FD
100
AcDbEntity
  8
YKK_N1
  6
Continuous
100
AcDbLine
 10
3092.5000321
 20
17929.08805582
 30
0.0
 11
3192.5000321
 21
17929.08805582
 31
0.0
  0
LINE
  5
1DE
330
4FD
100
AcDbEntity
  8
YKK_N1
  6
Continuous
100
AcDbLine
 10
3092.5000321
 20
17929.08805582
 30
0.0
 11
3142.5000321
 21
18015.6905962
 31
0.0
  0
LINE
  5
1DF
330
4FD
100
AcDbEntity
  8
YKK_N1
  6
Continuous
100
AcDbLine
 10
4442.5000321
 20
17570.6905962
 30
0.0
 11
4442.5000321
 21
18015.6905962
 31
0.0
  0
TEXT
  5
1E0
330
4FD
100
AcDbEntity
  8
YKK_N1
  6
Continuous
100
AcDbText
 10
4430.5000321
 20
17686.1905962
 30
0.0
 40
60.0
  1
445
 50
90.0
 72
     4
 11
4400.5000321
 21
17766.1905962
 31
0.0
100
AcDbText
  0
LINE
  5
1E1
330
4FD
100
AcDbEntity
  8
YKK_Z1
  6
Continuous
100
AcDbLine
 10
3877.50005832
 20
18040.6905962
 30
0.0
 11
3877.50005832
 21
16305.6905962
 31
0.0
  0
LINE
  5
1E2
330
4FD
100
AcDbEntity
  8
YKK_C1
100
AcDbLine
 10
4042.50002781
 20
18005.6905962
 30
0.0
 11
4042.50002781
 21
17580.69063953
 31
0.0
  0
LINE
  5
1E3
330
4FD
100
AcDbEntity
  8
YKK_C1
100
AcDbLine
 10
3987.50005832
 20
17555.69063953
 30
0.0
 11
3987.50005832
 21
18030.69051859
 31
0.0
  0
LINE
  5
1E4
330
4FD
100
AcDbEntity
  8
YKK_C1
100
AcDbLine
 10
3963.50005832
 20
18030.69067382
 30
0.0
 11
3963.50005832
 21
17555.69063953
 31
0.0
  0
LINE
  5
1E5
330
4FD
100
AcDbEntity
  8
YKK_C1
100
AcDbLine
 10
3956.49968334
 20
17580.69063953
 30
0.0
 11
3956.49968334
 21
18005.6905962
 31
0.0
  0
LINE
  5
1E6
330
4FD
100
AcDbEntity
  8
YKK_C1
100
AcDbLine
 10
3942.50002781
 20
18005.6905962
 30
0.0
 11
3942.50002755
 21
17580.69063953
 31
0.0
  0
LINE
  5
1E7
330
4FD
100
AcDbEntity
  8
YKK_N1
  6
Continuous
100
AcDbLine
 10
4192.5000321
 20
17515.6905962
 30
0.0
 11
4442.5000321
 21
17515.6905962
 31
0.0
  0
LINE
  5
1E8
330
4FD
100
AcDbEntity
  8
YKK_N1
  6
Continuous
100
AcDbLine
 10
4192.5000321
 20
17570.6905962
 30
0.0
 11
4442.5000321
 21
17570.6905962
 31
0.0
  0
TEXT
  5
1E9
330
4FD
100
AcDbEntity
  8
YKK_N1
  6
Continuous
100
AcDbText
 10
4430.5000321
 20
16480.25610081
 30
0.0
 40
60.0
  1
1900
 50
90.0
 72
     4
 11
4400.5000321
 21
16570.25610081
 31
0.0
100
AcDbText
  0
LINE
  5
1EA
330
4FD
100
AcDbEntity
  8
YKK_C1
100
AcDbLine
 10
4042.50002781
 20
17515.69063953
 30
0.0
 11
3994.50002781
 21
17515.69063953
 31
0.0
  0
LINE
  5
1EB
330
4FD
100
AcDbEntity
  8
YKK_C1
100
AcDbLine
 10
3994.50002781
 20
17544.69063953
 30
0.0
 11
4009.50002781
 21
17547.33554424
 31
0.0
  0
LINE
  5
1EC
330
4FD
100
AcDbEntity
  8
YKK_C1
100
AcDbLine
 10
4042.50002781
 20
17567.69063953
 30
0.0
 11
3994.50002781
 21
17567.69063953
 31
0.0
  0
LINE
  5
1ED
330
4FD
100
AcDbEntity
  8
YKK_C1
100
AcDbLine
 10
3994.50002781
 20
17515.69063953
 30
0.0
 11
3994.50002781
 21
17544.69063953
 31
0.0
  0
LINE
  5
1EE
330
4FD
100
AcDbEntity
  8
YKK_C1
100
AcDbLine
 10
3994.50002781
 20
17570.69063953
 30
0.0
 11
3994.50002781
 21
17555.19063953
 31
0.0
  0
LINE
  5
1EF
330
4FD
100
AcDbEntity
  8
YKK_C1
100
AcDbLine
 10
4042.50002781
 20
17570.69063953
 30
0.0
 11
4042.50002781
 21
17515.69063953
 31
0.0
  0
LINE
  5
1F0
330
4FD
100
AcDbEntity
  8
YKK_C1
100
AcDbLine
 10
4009.50002781
 20
17547.33554424
 30
0.0
 11
4009.50002781
 21
17567.69063953
 31
0.0
  0
LINE
  5
1F1
330
4FD
100
AcDbEntity
  8
YKK_C1
100
AcDbLine
 10
3952.56968334
 20
17515.69063953
 30
0.0
 11
3952.56968334
 21
17544.69063953
 31
0.0
  0
LINE
  5
1F2
330
4FD
100
AcDbEntity
  8
YKK_C1
100
AcDbLine
 10
3956.49968334
 20
17556.69063953
 30
0.0
 11
3956.49968334
 21
17570.69063953
 31
0.0
  0
LINE
  5
1F3
330
4FD
100
AcDbEntity
  8
YKK_C1
100
AcDbLine
 10
3967.79968334
 20
17536.69063953
 30
0.0
 11
3967.79968334
 21
17544.69063953
 31
0.0
  0
LINE
  5
1F4
330
4FD
100
AcDbEntity
  8
YKK_C1
100
AcDbLine
 10
3942.49968334
 20
17570.69063953
 30
0.0
 11
3942.49968334
 21
17515.69063953
 31
0.0
  0
LINE
  5
1F5
330
4FD
100
AcDbEntity
  8
YKK_C1
100
AcDbLine
 10
3942.49968334
 20
17536.69063953
 30
0.0
 11
3967.79968334
 21
17536.69063953
 31
0.0
  0
LINE
  5
1F6
330
4FD
100
AcDbEntity
  8
YKK_C1
100
AcDbLine
 10
3956.49968334
 20
17570.69063953
 30
0.0
 11
3942.49968334
 21
17570.69063953
 31
0.0
  0
LINE
  5
1F7
330
4FD
100
AcDbEntity
  8
YKK_C1
100
AcDbLine
 10
3952.56968334
 20
17544.69063953
 30
0.0
 11
3994.50002781
 21
17544.69063953
 31
0.0
  0
TEXT
  5
1F8
330
4FD
100
AcDbEntity
  8
YKK_N1
  6
Continuous
100
AcDbText
 10
4630.5000321
 20
16637.61616864
 30
0.0
 40
60.0
  1
H=2400
 50
90.0
 72
     4
 11
4600.5000321
 21
16797.61616864
 31
0.0
100
AcDbText
  0
CIRCLE
  5
1F9
330
4FD
100
AcDbEntity
  8
YKK_N1
100
AcDbCircle
 10
4442.5000321
 20
17515.6905962
 30
0.0
 40
10.0
  0
CIRCLE
  5
1FA
330
4FD
100
AcDbEntity
  8
YKK_N1
100
AcDbCircle
 10
4442.5000321
 20
17515.6905962
 30
0.0
 40
6.5
  0
CIRCLE
  5
1FB
330
4FD
100
AcDbEntity
  8
YKK_N1
100
AcDbCircle
 10
4442.5000321
 20
17570.6905962
 30
0.0
 40
10.0
  0
CIRCLE
  5
1FC
330
4FD
100
AcDbEntity
  8
YKK_N1
100
AcDbCircle
 10
4442.5000321
 20
17570.6905962
 30
0.0
 40
6.5
  0
TEXT
  5
1FD
330
4FD
100
AcDbEntity
  8
YKK_N1
  6
Continuous
100
AcDbText
 10
4517.49392083
 20
17491.71970166
 30
0.0
 40
60.0
  1
55
 50
90.0
 72
     4
 11
4487.49392083
 21
17541.71970166
 31
0.0
100
AcDbText
  0
LINE
  5
1FE
330
4FD
100
AcDbEntity
  8
YKK_N1
100
AcDbLine
 10
4442.5000321
 20
17570.6905962
 30
0.0
 11
4442.5000321
 21
17515.6905962
 31
0.0
  0
LINE
  5
1FF
330
4FD
100
AcDbEntity
  8
YKK_N1
  6
Continuous
100
AcDbLine
 10
4192.5000321
 20
18015.6905962
 30
0.0
 11
4642.5000321
 21
18015.6905962
 31
0.0
  0
LINE
  5
200
330
4FD
100
AcDbEntity
  8
YKK_N1
  6
Continuous
100
AcDbLine
 10
4192.5000321
 20
18055.6905962
 30
0.0
 11
4642.5000321
 21
18055.6905962
 31
0.0
  0
LINE
  5
203
330
4FD
100
AcDbEntity
  8
YKK_Z1
  6
Continuous
100
AcDbLine
 10
4092.50005832
 20
18075.6905962
 30
0.0
 11
4092.50005832
 21
18415.6905962
 31
0.0
  0
LINE
  5
204
330
4FD
100
AcDbEntity
  8
YKK_Z1
  6
CENTER
100
AcDbLine
 10
3982.50005832
 20
18060.6905962
 30
0.0
 11
3982.50005832
 21
18415.6905962
 31
0.0
  0
LINE
  5
205
330
4FD
100
AcDbEntity
  8
YKK_Z1
  6
Continuous
100
AcDbLine
 10
4072.50005832
 20
18415.6905962
 30
0.0
 11
4072.50005832
 21
18075.6905962
 31
0.0
  0
LINE
  5
206
330
4FD
100
AcDbEntity
  8
YKK_Z1
  6
Continuous
100
AcDbLine
 10
3892.50005832
 20
18045.6905962
 30
0.0
 11
3892.50005832
 21
18415.6905962
 31
0.0
  0
LINE
  5
207
330
4FD
100
AcDbEntity
  8
YKK_Z1
  6
Continuous
100
AcDbLine
 10
3885.50005832
 20
18038.6905962
 30
0.0
 11
3885.50005832
 21
18415.6905962
 31
0.0
  0
LINE
  5
208
330
4FD
100
AcDbEntity
  8
YKK_Z1
  6
Continuous
100
AcDbLine
 10
3877.50005832
 20
18030.6905962
 30
0.0
 11
3877.50005832
 21
18415.6905962
 31
0.0
  0
LINE
  5
209
330
4FD
100
AcDbEntity
  8
YKK_Z1
  6
Continuous
100
AcDbLine
 10
4072.50005832
 20
18195.69053385
 30
0.0
 11
4092.50005832
 21
18215.69052346
 31
0.0
  0
LINE
  5
20A
330
4FD
100
AcDbEntity
  8
YKK_Z1
  6
Continuous
100
AcDbLine
 10
4092.50005832
 20
18195.69061699
 30
0.0
 11
4072.50005832
 21
18215.69062045
 31
0.0
  0
LINE
  5
20B
330
4FD
100
AcDbEntity
  8
YKK_C1
100
AcDbLine
 10
4042.50005832
 20
18015.6905962
 30
0.0
 11
3994.50005832
 21
18015.6905962
 31
0.0
  0
LINE
  5
20C
330
4FD
100
AcDbEntity
  8
YKK_C1
100
AcDbLine
 10
3994.50005832
 20
18015.6905962
 30
0.0
 11
3994.50005832
 21
18039.6905962
 31
0.0
  0
LINE
  5
20D
330
4FD
100
AcDbEntity
  8
YKK_Z1
  6
Continuous
100
AcDbLine
 10
4057.76902917
 20
18075.6905962
 30
0.0
 11
4072.50005832
 21
18090.4216177
 31
0.0
  0
LINE
  5
20F
330
4FD
100
AcDbEntity
  8
YKK_Z1
  6
Continuous
100
AcDbLine
 10
4037.97003758
 20
18075.6905962
 30
0.0
 11
4072.50005832
 21
18110.220599
 31
0.0
  0
LINE
  5
210
330
4FD
100
AcDbEntity
  8
YKK_Z1
  6
Continuous
100
AcDbLine
 10
4029.48475547
 20
18075.6905962
 30
0.0
 11
4072.50005832
 21
18118.7058767
 31
0.0
  0
LINE
  5
211
330
4FD
100
AcDbEntity
  8
YKK_C1
100
AcDbLine
 10
4042.50005832
 20
18055.6905962
 30
0.0
 11
4042.50005832
 21
18015.6905962
 31
0.0
  0
LINE
  5
212
330
4FD
100
AcDbEntity
  8
YKK_C1
100
AcDbLine
 10
4032.50005832
 20
18055.6905962
 30
0.0
 11
4042.50005832
 21
18055.6905962
 31
0.0
  0
LINE
  5
213
330
4FD
100
AcDbEntity
  8
YKK_C1
100
AcDbLine
 10
3952.87005832
 20
18015.6905962
 30
0.0
 11
3952.87005832
 21
18028.6905962
 31
0.0
  0
LINE
  5
214
330
4FD
100
AcDbEntity
  8
YKK_C1
100
AcDbLine
 10
3956.50005832
 20
18015.6905962
 30
0.0
 11
3952.87005832
 21
18015.6905962
 31
0.0
  0
LINE
  5
215
330
4FD
100
AcDbEntity
  8
YKK_C1
100
AcDbLine
 10
3956.50005832
 20
18039.6905962
 30
0.0
 11
3956.50005832
 21
18015.6905962
 31
0.0
  0
LINE
  5
216
330
4FD
100
AcDbEntity
  8
YKK_Z1
  6
Continuous
100
AcDbLine
 10
3927.50005832
 20
18045.6905962
 30
0.0
 11
3892.50005832
 21
18045.6905962
 31
0.0
  0
LINE
  5
217
330
4FD
100
AcDbEntity
  8
YKK_Z1
  6
Continuous
100
AcDbLine
 10
3937.50005832
 20
18075.6905962
 30
0.0
 11
3927.50005832
 21
18045.6905962
 31
0.0
  0
LINE
  5
218
330
4FD
100
AcDbEntity
  8
YKK_C1
100
AcDbLine
 10
3942.50005832
 20
18055.6905962
 30
0.0
 11
3942.50005832
 21
18015.6905962
 31
0.0
  0
LINE
  5
219
330
4FD
100
AcDbEntity
  8
YKK_C1
100
AcDbLine
 10
3942.50005832
 20
18036.3205962
 30
0.0
 11
3956.50005832
 21
18036.3205962
 31
0.0
  0
LINE
  5
21A
330
4FD
100
AcDbEntity
  8
YKK_C1
100
AcDbLine
 10
3952.87005832
 20
18028.6905962
 30
0.0
 11
3942.50005832
 21
18028.6905962
 31
0.0
  0
LINE
  5
21B
330
4FD
100
AcDbEntity
  8
YKK_C1
100
AcDbLine
 10
3953.50005832
 20
18055.6905962
 30
0.0
 11
3942.50005832
 21
18055.6905962
 31
0.0
  0
LINE
  5
21C
330
4FD
100
AcDbEntity
  8
YKK_Z1
  6
Continuous
100
AcDbLine
 10
3877.50005832
 20
18140.6905962
 30
0.0
 11
3885.50005832
 21
18140.6905962
 31
0.0
  0
LINE
  5
21D
330
4FD
100
AcDbEntity
  8
YKK_Z1
  6
Continuous
100
AcDbLine
 10
3877.50005832
 20
18130.6905962
 30
0.0
 11
3885.50005832
 21
18130.6905962
 31
0.0
  0
LINE
  5
21E
330
4FD
100
AcDbEntity
  8
YKK_Z1
  6
Continuous
100
AcDbLine
 10
3942.50005832
 20
18030.6905962
 30
0.0
 11
3877.50005832
 21
18030.6905962
 31
0.0
  0
LINE
  5
21F
330
4FD
100
AcDbEntity
  8
YKK_Z1
  6
Continuous
100
AcDbLine
 10
3942.50005832
 20
18038.6905962
 30
0.0
 11
3885.50005832
 21
18038.6905962
 31
0.0
  0
LINE
  5
220
330
4FD
100
AcDbEntity
  8
YKK_Z1
  6
Continuous
100
AcDbLine
 10
4072.50005832
 20
18075.6905962
 30
0.0
 11
3937.50005832
 21
18075.6905962
 31
0.0
  0
LINE
  5
221
330
4FD
100
AcDbEntity
  8
YKK_C1
100
AcDbLine
 10
3994.50005832
 20
18039.6905962
 30
0.0
 11
3956.50005832
 21
18039.6905962
 31
0.0
  0
LINE
  5
222
330
4FD
100
AcDbEntity
  8
YKK_Z1
  6
Continuous
100
AcDbLine
 10
4072.50005832
 20
18115.69057542
 30
0.0
 11
4092.50005832
 21
18135.69056503
 31
0.0
  0
LINE
  5
223
330
4FD
100
AcDbEntity
  8
YKK_Z1
  6
Continuous
100
AcDbLine
 10
4092.50005832
 20
18115.69060313
 30
0.0
 11
4072.50005832
 21
18135.6906066
 31
0.0
  0
LINE
  5
224
330
4FD
100
AcDbEntity
  8
YKK_Z1
  6
Continuous
100
AcDbLine
 10
4072.50005832
 20
18075.6905962
 30
0.0
 11
4092.50005832
 21
18095.69058581
 31
0.0
  0
LINE
  5
225
330
4FD
100
AcDbEntity
  8
YKK_Z1
  6
Continuous
100
AcDbLine
 10
4092.50005832
 20
18075.6905962
 30
0.0
 11
4072.50005832
 21
18095.69059967
 31
0.0
  0
LINE
  5
226
330
4FD
100
AcDbEntity
  8
YKK_Z1
  6
Continuous
100
AcDbLine
 10
4072.50005832
 20
18075.6905962
 30
0.0
 11
4092.50005832
 21
18075.6905962
 31
0.0
  0
LINE
  5
227
330
4FD
100
AcDbEntity
  8
YKK_Z1
  6
Continuous
100
AcDbLine
 10
4072.50005832
 20
18095.69058581
 30
0.0
 11
4092.50005832
 21
18115.69057542
 31
0.0
  0
LINE
  5
228
330
4FD
100
AcDbEntity
  8
YKK_Z1
  6
Continuous
100
AcDbLine
 10
4092.50005832
 20
18095.69059967
 30
0.0
 11
4072.50005832
 21
18115.69060313
 31
0.0
  0
LINE
  5
229
330
4FD
100
AcDbEntity
  8
YKK_Z1
  6
Continuous
100
AcDbLine
 10
4072.50005832
 20
18155.69055463
 30
0.0
 11
4092.50005832
 21
18175.69054424
 31
0.0
  0
LINE
  5
22A
330
4FD
100
AcDbEntity
  8
YKK_Z1
  6
Continuous
100
AcDbLine
 10
4092.50005832
 20
18155.69061006
 30
0.0
 11
4072.50005832
 21
18175.69061352
 31
0.0
  0
LINE
  5
22B
330
4FD
100
AcDbEntity
  8
YKK_Z1
  6
Continuous
100
AcDbLine
 10
4072.50005832
 20
18135.69056503
 30
0.0
 11
4092.50005832
 21
18155.69055463
 31
0.0
  0
LINE
  5
22C
330
4FD
100
AcDbEntity
  8
YKK_Z1
  6
Continuous
100
AcDbLine
 10
4092.50005832
 20
18135.6906066
 30
0.0
 11
4072.50005832
 21
18155.69061006
 31
0.0
  0
LINE
  5
22D
330
4FD
100
AcDbEntity
  8
YKK_Z1
  6
Continuous
100
AcDbLine
 10
4072.50005832
 20
18175.69054424
 30
0.0
 11
4092.50005832
 21
18195.69053385
 31
0.0
  0
LINE
  5
22E
330
4FD
100
AcDbEntity
  8
YKK_Z1
  6
Continuous
100
AcDbLine
 10
4092.50005832
 20
18175.69061352
 30
0.0
 11
4072.50005832
 21
18195.69061699
 31
0.0
  0
LINE
  5
22F
330
4FD
100
AcDbEntity
  8
YKK_Z1
  6
Continuous
100
AcDbLine
 10
4072.50005832
 20
18415.69041953
 30
0.0
 11
4072.50023499
 21
18415.6905962
 31
0.0
  0
LINE
  5
230
330
4FD
100
AcDbEntity
  8
YKK_Z1
  6
Continuous
100
AcDbLine
 10
3877.50005832
 20
18250.6905962
 30
0.0
 11
3885.50005832
 21
18250.6905962
 31
0.0
  0
LINE
  5
231
330
4FD
100
AcDbEntity
  8
YKK_Z1
  6
Continuous
100
AcDbLine
 10
3877.50005832
 20
18240.6905962
 30
0.0
 11
3885.50005832
 21
18240.6905962
 31
0.0
  0
LINE
  5
232
330
4FD
100
AcDbEntity
  8
YKK_Z1
  6
Continuous
100
AcDbLine
 10
3877.50005832
 20
18360.6905962
 30
0.0
 11
3885.50005832
 21
18360.6905962
 31
0.0
  0
LINE
  5
233
330
4FD
100
AcDbEntity
  8
YKK_Z1
  6
Continuous
100
AcDbLine
 10
3877.50005832
 20
18350.6905962
 30
0.0
 11
3885.50005832
 21
18350.6905962
 31
0.0
  0
LINE
  5
234
330
4FD
100
AcDbEntity
  8
YKK_Z1
  6
Continuous
100
AcDbLine
 10
3892.50005832
 20
18207.40643073
 30
0.0
 11
4072.50005832
 21
18387.4063372
 31
0.0
  0
LINE
  5
235
330
4FD
100
AcDbEntity
  8
YKK_Z1
  6
Continuous
100
AcDbLine
 10
3892.50005832
 20
18227.20541203
 30
0.0
 11
4072.50005832
 21
18407.2053185
 31
0.0
  0
LINE
  5
236
330
4FD
100
AcDbEntity
  8
YKK_Z1
  6
Continuous
100
AcDbLine
 10
3892.50005832
 20
18235.69068973
 30
0.0
 11
4072.50005832
 21
18415.6905962
 31
0.0
  0
LINE
  5
237
330
4FD
100
AcDbEntity
  8
YKK_Z1
  6
Continuous
100
AcDbLine
 10
4072.50005832
 20
18295.69048189
 30
0.0
 11
4092.50005832
 21
18315.6904715
 31
0.0
  0
LINE
  5
238
330
4FD
100
AcDbEntity
  8
YKK_Z1
  6
Continuous
100
AcDbLine
 10
4092.50005832
 20
18295.69063431
 30
0.0
 11
4072.50005832
 21
18315.69063777
 31
0.0
  0
LINE
  5
239
330
4FD
100
AcDbEntity
  8
YKK_Z1
  6
Continuous
100
AcDbLine
 10
4072.50005832
 20
18235.69051306
 30
0.0
 11
4092.50005832
 21
18255.69050267
 31
0.0
  0
LINE
  5
23A
330
4FD
100
AcDbEntity
  8
YKK_Z1
  6
Continuous
100
AcDbLine
 10
4092.50005832
 20
18235.69062392
 30
0.0
 11
4072.50005832
 21
18255.69062738
 31
0.0
  0
LINE
  5
23B
330
4FD
100
AcDbEntity
  8
YKK_Z1
  6
Continuous
100
AcDbLine
 10
4072.50005832
 20
18215.69052346
 30
0.0
 11
4092.50005832
 21
18235.69051306
 31
0.0
  0
LINE
  5
23C
330
4FD
100
AcDbEntity
  8
YKK_Z1
  6
Continuous
100
AcDbLine
 10
4092.50005832
 20
18215.69062045
 30
0.0
 11
4072.50005832
 21
18235.69062392
 31
0.0
  0
LINE
  5
23D
330
4FD
100
AcDbEntity
  8
YKK_Z1
  6
Continuous
100
AcDbLine
 10
4072.50005832
 20
18275.69049228
 30
0.0
 11
4092.50005832
 21
18295.69048189
 31
0.0
  0
LINE
  5
23E
330
4FD
100
AcDbEntity
  8
YKK_Z1
  6
Continuous
100
AcDbLine
 10
4092.50005832
 20
18275.69063084
 30
0.0
 11
4072.50005832
 21
18295.69063431
 31
0.0
  0
LINE
  5
23F
330
4FD
100
AcDbEntity
  8
YKK_Z1
  6
Continuous
100
AcDbLine
 10
4072.50005832
 20
18255.69050267
 30
0.0
 11
4092.50005832
 21
18275.69049228
 31
0.0
  0
LINE
  5
240
330
4FD
100
AcDbEntity
  8
YKK_Z1
  6
Continuous
100
AcDbLine
 10
4092.50005832
 20
18255.69062738
 30
0.0
 11
4072.50005832
 21
18275.69063084
 31
0.0
  0
LINE
  5
241
330
4FD
100
AcDbEntity
  8
YKK_Z1
  6
Continuous
100
AcDbLine
 10
4072.50005832
 20
18335.6904611
 30
0.0
 11
4092.50005832
 21
18355.69045071
 31
0.0
  0
LINE
  5
242
330
4FD
100
AcDbEntity
  8
YKK_Z1
  6
Continuous
100
AcDbLine
 10
4092.50005832
 20
18335.69064124
 30
0.0
 11
4072.50005832
 21
18355.6906447
 31
0.0
  0
LINE
  5
243
330
4FD
100
AcDbEntity
  8
YKK_Z1
  6
Continuous
100
AcDbLine
 10
4072.50005832
 20
18315.6904715
 30
0.0
 11
4092.50005832
 21
18335.6904611
 31
0.0
  0
LINE
  5
244
330
4FD
100
AcDbEntity
  8
YKK_Z1
  6
Continuous
100
AcDbLine
 10
4092.50005832
 20
18315.69063777
 30
0.0
 11
4072.50005832
 21
18335.69064124
 31
0.0
  0
LINE
  5
245
330
4FD
100
AcDbEntity
  8
YKK_Z1
  6
Continuous
100
AcDbLine
 10
4072.50005832
 20
18375.69044032
 30
0.0
 11
4092.50005832
 21
18395.69042993
 31
0.0
  0
LINE
  5
246
330
4FD
100
AcDbEntity
  8
YKK_Z1
  6
Continuous
100
AcDbLine
 10
4072.50005832
 20
18355.69045071
 30
0.0
 11
4092.50005832
 21
18375.69044032
 31
0.0
  0
LINE
  5
247
330
4FD
100
AcDbEntity
  8
YKK_Z1
  6
Continuous
100
AcDbLine
 10
4092.50005832
 20
18375.69064816
 30
0.0
 11
4072.50005832
 21
18395.69065163
 31
0.0
  0
LINE
  5
248
330
4FD
100
AcDbEntity
  8
YKK_Z1
  6
Continuous
100
AcDbLine
 10
4092.50005832
 20
18355.6906447
 30
0.0
 11
4072.50005832
 21
18375.69064816
 31
0.0
  0
LINE
  5
249
330
4FD
100
AcDbEntity
  8
YKK_Z1
  6
Continuous
100
AcDbLine
 10
4072.50005832
 20
18395.69042993
 30
0.0
 11
4092.50005832
 21
18415.69041953
 31
0.0
  0
LINE
  5
24A
330
4FD
100
AcDbEntity
  8
YKK_Z1
  6
Continuous
100
AcDbLine
 10
4092.50005832
 20
18395.69065163
 30
0.0
 11
4072.50011721
 21
18415.6905962
 31
0.0
  0
LINE
  5
24B
330
4FD
100
AcDbEntity
  8
YKK_N1
  6
Continuous
100
AcDbLine
 10
4592.5000321
 20
17929.08805582
 30
0.0
 11
4692.5000321
 21
17929.08805582
 31
0.0
  0
LINE
  5
24C
330
4FD
100
AcDbEntity
  8
YKK_N1
  6
Continuous
100
AcDbLine
 10
4692.5000321
 20
17929.08805582
 30
0.0
 11
4642.5000321
 21
18015.6905962
 31
0.0
  0
CIRCLE
  5
24D
330
4FD
100
AcDbEntity
  8
YKK_N1
100
AcDbCircle
 10
4442.5000321
 20
18015.6905962
 30
0.0
 40
10.0
  0
CIRCLE
  5
24E
330
4FD
100
AcDbEntity
  8
YKK_N1
100
AcDbCircle
 10
4442.5000321
 20
18015.6905962
 30
0.0
 40
6.5
  0
CIRCLE
  5
24F
330
4FD
100
AcDbEntity
  8
YKK_N1
100
AcDbCircle
 10
4642.5000321
 20
18055.6905962
 30
0.0
 40
10.0
  0
CIRCLE
  5
250
330
4FD
100
AcDbEntity
  8
YKK_N1
100
AcDbCircle
 10
4642.5000321
 20
18055.6905962
 30
0.0
 40
6.5
  0
TEXT
  5
251
330
4FD
100
AcDbEntity
  8
YKK_N1
  6
Continuous
100
AcDbText
 10
4630.5000321
 20
18095.67042405
 30
0.0
 40
60.0
  1
40
 50
90.0
 72
     4
 11
4600.5000321
 21
18140.67042405
 31
0.0
100
AcDbText
  0
LINE
  5
252
330
4FD
100
AcDbEntity
  8
YKK_N1
  6
Continuous
100
AcDbLine
 10
4642.5000321
 20
18015.6905962
 30
0.0
 11
4642.5000321
 21
18055.6905962
 31
0.0
  0
LINE
  5
253
330
4FD
100
AcDbEntity
  8
YKK_N1
  6
Continuous
100
AcDbLine
 10
4592.5000321
 20
17929.08805582
 30
0.0
 11
4642.5000321
 21
18015.6905962
 31
0.0
  0
LINE
  5
254
330
4FD
100
AcDbEntity
  8
YKK_A1
100
AcDbLine
 10
8307.49987865
 20
15595.6907475
 30
0.0
 11
8307.49987865
 21
18005.69058595
 31
0.0
  0
LINE
  5
255
330
4FD
100
AcDbEntity
  8
YKK_A1
100
AcDbLine
 10
8317.49999879
 20
18005.69058595
 30
0.0
 11
8317.49999879
 21
15595.6907475
 31
0.0
  0
LINE
  5
256
330
4FD
100
AcDbEntity
  8
YKK_N1
  6
Continuous
100
AcDbLine
 10
8897.49999879
 20
15595.69058595
 30
0.0
 11
8897.49999879
 21
17995.69058595
 31
0.0
  0
LINE
  5
257
330
4FD
100
AcDbEntity
  8
YKK_A1
100
AcDbLine
 10
6707.49999879
 20
18005.69058595
 30
0.0
 11
6707.49999879
 21
15595.6907475
 31
0.0
  0
LINE
  5
258
330
4FD
100
AcDbEntity
  8
YKK_A1
100
AcDbLine
 10
6697.49999879
 20
18005.69058595
 30
0.0
 11
6697.49999879
 21
15595.6907475
 31
0.0
  0
LINE
  5
259
330
4FD
100
AcDbEntity
  8
YKK_A1
100
AcDbLine
 10
7534.99993872
 20
18005.69058595
 30
0.0
 11
7534.99993872
 21
15595.6907475
 31
0.0
  0
LINE
  5
25A
330
4FD
100
AcDbEntity
  8
YKK_A1
100
AcDbLine
 10
7479.999942
 20
18005.69058595
 30
0.0
 11
7479.999942
 21
15595.6907475
 31
0.0
  0
LINE
  5
25B
330
4FD
100
AcDbEntity
  8
YKK_N1
  6
Continuous
100
AcDbLine
 10
8697.49999879
 20
15595.69058595
 30
0.0
 11
8697.49999879
 21
17495.69058595
 31
0.0
  0
LINE
  5
25C
330
4FD
100
AcDbEntity
  8
YKK_C1
100
AcDbLine
 10
9667.49999853
 20
17485.69062928
 30
0.0
 11
9667.49999879
 21
15730.69057261
 31
0.0
  0
LINE
  5
25D
330
4FD
100
AcDbEntity
  8
YKK_C1
100
AcDbLine
 10
9688.50002931
 20
17510.69062928
 30
0.0
 11
9688.50002931
 21
15705.69048997
 31
0.0
  0
LINE
  5
25E
330
4FD
100
AcDbEntity
  8
YKK_C1
100
AcDbLine
 10
9712.50002931
 20
15705.69065526
 30
0.0
 11
9712.50002931
 21
17510.69062928
 31
0.0
  0
LINE
  5
25F
330
4FD
100
AcDbEntity
  8
YKK_Z1
  6
Continuous
100
AcDbLine
 10
9602.50012815
 20
15595.69057261
 30
0.0
 11
9602.50012815
 21
16795.69057261
 31
0.0
  0
LINE
  5
260
330
4FD
100
AcDbEntity
  8
YKK_N1
  6
Continuous
100
AcDbLine
 10
10197.49999879
 20
15595.69058595
 30
0.0
 11
10197.49999879
 21
17495.69058595
 31
0.0
  0
LINE
  5
261
330
4FD
100
AcDbEntity
  8
YKK_C1
100
AcDbLine
 10
9817.49999879
 20
17985.69058595
 30
0.0
 11
9817.49999879
 21
15605.69057261
 31
0.0
  0
LINE
  5
262
330
4FD
100
AcDbEntity
  8
YKK_N1
  6
Continuous
100
AcDbLine
 10
10397.49999879
 20
15595.69058595
 30
0.0
 11
10397.49999879
 21
17995.69058595
 31
0.0
  0
LINE
  5
263
330
4FD
100
AcDbEntity
  8
YKK_Z1
  6
Continuous
100
AcDbLine
 10
10107.50012815
 20
15595.69057261
 30
0.0
 11
10157.50012815
 21
15595.69057261
 31
0.0
  0
LINE
  5
264
330
4FD
100
AcDbEntity
  8
YKK_Z1
  6
Continuous
100
AcDbLine
 10
10157.50012815
 20
15585.69057261
 30
0.0
 11
10107.50012815
 21
15585.69057261
 31
0.0
  0
LINE
  5
265
330
4FD
100
AcDbEntity
  8
YKK_N1
  6
Continuous
100
AcDbLine
 10
9877.49999879
 20
15580.69058595
 30
0.0
 11
10397.49999879
 21
15580.69058595
 31
0.0
  0
LINE
  5
266
330
4FD
100
AcDbEntity
  8
YKK_N1
  6
Continuous
100
AcDbLine
 10
9877.49999879
 20
15595.69058595
 30
0.0
 11
10397.49999879
 21
15595.69058595
 31
0.0
  0
LINE
  5
267
330
4FD
100
AcDbEntity
  8
YKK_Z1
  6
Continuous
100
AcDbLine
 10
10217.50012815
 20
15545.69057261
 30
0.0
 11
9467.50012815
 21
15545.69057261
 31
0.0
  0
LINE
  5
268
330
4FD
100
AcDbEntity
  8
YKK_Z1
  6
Continuous
100
AcDbLine
 10
9467.50012815
 20
15365.69057261
 30
0.0
 11
10217.50012815
 21
15365.69057261
 31
0.0
  0
LINE
  5
269
330
4FD
100
AcDbEntity
  8
YKK_Z1
  6
Continuous
100
AcDbLine
 10
10217.50012815
 20
15517.40629402
 30
0.0
 11
10065.78443302
 21
15365.69057261
 31
0.0
  0
LINE
  5
26A
330
4FD
100
AcDbEntity
  8
YKK_Z1
  6
Continuous
100
AcDbLine
 10
10217.50012815
 20
15545.69057261
 30
0.0
 11
10037.50015933
 21
15365.69057261
 31
0.0
  0
LINE
  5
26B
330
4FD
100
AcDbEntity
  8
YKK_Z1
  6
Continuous
100
AcDbLine
 10
10217.50012815
 20
15537.20528904
 30
0.0
 11
10045.98544144
 21
15365.69057261
 31
0.0
  0
CIRCLE
  5
26C
330
4FD
100
AcDbEntity
  8
YKK_N1
100
AcDbCircle
 10
7840.07246465
 20
13982.49998694
 30
0.0
 40
6.5
  0
CIRCLE
  5
26D
330
4FD
100
AcDbEntity
  8
YKK_N1
100
AcDbCircle
 10
7840.07246465
 20
13982.49998694
 30
0.0
 40
10.0
  0
CIRCLE
  5
26E
330
4FD
100
AcDbEntity
  8
YKK_N1
100
AcDbCircle
 10
7840.07246465
 20
14052.49998694
 30
0.0
 40
6.5
  0
CIRCLE
  5
26F
330
4FD
100
AcDbEntity
  8
YKK_N1
100
AcDbCircle
 10
7840.07246465
 20
14052.49998694
 30
0.0
 40
10.0
  0
LINE
  5
270
330
4FD
100
AcDbEntity
  8
YKK_A1
100
AcDbLine
 10
7534.99993872
 20
15720.69070081
 30
0.0
 11
8307.49987865
 21
15720.69070081
 31
0.0
  0
TEXT
  5
271
330
4FD
100
AcDbEntity
  8
YKK_N1
  6
Continuous
100
AcDbText
 10
7801.44199405
 20
15227.6907475
 30
0.0
 40
60.0
  1
772.5
100
AcDbText
  0
LINE
  5
272
330
4FD
100
AcDbEntity
  8
YKK_N1
  6
Continuous
100
AcDbLine
 10
6707.5
 20
15015.6907475
 30
0.0
 11
8307.5
 21
15015.6907475
 31
0.0
  0
LINE
  5
273
330
4FD
100
AcDbEntity
  8
YKK_N1
  6
Continuous
100
AcDbLine
 10
7535.0
 20
15215.6907475
 30
0.0
 11
8307.5
 21
15215.6907475
 31
0.0
  0
LINE
  5
274
330
4FD
100
AcDbEntity
  8
YKK_A1
100
AcDbLine
 10
8317.49999879
 20
15595.6907475
 30
0.0
 11
6697.49999879
 21
15595.6907475
 31
0.0
  0
LINE
  5
275
330
4FD
100
AcDbEntity
  8
YKK_B1
100
AcDbLine
 10
7519.99993872
 20
14031.5000023
 30
0.0
 11
8322.49975159
 21
14031.5000023
 31
0.0
  0
LINE
  5
276
330
4FD
100
AcDbEntity
  8
YKK_B1
100
AcDbLine
 10
8322.49959636
 20
14007.5000023
 30
0.0
 11
7519.99993872
 21
14007.5000023
 31
0.0
  0
LINE
  5
277
330
4FD
100
AcDbEntity
  8
YKK_B1
100
AcDbLine
 10
7544.99993872
 20
14052.49998694
 30
0.0
 11
8297.49987865
 21
14052.49998694
 31
0.0
  0
LINE
  5
278
330
4FD
100
AcDbEntity
  8
YKK_B1
100
AcDbLine
 10
7544.99993872
 20
13982.5000023
 30
0.0
 11
8297.49987865
 21
13982.5000023
 31
0.0
  0
LINE
  5
279
330
4FD
100
AcDbEntity
  8
YKK_N1
  6
Continuous
100
AcDbLine
 10
7940.07246465
 20
13902.49998694
 30
0.0
 11
7715.07246465
 21
13902.49998694
 31
0.0
  0
TEXT
  5
27A
330
4FD
100
AcDbEntity
  8
YKK_N1
  6
Continuous
100
AcDbText
 10
7801.44199405
 20
13534.5
 30
0.0
 40
60.0
  1
772.5
100
AcDbText
  0
LINE
  5
27B
330
4FD
100
AcDbEntity
  8
YKK_N1
  6
Continuous
100
AcDbLine
 10
7535.0
 20
13522.5
 30
0.0
 11
8307.5
 21
13522.5
 31
0.0
  0
LINE
  5
27C
330
4FD
100
AcDbEntity
  8
YKK_N1
  6
Continuous
100
AcDbLine
 10
6707.5
 20
13322.5
 30
0.0
 11
8307.5
 21
13322.5
 31
0.0
  0
LINE
  5
27D
330
4FD
100
AcDbEntity
  8
YKK_Z1
  6
Continuous
100
AcDbLine
 10
6692.49999879
 20
14052.5
 30
0.0
 11
6684.49999879
 21
14052.5
 31
0.0
  0
LINE
  5
27E
330
4FD
100
AcDbEntity
  8
YKK_B1
100
AcDbLine
 10
6707.49999879
 20
14000.5
 30
0.0
 11
6670.99999879
 21
14000.5
 31
0.0
  0
LINE
  5
27F
330
4FD
100
AcDbEntity
  8
YKK_B1
100
AcDbLine
 10
6707.49999879
 20
14038.5
 30
0.0
 11
6670.99999879
 21
14038.5
 31
0.0
  0
LINE
  5
280
330
4FD
100
AcDbEntity
  8
YKK_B1
100
AcDbLine
 10
6662.49999879
 20
14052.5
 30
0.0
 11
6707.49999879
 21
14052.5
 31
0.0
  0
LINE
  5
281
330
4FD
100
AcDbEntity
  8
YKK_Z1
  6
Continuous
100
AcDbLine
 10
6684.99999879
 20
13902.5
 30
0.0
 11
6697.49999879
 21
13902.5
 31
0.0
  0
LINE
  5
282
330
4FD
100
AcDbEntity
  8
YKK_B1
100
AcDbLine
 10
6662.49999879
 20
13902.5
 30
0.0
 11
6707.49999879
 21
13902.5
 31
0.0
  0
LINE
  5
283
330
4FD
100
AcDbEntity
  8
YKK_N1
  6
Continuous
100
AcDbLine
 10
6662.5
 20
13322.5
 30
0.0
 11
6707.5
 21
13322.5
 31
0.0
  0
LINE
  5
284
330
4FD
100
AcDbEntity
  8
YKK_Z1
  6
Continuous
100
AcDbLine
 10
6692.49999879
 20
14117.5
 30
0.0
 11
6307.49999879
 21
14117.5
 31
0.0
  0
LINE
  5
285
330
4FD
100
AcDbEntity
  8
YKK_B1
100
AcDbLine
 10
6662.49999879
 20
13912.5
 30
0.0
 11
6662.49999879
 21
13902.5
 31
0.0
  0
LINE
  5
286
330
4FD
100
AcDbEntity
  8
YKK_Z1
  6
Continuous
100
AcDbLine
 10
6587.4999884
 20
13902.5
 30
0.0
 11
6567.49998493
 21
13922.5
 31
0.0
  0
LINE
  5
287
330
4FD
100
AcDbEntity
  8
YKK_Z1
  6
Continuous
100
AcDbLine
 10
6587.50002997
 20
13922.5
 30
0.0
 11
6567.50004036
 21
13902.5
 31
0.0
  0
LINE
  5
288
330
4FD
100
AcDbEntity
  8
YKK_Z1
  6
Continuous
100
AcDbLine
 10
6567.49998493
 20
13902.5
 30
0.0
 11
6547.49998147
 21
13922.5
 31
0.0
  0
LINE
  5
289
330
4FD
100
AcDbEntity
  8
YKK_Z1
  6
Continuous
100
AcDbLine
 10
6567.50004036
 20
13922.5
 30
0.0
 11
6547.50005075
 21
13902.5
 31
0.0
  0
LINE
  5
28A
330
4FD
100
AcDbEntity
  8
YKK_Z1
  6
Continuous
100
AcDbLine
 10
6527.499978
 20
13902.5
 30
0.0
 11
6507.49997454
 21
13922.5
 31
0.0
  0
LINE
  5
28B
330
4FD
100
AcDbEntity
  8
YKK_Z1
  6
Continuous
100
AcDbLine
 10
6527.50006114
 20
13922.5
 30
0.0
 11
6507.50007154
 21
13902.5
 31
0.0
  0
LINE
  5
28C
330
4FD
100
AcDbEntity
  8
YKK_Z1
  6
Continuous
100
AcDbLine
 10
6547.49998147
 20
13902.5
 30
0.0
 11
6527.499978
 21
13922.5
 31
0.0
  0
LINE
  5
28D
330
4FD
100
AcDbEntity
  8
YKK_Z1
  6
Continuous
100
AcDbLine
 10
6547.50005075
 20
13922.5
 30
0.0
 11
6527.50006114
 21
13902.5
 31
0.0
  0
LINE
  5
28E
330
4FD
100
AcDbEntity
  8
YKK_Z1
  6
Continuous
100
AcDbLine
 10
6647.49999879
 20
13902.5
 30
0.0
 11
6627.49999533
 21
13922.5
 31
0.0
  0
LINE
  5
28F
330
4FD
100
AcDbEntity
  8
YKK_Z1
  6
Continuous
100
AcDbLine
 10
6647.49999879
 20
13922.5
 30
0.0
 11
6627.50000918
 21
13902.5
 31
0.0
  0
LINE
  5
290
330
4FD
100
AcDbEntity
  8
YKK_Z1
  6
Continuous
100
AcDbLine
 10
6627.49999533
 20
13902.5
 30
0.0
 11
6607.49999186
 21
13922.5
 31
0.0
  0
LINE
  5
291
330
4FD
100
AcDbEntity
  8
YKK_Z1
  6
Continuous
100
AcDbLine
 10
6627.50000918
 20
13922.5
 30
0.0
 11
6607.50001957
 21
13902.5
 31
0.0
  0
LINE
  5
292
330
4FD
100
AcDbEntity
  8
YKK_Z1
  6
Continuous
100
AcDbLine
 10
6647.49999879
 20
13922.5
 30
0.0
 11
6647.49999879
 21
13902.5
 31
0.0
  0
LINE
  5
293
330
4FD
100
AcDbEntity
  8
YKK_Z1
  6
Continuous
100
AcDbLine
 10
6607.49999186
 20
13902.5
 30
0.0
 11
6587.4999884
 21
13922.5
 31
0.0
  0
LINE
  5
294
330
4FD
100
AcDbEntity
  8
YKK_Z1
  6
Continuous
100
AcDbLine
 10
6607.50001957
 20
13922.5
 30
0.0
 11
6587.50002997
 21
13902.5
 31
0.0
  0
LINE
  5
295
330
4FD
100
AcDbEntity
  8
YKK_Z1
  6
Continuous
100
AcDbLine
 10
6447.49996415
 20
13902.5
 30
0.0
 11
6427.49996068
 21
13922.5
 31
0.0
  0
LINE
  5
296
330
4FD
100
AcDbEntity
  8
YKK_Z1
  6
Continuous
100
AcDbLine
 10
6447.50010271
 20
13922.5
 30
0.0
 11
6427.5001131
 21
13902.5
 31
0.0
  0
LINE
  5
297
330
4FD
100
AcDbEntity
  8
YKK_Z1
  6
Continuous
100
AcDbLine
 10
6467.49996761
 20
13902.5
 30
0.0
 11
6447.49996415
 21
13922.5
 31
0.0
  0
LINE
  5
298
330
4FD
100
AcDbEntity
  8
YKK_Z1
  6
Continuous
100
AcDbLine
 10
6467.50009232
 20
13922.5
 30
0.0
 11
6447.50010271
 21
13902.5
 31
0.0
  0
LINE
  5
299
330
4FD
100
AcDbEntity
  8
YKK_Z1
  6
Continuous
100
AcDbLine
 10
6487.49997108
 20
13902.5
 30
0.0
 11
6467.49996761
 21
13922.5
 31
0.0
  0
LINE
  5
29A
330
4FD
100
AcDbEntity
  8
YKK_Z1
  6
Continuous
100
AcDbLine
 10
6487.50008193
 20
13922.5
 30
0.0
 11
6467.50009232
 21
13902.5
 31
0.0
  0
LINE
  5
29B
330
4FD
100
AcDbEntity
  8
YKK_Z1
  6
Continuous
100
AcDbLine
 10
6387.49995376
 20
13902.5
 30
0.0
 11
6367.49995029
 21
13922.5
 31
0.0
  0
LINE
  5
29C
330
4FD
100
AcDbEntity
  8
YKK_Z1
  6
Continuous
100
AcDbLine
 10
6387.50013389
 20
13922.5
 30
0.0
 11
6367.50014428
 21
13902.5
 31
0.0
  0
LINE
  5
29D
330
4FD
100
AcDbEntity
  8
YKK_Z1
  6
Continuous
100
AcDbLine
 10
6367.49995029
 20
13902.5
 30
0.0
 11
6347.49994683
 21
13922.5
 31
0.0
  0
LINE
  5
29E
330
4FD
100
AcDbEntity
  8
YKK_Z1
  6
Continuous
100
AcDbLine
 10
6367.50014428
 20
13922.5
 30
0.0
 11
6347.50015467
 21
13902.5
 31
0.0
  0
LINE
  5
29F
330
4FD
100
AcDbEntity
  8
YKK_Z1
  6
Continuous
100
AcDbLine
 10
6347.49994683
 20
13902.5
 30
0.0
 11
6327.49994336
 21
13922.5
 31
0.0
  0
LINE
  5
2A0
330
4FD
100
AcDbEntity
  8
YKK_Z1
  6
Continuous
100
AcDbLine
 10
6347.50015467
 20
13922.5
 30
0.0
 11
6327.50016507
 21
13902.5
 31
0.0
  0
LINE
  5
2A1
330
4FD
100
AcDbEntity
  8
YKK_Z1
  6
Continuous
100
AcDbLine
 10
6407.49995722
 20
13902.5
 30
0.0
 11
6387.49995376
 21
13922.5
 31
0.0
  0
LINE
  5
2A2
330
4FD
100
AcDbEntity
  8
YKK_Z1
  6
Continuous
100
AcDbLine
 10
6407.5001235
 20
13922.5
 30
0.0
 11
6387.50013389
 21
13902.5
 31
0.0
  0
LINE
  5
2A3
330
4FD
100
AcDbEntity
  8
YKK_Z1
  6
Continuous
100
AcDbLine
 10
6327.49994336
 20
13902.5
 30
0.0
 11
6307.49999879
 21
13922.49994111
 31
0.0
  0
LINE
  5
2A4
330
4FD
100
AcDbEntity
  8
YKK_Z1
  6
Continuous
100
AcDbLine
 10
6327.50016507
 20
13922.5
 30
0.0
 11
6307.50017546
 21
13902.5
 31
0.0
  0
LINE
  5
2A5
330
4FD
100
AcDbEntity
  8
YKK_Z1
  6
Continuous
100
AcDbLine
 10
6427.49996068
 20
13902.5
 30
0.0
 11
6407.49995722
 21
13922.5
 31
0.0
  0
LINE
  5
2A6
330
4FD
100
AcDbEntity
  8
YKK_Z1
  6
Continuous
100
AcDbLine
 10
6427.5001131
 20
13922.5
 30
0.0
 11
6407.5001235
 21
13902.5
 31
0.0
  0
LINE
  5
2A7
330
4FD
100
AcDbEntity
  8
YKK_Z1
  6
Continuous
100
AcDbLine
 10
6507.49997454
 20
13902.5
 30
0.0
 11
6487.49997108
 21
13922.5
 31
0.0
  0
LINE
  5
2A8
330
4FD
100
AcDbEntity
  8
YKK_Z1
  6
Continuous
100
AcDbLine
 10
6507.50007154
 20
13922.5
 30
0.0
 11
6487.50008193
 21
13902.5
 31
0.0
  0
LINE
  5
2A9
330
4FD
100
AcDbEntity
  8
YKK_N1
  6
Continuous
100
AcDbLine
 10
6662.5
 20
13842.5
 30
0.0
 11
6662.5
 21
13322.5
 31
0.0
  0
CIRCLE
  5
2AA
330
4FD
100
AcDbEntity
  8
YKK_N1
100
AcDbCircle
 10
6662.5
 20
13322.5
 30
0.0
 40
10.0
  0
CIRCLE
  5
2AB
330
4FD
100
AcDbEntity
  8
YKK_N1
100
AcDbCircle
 10
6662.5
 20
13322.5
 30
0.0
 40
6.5
  0
TEXT
  5
2AC
330
4FD
100
AcDbEntity
  8
YKK_N1
  6
Continuous
100
AcDbText
 10
6542.5
 20
13334.5
 30
0.0
 40
60.0
  1
45
100
AcDbText
  0
LINE
  5
2AD
330
4FD
100
AcDbEntity
  8
YKK_Z1
  6
Continuous
100
AcDbLine
 10
6647.49999879
 20
13902.5
 30
0.0
 11
6307.49999879
 21
13902.5
 31
0.0
  0
LINE
  5
2B0
330
4FD
100
AcDbEntity
  8
YKK_Z1
  6
Continuous
100
AcDbLine
 10
6495.98518296
 20
14102.5
 30
0.0
 11
6315.98527649
 21
13922.5
 31
0.0
  0
LINE
  5
2B1
330
4FD
100
AcDbEntity
  8
YKK_Z1
  6
Continuous
100
AcDbLine
 10
6487.49990526
 20
14102.5
 30
0.0
 11
6307.49999879
 21
13922.5
 31
0.0
  0
LINE
  5
2B2
330
4FD
100
AcDbEntity
  8
YKK_Z1
  6
Continuous
100
AcDbLine
 10
6515.78416426
 20
14102.5
 30
0.0
 11
6335.78425779
 21
13922.5
 31
0.0
  0
LINE
  5
2B3
330
4FD
100
AcDbEntity
  8
YKK_Z1
  6
Continuous
100
AcDbLine
 10
6307.49999879
 20
13922.5
 30
0.0
 11
6647.49999879
 21
13922.5
 31
0.0
  0
LINE
  5
2B4
330
4FD
100
AcDbEntity
  8
YKK_Z1
  6
Continuous
100
AcDbLine
 10
6677.49999879
 20
14102.5
 30
0.0
 11
6307.49999879
 21
14102.5
 31
0.0
  0
LINE
  5
2B5
330
4FD
100
AcDbEntity
  8
YKK_Z1
  6
Continuous
100
AcDbLine
 10
6684.49999879
 20
14109.5
 30
0.0
 11
6307.49999879
 21
14109.5
 31
0.0
  0
LINE
  5
2B6
330
4FD
100
AcDbEntity
  8
YKK_Z1
  6
CENTER
100
AcDbLine
 10
6662.49999879
 20
14012.5
 30
0.0
 11
6307.49999879
 21
14012.5
 31
0.0
  0
LINE
  5
2B7
330
4FD
100
AcDbEntity
  8
YKK_Z1
  6
Continuous
100
AcDbLine
 10
6307.50017546
 20
13922.5
 30
0.0
 11
6307.49999879
 21
13922.49982333
 31
0.0
  0
LINE
  5
2B8
330
4FD
100
AcDbEntity
  8
YKK_Z1
  6
Continuous
100
AcDbLine
 10
6372.49999879
 20
14117.5
 30
0.0
 11
6372.49999879
 21
14109.5
 31
0.0
  0
LINE
  5
2B9
330
4FD
100
AcDbEntity
  8
YKK_Z1
  6
Continuous
100
AcDbLine
 10
6362.49999879
 20
14117.5
 30
0.0
 11
6362.49999879
 21
14109.5
 31
0.0
  0
LINE
  5
2BA
330
4FD
100
AcDbEntity
  8
YKK_B1
100
AcDbLine
 10
6670.99999879
 20
14052.5
 30
0.0
 11
6670.99999879
 21
14000.5
 31
0.0
  0
LINE
  5
2BB
330
4FD
100
AcDbEntity
  8
YKK_B1
100
AcDbLine
 10
6662.49999879
 20
14041.5
 30
0.0
 11
6662.49999879
 21
14052.5
 31
0.0
  0
LINE
  5
2BC
330
4FD
100
AcDbEntity
  8
YKK_Z1
  6
Continuous
100
AcDbLine
 10
6684.49999879
 20
14052.5
 30
0.0
 11
6684.49999879
 21
14109.5
 31
0.0
  0
LINE
  5
2BD
330
4FD
100
AcDbEntity
  8
YKK_Z1
  6
Continuous
100
AcDbLine
 10
6677.49999879
 20
14067.5
 30
0.0
 11
6677.49999879
 21
14102.5
 31
0.0
  0
LINE
  5
2BE
330
4FD
100
AcDbEntity
  8
YKK_Z1
  6
Continuous
100
AcDbLine
 10
6647.49999879
 20
13922.5
 30
0.0
 11
6647.49999879
 21
14057.5
 31
0.0
  0
LINE
  5
2BF
330
4FD
100
AcDbEntity
  8
YKK_Z1
  6
Continuous
100
AcDbLine
 10
6647.49999879
 20
13937.23102915
 30
0.0
 11
6632.76897729
 21
13922.5
 31
0.0
  0
LINE
  5
2C0
330
4FD
100
AcDbEntity
  8
YKK_Z1
  6
Continuous
100
AcDbLine
 10
6647.49999879
 20
13965.51530285
 30
0.0
 11
6604.48471829
 21
13922.5
 31
0.0
  0
LINE
  5
2C1
330
4FD
100
AcDbEntity
  8
YKK_Z1
  6
Continuous
100
AcDbLine
 10
6647.49999879
 20
13957.03002074
 30
0.0
 11
6612.96999599
 21
13922.5
 31
0.0
  0
LINE
  5
2C3
330
4FD
100
AcDbEntity
  8
YKK_Z1
  6
Continuous
100
AcDbLine
 10
6582.49999879
 20
14117.5
 30
0.0
 11
6582.49999879
 21
14109.5
 31
0.0
  0
LINE
  5
2C4
330
4FD
100
AcDbEntity
  8
YKK_Z1
  6
Continuous
100
AcDbLine
 10
6592.49999879
 20
14117.5
 30
0.0
 11
6592.49999879
 21
14109.5
 31
0.0
  0
LINE
  5
2C5
330
4FD
100
AcDbEntity
  8
YKK_Z1
  6
Continuous
100
AcDbLine
 10
6482.49999879
 20
14117.5
 30
0.0
 11
6482.49999879
 21
14109.5
 31
0.0
  0
LINE
  5
2C6
330
4FD
100
AcDbEntity
  8
YKK_Z1
  6
Continuous
100
AcDbLine
 10
6472.49999879
 20
14117.5
 30
0.0
 11
6472.49999879
 21
14109.5
 31
0.0
  0
LINE
  5
2C7
330
4FD
100
AcDbEntity
  8
YKK_Z1
  6
Continuous
100
AcDbLine
 10
6647.49999879
 20
14057.5
 30
0.0
 11
6677.49999879
 21
14067.5
 31
0.0
  0
LINE
  5
2C8
330
4FD
100
AcDbEntity
  8
YKK_B1
100
AcDbLine
 10
7534.99993872
 20
13902.5
 30
0.0
 11
7534.99993872
 21
14000.5
 31
0.0
  0
LINE
  5
2C9
330
4FD
100
AcDbEntity
  8
YKK_B1
100
AcDbLine
 10
7479.99993872
 20
14000.5
 30
0.0
 11
7479.99993872
 21
13902.5
 31
0.0
  0
LINE
  5
2CA
330
4FD
100
AcDbEntity
  8
YKK_B1
100
AcDbLine
 10
6707.49999879
 20
13902.5
 30
0.0
 11
6707.49999879
 21
14000.5
 31
0.0
  0
LINE
  5
2CB
330
4FD
100
AcDbEntity
  8
YKK_N1
  6
Continuous
100
AcDbLine
 10
6707.5
 20
13522.5
 30
0.0
 11
7480.0
 21
13522.5
 31
0.0
  0
CIRCLE
  5
2CC
330
4FD
100
AcDbEntity
  8
YKK_N1
100
AcDbCircle
 10
6707.5
 20
13522.5
 30
0.0
 40
10.0
  0
LINE
  5
2CD
330
4FD
100
AcDbEntity
  8
YKK_N1
  6
Continuous
100
AcDbLine
 10
6707.5
 20
13842.5
 30
0.0
 11
6707.5
 21
13322.5
 31
0.0
  0
LINE
  5
2CE
330
4FD
100
AcDbEntity
  8
YKK_N1
  6
Continuous
100
AcDbLine
 10
6794.10254038
 20
13372.5
 30
0.0
 11
6794.10254038
 21
13272.5
 31
0.0
  0
LINE
  5
2CF
330
4FD
100
AcDbEntity
  8
YKK_N1
  6
Continuous
100
AcDbLine
 10
6707.5
 20
13322.5
 30
0.0
 11
6794.10254038
 21
13272.5
 31
0.0
  0
LINE
  5
2D0
330
4FD
100
AcDbEntity
  8
YKK_N1
  6
Continuous
100
AcDbLine
 10
6794.10254038
 20
13372.5
 30
0.0
 11
6707.5
 21
13322.5
 31
0.0
  0
TEXT
  5
2D1
330
4FD
100
AcDbEntity
  8
YKK_N1
  6
Continuous
100
AcDbText
 10
6975.93254738
 20
13534.5
 30
0.0
 40
60.0
  1
772.5
100
AcDbText
  0
CIRCLE
  5
2D2
330
4FD
100
AcDbEntity
  8
YKK_N1
100
AcDbCircle
 10
6707.5
 20
13522.5
 30
0.0
 40
6.5
  0
CIRCLE
  5
2D4
330
4FD
100
AcDbEntity
  8
YKK_N1
100
AcDbCircle
 10
7535.0
 20
13522.5
 30
0.0
 40
10.0
  0
CIRCLE
  5
2D5
330
4FD
100
AcDbEntity
  8
YKK_N1
100
AcDbCircle
 10
7480.0
 20
13522.5
 30
0.0
 40
10.0
  0
TEXT
  5
2D6
330
4FD
100
AcDbEntity
  8
YKK_N1
  6
Continuous
100
AcDbText
 10
7307.6158034
 20
13334.5
 30
0.0
 40
60.0
  1
W=1600
100
AcDbText
  0
TEXT
  5
2D7
330
4FD
100
AcDbEntity
  8
YKK_N1
  6
Continuous
100
AcDbText
 10
7449.67198227
 20
13447.71520307
 30
0.0
 40
60.0
  1
55
100
AcDbText
  0
CIRCLE
  5
2D8
330
4FD
100
AcDbEntity
  8
YKK_N1
100
AcDbCircle
 10
7535.0
 20
13522.5
 30
0.0
 40
6.5
  0
CIRCLE
  5
2D9
330
4FD
100
AcDbEntity
  8
YKK_N1
100
AcDbCircle
 10
7480.0
 20
13522.5
 30
0.0
 40
6.5
  0
LINE
  5
2DA
330
4FD
100
AcDbEntity
  8
YKK_B1
100
AcDbLine
 10
7479.99993872
 20
13902.5
 30
0.0
 11
7534.99993872
 21
13902.5
 31
0.0
  0
LINE
  5
2DB
330
4FD
100
AcDbEntity
  8
YKK_N1
  6
Continuous
100
AcDbLine
 10
7480.0
 20
13842.5
 30
0.0
 11
7480.0
 21
13522.5
 31
0.0
  0
LINE
  5
2DC
330
4FD
100
AcDbEntity
  8
YKK_N1
  6
Continuous
100
AcDbLine
 10
7535.0
 20
13842.5
 30
0.0
 11
7535.0
 21
13522.5
 31
0.0
  0
LINE
  5
2DD
330
4FD
100
AcDbEntity
  8
YKK_N1
100
AcDbLine
 10
7535.0
 20
13522.5
 30
0.0
 11
7480.0
 21
13522.5
 31
0.0
  0
LINE
  5
2DE
330
4FD
100
AcDbEntity
  8
YKK_B1
100
AcDbLine
 10
6717.49999879
 20
13982.5000023
 30
0.0
 11
7469.99993872
 21
13982.5000023
 31
0.0
  0
LINE
  5
2DF
330
4FD
100
AcDbEntity
  8
YKK_B1
100
AcDbLine
 10
6717.49999879
 20
14052.49998694
 30
0.0
 11
7469.99993872
 21
14052.49998694
 31
0.0
  0
LINE
  5
2E0
330
4FD
100
AcDbEntity
  8
YKK_B1
100
AcDbLine
 10
7494.99993872
 20
14007.5000023
 30
0.0
 11
6692.50029938
 21
14007.5000023
 31
0.0
  0
LINE
  5
2E1
330
4FD
100
AcDbEntity
  8
YKK_B1
100
AcDbLine
 10
6692.50013409
 20
14031.5000023
 30
0.0
 11
7494.99993872
 21
14031.5000023
 31
0.0
  0
LINE
  5
2E2
330
4FD
100
AcDbEntity
  8
YKK_B1
100
AcDbLine
 10
6707.49999879
 20
14052.5
 30
0.0
 11
6707.49999879
 21
14038.5
 31
0.0
  0
LINE
  5
2E3
330
4FD
100
AcDbEntity
  8
YKK_Z1
  6
Continuous
100
AcDbLine
 10
6692.49999879
 20
14052.5
 30
0.0
 11
6692.49999879
 21
14117.5
 31
0.0
  0
LINE
  5
2E4
330
4FD
100
AcDbEntity
  8
YKK_B1
100
AcDbLine
 10
7513.99993872
 20
14000.5
 30
0.0
 11
7513.99993872
 21
14029.8
 31
0.0
  0
LINE
  5
2E5
330
4FD
100
AcDbEntity
  8
YKK_B1
100
AcDbLine
 10
7517.99993872
 20
14038.5
 30
0.0
 11
7517.99993872
 21
14000.5
 31
0.0
  0
LINE
  5
2E6
330
4FD
100
AcDbEntity
  8
YKK_B1
100
AcDbLine
 10
7534.99993872
 20
14000.5
 30
0.0
 11
7479.99993872
 21
14000.5
 31
0.0
  0
LINE
  5
2E7
330
4FD
100
AcDbEntity
  8
YKK_B1
100
AcDbLine
 10
7534.99993872
 20
14052.5
 30
0.0
 11
7534.99993872
 21
14038.5
 31
0.0
  0
LINE
  5
2E8
330
4FD
100
AcDbEntity
  8
YKK_B1
100
AcDbLine
 10
7479.99993872
 20
14038.5
 30
0.0
 11
7479.99993872
 21
14052.5
 31
0.0
  0
LINE
  5
2E9
330
4FD
100
AcDbEntity
  8
YKK_B1
100
AcDbLine
 10
7511.49993872
 20
14038.5
 30
0.0
 11
7511.49993872
 21
14029.8
 31
0.0
  0
LINE
  5
2EA
330
4FD
100
AcDbEntity
  8
YKK_B1
100
AcDbLine
 10
7513.99993872
 20
14029.8
 30
0.0
 11
7511.49993872
 21
14029.8
 31
0.0
  0
LINE
  5
2EB
330
4FD
100
AcDbEntity
  8
YKK_B1
100
AcDbLine
 10
7534.99993872
 20
14038.5
 30
0.0
 11
7479.99993872
 21
14038.5
 31
0.0
  0
LINE
  5
2EC
330
4FD
100
AcDbEntity
  8
YKK_B1
100
AcDbLine
 10
7479.99993872
 20
14052.5
 30
0.0
 11
7534.99993872
 21
14052.5
 31
0.0
  0
LINE
  5
2ED
330
4FD
100
AcDbEntity
  8
YKK_N1
  6
Continuous
100
AcDbLine
 10
7840.07246465
 20
13982.49998694
 30
0.0
 11
7840.07246465
 21
14052.49998694
 31
0.0
  0
TEXT
  5
2EE
330
4FD
100
AcDbEntity
  8
YKK_N1
  6
Continuous
100
AcDbText
 10
7828.07246465
 20
14092.50122352
 30
0.0
 40
60.0
  1
70
 50
90.0
100
AcDbText
  0
LINE
  5
2EF
330
4FD
100
AcDbEntity
  8
YKK_N1
  6
Continuous
100
AcDbLine
 10
6707.5
 20
15535.6907475
 30
0.0
 11
6707.5
 21
15015.6907475
 31
0.0
  0
LINE
  5
2F0
330
4FD
100
AcDbEntity
  8
YKK_N1
  6
Continuous
100
AcDbLine
 10
7535.0
 20
15535.6907475
 30
0.0
 11
7535.0
 21
15215.6907475
 31
0.0
  0
LINE
  5
2F1
330
4FD
100
AcDbEntity
  8
YKK_N1
  6
Continuous
100
AcDbLine
 10
7480.0
 20
15535.6907475
 30
0.0
 11
7480.0
 21
15215.6907475
 31
0.0
  0
LINE
  5
2F2
330
4FD
100
AcDbEntity
  8
YKK_N1
  6
Continuous
100
AcDbLine
 10
6707.5
 20
15215.6907475
 30
0.0
 11
7480.0
 21
15215.6907475
 31
0.0
  0
LINE
  5
2F3
330
4FD
100
AcDbEntity
  8
YKK_N1
  6
Continuous
100
AcDbLine
 10
6794.10254038
 20
15065.6907475
 30
0.0
 11
6794.10254038
 21
14965.6907475
 31
0.0
  0
LINE
  5
2F4
330
4FD
100
AcDbEntity
  8
YKK_N1
  6
Continuous
100
AcDbLine
 10
6707.5
 20
15015.6907475
 30
0.0
 11
6794.10254038
 21
14965.6907475
 31
0.0
  0
LINE
  5
2F5
330
4FD
100
AcDbEntity
  8
YKK_N1
  6
Continuous
100
AcDbLine
 10
6794.10254038
 20
15065.6907475
 30
0.0
 11
6707.5
 21
15015.6907475
 31
0.0
  0
TEXT
  5
2F6
330
4FD
100
AcDbEntity
  8
YKK_N1
  6
Continuous
100
AcDbText
 10
6975.93254738
 20
15227.6907475
 30
0.0
 40
60.0
  1
772.5
100
AcDbText
  0
CIRCLE
  5
2F7
330
4FD
100
AcDbEntity
  8
YKK_N1
100
AcDbCircle
 10
6707.5
 20
15215.6907475
 30
0.0
 40
10.0
  0
CIRCLE
  5
2F8
330
4FD
100
AcDbEntity
  8
YKK_N1
100
AcDbCircle
 10
6707.5
 20
15215.6907475
 30
0.0
 40
6.5
  0
TEXT
  5
2F9
330
4FD
100
AcDbEntity
  8
YKK_N1
  6
Continuous
100
AcDbText
 10
7307.6158034
 20
15027.6907475
 30
0.0
 40
60.0
  1
W=1600
100
AcDbText
  0
CIRCLE
  5
2FA
330
4FD
100
AcDbEntity
  8
YKK_N1
100
AcDbCircle
 10
7535.0
 20
15215.6907475
 30
0.0
 40
10.0
  0
CIRCLE
  5
2FB
330
4FD
100
AcDbEntity
  8
YKK_N1
100
AcDbCircle
 10
7535.0
 20
15215.6907475
 30
0.0
 40
6.5
  0
CIRCLE
  5
2FC
330
4FD
100
AcDbEntity
  8
YKK_N1
100
AcDbCircle
 10
7480.0
 20
15215.6907475
 30
0.0
 40
10.0
  0
CIRCLE
  5
2FD
330
4FD
100
AcDbEntity
  8
YKK_N1
100
AcDbCircle
 10
7480.0
 20
15215.6907475
 30
0.0
 40
6.5
  0
LINE
  5
2FE
330
4FD
100
AcDbEntity
  8
YKK_N1
100
AcDbLine
 10
7535.0
 20
15215.6907475
 30
0.0
 11
7480.0
 21
15215.6907475
 31
0.0
  0
TEXT
  5
2FF
330
4FD
100
AcDbEntity
  8
YKK_N1
  6
Continuous
100
AcDbText
 10
7449.67198227
 20
15140.90595057
 30
0.0
 40
60.0
  1
55
100
AcDbText
  0
LINE
  5
300
330
4FD
100
AcDbEntity
  8
YKK_A1
100
AcDbLine
 10
6707.49999879
 20
15720.69070081
 30
0.0
 11
7479.999942
 21
15720.69070081
 31
0.0
  0
TEXT
  5
301
330
4FD
100
AcDbEntity
  8
YKK_A1
100
AcDbText
 10
7411.14279914
 20
15750.69070081
 30
0.0
 40
60.0
  1
F
 41
0.8
  7
YKK_SGSTYLE1
 72
     2
 11
7449.999942
 21
15750.69070081
 31
0.0
100
AcDbText
  0
CIRCLE
  5
302
330
4FD
100
AcDbEntity
  8
YKK_N1
100
AcDbCircle
 10
7940.07246465
 20
13902.49751377
 30
0.0
 40
6.5
  0
CIRCLE
  5
303
330
4FD
100
AcDbEntity
  8
YKK_N1
100
AcDbCircle
 10
7940.07246465
 20
13902.49751377
 30
0.0
 40
10.0
  0
LINE
  5
304
330
4FD
100
AcDbEntity
  8
YKK_Z1
  6
Continuous
100
AcDbLine
 10
8667.50005075
 20
13902.5
 30
0.0
 11
8687.50005421
 21
13922.5
 31
0.0
  0
LINE
  5
305
330
4FD
100
AcDbEntity
  8
YKK_Z1
  6
Continuous
100
AcDbLine
 10
8687.50005421
 20
13902.5
 30
0.0
 11
8707.49999879
 21
13922.49994111
 31
0.0
  0
LINE
  5
306
330
4FD
100
AcDbEntity
  8
YKK_Z1
  6
Continuous
100
AcDbLine
 10
8667.4998429
 20
13922.5
 30
0.0
 11
8687.49983251
 21
13902.5
 31
0.0
  0
LINE
  5
307
330
4FD
100
AcDbEntity
  8
YKK_Z1
  6
Continuous
100
AcDbLine
 10
8687.49983251
 20
13922.5
 30
0.0
 11
8707.49982212
 21
13902.5
 31
0.0
  0
LINE
  5
308
330
4FD
100
AcDbEntity
  8
YKK_Z1
  6
Continuous
100
AcDbLine
 10
8527.5000265
 20
13902.5
 30
0.0
 11
8547.50002997
 21
13922.5
 31
0.0
  0
LINE
  5
309
330
4FD
100
AcDbEntity
  8
YKK_Z1
  6
Continuous
100
AcDbLine
 10
8527.49991565
 20
13922.5
 30
0.0
 11
8547.49990526
 21
13902.5
 31
0.0
  0
LINE
  5
30A
330
4FD
100
AcDbEntity
  8
YKK_Z1
  6
Continuous
100
AcDbLine
 10
8447.50001265
 20
13902.5
 30
0.0
 11
8467.50001611
 21
13922.5
 31
0.0
  0
LINE
  5
30B
330
4FD
100
AcDbEntity
  8
YKK_Z1
  6
Continuous
100
AcDbLine
 10
8447.49995722
 20
13922.5
 30
0.0
 11
8467.49994683
 21
13902.5
 31
0.0
  0
LINE
  5
30C
330
4FD
100
AcDbEntity
  8
YKK_Z1
  6
Continuous
100
AcDbLine
 10
8427.50000918
 20
13902.5
 30
0.0
 11
8447.50001265
 21
13922.5
 31
0.0
  0
LINE
  5
30D
330
4FD
100
AcDbEntity
  8
YKK_Z1
  6
Continuous
100
AcDbLine
 10
8427.49996761
 20
13922.5
 30
0.0
 11
8447.49995722
 21
13902.5
 31
0.0
  0
LINE
  5
30E
330
4FD
100
AcDbEntity
  8
YKK_Z1
  6
Continuous
100
AcDbLine
 10
8387.50000225
 20
13902.5
 30
0.0
 11
8407.50000572
 21
13922.5
 31
0.0
  0
LINE
  5
30F
330
4FD
100
AcDbEntity
  8
YKK_Z1
  6
Continuous
100
AcDbLine
 10
8387.4999884
 20
13922.5
 30
0.0
 11
8407.499978
 21
13902.5
 31
0.0
  0
LINE
  5
310
330
4FD
100
AcDbEntity
  8
YKK_Z1
  6
Continuous
100
AcDbLine
 10
8407.50000572
 20
13902.5
 30
0.0
 11
8427.50000918
 21
13922.5
 31
0.0
  0
LINE
  5
311
330
4FD
100
AcDbEntity
  8
YKK_Z1
  6
Continuous
100
AcDbLine
 10
8407.499978
 20
13922.5
 30
0.0
 11
8427.49996761
 21
13902.5
 31
0.0
  0
LINE
  5
312
330
4FD
100
AcDbEntity
  8
YKK_Z1
  6
Continuous
100
AcDbLine
 10
8507.50002304
 20
13902.5
 30
0.0
 11
8527.5000265
 21
13922.5
 31
0.0
  0
LINE
  5
313
330
4FD
100
AcDbEntity
  8
YKK_Z1
  6
Continuous
100
AcDbLine
 10
8507.49992604
 20
13922.5
 30
0.0
 11
8527.49991565
 21
13902.5
 31
0.0
  0
LINE
  5
314
330
4FD
100
AcDbEntity
  8
YKK_Z1
  6
Continuous
100
AcDbLine
 10
8467.50001611
 20
13902.5
 30
0.0
 11
8487.50001957
 21
13922.5
 31
0.0
  0
LINE
  5
315
330
4FD
100
AcDbEntity
  8
YKK_Z1
  6
Continuous
100
AcDbLine
 10
8487.50001957
 20
13902.5
 30
0.0
 11
8507.50002304
 21
13922.5
 31
0.0
  0
LINE
  5
316
330
4FD
100
AcDbEntity
  8
YKK_Z1
  6
Continuous
100
AcDbLine
 10
8467.49994683
 20
13922.5
 30
0.0
 11
8487.49993644
 21
13902.5
 31
0.0
  0
LINE
  5
317
330
4FD
100
AcDbEntity
  8
YKK_Z1
  6
Continuous
100
AcDbLine
 10
8487.49993644
 20
13922.5
 30
0.0
 11
8507.49992604
 21
13902.5
 31
0.0
  0
LINE
  5
318
330
4FD
100
AcDbEntity
  8
YKK_Z1
  6
Continuous
100
AcDbLine
 10
8567.50003343
 20
13902.5
 30
0.0
 11
8587.50003689
 21
13922.5
 31
0.0
  0
LINE
  5
319
330
4FD
100
AcDbEntity
  8
YKK_Z1
  6
Continuous
100
AcDbLine
 10
8567.49989487
 20
13922.5
 30
0.0
 11
8587.49988447
 21
13902.5
 31
0.0
  0
LINE
  5
31A
330
4FD
100
AcDbEntity
  8
YKK_Z1
  6
Continuous
100
AcDbLine
 10
8627.50004382
 20
13902.5
 30
0.0
 11
8647.50004729
 21
13922.5
 31
0.0
  0
LINE
  5
31B
330
4FD
100
AcDbEntity
  8
YKK_Z1
  6
Continuous
100
AcDbLine
 10
8627.49986369
 20
13922.5
 30
0.0
 11
8647.4998533
 21
13902.5
 31
0.0
  0
LINE
  5
31C
330
4FD
100
AcDbEntity
  8
YKK_Z1
  6
Continuous
100
AcDbLine
 10
8587.50003689
 20
13902.5
 30
0.0
 11
8607.50004036
 21
13922.5
 31
0.0
  0
LINE
  5
31D
330
4FD
100
AcDbEntity
  8
YKK_Z1
  6
Continuous
100
AcDbLine
 10
8587.49988447
 20
13922.5
 30
0.0
 11
8607.49987408
 21
13902.5
 31
0.0
  0
LINE
  5
31E
330
4FD
100
AcDbEntity
  8
YKK_Z1
  6
Continuous
100
AcDbLine
 10
8607.50004036
 20
13902.5
 30
0.0
 11
8627.50004382
 21
13922.5
 31
0.0
  0
LINE
  5
31F
330
4FD
100
AcDbEntity
  8
YKK_Z1
  6
Continuous
100
AcDbLine
 10
8607.49987408
 20
13922.5
 30
0.0
 11
8627.49986369
 21
13902.5
 31
0.0
  0
LINE
  5
320
330
4FD
100
AcDbEntity
  8
YKK_Z1
  6
Continuous
100
AcDbLine
 10
8547.50002997
 20
13902.5
 30
0.0
 11
8567.50003343
 21
13922.5
 31
0.0
  0
LINE
  5
321
330
4FD
100
AcDbEntity
  8
YKK_Z1
  6
Continuous
100
AcDbLine
 10
8547.49990526
 20
13922.5
 30
0.0
 11
8567.49989487
 21
13902.5
 31
0.0
  0
LINE
  5
322
330
4FD
100
AcDbEntity
  8
YKK_Z1
  6
Continuous
100
AcDbLine
 10
8647.50004729
 20
13902.5
 30
0.0
 11
8667.50005075
 21
13922.5
 31
0.0
  0
LINE
  5
323
330
4FD
100
AcDbEntity
  8
YKK_Z1
  6
Continuous
100
AcDbLine
 10
8647.4998533
 20
13922.5
 30
0.0
 11
8667.4998429
 21
13902.5
 31
0.0
  0
LINE
  5
324
330
4FD
100
AcDbEntity
  8
YKK_B1
100
AcDbLine
 10
8307.49987865
 20
13902.5
 30
0.0
 11
8307.49987865
 21
14000.5
 31
0.0
  0
LINE
  5
325
330
4FD
100
AcDbEntity
  8
YKK_Z1
  6
Continuous
100
AcDbLine
 10
8367.49999879
 20
13922.5
 30
0.0
 11
8367.49999879
 21
13902.5
 31
0.0
  0
LINE
  5
326
330
4FD
100
AcDbEntity
  8
YKK_B1
100
AcDbLine
 10
8352.49987865
 20
13912.5
 30
0.0
 11
8352.49987865
 21
13902.5
 31
0.0
  0
LINE
  5
327
330
4FD
100
AcDbEntity
  8
YKK_N1
  6
Continuous
100
AcDbLine
 10
7940.07246465
 20
13902.49751377
 30
0.0
 11
7940.07246465
 21
14052.49998694
 31
0.0
  0
LINE
  5
328
330
4FD
100
AcDbEntity
  8
YKK_Z1
  6
Continuous
100
AcDbLine
 10
8367.49999879
 20
13902.5
 30
0.0
 11
8387.50000225
 21
13922.5
 31
0.0
  0
LINE
  5
329
330
4FD
100
AcDbEntity
  8
YKK_Z1
  6
Continuous
100
AcDbLine
 10
8367.49999879
 20
13922.5
 30
0.0
 11
8387.4999884
 21
13902.5
 31
0.0
  0
LINE
  5
32A
330
4FD
100
AcDbEntity
  8
YKK_Z1
  6
Continuous
100
AcDbLine
 10
8367.49999879
 20
13902.5
 30
0.0
 11
8707.49999879
 21
13902.5
 31
0.0
  0
TEXT
  5
32B
330
4FD
100
AcDbEntity
  8
YKK_N1
  6
Continuous
100
AcDbText
 10
8367.5
 20
13334.5
 30
0.0
 40
60.0
  1
45
100
AcDbText
  0
CIRCLE
  5
32C
330
4FD
100
AcDbEntity
  8
YKK_N1
100
AcDbCircle
 10
8307.5
 20
13522.5
 30
0.0
 40
10.0
  0
LINE
  5
32D
330
4FD
100
AcDbEntity
  8
YKK_N1
  6
Continuous
100
AcDbLine
 10
8307.5
 20
13842.5
 30
0.0
 11
8307.5
 21
13322.5
 31
0.0
  0
LINE
  5
32E
330
4FD
100
AcDbEntity
  8
YKK_N1
  6
Continuous
100
AcDbLine
 10
8352.5
 20
13842.5
 30
0.0
 11
8352.5
 21
13322.5
 31
0.0
  0
CIRCLE
  5
32F
330
4FD
100
AcDbEntity
  8
YKK_N1
100
AcDbCircle
 10
8352.5
 20
13322.5
 30
0.0
 40
10.0
  0
CIRCLE
  5
330
330
4FD
100
AcDbEntity
  8
YKK_N1
100
AcDbCircle
 10
8352.5
 20
13322.5
 30
0.0
 40
6.5
  0
LINE
  5
331
330
4FD
100
AcDbEntity
  8
YKK_N1
  6
Continuous
100
AcDbLine
 10
8307.5
 20
13322.5
 30
0.0
 11
8220.89745962
 21
13272.5
 31
0.0
  0
LINE
  5
332
330
4FD
100
AcDbEntity
  8
YKK_N1
  6
Continuous
100
AcDbLine
 10
8307.5
 20
13322.5
 30
0.0
 11
8352.5
 21
13322.5
 31
0.0
  0
LINE
  5
333
330
4FD
100
AcDbEntity
  8
YKK_N1
  6
Continuous
100
AcDbLine
 10
8220.89745962
 20
13372.5
 30
0.0
 11
8307.5
 21
13322.5
 31
0.0
  0
LINE
  5
334
330
4FD
100
AcDbEntity
  8
YKK_N1
  6
Continuous
100
AcDbLine
 10
8220.89745962
 20
13372.5
 30
0.0
 11
8220.89745962
 21
13272.5
 31
0.0
  0
CIRCLE
  5
335
330
4FD
100
AcDbEntity
  8
YKK_N1
100
AcDbCircle
 10
8307.5
 20
13522.5
 30
0.0
 40
6.5
  0
LINE
  5
336
330
4FD
100
AcDbEntity
  8
YKK_Z1
  6
Continuous
100
AcDbLine
 10
8329.99999879
 20
13902.5
 30
0.0
 11
8317.49999879
 21
13902.5
 31
0.0
  0
LINE
  5
337
330
4FD
100
AcDbEntity
  8
YKK_B1
100
AcDbLine
 10
8352.49987865
 20
13902.5
 30
0.0
 11
8307.49987865
 21
13902.5
 31
0.0
  0
LINE
  5
33B
330
4FD
100
AcDbEntity
  8
YKK_Z1
  6
Continuous
100
AcDbLine
 10
8410.51507353
 20
13922.5
 30
0.0
 11
8590.51510471
 21
14102.5
 31
0.0
  0
LINE
  5
33C
330
4FD
100
AcDbEntity
  8
YKK_Z1
  6
Continuous
100
AcDbLine
 10
8419.00035711
 20
13922.5
 30
0.0
 11
8599.00038829
 21
14102.5
 31
0.0
  0
LINE
  5
33D
330
4FD
100
AcDbEntity
  8
YKK_Z1
  6
Continuous
100
AcDbLine
 10
8707.49999879
 20
13922.5
 30
0.0
 11
8367.49999879
 21
13922.5
 31
0.0
  0
LINE
  5
33E
330
4FD
100
AcDbEntity
  8
YKK_Z1
  6
Continuous
100
AcDbLine
 10
8337.49999879
 20
14102.5
 30
0.0
 11
8707.49999879
 21
14102.5
 31
0.0
  0
LINE
  5
33F
330
4FD
100
AcDbEntity
  8
YKK_Z1
  6
Continuous
100
AcDbLine
 10
8322.49999879
 20
14117.5
 30
0.0
 11
8707.49999879
 21
14117.5
 31
0.0
  0
LINE
  5
340
330
4FD
100
AcDbEntity
  8
YKK_Z1
  6
Continuous
100
AcDbLine
 10
8330.49999879
 20
14109.5
 30
0.0
 11
8707.49999879
 21
14109.5
 31
0.0
  0
LINE
  5
341
330
4FD
100
AcDbEntity
  8
YKK_Z1
  6
CENTER
100
AcDbLine
 10
8352.49999879
 20
14012.5
 30
0.0
 11
8707.49999879
 21
14012.5
 31
0.0
  0
CIRCLE
  5
342
330
4FD
100
AcDbEntity
  8
YKK_N1
100
AcDbCircle
 10
7940.07246465
 20
14052.49998694
 30
0.0
 40
6.5
  0
CIRCLE
  5
343
330
4FD
100
AcDbEntity
  8
YKK_N1
100
AcDbCircle
 10
7940.07246465
 20
14052.49998694
 30
0.0
 40
10.0
  0
TEXT
  5
344
330
4FD
100
AcDbEntity
  8
YKK_N1
  6
Continuous
100
AcDbText
 10
7928.07246465
 20
14077.49998694
 30
0.0
 40
60.0
  1
150
 50
90.0
100
AcDbText
  0
LINE
  5
345
330
4FD
100
AcDbEntity
  8
YKK_Z1
  6
Continuous
100
AcDbLine
 10
8367.49999879
 20
13922.5
 30
0.0
 11
8367.49999879
 21
14057.5
 31
0.0
  0
LINE
  5
346
330
4FD
100
AcDbEntity
  8
YKK_B1
100
AcDbLine
 10
8343.99987865
 20
14052.5
 30
0.0
 11
8343.99987865
 21
14000.5
 31
0.0
  0
LINE
  5
348
330
4FD
100
AcDbEntity
  8
YKK_B1
100
AcDbLine
 10
8307.49987865
 20
14000.5
 30
0.0
 11
8343.99987865
 21
14000.5
 31
0.0
  0
LINE
  5
349
330
4FD
100
AcDbEntity
  8
YKK_B1
100
AcDbLine
 10
8352.49987865
 20
14052.5
 30
0.0
 11
8307.49987865
 21
14052.5
 31
0.0
  0
LINE
  5
34A
330
4FD
100
AcDbEntity
  8
YKK_B1
100
AcDbLine
 10
8307.49987865
 20
14038.5
 30
0.0
 11
8343.99987865
 21
14038.5
 31
0.0
  0
LINE
  5
34B
330
4FD
100
AcDbEntity
  8
YKK_B1
100
AcDbLine
 10
8307.49987865
 20
14052.5
 30
0.0
 11
8307.49987865
 21
14038.5
 31
0.0
  0
LINE
  5
34C
330
4FD
100
AcDbEntity
  8
YKK_B1
100
AcDbLine
 10
8352.49987865
 20
14041.5
 30
0.0
 11
8352.49987865
 21
14052.5
 31
0.0
  0
LINE
  5
34D
330
4FD
100
AcDbEntity
  8
YKK_Z1
  6
Continuous
100
AcDbLine
 10
8322.49999879
 20
14052.5
 30
0.0
 11
8330.49999879
 21
14052.5
 31
0.0
  0
LINE
  5
34E
330
4FD
100
AcDbEntity
  8
YKK_Z1
  6
Continuous
100
AcDbLine
 10
8322.49999879
 20
14052.5
 30
0.0
 11
8322.49999879
 21
14117.5
 31
0.0
  0
LINE
  5
34F
330
4FD
100
AcDbEntity
  8
YKK_Z1
  6
Continuous
100
AcDbLine
 10
8330.49999879
 20
14052.5
 30
0.0
 11
8330.49999879
 21
14109.5
 31
0.0
  0
LINE
  5
350
330
4FD
100
AcDbEntity
  8
YKK_Z1
  6
Continuous
100
AcDbLine
 10
8337.49999879
 20
14067.5
 30
0.0
 11
8337.49999879
 21
14102.5
 31
0.0
  0
LINE
  5
351
330
4FD
100
AcDbEntity
  8
YKK_Z1
  6
Continuous
100
AcDbLine
 10
8367.49999879
 20
14057.5
 30
0.0
 11
8337.49999879
 21
14067.5
 31
0.0
  0
LINE
  5
353
330
4FD
100
AcDbEntity
  8
YKK_Z1
  6
Continuous
100
AcDbLine
 10
8707.49982212
 20
13922.5
 30
0.0
 11
8707.49999879
 21
13922.49982333
 31
0.0
  0
LINE
  5
354
330
4FD
100
AcDbEntity
  8
YKK_Z1
  6
Continuous
100
AcDbLine
 10
8642.49999879
 20
14117.5
 30
0.0
 11
8642.49999879
 21
14109.5
 31
0.0
  0
LINE
  5
355
330
4FD
100
AcDbEntity
  8
YKK_Z1
  6
Continuous
100
AcDbLine
 10
8652.49999879
 20
14117.5
 30
0.0
 11
8652.49999879
 21
14109.5
 31
0.0
  0
LINE
  5
356
330
4FD
100
AcDbEntity
  8
YKK_Z1
  6
Continuous
100
AcDbLine
 10
8532.49999879
 20
14117.5
 30
0.0
 11
8532.49999879
 21
14109.5
 31
0.0
  0
LINE
  5
357
330
4FD
100
AcDbEntity
  8
YKK_Z1
  6
Continuous
100
AcDbLine
 10
8542.49999879
 20
14117.5
 30
0.0
 11
8542.49999879
 21
14109.5
 31
0.0
  0
LINE
  5
358
330
4FD
100
AcDbEntity
  8
YKK_Z1
  6
Continuous
100
AcDbLine
 10
8422.49999879
 20
14117.5
 30
0.0
 11
8422.49999879
 21
14109.5
 31
0.0
  0
LINE
  5
359
330
4FD
100
AcDbEntity
  8
YKK_Z1
  6
Continuous
100
AcDbLine
 10
8432.49999879
 20
14117.5
 30
0.0
 11
8432.49999879
 21
14109.5
 31
0.0
  0
LINE
  5
35A
330
4FD
100
AcDbEntity
  8
YKK_Z1
  6
Continuous
100
AcDbLine
 10
8438.79935213
 20
13922.5
 30
0.0
 11
8618.7993833
 21
14102.5
 31
0.0
  0
LINE
  5
35B
330
4FD
100
AcDbEntity
  8
YKK_Z1
  6
CENTER
100
AcDbLine
 10
8817.50012815
 20
15595.69057261
 30
0.0
 11
9317.50012815
 21
15595.69057261
 31
0.0
  0
LINE
  5
35C
330
4FD
100
AcDbEntity
  8
YKK_N1
  6
Continuous
100
AcDbLine
 10
8307.5
 20
15535.6907475
 30
0.0
 11
8307.5
 21
15015.6907475
 31
0.0
  0
LINE
  5
35D
330
4FD
100
AcDbEntity
  8
YKK_N1
  6
Continuous
100
AcDbLine
 10
8307.5
 20
15015.6907475
 30
0.0
 11
8220.89745962
 21
14965.6907475
 31
0.0
  0
LINE
  5
35E
330
4FD
100
AcDbEntity
  8
YKK_N1
  6
Continuous
100
AcDbLine
 10
8220.89745962
 20
15065.6907475
 30
0.0
 11
8220.89745962
 21
14965.6907475
 31
0.0
  0
LINE
  5
35F
330
4FD
100
AcDbEntity
  8
YKK_N1
  6
Continuous
100
AcDbLine
 10
8220.89745962
 20
15065.6907475
 30
0.0
 11
8307.5
 21
15015.6907475
 31
0.0
  0
CIRCLE
  5
360
330
4FD
100
AcDbEntity
  8
YKK_N1
100
AcDbCircle
 10
8307.5
 20
15215.6907475
 30
0.0
 40
10.0
  0
CIRCLE
  5
361
330
4FD
100
AcDbEntity
  8
YKK_N1
100
AcDbCircle
 10
8307.5
 20
15215.6907475
 30
0.0
 40
6.5
  0
LINE
  5
362
330
4FD
100
AcDbEntity
  8
YKK_N1
  6
Continuous
100
AcDbLine
 10
8377.49999879
 20
15595.69058595
 30
0.0
 11
8897.49999879
 21
15595.69058595
 31
0.0
  0
TEXT
  5
363
330
4FD
100
AcDbEntity
  8
YKK_A1
100
AcDbText
 10
8238.64273579
 20
15750.69070081
 30
0.0
 40
60.0
  1
F
 41
0.8
  7
YKK_SGSTYLE1
 72
     2
 11
8277.49987865
 21
15750.69070081
 31
0.0
100
AcDbText
  0
CIRCLE
  5
364
330
4FD
100
AcDbEntity
  8
YKK_N1
100
AcDbCircle
 10
8697.49999879
 20
15595.69058595
 30
0.0
 40
10.0
  0
CIRCLE
  5
365
330
4FD
100
AcDbEntity
  8
YKK_N1
100
AcDbCircle
 10
8697.49999879
 20
15595.69058595
 30
0.0
 40
6.5
  0
LINE
  5
366
330
4FD
100
AcDbEntity
  8
YKK_N1
  6
Continuous
100
AcDbLine
 10
8847.49999879
 20
15682.29312633
 30
0.0
 11
8897.49999879
 21
15595.69058595
 31
0.0
  0
LINE
  5
367
330
4FD
100
AcDbEntity
  8
YKK_N1
  6
Continuous
100
AcDbLine
 10
8847.49999879
 20
15682.29312633
 30
0.0
 11
8947.49999879
 21
15682.29312633
 31
0.0
  0
LINE
  5
368
330
4FD
100
AcDbEntity
  8
YKK_N1
  6
Continuous
100
AcDbLine
 10
8897.49999879
 20
15595.69058595
 30
0.0
 11
8947.49999879
 21
15682.29312633
 31
0.0
  0
LINE
  5
369
330
4FD
100
AcDbEntity
  8
YKK_Z1
  6
Continuous
100
AcDbLine
 10
9632.01566262
 20
15545.69057261
 30
0.0
 11
9467.50012815
 21
15381.17500965
 31
0.0
  0
LINE
  5
36A
330
4FD
100
AcDbEntity
  8
YKK_Z1
  6
Continuous
100
AcDbLine
 10
9651.81465421
 20
15545.69057261
 30
0.0
 11
9471.81468539
 21
15365.69057261
 31
0.0
  0
LINE
  5
36B
330
4FD
100
AcDbEntity
  8
YKK_Z1
  6
Continuous
100
AcDbLine
 10
9623.53038051
 20
15545.69057261
 30
0.0
 11
9467.50012815
 21
15389.66029323
 31
0.0
  0
LINE
  5
36C
330
4FD
100
AcDbEntity
  8
YKK_Z1
  6
Continuous
100
AcDbLine
 10
9948.79952803
 20
15545.69057261
 30
0.0
 11
9768.79955921
 21
15365.69057261
 31
0.0
  0
LINE
  5
36D
330
4FD
100
AcDbEntity
  8
YKK_Z1
  6
Continuous
100
AcDbLine
 10
9920.51525433
 20
15545.69057261
 30
0.0
 11
9740.51528551
 21
15365.69057261
 31
0.0
  0
LINE
  5
36E
330
4FD
100
AcDbEntity
  8
YKK_Z1
  6
Continuous
100
AcDbLine
 10
9929.00053644
 20
15545.69057261
 30
0.0
 11
9749.00056762
 21
15365.69057261
 31
0.0
  0
TEXT
  5
36F
330
4FD
100
AcDbEntity
  8
YKK_N1
  6
Continuous
100
AcDbText
 10
9549.75838073
 20
15998.97570509
 30
0.0
 40
60.0
  1
70
100
AcDbText
  0
TEXT
  5
370
330
4FD
100
AcDbEntity
  8
YKK_N1
  6
Continuous
100
AcDbText
 10
9492.49338501
 20
16103.17666225
 30
0.0
 40
60.0
  1
150
100
AcDbText
  0
LINE
  5
371
330
4FD
100
AcDbEntity
  8
YKK_Z1
  6
Continuous
100
AcDbLine
 10
9607.50012815
 20
15595.69057261
 30
0.0
 11
9557.50012815
 21
15595.69057261
 31
0.0
  0
LINE
  5
372
330
4FD
100
AcDbEntity
  8
YKK_Z1
  6
Continuous
100
AcDbLine
 10
9557.50012815
 20
15585.69057261
 30
0.0
 11
9607.50012815
 21
15585.69057261
 31
0.0
  0
TEXT
  5
373
330
4FD
100
AcDbEntity
  8
YKK_Z1
100
AcDbText
 10
9239.78584244
 20
15605.69057261
 30
0.0
 40
60.0
  1
FL
 41
0.8
  7
YKK_SGSTYLE1
 72
     2
 11
9317.50012815
 21
15605.69057261
 31
0.0
100
AcDbText
  0
LINE
  5
374
330
4FD
100
AcDbEntity
  8
YKK_Z1
  6
ByBlock
 62
     0
100
AcDbLine
 10
9199.78584244
 20
15595.69057261
 30
0.0
 11
9165.14482644
 21
15655.69057261
 31
0.0
  0
LINE
  5
375
330
4FD
100
AcDbEntity
  8
YKK_Z1
  6
ByBlock
 62
     0
100
AcDbLine
 10
9165.14482644
 20
15655.69057261
 30
0.0
 11
9234.42685844
 21
15655.69057261
 31
0.0
  0
LINE
  5
376
330
4FD
100
AcDbEntity
  8
YKK_Z1
  6
ByBlock
 62
     0
100
AcDbLine
 10
9234.42685844
 20
15655.69057261
 30
0.0
 11
9199.78584244
 21
15595.69057261
 31
0.0
  0
LINE
  5
377
330
4FD
100
AcDbEntity
  8
YKK_Z1
  6
Continuous
100
AcDbLine
 10
9557.50012815
 20
15595.69057261
 30
0.0
 11
9557.50012815
 21
15585.69057261
 31
0.0
  0
LINE
  5
378
330
4FD
100
AcDbEntity
  8
YKK_Z1
  6
Continuous
100
AcDbLine
 10
9557.50012815
 20
15591.69057261
 30
0.0
 11
9552.50012815
 21
15591.69057261
 31
0.0
  0
LINE
  5
379
330
4FD
100
AcDbEntity
  8
YKK_Z1
  6
Continuous
100
AcDbLine
 10
9552.50012815
 20
15585.69057261
 30
0.0
 11
9552.50012815
 21
15595.69057261
 31
0.0
  0
LINE
  5
37A
330
4FD
100
AcDbEntity
  8
YKK_Z1
  6
Continuous
100
AcDbLine
 10
9502.50012815
 20
15591.69057261
 30
0.0
 11
9497.50012815
 21
15591.69057261
 31
0.0
  0
LINE
  5
37B
330
4FD
100
AcDbEntity
  8
YKK_Z1
  6
Continuous
100
AcDbLine
 10
9467.50012815
 20
15585.69057261
 30
0.0
 11
9497.50012815
 21
15585.69057261
 31
0.0
  0
LINE
  5
37C
330
4FD
100
AcDbEntity
  8
YKK_Z1
  6
Continuous
100
AcDbLine
 10
9497.50012815
 20
15595.69057261
 30
0.0
 11
9467.50012815
 21
15595.69057261
 31
0.0
  0
LINE
  5
37D
330
4FD
100
AcDbEntity
  8
YKK_Z1
  6
Continuous
100
AcDbLine
 10
9497.50012815
 20
15585.69057261
 30
0.0
 11
9497.50012815
 21
15595.69057261
 31
0.0
  0
LINE
  5
37E
330
4FD
100
AcDbEntity
  8
YKK_Z1
  6
Continuous
100
AcDbLine
 10
9502.50012815
 20
15595.69057261
 30
0.0
 11
9502.50012815
 21
15585.69057261
 31
0.0
  0
LINE
  5
37F
330
4FD
100
AcDbEntity
  8
YKK_Z1
  6
Continuous
100
AcDbLine
 10
9552.50012815
 20
15595.69057261
 30
0.0
 11
9502.50012815
 21
15595.69057261
 31
0.0
  0
LINE
  5
380
330
4FD
100
AcDbEntity
  8
YKK_Z1
  6
Continuous
100
AcDbLine
 10
9502.50012815
 20
15585.69057261
 30
0.0
 11
9552.50012815
 21
15585.69057261
 31
0.0
  0
LINE
  5
381
330
4FD
100
AcDbEntity
  8
YKK_Z1
  6
Continuous
100
AcDbLine
 10
9832.50012815
 20
15595.69057261
 30
0.0
 11
9882.50012815
 21
15595.69057261
 31
0.0
  0
LINE
  5
382
330
4FD
100
AcDbEntity
  8
YKK_Z1
  6
Continuous
100
AcDbLine
 10
9882.50012815
 20
15585.69057261
 30
0.0
 11
9832.50012815
 21
15585.69057261
 31
0.0
  0
LINE
  5
383
330
4FD
100
AcDbEntity
  8
YKK_Z1
  6
Continuous
100
AcDbLine
 10
9827.50012815
 20
15591.69057261
 30
0.0
 11
9832.50012815
 21
15591.69057261
 31
0.0
  0
LINE
  5
384
330
4FD
100
AcDbEntity
  8
YKK_Z1
  6
Continuous
100
AcDbLine
 10
9827.50012815
 20
15595.69057261
 30
0.0
 11
9827.50012815
 21
15585.69057261
 31
0.0
  0
LINE
  5
385
330
4FD
100
AcDbEntity
  8
YKK_Z1
  6
Continuous
100
AcDbLine
 10
9832.50012815
 20
15585.69057261
 30
0.0
 11
9832.50012815
 21
15595.69057261
 31
0.0
  0
LINE
  5
386
330
4FD
100
AcDbEntity
  8
YKK_Z1
  6
Continuous
100
AcDbLine
 10
9662.50012815
 20
15595.69057261
 30
0.0
 11
9612.50012815
 21
15595.69057261
 31
0.0
  0
LINE
  5
387
330
4FD
100
AcDbEntity
  8
YKK_Z1
  6
Continuous
100
AcDbLine
 10
9612.50012815
 20
15585.69057261
 30
0.0
 11
9662.50012815
 21
15585.69057261
 31
0.0
  0
LINE
  5
388
330
4FD
100
AcDbEntity
  8
YKK_Z1
  6
Continuous
100
AcDbLine
 10
9612.50012815
 20
15595.69057261
 30
0.0
 11
9612.50012815
 21
15585.69057261
 31
0.0
  0
LINE
  5
389
330
4FD
100
AcDbEntity
  8
YKK_Z1
  6
Continuous
100
AcDbLine
 10
9612.50012815
 20
15591.69057261
 30
0.0
 11
9607.50012815
 21
15591.69057261
 31
0.0
  0
LINE
  5
38A
330
4FD
100
AcDbEntity
  8
YKK_Z1
  6
Continuous
100
AcDbLine
 10
9607.50012815
 20
15585.69057261
 30
0.0
 11
9607.50012815
 21
15595.69057261
 31
0.0
  0
LINE
  5
38B
330
4FD
100
AcDbEntity
  8
YKK_C1
100
AcDbLine
 10
9737.49999879
 20
15720.69057261
 30
0.0
 11
9737.49999879
 21
15580.69057261
 31
0.0
  0
LINE
  5
38C
330
4FD
100
AcDbEntity
  8
YKK_Z1
  6
Continuous
100
AcDbLine
 10
9722.50012815
 20
15595.69057261
 30
0.0
 11
9772.50012815
 21
15595.69057261
 31
0.0
  0
LINE
  5
38D
330
4FD
100
AcDbEntity
  8
YKK_Z1
  6
Continuous
100
AcDbLine
 10
9772.50012815
 20
15585.69057261
 30
0.0
 11
9722.50012815
 21
15585.69057261
 31
0.0
  0
LINE
  5
38E
330
4FD
100
AcDbEntity
  8
YKK_Z1
  6
Continuous
100
AcDbLine
 10
9717.50012815
 20
15591.69057261
 30
0.0
 11
9722.50012815
 21
15591.69057261
 31
0.0
  0
LINE
  5
38F
330
4FD
100
AcDbEntity
  8
YKK_Z1
  6
Continuous
100
AcDbLine
 10
9722.50012815
 20
15585.69057261
 30
0.0
 11
9722.50012815
 21
15595.69057261
 31
0.0
  0
LINE
  5
390
330
4FD
100
AcDbEntity
  8
YKK_C1
100
AcDbLine
 10
9737.49999879
 20
15580.69057261
 30
0.0
 11
9728.49999879
 21
15580.69057261
 31
0.0
  0
LINE
  5
391
330
4FD
100
AcDbEntity
  8
YKK_Z1
  6
Continuous
100
AcDbLine
 10
9772.50012815
 20
15595.69057261
 30
0.0
 11
9772.50012815
 21
15585.69057261
 31
0.0
  0
LINE
  5
392
330
4FD
100
AcDbEntity
  8
YKK_Z1
  6
Continuous
100
AcDbLine
 10
9772.50012815
 20
15591.69057261
 30
0.0
 11
9777.50012815
 21
15591.69057261
 31
0.0
  0
LINE
  5
393
330
4FD
100
AcDbEntity
  8
YKK_Z1
  6
Continuous
100
AcDbLine
 10
9777.50012815
 20
15585.69057261
 30
0.0
 11
9777.50012815
 21
15595.69057261
 31
0.0
  0
LINE
  5
394
330
4FD
100
AcDbEntity
  8
YKK_C1
100
AcDbLine
 10
9719.49999879
 20
15694.69057261
 30
0.0
 11
9673.62999879
 21
15694.69057261
 31
0.0
  0
LINE
  5
395
330
4FD
100
AcDbEntity
  8
YKK_C1
100
AcDbLine
 10
9681.50012815
 20
15720.69057261
 30
0.0
 11
9681.50012815
 21
15700.62057261
 31
0.0
  0
LINE
  5
396
330
4FD
100
AcDbEntity
  8
YKK_C1
100
AcDbLine
 10
9677.49999879
 20
15657.45384242
 30
0.0
 11
9677.49999879
 21
15694.69057261
 31
0.0
  0
LINE
  5
397
330
4FD
100
AcDbEntity
  8
YKK_C1
100
AcDbLine
 10
9673.62999879
 20
15694.69057261
 30
0.0
 11
9673.62999879
 21
15700.62057261
 31
0.0
  0
LINE
  5
398
330
4FD
100
AcDbEntity
  8
YKK_C1
100
AcDbLine
 10
9686.30012815
 20
15700.62057261
 30
0.0
 11
9686.30012815
 21
15695.69057261
 31
0.0
  0
LINE
  5
399
330
4FD
100
AcDbEntity
  8
YKK_C1
100
AcDbLine
 10
9719.49999879
 20
15705.19057261
 30
0.0
 11
9719.49999879
 21
15720.69057261
 31
0.0
  0
LINE
  5
39A
330
4FD
100
AcDbEntity
  8
YKK_C1
100
AcDbLine
 10
9719.49999879
 20
15717.69057261
 30
0.0
 11
9737.49999879
 21
15717.69057261
 31
0.0
  0
LINE
  5
39B
330
4FD
100
AcDbEntity
  8
YKK_C1
100
AcDbLine
 10
9737.49999879
 20
15697.86445827
 30
0.0
 11
9719.49999879
 21
15694.69057261
 31
0.0
  0
LINE
  5
39C
330
4FD
100
AcDbEntity
  8
YKK_C1
100
AcDbLine
 10
9667.49999879
 20
15580.69057261
 30
0.0
 11
9667.49999879
 21
15655.69057261
 31
0.0
  0
LINE
  5
39D
330
4FD
100
AcDbEntity
  8
YKK_Z1
  6
Continuous
100
AcDbLine
 10
9667.50012815
 20
15591.69057261
 30
0.0
 11
9662.50012815
 21
15591.69057261
 31
0.0
  0
LINE
  5
39E
330
4FD
100
AcDbEntity
  8
YKK_Z1
  6
Continuous
100
AcDbLine
 10
9662.50012815
 20
15585.69057261
 30
0.0
 11
9662.50012815
 21
15595.69057261
 31
0.0
  0
LINE
  5
39F
330
4FD
100
AcDbEntity
  8
YKK_C1
100
AcDbLine
 10
9667.50012815
 20
15665.69057261
 30
0.0
 11
9667.50012815
 21
15720.69057261
 31
0.0
  0
LINE
  5
3A0
330
4FD
100
AcDbEntity
  8
YKK_C1
100
AcDbLine
 10
9667.49999879
 20
15600.69057261
 30
0.0
 11
9737.49999879
 21
15600.69057261
 31
0.0
  0
LINE
  5
3A1
330
4FD
100
AcDbEntity
  8
YKK_C1
100
AcDbLine
 10
9676.49999879
 20
15580.69057261
 30
0.0
 11
9667.49999879
 21
15580.69057261
 31
0.0
  0
LINE
  5
3A2
330
4FD
100
AcDbEntity
  8
YKK_C1
100
AcDbLine
 10
9667.49999879
 20
15648.69057261
 30
0.0
 11
9737.49999879
 21
15648.69057261
 31
0.0
  0
LINE
  5
3A3
330
4FD
100
AcDbEntity
  8
YKK_C1
100
AcDbLine
 10
9667.50012815
 20
15720.69057261
 30
0.0
 11
9681.50012815
 21
15720.69057261
 31
0.0
  0
LINE
  5
3A4
330
4FD
100
AcDbEntity
  8
YKK_C1
100
AcDbLine
 10
9667.50012815
 20
15700.62057261
 30
0.0
 11
9686.30012815
 21
15700.62057261
 31
0.0
  0
LINE
  5
3A5
330
4FD
100
AcDbEntity
  8
YKK_C1
100
AcDbLine
 10
9667.49999879
 20
15655.69057261
 30
0.0
 11
9677.49999879
 21
15657.45384242
 31
0.0
  0
LINE
  5
3A6
330
4FD
100
AcDbEntity
  8
YKK_Z1
  6
Continuous
100
AcDbLine
 10
9777.50012815
 20
15595.69057261
 30
0.0
 11
9827.50012815
 21
15595.69057261
 31
0.0
  0
LINE
  5
3A7
330
4FD
100
AcDbEntity
  8
YKK_Z1
  6
Continuous
100
AcDbLine
 10
9827.50012815
 20
15585.69057261
 30
0.0
 11
9777.50012815
 21
15585.69057261
 31
0.0
  0
LINE
  5
3A8
330
4FD
100
AcDbEntity
  8
YKK_Z1
  6
Continuous
100
AcDbLine
 10
10102.50012815
 20
15595.69057261
 30
0.0
 11
10102.50012815
 21
15585.69057261
 31
0.0
  0
LINE
  5
3A9
330
4FD
100
AcDbEntity
  8
YKK_Z1
  6
Continuous
100
AcDbLine
 10
10102.50012815
 20
15591.69057261
 30
0.0
 11
10107.50012815
 21
15591.69057261
 31
0.0
  0
LINE
  5
3AA
330
4FD
100
AcDbEntity
  8
YKK_Z1
  6
Continuous
100
AcDbLine
 10
10107.50012815
 20
15585.69057261
 30
0.0
 11
10107.50012815
 21
15595.69057261
 31
0.0
  0
LINE
  5
3AB
330
4FD
100
AcDbEntity
  8
YKK_Z1
  6
Continuous
100
AcDbLine
 10
9937.50012815
 20
15591.69057261
 30
0.0
 11
9942.50012815
 21
15591.69057261
 31
0.0
  0
LINE
  5
3AC
330
4FD
100
AcDbEntity
  8
YKK_Z1
  6
Continuous
100
AcDbLine
 10
9887.50012815
 20
15595.69057261
 30
0.0
 11
9937.50012815
 21
15595.69057261
 31
0.0
  0
LINE
  5
3AD
330
4FD
100
AcDbEntity
  8
YKK_Z1
  6
Continuous
100
AcDbLine
 10
9937.50012815
 20
15585.69057261
 30
0.0
 11
9887.50012815
 21
15585.69057261
 31
0.0
  0
LINE
  5
3AE
330
4FD
100
AcDbEntity
  8
YKK_Z1
  6
Continuous
100
AcDbLine
 10
9882.50012815
 20
15595.69057261
 30
0.0
 11
9882.50012815
 21
15585.69057261
 31
0.0
  0
LINE
  5
3AF
330
4FD
100
AcDbEntity
  8
YKK_Z1
  6
Continuous
100
AcDbLine
 10
9882.50012815
 20
15591.69057261
 30
0.0
 11
9887.50012815
 21
15591.69057261
 31
0.0
  0
LINE
  5
3B0
330
4FD
100
AcDbEntity
  8
YKK_Z1
  6
Continuous
100
AcDbLine
 10
9887.50012815
 20
15585.69057261
 30
0.0
 11
9887.50012815
 21
15595.69057261
 31
0.0
  0
LINE
  5
3B1
330
4FD
100
AcDbEntity
  8
YKK_Z1
  6
Continuous
100
AcDbLine
 10
9937.50012815
 20
15595.69057261
 30
0.0
 11
9937.50012815
 21
15585.69057261
 31
0.0
  0
LINE
  5
3B2
330
4FD
100
AcDbEntity
  8
YKK_Z1
  6
Continuous
100
AcDbLine
 10
9997.50012815
 20
15595.69057261
 30
0.0
 11
10047.50012815
 21
15595.69057261
 31
0.0
  0
LINE
  5
3B3
330
4FD
100
AcDbEntity
  8
YKK_Z1
  6
Continuous
100
AcDbLine
 10
10047.50012815
 20
15585.69057261
 30
0.0
 11
9997.50012815
 21
15585.69057261
 31
0.0
  0
LINE
  5
3B4
330
4FD
100
AcDbEntity
  8
YKK_Z1
  6
Continuous
100
AcDbLine
 10
9992.50012815
 20
15595.69057261
 30
0.0
 11
9992.50012815
 21
15585.69057261
 31
0.0
  0
LINE
  5
3B5
330
4FD
100
AcDbEntity
  8
YKK_Z1
  6
Continuous
100
AcDbLine
 10
9992.50012815
 20
15591.69057261
 30
0.0
 11
9997.50012815
 21
15591.69057261
 31
0.0
  0
LINE
  5
3B6
330
4FD
100
AcDbEntity
  8
YKK_Z1
  6
Continuous
100
AcDbLine
 10
9997.50012815
 20
15585.69057261
 30
0.0
 11
9997.50012815
 21
15595.69057261
 31
0.0
  0
LINE
  5
3B7
330
4FD
100
AcDbEntity
  8
YKK_Z1
  6
Continuous
100
AcDbLine
 10
10047.50012815
 20
15595.69057261
 30
0.0
 11
10047.50012815
 21
15585.69057261
 31
0.0
  0
LINE
  5
3B8
330
4FD
100
AcDbEntity
  8
YKK_Z1
  6
Continuous
100
AcDbLine
 10
10047.50012815
 20
15591.69057261
 30
0.0
 11
10052.50012815
 21
15591.69057261
 31
0.0
  0
LINE
  5
3B9
330
4FD
100
AcDbEntity
  8
YKK_Z1
  6
Continuous
100
AcDbLine
 10
10052.50012815
 20
15585.69057261
 30
0.0
 11
10052.50012815
 21
15595.69057261
 31
0.0
  0
LINE
  5
3BA
330
4FD
100
AcDbEntity
  8
YKK_Z1
  6
Continuous
100
AcDbLine
 10
9942.50012815
 20
15585.69057261
 30
0.0
 11
9942.50012815
 21
15595.69057261
 31
0.0
  0
LINE
  5
3BB
330
4FD
100
AcDbEntity
  8
YKK_Z1
  6
Continuous
100
AcDbLine
 10
9942.50012815
 20
15595.69057261
 30
0.0
 11
9992.50012815
 21
15595.69057261
 31
0.0
  0
LINE
  5
3BC
330
4FD
100
AcDbEntity
  8
YKK_Z1
  6
Continuous
100
AcDbLine
 10
9992.50012815
 20
15585.69057261
 30
0.0
 11
9942.50012815
 21
15585.69057261
 31
0.0
  0
LINE
  5
3BD
330
4FD
100
AcDbEntity
  8
YKK_Z1
  6
Continuous
100
AcDbLine
 10
10052.50012815
 20
15595.69057261
 30
0.0
 11
10102.50012815
 21
15595.69057261
 31
0.0
  0
LINE
  5
3BE
330
4FD
100
AcDbEntity
  8
YKK_Z1
  6
Continuous
100
AcDbLine
 10
10102.50012815
 20
15585.69057261
 30
0.0
 11
10052.50012815
 21
15585.69057261
 31
0.0
  0
CIRCLE
  5
3BF
330
4FD
100
AcDbEntity
  8
YKK_N1
100
AcDbCircle
 10
9817.49999879
 20
16084.54287757
 30
0.0
 40
10.0
  0
CIRCLE
  5
3C0
330
4FD
100
AcDbEntity
  8
YKK_N1
100
AcDbCircle
 10
9817.49999879
 20
16084.54287757
 30
0.0
 40
6.5
  0
CIRCLE
  5
3C1
330
4FD
100
AcDbEntity
  8
YKK_N1
100
AcDbCircle
 10
9737.49999879
 20
15984.54287757
 30
0.0
 40
10.0
  0
CIRCLE
  5
3C2
330
4FD
100
AcDbEntity
  8
YKK_N1
100
AcDbCircle
 10
9737.49999879
 20
15984.54287757
 30
0.0
 40
6.5
  0
CIRCLE
  5
3C3
330
4FD
100
AcDbEntity
  8
YKK_N1
100
AcDbCircle
 10
9667.49999879
 20
15984.54287757
 30
0.0
 40
10.0
  0
CIRCLE
  5
3C4
330
4FD
100
AcDbEntity
  8
YKK_N1
100
AcDbCircle
 10
9667.49999879
 20
15984.54287757
 30
0.0
 40
6.5
  0
CIRCLE
  5
3C5
330
4FD
100
AcDbEntity
  8
YKK_N1
100
AcDbCircle
 10
9667.49999879
 20
16084.54287757
 30
0.0
 40
10.0
  0
CIRCLE
  5
3C6
330
4FD
100
AcDbEntity
  8
YKK_N1
100
AcDbCircle
 10
9667.49999879
 20
16084.54287757
 30
0.0
 40
6.5
  0
LINE
  5
3C7
330
4FD
100
AcDbEntity
  8
YKK_N1
  6
Continuous
100
AcDbLine
 10
9817.49999879
 20
16084.5428909
 30
0.0
 11
9817.49999879
 21
15859.5428909
 31
0.0
  0
LINE
  5
3C8
330
4FD
100
AcDbEntity
  8
YKK_N1
  6
Continuous
100
AcDbLine
 10
9737.49999879
 20
15984.5428909
 30
0.0
 11
9667.49999879
 21
15984.5428909
 31
0.0
  0
LINE
  5
3C9
330
4FD
100
AcDbEntity
  8
YKK_N1
100
AcDbLine
 10
9737.49999879
 20
15984.5428909
 30
0.0
 11
9737.49999879
 21
15859.5428909
 31
0.0
  0
LINE
  5
3CA
330
4FD
100
AcDbEntity
  8
YKK_N1
  6
Continuous
100
AcDbLine
 10
9817.50247196
 20
16084.5428909
 30
0.0
 11
9667.49999879
 21
16084.5428909
 31
0.0
  0
TEXT
  5
3CB
330
4FD
100
AcDbEntity
  8
YKK_N1
  6
Continuous
100
AcDbText
 10
10385.49999879
 20
15459.10995058
 30
0.0
 40
60.0
  1
15
 50
90.0
 72
     4
 11
10355.49999879
 21
15499.10995058
 31
0.0
100
AcDbText
  0
LINE
  5
3CC
330
4FD
100
AcDbEntity
  8
YKK_Z1
  6
ByBlock
 62
     0
100
AcDbLine
 10
10734.42685844
 20
15655.69057261
 30
0.0
 11
10699.78584244
 21
15595.69057261
 31
0.0
  0
LINE
  5
3CD
330
4FD
100
AcDbEntity
  8
YKK_Z1
  6
ByBlock
 62
     0
100
AcDbLine
 10
10665.14482644
 20
15655.69057261
 30
0.0
 11
10734.42685844
 21
15655.69057261
 31
0.0
  0
LINE
  5
3CE
330
4FD
100
AcDbEntity
  8
YKK_Z1
  6
CENTER
100
AcDbLine
 10
10317.50012815
 20
15595.69057261
 30
0.0
 11
10817.50012815
 21
15595.69057261
 31
0.0
  0
LINE
  5
3CF
330
4FD
100
AcDbEntity
  8
YKK_N1
  6
Continuous
100
AcDbLine
 10
10347.49999879
 20
15682.29312633
 30
0.0
 11
10447.49999879
 21
15682.29312633
 31
0.0
  0
LINE
  5
3D0
330
4FD
100
AcDbEntity
  8
YKK_N1
  6
Continuous
100
AcDbLine
 10
10397.49999879
 20
15595.69058595
 30
0.0
 11
10447.49999879
 21
15682.29312633
 31
0.0
  0
CIRCLE
  5
3D1
330
4FD
100
AcDbEntity
  8
YKK_N1
100
AcDbCircle
 10
10397.49999879
 20
15580.69058595
 30
0.0
 40
6.5
  0
CIRCLE
  5
3D2
330
4FD
100
AcDbEntity
  8
YKK_N1
100
AcDbCircle
 10
10397.49999879
 20
15580.69058595
 30
0.0
 40
10.0
  0
CIRCLE
  5
3D3
330
4FD
100
AcDbEntity
  8
YKK_N1
100
AcDbCircle
 10
10197.49999879
 20
15595.69057261
 30
0.0
 40
6.5
  0
CIRCLE
  5
3D4
330
4FD
100
AcDbEntity
  8
YKK_N1
100
AcDbCircle
 10
10197.49999879
 20
15595.69057261
 30
0.0
 40
10.0
  0
LINE
  5
3D5
330
4FD
100
AcDbEntity
  8
YKK_N1
  6
Continuous
100
AcDbLine
 10
10397.49999879
 20
15595.69058595
 30
0.0
 11
10397.49999879
 21
15580.69058595
 31
0.0
  0
LINE
  5
3D6
330
4FD
100
AcDbEntity
  8
YKK_N1
  6
Continuous
100
AcDbLine
 10
10347.49999879
 20
15682.29312633
 30
0.0
 11
10397.49999879
 21
15595.69058595
 31
0.0
  0
LINE
  5
3D7
330
4FD
100
AcDbEntity
  8
YKK_Z1
  6
Continuous
100
AcDbLine
 10
10162.50012815
 20
15595.69057261
 30
0.0
 11
10212.50012815
 21
15595.69057261
 31
0.0
  0
LINE
  5
3D8
330
4FD
100
AcDbEntity
  8
YKK_Z1
  6
Continuous
100
AcDbLine
 10
10212.50012815
 20
15585.69057261
 30
0.0
 11
10162.50012815
 21
15585.69057261
 31
0.0
  0
LINE
  5
3D9
330
4FD
100
AcDbEntity
  8
YKK_Z1
  6
Continuous
100
AcDbLine
 10
10162.50012815
 20
15585.69057261
 30
0.0
 11
10162.50012815
 21
15595.69057261
 31
0.0
  0
LINE
  5
3DA
330
4FD
100
AcDbEntity
  8
YKK_Z1
  6
Continuous
100
AcDbLine
 10
10157.50012815
 20
15595.69057261
 30
0.0
 11
10157.50012815
 21
15585.69057261
 31
0.0
  0
LINE
  5
3DB
330
4FD
100
AcDbEntity
  8
YKK_Z1
  6
Continuous
100
AcDbLine
 10
10157.50012815
 20
15591.69057261
 30
0.0
 11
10162.50012815
 21
15591.69057261
 31
0.0
  0
LINE
  5
3DC
330
4FD
100
AcDbEntity
  8
YKK_Z1
  6
Continuous
100
AcDbLine
 10
10212.50012815
 20
15595.69057261
 30
0.0
 11
10212.50012815
 21
15585.69057261
 31
0.0
  0
LINE
  5
3DD
330
4FD
100
AcDbEntity
  8
YKK_Z1
  6
Continuous
100
AcDbLine
 10
10212.50012815
 20
15591.69057261
 30
0.0
 11
10217.50012815
 21
15591.69057261
 31
0.0
  0
LINE
  5
3DE
330
4FD
100
AcDbEntity
  8
YKK_Z1
  6
ByBlock
 62
     0
100
AcDbLine
 10
10699.78584244
 20
15595.69057261
 30
0.0
 11
10665.14482644
 21
15655.69057261
 31
0.0
  0
TEXT
  5
3DF
330
4FD
100
AcDbEntity
  8
YKK_Z1
100
AcDbText
 10
10739.78584244
 20
15605.69057261
 30
0.0
 40
60.0
  1
FL
 41
0.8
  7
YKK_SGSTYLE1
 72
     2
 11
10817.50012815
 21
15605.69057261
 31
0.0
100
AcDbText
  0
LINE
  5
3E0
330
4FD
100
AcDbEntity
  8
YKK_N1
  6
Continuous
100
AcDbLine
 10
9877.49999879
 20
18035.69058595
 30
0.0
 11
10397.49999879
 21
18035.69058595
 31
0.0
  0
LINE
  5
3E1
330
4FD
100
AcDbEntity
  8
YKK_N1
  6
Continuous
100
AcDbLine
 10
9877.49999879
 20
17995.69058595
 30
0.0
 11
10397.49999879
 21
17995.69058595
 31
0.0
  0
LINE
  5
3E4
330
4FD
100
AcDbEntity
  8
YKK_N1
  6
Continuous
100
AcDbLine
 10
9877.49999879
 20
17550.69058595
 30
0.0
 11
10197.49999879
 21
17550.69058595
 31
0.0
  0
LINE
  5
3E5
330
4FD
100
AcDbEntity
  8
YKK_N1
  6
Continuous
100
AcDbLine
 10
9877.49999879
 20
17495.69058595
 30
0.0
 11
10197.49999879
 21
17495.69058595
 31
0.0
  0
TEXT
  5
3E6
330
4FD
100
AcDbEntity
  8
YKK_N1
  6
Continuous
100
AcDbText
 10
10185.49999879
 20
16459.91959998
 30
0.0
 40
60.0
  1
1900
 50
90.0
 72
     4
 11
10155.49999879
 21
16549.91959998
 31
0.0
100
AcDbText
  0
TEXT
  5
3E7
330
4FD
100
AcDbEntity
  8
YKK_N1
  6
Continuous
100
AcDbText
 10
10185.49999879
 20
17692.96660231
 30
0.0
 40
60.0
  1
445
 50
90.0
 72
     4
 11
10155.49999879
 21
17772.96660231
 31
0.0
100
AcDbText
  0
TEXT
  5
3E8
330
4FD
100
AcDbEntity
  8
0
100
AcDbText
 10
5800.0
 20
19187.5
 30
0.0
 40
200.0
  1
FIX窓（巾木）　高強度タイプ
  7
EXTFONT
100
AcDbText
  0
LINE
  5
3E9
330
4FD
100
AcDbEntity
  8
YKK_A1
100
AcDbLine
 10
8317.49999879
 20
18005.69058595
 30
0.0
 11
6697.49999879
 21
18005.69058595
 31
0.0
  0
LINE
  5
3EA
330
4FD
100
AcDbEntity
  8
YKK_A1
100
AcDbLine
 10
8307.49987865
 20
17995.69054909
 30
0.0
 11
7534.99993872
 21
17995.69054909
 31
0.0
  0
TEXT
  5
3EB
330
4FD
100
AcDbEntity
  8
0
100
AcDbText
 10
5800.0
 20
18737.5
 30
0.0
 40
200.0
  1
W＝1,600　H＝2,400
  7
EXTFONT
100
AcDbText
  0
LINE
  5
3EC
330
4FD
100
AcDbEntity
  8
YKK_A1
100
AcDbLine
 10
8307.49987865
 20
17495.69062928
 30
0.0
 11
7534.99993872
 21
17495.69062928
 31
0.0
  0
LINE
  5
3ED
330
4FD
100
AcDbEntity
  8
YKK_A1
100
AcDbLine
 10
7534.99993872
 20
17550.69062601
 30
0.0
 11
8307.49987865
 21
17550.69062601
 31
0.0
  0
LINE
  5
3EE
330
4FD
100
AcDbEntity
  8
YKK_A1
100
AcDbLine
 10
7479.999942
 20
17495.69062928
 30
0.0
 11
6707.49999879
 21
17495.69062928
 31
0.0
  0
LINE
  5
3EF
330
4FD
100
AcDbEntity
  8
YKK_A1
100
AcDbLine
 10
6707.49999879
 20
17550.69062601
 30
0.0
 11
7479.999942
 21
17550.69062601
 31
0.0
  0
TEXT
  5
3F0
330
4FD
100
AcDbEntity
  8
YKK_A1
100
AcDbText
 10
7411.14279914
 20
17580.69062601
 30
0.0
 40
60.0
  1
F
 41
0.8
  7
YKK_SGSTYLE1
 72
     2
 11
7449.999942
 21
17580.69062601
 31
0.0
100
AcDbText
  0
LINE
  5
3F1
330
4FD
100
AcDbEntity
  8
YKK_A1
100
AcDbLine
 10
7479.999942
 20
17995.69054909
 30
0.0
 11
6707.49999879
 21
17995.69054909
 31
0.0
  0
LINE
  5
3F2
330
4FD
100
AcDbEntity
  8
YKK_C1
100
AcDbLine
 10
9681.49965432
 20
17560.69062928
 30
0.0
 11
9681.49965432
 21
17985.69058595
 31
0.0
  0
LINE
  5
3F3
330
4FD
100
AcDbEntity
  8
YKK_C1
100
AcDbLine
 10
9688.50002931
 20
18010.69066357
 30
0.0
 11
9688.50002931
 21
17535.69062928
 31
0.0
  0
LINE
  5
3F4
330
4FD
100
AcDbEntity
  8
YKK_C1
100
AcDbLine
 10
9712.50002931
 20
17535.69062928
 30
0.0
 11
9712.50002931
 21
18010.69050834
 31
0.0
  0
LINE
  5
3F5
330
4FD
100
AcDbEntity
  8
YKK_C1
100
AcDbLine
 10
9667.49999879
 20
17985.69058595
 30
0.0
 11
9667.49999853
 21
17560.69062928
 31
0.0
  0
LINE
  5
3F6
330
4FD
100
AcDbEntity
  8
YKK_Z1
  6
Continuous
100
AcDbLine
 10
9602.50002931
 20
18010.69058595
 30
0.0
 11
9602.50002931
 21
16795.69058595
 31
0.0
  0
LINE
  5
3F7
330
4FD
100
AcDbEntity
  8
YKK_N1
  6
Continuous
100
AcDbLine
 10
8697.49999879
 20
17550.69058595
 30
0.0
 11
8697.49999879
 21
17995.69058595
 31
0.0
  0
TEXT
  5
3F8
330
4FD
100
AcDbEntity
  8
YKK_N1
  6
Continuous
100
AcDbText
 10
8685.49999879
 20
17692.96660231
 30
0.0
 40
60.0
  1
445
 50
90.0
 72
     4
 11
8655.49999879
 21
17772.96660231
 31
0.0
100
AcDbText
  0
TEXT
  5
3F9
330
4FD
100
AcDbEntity
  8
YKK_N1
  6
Continuous
100
AcDbText
 10
8885.49999879
 20
16616.54805083
 30
0.0
 40
60.0
  1
H=2400
 50
90.0
 72
     4
 11
8855.49999879
 21
16776.54805083
 31
0.0
100
AcDbText
  0
TEXT
  5
3FA
330
4FD
100
AcDbEntity
  8
YKK_N1
  6
Continuous
100
AcDbText
 10
8685.49999879
 20
16459.91959998
 30
0.0
 40
60.0
  1
1900
 50
90.0
 72
     4
 11
8655.49999879
 21
16549.91959998
 31
0.0
100
AcDbText
  0
LINE
  5
3FB
330
4FD
100
AcDbEntity
  8
YKK_N1
  6
Continuous
100
AcDbLine
 10
8377.49999879
 20
17495.69058595
 30
0.0
 11
8697.49999879
 21
17495.69058595
 31
0.0
  0
LINE
  5
3FC
330
4FD
100
AcDbEntity
  8
YKK_N1
  6
Continuous
100
AcDbLine
 10
8377.49999879
 20
17550.69058595
 30
0.0
 11
8697.49999879
 21
17550.69058595
 31
0.0
  0
TEXT
  5
3FD
330
4FD
100
AcDbEntity
  8
YKK_A1
100
AcDbText
 10
8238.64273579
 20
17580.69062601
 30
0.0
 40
60.0
  1
F
 41
0.8
  7
YKK_SGSTYLE1
 72
     2
 11
8277.49987865
 21
17580.69062601
 31
0.0
100
AcDbText
  0
CIRCLE
  5
3FE
330
4FD
100
AcDbEntity
  8
YKK_N1
100
AcDbCircle
 10
8697.49999879
 20
17550.69058595
 30
0.0
 40
6.5
  0
CIRCLE
  5
3FF
330
4FD
100
AcDbEntity
  8
YKK_N1
100
AcDbCircle
 10
8697.49999879
 20
17550.69058595
 30
0.0
 40
10.0
  0
CIRCLE
  5
400
330
4FD
100
AcDbEntity
  8
YKK_N1
100
AcDbCircle
 10
8697.49999879
 20
17495.69058595
 30
0.0
 40
6.5
  0
CIRCLE
  5
401
330
4FD
100
AcDbEntity
  8
YKK_N1
100
AcDbCircle
 10
8697.49999879
 20
17495.69058595
 30
0.0
 40
10.0
  0
LINE
  5
402
330
4FD
100
AcDbEntity
  8
YKK_N1
100
AcDbLine
 10
8697.49999879
 20
17550.69058595
 30
0.0
 11
8697.49999879
 21
17495.69058595
 31
0.0
  0
TEXT
  5
403
330
4FD
100
AcDbEntity
  8
YKK_N1
  6
Continuous
100
AcDbText
 10
8772.49388752
 20
17471.71969141
 30
0.0
 40
60.0
  1
55
 50
90.0
 72
     4
 11
8742.49388752
 21
17521.71969141
 31
0.0
100
AcDbText
  0
LINE
  5
404
330
4FD
100
AcDbEntity
  8
YKK_N1
  6
Continuous
100
AcDbLine
 10
9767.50002931
 20
17334.94199119
 30
0.0
 11
9767.50002931
 21
17459.94199119
 31
0.0
  0
CIRCLE
  5
405
330
4FD
100
AcDbEntity
  8
YKK_N1
100
AcDbCircle
 10
9667.50002931
 20
17334.94199119
 30
0.0
 40
10.0
  0
CIRCLE
  5
406
330
4FD
100
AcDbEntity
  8
YKK_N1
100
AcDbCircle
 10
9667.50002931
 20
17334.94199119
 30
0.0
 40
6.5
  0
CIRCLE
  5
407
330
4FD
100
AcDbEntity
  8
YKK_N1
100
AcDbCircle
 10
9767.50250247
 20
17334.94199119
 30
0.0
 40
10.0
  0
CIRCLE
  5
408
330
4FD
100
AcDbEntity
  8
YKK_N1
100
AcDbCircle
 10
9767.50250247
 20
17334.94199119
 30
0.0
 40
6.5
  0
TEXT
  5
409
330
4FD
100
AcDbEntity
  8
YKK_N1
  6
Continuous
100
AcDbText
 10
9624.43076715
 20
17257.99539456
 30
0.0
 40
60.0
  1
100
100
AcDbText
  0
LINE
  5
40A
330
4FD
100
AcDbEntity
  8
YKK_N1
  6
Continuous
100
AcDbLine
 10
9767.50250247
 20
17334.94199119
 30
0.0
 11
9667.50002931
 21
17334.94199119
 31
0.0
  0
LINE
  5
40B
330
4FD
100
AcDbEntity
  8
YKK_C1
100
AcDbLine
 10
9681.49965432
 20
17536.69062928
 30
0.0
 11
9681.49965432
 21
17550.69062928
 31
0.0
  0
LINE
  5
40C
330
4FD
100
AcDbEntity
  8
YKK_C1
100
AcDbLine
 10
9767.49999879
 20
17547.69062928
 30
0.0
 11
9719.49999879
 21
17547.69062928
 31
0.0
  0
LINE
  5
40D
330
4FD
100
AcDbEntity
  8
YKK_C1
100
AcDbLine
 10
9734.49999879
 20
17527.33553399
 30
0.0
 11
9734.49999879
 21
17547.69062928
 31
0.0
  0
LINE
  5
40E
330
4FD
100
AcDbEntity
  8
YKK_C1
100
AcDbLine
 10
9719.49999879
 20
17550.69062928
 30
0.0
 11
9719.49999879
 21
17535.19062928
 31
0.0
  0
LINE
  5
40F
330
4FD
100
AcDbEntity
  8
YKK_C1
100
AcDbLine
 10
9681.49965432
 20
17550.69062928
 30
0.0
 11
9667.49965432
 21
17550.69062928
 31
0.0
  0
LINE
  5
410
330
4FD
100
AcDbEntity
  8
YKK_C1
100
AcDbLine
 10
9719.49999879
 20
17495.69062928
 30
0.0
 11
9719.49999879
 21
17524.69062928
 31
0.0
  0
LINE
  5
411
330
4FD
100
AcDbEntity
  8
YKK_C1
100
AcDbLine
 10
9677.56965432
 20
17495.69062928
 30
0.0
 11
9677.56965432
 21
17524.69062928
 31
0.0
  0
LINE
  5
412
330
4FD
100
AcDbEntity
  8
YKK_C1
100
AcDbLine
 10
9767.49999879
 20
17495.69062928
 30
0.0
 11
9719.49999879
 21
17495.69062928
 31
0.0
  0
LINE
  5
413
330
4FD
100
AcDbEntity
  8
YKK_C1
100
AcDbLine
 10
9677.56965432
 20
17524.69062928
 30
0.0
 11
9719.49999879
 21
17524.69062928
 31
0.0
  0
LINE
  5
414
330
4FD
100
AcDbEntity
  8
YKK_C1
100
AcDbLine
 10
9692.79965432
 20
17516.69062928
 30
0.0
 11
9692.79965432
 21
17524.69062928
 31
0.0
  0
LINE
  5
415
330
4FD
100
AcDbEntity
  8
YKK_C1
100
AcDbLine
 10
9667.49965432
 20
17516.69062928
 30
0.0
 11
9692.79965432
 21
17516.69062928
 31
0.0
  0
LINE
  5
416
330
4FD
100
AcDbEntity
  8
YKK_C1
100
AcDbLine
 10
9667.49965432
 20
17550.69062928
 30
0.0
 11
9667.49965432
 21
17495.69062928
 31
0.0
  0
LINE
  5
417
330
4FD
100
AcDbEntity
  8
YKK_C1
100
AcDbLine
 10
9767.49999879
 20
17550.69062928
 30
0.0
 11
9767.49999879
 21
17495.69062928
 31
0.0
  0
LINE
  5
418
330
4FD
100
AcDbEntity
  8
YKK_C1
100
AcDbLine
 10
9719.49999879
 20
17524.69062928
 30
0.0
 11
9734.49999879
 21
17527.33553399
 31
0.0
  0
LINE
  5
419
330
4FD
100
AcDbEntity
  8
YKK_N1
  6
Continuous
100
AcDbLine
 10
8377.49999879
 20
17995.69058595
 30
0.0
 11
8897.49999879
 21
17995.69058595
 31
0.0
  0
CIRCLE
  5
41A
330
4FD
100
AcDbEntity
  8
YKK_N1
100
AcDbCircle
 10
8697.49999879
 20
17995.69058595
 30
0.0
 40
6.5
  0
CIRCLE
  5
41B
330
4FD
100
AcDbEntity
  8
YKK_N1
100
AcDbCircle
 10
8697.49999879
 20
17995.69058595
 30
0.0
 40
10.0
  0
LINE
  5
41C
330
4FD
100
AcDbEntity
  8
YKK_N1
  6
Continuous
100
AcDbLine
 10
8847.49999879
 20
17909.08804557
 30
0.0
 11
8897.49999879
 21
17995.69058595
 31
0.0
  0
LINE
  5
41D
330
4FD
100
AcDbEntity
  8
YKK_N1
  6
Continuous
100
AcDbLine
 10
8847.49999879
 20
17909.08804557
 30
0.0
 11
8947.49999879
 21
17909.08804557
 31
0.0
  0
LINE
  5
41E
330
4FD
100
AcDbEntity
  8
YKK_N1
  6
Continuous
100
AcDbLine
 10
8947.49999879
 20
17909.08804557
 30
0.0
 11
8897.49999879
 21
17995.69058595
 31
0.0
  0
LINE
  5
41F
330
4FD
100
AcDbEntity
  8
YKK_Z1
  6
Continuous
100
AcDbLine
 10
9817.50002931
 20
18195.6906102
 30
0.0
 11
9797.50002931
 21
18215.69061367
 31
0.0
  0
LINE
  5
420
330
4FD
100
AcDbEntity
  8
YKK_Z1
  6
Continuous
100
AcDbLine
 10
9797.50002931
 20
18195.69051321
 30
0.0
 11
9817.50002931
 21
18215.69050281
 31
0.0
  0
LINE
  5
421
330
4FD
100
AcDbEntity
  8
YKK_Z1
  6
Continuous
100
AcDbLine
 10
9617.50002931
 20
18187.40642048
 30
0.0
 11
9797.50002931
 21
18367.40632695
 31
0.0
  0
LINE
  5
422
330
4FD
100
AcDbEntity
  8
YKK_Z1
  6
Continuous
100
AcDbLine
 10
9797.50002931
 20
18395.69058595
 30
0.0
 11
9797.50002931
 21
18055.69058595
 31
0.0
  0
LINE
  5
423
330
4FD
100
AcDbEntity
  8
YKK_Z1
  6
Continuous
100
AcDbLine
 10
9617.50002931
 20
18025.69058595
 30
0.0
 11
9617.50002931
 21
18395.69058595
 31
0.0
  0
LINE
  5
424
330
4FD
100
AcDbEntity
  8
YKK_Z1
  6
CENTER
100
AcDbLine
 10
9707.50002931
 20
18040.69058595
 30
0.0
 11
9707.50002931
 21
18395.69058595
 31
0.0
  0
LINE
  5
425
330
4FD
100
AcDbEntity
  8
YKK_Z1
  6
Continuous
100
AcDbLine
 10
9817.50002931
 20
18055.69058595
 30
0.0
 11
9817.50002931
 21
18395.69058595
 31
0.0
  0
LINE
  5
426
330
4FD
100
AcDbEntity
  8
YKK_Z1
  6
Continuous
100
AcDbLine
 10
9602.50002931
 20
18010.69058595
 30
0.0
 11
9602.50002931
 21
18395.69058595
 31
0.0
  0
LINE
  5
427
330
4FD
100
AcDbEntity
  8
YKK_Z1
  6
Continuous
100
AcDbLine
 10
9610.50002931
 20
18018.69058595
 30
0.0
 11
9610.50002931
 21
18395.69058595
 31
0.0
  0
LINE
  5
428
330
4FD
100
AcDbEntity
  8
YKK_Z1
  6
Continuous
100
AcDbLine
 10
9817.50002931
 20
18075.69058942
 30
0.0
 11
9797.50002931
 21
18095.69059288
 31
0.0
  0
LINE
  5
429
330
4FD
100
AcDbEntity
  8
YKK_Z1
  6
Continuous
100
AcDbLine
 10
9797.50002931
 20
18075.69057556
 30
0.0
 11
9817.50002931
 21
18095.69056517
 31
0.0
  0
LINE
  5
42C
330
4FD
100
AcDbEntity
  8
YKK_Z1
  6
Continuous
100
AcDbLine
 10
9797.50002931
 20
18055.69058595
 30
0.0
 11
9817.50002931
 21
18055.69058595
 31
0.0
  0
LINE
  5
42D
330
4FD
100
AcDbEntity
  8
YKK_Z1
  6
Continuous
100
AcDbLine
 10
9817.50002931
 20
18055.69058595
 30
0.0
 11
9797.50002931
 21
18075.69058942
 31
0.0
  0
LINE
  5
42E
330
4FD
100
AcDbEntity
  8
YKK_Z1
  6
Continuous
100
AcDbLine
 10
9797.50002931
 20
18055.69058595
 30
0.0
 11
9817.50002931
 21
18075.69057556
 31
0.0
  0
LINE
  5
42F
330
4FD
100
AcDbEntity
  8
YKK_C1
100
AcDbLine
 10
9807.50002931
 20
18035.69058595
 30
0.0
 11
9817.50002931
 21
18035.69058595
 31
0.0
  0
LINE
  5
430
330
4FD
100
AcDbEntity
  8
YKK_C1
100
AcDbLine
 10
9817.50002931
 20
18035.69058595
 30
0.0
 11
9817.50002931
 21
17995.69058595
 31
0.0
  0
LINE
  5
431
330
4FD
100
AcDbEntity
  8
YKK_Z1
  6
Continuous
100
AcDbLine
 10
9817.50002931
 20
18155.69060327
 30
0.0
 11
9797.50002931
 21
18175.69060674
 31
0.0
  0
LINE
  5
432
330
4FD
100
AcDbEntity
  8
YKK_Z1
  6
Continuous
100
AcDbLine
 10
9797.50002931
 20
18155.69053399
 30
0.0
 11
9817.50002931
 21
18175.6905236
 31
0.0
  0
LINE
  5
433
330
4FD
100
AcDbEntity
  8
YKK_Z1
  6
Continuous
100
AcDbLine
 10
9817.50002931
 20
18095.69059288
 30
0.0
 11
9797.50002931
 21
18115.69059634
 31
0.0
  0
LINE
  5
434
330
4FD
100
AcDbEntity
  8
YKK_Z1
  6
Continuous
100
AcDbLine
 10
9817.50002931
 20
18115.69059634
 30
0.0
 11
9797.50002931
 21
18135.69059981
 31
0.0
  0
LINE
  5
435
330
4FD
100
AcDbEntity
  8
YKK_Z1
  6
Continuous
100
AcDbLine
 10
9797.50002931
 20
18095.69056517
 30
0.0
 11
9817.50002931
 21
18115.69055478
 31
0.0
  0
LINE
  5
436
330
4FD
100
AcDbEntity
  8
YKK_Z1
  6
Continuous
100
AcDbLine
 10
9797.50002931
 20
18115.69055478
 30
0.0
 11
9817.50002931
 21
18135.69054438
 31
0.0
  0
LINE
  5
437
330
4FD
100
AcDbEntity
  8
YKK_Z1
  6
Continuous
100
AcDbLine
 10
9817.50002931
 20
18135.69059981
 30
0.0
 11
9797.50002931
 21
18155.69060327
 31
0.0
  0
LINE
  5
438
330
4FD
100
AcDbEntity
  8
YKK_Z1
  6
Continuous
100
AcDbLine
 10
9797.50002931
 20
18135.69054438
 30
0.0
 11
9817.50002931
 21
18155.69053399
 31
0.0
  0
LINE
  5
439
330
4FD
100
AcDbEntity
  8
YKK_Z1
  6
Continuous
100
AcDbLine
 10
9667.50002931
 20
18010.69058595
 30
0.0
 11
9602.50002931
 21
18010.69058595
 31
0.0
  0
LINE
  5
43A
330
4FD
100
AcDbEntity
  8
YKK_Z1
  6
Continuous
100
AcDbLine
 10
9667.50002931
 20
18018.69058595
 30
0.0
 11
9610.50002931
 21
18018.69058595
 31
0.0
  0
LINE
  5
43B
330
4FD
100
AcDbEntity
  8
YKK_Z1
  6
Continuous
100
AcDbLine
 10
9662.50002931
 20
18055.69058595
 30
0.0
 11
9652.50002931
 21
18025.69058595
 31
0.0
  0
LINE
  5
43C
330
4FD
100
AcDbEntity
  8
YKK_Z1
  6
Continuous
100
AcDbLine
 10
9652.50002931
 20
18025.69058595
 30
0.0
 11
9617.50002931
 21
18025.69058595
 31
0.0
  0
LINE
  5
43D
330
4FD
100
AcDbEntity
  8
YKK_Z1
  6
Continuous
100
AcDbLine
 10
9602.50002931
 20
18110.69058595
 30
0.0
 11
9610.50002931
 21
18110.69058595
 31
0.0
  0
LINE
  5
43E
330
4FD
100
AcDbEntity
  8
YKK_Z1
  6
Continuous
100
AcDbLine
 10
9602.50002931
 20
18120.69058595
 30
0.0
 11
9610.50002931
 21
18120.69058595
 31
0.0
  0
LINE
  5
43F
330
4FD
100
AcDbEntity
  8
YKK_C1
100
AcDbLine
 10
9719.50002931
 20
18019.69058595
 30
0.0
 11
9681.50002931
 21
18019.69058595
 31
0.0
  0
LINE
  5
440
330
4FD
100
AcDbEntity
  8
YKK_C1
100
AcDbLine
 10
9681.50002931
 20
18019.69058595
 30
0.0
 11
9681.50002931
 21
17995.69058595
 31
0.0
  0
LINE
  5
441
330
4FD
100
AcDbEntity
  8
YKK_C1
100
AcDbLine
 10
9681.50002931
 20
17995.69058595
 30
0.0
 11
9677.87002931
 21
17995.69058595
 31
0.0
  0
LINE
  5
442
330
4FD
100
AcDbEntity
  8
YKK_C1
100
AcDbLine
 10
9677.87002931
 20
17995.69058595
 30
0.0
 11
9677.87002931
 21
18008.69058595
 31
0.0
  0
LINE
  5
443
330
4FD
100
AcDbEntity
  8
YKK_C1
100
AcDbLine
 10
9719.50002931
 20
17995.69058595
 30
0.0
 11
9719.50002931
 21
18019.69058595
 31
0.0
  0
LINE
  5
444
330
4FD
100
AcDbEntity
  8
YKK_Z1
  6
Continuous
100
AcDbLine
 10
9667.50002931
 20
18010.69058595
 30
0.0
 11
9667.50002931
 21
18018.69058595
 31
0.0
  0
LINE
  5
445
330
4FD
100
AcDbEntity
  8
YKK_C1
100
AcDbLine
 10
9667.50002931
 20
18035.69058595
 30
0.0
 11
9667.50002931
 21
17995.69058595
 31
0.0
  0
LINE
  5
446
330
4FD
100
AcDbEntity
  8
YKK_C1
100
AcDbLine
 10
9678.50002931
 20
18035.69058595
 30
0.0
 11
9667.50002931
 21
18035.69058595
 31
0.0
  0
LINE
  5
447
330
4FD
100
AcDbEntity
  8
YKK_C1
100
AcDbLine
 10
9677.87002931
 20
18008.69058595
 30
0.0
 11
9667.50002931
 21
18008.69058595
 31
0.0
  0
LINE
  5
448
330
4FD
100
AcDbEntity
  8
YKK_C1
100
AcDbLine
 10
9667.50002931
 20
18016.32058595
 30
0.0
 11
9681.50002931
 21
18016.32058595
 31
0.0
  0
LINE
  5
449
330
4FD
100
AcDbEntity
  8
YKK_Z1
  6
Continuous
100
AcDbLine
 10
9754.48472646
 20
18055.69058595
 30
0.0
 11
9797.50002931
 21
18098.70586645
 31
0.0
  0
LINE
  5
44A
330
4FD
100
AcDbEntity
  8
YKK_Z1
  6
Continuous
100
AcDbLine
 10
9762.97000856
 20
18055.69058595
 30
0.0
 11
9797.50002931
 21
18090.22058875
 31
0.0
  0
LINE
  5
44B
330
4FD
100
AcDbEntity
  8
YKK_C1
100
AcDbLine
 10
9817.50002931
 20
17995.69058595
 30
0.0
 11
9719.50002931
 21
17995.69058595
 31
0.0
  0
LINE
  5
44C
330
4FD
100
AcDbEntity
  8
YKK_Z1
  6
Continuous
100
AcDbLine
 10
9797.50002931
 20
18055.69058595
 30
0.0
 11
9662.50002931
 21
18055.69058595
 31
0.0
  0
LINE
  5
44D
330
4FD
100
AcDbEntity
  8
YKK_Z1
  6
Continuous
100
AcDbLine
 10
9782.76900015
 20
18055.69058595
 30
0.0
 11
9797.50002931
 21
18070.42160745
 31
0.0
  0
LINE
  5
44E
330
4FD
100
AcDbEntity
  8
YKK_Z1
  6
Continuous
100
AcDbLine
 10
9817.50002931
 20
18175.69060674
 30
0.0
 11
9797.50002931
 21
18195.6906102
 31
0.0
  0
LINE
  5
44F
330
4FD
100
AcDbEntity
  8
YKK_Z1
  6
Continuous
100
AcDbLine
 10
9797.50002931
 20
18175.6905236
 30
0.0
 11
9817.50002931
 21
18195.69051321
 31
0.0
  0
LINE
  5
450
330
4FD
100
AcDbEntity
  8
YKK_Z1
  6
Continuous
100
AcDbLine
 10
9817.50002931
 20
18315.69063099
 30
0.0
 11
9797.50002931
 21
18335.69063445
 31
0.0
  0
LINE
  5
451
330
4FD
100
AcDbEntity
  8
YKK_Z1
  6
Continuous
100
AcDbLine
 10
9797.50002931
 20
18315.69045085
 30
0.0
 11
9817.50002931
 21
18335.69044046
 31
0.0
  0
LINE
  5
452
330
4FD
100
AcDbEntity
  8
YKK_Z1
  6
Continuous
100
AcDbLine
 10
9797.50002931
 20
18395.69040928
 30
0.0
 11
9797.50020598
 21
18395.69058595
 31
0.0
  0
LINE
  5
453
330
4FD
100
AcDbEntity
  8
YKK_Z1
  6
Continuous
100
AcDbLine
 10
9817.50002931
 20
18335.69063445
 30
0.0
 11
9797.50002931
 21
18355.69063791
 31
0.0
  0
LINE
  5
454
330
4FD
100
AcDbEntity
  8
YKK_Z1
  6
Continuous
100
AcDbLine
 10
9817.50002931
 20
18355.69063791
 30
0.0
 11
9797.50002931
 21
18375.69064138
 31
0.0
  0
LINE
  5
455
330
4FD
100
AcDbEntity
  8
YKK_Z1
  6
Continuous
100
AcDbLine
 10
9817.50002931
 20
18375.69064138
 30
0.0
 11
9797.5000882
 21
18395.69058595
 31
0.0
  0
LINE
  5
456
330
4FD
100
AcDbEntity
  8
YKK_Z1
  6
Continuous
100
AcDbLine
 10
9797.50002931
 20
18335.69044046
 30
0.0
 11
9817.50002931
 21
18355.69043007
 31
0.0
  0
LINE
  5
457
330
4FD
100
AcDbEntity
  8
YKK_Z1
  6
Continuous
100
AcDbLine
 10
9797.50002931
 20
18355.69043007
 30
0.0
 11
9817.50002931
 21
18375.69041968
 31
0.0
  0
LINE
  5
458
330
4FD
100
AcDbEntity
  8
YKK_Z1
  6
Continuous
100
AcDbLine
 10
9797.50002931
 20
18375.69041968
 30
0.0
 11
9817.50002931
 21
18395.69040928
 31
0.0
  0
LINE
  5
459
330
4FD
100
AcDbEntity
  8
YKK_Z1
  6
Continuous
100
AcDbLine
 10
9817.50002931
 20
18215.69061367
 30
0.0
 11
9797.50002931
 21
18235.69061713
 31
0.0
  0
LINE
  5
45A
330
4FD
100
AcDbEntity
  8
YKK_Z1
  6
Continuous
100
AcDbLine
 10
9817.50002931
 20
18235.69061713
 30
0.0
 11
9797.50002931
 21
18255.69062059
 31
0.0
  0
LINE
  5
45B
330
4FD
100
AcDbEntity
  8
YKK_Z1
  6
Continuous
100
AcDbLine
 10
9817.50002931
 20
18255.69062059
 30
0.0
 11
9797.50002931
 21
18275.69062406
 31
0.0
  0
LINE
  5
45C
330
4FD
100
AcDbEntity
  8
YKK_Z1
  6
Continuous
100
AcDbLine
 10
9817.50002931
 20
18275.69062406
 30
0.0
 11
9797.50002931
 21
18295.69062752
 31
0.0
  0
LINE
  5
45D
330
4FD
100
AcDbEntity
  8
YKK_Z1
  6
Continuous
100
AcDbLine
 10
9797.50002931
 20
18215.69050281
 30
0.0
 11
9817.50002931
 21
18235.69049242
 31
0.0
  0
LINE
  5
45E
330
4FD
100
AcDbEntity
  8
YKK_Z1
  6
Continuous
100
AcDbLine
 10
9797.50002931
 20
18235.69049242
 30
0.0
 11
9817.50002931
 21
18255.69048203
 31
0.0
  0
LINE
  5
45F
330
4FD
100
AcDbEntity
  8
YKK_Z1
  6
Continuous
100
AcDbLine
 10
9797.50002931
 20
18255.69048203
 30
0.0
 11
9817.50002931
 21
18275.69047164
 31
0.0
  0
LINE
  5
460
330
4FD
100
AcDbEntity
  8
YKK_Z1
  6
Continuous
100
AcDbLine
 10
9797.50002931
 20
18275.69047164
 30
0.0
 11
9817.50002931
 21
18295.69046125
 31
0.0
  0
LINE
  5
461
330
4FD
100
AcDbEntity
  8
YKK_Z1
  6
Continuous
100
AcDbLine
 10
9817.50002931
 20
18295.69062752
 30
0.0
 11
9797.50002931
 21
18315.69063099
 31
0.0
  0
LINE
  5
462
330
4FD
100
AcDbEntity
  8
YKK_Z1
  6
Continuous
100
AcDbLine
 10
9797.50002931
 20
18295.69046125
 30
0.0
 11
9817.50002931
 21
18315.69045085
 31
0.0
  0
LINE
  5
463
330
4FD
100
AcDbEntity
  8
YKK_Z1
  6
Continuous
100
AcDbLine
 10
9602.50002931
 20
18330.69058595
 30
0.0
 11
9610.50002931
 21
18330.69058595
 31
0.0
  0
LINE
  5
464
330
4FD
100
AcDbEntity
  8
YKK_Z1
  6
Continuous
100
AcDbLine
 10
9602.50002931
 20
18340.69058595
 30
0.0
 11
9610.50002931
 21
18340.69058595
 31
0.0
  0
LINE
  5
465
330
4FD
100
AcDbEntity
  8
YKK_Z1
  6
Continuous
100
AcDbLine
 10
9602.50002931
 20
18220.69058595
 30
0.0
 11
9610.50002931
 21
18220.69058595
 31
0.0
  0
LINE
  5
466
330
4FD
100
AcDbEntity
  8
YKK_Z1
  6
Continuous
100
AcDbLine
 10
9602.50002931
 20
18230.69058595
 30
0.0
 11
9610.50002931
 21
18230.69058595
 31
0.0
  0
LINE
  5
467
330
4FD
100
AcDbEntity
  8
YKK_Z1
  6
Continuous
100
AcDbLine
 10
9617.50002931
 20
18207.20540178
 30
0.0
 11
9797.50002931
 21
18387.20530825
 31
0.0
  0
LINE
  5
468
330
4FD
100
AcDbEntity
  8
YKK_Z1
  6
Continuous
100
AcDbLine
 10
9617.50002931
 20
18215.69067948
 30
0.0
 11
9797.50002931
 21
18395.69058595
 31
0.0
  0
LINE
  5
469
330
4FD
100
AcDbEntity
  8
YKK_N1
  6
Continuous
100
AcDbLine
 10
10197.49999879
 20
17550.69058595
 30
0.0
 11
10197.49999879
 21
17995.69058595
 31
0.0
  0
TEXT
  5
46A
330
4FD
100
AcDbEntity
  8
YKK_N1
  6
Continuous
100
AcDbText
 10
10385.49999879
 20
16616.54805083
 30
0.0
 40
60.0
  1
H=2400
 50
90.0
 72
     4
 11
10355.49999879
 21
16776.54805083
 31
0.0
100
AcDbText
  0
CIRCLE
  5
46B
330
4FD
100
AcDbEntity
  8
YKK_N1
100
AcDbCircle
 10
10197.49999879
 20
17495.69058595
 30
0.0
 40
6.5
  0
CIRCLE
  5
46C
330
4FD
100
AcDbEntity
  8
YKK_N1
100
AcDbCircle
 10
10197.49999879
 20
17495.69058595
 30
0.0
 40
10.0
  0
CIRCLE
  5
46D
330
4FD
100
AcDbEntity
  8
YKK_N1
100
AcDbCircle
 10
10197.49999879
 20
17550.69058595
 30
0.0
 40
6.5
  0
CIRCLE
  5
46E
330
4FD
100
AcDbEntity
  8
YKK_N1
100
AcDbCircle
 10
10197.49999879
 20
17550.69058595
 30
0.0
 40
10.0
  0
LINE
  5
46F
330
4FD
100
AcDbEntity
  8
YKK_N1
100
AcDbLine
 10
10197.49999879
 20
17550.69058595
 30
0.0
 11
10197.49999879
 21
17495.69058595
 31
0.0
  0
TEXT
  5
470
330
4FD
100
AcDbEntity
  8
YKK_N1
  6
Continuous
100
AcDbText
 10
10272.49388752
 20
17471.71969141
 30
0.0
 40
60.0
  1
55
 50
90.0
 72
     4
 11
10242.49388752
 21
17521.71969141
 31
0.0
100
AcDbText
  0
LINE
  5
471
330
4FD
100
AcDbEntity
  8
YKK_N1
  6
Continuous
100
AcDbLine
 10
10347.49999879
 20
17909.08804557
 30
0.0
 11
10447.49999879
 21
17909.08804557
 31
0.0
  0
LINE
  5
472
330
4FD
100
AcDbEntity
  8
YKK_N1
  6
Continuous
100
AcDbLine
 10
10447.49999879
 20
17909.08804557
 30
0.0
 11
10397.49999879
 21
17995.69058595
 31
0.0
  0
CIRCLE
  5
473
330
4FD
100
AcDbEntity
  8
YKK_N1
100
AcDbCircle
 10
10197.49999879
 20
17995.69058595
 30
0.0
 40
6.5
  0
CIRCLE
  5
474
330
4FD
100
AcDbEntity
  8
YKK_N1
100
AcDbCircle
 10
10197.49999879
 20
17995.69058595
 30
0.0
 40
10.0
  0
CIRCLE
  5
475
330
4FD
100
AcDbEntity
  8
YKK_N1
100
AcDbCircle
 10
10397.49999879
 20
18035.69058595
 30
0.0
 40
6.5
  0
CIRCLE
  5
476
330
4FD
100
AcDbEntity
  8
YKK_N1
100
AcDbCircle
 10
10397.49999879
 20
18035.69058595
 30
0.0
 40
10.0
  0
LINE
  5
477
330
4FD
100
AcDbEntity
  8
YKK_N1
  6
Continuous
100
AcDbLine
 10
10397.49999879
 20
17995.69058595
 30
0.0
 11
10397.49999879
 21
18035.69058595
 31
0.0
  0
LINE
  5
478
330
4FD
100
AcDbEntity
  8
YKK_N1
  6
Continuous
100
AcDbLine
 10
10347.49999879
 20
17909.08804557
 30
0.0
 11
10397.49999879
 21
17995.69058595
 31
0.0
  0
TEXT
  5
479
330
4FD
100
AcDbEntity
  8
YKK_N1
  6
Continuous
100
AcDbText
 10
10385.49999879
 20
18075.6704138
 30
0.0
 40
60.0
  1
40
 50
90.0
 72
     4
 11
10355.49999879
 21
18120.6704138
 31
0.0
100
AcDbText
  0
LINE
  5
47A
330
4FD
100
AcDbEntity
  8
YKK_F1
100
AcDbLine
 10
28681.0155
 20
0.0
 30
0.0
 11
28681.0155
 21
20000.0
 31
0.0
  0
LINE
  5
47B
330
4FD
100
AcDbEntity
  8
YKK_F1
100
AcDbLine
 10
28500.0
 20
0.0
 30
0.0
 11
28500.0
 21
20000.0
 31
0.0
  0
LINE
  5
47C
330
4FD
100
AcDbEntity
  8
YKK_F1
100
AcDbLine
 10
22800.0
 20
0.0
 30
0.0
 11
22800.0
 21
19500.0
 31
0.0
  0
LINE
  5
47D
330
4FD
100
AcDbEntity
  8
YKK_F1
100
AcDbLine
 10
17100.0
 20
0.0
 30
0.0
 11
17100.0
 21
19500.0
 31
0.0
  0
TEXT
  5
47E
330
4FD
100
AcDbEntity
  8
0
100
AcDbText
 10
22915.0
 20
1313.78679161
 30
0.0
 40
200.0
  1
※複層ガラス(４＋Ａ６+４)を使用した場合
  7
EXTFONT
100
AcDbText
  0
TEXT
  5
47F
330
4FD
100
AcDbEntity
  8
0
100
AcDbText
 10
22915.0
 20
5712.6247
 30
0.0
 40
200.0
  1
ＳＹＳＴＥＭＡ５２０ｅ　性能等級
  7
EXTFONT
100
AcDbText
  0
TEXT
  5
480
330
4FD
100
AcDbEntity
  8
0
100
AcDbText
 10
22915.0
 20
301.07568914
 30
0.0
 40
200.0
  1
ただし、窓種・サイズにより適応値が異なります。
  7
EXTFONT
100
AcDbText
  0
TEXT
  5
481
330
4FD
100
AcDbEntity
  8
0
100
AcDbText
 10
22915.0
 20
1943.10520459
 30
0.0
 40
200.0
  1
防火性
  7
EXTFONT
100
AcDbText
  0
TEXT
  5
482
330
4FD
100
AcDbEntity
  8
0
100
AcDbText
 10
22915.0
 20
2572.42361757
 30
0.0
 40
200.0
  1
断熱性
  7
EXTFONT
100
AcDbText
  0
TEXT
  5
483
330
4FD
100
AcDbEntity
  8
0
100
AcDbText
 10
22915.0
 20
3201.74203055
 30
0.0
 40
200.0
  1
遮音性
  7
EXTFONT
100
AcDbText
  0
TEXT
  5
484
330
4FD
100
AcDbEntity
  8
0
100
AcDbText
 10
22915.0
 20
4405.81301726
 30
0.0
 40
200.0
  1
気密性
  7
EXTFONT
100
AcDbText
  0
TEXT
  5
485
330
4FD
100
AcDbEntity
  8
0
100
AcDbText
 10
22915.0
 20
3830.81301726
 30
0.0
 40
200.0
  1
水密性
  7
EXTFONT
100
AcDbText
  0
TEXT
  5
486
330
4FD
100
AcDbEntity
  8
0
100
AcDbText
 10
22915.0
 20
4959.2247
 30
0.0
 40
200.0
  1
耐風圧性
  7
EXTFONT
100
AcDbText
  0
TEXT
  5
487
330
4FD
100
AcDbEntity
  8
0
100
AcDbText
 10
24211.05
 20
2572.51003407
 30
0.0
 40
200.0
  1
Ｈ－１（０．２１５ｍ・Ｋ／Ｗ以上）
  7
EXTFONT
100
AcDbText
  0
TEXT
  5
488
330
4FD
100
AcDbEntity
  8
0
100
AcDbText
 10
24211.05
 20
3201.82844705
 30
0.0
 40
200.0
  1
Ｔ－１（２５等級線）
  7
EXTFONT
100
AcDbText
  0
TEXT
  5
489
330
4FD
100
AcDbEntity
  8
0
100
AcDbText
 10
24211.05
 20
1943.19162109
 30
0.0
 40
200.0
  1
防火設備（防火戸）認定商品
  7
EXTFONT
100
AcDbText
  0
TEXT
  5
48A
330
4FD
100
AcDbEntity
  8
0
100
AcDbText
 10
26529.57478494
 20
2714.00666459
 30
0.0
 40
70.0
  1
2
  7
EXTFONT
100
AcDbText
  0
TEXT
  5
48B
330
4FD
100
AcDbEntity
  8
0
100
AcDbText
 10
26483.07811233
 20
3341.15886782
 30
0.0
 40
200.0
  1
※
  7
EXTFONT
100
AcDbText
  0
TEXT
  5
48C
330
4FD
100
AcDbEntity
  8
0
100
AcDbText
 10
28166.54354343
 20
2714.00666459
 30
0.0
 40
200.0
  1
※
  7
EXTFONT
100
AcDbText
  0
TEXT
  5
48D
330
4FD
100
AcDbEntity
  8
0
100
AcDbText
 10
24211.05
 20
3830.81301726
 30
0.0
 40
200.0
  1
Ｗ－５（５００Ｐａ）
  7
EXTFONT
100
AcDbText
  0
TEXT
  5
48E
330
4FD
100
AcDbEntity
  8
0
100
AcDbText
 10
24211.05
 20
4951.7247
 30
0.0
 40
200.0
  1
Ｓ－３（１６００Ｐａ）
  7
EXTFONT
100
AcDbText
  0
TEXT
  5
48F
330
4FD
100
AcDbEntity
  8
0
100
AcDbText
 10
24211.05
 20
4405.81301726
 30
0.0
 40
200.0
  1
Ａ－４（２等級線）
  7
EXTFONT
100
AcDbText
  0
ENDSEC
  0
SECTION
  2
OBJECTS
  0
DICTIONARY
  5
4EB
330
0
100
AcDbDictionary
281
     1
  3
ACAD_CIP_PREVIOUS_PRODUCT_INFO
350
5EE
  3
ACAD_COLOR
350
585
  3
ACAD_DETAILVIEWSTYLE
350
59E
  3
ACAD_GROUP
350
4EC
  3
ACAD_LAYOUT
350
4F8
  3
ACAD_MATERIAL
350
553
  3
ACAD_MLEADERSTYLE
350
59A
  3
ACAD_MLINESTYLE
350
4F5
  3
ACAD_PLOTSETTINGS
350
4F7
  3
ACAD_PLOTSTYLENAME
350
4ED
  3
ACAD_SCALELIST
350
588
  3
ACAD_SECTIONVIEWSTYLE
350
59C
  3
ACAD_TABLESTYLE
350
586
  3
ACAD_VISUALSTYLE
350
56C
  3
ACDB_RECOMPOSE_DATA
350
5F4
  3
AcDbVariableDictionary
350
5E1
  0
DICTIONARY
  5
519
330
4FD
100
AcDbDictionary
280
     1
281
     1
  3
ACAD_LAYOUTSELFREF
360
549
  0
DICTIONARY
  5
51B
330
4F9
100
AcDbDictionary
280
     1
281
     1
  3
ACAD_LAYOUTSELFREF
360
548
  0
XRECORD
  5
5EE
102
{ACAD_REACTORS
330
4EB
102
}
330
4EB
100
AcDbXrecord
280
     1
300
ACD
300
2014
300
86063ACD_2014_0F
  0
DICTIONARY
  5
585
102
{ACAD_REACTORS
330
4EB
102
}
330
4EB
100
AcDbDictionary
281
     1
  0
DICTIONARY
  5
59E
102
{ACAD_REACTORS
330
4EB
102
}
330
4EB
100
AcDbDictionary
281
     1
  3
Imperial24
350
59F
  0
DICTIONARY
  5
4EC
102
{ACAD_REACTORS
330
4EB
102
}
330
4EB
100
AcDbDictionary
281
     1
  0
DICTIONARY
  5
4F8
102
{ACAD_REACTORS
330
4EB
102
}
330
4EB
100
AcDbDictionary
281
     1
  3
Model
350
500
  3
ﾚｲｱｳﾄ1
350
4FC
  0
DICTIONARY
  5
553
102
{ACAD_REACTORS
330
4EB
102
}
330
4EB
100
AcDbDictionary
281
     1
  3
ByBlock
350
55C
  3
ByLayer
350
554
  3
Global
350
564
  0
DICTIONARY
  5
59A
102
{ACAD_REACTORS
330
4EB
102
}
330
4EB
100
AcDbDictionary
281
     1
  3
Standard
350
59B
  0
DICTIONARY
  5
4F5
102
{ACAD_REACTORS
330
4EB
102
}
330
4EB
100
AcDbDictionary
281
     1
  3
Standard
350
4F6
  0
DICTIONARY
  5
4F7
102
{ACAD_REACTORS
330
4EB
102
}
330
4EB
100
AcDbDictionary
281
     1
  0
ACDBDICTIONARYWDFLT
  5
4ED
102
{ACAD_REACTORS
330
4EB
102
}
330
4EB
100
AcDbDictionary
281
     1
  3
Normal
350
4EE
100
AcDbDictionaryWithDefault
340
4EE
  0
DICTIONARY
  5
588
102
{ACAD_REACTORS
330
4EB
102
}
330
4EB
100
AcDbDictionary
281
     1
  3
A0
350
589
  3
A1
350
58A
  3
A2
350
58B
  3
A3
350
58C
  3
A4
350
58D
  3
A5
350
58E
  3
A6
350
58F
  3
A7
350
590
  3
A8
350
591
  3
A9
350
592
  3
B0
350
593
  3
B1
350
594
  3
B2
350
595
  3
B3
350
596
  3
B4
350
597
  3
B5
350
598
  3
B6
350
599
  0
DICTIONARY
  5
59C
102
{ACAD_REACTORS
330
4EB
102
}
330
4EB
100
AcDbDictionary
281
     1
  3
Imperial24
350
59D
  0
DICTIONARY
  5
586
102
{ACAD_REACTORS
330
4EB
102
}
330
4EB
100
AcDbDictionary
281
     1
  3
Standard
350
587
  0
DICTIONARY
  5
56C
102
{ACAD_REACTORS
330
4EB
102
}
330
4EB
100
AcDbDictionary
281
     1
  3
2dWireframe
350
572
  3
Basic
350
571
  3
Brighten
350
578
  3
ColorChange
350
57C
  3
Conceptual
350
575
  3
Dim
350
577
  3
EdgeColorOff
350
584
  3
Facepattern
350
57B
  3
Flat
350
56D
  3
FlatWithEdges
350
56E
  3
Gouraud
350
56F
  3
GouraudWithEdges
350
570
  3
Hidden
350
574
  3
JitterOff
350
582
  3
Linepattern
350
57A
  3
OverhangOff
350
583
  3
Realistic
350
576
  3
Shaded
350
581
  3
Shaded with edges
350
580
  3
Shades of Gray
350
57D
  3
Sketchy
350
57E
  3
Thicken
350
579
  3
Wireframe
350
573
  3
X-Ray
350
57F
  0
XRECORD
  5
5F4
102
{ACAD_REACTORS
330
4EB
102
}
330
4EB
100
AcDbXrecord
280
     1
 90
        1
330
587
  0
DICTIONARY
  5
5E1
102
{ACAD_REACTORS
330
4EB
102
}
330
4EB
100
AcDbDictionary
281
     1
  3
CANNOSCALE
350
5E6
  3
CMLEADERSTYLE
350
5E3
  3
CTABLESTYLE
350
5E2
  3
CVIEWDETAILSTYLE
350
5E4
  3
CVIEWSECTIONSTYLE
350
5E5
  3
XCLIPFRAME
350
5F2
  0
XRECORD
  5
549
102
{ACAD_REACTORS
330
519
102
}
330
519
100
AcDbXrecord
280
     1
340
4FD
  0
XRECORD
  5
548
102
{ACAD_REACTORS
330
51B
102
}
330
51B
100
AcDbXrecord
280
     1
340
4F9
  0
ACDBDETAILVIEWSTYLE
  5
59F
102
{ACAD_XDICTIONARY
360
62D
102
}
102
{ACAD_REACTORS
330
59E
102
}
330
59E
100
AcDbModelDocViewStyle
 70
     0
  3
Imperial24
290
     0
100
AcDbDetailViewStyle
 70
     0
 71
     0
 90
        3
 71
     1
340
4F0
 62
   256
 40
0.24
340
0
 62
   256
 40
0.24
300

 40
0.36
280
     3
 71
     2
340
4F4
 90
       25
 62
   256
 71
     3
340
4F0
 62
   256
 40
0.24
 90
        1
 40
0.75
 90
        1
300
%<\AcVar ViewType \f "%tc1">% %<\AcVar ViewDetailId>%\PSCALE %<\AcVar ViewScale \f "%sn">%
 71
     4
340
4F4
 90
       25
 62
   256
340
4F4
 90
       25
 62
   256
280
     0
  0
LAYOUT
  5
500
102
{ACAD_REACTORS
330
4F8
102
}
330
4F8
100
AcDbPlotSettings
  1

  2
CANON LBP-1810
  4
A4
  6

 40
5.87374973
 41
5.87374783
 42
5.87374878
 43
5.87374878
 44
209.97332764
 45
296.92599487
 46
0.0
 47
0.0
 48
0.0
 49
0.0
140
0.0
141
0.0
142
1.0
143
2977.54279155
 70
 11952
 72
     0
 73
     1
 74
     0
  7
monochrome.ctb
 75
     0
147
0.00033585
 76
     0
 77
     2
 78
   300
148
31730.41754928
149
2099.09947506
100
AcDbLayout
  1
Model
 70
     1
 71
     0
 10
0.0
 20
0.0
 11
12.0
 21
9.0
 12
0.0
 22
0.0
 32
0.0
 14
0.0
 24
0.0
 34
0.0
 15
0.0
 25
0.0
 35
0.0
146
0.0
 13
0.0
 23
0.0
 33
0.0
 16
1.0
 26
0.0
 36
0.0
 17
0.0
 27
1.0
 37
0.0
 76
     0
330
4FD
1001
ACAD_PSEXT
1000
CANON LBP-1810
1000
Canon LASER SHOT LBP-1810
1000
IP_10.230.204.169
1000

1070
     0
  0
LAYOUT
  5
4FC
102
{ACAD_REACTORS
330
4F8
102
}
330
4F8
100
AcDbPlotSettings
  1

  2
CANON LBP-1810
  4
A4
  6

 40
5.87374973
 41
5.87374783
 42
5.87374878
 43
5.87374878
 44
209.97332764
 45
296.92599487
 46
0.0
 47
0.0
 48
0.0
 49
0.0
140
0.0
141
0.0
142
1.0
143
1.0
 70
 15024
 72
     0
 73
     1
 74
     5
  7
monochrome.ctb
 75
    16
147
1.0
 76
     0
 77
     2
 78
   300
148
0.0
149
0.0
100
AcDbLayout
  1
ﾚｲｱｳﾄ1
 70
     0
 71
     1
 10
0.0
 20
0.0
 11
12.0
 21
9.0
 12
0.0
 22
0.0
 32
0.0
 14
1.00000000E+20
 24
1.00000000E+20
 34
1.00000000E+20
 15
-1.00000000E+20
 25
-1.00000000E+20
 35
-1.00000000E+20
146
0.0
 13
0.0
 23
0.0
 33
0.0
 16
1.0
 26
0.0
 36
0.0
 17
0.0
 27
1.0
 37
0.0
 76
     0
330
4F9
1001
ACAD_PSEXT
1000
CANON LBP-1810
1000
Canon LASER SHOT LBP-1810
1000
IP_10.230.204.169
1000

1070
     0
  0
MATERIAL
  5
55C
102
{ACAD_XDICTIONARY
360
55D
102
}
102
{ACAD_REACTORS
330
553
102
}
330
553
100
AcDbMaterial
  1
ByBlock
 72
     0
 43
0.02083333
 43
0.0
 43
0.0
 43
0.0
 43
0.0
 43
0.02083333
 43
0.0
 43
0.0
 43
0.0
 43
0.0
 43
1.0
 43
0.0
 43
0.0
 43
0.0
 43
0.0
 43
1.0
 77
     0
 47
0.02083333
 47
0.0
 47
0.0
 47
0.0
 47
0.0
 47
0.02083333
 47
0.0
 47
0.0
 47
0.0
 47
0.0
 47
1.0
 47
0.0
 47
0.0
 47
0.0
 47
0.0
 47
1.0
171
     0
 49
0.02083333
 49
0.0
 49
0.0
 49
0.0
 49
0.0
 49
0.02083333
 49
0.0
 49
0.0
 49
0.0
 49
0.0
 49
1.0
 49
0.0
 49
0.0
 49
0.0
 49
0.0
 49
1.0
175
     0
142
0.02083333
142
0.0
142
0.0
142
0.0
142
0.0
142
0.02083333
142
0.0
142
0.0
142
0.0
142
0.0
142
1.0
142
0.0
142
0.0
142
0.0
142
0.0
142
1.0
179
     0
144
0.02083333
144
0.0
144
0.0
144
0.0
144
0.0
144
0.02083333
144
0.0
144
0.0
144
0.0
144
0.0
144
1.0
144
0.0
144
0.0
144
0.0
144
0.0
144
1.0
147
0.02083333
147
0.0
147
0.0
147
0.0
147
0.0
147
0.02083333
147
0.0
147
0.0
147
0.0
147
0.0
147
1.0
147
0.0
147
0.0
147
0.0
147
0.0
147
1.0
  0
MATERIAL
  5
554
102
{ACAD_XDICTIONARY
360
555
102
}
102
{ACAD_REACTORS
330
553
102
}
330
553
100
AcDbMaterial
  1
ByLayer
 72
     0
 43
0.02083333
 43
0.0
 43
0.0
 43
0.0
 43
0.0
 43
0.02083333
 43
0.0
 43
0.0
 43
0.0
 43
0.0
 43
1.0
 43
0.0
 43
0.0
 43
0.0
 43
0.0
 43
1.0
 77
     0
 47
0.02083333
 47
0.0
 47
0.0
 47
0.0
 47
0.0
 47
0.02083333
 47
0.0
 47
0.0
 47
0.0
 47
0.0
 47
1.0
 47
0.0
 47
0.0
 47
0.0
 47
0.0
 47
1.0
171
     0
 49
0.02083333
 49
0.0
 49
0.0
 49
0.0
 49
0.0
 49
0.02083333
 49
0.0
 49
0.0
 49
0.0
 49
0.0
 49
1.0
 49
0.0
 49
0.0
 49
0.0
 49
0.0
 49
1.0
175
     0
142
0.02083333
142
0.0
142
0.0
142
0.0
142
0.0
142
0.02083333
142
0.0
142
0.0
142
0.0
142
0.0
142
1.0
142
0.0
142
0.0
142
0.0
142
0.0
142
1.0
179
     0
144
0.02083333
144
0.0
144
0.0
144
0.0
144
0.0
144
0.02083333
144
0.0
144
0.0
144
0.0
144
0.0
144
1.0
144
0.0
144
0.0
144
0.0
144
0.0
144
1.0
147
0.02083333
147
0.0
147
0.0
147
0.0
147
0.0
147
0.02083333
147
0.0
147
0.0
147
0.0
147
0.0
147
1.0
147
0.0
147
0.0
147
0.0
147
0.0
147
1.0
  0
MATERIAL
  5
564
102
{ACAD_XDICTIONARY
360
565
102
}
102
{ACAD_REACTORS
330
553
102
}
330
553
100
AcDbMaterial
  1
Global
 72
     0
 43
0.02083333
 43
0.0
 43
0.0
 43
0.0
 43
0.0
 43
0.02083333
 43
0.0
 43
0.0
 43
0.0
 43
0.0
 43
1.0
 43
0.0
 43
0.0
 43
0.0
 43
0.0
 43
1.0
 77
     0
 47
0.02083333
 47
0.0
 47
0.0
 47
0.0
 47
0.0
 47
0.02083333
 47
0.0
 47
0.0
 47
0.0
 47
0.0
 47
1.0
 47
0.0
 47
0.0
 47
0.0
 47
0.0
 47
1.0
171
     0
 49
0.02083333
 49
0.0
 49
0.0
 49
0.0
 49
0.0
 49
0.02083333
 49
0.0
 49
0.0
 49
0.0
 49
0.0
 49
1.0
 49
0.0
 49
0.0
 49
0.0
 49
0.0
 49
1.0
175
     0
142
0.02083333
142
0.0
142
0.0
142
0.0
142
0.0
142
0.02083333
142
0.0
142
0.0
142
0.0
142
0.0
142
1.0
142
0.0
142
0.0
142
0.0
142
0.0
142
1.0
179
     0
144
0.02083333
144
0.0
144
0.0
144
0.0
144
0.0
144
0.02083333
144
0.0
144
0.0
144
0.0
144
0.0
144
1.0
144
0.0
144
0.0
144
0.0
144
0.0
144
1.0
147
0.02083333
147
0.0
147
0.0
147
0.0
147
0.0
147
0.02083333
147
0.0
147
0.0
147
0.0
147
0.0
147
1.0
147
0.0
147
0.0
147
0.0
147
0.0
147
1.0
  0
MLEADERSTYLE
  5
59B
102
{ACAD_XDICTIONARY
360
629
102
}
102
{ACAD_REACTORS
330
59A
102
}
330
59A
100
AcDbMLeaderStyle
170
     2
171
     1
172
     0
 90
        2
 40
0.0
 41
0.0
173
     1
 91
-1056964608
340
4F2
 92
       -2
290
     1
 42
0.09
291
     1
 43
0.36
  3
Standard
 44
0.18
300

342
4F0
174
     1
178
     6
175
     1
176
     0
 93
-1056964608
 45
0.18
292
     0
297
     0
 46
0.18
 94
-1056964608
 47
1.0
 49
1.0
140
1.0
293
     1
141
0.0
294
     1
177
     0
142
1.0
295
     0
296
     0
143
0.125
1001
ACAD_MLEADERVER
1070
     2
  0
MLINESTYLE
  5
4F6
102
{ACAD_REACTORS
330
4F5
102
}
330
4F5
100
AcDbMlineStyle
  2
STANDARD
 70
     0
  3

 62
   256
 51
90.0
 52
90.0
 71
     2
 49
0.5
 62
   256
  6
BYLAYER
 49
-0.5
 62
   256
  6
BYLAYER
  0
ACDBPLACEHOLDER
  5
4EE
102
{ACAD_REACTORS
330
4ED
102
}
330
4ED
  0
SCALE
  5
589
102
{ACAD_REACTORS
330
588
102
}
330
588
100
AcDbScale
 70
     0
300
1:1
140
1.0
141
1.0
290
     1
  0
SCALE
  5
58A
102
{ACAD_REACTORS
330
588
102
}
330
588
100
AcDbScale
 70
     0
300
1/128" = 1'-0"
140
0.0078125
141
12.0
290
     0
  0
SCALE
  5
58B
102
{ACAD_REACTORS
330
588
102
}
330
588
100
AcDbScale
 70
     0
300
1/64" = 1'-0"
140
0.015625
141
12.0
290
     0
  0
SCALE
  5
58C
102
{ACAD_REACTORS
330
588
102
}
330
588
100
AcDbScale
 70
     0
300
1/32" = 1'-0"
140
0.03125
141
12.0
290
     0
  0
SCALE
  5
58D
102
{ACAD_REACTORS
330
588
102
}
330
588
100
AcDbScale
 70
     0
300
1/16" = 1'-0"
140
0.0625
141
12.0
290
     0
  0
SCALE
  5
58E
102
{ACAD_REACTORS
330
588
102
}
330
588
100
AcDbScale
 70
     0
300
3/32" = 1'-0"
140
0.09375
141
12.0
290
     0
  0
SCALE
  5
58F
102
{ACAD_REACTORS
330
588
102
}
330
588
100
AcDbScale
 70
     0
300
1/8" = 1'-0"
140
0.125
141
12.0
290
     0
  0
SCALE
  5
590
102
{ACAD_REACTORS
330
588
102
}
330
588
100
AcDbScale
 70
     0
300
3/16" = 1'-0"
140
0.1875
141
12.0
290
     0
  0
SCALE
  5
591
102
{ACAD_REACTORS
330
588
102
}
330
588
100
AcDbScale
 70
     0
300
1/4" = 1'-0"
140
0.25
141
12.0
290
     0
  0
SCALE
  5
592
102
{ACAD_REACTORS
330
588
102
}
330
588
100
AcDbScale
 70
     0
300
3/8" = 1'-0"
140
0.375
141
12.0
290
     0
  0
SCALE
  5
593
102
{ACAD_REACTORS
330
588
102
}
330
588
100
AcDbScale
 70
     0
300
1/2" = 1'-0"
140
0.5
141
12.0
290
     0
  0
SCALE
  5
594
102
{ACAD_REACTORS
330
588
102
}
330
588
100
AcDbScale
 70
     0
300
3/4" = 1'-0"
140
0.75
141
12.0
290
     0
  0
SCALE
  5
595
102
{ACAD_REACTORS
330
588
102
}
330
588
100
AcDbScale
 70
     0
300
1" = 1'-0"
140
1.0
141
12.0
290
     0
  0
SCALE
  5
596
102
{ACAD_REACTORS
330
588
102
}
330
588
100
AcDbScale
 70
     0
300
1-1/2" = 1'-0"
140
1.5
141
12.0
290
     0
  0
SCALE
  5
597
102
{ACAD_REACTORS
330
588
102
}
330
588
100
AcDbScale
 70
     0
300
3" = 1'-0"
140
3.0
141
12.0
290
     0
  0
SCALE
  5
598
102
{ACAD_REACTORS
330
588
102
}
330
588
100
AcDbScale
 70
     0
300
6" = 1'-0"
140
6.0
141
12.0
290
     0
  0
SCALE
  5
599
102
{ACAD_REACTORS
330
588
102
}
330
588
100
AcDbScale
 70
     0
300
1'-0" = 1'-0"
140
12.0
141
12.0
290
     0
  0
ACDBSECTIONVIEWSTYLE
  5
59D
102
{ACAD_XDICTIONARY
360
62B
102
}
102
{ACAD_REACTORS
330
59C
102
}
330
59C
100
AcDbModelDocViewStyle
 70
     0
  3
Imperial24
290
     0
100
AcDbSectionViewStyle
 70
     0
 71
     0
 90
      102
 71
     1
340
4F0
 62
   256
 40
5.0
340
0
340
0
 62
   256
 40
5.0
300
I, O, Q, S, X, Z
 40
10.0
 90
        0
 40
2.5
 90
        0
 71
     2
340
4F4
 90
       25
 62
   256
340
4F4
 90
       50
 62
   256
 40
5.0
 40
2.5
 40
5.0
 71
     3
340
4F0
 62
   256
 40
5.0
 90
        0
 40
15.0
 90
        1
300
%<\AcVar ViewSectionStartId>%-%<\AcVar ViewSectionEndId>% (%<\AcVar ViewScale \f "%sn">%)
 71
     4
 62
   256
 62
   257
300
ANSI31
 40
1.0
 90
        0
290
     0
290
     0
 90
        6
 40
0.0
 40
1.57079633
 40
0.26179939
 40
1.30899694
 40
-0.26179939
 40
1.83259571
  0
TABLESTYLE
  5
587
102
{ACAD_XDICTIONARY
360
5A3
102
}
102
{ACAD_REACTORS
330
586
102
}
330
586
100
AcDbTableStyle
  3
Standard
 70
     0
 71
     0
 40
0.06
 41
0.06
280
     0
281
     0
  7
STANDARD
140
0.18
170
     2
 62
     0
 63
     7
283
     0
274
    -2
284
     1
 64
     0
275
    -2
285
     1
 65
     0
276
    -2
286
     1
 66
     0
277
    -2
287
     1
 67
     0
278
    -2
288
     1
 68
     0
279
    -2
289
     1
 69
     0
  7
STANDARD
140
0.25
170
     5
 62
     0
 63
     7
283
     0
274
    -2
284
     1
 64
     0
275
    -2
285
     1
 65
     0
276
    -2
286
     1
 66
     0
277
    -2
287
     1
 67
     0
278
    -2
288
     1
 68
     0
279
    -2
289
     1
 69
     0
  7
STANDARD
140
0.18
170
     5
 62
     0
 63
     7
283
     0
274
    -2
284
     1
 64
     0
275
    -2
285
     1
 65
     0
276
    -2
286
     1
 66
     0
277
    -2
287
     1
 67
     0
278
    -2
288
     1
 68
     0
279
    -2
289
     1
 69
     0
  0
VISUALSTYLE
  5
572
102
{ACAD_XDICTIONARY
360
602
102
}
102
{ACAD_REACTORS
330
56C
102
}
330
56C
100
AcDbVisualStyle
  2
2dWireframe
 70
     4
 71
     0
 72
     2
 73
     0
 90
        0
 40
-0.6
 41
-30.0
 62
     5
 63
     7
421
 16777215
 74
     1
 91
        4
 64
     7
 65
   257
 75
     1
175
     1
 42
1.0
 92
        0
 66
   257
 43
1.0
 76
     1
 77
     6
 78
     2
 67
     7
 79
     5
170
     0
171
     0
290
     0
174
     0
 93
        1
 44
0.0
173
     0
291
     0
 45
0.0
1001
ACAD
1000
AcDbSavedByObjectVersion
1070
     0
  0
VISUALSTYLE
  5
571
102
{ACAD_XDICTIONARY
360
600
102
}
102
{ACAD_REACTORS
330
56C
102
}
330
56C
100
AcDbVisualStyle
  2
Basic
 70
     7
 71
     1
 72
     0
 73
     1
 90
        0
 40
-0.6
 41
-30.0
 62
     5
 63
     7
421
 16777215
 74
     0
 91
        4
 64
     7
 65
   257
 75
     1
175
     1
 42
1.0
 92
        8
 66
     7
 43
1.0
 76
     1
 77
     6
 78
     2
 67
     7
 79
     5
170
     0
171
     0
290
     0
174
     0
 93
        1
 44
0.0
173
     0
291
     1
 45
0.0
1001
ACAD
1000
AcDbSavedByObjectVersion
1070
     0
  0
VISUALSTYLE
  5
578
102
{ACAD_XDICTIONARY
360
60E
102
}
102
{ACAD_REACTORS
330
56C
102
}
330
56C
100
AcDbVisualStyle
  2
Brighten
 70
    12
 71
     2
 72
     2
 73
     0
 90
        0
 40
-0.6
 41
-30.0
 62
     5
 63
     7
421
 16777215
 74
     1
 91
        4
 64
     7
 65
   257
 75
     1
175
     1
 42
1.0
 92
        8
 66
     7
 43
1.0
 76
     1
 77
     6
 78
     2
 67
     7
 79
     5
170
     0
171
     0
290
     0
174
     0
 93
        1
 44
50.0
173
     0
291
     1
 45
0.0
1001
ACAD
1000
AcDbSavedByObjectVersion
1070
     0
  0
VISUALSTYLE
  5
57C
102
{ACAD_XDICTIONARY
360
616
102
}
102
{ACAD_REACTORS
330
56C
102
}
330
56C
100
AcDbVisualStyle
  2
ColorChange
 70
    16
 71
     2
 72
     2
 73
     3
 90
        0
 40
-0.6
 41
-30.0
 62
     5
 63
     8
421
  8421504
 74
     1
 91
        4
 64
     7
 65
   257
 75
     1
175
     1
 42
1.0
 92
        8
 66
     8
424
  8421504
 43
1.0
 76
     1
 77
     6
 78
     2
 67
     7
 79
     5
170
     0
171
     0
290
     0
174
     0
 93
        1
 44
0.0
173
     0
291
     1
 45
0.0
1001
ACAD
1000
AcDbSavedByObjectVersion
1070
     0
  0
VISUALSTYLE
  5
575
102
{ACAD_XDICTIONARY
360
608
102
}
102
{ACAD_REACTORS
330
56C
102
}
330
56C
100
AcDbVisualStyle
  2
Conceptual
 70
     9
 71
     3
 72
     2
 73
     0
 90
        0
 40
-0.6
 41
-30.0
 62
     5
 63
     7
421
 16777215
 74
     2
 91
        2
 64
     7
 65
   257
 75
     1
175
     1
 42
179.0
 92
        8
 66
     7
 43
1.0
 76
     1
 77
     6
 78
     2
 67
     7
 79
     3
170
     0
171
     0
290
     0
174
     0
 93
        1
 44
0.0
173
     0
291
     0
 45
0.0
1001
ACAD
1000
AcDbSavedByObjectVersion
1070
     0
  0
VISUALSTYLE
  5
577
102
{ACAD_XDICTIONARY
360
60C
102
}
102
{ACAD_REACTORS
330
56C
102
}
330
56C
100
AcDbVisualStyle
  2
Dim
 70
    11
 71
     2
 72
     2
 73
     0
 90
        0
 40
-0.6
 41
-30.0
 62
     5
 63
     7
421
 16777215
 74
     1
 91
        4
 64
     7
 65
   257
 75
     1
175
     1
 42
1.0
 92
        8
 66
     7
 43
1.0
 76
     1
 77
     6
 78
     2
 67
     7
 79
     5
170
     0
171
     0
290
     0
174
     0
 93
        1
 44
-50.0
173
     0
291
     1
 45
0.0
1001
ACAD
1000
AcDbSavedByObjectVersion
1070
     0
  0
VISUALSTYLE
  5
584
102
{ACAD_XDICTIONARY
360
626
102
}
102
{ACAD_REACTORS
330
56C
102
}
330
56C
100
AcDbVisualStyle
  2
EdgeColorOff
 70
    22
 71
     2
 72
     2
 73
     0
 90
        0
 40
-0.6
 41
-30.0
 62
     5
 63
     7
421
 16777215
 74
     1
 91
        4
 64
     7
 65
   257
 75
     1
175
     1
 42
1.0
 92
        8
 66
     7
 43
1.0
 76
     1
 77
     6
 78
     2
 67
     7
 79
     5
170
     0
171
     0
290
     0
174
     0
 93
        1
 44
0.0
173
     0
291
     1
 45
0.0
1001
ACAD
1000
AcDbSavedByObjectVersion
1070
     0
  0
VISUALSTYLE
  5
57B
102
{ACAD_XDICTIONARY
360
614
102
}
102
{ACAD_REACTORS
330
56C
102
}
330
56C
100
AcDbVisualStyle
  2
Facepattern
 70
    15
 71
     2
 72
     2
 73
     0
 90
        0
 40
-0.6
 41
-30.0
 62
     5
 63
     7
421
 16777215
 74
     1
 91
        4
 64
     7
 65
   257
 75
     1
175
     1
 42
1.0
 92
        8
 66
     7
 43
1.0
 76
     1
 77
     6
 78
     2
 67
     7
 79
     5
170
     0
171
     0
290
     0
174
     0
 93
        1
 44
0.0
173
     0
291
     1
 45
0.0
1001
ACAD
1000
AcDbSavedByObjectVersion
1070
     0
  0
VISUALSTYLE
  5
56D
102
{ACAD_XDICTIONARY
360
5F8
102
}
102
{ACAD_REACTORS
330
56C
102
}
330
56C
100
AcDbVisualStyle
  2
Flat
 70
     0
 71
     2
 72
     1
 73
     1
 90
        2
 40
-0.6
 41
30.0
 62
     5
 63
     7
421
 16777215
 74
     0
 91
        0
 64
     7
 65
   257
 75
     1
175
     1
 42
1.0
 92
        8
 66
     7
 43
1.0
 76
     1
 77
     6
 78
     2
 67
     7
 79
     5
170
     0
171
     0
290
     0
174
     0
 93
       13
 44
0.0
173
     0
291
     1
 45
0.0
1001
ACAD
1000
AcDbSavedByObjectVersion
1070
     0
  0
VISUALSTYLE
  5
56E
102
{ACAD_XDICTIONARY
360
5FA
102
}
102
{ACAD_REACTORS
330
56C
102
}
330
56C
100
AcDbVisualStyle
  2
FlatWithEdges
 70
     1
 71
     2
 72
     1
 73
     1
 90
        2
 40
-0.6
 41
30.0
 62
     5
 63
     7
421
 16777215
 74
     1
 91
        0
 64
     7
 65
   257
 75
     1
175
     1
 42
1.0
 92
        0
 66
   257
 43
1.0
 76
     1
 77
     6
 78
     2
 67
     7
 79
     5
170
     0
171
     0
290
     0
174
     0
 93
       13
 44
0.0
173
     0
291
     1
 45
0.0
1001
ACAD
1000
AcDbSavedByObjectVersion
1070
     0
  0
VISUALSTYLE
  5
56F
102
{ACAD_XDICTIONARY
360
5FC
102
}
102
{ACAD_REACTORS
330
56C
102
}
330
56C
100
AcDbVisualStyle
  2
Gouraud
 70
     2
 71
     2
 72
     2
 73
     1
 90
        2
 40
-0.6
 41
30.0
 62
     5
 63
     7
421
 16777215
 74
     0
 91
        0
 64
     7
 65
   257
 75
     1
175
     1
 42
1.0
 92
        0
 66
     7
 43
1.0
 76
     1
 77
     6
 78
     2
 67
     7
 79
     5
170
     0
171
     0
290
     0
174
     0
 93
       13
 44
0.0
173
     0
291
     1
 45
0.0
1001
ACAD
1000
AcDbSavedByObjectVersion
1070
     0
  0
VISUALSTYLE
  5
570
102
{ACAD_XDICTIONARY
360
5FE
102
}
102
{ACAD_REACTORS
330
56C
102
}
330
56C
100
AcDbVisualStyle
  2
GouraudWithEdges
 70
     3
 71
     2
 72
     2
 73
     1
 90
        2
 40
-0.6
 41
30.0
 62
     5
 63
     7
421
 16777215
 74
     1
 91
        0
 64
     7
 65
   257
 75
     1
175
     1
 42
1.0
 92
        0
 66
   257
 43
1.0
 76
     1
 77
     6
 78
     2
 67
     7
 79
     5
170
     0
171
     0
290
     0
174
     0
 93
       13
 44
0.0
173
     0
291
     1
 45
0.0
1001
ACAD
1000
AcDbSavedByObjectVersion
1070
     0
  0
VISUALSTYLE
  5
574
102
{ACAD_XDICTIONARY
360
606
102
}
102
{ACAD_REACTORS
330
56C
102
}
330
56C
100
AcDbVisualStyle
  2
Hidden
 70
     6
 71
     1
 72
     2
 73
     2
 90
        0
 40
-0.6
 41
-30.0
 62
     5
 63
     7
421
 16777215
 74
     2
 91
        2
 64
     7
 65
   257
 75
     2
175
     1
 42
40.0
 92
        0
 66
   257
 43
1.0
 76
     1
 77
     6
 78
     2
 67
     7
 79
     3
170
     0
171
     0
290
     0
174
     0
 93
        1
 44
0.0
173
     0
291
     0
 45
0.0
1001
ACAD
1000
AcDbSavedByObjectVersion
1070
     0
  0
VISUALSTYLE
  5
582
102
{ACAD_XDICTIONARY
360
622
102
}
102
{ACAD_REACTORS
330
56C
102
}
330
56C
100
AcDbVisualStyle
  2
JitterOff
 70
    20
 71
     2
 72
     2
 73
     0
 90
        0
 40
-0.6
 41
-30.0
 62
     5
 63
     7
421
 16777215
 74
     1
 91
        4
 64
     7
 65
   257
 75
     1
175
     1
 42
1.0
 92
       10
 66
     7
 43
1.0
 76
     1
 77
     6
 78
     2
 67
     7
 79
     5
170
     0
171
     0
290
     0
174
     0
 93
        1
 44
0.0
173
     0
291
     1
 45
0.0
1001
ACAD
1000
AcDbSavedByObjectVersion
1070
     0
  0
VISUALSTYLE
  5
57A
102
{ACAD_XDICTIONARY
360
612
102
}
102
{ACAD_REACTORS
330
56C
102
}
330
56C
100
AcDbVisualStyle
  2
Linepattern
 70
    14
 71
     2
 72
     2
 73
     0
 90
        0
 40
-0.6
 41
-30.0
 62
     5
 63
     7
421
 16777215
 74
     1
 91
        4
 64
     7
 65
   257
 75
     7
175
     7
 42
1.0
 92
        8
 66
     7
 43
1.0
 76
     1
 77
     6
 78
     2
 67
     7
 79
     5
170
     0
171
     0
290
     0
174
     0
 93
        1
 44
0.0
173
     0
291
     1
 45
0.0
1001
ACAD
1000
AcDbSavedByObjectVersion
1070
     0
  0
VISUALSTYLE
  5
583
102
{ACAD_XDICTIONARY
360
624
102
}
102
{ACAD_REACTORS
330
56C
102
}
330
56C
100
AcDbVisualStyle
  2
OverhangOff
 70
    21
 71
     2
 72
     2
 73
     0
 90
        0
 40
-0.6
 41
-30.0
 62
     5
 63
     7
421
 16777215
 74
     1
 91
        4
 64
     7
 65
   257
 75
     1
175
     1
 42
1.0
 92
        9
 66
     7
 43
1.0
 76
     1
 77
     6
 78
     2
 67
     7
 79
     5
170
     0
171
     0
290
     0
174
     0
 93
        1
 44
0.0
173
     0
291
     1
 45
0.0
1001
ACAD
1000
AcDbSavedByObjectVersion
1070
     0
  0
VISUALSTYLE
  5
576
102
{ACAD_XDICTIONARY
360
60A
102
}
102
{ACAD_REACTORS
330
56C
102
}
330
56C
100
AcDbVisualStyle
  2
Realistic
 70
     8
 71
     2
 72
     2
 73
     0
 90
        2
 40
-0.6
 41
30.0
 62
     5
 63
     7
421
 16777215
 74
     0
 91
        0
 64
     7
 65
   257
 75
     1
175
     1
 42
1.0
 92
        8
 66
   257
 43
1.0
 76
     1
 77
     6
 78
     2
 67
     7
 79
     3
170
     0
171
     0
290
     0
174
     0
 93
       13
 44
0.0
173
     0
291
     0
 45
0.0
1001
ACAD
1000
AcDbSavedByObjectVersion
1070
     0
  0
VISUALSTYLE
  5
581
102
{ACAD_XDICTIONARY
360
620
102
}
102
{ACAD_REACTORS
330
56C
102
}
330
56C
100
AcDbVisualStyle
  2
Shaded
 70
    27
 71
     2
 72
     2
 73
     1
 90
        2
 40
-0.6
 41
30.0
 62
     5
 63
     7
421
 16777215
 74
     0
 91
        4
 64
     7
 65
   257
 75
     1
175
     1
 42
1.0
 92
        8
 66
   257
 43
1.0
 76
     1
 77
     6
 78
     2
 67
     8
425
  7895160
 79
     3
170
     0
171
     0
290
     0
174
     0
 93
        5
 44
0.0
173
     0
291
     0
 45
0.0
1001
ACAD
1000
AcDbSavedByObjectVersion
1070
     0
  0
VISUALSTYLE
  5
580
102
{ACAD_XDICTIONARY
360
61E
102
}
102
{ACAD_REACTORS
330
56C
102
}
330
56C
100
AcDbVisualStyle
  2
Shaded with edges
 70
    26
 71
     2
 72
     2
 73
     1
 90
        2
 40
-0.6
 41
30.0
 62
     5
 63
     7
421
 16777215
 74
     1
 91
       10
 64
     7
 65
   257
 75
     2
175
     1
 42
1.0
 92
        8
 66
   257
 43
1.0
 76
     1
 77
     6
 78
     2
 67
     7
 79
     3
170
     0
171
     0
290
     0
174
     0
 93
        5
 44
0.0
173
     0
291
     0
 45
0.0
1001
ACAD
1000
AcDbSavedByObjectVersion
1070
     0
  0
VISUALSTYLE
  5
57D
102
{ACAD_XDICTIONARY
360
618
102
}
102
{ACAD_REACTORS
330
56C
102
}
330
56C
100
AcDbVisualStyle
  2
Shades of Gray
 70
    23
 71
     2
 72
     2
 73
     3
 90
        0
 40
-0.6
 41
-30.0
 62
     5
 63
     7
421
 16777215
 74
     2
 91
        2
 64
     7
 65
     7
 75
     1
175
     1
 42
40.0
 92
        8
 66
     7
 43
1.0
 76
     1
 77
     6
 78
     2
 67
     7
 79
     3
170
     0
171
     0
290
     0
174
     0
 93
        1
 44
0.0
173
     0
291
     0
 45
0.0
1001
ACAD
1000
AcDbSavedByObjectVersion
1070
     0
  0
VISUALSTYLE
  5
57E
102
{ACAD_XDICTIONARY
360
61A
102
}
102
{ACAD_REACTORS
330
56C
102
}
330
56C
100
AcDbVisualStyle
  2
Sketchy
 70
    24
 71
     1
 72
     2
 73
     2
 90
        0
 40
-0.6
 41
-30.0
 62
     5
 63
     7
421
 16777215
 74
     2
 91
        2
 64
     7
 65
     7
 75
     1
175
     1
 42
40.0
 92
       11
 66
     7
 43
1.0
 76
     1
 77
     6
 78
     2
 67
     7
 79
     6
170
     0
171
     0
290
     0
174
     0
 93
        1
 44
0.0
173
     0
291
     0
 45
0.0
1001
ACAD
1000
AcDbSavedByObjectVersion
1070
     0
  0
VISUALSTYLE
  5
579
102
{ACAD_XDICTIONARY
360
610
102
}
102
{ACAD_REACTORS
330
56C
102
}
330
56C
100
AcDbVisualStyle
  2
Thicken
 70
    13
 71
     2
 72
     2
 73
     0
 90
        0
 40
-0.6
 41
-30.0
 62
     5
 63
     7
421
 16777215
 74
     1
 91
        4
 64
     7
 65
   257
 75
     1
175
     1
 42
1.0
 92
       12
 66
     7
 43
1.0
 76
     1
 77
     6
 78
     2
 67
     7
 79
     5
170
     0
171
     0
290
     0
174
     0
 93
        1
 44
0.0
173
     0
291
     1
 45
0.0
1001
ACAD
1000
AcDbSavedByObjectVersion
1070
     0
  0
VISUALSTYLE
  5
573
102
{ACAD_XDICTIONARY
360
604
102
}
102
{ACAD_REACTORS
330
56C
102
}
330
56C
100
AcDbVisualStyle
  2
Wireframe
 70
     5
 71
     0
 72
     2
 73
     0
 90
        0
 40
-0.6
 41
-30.0
 62
     5
 63
     7
421
 16777215
 74
     1
 91
        4
 64
     7
 65
   257
 75
     1
175
     1
 42
1.0
 92
        0
 66
   257
 43
1.0
 76
     1
 77
     6
 78
     2
 67
     7
 79
     3
170
     0
171
     0
290
     0
174
     0
 93
        1
 44
0.0
173
     0
291
     0
 45
0.0
1001
ACAD
1000
AcDbSavedByObjectVersion
1070
     0
  0
VISUALSTYLE
  5
57F
102
{ACAD_XDICTIONARY
360
61C
102
}
102
{ACAD_REACTORS
330
56C
102
}
330
56C
100
AcDbVisualStyle
  2
X-Ray
 70
    25
 71
     2
 72
     2
 73
     1
 90
        1
 40
0.5
 41
-30.0
 62
     5
 63
     7
421
 16777215
 74
     1
 91
        0
 64
     7
 65
   257
 75
     1
175
     1
 42
1.0
 92
        8
 66
     7
 43
1.0
 76
     1
 77
     6
 78
     2
 67
     7
 79
     3
170
     0
171
     0
290
     0
174
     0
 93
       13
 44
0.0
173
     0
291
     0
 45
0.0
1001
ACAD
1000
AcDbSavedByObjectVersion
1070
     0
  0
DICTIONARYVAR
  5
5E6
102
{ACAD_REACTORS
330
5E1
102
}
330
5E1
100
DictionaryVariables
280
     0
  1
1:1
  0
DICTIONARYVAR
  5
5E3
102
{ACAD_REACTORS
330
5E1
102
}
330
5E1
100
DictionaryVariables
280
     0
  1
STANDARD
  0
DICTIONARYVAR
  5
5E2
102
{ACAD_REACTORS
330
5E1
102
}
330
5E1
100
DictionaryVariables
280
     0
  1
STANDARD
  0
DICTIONARYVAR
  5
5E4
102
{ACAD_REACTORS
330
5E1
102
}
330
5E1
100
DictionaryVariables
280
     0
  1
Imperial24
  0
DICTIONARYVAR
  5
5E5
102
{ACAD_REACTORS
330
5E1
102
}
330
5E1
100
DictionaryVariables
280
     0
  1
Imperial24
  0
DICTIONARYVAR
  5
5F2
102
{ACAD_REACTORS
330
5E1
102
}
330
5E1
100
DictionaryVariables
280
     0
  1
2
  0
DICTIONARY
  5
62D
330
59F
100
AcDbDictionary
280
     1
281
     1
  3
ACAD_XREC_ROUNDTRIP
360
62E
  0
DICTIONARY
  5
55D
330
55C
100
AcDbDictionary
280
     1
281
     1
  3
ACAD_XREC_ROUNDTRIP
360
5F6
  3
BUMPTILE
360
55F
  3
DIFFUSETILE
360
55E
  3
OPACITYTILE
360
562
  3
REFLECTIONTILE
360
561
  3
REFRACTIONTILE
360
563
  3
SPECULARTILE
360
560
  0
DICTIONARY
  5
555
330
554
100
AcDbDictionary
280
     1
281
     1
  3
ACAD_XREC_ROUNDTRIP
360
5F5
  3
BUMPTILE
360
557
  3
DIFFUSETILE
360
556
  3
OPACITYTILE
360
55A
  3
REFLECTIONTILE
360
559
  3
REFRACTIONTILE
360
55B
  3
SPECULARTILE
360
558
  0
DICTIONARY
  5
565
330
564
100
AcDbDictionary
280
     1
281
     1
  3
ACAD_XREC_ROUNDTRIP
360
5F7
  3
BUMPTILE
360
567
  3
DIFFUSETILE
360
566
  3
OPACITYTILE
360
56A
  3
REFLECTIONTILE
360
569
  3
REFRACTIONTILE
360
56B
  3
SPECULARTILE
360
568
  0
DICTIONARY
  5
629
330
59B
100
AcDbDictionary
280
     1
281
     1
  3
ACAD_XREC_ROUNDTRIP
360
62A
  0
DICTIONARY
  5
62B
330
59D
100
AcDbDictionary
280
     1
281
     1
  3
ACAD_XREC_ROUNDTRIP
360
62C
  0
DICTIONARY
  5
5A3
330
587
100
AcDbDictionary
280
     1
281
     1
  3
ACAD_ROUNDTRIP_2008_TABLESTYLE_CELLSTYLEMAP
360
5F3
  3
ACAD_XREC_ROUNDTRIP
360
628
  0
DICTIONARY
  5
602
330
572
100
AcDbDictionary
280
     1
281
     1
  3
ACAD_XREC_ROUNDTRIP
360
603
  0
DICTIONARY
  5
600
330
571
100
AcDbDictionary
280
     1
281
     1
  3
ACAD_XREC_ROUNDTRIP
360
601
  0
DICTIONARY
  5
60E
330
578
100
AcDbDictionary
280
     1
281
     1
  3
ACAD_XREC_ROUNDTRIP
360
60F
  0
DICTIONARY
  5
616
330
57C
100
AcDbDictionary
280
     1
281
     1
  3
ACAD_XREC_ROUNDTRIP
360
617
  0
DICTIONARY
  5
608
330
575
100
AcDbDictionary
280
     1
281
     1
  3
ACAD_XREC_ROUNDTRIP
360
609
  0
DICTIONARY
  5
60C
330
577
100
AcDbDictionary
280
     1
281
     1
  3
ACAD_XREC_ROUNDTRIP
360
60D
  0
DICTIONARY
  5
626
330
584
100
AcDbDictionary
280
     1
281
     1
  3
ACAD_XREC_ROUNDTRIP
360
627
  0
DICTIONARY
  5
614
330
57B
100
AcDbDictionary
280
     1
281
     1
  3
ACAD_XREC_ROUNDTRIP
360
615
  0
DICTIONARY
  5
5F8
330
56D
100
AcDbDictionary
280
     1
281
     1
  3
ACAD_XREC_ROUNDTRIP
360
5F9
  0
DICTIONARY
  5
5FA
330
56E
100
AcDbDictionary
280
     1
281
     1
  3
ACAD_XREC_ROUNDTRIP
360
5FB
  0
DICTIONARY
  5
5FC
330
56F
100
AcDbDictionary
280
     1
281
     1
  3
ACAD_XREC_ROUNDTRIP
360
5FD
  0
DICTIONARY
  5
5FE
330
570
100
AcDbDictionary
280
     1
281
     1
  3
ACAD_XREC_ROUNDTRIP
360
5FF
  0
DICTIONARY
  5
606
330
574
100
AcDbDictionary
280
     1
281
     1
  3
ACAD_XREC_ROUNDTRIP
360
607
  0
DICTIONARY
  5
622
330
582
100
AcDbDictionary
280
     1
281
     1
  3
ACAD_XREC_ROUNDTRIP
360
623
  0
DICTIONARY
  5
612
330
57A
100
AcDbDictionary
280
     1
281
     1
  3
ACAD_XREC_ROUNDTRIP
360
613
  0
DICTIONARY
  5
624
330
583
100
AcDbDictionary
280
     1
281
     1
  3
ACAD_XREC_ROUNDTRIP
360
625
  0
DICTIONARY
  5
60A
330
576
100
AcDbDictionary
280
     1
281
     1
  3
ACAD_XREC_ROUNDTRIP
360
60B
  0
DICTIONARY
  5
620
330
581
100
AcDbDictionary
280
     1
281
     1
  3
ACAD_XREC_ROUNDTRIP
360
621
  0
DICTIONARY
  5
61E
330
580
100
AcDbDictionary
280
     1
281
     1
  3
ACAD_XREC_ROUNDTRIP
360
61F
  0
DICTIONARY
  5
618
330
57D
100
AcDbDictionary
280
     1
281
     1
  3
ACAD_XREC_ROUNDTRIP
360
619
  0
DICTIONARY
  5
61A
330
57E
100
AcDbDictionary
280
     1
281
     1
  3
ACAD_XREC_ROUNDTRIP
360
61B
  0
DICTIONARY
  5
610
330
579
100
AcDbDictionary
280
     1
281
     1
  3
ACAD_XREC_ROUNDTRIP
360
611
  0
DICTIONARY
  5
604
330
573
100
AcDbDictionary
280
     1
281
     1
  3
ACAD_XREC_ROUNDTRIP
360
605
  0
DICTIONARY
  5
61C
330
57F
100
AcDbDictionary
280
     1
281
     1
  3
ACAD_XREC_ROUNDTRIP
360
61D
  0
XRECORD
  5
62E
102
{ACAD_REACTORS
330
62D
102
}
330
62D
100
AcDbXrecord
280
     1
102
DISPLAYNAME
  1
Imperial24
102
FLAGS
 90
        0
  0
XRECORD
  5
5F6
102
{ACAD_REACTORS
330
55D
102
}
330
55D
100
AcDbXrecord
280
     1
102
MATERIAL
148
0.0
149
0.0
149
0.0
 93
        0
 94
      127
282
     0
 72
     0
 77
     0
171
     0
175
     0
179
     0
273
     0
  0
XRECORD
  5
55F
102
{ACAD_REACTORS
330
55D
102
}
330
55D
100
AcDbXrecord
280
     1
270
     1
271
     1
  0
XRECORD
  5
55E
102
{ACAD_REACTORS
330
55D
102
}
330
55D
100
AcDbXrecord
280
     1
270
     1
271
     1
  0
XRECORD
  5
562
102
{ACAD_REACTORS
330
55D
102
}
330
55D
100
AcDbXrecord
280
     1
270
     1
271
     1
  0
XRECORD
  5
561
102
{ACAD_REACTORS
330
55D
102
}
330
55D
100
AcDbXrecord
280
     1
270
     1
271
     1
  0
XRECORD
  5
563
102
{ACAD_REACTORS
330
55D
102
}
330
55D
100
AcDbXrecord
280
     1
270
     1
271
     1
  0
XRECORD
  5
560
102
{ACAD_REACTORS
330
55D
102
}
330
55D
100
AcDbXrecord
280
     1
270
     1
271
     1
  0
XRECORD
  5
5F5
102
{ACAD_REACTORS
330
555
102
}
330
555
100
AcDbXrecord
280
     1
102
MATERIAL
148
0.0
149
0.0
149
0.0
 93
        0
 94
      127
282
     0
 72
     0
 77
     0
171
     0
175
     0
179
     0
273
     0
  0
XRECORD
  5
557
102
{ACAD_REACTORS
330
555
102
}
330
555
100
AcDbXrecord
280
     1
270
     1
271
     1
  0
XRECORD
  5
556
102
{ACAD_REACTORS
330
555
102
}
330
555
100
AcDbXrecord
280
     1
270
     1
271
     1
  0
XRECORD
  5
55A
102
{ACAD_REACTORS
330
555
102
}
330
555
100
AcDbXrecord
280
     1
270
     1
271
     1
  0
XRECORD
  5
559
102
{ACAD_REACTORS
330
555
102
}
330
555
100
AcDbXrecord
280
     1
270
     1
271
     1
  0
XRECORD
  5
55B
102
{ACAD_REACTORS
330
555
102
}
330
555
100
AcDbXrecord
280
     1
270
     1
271
     1
  0
XRECORD
  5
558
102
{ACAD_REACTORS
330
555
102
}
330
555
100
AcDbXrecord
280
     1
270
     1
271
     1
  0
XRECORD
  5
5F7
102
{ACAD_REACTORS
330
565
102
}
330
565
100
AcDbXrecord
280
     1
102
MATERIAL
148
0.0
149
0.0
149
0.0
 93
        0
 94
      127
282
     0
 72
     0
 77
     0
171
     0
175
     0
179
     0
273
     0
  0
XRECORD
  5
567
102
{ACAD_REACTORS
330
565
102
}
330
565
100
AcDbXrecord
280
     1
270
     1
271
     1
  0
XRECORD
  5
566
102
{ACAD_REACTORS
330
565
102
}
330
565
100
AcDbXrecord
280
     1
270
     1
271
     1
  0
XRECORD
  5
56A
102
{ACAD_REACTORS
330
565
102
}
330
565
100
AcDbXrecord
280
     1
270
     1
271
     1
  0
XRECORD
  5
569
102
{ACAD_REACTORS
330
565
102
}
330
565
100
AcDbXrecord
280
     1
270
     1
271
     1
  0
XRECORD
  5
56B
102
{ACAD_REACTORS
330
565
102
}
330
565
100
AcDbXrecord
280
     1
270
     1
271
     1
  0
XRECORD
  5
568
102
{ACAD_REACTORS
330
565
102
}
330
565
100
AcDbXrecord
280
     1
270
     1
271
     1
  0
XRECORD
  5
62A
102
{ACAD_REACTORS
330
629
102
}
330
629
100
AcDbXrecord
280
     1
102
ACAD_ROUNDTRIP_2012_MLEADER_STYLE
298
     1
  0
XRECORD
  5
62C
102
{ACAD_REACTORS
330
62B
102
}
330
62B
100
AcDbXrecord
280
     1
102
DISPLAYNAME
  1
Imperial24
102
FLAGS
 90
        0
  0
CELLSTYLEMAP
  5
5F3
102
{ACAD_REACTORS
330
5A3
102
}
330
5A3
100
AcDbCellStyleMap
 90
        3
300
CELLSTYLE
  1
TABLEFORMAT_BEGIN
 90
        5
170
     1
 91
        0
 92
    32768
 62
   257
 93
        1
300
CONTENTFORMAT
  1
CONTENTFORMAT_BEGIN
 90
        0
 91
        0
 92
      512
 93
        0
300

 40
0.0
140
1.0
 94
        5
 62
     0
340
4F0
144
0.25
309
CONTENTFORMAT_END
171
     0
 94
        0
309
TABLEFORMAT_END
  1
CELLSTYLE_BEGIN
 90
        1
 91
        1
300
_TITLE
309
CELLSTYLE_END
300
CELLSTYLE
  1
TABLEFORMAT_BEGIN
 90
        5
170
     1
 91
        0
 92
        0
 62
   257
 93
        1
300
CONTENTFORMAT
  1
CONTENTFORMAT_BEGIN
 90
        0
 91
        0
 92
      512
 93
        0
300

 40
0.0
140
1.0
 94
        5
 62
     0
340
4F0
144
0.18
309
CONTENTFORMAT_END
171
     0
 94
        0
309
TABLEFORMAT_END
  1
CELLSTYLE_BEGIN
 90
        2
 91
        1
300
_HEADER
309
CELLSTYLE_END
300
CELLSTYLE
  1
TABLEFORMAT_BEGIN
 90
        5
170
     1
 91
        0
 92
        0
 62
   257
 93
        1
300
CONTENTFORMAT
  1
CONTENTFORMAT_BEGIN
 90
        0
 91
        0
 92
      512
 93
        0
300

 40
0.0
140
1.0
 94
        2
 62
     0
340
4F0
144
0.18
309
CONTENTFORMAT_END
171
     0
 94
        0
309
TABLEFORMAT_END
  1
CELLSTYLE_BEGIN
 90
        3
 91
        2
300
_DATA
309
CELLSTYLE_END
  0
XRECORD
  5
628
102
{ACAD_REACTORS
330
5A3
102
}
330
5A3
100
AcDbXrecord
280
     1
102
ACAD_ROUNDTRIP_PRE2007_TABLESTYLE
 90
      512
 91
        0
  1

 92
      512
 93
        0
  2

 94
      512
 95
        0
  3

  0
XRECORD
  5
603
102
{ACAD_REACTORS
330
602
102
}
330
602
100
AcDbXrecord
280
     1
102
RTVSPost2010Prop28
280
     1
102
RTVSPost2010PropOp28
 70
     1
102
RTVSPost2010Prop29
280
     1
102
RTVSPost2010PropOp29
 70
     1
102
RTVSPost2010Prop30
280
     0
102
RTVSPost2010PropOp30
 70
     1
102
RTVSPost2010Prop31
280
     0
102
RTVSPost2010PropOp31
 70
     1
102
RTVSPost2010Prop32
280
     0
102
RTVSPost2010PropOp32
 70
     1
102
RTVSPost2010Prop33
280
     0
102
RTVSPost2010PropOp33
 70
     1
102
RTVSPost2010Prop34
280
     0
102
RTVSPost2010PropOp34
 70
     1
102
RTVSPost2010Prop35
280
     0
102
RTVSPost2010PropOp35
 70
     1
102
RTVSPost2010Prop36
280
     0
102
RTVSPost2010PropOp36
 70
     1
102
RTVSPost2010Prop37
 90
       50
102
RTVSPost2010PropOp37
 70
     1
102
RTVSPost2010Prop38
140
0.0
102
RTVSPost2010PropOp38
 70
     1
102
RTVSPost2010Prop39
140
1.0
102
RTVSPost2010PropOp39
 70
     1
102
RTVSPost2010Prop40
 90
        0
102
RTVSPost2010PropOp40
 70
     1
102
RTVSPost2010Prop41ColorIndex
 90
       18
102
RTVSPost2010Prop41ColorRGB
 90
        0
102
RTVSPost2010PropOp41
 70
     1
102
RTVSPost2010Prop42
 90
       50
102
RTVSPost2010PropOp42
 70
     1
102
RTVSPost2010Prop43
 90
        3
102
RTVSPost2010PropOp43
 70
     1
102
RTVSPost2010Prop44ColorIndex
 90
        5
102
RTVSPost2010Prop44ColorRGB
 90
      255
102
RTVSPost2010PropOp44
 70
     1
102
RTVSPost2010Prop45
280
     0
102
RTVSPost2010PropOp45
 70
     1
102
RTVSPost2010Prop46
 90
       50
102
RTVSPost2010PropOp46
 70
     1
102
RTVSPost2010Prop47
 90
       50
102
RTVSPost2010PropOp47
 70
     1
102
RTVSPost2010Prop48
 90
       50
102
RTVSPost2010PropOp48
 70
     1
102
RTVSPost2010Prop49
280
     0
102
RTVSPost2010PropOp49
 70
     1
102
RTVSPost2010Prop50
 90
       50
102
RTVSPost2010PropOp50
 70
     1
102
RTVSPost2010Prop51ColorIndex
 90
      256
102
RTVSPost2010Prop51ColorRGB
 90
-16777216
102
RTVSPost2010PropOp51
 70
     0
102
RTVSPost2010Prop52
140
1.0
102
RTVSPost2010PropOp52
 70
     0
102
RTVSPost2010Prop53
 90
        2
102
RTVSPost2010PropOp53
 70
     1
102
RTVSPost2010Prop54
  1
strokes_ogs.tif
102
RTVSPost2010PropOp54
 70
     1
102
RTVSPost2010Prop55
280
     0
102
RTVSPost2010PropOp55
 70
     1
102
RTVSPost2010Prop56
140
1.0
102
RTVSPost2010PropOp56
 70
     1
102
RTVSPost2010Prop57
140
1.0
102
RTVSPost2010PropOp57
 70
     1
102
RTVSPropertyOp0
 70
     1
102
RTVSPropertyOp1
 70
     1
102
RTVSPropertyOp2
 70
     1
102
RTVSPropertyOp3
 70
     1
102
RTVSPropertyOp4
 70
     1
102
RTVSPropertyOp5
 70
     1
102
RTVSPropertyOp6
 70
     1
102
RTVSPropertyOp7
 70
     1
102
RTVSPropertyOp8
 70
     1
102
RTVSPropertyOp9
 70
     1
102
RTVSPropertyOp10
 70
     1
102
RTVSPropertyOp11
 70
     1
102
RTVSPropertyOp12
 70
     1
102
RTVSPropertyOp13
 70
     1
102
RTVSPropertyOp14
 70
     1
102
RTVSPropertyOp15
 70
     1
102
RTVSPropertyOp16
 70
     1
102
RTVSPropertyOp17
 70
     1
102
RTVSPropertyOp18
 70
     1
102
RTVSPropertyOp19
 70
     1
102
RTVSPropertyOp20
 70
     1
102
RTVSPropertyOp21
 70
     1
102
RTVSPropertyOp22
 70
     1
102
RTVSPropertyOp23
 70
     1
102
RTVSPropertyOp24
 70
     1
102
RTVSPropertyOp25
 70
     1
102
RTVSPropertyOp26
 70
     1
102
RTVSPropertyOp27
 70
     1
102
RTVSPropertyOp28
 70
     1
102
RTVSPropertyOp29
 70
     1
102
RTVSPropertyOp30
 70
     1
102
RTVSPropertyOp31
 70
     1
102
RTVSPropertyOp32
 70
     1
102
RTVSPropertyOp33
 70
     1
102
RTVSPropertyOp34
 70
     1
102
RTVSPropertyOp35
 70
     1
102
RTVSPropertyOp36
 70
     1
102
RTVSPropertyOp37
 70
     1
102
RTVSPropertyOp38
 70
     1
102
RTVSPropertyOp39
 70
     1
102
RTVSPropertyOp40
 70
     1
102
RTVSPropertyOp41
 70
     1
102
RTVSPropertyOp42
 70
     1
102
RTVSPropertyOp43
 70
     1
102
RTVSPropertyOp44
 70
     1
102
RTVSPropertyOp45
 70
     1
102
RTVSPropertyOp46
 70
     1
102
RTVSPropertyOp47
 70
     1
102
RTVSPropertyOp48
 70
     1
102
RTVSPropertyOp49
 70
     1
102
RTVSPropertyOp50
 70
     1
102
RTVSPropertyOp51
 70
     0
102
RTVSPropertyOp52
 70
     0
102
RTVSPropertyOp53
 70
     1
102
RTVSPropertyOp54
 70
     1
102
RTVSPropertyOp55
 70
     1
102
RTVSPropertyOp56
 70
     1
102
RTVSPropertyOp57
 70
     1
102
RTVSPropertyOp58
 70
     1
102
RTVSPropertyOp59
 70
     1
102
RTVSPropertyOp60
 70
     1
102
RTVSPropertyOp61
 70
     1
102
RTVSPropertyOp62
 70
     1
  0
XRECORD
  5
601
102
{ACAD_REACTORS
330
600
102
}
330
600
100
AcDbXrecord
280
     1
102
RTVSPost2010Prop28
280
     0
102
RTVSPost2010PropOp28
 70
     1
102
RTVSPost2010Prop29
280
     1
102
RTVSPost2010PropOp29
 70
     1
102
RTVSPost2010Prop30
280
     1
102
RTVSPost2010PropOp30
 70
     1
102
RTVSPost2010Prop31
280
     0
102
RTVSPost2010PropOp31
 70
     1
102
RTVSPost2010Prop32
280
     0
102
RTVSPost2010PropOp32
 70
     1
102
RTVSPost2010Prop33
280
     0
102
RTVSPost2010PropOp33
 70
     1
102
RTVSPost2010Prop34
280
     0
102
RTVSPost2010PropOp34
 70
     1
102
RTVSPost2010Prop35
280
     0
102
RTVSPost2010PropOp35
 70
     1
102
RTVSPost2010Prop36
280
     0
102
RTVSPost2010PropOp36
 70
     1
102
RTVSPost2010Prop37
 90
       50
102
RTVSPost2010PropOp37
 70
     1
102
RTVSPost2010Prop38
140
0.0
102
RTVSPost2010PropOp38
 70
     1
102
RTVSPost2010Prop39
140
1.0
102
RTVSPost2010PropOp39
 70
     1
102
RTVSPost2010Prop40
 90
        0
102
RTVSPost2010PropOp40
 70
     1
102
RTVSPost2010Prop41ColorIndex
 90
       18
102
RTVSPost2010Prop41ColorRGB
 90
        0
102
RTVSPost2010PropOp41
 70
     1
102
RTVSPost2010Prop42
 90
       50
102
RTVSPost2010PropOp42
 70
     1
102
RTVSPost2010Prop43
 90
        3
102
RTVSPost2010PropOp43
 70
     1
102
RTVSPost2010Prop44ColorIndex
 90
        5
102
RTVSPost2010Prop44ColorRGB
 90
      255
102
RTVSPost2010PropOp44
 70
     1
102
RTVSPost2010Prop45
280
     0
102
RTVSPost2010PropOp45
 70
     1
102
RTVSPost2010Prop46
 90
       50
102
RTVSPost2010PropOp46
 70
     1
102
RTVSPost2010Prop47
 90
       50
102
RTVSPost2010PropOp47
 70
     1
102
RTVSPost2010Prop48
 90
       50
102
RTVSPost2010PropOp48
 70
     1
102
RTVSPost2010Prop49
280
     0
102
RTVSPost2010PropOp49
 70
     1
102
RTVSPost2010Prop50
 90
       50
102
RTVSPost2010PropOp50
 70
     1
102
RTVSPost2010Prop51ColorIndex
 90
      256
102
RTVSPost2010Prop51ColorRGB
 90
-16777216
102
RTVSPost2010PropOp51
 70
     0
102
RTVSPost2010Prop52
140
1.0
102
RTVSPost2010PropOp52
 70
     0
102
RTVSPost2010Prop53
 90
        2
102
RTVSPost2010PropOp53
 70
     1
102
RTVSPost2010Prop54
  1
strokes_ogs.tif
102
RTVSPost2010PropOp54
 70
     1
102
RTVSPost2010Prop55
280
     0
102
RTVSPost2010PropOp55
 70
     1
102
RTVSPost2010Prop56
140
1.0
102
RTVSPost2010PropOp56
 70
     1
102
RTVSPost2010Prop57
140
1.0
102
RTVSPost2010PropOp57
 70
     1
102
RTVSPropertyOp0
 70
     1
102
RTVSPropertyOp1
 70
     1
102
RTVSPropertyOp2
 70
     1
102
RTVSPropertyOp3
 70
     1
102
RTVSPropertyOp4
 70
     1
102
RTVSPropertyOp5
 70
     1
102
RTVSPropertyOp6
 70
     1
102
RTVSPropertyOp7
 70
     1
102
RTVSPropertyOp8
 70
     1
102
RTVSPropertyOp9
 70
     1
102
RTVSPropertyOp10
 70
     1
102
RTVSPropertyOp11
 70
     1
102
RTVSPropertyOp12
 70
     1
102
RTVSPropertyOp13
 70
     1
102
RTVSPropertyOp14
 70
     1
102
RTVSPropertyOp15
 70
     1
102
RTVSPropertyOp16
 70
     1
102
RTVSPropertyOp17
 70
     1
102
RTVSPropertyOp18
 70
     1
102
RTVSPropertyOp19
 70
     1
102
RTVSPropertyOp20
 70
     1
102
RTVSPropertyOp21
 70
     1
102
RTVSPropertyOp22
 70
     1
102
RTVSPropertyOp23
 70
     1
102
RTVSPropertyOp24
 70
     1
102
RTVSPropertyOp25
 70
     1
102
RTVSPropertyOp26
 70
     1
102
RTVSPropertyOp27
 70
     1
102
RTVSPropertyOp28
 70
     1
102
RTVSPropertyOp29
 70
     1
102
RTVSPropertyOp30
 70
     1
102
RTVSPropertyOp31
 70
     1
102
RTVSPropertyOp32
 70
     1
102
RTVSPropertyOp33
 70
     1
102
RTVSPropertyOp34
 70
     1
102
RTVSPropertyOp35
 70
     1
102
RTVSPropertyOp36
 70
     1
102
RTVSPropertyOp37
 70
     1
102
RTVSPropertyOp38
 70
     1
102
RTVSPropertyOp39
 70
     1
102
RTVSPropertyOp40
 70
     1
102
RTVSPropertyOp41
 70
     1
102
RTVSPropertyOp42
 70
     1
102
RTVSPropertyOp43
 70
     1
102
RTVSPropertyOp44
 70
     1
102
RTVSPropertyOp45
 70
     1
102
RTVSPropertyOp46
 70
     1
102
RTVSPropertyOp47
 70
     1
102
RTVSPropertyOp48
 70
     1
102
RTVSPropertyOp49
 70
     1
102
RTVSPropertyOp50
 70
     1
102
RTVSPropertyOp51
 70
     0
102
RTVSPropertyOp52
 70
     0
102
RTVSPropertyOp53
 70
     1
102
RTVSPropertyOp54
 70
     1
102
RTVSPropertyOp55
 70
     1
102
RTVSPropertyOp56
 70
     1
102
RTVSPropertyOp57
 70
     1
102
RTVSPropertyOp58
 70
     1
102
RTVSPropertyOp59
 70
     1
102
RTVSPropertyOp60
 70
     1
102
RTVSPropertyOp61
 70
     1
102
RTVSPropertyOp62
 70
     1
  0
XRECORD
  5
60F
102
{ACAD_REACTORS
330
60E
102
}
330
60E
100
AcDbXrecord
280
     1
102
RTVSPost2010Prop28
280
     0
102
RTVSPost2010PropOp28
 70
     1
102
RTVSPost2010Prop29
280
     1
102
RTVSPost2010PropOp29
 70
     1
102
RTVSPost2010Prop30
280
     1
102
RTVSPost2010PropOp30
 70
     1
102
RTVSPost2010Prop31
280
     0
102
RTVSPost2010PropOp31
 70
     1
102
RTVSPost2010Prop32
280
     0
102
RTVSPost2010PropOp32
 70
     1
102
RTVSPost2010Prop33
280
     0
102
RTVSPost2010PropOp33
 70
     1
102
RTVSPost2010Prop34
280
     0
102
RTVSPost2010PropOp34
 70
     1
102
RTVSPost2010Prop35
280
     0
102
RTVSPost2010PropOp35
 70
     1
102
RTVSPost2010Prop36
280
     0
102
RTVSPost2010PropOp36
 70
     1
102
RTVSPost2010Prop37
 90
       50
102
RTVSPost2010PropOp37
 70
     1
102
RTVSPost2010Prop38
140
0.0
102
RTVSPost2010PropOp38
 70
     1
102
RTVSPost2010Prop39
140
1.0
102
RTVSPost2010PropOp39
 70
     1
102
RTVSPost2010Prop40
 90
        0
102
RTVSPost2010PropOp40
 70
     1
102
RTVSPost2010Prop41ColorIndex
 90
       18
102
RTVSPost2010Prop41ColorRGB
 90
        0
102
RTVSPost2010PropOp41
 70
     1
102
RTVSPost2010Prop42
 90
       50
102
RTVSPost2010PropOp42
 70
     1
102
RTVSPost2010Prop43
 90
        3
102
RTVSPost2010PropOp43
 70
     1
102
RTVSPost2010Prop44ColorIndex
 90
        5
102
RTVSPost2010Prop44ColorRGB
 90
      255
102
RTVSPost2010PropOp44
 70
     1
102
RTVSPost2010Prop45
280
     0
102
RTVSPost2010PropOp45
 70
     1
102
RTVSPost2010Prop46
 90
       50
102
RTVSPost2010PropOp46
 70
     1
102
RTVSPost2010Prop47
 90
       50
102
RTVSPost2010PropOp47
 70
     1
102
RTVSPost2010Prop48
 90
       50
102
RTVSPost2010PropOp48
 70
     1
102
RTVSPost2010Prop49
280
     0
102
RTVSPost2010PropOp49
 70
     1
102
RTVSPost2010Prop50
 90
       50
102
RTVSPost2010PropOp50
 70
     1
102
RTVSPost2010Prop51ColorIndex
 90
      256
102
RTVSPost2010Prop51ColorRGB
 90
-16777216
102
RTVSPost2010PropOp51
 70
     0
102
RTVSPost2010Prop52
140
1.0
102
RTVSPost2010PropOp52
 70
     0
102
RTVSPost2010Prop53
 90
        2
102
RTVSPost2010PropOp53
 70
     1
102
RTVSPost2010Prop54
  1
strokes_ogs.tif
102
RTVSPost2010PropOp54
 70
     1
102
RTVSPost2010Prop55
280
     0
102
RTVSPost2010PropOp55
 70
     1
102
RTVSPost2010Prop56
140
1.0
102
RTVSPost2010PropOp56
 70
     1
102
RTVSPost2010Prop57
140
1.0
102
RTVSPost2010PropOp57
 70
     1
102
RTVSPropertyOp0
 70
     1
102
RTVSPropertyOp1
 70
     1
102
RTVSPropertyOp2
 70
     1
102
RTVSPropertyOp3
 70
     1
102
RTVSPropertyOp4
 70
     1
102
RTVSPropertyOp5
 70
     1
102
RTVSPropertyOp6
 70
     1
102
RTVSPropertyOp7
 70
     1
102
RTVSPropertyOp8
 70
     1
102
RTVSPropertyOp9
 70
     1
102
RTVSPropertyOp10
 70
     1
102
RTVSPropertyOp11
 70
     1
102
RTVSPropertyOp12
 70
     1
102
RTVSPropertyOp13
 70
     1
102
RTVSPropertyOp14
 70
     1
102
RTVSPropertyOp15
 70
     1
102
RTVSPropertyOp16
 70
     1
102
RTVSPropertyOp17
 70
     1
102
RTVSPropertyOp18
 70
     1
102
RTVSPropertyOp19
 70
     1
102
RTVSPropertyOp20
 70
     1
102
RTVSPropertyOp21
 70
     1
102
RTVSPropertyOp22
 70
     1
102
RTVSPropertyOp23
 70
     1
102
RTVSPropertyOp24
 70
     1
102
RTVSPropertyOp25
 70
     1
102
RTVSPropertyOp26
 70
     1
102
RTVSPropertyOp27
 70
     1
102
RTVSPropertyOp28
 70
     1
102
RTVSPropertyOp29
 70
     1
102
RTVSPropertyOp30
 70
     1
102
RTVSPropertyOp31
 70
     1
102
RTVSPropertyOp32
 70
     1
102
RTVSPropertyOp33
 70
     1
102
RTVSPropertyOp34
 70
     1
102
RTVSPropertyOp35
 70
     1
102
RTVSPropertyOp36
 70
     1
102
RTVSPropertyOp37
 70
     1
102
RTVSPropertyOp38
 70
     1
102
RTVSPropertyOp39
 70
     1
102
RTVSPropertyOp40
 70
     1
102
RTVSPropertyOp41
 70
     1
102
RTVSPropertyOp42
 70
     1
102
RTVSPropertyOp43
 70
     1
102
RTVSPropertyOp44
 70
     1
102
RTVSPropertyOp45
 70
     1
102
RTVSPropertyOp46
 70
     1
102
RTVSPropertyOp47
 70
     1
102
RTVSPropertyOp48
 70
     1
102
RTVSPropertyOp49
 70
     1
102
RTVSPropertyOp50
 70
     1
102
RTVSPropertyOp51
 70
     0
102
RTVSPropertyOp52
 70
     0
102
RTVSPropertyOp53
 70
     1
102
RTVSPropertyOp54
 70
     1
102
RTVSPropertyOp55
 70
     1
102
RTVSPropertyOp56
 70
     1
102
RTVSPropertyOp57
 70
     1
102
RTVSPropertyOp58
 70
     1
102
RTVSPropertyOp59
 70
     1
102
RTVSPropertyOp60
 70
     1
102
RTVSPropertyOp61
 70
     1
102
RTVSPropertyOp62
 70
     1
  0
XRECORD
  5
617
102
{ACAD_REACTORS
330
616
102
}
330
616
100
AcDbXrecord
280
     1
102
RTVSPost2010Prop28
280
     0
102
RTVSPost2010PropOp28
 70
     1
102
RTVSPost2010Prop29
280
     1
102
RTVSPost2010PropOp29
 70
     1
102
RTVSPost2010Prop30
280
     1
102
RTVSPost2010PropOp30
 70
     1
102
RTVSPost2010Prop31
280
     0
102
RTVSPost2010PropOp31
 70
     1
102
RTVSPost2010Prop32
280
     0
102
RTVSPost2010PropOp32
 70
     1
102
RTVSPost2010Prop33
280
     0
102
RTVSPost2010PropOp33
 70
     1
102
RTVSPost2010Prop34
280
     0
102
RTVSPost2010PropOp34
 70
     1
102
RTVSPost2010Prop35
280
     0
102
RTVSPost2010PropOp35
 70
     1
102
RTVSPost2010Prop36
280
     0
102
RTVSPost2010PropOp36
 70
     1
102
RTVSPost2010Prop37
 90
       50
102
RTVSPost2010PropOp37
 70
     1
102
RTVSPost2010Prop38
140
0.0
102
RTVSPost2010PropOp38
 70
     1
102
RTVSPost2010Prop39
140
1.0
102
RTVSPost2010PropOp39
 70
     1
102
RTVSPost2010Prop40
 90
        0
102
RTVSPost2010PropOp40
 70
     1
102
RTVSPost2010Prop41ColorIndex
 90
       18
102
RTVSPost2010Prop41ColorRGB
 90
        0
102
RTVSPost2010PropOp41
 70
     1
102
RTVSPost2010Prop42
 90
       50
102
RTVSPost2010PropOp42
 70
     1
102
RTVSPost2010Prop43
 90
        3
102
RTVSPost2010PropOp43
 70
     1
102
RTVSPost2010Prop44ColorIndex
 90
        5
102
RTVSPost2010Prop44ColorRGB
 90
      255
102
RTVSPost2010PropOp44
 70
     1
102
RTVSPost2010Prop45
280
     0
102
RTVSPost2010PropOp45
 70
     1
102
RTVSPost2010Prop46
 90
       50
102
RTVSPost2010PropOp46
 70
     1
102
RTVSPost2010Prop47
 90
       50
102
RTVSPost2010PropOp47
 70
     1
102
RTVSPost2010Prop48
 90
       50
102
RTVSPost2010PropOp48
 70
     1
102
RTVSPost2010Prop49
280
     0
102
RTVSPost2010PropOp49
 70
     1
102
RTVSPost2010Prop50
 90
       50
102
RTVSPost2010PropOp50
 70
     1
102
RTVSPost2010Prop51ColorIndex
 90
      256
102
RTVSPost2010Prop51ColorRGB
 90
-16777216
102
RTVSPost2010PropOp51
 70
     0
102
RTVSPost2010Prop52
140
1.0
102
RTVSPost2010PropOp52
 70
     0
102
RTVSPost2010Prop53
 90
        2
102
RTVSPost2010PropOp53
 70
     1
102
RTVSPost2010Prop54
  1
strokes_ogs.tif
102
RTVSPost2010PropOp54
 70
     1
102
RTVSPost2010Prop55
280
     0
102
RTVSPost2010PropOp55
 70
     1
102
RTVSPost2010Prop56
140
1.0
102
RTVSPost2010PropOp56
 70
     1
102
RTVSPost2010Prop57
140
1.0
102
RTVSPost2010PropOp57
 70
     1
102
RTVSPropertyOp0
 70
     1
102
RTVSPropertyOp1
 70
     1
102
RTVSPropertyOp2
 70
     1
102
RTVSPropertyOp3
 70
     1
102
RTVSPropertyOp4
 70
     1
102
RTVSPropertyOp5
 70
     1
102
RTVSPropertyOp6
 70
     1
102
RTVSPropertyOp7
 70
     1
102
RTVSPropertyOp8
 70
     1
102
RTVSPropertyOp9
 70
     1
102
RTVSPropertyOp10
 70
     1
102
RTVSPropertyOp11
 70
     1
102
RTVSPropertyOp12
 70
     1
102
RTVSPropertyOp13
 70
     1
102
RTVSPropertyOp14
 70
     1
102
RTVSPropertyOp15
 70
     1
102
RTVSPropertyOp16
 70
     1
102
RTVSPropertyOp17
 70
     1
102
RTVSPropertyOp18
 70
     1
102
RTVSPropertyOp19
 70
     1
102
RTVSPropertyOp20
 70
     1
102
RTVSPropertyOp21
 70
     1
102
RTVSPropertyOp22
 70
     1
102
RTVSPropertyOp23
 70
     1
102
RTVSPropertyOp24
 70
     1
102
RTVSPropertyOp25
 70
     1
102
RTVSPropertyOp26
 70
     1
102
RTVSPropertyOp27
 70
     1
102
RTVSPropertyOp28
 70
     1
102
RTVSPropertyOp29
 70
     1
102
RTVSPropertyOp30
 70
     1
102
RTVSPropertyOp31
 70
     1
102
RTVSPropertyOp32
 70
     1
102
RTVSPropertyOp33
 70
     1
102
RTVSPropertyOp34
 70
     1
102
RTVSPropertyOp35
 70
     1
102
RTVSPropertyOp36
 70
     1
102
RTVSPropertyOp37
 70
     1
102
RTVSPropertyOp38
 70
     1
102
RTVSPropertyOp39
 70
     1
102
RTVSPropertyOp40
 70
     1
102
RTVSPropertyOp41
 70
     1
102
RTVSPropertyOp42
 70
     1
102
RTVSPropertyOp43
 70
     1
102
RTVSPropertyOp44
 70
     1
102
RTVSPropertyOp45
 70
     1
102
RTVSPropertyOp46
 70
     1
102
RTVSPropertyOp47
 70
     1
102
RTVSPropertyOp48
 70
     1
102
RTVSPropertyOp49
 70
     1
102
RTVSPropertyOp50
 70
     1
102
RTVSPropertyOp51
 70
     0
102
RTVSPropertyOp52
 70
     0
102
RTVSPropertyOp53
 70
     1
102
RTVSPropertyOp54
 70
     1
102
RTVSPropertyOp55
 70
     1
102
RTVSPropertyOp56
 70
     1
102
RTVSPropertyOp57
 70
     1
102
RTVSPropertyOp58
 70
     1
102
RTVSPropertyOp59
 70
     1
102
RTVSPropertyOp60
 70
     1
102
RTVSPropertyOp61
 70
     1
102
RTVSPropertyOp62
 70
     1
  0
XRECORD
  5
609
102
{ACAD_REACTORS
330
608
102
}
330
608
100
AcDbXrecord
280
     1
102
RTVSPost2010Prop28
280
     0
102
RTVSPost2010PropOp28
 70
     1
102
RTVSPost2010Prop29
280
     1
102
RTVSPost2010PropOp29
 70
     1
102
RTVSPost2010Prop30
280
     1
102
RTVSPost2010PropOp30
 70
     1
102
RTVSPost2010Prop31
280
     0
102
RTVSPost2010PropOp31
 70
     1
102
RTVSPost2010Prop32
280
     0
102
RTVSPost2010PropOp32
 70
     1
102
RTVSPost2010Prop33
280
     0
102
RTVSPost2010PropOp33
 70
     1
102
RTVSPost2010Prop34
280
     0
102
RTVSPost2010PropOp34
 70
     1
102
RTVSPost2010Prop35
280
     0
102
RTVSPost2010PropOp35
 70
     1
102
RTVSPost2010Prop36
280
     0
102
RTVSPost2010PropOp36
 70
     1
102
RTVSPost2010Prop37
 90
       50
102
RTVSPost2010PropOp37
 70
     1
102
RTVSPost2010Prop38
140
0.0
102
RTVSPost2010PropOp38
 70
     1
102
RTVSPost2010Prop39
140
1.0
102
RTVSPost2010PropOp39
 70
     1
102
RTVSPost2010Prop40
 90
        0
102
RTVSPost2010PropOp40
 70
     1
102
RTVSPost2010Prop41ColorIndex
 90
       18
102
RTVSPost2010Prop41ColorRGB
 90
        0
102
RTVSPost2010PropOp41
 70
     1
102
RTVSPost2010Prop42
 90
       50
102
RTVSPost2010PropOp42
 70
     1
102
RTVSPost2010Prop43
 90
        3
102
RTVSPost2010PropOp43
 70
     1
102
RTVSPost2010Prop44ColorIndex
 90
        5
102
RTVSPost2010Prop44ColorRGB
 90
      255
102
RTVSPost2010PropOp44
 70
     1
102
RTVSPost2010Prop45
280
     0
102
RTVSPost2010PropOp45
 70
     1
102
RTVSPost2010Prop46
 90
       50
102
RTVSPost2010PropOp46
 70
     1
102
RTVSPost2010Prop47
 90
       50
102
RTVSPost2010PropOp47
 70
     1
102
RTVSPost2010Prop48
 90
       50
102
RTVSPost2010PropOp48
 70
     1
102
RTVSPost2010Prop49
280
     0
102
RTVSPost2010PropOp49
 70
     1
102
RTVSPost2010Prop50
 90
       50
102
RTVSPost2010PropOp50
 70
     1
102
RTVSPost2010Prop51ColorIndex
 90
      256
102
RTVSPost2010Prop51ColorRGB
 90
-16777216
102
RTVSPost2010PropOp51
 70
     0
102
RTVSPost2010Prop52
140
1.0
102
RTVSPost2010PropOp52
 70
     0
102
RTVSPost2010Prop53
 90
        2
102
RTVSPost2010PropOp53
 70
     1
102
RTVSPost2010Prop54
  1
strokes_ogs.tif
102
RTVSPost2010PropOp54
 70
     1
102
RTVSPost2010Prop55
280
     0
102
RTVSPost2010PropOp55
 70
     1
102
RTVSPost2010Prop56
140
1.0
102
RTVSPost2010PropOp56
 70
     1
102
RTVSPost2010Prop57
140
1.0
102
RTVSPost2010PropOp57
 70
     1
102
RTVSPropertyOp0
 70
     1
102
RTVSPropertyOp1
 70
     1
102
RTVSPropertyOp2
 70
     1
102
RTVSPropertyOp3
 70
     1
102
RTVSPropertyOp4
 70
     1
102
RTVSPropertyOp5
 70
     1
102
RTVSPropertyOp6
 70
     1
102
RTVSPropertyOp7
 70
     1
102
RTVSPropertyOp8
 70
     1
102
RTVSPropertyOp9
 70
     1
102
RTVSPropertyOp10
 70
     1
102
RTVSPropertyOp11
 70
     1
102
RTVSPropertyOp12
 70
     1
102
RTVSPropertyOp13
 70
     1
102
RTVSPropertyOp14
 70
     1
102
RTVSPropertyOp15
 70
     1
102
RTVSPropertyOp16
 70
     1
102
RTVSPropertyOp17
 70
     1
102
RTVSPropertyOp18
 70
     1
102
RTVSPropertyOp19
 70
     1
102
RTVSPropertyOp20
 70
     1
102
RTVSPropertyOp21
 70
     1
102
RTVSPropertyOp22
 70
     1
102
RTVSPropertyOp23
 70
     1
102
RTVSPropertyOp24
 70
     1
102
RTVSPropertyOp25
 70
     1
102
RTVSPropertyOp26
 70
     1
102
RTVSPropertyOp27
 70
     1
102
RTVSPropertyOp28
 70
     1
102
RTVSPropertyOp29
 70
     1
102
RTVSPropertyOp30
 70
     1
102
RTVSPropertyOp31
 70
     1
102
RTVSPropertyOp32
 70
     1
102
RTVSPropertyOp33
 70
     1
102
RTVSPropertyOp34
 70
     1
102
RTVSPropertyOp35
 70
     1
102
RTVSPropertyOp36
 70
     1
102
RTVSPropertyOp37
 70
     1
102
RTVSPropertyOp38
 70
     1
102
RTVSPropertyOp39
 70
     1
102
RTVSPropertyOp40
 70
     1
102
RTVSPropertyOp41
 70
     1
102
RTVSPropertyOp42
 70
     1
102
RTVSPropertyOp43
 70
     1
102
RTVSPropertyOp44
 70
     1
102
RTVSPropertyOp45
 70
     1
102
RTVSPropertyOp46
 70
     1
102
RTVSPropertyOp47
 70
     1
102
RTVSPropertyOp48
 70
     1
102
RTVSPropertyOp49
 70
     1
102
RTVSPropertyOp50
 70
     1
102
RTVSPropertyOp51
 70
     0
102
RTVSPropertyOp52
 70
     0
102
RTVSPropertyOp53
 70
     1
102
RTVSPropertyOp54
 70
     1
102
RTVSPropertyOp55
 70
     1
102
RTVSPropertyOp56
 70
     1
102
RTVSPropertyOp57
 70
     1
102
RTVSPropertyOp58
 70
     1
102
RTVSPropertyOp59
 70
     1
102
RTVSPropertyOp60
 70
     1
102
RTVSPropertyOp61
 70
     1
102
RTVSPropertyOp62
 70
     1
  0
XRECORD
  5
60D
102
{ACAD_REACTORS
330
60C
102
}
330
60C
100
AcDbXrecord
280
     1
102
RTVSPost2010Prop28
280
     0
102
RTVSPost2010PropOp28
 70
     1
102
RTVSPost2010Prop29
280
     1
102
RTVSPost2010PropOp29
 70
     1
102
RTVSPost2010Prop30
280
     1
102
RTVSPost2010PropOp30
 70
     1
102
RTVSPost2010Prop31
280
     0
102
RTVSPost2010PropOp31
 70
     1
102
RTVSPost2010Prop32
280
     0
102
RTVSPost2010PropOp32
 70
     1
102
RTVSPost2010Prop33
280
     0
102
RTVSPost2010PropOp33
 70
     1
102
RTVSPost2010Prop34
280
     0
102
RTVSPost2010PropOp34
 70
     1
102
RTVSPost2010Prop35
280
     0
102
RTVSPost2010PropOp35
 70
     1
102
RTVSPost2010Prop36
280
     0
102
RTVSPost2010PropOp36
 70
     1
102
RTVSPost2010Prop37
 90
       50
102
RTVSPost2010PropOp37
 70
     1
102
RTVSPost2010Prop38
140
0.0
102
RTVSPost2010PropOp38
 70
     1
102
RTVSPost2010Prop39
140
1.0
102
RTVSPost2010PropOp39
 70
     1
102
RTVSPost2010Prop40
 90
        0
102
RTVSPost2010PropOp40
 70
     1
102
RTVSPost2010Prop41ColorIndex
 90
       18
102
RTVSPost2010Prop41ColorRGB
 90
        0
102
RTVSPost2010PropOp41
 70
     1
102
RTVSPost2010Prop42
 90
       50
102
RTVSPost2010PropOp42
 70
     1
102
RTVSPost2010Prop43
 90
        3
102
RTVSPost2010PropOp43
 70
     1
102
RTVSPost2010Prop44ColorIndex
 90
        5
102
RTVSPost2010Prop44ColorRGB
 90
      255
102
RTVSPost2010PropOp44
 70
     1
102
RTVSPost2010Prop45
280
     0
102
RTVSPost2010PropOp45
 70
     1
102
RTVSPost2010Prop46
 90
       50
102
RTVSPost2010PropOp46
 70
     1
102
RTVSPost2010Prop47
 90
       50
102
RTVSPost2010PropOp47
 70
     1
102
RTVSPost2010Prop48
 90
       50
102
RTVSPost2010PropOp48
 70
     1
102
RTVSPost2010Prop49
280
     0
102
RTVSPost2010PropOp49
 70
     1
102
RTVSPost2010Prop50
 90
       50
102
RTVSPost2010PropOp50
 70
     1
102
RTVSPost2010Prop51ColorIndex
 90
      256
102
RTVSPost2010Prop51ColorRGB
 90
-16777216
102
RTVSPost2010PropOp51
 70
     0
102
RTVSPost2010Prop52
140
1.0
102
RTVSPost2010PropOp52
 70
     0
102
RTVSPost2010Prop53
 90
        2
102
RTVSPost2010PropOp53
 70
     1
102
RTVSPost2010Prop54
  1
strokes_ogs.tif
102
RTVSPost2010PropOp54
 70
     1
102
RTVSPost2010Prop55
280
     0
102
RTVSPost2010PropOp55
 70
     1
102
RTVSPost2010Prop56
140
1.0
102
RTVSPost2010PropOp56
 70
     1
102
RTVSPost2010Prop57
140
1.0
102
RTVSPost2010PropOp57
 70
     1
102
RTVSPropertyOp0
 70
     1
102
RTVSPropertyOp1
 70
     1
102
RTVSPropertyOp2
 70
     1
102
RTVSPropertyOp3
 70
     1
102
RTVSPropertyOp4
 70
     1
102
RTVSPropertyOp5
 70
     1
102
RTVSPropertyOp6
 70
     1
102
RTVSPropertyOp7
 70
     1
102
RTVSPropertyOp8
 70
     1
102
RTVSPropertyOp9
 70
     1
102
RTVSPropertyOp10
 70
     1
102
RTVSPropertyOp11
 70
     1
102
RTVSPropertyOp12
 70
     1
102
RTVSPropertyOp13
 70
     1
102
RTVSPropertyOp14
 70
     1
102
RTVSPropertyOp15
 70
     1
102
RTVSPropertyOp16
 70
     1
102
RTVSPropertyOp17
 70
     1
102
RTVSPropertyOp18
 70
     1
102
RTVSPropertyOp19
 70
     1
102
RTVSPropertyOp20
 70
     1
102
RTVSPropertyOp21
 70
     1
102
RTVSPropertyOp22
 70
     1
102
RTVSPropertyOp23
 70
     1
102
RTVSPropertyOp24
 70
     1
102
RTVSPropertyOp25
 70
     1
102
RTVSPropertyOp26
 70
     1
102
RTVSPropertyOp27
 70
     1
102
RTVSPropertyOp28
 70
     1
102
RTVSPropertyOp29
 70
     1
102
RTVSPropertyOp30
 70
     1
102
RTVSPropertyOp31
 70
     1
102
RTVSPropertyOp32
 70
     1
102
RTVSPropertyOp33
 70
     1
102
RTVSPropertyOp34
 70
     1
102
RTVSPropertyOp35
 70
     1
102
RTVSPropertyOp36
 70
     1
102
RTVSPropertyOp37
 70
     1
102
RTVSPropertyOp38
 70
     1
102
RTVSPropertyOp39
 70
     1
102
RTVSPropertyOp40
 70
     1
102
RTVSPropertyOp41
 70
     1
102
RTVSPropertyOp42
 70
     1
102
RTVSPropertyOp43
 70
     1
102
RTVSPropertyOp44
 70
     1
102
RTVSPropertyOp45
 70
     1
102
RTVSPropertyOp46
 70
     1
102
RTVSPropertyOp47
 70
     1
102
RTVSPropertyOp48
 70
     1
102
RTVSPropertyOp49
 70
     1
102
RTVSPropertyOp50
 70
     1
102
RTVSPropertyOp51
 70
     0
102
RTVSPropertyOp52
 70
     0
102
RTVSPropertyOp53
 70
     1
102
RTVSPropertyOp54
 70
     1
102
RTVSPropertyOp55
 70
     1
102
RTVSPropertyOp56
 70
     1
102
RTVSPropertyOp57
 70
     1
102
RTVSPropertyOp58
 70
     1
102
RTVSPropertyOp59
 70
     1
102
RTVSPropertyOp60
 70
     1
102
RTVSPropertyOp61
 70
     1
102
RTVSPropertyOp62
 70
     1
  0
XRECORD
  5
627
102
{ACAD_REACTORS
330
626
102
}
330
626
100
AcDbXrecord
280
     1
102
RTVSPost2010Prop28
280
     0
102
RTVSPost2010PropOp28
 70
     0
102
RTVSPost2010Prop29
280
     1
102
RTVSPost2010PropOp29
 70
     0
102
RTVSPost2010Prop30
280
     1
102
RTVSPost2010PropOp30
 70
     0
102
RTVSPost2010Prop31
280
     0
102
RTVSPost2010PropOp31
 70
     0
102
RTVSPost2010Prop32
280
     0
102
RTVSPost2010PropOp32
 70
     0
102
RTVSPost2010Prop33
280
     0
102
RTVSPost2010PropOp33
 70
     0
102
RTVSPost2010Prop34
280
     0
102
RTVSPost2010PropOp34
 70
     0
102
RTVSPost2010Prop35
280
     0
102
RTVSPost2010PropOp35
 70
     0
102
RTVSPost2010Prop36
280
     0
102
RTVSPost2010PropOp36
 70
     0
102
RTVSPost2010Prop37
 90
       50
102
RTVSPost2010PropOp37
 70
     0
102
RTVSPost2010Prop38
140
0.0
102
RTVSPost2010PropOp38
 70
     0
102
RTVSPost2010Prop39
140
1.0
102
RTVSPost2010PropOp39
 70
     0
102
RTVSPost2010Prop40
 90
        0
102
RTVSPost2010PropOp40
 70
     0
102
RTVSPost2010Prop41ColorIndex
 90
       18
102
RTVSPost2010Prop41ColorRGB
 90
        0
102
RTVSPost2010PropOp41
 70
     0
102
RTVSPost2010Prop42
 90
       50
102
RTVSPost2010PropOp42
 70
     0
102
RTVSPost2010Prop43
 90
        3
102
RTVSPost2010PropOp43
 70
     0
102
RTVSPost2010Prop44ColorIndex
 90
        5
102
RTVSPost2010Prop44ColorRGB
 90
      255
102
RTVSPost2010PropOp44
 70
     0
102
RTVSPost2010Prop45
280
     0
102
RTVSPost2010PropOp45
 70
     0
102
RTVSPost2010Prop46
 90
       50
102
RTVSPost2010PropOp46
 70
     0
102
RTVSPost2010Prop47
 90
       50
102
RTVSPost2010PropOp47
 70
     0
102
RTVSPost2010Prop48
 90
       50
102
RTVSPost2010PropOp48
 70
     0
102
RTVSPost2010Prop49
280
     0
102
RTVSPost2010PropOp49
 70
     0
102
RTVSPost2010Prop50
 90
       50
102
RTVSPost2010PropOp50
 70
     0
102
RTVSPost2010Prop51ColorIndex
 90
      256
102
RTVSPost2010Prop51ColorRGB
 90
-16777216
102
RTVSPost2010PropOp51
 70
     0
102
RTVSPost2010Prop52
140
1.0
102
RTVSPost2010PropOp52
 70
     0
102
RTVSPost2010Prop53
 90
        2
102
RTVSPost2010PropOp53
 70
     0
102
RTVSPost2010Prop54
  1
strokes_ogs.tif
102
RTVSPost2010PropOp54
 70
     0
102
RTVSPost2010Prop55
280
     0
102
RTVSPost2010PropOp55
 70
     0
102
RTVSPost2010Prop56
140
1.0
102
RTVSPost2010PropOp56
 70
     0
102
RTVSPost2010Prop57
140
1.0
102
RTVSPost2010PropOp57
 70
     0
102
RTVSPropertyOp0
 70
     0
102
RTVSPropertyOp1
 70
     0
102
RTVSPropertyOp2
 70
     0
102
RTVSPropertyOp3
 70
     0
102
RTVSPropertyOp4
 70
     0
102
RTVSPropertyOp5
 70
     0
102
RTVSPropertyOp6
 70
     0
102
RTVSPropertyOp7
 70
     0
102
RTVSPropertyOp8
 70
     0
102
RTVSPropertyOp9
 70
     0
102
RTVSPropertyOp10
 70
     0
102
RTVSPropertyOp11
 70
     0
102
RTVSPropertyOp12
 70
     0
102
RTVSPropertyOp13
 70
     0
102
RTVSPropertyOp14
 70
     2
102
RTVSPropertyOp15
 70
     0
102
RTVSPropertyOp16
 70
     0
102
RTVSPropertyOp17
 70
     0
102
RTVSPropertyOp18
 70
     0
102
RTVSPropertyOp19
 70
     0
102
RTVSPropertyOp20
 70
     0
102
RTVSPropertyOp21
 70
     0
102
RTVSPropertyOp22
 70
     0
102
RTVSPropertyOp23
 70
     0
102
RTVSPropertyOp24
 70
     0
102
RTVSPropertyOp25
 70
     0
102
RTVSPropertyOp26
 70
     0
102
RTVSPropertyOp27
 70
     0
102
RTVSPropertyOp28
 70
     0
102
RTVSPropertyOp29
 70
     0
102
RTVSPropertyOp30
 70
     0
102
RTVSPropertyOp31
 70
     0
102
RTVSPropertyOp32
 70
     0
102
RTVSPropertyOp33
 70
     0
102
RTVSPropertyOp34
 70
     0
102
RTVSPropertyOp35
 70
     0
102
RTVSPropertyOp36
 70
     0
102
RTVSPropertyOp37
 70
     0
102
RTVSPropertyOp38
 70
     0
102
RTVSPropertyOp39
 70
     0
102
RTVSPropertyOp40
 70
     0
102
RTVSPropertyOp41
 70
     0
102
RTVSPropertyOp42
 70
     0
102
RTVSPropertyOp43
 70
     0
102
RTVSPropertyOp44
 70
     0
102
RTVSPropertyOp45
 70
     0
102
RTVSPropertyOp46
 70
     0
102
RTVSPropertyOp47
 70
     0
102
RTVSPropertyOp48
 70
     0
102
RTVSPropertyOp49
 70
     0
102
RTVSPropertyOp50
 70
     0
102
RTVSPropertyOp51
 70
     0
102
RTVSPropertyOp52
 70
     0
102
RTVSPropertyOp53
 70
     0
102
RTVSPropertyOp54
 70
     0
102
RTVSPropertyOp55
 70
     0
102
RTVSPropertyOp56
 70
     0
102
RTVSPropertyOp57
 70
     0
102
RTVSPropertyOp58
 70
     0
102
RTVSPropertyOp59
 70
     0
102
RTVSPropertyOp60
 70
     0
102
RTVSPropertyOp61
 70
     0
102
RTVSPropertyOp62
 70
     0
  0
XRECORD
  5
615
102
{ACAD_REACTORS
330
614
102
}
330
614
100
AcDbXrecord
280
     1
102
RTVSPost2010Prop28
280
     0
102
RTVSPost2010PropOp28
 70
     1
102
RTVSPost2010Prop29
280
     1
102
RTVSPost2010PropOp29
 70
     1
102
RTVSPost2010Prop30
280
     1
102
RTVSPost2010PropOp30
 70
     1
102
RTVSPost2010Prop31
280
     0
102
RTVSPost2010PropOp31
 70
     1
102
RTVSPost2010Prop32
280
     0
102
RTVSPost2010PropOp32
 70
     1
102
RTVSPost2010Prop33
280
     0
102
RTVSPost2010PropOp33
 70
     1
102
RTVSPost2010Prop34
280
     0
102
RTVSPost2010PropOp34
 70
     1
102
RTVSPost2010Prop35
280
     0
102
RTVSPost2010PropOp35
 70
     1
102
RTVSPost2010Prop36
280
     0
102
RTVSPost2010PropOp36
 70
     1
102
RTVSPost2010Prop37
 90
       50
102
RTVSPost2010PropOp37
 70
     1
102
RTVSPost2010Prop38
140
0.0
102
RTVSPost2010PropOp38
 70
     1
102
RTVSPost2010Prop39
140
1.0
102
RTVSPost2010PropOp39
 70
     1
102
RTVSPost2010Prop40
 90
        0
102
RTVSPost2010PropOp40
 70
     1
102
RTVSPost2010Prop41ColorIndex
 90
       18
102
RTVSPost2010Prop41ColorRGB
 90
        0
102
RTVSPost2010PropOp41
 70
     1
102
RTVSPost2010Prop42
 90
       50
102
RTVSPost2010PropOp42
 70
     1
102
RTVSPost2010Prop43
 90
        3
102
RTVSPost2010PropOp43
 70
     1
102
RTVSPost2010Prop44ColorIndex
 90
        5
102
RTVSPost2010Prop44ColorRGB
 90
      255
102
RTVSPost2010PropOp44
 70
     1
102
RTVSPost2010Prop45
280
     0
102
RTVSPost2010PropOp45
 70
     1
102
RTVSPost2010Prop46
 90
       50
102
RTVSPost2010PropOp46
 70
     1
102
RTVSPost2010Prop47
 90
       50
102
RTVSPost2010PropOp47
 70
     1
102
RTVSPost2010Prop48
 90
       50
102
RTVSPost2010PropOp48
 70
     1
102
RTVSPost2010Prop49
280
     0
102
RTVSPost2010PropOp49
 70
     1
102
RTVSPost2010Prop50
 90
       50
102
RTVSPost2010PropOp50
 70
     1
102
RTVSPost2010Prop51ColorIndex
 90
      256
102
RTVSPost2010Prop51ColorRGB
 90
-16777216
102
RTVSPost2010PropOp51
 70
     0
102
RTVSPost2010Prop52
140
1.0
102
RTVSPost2010PropOp52
 70
     0
102
RTVSPost2010Prop53
 90
        2
102
RTVSPost2010PropOp53
 70
     1
102
RTVSPost2010Prop54
  1
strokes_ogs.tif
102
RTVSPost2010PropOp54
 70
     1
102
RTVSPost2010Prop55
280
     0
102
RTVSPost2010PropOp55
 70
     1
102
RTVSPost2010Prop56
140
1.0
102
RTVSPost2010PropOp56
 70
     1
102
RTVSPost2010Prop57
140
1.0
102
RTVSPost2010PropOp57
 70
     1
102
RTVSPropertyOp0
 70
     1
102
RTVSPropertyOp1
 70
     1
102
RTVSPropertyOp2
 70
     1
102
RTVSPropertyOp3
 70
     1
102
RTVSPropertyOp4
 70
     1
102
RTVSPropertyOp5
 70
     1
102
RTVSPropertyOp6
 70
     1
102
RTVSPropertyOp7
 70
     1
102
RTVSPropertyOp8
 70
     1
102
RTVSPropertyOp9
 70
     1
102
RTVSPropertyOp10
 70
     1
102
RTVSPropertyOp11
 70
     1
102
RTVSPropertyOp12
 70
     1
102
RTVSPropertyOp13
 70
     1
102
RTVSPropertyOp14
 70
     1
102
RTVSPropertyOp15
 70
     1
102
RTVSPropertyOp16
 70
     1
102
RTVSPropertyOp17
 70
     1
102
RTVSPropertyOp18
 70
     1
102
RTVSPropertyOp19
 70
     1
102
RTVSPropertyOp20
 70
     1
102
RTVSPropertyOp21
 70
     1
102
RTVSPropertyOp22
 70
     1
102
RTVSPropertyOp23
 70
     1
102
RTVSPropertyOp24
 70
     1
102
RTVSPropertyOp25
 70
     1
102
RTVSPropertyOp26
 70
     1
102
RTVSPropertyOp27
 70
     1
102
RTVSPropertyOp28
 70
     1
102
RTVSPropertyOp29
 70
     1
102
RTVSPropertyOp30
 70
     1
102
RTVSPropertyOp31
 70
     1
102
RTVSPropertyOp32
 70
     1
102
RTVSPropertyOp33
 70
     1
102
RTVSPropertyOp34
 70
     1
102
RTVSPropertyOp35
 70
     1
102
RTVSPropertyOp36
 70
     1
102
RTVSPropertyOp37
 70
     1
102
RTVSPropertyOp38
 70
     1
102
RTVSPropertyOp39
 70
     1
102
RTVSPropertyOp40
 70
     1
102
RTVSPropertyOp41
 70
     1
102
RTVSPropertyOp42
 70
     1
102
RTVSPropertyOp43
 70
     1
102
RTVSPropertyOp44
 70
     1
102
RTVSPropertyOp45
 70
     1
102
RTVSPropertyOp46
 70
     1
102
RTVSPropertyOp47
 70
     1
102
RTVSPropertyOp48
 70
     1
102
RTVSPropertyOp49
 70
     1
102
RTVSPropertyOp50
 70
     1
102
RTVSPropertyOp51
 70
     0
102
RTVSPropertyOp52
 70
     0
102
RTVSPropertyOp53
 70
     1
102
RTVSPropertyOp54
 70
     1
102
RTVSPropertyOp55
 70
     1
102
RTVSPropertyOp56
 70
     1
102
RTVSPropertyOp57
 70
     1
102
RTVSPropertyOp58
 70
     1
102
RTVSPropertyOp59
 70
     1
102
RTVSPropertyOp60
 70
     1
102
RTVSPropertyOp61
 70
     1
102
RTVSPropertyOp62
 70
     1
  0
XRECORD
  5
5F9
102
{ACAD_REACTORS
330
5F8
102
}
330
5F8
100
AcDbXrecord
280
     1
102
RTVSPost2010Prop28
280
     0
102
RTVSPost2010PropOp28
 70
     1
102
RTVSPost2010Prop29
280
     1
102
RTVSPost2010PropOp29
 70
     1
102
RTVSPost2010Prop30
280
     1
102
RTVSPost2010PropOp30
 70
     1
102
RTVSPost2010Prop31
280
     0
102
RTVSPost2010PropOp31
 70
     1
102
RTVSPost2010Prop32
280
     0
102
RTVSPost2010PropOp32
 70
     1
102
RTVSPost2010Prop33
280
     0
102
RTVSPost2010PropOp33
 70
     1
102
RTVSPost2010Prop34
280
     0
102
RTVSPost2010PropOp34
 70
     1
102
RTVSPost2010Prop35
280
     0
102
RTVSPost2010PropOp35
 70
     1
102
RTVSPost2010Prop36
280
     0
102
RTVSPost2010PropOp36
 70
     1
102
RTVSPost2010Prop37
 90
       50
102
RTVSPost2010PropOp37
 70
     1
102
RTVSPost2010Prop38
140
0.0
102
RTVSPost2010PropOp38
 70
     1
102
RTVSPost2010Prop39
140
1.0
102
RTVSPost2010PropOp39
 70
     1
102
RTVSPost2010Prop40
 90
        0
102
RTVSPost2010PropOp40
 70
     1
102
RTVSPost2010Prop41ColorIndex
 90
       18
102
RTVSPost2010Prop41ColorRGB
 90
        0
102
RTVSPost2010PropOp41
 70
     1
102
RTVSPost2010Prop42
 90
       50
102
RTVSPost2010PropOp42
 70
     1
102
RTVSPost2010Prop43
 90
        3
102
RTVSPost2010PropOp43
 70
     1
102
RTVSPost2010Prop44ColorIndex
 90
        5
102
RTVSPost2010Prop44ColorRGB
 90
      255
102
RTVSPost2010PropOp44
 70
     1
102
RTVSPost2010Prop45
280
     0
102
RTVSPost2010PropOp45
 70
     1
102
RTVSPost2010Prop46
 90
       50
102
RTVSPost2010PropOp46
 70
     1
102
RTVSPost2010Prop47
 90
       50
102
RTVSPost2010PropOp47
 70
     1
102
RTVSPost2010Prop48
 90
       50
102
RTVSPost2010PropOp48
 70
     1
102
RTVSPost2010Prop49
280
     0
102
RTVSPost2010PropOp49
 70
     1
102
RTVSPost2010Prop50
 90
       50
102
RTVSPost2010PropOp50
 70
     1
102
RTVSPost2010Prop51ColorIndex
 90
      256
102
RTVSPost2010Prop51ColorRGB
 90
-16777216
102
RTVSPost2010PropOp51
 70
     0
102
RTVSPost2010Prop52
140
1.0
102
RTVSPost2010PropOp52
 70
     0
102
RTVSPost2010Prop53
 90
        2
102
RTVSPost2010PropOp53
 70
     1
102
RTVSPost2010Prop54
  1
strokes_ogs.tif
102
RTVSPost2010PropOp54
 70
     1
102
RTVSPost2010Prop55
280
     0
102
RTVSPost2010PropOp55
 70
     1
102
RTVSPost2010Prop56
140
1.0
102
RTVSPost2010PropOp56
 70
     1
102
RTVSPost2010Prop57
140
1.0
102
RTVSPost2010PropOp57
 70
     1
102
RTVSPropertyOp0
 70
     1
102
RTVSPropertyOp1
 70
     1
102
RTVSPropertyOp2
 70
     1
102
RTVSPropertyOp3
 70
     1
102
RTVSPropertyOp4
 70
     1
102
RTVSPropertyOp5
 70
     1
102
RTVSPropertyOp6
 70
     1
102
RTVSPropertyOp7
 70
     1
102
RTVSPropertyOp8
 70
     1
102
RTVSPropertyOp9
 70
     1
102
RTVSPropertyOp10
 70
     1
102
RTVSPropertyOp11
 70
     1
102
RTVSPropertyOp12
 70
     1
102
RTVSPropertyOp13
 70
     1
102
RTVSPropertyOp14
 70
     1
102
RTVSPropertyOp15
 70
     1
102
RTVSPropertyOp16
 70
     1
102
RTVSPropertyOp17
 70
     1
102
RTVSPropertyOp18
 70
     1
102
RTVSPropertyOp19
 70
     1
102
RTVSPropertyOp20
 70
     1
102
RTVSPropertyOp21
 70
     1
102
RTVSPropertyOp22
 70
     1
102
RTVSPropertyOp23
 70
     1
102
RTVSPropertyOp24
 70
     1
102
RTVSPropertyOp25
 70
     1
102
RTVSPropertyOp26
 70
     1
102
RTVSPropertyOp27
 70
     1
102
RTVSPropertyOp28
 70
     1
102
RTVSPropertyOp29
 70
     1
102
RTVSPropertyOp30
 70
     1
102
RTVSPropertyOp31
 70
     1
102
RTVSPropertyOp32
 70
     1
102
RTVSPropertyOp33
 70
     1
102
RTVSPropertyOp34
 70
     1
102
RTVSPropertyOp35
 70
     1
102
RTVSPropertyOp36
 70
     1
102
RTVSPropertyOp37
 70
     1
102
RTVSPropertyOp38
 70
     1
102
RTVSPropertyOp39
 70
     1
102
RTVSPropertyOp40
 70
     1
102
RTVSPropertyOp41
 70
     1
102
RTVSPropertyOp42
 70
     1
102
RTVSPropertyOp43
 70
     1
102
RTVSPropertyOp44
 70
     1
102
RTVSPropertyOp45
 70
     1
102
RTVSPropertyOp46
 70
     1
102
RTVSPropertyOp47
 70
     1
102
RTVSPropertyOp48
 70
     1
102
RTVSPropertyOp49
 70
     1
102
RTVSPropertyOp50
 70
     1
102
RTVSPropertyOp51
 70
     0
102
RTVSPropertyOp52
 70
     0
102
RTVSPropertyOp53
 70
     1
102
RTVSPropertyOp54
 70
     1
102
RTVSPropertyOp55
 70
     1
102
RTVSPropertyOp56
 70
     1
102
RTVSPropertyOp57
 70
     1
102
RTVSPropertyOp58
 70
     1
102
RTVSPropertyOp59
 70
     1
102
RTVSPropertyOp60
 70
     1
102
RTVSPropertyOp61
 70
     1
102
RTVSPropertyOp62
 70
     1
  0
XRECORD
  5
5FB
102
{ACAD_REACTORS
330
5FA
102
}
330
5FA
100
AcDbXrecord
280
     1
102
RTVSPost2010Prop28
280
     0
102
RTVSPost2010PropOp28
 70
     1
102
RTVSPost2010Prop29
280
     1
102
RTVSPost2010PropOp29
 70
     1
102
RTVSPost2010Prop30
280
     1
102
RTVSPost2010PropOp30
 70
     1
102
RTVSPost2010Prop31
280
     0
102
RTVSPost2010PropOp31
 70
     1
102
RTVSPost2010Prop32
280
     0
102
RTVSPost2010PropOp32
 70
     1
102
RTVSPost2010Prop33
280
     0
102
RTVSPost2010PropOp33
 70
     1
102
RTVSPost2010Prop34
280
     0
102
RTVSPost2010PropOp34
 70
     1
102
RTVSPost2010Prop35
280
     0
102
RTVSPost2010PropOp35
 70
     1
102
RTVSPost2010Prop36
280
     0
102
RTVSPost2010PropOp36
 70
     1
102
RTVSPost2010Prop37
 90
       50
102
RTVSPost2010PropOp37
 70
     1
102
RTVSPost2010Prop38
140
0.0
102
RTVSPost2010PropOp38
 70
     1
102
RTVSPost2010Prop39
140
1.0
102
RTVSPost2010PropOp39
 70
     1
102
RTVSPost2010Prop40
 90
        0
102
RTVSPost2010PropOp40
 70
     1
102
RTVSPost2010Prop41ColorIndex
 90
       18
102
RTVSPost2010Prop41ColorRGB
 90
        0
102
RTVSPost2010PropOp41
 70
     1
102
RTVSPost2010Prop42
 90
       50
102
RTVSPost2010PropOp42
 70
     1
102
RTVSPost2010Prop43
 90
        3
102
RTVSPost2010PropOp43
 70
     1
102
RTVSPost2010Prop44ColorIndex
 90
        5
102
RTVSPost2010Prop44ColorRGB
 90
      255
102
RTVSPost2010PropOp44
 70
     1
102
RTVSPost2010Prop45
280
     0
102
RTVSPost2010PropOp45
 70
     1
102
RTVSPost2010Prop46
 90
       50
102
RTVSPost2010PropOp46
 70
     1
102
RTVSPost2010Prop47
 90
       50
102
RTVSPost2010PropOp47
 70
     1
102
RTVSPost2010Prop48
 90
       50
102
RTVSPost2010PropOp48
 70
     1
102
RTVSPost2010Prop49
280
     0
102
RTVSPost2010PropOp49
 70
     1
102
RTVSPost2010Prop50
 90
       50
102
RTVSPost2010PropOp50
 70
     1
102
RTVSPost2010Prop51ColorIndex
 90
      256
102
RTVSPost2010Prop51ColorRGB
 90
-16777216
102
RTVSPost2010PropOp51
 70
     0
102
RTVSPost2010Prop52
140
1.0
102
RTVSPost2010PropOp52
 70
     0
102
RTVSPost2010Prop53
 90
        2
102
RTVSPost2010PropOp53
 70
     1
102
RTVSPost2010Prop54
  1
strokes_ogs.tif
102
RTVSPost2010PropOp54
 70
     1
102
RTVSPost2010Prop55
280
     0
102
RTVSPost2010PropOp55
 70
     1
102
RTVSPost2010Prop56
140
1.0
102
RTVSPost2010PropOp56
 70
     1
102
RTVSPost2010Prop57
140
1.0
102
RTVSPost2010PropOp57
 70
     1
102
RTVSPropertyOp0
 70
     1
102
RTVSPropertyOp1
 70
     1
102
RTVSPropertyOp2
 70
     1
102
RTVSPropertyOp3
 70
     1
102
RTVSPropertyOp4
 70
     1
102
RTVSPropertyOp5
 70
     1
102
RTVSPropertyOp6
 70
     1
102
RTVSPropertyOp7
 70
     1
102
RTVSPropertyOp8
 70
     1
102
RTVSPropertyOp9
 70
     1
102
RTVSPropertyOp10
 70
     1
102
RTVSPropertyOp11
 70
     1
102
RTVSPropertyOp12
 70
     1
102
RTVSPropertyOp13
 70
     1
102
RTVSPropertyOp14
 70
     1
102
RTVSPropertyOp15
 70
     1
102
RTVSPropertyOp16
 70
     1
102
RTVSPropertyOp17
 70
     1
102
RTVSPropertyOp18
 70
     1
102
RTVSPropertyOp19
 70
     1
102
RTVSPropertyOp20
 70
     1
102
RTVSPropertyOp21
 70
     1
102
RTVSPropertyOp22
 70
     1
102
RTVSPropertyOp23
 70
     1
102
RTVSPropertyOp24
 70
     1
102
RTVSPropertyOp25
 70
     1
102
RTVSPropertyOp26
 70
     1
102
RTVSPropertyOp27
 70
     1
102
RTVSPropertyOp28
 70
     1
102
RTVSPropertyOp29
 70
     1
102
RTVSPropertyOp30
 70
     1
102
RTVSPropertyOp31
 70
     1
102
RTVSPropertyOp32
 70
     1
102
RTVSPropertyOp33
 70
     1
102
RTVSPropertyOp34
 70
     1
102
RTVSPropertyOp35
 70
     1
102
RTVSPropertyOp36
 70
     1
102
RTVSPropertyOp37
 70
     1
102
RTVSPropertyOp38
 70
     1
102
RTVSPropertyOp39
 70
     1
102
RTVSPropertyOp40
 70
     1
102
RTVSPropertyOp41
 70
     1
102
RTVSPropertyOp42
 70
     1
102
RTVSPropertyOp43
 70
     1
102
RTVSPropertyOp44
 70
     1
102
RTVSPropertyOp45
 70
     1
102
RTVSPropertyOp46
 70
     1
102
RTVSPropertyOp47
 70
     1
102
RTVSPropertyOp48
 70
     1
102
RTVSPropertyOp49
 70
     1
102
RTVSPropertyOp50
 70
     1
102
RTVSPropertyOp51
 70
     0
102
RTVSPropertyOp52
 70
     0
102
RTVSPropertyOp53
 70
     1
102
RTVSPropertyOp54
 70
     1
102
RTVSPropertyOp55
 70
     1
102
RTVSPropertyOp56
 70
     1
102
RTVSPropertyOp57
 70
     1
102
RTVSPropertyOp58
 70
     1
102
RTVSPropertyOp59
 70
     1
102
RTVSPropertyOp60
 70
     1
102
RTVSPropertyOp61
 70
     1
102
RTVSPropertyOp62
 70
     1
  0
XRECORD
  5
5FD
102
{ACAD_REACTORS
330
5FC
102
}
330
5FC
100
AcDbXrecord
280
     1
102
RTVSPost2010Prop28
280
     0
102
RTVSPost2010PropOp28
 70
     1
102
RTVSPost2010Prop29
280
     1
102
RTVSPost2010PropOp29
 70
     1
102
RTVSPost2010Prop30
280
     1
102
RTVSPost2010PropOp30
 70
     1
102
RTVSPost2010Prop31
280
     0
102
RTVSPost2010PropOp31
 70
     1
102
RTVSPost2010Prop32
280
     0
102
RTVSPost2010PropOp32
 70
     1
102
RTVSPost2010Prop33
280
     0
102
RTVSPost2010PropOp33
 70
     1
102
RTVSPost2010Prop34
280
     0
102
RTVSPost2010PropOp34
 70
     1
102
RTVSPost2010Prop35
280
     0
102
RTVSPost2010PropOp35
 70
     1
102
RTVSPost2010Prop36
280
     0
102
RTVSPost2010PropOp36
 70
     1
102
RTVSPost2010Prop37
 90
       50
102
RTVSPost2010PropOp37
 70
     1
102
RTVSPost2010Prop38
140
0.0
102
RTVSPost2010PropOp38
 70
     1
102
RTVSPost2010Prop39
140
1.0
102
RTVSPost2010PropOp39
 70
     1
102
RTVSPost2010Prop40
 90
        0
102
RTVSPost2010PropOp40
 70
     1
102
RTVSPost2010Prop41ColorIndex
 90
       18
102
RTVSPost2010Prop41ColorRGB
 90
        0
102
RTVSPost2010PropOp41
 70
     1
102
RTVSPost2010Prop42
 90
       50
102
RTVSPost2010PropOp42
 70
     1
102
RTVSPost2010Prop43
 90
        3
102
RTVSPost2010PropOp43
 70
     1
102
RTVSPost2010Prop44ColorIndex
 90
        5
102
RTVSPost2010Prop44ColorRGB
 90
      255
102
RTVSPost2010PropOp44
 70
     1
102
RTVSPost2010Prop45
280
     0
102
RTVSPost2010PropOp45
 70
     1
102
RTVSPost2010Prop46
 90
       50
102
RTVSPost2010PropOp46
 70
     1
102
RTVSPost2010Prop47
 90
       50
102
RTVSPost2010PropOp47
 70
     1
102
RTVSPost2010Prop48
 90
       50
102
RTVSPost2010PropOp48
 70
     1
102
RTVSPost2010Prop49
280
     0
102
RTVSPost2010PropOp49
 70
     1
102
RTVSPost2010Prop50
 90
       50
102
RTVSPost2010PropOp50
 70
     1
102
RTVSPost2010Prop51ColorIndex
 90
      256
102
RTVSPost2010Prop51ColorRGB
 90
-16777216
102
RTVSPost2010PropOp51
 70
     0
102
RTVSPost2010Prop52
140
1.0
102
RTVSPost2010PropOp52
 70
     0
102
RTVSPost2010Prop53
 90
        2
102
RTVSPost2010PropOp53
 70
     1
102
RTVSPost2010Prop54
  1
strokes_ogs.tif
102
RTVSPost2010PropOp54
 70
     1
102
RTVSPost2010Prop55
280
     0
102
RTVSPost2010PropOp55
 70
     1
102
RTVSPost2010Prop56
140
1.0
102
RTVSPost2010PropOp56
 70
     1
102
RTVSPost2010Prop57
140
1.0
102
RTVSPost2010PropOp57
 70
     1
102
RTVSPropertyOp0
 70
     1
102
RTVSPropertyOp1
 70
     1
102
RTVSPropertyOp2
 70
     1
102
RTVSPropertyOp3
 70
     1
102
RTVSPropertyOp4
 70
     1
102
RTVSPropertyOp5
 70
     1
102
RTVSPropertyOp6
 70
     1
102
RTVSPropertyOp7
 70
     1
102
RTVSPropertyOp8
 70
     1
102
RTVSPropertyOp9
 70
     1
102
RTVSPropertyOp10
 70
     1
102
RTVSPropertyOp11
 70
     1
102
RTVSPropertyOp12
 70
     1
102
RTVSPropertyOp13
 70
     1
102
RTVSPropertyOp14
 70
     1
102
RTVSPropertyOp15
 70
     1
102
RTVSPropertyOp16
 70
     1
102
RTVSPropertyOp17
 70
     1
102
RTVSPropertyOp18
 70
     1
102
RTVSPropertyOp19
 70
     1
102
RTVSPropertyOp20
 70
     1
102
RTVSPropertyOp21
 70
     1
102
RTVSPropertyOp22
 70
     1
102
RTVSPropertyOp23
 70
     1
102
RTVSPropertyOp24
 70
     1
102
RTVSPropertyOp25
 70
     1
102
RTVSPropertyOp26
 70
     1
102
RTVSPropertyOp27
 70
     1
102
RTVSPropertyOp28
 70
     1
102
RTVSPropertyOp29
 70
     1
102
RTVSPropertyOp30
 70
     1
102
RTVSPropertyOp31
 70
     1
102
RTVSPropertyOp32
 70
     1
102
RTVSPropertyOp33
 70
     1
102
RTVSPropertyOp34
 70
     1
102
RTVSPropertyOp35
 70
     1
102
RTVSPropertyOp36
 70
     1
102
RTVSPropertyOp37
 70
     1
102
RTVSPropertyOp38
 70
     1
102
RTVSPropertyOp39
 70
     1
102
RTVSPropertyOp40
 70
     1
102
RTVSPropertyOp41
 70
     1
102
RTVSPropertyOp42
 70
     1
102
RTVSPropertyOp43
 70
     1
102
RTVSPropertyOp44
 70
     1
102
RTVSPropertyOp45
 70
     1
102
RTVSPropertyOp46
 70
     1
102
RTVSPropertyOp47
 70
     1
102
RTVSPropertyOp48
 70
     1
102
RTVSPropertyOp49
 70
     1
102
RTVSPropertyOp50
 70
     1
102
RTVSPropertyOp51
 70
     0
102
RTVSPropertyOp52
 70
     0
102
RTVSPropertyOp53
 70
     1
102
RTVSPropertyOp54
 70
     1
102
RTVSPropertyOp55
 70
     1
102
RTVSPropertyOp56
 70
     1
102
RTVSPropertyOp57
 70
     1
102
RTVSPropertyOp58
 70
     1
102
RTVSPropertyOp59
 70
     1
102
RTVSPropertyOp60
 70
     1
102
RTVSPropertyOp61
 70
     1
102
RTVSPropertyOp62
 70
     1
  0
XRECORD
  5
5FF
102
{ACAD_REACTORS
330
5FE
102
}
330
5FE
100
AcDbXrecord
280
     1
102
RTVSPost2010Prop28
280
     0
102
RTVSPost2010PropOp28
 70
     1
102
RTVSPost2010Prop29
280
     1
102
RTVSPost2010PropOp29
 70
     1
102
RTVSPost2010Prop30
280
     1
102
RTVSPost2010PropOp30
 70
     1
102
RTVSPost2010Prop31
280
     0
102
RTVSPost2010PropOp31
 70
     1
102
RTVSPost2010Prop32
280
     0
102
RTVSPost2010PropOp32
 70
     1
102
RTVSPost2010Prop33
280
     0
102
RTVSPost2010PropOp33
 70
     1
102
RTVSPost2010Prop34
280
     0
102
RTVSPost2010PropOp34
 70
     1
102
RTVSPost2010Prop35
280
     0
102
RTVSPost2010PropOp35
 70
     1
102
RTVSPost2010Prop36
280
     0
102
RTVSPost2010PropOp36
 70
     1
102
RTVSPost2010Prop37
 90
       50
102
RTVSPost2010PropOp37
 70
     1
102
RTVSPost2010Prop38
140
0.0
102
RTVSPost2010PropOp38
 70
     1
102
RTVSPost2010Prop39
140
1.0
102
RTVSPost2010PropOp39
 70
     1
102
RTVSPost2010Prop40
 90
        0
102
RTVSPost2010PropOp40
 70
     1
102
RTVSPost2010Prop41ColorIndex
 90
       18
102
RTVSPost2010Prop41ColorRGB
 90
        0
102
RTVSPost2010PropOp41
 70
     1
102
RTVSPost2010Prop42
 90
       50
102
RTVSPost2010PropOp42
 70
     1
102
RTVSPost2010Prop43
 90
        3
102
RTVSPost2010PropOp43
 70
     1
102
RTVSPost2010Prop44ColorIndex
 90
        5
102
RTVSPost2010Prop44ColorRGB
 90
      255
102
RTVSPost2010PropOp44
 70
     1
102
RTVSPost2010Prop45
280
     0
102
RTVSPost2010PropOp45
 70
     1
102
RTVSPost2010Prop46
 90
       50
102
RTVSPost2010PropOp46
 70
     1
102
RTVSPost2010Prop47
 90
       50
102
RTVSPost2010PropOp47
 70
     1
102
RTVSPost2010Prop48
 90
       50
102
RTVSPost2010PropOp48
 70
     1
102
RTVSPost2010Prop49
280
     0
102
RTVSPost2010PropOp49
 70
     1
102
RTVSPost2010Prop50
 90
       50
102
RTVSPost2010PropOp50
 70
     1
102
RTVSPost2010Prop51ColorIndex
 90
      256
102
RTVSPost2010Prop51ColorRGB
 90
-16777216
102
RTVSPost2010PropOp51
 70
     0
102
RTVSPost2010Prop52
140
1.0
102
RTVSPost2010PropOp52
 70
     0
102
RTVSPost2010Prop53
 90
        2
102
RTVSPost2010PropOp53
 70
     1
102
RTVSPost2010Prop54
  1
strokes_ogs.tif
102
RTVSPost2010PropOp54
 70
     1
102
RTVSPost2010Prop55
280
     0
102
RTVSPost2010PropOp55
 70
     1
102
RTVSPost2010Prop56
140
1.0
102
RTVSPost2010PropOp56
 70
     1
102
RTVSPost2010Prop57
140
1.0
102
RTVSPost2010PropOp57
 70
     1
102
RTVSPropertyOp0
 70
     1
102
RTVSPropertyOp1
 70
     1
102
RTVSPropertyOp2
 70
     1
102
RTVSPropertyOp3
 70
     1
102
RTVSPropertyOp4
 70
     1
102
RTVSPropertyOp5
 70
     1
102
RTVSPropertyOp6
 70
     1
102
RTVSPropertyOp7
 70
     1
102
RTVSPropertyOp8
 70
     1
102
RTVSPropertyOp9
 70
     1
102
RTVSPropertyOp10
 70
     1
102
RTVSPropertyOp11
 70
     1
102
RTVSPropertyOp12
 70
     1
102
RTVSPropertyOp13
 70
     1
102
RTVSPropertyOp14
 70
     1
102
RTVSPropertyOp15
 70
     1
102
RTVSPropertyOp16
 70
     1
102
RTVSPropertyOp17
 70
     1
102
RTVSPropertyOp18
 70
     1
102
RTVSPropertyOp19
 70
     1
102
RTVSPropertyOp20
 70
     1
102
RTVSPropertyOp21
 70
     1
102
RTVSPropertyOp22
 70
     1
102
RTVSPropertyOp23
 70
     1
102
RTVSPropertyOp24
 70
     1
102
RTVSPropertyOp25
 70
     1
102
RTVSPropertyOp26
 70
     1
102
RTVSPropertyOp27
 70
     1
102
RTVSPropertyOp28
 70
     1
102
RTVSPropertyOp29
 70
     1
102
RTVSPropertyOp30
 70
     1
102
RTVSPropertyOp31
 70
     1
102
RTVSPropertyOp32
 70
     1
102
RTVSPropertyOp33
 70
     1
102
RTVSPropertyOp34
 70
     1
102
RTVSPropertyOp35
 70
     1
102
RTVSPropertyOp36
 70
     1
102
RTVSPropertyOp37
 70
     1
102
RTVSPropertyOp38
 70
     1
102
RTVSPropertyOp39
 70
     1
102
RTVSPropertyOp40
 70
     1
102
RTVSPropertyOp41
 70
     1
102
RTVSPropertyOp42
 70
     1
102
RTVSPropertyOp43
 70
     1
102
RTVSPropertyOp44
 70
     1
102
RTVSPropertyOp45
 70
     1
102
RTVSPropertyOp46
 70
     1
102
RTVSPropertyOp47
 70
     1
102
RTVSPropertyOp48
 70
     1
102
RTVSPropertyOp49
 70
     1
102
RTVSPropertyOp50
 70
     1
102
RTVSPropertyOp51
 70
     0
102
RTVSPropertyOp52
 70
     0
102
RTVSPropertyOp53
 70
     1
102
RTVSPropertyOp54
 70
     1
102
RTVSPropertyOp55
 70
     1
102
RTVSPropertyOp56
 70
     1
102
RTVSPropertyOp57
 70
     1
102
RTVSPropertyOp58
 70
     1
102
RTVSPropertyOp59
 70
     1
102
RTVSPropertyOp60
 70
     1
102
RTVSPropertyOp61
 70
     1
102
RTVSPropertyOp62
 70
     1
  0
XRECORD
  5
607
102
{ACAD_REACTORS
330
606
102
}
330
606
100
AcDbXrecord
280
     1
102
RTVSPost2010Prop28
280
     0
102
RTVSPost2010PropOp28
 70
     1
102
RTVSPost2010Prop29
280
     1
102
RTVSPost2010PropOp29
 70
     1
102
RTVSPost2010Prop30
280
     1
102
RTVSPost2010PropOp30
 70
     1
102
RTVSPost2010Prop31
280
     0
102
RTVSPost2010PropOp31
 70
     1
102
RTVSPost2010Prop32
280
     0
102
RTVSPost2010PropOp32
 70
     1
102
RTVSPost2010Prop33
280
     0
102
RTVSPost2010PropOp33
 70
     1
102
RTVSPost2010Prop34
280
     0
102
RTVSPost2010PropOp34
 70
     1
102
RTVSPost2010Prop35
280
     0
102
RTVSPost2010PropOp35
 70
     1
102
RTVSPost2010Prop36
280
     0
102
RTVSPost2010PropOp36
 70
     1
102
RTVSPost2010Prop37
 90
       50
102
RTVSPost2010PropOp37
 70
     1
102
RTVSPost2010Prop38
140
0.0
102
RTVSPost2010PropOp38
 70
     1
102
RTVSPost2010Prop39
140
1.0
102
RTVSPost2010PropOp39
 70
     1
102
RTVSPost2010Prop40
 90
        0
102
RTVSPost2010PropOp40
 70
     1
102
RTVSPost2010Prop41ColorIndex
 90
       18
102
RTVSPost2010Prop41ColorRGB
 90
        0
102
RTVSPost2010PropOp41
 70
     1
102
RTVSPost2010Prop42
 90
       50
102
RTVSPost2010PropOp42
 70
     1
102
RTVSPost2010Prop43
 90
        3
102
RTVSPost2010PropOp43
 70
     1
102
RTVSPost2010Prop44ColorIndex
 90
        5
102
RTVSPost2010Prop44ColorRGB
 90
      255
102
RTVSPost2010PropOp44
 70
     1
102
RTVSPost2010Prop45
280
     0
102
RTVSPost2010PropOp45
 70
     1
102
RTVSPost2010Prop46
 90
       50
102
RTVSPost2010PropOp46
 70
     1
102
RTVSPost2010Prop47
 90
       50
102
RTVSPost2010PropOp47
 70
     1
102
RTVSPost2010Prop48
 90
       50
102
RTVSPost2010PropOp48
 70
     1
102
RTVSPost2010Prop49
280
     0
102
RTVSPost2010PropOp49
 70
     1
102
RTVSPost2010Prop50
 90
       50
102
RTVSPost2010PropOp50
 70
     1
102
RTVSPost2010Prop51ColorIndex
 90
      256
102
RTVSPost2010Prop51ColorRGB
 90
-16777216
102
RTVSPost2010PropOp51
 70
     0
102
RTVSPost2010Prop52
140
1.0
102
RTVSPost2010PropOp52
 70
     0
102
RTVSPost2010Prop53
 90
        2
102
RTVSPost2010PropOp53
 70
     1
102
RTVSPost2010Prop54
  1
strokes_ogs.tif
102
RTVSPost2010PropOp54
 70
     1
102
RTVSPost2010Prop55
280
     0
102
RTVSPost2010PropOp55
 70
     1
102
RTVSPost2010Prop56
140
1.0
102
RTVSPost2010PropOp56
 70
     1
102
RTVSPost2010Prop57
140
1.0
102
RTVSPost2010PropOp57
 70
     1
102
RTVSPropertyOp0
 70
     1
102
RTVSPropertyOp1
 70
     1
102
RTVSPropertyOp2
 70
     1
102
RTVSPropertyOp3
 70
     1
102
RTVSPropertyOp4
 70
     1
102
RTVSPropertyOp5
 70
     1
102
RTVSPropertyOp6
 70
     1
102
RTVSPropertyOp7
 70
     1
102
RTVSPropertyOp8
 70
     1
102
RTVSPropertyOp9
 70
     1
102
RTVSPropertyOp10
 70
     1
102
RTVSPropertyOp11
 70
     1
102
RTVSPropertyOp12
 70
     1
102
RTVSPropertyOp13
 70
     1
102
RTVSPropertyOp14
 70
     1
102
RTVSPropertyOp15
 70
     1
102
RTVSPropertyOp16
 70
     1
102
RTVSPropertyOp17
 70
     1
102
RTVSPropertyOp18
 70
     1
102
RTVSPropertyOp19
 70
     1
102
RTVSPropertyOp20
 70
     1
102
RTVSPropertyOp21
 70
     1
102
RTVSPropertyOp22
 70
     1
102
RTVSPropertyOp23
 70
     1
102
RTVSPropertyOp24
 70
     1
102
RTVSPropertyOp25
 70
     1
102
RTVSPropertyOp26
 70
     1
102
RTVSPropertyOp27
 70
     1
102
RTVSPropertyOp28
 70
     1
102
RTVSPropertyOp29
 70
     1
102
RTVSPropertyOp30
 70
     1
102
RTVSPropertyOp31
 70
     1
102
RTVSPropertyOp32
 70
     1
102
RTVSPropertyOp33
 70
     1
102
RTVSPropertyOp34
 70
     1
102
RTVSPropertyOp35
 70
     1
102
RTVSPropertyOp36
 70
     1
102
RTVSPropertyOp37
 70
     1
102
RTVSPropertyOp38
 70
     1
102
RTVSPropertyOp39
 70
     1
102
RTVSPropertyOp40
 70
     1
102
RTVSPropertyOp41
 70
     1
102
RTVSPropertyOp42
 70
     1
102
RTVSPropertyOp43
 70
     1
102
RTVSPropertyOp44
 70
     1
102
RTVSPropertyOp45
 70
     1
102
RTVSPropertyOp46
 70
     1
102
RTVSPropertyOp47
 70
     1
102
RTVSPropertyOp48
 70
     1
102
RTVSPropertyOp49
 70
     1
102
RTVSPropertyOp50
 70
     1
102
RTVSPropertyOp51
 70
     0
102
RTVSPropertyOp52
 70
     0
102
RTVSPropertyOp53
 70
     1
102
RTVSPropertyOp54
 70
     1
102
RTVSPropertyOp55
 70
     1
102
RTVSPropertyOp56
 70
     1
102
RTVSPropertyOp57
 70
     1
102
RTVSPropertyOp58
 70
     1
102
RTVSPropertyOp59
 70
     1
102
RTVSPropertyOp60
 70
     1
102
RTVSPropertyOp61
 70
     1
102
RTVSPropertyOp62
 70
     1
  0
XRECORD
  5
623
102
{ACAD_REACTORS
330
622
102
}
330
622
100
AcDbXrecord
280
     1
102
RTVSPost2010Prop28
280
     0
102
RTVSPost2010PropOp28
 70
     0
102
RTVSPost2010Prop29
280
     1
102
RTVSPost2010PropOp29
 70
     0
102
RTVSPost2010Prop30
280
     1
102
RTVSPost2010PropOp30
 70
     0
102
RTVSPost2010Prop31
280
     0
102
RTVSPost2010PropOp31
 70
     0
102
RTVSPost2010Prop32
280
     0
102
RTVSPost2010PropOp32
 70
     0
102
RTVSPost2010Prop33
280
     0
102
RTVSPost2010PropOp33
 70
     0
102
RTVSPost2010Prop34
280
     0
102
RTVSPost2010PropOp34
 70
     0
102
RTVSPost2010Prop35
280
     0
102
RTVSPost2010PropOp35
 70
     0
102
RTVSPost2010Prop36
280
     0
102
RTVSPost2010PropOp36
 70
     0
102
RTVSPost2010Prop37
 90
       50
102
RTVSPost2010PropOp37
 70
     0
102
RTVSPost2010Prop38
140
0.0
102
RTVSPost2010PropOp38
 70
     0
102
RTVSPost2010Prop39
140
1.0
102
RTVSPost2010PropOp39
 70
     0
102
RTVSPost2010Prop40
 90
        0
102
RTVSPost2010PropOp40
 70
     0
102
RTVSPost2010Prop41ColorIndex
 90
       18
102
RTVSPost2010Prop41ColorRGB
 90
        0
102
RTVSPost2010PropOp41
 70
     0
102
RTVSPost2010Prop42
 90
       50
102
RTVSPost2010PropOp42
 70
     0
102
RTVSPost2010Prop43
 90
        3
102
RTVSPost2010PropOp43
 70
     0
102
RTVSPost2010Prop44ColorIndex
 90
        5
102
RTVSPost2010Prop44ColorRGB
 90
      255
102
RTVSPost2010PropOp44
 70
     0
102
RTVSPost2010Prop45
280
     0
102
RTVSPost2010PropOp45
 70
     0
102
RTVSPost2010Prop46
 90
       50
102
RTVSPost2010PropOp46
 70
     0
102
RTVSPost2010Prop47
 90
       50
102
RTVSPost2010PropOp47
 70
     0
102
RTVSPost2010Prop48
 90
       50
102
RTVSPost2010PropOp48
 70
     0
102
RTVSPost2010Prop49
280
     0
102
RTVSPost2010PropOp49
 70
     0
102
RTVSPost2010Prop50
 90
       50
102
RTVSPost2010PropOp50
 70
     0
102
RTVSPost2010Prop51ColorIndex
 90
      256
102
RTVSPost2010Prop51ColorRGB
 90
-16777216
102
RTVSPost2010PropOp51
 70
     0
102
RTVSPost2010Prop52
140
1.0
102
RTVSPost2010PropOp52
 70
     0
102
RTVSPost2010Prop53
 90
        2
102
RTVSPost2010PropOp53
 70
     0
102
RTVSPost2010Prop54
  1
strokes_ogs.tif
102
RTVSPost2010PropOp54
 70
     0
102
RTVSPost2010Prop55
280
     0
102
RTVSPost2010PropOp55
 70
     0
102
RTVSPost2010Prop56
140
1.0
102
RTVSPost2010PropOp56
 70
     0
102
RTVSPost2010Prop57
140
1.0
102
RTVSPost2010PropOp57
 70
     0
102
RTVSPropertyOp0
 70
     0
102
RTVSPropertyOp1
 70
     0
102
RTVSPropertyOp2
 70
     0
102
RTVSPropertyOp3
 70
     0
102
RTVSPropertyOp4
 70
     0
102
RTVSPropertyOp5
 70
     0
102
RTVSPropertyOp6
 70
     0
102
RTVSPropertyOp7
 70
     0
102
RTVSPropertyOp8
 70
     0
102
RTVSPropertyOp9
 70
     0
102
RTVSPropertyOp10
 70
     0
102
RTVSPropertyOp11
 70
     0
102
RTVSPropertyOp12
 70
     0
102
RTVSPropertyOp13
 70
     0
102
RTVSPropertyOp14
 70
     2
102
RTVSPropertyOp15
 70
     0
102
RTVSPropertyOp16
 70
     0
102
RTVSPropertyOp17
 70
     0
102
RTVSPropertyOp18
 70
     0
102
RTVSPropertyOp19
 70
     0
102
RTVSPropertyOp20
 70
     0
102
RTVSPropertyOp21
 70
     0
102
RTVSPropertyOp22
 70
     0
102
RTVSPropertyOp23
 70
     0
102
RTVSPropertyOp24
 70
     0
102
RTVSPropertyOp25
 70
     0
102
RTVSPropertyOp26
 70
     0
102
RTVSPropertyOp27
 70
     0
102
RTVSPropertyOp28
 70
     0
102
RTVSPropertyOp29
 70
     0
102
RTVSPropertyOp30
 70
     0
102
RTVSPropertyOp31
 70
     0
102
RTVSPropertyOp32
 70
     0
102
RTVSPropertyOp33
 70
     0
102
RTVSPropertyOp34
 70
     0
102
RTVSPropertyOp35
 70
     0
102
RTVSPropertyOp36
 70
     0
102
RTVSPropertyOp37
 70
     0
102
RTVSPropertyOp38
 70
     0
102
RTVSPropertyOp39
 70
     0
102
RTVSPropertyOp40
 70
     0
102
RTVSPropertyOp41
 70
     0
102
RTVSPropertyOp42
 70
     0
102
RTVSPropertyOp43
 70
     0
102
RTVSPropertyOp44
 70
     0
102
RTVSPropertyOp45
 70
     0
102
RTVSPropertyOp46
 70
     0
102
RTVSPropertyOp47
 70
     0
102
RTVSPropertyOp48
 70
     0
102
RTVSPropertyOp49
 70
     0
102
RTVSPropertyOp50
 70
     0
102
RTVSPropertyOp51
 70
     0
102
RTVSPropertyOp52
 70
     0
102
RTVSPropertyOp53
 70
     0
102
RTVSPropertyOp54
 70
     0
102
RTVSPropertyOp55
 70
     0
102
RTVSPropertyOp56
 70
     0
102
RTVSPropertyOp57
 70
     0
102
RTVSPropertyOp58
 70
     0
102
RTVSPropertyOp59
 70
     0
102
RTVSPropertyOp60
 70
     0
102
RTVSPropertyOp61
 70
     0
102
RTVSPropertyOp62
 70
     0
  0
XRECORD
  5
613
102
{ACAD_REACTORS
330
612
102
}
330
612
100
AcDbXrecord
280
     1
102
RTVSPost2010Prop28
280
     0
102
RTVSPost2010PropOp28
 70
     1
102
RTVSPost2010Prop29
280
     1
102
RTVSPost2010PropOp29
 70
     1
102
RTVSPost2010Prop30
280
     1
102
RTVSPost2010PropOp30
 70
     1
102
RTVSPost2010Prop31
280
     0
102
RTVSPost2010PropOp31
 70
     1
102
RTVSPost2010Prop32
280
     0
102
RTVSPost2010PropOp32
 70
     1
102
RTVSPost2010Prop33
280
     0
102
RTVSPost2010PropOp33
 70
     1
102
RTVSPost2010Prop34
280
     0
102
RTVSPost2010PropOp34
 70
     1
102
RTVSPost2010Prop35
280
     0
102
RTVSPost2010PropOp35
 70
     1
102
RTVSPost2010Prop36
280
     0
102
RTVSPost2010PropOp36
 70
     1
102
RTVSPost2010Prop37
 90
       50
102
RTVSPost2010PropOp37
 70
     1
102
RTVSPost2010Prop38
140
0.0
102
RTVSPost2010PropOp38
 70
     1
102
RTVSPost2010Prop39
140
1.0
102
RTVSPost2010PropOp39
 70
     1
102
RTVSPost2010Prop40
 90
        0
102
RTVSPost2010PropOp40
 70
     1
102
RTVSPost2010Prop41ColorIndex
 90
       18
102
RTVSPost2010Prop41ColorRGB
 90
        0
102
RTVSPost2010PropOp41
 70
     1
102
RTVSPost2010Prop42
 90
       50
102
RTVSPost2010PropOp42
 70
     1
102
RTVSPost2010Prop43
 90
        3
102
RTVSPost2010PropOp43
 70
     1
102
RTVSPost2010Prop44ColorIndex
 90
        5
102
RTVSPost2010Prop44ColorRGB
 90
      255
102
RTVSPost2010PropOp44
 70
     1
102
RTVSPost2010Prop45
280
     0
102
RTVSPost2010PropOp45
 70
     1
102
RTVSPost2010Prop46
 90
       50
102
RTVSPost2010PropOp46
 70
     1
102
RTVSPost2010Prop47
 90
       50
102
RTVSPost2010PropOp47
 70
     1
102
RTVSPost2010Prop48
 90
       50
102
RTVSPost2010PropOp48
 70
     1
102
RTVSPost2010Prop49
280
     0
102
RTVSPost2010PropOp49
 70
     1
102
RTVSPost2010Prop50
 90
       50
102
RTVSPost2010PropOp50
 70
     1
102
RTVSPost2010Prop51ColorIndex
 90
      256
102
RTVSPost2010Prop51ColorRGB
 90
-16777216
102
RTVSPost2010PropOp51
 70
     0
102
RTVSPost2010Prop52
140
1.0
102
RTVSPost2010PropOp52
 70
     0
102
RTVSPost2010Prop53
 90
        2
102
RTVSPost2010PropOp53
 70
     1
102
RTVSPost2010Prop54
  1
strokes_ogs.tif
102
RTVSPost2010PropOp54
 70
     1
102
RTVSPost2010Prop55
280
     0
102
RTVSPost2010PropOp55
 70
     1
102
RTVSPost2010Prop56
140
1.0
102
RTVSPost2010PropOp56
 70
     1
102
RTVSPost2010Prop57
140
1.0
102
RTVSPost2010PropOp57
 70
     1
102
RTVSPropertyOp0
 70
     1
102
RTVSPropertyOp1
 70
     1
102
RTVSPropertyOp2
 70
     1
102
RTVSPropertyOp3
 70
     1
102
RTVSPropertyOp4
 70
     1
102
RTVSPropertyOp5
 70
     1
102
RTVSPropertyOp6
 70
     1
102
RTVSPropertyOp7
 70
     1
102
RTVSPropertyOp8
 70
     1
102
RTVSPropertyOp9
 70
     1
102
RTVSPropertyOp10
 70
     1
102
RTVSPropertyOp11
 70
     1
102
RTVSPropertyOp12
 70
     1
102
RTVSPropertyOp13
 70
     1
102
RTVSPropertyOp14
 70
     1
102
RTVSPropertyOp15
 70
     1
102
RTVSPropertyOp16
 70
     1
102
RTVSPropertyOp17
 70
     1
102
RTVSPropertyOp18
 70
     1
102
RTVSPropertyOp19
 70
     1
102
RTVSPropertyOp20
 70
     1
102
RTVSPropertyOp21
 70
     1
102
RTVSPropertyOp22
 70
     1
102
RTVSPropertyOp23
 70
     1
102
RTVSPropertyOp24
 70
     1
102
RTVSPropertyOp25
 70
     1
102
RTVSPropertyOp26
 70
     1
102
RTVSPropertyOp27
 70
     1
102
RTVSPropertyOp28
 70
     1
102
RTVSPropertyOp29
 70
     1
102
RTVSPropertyOp30
 70
     1
102
RTVSPropertyOp31
 70
     1
102
RTVSPropertyOp32
 70
     1
102
RTVSPropertyOp33
 70
     1
102
RTVSPropertyOp34
 70
     1
102
RTVSPropertyOp35
 70
     1
102
RTVSPropertyOp36
 70
     1
102
RTVSPropertyOp37
 70
     1
102
RTVSPropertyOp38
 70
     1
102
RTVSPropertyOp39
 70
     1
102
RTVSPropertyOp40
 70
     1
102
RTVSPropertyOp41
 70
     1
102
RTVSPropertyOp42
 70
     1
102
RTVSPropertyOp43
 70
     1
102
RTVSPropertyOp44
 70
     1
102
RTVSPropertyOp45
 70
     1
102
RTVSPropertyOp46
 70
     1
102
RTVSPropertyOp47
 70
     1
102
RTVSPropertyOp48
 70
     1
102
RTVSPropertyOp49
 70
     1
102
RTVSPropertyOp50
 70
     1
102
RTVSPropertyOp51
 70
     0
102
RTVSPropertyOp52
 70
     0
102
RTVSPropertyOp53
 70
     1
102
RTVSPropertyOp54
 70
     1
102
RTVSPropertyOp55
 70
     1
102
RTVSPropertyOp56
 70
     1
102
RTVSPropertyOp57
 70
     1
102
RTVSPropertyOp58
 70
     1
102
RTVSPropertyOp59
 70
     1
102
RTVSPropertyOp60
 70
     1
102
RTVSPropertyOp61
 70
     1
102
RTVSPropertyOp62
 70
     1
  0
XRECORD
  5
625
102
{ACAD_REACTORS
330
624
102
}
330
624
100
AcDbXrecord
280
     1
102
RTVSPost2010Prop28
280
     0
102
RTVSPost2010PropOp28
 70
     0
102
RTVSPost2010Prop29
280
     1
102
RTVSPost2010PropOp29
 70
     0
102
RTVSPost2010Prop30
280
     1
102
RTVSPost2010PropOp30
 70
     0
102
RTVSPost2010Prop31
280
     0
102
RTVSPost2010PropOp31
 70
     0
102
RTVSPost2010Prop32
280
     0
102
RTVSPost2010PropOp32
 70
     0
102
RTVSPost2010Prop33
280
     0
102
RTVSPost2010PropOp33
 70
     0
102
RTVSPost2010Prop34
280
     0
102
RTVSPost2010PropOp34
 70
     0
102
RTVSPost2010Prop35
280
     0
102
RTVSPost2010PropOp35
 70
     0
102
RTVSPost2010Prop36
280
     0
102
RTVSPost2010PropOp36
 70
     0
102
RTVSPost2010Prop37
 90
       50
102
RTVSPost2010PropOp37
 70
     0
102
RTVSPost2010Prop38
140
0.0
102
RTVSPost2010PropOp38
 70
     0
102
RTVSPost2010Prop39
140
1.0
102
RTVSPost2010PropOp39
 70
     0
102
RTVSPost2010Prop40
 90
        0
102
RTVSPost2010PropOp40
 70
     0
102
RTVSPost2010Prop41ColorIndex
 90
       18
102
RTVSPost2010Prop41ColorRGB
 90
        0
102
RTVSPost2010PropOp41
 70
     0
102
RTVSPost2010Prop42
 90
       50
102
RTVSPost2010PropOp42
 70
     0
102
RTVSPost2010Prop43
 90
        3
102
RTVSPost2010PropOp43
 70
     0
102
RTVSPost2010Prop44ColorIndex
 90
        5
102
RTVSPost2010Prop44ColorRGB
 90
      255
102
RTVSPost2010PropOp44
 70
     0
102
RTVSPost2010Prop45
280
     0
102
RTVSPost2010PropOp45
 70
     0
102
RTVSPost2010Prop46
 90
       50
102
RTVSPost2010PropOp46
 70
     0
102
RTVSPost2010Prop47
 90
       50
102
RTVSPost2010PropOp47
 70
     0
102
RTVSPost2010Prop48
 90
       50
102
RTVSPost2010PropOp48
 70
     0
102
RTVSPost2010Prop49
280
     0
102
RTVSPost2010PropOp49
 70
     0
102
RTVSPost2010Prop50
 90
       50
102
RTVSPost2010PropOp50
 70
     0
102
RTVSPost2010Prop51ColorIndex
 90
      256
102
RTVSPost2010Prop51ColorRGB
 90
-16777216
102
RTVSPost2010PropOp51
 70
     0
102
RTVSPost2010Prop52
140
1.0
102
RTVSPost2010PropOp52
 70
     0
102
RTVSPost2010Prop53
 90
        2
102
RTVSPost2010PropOp53
 70
     0
102
RTVSPost2010Prop54
  1
strokes_ogs.tif
102
RTVSPost2010PropOp54
 70
     0
102
RTVSPost2010Prop55
280
     0
102
RTVSPost2010PropOp55
 70
     0
102
RTVSPost2010Prop56
140
1.0
102
RTVSPost2010PropOp56
 70
     0
102
RTVSPost2010Prop57
140
1.0
102
RTVSPost2010PropOp57
 70
     0
102
RTVSPropertyOp0
 70
     0
102
RTVSPropertyOp1
 70
     0
102
RTVSPropertyOp2
 70
     0
102
RTVSPropertyOp3
 70
     0
102
RTVSPropertyOp4
 70
     0
102
RTVSPropertyOp5
 70
     0
102
RTVSPropertyOp6
 70
     0
102
RTVSPropertyOp7
 70
     0
102
RTVSPropertyOp8
 70
     0
102
RTVSPropertyOp9
 70
     0
102
RTVSPropertyOp10
 70
     0
102
RTVSPropertyOp11
 70
     0
102
RTVSPropertyOp12
 70
     0
102
RTVSPropertyOp13
 70
     0
102
RTVSPropertyOp14
 70
     2
102
RTVSPropertyOp15
 70
     0
102
RTVSPropertyOp16
 70
     0
102
RTVSPropertyOp17
 70
     0
102
RTVSPropertyOp18
 70
     0
102
RTVSPropertyOp19
 70
     0
102
RTVSPropertyOp20
 70
     0
102
RTVSPropertyOp21
 70
     0
102
RTVSPropertyOp22
 70
     0
102
RTVSPropertyOp23
 70
     0
102
RTVSPropertyOp24
 70
     0
102
RTVSPropertyOp25
 70
     0
102
RTVSPropertyOp26
 70
     0
102
RTVSPropertyOp27
 70
     0
102
RTVSPropertyOp28
 70
     0
102
RTVSPropertyOp29
 70
     0
102
RTVSPropertyOp30
 70
     0
102
RTVSPropertyOp31
 70
     0
102
RTVSPropertyOp32
 70
     0
102
RTVSPropertyOp33
 70
     0
102
RTVSPropertyOp34
 70
     0
102
RTVSPropertyOp35
 70
     0
102
RTVSPropertyOp36
 70
     0
102
RTVSPropertyOp37
 70
     0
102
RTVSPropertyOp38
 70
     0
102
RTVSPropertyOp39
 70
     0
102
RTVSPropertyOp40
 70
     0
102
RTVSPropertyOp41
 70
     0
102
RTVSPropertyOp42
 70
     0
102
RTVSPropertyOp43
 70
     0
102
RTVSPropertyOp44
 70
     0
102
RTVSPropertyOp45
 70
     0
102
RTVSPropertyOp46
 70
     0
102
RTVSPropertyOp47
 70
     0
102
RTVSPropertyOp48
 70
     0
102
RTVSPropertyOp49
 70
     0
102
RTVSPropertyOp50
 70
     0
102
RTVSPropertyOp51
 70
     0
102
RTVSPropertyOp52
 70
     0
102
RTVSPropertyOp53
 70
     0
102
RTVSPropertyOp54
 70
     0
102
RTVSPropertyOp55
 70
     0
102
RTVSPropertyOp56
 70
     0
102
RTVSPropertyOp57
 70
     0
102
RTVSPropertyOp58
 70
     0
102
RTVSPropertyOp59
 70
     0
102
RTVSPropertyOp60
 70
     0
102
RTVSPropertyOp61
 70
     0
102
RTVSPropertyOp62
 70
     0
  0
XRECORD
  5
60B
102
{ACAD_REACTORS
330
60A
102
}
330
60A
100
AcDbXrecord
280
     1
102
RTVSPost2010Prop28
280
     0
102
RTVSPost2010PropOp28
 70
     1
102
RTVSPost2010Prop29
280
     1
102
RTVSPost2010PropOp29
 70
     1
102
RTVSPost2010Prop30
280
     1
102
RTVSPost2010PropOp30
 70
     1
102
RTVSPost2010Prop31
280
     0
102
RTVSPost2010PropOp31
 70
     1
102
RTVSPost2010Prop32
280
     0
102
RTVSPost2010PropOp32
 70
     1
102
RTVSPost2010Prop33
280
     0
102
RTVSPost2010PropOp33
 70
     1
102
RTVSPost2010Prop34
280
     0
102
RTVSPost2010PropOp34
 70
     1
102
RTVSPost2010Prop35
280
     0
102
RTVSPost2010PropOp35
 70
     1
102
RTVSPost2010Prop36
280
     0
102
RTVSPost2010PropOp36
 70
     1
102
RTVSPost2010Prop37
 90
       50
102
RTVSPost2010PropOp37
 70
     1
102
RTVSPost2010Prop38
140
0.0
102
RTVSPost2010PropOp38
 70
     1
102
RTVSPost2010Prop39
140
1.0
102
RTVSPost2010PropOp39
 70
     1
102
RTVSPost2010Prop40
 90
        0
102
RTVSPost2010PropOp40
 70
     1
102
RTVSPost2010Prop41ColorIndex
 90
       18
102
RTVSPost2010Prop41ColorRGB
 90
        0
102
RTVSPost2010PropOp41
 70
     1
102
RTVSPost2010Prop42
 90
       50
102
RTVSPost2010PropOp42
 70
     1
102
RTVSPost2010Prop43
 90
        3
102
RTVSPost2010PropOp43
 70
     1
102
RTVSPost2010Prop44ColorIndex
 90
        5
102
RTVSPost2010Prop44ColorRGB
 90
      255
102
RTVSPost2010PropOp44
 70
     1
102
RTVSPost2010Prop45
280
     0
102
RTVSPost2010PropOp45
 70
     1
102
RTVSPost2010Prop46
 90
       50
102
RTVSPost2010PropOp46
 70
     1
102
RTVSPost2010Prop47
 90
       50
102
RTVSPost2010PropOp47
 70
     1
102
RTVSPost2010Prop48
 90
       50
102
RTVSPost2010PropOp48
 70
     1
102
RTVSPost2010Prop49
280
     0
102
RTVSPost2010PropOp49
 70
     1
102
RTVSPost2010Prop50
 90
       50
102
RTVSPost2010PropOp50
 70
     1
102
RTVSPost2010Prop51ColorIndex
 90
      256
102
RTVSPost2010Prop51ColorRGB
 90
-16777216
102
RTVSPost2010PropOp51
 70
     0
102
RTVSPost2010Prop52
140
1.0
102
RTVSPost2010PropOp52
 70
     0
102
RTVSPost2010Prop53
 90
        2
102
RTVSPost2010PropOp53
 70
     1
102
RTVSPost2010Prop54
  1
strokes_ogs.tif
102
RTVSPost2010PropOp54
 70
     1
102
RTVSPost2010Prop55
280
     0
102
RTVSPost2010PropOp55
 70
     1
102
RTVSPost2010Prop56
140
1.0
102
RTVSPost2010PropOp56
 70
     1
102
RTVSPost2010Prop57
140
1.0
102
RTVSPost2010PropOp57
 70
     1
102
RTVSPropertyOp0
 70
     1
102
RTVSPropertyOp1
 70
     1
102
RTVSPropertyOp2
 70
     1
102
RTVSPropertyOp3
 70
     1
102
RTVSPropertyOp4
 70
     1
102
RTVSPropertyOp5
 70
     1
102
RTVSPropertyOp6
 70
     1
102
RTVSPropertyOp7
 70
     1
102
RTVSPropertyOp8
 70
     1
102
RTVSPropertyOp9
 70
     1
102
RTVSPropertyOp10
 70
     1
102
RTVSPropertyOp11
 70
     1
102
RTVSPropertyOp12
 70
     1
102
RTVSPropertyOp13
 70
     1
102
RTVSPropertyOp14
 70
     1
102
RTVSPropertyOp15
 70
     1
102
RTVSPropertyOp16
 70
     1
102
RTVSPropertyOp17
 70
     1
102
RTVSPropertyOp18
 70
     1
102
RTVSPropertyOp19
 70
     1
102
RTVSPropertyOp20
 70
     1
102
RTVSPropertyOp21
 70
     1
102
RTVSPropertyOp22
 70
     1
102
RTVSPropertyOp23
 70
     1
102
RTVSPropertyOp24
 70
     1
102
RTVSPropertyOp25
 70
     1
102
RTVSPropertyOp26
 70
     1
102
RTVSPropertyOp27
 70
     1
102
RTVSPropertyOp28
 70
     1
102
RTVSPropertyOp29
 70
     1
102
RTVSPropertyOp30
 70
     1
102
RTVSPropertyOp31
 70
     1
102
RTVSPropertyOp32
 70
     1
102
RTVSPropertyOp33
 70
     1
102
RTVSPropertyOp34
 70
     1
102
RTVSPropertyOp35
 70
     1
102
RTVSPropertyOp36
 70
     1
102
RTVSPropertyOp37
 70
     1
102
RTVSPropertyOp38
 70
     1
102
RTVSPropertyOp39
 70
     1
102
RTVSPropertyOp40
 70
     1
102
RTVSPropertyOp41
 70
     1
102
RTVSPropertyOp42
 70
     1
102
RTVSPropertyOp43
 70
     1
102
RTVSPropertyOp44
 70
     1
102
RTVSPropertyOp45
 70
     1
102
RTVSPropertyOp46
 70
     1
102
RTVSPropertyOp47
 70
     1
102
RTVSPropertyOp48
 70
     1
102
RTVSPropertyOp49
 70
     1
102
RTVSPropertyOp50
 70
     1
102
RTVSPropertyOp51
 70
     0
102
RTVSPropertyOp52
 70
     0
102
RTVSPropertyOp53
 70
     1
102
RTVSPropertyOp54
 70
     1
102
RTVSPropertyOp55
 70
     1
102
RTVSPropertyOp56
 70
     1
102
RTVSPropertyOp57
 70
     1
102
RTVSPropertyOp58
 70
     1
102
RTVSPropertyOp59
 70
     1
102
RTVSPropertyOp60
 70
     1
102
RTVSPropertyOp61
 70
     1
102
RTVSPropertyOp62
 70
     1
  0
XRECORD
  5
621
102
{ACAD_REACTORS
330
620
102
}
330
620
100
AcDbXrecord
280
     1
102
RTVSPost2010Prop28
280
     0
102
RTVSPost2010PropOp28
 70
     1
102
RTVSPost2010Prop29
280
     1
102
RTVSPost2010PropOp29
 70
     1
102
RTVSPost2010Prop30
280
     1
102
RTVSPost2010PropOp30
 70
     1
102
RTVSPost2010Prop31
280
     0
102
RTVSPost2010PropOp31
 70
     1
102
RTVSPost2010Prop32
280
     0
102
RTVSPost2010PropOp32
 70
     1
102
RTVSPost2010Prop33
280
     0
102
RTVSPost2010PropOp33
 70
     1
102
RTVSPost2010Prop34
280
     0
102
RTVSPost2010PropOp34
 70
     1
102
RTVSPost2010Prop35
280
     0
102
RTVSPost2010PropOp35
 70
     1
102
RTVSPost2010Prop36
280
     0
102
RTVSPost2010PropOp36
 70
     1
102
RTVSPost2010Prop37
 90
       50
102
RTVSPost2010PropOp37
 70
     1
102
RTVSPost2010Prop38
140
0.0
102
RTVSPost2010PropOp38
 70
     1
102
RTVSPost2010Prop39
140
1.0
102
RTVSPost2010PropOp39
 70
     1
102
RTVSPost2010Prop40
 90
        0
102
RTVSPost2010PropOp40
 70
     1
102
RTVSPost2010Prop41ColorIndex
 90
       18
102
RTVSPost2010Prop41ColorRGB
 90
        0
102
RTVSPost2010PropOp41
 70
     1
102
RTVSPost2010Prop42
 90
       50
102
RTVSPost2010PropOp42
 70
     1
102
RTVSPost2010Prop43
 90
        3
102
RTVSPost2010PropOp43
 70
     1
102
RTVSPost2010Prop44ColorIndex
 90
        5
102
RTVSPost2010Prop44ColorRGB
 90
      255
102
RTVSPost2010PropOp44
 70
     1
102
RTVSPost2010Prop45
280
     0
102
RTVSPost2010PropOp45
 70
     1
102
RTVSPost2010Prop46
 90
       50
102
RTVSPost2010PropOp46
 70
     1
102
RTVSPost2010Prop47
 90
       50
102
RTVSPost2010PropOp47
 70
     1
102
RTVSPost2010Prop48
 90
       50
102
RTVSPost2010PropOp48
 70
     1
102
RTVSPost2010Prop49
280
     0
102
RTVSPost2010PropOp49
 70
     1
102
RTVSPost2010Prop50
 90
       50
102
RTVSPost2010PropOp50
 70
     1
102
RTVSPost2010Prop51ColorIndex
 90
      256
102
RTVSPost2010Prop51ColorRGB
 90
-16777216
102
RTVSPost2010PropOp51
 70
     0
102
RTVSPost2010Prop52
140
1.0
102
RTVSPost2010PropOp52
 70
     0
102
RTVSPost2010Prop53
 90
        2
102
RTVSPost2010PropOp53
 70
     1
102
RTVSPost2010Prop54
  1
strokes_ogs.tif
102
RTVSPost2010PropOp54
 70
     1
102
RTVSPost2010Prop55
280
     0
102
RTVSPost2010PropOp55
 70
     1
102
RTVSPost2010Prop56
140
1.0
102
RTVSPost2010PropOp56
 70
     1
102
RTVSPost2010Prop57
140
1.0
102
RTVSPost2010PropOp57
 70
     1
102
RTVSPropertyOp0
 70
     1
102
RTVSPropertyOp1
 70
     1
102
RTVSPropertyOp2
 70
     1
102
RTVSPropertyOp3
 70
     1
102
RTVSPropertyOp4
 70
     1
102
RTVSPropertyOp5
 70
     1
102
RTVSPropertyOp6
 70
     1
102
RTVSPropertyOp7
 70
     1
102
RTVSPropertyOp8
 70
     1
102
RTVSPropertyOp9
 70
     1
102
RTVSPropertyOp10
 70
     1
102
RTVSPropertyOp11
 70
     1
102
RTVSPropertyOp12
 70
     1
102
RTVSPropertyOp13
 70
     1
102
RTVSPropertyOp14
 70
     1
102
RTVSPropertyOp15
 70
     1
102
RTVSPropertyOp16
 70
     1
102
RTVSPropertyOp17
 70
     1
102
RTVSPropertyOp18
 70
     1
102
RTVSPropertyOp19
 70
     1
102
RTVSPropertyOp20
 70
     1
102
RTVSPropertyOp21
 70
     1
102
RTVSPropertyOp22
 70
     1
102
RTVSPropertyOp23
 70
     1
102
RTVSPropertyOp24
 70
     1
102
RTVSPropertyOp25
 70
     1
102
RTVSPropertyOp26
 70
     1
102
RTVSPropertyOp27
 70
     1
102
RTVSPropertyOp28
 70
     1
102
RTVSPropertyOp29
 70
     1
102
RTVSPropertyOp30
 70
     1
102
RTVSPropertyOp31
 70
     1
102
RTVSPropertyOp32
 70
     1
102
RTVSPropertyOp33
 70
     1
102
RTVSPropertyOp34
 70
     1
102
RTVSPropertyOp35
 70
     1
102
RTVSPropertyOp36
 70
     1
102
RTVSPropertyOp37
 70
     1
102
RTVSPropertyOp38
 70
     1
102
RTVSPropertyOp39
 70
     1
102
RTVSPropertyOp40
 70
     1
102
RTVSPropertyOp41
 70
     1
102
RTVSPropertyOp42
 70
     1
102
RTVSPropertyOp43
 70
     1
102
RTVSPropertyOp44
 70
     1
102
RTVSPropertyOp45
 70
     1
102
RTVSPropertyOp46
 70
     1
102
RTVSPropertyOp47
 70
     1
102
RTVSPropertyOp48
 70
     1
102
RTVSPropertyOp49
 70
     1
102
RTVSPropertyOp50
 70
     1
102
RTVSPropertyOp51
 70
     0
102
RTVSPropertyOp52
 70
     0
102
RTVSPropertyOp53
 70
     1
102
RTVSPropertyOp54
 70
     1
102
RTVSPropertyOp55
 70
     1
102
RTVSPropertyOp56
 70
     1
102
RTVSPropertyOp57
 70
     1
102
RTVSPropertyOp58
 70
     1
102
RTVSPropertyOp59
 70
     1
102
RTVSPropertyOp60
 70
     1
102
RTVSPropertyOp61
 70
     1
102
RTVSPropertyOp62
 70
     1
  0
XRECORD
  5
61F
102
{ACAD_REACTORS
330
61E
102
}
330
61E
100
AcDbXrecord
280
     1
102
RTVSPost2010Prop28
280
     0
102
RTVSPost2010PropOp28
 70
     1
102
RTVSPost2010Prop29
280
     1
102
RTVSPost2010PropOp29
 70
     1
102
RTVSPost2010Prop30
280
     1
102
RTVSPost2010PropOp30
 70
     1
102
RTVSPost2010Prop31
280
     0
102
RTVSPost2010PropOp31
 70
     1
102
RTVSPost2010Prop32
280
     0
102
RTVSPost2010PropOp32
 70
     1
102
RTVSPost2010Prop33
280
     0
102
RTVSPost2010PropOp33
 70
     1
102
RTVSPost2010Prop34
280
     0
102
RTVSPost2010PropOp34
 70
     1
102
RTVSPost2010Prop35
280
     0
102
RTVSPost2010PropOp35
 70
     1
102
RTVSPost2010Prop36
280
     0
102
RTVSPost2010PropOp36
 70
     1
102
RTVSPost2010Prop37
 90
       50
102
RTVSPost2010PropOp37
 70
     1
102
RTVSPost2010Prop38
140
0.0
102
RTVSPost2010PropOp38
 70
     1
102
RTVSPost2010Prop39
140
1.0
102
RTVSPost2010PropOp39
 70
     1
102
RTVSPost2010Prop40
 90
        0
102
RTVSPost2010PropOp40
 70
     1
102
RTVSPost2010Prop41ColorIndex
 90
       18
102
RTVSPost2010Prop41ColorRGB
 90
        0
102
RTVSPost2010PropOp41
 70
     1
102
RTVSPost2010Prop42
 90
       50
102
RTVSPost2010PropOp42
 70
     1
102
RTVSPost2010Prop43
 90
        3
102
RTVSPost2010PropOp43
 70
     1
102
RTVSPost2010Prop44ColorIndex
 90
        5
102
RTVSPost2010Prop44ColorRGB
 90
      255
102
RTVSPost2010PropOp44
 70
     1
102
RTVSPost2010Prop45
280
     0
102
RTVSPost2010PropOp45
 70
     1
102
RTVSPost2010Prop46
 90
       50
102
RTVSPost2010PropOp46
 70
     1
102
RTVSPost2010Prop47
 90
       50
102
RTVSPost2010PropOp47
 70
     1
102
RTVSPost2010Prop48
 90
       50
102
RTVSPost2010PropOp48
 70
     1
102
RTVSPost2010Prop49
280
     0
102
RTVSPost2010PropOp49
 70
     1
102
RTVSPost2010Prop50
 90
       50
102
RTVSPost2010PropOp50
 70
     1
102
RTVSPost2010Prop51ColorIndex
 90
      256
102
RTVSPost2010Prop51ColorRGB
 90
-16777216
102
RTVSPost2010PropOp51
 70
     0
102
RTVSPost2010Prop52
140
1.0
102
RTVSPost2010PropOp52
 70
     0
102
RTVSPost2010Prop53
 90
        2
102
RTVSPost2010PropOp53
 70
     1
102
RTVSPost2010Prop54
  1
strokes_ogs.tif
102
RTVSPost2010PropOp54
 70
     1
102
RTVSPost2010Prop55
280
     0
102
RTVSPost2010PropOp55
 70
     1
102
RTVSPost2010Prop56
140
1.0
102
RTVSPost2010PropOp56
 70
     1
102
RTVSPost2010Prop57
140
1.0
102
RTVSPost2010PropOp57
 70
     1
102
RTVSPropertyOp0
 70
     1
102
RTVSPropertyOp1
 70
     1
102
RTVSPropertyOp2
 70
     1
102
RTVSPropertyOp3
 70
     1
102
RTVSPropertyOp4
 70
     1
102
RTVSPropertyOp5
 70
     1
102
RTVSPropertyOp6
 70
     1
102
RTVSPropertyOp7
 70
     1
102
RTVSPropertyOp8
 70
     1
102
RTVSPropertyOp9
 70
     1
102
RTVSPropertyOp10
 70
     1
102
RTVSPropertyOp11
 70
     1
102
RTVSPropertyOp12
 70
     1
102
RTVSPropertyOp13
 70
     1
102
RTVSPropertyOp14
 70
     1
102
RTVSPropertyOp15
 70
     1
102
RTVSPropertyOp16
 70
     1
102
RTVSPropertyOp17
 70
     1
102
RTVSPropertyOp18
 70
     1
102
RTVSPropertyOp19
 70
     1
102
RTVSPropertyOp20
 70
     1
102
RTVSPropertyOp21
 70
     1
102
RTVSPropertyOp22
 70
     1
102
RTVSPropertyOp23
 70
     1
102
RTVSPropertyOp24
 70
     1
102
RTVSPropertyOp25
 70
     1
102
RTVSPropertyOp26
 70
     1
102
RTVSPropertyOp27
 70
     1
102
RTVSPropertyOp28
 70
     1
102
RTVSPropertyOp29
 70
     1
102
RTVSPropertyOp30
 70
     1
102
RTVSPropertyOp31
 70
     1
102
RTVSPropertyOp32
 70
     1
102
RTVSPropertyOp33
 70
     1
102
RTVSPropertyOp34
 70
     1
102
RTVSPropertyOp35
 70
     1
102
RTVSPropertyOp36
 70
     1
102
RTVSPropertyOp37
 70
     1
102
RTVSPropertyOp38
 70
     1
102
RTVSPropertyOp39
 70
     1
102
RTVSPropertyOp40
 70
     1
102
RTVSPropertyOp41
 70
     1
102
RTVSPropertyOp42
 70
     1
102
RTVSPropertyOp43
 70
     1
102
RTVSPropertyOp44
 70
     1
102
RTVSPropertyOp45
 70
     1
102
RTVSPropertyOp46
 70
     1
102
RTVSPropertyOp47
 70
     1
102
RTVSPropertyOp48
 70
     1
102
RTVSPropertyOp49
 70
     1
102
RTVSPropertyOp50
 70
     1
102
RTVSPropertyOp51
 70
     0
102
RTVSPropertyOp52
 70
     0
102
RTVSPropertyOp53
 70
     1
102
RTVSPropertyOp54
 70
     1
102
RTVSPropertyOp55
 70
     1
102
RTVSPropertyOp56
 70
     1
102
RTVSPropertyOp57
 70
     1
102
RTVSPropertyOp58
 70
     1
102
RTVSPropertyOp59
 70
     1
102
RTVSPropertyOp60
 70
     1
102
RTVSPropertyOp61
 70
     1
102
RTVSPropertyOp62
 70
     1
  0
XRECORD
  5
619
102
{ACAD_REACTORS
330
618
102
}
330
618
100
AcDbXrecord
280
     1
102
RTVSPost2010Prop28
280
     0
102
RTVSPost2010PropOp28
 70
     1
102
RTVSPost2010Prop29
280
     1
102
RTVSPost2010PropOp29
 70
     1
102
RTVSPost2010Prop30
280
     1
102
RTVSPost2010PropOp30
 70
     1
102
RTVSPost2010Prop31
280
     0
102
RTVSPost2010PropOp31
 70
     1
102
RTVSPost2010Prop32
280
     0
102
RTVSPost2010PropOp32
 70
     1
102
RTVSPost2010Prop33
280
     0
102
RTVSPost2010PropOp33
 70
     1
102
RTVSPost2010Prop34
280
     0
102
RTVSPost2010PropOp34
 70
     1
102
RTVSPost2010Prop35
280
     0
102
RTVSPost2010PropOp35
 70
     1
102
RTVSPost2010Prop36
280
     0
102
RTVSPost2010PropOp36
 70
     1
102
RTVSPost2010Prop37
 90
       50
102
RTVSPost2010PropOp37
 70
     1
102
RTVSPost2010Prop38
140
0.0
102
RTVSPost2010PropOp38
 70
     1
102
RTVSPost2010Prop39
140
1.0
102
RTVSPost2010PropOp39
 70
     1
102
RTVSPost2010Prop40
 90
        0
102
RTVSPost2010PropOp40
 70
     1
102
RTVSPost2010Prop41ColorIndex
 90
       18
102
RTVSPost2010Prop41ColorRGB
 90
        0
102
RTVSPost2010PropOp41
 70
     1
102
RTVSPost2010Prop42
 90
       50
102
RTVSPost2010PropOp42
 70
     1
102
RTVSPost2010Prop43
 90
        3
102
RTVSPost2010PropOp43
 70
     1
102
RTVSPost2010Prop44ColorIndex
 90
        5
102
RTVSPost2010Prop44ColorRGB
 90
      255
102
RTVSPost2010PropOp44
 70
     1
102
RTVSPost2010Prop45
280
     0
102
RTVSPost2010PropOp45
 70
     1
102
RTVSPost2010Prop46
 90
       50
102
RTVSPost2010PropOp46
 70
     1
102
RTVSPost2010Prop47
 90
       50
102
RTVSPost2010PropOp47
 70
     1
102
RTVSPost2010Prop48
 90
       50
102
RTVSPost2010PropOp48
 70
     1
102
RTVSPost2010Prop49
280
     0
102
RTVSPost2010PropOp49
 70
     1
102
RTVSPost2010Prop50
 90
       50
102
RTVSPost2010PropOp50
 70
     1
102
RTVSPost2010Prop51ColorIndex
 90
      256
102
RTVSPost2010Prop51ColorRGB
 90
-16777216
102
RTVSPost2010PropOp51
 70
     0
102
RTVSPost2010Prop52
140
1.0
102
RTVSPost2010PropOp52
 70
     0
102
RTVSPost2010Prop53
 90
        2
102
RTVSPost2010PropOp53
 70
     1
102
RTVSPost2010Prop54
  1
strokes_ogs.tif
102
RTVSPost2010PropOp54
 70
     1
102
RTVSPost2010Prop55
280
     0
102
RTVSPost2010PropOp55
 70
     1
102
RTVSPost2010Prop56
140
1.0
102
RTVSPost2010PropOp56
 70
     1
102
RTVSPost2010Prop57
140
1.0
102
RTVSPost2010PropOp57
 70
     1
102
RTVSPropertyOp0
 70
     1
102
RTVSPropertyOp1
 70
     1
102
RTVSPropertyOp2
 70
     1
102
RTVSPropertyOp3
 70
     1
102
RTVSPropertyOp4
 70
     1
102
RTVSPropertyOp5
 70
     1
102
RTVSPropertyOp6
 70
     1
102
RTVSPropertyOp7
 70
     1
102
RTVSPropertyOp8
 70
     1
102
RTVSPropertyOp9
 70
     1
102
RTVSPropertyOp10
 70
     1
102
RTVSPropertyOp11
 70
     1
102
RTVSPropertyOp12
 70
     1
102
RTVSPropertyOp13
 70
     1
102
RTVSPropertyOp14
 70
     1
102
RTVSPropertyOp15
 70
     1
102
RTVSPropertyOp16
 70
     1
102
RTVSPropertyOp17
 70
     1
102
RTVSPropertyOp18
 70
     1
102
RTVSPropertyOp19
 70
     1
102
RTVSPropertyOp20
 70
     1
102
RTVSPropertyOp21
 70
     1
102
RTVSPropertyOp22
 70
     1
102
RTVSPropertyOp23
 70
     1
102
RTVSPropertyOp24
 70
     1
102
RTVSPropertyOp25
 70
     1
102
RTVSPropertyOp26
 70
     1
102
RTVSPropertyOp27
 70
     1
102
RTVSPropertyOp28
 70
     1
102
RTVSPropertyOp29
 70
     1
102
RTVSPropertyOp30
 70
     1
102
RTVSPropertyOp31
 70
     1
102
RTVSPropertyOp32
 70
     1
102
RTVSPropertyOp33
 70
     1
102
RTVSPropertyOp34
 70
     1
102
RTVSPropertyOp35
 70
     1
102
RTVSPropertyOp36
 70
     1
102
RTVSPropertyOp37
 70
     1
102
RTVSPropertyOp38
 70
     1
102
RTVSPropertyOp39
 70
     1
102
RTVSPropertyOp40
 70
     1
102
RTVSPropertyOp41
 70
     1
102
RTVSPropertyOp42
 70
     1
102
RTVSPropertyOp43
 70
     1
102
RTVSPropertyOp44
 70
     1
102
RTVSPropertyOp45
 70
     1
102
RTVSPropertyOp46
 70
     1
102
RTVSPropertyOp47
 70
     1
102
RTVSPropertyOp48
 70
     1
102
RTVSPropertyOp49
 70
     1
102
RTVSPropertyOp50
 70
     1
102
RTVSPropertyOp51
 70
     0
102
RTVSPropertyOp52
 70
     0
102
RTVSPropertyOp53
 70
     1
102
RTVSPropertyOp54
 70
     1
102
RTVSPropertyOp55
 70
     1
102
RTVSPropertyOp56
 70
     1
102
RTVSPropertyOp57
 70
     1
102
RTVSPropertyOp58
 70
     1
102
RTVSPropertyOp59
 70
     1
102
RTVSPropertyOp60
 70
     1
102
RTVSPropertyOp61
 70
     1
102
RTVSPropertyOp62
 70
     1
  0
XRECORD
  5
61B
102
{ACAD_REACTORS
330
61A
102
}
330
61A
100
AcDbXrecord
280
     1
102
RTVSPost2010Prop28
280
     0
102
RTVSPost2010PropOp28
 70
     1
102
RTVSPost2010Prop29
280
     1
102
RTVSPost2010PropOp29
 70
     1
102
RTVSPost2010Prop30
280
     1
102
RTVSPost2010PropOp30
 70
     1
102
RTVSPost2010Prop31
280
     0
102
RTVSPost2010PropOp31
 70
     1
102
RTVSPost2010Prop32
280
     0
102
RTVSPost2010PropOp32
 70
     1
102
RTVSPost2010Prop33
280
     0
102
RTVSPost2010PropOp33
 70
     1
102
RTVSPost2010Prop34
280
     0
102
RTVSPost2010PropOp34
 70
     1
102
RTVSPost2010Prop35
280
     0
102
RTVSPost2010PropOp35
 70
     1
102
RTVSPost2010Prop36
280
     0
102
RTVSPost2010PropOp36
 70
     1
102
RTVSPost2010Prop37
 90
       50
102
RTVSPost2010PropOp37
 70
     1
102
RTVSPost2010Prop38
140
0.0
102
RTVSPost2010PropOp38
 70
     1
102
RTVSPost2010Prop39
140
1.0
102
RTVSPost2010PropOp39
 70
     1
102
RTVSPost2010Prop40
 90
        0
102
RTVSPost2010PropOp40
 70
     1
102
RTVSPost2010Prop41ColorIndex
 90
       18
102
RTVSPost2010Prop41ColorRGB
 90
        0
102
RTVSPost2010PropOp41
 70
     1
102
RTVSPost2010Prop42
 90
       50
102
RTVSPost2010PropOp42
 70
     1
102
RTVSPost2010Prop43
 90
        3
102
RTVSPost2010PropOp43
 70
     1
102
RTVSPost2010Prop44ColorIndex
 90
        5
102
RTVSPost2010Prop44ColorRGB
 90
      255
102
RTVSPost2010PropOp44
 70
     1
102
RTVSPost2010Prop45
280
     0
102
RTVSPost2010PropOp45
 70
     1
102
RTVSPost2010Prop46
 90
       50
102
RTVSPost2010PropOp46
 70
     1
102
RTVSPost2010Prop47
 90
       50
102
RTVSPost2010PropOp47
 70
     1
102
RTVSPost2010Prop48
 90
       50
102
RTVSPost2010PropOp48
 70
     1
102
RTVSPost2010Prop49
280
     0
102
RTVSPost2010PropOp49
 70
     1
102
RTVSPost2010Prop50
 90
       50
102
RTVSPost2010PropOp50
 70
     1
102
RTVSPost2010Prop51ColorIndex
 90
      256
102
RTVSPost2010Prop51ColorRGB
 90
-16777216
102
RTVSPost2010PropOp51
 70
     0
102
RTVSPost2010Prop52
140
1.0
102
RTVSPost2010PropOp52
 70
     0
102
RTVSPost2010Prop53
 90
        2
102
RTVSPost2010PropOp53
 70
     1
102
RTVSPost2010Prop54
  1
strokes_ogs.tif
102
RTVSPost2010PropOp54
 70
     1
102
RTVSPost2010Prop55
280
     0
102
RTVSPost2010PropOp55
 70
     1
102
RTVSPost2010Prop56
140
1.0
102
RTVSPost2010PropOp56
 70
     1
102
RTVSPost2010Prop57
140
1.0
102
RTVSPost2010PropOp57
 70
     1
102
RTVSPropertyOp0
 70
     1
102
RTVSPropertyOp1
 70
     1
102
RTVSPropertyOp2
 70
     1
102
RTVSPropertyOp3
 70
     1
102
RTVSPropertyOp4
 70
     1
102
RTVSPropertyOp5
 70
     1
102
RTVSPropertyOp6
 70
     1
102
RTVSPropertyOp7
 70
     1
102
RTVSPropertyOp8
 70
     1
102
RTVSPropertyOp9
 70
     1
102
RTVSPropertyOp10
 70
     1
102
RTVSPropertyOp11
 70
     1
102
RTVSPropertyOp12
 70
     1
102
RTVSPropertyOp13
 70
     1
102
RTVSPropertyOp14
 70
     1
102
RTVSPropertyOp15
 70
     1
102
RTVSPropertyOp16
 70
     1
102
RTVSPropertyOp17
 70
     1
102
RTVSPropertyOp18
 70
     1
102
RTVSPropertyOp19
 70
     1
102
RTVSPropertyOp20
 70
     1
102
RTVSPropertyOp21
 70
     1
102
RTVSPropertyOp22
 70
     1
102
RTVSPropertyOp23
 70
     1
102
RTVSPropertyOp24
 70
     1
102
RTVSPropertyOp25
 70
     1
102
RTVSPropertyOp26
 70
     1
102
RTVSPropertyOp27
 70
     1
102
RTVSPropertyOp28
 70
     1
102
RTVSPropertyOp29
 70
     1
102
RTVSPropertyOp30
 70
     1
102
RTVSPropertyOp31
 70
     1
102
RTVSPropertyOp32
 70
     1
102
RTVSPropertyOp33
 70
     1
102
RTVSPropertyOp34
 70
     1
102
RTVSPropertyOp35
 70
     1
102
RTVSPropertyOp36
 70
     1
102
RTVSPropertyOp37
 70
     1
102
RTVSPropertyOp38
 70
     1
102
RTVSPropertyOp39
 70
     1
102
RTVSPropertyOp40
 70
     1
102
RTVSPropertyOp41
 70
     1
102
RTVSPropertyOp42
 70
     1
102
RTVSPropertyOp43
 70
     1
102
RTVSPropertyOp44
 70
     1
102
RTVSPropertyOp45
 70
     1
102
RTVSPropertyOp46
 70
     1
102
RTVSPropertyOp47
 70
     1
102
RTVSPropertyOp48
 70
     1
102
RTVSPropertyOp49
 70
     1
102
RTVSPropertyOp50
 70
     1
102
RTVSPropertyOp51
 70
     0
102
RTVSPropertyOp52
 70
     0
102
RTVSPropertyOp53
 70
     1
102
RTVSPropertyOp54
 70
     1
102
RTVSPropertyOp55
 70
     1
102
RTVSPropertyOp56
 70
     1
102
RTVSPropertyOp57
 70
     1
102
RTVSPropertyOp58
 70
     1
102
RTVSPropertyOp59
 70
     1
102
RTVSPropertyOp60
 70
     1
102
RTVSPropertyOp61
 70
     1
102
RTVSPropertyOp62
 70
     1
  0
XRECORD
  5
611
102
{ACAD_REACTORS
330
610
102
}
330
610
100
AcDbXrecord
280
     1
102
RTVSPost2010Prop28
280
     0
102
RTVSPost2010PropOp28
 70
     1
102
RTVSPost2010Prop29
280
     1
102
RTVSPost2010PropOp29
 70
     1
102
RTVSPost2010Prop30
280
     1
102
RTVSPost2010PropOp30
 70
     1
102
RTVSPost2010Prop31
280
     0
102
RTVSPost2010PropOp31
 70
     1
102
RTVSPost2010Prop32
280
     0
102
RTVSPost2010PropOp32
 70
     1
102
RTVSPost2010Prop33
280
     0
102
RTVSPost2010PropOp33
 70
     1
102
RTVSPost2010Prop34
280
     0
102
RTVSPost2010PropOp34
 70
     1
102
RTVSPost2010Prop35
280
     0
102
RTVSPost2010PropOp35
 70
     1
102
RTVSPost2010Prop36
280
     0
102
RTVSPost2010PropOp36
 70
     1
102
RTVSPost2010Prop37
 90
       50
102
RTVSPost2010PropOp37
 70
     1
102
RTVSPost2010Prop38
140
0.0
102
RTVSPost2010PropOp38
 70
     1
102
RTVSPost2010Prop39
140
1.0
102
RTVSPost2010PropOp39
 70
     1
102
RTVSPost2010Prop40
 90
        0
102
RTVSPost2010PropOp40
 70
     1
102
RTVSPost2010Prop41ColorIndex
 90
       18
102
RTVSPost2010Prop41ColorRGB
 90
        0
102
RTVSPost2010PropOp41
 70
     1
102
RTVSPost2010Prop42
 90
       50
102
RTVSPost2010PropOp42
 70
     1
102
RTVSPost2010Prop43
 90
        3
102
RTVSPost2010PropOp43
 70
     1
102
RTVSPost2010Prop44ColorIndex
 90
        5
102
RTVSPost2010Prop44ColorRGB
 90
      255
102
RTVSPost2010PropOp44
 70
     1
102
RTVSPost2010Prop45
280
     0
102
RTVSPost2010PropOp45
 70
     1
102
RTVSPost2010Prop46
 90
       50
102
RTVSPost2010PropOp46
 70
     1
102
RTVSPost2010Prop47
 90
       50
102
RTVSPost2010PropOp47
 70
     1
102
RTVSPost2010Prop48
 90
       50
102
RTVSPost2010PropOp48
 70
     1
102
RTVSPost2010Prop49
280
     0
102
RTVSPost2010PropOp49
 70
     1
102
RTVSPost2010Prop50
 90
       50
102
RTVSPost2010PropOp50
 70
     1
102
RTVSPost2010Prop51ColorIndex
 90
      256
102
RTVSPost2010Prop51ColorRGB
 90
-16777216
102
RTVSPost2010PropOp51
 70
     0
102
RTVSPost2010Prop52
140
1.0
102
RTVSPost2010PropOp52
 70
     0
102
RTVSPost2010Prop53
 90
        2
102
RTVSPost2010PropOp53
 70
     1
102
RTVSPost2010Prop54
  1
strokes_ogs.tif
102
RTVSPost2010PropOp54
 70
     1
102
RTVSPost2010Prop55
280
     0
102
RTVSPost2010PropOp55
 70
     1
102
RTVSPost2010Prop56
140
1.0
102
RTVSPost2010PropOp56
 70
     1
102
RTVSPost2010Prop57
140
1.0
102
RTVSPost2010PropOp57
 70
     1
102
RTVSPropertyOp0
 70
     1
102
RTVSPropertyOp1
 70
     1
102
RTVSPropertyOp2
 70
     1
102
RTVSPropertyOp3
 70
     1
102
RTVSPropertyOp4
 70
     1
102
RTVSPropertyOp5
 70
     1
102
RTVSPropertyOp6
 70
     1
102
RTVSPropertyOp7
 70
     1
102
RTVSPropertyOp8
 70
     1
102
RTVSPropertyOp9
 70
     1
102
RTVSPropertyOp10
 70
     1
102
RTVSPropertyOp11
 70
     1
102
RTVSPropertyOp12
 70
     1
102
RTVSPropertyOp13
 70
     1
102
RTVSPropertyOp14
 70
     1
102
RTVSPropertyOp15
 70
     1
102
RTVSPropertyOp16
 70
     1
102
RTVSPropertyOp17
 70
     1
102
RTVSPropertyOp18
 70
     1
102
RTVSPropertyOp19
 70
     1
102
RTVSPropertyOp20
 70
     1
102
RTVSPropertyOp21
 70
     1
102
RTVSPropertyOp22
 70
     1
102
RTVSPropertyOp23
 70
     1
102
RTVSPropertyOp24
 70
     1
102
RTVSPropertyOp25
 70
     1
102
RTVSPropertyOp26
 70
     1
102
RTVSPropertyOp27
 70
     1
102
RTVSPropertyOp28
 70
     1
102
RTVSPropertyOp29
 70
     1
102
RTVSPropertyOp30
 70
     1
102
RTVSPropertyOp31
 70
     1
102
RTVSPropertyOp32
 70
     1
102
RTVSPropertyOp33
 70
     1
102
RTVSPropertyOp34
 70
     1
102
RTVSPropertyOp35
 70
     1
102
RTVSPropertyOp36
 70
     1
102
RTVSPropertyOp37
 70
     1
102
RTVSPropertyOp38
 70
     1
102
RTVSPropertyOp39
 70
     1
102
RTVSPropertyOp40
 70
     1
102
RTVSPropertyOp41
 70
     1
102
RTVSPropertyOp42
 70
     1
102
RTVSPropertyOp43
 70
     1
102
RTVSPropertyOp44
 70
     1
102
RTVSPropertyOp45
 70
     1
102
RTVSPropertyOp46
 70
     1
102
RTVSPropertyOp47
 70
     1
102
RTVSPropertyOp48
 70
     1
102
RTVSPropertyOp49
 70
     1
102
RTVSPropertyOp50
 70
     1
102
RTVSPropertyOp51
 70
     0
102
RTVSPropertyOp52
 70
     0
102
RTVSPropertyOp53
 70
     1
102
RTVSPropertyOp54
 70
     1
102
RTVSPropertyOp55
 70
     1
102
RTVSPropertyOp56
 70
     1
102
RTVSPropertyOp57
 70
     1
102
RTVSPropertyOp58
 70
     1
102
RTVSPropertyOp59
 70
     1
102
RTVSPropertyOp60
 70
     1
102
RTVSPropertyOp61
 70
     1
102
RTVSPropertyOp62
 70
     1
  0
XRECORD
  5
605
102
{ACAD_REACTORS
330
604
102
}
330
604
100
AcDbXrecord
280
     1
102
RTVSPost2010Prop28
280
     0
102
RTVSPost2010PropOp28
 70
     1
102
RTVSPost2010Prop29
280
     1
102
RTVSPost2010PropOp29
 70
     1
102
RTVSPost2010Prop30
280
     1
102
RTVSPost2010PropOp30
 70
     1
102
RTVSPost2010Prop31
280
     0
102
RTVSPost2010PropOp31
 70
     1
102
RTVSPost2010Prop32
280
     0
102
RTVSPost2010PropOp32
 70
     1
102
RTVSPost2010Prop33
280
     0
102
RTVSPost2010PropOp33
 70
     1
102
RTVSPost2010Prop34
280
     0
102
RTVSPost2010PropOp34
 70
     1
102
RTVSPost2010Prop35
280
     0
102
RTVSPost2010PropOp35
 70
     1
102
RTVSPost2010Prop36
280
     0
102
RTVSPost2010PropOp36
 70
     1
102
RTVSPost2010Prop37
 90
       50
102
RTVSPost2010PropOp37
 70
     1
102
RTVSPost2010Prop38
140
0.0
102
RTVSPost2010PropOp38
 70
     1
102
RTVSPost2010Prop39
140
1.0
102
RTVSPost2010PropOp39
 70
     1
102
RTVSPost2010Prop40
 90
        0
102
RTVSPost2010PropOp40
 70
     1
102
RTVSPost2010Prop41ColorIndex
 90
       18
102
RTVSPost2010Prop41ColorRGB
 90
        0
102
RTVSPost2010PropOp41
 70
     1
102
RTVSPost2010Prop42
 90
       50
102
RTVSPost2010PropOp42
 70
     1
102
RTVSPost2010Prop43
 90
        3
102
RTVSPost2010PropOp43
 70
     1
102
RTVSPost2010Prop44ColorIndex
 90
        5
102
RTVSPost2010Prop44ColorRGB
 90
      255
102
RTVSPost2010PropOp44
 70
     1
102
RTVSPost2010Prop45
280
     0
102
RTVSPost2010PropOp45
 70
     1
102
RTVSPost2010Prop46
 90
       50
102
RTVSPost2010PropOp46
 70
     1
102
RTVSPost2010Prop47
 90
       50
102
RTVSPost2010PropOp47
 70
     1
102
RTVSPost2010Prop48
 90
       50
102
RTVSPost2010PropOp48
 70
     1
102
RTVSPost2010Prop49
280
     0
102
RTVSPost2010PropOp49
 70
     1
102
RTVSPost2010Prop50
 90
       50
102
RTVSPost2010PropOp50
 70
     1
102
RTVSPost2010Prop51ColorIndex
 90
      256
102
RTVSPost2010Prop51ColorRGB
 90
-16777216
102
RTVSPost2010PropOp51
 70
     0
102
RTVSPost2010Prop52
140
1.0
102
RTVSPost2010PropOp52
 70
     0
102
RTVSPost2010Prop53
 90
        2
102
RTVSPost2010PropOp53
 70
     1
102
RTVSPost2010Prop54
  1
strokes_ogs.tif
102
RTVSPost2010PropOp54
 70
     1
102
RTVSPost2010Prop55
280
     0
102
RTVSPost2010PropOp55
 70
     1
102
RTVSPost2010Prop56
140
1.0
102
RTVSPost2010PropOp56
 70
     1
102
RTVSPost2010Prop57
140
1.0
102
RTVSPost2010PropOp57
 70
     1
102
RTVSPropertyOp0
 70
     1
102
RTVSPropertyOp1
 70
     1
102
RTVSPropertyOp2
 70
     1
102
RTVSPropertyOp3
 70
     1
102
RTVSPropertyOp4
 70
     1
102
RTVSPropertyOp5
 70
     1
102
RTVSPropertyOp6
 70
     1
102
RTVSPropertyOp7
 70
     1
102
RTVSPropertyOp8
 70
     1
102
RTVSPropertyOp9
 70
     1
102
RTVSPropertyOp10
 70
     1
102
RTVSPropertyOp11
 70
     1
102
RTVSPropertyOp12
 70
     1
102
RTVSPropertyOp13
 70
     1
102
RTVSPropertyOp14
 70
     1
102
RTVSPropertyOp15
 70
     1
102
RTVSPropertyOp16
 70
     1
102
RTVSPropertyOp17
 70
     1
102
RTVSPropertyOp18
 70
     1
102
RTVSPropertyOp19
 70
     1
102
RTVSPropertyOp20
 70
     1
102
RTVSPropertyOp21
 70
     1
102
RTVSPropertyOp22
 70
     1
102
RTVSPropertyOp23
 70
     1
102
RTVSPropertyOp24
 70
     1
102
RTVSPropertyOp25
 70
     1
102
RTVSPropertyOp26
 70
     1
102
RTVSPropertyOp27
 70
     1
102
RTVSPropertyOp28
 70
     1
102
RTVSPropertyOp29
 70
     1
102
RTVSPropertyOp30
 70
     1
102
RTVSPropertyOp31
 70
     1
102
RTVSPropertyOp32
 70
     1
102
RTVSPropertyOp33
 70
     1
102
RTVSPropertyOp34
 70
     1
102
RTVSPropertyOp35
 70
     1
102
RTVSPropertyOp36
 70
     1
102
RTVSPropertyOp37
 70
     1
102
RTVSPropertyOp38
 70
     1
102
RTVSPropertyOp39
 70
     1
102
RTVSPropertyOp40
 70
     1
102
RTVSPropertyOp41
 70
     1
102
RTVSPropertyOp42
 70
     1
102
RTVSPropertyOp43
 70
     1
102
RTVSPropertyOp44
 70
     1
102
RTVSPropertyOp45
 70
     1
102
RTVSPropertyOp46
 70
     1
102
RTVSPropertyOp47
 70
     1
102
RTVSPropertyOp48
 70
     1
102
RTVSPropertyOp49
 70
     1
102
RTVSPropertyOp50
 70
     1
102
RTVSPropertyOp51
 70
     0
102
RTVSPropertyOp52
 70
     0
102
RTVSPropertyOp53
 70
     1
102
RTVSPropertyOp54
 70
     1
102
RTVSPropertyOp55
 70
     1
102
RTVSPropertyOp56
 70
     1
102
RTVSPropertyOp57
 70
     1
102
RTVSPropertyOp58
 70
     1
102
RTVSPropertyOp59
 70
     1
102
RTVSPropertyOp60
 70
     1
102
RTVSPropertyOp61
 70
     1
102
RTVSPropertyOp62
 70
     1
  0
XRECORD
  5
61D
102
{ACAD_REACTORS
330
61C
102
}
330
61C
100
AcDbXrecord
280
     1
102
RTVSPost2010Prop28
280
     0
102
RTVSPost2010PropOp28
 70
     1
102
RTVSPost2010Prop29
280
     1
102
RTVSPost2010PropOp29
 70
     1
102
RTVSPost2010Prop30
280
     1
102
RTVSPost2010PropOp30
 70
     1
102
RTVSPost2010Prop31
280
     0
102
RTVSPost2010PropOp31
 70
     1
102
RTVSPost2010Prop32
280
     0
102
RTVSPost2010PropOp32
 70
     1
102
RTVSPost2010Prop33
280
     0
102
RTVSPost2010PropOp33
 70
     1
102
RTVSPost2010Prop34
280
     0
102
RTVSPost2010PropOp34
 70
     1
102
RTVSPost2010Prop35
280
     0
102
RTVSPost2010PropOp35
 70
     1
102
RTVSPost2010Prop36
280
     0
102
RTVSPost2010PropOp36
 70
     1
102
RTVSPost2010Prop37
 90
       50
102
RTVSPost2010PropOp37
 70
     1
102
RTVSPost2010Prop38
140
0.0
102
RTVSPost2010PropOp38
 70
     1
102
RTVSPost2010Prop39
140
1.0
102
RTVSPost2010PropOp39
 70
     1
102
RTVSPost2010Prop40
 90
        0
102
RTVSPost2010PropOp40
 70
     1
102
RTVSPost2010Prop41ColorIndex
 90
       18
102
RTVSPost2010Prop41ColorRGB
 90
        0
102
RTVSPost2010PropOp41
 70
     1
102
RTVSPost2010Prop42
 90
       50
102
RTVSPost2010PropOp42
 70
     1
102
RTVSPost2010Prop43
 90
        3
102
RTVSPost2010PropOp43
 70
     1
102
RTVSPost2010Prop44ColorIndex
 90
        5
102
RTVSPost2010Prop44ColorRGB
 90
      255
102
RTVSPost2010PropOp44
 70
     1
102
RTVSPost2010Prop45
280
     0
102
RTVSPost2010PropOp45
 70
     1
102
RTVSPost2010Prop46
 90
       50
102
RTVSPost2010PropOp46
 70
     1
102
RTVSPost2010Prop47
 90
       50
102
RTVSPost2010PropOp47
 70
     1
102
RTVSPost2010Prop48
 90
       50
102
RTVSPost2010PropOp48
 70
     1
102
RTVSPost2010Prop49
280
     0
102
RTVSPost2010PropOp49
 70
     1
102
RTVSPost2010Prop50
 90
       50
102
RTVSPost2010PropOp50
 70
     1
102
RTVSPost2010Prop51ColorIndex
 90
      256
102
RTVSPost2010Prop51ColorRGB
 90
-16777216
102
RTVSPost2010PropOp51
 70
     0
102
RTVSPost2010Prop52
140
1.0
102
RTVSPost2010PropOp52
 70
     0
102
RTVSPost2010Prop53
 90
        2
102
RTVSPost2010PropOp53
 70
     1
102
RTVSPost2010Prop54
  1
strokes_ogs.tif
102
RTVSPost2010PropOp54
 70
     1
102
RTVSPost2010Prop55
280
     0
102
RTVSPost2010PropOp55
 70
     1
102
RTVSPost2010Prop56
140
1.0
102
RTVSPost2010PropOp56
 70
     1
102
RTVSPost2010Prop57
140
1.0
102
RTVSPost2010PropOp57
 70
     1
102
RTVSPropertyOp0
 70
     1
102
RTVSPropertyOp1
 70
     1
102
RTVSPropertyOp2
 70
     1
102
RTVSPropertyOp3
 70
     1
102
RTVSPropertyOp4
 70
     1
102
RTVSPropertyOp5
 70
     1
102
RTVSPropertyOp6
 70
     1
102
RTVSPropertyOp7
 70
     1
102
RTVSPropertyOp8
 70
     1
102
RTVSPropertyOp9
 70
     1
102
RTVSPropertyOp10
 70
     1
102
RTVSPropertyOp11
 70
     1
102
RTVSPropertyOp12
 70
     1
102
RTVSPropertyOp13
 70
     1
102
RTVSPropertyOp14
 70
     1
102
RTVSPropertyOp15
 70
     1
102
RTVSPropertyOp16
 70
     1
102
RTVSPropertyOp17
 70
     1
102
RTVSPropertyOp18
 70
     1
102
RTVSPropertyOp19
 70
     1
102
RTVSPropertyOp20
 70
     1
102
RTVSPropertyOp21
 70
     1
102
RTVSPropertyOp22
 70
     1
102
RTVSPropertyOp23
 70
     1
102
RTVSPropertyOp24
 70
     1
102
RTVSPropertyOp25
 70
     1
102
RTVSPropertyOp26
 70
     1
102
RTVSPropertyOp27
 70
     1
102
RTVSPropertyOp28
 70
     1
102
RTVSPropertyOp29
 70
     1
102
RTVSPropertyOp30
 70
     1
102
RTVSPropertyOp31
 70
     1
102
RTVSPropertyOp32
 70
     1
102
RTVSPropertyOp33
 70
     1
102
RTVSPropertyOp34
 70
     1
102
RTVSPropertyOp35
 70
     1
102
RTVSPropertyOp36
 70
     1
102
RTVSPropertyOp37
 70
     1
102
RTVSPropertyOp38
 70
     1
102
RTVSPropertyOp39
 70
     1
102
RTVSPropertyOp40
 70
     1
102
RTVSPropertyOp41
 70
     1
102
RTVSPropertyOp42
 70
     1
102
RTVSPropertyOp43
 70
     1
102
RTVSPropertyOp44
 70
     1
102
RTVSPropertyOp45
 70
     1
102
RTVSPropertyOp46
 70
     1
102
RTVSPropertyOp47
 70
     1
102
RTVSPropertyOp48
 70
     1
102
RTVSPropertyOp49
 70
     1
102
RTVSPropertyOp50
 70
     1
102
RTVSPropertyOp51
 70
     0
102
RTVSPropertyOp52
 70
     0
102
RTVSPropertyOp53
 70
     1
102
RTVSPropertyOp54
 70
     1
102
RTVSPropertyOp55
 70
     1
102
RTVSPropertyOp56
 70
     1
102
RTVSPropertyOp57
 70
     1
102
RTVSPropertyOp58
 70
     1
102
RTVSPropertyOp59
 70
     1
102
RTVSPropertyOp60
 70
     1
102
RTVSPropertyOp61
 70
     1
102
RTVSPropertyOp62
 70
     1
  0
ENDSEC
  0
EOF
