  0
SECTION
  2
HEADER
  9
$ACADVER
  1
AC1015
  9
$ACADMAINTVER
 70
     6
  9
$DWGCODEPAGE
  3
ANSI_932
  9
$INSBASE
 10
0.0
 20
0.0
 30
0.0
  9
$EXTMIN
 10
1.000000000000000E+20
 20
1.000000000000000E+20
 30
1.000000000000000E+20
  9
$EXTMAX
 10
-1.000000000000000E+20
 20
-1.000000000000000E+20
 30
-1.000000000000000E+20
  9
$LIMMIN
 10
0.0
 20
0.0
  9
$LIMMAX
 10
12.0
 20
9.0
  9
$ORTHOMODE
 70
     0
  9
$REGENMODE
 70
     1
  9
$FILLMODE
 70
     1
  9
$QTEXTMODE
 70
     0
  9
$MIRRTEXT
 70
     1
  9
$LTSCALE
 40
1.0
  9
$ATTMODE
 70
     1
  9
$TEXTSIZE
 40
0.2
  9
$TRACEWID
 40
0.05
  9
$TEXTSTYLE
  7
Standard
  9
$CLAYER
  8
0
  9
$CELTYPE
  6
ByLayer
  9
$CECOLOR
 62
   256
  9
$CELTSCALE
 40
1.0
  9
$DISPSILH
 70
     0
  9
$DIMSCALE
 40
1.0
  9
$DIMASZ
 40
0.18
  9
$DIMEXO
 40
0.0625
  9
$DIMDLI
 40
0.38
  9
$DIMRND
 40
0.0
  9
$DIMDLE
 40
0.0
  9
$DIMEXE
 40
0.18
  9
$DIMTP
 40
0.0
  9
$DIMTM
 40
0.0
  9
$DIMTXT
 40
0.18
  9
$DIMCEN
 40
0.09
  9
$DIMTSZ
 40
0.0
  9
$DIMTOL
 70
     0
  9
$DIMLIM
 70
     0
  9
$DIMTIH
 70
     1
  9
$DIMTOH
 70
     1
  9
$DIMSE1
 70
     0
  9
$DIMSE2
 70
     0
  9
$DIMTAD
 70
     0
  9
$DIMZIN
 70
     0
  9
$DIMBLK
  1

  9
$DIMASO
 70
     1
  9
$DIMSHO
 70
     1
  9
$DIMPOST
  1

  9
$DIMAPOST
  1

  9
$DIMALT
 70
     0
  9
$DIMALTD
 70
     2
  9
$DIMALTF
 40
25.4
  9
$DIMLFAC
 40
1.0
  9
$DIMTOFL
 70
     0
  9
$DIMTVP
 40
0.0
  9
$DIMTIX
 70
     0
  9
$DIMSOXD
 70
     0
  9
$DIMSAH
 70
     0
  9
$DIMBLK1
  1

  9
$DIMBLK2
  1

  9
$DIMSTYLE
  2
Standard
  9
$DIMCLRD
 70
     0
  9
$DIMCLRE
 70
     0
  9
$DIMCLRT
 70
     0
  9
$DIMTFAC
 40
1.0
  9
$DIMGAP
 40
0.09
  9
$DIMJUST
 70
     0
  9
$DIMSD1
 70
     0
  9
$DIMSD2
 70
     0
  9
$DIMTOLJ
 70
     1
  9
$DIMTZIN
 70
     0
  9
$DIMALTZ
 70
     0
  9
$DIMALTTZ
 70
     0
  9
$DIMUPT
 70
     0
  9
$DIMDEC
 70
     4
  9
$DIMTDEC
 70
     4
  9
$DIMALTU
 70
     2
  9
$DIMALTTD
 70
     2
  9
$DIMTXSTY
  7
Standard
  9
$DIMAUNIT
 70
     0
  9
$DIMADEC
 70
     0
  9
$DIMALTRND
 40
0.0
  9
$DIMAZIN
 70
     0
  9
$DIMDSEP
 70
    46
  9
$DIMATFIT
 70
     3
  9
$DIMFRAC
 70
     0
  9
$DIMLDRBLK
  1

  9
$DIMLUNIT
 70
     2
  9
$DIMLWD
 70
    -2
  9
$DIMLWE
 70
    -2
  9
$DIMTMOVE
 70
     0
  9
$LUNITS
 70
     2
  9
$LUPREC
 70
     4
  9
$SKETCHINC
 40
0.1
  9
$FILLETRAD
 40
0.5
  9
$AUNITS
 70
     0
  9
$AUPREC
 70
     0
  9
$MENU
  1
.
  9
$ELEVATION
 40
0.0
  9
$PELEVATION
 40
0.0
  9
$THICKNESS
 40
0.0
  9
$LIMCHECK
 70
     0
  9
$CHAMFERA
 40
0.5
  9
$CHAMFERB
 40
0.5
  9
$CHAMFERC
 40
1.0
  9
$CHAMFERD
 40
0.0
  9
$SKPOLY
 70
     0
  9
$TDCREATE
 40
2457807.76463963
  9
$TDUCREATE
 40
2457807.38963963
  9
$TDUPDATE
 40
2457807.764639641
  9
$TDUUPDATE
 40
2457807.389639641
  9
$TDINDWG
 40
0.0000000116
  9
$TDUSRTIMER
 40
0.0000000116
  9
$USRTIMER
 70
     1
  9
$ANGBASE
 50
0.0
  9
$ANGDIR
 70
     0
  9
$PDMODE
 70
     0
  9
$PDSIZE
 40
0.0
  9
$PLINEWID
 40
0.0
  9
$SPLFRAME
 70
     0
  9
$SPLINETYPE
 70
     6
  9
$SPLINESEGS
 70
     8
  9
$HANDSEED
  5
6E3
  9
$SURFTAB1
 70
     6
  9
$SURFTAB2
 70
     6
  9
$SURFTYPE
 70
     6
  9
$SURFU
 70
     6
  9
$SURFV
 70
     6
  9
$UCSBASE
  2

  9
$UCSNAME
  2

  9
$UCSORG
 10
0.0
 20
0.0
 30
0.0
  9
$UCSXDIR
 10
1.0
 20
0.0
 30
0.0
  9
$UCSYDIR
 10
0.0
 20
1.0
 30
0.0
  9
$UCSORTHOREF
  2

  9
$UCSORTHOVIEW
 70
     0
  9
$UCSORGTOP
 10
0.0
 20
0.0
 30
0.0
  9
$UCSORGBOTTOM
 10
0.0
 20
0.0
 30
0.0
  9
$UCSORGLEFT
 10
0.0
 20
0.0
 30
0.0
  9
$UCSORGRIGHT
 10
0.0
 20
0.0
 30
0.0
  9
$UCSORGFRONT
 10
0.0
 20
0.0
 30
0.0
  9
$UCSORGBACK
 10
0.0
 20
0.0
 30
0.0
  9
$PUCSBASE
  2

  9
$PUCSNAME
  2

  9
$PUCSORG
 10
0.0
 20
0.0
 30
0.0
  9
$PUCSXDIR
 10
1.0
 20
0.0
 30
0.0
  9
$PUCSYDIR
 10
0.0
 20
1.0
 30
0.0
  9
$PUCSORTHOREF
  2

  9
$PUCSORTHOVIEW
 70
     0
  9
$PUCSORGTOP
 10
0.0
 20
0.0
 30
0.0
  9
$PUCSORGBOTTOM
 10
0.0
 20
0.0
 30
0.0
  9
$PUCSORGLEFT
 10
0.0
 20
0.0
 30
0.0
  9
$PUCSORGRIGHT
 10
0.0
 20
0.0
 30
0.0
  9
$PUCSORGFRONT
 10
0.0
 20
0.0
 30
0.0
  9
$PUCSORGBACK
 10
0.0
 20
0.0
 30
0.0
  9
$USERI1
 70
     0
  9
$USERI2
 70
     0
  9
$USERI3
 70
     0
  9
$USERI4
 70
     0
  9
$USERI5
 70
     0
  9
$USERR1
 40
0.0
  9
$USERR2
 40
0.0
  9
$USERR3
 40
0.0
  9
$USERR4
 40
0.0
  9
$USERR5
 40
0.0
  9
$WORLDVIEW
 70
     1
  9
$SHADEDGE
 70
     3
  9
$SHADEDIF
 70
    70
  9
$TILEMODE
 70
     1
  9
$MAXACTVP
 70
    64
  9
$PINSBASE
 10
0.0
 20
0.0
 30
0.0
  9
$PLIMCHECK
 70
     0
  9
$PEXTMIN
 10
1.000000000000000E+20
 20
1.000000000000000E+20
 30
1.000000000000000E+20
  9
$PEXTMAX
 10
-1.000000000000000E+20
 20
-1.000000000000000E+20
 30
-1.000000000000000E+20
  9
$PLIMMIN
 10
0.0
 20
0.0
  9
$PLIMMAX
 10
12.0
 20
9.0
  9
$UNITMODE
 70
     0
  9
$VISRETAIN
 70
     1
  9
$PLINEGEN
 70
     0
  9
$PSLTSCALE
 70
     1
  9
$TREEDEPTH
 70
  3020
  9
$CMLSTYLE
  2
Standard
  9
$CMLJUST
 70
     0
  9
$CMLSCALE
 40
1.0
  9
$PROXYGRAPHICS
 70
     1
  9
$MEASUREMENT
 70
     0
  9
$CELWEIGHT
370
    -1
  9
$ENDCAPS
280
     0
  9
$JOINSTYLE
280
     0
  9
$LWDISPLAY
290
     1
  9
$INSUNITS
 70
     0
  9
$HYPERLINKBASE
  1

  9
$STYLESHEET
  1

  9
$XEDIT
290
     1
  9
$CEPSNTYPE
380
     0
  9
$PSTYLEMODE
290
     1
  9
$FINGERPRINTGUID
  2
{1270CDA1-E359-439D-A959-C16B54FA6BCA}
  9
$VERSIONGUID
  2
{FAEB1C32-E019-11D5-929B-00C0DF256EC4}
  9
$EXTNAMES
290
     1
  9
$PSVPSCALE
 40
0.0
  9
$OLESTARTUP
290
     0
  0
ENDSEC
  0
SECTION
  2
CLASSES
  0
CLASS
  1
ACDBDICTIONARYWDFLT
  2
AcDbDictionaryWithDefault
  3
ObjectDBX Classes
 90
        0
280
     0
281
     0
  0
CLASS
  1
VISUALSTYLE
  2
AcDbVisualStyle
  3
ObjectDBX Classes
 90
     4095
280
     0
281
     0
  0
CLASS
  1
ACDBPLACEHOLDER
  2
AcDbPlaceHolder
  3
ObjectDBX Classes
 90
        0
280
     0
281
     0
  0
CLASS
  1
LAYOUT
  2
AcDbLayout
  3
ObjectDBX Classes
 90
        0
280
     0
281
     0
  0
ENDSEC
  0
SECTION
  2
TABLES
  0
TABLE
  2
VPORT
  5
8
330
0
100
AcDbSymbolTable
 70
     1
  0
VPORT
  5
29
330
8
100
AcDbSymbolTableRecord
100
AcDbViewportTableRecord
  2
*Active
 70
     0
 10
0.0
 20
0.0
 11
1.0
 21
1.0
 12
10.42990654205607
 22
4.5
 13
0.0
 23
0.0
 14
0.5
 24
0.5
 15
0.5
 25
0.5
 16
0.0
 26
0.0
 36
1.0
 17
0.0
 27
0.0
 37
0.0
 40
9.0
 41
1.972972972850329
 42
50.0
 43
0.0
 44
0.0
 50
0.0
 51
0.0
 71
     0
 72
   100
 73
     1
 74
     3
 75
     0
 76
     0
 77
     0
 78
     0
281
     0
 65
     1
110
0.0
120
0.0
130
0.0
111
1.0
121
0.0
131
0.0
112
0.0
122
1.0
132
0.0
 79
     0
146
0.0
  0
ENDTAB
  0
TABLE
  2
LTYPE
  5
5
330
0
100
AcDbSymbolTable
 70
     1
  0
LTYPE
  5
14
330
5
100
AcDbSymbolTableRecord
100
AcDbLinetypeTableRecord
  2
ByBlock
 70
     0
  3

 72
    65
 73
     0
 40
0.0
  0
LTYPE
  5
15
330
5
100
AcDbSymbolTableRecord
100
AcDbLinetypeTableRecord
  2
ByLayer
 70
     0
  3

 72
    65
 73
     0
 40
0.0
  0
LTYPE
  5
16
330
5
100
AcDbSymbolTableRecord
100
AcDbLinetypeTableRecord
  2
Continuous
 70
     0
  3
Solid line
 72
    65
 73
     0
 40
0.0
  0
ENDTAB
  0
TABLE
  2
LAYER
  5
2
330
0
100
AcDbSymbolTable
 70
     2
  0
LAYER
  5
10
330
2
100
AcDbSymbolTableRecord
100
AcDbLayerTableRecord
  2
0
 70
     0
 62
     7
  6
Continuous
370
    -3
390
F
  0
LAYER
  5
3B
330
2
100
AcDbSymbolTableRecord
100
AcDbLayerTableRecord
  2
ｴｸｽﾃﾘｱ商品
 70
     0
 62
     7
  6
Continuous
370
    -3
390
F
  0
ENDTAB
  0
TABLE
  2
STYLE
  5
3
330
0
100
AcDbSymbolTable
 70
     1
  0
STYLE
  5
11
330
3
100
AcDbSymbolTableRecord
100
AcDbTextStyleTableRecord
  2
Standard
 70
     0
 40
0.0
 41
1.0
 50
0.0
 71
     0
 42
0.2
  3
txt
  4
EXTFONT.SHX
  0
ENDTAB
  0
TABLE
  2
VIEW
  5
6
330
0
100
AcDbSymbolTable
 70
     0
  0
ENDTAB
  0
TABLE
  2
UCS
  5
7
330
0
100
AcDbSymbolTable
 70
     0
  0
ENDTAB
  0
TABLE
  2
APPID
  5
9
330
0
100
AcDbSymbolTable
 70
     1
  0
APPID
  5
12
330
9
100
AcDbSymbolTableRecord
100
AcDbRegAppTableRecord
  2
ACAD
 70
     0
  0
ENDTAB
  0
TABLE
  2
DIMSTYLE
  5
A
330
0
100
AcDbSymbolTable
 70
     1
100
AcDbDimStyleTable
  0
DIMSTYLE
105
27
330
A
100
AcDbSymbolTableRecord
100
AcDbDimStyleTableRecord
  2
Standard
 70
     0
340
11
  0
ENDTAB
  0
TABLE
  2
BLOCK_RECORD
  5
1
330
0
100
AcDbSymbolTable
 70
     2
  0
BLOCK_RECORD
  5
1F
330
1
100
AcDbSymbolTableRecord
100
AcDbBlockTableRecord
  2
*Model_Space
340
22
  0
BLOCK_RECORD
  5
1B
330
1
100
AcDbSymbolTableRecord
100
AcDbBlockTableRecord
  2
*Paper_Space
340
1E
  0
BLOCK_RECORD
  5
23
330
1
100
AcDbSymbolTableRecord
100
AcDbBlockTableRecord
  2
*Paper_Space0
340
26
  0
BLOCK_RECORD
  5
3C
330
1
100
AcDbSymbolTableRecord
100
AcDbBlockTableRecord
  2
オブジェクト_25
340
0
102
{BLKREFS
331
6DF
102
}
  0
ENDTAB
  0
ENDSEC
  0
SECTION
  2
BLOCKS
  0
BLOCK
  5
20
330
1F
100
AcDbEntity
  8
0
100
AcDbBlockBegin
  2
*Model_Space
 70
     0
 71
     0
 10
0.0
 20
0.0
 30
0.0
  3
*Model_Space
  1

  0
ENDBLK
  5
21
330
1F
100
AcDbEntity
  8
0
100
AcDbBlockEnd
  0
BLOCK
  5
1C
330
1B
100
AcDbEntity
 67
     1
  8
0
100
AcDbBlockBegin
  2
*Paper_Space
 70
     0
 71
     0
 10
0.0
 20
0.0
 30
0.0
  3
*Paper_Space
  1

  0
ENDBLK
  5
1D
330
1B
100
AcDbEntity
 67
     1
  8
0
100
AcDbBlockEnd
  0
BLOCK
  5
24
330
23
100
AcDbEntity
  8
0
100
AcDbBlockBegin
  2
*Paper_Space0
 70
     0
 71
     0
 10
0.0
 20
0.0
 30
0.0
  3
*Paper_Space0
  1

  0
ENDBLK
  5
25
330
23
100
AcDbEntity
  8
0
100
AcDbBlockEnd
  0
BLOCK
  5
3D
330
3C
100
AcDbEntity
  8
0
100
AcDbBlockBegin
  2
オブジェクト_25
 70
     0
 71
     0
 10
2989.58755424743
 20
5214.901483121104
 30
0.0
  3
オブジェクト_25
  1

  0
POLYLINE
  5
3F
330
3C
100
AcDbEntity
  8
ｴｸｽﾃﾘｱ商品
 62
   250
370
    20
100
AcDbPolyFaceMesh
 66
     1
 10
0.0
 20
0.0
 30
0.0
 70
    64
 71
     8
 72
     6
  0
VERTEX
  5
41
330
3F
100
AcDbEntity
  8
ｴｸｽﾃﾘｱ商品
 62
   250
370
    20
100
AcDbVertex
100
AcDbPolyFaceMeshVertex
 10
5925.587554247429
 20
5749.901483121103
 30
0.0
 70
   192
  0
VERTEX
  5
42
330
3F
100
AcDbEntity
  8
ｴｸｽﾃﾘｱ商品
 62
   250
370
    20
100
AcDbVertex
100
AcDbPolyFaceMeshVertex
 10
6045.587554247429
 20
5749.901483121103
 30
0.0
 70
   192
  0
VERTEX
  5
43
330
3F
100
AcDbEntity
  8
ｴｸｽﾃﾘｱ商品
 62
   250
370
    20
100
AcDbVertex
100
AcDbPolyFaceMeshVertex
 10
6045.587554247429
 20
5629.901483121103
 30
0.0
 70
   192
  0
VERTEX
  5
44
330
3F
100
AcDbEntity
  8
ｴｸｽﾃﾘｱ商品
 62
   250
370
    20
100
AcDbVertex
100
AcDbPolyFaceMeshVertex
 10
5925.587554247429
 20
5629.901483121103
 30
0.0
 70
   192
  0
VERTEX
  5
45
330
3F
100
AcDbEntity
  8
ｴｸｽﾃﾘｱ商品
 62
   250
370
    20
100
AcDbVertex
100
AcDbPolyFaceMeshVertex
 10
6045.587554247429
 20
5749.901483121103
 30
2355.0
 70
   192
  0
VERTEX
  5
46
330
3F
100
AcDbEntity
  8
ｴｸｽﾃﾘｱ商品
 62
   250
370
    20
100
AcDbVertex
100
AcDbPolyFaceMeshVertex
 10
5925.587554247429
 20
5749.901483121103
 30
2355.0
 70
   192
  0
VERTEX
  5
47
330
3F
100
AcDbEntity
  8
ｴｸｽﾃﾘｱ商品
 62
   250
370
    20
100
AcDbVertex
100
AcDbPolyFaceMeshVertex
 10
5925.587554247429
 20
5629.901483121103
 30
2355.0
 70
   192
  0
VERTEX
  5
48
330
3F
100
AcDbEntity
  8
ｴｸｽﾃﾘｱ商品
 62
   250
370
    20
100
AcDbVertex
100
AcDbPolyFaceMeshVertex
 10
6045.587554247429
 20
5629.901483121103
 30
2355.0
 70
   192
  0
VERTEX
  5
49
330
3F
100
AcDbEntity
  8
ｴｸｽﾃﾘｱ商品
 62
   250
370
    20
100
AcDbFaceRecord
 10
0.0
 20
0.0
 30
0.0
 70
   128
 71
     1
 72
     2
 73
     3
 74
     4
  0
VERTEX
  5
4A
330
3F
100
AcDbEntity
  8
ｴｸｽﾃﾘｱ商品
 62
   250
370
    20
100
AcDbFaceRecord
 10
0.0
 20
0.0
 30
0.0
 70
   128
 71
     5
 72
     6
 73
     7
 74
     8
  0
VERTEX
  5
4B
330
3F
100
AcDbEntity
  8
ｴｸｽﾃﾘｱ商品
 62
   250
370
    20
100
AcDbFaceRecord
 10
0.0
 20
0.0
 30
0.0
 70
   128
 71
     2
 72
     1
 73
     6
 74
     5
  0
VERTEX
  5
4C
330
3F
100
AcDbEntity
  8
ｴｸｽﾃﾘｱ商品
 62
   250
370
    20
100
AcDbFaceRecord
 10
0.0
 20
0.0
 30
0.0
 70
   128
 71
     1
 72
     4
 73
     7
 74
     6
  0
VERTEX
  5
4D
330
3F
100
AcDbEntity
  8
ｴｸｽﾃﾘｱ商品
 62
   250
370
    20
100
AcDbFaceRecord
 10
0.0
 20
0.0
 30
0.0
 70
   128
 71
     4
 72
     3
 73
     8
 74
     7
  0
VERTEX
  5
4E
330
3F
100
AcDbEntity
  8
ｴｸｽﾃﾘｱ商品
 62
   250
370
    20
100
AcDbFaceRecord
 10
0.0
 20
0.0
 30
0.0
 70
   128
 71
     3
 72
     2
 73
     5
 74
     8
  0
SEQEND
  5
40
330
3F
100
AcDbEntity
  8
ｴｸｽﾃﾘｱ商品
370
    20
  0
POLYLINE
  5
4F
330
3C
100
AcDbEntity
  8
ｴｸｽﾃﾘｱ商品
 62
   250
370
    20
100
AcDbPolyFaceMesh
 66
     1
 10
0.0
 20
0.0
 30
0.0
 70
    64
 71
     8
 72
     6
  0
VERTEX
  5
51
330
4F
100
AcDbEntity
  8
ｴｸｽﾃﾘｱ商品
 62
   250
370
    20
100
AcDbVertex
100
AcDbPolyFaceMeshVertex
 10
3044.587554247428
 20
5749.901483121103
 30
2355.0
 70
   192
  0
VERTEX
  5
52
330
4F
100
AcDbEntity
  8
ｴｸｽﾃﾘｱ商品
 62
   250
370
    20
100
AcDbVertex
100
AcDbPolyFaceMeshVertex
 10
6045.587554247429
 20
5749.901483121103
 30
2355.0
 70
   192
  0
VERTEX
  5
53
330
4F
100
AcDbEntity
  8
ｴｸｽﾃﾘｱ商品
 62
   250
370
    20
100
AcDbVertex
100
AcDbPolyFaceMeshVertex
 10
6045.587554247429
 20
5629.901483121103
 30
2355.0
 70
   192
  0
VERTEX
  5
54
330
4F
100
AcDbEntity
  8
ｴｸｽﾃﾘｱ商品
 62
   250
370
    20
100
AcDbVertex
100
AcDbPolyFaceMeshVertex
 10
3044.587554247428
 20
5629.901483121104
 30
2355.0
 70
   192
  0
VERTEX
  5
55
330
4F
100
AcDbEntity
  8
ｴｸｽﾃﾘｱ商品
 62
   250
370
    20
100
AcDbVertex
100
AcDbPolyFaceMeshVertex
 10
6045.587554247429
 20
5749.901483121103
 30
2460.0
 70
   192
  0
VERTEX
  5
56
330
4F
100
AcDbEntity
  8
ｴｸｽﾃﾘｱ商品
 62
   250
370
    20
100
AcDbVertex
100
AcDbPolyFaceMeshVertex
 10
3044.587554247428
 20
5749.901483121103
 30
2460.0
 70
   192
  0
VERTEX
  5
57
330
4F
100
AcDbEntity
  8
ｴｸｽﾃﾘｱ商品
 62
   250
370
    20
100
AcDbVertex
100
AcDbPolyFaceMeshVertex
 10
3044.587554247428
 20
5629.901483121104
 30
2460.0
 70
   192
  0
VERTEX
  5
58
330
4F
100
AcDbEntity
  8
ｴｸｽﾃﾘｱ商品
 62
   250
370
    20
100
AcDbVertex
100
AcDbPolyFaceMeshVertex
 10
6045.587554247429
 20
5629.901483121103
 30
2460.0
 70
   192
  0
VERTEX
  5
59
330
4F
100
AcDbEntity
  8
ｴｸｽﾃﾘｱ商品
 62
   250
370
    20
100
AcDbFaceRecord
 10
0.0
 20
0.0
 30
0.0
 70
   128
 71
     1
 72
     2
 73
     3
 74
     4
  0
VERTEX
  5
5A
330
4F
100
AcDbEntity
  8
ｴｸｽﾃﾘｱ商品
 62
   250
370
    20
100
AcDbFaceRecord
 10
0.0
 20
0.0
 30
0.0
 70
   128
 71
     5
 72
     6
 73
     7
 74
     8
  0
VERTEX
  5
5B
330
4F
100
AcDbEntity
  8
ｴｸｽﾃﾘｱ商品
 62
   250
370
    20
100
AcDbFaceRecord
 10
0.0
 20
0.0
 30
0.0
 70
   128
 71
     2
 72
     1
 73
     6
 74
     5
  0
VERTEX
  5
5C
330
4F
100
AcDbEntity
  8
ｴｸｽﾃﾘｱ商品
 62
   250
370
    20
100
AcDbFaceRecord
 10
0.0
 20
0.0
 30
0.0
 70
   128
 71
     1
 72
     4
 73
     7
 74
     6
  0
VERTEX
  5
5D
330
4F
100
AcDbEntity
  8
ｴｸｽﾃﾘｱ商品
 62
   250
370
    20
100
AcDbFaceRecord
 10
0.0
 20
0.0
 30
0.0
 70
   128
 71
     4
 72
     3
 73
     8
 74
     7
  0
VERTEX
  5
5E
330
4F
100
AcDbEntity
  8
ｴｸｽﾃﾘｱ商品
 62
   250
370
    20
100
AcDbFaceRecord
 10
0.0
 20
0.0
 30
0.0
 70
   128
 71
     3
 72
     2
 73
     5
 74
     8
  0
SEQEND
  5
50
330
4F
100
AcDbEntity
  8
ｴｸｽﾃﾘｱ商品
370
    20
  0
POLYLINE
  5
5F
330
3C
100
AcDbEntity
  8
ｴｸｽﾃﾘｱ商品
 62
   250
370
    20
100
AcDbPolyFaceMesh
 66
     1
 10
0.0
 20
0.0
 30
0.0
 70
    64
 71
     8
 72
     6
  0
VERTEX
  5
61
330
5F
100
AcDbEntity
  8
ｴｸｽﾃﾘｱ商品
 62
   250
370
    20
100
AcDbVertex
100
AcDbPolyFaceMeshVertex
 10
3044.587554247429
 20
5749.901483121103
 30
0.0
 70
   192
  0
VERTEX
  5
62
330
5F
100
AcDbEntity
  8
ｴｸｽﾃﾘｱ商品
 62
   250
370
    20
100
AcDbVertex
100
AcDbPolyFaceMeshVertex
 10
3164.587554247429
 20
5749.901483121103
 30
0.0
 70
   192
  0
VERTEX
  5
63
330
5F
100
AcDbEntity
  8
ｴｸｽﾃﾘｱ商品
 62
   250
370
    20
100
AcDbVertex
100
AcDbPolyFaceMeshVertex
 10
3164.587554247429
 20
5629.901483121103
 30
0.0
 70
   192
  0
VERTEX
  5
64
330
5F
100
AcDbEntity
  8
ｴｸｽﾃﾘｱ商品
 62
   250
370
    20
100
AcDbVertex
100
AcDbPolyFaceMeshVertex
 10
3044.587554247429
 20
5629.901483121103
 30
0.0
 70
   192
  0
VERTEX
  5
65
330
5F
100
AcDbEntity
  8
ｴｸｽﾃﾘｱ商品
 62
   250
370
    20
100
AcDbVertex
100
AcDbPolyFaceMeshVertex
 10
3164.587554247429
 20
5749.901483121103
 30
2355.0
 70
   192
  0
VERTEX
  5
66
330
5F
100
AcDbEntity
  8
ｴｸｽﾃﾘｱ商品
 62
   250
370
    20
100
AcDbVertex
100
AcDbPolyFaceMeshVertex
 10
3044.587554247429
 20
5749.901483121103
 30
2355.0
 70
   192
  0
VERTEX
  5
67
330
5F
100
AcDbEntity
  8
ｴｸｽﾃﾘｱ商品
 62
   250
370
    20
100
AcDbVertex
100
AcDbPolyFaceMeshVertex
 10
3044.587554247429
 20
5629.901483121103
 30
2355.0
 70
   192
  0
VERTEX
  5
68
330
5F
100
AcDbEntity
  8
ｴｸｽﾃﾘｱ商品
 62
   250
370
    20
100
AcDbVertex
100
AcDbPolyFaceMeshVertex
 10
3164.587554247429
 20
5629.901483121103
 30
2355.0
 70
   192
  0
VERTEX
  5
69
330
5F
100
AcDbEntity
  8
ｴｸｽﾃﾘｱ商品
 62
   250
370
    20
100
AcDbFaceRecord
 10
0.0
 20
0.0
 30
0.0
 70
   128
 71
     1
 72
     2
 73
     3
 74
     4
  0
VERTEX
  5
6A
330
5F
100
AcDbEntity
  8
ｴｸｽﾃﾘｱ商品
 62
   250
370
    20
100
AcDbFaceRecord
 10
0.0
 20
0.0
 30
0.0
 70
   128
 71
     5
 72
     6
 73
     7
 74
     8
  0
VERTEX
  5
6B
330
5F
100
AcDbEntity
  8
ｴｸｽﾃﾘｱ商品
 62
   250
370
    20
100
AcDbFaceRecord
 10
0.0
 20
0.0
 30
0.0
 70
   128
 71
     2
 72
     1
 73
     6
 74
     5
  0
VERTEX
  5
6C
330
5F
100
AcDbEntity
  8
ｴｸｽﾃﾘｱ商品
 62
   250
370
    20
100
AcDbFaceRecord
 10
0.0
 20
0.0
 30
0.0
 70
   128
 71
     1
 72
     4
 73
     7
 74
     6
  0
VERTEX
  5
6D
330
5F
100
AcDbEntity
  8
ｴｸｽﾃﾘｱ商品
 62
   250
370
    20
100
AcDbFaceRecord
 10
0.0
 20
0.0
 30
0.0
 70
   128
 71
     4
 72
     3
 73
     8
 74
     7
  0
VERTEX
  5
6E
330
5F
100
AcDbEntity
  8
ｴｸｽﾃﾘｱ商品
 62
   250
370
    20
100
AcDbFaceRecord
 10
0.0
 20
0.0
 30
0.0
 70
   128
 71
     3
 72
     2
 73
     5
 74
     8
  0
SEQEND
  5
60
330
5F
100
AcDbEntity
  8
ｴｸｽﾃﾘｱ商品
370
    20
  0
POLYLINE
  5
6F
330
3C
100
AcDbEntity
  8
ｴｸｽﾃﾘｱ商品
 62
   250
370
    20
100
AcDbPolyFaceMesh
 66
     1
 10
0.0
 20
0.0
 30
0.0
 70
    64
 71
     8
 72
     6
  0
VERTEX
  5
71
330
6F
100
AcDbEntity
  8
ｴｸｽﾃﾘｱ商品
 62
   250
370
    20
100
AcDbVertex
100
AcDbPolyFaceMeshVertex
 10
5925.58755424743
 20
7249.901483121103
 30
0.0
 70
   192
  0
VERTEX
  5
72
330
6F
100
AcDbEntity
  8
ｴｸｽﾃﾘｱ商品
 62
   250
370
    20
100
AcDbVertex
100
AcDbPolyFaceMeshVertex
 10
6045.58755424743
 20
7249.901483121103
 30
0.0
 70
   192
  0
VERTEX
  5
73
330
6F
100
AcDbEntity
  8
ｴｸｽﾃﾘｱ商品
 62
   250
370
    20
100
AcDbVertex
100
AcDbPolyFaceMeshVertex
 10
6045.58755424743
 20
7129.901483121103
 30
0.0
 70
   192
  0
VERTEX
  5
74
330
6F
100
AcDbEntity
  8
ｴｸｽﾃﾘｱ商品
 62
   250
370
    20
100
AcDbVertex
100
AcDbPolyFaceMeshVertex
 10
5925.58755424743
 20
7129.901483121103
 30
0.0
 70
   192
  0
VERTEX
  5
75
330
6F
100
AcDbEntity
  8
ｴｸｽﾃﾘｱ商品
 62
   250
370
    20
100
AcDbVertex
100
AcDbPolyFaceMeshVertex
 10
6045.58755424743
 20
7249.901483121103
 30
2407.381154237622
 70
   192
  0
VERTEX
  5
76
330
6F
100
AcDbEntity
  8
ｴｸｽﾃﾘｱ商品
 62
   250
370
    20
100
AcDbVertex
100
AcDbPolyFaceMeshVertex
 10
5925.58755424743
 20
7249.901483121103
 30
2407.381154237622
 70
   192
  0
VERTEX
  5
77
330
6F
100
AcDbEntity
  8
ｴｸｽﾃﾘｱ商品
 62
   250
370
    20
100
AcDbVertex
100
AcDbPolyFaceMeshVertex
 10
5925.58755424743
 20
7129.901483121103
 30
2407.381154237622
 70
   192
  0
VERTEX
  5
78
330
6F
100
AcDbEntity
  8
ｴｸｽﾃﾘｱ商品
 62
   250
370
    20
100
AcDbVertex
100
AcDbPolyFaceMeshVertex
 10
6045.58755424743
 20
7129.901483121103
 30
2407.381154237622
 70
   192
  0
VERTEX
  5
79
330
6F
100
AcDbEntity
  8
ｴｸｽﾃﾘｱ商品
 62
   250
370
    20
100
AcDbFaceRecord
 10
0.0
 20
0.0
 30
0.0
 70
   128
 71
     1
 72
     2
 73
     3
 74
     4
  0
VERTEX
  5
7A
330
6F
100
AcDbEntity
  8
ｴｸｽﾃﾘｱ商品
 62
   250
370
    20
100
AcDbFaceRecord
 10
0.0
 20
0.0
 30
0.0
 70
   128
 71
     5
 72
     6
 73
     7
 74
     8
  0
VERTEX
  5
7B
330
6F
100
AcDbEntity
  8
ｴｸｽﾃﾘｱ商品
 62
   250
370
    20
100
AcDbFaceRecord
 10
0.0
 20
0.0
 30
0.0
 70
   128
 71
     2
 72
     1
 73
     6
 74
     5
  0
VERTEX
  5
7C
330
6F
100
AcDbEntity
  8
ｴｸｽﾃﾘｱ商品
 62
   250
370
    20
100
AcDbFaceRecord
 10
0.0
 20
0.0
 30
0.0
 70
   128
 71
     1
 72
     4
 73
     7
 74
     6
  0
VERTEX
  5
7D
330
6F
100
AcDbEntity
  8
ｴｸｽﾃﾘｱ商品
 62
   250
370
    20
100
AcDbFaceRecord
 10
0.0
 20
0.0
 30
0.0
 70
   128
 71
     4
 72
     3
 73
     8
 74
     7
  0
VERTEX
  5
7E
330
6F
100
AcDbEntity
  8
ｴｸｽﾃﾘｱ商品
 62
   250
370
    20
100
AcDbFaceRecord
 10
0.0
 20
0.0
 30
0.0
 70
   128
 71
     3
 72
     2
 73
     5
 74
     8
  0
SEQEND
  5
70
330
6F
100
AcDbEntity
  8
ｴｸｽﾃﾘｱ商品
370
    20
  0
POLYLINE
  5
7F
330
3C
100
AcDbEntity
  8
ｴｸｽﾃﾘｱ商品
 62
   250
370
    20
100
AcDbPolyFaceMesh
 66
     1
 10
0.0
 20
0.0
 30
0.0
 70
    64
 71
     8
 72
     6
  0
VERTEX
  5
81
330
7F
100
AcDbEntity
  8
ｴｸｽﾃﾘｱ商品
 62
   250
370
    20
100
AcDbVertex
100
AcDbPolyFaceMeshVertex
 10
3044.587554247429
 20
7249.901483121103
 30
2407.381154237622
 70
   192
  0
VERTEX
  5
82
330
7F
100
AcDbEntity
  8
ｴｸｽﾃﾘｱ商品
 62
   250
370
    20
100
AcDbVertex
100
AcDbPolyFaceMeshVertex
 10
6045.58755424743
 20
7249.901483121103
 30
2407.381154237622
 70
   192
  0
VERTEX
  5
83
330
7F
100
AcDbEntity
  8
ｴｸｽﾃﾘｱ商品
 62
   250
370
    20
100
AcDbVertex
100
AcDbPolyFaceMeshVertex
 10
6045.58755424743
 20
7129.901483121103
 30
2407.381154237622
 70
   192
  0
VERTEX
  5
84
330
7F
100
AcDbEntity
  8
ｴｸｽﾃﾘｱ商品
 62
   250
370
    20
100
AcDbVertex
100
AcDbPolyFaceMeshVertex
 10
3044.587554247429
 20
7129.901483121104
 30
2407.381154237622
 70
   192
  0
VERTEX
  5
85
330
7F
100
AcDbEntity
  8
ｴｸｽﾃﾘｱ商品
 62
   250
370
    20
100
AcDbVertex
100
AcDbPolyFaceMeshVertex
 10
6045.58755424743
 20
7249.901483121103
 30
2512.381154237622
 70
   192
  0
VERTEX
  5
86
330
7F
100
AcDbEntity
  8
ｴｸｽﾃﾘｱ商品
 62
   250
370
    20
100
AcDbVertex
100
AcDbPolyFaceMeshVertex
 10
3044.587554247429
 20
7249.901483121103
 30
2512.381154237622
 70
   192
  0
VERTEX
  5
87
330
7F
100
AcDbEntity
  8
ｴｸｽﾃﾘｱ商品
 62
   250
370
    20
100
AcDbVertex
100
AcDbPolyFaceMeshVertex
 10
3044.587554247429
 20
7129.901483121104
 30
2512.381154237622
 70
   192
  0
VERTEX
  5
88
330
7F
100
AcDbEntity
  8
ｴｸｽﾃﾘｱ商品
 62
   250
370
    20
100
AcDbVertex
100
AcDbPolyFaceMeshVertex
 10
6045.58755424743
 20
7129.901483121103
 30
2512.381154237622
 70
   192
  0
VERTEX
  5
89
330
7F
100
AcDbEntity
  8
ｴｸｽﾃﾘｱ商品
 62
   250
370
    20
100
AcDbFaceRecord
 10
0.0
 20
0.0
 30
0.0
 70
   128
 71
     1
 72
     2
 73
     3
 74
     4
  0
VERTEX
  5
8A
330
7F
100
AcDbEntity
  8
ｴｸｽﾃﾘｱ商品
 62
   250
370
    20
100
AcDbFaceRecord
 10
0.0
 20
0.0
 30
0.0
 70
   128
 71
     5
 72
     6
 73
     7
 74
     8
  0
VERTEX
  5
8B
330
7F
100
AcDbEntity
  8
ｴｸｽﾃﾘｱ商品
 62
   250
370
    20
100
AcDbFaceRecord
 10
0.0
 20
0.0
 30
0.0
 70
   128
 71
     2
 72
     1
 73
     6
 74
     5
  0
VERTEX
  5
8C
330
7F
100
AcDbEntity
  8
ｴｸｽﾃﾘｱ商品
 62
   250
370
    20
100
AcDbFaceRecord
 10
0.0
 20
0.0
 30
0.0
 70
   128
 71
     1
 72
     4
 73
     7
 74
     6
  0
VERTEX
  5
8D
330
7F
100
AcDbEntity
  8
ｴｸｽﾃﾘｱ商品
 62
   250
370
    20
100
AcDbFaceRecord
 10
0.0
 20
0.0
 30
0.0
 70
   128
 71
     4
 72
     3
 73
     8
 74
     7
  0
VERTEX
  5
8E
330
7F
100
AcDbEntity
  8
ｴｸｽﾃﾘｱ商品
 62
   250
370
    20
100
AcDbFaceRecord
 10
0.0
 20
0.0
 30
0.0
 70
   128
 71
     3
 72
     2
 73
     5
 74
     8
  0
SEQEND
  5
80
330
7F
100
AcDbEntity
  8
ｴｸｽﾃﾘｱ商品
370
    20
  0
POLYLINE
  5
8F
330
3C
100
AcDbEntity
  8
ｴｸｽﾃﾘｱ商品
 62
   250
370
    20
100
AcDbPolyFaceMesh
 66
     1
 10
0.0
 20
0.0
 30
0.0
 70
    64
 71
     8
 72
     6
  0
VERTEX
  5
91
330
8F
100
AcDbEntity
  8
ｴｸｽﾃﾘｱ商品
 62
   250
370
    20
100
AcDbVertex
100
AcDbPolyFaceMeshVertex
 10
3044.587554247429
 20
7249.901483121103
 30
0.0
 70
   192
  0
VERTEX
  5
92
330
8F
100
AcDbEntity
  8
ｴｸｽﾃﾘｱ商品
 62
   250
370
    20
100
AcDbVertex
100
AcDbPolyFaceMeshVertex
 10
3164.587554247429
 20
7249.901483121103
 30
0.0
 70
   192
  0
VERTEX
  5
93
330
8F
100
AcDbEntity
  8
ｴｸｽﾃﾘｱ商品
 62
   250
370
    20
100
AcDbVertex
100
AcDbPolyFaceMeshVertex
 10
3164.587554247429
 20
7129.901483121103
 30
0.0
 70
   192
  0
VERTEX
  5
94
330
8F
100
AcDbEntity
  8
ｴｸｽﾃﾘｱ商品
 62
   250
370
    20
100
AcDbVertex
100
AcDbPolyFaceMeshVertex
 10
3044.587554247429
 20
7129.901483121103
 30
0.0
 70
   192
  0
VERTEX
  5
95
330
8F
100
AcDbEntity
  8
ｴｸｽﾃﾘｱ商品
 62
   250
370
    20
100
AcDbVertex
100
AcDbPolyFaceMeshVertex
 10
3164.587554247429
 20
7249.901483121103
 30
2407.381154237622
 70
   192
  0
VERTEX
  5
96
330
8F
100
AcDbEntity
  8
ｴｸｽﾃﾘｱ商品
 62
   250
370
    20
100
AcDbVertex
100
AcDbPolyFaceMeshVertex
 10
3044.587554247429
 20
7249.901483121103
 30
2407.381154237622
 70
   192
  0
VERTEX
  5
97
330
8F
100
AcDbEntity
  8
ｴｸｽﾃﾘｱ商品
 62
   250
370
    20
100
AcDbVertex
100
AcDbPolyFaceMeshVertex
 10
3044.587554247429
 20
7129.901483121103
 30
2407.381154237622
 70
   192
  0
VERTEX
  5
98
330
8F
100
AcDbEntity
  8
ｴｸｽﾃﾘｱ商品
 62
   250
370
    20
100
AcDbVertex
100
AcDbPolyFaceMeshVertex
 10
3164.587554247429
 20
7129.901483121103
 30
2407.381154237622
 70
   192
  0
VERTEX
  5
99
330
8F
100
AcDbEntity
  8
ｴｸｽﾃﾘｱ商品
 62
   250
370
    20
100
AcDbFaceRecord
 10
0.0
 20
0.0
 30
0.0
 70
   128
 71
     1
 72
     2
 73
     3
 74
     4
  0
VERTEX
  5
9A
330
8F
100
AcDbEntity
  8
ｴｸｽﾃﾘｱ商品
 62
   250
370
    20
100
AcDbFaceRecord
 10
0.0
 20
0.0
 30
0.0
 70
   128
 71
     5
 72
     6
 73
     7
 74
     8
  0
VERTEX
  5
9B
330
8F
100
AcDbEntity
  8
ｴｸｽﾃﾘｱ商品
 62
   250
370
    20
100
AcDbFaceRecord
 10
0.0
 20
0.0
 30
0.0
 70
   128
 71
     2
 72
     1
 73
     6
 74
     5
  0
VERTEX
  5
9C
330
8F
100
AcDbEntity
  8
ｴｸｽﾃﾘｱ商品
 62
   250
370
    20
100
AcDbFaceRecord
 10
0.0
 20
0.0
 30
0.0
 70
   128
 71
     1
 72
     4
 73
     7
 74
     6
  0
VERTEX
  5
9D
330
8F
100
AcDbEntity
  8
ｴｸｽﾃﾘｱ商品
 62
   250
370
    20
100
AcDbFaceRecord
 10
0.0
 20
0.0
 30
0.0
 70
   128
 71
     4
 72
     3
 73
     8
 74
     7
  0
VERTEX
  5
9E
330
8F
100
AcDbEntity
  8
ｴｸｽﾃﾘｱ商品
 62
   250
370
    20
100
AcDbFaceRecord
 10
0.0
 20
0.0
 30
0.0
 70
   128
 71
     3
 72
     2
 73
     5
 74
     8
  0
SEQEND
  5
90
330
8F
100
AcDbEntity
  8
ｴｸｽﾃﾘｱ商品
370
    20
  0
POLYLINE
  5
9F
330
3C
100
AcDbEntity
  8
ｴｸｽﾃﾘｱ商品
 62
   250
370
    20
100
AcDbPolyFaceMesh
 66
     1
 10
0.0
 20
0.0
 30
0.0
 70
    64
 71
     8
 72
     6
  0
VERTEX
  5
A1
330
9F
100
AcDbEntity
  8
ｴｸｽﾃﾘｱ商品
 62
   250
370
    20
100
AcDbVertex
100
AcDbPolyFaceMeshVertex
 10
5925.58755424743
 20
8749.901483121104
 30
0.0
 70
   192
  0
VERTEX
  5
A2
330
9F
100
AcDbEntity
  8
ｴｸｽﾃﾘｱ商品
 62
   250
370
    20
100
AcDbVertex
100
AcDbPolyFaceMeshVertex
 10
6045.58755424743
 20
8749.901483121104
 30
0.0
 70
   192
  0
VERTEX
  5
A3
330
9F
100
AcDbEntity
  8
ｴｸｽﾃﾘｱ商品
 62
   250
370
    20
100
AcDbVertex
100
AcDbPolyFaceMeshVertex
 10
6045.58755424743
 20
8629.901483121104
 30
0.0
 70
   192
  0
VERTEX
  5
A4
330
9F
100
AcDbEntity
  8
ｴｸｽﾃﾘｱ商品
 62
   250
370
    20
100
AcDbVertex
100
AcDbPolyFaceMeshVertex
 10
5925.58755424743
 20
8629.901483121104
 30
0.0
 70
   192
  0
VERTEX
  5
A5
330
9F
100
AcDbEntity
  8
ｴｸｽﾃﾘｱ商品
 62
   250
370
    20
100
AcDbVertex
100
AcDbPolyFaceMeshVertex
 10
6045.58755424743
 20
8749.901483121104
 30
2459.762308475243
 70
   192
  0
VERTEX
  5
A6
330
9F
100
AcDbEntity
  8
ｴｸｽﾃﾘｱ商品
 62
   250
370
    20
100
AcDbVertex
100
AcDbPolyFaceMeshVertex
 10
5925.58755424743
 20
8749.901483121104
 30
2459.762308475243
 70
   192
  0
VERTEX
  5
A7
330
9F
100
AcDbEntity
  8
ｴｸｽﾃﾘｱ商品
 62
   250
370
    20
100
AcDbVertex
100
AcDbPolyFaceMeshVertex
 10
5925.58755424743
 20
8629.901483121104
 30
2459.762308475243
 70
   192
  0
VERTEX
  5
A8
330
9F
100
AcDbEntity
  8
ｴｸｽﾃﾘｱ商品
 62
   250
370
    20
100
AcDbVertex
100
AcDbPolyFaceMeshVertex
 10
6045.58755424743
 20
8629.901483121104
 30
2459.762308475243
 70
   192
  0
VERTEX
  5
A9
330
9F
100
AcDbEntity
  8
ｴｸｽﾃﾘｱ商品
 62
   250
370
    20
100
AcDbFaceRecord
 10
0.0
 20
0.0
 30
0.0
 70
   128
 71
     1
 72
     2
 73
     3
 74
     4
  0
VERTEX
  5
AA
330
9F
100
AcDbEntity
  8
ｴｸｽﾃﾘｱ商品
 62
   250
370
    20
100
AcDbFaceRecord
 10
0.0
 20
0.0
 30
0.0
 70
   128
 71
     5
 72
     6
 73
     7
 74
     8
  0
VERTEX
  5
AB
330
9F
100
AcDbEntity
  8
ｴｸｽﾃﾘｱ商品
 62
   250
370
    20
100
AcDbFaceRecord
 10
0.0
 20
0.0
 30
0.0
 70
   128
 71
     2
 72
     1
 73
     6
 74
     5
  0
VERTEX
  5
AC
330
9F
100
AcDbEntity
  8
ｴｸｽﾃﾘｱ商品
 62
   250
370
    20
100
AcDbFaceRecord
 10
0.0
 20
0.0
 30
0.0
 70
   128
 71
     1
 72
     4
 73
     7
 74
     6
  0
VERTEX
  5
AD
330
9F
100
AcDbEntity
  8
ｴｸｽﾃﾘｱ商品
 62
   250
370
    20
100
AcDbFaceRecord
 10
0.0
 20
0.0
 30
0.0
 70
   128
 71
     4
 72
     3
 73
     8
 74
     7
  0
VERTEX
  5
AE
330
9F
100
AcDbEntity
  8
ｴｸｽﾃﾘｱ商品
 62
   250
370
    20
100
AcDbFaceRecord
 10
0.0
 20
0.0
 30
0.0
 70
   128
 71
     3
 72
     2
 73
     5
 74
     8
  0
SEQEND
  5
A0
330
9F
100
AcDbEntity
  8
ｴｸｽﾃﾘｱ商品
370
    20
  0
POLYLINE
  5
AF
330
3C
100
AcDbEntity
  8
ｴｸｽﾃﾘｱ商品
 62
   250
370
    20
100
AcDbPolyFaceMesh
 66
     1
 10
0.0
 20
0.0
 30
0.0
 70
    64
 71
     8
 72
     6
  0
VERTEX
  5
B1
330
AF
100
AcDbEntity
  8
ｴｸｽﾃﾘｱ商品
 62
   250
370
    20
100
AcDbVertex
100
AcDbPolyFaceMeshVertex
 10
3044.587554247429
 20
8749.901483121104
 30
2459.762308475243
 70
   192
  0
VERTEX
  5
B2
330
AF
100
AcDbEntity
  8
ｴｸｽﾃﾘｱ商品
 62
   250
370
    20
100
AcDbVertex
100
AcDbPolyFaceMeshVertex
 10
6045.58755424743
 20
8749.901483121104
 30
2459.762308475243
 70
   192
  0
VERTEX
  5
B3
330
AF
100
AcDbEntity
  8
ｴｸｽﾃﾘｱ商品
 62
   250
370
    20
100
AcDbVertex
100
AcDbPolyFaceMeshVertex
 10
6045.58755424743
 20
8629.901483121104
 30
2459.762308475243
 70
   192
  0
VERTEX
  5
B4
330
AF
100
AcDbEntity
  8
ｴｸｽﾃﾘｱ商品
 62
   250
370
    20
100
AcDbVertex
100
AcDbPolyFaceMeshVertex
 10
3044.587554247429
 20
8629.901483121104
 30
2459.762308475243
 70
   192
  0
VERTEX
  5
B5
330
AF
100
AcDbEntity
  8
ｴｸｽﾃﾘｱ商品
 62
   250
370
    20
100
AcDbVertex
100
AcDbPolyFaceMeshVertex
 10
6045.58755424743
 20
8749.901483121104
 30
2564.762308475243
 70
   192
  0
VERTEX
  5
B6
330
AF
100
AcDbEntity
  8
ｴｸｽﾃﾘｱ商品
 62
   250
370
    20
100
AcDbVertex
100
AcDbPolyFaceMeshVertex
 10
3044.587554247429
 20
8749.901483121104
 30
2564.762308475243
 70
   192
  0
VERTEX
  5
B7
330
AF
100
AcDbEntity
  8
ｴｸｽﾃﾘｱ商品
 62
   250
370
    20
100
AcDbVertex
100
AcDbPolyFaceMeshVertex
 10
3044.587554247429
 20
8629.901483121104
 30
2564.762308475243
 70
   192
  0
VERTEX
  5
B8
330
AF
100
AcDbEntity
  8
ｴｸｽﾃﾘｱ商品
 62
   250
370
    20
100
AcDbVertex
100
AcDbPolyFaceMeshVertex
 10
6045.58755424743
 20
8629.901483121104
 30
2564.762308475243
 70
   192
  0
VERTEX
  5
B9
330
AF
100
AcDbEntity
  8
ｴｸｽﾃﾘｱ商品
 62
   250
370
    20
100
AcDbFaceRecord
 10
0.0
 20
0.0
 30
0.0
 70
   128
 71
     1
 72
     2
 73
     3
 74
     4
  0
VERTEX
  5
BA
330
AF
100
AcDbEntity
  8
ｴｸｽﾃﾘｱ商品
 62
   250
370
    20
100
AcDbFaceRecord
 10
0.0
 20
0.0
 30
0.0
 70
   128
 71
     5
 72
     6
 73
     7
 74
     8
  0
VERTEX
  5
BB
330
AF
100
AcDbEntity
  8
ｴｸｽﾃﾘｱ商品
 62
   250
370
    20
100
AcDbFaceRecord
 10
0.0
 20
0.0
 30
0.0
 70
   128
 71
     2
 72
     1
 73
     6
 74
     5
  0
VERTEX
  5
BC
330
AF
100
AcDbEntity
  8
ｴｸｽﾃﾘｱ商品
 62
   250
370
    20
100
AcDbFaceRecord
 10
0.0
 20
0.0
 30
0.0
 70
   128
 71
     1
 72
     4
 73
     7
 74
     6
  0
VERTEX
  5
BD
330
AF
100
AcDbEntity
  8
ｴｸｽﾃﾘｱ商品
 62
   250
370
    20
100
AcDbFaceRecord
 10
0.0
 20
0.0
 30
0.0
 70
   128
 71
     4
 72
     3
 73
     8
 74
     7
  0
VERTEX
  5
BE
330
AF
100
AcDbEntity
  8
ｴｸｽﾃﾘｱ商品
 62
   250
370
    20
100
AcDbFaceRecord
 10
0.0
 20
0.0
 30
0.0
 70
   128
 71
     3
 72
     2
 73
     5
 74
     8
  0
SEQEND
  5
B0
330
AF
100
AcDbEntity
  8
ｴｸｽﾃﾘｱ商品
370
    20
  0
POLYLINE
  5
BF
330
3C
100
AcDbEntity
  8
ｴｸｽﾃﾘｱ商品
 62
   250
370
    20
100
AcDbPolyFaceMesh
 66
     1
 10
0.0
 20
0.0
 30
0.0
 70
    64
 71
     8
 72
     6
  0
VERTEX
  5
C1
330
BF
100
AcDbEntity
  8
ｴｸｽﾃﾘｱ商品
 62
   250
370
    20
100
AcDbVertex
100
AcDbPolyFaceMeshVertex
 10
3044.587554247429
 20
8749.901483121104
 30
0.0
 70
   192
  0
VERTEX
  5
C2
330
BF
100
AcDbEntity
  8
ｴｸｽﾃﾘｱ商品
 62
   250
370
    20
100
AcDbVertex
100
AcDbPolyFaceMeshVertex
 10
3164.587554247429
 20
8749.901483121104
 30
0.0
 70
   192
  0
VERTEX
  5
C3
330
BF
100
AcDbEntity
  8
ｴｸｽﾃﾘｱ商品
 62
   250
370
    20
100
AcDbVertex
100
AcDbPolyFaceMeshVertex
 10
3164.587554247429
 20
8629.901483121104
 30
0.0
 70
   192
  0
VERTEX
  5
C4
330
BF
100
AcDbEntity
  8
ｴｸｽﾃﾘｱ商品
 62
   250
370
    20
100
AcDbVertex
100
AcDbPolyFaceMeshVertex
 10
3044.587554247429
 20
8629.901483121104
 30
0.0
 70
   192
  0
VERTEX
  5
C5
330
BF
100
AcDbEntity
  8
ｴｸｽﾃﾘｱ商品
 62
   250
370
    20
100
AcDbVertex
100
AcDbPolyFaceMeshVertex
 10
3164.587554247429
 20
8749.901483121104
 30
2459.762308475243
 70
   192
  0
VERTEX
  5
C6
330
BF
100
AcDbEntity
  8
ｴｸｽﾃﾘｱ商品
 62
   250
370
    20
100
AcDbVertex
100
AcDbPolyFaceMeshVertex
 10
3044.587554247429
 20
8749.901483121104
 30
2459.762308475243
 70
   192
  0
VERTEX
  5
C7
330
BF
100
AcDbEntity
  8
ｴｸｽﾃﾘｱ商品
 62
   250
370
    20
100
AcDbVertex
100
AcDbPolyFaceMeshVertex
 10
3044.587554247429
 20
8629.901483121104
 30
2459.762308475243
 70
   192
  0
VERTEX
  5
C8
330
BF
100
AcDbEntity
  8
ｴｸｽﾃﾘｱ商品
 62
   250
370
    20
100
AcDbVertex
100
AcDbPolyFaceMeshVertex
 10
3164.587554247429
 20
8629.901483121104
 30
2459.762308475243
 70
   192
  0
VERTEX
  5
C9
330
BF
100
AcDbEntity
  8
ｴｸｽﾃﾘｱ商品
 62
   250
370
    20
100
AcDbFaceRecord
 10
0.0
 20
0.0
 30
0.0
 70
   128
 71
     1
 72
     2
 73
     3
 74
     4
  0
VERTEX
  5
CA
330
BF
100
AcDbEntity
  8
ｴｸｽﾃﾘｱ商品
 62
   250
370
    20
100
AcDbFaceRecord
 10
0.0
 20
0.0
 30
0.0
 70
   128
 71
     5
 72
     6
 73
     7
 74
     8
  0
VERTEX
  5
CB
330
BF
100
AcDbEntity
  8
ｴｸｽﾃﾘｱ商品
 62
   250
370
    20
100
AcDbFaceRecord
 10
0.0
 20
0.0
 30
0.0
 70
   128
 71
     2
 72
     1
 73
     6
 74
     5
  0
VERTEX
  5
CC
330
BF
100
AcDbEntity
  8
ｴｸｽﾃﾘｱ商品
 62
   250
370
    20
100
AcDbFaceRecord
 10
0.0
 20
0.0
 30
0.0
 70
   128
 71
     1
 72
     4
 73
     7
 74
     6
  0
VERTEX
  5
CD
330
BF
100
AcDbEntity
  8
ｴｸｽﾃﾘｱ商品
 62
   250
370
    20
100
AcDbFaceRecord
 10
0.0
 20
0.0
 30
0.0
 70
   128
 71
     4
 72
     3
 73
     8
 74
     7
  0
VERTEX
  5
CE
330
BF
100
AcDbEntity
  8
ｴｸｽﾃﾘｱ商品
 62
   250
370
    20
100
AcDbFaceRecord
 10
0.0
 20
0.0
 30
0.0
 70
   128
 71
     3
 72
     2
 73
     5
 74
     8
  0
SEQEND
  5
C0
330
BF
100
AcDbEntity
  8
ｴｸｽﾃﾘｱ商品
370
    20
  0
POLYLINE
  5
CF
330
3C
100
AcDbEntity
  8
ｴｸｽﾃﾘｱ商品
 62
   250
370
    20
100
AcDbPolyFaceMesh
 66
     1
 10
0.0
 20
0.0
 30
0.0
 70
    64
 71
     8
 72
     6
  0
VERTEX
  5
D1
330
CF
100
AcDbEntity
  8
ｴｸｽﾃﾘｱ商品
 62
   250
370
    20
100
AcDbVertex
100
AcDbPolyFaceMeshVertex
 10
5925.58755424743
 20
10249.9014831211
 30
0.0
 70
   192
  0
VERTEX
  5
D2
330
CF
100
AcDbEntity
  8
ｴｸｽﾃﾘｱ商品
 62
   250
370
    20
100
AcDbVertex
100
AcDbPolyFaceMeshVertex
 10
6045.58755424743
 20
10249.9014831211
 30
0.0
 70
   192
  0
VERTEX
  5
D3
330
CF
100
AcDbEntity
  8
ｴｸｽﾃﾘｱ商品
 62
   250
370
    20
100
AcDbVertex
100
AcDbPolyFaceMeshVertex
 10
6045.58755424743
 20
10129.9014831211
 30
0.0
 70
   192
  0
VERTEX
  5
D4
330
CF
100
AcDbEntity
  8
ｴｸｽﾃﾘｱ商品
 62
   250
370
    20
100
AcDbVertex
100
AcDbPolyFaceMeshVertex
 10
5925.58755424743
 20
10129.9014831211
 30
0.0
 70
   192
  0
VERTEX
  5
D5
330
CF
100
AcDbEntity
  8
ｴｸｽﾃﾘｱ商品
 62
   250
370
    20
100
AcDbVertex
100
AcDbPolyFaceMeshVertex
 10
6045.58755424743
 20
10249.9014831211
 30
2512.143462712865
 70
   192
  0
VERTEX
  5
D6
330
CF
100
AcDbEntity
  8
ｴｸｽﾃﾘｱ商品
 62
   250
370
    20
100
AcDbVertex
100
AcDbPolyFaceMeshVertex
 10
5925.58755424743
 20
10249.9014831211
 30
2512.143462712865
 70
   192
  0
VERTEX
  5
D7
330
CF
100
AcDbEntity
  8
ｴｸｽﾃﾘｱ商品
 62
   250
370
    20
100
AcDbVertex
100
AcDbPolyFaceMeshVertex
 10
5925.58755424743
 20
10129.9014831211
 30
2512.143462712865
 70
   192
  0
VERTEX
  5
D8
330
CF
100
AcDbEntity
  8
ｴｸｽﾃﾘｱ商品
 62
   250
370
    20
100
AcDbVertex
100
AcDbPolyFaceMeshVertex
 10
6045.58755424743
 20
10129.9014831211
 30
2512.143462712865
 70
   192
  0
VERTEX
  5
D9
330
CF
100
AcDbEntity
  8
ｴｸｽﾃﾘｱ商品
 62
   250
370
    20
100
AcDbFaceRecord
 10
0.0
 20
0.0
 30
0.0
 70
   128
 71
     1
 72
     2
 73
     3
 74
     4
  0
VERTEX
  5
DA
330
CF
100
AcDbEntity
  8
ｴｸｽﾃﾘｱ商品
 62
   250
370
    20
100
AcDbFaceRecord
 10
0.0
 20
0.0
 30
0.0
 70
   128
 71
     5
 72
     6
 73
     7
 74
     8
  0
VERTEX
  5
DB
330
CF
100
AcDbEntity
  8
ｴｸｽﾃﾘｱ商品
 62
   250
370
    20
100
AcDbFaceRecord
 10
0.0
 20
0.0
 30
0.0
 70
   128
 71
     2
 72
     1
 73
     6
 74
     5
  0
VERTEX
  5
DC
330
CF
100
AcDbEntity
  8
ｴｸｽﾃﾘｱ商品
 62
   250
370
    20
100
AcDbFaceRecord
 10
0.0
 20
0.0
 30
0.0
 70
   128
 71
     1
 72
     4
 73
     7
 74
     6
  0
VERTEX
  5
DD
330
CF
100
AcDbEntity
  8
ｴｸｽﾃﾘｱ商品
 62
   250
370
    20
100
AcDbFaceRecord
 10
0.0
 20
0.0
 30
0.0
 70
   128
 71
     4
 72
     3
 73
     8
 74
     7
  0
VERTEX
  5
DE
330
CF
100
AcDbEntity
  8
ｴｸｽﾃﾘｱ商品
 62
   250
370
    20
100
AcDbFaceRecord
 10
0.0
 20
0.0
 30
0.0
 70
   128
 71
     3
 72
     2
 73
     5
 74
     8
  0
SEQEND
  5
D0
330
CF
100
AcDbEntity
  8
ｴｸｽﾃﾘｱ商品
370
    20
  0
POLYLINE
  5
DF
330
3C
100
AcDbEntity
  8
ｴｸｽﾃﾘｱ商品
 62
   250
370
    20
100
AcDbPolyFaceMesh
 66
     1
 10
0.0
 20
0.0
 30
0.0
 70
    64
 71
     8
 72
     6
  0
VERTEX
  5
E1
330
DF
100
AcDbEntity
  8
ｴｸｽﾃﾘｱ商品
 62
   250
370
    20
100
AcDbVertex
100
AcDbPolyFaceMeshVertex
 10
3044.587554247429
 20
10249.9014831211
 30
2512.143462712865
 70
   192
  0
VERTEX
  5
E2
330
DF
100
AcDbEntity
  8
ｴｸｽﾃﾘｱ商品
 62
   250
370
    20
100
AcDbVertex
100
AcDbPolyFaceMeshVertex
 10
6045.58755424743
 20
10249.9014831211
 30
2512.143462712865
 70
   192
  0
VERTEX
  5
E3
330
DF
100
AcDbEntity
  8
ｴｸｽﾃﾘｱ商品
 62
   250
370
    20
100
AcDbVertex
100
AcDbPolyFaceMeshVertex
 10
6045.58755424743
 20
10129.9014831211
 30
2512.143462712865
 70
   192
  0
VERTEX
  5
E4
330
DF
100
AcDbEntity
  8
ｴｸｽﾃﾘｱ商品
 62
   250
370
    20
100
AcDbVertex
100
AcDbPolyFaceMeshVertex
 10
3044.587554247429
 20
10129.9014831211
 30
2512.143462712865
 70
   192
  0
VERTEX
  5
E5
330
DF
100
AcDbEntity
  8
ｴｸｽﾃﾘｱ商品
 62
   250
370
    20
100
AcDbVertex
100
AcDbPolyFaceMeshVertex
 10
6045.58755424743
 20
10249.9014831211
 30
2617.143462712865
 70
   192
  0
VERTEX
  5
E6
330
DF
100
AcDbEntity
  8
ｴｸｽﾃﾘｱ商品
 62
   250
370
    20
100
AcDbVertex
100
AcDbPolyFaceMeshVertex
 10
3044.587554247429
 20
10249.9014831211
 30
2617.143462712865
 70
   192
  0
VERTEX
  5
E7
330
DF
100
AcDbEntity
  8
ｴｸｽﾃﾘｱ商品
 62
   250
370
    20
100
AcDbVertex
100
AcDbPolyFaceMeshVertex
 10
3044.587554247429
 20
10129.9014831211
 30
2617.143462712865
 70
   192
  0
VERTEX
  5
E8
330
DF
100
AcDbEntity
  8
ｴｸｽﾃﾘｱ商品
 62
   250
370
    20
100
AcDbVertex
100
AcDbPolyFaceMeshVertex
 10
6045.58755424743
 20
10129.9014831211
 30
2617.143462712865
 70
   192
  0
VERTEX
  5
E9
330
DF
100
AcDbEntity
  8
ｴｸｽﾃﾘｱ商品
 62
   250
370
    20
100
AcDbFaceRecord
 10
0.0
 20
0.0
 30
0.0
 70
   128
 71
     1
 72
     2
 73
     3
 74
     4
  0
VERTEX
  5
EA
330
DF
100
AcDbEntity
  8
ｴｸｽﾃﾘｱ商品
 62
   250
370
    20
100
AcDbFaceRecord
 10
0.0
 20
0.0
 30
0.0
 70
   128
 71
     5
 72
     6
 73
     7
 74
     8
  0
VERTEX
  5
EB
330
DF
100
AcDbEntity
  8
ｴｸｽﾃﾘｱ商品
 62
   250
370
    20
100
AcDbFaceRecord
 10
0.0
 20
0.0
 30
0.0
 70
   128
 71
     2
 72
     1
 73
     6
 74
     5
  0
VERTEX
  5
EC
330
DF
100
AcDbEntity
  8
ｴｸｽﾃﾘｱ商品
 62
   250
370
    20
100
AcDbFaceRecord
 10
0.0
 20
0.0
 30
0.0
 70
   128
 71
     1
 72
     4
 73
     7
 74
     6
  0
VERTEX
  5
ED
330
DF
100
AcDbEntity
  8
ｴｸｽﾃﾘｱ商品
 62
   250
370
    20
100
AcDbFaceRecord
 10
0.0
 20
0.0
 30
0.0
 70
   128
 71
     4
 72
     3
 73
     8
 74
     7
  0
VERTEX
  5
EE
330
DF
100
AcDbEntity
  8
ｴｸｽﾃﾘｱ商品
 62
   250
370
    20
100
AcDbFaceRecord
 10
0.0
 20
0.0
 30
0.0
 70
   128
 71
     3
 72
     2
 73
     5
 74
     8
  0
SEQEND
  5
E0
330
DF
100
AcDbEntity
  8
ｴｸｽﾃﾘｱ商品
370
    20
  0
POLYLINE
  5
EF
330
3C
100
AcDbEntity
  8
ｴｸｽﾃﾘｱ商品
 62
   250
370
    20
100
AcDbPolyFaceMesh
 66
     1
 10
0.0
 20
0.0
 30
0.0
 70
    64
 71
     8
 72
     6
  0
VERTEX
  5
F1
330
EF
100
AcDbEntity
  8
ｴｸｽﾃﾘｱ商品
 62
   250
370
    20
100
AcDbVertex
100
AcDbPolyFaceMeshVertex
 10
3044.587554247429
 20
10249.9014831211
 30
0.0
 70
   192
  0
VERTEX
  5
F2
330
EF
100
AcDbEntity
  8
ｴｸｽﾃﾘｱ商品
 62
   250
370
    20
100
AcDbVertex
100
AcDbPolyFaceMeshVertex
 10
3164.587554247429
 20
10249.9014831211
 30
0.0
 70
   192
  0
VERTEX
  5
F3
330
EF
100
AcDbEntity
  8
ｴｸｽﾃﾘｱ商品
 62
   250
370
    20
100
AcDbVertex
100
AcDbPolyFaceMeshVertex
 10
3164.587554247429
 20
10129.9014831211
 30
0.0
 70
   192
  0
VERTEX
  5
F4
330
EF
100
AcDbEntity
  8
ｴｸｽﾃﾘｱ商品
 62
   250
370
    20
100
AcDbVertex
100
AcDbPolyFaceMeshVertex
 10
3044.587554247429
 20
10129.9014831211
 30
0.0
 70
   192
  0
VERTEX
  5
F5
330
EF
100
AcDbEntity
  8
ｴｸｽﾃﾘｱ商品
 62
   250
370
    20
100
AcDbVertex
100
AcDbPolyFaceMeshVertex
 10
3164.587554247429
 20
10249.9014831211
 30
2512.143462712865
 70
   192
  0
VERTEX
  5
F6
330
EF
100
AcDbEntity
  8
ｴｸｽﾃﾘｱ商品
 62
   250
370
    20
100
AcDbVertex
100
AcDbPolyFaceMeshVertex
 10
3044.587554247429
 20
10249.9014831211
 30
2512.143462712865
 70
   192
  0
VERTEX
  5
F7
330
EF
100
AcDbEntity
  8
ｴｸｽﾃﾘｱ商品
 62
   250
370
    20
100
AcDbVertex
100
AcDbPolyFaceMeshVertex
 10
3044.587554247429
 20
10129.9014831211
 30
2512.143462712865
 70
   192
  0
VERTEX
  5
F8
330
EF
100
AcDbEntity
  8
ｴｸｽﾃﾘｱ商品
 62
   250
370
    20
100
AcDbVertex
100
AcDbPolyFaceMeshVertex
 10
3164.587554247429
 20
10129.9014831211
 30
2512.143462712865
 70
   192
  0
VERTEX
  5
F9
330
EF
100
AcDbEntity
  8
ｴｸｽﾃﾘｱ商品
 62
   250
370
    20
100
AcDbFaceRecord
 10
0.0
 20
0.0
 30
0.0
 70
   128
 71
     1
 72
     2
 73
     3
 74
     4
  0
VERTEX
  5
FA
330
EF
100
AcDbEntity
  8
ｴｸｽﾃﾘｱ商品
 62
   250
370
    20
100
AcDbFaceRecord
 10
0.0
 20
0.0
 30
0.0
 70
   128
 71
     5
 72
     6
 73
     7
 74
     8
  0
VERTEX
  5
FB
330
EF
100
AcDbEntity
  8
ｴｸｽﾃﾘｱ商品
 62
   250
370
    20
100
AcDbFaceRecord
 10
0.0
 20
0.0
 30
0.0
 70
   128
 71
     2
 72
     1
 73
     6
 74
     5
  0
VERTEX
  5
FC
330
EF
100
AcDbEntity
  8
ｴｸｽﾃﾘｱ商品
 62
   250
370
    20
100
AcDbFaceRecord
 10
0.0
 20
0.0
 30
0.0
 70
   128
 71
     1
 72
     4
 73
     7
 74
     6
  0
VERTEX
  5
FD
330
EF
100
AcDbEntity
  8
ｴｸｽﾃﾘｱ商品
 62
   250
370
    20
100
AcDbFaceRecord
 10
0.0
 20
0.0
 30
0.0
 70
   128
 71
     4
 72
     3
 73
     8
 74
     7
  0
VERTEX
  5
FE
330
EF
100
AcDbEntity
  8
ｴｸｽﾃﾘｱ商品
 62
   250
370
    20
100
AcDbFaceRecord
 10
0.0
 20
0.0
 30
0.0
 70
   128
 71
     3
 72
     2
 73
     5
 74
     8
  0
SEQEND
  5
F0
330
EF
100
AcDbEntity
  8
ｴｸｽﾃﾘｱ商品
370
    20
  0
POLYLINE
  5
FF
330
3C
100
AcDbEntity
  8
ｴｸｽﾃﾘｱ商品
 62
   250
370
    20
100
AcDbPolyFaceMesh
 66
     1
 10
0.0
 20
0.0
 30
0.0
 70
    64
 71
    50
 72
    40
  0
VERTEX
  5
101
330
FF
100
AcDbEntity
  8
ｴｸｽﾃﾘｱ商品
 62
   250
370
    20
100
AcDbVertex
100
AcDbPolyFaceMeshVertex
 10
6050.587554247429
 20
5268.36097414231
 30
2386.744974835125
 70
   192
  0
VERTEX
  5
102
330
FF
100
AcDbEntity
  8
ｴｸｽﾃﾘｱ商品
 62
   250
370
    20
100
AcDbVertex
100
AcDbPolyFaceMeshVertex
 10
3039.587554247428
 20
5268.36097414231
 30
2386.744974835125
 70
   192
  0
VERTEX
  5
103
330
FF
100
AcDbEntity
  8
ｴｸｽﾃﾘｱ商品
 62
   250
370
    20
100
AcDbVertex
100
AcDbPolyFaceMeshVertex
 10
3039.587554247428
 20
5261.38107480181
 30
2586.623140238944
 70
   192
  0
VERTEX
  5
104
330
FF
100
AcDbEntity
  8
ｴｸｽﾃﾘｱ商品
 62
   250
370
    20
100
AcDbVertex
100
AcDbPolyFaceMeshVertex
 10
6050.587554247429
 20
5261.38107480181
 30
2586.623140238944
 70
   192
  0
VERTEX
  5
105
330
FF
100
AcDbEntity
  8
ｴｸｽﾃﾘｱ商品
 62
   250
370
    20
100
AcDbVertex
100
AcDbPolyFaceMeshVertex
 10
2997.587554247428
 20
5219.406660067008
 30
2585.157361377439
 70
   192
  0
VERTEX
  5
106
330
FF
100
AcDbEntity
  8
ｴｸｽﾃﾘｱ商品
 62
   250
370
    20
100
AcDbVertex
100
AcDbPolyFaceMeshVertex
 10
6092.587554247429
 20
5219.406660067007
 30
2585.157361377439
 70
   192
  0
VERTEX
  5
107
330
FF
100
AcDbEntity
  8
ｴｸｽﾃﾘｱ商品
 62
   250
370
    20
100
AcDbVertex
100
AcDbPolyFaceMeshVertex
 10
2991.587554247428
 20
5214.317702019158
 30
2558.963802894727
 70
   192
  0
VERTEX
  5
108
330
FF
100
AcDbEntity
  8
ｴｸｽﾃﾘｱ商品
 62
   250
370
    20
100
AcDbVertex
100
AcDbPolyFaceMeshVertex
 10
6098.587554247429
 20
5214.317702019157
 30
2558.963802894727
 70
   192
  0
VERTEX
  5
109
330
FF
100
AcDbEntity
  8
ｴｸｽﾃﾘｱ商品
 62
   250
370
    20
100
AcDbVertex
100
AcDbPolyFaceMeshVertex
 10
2989.587554247428
 20
5213.261206776087
 30
2531.910451571807
 70
   192
  0
VERTEX
  5
10A
330
FF
100
AcDbEntity
  8
ｴｸｽﾃﾘｱ商品
 62
   250
370
    20
100
AcDbVertex
100
AcDbPolyFaceMeshVertex
 10
6100.587554247429
 20
5213.261206776087
 30
2531.910451571807
 70
   192
  0
VERTEX
  5
10B
330
FF
100
AcDbEntity
  8
ｴｸｽﾃﾘｱ商品
 62
   250
370
    20
100
AcDbVertex
100
AcDbPolyFaceMeshVertex
 10
2989.587554247428
 20
5213.854498220029
 30
2514.920807512482
 70
   192
  0
VERTEX
  5
10C
330
FF
100
AcDbEntity
  8
ｴｸｽﾃﾘｱ商品
 62
   250
370
    20
100
AcDbVertex
100
AcDbPolyFaceMeshVertex
 10
6100.587554247429
 20
5213.854498220029
 30
2514.920807512482
 70
   192
  0
VERTEX
  5
10D
330
FF
100
AcDbEntity
  8
ｴｸｽﾃﾘｱ商品
 62
   250
370
    20
100
AcDbVertex
100
AcDbPolyFaceMeshVertex
 10
2989.587554247428
 20
5215.948468022179
 30
2454.957357891336
 70
   192
  0
VERTEX
  5
10E
330
FF
100
AcDbEntity
  8
ｴｸｽﾃﾘｱ商品
 62
   250
370
    20
100
AcDbVertex
100
AcDbPolyFaceMeshVertex
 10
6100.587554247429
 20
5215.948468022179
 30
2454.957357891336
 70
   192
  0
VERTEX
  5
10F
330
FF
100
AcDbEntity
  8
ｴｸｽﾃﾘｱ商品
 62
   250
370
    20
100
AcDbVertex
100
AcDbPolyFaceMeshVertex
 10
2989.587554247428
 20
5216.541759466122
 30
2437.967713832012
 70
   192
  0
VERTEX
  5
110
330
FF
100
AcDbEntity
  8
ｴｸｽﾃﾘｱ商品
 62
   250
370
    20
100
AcDbVertex
100
AcDbPolyFaceMeshVertex
 10
6100.587554247429
 20
5216.541759466121
 30
2437.967713832012
 70
   192
  0
VERTEX
  5
111
330
FF
100
AcDbEntity
  8
ｴｸｽﾃﾘｱ商品
 62
   250
370
    20
100
AcDbVertex
100
AcDbPolyFaceMeshVertex
 10
2991.587554247428
 20
5219.482827531128
 30
2411.053960495901
 70
   192
  0
VERTEX
  5
112
330
FF
100
AcDbEntity
  8
ｴｸｽﾃﾘｱ商品
 62
   250
370
    20
100
AcDbVertex
100
AcDbPolyFaceMeshVertex
 10
6098.587554247429
 20
5219.482827531127
 30
2411.053960495901
 70
   192
  0
VERTEX
  5
113
330
FF
100
AcDbEntity
  8
ｴｸｽﾃﾘｱ商品
 62
   250
370
    20
100
AcDbVertex
100
AcDbPolyFaceMeshVertex
 10
2997.587554247428
 20
5226.386559407508
 30
2385.27919597362
 70
   192
  0
VERTEX
  5
114
330
FF
100
AcDbEntity
  8
ｴｸｽﾃﾘｱ商品
 62
   250
370
    20
100
AcDbVertex
100
AcDbPolyFaceMeshVertex
 10
6092.587554247429
 20
5226.386559407507
 30
2385.27919597362
 70
   192
  0
VERTEX
  5
115
330
FF
100
AcDbEntity
  8
ｴｸｽﾃﾘｱ商品
 62
   250
370
    20
100
AcDbVertex
100
AcDbPolyFaceMeshVertex
 10
3039.587554247428
 20
10624.4218914404
 30
2573.78274351185
 70
   192
  0
VERTEX
  5
116
330
FF
100
AcDbEntity
  8
ｴｸｽﾃﾘｱ商品
 62
   250
370
    20
100
AcDbVertex
100
AcDbPolyFaceMeshVertex
 10
3039.587554247428
 20
10617.4419920999
 30
2773.66090891567
 70
   192
  0
VERTEX
  5
117
330
FF
100
AcDbEntity
  8
ｴｸｽﾃﾘｱ商品
 62
   250
370
    20
100
AcDbVertex
100
AcDbPolyFaceMeshVertex
 10
2997.587554247429
 20
10659.4164068347
 30
2775.126687777175
 70
   192
  0
VERTEX
  5
118
330
FF
100
AcDbEntity
  8
ｴｸｽﾃﾘｱ商品
 62
   250
370
    20
100
AcDbVertex
100
AcDbPolyFaceMeshVertex
 10
2991.587554247429
 20
10666.32013871108
 30
2749.351923254893
 70
   192
  0
VERTEX
  5
119
330
FF
100
AcDbEntity
  8
ｴｸｽﾃﾘｱ商品
 62
   250
370
    20
100
AcDbVertex
100
AcDbPolyFaceMeshVertex
 10
2989.587554247429
 20
10669.26120677609
 30
2722.438169918782
 70
   192
  0
VERTEX
  5
11A
330
FF
100
AcDbEntity
  8
ｴｸｽﾃﾘｱ商品
 62
   250
370
    20
100
AcDbVertex
100
AcDbPolyFaceMeshVertex
 10
2989.587554247429
 20
10669.85449822003
 30
2705.448525859458
 70
   192
  0
VERTEX
  5
11B
330
FF
100
AcDbEntity
  8
ｴｸｽﾃﾘｱ商品
 62
   250
370
    20
100
AcDbVertex
100
AcDbPolyFaceMeshVertex
 10
2989.587554247429
 20
10671.94846802218
 30
2645.485076238312
 70
   192
  0
VERTEX
  5
11C
330
FF
100
AcDbEntity
  8
ｴｸｽﾃﾘｱ商品
 62
   250
370
    20
100
AcDbVertex
100
AcDbPolyFaceMeshVertex
 10
2989.587554247429
 20
10672.54175946612
 30
2628.495432178988
 70
   192
  0
VERTEX
  5
11D
330
FF
100
AcDbEntity
  8
ｴｸｽﾃﾘｱ商品
 62
   250
370
    20
100
AcDbVertex
100
AcDbPolyFaceMeshVertex
 10
2991.587554247429
 20
10671.48526422305
 30
2601.442080856067
 70
   192
  0
VERTEX
  5
11E
330
FF
100
AcDbEntity
  8
ｴｸｽﾃﾘｱ商品
 62
   250
370
    20
100
AcDbVertex
100
AcDbPolyFaceMeshVertex
 10
2997.587554247429
 20
10666.3963061752
 30
2575.248522373356
 70
   192
  0
VERTEX
  5
11F
330
FF
100
AcDbEntity
  8
ｴｸｽﾃﾘｱ商品
 62
   250
370
    20
100
AcDbVertex
100
AcDbPolyFaceMeshVertex
 10
6050.58755424743
 20
10624.4218914404
 30
2573.78274351185
 70
   192
  0
VERTEX
  5
120
330
FF
100
AcDbEntity
  8
ｴｸｽﾃﾘｱ商品
 62
   250
370
    20
100
AcDbVertex
100
AcDbPolyFaceMeshVertex
 10
6050.58755424743
 20
10617.4419920999
 30
2773.66090891567
 70
   192
  0
VERTEX
  5
121
330
FF
100
AcDbEntity
  8
ｴｸｽﾃﾘｱ商品
 62
   250
370
    20
100
AcDbVertex
100
AcDbPolyFaceMeshVertex
 10
6092.58755424743
 20
10659.4164068347
 30
2775.126687777175
 70
   192
  0
VERTEX
  5
122
330
FF
100
AcDbEntity
  8
ｴｸｽﾃﾘｱ商品
 62
   250
370
    20
100
AcDbVertex
100
AcDbPolyFaceMeshVertex
 10
6098.58755424743
 20
10666.32013871108
 30
2749.351923254893
 70
   192
  0
VERTEX
  5
123
330
FF
100
AcDbEntity
  8
ｴｸｽﾃﾘｱ商品
 62
   250
370
    20
100
AcDbVertex
100
AcDbPolyFaceMeshVertex
 10
6100.58755424743
 20
10669.26120677609
 30
2722.438169918782
 70
   192
  0
VERTEX
  5
124
330
FF
100
AcDbEntity
  8
ｴｸｽﾃﾘｱ商品
 62
   250
370
    20
100
AcDbVertex
100
AcDbPolyFaceMeshVertex
 10
6100.58755424743
 20
10669.85449822003
 30
2705.448525859458
 70
   192
  0
VERTEX
  5
125
330
FF
100
AcDbEntity
  8
ｴｸｽﾃﾘｱ商品
 62
   250
370
    20
100
AcDbVertex
100
AcDbPolyFaceMeshVertex
 10
6100.58755424743
 20
10671.94846802218
 30
2645.485076238312
 70
   192
  0
VERTEX
  5
126
330
FF
100
AcDbEntity
  8
ｴｸｽﾃﾘｱ商品
 62
   250
370
    20
100
AcDbVertex
100
AcDbPolyFaceMeshVertex
 10
6100.58755424743
 20
10672.54175946612
 30
2628.495432178988
 70
   192
  0
VERTEX
  5
127
330
FF
100
AcDbEntity
  8
ｴｸｽﾃﾘｱ商品
 62
   250
370
    20
100
AcDbVertex
100
AcDbPolyFaceMeshVertex
 10
6098.58755424743
 20
10671.48526422305
 30
2601.442080856067
 70
   192
  0
VERTEX
  5
128
330
FF
100
AcDbEntity
  8
ｴｸｽﾃﾘｱ商品
 62
   250
370
    20
100
AcDbVertex
100
AcDbPolyFaceMeshVertex
 10
6092.58755424743
 20
10666.3963061752
 30
2575.248522373356
 70
   192
  0
VERTEX
  5
129
330
FF
100
AcDbEntity
  8
ｴｸｽﾃﾘｱ商品
 62
   250
370
    20
100
AcDbVertex
100
AcDbPolyFaceMeshVertex
 10
6050.587554247429
 20
5268.36097414231
 30
2386.744974835125
 70
   192
  0
VERTEX
  5
12A
330
FF
100
AcDbEntity
  8
ｴｸｽﾃﾘｱ商品
 62
   250
370
    20
100
AcDbVertex
100
AcDbPolyFaceMeshVertex
 10
6050.587554247429
 20
5261.38107480181
 30
2586.623140238944
 70
   192
  0
VERTEX
  5
12B
330
FF
100
AcDbEntity
  8
ｴｸｽﾃﾘｱ商品
 62
   250
370
    20
100
AcDbVertex
100
AcDbPolyFaceMeshVertex
 10
6092.587554247429
 20
5219.406660067007
 30
2585.157361377439
 70
   192
  0
VERTEX
  5
12C
330
FF
100
AcDbEntity
  8
ｴｸｽﾃﾘｱ商品
 62
   250
370
    20
100
AcDbVertex
100
AcDbPolyFaceMeshVertex
 10
6098.587554247429
 20
5214.317702019157
 30
2558.963802894727
 70
   192
  0
VERTEX
  5
12D
330
FF
100
AcDbEntity
  8
ｴｸｽﾃﾘｱ商品
 62
   250
370
    20
100
AcDbVertex
100
AcDbPolyFaceMeshVertex
 10
6100.587554247429
 20
5213.261206776087
 30
2531.910451571807
 70
   192
  0
VERTEX
  5
12E
330
FF
100
AcDbEntity
  8
ｴｸｽﾃﾘｱ商品
 62
   250
370
    20
100
AcDbVertex
100
AcDbPolyFaceMeshVertex
 10
6100.587554247429
 20
5213.854498220029
 30
2514.920807512482
 70
   192
  0
VERTEX
  5
12F
330
FF
100
AcDbEntity
  8
ｴｸｽﾃﾘｱ商品
 62
   250
370
    20
100
AcDbVertex
100
AcDbPolyFaceMeshVertex
 10
6100.587554247429
 20
5215.948468022179
 30
2454.957357891336
 70
   192
  0
VERTEX
  5
130
330
FF
100
AcDbEntity
  8
ｴｸｽﾃﾘｱ商品
 62
   250
370
    20
100
AcDbVertex
100
AcDbPolyFaceMeshVertex
 10
6100.587554247429
 20
5216.541759466121
 30
2437.967713832012
 70
   192
  0
VERTEX
  5
131
330
FF
100
AcDbEntity
  8
ｴｸｽﾃﾘｱ商品
 62
   250
370
    20
100
AcDbVertex
100
AcDbPolyFaceMeshVertex
 10
6098.587554247429
 20
5219.482827531127
 30
2411.053960495901
 70
   192
  0
VERTEX
  5
132
330
FF
100
AcDbEntity
  8
ｴｸｽﾃﾘｱ商品
 62
   250
370
    20
100
AcDbVertex
100
AcDbPolyFaceMeshVertex
 10
6092.587554247429
 20
5226.386559407507
 30
2385.27919597362
 70
   192
  0
VERTEX
  5
133
330
FF
100
AcDbEntity
  8
ｴｸｽﾃﾘｱ商品
 62
   250
370
    20
100
AcDbFaceRecord
 10
0.0
 20
0.0
 30
0.0
 70
   128
 71
     1
 72
     2
 73
     3
 74
     4
  0
VERTEX
  5
134
330
FF
100
AcDbEntity
  8
ｴｸｽﾃﾘｱ商品
 62
   250
370
    20
100
AcDbFaceRecord
 10
0.0
 20
0.0
 30
0.0
 70
   128
 71
     4
 72
     3
 73
     5
 74
     6
  0
VERTEX
  5
135
330
FF
100
AcDbEntity
  8
ｴｸｽﾃﾘｱ商品
 62
   250
370
    20
100
AcDbFaceRecord
 10
0.0
 20
0.0
 30
0.0
 70
   128
 71
     6
 72
     5
 73
     7
 74
     8
  0
VERTEX
  5
136
330
FF
100
AcDbEntity
  8
ｴｸｽﾃﾘｱ商品
 62
   250
370
    20
100
AcDbFaceRecord
 10
0.0
 20
0.0
 30
0.0
 70
   128
 71
     8
 72
     7
 73
     9
 74
    10
  0
VERTEX
  5
137
330
FF
100
AcDbEntity
  8
ｴｸｽﾃﾘｱ商品
 62
   250
370
    20
100
AcDbFaceRecord
 10
0.0
 20
0.0
 30
0.0
 70
   128
 71
    10
 72
     9
 73
    11
 74
    12
  0
VERTEX
  5
138
330
FF
100
AcDbEntity
  8
ｴｸｽﾃﾘｱ商品
 62
   250
370
    20
100
AcDbFaceRecord
 10
0.0
 20
0.0
 30
0.0
 70
   128
 71
    12
 72
    11
 73
    13
 74
    14
  0
VERTEX
  5
139
330
FF
100
AcDbEntity
  8
ｴｸｽﾃﾘｱ商品
 62
   250
370
    20
100
AcDbFaceRecord
 10
0.0
 20
0.0
 30
0.0
 70
   128
 71
    14
 72
    13
 73
    15
 74
    16
  0
VERTEX
  5
13A
330
FF
100
AcDbEntity
  8
ｴｸｽﾃﾘｱ商品
 62
   250
370
    20
100
AcDbFaceRecord
 10
0.0
 20
0.0
 30
0.0
 70
   128
 71
    16
 72
    15
 73
    17
 74
    18
  0
VERTEX
  5
13B
330
FF
100
AcDbEntity
  8
ｴｸｽﾃﾘｱ商品
 62
   250
370
    20
100
AcDbFaceRecord
 10
0.0
 20
0.0
 30
0.0
 70
   128
 71
    18
 72
    17
 73
    19
 74
    20
  0
VERTEX
  5
13C
330
FF
100
AcDbEntity
  8
ｴｸｽﾃﾘｱ商品
 62
   250
370
    20
100
AcDbFaceRecord
 10
0.0
 20
0.0
 30
0.0
 70
   128
 71
    20
 72
    19
 73
     2
 74
     1
  0
VERTEX
  5
13D
330
FF
100
AcDbEntity
  8
ｴｸｽﾃﾘｱ商品
 62
   250
370
    20
100
AcDbFaceRecord
 10
0.0
 20
0.0
 30
0.0
 70
   128
 71
     2
 72
    21
 73
    22
 74
     3
  0
VERTEX
  5
13E
330
FF
100
AcDbEntity
  8
ｴｸｽﾃﾘｱ商品
 62
   250
370
    20
100
AcDbFaceRecord
 10
0.0
 20
0.0
 30
0.0
 70
   128
 71
     3
 72
    22
 73
    23
 74
     5
  0
VERTEX
  5
13F
330
FF
100
AcDbEntity
  8
ｴｸｽﾃﾘｱ商品
 62
   250
370
    20
100
AcDbFaceRecord
 10
0.0
 20
0.0
 30
0.0
 70
   128
 71
     5
 72
    23
 73
    24
 74
     7
  0
VERTEX
  5
140
330
FF
100
AcDbEntity
  8
ｴｸｽﾃﾘｱ商品
 62
   250
370
    20
100
AcDbFaceRecord
 10
0.0
 20
0.0
 30
0.0
 70
   128
 71
     7
 72
    24
 73
    25
 74
     9
  0
VERTEX
  5
141
330
FF
100
AcDbEntity
  8
ｴｸｽﾃﾘｱ商品
 62
   250
370
    20
100
AcDbFaceRecord
 10
0.0
 20
0.0
 30
0.0
 70
   128
 71
     9
 72
    25
 73
    26
 74
    11
  0
VERTEX
  5
142
330
FF
100
AcDbEntity
  8
ｴｸｽﾃﾘｱ商品
 62
   250
370
    20
100
AcDbFaceRecord
 10
0.0
 20
0.0
 30
0.0
 70
   128
 71
    11
 72
    26
 73
    27
 74
    13
  0
VERTEX
  5
143
330
FF
100
AcDbEntity
  8
ｴｸｽﾃﾘｱ商品
 62
   250
370
    20
100
AcDbFaceRecord
 10
0.0
 20
0.0
 30
0.0
 70
   128
 71
    13
 72
    27
 73
    28
 74
    15
  0
VERTEX
  5
144
330
FF
100
AcDbEntity
  8
ｴｸｽﾃﾘｱ商品
 62
   250
370
    20
100
AcDbFaceRecord
 10
0.0
 20
0.0
 30
0.0
 70
   128
 71
    15
 72
    28
 73
    29
 74
    17
  0
VERTEX
  5
145
330
FF
100
AcDbEntity
  8
ｴｸｽﾃﾘｱ商品
 62
   250
370
    20
100
AcDbFaceRecord
 10
0.0
 20
0.0
 30
0.0
 70
   128
 71
    17
 72
    29
 73
    30
 74
    19
  0
VERTEX
  5
146
330
FF
100
AcDbEntity
  8
ｴｸｽﾃﾘｱ商品
 62
   250
370
    20
100
AcDbFaceRecord
 10
0.0
 20
0.0
 30
0.0
 70
   128
 71
    19
 72
    30
 73
    21
 74
     2
  0
VERTEX
  5
147
330
FF
100
AcDbEntity
  8
ｴｸｽﾃﾘｱ商品
 62
   250
370
    20
100
AcDbFaceRecord
 10
0.0
 20
0.0
 30
0.0
 70
   128
 71
    21
 72
    31
 73
    32
 74
    22
  0
VERTEX
  5
148
330
FF
100
AcDbEntity
  8
ｴｸｽﾃﾘｱ商品
 62
   250
370
    20
100
AcDbFaceRecord
 10
0.0
 20
0.0
 30
0.0
 70
   128
 71
    22
 72
    32
 73
    33
 74
    23
  0
VERTEX
  5
149
330
FF
100
AcDbEntity
  8
ｴｸｽﾃﾘｱ商品
 62
   250
370
    20
100
AcDbFaceRecord
 10
0.0
 20
0.0
 30
0.0
 70
   128
 71
    23
 72
    33
 73
    34
 74
    24
  0
VERTEX
  5
14A
330
FF
100
AcDbEntity
  8
ｴｸｽﾃﾘｱ商品
 62
   250
370
    20
100
AcDbFaceRecord
 10
0.0
 20
0.0
 30
0.0
 70
   128
 71
    24
 72
    34
 73
    35
 74
    25
  0
VERTEX
  5
14B
330
FF
100
AcDbEntity
  8
ｴｸｽﾃﾘｱ商品
 62
   250
370
    20
100
AcDbFaceRecord
 10
0.0
 20
0.0
 30
0.0
 70
   128
 71
    25
 72
    35
 73
    36
 74
    26
  0
VERTEX
  5
14C
330
FF
100
AcDbEntity
  8
ｴｸｽﾃﾘｱ商品
 62
   250
370
    20
100
AcDbFaceRecord
 10
0.0
 20
0.0
 30
0.0
 70
   128
 71
    26
 72
    36
 73
    37
 74
    27
  0
VERTEX
  5
14D
330
FF
100
AcDbEntity
  8
ｴｸｽﾃﾘｱ商品
 62
   250
370
    20
100
AcDbFaceRecord
 10
0.0
 20
0.0
 30
0.0
 70
   128
 71
    27
 72
    37
 73
    38
 74
    28
  0
VERTEX
  5
14E
330
FF
100
AcDbEntity
  8
ｴｸｽﾃﾘｱ商品
 62
   250
370
    20
100
AcDbFaceRecord
 10
0.0
 20
0.0
 30
0.0
 70
   128
 71
    28
 72
    38
 73
    39
 74
    29
  0
VERTEX
  5
14F
330
FF
100
AcDbEntity
  8
ｴｸｽﾃﾘｱ商品
 62
   250
370
    20
100
AcDbFaceRecord
 10
0.0
 20
0.0
 30
0.0
 70
   128
 71
    29
 72
    39
 73
    40
 74
    30
  0
VERTEX
  5
150
330
FF
100
AcDbEntity
  8
ｴｸｽﾃﾘｱ商品
 62
   250
370
    20
100
AcDbFaceRecord
 10
0.0
 20
0.0
 30
0.0
 70
   128
 71
    30
 72
    40
 73
    31
 74
    21
  0
VERTEX
  5
151
330
FF
100
AcDbEntity
  8
ｴｸｽﾃﾘｱ商品
 62
   250
370
    20
100
AcDbFaceRecord
 10
0.0
 20
0.0
 30
0.0
 70
   128
 71
    31
 72
    41
 73
    42
 74
    32
  0
VERTEX
  5
152
330
FF
100
AcDbEntity
  8
ｴｸｽﾃﾘｱ商品
 62
   250
370
    20
100
AcDbFaceRecord
 10
0.0
 20
0.0
 30
0.0
 70
   128
 71
    32
 72
    42
 73
    43
 74
    33
  0
VERTEX
  5
153
330
FF
100
AcDbEntity
  8
ｴｸｽﾃﾘｱ商品
 62
   250
370
    20
100
AcDbFaceRecord
 10
0.0
 20
0.0
 30
0.0
 70
   128
 71
    33
 72
    43
 73
    44
 74
    34
  0
VERTEX
  5
154
330
FF
100
AcDbEntity
  8
ｴｸｽﾃﾘｱ商品
 62
   250
370
    20
100
AcDbFaceRecord
 10
0.0
 20
0.0
 30
0.0
 70
   128
 71
    34
 72
    44
 73
    45
 74
    35
  0
VERTEX
  5
155
330
FF
100
AcDbEntity
  8
ｴｸｽﾃﾘｱ商品
 62
   250
370
    20
100
AcDbFaceRecord
 10
0.0
 20
0.0
 30
0.0
 70
   128
 71
    35
 72
    45
 73
    46
 74
    36
  0
VERTEX
  5
156
330
FF
100
AcDbEntity
  8
ｴｸｽﾃﾘｱ商品
 62
   250
370
    20
100
AcDbFaceRecord
 10
0.0
 20
0.0
 30
0.0
 70
   128
 71
    36
 72
    46
 73
    47
 74
    37
  0
VERTEX
  5
157
330
FF
100
AcDbEntity
  8
ｴｸｽﾃﾘｱ商品
 62
   250
370
    20
100
AcDbFaceRecord
 10
0.0
 20
0.0
 30
0.0
 70
   128
 71
    37
 72
    47
 73
    48
 74
    38
  0
VERTEX
  5
158
330
FF
100
AcDbEntity
  8
ｴｸｽﾃﾘｱ商品
 62
   250
370
    20
100
AcDbFaceRecord
 10
0.0
 20
0.0
 30
0.0
 70
   128
 71
    38
 72
    48
 73
    49
 74
    39
  0
VERTEX
  5
159
330
FF
100
AcDbEntity
  8
ｴｸｽﾃﾘｱ商品
 62
   250
370
    20
100
AcDbFaceRecord
 10
0.0
 20
0.0
 30
0.0
 70
   128
 71
    39
 72
    49
 73
    50
 74
    40
  0
VERTEX
  5
15A
330
FF
100
AcDbEntity
  8
ｴｸｽﾃﾘｱ商品
 62
   250
370
    20
100
AcDbFaceRecord
 10
0.0
 20
0.0
 30
0.0
 70
   128
 71
    40
 72
    50
 73
    41
 74
    31
  0
SEQEND
  5
100
330
FF
100
AcDbEntity
  8
ｴｸｽﾃﾘｱ商品
370
    20
  0
POLYLINE
  5
15B
330
3C
100
AcDbEntity
  8
ｴｸｽﾃﾘｱ商品
 62
    37
370
    35
100
AcDbPolyFaceMesh
 66
     1
 10
0.0
 20
0.0
 30
0.0
 70
    64
 71
     8
 72
     6
  0
VERTEX
  5
15D
330
15B
100
AcDbEntity
  8
ｴｸｽﾃﾘｱ商品
 62
    37
370
    35
100
AcDbVertex
100
AcDbPolyFaceMeshVertex
 10
3039.587554247428
 20
5256.116048334807
 30
2450.856688210832
 70
   192
  0
VERTEX
  5
15E
330
15B
100
AcDbEntity
  8
ｴｸｽﾃﾘｱ商品
 62
    37
370
    35
100
AcDbVertex
100
AcDbPolyFaceMeshVertex
 10
3039.587554247429
 20
10628.84113438947
 30
2638.476382483477
 70
   192
  0
VERTEX
  5
15F
330
15B
100
AcDbEntity
  8
ｴｸｽﾃﾘｱ商品
 62
    37
370
    35
100
AcDbVertex
100
AcDbPolyFaceMeshVertex
 10
6050.58755424743
 20
10628.84113438947
 30
2638.476382483477
 70
   192
  0
VERTEX
  5
160
330
15B
100
AcDbEntity
  8
ｴｸｽﾃﾘｱ商品
 62
    37
370
    35
100
AcDbVertex
100
AcDbPolyFaceMeshVertex
 10
6050.587554247429
 20
5256.116048334807
 30
2450.856688210832
 70
   192
  0
VERTEX
  5
161
330
15B
100
AcDbEntity
  8
ｴｸｽﾃﾘｱ商品
 62
    37
370
    35
100
AcDbVertex
100
AcDbPolyFaceMeshVertex
 10
6050.587554247429
 20
5255.47040764581
 30
2469.345418510685
 70
   192
  0
VERTEX
  5
162
330
15B
100
AcDbEntity
  8
ｴｸｽﾃﾘｱ商品
 62
    37
370
    35
100
AcDbVertex
100
AcDbPolyFaceMeshVertex
 10
6050.58755424743
 20
10628.19549370047
 30
2656.96511278333
 70
   192
  0
VERTEX
  5
163
330
15B
100
AcDbEntity
  8
ｴｸｽﾃﾘｱ商品
 62
    37
370
    35
100
AcDbVertex
100
AcDbPolyFaceMeshVertex
 10
3039.587554247429
 20
10628.19549370047
 30
2656.96511278333
 70
   192
  0
VERTEX
  5
164
330
15B
100
AcDbEntity
  8
ｴｸｽﾃﾘｱ商品
 62
    37
370
    35
100
AcDbVertex
100
AcDbPolyFaceMeshVertex
 10
3039.587554247428
 20
5255.470407645811
 30
2469.345418510685
 70
   192
  0
VERTEX
  5
165
330
15B
100
AcDbEntity
  8
ｴｸｽﾃﾘｱ商品
 62
    37
370
    35
100
AcDbFaceRecord
 10
0.0
 20
0.0
 30
0.0
 70
   128
 71
     1
 72
     2
 73
     3
 74
     4
  0
VERTEX
  5
166
330
15B
100
AcDbEntity
  8
ｴｸｽﾃﾘｱ商品
 62
    37
370
    35
100
AcDbFaceRecord
 10
0.0
 20
0.0
 30
0.0
 70
   128
 71
     5
 72
     6
 73
     7
 74
     8
  0
VERTEX
  5
167
330
15B
100
AcDbEntity
  8
ｴｸｽﾃﾘｱ商品
 62
    37
370
    35
100
AcDbFaceRecord
 10
0.0
 20
0.0
 30
0.0
 70
   128
 71
     4
 72
     5
 73
     8
 74
     1
  0
VERTEX
  5
168
330
15B
100
AcDbEntity
  8
ｴｸｽﾃﾘｱ商品
 62
    37
370
    35
100
AcDbFaceRecord
 10
0.0
 20
0.0
 30
0.0
 70
   128
 71
     1
 72
     8
 73
     7
 74
     2
  0
VERTEX
  5
169
330
15B
100
AcDbEntity
  8
ｴｸｽﾃﾘｱ商品
 62
    37
370
    35
100
AcDbFaceRecord
 10
0.0
 20
0.0
 30
0.0
 70
   128
 71
     2
 72
     7
 73
     6
 74
     3
  0
VERTEX
  5
16A
330
15B
100
AcDbEntity
  8
ｴｸｽﾃﾘｱ商品
 62
    37
370
    35
100
AcDbFaceRecord
 10
0.0
 20
0.0
 30
0.0
 70
   128
 71
     3
 72
     6
 73
     5
 74
     4
  0
SEQEND
  5
15C
330
15B
100
AcDbEntity
  8
ｴｸｽﾃﾘｱ商品
370
    35
  0
POLYLINE
  5
16B
330
3C
100
AcDbEntity
  8
ｴｸｽﾃﾘｱ商品
 62
    37
370
    35
100
AcDbPolyFaceMesh
 66
     1
 10
0.0
 20
0.0
 30
0.0
 70
    64
 71
     8
 72
     6
  0
VERTEX
  5
16D
330
16B
100
AcDbEntity
  8
ｴｸｽﾃﾘｱ商品
 62
    37
370
    35
100
AcDbVertex
100
AcDbPolyFaceMeshVertex
 10
5890.587554247429
 20
5256.273096069968
 30
2446.359429489245
 70
   192
  0
VERTEX
  5
16E
330
16B
100
AcDbEntity
  8
ｴｸｽﾃﾘｱ商品
 62
    37
370
    35
100
AcDbVertex
100
AcDbPolyFaceMeshVertex
 10
5890.58755424743
 20
10628.99818212463
 30
2633.979123761891
 70
   192
  0
VERTEX
  5
16F
330
16B
100
AcDbEntity
  8
ｴｸｽﾃﾘｱ商品
 62
    37
370
    35
100
AcDbVertex
100
AcDbPolyFaceMeshVertex
 10
6050.58755424743
 20
10628.99818212463
 30
2633.979123761891
 70
   192
  0
VERTEX
  5
170
330
16B
100
AcDbEntity
  8
ｴｸｽﾃﾘｱ商品
 62
    37
370
    35
100
AcDbVertex
100
AcDbPolyFaceMeshVertex
 10
6050.587554247429
 20
5256.273096069968
 30
2446.359429489245
 70
   192
  0
VERTEX
  5
171
330
16B
100
AcDbEntity
  8
ｴｸｽﾃﾘｱ商品
 62
    37
370
    35
100
AcDbVertex
100
AcDbPolyFaceMeshVertex
 10
6050.587554247429
 20
5256.116048334807
 30
2450.856688210832
 70
   192
  0
VERTEX
  5
172
330
16B
100
AcDbEntity
  8
ｴｸｽﾃﾘｱ商品
 62
    37
370
    35
100
AcDbVertex
100
AcDbPolyFaceMeshVertex
 10
6050.58755424743
 20
10628.84113438947
 30
2638.476382483477
 70
   192
  0
VERTEX
  5
173
330
16B
100
AcDbEntity
  8
ｴｸｽﾃﾘｱ商品
 62
    37
370
    35
100
AcDbVertex
100
AcDbPolyFaceMeshVertex
 10
5890.58755424743
 20
10628.84113438947
 30
2638.476382483477
 70
   192
  0
VERTEX
  5
174
330
16B
100
AcDbEntity
  8
ｴｸｽﾃﾘｱ商品
 62
    37
370
    35
100
AcDbVertex
100
AcDbPolyFaceMeshVertex
 10
5890.587554247429
 20
5256.116048334807
 30
2450.856688210832
 70
   192
  0
VERTEX
  5
175
330
16B
100
AcDbEntity
  8
ｴｸｽﾃﾘｱ商品
 62
    37
370
    35
100
AcDbFaceRecord
 10
0.0
 20
0.0
 30
0.0
 70
   128
 71
     1
 72
     2
 73
     3
 74
     4
  0
VERTEX
  5
176
330
16B
100
AcDbEntity
  8
ｴｸｽﾃﾘｱ商品
 62
    37
370
    35
100
AcDbFaceRecord
 10
0.0
 20
0.0
 30
0.0
 70
   128
 71
     5
 72
     6
 73
     7
 74
     8
  0
VERTEX
  5
177
330
16B
100
AcDbEntity
  8
ｴｸｽﾃﾘｱ商品
 62
    37
370
    35
100
AcDbFaceRecord
 10
0.0
 20
0.0
 30
0.0
 70
   128
 71
     4
 72
     5
 73
     8
 74
     1
  0
VERTEX
  5
178
330
16B
100
AcDbEntity
  8
ｴｸｽﾃﾘｱ商品
 62
    37
370
    35
100
AcDbFaceRecord
 10
0.0
 20
0.0
 30
0.0
 70
   128
 71
     1
 72
     8
 73
     7
 74
     2
  0
VERTEX
  5
179
330
16B
100
AcDbEntity
  8
ｴｸｽﾃﾘｱ商品
 62
    37
370
    35
100
AcDbFaceRecord
 10
0.0
 20
0.0
 30
0.0
 70
   128
 71
     2
 72
     7
 73
     6
 74
     3
  0
VERTEX
  5
17A
330
16B
100
AcDbEntity
  8
ｴｸｽﾃﾘｱ商品
 62
    37
370
    35
100
AcDbFaceRecord
 10
0.0
 20
0.0
 30
0.0
 70
   128
 71
     3
 72
     6
 73
     5
 74
     4
  0
SEQEND
  5
16C
330
16B
100
AcDbEntity
  8
ｴｸｽﾃﾘｱ商品
370
    35
  0
POLYLINE
  5
17B
330
3C
100
AcDbEntity
  8
ｴｸｽﾃﾘｱ商品
 62
    37
370
    35
100
AcDbPolyFaceMesh
 66
     1
 10
0.0
 20
0.0
 30
0.0
 70
    64
 71
     8
 72
     6
  0
VERTEX
  5
17D
330
17B
100
AcDbEntity
  8
ｴｸｽﾃﾘｱ商品
 62
    37
370
    35
100
AcDbVertex
100
AcDbPolyFaceMeshVertex
 10
5725.587554247429
 20
5256.273096069968
 30
2446.359429489245
 70
   192
  0
VERTEX
  5
17E
330
17B
100
AcDbEntity
  8
ｴｸｽﾃﾘｱ商品
 62
    37
370
    35
100
AcDbVertex
100
AcDbPolyFaceMeshVertex
 10
5725.58755424743
 20
10628.99818212463
 30
2633.979123761891
 70
   192
  0
VERTEX
  5
17F
330
17B
100
AcDbEntity
  8
ｴｸｽﾃﾘｱ商品
 62
    37
370
    35
100
AcDbVertex
100
AcDbPolyFaceMeshVertex
 10
5885.58755424743
 20
10628.99818212463
 30
2633.979123761891
 70
   192
  0
VERTEX
  5
180
330
17B
100
AcDbEntity
  8
ｴｸｽﾃﾘｱ商品
 62
    37
370
    35
100
AcDbVertex
100
AcDbPolyFaceMeshVertex
 10
5885.587554247429
 20
5256.273096069968
 30
2446.359429489245
 70
   192
  0
VERTEX
  5
181
330
17B
100
AcDbEntity
  8
ｴｸｽﾃﾘｱ商品
 62
    37
370
    35
100
AcDbVertex
100
AcDbPolyFaceMeshVertex
 10
5885.587554247429
 20
5256.116048334807
 30
2450.856688210832
 70
   192
  0
VERTEX
  5
182
330
17B
100
AcDbEntity
  8
ｴｸｽﾃﾘｱ商品
 62
    37
370
    35
100
AcDbVertex
100
AcDbPolyFaceMeshVertex
 10
5885.58755424743
 20
10628.84113438947
 30
2638.476382483477
 70
   192
  0
VERTEX
  5
183
330
17B
100
AcDbEntity
  8
ｴｸｽﾃﾘｱ商品
 62
    37
370
    35
100
AcDbVertex
100
AcDbPolyFaceMeshVertex
 10
5725.58755424743
 20
10628.84113438947
 30
2638.476382483477
 70
   192
  0
VERTEX
  5
184
330
17B
100
AcDbEntity
  8
ｴｸｽﾃﾘｱ商品
 62
    37
370
    35
100
AcDbVertex
100
AcDbPolyFaceMeshVertex
 10
5725.587554247429
 20
5256.116048334807
 30
2450.856688210832
 70
   192
  0
VERTEX
  5
185
330
17B
100
AcDbEntity
  8
ｴｸｽﾃﾘｱ商品
 62
    37
370
    35
100
AcDbFaceRecord
 10
0.0
 20
0.0
 30
0.0
 70
   128
 71
     1
 72
     2
 73
     3
 74
     4
  0
VERTEX
  5
186
330
17B
100
AcDbEntity
  8
ｴｸｽﾃﾘｱ商品
 62
    37
370
    35
100
AcDbFaceRecord
 10
0.0
 20
0.0
 30
0.0
 70
   128
 71
     5
 72
     6
 73
     7
 74
     8
  0
VERTEX
  5
187
330
17B
100
AcDbEntity
  8
ｴｸｽﾃﾘｱ商品
 62
    37
370
    35
100
AcDbFaceRecord
 10
0.0
 20
0.0
 30
0.0
 70
   128
 71
     4
 72
     5
 73
     8
 74
     1
  0
VERTEX
  5
188
330
17B
100
AcDbEntity
  8
ｴｸｽﾃﾘｱ商品
 62
    37
370
    35
100
AcDbFaceRecord
 10
0.0
 20
0.0
 30
0.0
 70
   128
 71
     1
 72
     8
 73
     7
 74
     2
  0
VERTEX
  5
189
330
17B
100
AcDbEntity
  8
ｴｸｽﾃﾘｱ商品
 62
    37
370
    35
100
AcDbFaceRecord
 10
0.0
 20
0.0
 30
0.0
 70
   128
 71
     2
 72
     7
 73
     6
 74
     3
  0
VERTEX
  5
18A
330
17B
100
AcDbEntity
  8
ｴｸｽﾃﾘｱ商品
 62
    37
370
    35
100
AcDbFaceRecord
 10
0.0
 20
0.0
 30
0.0
 70
   128
 71
     3
 72
     6
 73
     5
 74
     4
  0
SEQEND
  5
17C
330
17B
100
AcDbEntity
  8
ｴｸｽﾃﾘｱ商品
370
    35
  0
POLYLINE
  5
18B
330
3C
100
AcDbEntity
  8
ｴｸｽﾃﾘｱ商品
 62
    37
370
    35
100
AcDbPolyFaceMesh
 66
     1
 10
0.0
 20
0.0
 30
0.0
 70
    64
 71
     8
 72
     6
  0
VERTEX
  5
18D
330
18B
100
AcDbEntity
  8
ｴｸｽﾃﾘｱ商品
 62
    37
370
    35
100
AcDbVertex
100
AcDbPolyFaceMeshVertex
 10
5560.587554247429
 20
5256.273096069968
 30
2446.359429489245
 70
   192
  0
VERTEX
  5
18E
330
18B
100
AcDbEntity
  8
ｴｸｽﾃﾘｱ商品
 62
    37
370
    35
100
AcDbVertex
100
AcDbPolyFaceMeshVertex
 10
5560.58755424743
 20
10628.99818212463
 30
2633.979123761891
 70
   192
  0
VERTEX
  5
18F
330
18B
100
AcDbEntity
  8
ｴｸｽﾃﾘｱ商品
 62
    37
370
    35
100
AcDbVertex
100
AcDbPolyFaceMeshVertex
 10
5720.58755424743
 20
10628.99818212463
 30
2633.979123761891
 70
   192
  0
VERTEX
  5
190
330
18B
100
AcDbEntity
  8
ｴｸｽﾃﾘｱ商品
 62
    37
370
    35
100
AcDbVertex
100
AcDbPolyFaceMeshVertex
 10
5720.587554247429
 20
5256.273096069968
 30
2446.359429489245
 70
   192
  0
VERTEX
  5
191
330
18B
100
AcDbEntity
  8
ｴｸｽﾃﾘｱ商品
 62
    37
370
    35
100
AcDbVertex
100
AcDbPolyFaceMeshVertex
 10
5720.587554247429
 20
5256.116048334807
 30
2450.856688210832
 70
   192
  0
VERTEX
  5
192
330
18B
100
AcDbEntity
  8
ｴｸｽﾃﾘｱ商品
 62
    37
370
    35
100
AcDbVertex
100
AcDbPolyFaceMeshVertex
 10
5720.58755424743
 20
10628.84113438947
 30
2638.476382483477
 70
   192
  0
VERTEX
  5
193
330
18B
100
AcDbEntity
  8
ｴｸｽﾃﾘｱ商品
 62
    37
370
    35
100
AcDbVertex
100
AcDbPolyFaceMeshVertex
 10
5560.58755424743
 20
10628.84113438947
 30
2638.476382483477
 70
   192
  0
VERTEX
  5
194
330
18B
100
AcDbEntity
  8
ｴｸｽﾃﾘｱ商品
 62
    37
370
    35
100
AcDbVertex
100
AcDbPolyFaceMeshVertex
 10
5560.587554247429
 20
5256.116048334807
 30
2450.856688210832
 70
   192
  0
VERTEX
  5
195
330
18B
100
AcDbEntity
  8
ｴｸｽﾃﾘｱ商品
 62
    37
370
    35
100
AcDbFaceRecord
 10
0.0
 20
0.0
 30
0.0
 70
   128
 71
     1
 72
     2
 73
     3
 74
     4
  0
VERTEX
  5
196
330
18B
100
AcDbEntity
  8
ｴｸｽﾃﾘｱ商品
 62
    37
370
    35
100
AcDbFaceRecord
 10
0.0
 20
0.0
 30
0.0
 70
   128
 71
     5
 72
     6
 73
     7
 74
     8
  0
VERTEX
  5
197
330
18B
100
AcDbEntity
  8
ｴｸｽﾃﾘｱ商品
 62
    37
370
    35
100
AcDbFaceRecord
 10
0.0
 20
0.0
 30
0.0
 70
   128
 71
     4
 72
     5
 73
     8
 74
     1
  0
VERTEX
  5
198
330
18B
100
AcDbEntity
  8
ｴｸｽﾃﾘｱ商品
 62
    37
370
    35
100
AcDbFaceRecord
 10
0.0
 20
0.0
 30
0.0
 70
   128
 71
     1
 72
     8
 73
     7
 74
     2
  0
VERTEX
  5
199
330
18B
100
AcDbEntity
  8
ｴｸｽﾃﾘｱ商品
 62
    37
370
    35
100
AcDbFaceRecord
 10
0.0
 20
0.0
 30
0.0
 70
   128
 71
     2
 72
     7
 73
     6
 74
     3
  0
VERTEX
  5
19A
330
18B
100
AcDbEntity
  8
ｴｸｽﾃﾘｱ商品
 62
    37
370
    35
100
AcDbFaceRecord
 10
0.0
 20
0.0
 30
0.0
 70
   128
 71
     3
 72
     6
 73
     5
 74
     4
  0
SEQEND
  5
18C
330
18B
100
AcDbEntity
  8
ｴｸｽﾃﾘｱ商品
370
    35
  0
POLYLINE
  5
19B
330
3C
100
AcDbEntity
  8
ｴｸｽﾃﾘｱ商品
 62
    37
370
    35
100
AcDbPolyFaceMesh
 66
     1
 10
0.0
 20
0.0
 30
0.0
 70
    64
 71
     8
 72
     6
  0
VERTEX
  5
19D
330
19B
100
AcDbEntity
  8
ｴｸｽﾃﾘｱ商品
 62
    37
370
    35
100
AcDbVertex
100
AcDbPolyFaceMeshVertex
 10
5395.587554247429
 20
5256.273096069968
 30
2446.359429489245
 70
   192
  0
VERTEX
  5
19E
330
19B
100
AcDbEntity
  8
ｴｸｽﾃﾘｱ商品
 62
    37
370
    35
100
AcDbVertex
100
AcDbPolyFaceMeshVertex
 10
5395.58755424743
 20
10628.99818212463
 30
2633.979123761891
 70
   192
  0
VERTEX
  5
19F
330
19B
100
AcDbEntity
  8
ｴｸｽﾃﾘｱ商品
 62
    37
370
    35
100
AcDbVertex
100
AcDbPolyFaceMeshVertex
 10
5555.58755424743
 20
10628.99818212463
 30
2633.979123761891
 70
   192
  0
VERTEX
  5
1A0
330
19B
100
AcDbEntity
  8
ｴｸｽﾃﾘｱ商品
 62
    37
370
    35
100
AcDbVertex
100
AcDbPolyFaceMeshVertex
 10
5555.587554247429
 20
5256.273096069968
 30
2446.359429489245
 70
   192
  0
VERTEX
  5
1A1
330
19B
100
AcDbEntity
  8
ｴｸｽﾃﾘｱ商品
 62
    37
370
    35
100
AcDbVertex
100
AcDbPolyFaceMeshVertex
 10
5555.587554247429
 20
5256.116048334807
 30
2450.856688210832
 70
   192
  0
VERTEX
  5
1A2
330
19B
100
AcDbEntity
  8
ｴｸｽﾃﾘｱ商品
 62
    37
370
    35
100
AcDbVertex
100
AcDbPolyFaceMeshVertex
 10
5555.58755424743
 20
10628.84113438947
 30
2638.476382483477
 70
   192
  0
VERTEX
  5
1A3
330
19B
100
AcDbEntity
  8
ｴｸｽﾃﾘｱ商品
 62
    37
370
    35
100
AcDbVertex
100
AcDbPolyFaceMeshVertex
 10
5395.58755424743
 20
10628.84113438947
 30
2638.476382483477
 70
   192
  0
VERTEX
  5
1A4
330
19B
100
AcDbEntity
  8
ｴｸｽﾃﾘｱ商品
 62
    37
370
    35
100
AcDbVertex
100
AcDbPolyFaceMeshVertex
 10
5395.587554247429
 20
5256.116048334807
 30
2450.856688210832
 70
   192
  0
VERTEX
  5
1A5
330
19B
100
AcDbEntity
  8
ｴｸｽﾃﾘｱ商品
 62
    37
370
    35
100
AcDbFaceRecord
 10
0.0
 20
0.0
 30
0.0
 70
   128
 71
     1
 72
     2
 73
     3
 74
     4
  0
VERTEX
  5
1A6
330
19B
100
AcDbEntity
  8
ｴｸｽﾃﾘｱ商品
 62
    37
370
    35
100
AcDbFaceRecord
 10
0.0
 20
0.0
 30
0.0
 70
   128
 71
     5
 72
     6
 73
     7
 74
     8
  0
VERTEX
  5
1A7
330
19B
100
AcDbEntity
  8
ｴｸｽﾃﾘｱ商品
 62
    37
370
    35
100
AcDbFaceRecord
 10
0.0
 20
0.0
 30
0.0
 70
   128
 71
     4
 72
     5
 73
     8
 74
     1
  0
VERTEX
  5
1A8
330
19B
100
AcDbEntity
  8
ｴｸｽﾃﾘｱ商品
 62
    37
370
    35
100
AcDbFaceRecord
 10
0.0
 20
0.0
 30
0.0
 70
   128
 71
     1
 72
     8
 73
     7
 74
     2
  0
VERTEX
  5
1A9
330
19B
100
AcDbEntity
  8
ｴｸｽﾃﾘｱ商品
 62
    37
370
    35
100
AcDbFaceRecord
 10
0.0
 20
0.0
 30
0.0
 70
   128
 71
     2
 72
     7
 73
     6
 74
     3
  0
VERTEX
  5
1AA
330
19B
100
AcDbEntity
  8
ｴｸｽﾃﾘｱ商品
 62
    37
370
    35
100
AcDbFaceRecord
 10
0.0
 20
0.0
 30
0.0
 70
   128
 71
     3
 72
     6
 73
     5
 74
     4
  0
SEQEND
  5
19C
330
19B
100
AcDbEntity
  8
ｴｸｽﾃﾘｱ商品
370
    35
  0
POLYLINE
  5
1AB
330
3C
100
AcDbEntity
  8
ｴｸｽﾃﾘｱ商品
 62
    37
370
    35
100
AcDbPolyFaceMesh
 66
     1
 10
0.0
 20
0.0
 30
0.0
 70
    64
 71
     8
 72
     6
  0
VERTEX
  5
1AD
330
1AB
100
AcDbEntity
  8
ｴｸｽﾃﾘｱ商品
 62
    37
370
    35
100
AcDbVertex
100
AcDbPolyFaceMeshVertex
 10
5230.587554247429
 20
5256.273096069968
 30
2446.359429489245
 70
   192
  0
VERTEX
  5
1AE
330
1AB
100
AcDbEntity
  8
ｴｸｽﾃﾘｱ商品
 62
    37
370
    35
100
AcDbVertex
100
AcDbPolyFaceMeshVertex
 10
5230.58755424743
 20
10628.99818212463
 30
2633.979123761891
 70
   192
  0
VERTEX
  5
1AF
330
1AB
100
AcDbEntity
  8
ｴｸｽﾃﾘｱ商品
 62
    37
370
    35
100
AcDbVertex
100
AcDbPolyFaceMeshVertex
 10
5390.58755424743
 20
10628.99818212463
 30
2633.979123761891
 70
   192
  0
VERTEX
  5
1B0
330
1AB
100
AcDbEntity
  8
ｴｸｽﾃﾘｱ商品
 62
    37
370
    35
100
AcDbVertex
100
AcDbPolyFaceMeshVertex
 10
5390.587554247429
 20
5256.273096069968
 30
2446.359429489245
 70
   192
  0
VERTEX
  5
1B1
330
1AB
100
AcDbEntity
  8
ｴｸｽﾃﾘｱ商品
 62
    37
370
    35
100
AcDbVertex
100
AcDbPolyFaceMeshVertex
 10
5390.587554247429
 20
5256.116048334807
 30
2450.856688210832
 70
   192
  0
VERTEX
  5
1B2
330
1AB
100
AcDbEntity
  8
ｴｸｽﾃﾘｱ商品
 62
    37
370
    35
100
AcDbVertex
100
AcDbPolyFaceMeshVertex
 10
5390.58755424743
 20
10628.84113438947
 30
2638.476382483477
 70
   192
  0
VERTEX
  5
1B3
330
1AB
100
AcDbEntity
  8
ｴｸｽﾃﾘｱ商品
 62
    37
370
    35
100
AcDbVertex
100
AcDbPolyFaceMeshVertex
 10
5230.58755424743
 20
10628.84113438947
 30
2638.476382483477
 70
   192
  0
VERTEX
  5
1B4
330
1AB
100
AcDbEntity
  8
ｴｸｽﾃﾘｱ商品
 62
    37
370
    35
100
AcDbVertex
100
AcDbPolyFaceMeshVertex
 10
5230.587554247429
 20
5256.116048334807
 30
2450.856688210832
 70
   192
  0
VERTEX
  5
1B5
330
1AB
100
AcDbEntity
  8
ｴｸｽﾃﾘｱ商品
 62
    37
370
    35
100
AcDbFaceRecord
 10
0.0
 20
0.0
 30
0.0
 70
   128
 71
     1
 72
     2
 73
     3
 74
     4
  0
VERTEX
  5
1B6
330
1AB
100
AcDbEntity
  8
ｴｸｽﾃﾘｱ商品
 62
    37
370
    35
100
AcDbFaceRecord
 10
0.0
 20
0.0
 30
0.0
 70
   128
 71
     5
 72
     6
 73
     7
 74
     8
  0
VERTEX
  5
1B7
330
1AB
100
AcDbEntity
  8
ｴｸｽﾃﾘｱ商品
 62
    37
370
    35
100
AcDbFaceRecord
 10
0.0
 20
0.0
 30
0.0
 70
   128
 71
     4
 72
     5
 73
     8
 74
     1
  0
VERTEX
  5
1B8
330
1AB
100
AcDbEntity
  8
ｴｸｽﾃﾘｱ商品
 62
    37
370
    35
100
AcDbFaceRecord
 10
0.0
 20
0.0
 30
0.0
 70
   128
 71
     1
 72
     8
 73
     7
 74
     2
  0
VERTEX
  5
1B9
330
1AB
100
AcDbEntity
  8
ｴｸｽﾃﾘｱ商品
 62
    37
370
    35
100
AcDbFaceRecord
 10
0.0
 20
0.0
 30
0.0
 70
   128
 71
     2
 72
     7
 73
     6
 74
     3
  0
VERTEX
  5
1BA
330
1AB
100
AcDbEntity
  8
ｴｸｽﾃﾘｱ商品
 62
    37
370
    35
100
AcDbFaceRecord
 10
0.0
 20
0.0
 30
0.0
 70
   128
 71
     3
 72
     6
 73
     5
 74
     4
  0
SEQEND
  5
1AC
330
1AB
100
AcDbEntity
  8
ｴｸｽﾃﾘｱ商品
370
    35
  0
POLYLINE
  5
1BB
330
3C
100
AcDbEntity
  8
ｴｸｽﾃﾘｱ商品
 62
    37
370
    35
100
AcDbPolyFaceMesh
 66
     1
 10
0.0
 20
0.0
 30
0.0
 70
    64
 71
     8
 72
     6
  0
VERTEX
  5
1BD
330
1BB
100
AcDbEntity
  8
ｴｸｽﾃﾘｱ商品
 62
    37
370
    35
100
AcDbVertex
100
AcDbPolyFaceMeshVertex
 10
5065.587554247429
 20
5256.273096069968
 30
2446.359429489245
 70
   192
  0
VERTEX
  5
1BE
330
1BB
100
AcDbEntity
  8
ｴｸｽﾃﾘｱ商品
 62
    37
370
    35
100
AcDbVertex
100
AcDbPolyFaceMeshVertex
 10
5065.58755424743
 20
10628.99818212463
 30
2633.979123761891
 70
   192
  0
VERTEX
  5
1BF
330
1BB
100
AcDbEntity
  8
ｴｸｽﾃﾘｱ商品
 62
    37
370
    35
100
AcDbVertex
100
AcDbPolyFaceMeshVertex
 10
5225.58755424743
 20
10628.99818212463
 30
2633.979123761891
 70
   192
  0
VERTEX
  5
1C0
330
1BB
100
AcDbEntity
  8
ｴｸｽﾃﾘｱ商品
 62
    37
370
    35
100
AcDbVertex
100
AcDbPolyFaceMeshVertex
 10
5225.587554247429
 20
5256.273096069968
 30
2446.359429489245
 70
   192
  0
VERTEX
  5
1C1
330
1BB
100
AcDbEntity
  8
ｴｸｽﾃﾘｱ商品
 62
    37
370
    35
100
AcDbVertex
100
AcDbPolyFaceMeshVertex
 10
5225.587554247429
 20
5256.116048334807
 30
2450.856688210832
 70
   192
  0
VERTEX
  5
1C2
330
1BB
100
AcDbEntity
  8
ｴｸｽﾃﾘｱ商品
 62
    37
370
    35
100
AcDbVertex
100
AcDbPolyFaceMeshVertex
 10
5225.58755424743
 20
10628.84113438947
 30
2638.476382483477
 70
   192
  0
VERTEX
  5
1C3
330
1BB
100
AcDbEntity
  8
ｴｸｽﾃﾘｱ商品
 62
    37
370
    35
100
AcDbVertex
100
AcDbPolyFaceMeshVertex
 10
5065.58755424743
 20
10628.84113438947
 30
2638.476382483477
 70
   192
  0
VERTEX
  5
1C4
330
1BB
100
AcDbEntity
  8
ｴｸｽﾃﾘｱ商品
 62
    37
370
    35
100
AcDbVertex
100
AcDbPolyFaceMeshVertex
 10
5065.587554247429
 20
5256.116048334807
 30
2450.856688210832
 70
   192
  0
VERTEX
  5
1C5
330
1BB
100
AcDbEntity
  8
ｴｸｽﾃﾘｱ商品
 62
    37
370
    35
100
AcDbFaceRecord
 10
0.0
 20
0.0
 30
0.0
 70
   128
 71
     1
 72
     2
 73
     3
 74
     4
  0
VERTEX
  5
1C6
330
1BB
100
AcDbEntity
  8
ｴｸｽﾃﾘｱ商品
 62
    37
370
    35
100
AcDbFaceRecord
 10
0.0
 20
0.0
 30
0.0
 70
   128
 71
     5
 72
     6
 73
     7
 74
     8
  0
VERTEX
  5
1C7
330
1BB
100
AcDbEntity
  8
ｴｸｽﾃﾘｱ商品
 62
    37
370
    35
100
AcDbFaceRecord
 10
0.0
 20
0.0
 30
0.0
 70
   128
 71
     4
 72
     5
 73
     8
 74
     1
  0
VERTEX
  5
1C8
330
1BB
100
AcDbEntity
  8
ｴｸｽﾃﾘｱ商品
 62
    37
370
    35
100
AcDbFaceRecord
 10
0.0
 20
0.0
 30
0.0
 70
   128
 71
     1
 72
     8
 73
     7
 74
     2
  0
VERTEX
  5
1C9
330
1BB
100
AcDbEntity
  8
ｴｸｽﾃﾘｱ商品
 62
    37
370
    35
100
AcDbFaceRecord
 10
0.0
 20
0.0
 30
0.0
 70
   128
 71
     2
 72
     7
 73
     6
 74
     3
  0
VERTEX
  5
1CA
330
1BB
100
AcDbEntity
  8
ｴｸｽﾃﾘｱ商品
 62
    37
370
    35
100
AcDbFaceRecord
 10
0.0
 20
0.0
 30
0.0
 70
   128
 71
     3
 72
     6
 73
     5
 74
     4
  0
SEQEND
  5
1BC
330
1BB
100
AcDbEntity
  8
ｴｸｽﾃﾘｱ商品
370
    35
  0
POLYLINE
  5
1CB
330
3C
100
AcDbEntity
  8
ｴｸｽﾃﾘｱ商品
 62
    37
370
    35
100
AcDbPolyFaceMesh
 66
     1
 10
0.0
 20
0.0
 30
0.0
 70
    64
 71
     8
 72
     6
  0
VERTEX
  5
1CD
330
1CB
100
AcDbEntity
  8
ｴｸｽﾃﾘｱ商品
 62
    37
370
    35
100
AcDbVertex
100
AcDbPolyFaceMeshVertex
 10
4900.587554247428
 20
5256.273096069968
 30
2446.359429489245
 70
   192
  0
VERTEX
  5
1CE
330
1CB
100
AcDbEntity
  8
ｴｸｽﾃﾘｱ商品
 62
    37
370
    35
100
AcDbVertex
100
AcDbPolyFaceMeshVertex
 10
4900.587554247429
 20
10628.99818212463
 30
2633.979123761891
 70
   192
  0
VERTEX
  5
1CF
330
1CB
100
AcDbEntity
  8
ｴｸｽﾃﾘｱ商品
 62
    37
370
    35
100
AcDbVertex
100
AcDbPolyFaceMeshVertex
 10
5060.58755424743
 20
10628.99818212463
 30
2633.979123761891
 70
   192
  0
VERTEX
  5
1D0
330
1CB
100
AcDbEntity
  8
ｴｸｽﾃﾘｱ商品
 62
    37
370
    35
100
AcDbVertex
100
AcDbPolyFaceMeshVertex
 10
5060.587554247429
 20
5256.273096069968
 30
2446.359429489245
 70
   192
  0
VERTEX
  5
1D1
330
1CB
100
AcDbEntity
  8
ｴｸｽﾃﾘｱ商品
 62
    37
370
    35
100
AcDbVertex
100
AcDbPolyFaceMeshVertex
 10
5060.587554247429
 20
5256.116048334807
 30
2450.856688210832
 70
   192
  0
VERTEX
  5
1D2
330
1CB
100
AcDbEntity
  8
ｴｸｽﾃﾘｱ商品
 62
    37
370
    35
100
AcDbVertex
100
AcDbPolyFaceMeshVertex
 10
5060.58755424743
 20
10628.84113438947
 30
2638.476382483477
 70
   192
  0
VERTEX
  5
1D3
330
1CB
100
AcDbEntity
  8
ｴｸｽﾃﾘｱ商品
 62
    37
370
    35
100
AcDbVertex
100
AcDbPolyFaceMeshVertex
 10
4900.587554247429
 20
10628.84113438947
 30
2638.476382483477
 70
   192
  0
VERTEX
  5
1D4
330
1CB
100
AcDbEntity
  8
ｴｸｽﾃﾘｱ商品
 62
    37
370
    35
100
AcDbVertex
100
AcDbPolyFaceMeshVertex
 10
4900.587554247428
 20
5256.116048334807
 30
2450.856688210832
 70
   192
  0
VERTEX
  5
1D5
330
1CB
100
AcDbEntity
  8
ｴｸｽﾃﾘｱ商品
 62
    37
370
    35
100
AcDbFaceRecord
 10
0.0
 20
0.0
 30
0.0
 70
   128
 71
     1
 72
     2
 73
     3
 74
     4
  0
VERTEX
  5
1D6
330
1CB
100
AcDbEntity
  8
ｴｸｽﾃﾘｱ商品
 62
    37
370
    35
100
AcDbFaceRecord
 10
0.0
 20
0.0
 30
0.0
 70
   128
 71
     5
 72
     6
 73
     7
 74
     8
  0
VERTEX
  5
1D7
330
1CB
100
AcDbEntity
  8
ｴｸｽﾃﾘｱ商品
 62
    37
370
    35
100
AcDbFaceRecord
 10
0.0
 20
0.0
 30
0.0
 70
   128
 71
     4
 72
     5
 73
     8
 74
     1
  0
VERTEX
  5
1D8
330
1CB
100
AcDbEntity
  8
ｴｸｽﾃﾘｱ商品
 62
    37
370
    35
100
AcDbFaceRecord
 10
0.0
 20
0.0
 30
0.0
 70
   128
 71
     1
 72
     8
 73
     7
 74
     2
  0
VERTEX
  5
1D9
330
1CB
100
AcDbEntity
  8
ｴｸｽﾃﾘｱ商品
 62
    37
370
    35
100
AcDbFaceRecord
 10
0.0
 20
0.0
 30
0.0
 70
   128
 71
     2
 72
     7
 73
     6
 74
     3
  0
VERTEX
  5
1DA
330
1CB
100
AcDbEntity
  8
ｴｸｽﾃﾘｱ商品
 62
    37
370
    35
100
AcDbFaceRecord
 10
0.0
 20
0.0
 30
0.0
 70
   128
 71
     3
 72
     6
 73
     5
 74
     4
  0
SEQEND
  5
1CC
330
1CB
100
AcDbEntity
  8
ｴｸｽﾃﾘｱ商品
370
    35
  0
POLYLINE
  5
1DB
330
3C
100
AcDbEntity
  8
ｴｸｽﾃﾘｱ商品
 62
    37
370
    35
100
AcDbPolyFaceMesh
 66
     1
 10
0.0
 20
0.0
 30
0.0
 70
    64
 71
     8
 72
     6
  0
VERTEX
  5
1DD
330
1DB
100
AcDbEntity
  8
ｴｸｽﾃﾘｱ商品
 62
    37
370
    35
100
AcDbVertex
100
AcDbPolyFaceMeshVertex
 10
4735.587554247428
 20
5256.273096069968
 30
2446.359429489245
 70
   192
  0
VERTEX
  5
1DE
330
1DB
100
AcDbEntity
  8
ｴｸｽﾃﾘｱ商品
 62
    37
370
    35
100
AcDbVertex
100
AcDbPolyFaceMeshVertex
 10
4735.587554247429
 20
10628.99818212463
 30
2633.979123761891
 70
   192
  0
VERTEX
  5
1DF
330
1DB
100
AcDbEntity
  8
ｴｸｽﾃﾘｱ商品
 62
    37
370
    35
100
AcDbVertex
100
AcDbPolyFaceMeshVertex
 10
4895.58755424743
 20
10628.99818212463
 30
2633.979123761891
 70
   192
  0
VERTEX
  5
1E0
330
1DB
100
AcDbEntity
  8
ｴｸｽﾃﾘｱ商品
 62
    37
370
    35
100
AcDbVertex
100
AcDbPolyFaceMeshVertex
 10
4895.587554247429
 20
5256.273096069968
 30
2446.359429489245
 70
   192
  0
VERTEX
  5
1E1
330
1DB
100
AcDbEntity
  8
ｴｸｽﾃﾘｱ商品
 62
    37
370
    35
100
AcDbVertex
100
AcDbPolyFaceMeshVertex
 10
4895.587554247429
 20
5256.116048334807
 30
2450.856688210832
 70
   192
  0
VERTEX
  5
1E2
330
1DB
100
AcDbEntity
  8
ｴｸｽﾃﾘｱ商品
 62
    37
370
    35
100
AcDbVertex
100
AcDbPolyFaceMeshVertex
 10
4895.58755424743
 20
10628.84113438947
 30
2638.476382483477
 70
   192
  0
VERTEX
  5
1E3
330
1DB
100
AcDbEntity
  8
ｴｸｽﾃﾘｱ商品
 62
    37
370
    35
100
AcDbVertex
100
AcDbPolyFaceMeshVertex
 10
4735.587554247429
 20
10628.84113438947
 30
2638.476382483477
 70
   192
  0
VERTEX
  5
1E4
330
1DB
100
AcDbEntity
  8
ｴｸｽﾃﾘｱ商品
 62
    37
370
    35
100
AcDbVertex
100
AcDbPolyFaceMeshVertex
 10
4735.587554247428
 20
5256.116048334807
 30
2450.856688210832
 70
   192
  0
VERTEX
  5
1E5
330
1DB
100
AcDbEntity
  8
ｴｸｽﾃﾘｱ商品
 62
    37
370
    35
100
AcDbFaceRecord
 10
0.0
 20
0.0
 30
0.0
 70
   128
 71
     1
 72
     2
 73
     3
 74
     4
  0
VERTEX
  5
1E6
330
1DB
100
AcDbEntity
  8
ｴｸｽﾃﾘｱ商品
 62
    37
370
    35
100
AcDbFaceRecord
 10
0.0
 20
0.0
 30
0.0
 70
   128
 71
     5
 72
     6
 73
     7
 74
     8
  0
VERTEX
  5
1E7
330
1DB
100
AcDbEntity
  8
ｴｸｽﾃﾘｱ商品
 62
    37
370
    35
100
AcDbFaceRecord
 10
0.0
 20
0.0
 30
0.0
 70
   128
 71
     4
 72
     5
 73
     8
 74
     1
  0
VERTEX
  5
1E8
330
1DB
100
AcDbEntity
  8
ｴｸｽﾃﾘｱ商品
 62
    37
370
    35
100
AcDbFaceRecord
 10
0.0
 20
0.0
 30
0.0
 70
   128
 71
     1
 72
     8
 73
     7
 74
     2
  0
VERTEX
  5
1E9
330
1DB
100
AcDbEntity
  8
ｴｸｽﾃﾘｱ商品
 62
    37
370
    35
100
AcDbFaceRecord
 10
0.0
 20
0.0
 30
0.0
 70
   128
 71
     2
 72
     7
 73
     6
 74
     3
  0
VERTEX
  5
1EA
330
1DB
100
AcDbEntity
  8
ｴｸｽﾃﾘｱ商品
 62
    37
370
    35
100
AcDbFaceRecord
 10
0.0
 20
0.0
 30
0.0
 70
   128
 71
     3
 72
     6
 73
     5
 74
     4
  0
SEQEND
  5
1DC
330
1DB
100
AcDbEntity
  8
ｴｸｽﾃﾘｱ商品
370
    35
  0
POLYLINE
  5
1EB
330
3C
100
AcDbEntity
  8
ｴｸｽﾃﾘｱ商品
 62
    37
370
    35
100
AcDbPolyFaceMesh
 66
     1
 10
0.0
 20
0.0
 30
0.0
 70
    64
 71
     8
 72
     6
  0
VERTEX
  5
1ED
330
1EB
100
AcDbEntity
  8
ｴｸｽﾃﾘｱ商品
 62
    37
370
    35
100
AcDbVertex
100
AcDbPolyFaceMeshVertex
 10
4570.587554247428
 20
5256.273096069968
 30
2446.359429489245
 70
   192
  0
VERTEX
  5
1EE
330
1EB
100
AcDbEntity
  8
ｴｸｽﾃﾘｱ商品
 62
    37
370
    35
100
AcDbVertex
100
AcDbPolyFaceMeshVertex
 10
4570.587554247429
 20
10628.99818212463
 30
2633.979123761891
 70
   192
  0
VERTEX
  5
1EF
330
1EB
100
AcDbEntity
  8
ｴｸｽﾃﾘｱ商品
 62
    37
370
    35
100
AcDbVertex
100
AcDbPolyFaceMeshVertex
 10
4730.58755424743
 20
10628.99818212463
 30
2633.979123761891
 70
   192
  0
VERTEX
  5
1F0
330
1EB
100
AcDbEntity
  8
ｴｸｽﾃﾘｱ商品
 62
    37
370
    35
100
AcDbVertex
100
AcDbPolyFaceMeshVertex
 10
4730.587554247429
 20
5256.273096069968
 30
2446.359429489245
 70
   192
  0
VERTEX
  5
1F1
330
1EB
100
AcDbEntity
  8
ｴｸｽﾃﾘｱ商品
 62
    37
370
    35
100
AcDbVertex
100
AcDbPolyFaceMeshVertex
 10
4730.587554247429
 20
5256.116048334807
 30
2450.856688210832
 70
   192
  0
VERTEX
  5
1F2
330
1EB
100
AcDbEntity
  8
ｴｸｽﾃﾘｱ商品
 62
    37
370
    35
100
AcDbVertex
100
AcDbPolyFaceMeshVertex
 10
4730.58755424743
 20
10628.84113438947
 30
2638.476382483477
 70
   192
  0
VERTEX
  5
1F3
330
1EB
100
AcDbEntity
  8
ｴｸｽﾃﾘｱ商品
 62
    37
370
    35
100
AcDbVertex
100
AcDbPolyFaceMeshVertex
 10
4570.587554247429
 20
10628.84113438947
 30
2638.476382483477
 70
   192
  0
VERTEX
  5
1F4
330
1EB
100
AcDbEntity
  8
ｴｸｽﾃﾘｱ商品
 62
    37
370
    35
100
AcDbVertex
100
AcDbPolyFaceMeshVertex
 10
4570.587554247428
 20
5256.116048334807
 30
2450.856688210832
 70
   192
  0
VERTEX
  5
1F5
330
1EB
100
AcDbEntity
  8
ｴｸｽﾃﾘｱ商品
 62
    37
370
    35
100
AcDbFaceRecord
 10
0.0
 20
0.0
 30
0.0
 70
   128
 71
     1
 72
     2
 73
     3
 74
     4
  0
VERTEX
  5
1F6
330
1EB
100
AcDbEntity
  8
ｴｸｽﾃﾘｱ商品
 62
    37
370
    35
100
AcDbFaceRecord
 10
0.0
 20
0.0
 30
0.0
 70
   128
 71
     5
 72
     6
 73
     7
 74
     8
  0
VERTEX
  5
1F7
330
1EB
100
AcDbEntity
  8
ｴｸｽﾃﾘｱ商品
 62
    37
370
    35
100
AcDbFaceRecord
 10
0.0
 20
0.0
 30
0.0
 70
   128
 71
     4
 72
     5
 73
     8
 74
     1
  0
VERTEX
  5
1F8
330
1EB
100
AcDbEntity
  8
ｴｸｽﾃﾘｱ商品
 62
    37
370
    35
100
AcDbFaceRecord
 10
0.0
 20
0.0
 30
0.0
 70
   128
 71
     1
 72
     8
 73
     7
 74
     2
  0
VERTEX
  5
1F9
330
1EB
100
AcDbEntity
  8
ｴｸｽﾃﾘｱ商品
 62
    37
370
    35
100
AcDbFaceRecord
 10
0.0
 20
0.0
 30
0.0
 70
   128
 71
     2
 72
     7
 73
     6
 74
     3
  0
VERTEX
  5
1FA
330
1EB
100
AcDbEntity
  8
ｴｸｽﾃﾘｱ商品
 62
    37
370
    35
100
AcDbFaceRecord
 10
0.0
 20
0.0
 30
0.0
 70
   128
 71
     3
 72
     6
 73
     5
 74
     4
  0
SEQEND
  5
1EC
330
1EB
100
AcDbEntity
  8
ｴｸｽﾃﾘｱ商品
370
    35
  0
POLYLINE
  5
1FB
330
3C
100
AcDbEntity
  8
ｴｸｽﾃﾘｱ商品
 62
    37
370
    35
100
AcDbPolyFaceMesh
 66
     1
 10
0.0
 20
0.0
 30
0.0
 70
    64
 71
     8
 72
     6
  0
VERTEX
  5
1FD
330
1FB
100
AcDbEntity
  8
ｴｸｽﾃﾘｱ商品
 62
    37
370
    35
100
AcDbVertex
100
AcDbPolyFaceMeshVertex
 10
4405.587554247428
 20
5256.273096069968
 30
2446.359429489245
 70
   192
  0
VERTEX
  5
1FE
330
1FB
100
AcDbEntity
  8
ｴｸｽﾃﾘｱ商品
 62
    37
370
    35
100
AcDbVertex
100
AcDbPolyFaceMeshVertex
 10
4405.587554247429
 20
10628.99818212463
 30
2633.979123761891
 70
   192
  0
VERTEX
  5
1FF
330
1FB
100
AcDbEntity
  8
ｴｸｽﾃﾘｱ商品
 62
    37
370
    35
100
AcDbVertex
100
AcDbPolyFaceMeshVertex
 10
4565.58755424743
 20
10628.99818212463
 30
2633.979123761891
 70
   192
  0
VERTEX
  5
200
330
1FB
100
AcDbEntity
  8
ｴｸｽﾃﾘｱ商品
 62
    37
370
    35
100
AcDbVertex
100
AcDbPolyFaceMeshVertex
 10
4565.587554247429
 20
5256.273096069968
 30
2446.359429489245
 70
   192
  0
VERTEX
  5
201
330
1FB
100
AcDbEntity
  8
ｴｸｽﾃﾘｱ商品
 62
    37
370
    35
100
AcDbVertex
100
AcDbPolyFaceMeshVertex
 10
4565.587554247429
 20
5256.116048334807
 30
2450.856688210832
 70
   192
  0
VERTEX
  5
202
330
1FB
100
AcDbEntity
  8
ｴｸｽﾃﾘｱ商品
 62
    37
370
    35
100
AcDbVertex
100
AcDbPolyFaceMeshVertex
 10
4565.58755424743
 20
10628.84113438947
 30
2638.476382483477
 70
   192
  0
VERTEX
  5
203
330
1FB
100
AcDbEntity
  8
ｴｸｽﾃﾘｱ商品
 62
    37
370
    35
100
AcDbVertex
100
AcDbPolyFaceMeshVertex
 10
4405.587554247429
 20
10628.84113438947
 30
2638.476382483477
 70
   192
  0
VERTEX
  5
204
330
1FB
100
AcDbEntity
  8
ｴｸｽﾃﾘｱ商品
 62
    37
370
    35
100
AcDbVertex
100
AcDbPolyFaceMeshVertex
 10
4405.587554247428
 20
5256.116048334807
 30
2450.856688210832
 70
   192
  0
VERTEX
  5
205
330
1FB
100
AcDbEntity
  8
ｴｸｽﾃﾘｱ商品
 62
    37
370
    35
100
AcDbFaceRecord
 10
0.0
 20
0.0
 30
0.0
 70
   128
 71
     1
 72
     2
 73
     3
 74
     4
  0
VERTEX
  5
206
330
1FB
100
AcDbEntity
  8
ｴｸｽﾃﾘｱ商品
 62
    37
370
    35
100
AcDbFaceRecord
 10
0.0
 20
0.0
 30
0.0
 70
   128
 71
     5
 72
     6
 73
     7
 74
     8
  0
VERTEX
  5
207
330
1FB
100
AcDbEntity
  8
ｴｸｽﾃﾘｱ商品
 62
    37
370
    35
100
AcDbFaceRecord
 10
0.0
 20
0.0
 30
0.0
 70
   128
 71
     4
 72
     5
 73
     8
 74
     1
  0
VERTEX
  5
208
330
1FB
100
AcDbEntity
  8
ｴｸｽﾃﾘｱ商品
 62
    37
370
    35
100
AcDbFaceRecord
 10
0.0
 20
0.0
 30
0.0
 70
   128
 71
     1
 72
     8
 73
     7
 74
     2
  0
VERTEX
  5
209
330
1FB
100
AcDbEntity
  8
ｴｸｽﾃﾘｱ商品
 62
    37
370
    35
100
AcDbFaceRecord
 10
0.0
 20
0.0
 30
0.0
 70
   128
 71
     2
 72
     7
 73
     6
 74
     3
  0
VERTEX
  5
20A
330
1FB
100
AcDbEntity
  8
ｴｸｽﾃﾘｱ商品
 62
    37
370
    35
100
AcDbFaceRecord
 10
0.0
 20
0.0
 30
0.0
 70
   128
 71
     3
 72
     6
 73
     5
 74
     4
  0
SEQEND
  5
1FC
330
1FB
100
AcDbEntity
  8
ｴｸｽﾃﾘｱ商品
370
    35
  0
POLYLINE
  5
20B
330
3C
100
AcDbEntity
  8
ｴｸｽﾃﾘｱ商品
 62
    37
370
    35
100
AcDbPolyFaceMesh
 66
     1
 10
0.0
 20
0.0
 30
0.0
 70
    64
 71
     8
 72
     6
  0
VERTEX
  5
20D
330
20B
100
AcDbEntity
  8
ｴｸｽﾃﾘｱ商品
 62
    37
370
    35
100
AcDbVertex
100
AcDbPolyFaceMeshVertex
 10
4240.587554247428
 20
5256.273096069968
 30
2446.359429489245
 70
   192
  0
VERTEX
  5
20E
330
20B
100
AcDbEntity
  8
ｴｸｽﾃﾘｱ商品
 62
    37
370
    35
100
AcDbVertex
100
AcDbPolyFaceMeshVertex
 10
4240.587554247429
 20
10628.99818212463
 30
2633.979123761891
 70
   192
  0
VERTEX
  5
20F
330
20B
100
AcDbEntity
  8
ｴｸｽﾃﾘｱ商品
 62
    37
370
    35
100
AcDbVertex
100
AcDbPolyFaceMeshVertex
 10
4400.587554247429
 20
10628.99818212463
 30
2633.979123761891
 70
   192
  0
VERTEX
  5
210
330
20B
100
AcDbEntity
  8
ｴｸｽﾃﾘｱ商品
 62
    37
370
    35
100
AcDbVertex
100
AcDbPolyFaceMeshVertex
 10
4400.587554247428
 20
5256.273096069968
 30
2446.359429489245
 70
   192
  0
VERTEX
  5
211
330
20B
100
AcDbEntity
  8
ｴｸｽﾃﾘｱ商品
 62
    37
370
    35
100
AcDbVertex
100
AcDbPolyFaceMeshVertex
 10
4400.587554247428
 20
5256.116048334807
 30
2450.856688210832
 70
   192
  0
VERTEX
  5
212
330
20B
100
AcDbEntity
  8
ｴｸｽﾃﾘｱ商品
 62
    37
370
    35
100
AcDbVertex
100
AcDbPolyFaceMeshVertex
 10
4400.587554247429
 20
10628.84113438947
 30
2638.476382483477
 70
   192
  0
VERTEX
  5
213
330
20B
100
AcDbEntity
  8
ｴｸｽﾃﾘｱ商品
 62
    37
370
    35
100
AcDbVertex
100
AcDbPolyFaceMeshVertex
 10
4240.587554247429
 20
10628.84113438947
 30
2638.476382483477
 70
   192
  0
VERTEX
  5
214
330
20B
100
AcDbEntity
  8
ｴｸｽﾃﾘｱ商品
 62
    37
370
    35
100
AcDbVertex
100
AcDbPolyFaceMeshVertex
 10
4240.587554247428
 20
5256.116048334807
 30
2450.856688210832
 70
   192
  0
VERTEX
  5
215
330
20B
100
AcDbEntity
  8
ｴｸｽﾃﾘｱ商品
 62
    37
370
    35
100
AcDbFaceRecord
 10
0.0
 20
0.0
 30
0.0
 70
   128
 71
     1
 72
     2
 73
     3
 74
     4
  0
VERTEX
  5
216
330
20B
100
AcDbEntity
  8
ｴｸｽﾃﾘｱ商品
 62
    37
370
    35
100
AcDbFaceRecord
 10
0.0
 20
0.0
 30
0.0
 70
   128
 71
     5
 72
     6
 73
     7
 74
     8
  0
VERTEX
  5
217
330
20B
100
AcDbEntity
  8
ｴｸｽﾃﾘｱ商品
 62
    37
370
    35
100
AcDbFaceRecord
 10
0.0
 20
0.0
 30
0.0
 70
   128
 71
     4
 72
     5
 73
     8
 74
     1
  0
VERTEX
  5
218
330
20B
100
AcDbEntity
  8
ｴｸｽﾃﾘｱ商品
 62
    37
370
    35
100
AcDbFaceRecord
 10
0.0
 20
0.0
 30
0.0
 70
   128
 71
     1
 72
     8
 73
     7
 74
     2
  0
VERTEX
  5
219
330
20B
100
AcDbEntity
  8
ｴｸｽﾃﾘｱ商品
 62
    37
370
    35
100
AcDbFaceRecord
 10
0.0
 20
0.0
 30
0.0
 70
   128
 71
     2
 72
     7
 73
     6
 74
     3
  0
VERTEX
  5
21A
330
20B
100
AcDbEntity
  8
ｴｸｽﾃﾘｱ商品
 62
    37
370
    35
100
AcDbFaceRecord
 10
0.0
 20
0.0
 30
0.0
 70
   128
 71
     3
 72
     6
 73
     5
 74
     4
  0
SEQEND
  5
20C
330
20B
100
AcDbEntity
  8
ｴｸｽﾃﾘｱ商品
370
    35
  0
POLYLINE
  5
21B
330
3C
100
AcDbEntity
  8
ｴｸｽﾃﾘｱ商品
 62
    37
370
    35
100
AcDbPolyFaceMesh
 66
     1
 10
0.0
 20
0.0
 30
0.0
 70
    64
 71
     8
 72
     6
  0
VERTEX
  5
21D
330
21B
100
AcDbEntity
  8
ｴｸｽﾃﾘｱ商品
 62
    37
370
    35
100
AcDbVertex
100
AcDbPolyFaceMeshVertex
 10
4075.587554247428
 20
5256.273096069968
 30
2446.359429489245
 70
   192
  0
VERTEX
  5
21E
330
21B
100
AcDbEntity
  8
ｴｸｽﾃﾘｱ商品
 62
    37
370
    35
100
AcDbVertex
100
AcDbPolyFaceMeshVertex
 10
4075.587554247429
 20
10628.99818212463
 30
2633.979123761891
 70
   192
  0
VERTEX
  5
21F
330
21B
100
AcDbEntity
  8
ｴｸｽﾃﾘｱ商品
 62
    37
370
    35
100
AcDbVertex
100
AcDbPolyFaceMeshVertex
 10
4235.587554247429
 20
10628.99818212463
 30
2633.979123761891
 70
   192
  0
VERTEX
  5
220
330
21B
100
AcDbEntity
  8
ｴｸｽﾃﾘｱ商品
 62
    37
370
    35
100
AcDbVertex
100
AcDbPolyFaceMeshVertex
 10
4235.587554247428
 20
5256.273096069968
 30
2446.359429489245
 70
   192
  0
VERTEX
  5
221
330
21B
100
AcDbEntity
  8
ｴｸｽﾃﾘｱ商品
 62
    37
370
    35
100
AcDbVertex
100
AcDbPolyFaceMeshVertex
 10
4235.587554247428
 20
5256.116048334807
 30
2450.856688210832
 70
   192
  0
VERTEX
  5
222
330
21B
100
AcDbEntity
  8
ｴｸｽﾃﾘｱ商品
 62
    37
370
    35
100
AcDbVertex
100
AcDbPolyFaceMeshVertex
 10
4235.587554247429
 20
10628.84113438947
 30
2638.476382483477
 70
   192
  0
VERTEX
  5
223
330
21B
100
AcDbEntity
  8
ｴｸｽﾃﾘｱ商品
 62
    37
370
    35
100
AcDbVertex
100
AcDbPolyFaceMeshVertex
 10
4075.587554247429
 20
10628.84113438947
 30
2638.476382483477
 70
   192
  0
VERTEX
  5
224
330
21B
100
AcDbEntity
  8
ｴｸｽﾃﾘｱ商品
 62
    37
370
    35
100
AcDbVertex
100
AcDbPolyFaceMeshVertex
 10
4075.587554247428
 20
5256.116048334807
 30
2450.856688210832
 70
   192
  0
VERTEX
  5
225
330
21B
100
AcDbEntity
  8
ｴｸｽﾃﾘｱ商品
 62
    37
370
    35
100
AcDbFaceRecord
 10
0.0
 20
0.0
 30
0.0
 70
   128
 71
     1
 72
     2
 73
     3
 74
     4
  0
VERTEX
  5
226
330
21B
100
AcDbEntity
  8
ｴｸｽﾃﾘｱ商品
 62
    37
370
    35
100
AcDbFaceRecord
 10
0.0
 20
0.0
 30
0.0
 70
   128
 71
     5
 72
     6
 73
     7
 74
     8
  0
VERTEX
  5
227
330
21B
100
AcDbEntity
  8
ｴｸｽﾃﾘｱ商品
 62
    37
370
    35
100
AcDbFaceRecord
 10
0.0
 20
0.0
 30
0.0
 70
   128
 71
     4
 72
     5
 73
     8
 74
     1
  0
VERTEX
  5
228
330
21B
100
AcDbEntity
  8
ｴｸｽﾃﾘｱ商品
 62
    37
370
    35
100
AcDbFaceRecord
 10
0.0
 20
0.0
 30
0.0
 70
   128
 71
     1
 72
     8
 73
     7
 74
     2
  0
VERTEX
  5
229
330
21B
100
AcDbEntity
  8
ｴｸｽﾃﾘｱ商品
 62
    37
370
    35
100
AcDbFaceRecord
 10
0.0
 20
0.0
 30
0.0
 70
   128
 71
     2
 72
     7
 73
     6
 74
     3
  0
VERTEX
  5
22A
330
21B
100
AcDbEntity
  8
ｴｸｽﾃﾘｱ商品
 62
    37
370
    35
100
AcDbFaceRecord
 10
0.0
 20
0.0
 30
0.0
 70
   128
 71
     3
 72
     6
 73
     5
 74
     4
  0
SEQEND
  5
21C
330
21B
100
AcDbEntity
  8
ｴｸｽﾃﾘｱ商品
370
    35
  0
POLYLINE
  5
22B
330
3C
100
AcDbEntity
  8
ｴｸｽﾃﾘｱ商品
 62
    37
370
    35
100
AcDbPolyFaceMesh
 66
     1
 10
0.0
 20
0.0
 30
0.0
 70
    64
 71
     8
 72
     6
  0
VERTEX
  5
22D
330
22B
100
AcDbEntity
  8
ｴｸｽﾃﾘｱ商品
 62
    37
370
    35
100
AcDbVertex
100
AcDbPolyFaceMeshVertex
 10
3910.587554247428
 20
5256.273096069968
 30
2446.359429489245
 70
   192
  0
VERTEX
  5
22E
330
22B
100
AcDbEntity
  8
ｴｸｽﾃﾘｱ商品
 62
    37
370
    35
100
AcDbVertex
100
AcDbPolyFaceMeshVertex
 10
3910.587554247429
 20
10628.99818212463
 30
2633.979123761891
 70
   192
  0
VERTEX
  5
22F
330
22B
100
AcDbEntity
  8
ｴｸｽﾃﾘｱ商品
 62
    37
370
    35
100
AcDbVertex
100
AcDbPolyFaceMeshVertex
 10
4070.587554247429
 20
10628.99818212463
 30
2633.979123761891
 70
   192
  0
VERTEX
  5
230
330
22B
100
AcDbEntity
  8
ｴｸｽﾃﾘｱ商品
 62
    37
370
    35
100
AcDbVertex
100
AcDbPolyFaceMeshVertex
 10
4070.587554247428
 20
5256.273096069968
 30
2446.359429489245
 70
   192
  0
VERTEX
  5
231
330
22B
100
AcDbEntity
  8
ｴｸｽﾃﾘｱ商品
 62
    37
370
    35
100
AcDbVertex
100
AcDbPolyFaceMeshVertex
 10
4070.587554247428
 20
5256.116048334807
 30
2450.856688210832
 70
   192
  0
VERTEX
  5
232
330
22B
100
AcDbEntity
  8
ｴｸｽﾃﾘｱ商品
 62
    37
370
    35
100
AcDbVertex
100
AcDbPolyFaceMeshVertex
 10
4070.587554247429
 20
10628.84113438947
 30
2638.476382483477
 70
   192
  0
VERTEX
  5
233
330
22B
100
AcDbEntity
  8
ｴｸｽﾃﾘｱ商品
 62
    37
370
    35
100
AcDbVertex
100
AcDbPolyFaceMeshVertex
 10
3910.587554247429
 20
10628.84113438947
 30
2638.476382483477
 70
   192
  0
VERTEX
  5
234
330
22B
100
AcDbEntity
  8
ｴｸｽﾃﾘｱ商品
 62
    37
370
    35
100
AcDbVertex
100
AcDbPolyFaceMeshVertex
 10
3910.587554247428
 20
5256.116048334807
 30
2450.856688210832
 70
   192
  0
VERTEX
  5
235
330
22B
100
AcDbEntity
  8
ｴｸｽﾃﾘｱ商品
 62
    37
370
    35
100
AcDbFaceRecord
 10
0.0
 20
0.0
 30
0.0
 70
   128
 71
     1
 72
     2
 73
     3
 74
     4
  0
VERTEX
  5
236
330
22B
100
AcDbEntity
  8
ｴｸｽﾃﾘｱ商品
 62
    37
370
    35
100
AcDbFaceRecord
 10
0.0
 20
0.0
 30
0.0
 70
   128
 71
     5
 72
     6
 73
     7
 74
     8
  0
VERTEX
  5
237
330
22B
100
AcDbEntity
  8
ｴｸｽﾃﾘｱ商品
 62
    37
370
    35
100
AcDbFaceRecord
 10
0.0
 20
0.0
 30
0.0
 70
   128
 71
     4
 72
     5
 73
     8
 74
     1
  0
VERTEX
  5
238
330
22B
100
AcDbEntity
  8
ｴｸｽﾃﾘｱ商品
 62
    37
370
    35
100
AcDbFaceRecord
 10
0.0
 20
0.0
 30
0.0
 70
   128
 71
     1
 72
     8
 73
     7
 74
     2
  0
VERTEX
  5
239
330
22B
100
AcDbEntity
  8
ｴｸｽﾃﾘｱ商品
 62
    37
370
    35
100
AcDbFaceRecord
 10
0.0
 20
0.0
 30
0.0
 70
   128
 71
     2
 72
     7
 73
     6
 74
     3
  0
VERTEX
  5
23A
330
22B
100
AcDbEntity
  8
ｴｸｽﾃﾘｱ商品
 62
    37
370
    35
100
AcDbFaceRecord
 10
0.0
 20
0.0
 30
0.0
 70
   128
 71
     3
 72
     6
 73
     5
 74
     4
  0
SEQEND
  5
22C
330
22B
100
AcDbEntity
  8
ｴｸｽﾃﾘｱ商品
370
    35
  0
POLYLINE
  5
23B
330
3C
100
AcDbEntity
  8
ｴｸｽﾃﾘｱ商品
 62
    37
370
    35
100
AcDbPolyFaceMesh
 66
     1
 10
0.0
 20
0.0
 30
0.0
 70
    64
 71
     8
 72
     6
  0
VERTEX
  5
23D
330
23B
100
AcDbEntity
  8
ｴｸｽﾃﾘｱ商品
 62
    37
370
    35
100
AcDbVertex
100
AcDbPolyFaceMeshVertex
 10
3745.587554247428
 20
5256.273096069968
 30
2446.359429489245
 70
   192
  0
VERTEX
  5
23E
330
23B
100
AcDbEntity
  8
ｴｸｽﾃﾘｱ商品
 62
    37
370
    35
100
AcDbVertex
100
AcDbPolyFaceMeshVertex
 10
3745.587554247429
 20
10628.99818212463
 30
2633.979123761891
 70
   192
  0
VERTEX
  5
23F
330
23B
100
AcDbEntity
  8
ｴｸｽﾃﾘｱ商品
 62
    37
370
    35
100
AcDbVertex
100
AcDbPolyFaceMeshVertex
 10
3905.587554247429
 20
10628.99818212463
 30
2633.979123761891
 70
   192
  0
VERTEX
  5
240
330
23B
100
AcDbEntity
  8
ｴｸｽﾃﾘｱ商品
 62
    37
370
    35
100
AcDbVertex
100
AcDbPolyFaceMeshVertex
 10
3905.587554247428
 20
5256.273096069968
 30
2446.359429489245
 70
   192
  0
VERTEX
  5
241
330
23B
100
AcDbEntity
  8
ｴｸｽﾃﾘｱ商品
 62
    37
370
    35
100
AcDbVertex
100
AcDbPolyFaceMeshVertex
 10
3905.587554247428
 20
5256.116048334807
 30
2450.856688210832
 70
   192
  0
VERTEX
  5
242
330
23B
100
AcDbEntity
  8
ｴｸｽﾃﾘｱ商品
 62
    37
370
    35
100
AcDbVertex
100
AcDbPolyFaceMeshVertex
 10
3905.587554247429
 20
10628.84113438947
 30
2638.476382483477
 70
   192
  0
VERTEX
  5
243
330
23B
100
AcDbEntity
  8
ｴｸｽﾃﾘｱ商品
 62
    37
370
    35
100
AcDbVertex
100
AcDbPolyFaceMeshVertex
 10
3745.587554247429
 20
10628.84113438947
 30
2638.476382483477
 70
   192
  0
VERTEX
  5
244
330
23B
100
AcDbEntity
  8
ｴｸｽﾃﾘｱ商品
 62
    37
370
    35
100
AcDbVertex
100
AcDbPolyFaceMeshVertex
 10
3745.587554247428
 20
5256.116048334807
 30
2450.856688210832
 70
   192
  0
VERTEX
  5
245
330
23B
100
AcDbEntity
  8
ｴｸｽﾃﾘｱ商品
 62
    37
370
    35
100
AcDbFaceRecord
 10
0.0
 20
0.0
 30
0.0
 70
   128
 71
     1
 72
     2
 73
     3
 74
     4
  0
VERTEX
  5
246
330
23B
100
AcDbEntity
  8
ｴｸｽﾃﾘｱ商品
 62
    37
370
    35
100
AcDbFaceRecord
 10
0.0
 20
0.0
 30
0.0
 70
   128
 71
     5
 72
     6
 73
     7
 74
     8
  0
VERTEX
  5
247
330
23B
100
AcDbEntity
  8
ｴｸｽﾃﾘｱ商品
 62
    37
370
    35
100
AcDbFaceRecord
 10
0.0
 20
0.0
 30
0.0
 70
   128
 71
     4
 72
     5
 73
     8
 74
     1
  0
VERTEX
  5
248
330
23B
100
AcDbEntity
  8
ｴｸｽﾃﾘｱ商品
 62
    37
370
    35
100
AcDbFaceRecord
 10
0.0
 20
0.0
 30
0.0
 70
   128
 71
     1
 72
     8
 73
     7
 74
     2
  0
VERTEX
  5
249
330
23B
100
AcDbEntity
  8
ｴｸｽﾃﾘｱ商品
 62
    37
370
    35
100
AcDbFaceRecord
 10
0.0
 20
0.0
 30
0.0
 70
   128
 71
     2
 72
     7
 73
     6
 74
     3
  0
VERTEX
  5
24A
330
23B
100
AcDbEntity
  8
ｴｸｽﾃﾘｱ商品
 62
    37
370
    35
100
AcDbFaceRecord
 10
0.0
 20
0.0
 30
0.0
 70
   128
 71
     3
 72
     6
 73
     5
 74
     4
  0
SEQEND
  5
23C
330
23B
100
AcDbEntity
  8
ｴｸｽﾃﾘｱ商品
370
    35
  0
POLYLINE
  5
24B
330
3C
100
AcDbEntity
  8
ｴｸｽﾃﾘｱ商品
 62
    37
370
    35
100
AcDbPolyFaceMesh
 66
     1
 10
0.0
 20
0.0
 30
0.0
 70
    64
 71
     8
 72
     6
  0
VERTEX
  5
24D
330
24B
100
AcDbEntity
  8
ｴｸｽﾃﾘｱ商品
 62
    37
370
    35
100
AcDbVertex
100
AcDbPolyFaceMeshVertex
 10
3580.587554247428
 20
5256.273096069968
 30
2446.359429489245
 70
   192
  0
VERTEX
  5
24E
330
24B
100
AcDbEntity
  8
ｴｸｽﾃﾘｱ商品
 62
    37
370
    35
100
AcDbVertex
100
AcDbPolyFaceMeshVertex
 10
3580.587554247429
 20
10628.99818212463
 30
2633.979123761891
 70
   192
  0
VERTEX
  5
24F
330
24B
100
AcDbEntity
  8
ｴｸｽﾃﾘｱ商品
 62
    37
370
    35
100
AcDbVertex
100
AcDbPolyFaceMeshVertex
 10
3740.587554247429
 20
10628.99818212463
 30
2633.979123761891
 70
   192
  0
VERTEX
  5
250
330
24B
100
AcDbEntity
  8
ｴｸｽﾃﾘｱ商品
 62
    37
370
    35
100
AcDbVertex
100
AcDbPolyFaceMeshVertex
 10
3740.587554247428
 20
5256.273096069968
 30
2446.359429489245
 70
   192
  0
VERTEX
  5
251
330
24B
100
AcDbEntity
  8
ｴｸｽﾃﾘｱ商品
 62
    37
370
    35
100
AcDbVertex
100
AcDbPolyFaceMeshVertex
 10
3740.587554247428
 20
5256.116048334807
 30
2450.856688210832
 70
   192
  0
VERTEX
  5
252
330
24B
100
AcDbEntity
  8
ｴｸｽﾃﾘｱ商品
 62
    37
370
    35
100
AcDbVertex
100
AcDbPolyFaceMeshVertex
 10
3740.587554247429
 20
10628.84113438947
 30
2638.476382483477
 70
   192
  0
VERTEX
  5
253
330
24B
100
AcDbEntity
  8
ｴｸｽﾃﾘｱ商品
 62
    37
370
    35
100
AcDbVertex
100
AcDbPolyFaceMeshVertex
 10
3580.587554247429
 20
10628.84113438947
 30
2638.476382483477
 70
   192
  0
VERTEX
  5
254
330
24B
100
AcDbEntity
  8
ｴｸｽﾃﾘｱ商品
 62
    37
370
    35
100
AcDbVertex
100
AcDbPolyFaceMeshVertex
 10
3580.587554247428
 20
5256.116048334807
 30
2450.856688210832
 70
   192
  0
VERTEX
  5
255
330
24B
100
AcDbEntity
  8
ｴｸｽﾃﾘｱ商品
 62
    37
370
    35
100
AcDbFaceRecord
 10
0.0
 20
0.0
 30
0.0
 70
   128
 71
     1
 72
     2
 73
     3
 74
     4
  0
VERTEX
  5
256
330
24B
100
AcDbEntity
  8
ｴｸｽﾃﾘｱ商品
 62
    37
370
    35
100
AcDbFaceRecord
 10
0.0
 20
0.0
 30
0.0
 70
   128
 71
     5
 72
     6
 73
     7
 74
     8
  0
VERTEX
  5
257
330
24B
100
AcDbEntity
  8
ｴｸｽﾃﾘｱ商品
 62
    37
370
    35
100
AcDbFaceRecord
 10
0.0
 20
0.0
 30
0.0
 70
   128
 71
     4
 72
     5
 73
     8
 74
     1
  0
VERTEX
  5
258
330
24B
100
AcDbEntity
  8
ｴｸｽﾃﾘｱ商品
 62
    37
370
    35
100
AcDbFaceRecord
 10
0.0
 20
0.0
 30
0.0
 70
   128
 71
     1
 72
     8
 73
     7
 74
     2
  0
VERTEX
  5
259
330
24B
100
AcDbEntity
  8
ｴｸｽﾃﾘｱ商品
 62
    37
370
    35
100
AcDbFaceRecord
 10
0.0
 20
0.0
 30
0.0
 70
   128
 71
     2
 72
     7
 73
     6
 74
     3
  0
VERTEX
  5
25A
330
24B
100
AcDbEntity
  8
ｴｸｽﾃﾘｱ商品
 62
    37
370
    35
100
AcDbFaceRecord
 10
0.0
 20
0.0
 30
0.0
 70
   128
 71
     3
 72
     6
 73
     5
 74
     4
  0
SEQEND
  5
24C
330
24B
100
AcDbEntity
  8
ｴｸｽﾃﾘｱ商品
370
    35
  0
POLYLINE
  5
25B
330
3C
100
AcDbEntity
  8
ｴｸｽﾃﾘｱ商品
 62
    37
370
    35
100
AcDbPolyFaceMesh
 66
     1
 10
0.0
 20
0.0
 30
0.0
 70
    64
 71
     8
 72
     6
  0
VERTEX
  5
25D
330
25B
100
AcDbEntity
  8
ｴｸｽﾃﾘｱ商品
 62
    37
370
    35
100
AcDbVertex
100
AcDbPolyFaceMeshVertex
 10
3415.587554247428
 20
5256.273096069968
 30
2446.359429489245
 70
   192
  0
VERTEX
  5
25E
330
25B
100
AcDbEntity
  8
ｴｸｽﾃﾘｱ商品
 62
    37
370
    35
100
AcDbVertex
100
AcDbPolyFaceMeshVertex
 10
3415.587554247429
 20
10628.99818212463
 30
2633.979123761891
 70
   192
  0
VERTEX
  5
25F
330
25B
100
AcDbEntity
  8
ｴｸｽﾃﾘｱ商品
 62
    37
370
    35
100
AcDbVertex
100
AcDbPolyFaceMeshVertex
 10
3575.587554247429
 20
10628.99818212463
 30
2633.979123761891
 70
   192
  0
VERTEX
  5
260
330
25B
100
AcDbEntity
  8
ｴｸｽﾃﾘｱ商品
 62
    37
370
    35
100
AcDbVertex
100
AcDbPolyFaceMeshVertex
 10
3575.587554247428
 20
5256.273096069968
 30
2446.359429489245
 70
   192
  0
VERTEX
  5
261
330
25B
100
AcDbEntity
  8
ｴｸｽﾃﾘｱ商品
 62
    37
370
    35
100
AcDbVertex
100
AcDbPolyFaceMeshVertex
 10
3575.587554247428
 20
5256.116048334807
 30
2450.856688210832
 70
   192
  0
VERTEX
  5
262
330
25B
100
AcDbEntity
  8
ｴｸｽﾃﾘｱ商品
 62
    37
370
    35
100
AcDbVertex
100
AcDbPolyFaceMeshVertex
 10
3575.587554247429
 20
10628.84113438947
 30
2638.476382483477
 70
   192
  0
VERTEX
  5
263
330
25B
100
AcDbEntity
  8
ｴｸｽﾃﾘｱ商品
 62
    37
370
    35
100
AcDbVertex
100
AcDbPolyFaceMeshVertex
 10
3415.587554247429
 20
10628.84113438947
 30
2638.476382483477
 70
   192
  0
VERTEX
  5
264
330
25B
100
AcDbEntity
  8
ｴｸｽﾃﾘｱ商品
 62
    37
370
    35
100
AcDbVertex
100
AcDbPolyFaceMeshVertex
 10
3415.587554247428
 20
5256.116048334807
 30
2450.856688210832
 70
   192
  0
VERTEX
  5
265
330
25B
100
AcDbEntity
  8
ｴｸｽﾃﾘｱ商品
 62
    37
370
    35
100
AcDbFaceRecord
 10
0.0
 20
0.0
 30
0.0
 70
   128
 71
     1
 72
     2
 73
     3
 74
     4
  0
VERTEX
  5
266
330
25B
100
AcDbEntity
  8
ｴｸｽﾃﾘｱ商品
 62
    37
370
    35
100
AcDbFaceRecord
 10
0.0
 20
0.0
 30
0.0
 70
   128
 71
     5
 72
     6
 73
     7
 74
     8
  0
VERTEX
  5
267
330
25B
100
AcDbEntity
  8
ｴｸｽﾃﾘｱ商品
 62
    37
370
    35
100
AcDbFaceRecord
 10
0.0
 20
0.0
 30
0.0
 70
   128
 71
     4
 72
     5
 73
     8
 74
     1
  0
VERTEX
  5
268
330
25B
100
AcDbEntity
  8
ｴｸｽﾃﾘｱ商品
 62
    37
370
    35
100
AcDbFaceRecord
 10
0.0
 20
0.0
 30
0.0
 70
   128
 71
     1
 72
     8
 73
     7
 74
     2
  0
VERTEX
  5
269
330
25B
100
AcDbEntity
  8
ｴｸｽﾃﾘｱ商品
 62
    37
370
    35
100
AcDbFaceRecord
 10
0.0
 20
0.0
 30
0.0
 70
   128
 71
     2
 72
     7
 73
     6
 74
     3
  0
VERTEX
  5
26A
330
25B
100
AcDbEntity
  8
ｴｸｽﾃﾘｱ商品
 62
    37
370
    35
100
AcDbFaceRecord
 10
0.0
 20
0.0
 30
0.0
 70
   128
 71
     3
 72
     6
 73
     5
 74
     4
  0
SEQEND
  5
25C
330
25B
100
AcDbEntity
  8
ｴｸｽﾃﾘｱ商品
370
    35
  0
POLYLINE
  5
26B
330
3C
100
AcDbEntity
  8
ｴｸｽﾃﾘｱ商品
 62
    37
370
    35
100
AcDbPolyFaceMesh
 66
     1
 10
0.0
 20
0.0
 30
0.0
 70
    64
 71
     8
 72
     6
  0
VERTEX
  5
26D
330
26B
100
AcDbEntity
  8
ｴｸｽﾃﾘｱ商品
 62
    37
370
    35
100
AcDbVertex
100
AcDbPolyFaceMeshVertex
 10
3250.587554247428
 20
5256.273096069968
 30
2446.359429489245
 70
   192
  0
VERTEX
  5
26E
330
26B
100
AcDbEntity
  8
ｴｸｽﾃﾘｱ商品
 62
    37
370
    35
100
AcDbVertex
100
AcDbPolyFaceMeshVertex
 10
3250.587554247429
 20
10628.99818212463
 30
2633.979123761891
 70
   192
  0
VERTEX
  5
26F
330
26B
100
AcDbEntity
  8
ｴｸｽﾃﾘｱ商品
 62
    37
370
    35
100
AcDbVertex
100
AcDbPolyFaceMeshVertex
 10
3410.587554247428
 20
10628.99818212463
 30
2633.979123761891
 70
   192
  0
VERTEX
  5
270
330
26B
100
AcDbEntity
  8
ｴｸｽﾃﾘｱ商品
 62
    37
370
    35
100
AcDbVertex
100
AcDbPolyFaceMeshVertex
 10
3410.587554247428
 20
5256.273096069968
 30
2446.359429489245
 70
   192
  0
VERTEX
  5
271
330
26B
100
AcDbEntity
  8
ｴｸｽﾃﾘｱ商品
 62
    37
370
    35
100
AcDbVertex
100
AcDbPolyFaceMeshVertex
 10
3410.587554247428
 20
5256.116048334807
 30
2450.856688210832
 70
   192
  0
VERTEX
  5
272
330
26B
100
AcDbEntity
  8
ｴｸｽﾃﾘｱ商品
 62
    37
370
    35
100
AcDbVertex
100
AcDbPolyFaceMeshVertex
 10
3410.587554247428
 20
10628.84113438947
 30
2638.476382483477
 70
   192
  0
VERTEX
  5
273
330
26B
100
AcDbEntity
  8
ｴｸｽﾃﾘｱ商品
 62
    37
370
    35
100
AcDbVertex
100
AcDbPolyFaceMeshVertex
 10
3250.587554247429
 20
10628.84113438947
 30
2638.476382483477
 70
   192
  0
VERTEX
  5
274
330
26B
100
AcDbEntity
  8
ｴｸｽﾃﾘｱ商品
 62
    37
370
    35
100
AcDbVertex
100
AcDbPolyFaceMeshVertex
 10
3250.587554247428
 20
5256.116048334807
 30
2450.856688210832
 70
   192
  0
VERTEX
  5
275
330
26B
100
AcDbEntity
  8
ｴｸｽﾃﾘｱ商品
 62
    37
370
    35
100
AcDbFaceRecord
 10
0.0
 20
0.0
 30
0.0
 70
   128
 71
     1
 72
     2
 73
     3
 74
     4
  0
VERTEX
  5
276
330
26B
100
AcDbEntity
  8
ｴｸｽﾃﾘｱ商品
 62
    37
370
    35
100
AcDbFaceRecord
 10
0.0
 20
0.0
 30
0.0
 70
   128
 71
     5
 72
     6
 73
     7
 74
     8
  0
VERTEX
  5
277
330
26B
100
AcDbEntity
  8
ｴｸｽﾃﾘｱ商品
 62
    37
370
    35
100
AcDbFaceRecord
 10
0.0
 20
0.0
 30
0.0
 70
   128
 71
     4
 72
     5
 73
     8
 74
     1
  0
VERTEX
  5
278
330
26B
100
AcDbEntity
  8
ｴｸｽﾃﾘｱ商品
 62
    37
370
    35
100
AcDbFaceRecord
 10
0.0
 20
0.0
 30
0.0
 70
   128
 71
     1
 72
     8
 73
     7
 74
     2
  0
VERTEX
  5
279
330
26B
100
AcDbEntity
  8
ｴｸｽﾃﾘｱ商品
 62
    37
370
    35
100
AcDbFaceRecord
 10
0.0
 20
0.0
 30
0.0
 70
   128
 71
     2
 72
     7
 73
     6
 74
     3
  0
VERTEX
  5
27A
330
26B
100
AcDbEntity
  8
ｴｸｽﾃﾘｱ商品
 62
    37
370
    35
100
AcDbFaceRecord
 10
0.0
 20
0.0
 30
0.0
 70
   128
 71
     3
 72
     6
 73
     5
 74
     4
  0
SEQEND
  5
26C
330
26B
100
AcDbEntity
  8
ｴｸｽﾃﾘｱ商品
370
    35
  0
POLYLINE
  5
27B
330
3C
100
AcDbEntity
  8
ｴｸｽﾃﾘｱ商品
 62
    37
370
    35
100
AcDbPolyFaceMesh
 66
     1
 10
0.0
 20
0.0
 30
0.0
 70
    64
 71
     8
 72
     6
  0
VERTEX
  5
27D
330
27B
100
AcDbEntity
  8
ｴｸｽﾃﾘｱ商品
 62
    37
370
    35
100
AcDbVertex
100
AcDbPolyFaceMeshVertex
 10
3085.587554247428
 20
5256.273096069968
 30
2446.359429489245
 70
   192
  0
VERTEX
  5
27E
330
27B
100
AcDbEntity
  8
ｴｸｽﾃﾘｱ商品
 62
    37
370
    35
100
AcDbVertex
100
AcDbPolyFaceMeshVertex
 10
3085.587554247429
 20
10628.99818212463
 30
2633.979123761891
 70
   192
  0
VERTEX
  5
27F
330
27B
100
AcDbEntity
  8
ｴｸｽﾃﾘｱ商品
 62
    37
370
    35
100
AcDbVertex
100
AcDbPolyFaceMeshVertex
 10
3245.587554247428
 20
10628.99818212463
 30
2633.979123761891
 70
   192
  0
VERTEX
  5
280
330
27B
100
AcDbEntity
  8
ｴｸｽﾃﾘｱ商品
 62
    37
370
    35
100
AcDbVertex
100
AcDbPolyFaceMeshVertex
 10
3245.587554247428
 20
5256.273096069968
 30
2446.359429489245
 70
   192
  0
VERTEX
  5
281
330
27B
100
AcDbEntity
  8
ｴｸｽﾃﾘｱ商品
 62
    37
370
    35
100
AcDbVertex
100
AcDbPolyFaceMeshVertex
 10
3245.587554247428
 20
5256.116048334807
 30
2450.856688210832
 70
   192
  0
VERTEX
  5
282
330
27B
100
AcDbEntity
  8
ｴｸｽﾃﾘｱ商品
 62
    37
370
    35
100
AcDbVertex
100
AcDbPolyFaceMeshVertex
 10
3245.587554247428
 20
10628.84113438947
 30
2638.476382483477
 70
   192
  0
VERTEX
  5
283
330
27B
100
AcDbEntity
  8
ｴｸｽﾃﾘｱ商品
 62
    37
370
    35
100
AcDbVertex
100
AcDbPolyFaceMeshVertex
 10
3085.587554247429
 20
10628.84113438947
 30
2638.476382483477
 70
   192
  0
VERTEX
  5
284
330
27B
100
AcDbEntity
  8
ｴｸｽﾃﾘｱ商品
 62
    37
370
    35
100
AcDbVertex
100
AcDbPolyFaceMeshVertex
 10
3085.587554247428
 20
5256.116048334807
 30
2450.856688210832
 70
   192
  0
VERTEX
  5
285
330
27B
100
AcDbEntity
  8
ｴｸｽﾃﾘｱ商品
 62
    37
370
    35
100
AcDbFaceRecord
 10
0.0
 20
0.0
 30
0.0
 70
   128
 71
     1
 72
     2
 73
     3
 74
     4
  0
VERTEX
  5
286
330
27B
100
AcDbEntity
  8
ｴｸｽﾃﾘｱ商品
 62
    37
370
    35
100
AcDbFaceRecord
 10
0.0
 20
0.0
 30
0.0
 70
   128
 71
     5
 72
     6
 73
     7
 74
     8
  0
VERTEX
  5
287
330
27B
100
AcDbEntity
  8
ｴｸｽﾃﾘｱ商品
 62
    37
370
    35
100
AcDbFaceRecord
 10
0.0
 20
0.0
 30
0.0
 70
   128
 71
     4
 72
     5
 73
     8
 74
     1
  0
VERTEX
  5
288
330
27B
100
AcDbEntity
  8
ｴｸｽﾃﾘｱ商品
 62
    37
370
    35
100
AcDbFaceRecord
 10
0.0
 20
0.0
 30
0.0
 70
   128
 71
     1
 72
     8
 73
     7
 74
     2
  0
VERTEX
  5
289
330
27B
100
AcDbEntity
  8
ｴｸｽﾃﾘｱ商品
 62
    37
370
    35
100
AcDbFaceRecord
 10
0.0
 20
0.0
 30
0.0
 70
   128
 71
     2
 72
     7
 73
     6
 74
     3
  0
VERTEX
  5
28A
330
27B
100
AcDbEntity
  8
ｴｸｽﾃﾘｱ商品
 62
    37
370
    35
100
AcDbFaceRecord
 10
0.0
 20
0.0
 30
0.0
 70
   128
 71
     3
 72
     6
 73
     5
 74
     4
  0
SEQEND
  5
27C
330
27B
100
AcDbEntity
  8
ｴｸｽﾃﾘｱ商品
370
    35
  0
POLYLINE
  5
28B
330
3C
100
AcDbEntity
  8
ｴｸｽﾃﾘｱ商品
 62
    37
370
    35
100
AcDbPolyFaceMesh
 66
     1
 10
0.0
 20
0.0
 30
0.0
 70
    64
 71
     8
 72
     6
  0
VERTEX
  5
28D
330
28B
100
AcDbEntity
  8
ｴｸｽﾃﾘｱ商品
 62
    37
370
    35
100
AcDbVertex
100
AcDbPolyFaceMeshVertex
 10
3039.587554247429
 20
10628.99818212463
 30
2633.979123761891
 70
   192
  0
VERTEX
  5
28E
330
28B
100
AcDbEntity
  8
ｴｸｽﾃﾘｱ商品
 62
    37
370
    35
100
AcDbVertex
100
AcDbPolyFaceMeshVertex
 10
3080.587554247428
 20
10628.99818212463
 30
2633.979123761891
 70
   192
  0
VERTEX
  5
28F
330
28B
100
AcDbEntity
  8
ｴｸｽﾃﾘｱ商品
 62
    37
370
    35
100
AcDbVertex
100
AcDbPolyFaceMeshVertex
 10
3080.587554247428
 20
5256.273096069968
 30
2446.359429489245
 70
   192
  0
VERTEX
  5
290
330
28B
100
AcDbEntity
  8
ｴｸｽﾃﾘｱ商品
 62
    37
370
    35
100
AcDbVertex
100
AcDbPolyFaceMeshVertex
 10
3039.587554247428
 20
5256.273096069968
 30
2446.359429489245
 70
   192
  0
VERTEX
  5
291
330
28B
100
AcDbEntity
  8
ｴｸｽﾃﾘｱ商品
 62
    37
370
    35
100
AcDbVertex
100
AcDbPolyFaceMeshVertex
 10
3080.587554247428
 20
5256.116048334807
 30
2450.856688210832
 70
   192
  0
VERTEX
  5
292
330
28B
100
AcDbEntity
  8
ｴｸｽﾃﾘｱ商品
 62
    37
370
    35
100
AcDbVertex
100
AcDbPolyFaceMeshVertex
 10
3080.587554247428
 20
10628.84113438947
 30
2638.476382483477
 70
   192
  0
VERTEX
  5
293
330
28B
100
AcDbEntity
  8
ｴｸｽﾃﾘｱ商品
 62
    37
370
    35
100
AcDbVertex
100
AcDbPolyFaceMeshVertex
 10
3039.587554247429
 20
10628.84113438947
 30
2638.476382483477
 70
   192
  0
VERTEX
  5
294
330
28B
100
AcDbEntity
  8
ｴｸｽﾃﾘｱ商品
 62
    37
370
    35
100
AcDbVertex
100
AcDbPolyFaceMeshVertex
 10
3039.587554247428
 20
5256.116048334807
 30
2450.856688210832
 70
   192
  0
VERTEX
  5
295
330
28B
100
AcDbEntity
  8
ｴｸｽﾃﾘｱ商品
 62
    37
370
    35
100
AcDbFaceRecord
 10
0.0
 20
0.0
 30
0.0
 70
   128
 71
     1
 72
     2
 73
     3
 74
     4
  0
VERTEX
  5
296
330
28B
100
AcDbEntity
  8
ｴｸｽﾃﾘｱ商品
 62
    37
370
    35
100
AcDbFaceRecord
 10
0.0
 20
0.0
 30
0.0
 70
   128
 71
     5
 72
     6
 73
     7
 74
     8
  0
VERTEX
  5
297
330
28B
100
AcDbEntity
  8
ｴｸｽﾃﾘｱ商品
 62
    37
370
    35
100
AcDbFaceRecord
 10
0.0
 20
0.0
 30
0.0
 70
   128
 71
     3
 72
     5
 73
     8
 74
     4
  0
VERTEX
  5
298
330
28B
100
AcDbEntity
  8
ｴｸｽﾃﾘｱ商品
 62
    37
370
    35
100
AcDbFaceRecord
 10
0.0
 20
0.0
 30
0.0
 70
   128
 71
     7
 72
     6
 73
     2
 74
     1
  0
VERTEX
  5
299
330
28B
100
AcDbEntity
  8
ｴｸｽﾃﾘｱ商品
 62
    37
370
    35
100
AcDbFaceRecord
 10
0.0
 20
0.0
 30
0.0
 70
   128
 71
     2
 72
     6
 73
     5
 74
     3
  0
VERTEX
  5
29A
330
28B
100
AcDbEntity
  8
ｴｸｽﾃﾘｱ商品
 62
    37
370
    35
100
AcDbFaceRecord
 10
0.0
 20
0.0
 30
0.0
 70
   128
 71
     4
 72
     8
 73
     7
 74
     1
  0
SEQEND
  5
28C
330
28B
100
AcDbEntity
  8
ｴｸｽﾃﾘｱ商品
370
    35
  0
POLYLINE
  5
29B
330
3C
100
AcDbEntity
  8
ｴｸｽﾃﾘｱ商品
 62
   255
370
    20
100
AcDbPolyFaceMesh
 66
     1
 10
0.0
 20
0.0
 30
0.0
 70
    64
 71
    24
 72
    32
  0
VERTEX
  5
29D
330
29B
100
AcDbEntity
  8
ｴｸｽﾃﾘｱ商品
 62
   255
370
    20
100
AcDbVertex
100
AcDbPolyFaceMeshVertex
 10
6050.58755424743
 20
10627.95119722355
 30
2663.960848572464
 70
   192
  0
VERTEX
  5
29E
330
29B
100
AcDbEntity
  8
ｴｸｽﾃﾘｱ商品
 62
   255
370
    20
100
AcDbVertex
100
AcDbPolyFaceMeshVertex
 10
6050.58755424743
 20
5255.226111168893
 30
2476.341154299819
 70
   192
  0
VERTEX
  5
29F
330
29B
100
AcDbEntity
  8
ｴｸｽﾃﾘｱ商品
 62
   255
370
    20
100
AcDbVertex
100
AcDbPolyFaceMeshVertex
 10
6030.58755424743
 20
5255.226111168893
 30
2476.341154299819
 70
   192
  0
VERTEX
  5
2A0
330
29B
100
AcDbEntity
  8
ｴｸｽﾃﾘｱ商品
 62
   255
370
    20
100
AcDbVertex
100
AcDbPolyFaceMeshVertex
 10
6030.58755424743
 20
10627.95119722355
 30
2663.960848572464
 70
   192
  0
VERTEX
  5
2A1
330
29B
100
AcDbEntity
  8
ｴｸｽﾃﾘｱ商品
 62
   255
370
    20
100
AcDbVertex
100
AcDbPolyFaceMeshVertex
 10
5990.58755424743
 20
5252.434151432693
 30
2556.292420461346
 70
   192
  0
VERTEX
  5
2A2
330
29B
100
AcDbEntity
  8
ｴｸｽﾃﾘｱ商品
 62
   255
370
    20
100
AcDbVertex
100
AcDbPolyFaceMeshVertex
 10
5990.58755424743
 20
10625.15923748735
 30
2743.912114733992
 70
   192
  0
VERTEX
  5
2A3
330
29B
100
AcDbEntity
  8
ｴｸｽﾃﾘｱ商品
 62
   255
370
    20
100
AcDbVertex
100
AcDbPolyFaceMeshVertex
 10
5950.58755424743
 20
5252.434151432693
 30
2556.292420461346
 70
   192
  0
VERTEX
  5
2A4
330
29B
100
AcDbEntity
  8
ｴｸｽﾃﾘｱ商品
 62
   255
370
    20
100
AcDbVertex
100
AcDbPolyFaceMeshVertex
 10
5950.58755424743
 20
10625.15923748735
 30
2743.912114733992
 70
   192
  0
VERTEX
  5
2A5
330
29B
100
AcDbEntity
  8
ｴｸｽﾃﾘｱ商品
 62
   255
370
    20
100
AcDbVertex
100
AcDbPolyFaceMeshVertex
 10
5910.58755424743
 20
5255.226111168893
 30
2476.341154299819
 70
   192
  0
VERTEX
  5
2A6
330
29B
100
AcDbEntity
  8
ｴｸｽﾃﾘｱ商品
 62
   255
370
    20
100
AcDbVertex
100
AcDbPolyFaceMeshVertex
 10
5910.58755424743
 20
10627.95119722355
 30
2663.960848572464
 70
   192
  0
VERTEX
  5
2A7
330
29B
100
AcDbEntity
  8
ｴｸｽﾃﾘｱ商品
 62
   255
370
    20
100
AcDbVertex
100
AcDbPolyFaceMeshVertex
 10
5890.58755424743
 20
5255.226111168893
 30
2476.341154299819
 70
   192
  0
VERTEX
  5
2A8
330
29B
100
AcDbEntity
  8
ｴｸｽﾃﾘｱ商品
 62
   255
370
    20
100
AcDbVertex
100
AcDbPolyFaceMeshVertex
 10
5890.58755424743
 20
10627.95119722355
 30
2663.960848572464
 70
   192
  0
VERTEX
  5
2A9
330
29B
100
AcDbEntity
  8
ｴｸｽﾃﾘｱ商品
 62
   255
370
    20
100
AcDbVertex
100
AcDbPolyFaceMeshVertex
 10
5890.58755424743
 20
5254.528121234843
 30
2496.328970840201
 70
   192
  0
VERTEX
  5
2AA
330
29B
100
AcDbEntity
  8
ｴｸｽﾃﾘｱ商品
 62
   255
370
    20
100
AcDbVertex
100
AcDbPolyFaceMeshVertex
 10
5890.58755424743
 20
10627.2532072895
 30
2683.948665112846
 70
   192
  0
VERTEX
  5
2AB
330
29B
100
AcDbEntity
  8
ｴｸｽﾃﾘｱ商品
 62
   255
370
    20
100
AcDbVertex
100
AcDbPolyFaceMeshVertex
 10
5910.58755424743
 20
5254.528121234843
 30
2496.328970840201
 70
   192
  0
VERTEX
  5
2AC
330
29B
100
AcDbEntity
  8
ｴｸｽﾃﾘｱ商品
 62
   255
370
    20
100
AcDbVertex
100
AcDbPolyFaceMeshVertex
 10
5910.58755424743
 20
10627.2532072895
 30
2683.948665112846
 70
   192
  0
VERTEX
  5
2AD
330
29B
100
AcDbEntity
  8
ｴｸｽﾃﾘｱ商品
 62
   255
370
    20
100
AcDbVertex
100
AcDbPolyFaceMeshVertex
 10
5950.58755424743
 20
5251.736161498643
 30
2576.280237001728
 70
   192
  0
VERTEX
  5
2AE
330
29B
100
AcDbEntity
  8
ｴｸｽﾃﾘｱ商品
 62
   255
370
    20
100
AcDbVertex
100
AcDbPolyFaceMeshVertex
 10
5950.58755424743
 20
10624.4612475533
 30
2763.899931274374
 70
   192
  0
VERTEX
  5
2AF
330
29B
100
AcDbEntity
  8
ｴｸｽﾃﾘｱ商品
 62
   255
370
    20
100
AcDbVertex
100
AcDbPolyFaceMeshVertex
 10
5990.58755424743
 20
5251.736161498643
 30
2576.280237001728
 70
   192
  0
VERTEX
  5
2B0
330
29B
100
AcDbEntity
  8
ｴｸｽﾃﾘｱ商品
 62
   255
370
    20
100
AcDbVertex
100
AcDbPolyFaceMeshVertex
 10
5990.58755424743
 20
10624.4612475533
 30
2763.899931274374
 70
   192
  0
VERTEX
  5
2B1
330
29B
100
AcDbEntity
  8
ｴｸｽﾃﾘｱ商品
 62
   255
370
    20
100
AcDbVertex
100
AcDbPolyFaceMeshVertex
 10
6030.58755424743
 20
5254.528121234843
 30
2496.328970840201
 70
   192
  0
VERTEX
  5
2B2
330
29B
100
AcDbEntity
  8
ｴｸｽﾃﾘｱ商品
 62
   255
370
    20
100
AcDbVertex
100
AcDbPolyFaceMeshVertex
 10
6030.58755424743
 20
10627.2532072895
 30
2683.948665112846
 70
   192
  0
VERTEX
  5
2B3
330
29B
100
AcDbEntity
  8
ｴｸｽﾃﾘｱ商品
 62
   255
370
    20
100
AcDbVertex
100
AcDbPolyFaceMeshVertex
 10
6050.58755424743
 20
5254.528121234843
 30
2496.328970840201
 70
   192
  0
VERTEX
  5
2B4
330
29B
100
AcDbEntity
  8
ｴｸｽﾃﾘｱ商品
 62
   255
370
    20
100
AcDbVertex
100
AcDbPolyFaceMeshVertex
 10
6050.58755424743
 20
10627.2532072895
 30
2683.948665112846
 70
   192
  0
VERTEX
  5
2B5
330
29B
100
AcDbEntity
  8
ｴｸｽﾃﾘｱ商品
 62
   255
370
    20
100
AcDbFaceRecord
 10
0.0
 20
0.0
 30
0.0
 70
   128
 71
     1
 72
     2
 73
     3
 74
     4
  0
VERTEX
  5
2B6
330
29B
100
AcDbEntity
  8
ｴｸｽﾃﾘｱ商品
 62
   255
370
    20
100
AcDbFaceRecord
 10
0.0
 20
0.0
 30
0.0
 70
   128
 71
     4
 72
     3
 73
     5
 74
     6
  0
VERTEX
  5
2B7
330
29B
100
AcDbEntity
  8
ｴｸｽﾃﾘｱ商品
 62
   255
370
    20
100
AcDbFaceRecord
 10
0.0
 20
0.0
 30
0.0
 70
   128
 71
     6
 72
     5
 73
     7
 74
     8
  0
VERTEX
  5
2B8
330
29B
100
AcDbEntity
  8
ｴｸｽﾃﾘｱ商品
 62
   255
370
    20
100
AcDbFaceRecord
 10
0.0
 20
0.0
 30
0.0
 70
   128
 71
     8
 72
     7
 73
     9
 74
    10
  0
VERTEX
  5
2B9
330
29B
100
AcDbEntity
  8
ｴｸｽﾃﾘｱ商品
 62
   255
370
    20
100
AcDbFaceRecord
 10
0.0
 20
0.0
 30
0.0
 70
   128
 71
    10
 72
     9
 73
    11
 74
    12
  0
VERTEX
  5
2BA
330
29B
100
AcDbEntity
  8
ｴｸｽﾃﾘｱ商品
 62
   255
370
    20
100
AcDbFaceRecord
 10
0.0
 20
0.0
 30
0.0
 70
   128
 71
    12
 72
    11
 73
    13
 74
    14
  0
VERTEX
  5
2BB
330
29B
100
AcDbEntity
  8
ｴｸｽﾃﾘｱ商品
 62
   255
370
    20
100
AcDbFaceRecord
 10
0.0
 20
0.0
 30
0.0
 70
   128
 71
    14
 72
    13
 73
    15
 74
    16
  0
VERTEX
  5
2BC
330
29B
100
AcDbEntity
  8
ｴｸｽﾃﾘｱ商品
 62
   255
370
    20
100
AcDbFaceRecord
 10
0.0
 20
0.0
 30
0.0
 70
   128
 71
    16
 72
    15
 73
    17
 74
    18
  0
VERTEX
  5
2BD
330
29B
100
AcDbEntity
  8
ｴｸｽﾃﾘｱ商品
 62
   255
370
    20
100
AcDbFaceRecord
 10
0.0
 20
0.0
 30
0.0
 70
   128
 71
    18
 72
    17
 73
    19
 74
    20
  0
VERTEX
  5
2BE
330
29B
100
AcDbEntity
  8
ｴｸｽﾃﾘｱ商品
 62
   255
370
    20
100
AcDbFaceRecord
 10
0.0
 20
0.0
 30
0.0
 70
   128
 71
    20
 72
    19
 73
    21
 74
    22
  0
VERTEX
  5
2BF
330
29B
100
AcDbEntity
  8
ｴｸｽﾃﾘｱ商品
 62
   255
370
    20
100
AcDbFaceRecord
 10
0.0
 20
0.0
 30
0.0
 70
   128
 71
    22
 72
    21
 73
    23
 74
    24
  0
VERTEX
  5
2C0
330
29B
100
AcDbEntity
  8
ｴｸｽﾃﾘｱ商品
 62
   255
370
    20
100
AcDbFaceRecord
 10
0.0
 20
0.0
 30
0.0
 70
   128
 71
    24
 72
    23
 73
     2
 74
     1
  0
VERTEX
  5
2C1
330
29B
100
AcDbEntity
  8
ｴｸｽﾃﾘｱ商品
 62
   255
370
    20
100
AcDbFaceRecord
 10
0.0
 20
0.0
 30
0.0
 70
   128
 71
     6
 72
     8
 73
    18
  0
VERTEX
  5
2C2
330
29B
100
AcDbEntity
  8
ｴｸｽﾃﾘｱ商品
 62
   255
370
    20
100
AcDbFaceRecord
 10
0.0
 20
0.0
 30
0.0
 70
   128
 71
     6
 72
    18
 73
    20
  0
VERTEX
  5
2C3
330
29B
100
AcDbEntity
  8
ｴｸｽﾃﾘｱ商品
 62
   255
370
    20
100
AcDbFaceRecord
 10
0.0
 20
0.0
 30
0.0
 70
   128
 71
    16
 72
    18
 73
     8
  0
VERTEX
  5
2C4
330
29B
100
AcDbEntity
  8
ｴｸｽﾃﾘｱ商品
 62
   255
370
    20
100
AcDbFaceRecord
 10
0.0
 20
0.0
 30
0.0
 70
   128
 71
     6
 72
    20
 73
    22
  0
VERTEX
  5
2C5
330
29B
100
AcDbEntity
  8
ｴｸｽﾃﾘｱ商品
 62
   255
370
    20
100
AcDbFaceRecord
 10
0.0
 20
0.0
 30
0.0
 70
   128
 71
    12
 72
    14
 73
    16
  0
VERTEX
  5
2C6
330
29B
100
AcDbEntity
  8
ｴｸｽﾃﾘｱ商品
 62
   255
370
    20
100
AcDbFaceRecord
 10
0.0
 20
0.0
 30
0.0
 70
   128
 71
    12
 72
    16
 73
    10
  0
VERTEX
  5
2C7
330
29B
100
AcDbEntity
  8
ｴｸｽﾃﾘｱ商品
 62
   255
370
    20
100
AcDbFaceRecord
 10
0.0
 20
0.0
 30
0.0
 70
   128
 71
    10
 72
    16
 73
     8
  0
VERTEX
  5
2C8
330
29B
100
AcDbEntity
  8
ｴｸｽﾃﾘｱ商品
 62
   255
370
    20
100
AcDbFaceRecord
 10
0.0
 20
0.0
 30
0.0
 70
   128
 71
     4
 72
     6
 73
    22
  0
VERTEX
  5
2C9
330
29B
100
AcDbEntity
  8
ｴｸｽﾃﾘｱ商品
 62
   255
370
    20
100
AcDbFaceRecord
 10
0.0
 20
0.0
 30
0.0
 70
   128
 71
     4
 72
    22
 73
     1
  0
VERTEX
  5
2CA
330
29B
100
AcDbEntity
  8
ｴｸｽﾃﾘｱ商品
 62
   255
370
    20
100
AcDbFaceRecord
 10
0.0
 20
0.0
 30
0.0
 70
   128
 71
     1
 72
    22
 73
    24
  0
VERTEX
  5
2CB
330
29B
100
AcDbEntity
  8
ｴｸｽﾃﾘｱ商品
 62
   255
370
    20
100
AcDbFaceRecord
 10
0.0
 20
0.0
 30
0.0
 70
   128
 71
     7
 72
     5
 73
    19
  0
VERTEX
  5
2CC
330
29B
100
AcDbEntity
  8
ｴｸｽﾃﾘｱ商品
 62
   255
370
    20
100
AcDbFaceRecord
 10
0.0
 20
0.0
 30
0.0
 70
   128
 71
     7
 72
    19
 73
    17
  0
VERTEX
  5
2CD
330
29B
100
AcDbEntity
  8
ｴｸｽﾃﾘｱ商品
 62
   255
370
    20
100
AcDbFaceRecord
 10
0.0
 20
0.0
 30
0.0
 70
   128
 71
    21
 72
    19
 73
     5
  0
VERTEX
  5
2CE
330
29B
100
AcDbEntity
  8
ｴｸｽﾃﾘｱ商品
 62
   255
370
    20
100
AcDbFaceRecord
 10
0.0
 20
0.0
 30
0.0
 70
   128
 71
     7
 72
    17
 73
    15
  0
VERTEX
  5
2CF
330
29B
100
AcDbEntity
  8
ｴｸｽﾃﾘｱ商品
 62
   255
370
    20
100
AcDbFaceRecord
 10
0.0
 20
0.0
 30
0.0
 70
   128
 71
     2
 72
    23
 73
    21
  0
VERTEX
  5
2D0
330
29B
100
AcDbEntity
  8
ｴｸｽﾃﾘｱ商品
 62
   255
370
    20
100
AcDbFaceRecord
 10
0.0
 20
0.0
 30
0.0
 70
   128
 71
     2
 72
    21
 73
     3
  0
VERTEX
  5
2D1
330
29B
100
AcDbEntity
  8
ｴｸｽﾃﾘｱ商品
 62
   255
370
    20
100
AcDbFaceRecord
 10
0.0
 20
0.0
 30
0.0
 70
   128
 71
     3
 72
    21
 73
     5
  0
VERTEX
  5
2D2
330
29B
100
AcDbEntity
  8
ｴｸｽﾃﾘｱ商品
 62
   255
370
    20
100
AcDbFaceRecord
 10
0.0
 20
0.0
 30
0.0
 70
   128
 71
     9
 72
     7
 73
    15
  0
VERTEX
  5
2D3
330
29B
100
AcDbEntity
  8
ｴｸｽﾃﾘｱ商品
 62
   255
370
    20
100
AcDbFaceRecord
 10
0.0
 20
0.0
 30
0.0
 70
   128
 71
     9
 72
    15
 73
    11
  0
VERTEX
  5
2D4
330
29B
100
AcDbEntity
  8
ｴｸｽﾃﾘｱ商品
 62
   255
370
    20
100
AcDbFaceRecord
 10
0.0
 20
0.0
 30
0.0
 70
   128
 71
    11
 72
    15
 73
    13
  0
SEQEND
  5
29C
330
29B
100
AcDbEntity
  8
ｴｸｽﾃﾘｱ商品
370
    20
  0
POLYLINE
  5
2D5
330
3C
100
AcDbEntity
  8
ｴｸｽﾃﾘｱ商品
 62
   255
370
    20
100
AcDbPolyFaceMesh
 66
     1
 10
0.0
 20
0.0
 30
0.0
 70
    64
 71
    24
 72
    32
  0
VERTEX
  5
2D7
330
2D5
100
AcDbEntity
  8
ｴｸｽﾃﾘｱ商品
 62
   255
370
    20
100
AcDbVertex
100
AcDbPolyFaceMeshVertex
 10
5890.58755424743
 20
10627.95119722355
 30
2663.960848572464
 70
   192
  0
VERTEX
  5
2D8
330
2D5
100
AcDbEntity
  8
ｴｸｽﾃﾘｱ商品
 62
   255
370
    20
100
AcDbVertex
100
AcDbPolyFaceMeshVertex
 10
5890.58755424743
 20
5255.226111168893
 30
2476.341154299819
 70
   192
  0
VERTEX
  5
2D9
330
2D5
100
AcDbEntity
  8
ｴｸｽﾃﾘｱ商品
 62
   255
370
    20
100
AcDbVertex
100
AcDbPolyFaceMeshVertex
 10
5870.58755424743
 20
5255.226111168893
 30
2476.341154299819
 70
   192
  0
VERTEX
  5
2DA
330
2D5
100
AcDbEntity
  8
ｴｸｽﾃﾘｱ商品
 62
   255
370
    20
100
AcDbVertex
100
AcDbPolyFaceMeshVertex
 10
5870.58755424743
 20
10627.95119722355
 30
2663.960848572464
 70
   192
  0
VERTEX
  5
2DB
330
2D5
100
AcDbEntity
  8
ｴｸｽﾃﾘｱ商品
 62
   255
370
    20
100
AcDbVertex
100
AcDbPolyFaceMeshVertex
 10
5830.58755424743
 20
5252.434151432693
 30
2556.292420461346
 70
   192
  0
VERTEX
  5
2DC
330
2D5
100
AcDbEntity
  8
ｴｸｽﾃﾘｱ商品
 62
   255
370
    20
100
AcDbVertex
100
AcDbPolyFaceMeshVertex
 10
5830.58755424743
 20
10625.15923748735
 30
2743.912114733992
 70
   192
  0
VERTEX
  5
2DD
330
2D5
100
AcDbEntity
  8
ｴｸｽﾃﾘｱ商品
 62
   255
370
    20
100
AcDbVertex
100
AcDbPolyFaceMeshVertex
 10
5790.58755424743
 20
5252.434151432693
 30
2556.292420461346
 70
   192
  0
VERTEX
  5
2DE
330
2D5
100
AcDbEntity
  8
ｴｸｽﾃﾘｱ商品
 62
   255
370
    20
100
AcDbVertex
100
AcDbPolyFaceMeshVertex
 10
5790.58755424743
 20
10625.15923748735
 30
2743.912114733992
 70
   192
  0
VERTEX
  5
2DF
330
2D5
100
AcDbEntity
  8
ｴｸｽﾃﾘｱ商品
 62
   255
370
    20
100
AcDbVertex
100
AcDbPolyFaceMeshVertex
 10
5750.58755424743
 20
5255.226111168893
 30
2476.341154299819
 70
   192
  0
VERTEX
  5
2E0
330
2D5
100
AcDbEntity
  8
ｴｸｽﾃﾘｱ商品
 62
   255
370
    20
100
AcDbVertex
100
AcDbPolyFaceMeshVertex
 10
5750.58755424743
 20
10627.95119722355
 30
2663.960848572464
 70
   192
  0
VERTEX
  5
2E1
330
2D5
100
AcDbEntity
  8
ｴｸｽﾃﾘｱ商品
 62
   255
370
    20
100
AcDbVertex
100
AcDbPolyFaceMeshVertex
 10
5730.58755424743
 20
5255.226111168893
 30
2476.341154299819
 70
   192
  0
VERTEX
  5
2E2
330
2D5
100
AcDbEntity
  8
ｴｸｽﾃﾘｱ商品
 62
   255
370
    20
100
AcDbVertex
100
AcDbPolyFaceMeshVertex
 10
5730.58755424743
 20
10627.95119722355
 30
2663.960848572464
 70
   192
  0
VERTEX
  5
2E3
330
2D5
100
AcDbEntity
  8
ｴｸｽﾃﾘｱ商品
 62
   255
370
    20
100
AcDbVertex
100
AcDbPolyFaceMeshVertex
 10
5730.58755424743
 20
5254.528121234843
 30
2496.328970840201
 70
   192
  0
VERTEX
  5
2E4
330
2D5
100
AcDbEntity
  8
ｴｸｽﾃﾘｱ商品
 62
   255
370
    20
100
AcDbVertex
100
AcDbPolyFaceMeshVertex
 10
5730.58755424743
 20
10627.2532072895
 30
2683.948665112846
 70
   192
  0
VERTEX
  5
2E5
330
2D5
100
AcDbEntity
  8
ｴｸｽﾃﾘｱ商品
 62
   255
370
    20
100
AcDbVertex
100
AcDbPolyFaceMeshVertex
 10
5750.58755424743
 20
5254.528121234843
 30
2496.328970840201
 70
   192
  0
VERTEX
  5
2E6
330
2D5
100
AcDbEntity
  8
ｴｸｽﾃﾘｱ商品
 62
   255
370
    20
100
AcDbVertex
100
AcDbPolyFaceMeshVertex
 10
5750.58755424743
 20
10627.2532072895
 30
2683.948665112846
 70
   192
  0
VERTEX
  5
2E7
330
2D5
100
AcDbEntity
  8
ｴｸｽﾃﾘｱ商品
 62
   255
370
    20
100
AcDbVertex
100
AcDbPolyFaceMeshVertex
 10
5790.58755424743
 20
5251.736161498643
 30
2576.280237001728
 70
   192
  0
VERTEX
  5
2E8
330
2D5
100
AcDbEntity
  8
ｴｸｽﾃﾘｱ商品
 62
   255
370
    20
100
AcDbVertex
100
AcDbPolyFaceMeshVertex
 10
5790.58755424743
 20
10624.4612475533
 30
2763.899931274374
 70
   192
  0
VERTEX
  5
2E9
330
2D5
100
AcDbEntity
  8
ｴｸｽﾃﾘｱ商品
 62
   255
370
    20
100
AcDbVertex
100
AcDbPolyFaceMeshVertex
 10
5830.58755424743
 20
5251.736161498643
 30
2576.280237001728
 70
   192
  0
VERTEX
  5
2EA
330
2D5
100
AcDbEntity
  8
ｴｸｽﾃﾘｱ商品
 62
   255
370
    20
100
AcDbVertex
100
AcDbPolyFaceMeshVertex
 10
5830.58755424743
 20
10624.4612475533
 30
2763.899931274374
 70
   192
  0
VERTEX
  5
2EB
330
2D5
100
AcDbEntity
  8
ｴｸｽﾃﾘｱ商品
 62
   255
370
    20
100
AcDbVertex
100
AcDbPolyFaceMeshVertex
 10
5870.58755424743
 20
5254.528121234843
 30
2496.328970840201
 70
   192
  0
VERTEX
  5
2EC
330
2D5
100
AcDbEntity
  8
ｴｸｽﾃﾘｱ商品
 62
   255
370
    20
100
AcDbVertex
100
AcDbPolyFaceMeshVertex
 10
5870.58755424743
 20
10627.2532072895
 30
2683.948665112846
 70
   192
  0
VERTEX
  5
2ED
330
2D5
100
AcDbEntity
  8
ｴｸｽﾃﾘｱ商品
 62
   255
370
    20
100
AcDbVertex
100
AcDbPolyFaceMeshVertex
 10
5890.58755424743
 20
5254.528121234843
 30
2496.328970840201
 70
   192
  0
VERTEX
  5
2EE
330
2D5
100
AcDbEntity
  8
ｴｸｽﾃﾘｱ商品
 62
   255
370
    20
100
AcDbVertex
100
AcDbPolyFaceMeshVertex
 10
5890.58755424743
 20
10627.2532072895
 30
2683.948665112846
 70
   192
  0
VERTEX
  5
2EF
330
2D5
100
AcDbEntity
  8
ｴｸｽﾃﾘｱ商品
 62
   255
370
    20
100
AcDbFaceRecord
 10
0.0
 20
0.0
 30
0.0
 70
   128
 71
     1
 72
     2
 73
     3
 74
     4
  0
VERTEX
  5
2F0
330
2D5
100
AcDbEntity
  8
ｴｸｽﾃﾘｱ商品
 62
   255
370
    20
100
AcDbFaceRecord
 10
0.0
 20
0.0
 30
0.0
 70
   128
 71
     4
 72
     3
 73
     5
 74
     6
  0
VERTEX
  5
2F1
330
2D5
100
AcDbEntity
  8
ｴｸｽﾃﾘｱ商品
 62
   255
370
    20
100
AcDbFaceRecord
 10
0.0
 20
0.0
 30
0.0
 70
   128
 71
     6
 72
     5
 73
     7
 74
     8
  0
VERTEX
  5
2F2
330
2D5
100
AcDbEntity
  8
ｴｸｽﾃﾘｱ商品
 62
   255
370
    20
100
AcDbFaceRecord
 10
0.0
 20
0.0
 30
0.0
 70
   128
 71
     8
 72
     7
 73
     9
 74
    10
  0
VERTEX
  5
2F3
330
2D5
100
AcDbEntity
  8
ｴｸｽﾃﾘｱ商品
 62
   255
370
    20
100
AcDbFaceRecord
 10
0.0
 20
0.0
 30
0.0
 70
   128
 71
    10
 72
     9
 73
    11
 74
    12
  0
VERTEX
  5
2F4
330
2D5
100
AcDbEntity
  8
ｴｸｽﾃﾘｱ商品
 62
   255
370
    20
100
AcDbFaceRecord
 10
0.0
 20
0.0
 30
0.0
 70
   128
 71
    12
 72
    11
 73
    13
 74
    14
  0
VERTEX
  5
2F5
330
2D5
100
AcDbEntity
  8
ｴｸｽﾃﾘｱ商品
 62
   255
370
    20
100
AcDbFaceRecord
 10
0.0
 20
0.0
 30
0.0
 70
   128
 71
    14
 72
    13
 73
    15
 74
    16
  0
VERTEX
  5
2F6
330
2D5
100
AcDbEntity
  8
ｴｸｽﾃﾘｱ商品
 62
   255
370
    20
100
AcDbFaceRecord
 10
0.0
 20
0.0
 30
0.0
 70
   128
 71
    16
 72
    15
 73
    17
 74
    18
  0
VERTEX
  5
2F7
330
2D5
100
AcDbEntity
  8
ｴｸｽﾃﾘｱ商品
 62
   255
370
    20
100
AcDbFaceRecord
 10
0.0
 20
0.0
 30
0.0
 70
   128
 71
    18
 72
    17
 73
    19
 74
    20
  0
VERTEX
  5
2F8
330
2D5
100
AcDbEntity
  8
ｴｸｽﾃﾘｱ商品
 62
   255
370
    20
100
AcDbFaceRecord
 10
0.0
 20
0.0
 30
0.0
 70
   128
 71
    20
 72
    19
 73
    21
 74
    22
  0
VERTEX
  5
2F9
330
2D5
100
AcDbEntity
  8
ｴｸｽﾃﾘｱ商品
 62
   255
370
    20
100
AcDbFaceRecord
 10
0.0
 20
0.0
 30
0.0
 70
   128
 71
    22
 72
    21
 73
    23
 74
    24
  0
VERTEX
  5
2FA
330
2D5
100
AcDbEntity
  8
ｴｸｽﾃﾘｱ商品
 62
   255
370
    20
100
AcDbFaceRecord
 10
0.0
 20
0.0
 30
0.0
 70
   128
 71
    24
 72
    23
 73
     2
 74
     1
  0
VERTEX
  5
2FB
330
2D5
100
AcDbEntity
  8
ｴｸｽﾃﾘｱ商品
 62
   255
370
    20
100
AcDbFaceRecord
 10
0.0
 20
0.0
 30
0.0
 70
   128
 71
     6
 72
     8
 73
    18
  0
VERTEX
  5
2FC
330
2D5
100
AcDbEntity
  8
ｴｸｽﾃﾘｱ商品
 62
   255
370
    20
100
AcDbFaceRecord
 10
0.0
 20
0.0
 30
0.0
 70
   128
 71
     6
 72
    18
 73
    20
  0
VERTEX
  5
2FD
330
2D5
100
AcDbEntity
  8
ｴｸｽﾃﾘｱ商品
 62
   255
370
    20
100
AcDbFaceRecord
 10
0.0
 20
0.0
 30
0.0
 70
   128
 71
    16
 72
    18
 73
     8
  0
VERTEX
  5
2FE
330
2D5
100
AcDbEntity
  8
ｴｸｽﾃﾘｱ商品
 62
   255
370
    20
100
AcDbFaceRecord
 10
0.0
 20
0.0
 30
0.0
 70
   128
 71
     6
 72
    20
 73
    22
  0
VERTEX
  5
2FF
330
2D5
100
AcDbEntity
  8
ｴｸｽﾃﾘｱ商品
 62
   255
370
    20
100
AcDbFaceRecord
 10
0.0
 20
0.0
 30
0.0
 70
   128
 71
    12
 72
    14
 73
    16
  0
VERTEX
  5
300
330
2D5
100
AcDbEntity
  8
ｴｸｽﾃﾘｱ商品
 62
   255
370
    20
100
AcDbFaceRecord
 10
0.0
 20
0.0
 30
0.0
 70
   128
 71
    12
 72
    16
 73
    10
  0
VERTEX
  5
301
330
2D5
100
AcDbEntity
  8
ｴｸｽﾃﾘｱ商品
 62
   255
370
    20
100
AcDbFaceRecord
 10
0.0
 20
0.0
 30
0.0
 70
   128
 71
    10
 72
    16
 73
     8
  0
VERTEX
  5
302
330
2D5
100
AcDbEntity
  8
ｴｸｽﾃﾘｱ商品
 62
   255
370
    20
100
AcDbFaceRecord
 10
0.0
 20
0.0
 30
0.0
 70
   128
 71
     4
 72
     6
 73
    22
  0
VERTEX
  5
303
330
2D5
100
AcDbEntity
  8
ｴｸｽﾃﾘｱ商品
 62
   255
370
    20
100
AcDbFaceRecord
 10
0.0
 20
0.0
 30
0.0
 70
   128
 71
     4
 72
    22
 73
     1
  0
VERTEX
  5
304
330
2D5
100
AcDbEntity
  8
ｴｸｽﾃﾘｱ商品
 62
   255
370
    20
100
AcDbFaceRecord
 10
0.0
 20
0.0
 30
0.0
 70
   128
 71
     1
 72
    22
 73
    24
  0
VERTEX
  5
305
330
2D5
100
AcDbEntity
  8
ｴｸｽﾃﾘｱ商品
 62
   255
370
    20
100
AcDbFaceRecord
 10
0.0
 20
0.0
 30
0.0
 70
   128
 71
     7
 72
     5
 73
    19
  0
VERTEX
  5
306
330
2D5
100
AcDbEntity
  8
ｴｸｽﾃﾘｱ商品
 62
   255
370
    20
100
AcDbFaceRecord
 10
0.0
 20
0.0
 30
0.0
 70
   128
 71
     7
 72
    19
 73
    17
  0
VERTEX
  5
307
330
2D5
100
AcDbEntity
  8
ｴｸｽﾃﾘｱ商品
 62
   255
370
    20
100
AcDbFaceRecord
 10
0.0
 20
0.0
 30
0.0
 70
   128
 71
    21
 72
    19
 73
     5
  0
VERTEX
  5
308
330
2D5
100
AcDbEntity
  8
ｴｸｽﾃﾘｱ商品
 62
   255
370
    20
100
AcDbFaceRecord
 10
0.0
 20
0.0
 30
0.0
 70
   128
 71
     7
 72
    17
 73
    15
  0
VERTEX
  5
309
330
2D5
100
AcDbEntity
  8
ｴｸｽﾃﾘｱ商品
 62
   255
370
    20
100
AcDbFaceRecord
 10
0.0
 20
0.0
 30
0.0
 70
   128
 71
     2
 72
    23
 73
    21
  0
VERTEX
  5
30A
330
2D5
100
AcDbEntity
  8
ｴｸｽﾃﾘｱ商品
 62
   255
370
    20
100
AcDbFaceRecord
 10
0.0
 20
0.0
 30
0.0
 70
   128
 71
     2
 72
    21
 73
     3
  0
VERTEX
  5
30B
330
2D5
100
AcDbEntity
  8
ｴｸｽﾃﾘｱ商品
 62
   255
370
    20
100
AcDbFaceRecord
 10
0.0
 20
0.0
 30
0.0
 70
   128
 71
     3
 72
    21
 73
     5
  0
VERTEX
  5
30C
330
2D5
100
AcDbEntity
  8
ｴｸｽﾃﾘｱ商品
 62
   255
370
    20
100
AcDbFaceRecord
 10
0.0
 20
0.0
 30
0.0
 70
   128
 71
     9
 72
     7
 73
    15
  0
VERTEX
  5
30D
330
2D5
100
AcDbEntity
  8
ｴｸｽﾃﾘｱ商品
 62
   255
370
    20
100
AcDbFaceRecord
 10
0.0
 20
0.0
 30
0.0
 70
   128
 71
     9
 72
    15
 73
    11
  0
VERTEX
  5
30E
330
2D5
100
AcDbEntity
  8
ｴｸｽﾃﾘｱ商品
 62
   255
370
    20
100
AcDbFaceRecord
 10
0.0
 20
0.0
 30
0.0
 70
   128
 71
    11
 72
    15
 73
    13
  0
SEQEND
  5
2D6
330
2D5
100
AcDbEntity
  8
ｴｸｽﾃﾘｱ商品
370
    20
  0
POLYLINE
  5
30F
330
3C
100
AcDbEntity
  8
ｴｸｽﾃﾘｱ商品
 62
   255
370
    20
100
AcDbPolyFaceMesh
 66
     1
 10
0.0
 20
0.0
 30
0.0
 70
    64
 71
    24
 72
    32
  0
VERTEX
  5
311
330
30F
100
AcDbEntity
  8
ｴｸｽﾃﾘｱ商品
 62
   255
370
    20
100
AcDbVertex
100
AcDbPolyFaceMeshVertex
 10
5730.58755424743
 20
10627.95119722355
 30
2663.960848572464
 70
   192
  0
VERTEX
  5
312
330
30F
100
AcDbEntity
  8
ｴｸｽﾃﾘｱ商品
 62
   255
370
    20
100
AcDbVertex
100
AcDbPolyFaceMeshVertex
 10
5730.58755424743
 20
5255.226111168893
 30
2476.341154299819
 70
   192
  0
VERTEX
  5
313
330
30F
100
AcDbEntity
  8
ｴｸｽﾃﾘｱ商品
 62
   255
370
    20
100
AcDbVertex
100
AcDbPolyFaceMeshVertex
 10
5710.58755424743
 20
5255.226111168893
 30
2476.341154299819
 70
   192
  0
VERTEX
  5
314
330
30F
100
AcDbEntity
  8
ｴｸｽﾃﾘｱ商品
 62
   255
370
    20
100
AcDbVertex
100
AcDbPolyFaceMeshVertex
 10
5710.58755424743
 20
10627.95119722355
 30
2663.960848572464
 70
   192
  0
VERTEX
  5
315
330
30F
100
AcDbEntity
  8
ｴｸｽﾃﾘｱ商品
 62
   255
370
    20
100
AcDbVertex
100
AcDbPolyFaceMeshVertex
 10
5670.58755424743
 20
5252.434151432693
 30
2556.292420461346
 70
   192
  0
VERTEX
  5
316
330
30F
100
AcDbEntity
  8
ｴｸｽﾃﾘｱ商品
 62
   255
370
    20
100
AcDbVertex
100
AcDbPolyFaceMeshVertex
 10
5670.58755424743
 20
10625.15923748735
 30
2743.912114733992
 70
   192
  0
VERTEX
  5
317
330
30F
100
AcDbEntity
  8
ｴｸｽﾃﾘｱ商品
 62
   255
370
    20
100
AcDbVertex
100
AcDbPolyFaceMeshVertex
 10
5630.58755424743
 20
5252.434151432693
 30
2556.292420461346
 70
   192
  0
VERTEX
  5
318
330
30F
100
AcDbEntity
  8
ｴｸｽﾃﾘｱ商品
 62
   255
370
    20
100
AcDbVertex
100
AcDbPolyFaceMeshVertex
 10
5630.58755424743
 20
10625.15923748735
 30
2743.912114733992
 70
   192
  0
VERTEX
  5
319
330
30F
100
AcDbEntity
  8
ｴｸｽﾃﾘｱ商品
 62
   255
370
    20
100
AcDbVertex
100
AcDbPolyFaceMeshVertex
 10
5590.58755424743
 20
5255.226111168893
 30
2476.341154299819
 70
   192
  0
VERTEX
  5
31A
330
30F
100
AcDbEntity
  8
ｴｸｽﾃﾘｱ商品
 62
   255
370
    20
100
AcDbVertex
100
AcDbPolyFaceMeshVertex
 10
5590.58755424743
 20
10627.95119722355
 30
2663.960848572464
 70
   192
  0
VERTEX
  5
31B
330
30F
100
AcDbEntity
  8
ｴｸｽﾃﾘｱ商品
 62
   255
370
    20
100
AcDbVertex
100
AcDbPolyFaceMeshVertex
 10
5570.587554247429
 20
5255.226111168893
 30
2476.341154299819
 70
   192
  0
VERTEX
  5
31C
330
30F
100
AcDbEntity
  8
ｴｸｽﾃﾘｱ商品
 62
   255
370
    20
100
AcDbVertex
100
AcDbPolyFaceMeshVertex
 10
5570.58755424743
 20
10627.95119722355
 30
2663.960848572464
 70
   192
  0
VERTEX
  5
31D
330
30F
100
AcDbEntity
  8
ｴｸｽﾃﾘｱ商品
 62
   255
370
    20
100
AcDbVertex
100
AcDbPolyFaceMeshVertex
 10
5570.587554247429
 20
5254.528121234843
 30
2496.328970840201
 70
   192
  0
VERTEX
  5
31E
330
30F
100
AcDbEntity
  8
ｴｸｽﾃﾘｱ商品
 62
   255
370
    20
100
AcDbVertex
100
AcDbPolyFaceMeshVertex
 10
5570.58755424743
 20
10627.2532072895
 30
2683.948665112846
 70
   192
  0
VERTEX
  5
31F
330
30F
100
AcDbEntity
  8
ｴｸｽﾃﾘｱ商品
 62
   255
370
    20
100
AcDbVertex
100
AcDbPolyFaceMeshVertex
 10
5590.58755424743
 20
5254.528121234843
 30
2496.328970840201
 70
   192
  0
VERTEX
  5
320
330
30F
100
AcDbEntity
  8
ｴｸｽﾃﾘｱ商品
 62
   255
370
    20
100
AcDbVertex
100
AcDbPolyFaceMeshVertex
 10
5590.58755424743
 20
10627.2532072895
 30
2683.948665112846
 70
   192
  0
VERTEX
  5
321
330
30F
100
AcDbEntity
  8
ｴｸｽﾃﾘｱ商品
 62
   255
370
    20
100
AcDbVertex
100
AcDbPolyFaceMeshVertex
 10
5630.58755424743
 20
5251.736161498643
 30
2576.280237001728
 70
   192
  0
VERTEX
  5
322
330
30F
100
AcDbEntity
  8
ｴｸｽﾃﾘｱ商品
 62
   255
370
    20
100
AcDbVertex
100
AcDbPolyFaceMeshVertex
 10
5630.58755424743
 20
10624.4612475533
 30
2763.899931274374
 70
   192
  0
VERTEX
  5
323
330
30F
100
AcDbEntity
  8
ｴｸｽﾃﾘｱ商品
 62
   255
370
    20
100
AcDbVertex
100
AcDbPolyFaceMeshVertex
 10
5670.58755424743
 20
5251.736161498643
 30
2576.280237001728
 70
   192
  0
VERTEX
  5
324
330
30F
100
AcDbEntity
  8
ｴｸｽﾃﾘｱ商品
 62
   255
370
    20
100
AcDbVertex
100
AcDbPolyFaceMeshVertex
 10
5670.58755424743
 20
10624.4612475533
 30
2763.899931274374
 70
   192
  0
VERTEX
  5
325
330
30F
100
AcDbEntity
  8
ｴｸｽﾃﾘｱ商品
 62
   255
370
    20
100
AcDbVertex
100
AcDbPolyFaceMeshVertex
 10
5710.58755424743
 20
5254.528121234843
 30
2496.328970840201
 70
   192
  0
VERTEX
  5
326
330
30F
100
AcDbEntity
  8
ｴｸｽﾃﾘｱ商品
 62
   255
370
    20
100
AcDbVertex
100
AcDbPolyFaceMeshVertex
 10
5710.58755424743
 20
10627.2532072895
 30
2683.948665112846
 70
   192
  0
VERTEX
  5
327
330
30F
100
AcDbEntity
  8
ｴｸｽﾃﾘｱ商品
 62
   255
370
    20
100
AcDbVertex
100
AcDbPolyFaceMeshVertex
 10
5730.58755424743
 20
5254.528121234843
 30
2496.328970840201
 70
   192
  0
VERTEX
  5
328
330
30F
100
AcDbEntity
  8
ｴｸｽﾃﾘｱ商品
 62
   255
370
    20
100
AcDbVertex
100
AcDbPolyFaceMeshVertex
 10
5730.58755424743
 20
10627.2532072895
 30
2683.948665112846
 70
   192
  0
VERTEX
  5
329
330
30F
100
AcDbEntity
  8
ｴｸｽﾃﾘｱ商品
 62
   255
370
    20
100
AcDbFaceRecord
 10
0.0
 20
0.0
 30
0.0
 70
   128
 71
     1
 72
     2
 73
     3
 74
     4
  0
VERTEX
  5
32A
330
30F
100
AcDbEntity
  8
ｴｸｽﾃﾘｱ商品
 62
   255
370
    20
100
AcDbFaceRecord
 10
0.0
 20
0.0
 30
0.0
 70
   128
 71
     4
 72
     3
 73
     5
 74
     6
  0
VERTEX
  5
32B
330
30F
100
AcDbEntity
  8
ｴｸｽﾃﾘｱ商品
 62
   255
370
    20
100
AcDbFaceRecord
 10
0.0
 20
0.0
 30
0.0
 70
   128
 71
     6
 72
     5
 73
     7
 74
     8
  0
VERTEX
  5
32C
330
30F
100
AcDbEntity
  8
ｴｸｽﾃﾘｱ商品
 62
   255
370
    20
100
AcDbFaceRecord
 10
0.0
 20
0.0
 30
0.0
 70
   128
 71
     8
 72
     7
 73
     9
 74
    10
  0
VERTEX
  5
32D
330
30F
100
AcDbEntity
  8
ｴｸｽﾃﾘｱ商品
 62
   255
370
    20
100
AcDbFaceRecord
 10
0.0
 20
0.0
 30
0.0
 70
   128
 71
    10
 72
     9
 73
    11
 74
    12
  0
VERTEX
  5
32E
330
30F
100
AcDbEntity
  8
ｴｸｽﾃﾘｱ商品
 62
   255
370
    20
100
AcDbFaceRecord
 10
0.0
 20
0.0
 30
0.0
 70
   128
 71
    12
 72
    11
 73
    13
 74
    14
  0
VERTEX
  5
32F
330
30F
100
AcDbEntity
  8
ｴｸｽﾃﾘｱ商品
 62
   255
370
    20
100
AcDbFaceRecord
 10
0.0
 20
0.0
 30
0.0
 70
   128
 71
    14
 72
    13
 73
    15
 74
    16
  0
VERTEX
  5
330
330
30F
100
AcDbEntity
  8
ｴｸｽﾃﾘｱ商品
 62
   255
370
    20
100
AcDbFaceRecord
 10
0.0
 20
0.0
 30
0.0
 70
   128
 71
    16
 72
    15
 73
    17
 74
    18
  0
VERTEX
  5
331
330
30F
100
AcDbEntity
  8
ｴｸｽﾃﾘｱ商品
 62
   255
370
    20
100
AcDbFaceRecord
 10
0.0
 20
0.0
 30
0.0
 70
   128
 71
    18
 72
    17
 73
    19
 74
    20
  0
VERTEX
  5
332
330
30F
100
AcDbEntity
  8
ｴｸｽﾃﾘｱ商品
 62
   255
370
    20
100
AcDbFaceRecord
 10
0.0
 20
0.0
 30
0.0
 70
   128
 71
    20
 72
    19
 73
    21
 74
    22
  0
VERTEX
  5
333
330
30F
100
AcDbEntity
  8
ｴｸｽﾃﾘｱ商品
 62
   255
370
    20
100
AcDbFaceRecord
 10
0.0
 20
0.0
 30
0.0
 70
   128
 71
    22
 72
    21
 73
    23
 74
    24
  0
VERTEX
  5
334
330
30F
100
AcDbEntity
  8
ｴｸｽﾃﾘｱ商品
 62
   255
370
    20
100
AcDbFaceRecord
 10
0.0
 20
0.0
 30
0.0
 70
   128
 71
    24
 72
    23
 73
     2
 74
     1
  0
VERTEX
  5
335
330
30F
100
AcDbEntity
  8
ｴｸｽﾃﾘｱ商品
 62
   255
370
    20
100
AcDbFaceRecord
 10
0.0
 20
0.0
 30
0.0
 70
   128
 71
     6
 72
     8
 73
    18
  0
VERTEX
  5
336
330
30F
100
AcDbEntity
  8
ｴｸｽﾃﾘｱ商品
 62
   255
370
    20
100
AcDbFaceRecord
 10
0.0
 20
0.0
 30
0.0
 70
   128
 71
     6
 72
    18
 73
    20
  0
VERTEX
  5
337
330
30F
100
AcDbEntity
  8
ｴｸｽﾃﾘｱ商品
 62
   255
370
    20
100
AcDbFaceRecord
 10
0.0
 20
0.0
 30
0.0
 70
   128
 71
    16
 72
    18
 73
     8
  0
VERTEX
  5
338
330
30F
100
AcDbEntity
  8
ｴｸｽﾃﾘｱ商品
 62
   255
370
    20
100
AcDbFaceRecord
 10
0.0
 20
0.0
 30
0.0
 70
   128
 71
     6
 72
    20
 73
    22
  0
VERTEX
  5
339
330
30F
100
AcDbEntity
  8
ｴｸｽﾃﾘｱ商品
 62
   255
370
    20
100
AcDbFaceRecord
 10
0.0
 20
0.0
 30
0.0
 70
   128
 71
    12
 72
    14
 73
    16
  0
VERTEX
  5
33A
330
30F
100
AcDbEntity
  8
ｴｸｽﾃﾘｱ商品
 62
   255
370
    20
100
AcDbFaceRecord
 10
0.0
 20
0.0
 30
0.0
 70
   128
 71
    12
 72
    16
 73
    10
  0
VERTEX
  5
33B
330
30F
100
AcDbEntity
  8
ｴｸｽﾃﾘｱ商品
 62
   255
370
    20
100
AcDbFaceRecord
 10
0.0
 20
0.0
 30
0.0
 70
   128
 71
    10
 72
    16
 73
     8
  0
VERTEX
  5
33C
330
30F
100
AcDbEntity
  8
ｴｸｽﾃﾘｱ商品
 62
   255
370
    20
100
AcDbFaceRecord
 10
0.0
 20
0.0
 30
0.0
 70
   128
 71
     4
 72
     6
 73
    22
  0
VERTEX
  5
33D
330
30F
100
AcDbEntity
  8
ｴｸｽﾃﾘｱ商品
 62
   255
370
    20
100
AcDbFaceRecord
 10
0.0
 20
0.0
 30
0.0
 70
   128
 71
     4
 72
    22
 73
     1
  0
VERTEX
  5
33E
330
30F
100
AcDbEntity
  8
ｴｸｽﾃﾘｱ商品
 62
   255
370
    20
100
AcDbFaceRecord
 10
0.0
 20
0.0
 30
0.0
 70
   128
 71
     1
 72
    22
 73
    24
  0
VERTEX
  5
33F
330
30F
100
AcDbEntity
  8
ｴｸｽﾃﾘｱ商品
 62
   255
370
    20
100
AcDbFaceRecord
 10
0.0
 20
0.0
 30
0.0
 70
   128
 71
     7
 72
     5
 73
    19
  0
VERTEX
  5
340
330
30F
100
AcDbEntity
  8
ｴｸｽﾃﾘｱ商品
 62
   255
370
    20
100
AcDbFaceRecord
 10
0.0
 20
0.0
 30
0.0
 70
   128
 71
     7
 72
    19
 73
    17
  0
VERTEX
  5
341
330
30F
100
AcDbEntity
  8
ｴｸｽﾃﾘｱ商品
 62
   255
370
    20
100
AcDbFaceRecord
 10
0.0
 20
0.0
 30
0.0
 70
   128
 71
    21
 72
    19
 73
     5
  0
VERTEX
  5
342
330
30F
100
AcDbEntity
  8
ｴｸｽﾃﾘｱ商品
 62
   255
370
    20
100
AcDbFaceRecord
 10
0.0
 20
0.0
 30
0.0
 70
   128
 71
     7
 72
    17
 73
    15
  0
VERTEX
  5
343
330
30F
100
AcDbEntity
  8
ｴｸｽﾃﾘｱ商品
 62
   255
370
    20
100
AcDbFaceRecord
 10
0.0
 20
0.0
 30
0.0
 70
   128
 71
     2
 72
    23
 73
    21
  0
VERTEX
  5
344
330
30F
100
AcDbEntity
  8
ｴｸｽﾃﾘｱ商品
 62
   255
370
    20
100
AcDbFaceRecord
 10
0.0
 20
0.0
 30
0.0
 70
   128
 71
     2
 72
    21
 73
     3
  0
VERTEX
  5
345
330
30F
100
AcDbEntity
  8
ｴｸｽﾃﾘｱ商品
 62
   255
370
    20
100
AcDbFaceRecord
 10
0.0
 20
0.0
 30
0.0
 70
   128
 71
     3
 72
    21
 73
     5
  0
VERTEX
  5
346
330
30F
100
AcDbEntity
  8
ｴｸｽﾃﾘｱ商品
 62
   255
370
    20
100
AcDbFaceRecord
 10
0.0
 20
0.0
 30
0.0
 70
   128
 71
     9
 72
     7
 73
    15
  0
VERTEX
  5
347
330
30F
100
AcDbEntity
  8
ｴｸｽﾃﾘｱ商品
 62
   255
370
    20
100
AcDbFaceRecord
 10
0.0
 20
0.0
 30
0.0
 70
   128
 71
     9
 72
    15
 73
    11
  0
VERTEX
  5
348
330
30F
100
AcDbEntity
  8
ｴｸｽﾃﾘｱ商品
 62
   255
370
    20
100
AcDbFaceRecord
 10
0.0
 20
0.0
 30
0.0
 70
   128
 71
    11
 72
    15
 73
    13
  0
SEQEND
  5
310
330
30F
100
AcDbEntity
  8
ｴｸｽﾃﾘｱ商品
370
    20
  0
POLYLINE
  5
349
330
3C
100
AcDbEntity
  8
ｴｸｽﾃﾘｱ商品
 62
   255
370
    20
100
AcDbPolyFaceMesh
 66
     1
 10
0.0
 20
0.0
 30
0.0
 70
    64
 71
    24
 72
    32
  0
VERTEX
  5
34B
330
349
100
AcDbEntity
  8
ｴｸｽﾃﾘｱ商品
 62
   255
370
    20
100
AcDbVertex
100
AcDbPolyFaceMeshVertex
 10
5570.58755424743
 20
10627.95119722355
 30
2663.960848572464
 70
   192
  0
VERTEX
  5
34C
330
349
100
AcDbEntity
  8
ｴｸｽﾃﾘｱ商品
 62
   255
370
    20
100
AcDbVertex
100
AcDbPolyFaceMeshVertex
 10
5570.587554247429
 20
5255.226111168893
 30
2476.341154299819
 70
   192
  0
VERTEX
  5
34D
330
349
100
AcDbEntity
  8
ｴｸｽﾃﾘｱ商品
 62
   255
370
    20
100
AcDbVertex
100
AcDbPolyFaceMeshVertex
 10
5550.58755424743
 20
5255.226111168893
 30
2476.341154299819
 70
   192
  0
VERTEX
  5
34E
330
349
100
AcDbEntity
  8
ｴｸｽﾃﾘｱ商品
 62
   255
370
    20
100
AcDbVertex
100
AcDbPolyFaceMeshVertex
 10
5550.58755424743
 20
10627.95119722355
 30
2663.960848572464
 70
   192
  0
VERTEX
  5
34F
330
349
100
AcDbEntity
  8
ｴｸｽﾃﾘｱ商品
 62
   255
370
    20
100
AcDbVertex
100
AcDbPolyFaceMeshVertex
 10
5510.58755424743
 20
5252.434151432693
 30
2556.292420461346
 70
   192
  0
VERTEX
  5
350
330
349
100
AcDbEntity
  8
ｴｸｽﾃﾘｱ商品
 62
   255
370
    20
100
AcDbVertex
100
AcDbPolyFaceMeshVertex
 10
5510.58755424743
 20
10625.15923748735
 30
2743.912114733992
 70
   192
  0
VERTEX
  5
351
330
349
100
AcDbEntity
  8
ｴｸｽﾃﾘｱ商品
 62
   255
370
    20
100
AcDbVertex
100
AcDbPolyFaceMeshVertex
 10
5470.58755424743
 20
5252.434151432693
 30
2556.292420461346
 70
   192
  0
VERTEX
  5
352
330
349
100
AcDbEntity
  8
ｴｸｽﾃﾘｱ商品
 62
   255
370
    20
100
AcDbVertex
100
AcDbPolyFaceMeshVertex
 10
5470.58755424743
 20
10625.15923748735
 30
2743.912114733992
 70
   192
  0
VERTEX
  5
353
330
349
100
AcDbEntity
  8
ｴｸｽﾃﾘｱ商品
 62
   255
370
    20
100
AcDbVertex
100
AcDbPolyFaceMeshVertex
 10
5430.58755424743
 20
5255.226111168893
 30
2476.341154299819
 70
   192
  0
VERTEX
  5
354
330
349
100
AcDbEntity
  8
ｴｸｽﾃﾘｱ商品
 62
   255
370
    20
100
AcDbVertex
100
AcDbPolyFaceMeshVertex
 10
5430.58755424743
 20
10627.95119722355
 30
2663.960848572464
 70
   192
  0
VERTEX
  5
355
330
349
100
AcDbEntity
  8
ｴｸｽﾃﾘｱ商品
 62
   255
370
    20
100
AcDbVertex
100
AcDbPolyFaceMeshVertex
 10
5410.587554247429
 20
5255.226111168893
 30
2476.341154299819
 70
   192
  0
VERTEX
  5
356
330
349
100
AcDbEntity
  8
ｴｸｽﾃﾘｱ商品
 62
   255
370
    20
100
AcDbVertex
100
AcDbPolyFaceMeshVertex
 10
5410.58755424743
 20
10627.95119722355
 30
2663.960848572464
 70
   192
  0
VERTEX
  5
357
330
349
100
AcDbEntity
  8
ｴｸｽﾃﾘｱ商品
 62
   255
370
    20
100
AcDbVertex
100
AcDbPolyFaceMeshVertex
 10
5410.587554247429
 20
5254.528121234843
 30
2496.328970840201
 70
   192
  0
VERTEX
  5
358
330
349
100
AcDbEntity
  8
ｴｸｽﾃﾘｱ商品
 62
   255
370
    20
100
AcDbVertex
100
AcDbPolyFaceMeshVertex
 10
5410.58755424743
 20
10627.2532072895
 30
2683.948665112846
 70
   192
  0
VERTEX
  5
359
330
349
100
AcDbEntity
  8
ｴｸｽﾃﾘｱ商品
 62
   255
370
    20
100
AcDbVertex
100
AcDbPolyFaceMeshVertex
 10
5430.58755424743
 20
5254.528121234843
 30
2496.328970840201
 70
   192
  0
VERTEX
  5
35A
330
349
100
AcDbEntity
  8
ｴｸｽﾃﾘｱ商品
 62
   255
370
    20
100
AcDbVertex
100
AcDbPolyFaceMeshVertex
 10
5430.58755424743
 20
10627.2532072895
 30
2683.948665112846
 70
   192
  0
VERTEX
  5
35B
330
349
100
AcDbEntity
  8
ｴｸｽﾃﾘｱ商品
 62
   255
370
    20
100
AcDbVertex
100
AcDbPolyFaceMeshVertex
 10
5470.58755424743
 20
5251.736161498643
 30
2576.280237001728
 70
   192
  0
VERTEX
  5
35C
330
349
100
AcDbEntity
  8
ｴｸｽﾃﾘｱ商品
 62
   255
370
    20
100
AcDbVertex
100
AcDbPolyFaceMeshVertex
 10
5470.58755424743
 20
10624.4612475533
 30
2763.899931274374
 70
   192
  0
VERTEX
  5
35D
330
349
100
AcDbEntity
  8
ｴｸｽﾃﾘｱ商品
 62
   255
370
    20
100
AcDbVertex
100
AcDbPolyFaceMeshVertex
 10
5510.58755424743
 20
5251.736161498643
 30
2576.280237001728
 70
   192
  0
VERTEX
  5
35E
330
349
100
AcDbEntity
  8
ｴｸｽﾃﾘｱ商品
 62
   255
370
    20
100
AcDbVertex
100
AcDbPolyFaceMeshVertex
 10
5510.58755424743
 20
10624.4612475533
 30
2763.899931274374
 70
   192
  0
VERTEX
  5
35F
330
349
100
AcDbEntity
  8
ｴｸｽﾃﾘｱ商品
 62
   255
370
    20
100
AcDbVertex
100
AcDbPolyFaceMeshVertex
 10
5550.58755424743
 20
5254.528121234843
 30
2496.328970840201
 70
   192
  0
VERTEX
  5
360
330
349
100
AcDbEntity
  8
ｴｸｽﾃﾘｱ商品
 62
   255
370
    20
100
AcDbVertex
100
AcDbPolyFaceMeshVertex
 10
5550.58755424743
 20
10627.2532072895
 30
2683.948665112846
 70
   192
  0
VERTEX
  5
361
330
349
100
AcDbEntity
  8
ｴｸｽﾃﾘｱ商品
 62
   255
370
    20
100
AcDbVertex
100
AcDbPolyFaceMeshVertex
 10
5570.587554247429
 20
5254.528121234843
 30
2496.328970840201
 70
   192
  0
VERTEX
  5
362
330
349
100
AcDbEntity
  8
ｴｸｽﾃﾘｱ商品
 62
   255
370
    20
100
AcDbVertex
100
AcDbPolyFaceMeshVertex
 10
5570.58755424743
 20
10627.2532072895
 30
2683.948665112846
 70
   192
  0
VERTEX
  5
363
330
349
100
AcDbEntity
  8
ｴｸｽﾃﾘｱ商品
 62
   255
370
    20
100
AcDbFaceRecord
 10
0.0
 20
0.0
 30
0.0
 70
   128
 71
     1
 72
     2
 73
     3
 74
     4
  0
VERTEX
  5
364
330
349
100
AcDbEntity
  8
ｴｸｽﾃﾘｱ商品
 62
   255
370
    20
100
AcDbFaceRecord
 10
0.0
 20
0.0
 30
0.0
 70
   128
 71
     4
 72
     3
 73
     5
 74
     6
  0
VERTEX
  5
365
330
349
100
AcDbEntity
  8
ｴｸｽﾃﾘｱ商品
 62
   255
370
    20
100
AcDbFaceRecord
 10
0.0
 20
0.0
 30
0.0
 70
   128
 71
     6
 72
     5
 73
     7
 74
     8
  0
VERTEX
  5
366
330
349
100
AcDbEntity
  8
ｴｸｽﾃﾘｱ商品
 62
   255
370
    20
100
AcDbFaceRecord
 10
0.0
 20
0.0
 30
0.0
 70
   128
 71
     8
 72
     7
 73
     9
 74
    10
  0
VERTEX
  5
367
330
349
100
AcDbEntity
  8
ｴｸｽﾃﾘｱ商品
 62
   255
370
    20
100
AcDbFaceRecord
 10
0.0
 20
0.0
 30
0.0
 70
   128
 71
    10
 72
     9
 73
    11
 74
    12
  0
VERTEX
  5
368
330
349
100
AcDbEntity
  8
ｴｸｽﾃﾘｱ商品
 62
   255
370
    20
100
AcDbFaceRecord
 10
0.0
 20
0.0
 30
0.0
 70
   128
 71
    12
 72
    11
 73
    13
 74
    14
  0
VERTEX
  5
369
330
349
100
AcDbEntity
  8
ｴｸｽﾃﾘｱ商品
 62
   255
370
    20
100
AcDbFaceRecord
 10
0.0
 20
0.0
 30
0.0
 70
   128
 71
    14
 72
    13
 73
    15
 74
    16
  0
VERTEX
  5
36A
330
349
100
AcDbEntity
  8
ｴｸｽﾃﾘｱ商品
 62
   255
370
    20
100
AcDbFaceRecord
 10
0.0
 20
0.0
 30
0.0
 70
   128
 71
    16
 72
    15
 73
    17
 74
    18
  0
VERTEX
  5
36B
330
349
100
AcDbEntity
  8
ｴｸｽﾃﾘｱ商品
 62
   255
370
    20
100
AcDbFaceRecord
 10
0.0
 20
0.0
 30
0.0
 70
   128
 71
    18
 72
    17
 73
    19
 74
    20
  0
VERTEX
  5
36C
330
349
100
AcDbEntity
  8
ｴｸｽﾃﾘｱ商品
 62
   255
370
    20
100
AcDbFaceRecord
 10
0.0
 20
0.0
 30
0.0
 70
   128
 71
    20
 72
    19
 73
    21
 74
    22
  0
VERTEX
  5
36D
330
349
100
AcDbEntity
  8
ｴｸｽﾃﾘｱ商品
 62
   255
370
    20
100
AcDbFaceRecord
 10
0.0
 20
0.0
 30
0.0
 70
   128
 71
    22
 72
    21
 73
    23
 74
    24
  0
VERTEX
  5
36E
330
349
100
AcDbEntity
  8
ｴｸｽﾃﾘｱ商品
 62
   255
370
    20
100
AcDbFaceRecord
 10
0.0
 20
0.0
 30
0.0
 70
   128
 71
    24
 72
    23
 73
     2
 74
     1
  0
VERTEX
  5
36F
330
349
100
AcDbEntity
  8
ｴｸｽﾃﾘｱ商品
 62
   255
370
    20
100
AcDbFaceRecord
 10
0.0
 20
0.0
 30
0.0
 70
   128
 71
     6
 72
     8
 73
    18
  0
VERTEX
  5
370
330
349
100
AcDbEntity
  8
ｴｸｽﾃﾘｱ商品
 62
   255
370
    20
100
AcDbFaceRecord
 10
0.0
 20
0.0
 30
0.0
 70
   128
 71
     6
 72
    18
 73
    20
  0
VERTEX
  5
371
330
349
100
AcDbEntity
  8
ｴｸｽﾃﾘｱ商品
 62
   255
370
    20
100
AcDbFaceRecord
 10
0.0
 20
0.0
 30
0.0
 70
   128
 71
    16
 72
    18
 73
     8
  0
VERTEX
  5
372
330
349
100
AcDbEntity
  8
ｴｸｽﾃﾘｱ商品
 62
   255
370
    20
100
AcDbFaceRecord
 10
0.0
 20
0.0
 30
0.0
 70
   128
 71
     6
 72
    20
 73
    22
  0
VERTEX
  5
373
330
349
100
AcDbEntity
  8
ｴｸｽﾃﾘｱ商品
 62
   255
370
    20
100
AcDbFaceRecord
 10
0.0
 20
0.0
 30
0.0
 70
   128
 71
    12
 72
    14
 73
    16
  0
VERTEX
  5
374
330
349
100
AcDbEntity
  8
ｴｸｽﾃﾘｱ商品
 62
   255
370
    20
100
AcDbFaceRecord
 10
0.0
 20
0.0
 30
0.0
 70
   128
 71
    12
 72
    16
 73
    10
  0
VERTEX
  5
375
330
349
100
AcDbEntity
  8
ｴｸｽﾃﾘｱ商品
 62
   255
370
    20
100
AcDbFaceRecord
 10
0.0
 20
0.0
 30
0.0
 70
   128
 71
    10
 72
    16
 73
     8
  0
VERTEX
  5
376
330
349
100
AcDbEntity
  8
ｴｸｽﾃﾘｱ商品
 62
   255
370
    20
100
AcDbFaceRecord
 10
0.0
 20
0.0
 30
0.0
 70
   128
 71
     4
 72
     6
 73
    22
  0
VERTEX
  5
377
330
349
100
AcDbEntity
  8
ｴｸｽﾃﾘｱ商品
 62
   255
370
    20
100
AcDbFaceRecord
 10
0.0
 20
0.0
 30
0.0
 70
   128
 71
     4
 72
    22
 73
     1
  0
VERTEX
  5
378
330
349
100
AcDbEntity
  8
ｴｸｽﾃﾘｱ商品
 62
   255
370
    20
100
AcDbFaceRecord
 10
0.0
 20
0.0
 30
0.0
 70
   128
 71
     1
 72
    22
 73
    24
  0
VERTEX
  5
379
330
349
100
AcDbEntity
  8
ｴｸｽﾃﾘｱ商品
 62
   255
370
    20
100
AcDbFaceRecord
 10
0.0
 20
0.0
 30
0.0
 70
   128
 71
     7
 72
     5
 73
    19
  0
VERTEX
  5
37A
330
349
100
AcDbEntity
  8
ｴｸｽﾃﾘｱ商品
 62
   255
370
    20
100
AcDbFaceRecord
 10
0.0
 20
0.0
 30
0.0
 70
   128
 71
     7
 72
    19
 73
    17
  0
VERTEX
  5
37B
330
349
100
AcDbEntity
  8
ｴｸｽﾃﾘｱ商品
 62
   255
370
    20
100
AcDbFaceRecord
 10
0.0
 20
0.0
 30
0.0
 70
   128
 71
    21
 72
    19
 73
     5
  0
VERTEX
  5
37C
330
349
100
AcDbEntity
  8
ｴｸｽﾃﾘｱ商品
 62
   255
370
    20
100
AcDbFaceRecord
 10
0.0
 20
0.0
 30
0.0
 70
   128
 71
     7
 72
    17
 73
    15
  0
VERTEX
  5
37D
330
349
100
AcDbEntity
  8
ｴｸｽﾃﾘｱ商品
 62
   255
370
    20
100
AcDbFaceRecord
 10
0.0
 20
0.0
 30
0.0
 70
   128
 71
     2
 72
    23
 73
    21
  0
VERTEX
  5
37E
330
349
100
AcDbEntity
  8
ｴｸｽﾃﾘｱ商品
 62
   255
370
    20
100
AcDbFaceRecord
 10
0.0
 20
0.0
 30
0.0
 70
   128
 71
     2
 72
    21
 73
     3
  0
VERTEX
  5
37F
330
349
100
AcDbEntity
  8
ｴｸｽﾃﾘｱ商品
 62
   255
370
    20
100
AcDbFaceRecord
 10
0.0
 20
0.0
 30
0.0
 70
   128
 71
     3
 72
    21
 73
     5
  0
VERTEX
  5
380
330
349
100
AcDbEntity
  8
ｴｸｽﾃﾘｱ商品
 62
   255
370
    20
100
AcDbFaceRecord
 10
0.0
 20
0.0
 30
0.0
 70
   128
 71
     9
 72
     7
 73
    15
  0
VERTEX
  5
381
330
349
100
AcDbEntity
  8
ｴｸｽﾃﾘｱ商品
 62
   255
370
    20
100
AcDbFaceRecord
 10
0.0
 20
0.0
 30
0.0
 70
   128
 71
     9
 72
    15
 73
    11
  0
VERTEX
  5
382
330
349
100
AcDbEntity
  8
ｴｸｽﾃﾘｱ商品
 62
   255
370
    20
100
AcDbFaceRecord
 10
0.0
 20
0.0
 30
0.0
 70
   128
 71
    11
 72
    15
 73
    13
  0
SEQEND
  5
34A
330
349
100
AcDbEntity
  8
ｴｸｽﾃﾘｱ商品
370
    20
  0
POLYLINE
  5
383
330
3C
100
AcDbEntity
  8
ｴｸｽﾃﾘｱ商品
 62
   255
370
    20
100
AcDbPolyFaceMesh
 66
     1
 10
0.0
 20
0.0
 30
0.0
 70
    64
 71
    24
 72
    32
  0
VERTEX
  5
385
330
383
100
AcDbEntity
  8
ｴｸｽﾃﾘｱ商品
 62
   255
370
    20
100
AcDbVertex
100
AcDbPolyFaceMeshVertex
 10
5410.58755424743
 20
10627.95119722355
 30
2663.960848572464
 70
   192
  0
VERTEX
  5
386
330
383
100
AcDbEntity
  8
ｴｸｽﾃﾘｱ商品
 62
   255
370
    20
100
AcDbVertex
100
AcDbPolyFaceMeshVertex
 10
5410.587554247429
 20
5255.226111168893
 30
2476.341154299819
 70
   192
  0
VERTEX
  5
387
330
383
100
AcDbEntity
  8
ｴｸｽﾃﾘｱ商品
 62
   255
370
    20
100
AcDbVertex
100
AcDbPolyFaceMeshVertex
 10
5390.58755424743
 20
5255.226111168893
 30
2476.341154299819
 70
   192
  0
VERTEX
  5
388
330
383
100
AcDbEntity
  8
ｴｸｽﾃﾘｱ商品
 62
   255
370
    20
100
AcDbVertex
100
AcDbPolyFaceMeshVertex
 10
5390.58755424743
 20
10627.95119722355
 30
2663.960848572464
 70
   192
  0
VERTEX
  5
389
330
383
100
AcDbEntity
  8
ｴｸｽﾃﾘｱ商品
 62
   255
370
    20
100
AcDbVertex
100
AcDbPolyFaceMeshVertex
 10
5350.58755424743
 20
5252.434151432693
 30
2556.292420461346
 70
   192
  0
VERTEX
  5
38A
330
383
100
AcDbEntity
  8
ｴｸｽﾃﾘｱ商品
 62
   255
370
    20
100
AcDbVertex
100
AcDbPolyFaceMeshVertex
 10
5350.58755424743
 20
10625.15923748735
 30
2743.912114733992
 70
   192
  0
VERTEX
  5
38B
330
383
100
AcDbEntity
  8
ｴｸｽﾃﾘｱ商品
 62
   255
370
    20
100
AcDbVertex
100
AcDbPolyFaceMeshVertex
 10
5310.58755424743
 20
5252.434151432693
 30
2556.292420461346
 70
   192
  0
VERTEX
  5
38C
330
383
100
AcDbEntity
  8
ｴｸｽﾃﾘｱ商品
 62
   255
370
    20
100
AcDbVertex
100
AcDbPolyFaceMeshVertex
 10
5310.58755424743
 20
10625.15923748735
 30
2743.912114733992
 70
   192
  0
VERTEX
  5
38D
330
383
100
AcDbEntity
  8
ｴｸｽﾃﾘｱ商品
 62
   255
370
    20
100
AcDbVertex
100
AcDbPolyFaceMeshVertex
 10
5270.58755424743
 20
5255.226111168893
 30
2476.341154299819
 70
   192
  0
VERTEX
  5
38E
330
383
100
AcDbEntity
  8
ｴｸｽﾃﾘｱ商品
 62
   255
370
    20
100
AcDbVertex
100
AcDbPolyFaceMeshVertex
 10
5270.58755424743
 20
10627.95119722355
 30
2663.960848572464
 70
   192
  0
VERTEX
  5
38F
330
383
100
AcDbEntity
  8
ｴｸｽﾃﾘｱ商品
 62
   255
370
    20
100
AcDbVertex
100
AcDbPolyFaceMeshVertex
 10
5250.587554247429
 20
5255.226111168893
 30
2476.341154299819
 70
   192
  0
VERTEX
  5
390
330
383
100
AcDbEntity
  8
ｴｸｽﾃﾘｱ商品
 62
   255
370
    20
100
AcDbVertex
100
AcDbPolyFaceMeshVertex
 10
5250.58755424743
 20
10627.95119722355
 30
2663.960848572464
 70
   192
  0
VERTEX
  5
391
330
383
100
AcDbEntity
  8
ｴｸｽﾃﾘｱ商品
 62
   255
370
    20
100
AcDbVertex
100
AcDbPolyFaceMeshVertex
 10
5250.587554247429
 20
5254.528121234843
 30
2496.328970840201
 70
   192
  0
VERTEX
  5
392
330
383
100
AcDbEntity
  8
ｴｸｽﾃﾘｱ商品
 62
   255
370
    20
100
AcDbVertex
100
AcDbPolyFaceMeshVertex
 10
5250.58755424743
 20
10627.2532072895
 30
2683.948665112846
 70
   192
  0
VERTEX
  5
393
330
383
100
AcDbEntity
  8
ｴｸｽﾃﾘｱ商品
 62
   255
370
    20
100
AcDbVertex
100
AcDbPolyFaceMeshVertex
 10
5270.58755424743
 20
5254.528121234843
 30
2496.328970840201
 70
   192
  0
VERTEX
  5
394
330
383
100
AcDbEntity
  8
ｴｸｽﾃﾘｱ商品
 62
   255
370
    20
100
AcDbVertex
100
AcDbPolyFaceMeshVertex
 10
5270.58755424743
 20
10627.2532072895
 30
2683.948665112846
 70
   192
  0
VERTEX
  5
395
330
383
100
AcDbEntity
  8
ｴｸｽﾃﾘｱ商品
 62
   255
370
    20
100
AcDbVertex
100
AcDbPolyFaceMeshVertex
 10
5310.58755424743
 20
5251.736161498643
 30
2576.280237001728
 70
   192
  0
VERTEX
  5
396
330
383
100
AcDbEntity
  8
ｴｸｽﾃﾘｱ商品
 62
   255
370
    20
100
AcDbVertex
100
AcDbPolyFaceMeshVertex
 10
5310.58755424743
 20
10624.4612475533
 30
2763.899931274374
 70
   192
  0
VERTEX
  5
397
330
383
100
AcDbEntity
  8
ｴｸｽﾃﾘｱ商品
 62
   255
370
    20
100
AcDbVertex
100
AcDbPolyFaceMeshVertex
 10
5350.58755424743
 20
5251.736161498643
 30
2576.280237001728
 70
   192
  0
VERTEX
  5
398
330
383
100
AcDbEntity
  8
ｴｸｽﾃﾘｱ商品
 62
   255
370
    20
100
AcDbVertex
100
AcDbPolyFaceMeshVertex
 10
5350.58755424743
 20
10624.4612475533
 30
2763.899931274374
 70
   192
  0
VERTEX
  5
399
330
383
100
AcDbEntity
  8
ｴｸｽﾃﾘｱ商品
 62
   255
370
    20
100
AcDbVertex
100
AcDbPolyFaceMeshVertex
 10
5390.58755424743
 20
5254.528121234843
 30
2496.328970840201
 70
   192
  0
VERTEX
  5
39A
330
383
100
AcDbEntity
  8
ｴｸｽﾃﾘｱ商品
 62
   255
370
    20
100
AcDbVertex
100
AcDbPolyFaceMeshVertex
 10
5390.58755424743
 20
10627.2532072895
 30
2683.948665112846
 70
   192
  0
VERTEX
  5
39B
330
383
100
AcDbEntity
  8
ｴｸｽﾃﾘｱ商品
 62
   255
370
    20
100
AcDbVertex
100
AcDbPolyFaceMeshVertex
 10
5410.587554247429
 20
5254.528121234843
 30
2496.328970840201
 70
   192
  0
VERTEX
  5
39C
330
383
100
AcDbEntity
  8
ｴｸｽﾃﾘｱ商品
 62
   255
370
    20
100
AcDbVertex
100
AcDbPolyFaceMeshVertex
 10
5410.58755424743
 20
10627.2532072895
 30
2683.948665112846
 70
   192
  0
VERTEX
  5
39D
330
383
100
AcDbEntity
  8
ｴｸｽﾃﾘｱ商品
 62
   255
370
    20
100
AcDbFaceRecord
 10
0.0
 20
0.0
 30
0.0
 70
   128
 71
     1
 72
     2
 73
     3
 74
     4
  0
VERTEX
  5
39E
330
383
100
AcDbEntity
  8
ｴｸｽﾃﾘｱ商品
 62
   255
370
    20
100
AcDbFaceRecord
 10
0.0
 20
0.0
 30
0.0
 70
   128
 71
     4
 72
     3
 73
     5
 74
     6
  0
VERTEX
  5
39F
330
383
100
AcDbEntity
  8
ｴｸｽﾃﾘｱ商品
 62
   255
370
    20
100
AcDbFaceRecord
 10
0.0
 20
0.0
 30
0.0
 70
   128
 71
     6
 72
     5
 73
     7
 74
     8
  0
VERTEX
  5
3A0
330
383
100
AcDbEntity
  8
ｴｸｽﾃﾘｱ商品
 62
   255
370
    20
100
AcDbFaceRecord
 10
0.0
 20
0.0
 30
0.0
 70
   128
 71
     8
 72
     7
 73
     9
 74
    10
  0
VERTEX
  5
3A1
330
383
100
AcDbEntity
  8
ｴｸｽﾃﾘｱ商品
 62
   255
370
    20
100
AcDbFaceRecord
 10
0.0
 20
0.0
 30
0.0
 70
   128
 71
    10
 72
     9
 73
    11
 74
    12
  0
VERTEX
  5
3A2
330
383
100
AcDbEntity
  8
ｴｸｽﾃﾘｱ商品
 62
   255
370
    20
100
AcDbFaceRecord
 10
0.0
 20
0.0
 30
0.0
 70
   128
 71
    12
 72
    11
 73
    13
 74
    14
  0
VERTEX
  5
3A3
330
383
100
AcDbEntity
  8
ｴｸｽﾃﾘｱ商品
 62
   255
370
    20
100
AcDbFaceRecord
 10
0.0
 20
0.0
 30
0.0
 70
   128
 71
    14
 72
    13
 73
    15
 74
    16
  0
VERTEX
  5
3A4
330
383
100
AcDbEntity
  8
ｴｸｽﾃﾘｱ商品
 62
   255
370
    20
100
AcDbFaceRecord
 10
0.0
 20
0.0
 30
0.0
 70
   128
 71
    16
 72
    15
 73
    17
 74
    18
  0
VERTEX
  5
3A5
330
383
100
AcDbEntity
  8
ｴｸｽﾃﾘｱ商品
 62
   255
370
    20
100
AcDbFaceRecord
 10
0.0
 20
0.0
 30
0.0
 70
   128
 71
    18
 72
    17
 73
    19
 74
    20
  0
VERTEX
  5
3A6
330
383
100
AcDbEntity
  8
ｴｸｽﾃﾘｱ商品
 62
   255
370
    20
100
AcDbFaceRecord
 10
0.0
 20
0.0
 30
0.0
 70
   128
 71
    20
 72
    19
 73
    21
 74
    22
  0
VERTEX
  5
3A7
330
383
100
AcDbEntity
  8
ｴｸｽﾃﾘｱ商品
 62
   255
370
    20
100
AcDbFaceRecord
 10
0.0
 20
0.0
 30
0.0
 70
   128
 71
    22
 72
    21
 73
    23
 74
    24
  0
VERTEX
  5
3A8
330
383
100
AcDbEntity
  8
ｴｸｽﾃﾘｱ商品
 62
   255
370
    20
100
AcDbFaceRecord
 10
0.0
 20
0.0
 30
0.0
 70
   128
 71
    24
 72
    23
 73
     2
 74
     1
  0
VERTEX
  5
3A9
330
383
100
AcDbEntity
  8
ｴｸｽﾃﾘｱ商品
 62
   255
370
    20
100
AcDbFaceRecord
 10
0.0
 20
0.0
 30
0.0
 70
   128
 71
     6
 72
     8
 73
    18
  0
VERTEX
  5
3AA
330
383
100
AcDbEntity
  8
ｴｸｽﾃﾘｱ商品
 62
   255
370
    20
100
AcDbFaceRecord
 10
0.0
 20
0.0
 30
0.0
 70
   128
 71
     6
 72
    18
 73
    20
  0
VERTEX
  5
3AB
330
383
100
AcDbEntity
  8
ｴｸｽﾃﾘｱ商品
 62
   255
370
    20
100
AcDbFaceRecord
 10
0.0
 20
0.0
 30
0.0
 70
   128
 71
    16
 72
    18
 73
     8
  0
VERTEX
  5
3AC
330
383
100
AcDbEntity
  8
ｴｸｽﾃﾘｱ商品
 62
   255
370
    20
100
AcDbFaceRecord
 10
0.0
 20
0.0
 30
0.0
 70
   128
 71
     6
 72
    20
 73
    22
  0
VERTEX
  5
3AD
330
383
100
AcDbEntity
  8
ｴｸｽﾃﾘｱ商品
 62
   255
370
    20
100
AcDbFaceRecord
 10
0.0
 20
0.0
 30
0.0
 70
   128
 71
    12
 72
    14
 73
    16
  0
VERTEX
  5
3AE
330
383
100
AcDbEntity
  8
ｴｸｽﾃﾘｱ商品
 62
   255
370
    20
100
AcDbFaceRecord
 10
0.0
 20
0.0
 30
0.0
 70
   128
 71
    12
 72
    16
 73
    10
  0
VERTEX
  5
3AF
330
383
100
AcDbEntity
  8
ｴｸｽﾃﾘｱ商品
 62
   255
370
    20
100
AcDbFaceRecord
 10
0.0
 20
0.0
 30
0.0
 70
   128
 71
    10
 72
    16
 73
     8
  0
VERTEX
  5
3B0
330
383
100
AcDbEntity
  8
ｴｸｽﾃﾘｱ商品
 62
   255
370
    20
100
AcDbFaceRecord
 10
0.0
 20
0.0
 30
0.0
 70
   128
 71
     4
 72
     6
 73
    22
  0
VERTEX
  5
3B1
330
383
100
AcDbEntity
  8
ｴｸｽﾃﾘｱ商品
 62
   255
370
    20
100
AcDbFaceRecord
 10
0.0
 20
0.0
 30
0.0
 70
   128
 71
     4
 72
    22
 73
     1
  0
VERTEX
  5
3B2
330
383
100
AcDbEntity
  8
ｴｸｽﾃﾘｱ商品
 62
   255
370
    20
100
AcDbFaceRecord
 10
0.0
 20
0.0
 30
0.0
 70
   128
 71
     1
 72
    22
 73
    24
  0
VERTEX
  5
3B3
330
383
100
AcDbEntity
  8
ｴｸｽﾃﾘｱ商品
 62
   255
370
    20
100
AcDbFaceRecord
 10
0.0
 20
0.0
 30
0.0
 70
   128
 71
     7
 72
     5
 73
    19
  0
VERTEX
  5
3B4
330
383
100
AcDbEntity
  8
ｴｸｽﾃﾘｱ商品
 62
   255
370
    20
100
AcDbFaceRecord
 10
0.0
 20
0.0
 30
0.0
 70
   128
 71
     7
 72
    19
 73
    17
  0
VERTEX
  5
3B5
330
383
100
AcDbEntity
  8
ｴｸｽﾃﾘｱ商品
 62
   255
370
    20
100
AcDbFaceRecord
 10
0.0
 20
0.0
 30
0.0
 70
   128
 71
    21
 72
    19
 73
     5
  0
VERTEX
  5
3B6
330
383
100
AcDbEntity
  8
ｴｸｽﾃﾘｱ商品
 62
   255
370
    20
100
AcDbFaceRecord
 10
0.0
 20
0.0
 30
0.0
 70
   128
 71
     7
 72
    17
 73
    15
  0
VERTEX
  5
3B7
330
383
100
AcDbEntity
  8
ｴｸｽﾃﾘｱ商品
 62
   255
370
    20
100
AcDbFaceRecord
 10
0.0
 20
0.0
 30
0.0
 70
   128
 71
     2
 72
    23
 73
    21
  0
VERTEX
  5
3B8
330
383
100
AcDbEntity
  8
ｴｸｽﾃﾘｱ商品
 62
   255
370
    20
100
AcDbFaceRecord
 10
0.0
 20
0.0
 30
0.0
 70
   128
 71
     2
 72
    21
 73
     3
  0
VERTEX
  5
3B9
330
383
100
AcDbEntity
  8
ｴｸｽﾃﾘｱ商品
 62
   255
370
    20
100
AcDbFaceRecord
 10
0.0
 20
0.0
 30
0.0
 70
   128
 71
     3
 72
    21
 73
     5
  0
VERTEX
  5
3BA
330
383
100
AcDbEntity
  8
ｴｸｽﾃﾘｱ商品
 62
   255
370
    20
100
AcDbFaceRecord
 10
0.0
 20
0.0
 30
0.0
 70
   128
 71
     9
 72
     7
 73
    15
  0
VERTEX
  5
3BB
330
383
100
AcDbEntity
  8
ｴｸｽﾃﾘｱ商品
 62
   255
370
    20
100
AcDbFaceRecord
 10
0.0
 20
0.0
 30
0.0
 70
   128
 71
     9
 72
    15
 73
    11
  0
VERTEX
  5
3BC
330
383
100
AcDbEntity
  8
ｴｸｽﾃﾘｱ商品
 62
   255
370
    20
100
AcDbFaceRecord
 10
0.0
 20
0.0
 30
0.0
 70
   128
 71
    11
 72
    15
 73
    13
  0
SEQEND
  5
384
330
383
100
AcDbEntity
  8
ｴｸｽﾃﾘｱ商品
370
    20
  0
POLYLINE
  5
3BD
330
3C
100
AcDbEntity
  8
ｴｸｽﾃﾘｱ商品
 62
   255
370
    20
100
AcDbPolyFaceMesh
 66
     1
 10
0.0
 20
0.0
 30
0.0
 70
    64
 71
    24
 72
    32
  0
VERTEX
  5
3BF
330
3BD
100
AcDbEntity
  8
ｴｸｽﾃﾘｱ商品
 62
   255
370
    20
100
AcDbVertex
100
AcDbPolyFaceMeshVertex
 10
5250.58755424743
 20
10627.95119722355
 30
2663.960848572464
 70
   192
  0
VERTEX
  5
3C0
330
3BD
100
AcDbEntity
  8
ｴｸｽﾃﾘｱ商品
 62
   255
370
    20
100
AcDbVertex
100
AcDbPolyFaceMeshVertex
 10
5250.587554247429
 20
5255.226111168893
 30
2476.341154299819
 70
   192
  0
VERTEX
  5
3C1
330
3BD
100
AcDbEntity
  8
ｴｸｽﾃﾘｱ商品
 62
   255
370
    20
100
AcDbVertex
100
AcDbPolyFaceMeshVertex
 10
5230.58755424743
 20
5255.226111168893
 30
2476.341154299819
 70
   192
  0
VERTEX
  5
3C2
330
3BD
100
AcDbEntity
  8
ｴｸｽﾃﾘｱ商品
 62
   255
370
    20
100
AcDbVertex
100
AcDbPolyFaceMeshVertex
 10
5230.58755424743
 20
10627.95119722355
 30
2663.960848572464
 70
   192
  0
VERTEX
  5
3C3
330
3BD
100
AcDbEntity
  8
ｴｸｽﾃﾘｱ商品
 62
   255
370
    20
100
AcDbVertex
100
AcDbPolyFaceMeshVertex
 10
5190.58755424743
 20
5252.434151432693
 30
2556.292420461346
 70
   192
  0
VERTEX
  5
3C4
330
3BD
100
AcDbEntity
  8
ｴｸｽﾃﾘｱ商品
 62
   255
370
    20
100
AcDbVertex
100
AcDbPolyFaceMeshVertex
 10
5190.58755424743
 20
10625.15923748735
 30
2743.912114733992
 70
   192
  0
VERTEX
  5
3C5
330
3BD
100
AcDbEntity
  8
ｴｸｽﾃﾘｱ商品
 62
   255
370
    20
100
AcDbVertex
100
AcDbPolyFaceMeshVertex
 10
5150.587554247429
 20
5252.434151432693
 30
2556.292420461346
 70
   192
  0
VERTEX
  5
3C6
330
3BD
100
AcDbEntity
  8
ｴｸｽﾃﾘｱ商品
 62
   255
370
    20
100
AcDbVertex
100
AcDbPolyFaceMeshVertex
 10
5150.58755424743
 20
10625.15923748735
 30
2743.912114733992
 70
   192
  0
VERTEX
  5
3C7
330
3BD
100
AcDbEntity
  8
ｴｸｽﾃﾘｱ商品
 62
   255
370
    20
100
AcDbVertex
100
AcDbPolyFaceMeshVertex
 10
5110.587554247429
 20
5255.226111168893
 30
2476.341154299819
 70
   192
  0
VERTEX
  5
3C8
330
3BD
100
AcDbEntity
  8
ｴｸｽﾃﾘｱ商品
 62
   255
370
    20
100
AcDbVertex
100
AcDbPolyFaceMeshVertex
 10
5110.58755424743
 20
10627.95119722355
 30
2663.960848572464
 70
   192
  0
VERTEX
  5
3C9
330
3BD
100
AcDbEntity
  8
ｴｸｽﾃﾘｱ商品
 62
   255
370
    20
100
AcDbVertex
100
AcDbPolyFaceMeshVertex
 10
5090.587554247429
 20
5255.226111168893
 30
2476.341154299819
 70
   192
  0
VERTEX
  5
3CA
330
3BD
100
AcDbEntity
  8
ｴｸｽﾃﾘｱ商品
 62
   255
370
    20
100
AcDbVertex
100
AcDbPolyFaceMeshVertex
 10
5090.58755424743
 20
10627.95119722355
 30
2663.960848572464
 70
   192
  0
VERTEX
  5
3CB
330
3BD
100
AcDbEntity
  8
ｴｸｽﾃﾘｱ商品
 62
   255
370
    20
100
AcDbVertex
100
AcDbPolyFaceMeshVertex
 10
5090.587554247429
 20
5254.528121234843
 30
2496.328970840201
 70
   192
  0
VERTEX
  5
3CC
330
3BD
100
AcDbEntity
  8
ｴｸｽﾃﾘｱ商品
 62
   255
370
    20
100
AcDbVertex
100
AcDbPolyFaceMeshVertex
 10
5090.58755424743
 20
10627.2532072895
 30
2683.948665112846
 70
   192
  0
VERTEX
  5
3CD
330
3BD
100
AcDbEntity
  8
ｴｸｽﾃﾘｱ商品
 62
   255
370
    20
100
AcDbVertex
100
AcDbPolyFaceMeshVertex
 10
5110.587554247429
 20
5254.528121234843
 30
2496.328970840201
 70
   192
  0
VERTEX
  5
3CE
330
3BD
100
AcDbEntity
  8
ｴｸｽﾃﾘｱ商品
 62
   255
370
    20
100
AcDbVertex
100
AcDbPolyFaceMeshVertex
 10
5110.58755424743
 20
10627.2532072895
 30
2683.948665112846
 70
   192
  0
VERTEX
  5
3CF
330
3BD
100
AcDbEntity
  8
ｴｸｽﾃﾘｱ商品
 62
   255
370
    20
100
AcDbVertex
100
AcDbPolyFaceMeshVertex
 10
5150.587554247429
 20
5251.736161498643
 30
2576.280237001728
 70
   192
  0
VERTEX
  5
3D0
330
3BD
100
AcDbEntity
  8
ｴｸｽﾃﾘｱ商品
 62
   255
370
    20
100
AcDbVertex
100
AcDbPolyFaceMeshVertex
 10
5150.58755424743
 20
10624.4612475533
 30
2763.899931274374
 70
   192
  0
VERTEX
  5
3D1
330
3BD
100
AcDbEntity
  8
ｴｸｽﾃﾘｱ商品
 62
   255
370
    20
100
AcDbVertex
100
AcDbPolyFaceMeshVertex
 10
5190.58755424743
 20
5251.736161498643
 30
2576.280237001728
 70
   192
  0
VERTEX
  5
3D2
330
3BD
100
AcDbEntity
  8
ｴｸｽﾃﾘｱ商品
 62
   255
370
    20
100
AcDbVertex
100
AcDbPolyFaceMeshVertex
 10
5190.58755424743
 20
10624.4612475533
 30
2763.899931274374
 70
   192
  0
VERTEX
  5
3D3
330
3BD
100
AcDbEntity
  8
ｴｸｽﾃﾘｱ商品
 62
   255
370
    20
100
AcDbVertex
100
AcDbPolyFaceMeshVertex
 10
5230.58755424743
 20
5254.528121234843
 30
2496.328970840201
 70
   192
  0
VERTEX
  5
3D4
330
3BD
100
AcDbEntity
  8
ｴｸｽﾃﾘｱ商品
 62
   255
370
    20
100
AcDbVertex
100
AcDbPolyFaceMeshVertex
 10
5230.58755424743
 20
10627.2532072895
 30
2683.948665112846
 70
   192
  0
VERTEX
  5
3D5
330
3BD
100
AcDbEntity
  8
ｴｸｽﾃﾘｱ商品
 62
   255
370
    20
100
AcDbVertex
100
AcDbPolyFaceMeshVertex
 10
5250.587554247429
 20
5254.528121234843
 30
2496.328970840201
 70
   192
  0
VERTEX
  5
3D6
330
3BD
100
AcDbEntity
  8
ｴｸｽﾃﾘｱ商品
 62
   255
370
    20
100
AcDbVertex
100
AcDbPolyFaceMeshVertex
 10
5250.58755424743
 20
10627.2532072895
 30
2683.948665112846
 70
   192
  0
VERTEX
  5
3D7
330
3BD
100
AcDbEntity
  8
ｴｸｽﾃﾘｱ商品
 62
   255
370
    20
100
AcDbFaceRecord
 10
0.0
 20
0.0
 30
0.0
 70
   128
 71
     1
 72
     2
 73
     3
 74
     4
  0
VERTEX
  5
3D8
330
3BD
100
AcDbEntity
  8
ｴｸｽﾃﾘｱ商品
 62
   255
370
    20
100
AcDbFaceRecord
 10
0.0
 20
0.0
 30
0.0
 70
   128
 71
     4
 72
     3
 73
     5
 74
     6
  0
VERTEX
  5
3D9
330
3BD
100
AcDbEntity
  8
ｴｸｽﾃﾘｱ商品
 62
   255
370
    20
100
AcDbFaceRecord
 10
0.0
 20
0.0
 30
0.0
 70
   128
 71
     6
 72
     5
 73
     7
 74
     8
  0
VERTEX
  5
3DA
330
3BD
100
AcDbEntity
  8
ｴｸｽﾃﾘｱ商品
 62
   255
370
    20
100
AcDbFaceRecord
 10
0.0
 20
0.0
 30
0.0
 70
   128
 71
     8
 72
     7
 73
     9
 74
    10
  0
VERTEX
  5
3DB
330
3BD
100
AcDbEntity
  8
ｴｸｽﾃﾘｱ商品
 62
   255
370
    20
100
AcDbFaceRecord
 10
0.0
 20
0.0
 30
0.0
 70
   128
 71
    10
 72
     9
 73
    11
 74
    12
  0
VERTEX
  5
3DC
330
3BD
100
AcDbEntity
  8
ｴｸｽﾃﾘｱ商品
 62
   255
370
    20
100
AcDbFaceRecord
 10
0.0
 20
0.0
 30
0.0
 70
   128
 71
    12
 72
    11
 73
    13
 74
    14
  0
VERTEX
  5
3DD
330
3BD
100
AcDbEntity
  8
ｴｸｽﾃﾘｱ商品
 62
   255
370
    20
100
AcDbFaceRecord
 10
0.0
 20
0.0
 30
0.0
 70
   128
 71
    14
 72
    13
 73
    15
 74
    16
  0
VERTEX
  5
3DE
330
3BD
100
AcDbEntity
  8
ｴｸｽﾃﾘｱ商品
 62
   255
370
    20
100
AcDbFaceRecord
 10
0.0
 20
0.0
 30
0.0
 70
   128
 71
    16
 72
    15
 73
    17
 74
    18
  0
VERTEX
  5
3DF
330
3BD
100
AcDbEntity
  8
ｴｸｽﾃﾘｱ商品
 62
   255
370
    20
100
AcDbFaceRecord
 10
0.0
 20
0.0
 30
0.0
 70
   128
 71
    18
 72
    17
 73
    19
 74
    20
  0
VERTEX
  5
3E0
330
3BD
100
AcDbEntity
  8
ｴｸｽﾃﾘｱ商品
 62
   255
370
    20
100
AcDbFaceRecord
 10
0.0
 20
0.0
 30
0.0
 70
   128
 71
    20
 72
    19
 73
    21
 74
    22
  0
VERTEX
  5
3E1
330
3BD
100
AcDbEntity
  8
ｴｸｽﾃﾘｱ商品
 62
   255
370
    20
100
AcDbFaceRecord
 10
0.0
 20
0.0
 30
0.0
 70
   128
 71
    22
 72
    21
 73
    23
 74
    24
  0
VERTEX
  5
3E2
330
3BD
100
AcDbEntity
  8
ｴｸｽﾃﾘｱ商品
 62
   255
370
    20
100
AcDbFaceRecord
 10
0.0
 20
0.0
 30
0.0
 70
   128
 71
    24
 72
    23
 73
     2
 74
     1
  0
VERTEX
  5
3E3
330
3BD
100
AcDbEntity
  8
ｴｸｽﾃﾘｱ商品
 62
   255
370
    20
100
AcDbFaceRecord
 10
0.0
 20
0.0
 30
0.0
 70
   128
 71
     6
 72
     8
 73
    18
  0
VERTEX
  5
3E4
330
3BD
100
AcDbEntity
  8
ｴｸｽﾃﾘｱ商品
 62
   255
370
    20
100
AcDbFaceRecord
 10
0.0
 20
0.0
 30
0.0
 70
   128
 71
     6
 72
    18
 73
    20
  0
VERTEX
  5
3E5
330
3BD
100
AcDbEntity
  8
ｴｸｽﾃﾘｱ商品
 62
   255
370
    20
100
AcDbFaceRecord
 10
0.0
 20
0.0
 30
0.0
 70
   128
 71
    16
 72
    18
 73
     8
  0
VERTEX
  5
3E6
330
3BD
100
AcDbEntity
  8
ｴｸｽﾃﾘｱ商品
 62
   255
370
    20
100
AcDbFaceRecord
 10
0.0
 20
0.0
 30
0.0
 70
   128
 71
     6
 72
    20
 73
    22
  0
VERTEX
  5
3E7
330
3BD
100
AcDbEntity
  8
ｴｸｽﾃﾘｱ商品
 62
   255
370
    20
100
AcDbFaceRecord
 10
0.0
 20
0.0
 30
0.0
 70
   128
 71
    12
 72
    14
 73
    16
  0
VERTEX
  5
3E8
330
3BD
100
AcDbEntity
  8
ｴｸｽﾃﾘｱ商品
 62
   255
370
    20
100
AcDbFaceRecord
 10
0.0
 20
0.0
 30
0.0
 70
   128
 71
    12
 72
    16
 73
    10
  0
VERTEX
  5
3E9
330
3BD
100
AcDbEntity
  8
ｴｸｽﾃﾘｱ商品
 62
   255
370
    20
100
AcDbFaceRecord
 10
0.0
 20
0.0
 30
0.0
 70
   128
 71
    10
 72
    16
 73
     8
  0
VERTEX
  5
3EA
330
3BD
100
AcDbEntity
  8
ｴｸｽﾃﾘｱ商品
 62
   255
370
    20
100
AcDbFaceRecord
 10
0.0
 20
0.0
 30
0.0
 70
   128
 71
     4
 72
     6
 73
    22
  0
VERTEX
  5
3EB
330
3BD
100
AcDbEntity
  8
ｴｸｽﾃﾘｱ商品
 62
   255
370
    20
100
AcDbFaceRecord
 10
0.0
 20
0.0
 30
0.0
 70
   128
 71
     4
 72
    22
 73
     1
  0
VERTEX
  5
3EC
330
3BD
100
AcDbEntity
  8
ｴｸｽﾃﾘｱ商品
 62
   255
370
    20
100
AcDbFaceRecord
 10
0.0
 20
0.0
 30
0.0
 70
   128
 71
     1
 72
    22
 73
    24
  0
VERTEX
  5
3ED
330
3BD
100
AcDbEntity
  8
ｴｸｽﾃﾘｱ商品
 62
   255
370
    20
100
AcDbFaceRecord
 10
0.0
 20
0.0
 30
0.0
 70
   128
 71
     7
 72
     5
 73
    19
  0
VERTEX
  5
3EE
330
3BD
100
AcDbEntity
  8
ｴｸｽﾃﾘｱ商品
 62
   255
370
    20
100
AcDbFaceRecord
 10
0.0
 20
0.0
 30
0.0
 70
   128
 71
     7
 72
    19
 73
    17
  0
VERTEX
  5
3EF
330
3BD
100
AcDbEntity
  8
ｴｸｽﾃﾘｱ商品
 62
   255
370
    20
100
AcDbFaceRecord
 10
0.0
 20
0.0
 30
0.0
 70
   128
 71
    21
 72
    19
 73
     5
  0
VERTEX
  5
3F0
330
3BD
100
AcDbEntity
  8
ｴｸｽﾃﾘｱ商品
 62
   255
370
    20
100
AcDbFaceRecord
 10
0.0
 20
0.0
 30
0.0
 70
   128
 71
     7
 72
    17
 73
    15
  0
VERTEX
  5
3F1
330
3BD
100
AcDbEntity
  8
ｴｸｽﾃﾘｱ商品
 62
   255
370
    20
100
AcDbFaceRecord
 10
0.0
 20
0.0
 30
0.0
 70
   128
 71
     2
 72
    23
 73
    21
  0
VERTEX
  5
3F2
330
3BD
100
AcDbEntity
  8
ｴｸｽﾃﾘｱ商品
 62
   255
370
    20
100
AcDbFaceRecord
 10
0.0
 20
0.0
 30
0.0
 70
   128
 71
     2
 72
    21
 73
     3
  0
VERTEX
  5
3F3
330
3BD
100
AcDbEntity
  8
ｴｸｽﾃﾘｱ商品
 62
   255
370
    20
100
AcDbFaceRecord
 10
0.0
 20
0.0
 30
0.0
 70
   128
 71
     3
 72
    21
 73
     5
  0
VERTEX
  5
3F4
330
3BD
100
AcDbEntity
  8
ｴｸｽﾃﾘｱ商品
 62
   255
370
    20
100
AcDbFaceRecord
 10
0.0
 20
0.0
 30
0.0
 70
   128
 71
     9
 72
     7
 73
    15
  0
VERTEX
  5
3F5
330
3BD
100
AcDbEntity
  8
ｴｸｽﾃﾘｱ商品
 62
   255
370
    20
100
AcDbFaceRecord
 10
0.0
 20
0.0
 30
0.0
 70
   128
 71
     9
 72
    15
 73
    11
  0
VERTEX
  5
3F6
330
3BD
100
AcDbEntity
  8
ｴｸｽﾃﾘｱ商品
 62
   255
370
    20
100
AcDbFaceRecord
 10
0.0
 20
0.0
 30
0.0
 70
   128
 71
    11
 72
    15
 73
    13
  0
SEQEND
  5
3BE
330
3BD
100
AcDbEntity
  8
ｴｸｽﾃﾘｱ商品
370
    20
  0
POLYLINE
  5
3F7
330
3C
100
AcDbEntity
  8
ｴｸｽﾃﾘｱ商品
 62
   255
370
    20
100
AcDbPolyFaceMesh
 66
     1
 10
0.0
 20
0.0
 30
0.0
 70
    64
 71
    24
 72
    32
  0
VERTEX
  5
3F9
330
3F7
100
AcDbEntity
  8
ｴｸｽﾃﾘｱ商品
 62
   255
370
    20
100
AcDbVertex
100
AcDbPolyFaceMeshVertex
 10
5090.58755424743
 20
10627.95119722355
 30
2663.960848572464
 70
   192
  0
VERTEX
  5
3FA
330
3F7
100
AcDbEntity
  8
ｴｸｽﾃﾘｱ商品
 62
   255
370
    20
100
AcDbVertex
100
AcDbPolyFaceMeshVertex
 10
5090.587554247429
 20
5255.226111168893
 30
2476.341154299819
 70
   192
  0
VERTEX
  5
3FB
330
3F7
100
AcDbEntity
  8
ｴｸｽﾃﾘｱ商品
 62
   255
370
    20
100
AcDbVertex
100
AcDbPolyFaceMeshVertex
 10
5070.587554247429
 20
5255.226111168893
 30
2476.341154299819
 70
   192
  0
VERTEX
  5
3FC
330
3F7
100
AcDbEntity
  8
ｴｸｽﾃﾘｱ商品
 62
   255
370
    20
100
AcDbVertex
100
AcDbPolyFaceMeshVertex
 10
5070.58755424743
 20
10627.95119722355
 30
2663.960848572464
 70
   192
  0
VERTEX
  5
3FD
330
3F7
100
AcDbEntity
  8
ｴｸｽﾃﾘｱ商品
 62
   255
370
    20
100
AcDbVertex
100
AcDbPolyFaceMeshVertex
 10
5030.587554247429
 20
5252.434151432693
 30
2556.292420461346
 70
   192
  0
VERTEX
  5
3FE
330
3F7
100
AcDbEntity
  8
ｴｸｽﾃﾘｱ商品
 62
   255
370
    20
100
AcDbVertex
100
AcDbPolyFaceMeshVertex
 10
5030.58755424743
 20
10625.15923748735
 30
2743.912114733992
 70
   192
  0
VERTEX
  5
3FF
330
3F7
100
AcDbEntity
  8
ｴｸｽﾃﾘｱ商品
 62
   255
370
    20
100
AcDbVertex
100
AcDbPolyFaceMeshVertex
 10
4990.587554247429
 20
5252.434151432693
 30
2556.292420461346
 70
   192
  0
VERTEX
  5
400
330
3F7
100
AcDbEntity
  8
ｴｸｽﾃﾘｱ商品
 62
   255
370
    20
100
AcDbVertex
100
AcDbPolyFaceMeshVertex
 10
4990.58755424743
 20
10625.15923748735
 30
2743.912114733992
 70
   192
  0
VERTEX
  5
401
330
3F7
100
AcDbEntity
  8
ｴｸｽﾃﾘｱ商品
 62
   255
370
    20
100
AcDbVertex
100
AcDbPolyFaceMeshVertex
 10
4950.587554247429
 20
5255.226111168893
 30
2476.341154299819
 70
   192
  0
VERTEX
  5
402
330
3F7
100
AcDbEntity
  8
ｴｸｽﾃﾘｱ商品
 62
   255
370
    20
100
AcDbVertex
100
AcDbPolyFaceMeshVertex
 10
4950.58755424743
 20
10627.95119722355
 30
2663.960848572464
 70
   192
  0
VERTEX
  5
403
330
3F7
100
AcDbEntity
  8
ｴｸｽﾃﾘｱ商品
 62
   255
370
    20
100
AcDbVertex
100
AcDbPolyFaceMeshVertex
 10
4930.587554247429
 20
5255.226111168893
 30
2476.341154299819
 70
   192
  0
VERTEX
  5
404
330
3F7
100
AcDbEntity
  8
ｴｸｽﾃﾘｱ商品
 62
   255
370
    20
100
AcDbVertex
100
AcDbPolyFaceMeshVertex
 10
4930.58755424743
 20
10627.95119722355
 30
2663.960848572464
 70
   192
  0
VERTEX
  5
405
330
3F7
100
AcDbEntity
  8
ｴｸｽﾃﾘｱ商品
 62
   255
370
    20
100
AcDbVertex
100
AcDbPolyFaceMeshVertex
 10
4930.587554247429
 20
5254.528121234843
 30
2496.328970840201
 70
   192
  0
VERTEX
  5
406
330
3F7
100
AcDbEntity
  8
ｴｸｽﾃﾘｱ商品
 62
   255
370
    20
100
AcDbVertex
100
AcDbPolyFaceMeshVertex
 10
4930.58755424743
 20
10627.2532072895
 30
2683.948665112846
 70
   192
  0
VERTEX
  5
407
330
3F7
100
AcDbEntity
  8
ｴｸｽﾃﾘｱ商品
 62
   255
370
    20
100
AcDbVertex
100
AcDbPolyFaceMeshVertex
 10
4950.587554247429
 20
5254.528121234843
 30
2496.328970840201
 70
   192
  0
VERTEX
  5
408
330
3F7
100
AcDbEntity
  8
ｴｸｽﾃﾘｱ商品
 62
   255
370
    20
100
AcDbVertex
100
AcDbPolyFaceMeshVertex
 10
4950.58755424743
 20
10627.2532072895
 30
2683.948665112846
 70
   192
  0
VERTEX
  5
409
330
3F7
100
AcDbEntity
  8
ｴｸｽﾃﾘｱ商品
 62
   255
370
    20
100
AcDbVertex
100
AcDbPolyFaceMeshVertex
 10
4990.587554247429
 20
5251.736161498643
 30
2576.280237001728
 70
   192
  0
VERTEX
  5
40A
330
3F7
100
AcDbEntity
  8
ｴｸｽﾃﾘｱ商品
 62
   255
370
    20
100
AcDbVertex
100
AcDbPolyFaceMeshVertex
 10
4990.58755424743
 20
10624.4612475533
 30
2763.899931274374
 70
   192
  0
VERTEX
  5
40B
330
3F7
100
AcDbEntity
  8
ｴｸｽﾃﾘｱ商品
 62
   255
370
    20
100
AcDbVertex
100
AcDbPolyFaceMeshVertex
 10
5030.587554247429
 20
5251.736161498643
 30
2576.280237001728
 70
   192
  0
VERTEX
  5
40C
330
3F7
100
AcDbEntity
  8
ｴｸｽﾃﾘｱ商品
 62
   255
370
    20
100
AcDbVertex
100
AcDbPolyFaceMeshVertex
 10
5030.58755424743
 20
10624.4612475533
 30
2763.899931274374
 70
   192
  0
VERTEX
  5
40D
330
3F7
100
AcDbEntity
  8
ｴｸｽﾃﾘｱ商品
 62
   255
370
    20
100
AcDbVertex
100
AcDbPolyFaceMeshVertex
 10
5070.587554247429
 20
5254.528121234843
 30
2496.328970840201
 70
   192
  0
VERTEX
  5
40E
330
3F7
100
AcDbEntity
  8
ｴｸｽﾃﾘｱ商品
 62
   255
370
    20
100
AcDbVertex
100
AcDbPolyFaceMeshVertex
 10
5070.58755424743
 20
10627.2532072895
 30
2683.948665112846
 70
   192
  0
VERTEX
  5
40F
330
3F7
100
AcDbEntity
  8
ｴｸｽﾃﾘｱ商品
 62
   255
370
    20
100
AcDbVertex
100
AcDbPolyFaceMeshVertex
 10
5090.587554247429
 20
5254.528121234843
 30
2496.328970840201
 70
   192
  0
VERTEX
  5
410
330
3F7
100
AcDbEntity
  8
ｴｸｽﾃﾘｱ商品
 62
   255
370
    20
100
AcDbVertex
100
AcDbPolyFaceMeshVertex
 10
5090.58755424743
 20
10627.2532072895
 30
2683.948665112846
 70
   192
  0
VERTEX
  5
411
330
3F7
100
AcDbEntity
  8
ｴｸｽﾃﾘｱ商品
 62
   255
370
    20
100
AcDbFaceRecord
 10
0.0
 20
0.0
 30
0.0
 70
   128
 71
     1
 72
     2
 73
     3
 74
     4
  0
VERTEX
  5
412
330
3F7
100
AcDbEntity
  8
ｴｸｽﾃﾘｱ商品
 62
   255
370
    20
100
AcDbFaceRecord
 10
0.0
 20
0.0
 30
0.0
 70
   128
 71
     4
 72
     3
 73
     5
 74
     6
  0
VERTEX
  5
413
330
3F7
100
AcDbEntity
  8
ｴｸｽﾃﾘｱ商品
 62
   255
370
    20
100
AcDbFaceRecord
 10
0.0
 20
0.0
 30
0.0
 70
   128
 71
     6
 72
     5
 73
     7
 74
     8
  0
VERTEX
  5
414
330
3F7
100
AcDbEntity
  8
ｴｸｽﾃﾘｱ商品
 62
   255
370
    20
100
AcDbFaceRecord
 10
0.0
 20
0.0
 30
0.0
 70
   128
 71
     8
 72
     7
 73
     9
 74
    10
  0
VERTEX
  5
415
330
3F7
100
AcDbEntity
  8
ｴｸｽﾃﾘｱ商品
 62
   255
370
    20
100
AcDbFaceRecord
 10
0.0
 20
0.0
 30
0.0
 70
   128
 71
    10
 72
     9
 73
    11
 74
    12
  0
VERTEX
  5
416
330
3F7
100
AcDbEntity
  8
ｴｸｽﾃﾘｱ商品
 62
   255
370
    20
100
AcDbFaceRecord
 10
0.0
 20
0.0
 30
0.0
 70
   128
 71
    12
 72
    11
 73
    13
 74
    14
  0
VERTEX
  5
417
330
3F7
100
AcDbEntity
  8
ｴｸｽﾃﾘｱ商品
 62
   255
370
    20
100
AcDbFaceRecord
 10
0.0
 20
0.0
 30
0.0
 70
   128
 71
    14
 72
    13
 73
    15
 74
    16
  0
VERTEX
  5
418
330
3F7
100
AcDbEntity
  8
ｴｸｽﾃﾘｱ商品
 62
   255
370
    20
100
AcDbFaceRecord
 10
0.0
 20
0.0
 30
0.0
 70
   128
 71
    16
 72
    15
 73
    17
 74
    18
  0
VERTEX
  5
419
330
3F7
100
AcDbEntity
  8
ｴｸｽﾃﾘｱ商品
 62
   255
370
    20
100
AcDbFaceRecord
 10
0.0
 20
0.0
 30
0.0
 70
   128
 71
    18
 72
    17
 73
    19
 74
    20
  0
VERTEX
  5
41A
330
3F7
100
AcDbEntity
  8
ｴｸｽﾃﾘｱ商品
 62
   255
370
    20
100
AcDbFaceRecord
 10
0.0
 20
0.0
 30
0.0
 70
   128
 71
    20
 72
    19
 73
    21
 74
    22
  0
VERTEX
  5
41B
330
3F7
100
AcDbEntity
  8
ｴｸｽﾃﾘｱ商品
 62
   255
370
    20
100
AcDbFaceRecord
 10
0.0
 20
0.0
 30
0.0
 70
   128
 71
    22
 72
    21
 73
    23
 74
    24
  0
VERTEX
  5
41C
330
3F7
100
AcDbEntity
  8
ｴｸｽﾃﾘｱ商品
 62
   255
370
    20
100
AcDbFaceRecord
 10
0.0
 20
0.0
 30
0.0
 70
   128
 71
    24
 72
    23
 73
     2
 74
     1
  0
VERTEX
  5
41D
330
3F7
100
AcDbEntity
  8
ｴｸｽﾃﾘｱ商品
 62
   255
370
    20
100
AcDbFaceRecord
 10
0.0
 20
0.0
 30
0.0
 70
   128
 71
     6
 72
     8
 73
    18
  0
VERTEX
  5
41E
330
3F7
100
AcDbEntity
  8
ｴｸｽﾃﾘｱ商品
 62
   255
370
    20
100
AcDbFaceRecord
 10
0.0
 20
0.0
 30
0.0
 70
   128
 71
     6
 72
    18
 73
    20
  0
VERTEX
  5
41F
330
3F7
100
AcDbEntity
  8
ｴｸｽﾃﾘｱ商品
 62
   255
370
    20
100
AcDbFaceRecord
 10
0.0
 20
0.0
 30
0.0
 70
   128
 71
    16
 72
    18
 73
     8
  0
VERTEX
  5
420
330
3F7
100
AcDbEntity
  8
ｴｸｽﾃﾘｱ商品
 62
   255
370
    20
100
AcDbFaceRecord
 10
0.0
 20
0.0
 30
0.0
 70
   128
 71
     6
 72
    20
 73
    22
  0
VERTEX
  5
421
330
3F7
100
AcDbEntity
  8
ｴｸｽﾃﾘｱ商品
 62
   255
370
    20
100
AcDbFaceRecord
 10
0.0
 20
0.0
 30
0.0
 70
   128
 71
    12
 72
    14
 73
    16
  0
VERTEX
  5
422
330
3F7
100
AcDbEntity
  8
ｴｸｽﾃﾘｱ商品
 62
   255
370
    20
100
AcDbFaceRecord
 10
0.0
 20
0.0
 30
0.0
 70
   128
 71
    12
 72
    16
 73
    10
  0
VERTEX
  5
423
330
3F7
100
AcDbEntity
  8
ｴｸｽﾃﾘｱ商品
 62
   255
370
    20
100
AcDbFaceRecord
 10
0.0
 20
0.0
 30
0.0
 70
   128
 71
    10
 72
    16
 73
     8
  0
VERTEX
  5
424
330
3F7
100
AcDbEntity
  8
ｴｸｽﾃﾘｱ商品
 62
   255
370
    20
100
AcDbFaceRecord
 10
0.0
 20
0.0
 30
0.0
 70
   128
 71
     4
 72
     6
 73
    22
  0
VERTEX
  5
425
330
3F7
100
AcDbEntity
  8
ｴｸｽﾃﾘｱ商品
 62
   255
370
    20
100
AcDbFaceRecord
 10
0.0
 20
0.0
 30
0.0
 70
   128
 71
     4
 72
    22
 73
     1
  0
VERTEX
  5
426
330
3F7
100
AcDbEntity
  8
ｴｸｽﾃﾘｱ商品
 62
   255
370
    20
100
AcDbFaceRecord
 10
0.0
 20
0.0
 30
0.0
 70
   128
 71
     1
 72
    22
 73
    24
  0
VERTEX
  5
427
330
3F7
100
AcDbEntity
  8
ｴｸｽﾃﾘｱ商品
 62
   255
370
    20
100
AcDbFaceRecord
 10
0.0
 20
0.0
 30
0.0
 70
   128
 71
     7
 72
     5
 73
    19
  0
VERTEX
  5
428
330
3F7
100
AcDbEntity
  8
ｴｸｽﾃﾘｱ商品
 62
   255
370
    20
100
AcDbFaceRecord
 10
0.0
 20
0.0
 30
0.0
 70
   128
 71
     7
 72
    19
 73
    17
  0
VERTEX
  5
429
330
3F7
100
AcDbEntity
  8
ｴｸｽﾃﾘｱ商品
 62
   255
370
    20
100
AcDbFaceRecord
 10
0.0
 20
0.0
 30
0.0
 70
   128
 71
    21
 72
    19
 73
     5
  0
VERTEX
  5
42A
330
3F7
100
AcDbEntity
  8
ｴｸｽﾃﾘｱ商品
 62
   255
370
    20
100
AcDbFaceRecord
 10
0.0
 20
0.0
 30
0.0
 70
   128
 71
     7
 72
    17
 73
    15
  0
VERTEX
  5
42B
330
3F7
100
AcDbEntity
  8
ｴｸｽﾃﾘｱ商品
 62
   255
370
    20
100
AcDbFaceRecord
 10
0.0
 20
0.0
 30
0.0
 70
   128
 71
     2
 72
    23
 73
    21
  0
VERTEX
  5
42C
330
3F7
100
AcDbEntity
  8
ｴｸｽﾃﾘｱ商品
 62
   255
370
    20
100
AcDbFaceRecord
 10
0.0
 20
0.0
 30
0.0
 70
   128
 71
     2
 72
    21
 73
     3
  0
VERTEX
  5
42D
330
3F7
100
AcDbEntity
  8
ｴｸｽﾃﾘｱ商品
 62
   255
370
    20
100
AcDbFaceRecord
 10
0.0
 20
0.0
 30
0.0
 70
   128
 71
     3
 72
    21
 73
     5
  0
VERTEX
  5
42E
330
3F7
100
AcDbEntity
  8
ｴｸｽﾃﾘｱ商品
 62
   255
370
    20
100
AcDbFaceRecord
 10
0.0
 20
0.0
 30
0.0
 70
   128
 71
     9
 72
     7
 73
    15
  0
VERTEX
  5
42F
330
3F7
100
AcDbEntity
  8
ｴｸｽﾃﾘｱ商品
 62
   255
370
    20
100
AcDbFaceRecord
 10
0.0
 20
0.0
 30
0.0
 70
   128
 71
     9
 72
    15
 73
    11
  0
VERTEX
  5
430
330
3F7
100
AcDbEntity
  8
ｴｸｽﾃﾘｱ商品
 62
   255
370
    20
100
AcDbFaceRecord
 10
0.0
 20
0.0
 30
0.0
 70
   128
 71
    11
 72
    15
 73
    13
  0
SEQEND
  5
3F8
330
3F7
100
AcDbEntity
  8
ｴｸｽﾃﾘｱ商品
370
    20
  0
POLYLINE
  5
431
330
3C
100
AcDbEntity
  8
ｴｸｽﾃﾘｱ商品
 62
   255
370
    20
100
AcDbPolyFaceMesh
 66
     1
 10
0.0
 20
0.0
 30
0.0
 70
    64
 71
    24
 72
    32
  0
VERTEX
  5
433
330
431
100
AcDbEntity
  8
ｴｸｽﾃﾘｱ商品
 62
   255
370
    20
100
AcDbVertex
100
AcDbPolyFaceMeshVertex
 10
4930.58755424743
 20
10627.95119722355
 30
2663.960848572464
 70
   192
  0
VERTEX
  5
434
330
431
100
AcDbEntity
  8
ｴｸｽﾃﾘｱ商品
 62
   255
370
    20
100
AcDbVertex
100
AcDbPolyFaceMeshVertex
 10
4930.587554247429
 20
5255.226111168893
 30
2476.341154299819
 70
   192
  0
VERTEX
  5
435
330
431
100
AcDbEntity
  8
ｴｸｽﾃﾘｱ商品
 62
   255
370
    20
100
AcDbVertex
100
AcDbPolyFaceMeshVertex
 10
4910.587554247429
 20
5255.226111168893
 30
2476.341154299819
 70
   192
  0
VERTEX
  5
436
330
431
100
AcDbEntity
  8
ｴｸｽﾃﾘｱ商品
 62
   255
370
    20
100
AcDbVertex
100
AcDbPolyFaceMeshVertex
 10
4910.58755424743
 20
10627.95119722355
 30
2663.960848572464
 70
   192
  0
VERTEX
  5
437
330
431
100
AcDbEntity
  8
ｴｸｽﾃﾘｱ商品
 62
   255
370
    20
100
AcDbVertex
100
AcDbPolyFaceMeshVertex
 10
4870.587554247429
 20
5252.434151432693
 30
2556.292420461346
 70
   192
  0
VERTEX
  5
438
330
431
100
AcDbEntity
  8
ｴｸｽﾃﾘｱ商品
 62
   255
370
    20
100
AcDbVertex
100
AcDbPolyFaceMeshVertex
 10
4870.58755424743
 20
10625.15923748735
 30
2743.912114733992
 70
   192
  0
VERTEX
  5
439
330
431
100
AcDbEntity
  8
ｴｸｽﾃﾘｱ商品
 62
   255
370
    20
100
AcDbVertex
100
AcDbPolyFaceMeshVertex
 10
4830.587554247429
 20
5252.434151432693
 30
2556.292420461346
 70
   192
  0
VERTEX
  5
43A
330
431
100
AcDbEntity
  8
ｴｸｽﾃﾘｱ商品
 62
   255
370
    20
100
AcDbVertex
100
AcDbPolyFaceMeshVertex
 10
4830.58755424743
 20
10625.15923748735
 30
2743.912114733992
 70
   192
  0
VERTEX
  5
43B
330
431
100
AcDbEntity
  8
ｴｸｽﾃﾘｱ商品
 62
   255
370
    20
100
AcDbVertex
100
AcDbPolyFaceMeshVertex
 10
4790.587554247429
 20
5255.226111168893
 30
2476.341154299819
 70
   192
  0
VERTEX
  5
43C
330
431
100
AcDbEntity
  8
ｴｸｽﾃﾘｱ商品
 62
   255
370
    20
100
AcDbVertex
100
AcDbPolyFaceMeshVertex
 10
4790.58755424743
 20
10627.95119722355
 30
2663.960848572464
 70
   192
  0
VERTEX
  5
43D
330
431
100
AcDbEntity
  8
ｴｸｽﾃﾘｱ商品
 62
   255
370
    20
100
AcDbVertex
100
AcDbPolyFaceMeshVertex
 10
4770.587554247429
 20
5255.226111168893
 30
2476.341154299819
 70
   192
  0
VERTEX
  5
43E
330
431
100
AcDbEntity
  8
ｴｸｽﾃﾘｱ商品
 62
   255
370
    20
100
AcDbVertex
100
AcDbPolyFaceMeshVertex
 10
4770.58755424743
 20
10627.95119722355
 30
2663.960848572464
 70
   192
  0
VERTEX
  5
43F
330
431
100
AcDbEntity
  8
ｴｸｽﾃﾘｱ商品
 62
   255
370
    20
100
AcDbVertex
100
AcDbPolyFaceMeshVertex
 10
4770.587554247429
 20
5254.528121234843
 30
2496.328970840201
 70
   192
  0
VERTEX
  5
440
330
431
100
AcDbEntity
  8
ｴｸｽﾃﾘｱ商品
 62
   255
370
    20
100
AcDbVertex
100
AcDbPolyFaceMeshVertex
 10
4770.58755424743
 20
10627.2532072895
 30
2683.948665112846
 70
   192
  0
VERTEX
  5
441
330
431
100
AcDbEntity
  8
ｴｸｽﾃﾘｱ商品
 62
   255
370
    20
100
AcDbVertex
100
AcDbPolyFaceMeshVertex
 10
4790.587554247429
 20
5254.528121234843
 30
2496.328970840201
 70
   192
  0
VERTEX
  5
442
330
431
100
AcDbEntity
  8
ｴｸｽﾃﾘｱ商品
 62
   255
370
    20
100
AcDbVertex
100
AcDbPolyFaceMeshVertex
 10
4790.58755424743
 20
10627.2532072895
 30
2683.948665112846
 70
   192
  0
VERTEX
  5
443
330
431
100
AcDbEntity
  8
ｴｸｽﾃﾘｱ商品
 62
   255
370
    20
100
AcDbVertex
100
AcDbPolyFaceMeshVertex
 10
4830.587554247429
 20
5251.736161498643
 30
2576.280237001728
 70
   192
  0
VERTEX
  5
444
330
431
100
AcDbEntity
  8
ｴｸｽﾃﾘｱ商品
 62
   255
370
    20
100
AcDbVertex
100
AcDbPolyFaceMeshVertex
 10
4830.58755424743
 20
10624.4612475533
 30
2763.899931274374
 70
   192
  0
VERTEX
  5
445
330
431
100
AcDbEntity
  8
ｴｸｽﾃﾘｱ商品
 62
   255
370
    20
100
AcDbVertex
100
AcDbPolyFaceMeshVertex
 10
4870.587554247429
 20
5251.736161498643
 30
2576.280237001728
 70
   192
  0
VERTEX
  5
446
330
431
100
AcDbEntity
  8
ｴｸｽﾃﾘｱ商品
 62
   255
370
    20
100
AcDbVertex
100
AcDbPolyFaceMeshVertex
 10
4870.58755424743
 20
10624.4612475533
 30
2763.899931274374
 70
   192
  0
VERTEX
  5
447
330
431
100
AcDbEntity
  8
ｴｸｽﾃﾘｱ商品
 62
   255
370
    20
100
AcDbVertex
100
AcDbPolyFaceMeshVertex
 10
4910.587554247429
 20
5254.528121234843
 30
2496.328970840201
 70
   192
  0
VERTEX
  5
448
330
431
100
AcDbEntity
  8
ｴｸｽﾃﾘｱ商品
 62
   255
370
    20
100
AcDbVertex
100
AcDbPolyFaceMeshVertex
 10
4910.58755424743
 20
10627.2532072895
 30
2683.948665112846
 70
   192
  0
VERTEX
  5
449
330
431
100
AcDbEntity
  8
ｴｸｽﾃﾘｱ商品
 62
   255
370
    20
100
AcDbVertex
100
AcDbPolyFaceMeshVertex
 10
4930.587554247429
 20
5254.528121234843
 30
2496.328970840201
 70
   192
  0
VERTEX
  5
44A
330
431
100
AcDbEntity
  8
ｴｸｽﾃﾘｱ商品
 62
   255
370
    20
100
AcDbVertex
100
AcDbPolyFaceMeshVertex
 10
4930.58755424743
 20
10627.2532072895
 30
2683.948665112846
 70
   192
  0
VERTEX
  5
44B
330
431
100
AcDbEntity
  8
ｴｸｽﾃﾘｱ商品
 62
   255
370
    20
100
AcDbFaceRecord
 10
0.0
 20
0.0
 30
0.0
 70
   128
 71
     1
 72
     2
 73
     3
 74
     4
  0
VERTEX
  5
44C
330
431
100
AcDbEntity
  8
ｴｸｽﾃﾘｱ商品
 62
   255
370
    20
100
AcDbFaceRecord
 10
0.0
 20
0.0
 30
0.0
 70
   128
 71
     4
 72
     3
 73
     5
 74
     6
  0
VERTEX
  5
44D
330
431
100
AcDbEntity
  8
ｴｸｽﾃﾘｱ商品
 62
   255
370
    20
100
AcDbFaceRecord
 10
0.0
 20
0.0
 30
0.0
 70
   128
 71
     6
 72
     5
 73
     7
 74
     8
  0
VERTEX
  5
44E
330
431
100
AcDbEntity
  8
ｴｸｽﾃﾘｱ商品
 62
   255
370
    20
100
AcDbFaceRecord
 10
0.0
 20
0.0
 30
0.0
 70
   128
 71
     8
 72
     7
 73
     9
 74
    10
  0
VERTEX
  5
44F
330
431
100
AcDbEntity
  8
ｴｸｽﾃﾘｱ商品
 62
   255
370
    20
100
AcDbFaceRecord
 10
0.0
 20
0.0
 30
0.0
 70
   128
 71
    10
 72
     9
 73
    11
 74
    12
  0
VERTEX
  5
450
330
431
100
AcDbEntity
  8
ｴｸｽﾃﾘｱ商品
 62
   255
370
    20
100
AcDbFaceRecord
 10
0.0
 20
0.0
 30
0.0
 70
   128
 71
    12
 72
    11
 73
    13
 74
    14
  0
VERTEX
  5
451
330
431
100
AcDbEntity
  8
ｴｸｽﾃﾘｱ商品
 62
   255
370
    20
100
AcDbFaceRecord
 10
0.0
 20
0.0
 30
0.0
 70
   128
 71
    14
 72
    13
 73
    15
 74
    16
  0
VERTEX
  5
452
330
431
100
AcDbEntity
  8
ｴｸｽﾃﾘｱ商品
 62
   255
370
    20
100
AcDbFaceRecord
 10
0.0
 20
0.0
 30
0.0
 70
   128
 71
    16
 72
    15
 73
    17
 74
    18
  0
VERTEX
  5
453
330
431
100
AcDbEntity
  8
ｴｸｽﾃﾘｱ商品
 62
   255
370
    20
100
AcDbFaceRecord
 10
0.0
 20
0.0
 30
0.0
 70
   128
 71
    18
 72
    17
 73
    19
 74
    20
  0
VERTEX
  5
454
330
431
100
AcDbEntity
  8
ｴｸｽﾃﾘｱ商品
 62
   255
370
    20
100
AcDbFaceRecord
 10
0.0
 20
0.0
 30
0.0
 70
   128
 71
    20
 72
    19
 73
    21
 74
    22
  0
VERTEX
  5
455
330
431
100
AcDbEntity
  8
ｴｸｽﾃﾘｱ商品
 62
   255
370
    20
100
AcDbFaceRecord
 10
0.0
 20
0.0
 30
0.0
 70
   128
 71
    22
 72
    21
 73
    23
 74
    24
  0
VERTEX
  5
456
330
431
100
AcDbEntity
  8
ｴｸｽﾃﾘｱ商品
 62
   255
370
    20
100
AcDbFaceRecord
 10
0.0
 20
0.0
 30
0.0
 70
   128
 71
    24
 72
    23
 73
     2
 74
     1
  0
VERTEX
  5
457
330
431
100
AcDbEntity
  8
ｴｸｽﾃﾘｱ商品
 62
   255
370
    20
100
AcDbFaceRecord
 10
0.0
 20
0.0
 30
0.0
 70
   128
 71
     6
 72
     8
 73
    18
  0
VERTEX
  5
458
330
431
100
AcDbEntity
  8
ｴｸｽﾃﾘｱ商品
 62
   255
370
    20
100
AcDbFaceRecord
 10
0.0
 20
0.0
 30
0.0
 70
   128
 71
     6
 72
    18
 73
    20
  0
VERTEX
  5
459
330
431
100
AcDbEntity
  8
ｴｸｽﾃﾘｱ商品
 62
   255
370
    20
100
AcDbFaceRecord
 10
0.0
 20
0.0
 30
0.0
 70
   128
 71
    16
 72
    18
 73
     8
  0
VERTEX
  5
45A
330
431
100
AcDbEntity
  8
ｴｸｽﾃﾘｱ商品
 62
   255
370
    20
100
AcDbFaceRecord
 10
0.0
 20
0.0
 30
0.0
 70
   128
 71
     6
 72
    20
 73
    22
  0
VERTEX
  5
45B
330
431
100
AcDbEntity
  8
ｴｸｽﾃﾘｱ商品
 62
   255
370
    20
100
AcDbFaceRecord
 10
0.0
 20
0.0
 30
0.0
 70
   128
 71
    12
 72
    14
 73
    16
  0
VERTEX
  5
45C
330
431
100
AcDbEntity
  8
ｴｸｽﾃﾘｱ商品
 62
   255
370
    20
100
AcDbFaceRecord
 10
0.0
 20
0.0
 30
0.0
 70
   128
 71
    12
 72
    16
 73
    10
  0
VERTEX
  5
45D
330
431
100
AcDbEntity
  8
ｴｸｽﾃﾘｱ商品
 62
   255
370
    20
100
AcDbFaceRecord
 10
0.0
 20
0.0
 30
0.0
 70
   128
 71
    10
 72
    16
 73
     8
  0
VERTEX
  5
45E
330
431
100
AcDbEntity
  8
ｴｸｽﾃﾘｱ商品
 62
   255
370
    20
100
AcDbFaceRecord
 10
0.0
 20
0.0
 30
0.0
 70
   128
 71
     4
 72
     6
 73
    22
  0
VERTEX
  5
45F
330
431
100
AcDbEntity
  8
ｴｸｽﾃﾘｱ商品
 62
   255
370
    20
100
AcDbFaceRecord
 10
0.0
 20
0.0
 30
0.0
 70
   128
 71
     4
 72
    22
 73
     1
  0
VERTEX
  5
460
330
431
100
AcDbEntity
  8
ｴｸｽﾃﾘｱ商品
 62
   255
370
    20
100
AcDbFaceRecord
 10
0.0
 20
0.0
 30
0.0
 70
   128
 71
     1
 72
    22
 73
    24
  0
VERTEX
  5
461
330
431
100
AcDbEntity
  8
ｴｸｽﾃﾘｱ商品
 62
   255
370
    20
100
AcDbFaceRecord
 10
0.0
 20
0.0
 30
0.0
 70
   128
 71
     7
 72
     5
 73
    19
  0
VERTEX
  5
462
330
431
100
AcDbEntity
  8
ｴｸｽﾃﾘｱ商品
 62
   255
370
    20
100
AcDbFaceRecord
 10
0.0
 20
0.0
 30
0.0
 70
   128
 71
     7
 72
    19
 73
    17
  0
VERTEX
  5
463
330
431
100
AcDbEntity
  8
ｴｸｽﾃﾘｱ商品
 62
   255
370
    20
100
AcDbFaceRecord
 10
0.0
 20
0.0
 30
0.0
 70
   128
 71
    21
 72
    19
 73
     5
  0
VERTEX
  5
464
330
431
100
AcDbEntity
  8
ｴｸｽﾃﾘｱ商品
 62
   255
370
    20
100
AcDbFaceRecord
 10
0.0
 20
0.0
 30
0.0
 70
   128
 71
     7
 72
    17
 73
    15
  0
VERTEX
  5
465
330
431
100
AcDbEntity
  8
ｴｸｽﾃﾘｱ商品
 62
   255
370
    20
100
AcDbFaceRecord
 10
0.0
 20
0.0
 30
0.0
 70
   128
 71
     2
 72
    23
 73
    21
  0
VERTEX
  5
466
330
431
100
AcDbEntity
  8
ｴｸｽﾃﾘｱ商品
 62
   255
370
    20
100
AcDbFaceRecord
 10
0.0
 20
0.0
 30
0.0
 70
   128
 71
     2
 72
    21
 73
     3
  0
VERTEX
  5
467
330
431
100
AcDbEntity
  8
ｴｸｽﾃﾘｱ商品
 62
   255
370
    20
100
AcDbFaceRecord
 10
0.0
 20
0.0
 30
0.0
 70
   128
 71
     3
 72
    21
 73
     5
  0
VERTEX
  5
468
330
431
100
AcDbEntity
  8
ｴｸｽﾃﾘｱ商品
 62
   255
370
    20
100
AcDbFaceRecord
 10
0.0
 20
0.0
 30
0.0
 70
   128
 71
     9
 72
     7
 73
    15
  0
VERTEX
  5
469
330
431
100
AcDbEntity
  8
ｴｸｽﾃﾘｱ商品
 62
   255
370
    20
100
AcDbFaceRecord
 10
0.0
 20
0.0
 30
0.0
 70
   128
 71
     9
 72
    15
 73
    11
  0
VERTEX
  5
46A
330
431
100
AcDbEntity
  8
ｴｸｽﾃﾘｱ商品
 62
   255
370
    20
100
AcDbFaceRecord
 10
0.0
 20
0.0
 30
0.0
 70
   128
 71
    11
 72
    15
 73
    13
  0
SEQEND
  5
432
330
431
100
AcDbEntity
  8
ｴｸｽﾃﾘｱ商品
370
    20
  0
POLYLINE
  5
46B
330
3C
100
AcDbEntity
  8
ｴｸｽﾃﾘｱ商品
 62
   255
370
    20
100
AcDbPolyFaceMesh
 66
     1
 10
0.0
 20
0.0
 30
0.0
 70
    64
 71
    24
 72
    32
  0
VERTEX
  5
46D
330
46B
100
AcDbEntity
  8
ｴｸｽﾃﾘｱ商品
 62
   255
370
    20
100
AcDbVertex
100
AcDbPolyFaceMeshVertex
 10
4770.58755424743
 20
10627.95119722355
 30
2663.960848572464
 70
   192
  0
VERTEX
  5
46E
330
46B
100
AcDbEntity
  8
ｴｸｽﾃﾘｱ商品
 62
   255
370
    20
100
AcDbVertex
100
AcDbPolyFaceMeshVertex
 10
4770.587554247429
 20
5255.226111168893
 30
2476.341154299819
 70
   192
  0
VERTEX
  5
46F
330
46B
100
AcDbEntity
  8
ｴｸｽﾃﾘｱ商品
 62
   255
370
    20
100
AcDbVertex
100
AcDbPolyFaceMeshVertex
 10
4750.587554247429
 20
5255.226111168893
 30
2476.341154299819
 70
   192
  0
VERTEX
  5
470
330
46B
100
AcDbEntity
  8
ｴｸｽﾃﾘｱ商品
 62
   255
370
    20
100
AcDbVertex
100
AcDbPolyFaceMeshVertex
 10
4750.58755424743
 20
10627.95119722355
 30
2663.960848572464
 70
   192
  0
VERTEX
  5
471
330
46B
100
AcDbEntity
  8
ｴｸｽﾃﾘｱ商品
 62
   255
370
    20
100
AcDbVertex
100
AcDbPolyFaceMeshVertex
 10
4710.587554247429
 20
5252.434151432693
 30
2556.292420461346
 70
   192
  0
VERTEX
  5
472
330
46B
100
AcDbEntity
  8
ｴｸｽﾃﾘｱ商品
 62
   255
370
    20
100
AcDbVertex
100
AcDbPolyFaceMeshVertex
 10
4710.58755424743
 20
10625.15923748735
 30
2743.912114733992
 70
   192
  0
VERTEX
  5
473
330
46B
100
AcDbEntity
  8
ｴｸｽﾃﾘｱ商品
 62
   255
370
    20
100
AcDbVertex
100
AcDbPolyFaceMeshVertex
 10
4670.587554247429
 20
5252.434151432693
 30
2556.292420461346
 70
   192
  0
VERTEX
  5
474
330
46B
100
AcDbEntity
  8
ｴｸｽﾃﾘｱ商品
 62
   255
370
    20
100
AcDbVertex
100
AcDbPolyFaceMeshVertex
 10
4670.58755424743
 20
10625.15923748735
 30
2743.912114733992
 70
   192
  0
VERTEX
  5
475
330
46B
100
AcDbEntity
  8
ｴｸｽﾃﾘｱ商品
 62
   255
370
    20
100
AcDbVertex
100
AcDbPolyFaceMeshVertex
 10
4630.587554247429
 20
5255.226111168893
 30
2476.341154299819
 70
   192
  0
VERTEX
  5
476
330
46B
100
AcDbEntity
  8
ｴｸｽﾃﾘｱ商品
 62
   255
370
    20
100
AcDbVertex
100
AcDbPolyFaceMeshVertex
 10
4630.58755424743
 20
10627.95119722355
 30
2663.960848572464
 70
   192
  0
VERTEX
  5
477
330
46B
100
AcDbEntity
  8
ｴｸｽﾃﾘｱ商品
 62
   255
370
    20
100
AcDbVertex
100
AcDbPolyFaceMeshVertex
 10
4610.587554247428
 20
5255.226111168893
 30
2476.341154299819
 70
   192
  0
VERTEX
  5
478
330
46B
100
AcDbEntity
  8
ｴｸｽﾃﾘｱ商品
 62
   255
370
    20
100
AcDbVertex
100
AcDbPolyFaceMeshVertex
 10
4610.587554247429
 20
10627.95119722355
 30
2663.960848572464
 70
   192
  0
VERTEX
  5
479
330
46B
100
AcDbEntity
  8
ｴｸｽﾃﾘｱ商品
 62
   255
370
    20
100
AcDbVertex
100
AcDbPolyFaceMeshVertex
 10
4610.587554247428
 20
5254.528121234843
 30
2496.328970840201
 70
   192
  0
VERTEX
  5
47A
330
46B
100
AcDbEntity
  8
ｴｸｽﾃﾘｱ商品
 62
   255
370
    20
100
AcDbVertex
100
AcDbPolyFaceMeshVertex
 10
4610.587554247429
 20
10627.2532072895
 30
2683.948665112846
 70
   192
  0
VERTEX
  5
47B
330
46B
100
AcDbEntity
  8
ｴｸｽﾃﾘｱ商品
 62
   255
370
    20
100
AcDbVertex
100
AcDbPolyFaceMeshVertex
 10
4630.587554247429
 20
5254.528121234843
 30
2496.328970840201
 70
   192
  0
VERTEX
  5
47C
330
46B
100
AcDbEntity
  8
ｴｸｽﾃﾘｱ商品
 62
   255
370
    20
100
AcDbVertex
100
AcDbPolyFaceMeshVertex
 10
4630.58755424743
 20
10627.2532072895
 30
2683.948665112846
 70
   192
  0
VERTEX
  5
47D
330
46B
100
AcDbEntity
  8
ｴｸｽﾃﾘｱ商品
 62
   255
370
    20
100
AcDbVertex
100
AcDbPolyFaceMeshVertex
 10
4670.587554247429
 20
5251.736161498643
 30
2576.280237001728
 70
   192
  0
VERTEX
  5
47E
330
46B
100
AcDbEntity
  8
ｴｸｽﾃﾘｱ商品
 62
   255
370
    20
100
AcDbVertex
100
AcDbPolyFaceMeshVertex
 10
4670.58755424743
 20
10624.4612475533
 30
2763.899931274374
 70
   192
  0
VERTEX
  5
47F
330
46B
100
AcDbEntity
  8
ｴｸｽﾃﾘｱ商品
 62
   255
370
    20
100
AcDbVertex
100
AcDbPolyFaceMeshVertex
 10
4710.587554247429
 20
5251.736161498643
 30
2576.280237001728
 70
   192
  0
VERTEX
  5
480
330
46B
100
AcDbEntity
  8
ｴｸｽﾃﾘｱ商品
 62
   255
370
    20
100
AcDbVertex
100
AcDbPolyFaceMeshVertex
 10
4710.58755424743
 20
10624.4612475533
 30
2763.899931274374
 70
   192
  0
VERTEX
  5
481
330
46B
100
AcDbEntity
  8
ｴｸｽﾃﾘｱ商品
 62
   255
370
    20
100
AcDbVertex
100
AcDbPolyFaceMeshVertex
 10
4750.587554247429
 20
5254.528121234843
 30
2496.328970840201
 70
   192
  0
VERTEX
  5
482
330
46B
100
AcDbEntity
  8
ｴｸｽﾃﾘｱ商品
 62
   255
370
    20
100
AcDbVertex
100
AcDbPolyFaceMeshVertex
 10
4750.58755424743
 20
10627.2532072895
 30
2683.948665112846
 70
   192
  0
VERTEX
  5
483
330
46B
100
AcDbEntity
  8
ｴｸｽﾃﾘｱ商品
 62
   255
370
    20
100
AcDbVertex
100
AcDbPolyFaceMeshVertex
 10
4770.587554247429
 20
5254.528121234843
 30
2496.328970840201
 70
   192
  0
VERTEX
  5
484
330
46B
100
AcDbEntity
  8
ｴｸｽﾃﾘｱ商品
 62
   255
370
    20
100
AcDbVertex
100
AcDbPolyFaceMeshVertex
 10
4770.58755424743
 20
10627.2532072895
 30
2683.948665112846
 70
   192
  0
VERTEX
  5
485
330
46B
100
AcDbEntity
  8
ｴｸｽﾃﾘｱ商品
 62
   255
370
    20
100
AcDbFaceRecord
 10
0.0
 20
0.0
 30
0.0
 70
   128
 71
     1
 72
     2
 73
     3
 74
     4
  0
VERTEX
  5
486
330
46B
100
AcDbEntity
  8
ｴｸｽﾃﾘｱ商品
 62
   255
370
    20
100
AcDbFaceRecord
 10
0.0
 20
0.0
 30
0.0
 70
   128
 71
     4
 72
     3
 73
     5
 74
     6
  0
VERTEX
  5
487
330
46B
100
AcDbEntity
  8
ｴｸｽﾃﾘｱ商品
 62
   255
370
    20
100
AcDbFaceRecord
 10
0.0
 20
0.0
 30
0.0
 70
   128
 71
     6
 72
     5
 73
     7
 74
     8
  0
VERTEX
  5
488
330
46B
100
AcDbEntity
  8
ｴｸｽﾃﾘｱ商品
 62
   255
370
    20
100
AcDbFaceRecord
 10
0.0
 20
0.0
 30
0.0
 70
   128
 71
     8
 72
     7
 73
     9
 74
    10
  0
VERTEX
  5
489
330
46B
100
AcDbEntity
  8
ｴｸｽﾃﾘｱ商品
 62
   255
370
    20
100
AcDbFaceRecord
 10
0.0
 20
0.0
 30
0.0
 70
   128
 71
    10
 72
     9
 73
    11
 74
    12
  0
VERTEX
  5
48A
330
46B
100
AcDbEntity
  8
ｴｸｽﾃﾘｱ商品
 62
   255
370
    20
100
AcDbFaceRecord
 10
0.0
 20
0.0
 30
0.0
 70
   128
 71
    12
 72
    11
 73
    13
 74
    14
  0
VERTEX
  5
48B
330
46B
100
AcDbEntity
  8
ｴｸｽﾃﾘｱ商品
 62
   255
370
    20
100
AcDbFaceRecord
 10
0.0
 20
0.0
 30
0.0
 70
   128
 71
    14
 72
    13
 73
    15
 74
    16
  0
VERTEX
  5
48C
330
46B
100
AcDbEntity
  8
ｴｸｽﾃﾘｱ商品
 62
   255
370
    20
100
AcDbFaceRecord
 10
0.0
 20
0.0
 30
0.0
 70
   128
 71
    16
 72
    15
 73
    17
 74
    18
  0
VERTEX
  5
48D
330
46B
100
AcDbEntity
  8
ｴｸｽﾃﾘｱ商品
 62
   255
370
    20
100
AcDbFaceRecord
 10
0.0
 20
0.0
 30
0.0
 70
   128
 71
    18
 72
    17
 73
    19
 74
    20
  0
VERTEX
  5
48E
330
46B
100
AcDbEntity
  8
ｴｸｽﾃﾘｱ商品
 62
   255
370
    20
100
AcDbFaceRecord
 10
0.0
 20
0.0
 30
0.0
 70
   128
 71
    20
 72
    19
 73
    21
 74
    22
  0
VERTEX
  5
48F
330
46B
100
AcDbEntity
  8
ｴｸｽﾃﾘｱ商品
 62
   255
370
    20
100
AcDbFaceRecord
 10
0.0
 20
0.0
 30
0.0
 70
   128
 71
    22
 72
    21
 73
    23
 74
    24
  0
VERTEX
  5
490
330
46B
100
AcDbEntity
  8
ｴｸｽﾃﾘｱ商品
 62
   255
370
    20
100
AcDbFaceRecord
 10
0.0
 20
0.0
 30
0.0
 70
   128
 71
    24
 72
    23
 73
     2
 74
     1
  0
VERTEX
  5
491
330
46B
100
AcDbEntity
  8
ｴｸｽﾃﾘｱ商品
 62
   255
370
    20
100
AcDbFaceRecord
 10
0.0
 20
0.0
 30
0.0
 70
   128
 71
     6
 72
     8
 73
    18
  0
VERTEX
  5
492
330
46B
100
AcDbEntity
  8
ｴｸｽﾃﾘｱ商品
 62
   255
370
    20
100
AcDbFaceRecord
 10
0.0
 20
0.0
 30
0.0
 70
   128
 71
     6
 72
    18
 73
    20
  0
VERTEX
  5
493
330
46B
100
AcDbEntity
  8
ｴｸｽﾃﾘｱ商品
 62
   255
370
    20
100
AcDbFaceRecord
 10
0.0
 20
0.0
 30
0.0
 70
   128
 71
    16
 72
    18
 73
     8
  0
VERTEX
  5
494
330
46B
100
AcDbEntity
  8
ｴｸｽﾃﾘｱ商品
 62
   255
370
    20
100
AcDbFaceRecord
 10
0.0
 20
0.0
 30
0.0
 70
   128
 71
     6
 72
    20
 73
    22
  0
VERTEX
  5
495
330
46B
100
AcDbEntity
  8
ｴｸｽﾃﾘｱ商品
 62
   255
370
    20
100
AcDbFaceRecord
 10
0.0
 20
0.0
 30
0.0
 70
   128
 71
    12
 72
    14
 73
    16
  0
VERTEX
  5
496
330
46B
100
AcDbEntity
  8
ｴｸｽﾃﾘｱ商品
 62
   255
370
    20
100
AcDbFaceRecord
 10
0.0
 20
0.0
 30
0.0
 70
   128
 71
    12
 72
    16
 73
    10
  0
VERTEX
  5
497
330
46B
100
AcDbEntity
  8
ｴｸｽﾃﾘｱ商品
 62
   255
370
    20
100
AcDbFaceRecord
 10
0.0
 20
0.0
 30
0.0
 70
   128
 71
    10
 72
    16
 73
     8
  0
VERTEX
  5
498
330
46B
100
AcDbEntity
  8
ｴｸｽﾃﾘｱ商品
 62
   255
370
    20
100
AcDbFaceRecord
 10
0.0
 20
0.0
 30
0.0
 70
   128
 71
     4
 72
     6
 73
    22
  0
VERTEX
  5
499
330
46B
100
AcDbEntity
  8
ｴｸｽﾃﾘｱ商品
 62
   255
370
    20
100
AcDbFaceRecord
 10
0.0
 20
0.0
 30
0.0
 70
   128
 71
     4
 72
    22
 73
     1
  0
VERTEX
  5
49A
330
46B
100
AcDbEntity
  8
ｴｸｽﾃﾘｱ商品
 62
   255
370
    20
100
AcDbFaceRecord
 10
0.0
 20
0.0
 30
0.0
 70
   128
 71
     1
 72
    22
 73
    24
  0
VERTEX
  5
49B
330
46B
100
AcDbEntity
  8
ｴｸｽﾃﾘｱ商品
 62
   255
370
    20
100
AcDbFaceRecord
 10
0.0
 20
0.0
 30
0.0
 70
   128
 71
     7
 72
     5
 73
    19
  0
VERTEX
  5
49C
330
46B
100
AcDbEntity
  8
ｴｸｽﾃﾘｱ商品
 62
   255
370
    20
100
AcDbFaceRecord
 10
0.0
 20
0.0
 30
0.0
 70
   128
 71
     7
 72
    19
 73
    17
  0
VERTEX
  5
49D
330
46B
100
AcDbEntity
  8
ｴｸｽﾃﾘｱ商品
 62
   255
370
    20
100
AcDbFaceRecord
 10
0.0
 20
0.0
 30
0.0
 70
   128
 71
    21
 72
    19
 73
     5
  0
VERTEX
  5
49E
330
46B
100
AcDbEntity
  8
ｴｸｽﾃﾘｱ商品
 62
   255
370
    20
100
AcDbFaceRecord
 10
0.0
 20
0.0
 30
0.0
 70
   128
 71
     7
 72
    17
 73
    15
  0
VERTEX
  5
49F
330
46B
100
AcDbEntity
  8
ｴｸｽﾃﾘｱ商品
 62
   255
370
    20
100
AcDbFaceRecord
 10
0.0
 20
0.0
 30
0.0
 70
   128
 71
     2
 72
    23
 73
    21
  0
VERTEX
  5
4A0
330
46B
100
AcDbEntity
  8
ｴｸｽﾃﾘｱ商品
 62
   255
370
    20
100
AcDbFaceRecord
 10
0.0
 20
0.0
 30
0.0
 70
   128
 71
     2
 72
    21
 73
     3
  0
VERTEX
  5
4A1
330
46B
100
AcDbEntity
  8
ｴｸｽﾃﾘｱ商品
 62
   255
370
    20
100
AcDbFaceRecord
 10
0.0
 20
0.0
 30
0.0
 70
   128
 71
     3
 72
    21
 73
     5
  0
VERTEX
  5
4A2
330
46B
100
AcDbEntity
  8
ｴｸｽﾃﾘｱ商品
 62
   255
370
    20
100
AcDbFaceRecord
 10
0.0
 20
0.0
 30
0.0
 70
   128
 71
     9
 72
     7
 73
    15
  0
VERTEX
  5
4A3
330
46B
100
AcDbEntity
  8
ｴｸｽﾃﾘｱ商品
 62
   255
370
    20
100
AcDbFaceRecord
 10
0.0
 20
0.0
 30
0.0
 70
   128
 71
     9
 72
    15
 73
    11
  0
VERTEX
  5
4A4
330
46B
100
AcDbEntity
  8
ｴｸｽﾃﾘｱ商品
 62
   255
370
    20
100
AcDbFaceRecord
 10
0.0
 20
0.0
 30
0.0
 70
   128
 71
    11
 72
    15
 73
    13
  0
SEQEND
  5
46C
330
46B
100
AcDbEntity
  8
ｴｸｽﾃﾘｱ商品
370
    20
  0
POLYLINE
  5
4A5
330
3C
100
AcDbEntity
  8
ｴｸｽﾃﾘｱ商品
 62
   255
370
    20
100
AcDbPolyFaceMesh
 66
     1
 10
0.0
 20
0.0
 30
0.0
 70
    64
 71
    24
 72
    32
  0
VERTEX
  5
4A7
330
4A5
100
AcDbEntity
  8
ｴｸｽﾃﾘｱ商品
 62
   255
370
    20
100
AcDbVertex
100
AcDbPolyFaceMeshVertex
 10
4610.587554247429
 20
10627.95119722355
 30
2663.960848572464
 70
   192
  0
VERTEX
  5
4A8
330
4A5
100
AcDbEntity
  8
ｴｸｽﾃﾘｱ商品
 62
   255
370
    20
100
AcDbVertex
100
AcDbPolyFaceMeshVertex
 10
4610.587554247428
 20
5255.226111168893
 30
2476.341154299819
 70
   192
  0
VERTEX
  5
4A9
330
4A5
100
AcDbEntity
  8
ｴｸｽﾃﾘｱ商品
 62
   255
370
    20
100
AcDbVertex
100
AcDbPolyFaceMeshVertex
 10
4590.587554247429
 20
5255.226111168893
 30
2476.341154299819
 70
   192
  0
VERTEX
  5
4AA
330
4A5
100
AcDbEntity
  8
ｴｸｽﾃﾘｱ商品
 62
   255
370
    20
100
AcDbVertex
100
AcDbPolyFaceMeshVertex
 10
4590.58755424743
 20
10627.95119722355
 30
2663.960848572464
 70
   192
  0
VERTEX
  5
4AB
330
4A5
100
AcDbEntity
  8
ｴｸｽﾃﾘｱ商品
 62
   255
370
    20
100
AcDbVertex
100
AcDbPolyFaceMeshVertex
 10
4550.587554247429
 20
5252.434151432693
 30
2556.292420461346
 70
   192
  0
VERTEX
  5
4AC
330
4A5
100
AcDbEntity
  8
ｴｸｽﾃﾘｱ商品
 62
   255
370
    20
100
AcDbVertex
100
AcDbPolyFaceMeshVertex
 10
4550.58755424743
 20
10625.15923748735
 30
2743.912114733992
 70
   192
  0
VERTEX
  5
4AD
330
4A5
100
AcDbEntity
  8
ｴｸｽﾃﾘｱ商品
 62
   255
370
    20
100
AcDbVertex
100
AcDbPolyFaceMeshVertex
 10
4510.587554247429
 20
5252.434151432693
 30
2556.292420461346
 70
   192
  0
VERTEX
  5
4AE
330
4A5
100
AcDbEntity
  8
ｴｸｽﾃﾘｱ商品
 62
   255
370
    20
100
AcDbVertex
100
AcDbPolyFaceMeshVertex
 10
4510.58755424743
 20
10625.15923748735
 30
2743.912114733992
 70
   192
  0
VERTEX
  5
4AF
330
4A5
100
AcDbEntity
  8
ｴｸｽﾃﾘｱ商品
 62
   255
370
    20
100
AcDbVertex
100
AcDbPolyFaceMeshVertex
 10
4470.587554247429
 20
5255.226111168893
 30
2476.341154299819
 70
   192
  0
VERTEX
  5
4B0
330
4A5
100
AcDbEntity
  8
ｴｸｽﾃﾘｱ商品
 62
   255
370
    20
100
AcDbVertex
100
AcDbPolyFaceMeshVertex
 10
4470.58755424743
 20
10627.95119722355
 30
2663.960848572464
 70
   192
  0
VERTEX
  5
4B1
330
4A5
100
AcDbEntity
  8
ｴｸｽﾃﾘｱ商品
 62
   255
370
    20
100
AcDbVertex
100
AcDbPolyFaceMeshVertex
 10
4450.587554247428
 20
5255.226111168893
 30
2476.341154299819
 70
   192
  0
VERTEX
  5
4B2
330
4A5
100
AcDbEntity
  8
ｴｸｽﾃﾘｱ商品
 62
   255
370
    20
100
AcDbVertex
100
AcDbPolyFaceMeshVertex
 10
4450.587554247429
 20
10627.95119722355
 30
2663.960848572464
 70
   192
  0
VERTEX
  5
4B3
330
4A5
100
AcDbEntity
  8
ｴｸｽﾃﾘｱ商品
 62
   255
370
    20
100
AcDbVertex
100
AcDbPolyFaceMeshVertex
 10
4450.587554247428
 20
5254.528121234843
 30
2496.328970840201
 70
   192
  0
VERTEX
  5
4B4
330
4A5
100
AcDbEntity
  8
ｴｸｽﾃﾘｱ商品
 62
   255
370
    20
100
AcDbVertex
100
AcDbPolyFaceMeshVertex
 10
4450.587554247429
 20
10627.2532072895
 30
2683.948665112846
 70
   192
  0
VERTEX
  5
4B5
330
4A5
100
AcDbEntity
  8
ｴｸｽﾃﾘｱ商品
 62
   255
370
    20
100
AcDbVertex
100
AcDbPolyFaceMeshVertex
 10
4470.587554247429
 20
5254.528121234843
 30
2496.328970840201
 70
   192
  0
VERTEX
  5
4B6
330
4A5
100
AcDbEntity
  8
ｴｸｽﾃﾘｱ商品
 62
   255
370
    20
100
AcDbVertex
100
AcDbPolyFaceMeshVertex
 10
4470.58755424743
 20
10627.2532072895
 30
2683.948665112846
 70
   192
  0
VERTEX
  5
4B7
330
4A5
100
AcDbEntity
  8
ｴｸｽﾃﾘｱ商品
 62
   255
370
    20
100
AcDbVertex
100
AcDbPolyFaceMeshVertex
 10
4510.587554247429
 20
5251.736161498643
 30
2576.280237001728
 70
   192
  0
VERTEX
  5
4B8
330
4A5
100
AcDbEntity
  8
ｴｸｽﾃﾘｱ商品
 62
   255
370
    20
100
AcDbVertex
100
AcDbPolyFaceMeshVertex
 10
4510.58755424743
 20
10624.4612475533
 30
2763.899931274374
 70
   192
  0
VERTEX
  5
4B9
330
4A5
100
AcDbEntity
  8
ｴｸｽﾃﾘｱ商品
 62
   255
370
    20
100
AcDbVertex
100
AcDbPolyFaceMeshVertex
 10
4550.587554247429
 20
5251.736161498643
 30
2576.280237001728
 70
   192
  0
VERTEX
  5
4BA
330
4A5
100
AcDbEntity
  8
ｴｸｽﾃﾘｱ商品
 62
   255
370
    20
100
AcDbVertex
100
AcDbPolyFaceMeshVertex
 10
4550.58755424743
 20
10624.4612475533
 30
2763.899931274374
 70
   192
  0
VERTEX
  5
4BB
330
4A5
100
AcDbEntity
  8
ｴｸｽﾃﾘｱ商品
 62
   255
370
    20
100
AcDbVertex
100
AcDbPolyFaceMeshVertex
 10
4590.587554247429
 20
5254.528121234843
 30
2496.328970840201
 70
   192
  0
VERTEX
  5
4BC
330
4A5
100
AcDbEntity
  8
ｴｸｽﾃﾘｱ商品
 62
   255
370
    20
100
AcDbVertex
100
AcDbPolyFaceMeshVertex
 10
4590.58755424743
 20
10627.2532072895
 30
2683.948665112846
 70
   192
  0
VERTEX
  5
4BD
330
4A5
100
AcDbEntity
  8
ｴｸｽﾃﾘｱ商品
 62
   255
370
    20
100
AcDbVertex
100
AcDbPolyFaceMeshVertex
 10
4610.587554247428
 20
5254.528121234843
 30
2496.328970840201
 70
   192
  0
VERTEX
  5
4BE
330
4A5
100
AcDbEntity
  8
ｴｸｽﾃﾘｱ商品
 62
   255
370
    20
100
AcDbVertex
100
AcDbPolyFaceMeshVertex
 10
4610.587554247429
 20
10627.2532072895
 30
2683.948665112846
 70
   192
  0
VERTEX
  5
4BF
330
4A5
100
AcDbEntity
  8
ｴｸｽﾃﾘｱ商品
 62
   255
370
    20
100
AcDbFaceRecord
 10
0.0
 20
0.0
 30
0.0
 70
   128
 71
     1
 72
     2
 73
     3
 74
     4
  0
VERTEX
  5
4C0
330
4A5
100
AcDbEntity
  8
ｴｸｽﾃﾘｱ商品
 62
   255
370
    20
100
AcDbFaceRecord
 10
0.0
 20
0.0
 30
0.0
 70
   128
 71
     4
 72
     3
 73
     5
 74
     6
  0
VERTEX
  5
4C1
330
4A5
100
AcDbEntity
  8
ｴｸｽﾃﾘｱ商品
 62
   255
370
    20
100
AcDbFaceRecord
 10
0.0
 20
0.0
 30
0.0
 70
   128
 71
     6
 72
     5
 73
     7
 74
     8
  0
VERTEX
  5
4C2
330
4A5
100
AcDbEntity
  8
ｴｸｽﾃﾘｱ商品
 62
   255
370
    20
100
AcDbFaceRecord
 10
0.0
 20
0.0
 30
0.0
 70
   128
 71
     8
 72
     7
 73
     9
 74
    10
  0
VERTEX
  5
4C3
330
4A5
100
AcDbEntity
  8
ｴｸｽﾃﾘｱ商品
 62
   255
370
    20
100
AcDbFaceRecord
 10
0.0
 20
0.0
 30
0.0
 70
   128
 71
    10
 72
     9
 73
    11
 74
    12
  0
VERTEX
  5
4C4
330
4A5
100
AcDbEntity
  8
ｴｸｽﾃﾘｱ商品
 62
   255
370
    20
100
AcDbFaceRecord
 10
0.0
 20
0.0
 30
0.0
 70
   128
 71
    12
 72
    11
 73
    13
 74
    14
  0
VERTEX
  5
4C5
330
4A5
100
AcDbEntity
  8
ｴｸｽﾃﾘｱ商品
 62
   255
370
    20
100
AcDbFaceRecord
 10
0.0
 20
0.0
 30
0.0
 70
   128
 71
    14
 72
    13
 73
    15
 74
    16
  0
VERTEX
  5
4C6
330
4A5
100
AcDbEntity
  8
ｴｸｽﾃﾘｱ商品
 62
   255
370
    20
100
AcDbFaceRecord
 10
0.0
 20
0.0
 30
0.0
 70
   128
 71
    16
 72
    15
 73
    17
 74
    18
  0
VERTEX
  5
4C7
330
4A5
100
AcDbEntity
  8
ｴｸｽﾃﾘｱ商品
 62
   255
370
    20
100
AcDbFaceRecord
 10
0.0
 20
0.0
 30
0.0
 70
   128
 71
    18
 72
    17
 73
    19
 74
    20
  0
VERTEX
  5
4C8
330
4A5
100
AcDbEntity
  8
ｴｸｽﾃﾘｱ商品
 62
   255
370
    20
100
AcDbFaceRecord
 10
0.0
 20
0.0
 30
0.0
 70
   128
 71
    20
 72
    19
 73
    21
 74
    22
  0
VERTEX
  5
4C9
330
4A5
100
AcDbEntity
  8
ｴｸｽﾃﾘｱ商品
 62
   255
370
    20
100
AcDbFaceRecord
 10
0.0
 20
0.0
 30
0.0
 70
   128
 71
    22
 72
    21
 73
    23
 74
    24
  0
VERTEX
  5
4CA
330
4A5
100
AcDbEntity
  8
ｴｸｽﾃﾘｱ商品
 62
   255
370
    20
100
AcDbFaceRecord
 10
0.0
 20
0.0
 30
0.0
 70
   128
 71
    24
 72
    23
 73
     2
 74
     1
  0
VERTEX
  5
4CB
330
4A5
100
AcDbEntity
  8
ｴｸｽﾃﾘｱ商品
 62
   255
370
    20
100
AcDbFaceRecord
 10
0.0
 20
0.0
 30
0.0
 70
   128
 71
     6
 72
     8
 73
    18
  0
VERTEX
  5
4CC
330
4A5
100
AcDbEntity
  8
ｴｸｽﾃﾘｱ商品
 62
   255
370
    20
100
AcDbFaceRecord
 10
0.0
 20
0.0
 30
0.0
 70
   128
 71
     6
 72
    18
 73
    20
  0
VERTEX
  5
4CD
330
4A5
100
AcDbEntity
  8
ｴｸｽﾃﾘｱ商品
 62
   255
370
    20
100
AcDbFaceRecord
 10
0.0
 20
0.0
 30
0.0
 70
   128
 71
    16
 72
    18
 73
     8
  0
VERTEX
  5
4CE
330
4A5
100
AcDbEntity
  8
ｴｸｽﾃﾘｱ商品
 62
   255
370
    20
100
AcDbFaceRecord
 10
0.0
 20
0.0
 30
0.0
 70
   128
 71
     6
 72
    20
 73
    22
  0
VERTEX
  5
4CF
330
4A5
100
AcDbEntity
  8
ｴｸｽﾃﾘｱ商品
 62
   255
370
    20
100
AcDbFaceRecord
 10
0.0
 20
0.0
 30
0.0
 70
   128
 71
    12
 72
    14
 73
    16
  0
VERTEX
  5
4D0
330
4A5
100
AcDbEntity
  8
ｴｸｽﾃﾘｱ商品
 62
   255
370
    20
100
AcDbFaceRecord
 10
0.0
 20
0.0
 30
0.0
 70
   128
 71
    12
 72
    16
 73
    10
  0
VERTEX
  5
4D1
330
4A5
100
AcDbEntity
  8
ｴｸｽﾃﾘｱ商品
 62
   255
370
    20
100
AcDbFaceRecord
 10
0.0
 20
0.0
 30
0.0
 70
   128
 71
    10
 72
    16
 73
     8
  0
VERTEX
  5
4D2
330
4A5
100
AcDbEntity
  8
ｴｸｽﾃﾘｱ商品
 62
   255
370
    20
100
AcDbFaceRecord
 10
0.0
 20
0.0
 30
0.0
 70
   128
 71
     4
 72
     6
 73
    22
  0
VERTEX
  5
4D3
330
4A5
100
AcDbEntity
  8
ｴｸｽﾃﾘｱ商品
 62
   255
370
    20
100
AcDbFaceRecord
 10
0.0
 20
0.0
 30
0.0
 70
   128
 71
     4
 72
    22
 73
     1
  0
VERTEX
  5
4D4
330
4A5
100
AcDbEntity
  8
ｴｸｽﾃﾘｱ商品
 62
   255
370
    20
100
AcDbFaceRecord
 10
0.0
 20
0.0
 30
0.0
 70
   128
 71
     1
 72
    22
 73
    24
  0
VERTEX
  5
4D5
330
4A5
100
AcDbEntity
  8
ｴｸｽﾃﾘｱ商品
 62
   255
370
    20
100
AcDbFaceRecord
 10
0.0
 20
0.0
 30
0.0
 70
   128
 71
     7
 72
     5
 73
    19
  0
VERTEX
  5
4D6
330
4A5
100
AcDbEntity
  8
ｴｸｽﾃﾘｱ商品
 62
   255
370
    20
100
AcDbFaceRecord
 10
0.0
 20
0.0
 30
0.0
 70
   128
 71
     7
 72
    19
 73
    17
  0
VERTEX
  5
4D7
330
4A5
100
AcDbEntity
  8
ｴｸｽﾃﾘｱ商品
 62
   255
370
    20
100
AcDbFaceRecord
 10
0.0
 20
0.0
 30
0.0
 70
   128
 71
    21
 72
    19
 73
     5
  0
VERTEX
  5
4D8
330
4A5
100
AcDbEntity
  8
ｴｸｽﾃﾘｱ商品
 62
   255
370
    20
100
AcDbFaceRecord
 10
0.0
 20
0.0
 30
0.0
 70
   128
 71
     7
 72
    17
 73
    15
  0
VERTEX
  5
4D9
330
4A5
100
AcDbEntity
  8
ｴｸｽﾃﾘｱ商品
 62
   255
370
    20
100
AcDbFaceRecord
 10
0.0
 20
0.0
 30
0.0
 70
   128
 71
     2
 72
    23
 73
    21
  0
VERTEX
  5
4DA
330
4A5
100
AcDbEntity
  8
ｴｸｽﾃﾘｱ商品
 62
   255
370
    20
100
AcDbFaceRecord
 10
0.0
 20
0.0
 30
0.0
 70
   128
 71
     2
 72
    21
 73
     3
  0
VERTEX
  5
4DB
330
4A5
100
AcDbEntity
  8
ｴｸｽﾃﾘｱ商品
 62
   255
370
    20
100
AcDbFaceRecord
 10
0.0
 20
0.0
 30
0.0
 70
   128
 71
     3
 72
    21
 73
     5
  0
VERTEX
  5
4DC
330
4A5
100
AcDbEntity
  8
ｴｸｽﾃﾘｱ商品
 62
   255
370
    20
100
AcDbFaceRecord
 10
0.0
 20
0.0
 30
0.0
 70
   128
 71
     9
 72
     7
 73
    15
  0
VERTEX
  5
4DD
330
4A5
100
AcDbEntity
  8
ｴｸｽﾃﾘｱ商品
 62
   255
370
    20
100
AcDbFaceRecord
 10
0.0
 20
0.0
 30
0.0
 70
   128
 71
     9
 72
    15
 73
    11
  0
VERTEX
  5
4DE
330
4A5
100
AcDbEntity
  8
ｴｸｽﾃﾘｱ商品
 62
   255
370
    20
100
AcDbFaceRecord
 10
0.0
 20
0.0
 30
0.0
 70
   128
 71
    11
 72
    15
 73
    13
  0
SEQEND
  5
4A6
330
4A5
100
AcDbEntity
  8
ｴｸｽﾃﾘｱ商品
370
    20
  0
POLYLINE
  5
4DF
330
3C
100
AcDbEntity
  8
ｴｸｽﾃﾘｱ商品
 62
   255
370
    20
100
AcDbPolyFaceMesh
 66
     1
 10
0.0
 20
0.0
 30
0.0
 70
    64
 71
    24
 72
    32
  0
VERTEX
  5
4E1
330
4DF
100
AcDbEntity
  8
ｴｸｽﾃﾘｱ商品
 62
   255
370
    20
100
AcDbVertex
100
AcDbPolyFaceMeshVertex
 10
4450.587554247429
 20
10627.95119722355
 30
2663.960848572464
 70
   192
  0
VERTEX
  5
4E2
330
4DF
100
AcDbEntity
  8
ｴｸｽﾃﾘｱ商品
 62
   255
370
    20
100
AcDbVertex
100
AcDbPolyFaceMeshVertex
 10
4450.587554247428
 20
5255.226111168893
 30
2476.341154299819
 70
   192
  0
VERTEX
  5
4E3
330
4DF
100
AcDbEntity
  8
ｴｸｽﾃﾘｱ商品
 62
   255
370
    20
100
AcDbVertex
100
AcDbPolyFaceMeshVertex
 10
4430.587554247429
 20
5255.226111168893
 30
2476.341154299819
 70
   192
  0
VERTEX
  5
4E4
330
4DF
100
AcDbEntity
  8
ｴｸｽﾃﾘｱ商品
 62
   255
370
    20
100
AcDbVertex
100
AcDbPolyFaceMeshVertex
 10
4430.58755424743
 20
10627.95119722355
 30
2663.960848572464
 70
   192
  0
VERTEX
  5
4E5
330
4DF
100
AcDbEntity
  8
ｴｸｽﾃﾘｱ商品
 62
   255
370
    20
100
AcDbVertex
100
AcDbPolyFaceMeshVertex
 10
4390.587554247429
 20
5252.434151432693
 30
2556.292420461346
 70
   192
  0
VERTEX
  5
4E6
330
4DF
100
AcDbEntity
  8
ｴｸｽﾃﾘｱ商品
 62
   255
370
    20
100
AcDbVertex
100
AcDbPolyFaceMeshVertex
 10
4390.58755424743
 20
10625.15923748735
 30
2743.912114733992
 70
   192
  0
VERTEX
  5
4E7
330
4DF
100
AcDbEntity
  8
ｴｸｽﾃﾘｱ商品
 62
   255
370
    20
100
AcDbVertex
100
AcDbPolyFaceMeshVertex
 10
4350.587554247429
 20
5252.434151432693
 30
2556.292420461346
 70
   192
  0
VERTEX
  5
4E8
330
4DF
100
AcDbEntity
  8
ｴｸｽﾃﾘｱ商品
 62
   255
370
    20
100
AcDbVertex
100
AcDbPolyFaceMeshVertex
 10
4350.58755424743
 20
10625.15923748735
 30
2743.912114733992
 70
   192
  0
VERTEX
  5
4E9
330
4DF
100
AcDbEntity
  8
ｴｸｽﾃﾘｱ商品
 62
   255
370
    20
100
AcDbVertex
100
AcDbPolyFaceMeshVertex
 10
4310.587554247429
 20
5255.226111168893
 30
2476.341154299819
 70
   192
  0
VERTEX
  5
4EA
330
4DF
100
AcDbEntity
  8
ｴｸｽﾃﾘｱ商品
 62
   255
370
    20
100
AcDbVertex
100
AcDbPolyFaceMeshVertex
 10
4310.58755424743
 20
10627.95119722355
 30
2663.960848572464
 70
   192
  0
VERTEX
  5
4EB
330
4DF
100
AcDbEntity
  8
ｴｸｽﾃﾘｱ商品
 62
   255
370
    20
100
AcDbVertex
100
AcDbPolyFaceMeshVertex
 10
4290.587554247428
 20
5255.226111168893
 30
2476.341154299819
 70
   192
  0
VERTEX
  5
4EC
330
4DF
100
AcDbEntity
  8
ｴｸｽﾃﾘｱ商品
 62
   255
370
    20
100
AcDbVertex
100
AcDbPolyFaceMeshVertex
 10
4290.587554247429
 20
10627.95119722355
 30
2663.960848572464
 70
   192
  0
VERTEX
  5
4ED
330
4DF
100
AcDbEntity
  8
ｴｸｽﾃﾘｱ商品
 62
   255
370
    20
100
AcDbVertex
100
AcDbPolyFaceMeshVertex
 10
4290.587554247428
 20
5254.528121234843
 30
2496.328970840201
 70
   192
  0
VERTEX
  5
4EE
330
4DF
100
AcDbEntity
  8
ｴｸｽﾃﾘｱ商品
 62
   255
370
    20
100
AcDbVertex
100
AcDbPolyFaceMeshVertex
 10
4290.587554247429
 20
10627.2532072895
 30
2683.948665112846
 70
   192
  0
VERTEX
  5
4EF
330
4DF
100
AcDbEntity
  8
ｴｸｽﾃﾘｱ商品
 62
   255
370
    20
100
AcDbVertex
100
AcDbPolyFaceMeshVertex
 10
4310.587554247429
 20
5254.528121234843
 30
2496.328970840201
 70
   192
  0
VERTEX
  5
4F0
330
4DF
100
AcDbEntity
  8
ｴｸｽﾃﾘｱ商品
 62
   255
370
    20
100
AcDbVertex
100
AcDbPolyFaceMeshVertex
 10
4310.58755424743
 20
10627.2532072895
 30
2683.948665112846
 70
   192
  0
VERTEX
  5
4F1
330
4DF
100
AcDbEntity
  8
ｴｸｽﾃﾘｱ商品
 62
   255
370
    20
100
AcDbVertex
100
AcDbPolyFaceMeshVertex
 10
4350.587554247429
 20
5251.736161498643
 30
2576.280237001728
 70
   192
  0
VERTEX
  5
4F2
330
4DF
100
AcDbEntity
  8
ｴｸｽﾃﾘｱ商品
 62
   255
370
    20
100
AcDbVertex
100
AcDbPolyFaceMeshVertex
 10
4350.58755424743
 20
10624.4612475533
 30
2763.899931274374
 70
   192
  0
VERTEX
  5
4F3
330
4DF
100
AcDbEntity
  8
ｴｸｽﾃﾘｱ商品
 62
   255
370
    20
100
AcDbVertex
100
AcDbPolyFaceMeshVertex
 10
4390.587554247429
 20
5251.736161498643
 30
2576.280237001728
 70
   192
  0
VERTEX
  5
4F4
330
4DF
100
AcDbEntity
  8
ｴｸｽﾃﾘｱ商品
 62
   255
370
    20
100
AcDbVertex
100
AcDbPolyFaceMeshVertex
 10
4390.58755424743
 20
10624.4612475533
 30
2763.899931274374
 70
   192
  0
VERTEX
  5
4F5
330
4DF
100
AcDbEntity
  8
ｴｸｽﾃﾘｱ商品
 62
   255
370
    20
100
AcDbVertex
100
AcDbPolyFaceMeshVertex
 10
4430.587554247429
 20
5254.528121234843
 30
2496.328970840201
 70
   192
  0
VERTEX
  5
4F6
330
4DF
100
AcDbEntity
  8
ｴｸｽﾃﾘｱ商品
 62
   255
370
    20
100
AcDbVertex
100
AcDbPolyFaceMeshVertex
 10
4430.58755424743
 20
10627.2532072895
 30
2683.948665112846
 70
   192
  0
VERTEX
  5
4F7
330
4DF
100
AcDbEntity
  8
ｴｸｽﾃﾘｱ商品
 62
   255
370
    20
100
AcDbVertex
100
AcDbPolyFaceMeshVertex
 10
4450.587554247428
 20
5254.528121234843
 30
2496.328970840201
 70
   192
  0
VERTEX
  5
4F8
330
4DF
100
AcDbEntity
  8
ｴｸｽﾃﾘｱ商品
 62
   255
370
    20
100
AcDbVertex
100
AcDbPolyFaceMeshVertex
 10
4450.587554247429
 20
10627.2532072895
 30
2683.948665112846
 70
   192
  0
VERTEX
  5
4F9
330
4DF
100
AcDbEntity
  8
ｴｸｽﾃﾘｱ商品
 62
   255
370
    20
100
AcDbFaceRecord
 10
0.0
 20
0.0
 30
0.0
 70
   128
 71
     1
 72
     2
 73
     3
 74
     4
  0
VERTEX
  5
4FA
330
4DF
100
AcDbEntity
  8
ｴｸｽﾃﾘｱ商品
 62
   255
370
    20
100
AcDbFaceRecord
 10
0.0
 20
0.0
 30
0.0
 70
   128
 71
     4
 72
     3
 73
     5
 74
     6
  0
VERTEX
  5
4FB
330
4DF
100
AcDbEntity
  8
ｴｸｽﾃﾘｱ商品
 62
   255
370
    20
100
AcDbFaceRecord
 10
0.0
 20
0.0
 30
0.0
 70
   128
 71
     6
 72
     5
 73
     7
 74
     8
  0
VERTEX
  5
4FC
330
4DF
100
AcDbEntity
  8
ｴｸｽﾃﾘｱ商品
 62
   255
370
    20
100
AcDbFaceRecord
 10
0.0
 20
0.0
 30
0.0
 70
   128
 71
     8
 72
     7
 73
     9
 74
    10
  0
VERTEX
  5
4FD
330
4DF
100
AcDbEntity
  8
ｴｸｽﾃﾘｱ商品
 62
   255
370
    20
100
AcDbFaceRecord
 10
0.0
 20
0.0
 30
0.0
 70
   128
 71
    10
 72
     9
 73
    11
 74
    12
  0
VERTEX
  5
4FE
330
4DF
100
AcDbEntity
  8
ｴｸｽﾃﾘｱ商品
 62
   255
370
    20
100
AcDbFaceRecord
 10
0.0
 20
0.0
 30
0.0
 70
   128
 71
    12
 72
    11
 73
    13
 74
    14
  0
VERTEX
  5
4FF
330
4DF
100
AcDbEntity
  8
ｴｸｽﾃﾘｱ商品
 62
   255
370
    20
100
AcDbFaceRecord
 10
0.0
 20
0.0
 30
0.0
 70
   128
 71
    14
 72
    13
 73
    15
 74
    16
  0
VERTEX
  5
500
330
4DF
100
AcDbEntity
  8
ｴｸｽﾃﾘｱ商品
 62
   255
370
    20
100
AcDbFaceRecord
 10
0.0
 20
0.0
 30
0.0
 70
   128
 71
    16
 72
    15
 73
    17
 74
    18
  0
VERTEX
  5
501
330
4DF
100
AcDbEntity
  8
ｴｸｽﾃﾘｱ商品
 62
   255
370
    20
100
AcDbFaceRecord
 10
0.0
 20
0.0
 30
0.0
 70
   128
 71
    18
 72
    17
 73
    19
 74
    20
  0
VERTEX
  5
502
330
4DF
100
AcDbEntity
  8
ｴｸｽﾃﾘｱ商品
 62
   255
370
    20
100
AcDbFaceRecord
 10
0.0
 20
0.0
 30
0.0
 70
   128
 71
    20
 72
    19
 73
    21
 74
    22
  0
VERTEX
  5
503
330
4DF
100
AcDbEntity
  8
ｴｸｽﾃﾘｱ商品
 62
   255
370
    20
100
AcDbFaceRecord
 10
0.0
 20
0.0
 30
0.0
 70
   128
 71
    22
 72
    21
 73
    23
 74
    24
  0
VERTEX
  5
504
330
4DF
100
AcDbEntity
  8
ｴｸｽﾃﾘｱ商品
 62
   255
370
    20
100
AcDbFaceRecord
 10
0.0
 20
0.0
 30
0.0
 70
   128
 71
    24
 72
    23
 73
     2
 74
     1
  0
VERTEX
  5
505
330
4DF
100
AcDbEntity
  8
ｴｸｽﾃﾘｱ商品
 62
   255
370
    20
100
AcDbFaceRecord
 10
0.0
 20
0.0
 30
0.0
 70
   128
 71
     6
 72
     8
 73
    18
  0
VERTEX
  5
506
330
4DF
100
AcDbEntity
  8
ｴｸｽﾃﾘｱ商品
 62
   255
370
    20
100
AcDbFaceRecord
 10
0.0
 20
0.0
 30
0.0
 70
   128
 71
     6
 72
    18
 73
    20
  0
VERTEX
  5
507
330
4DF
100
AcDbEntity
  8
ｴｸｽﾃﾘｱ商品
 62
   255
370
    20
100
AcDbFaceRecord
 10
0.0
 20
0.0
 30
0.0
 70
   128
 71
    16
 72
    18
 73
     8
  0
VERTEX
  5
508
330
4DF
100
AcDbEntity
  8
ｴｸｽﾃﾘｱ商品
 62
   255
370
    20
100
AcDbFaceRecord
 10
0.0
 20
0.0
 30
0.0
 70
   128
 71
     6
 72
    20
 73
    22
  0
VERTEX
  5
509
330
4DF
100
AcDbEntity
  8
ｴｸｽﾃﾘｱ商品
 62
   255
370
    20
100
AcDbFaceRecord
 10
0.0
 20
0.0
 30
0.0
 70
   128
 71
    12
 72
    14
 73
    16
  0
VERTEX
  5
50A
330
4DF
100
AcDbEntity
  8
ｴｸｽﾃﾘｱ商品
 62
   255
370
    20
100
AcDbFaceRecord
 10
0.0
 20
0.0
 30
0.0
 70
   128
 71
    12
 72
    16
 73
    10
  0
VERTEX
  5
50B
330
4DF
100
AcDbEntity
  8
ｴｸｽﾃﾘｱ商品
 62
   255
370
    20
100
AcDbFaceRecord
 10
0.0
 20
0.0
 30
0.0
 70
   128
 71
    10
 72
    16
 73
     8
  0
VERTEX
  5
50C
330
4DF
100
AcDbEntity
  8
ｴｸｽﾃﾘｱ商品
 62
   255
370
    20
100
AcDbFaceRecord
 10
0.0
 20
0.0
 30
0.0
 70
   128
 71
     4
 72
     6
 73
    22
  0
VERTEX
  5
50D
330
4DF
100
AcDbEntity
  8
ｴｸｽﾃﾘｱ商品
 62
   255
370
    20
100
AcDbFaceRecord
 10
0.0
 20
0.0
 30
0.0
 70
   128
 71
     4
 72
    22
 73
     1
  0
VERTEX
  5
50E
330
4DF
100
AcDbEntity
  8
ｴｸｽﾃﾘｱ商品
 62
   255
370
    20
100
AcDbFaceRecord
 10
0.0
 20
0.0
 30
0.0
 70
   128
 71
     1
 72
    22
 73
    24
  0
VERTEX
  5
50F
330
4DF
100
AcDbEntity
  8
ｴｸｽﾃﾘｱ商品
 62
   255
370
    20
100
AcDbFaceRecord
 10
0.0
 20
0.0
 30
0.0
 70
   128
 71
     7
 72
     5
 73
    19
  0
VERTEX
  5
510
330
4DF
100
AcDbEntity
  8
ｴｸｽﾃﾘｱ商品
 62
   255
370
    20
100
AcDbFaceRecord
 10
0.0
 20
0.0
 30
0.0
 70
   128
 71
     7
 72
    19
 73
    17
  0
VERTEX
  5
511
330
4DF
100
AcDbEntity
  8
ｴｸｽﾃﾘｱ商品
 62
   255
370
    20
100
AcDbFaceRecord
 10
0.0
 20
0.0
 30
0.0
 70
   128
 71
    21
 72
    19
 73
     5
  0
VERTEX
  5
512
330
4DF
100
AcDbEntity
  8
ｴｸｽﾃﾘｱ商品
 62
   255
370
    20
100
AcDbFaceRecord
 10
0.0
 20
0.0
 30
0.0
 70
   128
 71
     7
 72
    17
 73
    15
  0
VERTEX
  5
513
330
4DF
100
AcDbEntity
  8
ｴｸｽﾃﾘｱ商品
 62
   255
370
    20
100
AcDbFaceRecord
 10
0.0
 20
0.0
 30
0.0
 70
   128
 71
     2
 72
    23
 73
    21
  0
VERTEX
  5
514
330
4DF
100
AcDbEntity
  8
ｴｸｽﾃﾘｱ商品
 62
   255
370
    20
100
AcDbFaceRecord
 10
0.0
 20
0.0
 30
0.0
 70
   128
 71
     2
 72
    21
 73
     3
  0
VERTEX
  5
515
330
4DF
100
AcDbEntity
  8
ｴｸｽﾃﾘｱ商品
 62
   255
370
    20
100
AcDbFaceRecord
 10
0.0
 20
0.0
 30
0.0
 70
   128
 71
     3
 72
    21
 73
     5
  0
VERTEX
  5
516
330
4DF
100
AcDbEntity
  8
ｴｸｽﾃﾘｱ商品
 62
   255
370
    20
100
AcDbFaceRecord
 10
0.0
 20
0.0
 30
0.0
 70
   128
 71
     9
 72
     7
 73
    15
  0
VERTEX
  5
517
330
4DF
100
AcDbEntity
  8
ｴｸｽﾃﾘｱ商品
 62
   255
370
    20
100
AcDbFaceRecord
 10
0.0
 20
0.0
 30
0.0
 70
   128
 71
     9
 72
    15
 73
    11
  0
VERTEX
  5
518
330
4DF
100
AcDbEntity
  8
ｴｸｽﾃﾘｱ商品
 62
   255
370
    20
100
AcDbFaceRecord
 10
0.0
 20
0.0
 30
0.0
 70
   128
 71
    11
 72
    15
 73
    13
  0
SEQEND
  5
4E0
330
4DF
100
AcDbEntity
  8
ｴｸｽﾃﾘｱ商品
370
    20
  0
POLYLINE
  5
519
330
3C
100
AcDbEntity
  8
ｴｸｽﾃﾘｱ商品
 62
   255
370
    20
100
AcDbPolyFaceMesh
 66
     1
 10
0.0
 20
0.0
 30
0.0
 70
    64
 71
    24
 72
    32
  0
VERTEX
  5
51B
330
519
100
AcDbEntity
  8
ｴｸｽﾃﾘｱ商品
 62
   255
370
    20
100
AcDbVertex
100
AcDbPolyFaceMeshVertex
 10
4290.587554247429
 20
10627.95119722355
 30
2663.960848572464
 70
   192
  0
VERTEX
  5
51C
330
519
100
AcDbEntity
  8
ｴｸｽﾃﾘｱ商品
 62
   255
370
    20
100
AcDbVertex
100
AcDbPolyFaceMeshVertex
 10
4290.587554247428
 20
5255.226111168893
 30
2476.341154299819
 70
   192
  0
VERTEX
  5
51D
330
519
100
AcDbEntity
  8
ｴｸｽﾃﾘｱ商品
 62
   255
370
    20
100
AcDbVertex
100
AcDbPolyFaceMeshVertex
 10
4270.587554247429
 20
5255.226111168893
 30
2476.341154299819
 70
   192
  0
VERTEX
  5
51E
330
519
100
AcDbEntity
  8
ｴｸｽﾃﾘｱ商品
 62
   255
370
    20
100
AcDbVertex
100
AcDbPolyFaceMeshVertex
 10
4270.58755424743
 20
10627.95119722355
 30
2663.960848572464
 70
   192
  0
VERTEX
  5
51F
330
519
100
AcDbEntity
  8
ｴｸｽﾃﾘｱ商品
 62
   255
370
    20
100
AcDbVertex
100
AcDbPolyFaceMeshVertex
 10
4230.587554247429
 20
5252.434151432693
 30
2556.292420461346
 70
   192
  0
VERTEX
  5
520
330
519
100
AcDbEntity
  8
ｴｸｽﾃﾘｱ商品
 62
   255
370
    20
100
AcDbVertex
100
AcDbPolyFaceMeshVertex
 10
4230.58755424743
 20
10625.15923748735
 30
2743.912114733992
 70
   192
  0
VERTEX
  5
521
330
519
100
AcDbEntity
  8
ｴｸｽﾃﾘｱ商品
 62
   255
370
    20
100
AcDbVertex
100
AcDbPolyFaceMeshVertex
 10
4190.587554247429
 20
5252.434151432693
 30
2556.292420461346
 70
   192
  0
VERTEX
  5
522
330
519
100
AcDbEntity
  8
ｴｸｽﾃﾘｱ商品
 62
   255
370
    20
100
AcDbVertex
100
AcDbPolyFaceMeshVertex
 10
4190.58755424743
 20
10625.15923748735
 30
2743.912114733992
 70
   192
  0
VERTEX
  5
523
330
519
100
AcDbEntity
  8
ｴｸｽﾃﾘｱ商品
 62
   255
370
    20
100
AcDbVertex
100
AcDbPolyFaceMeshVertex
 10
4150.587554247428
 20
5255.226111168893
 30
2476.341154299819
 70
   192
  0
VERTEX
  5
524
330
519
100
AcDbEntity
  8
ｴｸｽﾃﾘｱ商品
 62
   255
370
    20
100
AcDbVertex
100
AcDbPolyFaceMeshVertex
 10
4150.587554247429
 20
10627.95119722355
 30
2663.960848572464
 70
   192
  0
VERTEX
  5
525
330
519
100
AcDbEntity
  8
ｴｸｽﾃﾘｱ商品
 62
   255
370
    20
100
AcDbVertex
100
AcDbPolyFaceMeshVertex
 10
4130.587554247428
 20
5255.226111168893
 30
2476.341154299819
 70
   192
  0
VERTEX
  5
526
330
519
100
AcDbEntity
  8
ｴｸｽﾃﾘｱ商品
 62
   255
370
    20
100
AcDbVertex
100
AcDbPolyFaceMeshVertex
 10
4130.587554247429
 20
10627.95119722355
 30
2663.960848572464
 70
   192
  0
VERTEX
  5
527
330
519
100
AcDbEntity
  8
ｴｸｽﾃﾘｱ商品
 62
   255
370
    20
100
AcDbVertex
100
AcDbPolyFaceMeshVertex
 10
4130.587554247428
 20
5254.528121234843
 30
2496.328970840201
 70
   192
  0
VERTEX
  5
528
330
519
100
AcDbEntity
  8
ｴｸｽﾃﾘｱ商品
 62
   255
370
    20
100
AcDbVertex
100
AcDbPolyFaceMeshVertex
 10
4130.587554247429
 20
10627.2532072895
 30
2683.948665112846
 70
   192
  0
VERTEX
  5
529
330
519
100
AcDbEntity
  8
ｴｸｽﾃﾘｱ商品
 62
   255
370
    20
100
AcDbVertex
100
AcDbPolyFaceMeshVertex
 10
4150.587554247428
 20
5254.528121234843
 30
2496.328970840201
 70
   192
  0
VERTEX
  5
52A
330
519
100
AcDbEntity
  8
ｴｸｽﾃﾘｱ商品
 62
   255
370
    20
100
AcDbVertex
100
AcDbPolyFaceMeshVertex
 10
4150.587554247429
 20
10627.2532072895
 30
2683.948665112846
 70
   192
  0
VERTEX
  5
52B
330
519
100
AcDbEntity
  8
ｴｸｽﾃﾘｱ商品
 62
   255
370
    20
100
AcDbVertex
100
AcDbPolyFaceMeshVertex
 10
4190.587554247429
 20
5251.736161498643
 30
2576.280237001728
 70
   192
  0
VERTEX
  5
52C
330
519
100
AcDbEntity
  8
ｴｸｽﾃﾘｱ商品
 62
   255
370
    20
100
AcDbVertex
100
AcDbPolyFaceMeshVertex
 10
4190.58755424743
 20
10624.4612475533
 30
2763.899931274374
 70
   192
  0
VERTEX
  5
52D
330
519
100
AcDbEntity
  8
ｴｸｽﾃﾘｱ商品
 62
   255
370
    20
100
AcDbVertex
100
AcDbPolyFaceMeshVertex
 10
4230.587554247429
 20
5251.736161498643
 30
2576.280237001728
 70
   192
  0
VERTEX
  5
52E
330
519
100
AcDbEntity
  8
ｴｸｽﾃﾘｱ商品
 62
   255
370
    20
100
AcDbVertex
100
AcDbPolyFaceMeshVertex
 10
4230.58755424743
 20
10624.4612475533
 30
2763.899931274374
 70
   192
  0
VERTEX
  5
52F
330
519
100
AcDbEntity
  8
ｴｸｽﾃﾘｱ商品
 62
   255
370
    20
100
AcDbVertex
100
AcDbPolyFaceMeshVertex
 10
4270.587554247429
 20
5254.528121234843
 30
2496.328970840201
 70
   192
  0
VERTEX
  5
530
330
519
100
AcDbEntity
  8
ｴｸｽﾃﾘｱ商品
 62
   255
370
    20
100
AcDbVertex
100
AcDbPolyFaceMeshVertex
 10
4270.58755424743
 20
10627.2532072895
 30
2683.948665112846
 70
   192
  0
VERTEX
  5
531
330
519
100
AcDbEntity
  8
ｴｸｽﾃﾘｱ商品
 62
   255
370
    20
100
AcDbVertex
100
AcDbPolyFaceMeshVertex
 10
4290.587554247428
 20
5254.528121234843
 30
2496.328970840201
 70
   192
  0
VERTEX
  5
532
330
519
100
AcDbEntity
  8
ｴｸｽﾃﾘｱ商品
 62
   255
370
    20
100
AcDbVertex
100
AcDbPolyFaceMeshVertex
 10
4290.587554247429
 20
10627.2532072895
 30
2683.948665112846
 70
   192
  0
VERTEX
  5
533
330
519
100
AcDbEntity
  8
ｴｸｽﾃﾘｱ商品
 62
   255
370
    20
100
AcDbFaceRecord
 10
0.0
 20
0.0
 30
0.0
 70
   128
 71
     1
 72
     2
 73
     3
 74
     4
  0
VERTEX
  5
534
330
519
100
AcDbEntity
  8
ｴｸｽﾃﾘｱ商品
 62
   255
370
    20
100
AcDbFaceRecord
 10
0.0
 20
0.0
 30
0.0
 70
   128
 71
     4
 72
     3
 73
     5
 74
     6
  0
VERTEX
  5
535
330
519
100
AcDbEntity
  8
ｴｸｽﾃﾘｱ商品
 62
   255
370
    20
100
AcDbFaceRecord
 10
0.0
 20
0.0
 30
0.0
 70
   128
 71
     6
 72
     5
 73
     7
 74
     8
  0
VERTEX
  5
536
330
519
100
AcDbEntity
  8
ｴｸｽﾃﾘｱ商品
 62
   255
370
    20
100
AcDbFaceRecord
 10
0.0
 20
0.0
 30
0.0
 70
   128
 71
     8
 72
     7
 73
     9
 74
    10
  0
VERTEX
  5
537
330
519
100
AcDbEntity
  8
ｴｸｽﾃﾘｱ商品
 62
   255
370
    20
100
AcDbFaceRecord
 10
0.0
 20
0.0
 30
0.0
 70
   128
 71
    10
 72
     9
 73
    11
 74
    12
  0
VERTEX
  5
538
330
519
100
AcDbEntity
  8
ｴｸｽﾃﾘｱ商品
 62
   255
370
    20
100
AcDbFaceRecord
 10
0.0
 20
0.0
 30
0.0
 70
   128
 71
    12
 72
    11
 73
    13
 74
    14
  0
VERTEX
  5
539
330
519
100
AcDbEntity
  8
ｴｸｽﾃﾘｱ商品
 62
   255
370
    20
100
AcDbFaceRecord
 10
0.0
 20
0.0
 30
0.0
 70
   128
 71
    14
 72
    13
 73
    15
 74
    16
  0
VERTEX
  5
53A
330
519
100
AcDbEntity
  8
ｴｸｽﾃﾘｱ商品
 62
   255
370
    20
100
AcDbFaceRecord
 10
0.0
 20
0.0
 30
0.0
 70
   128
 71
    16
 72
    15
 73
    17
 74
    18
  0
VERTEX
  5
53B
330
519
100
AcDbEntity
  8
ｴｸｽﾃﾘｱ商品
 62
   255
370
    20
100
AcDbFaceRecord
 10
0.0
 20
0.0
 30
0.0
 70
   128
 71
    18
 72
    17
 73
    19
 74
    20
  0
VERTEX
  5
53C
330
519
100
AcDbEntity
  8
ｴｸｽﾃﾘｱ商品
 62
   255
370
    20
100
AcDbFaceRecord
 10
0.0
 20
0.0
 30
0.0
 70
   128
 71
    20
 72
    19
 73
    21
 74
    22
  0
VERTEX
  5
53D
330
519
100
AcDbEntity
  8
ｴｸｽﾃﾘｱ商品
 62
   255
370
    20
100
AcDbFaceRecord
 10
0.0
 20
0.0
 30
0.0
 70
   128
 71
    22
 72
    21
 73
    23
 74
    24
  0
VERTEX
  5
53E
330
519
100
AcDbEntity
  8
ｴｸｽﾃﾘｱ商品
 62
   255
370
    20
100
AcDbFaceRecord
 10
0.0
 20
0.0
 30
0.0
 70
   128
 71
    24
 72
    23
 73
     2
 74
     1
  0
VERTEX
  5
53F
330
519
100
AcDbEntity
  8
ｴｸｽﾃﾘｱ商品
 62
   255
370
    20
100
AcDbFaceRecord
 10
0.0
 20
0.0
 30
0.0
 70
   128
 71
     6
 72
     8
 73
    18
  0
VERTEX
  5
540
330
519
100
AcDbEntity
  8
ｴｸｽﾃﾘｱ商品
 62
   255
370
    20
100
AcDbFaceRecord
 10
0.0
 20
0.0
 30
0.0
 70
   128
 71
     6
 72
    18
 73
    20
  0
VERTEX
  5
541
330
519
100
AcDbEntity
  8
ｴｸｽﾃﾘｱ商品
 62
   255
370
    20
100
AcDbFaceRecord
 10
0.0
 20
0.0
 30
0.0
 70
   128
 71
    16
 72
    18
 73
     8
  0
VERTEX
  5
542
330
519
100
AcDbEntity
  8
ｴｸｽﾃﾘｱ商品
 62
   255
370
    20
100
AcDbFaceRecord
 10
0.0
 20
0.0
 30
0.0
 70
   128
 71
     6
 72
    20
 73
    22
  0
VERTEX
  5
543
330
519
100
AcDbEntity
  8
ｴｸｽﾃﾘｱ商品
 62
   255
370
    20
100
AcDbFaceRecord
 10
0.0
 20
0.0
 30
0.0
 70
   128
 71
    12
 72
    14
 73
    16
  0
VERTEX
  5
544
330
519
100
AcDbEntity
  8
ｴｸｽﾃﾘｱ商品
 62
   255
370
    20
100
AcDbFaceRecord
 10
0.0
 20
0.0
 30
0.0
 70
   128
 71
    12
 72
    16
 73
    10
  0
VERTEX
  5
545
330
519
100
AcDbEntity
  8
ｴｸｽﾃﾘｱ商品
 62
   255
370
    20
100
AcDbFaceRecord
 10
0.0
 20
0.0
 30
0.0
 70
   128
 71
    10
 72
    16
 73
     8
  0
VERTEX
  5
546
330
519
100
AcDbEntity
  8
ｴｸｽﾃﾘｱ商品
 62
   255
370
    20
100
AcDbFaceRecord
 10
0.0
 20
0.0
 30
0.0
 70
   128
 71
     4
 72
     6
 73
    22
  0
VERTEX
  5
547
330
519
100
AcDbEntity
  8
ｴｸｽﾃﾘｱ商品
 62
   255
370
    20
100
AcDbFaceRecord
 10
0.0
 20
0.0
 30
0.0
 70
   128
 71
     4
 72
    22
 73
     1
  0
VERTEX
  5
548
330
519
100
AcDbEntity
  8
ｴｸｽﾃﾘｱ商品
 62
   255
370
    20
100
AcDbFaceRecord
 10
0.0
 20
0.0
 30
0.0
 70
   128
 71
     1
 72
    22
 73
    24
  0
VERTEX
  5
549
330
519
100
AcDbEntity
  8
ｴｸｽﾃﾘｱ商品
 62
   255
370
    20
100
AcDbFaceRecord
 10
0.0
 20
0.0
 30
0.0
 70
   128
 71
     7
 72
     5
 73
    19
  0
VERTEX
  5
54A
330
519
100
AcDbEntity
  8
ｴｸｽﾃﾘｱ商品
 62
   255
370
    20
100
AcDbFaceRecord
 10
0.0
 20
0.0
 30
0.0
 70
   128
 71
     7
 72
    19
 73
    17
  0
VERTEX
  5
54B
330
519
100
AcDbEntity
  8
ｴｸｽﾃﾘｱ商品
 62
   255
370
    20
100
AcDbFaceRecord
 10
0.0
 20
0.0
 30
0.0
 70
   128
 71
    21
 72
    19
 73
     5
  0
VERTEX
  5
54C
330
519
100
AcDbEntity
  8
ｴｸｽﾃﾘｱ商品
 62
   255
370
    20
100
AcDbFaceRecord
 10
0.0
 20
0.0
 30
0.0
 70
   128
 71
     7
 72
    17
 73
    15
  0
VERTEX
  5
54D
330
519
100
AcDbEntity
  8
ｴｸｽﾃﾘｱ商品
 62
   255
370
    20
100
AcDbFaceRecord
 10
0.0
 20
0.0
 30
0.0
 70
   128
 71
     2
 72
    23
 73
    21
  0
VERTEX
  5
54E
330
519
100
AcDbEntity
  8
ｴｸｽﾃﾘｱ商品
 62
   255
370
    20
100
AcDbFaceRecord
 10
0.0
 20
0.0
 30
0.0
 70
   128
 71
     2
 72
    21
 73
     3
  0
VERTEX
  5
54F
330
519
100
AcDbEntity
  8
ｴｸｽﾃﾘｱ商品
 62
   255
370
    20
100
AcDbFaceRecord
 10
0.0
 20
0.0
 30
0.0
 70
   128
 71
     3
 72
    21
 73
     5
  0
VERTEX
  5
550
330
519
100
AcDbEntity
  8
ｴｸｽﾃﾘｱ商品
 62
   255
370
    20
100
AcDbFaceRecord
 10
0.0
 20
0.0
 30
0.0
 70
   128
 71
     9
 72
     7
 73
    15
  0
VERTEX
  5
551
330
519
100
AcDbEntity
  8
ｴｸｽﾃﾘｱ商品
 62
   255
370
    20
100
AcDbFaceRecord
 10
0.0
 20
0.0
 30
0.0
 70
   128
 71
     9
 72
    15
 73
    11
  0
VERTEX
  5
552
330
519
100
AcDbEntity
  8
ｴｸｽﾃﾘｱ商品
 62
   255
370
    20
100
AcDbFaceRecord
 10
0.0
 20
0.0
 30
0.0
 70
   128
 71
    11
 72
    15
 73
    13
  0
SEQEND
  5
51A
330
519
100
AcDbEntity
  8
ｴｸｽﾃﾘｱ商品
370
    20
  0
POLYLINE
  5
553
330
3C
100
AcDbEntity
  8
ｴｸｽﾃﾘｱ商品
 62
   255
370
    20
100
AcDbPolyFaceMesh
 66
     1
 10
0.0
 20
0.0
 30
0.0
 70
    64
 71
    24
 72
    32
  0
VERTEX
  5
555
330
553
100
AcDbEntity
  8
ｴｸｽﾃﾘｱ商品
 62
   255
370
    20
100
AcDbVertex
100
AcDbPolyFaceMeshVertex
 10
4130.587554247429
 20
10627.95119722355
 30
2663.960848572464
 70
   192
  0
VERTEX
  5
556
330
553
100
AcDbEntity
  8
ｴｸｽﾃﾘｱ商品
 62
   255
370
    20
100
AcDbVertex
100
AcDbPolyFaceMeshVertex
 10
4130.587554247428
 20
5255.226111168893
 30
2476.341154299819
 70
   192
  0
VERTEX
  5
557
330
553
100
AcDbEntity
  8
ｴｸｽﾃﾘｱ商品
 62
   255
370
    20
100
AcDbVertex
100
AcDbPolyFaceMeshVertex
 10
4110.587554247428
 20
5255.226111168893
 30
2476.341154299819
 70
   192
  0
VERTEX
  5
558
330
553
100
AcDbEntity
  8
ｴｸｽﾃﾘｱ商品
 62
   255
370
    20
100
AcDbVertex
100
AcDbPolyFaceMeshVertex
 10
4110.587554247429
 20
10627.95119722355
 30
2663.960848572464
 70
   192
  0
VERTEX
  5
559
330
553
100
AcDbEntity
  8
ｴｸｽﾃﾘｱ商品
 62
   255
370
    20
100
AcDbVertex
100
AcDbPolyFaceMeshVertex
 10
4070.587554247428
 20
5252.434151432693
 30
2556.292420461346
 70
   192
  0
VERTEX
  5
55A
330
553
100
AcDbEntity
  8
ｴｸｽﾃﾘｱ商品
 62
   255
370
    20
100
AcDbVertex
100
AcDbPolyFaceMeshVertex
 10
4070.587554247429
 20
10625.15923748735
 30
2743.912114733992
 70
   192
  0
VERTEX
  5
55B
330
553
100
AcDbEntity
  8
ｴｸｽﾃﾘｱ商品
 62
   255
370
    20
100
AcDbVertex
100
AcDbPolyFaceMeshVertex
 10
4030.587554247428
 20
5252.434151432693
 30
2556.292420461346
 70
   192
  0
VERTEX
  5
55C
330
553
100
AcDbEntity
  8
ｴｸｽﾃﾘｱ商品
 62
   255
370
    20
100
AcDbVertex
100
AcDbPolyFaceMeshVertex
 10
4030.587554247429
 20
10625.15923748735
 30
2743.912114733992
 70
   192
  0
VERTEX
  5
55D
330
553
100
AcDbEntity
  8
ｴｸｽﾃﾘｱ商品
 62
   255
370
    20
100
AcDbVertex
100
AcDbPolyFaceMeshVertex
 10
3990.587554247428
 20
5255.226111168893
 30
2476.341154299819
 70
   192
  0
VERTEX
  5
55E
330
553
100
AcDbEntity
  8
ｴｸｽﾃﾘｱ商品
 62
   255
370
    20
100
AcDbVertex
100
AcDbPolyFaceMeshVertex
 10
3990.587554247429
 20
10627.95119722355
 30
2663.960848572464
 70
   192
  0
VERTEX
  5
55F
330
553
100
AcDbEntity
  8
ｴｸｽﾃﾘｱ商品
 62
   255
370
    20
100
AcDbVertex
100
AcDbPolyFaceMeshVertex
 10
3970.587554247428
 20
5255.226111168893
 30
2476.341154299819
 70
   192
  0
VERTEX
  5
560
330
553
100
AcDbEntity
  8
ｴｸｽﾃﾘｱ商品
 62
   255
370
    20
100
AcDbVertex
100
AcDbPolyFaceMeshVertex
 10
3970.587554247429
 20
10627.95119722355
 30
2663.960848572464
 70
   192
  0
VERTEX
  5
561
330
553
100
AcDbEntity
  8
ｴｸｽﾃﾘｱ商品
 62
   255
370
    20
100
AcDbVertex
100
AcDbPolyFaceMeshVertex
 10
3970.587554247428
 20
5254.528121234843
 30
2496.328970840201
 70
   192
  0
VERTEX
  5
562
330
553
100
AcDbEntity
  8
ｴｸｽﾃﾘｱ商品
 62
   255
370
    20
100
AcDbVertex
100
AcDbPolyFaceMeshVertex
 10
3970.587554247429
 20
10627.2532072895
 30
2683.948665112846
 70
   192
  0
VERTEX
  5
563
330
553
100
AcDbEntity
  8
ｴｸｽﾃﾘｱ商品
 62
   255
370
    20
100
AcDbVertex
100
AcDbPolyFaceMeshVertex
 10
3990.587554247428
 20
5254.528121234843
 30
2496.328970840201
 70
   192
  0
VERTEX
  5
564
330
553
100
AcDbEntity
  8
ｴｸｽﾃﾘｱ商品
 62
   255
370
    20
100
AcDbVertex
100
AcDbPolyFaceMeshVertex
 10
3990.587554247429
 20
10627.2532072895
 30
2683.948665112846
 70
   192
  0
VERTEX
  5
565
330
553
100
AcDbEntity
  8
ｴｸｽﾃﾘｱ商品
 62
   255
370
    20
100
AcDbVertex
100
AcDbPolyFaceMeshVertex
 10
4030.587554247428
 20
5251.736161498643
 30
2576.280237001728
 70
   192
  0
VERTEX
  5
566
330
553
100
AcDbEntity
  8
ｴｸｽﾃﾘｱ商品
 62
   255
370
    20
100
AcDbVertex
100
AcDbPolyFaceMeshVertex
 10
4030.587554247429
 20
10624.4612475533
 30
2763.899931274374
 70
   192
  0
VERTEX
  5
567
330
553
100
AcDbEntity
  8
ｴｸｽﾃﾘｱ商品
 62
   255
370
    20
100
AcDbVertex
100
AcDbPolyFaceMeshVertex
 10
4070.587554247428
 20
5251.736161498643
 30
2576.280237001728
 70
   192
  0
VERTEX
  5
568
330
553
100
AcDbEntity
  8
ｴｸｽﾃﾘｱ商品
 62
   255
370
    20
100
AcDbVertex
100
AcDbPolyFaceMeshVertex
 10
4070.587554247429
 20
10624.4612475533
 30
2763.899931274374
 70
   192
  0
VERTEX
  5
569
330
553
100
AcDbEntity
  8
ｴｸｽﾃﾘｱ商品
 62
   255
370
    20
100
AcDbVertex
100
AcDbPolyFaceMeshVertex
 10
4110.587554247428
 20
5254.528121234843
 30
2496.328970840201
 70
   192
  0
VERTEX
  5
56A
330
553
100
AcDbEntity
  8
ｴｸｽﾃﾘｱ商品
 62
   255
370
    20
100
AcDbVertex
100
AcDbPolyFaceMeshVertex
 10
4110.587554247429
 20
10627.2532072895
 30
2683.948665112846
 70
   192
  0
VERTEX
  5
56B
330
553
100
AcDbEntity
  8
ｴｸｽﾃﾘｱ商品
 62
   255
370
    20
100
AcDbVertex
100
AcDbPolyFaceMeshVertex
 10
4130.587554247428
 20
5254.528121234843
 30
2496.328970840201
 70
   192
  0
VERTEX
  5
56C
330
553
100
AcDbEntity
  8
ｴｸｽﾃﾘｱ商品
 62
   255
370
    20
100
AcDbVertex
100
AcDbPolyFaceMeshVertex
 10
4130.587554247429
 20
10627.2532072895
 30
2683.948665112846
 70
   192
  0
VERTEX
  5
56D
330
553
100
AcDbEntity
  8
ｴｸｽﾃﾘｱ商品
 62
   255
370
    20
100
AcDbFaceRecord
 10
0.0
 20
0.0
 30
0.0
 70
   128
 71
     1
 72
     2
 73
     3
 74
     4
  0
VERTEX
  5
56E
330
553
100
AcDbEntity
  8
ｴｸｽﾃﾘｱ商品
 62
   255
370
    20
100
AcDbFaceRecord
 10
0.0
 20
0.0
 30
0.0
 70
   128
 71
     4
 72
     3
 73
     5
 74
     6
  0
VERTEX
  5
56F
330
553
100
AcDbEntity
  8
ｴｸｽﾃﾘｱ商品
 62
   255
370
    20
100
AcDbFaceRecord
 10
0.0
 20
0.0
 30
0.0
 70
   128
 71
     6
 72
     5
 73
     7
 74
     8
  0
VERTEX
  5
570
330
553
100
AcDbEntity
  8
ｴｸｽﾃﾘｱ商品
 62
   255
370
    20
100
AcDbFaceRecord
 10
0.0
 20
0.0
 30
0.0
 70
   128
 71
     8
 72
     7
 73
     9
 74
    10
  0
VERTEX
  5
571
330
553
100
AcDbEntity
  8
ｴｸｽﾃﾘｱ商品
 62
   255
370
    20
100
AcDbFaceRecord
 10
0.0
 20
0.0
 30
0.0
 70
   128
 71
    10
 72
     9
 73
    11
 74
    12
  0
VERTEX
  5
572
330
553
100
AcDbEntity
  8
ｴｸｽﾃﾘｱ商品
 62
   255
370
    20
100
AcDbFaceRecord
 10
0.0
 20
0.0
 30
0.0
 70
   128
 71
    12
 72
    11
 73
    13
 74
    14
  0
VERTEX
  5
573
330
553
100
AcDbEntity
  8
ｴｸｽﾃﾘｱ商品
 62
   255
370
    20
100
AcDbFaceRecord
 10
0.0
 20
0.0
 30
0.0
 70
   128
 71
    14
 72
    13
 73
    15
 74
    16
  0
VERTEX
  5
574
330
553
100
AcDbEntity
  8
ｴｸｽﾃﾘｱ商品
 62
   255
370
    20
100
AcDbFaceRecord
 10
0.0
 20
0.0
 30
0.0
 70
   128
 71
    16
 72
    15
 73
    17
 74
    18
  0
VERTEX
  5
575
330
553
100
AcDbEntity
  8
ｴｸｽﾃﾘｱ商品
 62
   255
370
    20
100
AcDbFaceRecord
 10
0.0
 20
0.0
 30
0.0
 70
   128
 71
    18
 72
    17
 73
    19
 74
    20
  0
VERTEX
  5
576
330
553
100
AcDbEntity
  8
ｴｸｽﾃﾘｱ商品
 62
   255
370
    20
100
AcDbFaceRecord
 10
0.0
 20
0.0
 30
0.0
 70
   128
 71
    20
 72
    19
 73
    21
 74
    22
  0
VERTEX
  5
577
330
553
100
AcDbEntity
  8
ｴｸｽﾃﾘｱ商品
 62
   255
370
    20
100
AcDbFaceRecord
 10
0.0
 20
0.0
 30
0.0
 70
   128
 71
    22
 72
    21
 73
    23
 74
    24
  0
VERTEX
  5
578
330
553
100
AcDbEntity
  8
ｴｸｽﾃﾘｱ商品
 62
   255
370
    20
100
AcDbFaceRecord
 10
0.0
 20
0.0
 30
0.0
 70
   128
 71
    24
 72
    23
 73
     2
 74
     1
  0
VERTEX
  5
579
330
553
100
AcDbEntity
  8
ｴｸｽﾃﾘｱ商品
 62
   255
370
    20
100
AcDbFaceRecord
 10
0.0
 20
0.0
 30
0.0
 70
   128
 71
     6
 72
     8
 73
    18
  0
VERTEX
  5
57A
330
553
100
AcDbEntity
  8
ｴｸｽﾃﾘｱ商品
 62
   255
370
    20
100
AcDbFaceRecord
 10
0.0
 20
0.0
 30
0.0
 70
   128
 71
     6
 72
    18
 73
    20
  0
VERTEX
  5
57B
330
553
100
AcDbEntity
  8
ｴｸｽﾃﾘｱ商品
 62
   255
370
    20
100
AcDbFaceRecord
 10
0.0
 20
0.0
 30
0.0
 70
   128
 71
    16
 72
    18
 73
     8
  0
VERTEX
  5
57C
330
553
100
AcDbEntity
  8
ｴｸｽﾃﾘｱ商品
 62
   255
370
    20
100
AcDbFaceRecord
 10
0.0
 20
0.0
 30
0.0
 70
   128
 71
     6
 72
    20
 73
    22
  0
VERTEX
  5
57D
330
553
100
AcDbEntity
  8
ｴｸｽﾃﾘｱ商品
 62
   255
370
    20
100
AcDbFaceRecord
 10
0.0
 20
0.0
 30
0.0
 70
   128
 71
    12
 72
    14
 73
    16
  0
VERTEX
  5
57E
330
553
100
AcDbEntity
  8
ｴｸｽﾃﾘｱ商品
 62
   255
370
    20
100
AcDbFaceRecord
 10
0.0
 20
0.0
 30
0.0
 70
   128
 71
    12
 72
    16
 73
    10
  0
VERTEX
  5
57F
330
553
100
AcDbEntity
  8
ｴｸｽﾃﾘｱ商品
 62
   255
370
    20
100
AcDbFaceRecord
 10
0.0
 20
0.0
 30
0.0
 70
   128
 71
    10
 72
    16
 73
     8
  0
VERTEX
  5
580
330
553
100
AcDbEntity
  8
ｴｸｽﾃﾘｱ商品
 62
   255
370
    20
100
AcDbFaceRecord
 10
0.0
 20
0.0
 30
0.0
 70
   128
 71
     4
 72
     6
 73
    22
  0
VERTEX
  5
581
330
553
100
AcDbEntity
  8
ｴｸｽﾃﾘｱ商品
 62
   255
370
    20
100
AcDbFaceRecord
 10
0.0
 20
0.0
 30
0.0
 70
   128
 71
     4
 72
    22
 73
     1
  0
VERTEX
  5
582
330
553
100
AcDbEntity
  8
ｴｸｽﾃﾘｱ商品
 62
   255
370
    20
100
AcDbFaceRecord
 10
0.0
 20
0.0
 30
0.0
 70
   128
 71
     1
 72
    22
 73
    24
  0
VERTEX
  5
583
330
553
100
AcDbEntity
  8
ｴｸｽﾃﾘｱ商品
 62
   255
370
    20
100
AcDbFaceRecord
 10
0.0
 20
0.0
 30
0.0
 70
   128
 71
     7
 72
     5
 73
    19
  0
VERTEX
  5
584
330
553
100
AcDbEntity
  8
ｴｸｽﾃﾘｱ商品
 62
   255
370
    20
100
AcDbFaceRecord
 10
0.0
 20
0.0
 30
0.0
 70
   128
 71
     7
 72
    19
 73
    17
  0
VERTEX
  5
585
330
553
100
AcDbEntity
  8
ｴｸｽﾃﾘｱ商品
 62
   255
370
    20
100
AcDbFaceRecord
 10
0.0
 20
0.0
 30
0.0
 70
   128
 71
    21
 72
    19
 73
     5
  0
VERTEX
  5
586
330
553
100
AcDbEntity
  8
ｴｸｽﾃﾘｱ商品
 62
   255
370
    20
100
AcDbFaceRecord
 10
0.0
 20
0.0
 30
0.0
 70
   128
 71
     7
 72
    17
 73
    15
  0
VERTEX
  5
587
330
553
100
AcDbEntity
  8
ｴｸｽﾃﾘｱ商品
 62
   255
370
    20
100
AcDbFaceRecord
 10
0.0
 20
0.0
 30
0.0
 70
   128
 71
     2
 72
    23
 73
    21
  0
VERTEX
  5
588
330
553
100
AcDbEntity
  8
ｴｸｽﾃﾘｱ商品
 62
   255
370
    20
100
AcDbFaceRecord
 10
0.0
 20
0.0
 30
0.0
 70
   128
 71
     2
 72
    21
 73
     3
  0
VERTEX
  5
589
330
553
100
AcDbEntity
  8
ｴｸｽﾃﾘｱ商品
 62
   255
370
    20
100
AcDbFaceRecord
 10
0.0
 20
0.0
 30
0.0
 70
   128
 71
     3
 72
    21
 73
     5
  0
VERTEX
  5
58A
330
553
100
AcDbEntity
  8
ｴｸｽﾃﾘｱ商品
 62
   255
370
    20
100
AcDbFaceRecord
 10
0.0
 20
0.0
 30
0.0
 70
   128
 71
     9
 72
     7
 73
    15
  0
VERTEX
  5
58B
330
553
100
AcDbEntity
  8
ｴｸｽﾃﾘｱ商品
 62
   255
370
    20
100
AcDbFaceRecord
 10
0.0
 20
0.0
 30
0.0
 70
   128
 71
     9
 72
    15
 73
    11
  0
VERTEX
  5
58C
330
553
100
AcDbEntity
  8
ｴｸｽﾃﾘｱ商品
 62
   255
370
    20
100
AcDbFaceRecord
 10
0.0
 20
0.0
 30
0.0
 70
   128
 71
    11
 72
    15
 73
    13
  0
SEQEND
  5
554
330
553
100
AcDbEntity
  8
ｴｸｽﾃﾘｱ商品
370
    20
  0
POLYLINE
  5
58D
330
3C
100
AcDbEntity
  8
ｴｸｽﾃﾘｱ商品
 62
   255
370
    20
100
AcDbPolyFaceMesh
 66
     1
 10
0.0
 20
0.0
 30
0.0
 70
    64
 71
    24
 72
    32
  0
VERTEX
  5
58F
330
58D
100
AcDbEntity
  8
ｴｸｽﾃﾘｱ商品
 62
   255
370
    20
100
AcDbVertex
100
AcDbPolyFaceMeshVertex
 10
3970.587554247429
 20
10627.95119722355
 30
2663.960848572464
 70
   192
  0
VERTEX
  5
590
330
58D
100
AcDbEntity
  8
ｴｸｽﾃﾘｱ商品
 62
   255
370
    20
100
AcDbVertex
100
AcDbPolyFaceMeshVertex
 10
3970.587554247428
 20
5255.226111168893
 30
2476.341154299819
 70
   192
  0
VERTEX
  5
591
330
58D
100
AcDbEntity
  8
ｴｸｽﾃﾘｱ商品
 62
   255
370
    20
100
AcDbVertex
100
AcDbPolyFaceMeshVertex
 10
3950.587554247428
 20
5255.226111168893
 30
2476.341154299819
 70
   192
  0
VERTEX
  5
592
330
58D
100
AcDbEntity
  8
ｴｸｽﾃﾘｱ商品
 62
   255
370
    20
100
AcDbVertex
100
AcDbPolyFaceMeshVertex
 10
3950.587554247429
 20
10627.95119722355
 30
2663.960848572464
 70
   192
  0
VERTEX
  5
593
330
58D
100
AcDbEntity
  8
ｴｸｽﾃﾘｱ商品
 62
   255
370
    20
100
AcDbVertex
100
AcDbPolyFaceMeshVertex
 10
3910.587554247428
 20
5252.434151432693
 30
2556.292420461346
 70
   192
  0
VERTEX
  5
594
330
58D
100
AcDbEntity
  8
ｴｸｽﾃﾘｱ商品
 62
   255
370
    20
100
AcDbVertex
100
AcDbPolyFaceMeshVertex
 10
3910.587554247428
 20
10625.15923748735
 30
2743.912114733992
 70
   192
  0
VERTEX
  5
595
330
58D
100
AcDbEntity
  8
ｴｸｽﾃﾘｱ商品
 62
   255
370
    20
100
AcDbVertex
100
AcDbPolyFaceMeshVertex
 10
3870.587554247428
 20
5252.434151432693
 30
2556.292420461346
 70
   192
  0
VERTEX
  5
596
330
58D
100
AcDbEntity
  8
ｴｸｽﾃﾘｱ商品
 62
   255
370
    20
100
AcDbVertex
100
AcDbPolyFaceMeshVertex
 10
3870.587554247428
 20
10625.15923748735
 30
2743.912114733992
 70
   192
  0
VERTEX
  5
597
330
58D
100
AcDbEntity
  8
ｴｸｽﾃﾘｱ商品
 62
   255
370
    20
100
AcDbVertex
100
AcDbPolyFaceMeshVertex
 10
3830.587554247428
 20
5255.226111168893
 30
2476.341154299819
 70
   192
  0
VERTEX
  5
598
330
58D
100
AcDbEntity
  8
ｴｸｽﾃﾘｱ商品
 62
   255
370
    20
100
AcDbVertex
100
AcDbPolyFaceMeshVertex
 10
3830.587554247428
 20
10627.95119722355
 30
2663.960848572464
 70
   192
  0
VERTEX
  5
599
330
58D
100
AcDbEntity
  8
ｴｸｽﾃﾘｱ商品
 62
   255
370
    20
100
AcDbVertex
100
AcDbPolyFaceMeshVertex
 10
3810.587554247428
 20
5255.226111168893
 30
2476.341154299819
 70
   192
  0
VERTEX
  5
59A
330
58D
100
AcDbEntity
  8
ｴｸｽﾃﾘｱ商品
 62
   255
370
    20
100
AcDbVertex
100
AcDbPolyFaceMeshVertex
 10
3810.587554247428
 20
10627.95119722355
 30
2663.960848572464
 70
   192
  0
VERTEX
  5
59B
330
58D
100
AcDbEntity
  8
ｴｸｽﾃﾘｱ商品
 62
   255
370
    20
100
AcDbVertex
100
AcDbPolyFaceMeshVertex
 10
3810.587554247428
 20
5254.528121234843
 30
2496.328970840201
 70
   192
  0
VERTEX
  5
59C
330
58D
100
AcDbEntity
  8
ｴｸｽﾃﾘｱ商品
 62
   255
370
    20
100
AcDbVertex
100
AcDbPolyFaceMeshVertex
 10
3810.587554247428
 20
10627.2532072895
 30
2683.948665112846
 70
   192
  0
VERTEX
  5
59D
330
58D
100
AcDbEntity
  8
ｴｸｽﾃﾘｱ商品
 62
   255
370
    20
100
AcDbVertex
100
AcDbPolyFaceMeshVertex
 10
3830.587554247428
 20
5254.528121234843
 30
2496.328970840201
 70
   192
  0
VERTEX
  5
59E
330
58D
100
AcDbEntity
  8
ｴｸｽﾃﾘｱ商品
 62
   255
370
    20
100
AcDbVertex
100
AcDbPolyFaceMeshVertex
 10
3830.587554247428
 20
10627.2532072895
 30
2683.948665112846
 70
   192
  0
VERTEX
  5
59F
330
58D
100
AcDbEntity
  8
ｴｸｽﾃﾘｱ商品
 62
   255
370
    20
100
AcDbVertex
100
AcDbPolyFaceMeshVertex
 10
3870.587554247428
 20
5251.736161498643
 30
2576.280237001728
 70
   192
  0
VERTEX
  5
5A0
330
58D
100
AcDbEntity
  8
ｴｸｽﾃﾘｱ商品
 62
   255
370
    20
100
AcDbVertex
100
AcDbPolyFaceMeshVertex
 10
3870.587554247428
 20
10624.4612475533
 30
2763.899931274374
 70
   192
  0
VERTEX
  5
5A1
330
58D
100
AcDbEntity
  8
ｴｸｽﾃﾘｱ商品
 62
   255
370
    20
100
AcDbVertex
100
AcDbPolyFaceMeshVertex
 10
3910.587554247428
 20
5251.736161498643
 30
2576.280237001728
 70
   192
  0
VERTEX
  5
5A2
330
58D
100
AcDbEntity
  8
ｴｸｽﾃﾘｱ商品
 62
   255
370
    20
100
AcDbVertex
100
AcDbPolyFaceMeshVertex
 10
3910.587554247428
 20
10624.4612475533
 30
2763.899931274374
 70
   192
  0
VERTEX
  5
5A3
330
58D
100
AcDbEntity
  8
ｴｸｽﾃﾘｱ商品
 62
   255
370
    20
100
AcDbVertex
100
AcDbPolyFaceMeshVertex
 10
3950.587554247428
 20
5254.528121234843
 30
2496.328970840201
 70
   192
  0
VERTEX
  5
5A4
330
58D
100
AcDbEntity
  8
ｴｸｽﾃﾘｱ商品
 62
   255
370
    20
100
AcDbVertex
100
AcDbPolyFaceMeshVertex
 10
3950.587554247429
 20
10627.2532072895
 30
2683.948665112846
 70
   192
  0
VERTEX
  5
5A5
330
58D
100
AcDbEntity
  8
ｴｸｽﾃﾘｱ商品
 62
   255
370
    20
100
AcDbVertex
100
AcDbPolyFaceMeshVertex
 10
3970.587554247428
 20
5254.528121234843
 30
2496.328970840201
 70
   192
  0
VERTEX
  5
5A6
330
58D
100
AcDbEntity
  8
ｴｸｽﾃﾘｱ商品
 62
   255
370
    20
100
AcDbVertex
100
AcDbPolyFaceMeshVertex
 10
3970.587554247429
 20
10627.2532072895
 30
2683.948665112846
 70
   192
  0
VERTEX
  5
5A7
330
58D
100
AcDbEntity
  8
ｴｸｽﾃﾘｱ商品
 62
   255
370
    20
100
AcDbFaceRecord
 10
0.0
 20
0.0
 30
0.0
 70
   128
 71
     1
 72
     2
 73
     3
 74
     4
  0
VERTEX
  5
5A8
330
58D
100
AcDbEntity
  8
ｴｸｽﾃﾘｱ商品
 62
   255
370
    20
100
AcDbFaceRecord
 10
0.0
 20
0.0
 30
0.0
 70
   128
 71
     4
 72
     3
 73
     5
 74
     6
  0
VERTEX
  5
5A9
330
58D
100
AcDbEntity
  8
ｴｸｽﾃﾘｱ商品
 62
   255
370
    20
100
AcDbFaceRecord
 10
0.0
 20
0.0
 30
0.0
 70
   128
 71
     6
 72
     5
 73
     7
 74
     8
  0
VERTEX
  5
5AA
330
58D
100
AcDbEntity
  8
ｴｸｽﾃﾘｱ商品
 62
   255
370
    20
100
AcDbFaceRecord
 10
0.0
 20
0.0
 30
0.0
 70
   128
 71
     8
 72
     7
 73
     9
 74
    10
  0
VERTEX
  5
5AB
330
58D
100
AcDbEntity
  8
ｴｸｽﾃﾘｱ商品
 62
   255
370
    20
100
AcDbFaceRecord
 10
0.0
 20
0.0
 30
0.0
 70
   128
 71
    10
 72
     9
 73
    11
 74
    12
  0
VERTEX
  5
5AC
330
58D
100
AcDbEntity
  8
ｴｸｽﾃﾘｱ商品
 62
   255
370
    20
100
AcDbFaceRecord
 10
0.0
 20
0.0
 30
0.0
 70
   128
 71
    12
 72
    11
 73
    13
 74
    14
  0
VERTEX
  5
5AD
330
58D
100
AcDbEntity
  8
ｴｸｽﾃﾘｱ商品
 62
   255
370
    20
100
AcDbFaceRecord
 10
0.0
 20
0.0
 30
0.0
 70
   128
 71
    14
 72
    13
 73
    15
 74
    16
  0
VERTEX
  5
5AE
330
58D
100
AcDbEntity
  8
ｴｸｽﾃﾘｱ商品
 62
   255
370
    20
100
AcDbFaceRecord
 10
0.0
 20
0.0
 30
0.0
 70
   128
 71
    16
 72
    15
 73
    17
 74
    18
  0
VERTEX
  5
5AF
330
58D
100
AcDbEntity
  8
ｴｸｽﾃﾘｱ商品
 62
   255
370
    20
100
AcDbFaceRecord
 10
0.0
 20
0.0
 30
0.0
 70
   128
 71
    18
 72
    17
 73
    19
 74
    20
  0
VERTEX
  5
5B0
330
58D
100
AcDbEntity
  8
ｴｸｽﾃﾘｱ商品
 62
   255
370
    20
100
AcDbFaceRecord
 10
0.0
 20
0.0
 30
0.0
 70
   128
 71
    20
 72
    19
 73
    21
 74
    22
  0
VERTEX
  5
5B1
330
58D
100
AcDbEntity
  8
ｴｸｽﾃﾘｱ商品
 62
   255
370
    20
100
AcDbFaceRecord
 10
0.0
 20
0.0
 30
0.0
 70
   128
 71
    22
 72
    21
 73
    23
 74
    24
  0
VERTEX
  5
5B2
330
58D
100
AcDbEntity
  8
ｴｸｽﾃﾘｱ商品
 62
   255
370
    20
100
AcDbFaceRecord
 10
0.0
 20
0.0
 30
0.0
 70
   128
 71
    24
 72
    23
 73
     2
 74
     1
  0
VERTEX
  5
5B3
330
58D
100
AcDbEntity
  8
ｴｸｽﾃﾘｱ商品
 62
   255
370
    20
100
AcDbFaceRecord
 10
0.0
 20
0.0
 30
0.0
 70
   128
 71
     6
 72
     8
 73
    18
  0
VERTEX
  5
5B4
330
58D
100
AcDbEntity
  8
ｴｸｽﾃﾘｱ商品
 62
   255
370
    20
100
AcDbFaceRecord
 10
0.0
 20
0.0
 30
0.0
 70
   128
 71
     6
 72
    18
 73
    20
  0
VERTEX
  5
5B5
330
58D
100
AcDbEntity
  8
ｴｸｽﾃﾘｱ商品
 62
   255
370
    20
100
AcDbFaceRecord
 10
0.0
 20
0.0
 30
0.0
 70
   128
 71
    16
 72
    18
 73
     8
  0
VERTEX
  5
5B6
330
58D
100
AcDbEntity
  8
ｴｸｽﾃﾘｱ商品
 62
   255
370
    20
100
AcDbFaceRecord
 10
0.0
 20
0.0
 30
0.0
 70
   128
 71
     6
 72
    20
 73
    22
  0
VERTEX
  5
5B7
330
58D
100
AcDbEntity
  8
ｴｸｽﾃﾘｱ商品
 62
   255
370
    20
100
AcDbFaceRecord
 10
0.0
 20
0.0
 30
0.0
 70
   128
 71
    12
 72
    14
 73
    16
  0
VERTEX
  5
5B8
330
58D
100
AcDbEntity
  8
ｴｸｽﾃﾘｱ商品
 62
   255
370
    20
100
AcDbFaceRecord
 10
0.0
 20
0.0
 30
0.0
 70
   128
 71
    12
 72
    16
 73
    10
  0
VERTEX
  5
5B9
330
58D
100
AcDbEntity
  8
ｴｸｽﾃﾘｱ商品
 62
   255
370
    20
100
AcDbFaceRecord
 10
0.0
 20
0.0
 30
0.0
 70
   128
 71
    10
 72
    16
 73
     8
  0
VERTEX
  5
5BA
330
58D
100
AcDbEntity
  8
ｴｸｽﾃﾘｱ商品
 62
   255
370
    20
100
AcDbFaceRecord
 10
0.0
 20
0.0
 30
0.0
 70
   128
 71
     4
 72
     6
 73
    22
  0
VERTEX
  5
5BB
330
58D
100
AcDbEntity
  8
ｴｸｽﾃﾘｱ商品
 62
   255
370
    20
100
AcDbFaceRecord
 10
0.0
 20
0.0
 30
0.0
 70
   128
 71
     4
 72
    22
 73
     1
  0
VERTEX
  5
5BC
330
58D
100
AcDbEntity
  8
ｴｸｽﾃﾘｱ商品
 62
   255
370
    20
100
AcDbFaceRecord
 10
0.0
 20
0.0
 30
0.0
 70
   128
 71
     1
 72
    22
 73
    24
  0
VERTEX
  5
5BD
330
58D
100
AcDbEntity
  8
ｴｸｽﾃﾘｱ商品
 62
   255
370
    20
100
AcDbFaceRecord
 10
0.0
 20
0.0
 30
0.0
 70
   128
 71
     7
 72
     5
 73
    19
  0
VERTEX
  5
5BE
330
58D
100
AcDbEntity
  8
ｴｸｽﾃﾘｱ商品
 62
   255
370
    20
100
AcDbFaceRecord
 10
0.0
 20
0.0
 30
0.0
 70
   128
 71
     7
 72
    19
 73
    17
  0
VERTEX
  5
5BF
330
58D
100
AcDbEntity
  8
ｴｸｽﾃﾘｱ商品
 62
   255
370
    20
100
AcDbFaceRecord
 10
0.0
 20
0.0
 30
0.0
 70
   128
 71
    21
 72
    19
 73
     5
  0
VERTEX
  5
5C0
330
58D
100
AcDbEntity
  8
ｴｸｽﾃﾘｱ商品
 62
   255
370
    20
100
AcDbFaceRecord
 10
0.0
 20
0.0
 30
0.0
 70
   128
 71
     7
 72
    17
 73
    15
  0
VERTEX
  5
5C1
330
58D
100
AcDbEntity
  8
ｴｸｽﾃﾘｱ商品
 62
   255
370
    20
100
AcDbFaceRecord
 10
0.0
 20
0.0
 30
0.0
 70
   128
 71
     2
 72
    23
 73
    21
  0
VERTEX
  5
5C2
330
58D
100
AcDbEntity
  8
ｴｸｽﾃﾘｱ商品
 62
   255
370
    20
100
AcDbFaceRecord
 10
0.0
 20
0.0
 30
0.0
 70
   128
 71
     2
 72
    21
 73
     3
  0
VERTEX
  5
5C3
330
58D
100
AcDbEntity
  8
ｴｸｽﾃﾘｱ商品
 62
   255
370
    20
100
AcDbFaceRecord
 10
0.0
 20
0.0
 30
0.0
 70
   128
 71
     3
 72
    21
 73
     5
  0
VERTEX
  5
5C4
330
58D
100
AcDbEntity
  8
ｴｸｽﾃﾘｱ商品
 62
   255
370
    20
100
AcDbFaceRecord
 10
0.0
 20
0.0
 30
0.0
 70
   128
 71
     9
 72
     7
 73
    15
  0
VERTEX
  5
5C5
330
58D
100
AcDbEntity
  8
ｴｸｽﾃﾘｱ商品
 62
   255
370
    20
100
AcDbFaceRecord
 10
0.0
 20
0.0
 30
0.0
 70
   128
 71
     9
 72
    15
 73
    11
  0
VERTEX
  5
5C6
330
58D
100
AcDbEntity
  8
ｴｸｽﾃﾘｱ商品
 62
   255
370
    20
100
AcDbFaceRecord
 10
0.0
 20
0.0
 30
0.0
 70
   128
 71
    11
 72
    15
 73
    13
  0
SEQEND
  5
58E
330
58D
100
AcDbEntity
  8
ｴｸｽﾃﾘｱ商品
370
    20
  0
POLYLINE
  5
5C7
330
3C
100
AcDbEntity
  8
ｴｸｽﾃﾘｱ商品
 62
   255
370
    20
100
AcDbPolyFaceMesh
 66
     1
 10
0.0
 20
0.0
 30
0.0
 70
    64
 71
    24
 72
    32
  0
VERTEX
  5
5C9
330
5C7
100
AcDbEntity
  8
ｴｸｽﾃﾘｱ商品
 62
   255
370
    20
100
AcDbVertex
100
AcDbPolyFaceMeshVertex
 10
3810.587554247428
 20
10627.95119722355
 30
2663.960848572464
 70
   192
  0
VERTEX
  5
5CA
330
5C7
100
AcDbEntity
  8
ｴｸｽﾃﾘｱ商品
 62
   255
370
    20
100
AcDbVertex
100
AcDbPolyFaceMeshVertex
 10
3810.587554247428
 20
5255.226111168893
 30
2476.341154299819
 70
   192
  0
VERTEX
  5
5CB
330
5C7
100
AcDbEntity
  8
ｴｸｽﾃﾘｱ商品
 62
   255
370
    20
100
AcDbVertex
100
AcDbPolyFaceMeshVertex
 10
3790.587554247428
 20
5255.226111168893
 30
2476.341154299819
 70
   192
  0
VERTEX
  5
5CC
330
5C7
100
AcDbEntity
  8
ｴｸｽﾃﾘｱ商品
 62
   255
370
    20
100
AcDbVertex
100
AcDbPolyFaceMeshVertex
 10
3790.587554247428
 20
10627.95119722355
 30
2663.960848572464
 70
   192
  0
VERTEX
  5
5CD
330
5C7
100
AcDbEntity
  8
ｴｸｽﾃﾘｱ商品
 62
   255
370
    20
100
AcDbVertex
100
AcDbPolyFaceMeshVertex
 10
3750.587554247428
 20
5252.434151432693
 30
2556.292420461346
 70
   192
  0
VERTEX
  5
5CE
330
5C7
100
AcDbEntity
  8
ｴｸｽﾃﾘｱ商品
 62
   255
370
    20
100
AcDbVertex
100
AcDbPolyFaceMeshVertex
 10
3750.587554247428
 20
10625.15923748735
 30
2743.912114733992
 70
   192
  0
VERTEX
  5
5CF
330
5C7
100
AcDbEntity
  8
ｴｸｽﾃﾘｱ商品
 62
   255
370
    20
100
AcDbVertex
100
AcDbPolyFaceMeshVertex
 10
3710.587554247428
 20
5252.434151432693
 30
2556.292420461346
 70
   192
  0
VERTEX
  5
5D0
330
5C7
100
AcDbEntity
  8
ｴｸｽﾃﾘｱ商品
 62
   255
370
    20
100
AcDbVertex
100
AcDbPolyFaceMeshVertex
 10
3710.587554247428
 20
10625.15923748735
 30
2743.912114733992
 70
   192
  0
VERTEX
  5
5D1
330
5C7
100
AcDbEntity
  8
ｴｸｽﾃﾘｱ商品
 62
   255
370
    20
100
AcDbVertex
100
AcDbPolyFaceMeshVertex
 10
3670.587554247428
 20
5255.226111168893
 30
2476.341154299819
 70
   192
  0
VERTEX
  5
5D2
330
5C7
100
AcDbEntity
  8
ｴｸｽﾃﾘｱ商品
 62
   255
370
    20
100
AcDbVertex
100
AcDbPolyFaceMeshVertex
 10
3670.587554247428
 20
10627.95119722355
 30
2663.960848572464
 70
   192
  0
VERTEX
  5
5D3
330
5C7
100
AcDbEntity
  8
ｴｸｽﾃﾘｱ商品
 62
   255
370
    20
100
AcDbVertex
100
AcDbPolyFaceMeshVertex
 10
3650.587554247428
 20
5255.226111168893
 30
2476.341154299819
 70
   192
  0
VERTEX
  5
5D4
330
5C7
100
AcDbEntity
  8
ｴｸｽﾃﾘｱ商品
 62
   255
370
    20
100
AcDbVertex
100
AcDbPolyFaceMeshVertex
 10
3650.587554247428
 20
10627.95119722355
 30
2663.960848572464
 70
   192
  0
VERTEX
  5
5D5
330
5C7
100
AcDbEntity
  8
ｴｸｽﾃﾘｱ商品
 62
   255
370
    20
100
AcDbVertex
100
AcDbPolyFaceMeshVertex
 10
3650.587554247428
 20
5254.528121234843
 30
2496.328970840201
 70
   192
  0
VERTEX
  5
5D6
330
5C7
100
AcDbEntity
  8
ｴｸｽﾃﾘｱ商品
 62
   255
370
    20
100
AcDbVertex
100
AcDbPolyFaceMeshVertex
 10
3650.587554247428
 20
10627.2532072895
 30
2683.948665112846
 70
   192
  0
VERTEX
  5
5D7
330
5C7
100
AcDbEntity
  8
ｴｸｽﾃﾘｱ商品
 62
   255
370
    20
100
AcDbVertex
100
AcDbPolyFaceMeshVertex
 10
3670.587554247428
 20
5254.528121234843
 30
2496.328970840201
 70
   192
  0
VERTEX
  5
5D8
330
5C7
100
AcDbEntity
  8
ｴｸｽﾃﾘｱ商品
 62
   255
370
    20
100
AcDbVertex
100
AcDbPolyFaceMeshVertex
 10
3670.587554247428
 20
10627.2532072895
 30
2683.948665112846
 70
   192
  0
VERTEX
  5
5D9
330
5C7
100
AcDbEntity
  8
ｴｸｽﾃﾘｱ商品
 62
   255
370
    20
100
AcDbVertex
100
AcDbPolyFaceMeshVertex
 10
3710.587554247428
 20
5251.736161498643
 30
2576.280237001728
 70
   192
  0
VERTEX
  5
5DA
330
5C7
100
AcDbEntity
  8
ｴｸｽﾃﾘｱ商品
 62
   255
370
    20
100
AcDbVertex
100
AcDbPolyFaceMeshVertex
 10
3710.587554247428
 20
10624.4612475533
 30
2763.899931274374
 70
   192
  0
VERTEX
  5
5DB
330
5C7
100
AcDbEntity
  8
ｴｸｽﾃﾘｱ商品
 62
   255
370
    20
100
AcDbVertex
100
AcDbPolyFaceMeshVertex
 10
3750.587554247428
 20
5251.736161498643
 30
2576.280237001728
 70
   192
  0
VERTEX
  5
5DC
330
5C7
100
AcDbEntity
  8
ｴｸｽﾃﾘｱ商品
 62
   255
370
    20
100
AcDbVertex
100
AcDbPolyFaceMeshVertex
 10
3750.587554247428
 20
10624.4612475533
 30
2763.899931274374
 70
   192
  0
VERTEX
  5
5DD
330
5C7
100
AcDbEntity
  8
ｴｸｽﾃﾘｱ商品
 62
   255
370
    20
100
AcDbVertex
100
AcDbPolyFaceMeshVertex
 10
3790.587554247428
 20
5254.528121234843
 30
2496.328970840201
 70
   192
  0
VERTEX
  5
5DE
330
5C7
100
AcDbEntity
  8
ｴｸｽﾃﾘｱ商品
 62
   255
370
    20
100
AcDbVertex
100
AcDbPolyFaceMeshVertex
 10
3790.587554247428
 20
10627.2532072895
 30
2683.948665112846
 70
   192
  0
VERTEX
  5
5DF
330
5C7
100
AcDbEntity
  8
ｴｸｽﾃﾘｱ商品
 62
   255
370
    20
100
AcDbVertex
100
AcDbPolyFaceMeshVertex
 10
3810.587554247428
 20
5254.528121234843
 30
2496.328970840201
 70
   192
  0
VERTEX
  5
5E0
330
5C7
100
AcDbEntity
  8
ｴｸｽﾃﾘｱ商品
 62
   255
370
    20
100
AcDbVertex
100
AcDbPolyFaceMeshVertex
 10
3810.587554247428
 20
10627.2532072895
 30
2683.948665112846
 70
   192
  0
VERTEX
  5
5E1
330
5C7
100
AcDbEntity
  8
ｴｸｽﾃﾘｱ商品
 62
   255
370
    20
100
AcDbFaceRecord
 10
0.0
 20
0.0
 30
0.0
 70
   128
 71
     1
 72
     2
 73
     3
 74
     4
  0
VERTEX
  5
5E2
330
5C7
100
AcDbEntity
  8
ｴｸｽﾃﾘｱ商品
 62
   255
370
    20
100
AcDbFaceRecord
 10
0.0
 20
0.0
 30
0.0
 70
   128
 71
     4
 72
     3
 73
     5
 74
     6
  0
VERTEX
  5
5E3
330
5C7
100
AcDbEntity
  8
ｴｸｽﾃﾘｱ商品
 62
   255
370
    20
100
AcDbFaceRecord
 10
0.0
 20
0.0
 30
0.0
 70
   128
 71
     6
 72
     5
 73
     7
 74
     8
  0
VERTEX
  5
5E4
330
5C7
100
AcDbEntity
  8
ｴｸｽﾃﾘｱ商品
 62
   255
370
    20
100
AcDbFaceRecord
 10
0.0
 20
0.0
 30
0.0
 70
   128
 71
     8
 72
     7
 73
     9
 74
    10
  0
VERTEX
  5
5E5
330
5C7
100
AcDbEntity
  8
ｴｸｽﾃﾘｱ商品
 62
   255
370
    20
100
AcDbFaceRecord
 10
0.0
 20
0.0
 30
0.0
 70
   128
 71
    10
 72
     9
 73
    11
 74
    12
  0
VERTEX
  5
5E6
330
5C7
100
AcDbEntity
  8
ｴｸｽﾃﾘｱ商品
 62
   255
370
    20
100
AcDbFaceRecord
 10
0.0
 20
0.0
 30
0.0
 70
   128
 71
    12
 72
    11
 73
    13
 74
    14
  0
VERTEX
  5
5E7
330
5C7
100
AcDbEntity
  8
ｴｸｽﾃﾘｱ商品
 62
   255
370
    20
100
AcDbFaceRecord
 10
0.0
 20
0.0
 30
0.0
 70
   128
 71
    14
 72
    13
 73
    15
 74
    16
  0
VERTEX
  5
5E8
330
5C7
100
AcDbEntity
  8
ｴｸｽﾃﾘｱ商品
 62
   255
370
    20
100
AcDbFaceRecord
 10
0.0
 20
0.0
 30
0.0
 70
   128
 71
    16
 72
    15
 73
    17
 74
    18
  0
VERTEX
  5
5E9
330
5C7
100
AcDbEntity
  8
ｴｸｽﾃﾘｱ商品
 62
   255
370
    20
100
AcDbFaceRecord
 10
0.0
 20
0.0
 30
0.0
 70
   128
 71
    18
 72
    17
 73
    19
 74
    20
  0
VERTEX
  5
5EA
330
5C7
100
AcDbEntity
  8
ｴｸｽﾃﾘｱ商品
 62
   255
370
    20
100
AcDbFaceRecord
 10
0.0
 20
0.0
 30
0.0
 70
   128
 71
    20
 72
    19
 73
    21
 74
    22
  0
VERTEX
  5
5EB
330
5C7
100
AcDbEntity
  8
ｴｸｽﾃﾘｱ商品
 62
   255
370
    20
100
AcDbFaceRecord
 10
0.0
 20
0.0
 30
0.0
 70
   128
 71
    22
 72
    21
 73
    23
 74
    24
  0
VERTEX
  5
5EC
330
5C7
100
AcDbEntity
  8
ｴｸｽﾃﾘｱ商品
 62
   255
370
    20
100
AcDbFaceRecord
 10
0.0
 20
0.0
 30
0.0
 70
   128
 71
    24
 72
    23
 73
     2
 74
     1
  0
VERTEX
  5
5ED
330
5C7
100
AcDbEntity
  8
ｴｸｽﾃﾘｱ商品
 62
   255
370
    20
100
AcDbFaceRecord
 10
0.0
 20
0.0
 30
0.0
 70
   128
 71
     6
 72
     8
 73
    18
  0
VERTEX
  5
5EE
330
5C7
100
AcDbEntity
  8
ｴｸｽﾃﾘｱ商品
 62
   255
370
    20
100
AcDbFaceRecord
 10
0.0
 20
0.0
 30
0.0
 70
   128
 71
     6
 72
    18
 73
    20
  0
VERTEX
  5
5EF
330
5C7
100
AcDbEntity
  8
ｴｸｽﾃﾘｱ商品
 62
   255
370
    20
100
AcDbFaceRecord
 10
0.0
 20
0.0
 30
0.0
 70
   128
 71
    16
 72
    18
 73
     8
  0
VERTEX
  5
5F0
330
5C7
100
AcDbEntity
  8
ｴｸｽﾃﾘｱ商品
 62
   255
370
    20
100
AcDbFaceRecord
 10
0.0
 20
0.0
 30
0.0
 70
   128
 71
     6
 72
    20
 73
    22
  0
VERTEX
  5
5F1
330
5C7
100
AcDbEntity
  8
ｴｸｽﾃﾘｱ商品
 62
   255
370
    20
100
AcDbFaceRecord
 10
0.0
 20
0.0
 30
0.0
 70
   128
 71
    12
 72
    14
 73
    16
  0
VERTEX
  5
5F2
330
5C7
100
AcDbEntity
  8
ｴｸｽﾃﾘｱ商品
 62
   255
370
    20
100
AcDbFaceRecord
 10
0.0
 20
0.0
 30
0.0
 70
   128
 71
    12
 72
    16
 73
    10
  0
VERTEX
  5
5F3
330
5C7
100
AcDbEntity
  8
ｴｸｽﾃﾘｱ商品
 62
   255
370
    20
100
AcDbFaceRecord
 10
0.0
 20
0.0
 30
0.0
 70
   128
 71
    10
 72
    16
 73
     8
  0
VERTEX
  5
5F4
330
5C7
100
AcDbEntity
  8
ｴｸｽﾃﾘｱ商品
 62
   255
370
    20
100
AcDbFaceRecord
 10
0.0
 20
0.0
 30
0.0
 70
   128
 71
     4
 72
     6
 73
    22
  0
VERTEX
  5
5F5
330
5C7
100
AcDbEntity
  8
ｴｸｽﾃﾘｱ商品
 62
   255
370
    20
100
AcDbFaceRecord
 10
0.0
 20
0.0
 30
0.0
 70
   128
 71
     4
 72
    22
 73
     1
  0
VERTEX
  5
5F6
330
5C7
100
AcDbEntity
  8
ｴｸｽﾃﾘｱ商品
 62
   255
370
    20
100
AcDbFaceRecord
 10
0.0
 20
0.0
 30
0.0
 70
   128
 71
     1
 72
    22
 73
    24
  0
VERTEX
  5
5F7
330
5C7
100
AcDbEntity
  8
ｴｸｽﾃﾘｱ商品
 62
   255
370
    20
100
AcDbFaceRecord
 10
0.0
 20
0.0
 30
0.0
 70
   128
 71
     7
 72
     5
 73
    19
  0
VERTEX
  5
5F8
330
5C7
100
AcDbEntity
  8
ｴｸｽﾃﾘｱ商品
 62
   255
370
    20
100
AcDbFaceRecord
 10
0.0
 20
0.0
 30
0.0
 70
   128
 71
     7
 72
    19
 73
    17
  0
VERTEX
  5
5F9
330
5C7
100
AcDbEntity
  8
ｴｸｽﾃﾘｱ商品
 62
   255
370
    20
100
AcDbFaceRecord
 10
0.0
 20
0.0
 30
0.0
 70
   128
 71
    21
 72
    19
 73
     5
  0
VERTEX
  5
5FA
330
5C7
100
AcDbEntity
  8
ｴｸｽﾃﾘｱ商品
 62
   255
370
    20
100
AcDbFaceRecord
 10
0.0
 20
0.0
 30
0.0
 70
   128
 71
     7
 72
    17
 73
    15
  0
VERTEX
  5
5FB
330
5C7
100
AcDbEntity
  8
ｴｸｽﾃﾘｱ商品
 62
   255
370
    20
100
AcDbFaceRecord
 10
0.0
 20
0.0
 30
0.0
 70
   128
 71
     2
 72
    23
 73
    21
  0
VERTEX
  5
5FC
330
5C7
100
AcDbEntity
  8
ｴｸｽﾃﾘｱ商品
 62
   255
370
    20
100
AcDbFaceRecord
 10
0.0
 20
0.0
 30
0.0
 70
   128
 71
     2
 72
    21
 73
     3
  0
VERTEX
  5
5FD
330
5C7
100
AcDbEntity
  8
ｴｸｽﾃﾘｱ商品
 62
   255
370
    20
100
AcDbFaceRecord
 10
0.0
 20
0.0
 30
0.0
 70
   128
 71
     3
 72
    21
 73
     5
  0
VERTEX
  5
5FE
330
5C7
100
AcDbEntity
  8
ｴｸｽﾃﾘｱ商品
 62
   255
370
    20
100
AcDbFaceRecord
 10
0.0
 20
0.0
 30
0.0
 70
   128
 71
     9
 72
     7
 73
    15
  0
VERTEX
  5
5FF
330
5C7
100
AcDbEntity
  8
ｴｸｽﾃﾘｱ商品
 62
   255
370
    20
100
AcDbFaceRecord
 10
0.0
 20
0.0
 30
0.0
 70
   128
 71
     9
 72
    15
 73
    11
  0
VERTEX
  5
600
330
5C7
100
AcDbEntity
  8
ｴｸｽﾃﾘｱ商品
 62
   255
370
    20
100
AcDbFaceRecord
 10
0.0
 20
0.0
 30
0.0
 70
   128
 71
    11
 72
    15
 73
    13
  0
SEQEND
  5
5C8
330
5C7
100
AcDbEntity
  8
ｴｸｽﾃﾘｱ商品
370
    20
  0
POLYLINE
  5
601
330
3C
100
AcDbEntity
  8
ｴｸｽﾃﾘｱ商品
 62
   255
370
    20
100
AcDbPolyFaceMesh
 66
     1
 10
0.0
 20
0.0
 30
0.0
 70
    64
 71
    24
 72
    32
  0
VERTEX
  5
603
330
601
100
AcDbEntity
  8
ｴｸｽﾃﾘｱ商品
 62
   255
370
    20
100
AcDbVertex
100
AcDbPolyFaceMeshVertex
 10
3650.587554247428
 20
10627.95119722355
 30
2663.960848572464
 70
   192
  0
VERTEX
  5
604
330
601
100
AcDbEntity
  8
ｴｸｽﾃﾘｱ商品
 62
   255
370
    20
100
AcDbVertex
100
AcDbPolyFaceMeshVertex
 10
3650.587554247428
 20
5255.226111168893
 30
2476.341154299819
 70
   192
  0
VERTEX
  5
605
330
601
100
AcDbEntity
  8
ｴｸｽﾃﾘｱ商品
 62
   255
370
    20
100
AcDbVertex
100
AcDbPolyFaceMeshVertex
 10
3630.587554247428
 20
5255.226111168893
 30
2476.341154299819
 70
   192
  0
VERTEX
  5
606
330
601
100
AcDbEntity
  8
ｴｸｽﾃﾘｱ商品
 62
   255
370
    20
100
AcDbVertex
100
AcDbPolyFaceMeshVertex
 10
3630.587554247428
 20
10627.95119722355
 30
2663.960848572464
 70
   192
  0
VERTEX
  5
607
330
601
100
AcDbEntity
  8
ｴｸｽﾃﾘｱ商品
 62
   255
370
    20
100
AcDbVertex
100
AcDbPolyFaceMeshVertex
 10
3590.587554247428
 20
5252.434151432693
 30
2556.292420461346
 70
   192
  0
VERTEX
  5
608
330
601
100
AcDbEntity
  8
ｴｸｽﾃﾘｱ商品
 62
   255
370
    20
100
AcDbVertex
100
AcDbPolyFaceMeshVertex
 10
3590.587554247428
 20
10625.15923748735
 30
2743.912114733992
 70
   192
  0
VERTEX
  5
609
330
601
100
AcDbEntity
  8
ｴｸｽﾃﾘｱ商品
 62
   255
370
    20
100
AcDbVertex
100
AcDbPolyFaceMeshVertex
 10
3550.587554247428
 20
5252.434151432693
 30
2556.292420461346
 70
   192
  0
VERTEX
  5
60A
330
601
100
AcDbEntity
  8
ｴｸｽﾃﾘｱ商品
 62
   255
370
    20
100
AcDbVertex
100
AcDbPolyFaceMeshVertex
 10
3550.587554247428
 20
10625.15923748735
 30
2743.912114733992
 70
   192
  0
VERTEX
  5
60B
330
601
100
AcDbEntity
  8
ｴｸｽﾃﾘｱ商品
 62
   255
370
    20
100
AcDbVertex
100
AcDbPolyFaceMeshVertex
 10
3510.587554247428
 20
5255.226111168893
 30
2476.341154299819
 70
   192
  0
VERTEX
  5
60C
330
601
100
AcDbEntity
  8
ｴｸｽﾃﾘｱ商品
 62
   255
370
    20
100
AcDbVertex
100
AcDbPolyFaceMeshVertex
 10
3510.587554247428
 20
10627.95119722355
 30
2663.960848572464
 70
   192
  0
VERTEX
  5
60D
330
601
100
AcDbEntity
  8
ｴｸｽﾃﾘｱ商品
 62
   255
370
    20
100
AcDbVertex
100
AcDbPolyFaceMeshVertex
 10
3490.587554247428
 20
5255.226111168893
 30
2476.341154299819
 70
   192
  0
VERTEX
  5
60E
330
601
100
AcDbEntity
  8
ｴｸｽﾃﾘｱ商品
 62
   255
370
    20
100
AcDbVertex
100
AcDbPolyFaceMeshVertex
 10
3490.587554247428
 20
10627.95119722355
 30
2663.960848572464
 70
   192
  0
VERTEX
  5
60F
330
601
100
AcDbEntity
  8
ｴｸｽﾃﾘｱ商品
 62
   255
370
    20
100
AcDbVertex
100
AcDbPolyFaceMeshVertex
 10
3490.587554247428
 20
5254.528121234843
 30
2496.328970840201
 70
   192
  0
VERTEX
  5
610
330
601
100
AcDbEntity
  8
ｴｸｽﾃﾘｱ商品
 62
   255
370
    20
100
AcDbVertex
100
AcDbPolyFaceMeshVertex
 10
3490.587554247428
 20
10627.2532072895
 30
2683.948665112846
 70
   192
  0
VERTEX
  5
611
330
601
100
AcDbEntity
  8
ｴｸｽﾃﾘｱ商品
 62
   255
370
    20
100
AcDbVertex
100
AcDbPolyFaceMeshVertex
 10
3510.587554247428
 20
5254.528121234843
 30
2496.328970840201
 70
   192
  0
VERTEX
  5
612
330
601
100
AcDbEntity
  8
ｴｸｽﾃﾘｱ商品
 62
   255
370
    20
100
AcDbVertex
100
AcDbPolyFaceMeshVertex
 10
3510.587554247428
 20
10627.2532072895
 30
2683.948665112846
 70
   192
  0
VERTEX
  5
613
330
601
100
AcDbEntity
  8
ｴｸｽﾃﾘｱ商品
 62
   255
370
    20
100
AcDbVertex
100
AcDbPolyFaceMeshVertex
 10
3550.587554247428
 20
5251.736161498643
 30
2576.280237001728
 70
   192
  0
VERTEX
  5
614
330
601
100
AcDbEntity
  8
ｴｸｽﾃﾘｱ商品
 62
   255
370
    20
100
AcDbVertex
100
AcDbPolyFaceMeshVertex
 10
3550.587554247428
 20
10624.4612475533
 30
2763.899931274374
 70
   192
  0
VERTEX
  5
615
330
601
100
AcDbEntity
  8
ｴｸｽﾃﾘｱ商品
 62
   255
370
    20
100
AcDbVertex
100
AcDbPolyFaceMeshVertex
 10
3590.587554247428
 20
5251.736161498643
 30
2576.280237001728
 70
   192
  0
VERTEX
  5
616
330
601
100
AcDbEntity
  8
ｴｸｽﾃﾘｱ商品
 62
   255
370
    20
100
AcDbVertex
100
AcDbPolyFaceMeshVertex
 10
3590.587554247428
 20
10624.4612475533
 30
2763.899931274374
 70
   192
  0
VERTEX
  5
617
330
601
100
AcDbEntity
  8
ｴｸｽﾃﾘｱ商品
 62
   255
370
    20
100
AcDbVertex
100
AcDbPolyFaceMeshVertex
 10
3630.587554247428
 20
5254.528121234843
 30
2496.328970840201
 70
   192
  0
VERTEX
  5
618
330
601
100
AcDbEntity
  8
ｴｸｽﾃﾘｱ商品
 62
   255
370
    20
100
AcDbVertex
100
AcDbPolyFaceMeshVertex
 10
3630.587554247428
 20
10627.2532072895
 30
2683.948665112846
 70
   192
  0
VERTEX
  5
619
330
601
100
AcDbEntity
  8
ｴｸｽﾃﾘｱ商品
 62
   255
370
    20
100
AcDbVertex
100
AcDbPolyFaceMeshVertex
 10
3650.587554247428
 20
5254.528121234843
 30
2496.328970840201
 70
   192
  0
VERTEX
  5
61A
330
601
100
AcDbEntity
  8
ｴｸｽﾃﾘｱ商品
 62
   255
370
    20
100
AcDbVertex
100
AcDbPolyFaceMeshVertex
 10
3650.587554247428
 20
10627.2532072895
 30
2683.948665112846
 70
   192
  0
VERTEX
  5
61B
330
601
100
AcDbEntity
  8
ｴｸｽﾃﾘｱ商品
 62
   255
370
    20
100
AcDbFaceRecord
 10
0.0
 20
0.0
 30
0.0
 70
   128
 71
     1
 72
     2
 73
     3
 74
     4
  0
VERTEX
  5
61C
330
601
100
AcDbEntity
  8
ｴｸｽﾃﾘｱ商品
 62
   255
370
    20
100
AcDbFaceRecord
 10
0.0
 20
0.0
 30
0.0
 70
   128
 71
     4
 72
     3
 73
     5
 74
     6
  0
VERTEX
  5
61D
330
601
100
AcDbEntity
  8
ｴｸｽﾃﾘｱ商品
 62
   255
370
    20
100
AcDbFaceRecord
 10
0.0
 20
0.0
 30
0.0
 70
   128
 71
     6
 72
     5
 73
     7
 74
     8
  0
VERTEX
  5
61E
330
601
100
AcDbEntity
  8
ｴｸｽﾃﾘｱ商品
 62
   255
370
    20
100
AcDbFaceRecord
 10
0.0
 20
0.0
 30
0.0
 70
   128
 71
     8
 72
     7
 73
     9
 74
    10
  0
VERTEX
  5
61F
330
601
100
AcDbEntity
  8
ｴｸｽﾃﾘｱ商品
 62
   255
370
    20
100
AcDbFaceRecord
 10
0.0
 20
0.0
 30
0.0
 70
   128
 71
    10
 72
     9
 73
    11
 74
    12
  0
VERTEX
  5
620
330
601
100
AcDbEntity
  8
ｴｸｽﾃﾘｱ商品
 62
   255
370
    20
100
AcDbFaceRecord
 10
0.0
 20
0.0
 30
0.0
 70
   128
 71
    12
 72
    11
 73
    13
 74
    14
  0
VERTEX
  5
621
330
601
100
AcDbEntity
  8
ｴｸｽﾃﾘｱ商品
 62
   255
370
    20
100
AcDbFaceRecord
 10
0.0
 20
0.0
 30
0.0
 70
   128
 71
    14
 72
    13
 73
    15
 74
    16
  0
VERTEX
  5
622
330
601
100
AcDbEntity
  8
ｴｸｽﾃﾘｱ商品
 62
   255
370
    20
100
AcDbFaceRecord
 10
0.0
 20
0.0
 30
0.0
 70
   128
 71
    16
 72
    15
 73
    17
 74
    18
  0
VERTEX
  5
623
330
601
100
AcDbEntity
  8
ｴｸｽﾃﾘｱ商品
 62
   255
370
    20
100
AcDbFaceRecord
 10
0.0
 20
0.0
 30
0.0
 70
   128
 71
    18
 72
    17
 73
    19
 74
    20
  0
VERTEX
  5
624
330
601
100
AcDbEntity
  8
ｴｸｽﾃﾘｱ商品
 62
   255
370
    20
100
AcDbFaceRecord
 10
0.0
 20
0.0
 30
0.0
 70
   128
 71
    20
 72
    19
 73
    21
 74
    22
  0
VERTEX
  5
625
330
601
100
AcDbEntity
  8
ｴｸｽﾃﾘｱ商品
 62
   255
370
    20
100
AcDbFaceRecord
 10
0.0
 20
0.0
 30
0.0
 70
   128
 71
    22
 72
    21
 73
    23
 74
    24
  0
VERTEX
  5
626
330
601
100
AcDbEntity
  8
ｴｸｽﾃﾘｱ商品
 62
   255
370
    20
100
AcDbFaceRecord
 10
0.0
 20
0.0
 30
0.0
 70
   128
 71
    24
 72
    23
 73
     2
 74
     1
  0
VERTEX
  5
627
330
601
100
AcDbEntity
  8
ｴｸｽﾃﾘｱ商品
 62
   255
370
    20
100
AcDbFaceRecord
 10
0.0
 20
0.0
 30
0.0
 70
   128
 71
     6
 72
     8
 73
    18
  0
VERTEX
  5
628
330
601
100
AcDbEntity
  8
ｴｸｽﾃﾘｱ商品
 62
   255
370
    20
100
AcDbFaceRecord
 10
0.0
 20
0.0
 30
0.0
 70
   128
 71
     6
 72
    18
 73
    20
  0
VERTEX
  5
629
330
601
100
AcDbEntity
  8
ｴｸｽﾃﾘｱ商品
 62
   255
370
    20
100
AcDbFaceRecord
 10
0.0
 20
0.0
 30
0.0
 70
   128
 71
    16
 72
    18
 73
     8
  0
VERTEX
  5
62A
330
601
100
AcDbEntity
  8
ｴｸｽﾃﾘｱ商品
 62
   255
370
    20
100
AcDbFaceRecord
 10
0.0
 20
0.0
 30
0.0
 70
   128
 71
     6
 72
    20
 73
    22
  0
VERTEX
  5
62B
330
601
100
AcDbEntity
  8
ｴｸｽﾃﾘｱ商品
 62
   255
370
    20
100
AcDbFaceRecord
 10
0.0
 20
0.0
 30
0.0
 70
   128
 71
    12
 72
    14
 73
    16
  0
VERTEX
  5
62C
330
601
100
AcDbEntity
  8
ｴｸｽﾃﾘｱ商品
 62
   255
370
    20
100
AcDbFaceRecord
 10
0.0
 20
0.0
 30
0.0
 70
   128
 71
    12
 72
    16
 73
    10
  0
VERTEX
  5
62D
330
601
100
AcDbEntity
  8
ｴｸｽﾃﾘｱ商品
 62
   255
370
    20
100
AcDbFaceRecord
 10
0.0
 20
0.0
 30
0.0
 70
   128
 71
    10
 72
    16
 73
     8
  0
VERTEX
  5
62E
330
601
100
AcDbEntity
  8
ｴｸｽﾃﾘｱ商品
 62
   255
370
    20
100
AcDbFaceRecord
 10
0.0
 20
0.0
 30
0.0
 70
   128
 71
     4
 72
     6
 73
    22
  0
VERTEX
  5
62F
330
601
100
AcDbEntity
  8
ｴｸｽﾃﾘｱ商品
 62
   255
370
    20
100
AcDbFaceRecord
 10
0.0
 20
0.0
 30
0.0
 70
   128
 71
     4
 72
    22
 73
     1
  0
VERTEX
  5
630
330
601
100
AcDbEntity
  8
ｴｸｽﾃﾘｱ商品
 62
   255
370
    20
100
AcDbFaceRecord
 10
0.0
 20
0.0
 30
0.0
 70
   128
 71
     1
 72
    22
 73
    24
  0
VERTEX
  5
631
330
601
100
AcDbEntity
  8
ｴｸｽﾃﾘｱ商品
 62
   255
370
    20
100
AcDbFaceRecord
 10
0.0
 20
0.0
 30
0.0
 70
   128
 71
     7
 72
     5
 73
    19
  0
VERTEX
  5
632
330
601
100
AcDbEntity
  8
ｴｸｽﾃﾘｱ商品
 62
   255
370
    20
100
AcDbFaceRecord
 10
0.0
 20
0.0
 30
0.0
 70
   128
 71
     7
 72
    19
 73
    17
  0
VERTEX
  5
633
330
601
100
AcDbEntity
  8
ｴｸｽﾃﾘｱ商品
 62
   255
370
    20
100
AcDbFaceRecord
 10
0.0
 20
0.0
 30
0.0
 70
   128
 71
    21
 72
    19
 73
     5
  0
VERTEX
  5
634
330
601
100
AcDbEntity
  8
ｴｸｽﾃﾘｱ商品
 62
   255
370
    20
100
AcDbFaceRecord
 10
0.0
 20
0.0
 30
0.0
 70
   128
 71
     7
 72
    17
 73
    15
  0
VERTEX
  5
635
330
601
100
AcDbEntity
  8
ｴｸｽﾃﾘｱ商品
 62
   255
370
    20
100
AcDbFaceRecord
 10
0.0
 20
0.0
 30
0.0
 70
   128
 71
     2
 72
    23
 73
    21
  0
VERTEX
  5
636
330
601
100
AcDbEntity
  8
ｴｸｽﾃﾘｱ商品
 62
   255
370
    20
100
AcDbFaceRecord
 10
0.0
 20
0.0
 30
0.0
 70
   128
 71
     2
 72
    21
 73
     3
  0
VERTEX
  5
637
330
601
100
AcDbEntity
  8
ｴｸｽﾃﾘｱ商品
 62
   255
370
    20
100
AcDbFaceRecord
 10
0.0
 20
0.0
 30
0.0
 70
   128
 71
     3
 72
    21
 73
     5
  0
VERTEX
  5
638
330
601
100
AcDbEntity
  8
ｴｸｽﾃﾘｱ商品
 62
   255
370
    20
100
AcDbFaceRecord
 10
0.0
 20
0.0
 30
0.0
 70
   128
 71
     9
 72
     7
 73
    15
  0
VERTEX
  5
639
330
601
100
AcDbEntity
  8
ｴｸｽﾃﾘｱ商品
 62
   255
370
    20
100
AcDbFaceRecord
 10
0.0
 20
0.0
 30
0.0
 70
   128
 71
     9
 72
    15
 73
    11
  0
VERTEX
  5
63A
330
601
100
AcDbEntity
  8
ｴｸｽﾃﾘｱ商品
 62
   255
370
    20
100
AcDbFaceRecord
 10
0.0
 20
0.0
 30
0.0
 70
   128
 71
    11
 72
    15
 73
    13
  0
SEQEND
  5
602
330
601
100
AcDbEntity
  8
ｴｸｽﾃﾘｱ商品
370
    20
  0
POLYLINE
  5
63B
330
3C
100
AcDbEntity
  8
ｴｸｽﾃﾘｱ商品
 62
   255
370
    20
100
AcDbPolyFaceMesh
 66
     1
 10
0.0
 20
0.0
 30
0.0
 70
    64
 71
    24
 72
    32
  0
VERTEX
  5
63D
330
63B
100
AcDbEntity
  8
ｴｸｽﾃﾘｱ商品
 62
   255
370
    20
100
AcDbVertex
100
AcDbPolyFaceMeshVertex
 10
3490.587554247428
 20
10627.95119722355
 30
2663.960848572464
 70
   192
  0
VERTEX
  5
63E
330
63B
100
AcDbEntity
  8
ｴｸｽﾃﾘｱ商品
 62
   255
370
    20
100
AcDbVertex
100
AcDbPolyFaceMeshVertex
 10
3490.587554247428
 20
5255.226111168893
 30
2476.341154299819
 70
   192
  0
VERTEX
  5
63F
330
63B
100
AcDbEntity
  8
ｴｸｽﾃﾘｱ商品
 62
   255
370
    20
100
AcDbVertex
100
AcDbPolyFaceMeshVertex
 10
3470.587554247428
 20
5255.226111168893
 30
2476.341154299819
 70
   192
  0
VERTEX
  5
640
330
63B
100
AcDbEntity
  8
ｴｸｽﾃﾘｱ商品
 62
   255
370
    20
100
AcDbVertex
100
AcDbPolyFaceMeshVertex
 10
3470.587554247428
 20
10627.95119722355
 30
2663.960848572464
 70
   192
  0
VERTEX
  5
641
330
63B
100
AcDbEntity
  8
ｴｸｽﾃﾘｱ商品
 62
   255
370
    20
100
AcDbVertex
100
AcDbPolyFaceMeshVertex
 10
3430.587554247428
 20
5252.434151432693
 30
2556.292420461346
 70
   192
  0
VERTEX
  5
642
330
63B
100
AcDbEntity
  8
ｴｸｽﾃﾘｱ商品
 62
   255
370
    20
100
AcDbVertex
100
AcDbPolyFaceMeshVertex
 10
3430.587554247428
 20
10625.15923748735
 30
2743.912114733992
 70
   192
  0
VERTEX
  5
643
330
63B
100
AcDbEntity
  8
ｴｸｽﾃﾘｱ商品
 62
   255
370
    20
100
AcDbVertex
100
AcDbPolyFaceMeshVertex
 10
3390.587554247427
 20
5252.434151432693
 30
2556.292420461346
 70
   192
  0
VERTEX
  5
644
330
63B
100
AcDbEntity
  8
ｴｸｽﾃﾘｱ商品
 62
   255
370
    20
100
AcDbVertex
100
AcDbPolyFaceMeshVertex
 10
3390.587554247428
 20
10625.15923748735
 30
2743.912114733992
 70
   192
  0
VERTEX
  5
645
330
63B
100
AcDbEntity
  8
ｴｸｽﾃﾘｱ商品
 62
   255
370
    20
100
AcDbVertex
100
AcDbPolyFaceMeshVertex
 10
3350.587554247427
 20
5255.226111168893
 30
2476.341154299819
 70
   192
  0
VERTEX
  5
646
330
63B
100
AcDbEntity
  8
ｴｸｽﾃﾘｱ商品
 62
   255
370
    20
100
AcDbVertex
100
AcDbPolyFaceMeshVertex
 10
3350.587554247428
 20
10627.95119722355
 30
2663.960848572464
 70
   192
  0
VERTEX
  5
647
330
63B
100
AcDbEntity
  8
ｴｸｽﾃﾘｱ商品
 62
   255
370
    20
100
AcDbVertex
100
AcDbPolyFaceMeshVertex
 10
3330.587554247427
 20
5255.226111168893
 30
2476.341154299819
 70
   192
  0
VERTEX
  5
648
330
63B
100
AcDbEntity
  8
ｴｸｽﾃﾘｱ商品
 62
   255
370
    20
100
AcDbVertex
100
AcDbPolyFaceMeshVertex
 10
3330.587554247428
 20
10627.95119722355
 30
2663.960848572464
 70
   192
  0
VERTEX
  5
649
330
63B
100
AcDbEntity
  8
ｴｸｽﾃﾘｱ商品
 62
   255
370
    20
100
AcDbVertex
100
AcDbPolyFaceMeshVertex
 10
3330.587554247427
 20
5254.528121234843
 30
2496.328970840201
 70
   192
  0
VERTEX
  5
64A
330
63B
100
AcDbEntity
  8
ｴｸｽﾃﾘｱ商品
 62
   255
370
    20
100
AcDbVertex
100
AcDbPolyFaceMeshVertex
 10
3330.587554247428
 20
10627.2532072895
 30
2683.948665112846
 70
   192
  0
VERTEX
  5
64B
330
63B
100
AcDbEntity
  8
ｴｸｽﾃﾘｱ商品
 62
   255
370
    20
100
AcDbVertex
100
AcDbPolyFaceMeshVertex
 10
3350.587554247427
 20
5254.528121234843
 30
2496.328970840201
 70
   192
  0
VERTEX
  5
64C
330
63B
100
AcDbEntity
  8
ｴｸｽﾃﾘｱ商品
 62
   255
370
    20
100
AcDbVertex
100
AcDbPolyFaceMeshVertex
 10
3350.587554247428
 20
10627.2532072895
 30
2683.948665112846
 70
   192
  0
VERTEX
  5
64D
330
63B
100
AcDbEntity
  8
ｴｸｽﾃﾘｱ商品
 62
   255
370
    20
100
AcDbVertex
100
AcDbPolyFaceMeshVertex
 10
3390.587554247427
 20
5251.736161498643
 30
2576.280237001728
 70
   192
  0
VERTEX
  5
64E
330
63B
100
AcDbEntity
  8
ｴｸｽﾃﾘｱ商品
 62
   255
370
    20
100
AcDbVertex
100
AcDbPolyFaceMeshVertex
 10
3390.587554247428
 20
10624.4612475533
 30
2763.899931274374
 70
   192
  0
VERTEX
  5
64F
330
63B
100
AcDbEntity
  8
ｴｸｽﾃﾘｱ商品
 62
   255
370
    20
100
AcDbVertex
100
AcDbPolyFaceMeshVertex
 10
3430.587554247428
 20
5251.736161498643
 30
2576.280237001728
 70
   192
  0
VERTEX
  5
650
330
63B
100
AcDbEntity
  8
ｴｸｽﾃﾘｱ商品
 62
   255
370
    20
100
AcDbVertex
100
AcDbPolyFaceMeshVertex
 10
3430.587554247428
 20
10624.4612475533
 30
2763.899931274374
 70
   192
  0
VERTEX
  5
651
330
63B
100
AcDbEntity
  8
ｴｸｽﾃﾘｱ商品
 62
   255
370
    20
100
AcDbVertex
100
AcDbPolyFaceMeshVertex
 10
3470.587554247428
 20
5254.528121234843
 30
2496.328970840201
 70
   192
  0
VERTEX
  5
652
330
63B
100
AcDbEntity
  8
ｴｸｽﾃﾘｱ商品
 62
   255
370
    20
100
AcDbVertex
100
AcDbPolyFaceMeshVertex
 10
3470.587554247428
 20
10627.2532072895
 30
2683.948665112846
 70
   192
  0
VERTEX
  5
653
330
63B
100
AcDbEntity
  8
ｴｸｽﾃﾘｱ商品
 62
   255
370
    20
100
AcDbVertex
100
AcDbPolyFaceMeshVertex
 10
3490.587554247428
 20
5254.528121234843
 30
2496.328970840201
 70
   192
  0
VERTEX
  5
654
330
63B
100
AcDbEntity
  8
ｴｸｽﾃﾘｱ商品
 62
   255
370
    20
100
AcDbVertex
100
AcDbPolyFaceMeshVertex
 10
3490.587554247428
 20
10627.2532072895
 30
2683.948665112846
 70
   192
  0
VERTEX
  5
655
330
63B
100
AcDbEntity
  8
ｴｸｽﾃﾘｱ商品
 62
   255
370
    20
100
AcDbFaceRecord
 10
0.0
 20
0.0
 30
0.0
 70
   128
 71
     1
 72
     2
 73
     3
 74
     4
  0
VERTEX
  5
656
330
63B
100
AcDbEntity
  8
ｴｸｽﾃﾘｱ商品
 62
   255
370
    20
100
AcDbFaceRecord
 10
0.0
 20
0.0
 30
0.0
 70
   128
 71
     4
 72
     3
 73
     5
 74
     6
  0
VERTEX
  5
657
330
63B
100
AcDbEntity
  8
ｴｸｽﾃﾘｱ商品
 62
   255
370
    20
100
AcDbFaceRecord
 10
0.0
 20
0.0
 30
0.0
 70
   128
 71
     6
 72
     5
 73
     7
 74
     8
  0
VERTEX
  5
658
330
63B
100
AcDbEntity
  8
ｴｸｽﾃﾘｱ商品
 62
   255
370
    20
100
AcDbFaceRecord
 10
0.0
 20
0.0
 30
0.0
 70
   128
 71
     8
 72
     7
 73
     9
 74
    10
  0
VERTEX
  5
659
330
63B
100
AcDbEntity
  8
ｴｸｽﾃﾘｱ商品
 62
   255
370
    20
100
AcDbFaceRecord
 10
0.0
 20
0.0
 30
0.0
 70
   128
 71
    10
 72
     9
 73
    11
 74
    12
  0
VERTEX
  5
65A
330
63B
100
AcDbEntity
  8
ｴｸｽﾃﾘｱ商品
 62
   255
370
    20
100
AcDbFaceRecord
 10
0.0
 20
0.0
 30
0.0
 70
   128
 71
    12
 72
    11
 73
    13
 74
    14
  0
VERTEX
  5
65B
330
63B
100
AcDbEntity
  8
ｴｸｽﾃﾘｱ商品
 62
   255
370
    20
100
AcDbFaceRecord
 10
0.0
 20
0.0
 30
0.0
 70
   128
 71
    14
 72
    13
 73
    15
 74
    16
  0
VERTEX
  5
65C
330
63B
100
AcDbEntity
  8
ｴｸｽﾃﾘｱ商品
 62
   255
370
    20
100
AcDbFaceRecord
 10
0.0
 20
0.0
 30
0.0
 70
   128
 71
    16
 72
    15
 73
    17
 74
    18
  0
VERTEX
  5
65D
330
63B
100
AcDbEntity
  8
ｴｸｽﾃﾘｱ商品
 62
   255
370
    20
100
AcDbFaceRecord
 10
0.0
 20
0.0
 30
0.0
 70
   128
 71
    18
 72
    17
 73
    19
 74
    20
  0
VERTEX
  5
65E
330
63B
100
AcDbEntity
  8
ｴｸｽﾃﾘｱ商品
 62
   255
370
    20
100
AcDbFaceRecord
 10
0.0
 20
0.0
 30
0.0
 70
   128
 71
    20
 72
    19
 73
    21
 74
    22
  0
VERTEX
  5
65F
330
63B
100
AcDbEntity
  8
ｴｸｽﾃﾘｱ商品
 62
   255
370
    20
100
AcDbFaceRecord
 10
0.0
 20
0.0
 30
0.0
 70
   128
 71
    22
 72
    21
 73
    23
 74
    24
  0
VERTEX
  5
660
330
63B
100
AcDbEntity
  8
ｴｸｽﾃﾘｱ商品
 62
   255
370
    20
100
AcDbFaceRecord
 10
0.0
 20
0.0
 30
0.0
 70
   128
 71
    24
 72
    23
 73
     2
 74
     1
  0
VERTEX
  5
661
330
63B
100
AcDbEntity
  8
ｴｸｽﾃﾘｱ商品
 62
   255
370
    20
100
AcDbFaceRecord
 10
0.0
 20
0.0
 30
0.0
 70
   128
 71
     6
 72
     8
 73
    18
  0
VERTEX
  5
662
330
63B
100
AcDbEntity
  8
ｴｸｽﾃﾘｱ商品
 62
   255
370
    20
100
AcDbFaceRecord
 10
0.0
 20
0.0
 30
0.0
 70
   128
 71
     6
 72
    18
 73
    20
  0
VERTEX
  5
663
330
63B
100
AcDbEntity
  8
ｴｸｽﾃﾘｱ商品
 62
   255
370
    20
100
AcDbFaceRecord
 10
0.0
 20
0.0
 30
0.0
 70
   128
 71
    16
 72
    18
 73
     8
  0
VERTEX
  5
664
330
63B
100
AcDbEntity
  8
ｴｸｽﾃﾘｱ商品
 62
   255
370
    20
100
AcDbFaceRecord
 10
0.0
 20
0.0
 30
0.0
 70
   128
 71
     6
 72
    20
 73
    22
  0
VERTEX
  5
665
330
63B
100
AcDbEntity
  8
ｴｸｽﾃﾘｱ商品
 62
   255
370
    20
100
AcDbFaceRecord
 10
0.0
 20
0.0
 30
0.0
 70
   128
 71
    12
 72
    14
 73
    16
  0
VERTEX
  5
666
330
63B
100
AcDbEntity
  8
ｴｸｽﾃﾘｱ商品
 62
   255
370
    20
100
AcDbFaceRecord
 10
0.0
 20
0.0
 30
0.0
 70
   128
 71
    12
 72
    16
 73
    10
  0
VERTEX
  5
667
330
63B
100
AcDbEntity
  8
ｴｸｽﾃﾘｱ商品
 62
   255
370
    20
100
AcDbFaceRecord
 10
0.0
 20
0.0
 30
0.0
 70
   128
 71
    10
 72
    16
 73
     8
  0
VERTEX
  5
668
330
63B
100
AcDbEntity
  8
ｴｸｽﾃﾘｱ商品
 62
   255
370
    20
100
AcDbFaceRecord
 10
0.0
 20
0.0
 30
0.0
 70
   128
 71
     4
 72
     6
 73
    22
  0
VERTEX
  5
669
330
63B
100
AcDbEntity
  8
ｴｸｽﾃﾘｱ商品
 62
   255
370
    20
100
AcDbFaceRecord
 10
0.0
 20
0.0
 30
0.0
 70
   128
 71
     4
 72
    22
 73
     1
  0
VERTEX
  5
66A
330
63B
100
AcDbEntity
  8
ｴｸｽﾃﾘｱ商品
 62
   255
370
    20
100
AcDbFaceRecord
 10
0.0
 20
0.0
 30
0.0
 70
   128
 71
     1
 72
    22
 73
    24
  0
VERTEX
  5
66B
330
63B
100
AcDbEntity
  8
ｴｸｽﾃﾘｱ商品
 62
   255
370
    20
100
AcDbFaceRecord
 10
0.0
 20
0.0
 30
0.0
 70
   128
 71
     7
 72
     5
 73
    19
  0
VERTEX
  5
66C
330
63B
100
AcDbEntity
  8
ｴｸｽﾃﾘｱ商品
 62
   255
370
    20
100
AcDbFaceRecord
 10
0.0
 20
0.0
 30
0.0
 70
   128
 71
     7
 72
    19
 73
    17
  0
VERTEX
  5
66D
330
63B
100
AcDbEntity
  8
ｴｸｽﾃﾘｱ商品
 62
   255
370
    20
100
AcDbFaceRecord
 10
0.0
 20
0.0
 30
0.0
 70
   128
 71
    21
 72
    19
 73
     5
  0
VERTEX
  5
66E
330
63B
100
AcDbEntity
  8
ｴｸｽﾃﾘｱ商品
 62
   255
370
    20
100
AcDbFaceRecord
 10
0.0
 20
0.0
 30
0.0
 70
   128
 71
     7
 72
    17
 73
    15
  0
VERTEX
  5
66F
330
63B
100
AcDbEntity
  8
ｴｸｽﾃﾘｱ商品
 62
   255
370
    20
100
AcDbFaceRecord
 10
0.0
 20
0.0
 30
0.0
 70
   128
 71
     2
 72
    23
 73
    21
  0
VERTEX
  5
670
330
63B
100
AcDbEntity
  8
ｴｸｽﾃﾘｱ商品
 62
   255
370
    20
100
AcDbFaceRecord
 10
0.0
 20
0.0
 30
0.0
 70
   128
 71
     2
 72
    21
 73
     3
  0
VERTEX
  5
671
330
63B
100
AcDbEntity
  8
ｴｸｽﾃﾘｱ商品
 62
   255
370
    20
100
AcDbFaceRecord
 10
0.0
 20
0.0
 30
0.0
 70
   128
 71
     3
 72
    21
 73
     5
  0
VERTEX
  5
672
330
63B
100
AcDbEntity
  8
ｴｸｽﾃﾘｱ商品
 62
   255
370
    20
100
AcDbFaceRecord
 10
0.0
 20
0.0
 30
0.0
 70
   128
 71
     9
 72
     7
 73
    15
  0
VERTEX
  5
673
330
63B
100
AcDbEntity
  8
ｴｸｽﾃﾘｱ商品
 62
   255
370
    20
100
AcDbFaceRecord
 10
0.0
 20
0.0
 30
0.0
 70
   128
 71
     9
 72
    15
 73
    11
  0
VERTEX
  5
674
330
63B
100
AcDbEntity
  8
ｴｸｽﾃﾘｱ商品
 62
   255
370
    20
100
AcDbFaceRecord
 10
0.0
 20
0.0
 30
0.0
 70
   128
 71
    11
 72
    15
 73
    13
  0
SEQEND
  5
63C
330
63B
100
AcDbEntity
  8
ｴｸｽﾃﾘｱ商品
370
    20
  0
POLYLINE
  5
675
330
3C
100
AcDbEntity
  8
ｴｸｽﾃﾘｱ商品
 62
   255
370
    20
100
AcDbPolyFaceMesh
 66
     1
 10
0.0
 20
0.0
 30
0.0
 70
    64
 71
    24
 72
    32
  0
VERTEX
  5
677
330
675
100
AcDbEntity
  8
ｴｸｽﾃﾘｱ商品
 62
   255
370
    20
100
AcDbVertex
100
AcDbPolyFaceMeshVertex
 10
3330.587554247428
 20
10627.95119722355
 30
2663.960848572464
 70
   192
  0
VERTEX
  5
678
330
675
100
AcDbEntity
  8
ｴｸｽﾃﾘｱ商品
 62
   255
370
    20
100
AcDbVertex
100
AcDbPolyFaceMeshVertex
 10
3330.587554247427
 20
5255.226111168893
 30
2476.341154299819
 70
   192
  0
VERTEX
  5
679
330
675
100
AcDbEntity
  8
ｴｸｽﾃﾘｱ商品
 62
   255
370
    20
100
AcDbVertex
100
AcDbPolyFaceMeshVertex
 10
3310.587554247427
 20
5255.226111168893
 30
2476.341154299819
 70
   192
  0
VERTEX
  5
67A
330
675
100
AcDbEntity
  8
ｴｸｽﾃﾘｱ商品
 62
   255
370
    20
100
AcDbVertex
100
AcDbPolyFaceMeshVertex
 10
3310.587554247428
 20
10627.95119722355
 30
2663.960848572464
 70
   192
  0
VERTEX
  5
67B
330
675
100
AcDbEntity
  8
ｴｸｽﾃﾘｱ商品
 62
   255
370
    20
100
AcDbVertex
100
AcDbPolyFaceMeshVertex
 10
3270.587554247427
 20
5252.434151432693
 30
2556.292420461346
 70
   192
  0
VERTEX
  5
67C
330
675
100
AcDbEntity
  8
ｴｸｽﾃﾘｱ商品
 62
   255
370
    20
100
AcDbVertex
100
AcDbPolyFaceMeshVertex
 10
3270.587554247428
 20
10625.15923748735
 30
2743.912114733992
 70
   192
  0
VERTEX
  5
67D
330
675
100
AcDbEntity
  8
ｴｸｽﾃﾘｱ商品
 62
   255
370
    20
100
AcDbVertex
100
AcDbPolyFaceMeshVertex
 10
3230.587554247427
 20
5252.434151432693
 30
2556.292420461346
 70
   192
  0
VERTEX
  5
67E
330
675
100
AcDbEntity
  8
ｴｸｽﾃﾘｱ商品
 62
   255
370
    20
100
AcDbVertex
100
AcDbPolyFaceMeshVertex
 10
3230.587554247428
 20
10625.15923748735
 30
2743.912114733992
 70
   192
  0
VERTEX
  5
67F
330
675
100
AcDbEntity
  8
ｴｸｽﾃﾘｱ商品
 62
   255
370
    20
100
AcDbVertex
100
AcDbPolyFaceMeshVertex
 10
3190.587554247427
 20
5255.226111168893
 30
2476.341154299819
 70
   192
  0
VERTEX
  5
680
330
675
100
AcDbEntity
  8
ｴｸｽﾃﾘｱ商品
 62
   255
370
    20
100
AcDbVertex
100
AcDbPolyFaceMeshVertex
 10
3190.587554247428
 20
10627.95119722355
 30
2663.960848572464
 70
   192
  0
VERTEX
  5
681
330
675
100
AcDbEntity
  8
ｴｸｽﾃﾘｱ商品
 62
   255
370
    20
100
AcDbVertex
100
AcDbPolyFaceMeshVertex
 10
3170.587554247427
 20
5255.226111168893
 30
2476.341154299819
 70
   192
  0
VERTEX
  5
682
330
675
100
AcDbEntity
  8
ｴｸｽﾃﾘｱ商品
 62
   255
370
    20
100
AcDbVertex
100
AcDbPolyFaceMeshVertex
 10
3170.587554247428
 20
10627.95119722355
 30
2663.960848572464
 70
   192
  0
VERTEX
  5
683
330
675
100
AcDbEntity
  8
ｴｸｽﾃﾘｱ商品
 62
   255
370
    20
100
AcDbVertex
100
AcDbPolyFaceMeshVertex
 10
3170.587554247427
 20
5254.528121234843
 30
2496.328970840201
 70
   192
  0
VERTEX
  5
684
330
675
100
AcDbEntity
  8
ｴｸｽﾃﾘｱ商品
 62
   255
370
    20
100
AcDbVertex
100
AcDbPolyFaceMeshVertex
 10
3170.587554247428
 20
10627.2532072895
 30
2683.948665112846
 70
   192
  0
VERTEX
  5
685
330
675
100
AcDbEntity
  8
ｴｸｽﾃﾘｱ商品
 62
   255
370
    20
100
AcDbVertex
100
AcDbPolyFaceMeshVertex
 10
3190.587554247427
 20
5254.528121234843
 30
2496.328970840201
 70
   192
  0
VERTEX
  5
686
330
675
100
AcDbEntity
  8
ｴｸｽﾃﾘｱ商品
 62
   255
370
    20
100
AcDbVertex
100
AcDbPolyFaceMeshVertex
 10
3190.587554247428
 20
10627.2532072895
 30
2683.948665112846
 70
   192
  0
VERTEX
  5
687
330
675
100
AcDbEntity
  8
ｴｸｽﾃﾘｱ商品
 62
   255
370
    20
100
AcDbVertex
100
AcDbPolyFaceMeshVertex
 10
3230.587554247427
 20
5251.736161498643
 30
2576.280237001728
 70
   192
  0
VERTEX
  5
688
330
675
100
AcDbEntity
  8
ｴｸｽﾃﾘｱ商品
 62
   255
370
    20
100
AcDbVertex
100
AcDbPolyFaceMeshVertex
 10
3230.587554247428
 20
10624.4612475533
 30
2763.899931274374
 70
   192
  0
VERTEX
  5
689
330
675
100
AcDbEntity
  8
ｴｸｽﾃﾘｱ商品
 62
   255
370
    20
100
AcDbVertex
100
AcDbPolyFaceMeshVertex
 10
3270.587554247427
 20
5251.736161498643
 30
2576.280237001728
 70
   192
  0
VERTEX
  5
68A
330
675
100
AcDbEntity
  8
ｴｸｽﾃﾘｱ商品
 62
   255
370
    20
100
AcDbVertex
100
AcDbPolyFaceMeshVertex
 10
3270.587554247428
 20
10624.4612475533
 30
2763.899931274374
 70
   192
  0
VERTEX
  5
68B
330
675
100
AcDbEntity
  8
ｴｸｽﾃﾘｱ商品
 62
   255
370
    20
100
AcDbVertex
100
AcDbPolyFaceMeshVertex
 10
3310.587554247427
 20
5254.528121234843
 30
2496.328970840201
 70
   192
  0
VERTEX
  5
68C
330
675
100
AcDbEntity
  8
ｴｸｽﾃﾘｱ商品
 62
   255
370
    20
100
AcDbVertex
100
AcDbPolyFaceMeshVertex
 10
3310.587554247428
 20
10627.2532072895
 30
2683.948665112846
 70
   192
  0
VERTEX
  5
68D
330
675
100
AcDbEntity
  8
ｴｸｽﾃﾘｱ商品
 62
   255
370
    20
100
AcDbVertex
100
AcDbPolyFaceMeshVertex
 10
3330.587554247427
 20
5254.528121234843
 30
2496.328970840201
 70
   192
  0
VERTEX
  5
68E
330
675
100
AcDbEntity
  8
ｴｸｽﾃﾘｱ商品
 62
   255
370
    20
100
AcDbVertex
100
AcDbPolyFaceMeshVertex
 10
3330.587554247428
 20
10627.2532072895
 30
2683.948665112846
 70
   192
  0
VERTEX
  5
68F
330
675
100
AcDbEntity
  8
ｴｸｽﾃﾘｱ商品
 62
   255
370
    20
100
AcDbFaceRecord
 10
0.0
 20
0.0
 30
0.0
 70
   128
 71
     1
 72
     2
 73
     3
 74
     4
  0
VERTEX
  5
690
330
675
100
AcDbEntity
  8
ｴｸｽﾃﾘｱ商品
 62
   255
370
    20
100
AcDbFaceRecord
 10
0.0
 20
0.0
 30
0.0
 70
   128
 71
     4
 72
     3
 73
     5
 74
     6
  0
VERTEX
  5
691
330
675
100
AcDbEntity
  8
ｴｸｽﾃﾘｱ商品
 62
   255
370
    20
100
AcDbFaceRecord
 10
0.0
 20
0.0
 30
0.0
 70
   128
 71
     6
 72
     5
 73
     7
 74
     8
  0
VERTEX
  5
692
330
675
100
AcDbEntity
  8
ｴｸｽﾃﾘｱ商品
 62
   255
370
    20
100
AcDbFaceRecord
 10
0.0
 20
0.0
 30
0.0
 70
   128
 71
     8
 72
     7
 73
     9
 74
    10
  0
VERTEX
  5
693
330
675
100
AcDbEntity
  8
ｴｸｽﾃﾘｱ商品
 62
   255
370
    20
100
AcDbFaceRecord
 10
0.0
 20
0.0
 30
0.0
 70
   128
 71
    10
 72
     9
 73
    11
 74
    12
  0
VERTEX
  5
694
330
675
100
AcDbEntity
  8
ｴｸｽﾃﾘｱ商品
 62
   255
370
    20
100
AcDbFaceRecord
 10
0.0
 20
0.0
 30
0.0
 70
   128
 71
    12
 72
    11
 73
    13
 74
    14
  0
VERTEX
  5
695
330
675
100
AcDbEntity
  8
ｴｸｽﾃﾘｱ商品
 62
   255
370
    20
100
AcDbFaceRecord
 10
0.0
 20
0.0
 30
0.0
 70
   128
 71
    14
 72
    13
 73
    15
 74
    16
  0
VERTEX
  5
696
330
675
100
AcDbEntity
  8
ｴｸｽﾃﾘｱ商品
 62
   255
370
    20
100
AcDbFaceRecord
 10
0.0
 20
0.0
 30
0.0
 70
   128
 71
    16
 72
    15
 73
    17
 74
    18
  0
VERTEX
  5
697
330
675
100
AcDbEntity
  8
ｴｸｽﾃﾘｱ商品
 62
   255
370
    20
100
AcDbFaceRecord
 10
0.0
 20
0.0
 30
0.0
 70
   128
 71
    18
 72
    17
 73
    19
 74
    20
  0
VERTEX
  5
698
330
675
100
AcDbEntity
  8
ｴｸｽﾃﾘｱ商品
 62
   255
370
    20
100
AcDbFaceRecord
 10
0.0
 20
0.0
 30
0.0
 70
   128
 71
    20
 72
    19
 73
    21
 74
    22
  0
VERTEX
  5
699
330
675
100
AcDbEntity
  8
ｴｸｽﾃﾘｱ商品
 62
   255
370
    20
100
AcDbFaceRecord
 10
0.0
 20
0.0
 30
0.0
 70
   128
 71
    22
 72
    21
 73
    23
 74
    24
  0
VERTEX
  5
69A
330
675
100
AcDbEntity
  8
ｴｸｽﾃﾘｱ商品
 62
   255
370
    20
100
AcDbFaceRecord
 10
0.0
 20
0.0
 30
0.0
 70
   128
 71
    24
 72
    23
 73
     2
 74
     1
  0
VERTEX
  5
69B
330
675
100
AcDbEntity
  8
ｴｸｽﾃﾘｱ商品
 62
   255
370
    20
100
AcDbFaceRecord
 10
0.0
 20
0.0
 30
0.0
 70
   128
 71
     6
 72
     8
 73
    18
  0
VERTEX
  5
69C
330
675
100
AcDbEntity
  8
ｴｸｽﾃﾘｱ商品
 62
   255
370
    20
100
AcDbFaceRecord
 10
0.0
 20
0.0
 30
0.0
 70
   128
 71
     6
 72
    18
 73
    20
  0
VERTEX
  5
69D
330
675
100
AcDbEntity
  8
ｴｸｽﾃﾘｱ商品
 62
   255
370
    20
100
AcDbFaceRecord
 10
0.0
 20
0.0
 30
0.0
 70
   128
 71
    16
 72
    18
 73
     8
  0
VERTEX
  5
69E
330
675
100
AcDbEntity
  8
ｴｸｽﾃﾘｱ商品
 62
   255
370
    20
100
AcDbFaceRecord
 10
0.0
 20
0.0
 30
0.0
 70
   128
 71
     6
 72
    20
 73
    22
  0
VERTEX
  5
69F
330
675
100
AcDbEntity
  8
ｴｸｽﾃﾘｱ商品
 62
   255
370
    20
100
AcDbFaceRecord
 10
0.0
 20
0.0
 30
0.0
 70
   128
 71
    12
 72
    14
 73
    16
  0
VERTEX
  5
6A0
330
675
100
AcDbEntity
  8
ｴｸｽﾃﾘｱ商品
 62
   255
370
    20
100
AcDbFaceRecord
 10
0.0
 20
0.0
 30
0.0
 70
   128
 71
    12
 72
    16
 73
    10
  0
VERTEX
  5
6A1
330
675
100
AcDbEntity
  8
ｴｸｽﾃﾘｱ商品
 62
   255
370
    20
100
AcDbFaceRecord
 10
0.0
 20
0.0
 30
0.0
 70
   128
 71
    10
 72
    16
 73
     8
  0
VERTEX
  5
6A2
330
675
100
AcDbEntity
  8
ｴｸｽﾃﾘｱ商品
 62
   255
370
    20
100
AcDbFaceRecord
 10
0.0
 20
0.0
 30
0.0
 70
   128
 71
     4
 72
     6
 73
    22
  0
VERTEX
  5
6A3
330
675
100
AcDbEntity
  8
ｴｸｽﾃﾘｱ商品
 62
   255
370
    20
100
AcDbFaceRecord
 10
0.0
 20
0.0
 30
0.0
 70
   128
 71
     4
 72
    22
 73
     1
  0
VERTEX
  5
6A4
330
675
100
AcDbEntity
  8
ｴｸｽﾃﾘｱ商品
 62
   255
370
    20
100
AcDbFaceRecord
 10
0.0
 20
0.0
 30
0.0
 70
   128
 71
     1
 72
    22
 73
    24
  0
VERTEX
  5
6A5
330
675
100
AcDbEntity
  8
ｴｸｽﾃﾘｱ商品
 62
   255
370
    20
100
AcDbFaceRecord
 10
0.0
 20
0.0
 30
0.0
 70
   128
 71
     7
 72
     5
 73
    19
  0
VERTEX
  5
6A6
330
675
100
AcDbEntity
  8
ｴｸｽﾃﾘｱ商品
 62
   255
370
    20
100
AcDbFaceRecord
 10
0.0
 20
0.0
 30
0.0
 70
   128
 71
     7
 72
    19
 73
    17
  0
VERTEX
  5
6A7
330
675
100
AcDbEntity
  8
ｴｸｽﾃﾘｱ商品
 62
   255
370
    20
100
AcDbFaceRecord
 10
0.0
 20
0.0
 30
0.0
 70
   128
 71
    21
 72
    19
 73
     5
  0
VERTEX
  5
6A8
330
675
100
AcDbEntity
  8
ｴｸｽﾃﾘｱ商品
 62
   255
370
    20
100
AcDbFaceRecord
 10
0.0
 20
0.0
 30
0.0
 70
   128
 71
     7
 72
    17
 73
    15
  0
VERTEX
  5
6A9
330
675
100
AcDbEntity
  8
ｴｸｽﾃﾘｱ商品
 62
   255
370
    20
100
AcDbFaceRecord
 10
0.0
 20
0.0
 30
0.0
 70
   128
 71
     2
 72
    23
 73
    21
  0
VERTEX
  5
6AA
330
675
100
AcDbEntity
  8
ｴｸｽﾃﾘｱ商品
 62
   255
370
    20
100
AcDbFaceRecord
 10
0.0
 20
0.0
 30
0.0
 70
   128
 71
     2
 72
    21
 73
     3
  0
VERTEX
  5
6AB
330
675
100
AcDbEntity
  8
ｴｸｽﾃﾘｱ商品
 62
   255
370
    20
100
AcDbFaceRecord
 10
0.0
 20
0.0
 30
0.0
 70
   128
 71
     3
 72
    21
 73
     5
  0
VERTEX
  5
6AC
330
675
100
AcDbEntity
  8
ｴｸｽﾃﾘｱ商品
 62
   255
370
    20
100
AcDbFaceRecord
 10
0.0
 20
0.0
 30
0.0
 70
   128
 71
     9
 72
     7
 73
    15
  0
VERTEX
  5
6AD
330
675
100
AcDbEntity
  8
ｴｸｽﾃﾘｱ商品
 62
   255
370
    20
100
AcDbFaceRecord
 10
0.0
 20
0.0
 30
0.0
 70
   128
 71
     9
 72
    15
 73
    11
  0
VERTEX
  5
6AE
330
675
100
AcDbEntity
  8
ｴｸｽﾃﾘｱ商品
 62
   255
370
    20
100
AcDbFaceRecord
 10
0.0
 20
0.0
 30
0.0
 70
   128
 71
    11
 72
    15
 73
    13
  0
SEQEND
  5
676
330
675
100
AcDbEntity
  8
ｴｸｽﾃﾘｱ商品
370
    20
  0
POLYLINE
  5
6AF
330
3C
100
AcDbEntity
  8
ｴｸｽﾃﾘｱ商品
 62
   255
370
    20
100
AcDbPolyFaceMesh
 66
     1
 10
0.0
 20
0.0
 30
0.0
 70
    64
 71
    20
 72
    26
  0
VERTEX
  5
6B1
330
6AF
100
AcDbEntity
  8
ｴｸｽﾃﾘｱ商品
 62
   255
370
    20
100
AcDbVertex
100
AcDbPolyFaceMeshVertex
 10
3170.587554247428
 20
10627.95119722355
 30
2663.960848572464
 70
   192
  0
VERTEX
  5
6B2
330
6AF
100
AcDbEntity
  8
ｴｸｽﾃﾘｱ商品
 62
   255
370
    20
100
AcDbVertex
100
AcDbPolyFaceMeshVertex
 10
3170.587554247427
 20
5255.226111168893
 30
2476.341154299819
 70
   192
  0
VERTEX
  5
6B3
330
6AF
100
AcDbEntity
  8
ｴｸｽﾃﾘｱ商品
 62
   255
370
    20
100
AcDbVertex
100
AcDbPolyFaceMeshVertex
 10
3150.587554247427
 20
5255.226111168893
 30
2476.341154299819
 70
   192
  0
VERTEX
  5
6B4
330
6AF
100
AcDbEntity
  8
ｴｸｽﾃﾘｱ商品
 62
   255
370
    20
100
AcDbVertex
100
AcDbPolyFaceMeshVertex
 10
3150.587554247428
 20
10627.95119722355
 30
2663.960848572464
 70
   192
  0
VERTEX
  5
6B5
330
6AF
100
AcDbEntity
  8
ｴｸｽﾃﾘｱ商品
 62
   255
370
    20
100
AcDbVertex
100
AcDbPolyFaceMeshVertex
 10
3110.587554247427
 20
5252.434151432693
 30
2556.292420461346
 70
   192
  0
VERTEX
  5
6B6
330
6AF
100
AcDbEntity
  8
ｴｸｽﾃﾘｱ商品
 62
   255
370
    20
100
AcDbVertex
100
AcDbPolyFaceMeshVertex
 10
3110.587554247428
 20
10625.15923748735
 30
2743.912114733992
 70
   192
  0
VERTEX
  5
6B7
330
6AF
100
AcDbEntity
  8
ｴｸｽﾃﾘｱ商品
 62
   255
370
    20
100
AcDbVertex
100
AcDbPolyFaceMeshVertex
 10
3070.587554247427
 20
5252.434151432693
 30
2556.292420461346
 70
   192
  0
VERTEX
  5
6B8
330
6AF
100
AcDbEntity
  8
ｴｸｽﾃﾘｱ商品
 62
   255
370
    20
100
AcDbVertex
100
AcDbPolyFaceMeshVertex
 10
3070.587554247428
 20
10625.15923748735
 30
2743.912114733992
 70
   192
  0
VERTEX
  5
6B9
330
6AF
100
AcDbEntity
  8
ｴｸｽﾃﾘｱ商品
 62
   255
370
    20
100
AcDbVertex
100
AcDbPolyFaceMeshVertex
 10
3039.587554247429
 20
5254.597920228248
 30
2494.330189186167
 70
   192
  0
VERTEX
  5
6BA
330
6AF
100
AcDbEntity
  8
ｴｸｽﾃﾘｱ商品
 62
   255
370
    20
100
AcDbVertex
100
AcDbPolyFaceMeshVertex
 10
3039.58755424743
 20
10627.32300628291
 30
2681.949883458813
 70
   192
  0
VERTEX
  5
6BB
330
6AF
100
AcDbEntity
  8
ｴｸｽﾃﾘｱ商品
 62
   255
370
    20
100
AcDbVertex
100
AcDbPolyFaceMeshVertex
 10
3039.587554247429
 20
5253.899930294197
 30
2514.318005726549
 70
   192
  0
VERTEX
  5
6BC
330
6AF
100
AcDbEntity
  8
ｴｸｽﾃﾘｱ商品
 62
   255
370
    20
100
AcDbVertex
100
AcDbPolyFaceMeshVertex
 10
3070.587554247427
 20
5251.736161498643
 30
2576.280237001728
 70
   192
  0
VERTEX
  5
6BD
330
6AF
100
AcDbEntity
  8
ｴｸｽﾃﾘｱ商品
 62
   255
370
    20
100
AcDbVertex
100
AcDbPolyFaceMeshVertex
 10
3070.587554247428
 20
10624.4612475533
 30
2763.899931274374
 70
   192
  0
VERTEX
  5
6BE
330
6AF
100
AcDbEntity
  8
ｴｸｽﾃﾘｱ商品
 62
   255
370
    20
100
AcDbVertex
100
AcDbPolyFaceMeshVertex
 10
3039.58755424743
 20
10626.62501634886
 30
2701.937699999195
 70
   192
  0
VERTEX
  5
6BF
330
6AF
100
AcDbEntity
  8
ｴｸｽﾃﾘｱ商品
 62
   255
370
    20
100
AcDbVertex
100
AcDbPolyFaceMeshVertex
 10
3110.587554247427
 20
5251.736161498643
 30
2576.280237001728
 70
   192
  0
VERTEX
  5
6C0
330
6AF
100
AcDbEntity
  8
ｴｸｽﾃﾘｱ商品
 62
   255
370
    20
100
AcDbVertex
100
AcDbPolyFaceMeshVertex
 10
3110.587554247428
 20
10624.4612475533
 30
2763.899931274374
 70
   192
  0
VERTEX
  5
6C1
330
6AF
100
AcDbEntity
  8
ｴｸｽﾃﾘｱ商品
 62
   255
370
    20
100
AcDbVertex
100
AcDbPolyFaceMeshVertex
 10
3150.587554247427
 20
5254.528121234843
 30
2496.328970840201
 70
   192
  0
VERTEX
  5
6C2
330
6AF
100
AcDbEntity
  8
ｴｸｽﾃﾘｱ商品
 62
   255
370
    20
100
AcDbVertex
100
AcDbPolyFaceMeshVertex
 10
3150.587554247428
 20
10627.2532072895
 30
2683.948665112846
 70
   192
  0
VERTEX
  5
6C3
330
6AF
100
AcDbEntity
  8
ｴｸｽﾃﾘｱ商品
 62
   255
370
    20
100
AcDbVertex
100
AcDbPolyFaceMeshVertex
 10
3170.587554247427
 20
5254.528121234843
 30
2496.328970840201
 70
   192
  0
VERTEX
  5
6C4
330
6AF
100
AcDbEntity
  8
ｴｸｽﾃﾘｱ商品
 62
   255
370
    20
100
AcDbVertex
100
AcDbPolyFaceMeshVertex
 10
3170.587554247428
 20
10627.2532072895
 30
2683.948665112846
 70
   192
  0
VERTEX
  5
6C5
330
6AF
100
AcDbEntity
  8
ｴｸｽﾃﾘｱ商品
 62
   255
370
    20
100
AcDbFaceRecord
 10
0.0
 20
0.0
 30
0.0
 70
   128
 71
     1
 72
     2
 73
     3
 74
     4
  0
VERTEX
  5
6C6
330
6AF
100
AcDbEntity
  8
ｴｸｽﾃﾘｱ商品
 62
   255
370
    20
100
AcDbFaceRecord
 10
0.0
 20
0.0
 30
0.0
 70
   128
 71
     4
 72
     3
 73
     5
 74
     6
  0
VERTEX
  5
6C7
330
6AF
100
AcDbEntity
  8
ｴｸｽﾃﾘｱ商品
 62
   255
370
    20
100
AcDbFaceRecord
 10
0.0
 20
0.0
 30
0.0
 70
   128
 71
     6
 72
     5
 73
     7
 74
     8
  0
VERTEX
  5
6C8
330
6AF
100
AcDbEntity
  8
ｴｸｽﾃﾘｱ商品
 62
   255
370
    20
100
AcDbFaceRecord
 10
0.0
 20
0.0
 30
0.0
 70
   128
 71
     8
 72
     7
 73
     9
 74
    10
  0
VERTEX
  5
6C9
330
6AF
100
AcDbEntity
  8
ｴｸｽﾃﾘｱ商品
 62
   255
370
    20
100
AcDbFaceRecord
 10
0.0
 20
0.0
 30
0.0
 70
   128
 71
    11
 72
    12
 73
    13
 74
    14
  0
VERTEX
  5
6CA
330
6AF
100
AcDbEntity
  8
ｴｸｽﾃﾘｱ商品
 62
   255
370
    20
100
AcDbFaceRecord
 10
0.0
 20
0.0
 30
0.0
 70
   128
 71
    13
 72
    12
 73
    15
 74
    16
  0
VERTEX
  5
6CB
330
6AF
100
AcDbEntity
  8
ｴｸｽﾃﾘｱ商品
 62
   255
370
    20
100
AcDbFaceRecord
 10
0.0
 20
0.0
 30
0.0
 70
   128
 71
    16
 72
    15
 73
    17
 74
    18
  0
VERTEX
  5
6CC
330
6AF
100
AcDbEntity
  8
ｴｸｽﾃﾘｱ商品
 62
   255
370
    20
100
AcDbFaceRecord
 10
0.0
 20
0.0
 30
0.0
 70
   128
 71
    18
 72
    17
 73
    19
 74
    20
  0
VERTEX
  5
6CD
330
6AF
100
AcDbEntity
  8
ｴｸｽﾃﾘｱ商品
 62
   255
370
    20
100
AcDbFaceRecord
 10
0.0
 20
0.0
 30
0.0
 70
   128
 71
    20
 72
    19
 73
     2
 74
     1
  0
VERTEX
  5
6CE
330
6AF
100
AcDbEntity
  8
ｴｸｽﾃﾘｱ商品
 62
   255
370
    20
100
AcDbFaceRecord
 10
0.0
 20
0.0
 30
0.0
 70
   128
 71
     6
 72
     8
 73
    13
  0
VERTEX
  5
6CF
330
6AF
100
AcDbEntity
  8
ｴｸｽﾃﾘｱ商品
 62
   255
370
    20
100
AcDbFaceRecord
 10
0.0
 20
0.0
 30
0.0
 70
   128
 71
     6
 72
    13
 73
    16
  0
VERTEX
  5
6D0
330
6AF
100
AcDbEntity
  8
ｴｸｽﾃﾘｱ商品
 62
   255
370
    20
100
AcDbFaceRecord
 10
0.0
 20
0.0
 30
0.0
 70
   128
 71
    14
 72
    13
 73
     8
  0
VERTEX
  5
6D1
330
6AF
100
AcDbEntity
  8
ｴｸｽﾃﾘｱ商品
 62
   255
370
    20
100
AcDbFaceRecord
 10
0.0
 20
0.0
 30
0.0
 70
   128
 71
     6
 72
    16
 73
    18
  0
VERTEX
  5
6D2
330
6AF
100
AcDbEntity
  8
ｴｸｽﾃﾘｱ商品
 62
   255
370
    20
100
AcDbFaceRecord
 10
0.0
 20
0.0
 30
0.0
 70
   128
 71
    10
 72
    14
 73
     8
  0
VERTEX
  5
6D3
330
6AF
100
AcDbEntity
  8
ｴｸｽﾃﾘｱ商品
 62
   255
370
    20
100
AcDbFaceRecord
 10
0.0
 20
0.0
 30
0.0
 70
   128
 71
     4
 72
     6
 73
    18
  0
VERTEX
  5
6D4
330
6AF
100
AcDbEntity
  8
ｴｸｽﾃﾘｱ商品
 62
   255
370
    20
100
AcDbFaceRecord
 10
0.0
 20
0.0
 30
0.0
 70
   128
 71
     4
 72
    18
 73
     1
  0
VERTEX
  5
6D5
330
6AF
100
AcDbEntity
  8
ｴｸｽﾃﾘｱ商品
 62
   255
370
    20
100
AcDbFaceRecord
 10
0.0
 20
0.0
 30
0.0
 70
   128
 71
     1
 72
    18
 73
    20
  0
VERTEX
  5
6D6
330
6AF
100
AcDbEntity
  8
ｴｸｽﾃﾘｱ商品
 62
   255
370
    20
100
AcDbFaceRecord
 10
0.0
 20
0.0
 30
0.0
 70
   128
 71
     7
 72
     5
 73
    15
  0
VERTEX
  5
6D7
330
6AF
100
AcDbEntity
  8
ｴｸｽﾃﾘｱ商品
 62
   255
370
    20
100
AcDbFaceRecord
 10
0.0
 20
0.0
 30
0.0
 70
   128
 71
     7
 72
    15
 73
    12
  0
VERTEX
  5
6D8
330
6AF
100
AcDbEntity
  8
ｴｸｽﾃﾘｱ商品
 62
   255
370
    20
100
AcDbFaceRecord
 10
0.0
 20
0.0
 30
0.0
 70
   128
 71
     7
 72
    12
 73
    11
  0
VERTEX
  5
6D9
330
6AF
100
AcDbEntity
  8
ｴｸｽﾃﾘｱ商品
 62
   255
370
    20
100
AcDbFaceRecord
 10
0.0
 20
0.0
 30
0.0
 70
   128
 71
    17
 72
    15
 73
     5
  0
VERTEX
  5
6DA
330
6AF
100
AcDbEntity
  8
ｴｸｽﾃﾘｱ商品
 62
   255
370
    20
100
AcDbFaceRecord
 10
0.0
 20
0.0
 30
0.0
 70
   128
 71
     9
 72
     7
 73
    11
  0
VERTEX
  5
6DB
330
6AF
100
AcDbEntity
  8
ｴｸｽﾃﾘｱ商品
 62
   255
370
    20
100
AcDbFaceRecord
 10
0.0
 20
0.0
 30
0.0
 70
   128
 71
     2
 72
    19
 73
    17
  0
VERTEX
  5
6DC
330
6AF
100
AcDbEntity
  8
ｴｸｽﾃﾘｱ商品
 62
   255
370
    20
100
AcDbFaceRecord
 10
0.0
 20
0.0
 30
0.0
 70
   128
 71
     2
 72
    17
 73
     3
  0
VERTEX
  5
6DD
330
6AF
100
AcDbEntity
  8
ｴｸｽﾃﾘｱ商品
 62
   255
370
    20
100
AcDbFaceRecord
 10
0.0
 20
0.0
 30
0.0
 70
   128
 71
     3
 72
    17
 73
     5
  0
VERTEX
  5
6DE
330
6AF
100
AcDbEntity
  8
ｴｸｽﾃﾘｱ商品
 62
   255
370
    20
100
AcDbFaceRecord
 10
0.0
 20
0.0
 30
0.0
 70
   128
 71
    10
 72
     9
 73
    11
 74
    14
  0
SEQEND
  5
6B0
330
6AF
100
AcDbEntity
  8
ｴｸｽﾃﾘｱ商品
370
    20
  0
ENDBLK
  5
3E
330
3C
100
AcDbEntity
  8
0
100
AcDbBlockEnd
  0
ENDSEC
  0
SECTION
  2
ENTITIES
  0
INSERT
  5
6DF
330
1F
100
AcDbEntity
  8
ｴｸｽﾃﾘｱ商品
  6
Continuous
 62
   255
370
    20
100
AcDbBlockReference
  2
オブジェクト_25
 10
2989.58755424743
 20
5214.901483121104
 30
0.0
  0
ENDSEC
  0
SECTION
  2
OBJECTS
  0
DICTIONARY
  5
C
330
0
100
AcDbDictionary
281
     1
  3
ACAD_GROUP
350
D
  3
ACAD_LAYOUT
350
1A
  3
ACAD_MLINESTYLE
350
17
  3
ACAD_PLOTSETTINGS
350
19
  3
ACAD_PLOTSTYLENAME
350
E
  3
ACAD_TABLESTYLE
350
6E2
  3
ACAD_VISUALSTYLE
350
2A
  3
WATERMARKS
350
6E0
  0
DICTIONARY
  5
D
102
{ACAD_REACTORS
330
C
102
}
330
C
100
AcDbDictionary
281
     1
  0
DICTIONARY
  5
1A
102
{ACAD_REACTORS
330
C
102
}
330
C
100
AcDbDictionary
281
     1
  3
Layout1
350
1E
  3
Layout2
350
26
  3
Model
350
22
  0
DICTIONARY
  5
17
102
{ACAD_REACTORS
330
C
102
}
330
C
100
AcDbDictionary
281
     1
  3
Standard
350
18
  0
DICTIONARY
  5
19
102
{ACAD_REACTORS
330
C
102
}
330
C
100
AcDbDictionary
281
     1
  0
ACDBDICTIONARYWDFLT
  5
E
102
{ACAD_REACTORS
330
C
102
}
330
C
100
AcDbDictionary
281
     1
  3
Normal
350
F
100
AcDbDictionaryWithDefault
340
F
  0
DICTIONARY
  5
6E2
102
{ACAD_REACTORS
330
C
102
}
330
C
100
AcDbDictionary
281
     1
  0
DICTIONARY
  5
2A
102
{ACAD_REACTORS
330
C
102
}
330
C
100
AcDbDictionary
281
     1
  3
2dWireframe
350
2F
  3
3D Hidden
350
31
  3
3dWireframe
350
30
  3
Basic
350
32
  3
Brighten
350
36
  3
ColorChange
350
3A
  3
Conceptual
350
34
  3
Dim
350
35
  3
Facepattern
350
39
  3
Flat
350
2B
  3
FlatWithEdges
350
2C
  3
Gouraud
350
2D
  3
GouraudWithEdges
350
2E
  3
Linepattern
350
38
  3
Realistic
350
33
  3
Thicken
350
37
  0
DICTIONARY
  5
6E0
102
{ACAD_REACTORS
330
C
102
}
330
C
100
AcDbDictionary
281
     1
  3
AC_WATERMARK
350
6E1
  0
LAYOUT
  5
1E
102
{ACAD_REACTORS
330
1A
102
}
330
1A
100
AcDbPlotSettings
  1

  2
none_device
  4

  6

 40
0.0
 41
0.0
 42
0.0
 43
0.0
 44
0.0
 45
0.0
 46
0.0
 47
0.0
 48
0.0
 49
0.0
140
0.0
141
0.0
142
1.0
143
1.0
 70
   688
 72
     0
 73
     0
 74
     5
  7

 75
    16
147
1.0
148
0.0
149
0.0
100
AcDbLayout
  1
Layout1
 70
     1
 71
     1
 10
0.0
 20
0.0
 11
12.0
 21
9.0
 12
0.0
 22
0.0
 32
0.0
 14
1.000000000000000E+20
 24
1.000000000000000E+20
 34
1.000000000000000E+20
 15
-1.000000000000000E+20
 25
-1.000000000000000E+20
 35
-1.000000000000000E+20
146
0.0
 13
0.0
 23
0.0
 33
0.0
 16
1.0
 26
0.0
 36
0.0
 17
0.0
 27
1.0
 37
0.0
 76
     0
330
1B
  0
LAYOUT
  5
26
102
{ACAD_REACTORS
330
1A
102
}
330
1A
100
AcDbPlotSettings
  1

  2
none_device
  4

  6

 40
0.0
 41
0.0
 42
0.0
 43
0.0
 44
0.0
 45
0.0
 46
0.0
 47
0.0
 48
0.0
 49
0.0
140
0.0
141
0.0
142
1.0
143
1.0
 70
   688
 72
     0
 73
     0
 74
     5
  7

 75
    16
147
1.0
148
0.0
149
0.0
100
AcDbLayout
  1
Layout2
 70
     1
 71
     2
 10
0.0
 20
0.0
 11
0.0
 21
0.0
 12
0.0
 22
0.0
 32
0.0
 14
0.0
 24
0.0
 34
0.0
 15
0.0
 25
0.0
 35
0.0
146
0.0
 13
0.0
 23
0.0
 33
0.0
 16
1.0
 26
0.0
 36
0.0
 17
0.0
 27
1.0
 37
0.0
 76
     0
330
23
  0
LAYOUT
  5
22
102
{ACAD_REACTORS
330
1A
102
}
330
1A
100
AcDbPlotSettings
  1

  2
none_device
  4

  6

 40
0.0
 41
0.0
 42
0.0
 43
0.0
 44
0.0
 45
0.0
 46
0.0
 47
0.0
 48
0.0
 49
0.0
140
0.0
141
0.0
142
1.0
143
1.0
 70
  1712
 72
     0
 73
     0
 74
     0
  7

 75
     0
147
1.0
148
0.0
149
0.0
100
AcDbLayout
  1
Model
 70
     1
 71
     0
 10
0.0
 20
0.0
 11
12.0
 21
9.0
 12
0.0
 22
0.0
 32
0.0
 14
1.000000000000000E+20
 24
1.000000000000000E+20
 34
1.000000000000000E+20
 15
-1.000000000000000E+20
 25
-1.000000000000000E+20
 35
-1.000000000000000E+20
146
0.0
 13
0.0
 23
0.0
 33
0.0
 16
1.0
 26
0.0
 36
0.0
 17
0.0
 27
1.0
 37
0.0
 76
     0
330
1F
331
29
  0
MLINESTYLE
  5
18
102
{ACAD_REACTORS
330
17
102
}
330
17
100
AcDbMlineStyle
  2
Standard
 70
     0
  3

 62
   256
 51
90.0
 52
90.0
 71
     2
 49
0.5
 62
   256
  6
BYLAYER
 49
-0.5
 62
   256
  6
BYLAYER
  0
ACDBPLACEHOLDER
  5
F
102
{ACAD_REACTORS
330
E
102
}
330
E
  0
VISUALSTYLE
  5
2F
102
{ACAD_REACTORS
330
2A
102
}
330
2A
100
AcDbVisualStyle
  2
2dWireframe
 70
     4
 71
     0
 72
     2
 73
     0
 90
        0
 40
-0.6
 41
-30.0
 62
     5
 63
     7
 74
     1
 91
        4
 64
     7
 65
   257
 75
     1
175
     1
 42
1.0
 92
        0
 66
   257
 43
1.0
 76
     1
 77
     6
 78
     2
 67
     7
 79
     5
170
     0
171
     0
290
     0
174
     0
 93
        1
 44
0.0
173
     0
291
     0
 45
0.0
1001
ACAD
1000
AcDbSavedByObjectVersion
1070
     0
  0
VISUALSTYLE
  5
31
102
{ACAD_REACTORS
330
2A
102
}
330
2A
100
AcDbVisualStyle
  2
3D Hidden
 70
     6
 71
     1
 72
     2
 73
     2
 90
        0
 40
-0.6
 41
-30.0
 62
     5
 63
     7
 74
     2
 91
        2
 64
     7
 65
   257
 75
     2
175
     1
 42
40.0
 92
        0
 66
   257
 43
1.0
 76
     1
 77
     6
 78
     2
 67
     7
 79
     3
170
     0
171
     0
290
     0
174
     0
 93
        1
 44
0.0
173
     0
291
     0
 45
0.0
1001
ACAD
1000
AcDbSavedByObjectVersion
1070
     0
  0
VISUALSTYLE
  5
30
102
{ACAD_REACTORS
330
2A
102
}
330
2A
100
AcDbVisualStyle
  2
3dWireframe
 70
     5
 71
     0
 72
     2
 73
     0
 90
        0
 40
-0.6
 41
-30.0
 62
     5
 63
     7
 74
     1
 91
        4
 64
     7
 65
   257
 75
     1
175
     1
 42
1.0
 92
        0
 66
   257
 43
1.0
 76
     1
 77
     6
 78
     2
 67
     7
 79
     5
170
     0
171
     0
290
     0
174
     0
 93
        1
 44
0.0
173
     0
291
     0
 45
0.0
1001
ACAD
1000
AcDbSavedByObjectVersion
1070
     0
  0
VISUALSTYLE
  5
32
102
{ACAD_REACTORS
330
2A
102
}
330
2A
100
AcDbVisualStyle
  2
Basic
 70
     7
 71
     1
 72
     0
 73
     1
 90
        0
 40
-0.6
 41
-30.0
 62
     5
 63
     7
 74
     0
 91
        4
 64
     7
 65
   257
 75
     1
175
     1
 42
1.0
 92
        8
 66
     7
 43
1.0
 76
     1
 77
     6
 78
     2
 67
     7
 79
     5
170
     0
171
     0
290
     0
174
     0
 93
        1
 44
0.0
173
     0
291
     1
 45
0.0
1001
ACAD
1000
AcDbSavedByObjectVersion
1070
     0
  0
VISUALSTYLE
  5
36
102
{ACAD_REACTORS
330
2A
102
}
330
2A
100
AcDbVisualStyle
  2
Brighten
 70
    12
 71
     2
 72
     2
 73
     0
 90
        0
 40
-0.6
 41
-30.0
 62
     5
 63
     7
 74
     1
 91
        4
 64
     7
 65
   257
 75
     1
175
     1
 42
1.0
 92
        8
 66
     7
 43
1.0
 76
     1
 77
     6
 78
     2
 67
     7
 79
     5
170
     0
171
     0
290
     0
174
     0
 93
        1
 44
50.0
173
     0
291
     1
 45
0.0
1001
ACAD
1000
AcDbSavedByObjectVersion
1070
     0
  0
VISUALSTYLE
  5
3A
102
{ACAD_REACTORS
330
2A
102
}
330
2A
100
AcDbVisualStyle
  2
ColorChange
 70
    16
 71
     2
 72
     2
 73
     3
 90
        0
 40
-0.6
 41
-30.0
 62
     5
 63
     8
 74
     1
 91
        4
 64
     7
 65
   257
 75
     1
175
     1
 42
1.0
 92
        8
 66
     8
 43
1.0
 76
     1
 77
     6
 78
     2
 67
     7
 79
     5
170
     0
171
     0
290
     0
174
     0
 93
        1
 44
0.0
173
     0
291
     1
 45
0.0
1001
ACAD
1000
AcDbSavedByObjectVersion
1070
     0
  0
VISUALSTYLE
  5
34
102
{ACAD_REACTORS
330
2A
102
}
330
2A
100
AcDbVisualStyle
  2
Conceptual
 70
     9
 71
     3
 72
     2
 73
     0
 90
        0
 40
-0.6
 41
-30.0
 62
     5
 63
     7
 74
     2
 91
        2
 64
     7
 65
   257
 75
     1
175
     1
 42
40.0
 92
        8
 66
     7
 43
1.0
 76
     1
 77
     6
 78
     2
 67
     7
 79
     3
170
     0
171
     0
290
     0
174
     0
 93
        1
 44
0.0
173
     0
291
     0
 45
0.0
1001
ACAD
1000
AcDbSavedByObjectVersion
1070
     0
  0
VISUALSTYLE
  5
35
102
{ACAD_REACTORS
330
2A
102
}
330
2A
100
AcDbVisualStyle
  2
Dim
 70
    11
 71
     2
 72
     2
 73
     0
 90
        0
 40
-0.6
 41
-30.0
 62
     5
 63
     7
 74
     1
 91
        4
 64
     7
 65
   257
 75
     1
175
     1
 42
1.0
 92
        8
 66
     7
 43
1.0
 76
     1
 77
     6
 78
     2
 67
     7
 79
     5
170
     0
171
     0
290
     0
174
     0
 93
        1
 44
-50.0
173
     0
291
     1
 45
0.0
1001
ACAD
1000
AcDbSavedByObjectVersion
1070
     0
  0
VISUALSTYLE
  5
39
102
{ACAD_REACTORS
330
2A
102
}
330
2A
100
AcDbVisualStyle
  2
Facepattern
 70
    15
 71
     2
 72
     2
 73
     0
 90
        0
 40
-0.6
 41
-30.0
 62
     5
 63
     7
 74
     1
 91
        4
 64
     7
 65
   257
 75
     1
175
     1
 42
1.0
 92
        8
 66
     7
 43
1.0
 76
     1
 77
     6
 78
     2
 67
     7
 79
     5
170
     0
171
     0
290
     0
174
     0
 93
        1
 44
0.0
173
     0
291
     1
 45
0.0
1001
ACAD
1000
AcDbSavedByObjectVersion
1070
     0
  0
VISUALSTYLE
  5
2B
102
{ACAD_REACTORS
330
2A
102
}
330
2A
100
AcDbVisualStyle
  2
Flat
 70
     0
 71
     2
 72
     1
 73
     1
 90
        2
 40
-0.6
 41
30.0
 62
     5
 63
     7
 74
     0
 91
        4
 64
     7
 65
   257
 75
     1
175
     1
 42
1.0
 92
        8
 66
     7
 43
1.0
 76
     1
 77
     6
 78
     2
 67
     7
 79
     5
170
     0
171
     0
290
     0
174
     0
 93
       13
 44
0.0
173
     0
291
     1
 45
0.0
1001
ACAD
1000
AcDbSavedByObjectVersion
1070
     0
  0
VISUALSTYLE
  5
2C
102
{ACAD_REACTORS
330
2A
102
}
330
2A
100
AcDbVisualStyle
  2
FlatWithEdges
 70
     1
 71
     2
 72
     1
 73
     1
 90
        2
 40
-0.6
 41
30.0
 62
     5
 63
     7
 74
     1
 91
        4
 64
     7
 65
   257
 75
     1
175
     1
 42
1.0
 92
        0
 66
   257
 43
1.0
 76
     1
 77
     6
 78
     2
 67
     7
 79
     5
170
     0
171
     0
290
     0
174
     0
 93
       13
 44
0.0
173
     0
291
     1
 45
0.0
1001
ACAD
1000
AcDbSavedByObjectVersion
1070
     0
  0
VISUALSTYLE
  5
2D
102
{ACAD_REACTORS
330
2A
102
}
330
2A
100
AcDbVisualStyle
  2
Gouraud
 70
     2
 71
     2
 72
     2
 73
     1
 90
        2
 40
-0.6
 41
30.0
 62
     5
 63
     7
 74
     0
 91
        4
 64
     7
 65
   257
 75
     1
175
     1
 42
1.0
 92
        0
 66
     7
 43
1.0
 76
     1
 77
     6
 78
     2
 67
     7
 79
     5
170
     0
171
     0
290
     0
174
     0
 93
       13
 44
0.0
173
     0
291
     1
 45
0.0
1001
ACAD
1000
AcDbSavedByObjectVersion
1070
     0
  0
VISUALSTYLE
  5
2E
102
{ACAD_REACTORS
330
2A
102
}
330
2A
100
AcDbVisualStyle
  2
GouraudWithEdges
 70
     3
 71
     2
 72
     2
 73
     1
 90
        2
 40
-0.6
 41
30.0
 62
     5
 63
     7
 74
     1
 91
        4
 64
     7
 65
   257
 75
     1
175
     1
 42
1.0
 92
        0
 66
   257
 43
1.0
 76
     1
 77
     6
 78
     2
 67
     7
 79
     5
170
     0
171
     0
290
     0
174
     0
 93
       13
 44
0.0
173
     0
291
     1
 45
0.0
1001
ACAD
1000
AcDbSavedByObjectVersion
1070
     0
  0
VISUALSTYLE
  5
38
102
{ACAD_REACTORS
330
2A
102
}
330
2A
100
AcDbVisualStyle
  2
Linepattern
 70
    14
 71
     2
 72
     2
 73
     0
 90
        0
 40
-0.6
 41
-30.0
 62
     5
 63
     7
 74
     1
 91
        4
 64
     7
 65
   257
 75
     7
175
     7
 42
1.0
 92
        8
 66
     7
 43
1.0
 76
     1
 77
     6
 78
     2
 67
     7
 79
     5
170
     0
171
     0
290
     0
174
     0
 93
        1
 44
0.0
173
     0
291
     1
 45
0.0
1001
ACAD
1000
AcDbSavedByObjectVersion
1070
     0
  0
VISUALSTYLE
  5
33
102
{ACAD_REACTORS
330
2A
102
}
330
2A
100
AcDbVisualStyle
  2
Realistic
 70
     8
 71
     2
 72
     2
 73
     0
 90
        0
 40
-0.6
 41
-30.0
 62
     5
 63
     7
 74
     1
 91
        0
 64
     7
 65
   257
 75
     1
175
     1
 42
1.0
 92
        8
 66
     8
 43
1.0
 76
     1
 77
     6
 78
     2
 67
     7
 79
     5
170
     0
171
     0
290
     0
174
     0
 93
       13
 44
0.0
173
     0
291
     0
 45
0.0
1001
ACAD
1000
AcDbSavedByObjectVersion
1070
     0
  0
VISUALSTYLE
  5
37
102
{ACAD_REACTORS
330
2A
102
}
330
2A
100
AcDbVisualStyle
  2
Thicken
 70
    13
 71
     2
 72
     2
 73
     0
 90
        0
 40
-0.6
 41
-30.0
 62
     5
 63
     7
 74
     1
 91
        4
 64
     7
 65
   257
 75
     1
175
     1
 42
1.0
 92
       12
 66
     7
 43
1.0
 76
     1
 77
     6
 78
     2
 67
     7
 79
     5
170
     0
171
     0
290
     0
174
     0
 93
        1
 44
0.0
173
     0
291
     1
 45
0.0
1001
ACAD
1000
AcDbSavedByObjectVersion
1070
     0
  0
XRECORD
  5
6E1
102
{ACAD_REACTORS
330
6E0
102
}
330
6E0
100
AcDbXrecord
280
     1
1000
・ｱ・ﾌDWG・t・@・C・・・ﾍRIKCAD21(TM)(R)・ﾅ・・・ｬ・ｳ・・・ﾜ・ｵ・ｽ・B
  0
ENDSEC
  0
EOF
