  0
SECTION
  2
HEADER
  9
$ACADVER
  1
AC1015
  9
$ACADMAINTVER
 70
     6
  9
$DWGCODEPAGE
  3
ANSI_932
  9
$INSBASE
 10
0.0
 20
0.0
 30
0.0
  9
$EXTMIN
 10
1.000000000000000E+20
 20
1.000000000000000E+20
 30
1.000000000000000E+20
  9
$EXTMAX
 10
-1.000000000000000E+20
 20
-1.000000000000000E+20
 30
-1.000000000000000E+20
  9
$LIMMIN
 10
0.0
 20
0.0
  9
$LIMMAX
 10
12.0
 20
9.0
  9
$ORTHOMODE
 70
     0
  9
$REGENMODE
 70
     1
  9
$FILLMODE
 70
     1
  9
$QTEXTMODE
 70
     0
  9
$MIRRTEXT
 70
     1
  9
$LTSCALE
 40
1.0
  9
$ATTMODE
 70
     1
  9
$TEXTSIZE
 40
0.2
  9
$TRACEWID
 40
0.05
  9
$TEXTSTYLE
  7
Standard
  9
$CLAYER
  8
0
  9
$CELTYPE
  6
ByLayer
  9
$CECOLOR
 62
   256
  9
$CELTSCALE
 40
1.0
  9
$DISPSILH
 70
     0
  9
$DIMSCALE
 40
1.0
  9
$DIMASZ
 40
0.18
  9
$DIMEXO
 40
0.0625
  9
$DIMDLI
 40
0.38
  9
$DIMRND
 40
0.0
  9
$DIMDLE
 40
0.0
  9
$DIMEXE
 40
0.18
  9
$DIMTP
 40
0.0
  9
$DIMTM
 40
0.0
  9
$DIMTXT
 40
0.18
  9
$DIMCEN
 40
0.09
  9
$DIMTSZ
 40
0.0
  9
$DIMTOL
 70
     0
  9
$DIMLIM
 70
     0
  9
$DIMTIH
 70
     1
  9
$DIMTOH
 70
     1
  9
$DIMSE1
 70
     0
  9
$DIMSE2
 70
     0
  9
$DIMTAD
 70
     0
  9
$DIMZIN
 70
     0
  9
$DIMBLK
  1

  9
$DIMASO
 70
     1
  9
$DIMSHO
 70
     1
  9
$DIMPOST
  1

  9
$DIMAPOST
  1

  9
$DIMALT
 70
     0
  9
$DIMALTD
 70
     2
  9
$DIMALTF
 40
25.4
  9
$DIMLFAC
 40
1.0
  9
$DIMTOFL
 70
     0
  9
$DIMTVP
 40
0.0
  9
$DIMTIX
 70
     0
  9
$DIMSOXD
 70
     0
  9
$DIMSAH
 70
     0
  9
$DIMBLK1
  1

  9
$DIMBLK2
  1

  9
$DIMSTYLE
  2
Standard
  9
$DIMCLRD
 70
     0
  9
$DIMCLRE
 70
     0
  9
$DIMCLRT
 70
     0
  9
$DIMTFAC
 40
1.0
  9
$DIMGAP
 40
0.09
  9
$DIMJUST
 70
     0
  9
$DIMSD1
 70
     0
  9
$DIMSD2
 70
     0
  9
$DIMTOLJ
 70
     1
  9
$DIMTZIN
 70
     0
  9
$DIMALTZ
 70
     0
  9
$DIMALTTZ
 70
     0
  9
$DIMUPT
 70
     0
  9
$DIMDEC
 70
     4
  9
$DIMTDEC
 70
     4
  9
$DIMALTU
 70
     2
  9
$DIMALTTD
 70
     2
  9
$DIMTXSTY
  7
Standard
  9
$DIMAUNIT
 70
     0
  9
$DIMADEC
 70
     0
  9
$DIMALTRND
 40
0.0
  9
$DIMAZIN
 70
     0
  9
$DIMDSEP
 70
    46
  9
$DIMATFIT
 70
     3
  9
$DIMFRAC
 70
     0
  9
$DIMLDRBLK
  1

  9
$DIMLUNIT
 70
     2
  9
$DIMLWD
 70
    -2
  9
$DIMLWE
 70
    -2
  9
$DIMTMOVE
 70
     0
  9
$LUNITS
 70
     2
  9
$LUPREC
 70
     4
  9
$SKETCHINC
 40
0.1
  9
$FILLETRAD
 40
0.5
  9
$AUNITS
 70
     0
  9
$AUPREC
 70
     0
  9
$MENU
  1
.
  9
$ELEVATION
 40
0.0
  9
$PELEVATION
 40
0.0
  9
$THICKNESS
 40
0.0
  9
$LIMCHECK
 70
     0
  9
$CHAMFERA
 40
0.5
  9
$CHAMFERB
 40
0.5
  9
$CHAMFERC
 40
1.0
  9
$CHAMFERD
 40
0.0
  9
$SKPOLY
 70
     0
  9
$TDCREATE
 40
2458530.547873484
  9
$TDUCREATE
 40
2458530.172873484
  9
$TDUPDATE
 40
2458530.547873495
  9
$TDUUPDATE
 40
2458530.172873495
  9
$TDINDWG
 40
0.0000000116
  9
$TDUSRTIMER
 40
0.0000000116
  9
$USRTIMER
 70
     1
  9
$ANGBASE
 50
0.0
  9
$ANGDIR
 70
     0
  9
$PDMODE
 70
     0
  9
$PDSIZE
 40
0.0
  9
$PLINEWID
 40
0.0
  9
$SPLFRAME
 70
     0
  9
$SPLINETYPE
 70
     6
  9
$SPLINESEGS
 70
     8
  9
$HANDSEED
  5
6EF
  9
$SURFTAB1
 70
     6
  9
$SURFTAB2
 70
     6
  9
$SURFTYPE
 70
     6
  9
$SURFU
 70
     6
  9
$SURFV
 70
     6
  9
$UCSBASE
  2

  9
$UCSNAME
  2

  9
$UCSORG
 10
0.0
 20
0.0
 30
0.0
  9
$UCSXDIR
 10
1.0
 20
0.0
 30
0.0
  9
$UCSYDIR
 10
0.0
 20
1.0
 30
0.0
  9
$UCSORTHOREF
  2

  9
$UCSORTHOVIEW
 70
     0
  9
$UCSORGTOP
 10
0.0
 20
0.0
 30
0.0
  9
$UCSORGBOTTOM
 10
0.0
 20
0.0
 30
0.0
  9
$UCSORGLEFT
 10
0.0
 20
0.0
 30
0.0
  9
$UCSORGRIGHT
 10
0.0
 20
0.0
 30
0.0
  9
$UCSORGFRONT
 10
0.0
 20
0.0
 30
0.0
  9
$UCSORGBACK
 10
0.0
 20
0.0
 30
0.0
  9
$PUCSBASE
  2

  9
$PUCSNAME
  2

  9
$PUCSORG
 10
0.0
 20
0.0
 30
0.0
  9
$PUCSXDIR
 10
1.0
 20
0.0
 30
0.0
  9
$PUCSYDIR
 10
0.0
 20
1.0
 30
0.0
  9
$PUCSORTHOREF
  2

  9
$PUCSORTHOVIEW
 70
     0
  9
$PUCSORGTOP
 10
0.0
 20
0.0
 30
0.0
  9
$PUCSORGBOTTOM
 10
0.0
 20
0.0
 30
0.0
  9
$PUCSORGLEFT
 10
0.0
 20
0.0
 30
0.0
  9
$PUCSORGRIGHT
 10
0.0
 20
0.0
 30
0.0
  9
$PUCSORGFRONT
 10
0.0
 20
0.0
 30
0.0
  9
$PUCSORGBACK
 10
0.0
 20
0.0
 30
0.0
  9
$USERI1
 70
     0
  9
$USERI2
 70
     0
  9
$USERI3
 70
     0
  9
$USERI4
 70
     0
  9
$USERI5
 70
     0
  9
$USERR1
 40
0.0
  9
$USERR2
 40
0.0
  9
$USERR3
 40
0.0
  9
$USERR4
 40
0.0
  9
$USERR5
 40
0.0
  9
$WORLDVIEW
 70
     1
  9
$SHADEDGE
 70
     3
  9
$SHADEDIF
 70
    70
  9
$TILEMODE
 70
     1
  9
$MAXACTVP
 70
    64
  9
$PINSBASE
 10
0.0
 20
0.0
 30
0.0
  9
$PLIMCHECK
 70
     0
  9
$PEXTMIN
 10
1.000000000000000E+20
 20
1.000000000000000E+20
 30
1.000000000000000E+20
  9
$PEXTMAX
 10
-1.000000000000000E+20
 20
-1.000000000000000E+20
 30
-1.000000000000000E+20
  9
$PLIMMIN
 10
0.0
 20
0.0
  9
$PLIMMAX
 10
12.0
 20
9.0
  9
$UNITMODE
 70
     0
  9
$VISRETAIN
 70
     1
  9
$PLINEGEN
 70
     0
  9
$PSLTSCALE
 70
     1
  9
$TREEDEPTH
 70
  3020
  9
$CMLSTYLE
  2
Standard
  9
$CMLJUST
 70
     0
  9
$CMLSCALE
 40
1.0
  9
$PROXYGRAPHICS
 70
     1
  9
$MEASUREMENT
 70
     0
  9
$CELWEIGHT
370
    -1
  9
$ENDCAPS
280
     0
  9
$JOINSTYLE
280
     0
  9
$LWDISPLAY
290
     1
  9
$INSUNITS
 70
     0
  9
$HYPERLINKBASE
  1

  9
$STYLESHEET
  1

  9
$XEDIT
290
     1
  9
$CEPSNTYPE
380
     0
  9
$PSTYLEMODE
290
     1
  9
$FINGERPRINTGUID
  2
{887A9B43-B9F6-40CD-9223-08C3541D264D}
  9
$VERSIONGUID
  2
{FAEB1C32-E019-11D5-929B-00C0DF256EC4}
  9
$EXTNAMES
290
     1
  9
$PSVPSCALE
 40
0.0
  9
$OLESTARTUP
290
     0
  0
ENDSEC
  0
SECTION
  2
CLASSES
  0
CLASS
  1
ACDBDICTIONARYWDFLT
  2
AcDbDictionaryWithDefault
  3
ObjectDBX Classes
 90
        0
280
     0
281
     0
  0
CLASS
  1
VISUALSTYLE
  2
AcDbVisualStyle
  3
ObjectDBX Classes
 90
     4095
280
     0
281
     0
  0
CLASS
  1
ACDBPLACEHOLDER
  2
AcDbPlaceHolder
  3
ObjectDBX Classes
 90
        0
280
     0
281
     0
  0
CLASS
  1
LAYOUT
  2
AcDbLayout
  3
ObjectDBX Classes
 90
        0
280
     0
281
     0
  0
ENDSEC
  0
SECTION
  2
TABLES
  0
TABLE
  2
VPORT
  5
8
330
0
100
AcDbSymbolTable
 70
     1
  0
VPORT
  5
29
330
8
100
AcDbSymbolTableRecord
100
AcDbViewportTableRecord
  2
*Active
 70
     0
 10
0.0
 20
0.0
 11
1.0
 21
1.0
 12
10.42990654205607
 22
4.5
 13
0.0
 23
0.0
 14
0.5
 24
0.5
 15
0.5
 25
0.5
 16
0.0
 26
0.0
 36
1.0
 17
0.0
 27
0.0
 37
0.0
 40
9.0
 41
1.972972972850329
 42
50.0
 43
0.0
 44
0.0
 50
0.0
 51
0.0
 71
     0
 72
   100
 73
     1
 74
     3
 75
     0
 76
     0
 77
     0
 78
     0
281
     0
 65
     1
110
0.0
120
0.0
130
0.0
111
1.0
121
0.0
131
0.0
112
0.0
122
1.0
132
0.0
 79
     0
146
0.0
  0
ENDTAB
  0
TABLE
  2
LTYPE
  5
5
330
0
100
AcDbSymbolTable
 70
     1
  0
LTYPE
  5
14
330
5
100
AcDbSymbolTableRecord
100
AcDbLinetypeTableRecord
  2
ByBlock
 70
     0
  3

 72
    65
 73
     0
 40
0.0
  0
LTYPE
  5
15
330
5
100
AcDbSymbolTableRecord
100
AcDbLinetypeTableRecord
  2
ByLayer
 70
     0
  3

 72
    65
 73
     0
 40
0.0
  0
LTYPE
  5
16
330
5
100
AcDbSymbolTableRecord
100
AcDbLinetypeTableRecord
  2
Continuous
 70
     0
  3
Solid line
 72
    65
 73
     0
 40
0.0
  0
ENDTAB
  0
TABLE
  2
LAYER
  5
2
330
0
100
AcDbSymbolTable
 70
     2
  0
LAYER
  5
10
330
2
100
AcDbSymbolTableRecord
100
AcDbLayerTableRecord
  2
0
 70
     0
 62
     7
  6
Continuous
370
    -3
390
F
  0
LAYER
  5
3B
330
2
100
AcDbSymbolTableRecord
100
AcDbLayerTableRecord
  2
ｴｸｽﾃﾘｱ商品
 70
     0
 62
     7
  6
Continuous
370
    -3
390
F
  0
ENDTAB
  0
TABLE
  2
STYLE
  5
3
330
0
100
AcDbSymbolTable
 70
     1
  0
STYLE
  5
11
330
3
100
AcDbSymbolTableRecord
100
AcDbTextStyleTableRecord
  2
Standard
 70
     0
 40
0.0
 41
1.0
 50
0.0
 71
     0
 42
0.2
  3
txt
  4
EXTFONT.SHX
  0
ENDTAB
  0
TABLE
  2
VIEW
  5
6
330
0
100
AcDbSymbolTable
 70
     0
  0
ENDTAB
  0
TABLE
  2
UCS
  5
7
330
0
100
AcDbSymbolTable
 70
     0
  0
ENDTAB
  0
TABLE
  2
APPID
  5
9
330
0
100
AcDbSymbolTable
 70
     1
  0
APPID
  5
12
330
9
100
AcDbSymbolTableRecord
100
AcDbRegAppTableRecord
  2
ACAD
 70
     0
  0
ENDTAB
  0
TABLE
  2
DIMSTYLE
  5
A
330
0
100
AcDbSymbolTable
 70
     1
100
AcDbDimStyleTable
  0
DIMSTYLE
105
27
330
A
100
AcDbSymbolTableRecord
100
AcDbDimStyleTableRecord
  2
Standard
 70
     0
340
11
  0
ENDTAB
  0
TABLE
  2
BLOCK_RECORD
  5
1
330
0
100
AcDbSymbolTable
 70
     2
  0
BLOCK_RECORD
  5
1F
330
1
100
AcDbSymbolTableRecord
100
AcDbBlockTableRecord
  2
*Model_Space
340
22
  0
BLOCK_RECORD
  5
1B
330
1
100
AcDbSymbolTableRecord
100
AcDbBlockTableRecord
  2
*Paper_Space
340
1E
  0
BLOCK_RECORD
  5
23
330
1
100
AcDbSymbolTableRecord
100
AcDbBlockTableRecord
  2
*Paper_Space0
340
26
  0
BLOCK_RECORD
  5
3C
330
1
100
AcDbSymbolTableRecord
100
AcDbBlockTableRecord
  2
オブジェクト_49
340
0
102
{BLKREFS
331
6EB
102
}
  0
ENDTAB
  0
ENDSEC
  0
SECTION
  2
BLOCKS
  0
BLOCK
  5
20
330
1F
100
AcDbEntity
  8
0
100
AcDbBlockBegin
  2
*Model_Space
 70
     0
 71
     0
 10
0.0
 20
0.0
 30
0.0
  3
*Model_Space
  1

  0
ENDBLK
  5
21
330
1F
100
AcDbEntity
  8
0
100
AcDbBlockEnd
  0
BLOCK
  5
1C
330
1B
100
AcDbEntity
 67
     1
  8
0
100
AcDbBlockBegin
  2
*Paper_Space
 70
     0
 71
     0
 10
0.0
 20
0.0
 30
0.0
  3
*Paper_Space
  1

  0
ENDBLK
  5
1D
330
1B
100
AcDbEntity
 67
     1
  8
0
100
AcDbBlockEnd
  0
BLOCK
  5
24
330
23
100
AcDbEntity
  8
0
100
AcDbBlockBegin
  2
*Paper_Space0
 70
     0
 71
     0
 10
0.0
 20
0.0
 30
0.0
  3
*Paper_Space0
  1

  0
ENDBLK
  5
25
330
23
100
AcDbEntity
  8
0
100
AcDbBlockEnd
  0
BLOCK
  5
3D
330
3C
100
AcDbEntity
  8
0
100
AcDbBlockBegin
  2
オブジェクト_49
 70
     0
 71
     0
 10
0.0
 20
0.0
 30
0.0
  3
オブジェクト_49
  1

  0
POLYLINE
  5
3F
330
3C
100
AcDbEntity
  8
ｴｸｽﾃﾘｱ商品
 62
   250
370
    20
100
AcDbPolyFaceMesh
 66
     1
 10
0.0
 20
0.0
 30
0.0
 70
    64
 71
     8
 72
     6
  0
VERTEX
  5
41
330
3F
100
AcDbEntity
  8
ｴｸｽﾃﾘｱ商品
 62
   250
370
    20
100
AcDbVertex
100
AcDbPolyFaceMeshVertex
 10
280.0
 20
-6.000000000000001
 30
0.0
 70
   192
  0
VERTEX
  5
42
330
3F
100
AcDbEntity
  8
ｴｸｽﾃﾘｱ商品
 62
   250
370
    20
100
AcDbVertex
100
AcDbPolyFaceMeshVertex
 10
250.0
 20
-6.000000000000001
 30
0.0
 70
   192
  0
VERTEX
  5
43
330
3F
100
AcDbEntity
  8
ｴｸｽﾃﾘｱ商品
 62
   250
370
    20
100
AcDbVertex
100
AcDbPolyFaceMeshVertex
 10
250.0
 20
6.000000000000001
 30
0.0
 70
   192
  0
VERTEX
  5
44
330
3F
100
AcDbEntity
  8
ｴｸｽﾃﾘｱ商品
 62
   250
370
    20
100
AcDbVertex
100
AcDbPolyFaceMeshVertex
 10
280.0
 20
6.000000000000001
 30
0.0
 70
   192
  0
VERTEX
  5
45
330
3F
100
AcDbEntity
  8
ｴｸｽﾃﾘｱ商品
 62
   250
370
    20
100
AcDbVertex
100
AcDbPolyFaceMeshVertex
 10
250.0
 20
-6.000000000000001
 30
60.00000000000001
 70
   192
  0
VERTEX
  5
46
330
3F
100
AcDbEntity
  8
ｴｸｽﾃﾘｱ商品
 62
   250
370
    20
100
AcDbVertex
100
AcDbPolyFaceMeshVertex
 10
280.0
 20
-6.000000000000001
 30
60.00000000000001
 70
   192
  0
VERTEX
  5
47
330
3F
100
AcDbEntity
  8
ｴｸｽﾃﾘｱ商品
 62
   250
370
    20
100
AcDbVertex
100
AcDbPolyFaceMeshVertex
 10
280.0
 20
6.000000000000001
 30
60.00000000000001
 70
   192
  0
VERTEX
  5
48
330
3F
100
AcDbEntity
  8
ｴｸｽﾃﾘｱ商品
 62
   250
370
    20
100
AcDbVertex
100
AcDbPolyFaceMeshVertex
 10
250.0
 20
6.000000000000001
 30
60.00000000000001
 70
   192
  0
VERTEX
  5
49
330
3F
100
AcDbEntity
  8
ｴｸｽﾃﾘｱ商品
 62
   250
370
    20
100
AcDbFaceRecord
 10
0.0
 20
0.0
 30
0.0
 70
   128
 71
     1
 72
     2
 73
     3
 74
     4
  0
VERTEX
  5
4A
330
3F
100
AcDbEntity
  8
ｴｸｽﾃﾘｱ商品
 62
   250
370
    20
100
AcDbFaceRecord
 10
0.0
 20
0.0
 30
0.0
 70
   128
 71
     5
 72
     6
 73
     7
 74
     8
  0
VERTEX
  5
4B
330
3F
100
AcDbEntity
  8
ｴｸｽﾃﾘｱ商品
 62
   250
370
    20
100
AcDbFaceRecord
 10
0.0
 20
0.0
 30
0.0
 70
   128
 71
     2
 72
     1
 73
     6
 74
     5
  0
VERTEX
  5
4C
330
3F
100
AcDbEntity
  8
ｴｸｽﾃﾘｱ商品
 62
   250
370
    20
100
AcDbFaceRecord
 10
0.0
 20
0.0
 30
0.0
 70
   128
 71
     1
 72
     4
 73
     7
 74
     6
  0
VERTEX
  5
4D
330
3F
100
AcDbEntity
  8
ｴｸｽﾃﾘｱ商品
 62
   250
370
    20
100
AcDbFaceRecord
 10
0.0
 20
0.0
 30
0.0
 70
   128
 71
     4
 72
     3
 73
     8
 74
     7
  0
VERTEX
  5
4E
330
3F
100
AcDbEntity
  8
ｴｸｽﾃﾘｱ商品
 62
   250
370
    20
100
AcDbFaceRecord
 10
0.0
 20
0.0
 30
0.0
 70
   128
 71
     3
 72
     2
 73
     5
 74
     8
  0
SEQEND
  5
40
330
3F
100
AcDbEntity
  8
ｴｸｽﾃﾘｱ商品
370
    20
  0
POLYLINE
  5
4F
330
3C
100
AcDbEntity
  8
ｴｸｽﾃﾘｱ商品
 62
   250
370
    20
100
AcDbPolyFaceMesh
 66
     1
 10
0.0
 20
0.0
 30
0.0
 70
    64
 71
     8
 72
     6
  0
VERTEX
  5
51
330
4F
100
AcDbEntity
  8
ｴｸｽﾃﾘｱ商品
 62
   250
370
    20
100
AcDbVertex
100
AcDbPolyFaceMeshVertex
 10
780.0
 20
-6.000000000000001
 30
0.0
 70
   192
  0
VERTEX
  5
52
330
4F
100
AcDbEntity
  8
ｴｸｽﾃﾘｱ商品
 62
   250
370
    20
100
AcDbVertex
100
AcDbPolyFaceMeshVertex
 10
750.0
 20
-6.000000000000001
 30
0.0
 70
   192
  0
VERTEX
  5
53
330
4F
100
AcDbEntity
  8
ｴｸｽﾃﾘｱ商品
 62
   250
370
    20
100
AcDbVertex
100
AcDbPolyFaceMeshVertex
 10
750.0
 20
6.000000000000001
 30
0.0
 70
   192
  0
VERTEX
  5
54
330
4F
100
AcDbEntity
  8
ｴｸｽﾃﾘｱ商品
 62
   250
370
    20
100
AcDbVertex
100
AcDbPolyFaceMeshVertex
 10
780.0
 20
6.000000000000001
 30
0.0
 70
   192
  0
VERTEX
  5
55
330
4F
100
AcDbEntity
  8
ｴｸｽﾃﾘｱ商品
 62
   250
370
    20
100
AcDbVertex
100
AcDbPolyFaceMeshVertex
 10
750.0
 20
-6.000000000000001
 30
60.00000000000001
 70
   192
  0
VERTEX
  5
56
330
4F
100
AcDbEntity
  8
ｴｸｽﾃﾘｱ商品
 62
   250
370
    20
100
AcDbVertex
100
AcDbPolyFaceMeshVertex
 10
780.0
 20
-6.000000000000001
 30
60.00000000000001
 70
   192
  0
VERTEX
  5
57
330
4F
100
AcDbEntity
  8
ｴｸｽﾃﾘｱ商品
 62
   250
370
    20
100
AcDbVertex
100
AcDbPolyFaceMeshVertex
 10
780.0
 20
6.000000000000001
 30
60.00000000000001
 70
   192
  0
VERTEX
  5
58
330
4F
100
AcDbEntity
  8
ｴｸｽﾃﾘｱ商品
 62
   250
370
    20
100
AcDbVertex
100
AcDbPolyFaceMeshVertex
 10
750.0
 20
6.000000000000001
 30
60.00000000000001
 70
   192
  0
VERTEX
  5
59
330
4F
100
AcDbEntity
  8
ｴｸｽﾃﾘｱ商品
 62
   250
370
    20
100
AcDbFaceRecord
 10
0.0
 20
0.0
 30
0.0
 70
   128
 71
     1
 72
     2
 73
     3
 74
     4
  0
VERTEX
  5
5A
330
4F
100
AcDbEntity
  8
ｴｸｽﾃﾘｱ商品
 62
   250
370
    20
100
AcDbFaceRecord
 10
0.0
 20
0.0
 30
0.0
 70
   128
 71
     5
 72
     6
 73
     7
 74
     8
  0
VERTEX
  5
5B
330
4F
100
AcDbEntity
  8
ｴｸｽﾃﾘｱ商品
 62
   250
370
    20
100
AcDbFaceRecord
 10
0.0
 20
0.0
 30
0.0
 70
   128
 71
     2
 72
     1
 73
     6
 74
     5
  0
VERTEX
  5
5C
330
4F
100
AcDbEntity
  8
ｴｸｽﾃﾘｱ商品
 62
   250
370
    20
100
AcDbFaceRecord
 10
0.0
 20
0.0
 30
0.0
 70
   128
 71
     1
 72
     4
 73
     7
 74
     6
  0
VERTEX
  5
5D
330
4F
100
AcDbEntity
  8
ｴｸｽﾃﾘｱ商品
 62
   250
370
    20
100
AcDbFaceRecord
 10
0.0
 20
0.0
 30
0.0
 70
   128
 71
     4
 72
     3
 73
     8
 74
     7
  0
VERTEX
  5
5E
330
4F
100
AcDbEntity
  8
ｴｸｽﾃﾘｱ商品
 62
   250
370
    20
100
AcDbFaceRecord
 10
0.0
 20
0.0
 30
0.0
 70
   128
 71
     3
 72
     2
 73
     5
 74
     8
  0
SEQEND
  5
50
330
4F
100
AcDbEntity
  8
ｴｸｽﾃﾘｱ商品
370
    20
  0
POLYLINE
  5
5F
330
3C
100
AcDbEntity
  8
ｴｸｽﾃﾘｱ商品
 62
   250
370
    20
100
AcDbPolyFaceMesh
 66
     1
 10
0.0
 20
0.0
 30
0.0
 70
    64
 71
    16
 72
    20
  0
VERTEX
  5
61
330
5F
100
AcDbEntity
  8
ｴｸｽﾃﾘｱ商品
 62
   250
370
    20
100
AcDbVertex
100
AcDbPolyFaceMeshVertex
 10
0.0
 20
-7.250000000000001
 30
60.00000000000001
 70
   192
  0
VERTEX
  5
62
330
5F
100
AcDbEntity
  8
ｴｸｽﾃﾘｱ商品
 62
   250
370
    20
100
AcDbVertex
100
AcDbPolyFaceMeshVertex
 10
0.0
 20
7.250000000000001
 30
60.00000000000001
 70
   192
  0
VERTEX
  5
63
330
5F
100
AcDbEntity
  8
ｴｸｽﾃﾘｱ商品
 62
   250
370
    20
100
AcDbVertex
100
AcDbPolyFaceMeshVertex
 10
1000.0
 20
7.250000000000001
 30
60.00000000000007
 70
   192
  0
VERTEX
  5
64
330
5F
100
AcDbEntity
  8
ｴｸｽﾃﾘｱ商品
 62
   250
370
    20
100
AcDbVertex
100
AcDbPolyFaceMeshVertex
 10
1000.0
 20
-7.250000000000001
 30
60.00000000000007
 70
   192
  0
VERTEX
  5
65
330
5F
100
AcDbEntity
  8
ｴｸｽﾃﾘｱ商品
 62
   250
370
    20
100
AcDbVertex
100
AcDbPolyFaceMeshVertex
 10
-0.0000000000000021
 20
7.250000000000001
 30
95.00000000000001
 70
   192
  0
VERTEX
  5
66
330
5F
100
AcDbEntity
  8
ｴｸｽﾃﾘｱ商品
 62
   250
370
    20
100
AcDbVertex
100
AcDbPolyFaceMeshVertex
 10
1000.0
 20
7.250000000000001
 30
95.00000000000009
 70
   192
  0
VERTEX
  5
67
330
5F
100
AcDbEntity
  8
ｴｸｽﾃﾘｱ商品
 62
   250
370
    20
100
AcDbVertex
100
AcDbPolyFaceMeshVertex
 10
-0.0000000000000021
 20
-7.250000000000001
 30
95.00000000000001
 70
   192
  0
VERTEX
  5
68
330
5F
100
AcDbEntity
  8
ｴｸｽﾃﾘｱ商品
 62
   250
370
    20
100
AcDbVertex
100
AcDbPolyFaceMeshVertex
 10
1000.0
 20
-7.250000000000001
 30
95.00000000000009
 70
   192
  0
VERTEX
  5
69
330
5F
100
AcDbEntity
  8
ｴｸｽﾃﾘｱ商品
 62
   250
370
    20
100
AcDbVertex
100
AcDbPolyFaceMeshVertex
 10
-0.0000000000000018
 20
-7.250000000000001
 30
89.50000000000003
 70
   192
  0
VERTEX
  5
6A
330
5F
100
AcDbEntity
  8
ｴｸｽﾃﾘｱ商品
 62
   250
370
    20
100
AcDbVertex
100
AcDbPolyFaceMeshVertex
 10
1000.0
 20
-7.250000000000001
 30
89.50000000000009
 70
   192
  0
VERTEX
  5
6B
330
5F
100
AcDbEntity
  8
ｴｸｽﾃﾘｱ商品
 62
   250
370
    20
100
AcDbVertex
100
AcDbPolyFaceMeshVertex
 10
-0.0000000000000018
 20
-0.2499999999999994
 30
89.50000000000003
 70
   192
  0
VERTEX
  5
6C
330
5F
100
AcDbEntity
  8
ｴｸｽﾃﾘｱ商品
 62
   250
370
    20
100
AcDbVertex
100
AcDbPolyFaceMeshVertex
 10
1000.0
 20
-0.2499999999999994
 30
89.50000000000009
 70
   192
  0
VERTEX
  5
6D
330
5F
100
AcDbEntity
  8
ｴｸｽﾃﾘｱ商品
 62
   250
370
    20
100
AcDbVertex
100
AcDbPolyFaceMeshVertex
 10
-0.0000000000000004
 20
-0.2499999999999994
 30
67.00000000000001
 70
   192
  0
VERTEX
  5
6E
330
5F
100
AcDbEntity
  8
ｴｸｽﾃﾘｱ商品
 62
   250
370
    20
100
AcDbVertex
100
AcDbPolyFaceMeshVertex
 10
1000.0
 20
-0.2499999999999994
 30
67.00000000000007
 70
   192
  0
VERTEX
  5
6F
330
5F
100
AcDbEntity
  8
ｴｸｽﾃﾘｱ商品
 62
   250
370
    20
100
AcDbVertex
100
AcDbPolyFaceMeshVertex
 10
-0.0000000000000004
 20
-7.250000000000001
 30
67.00000000000001
 70
   192
  0
VERTEX
  5
70
330
5F
100
AcDbEntity
  8
ｴｸｽﾃﾘｱ商品
 62
   250
370
    20
100
AcDbVertex
100
AcDbPolyFaceMeshVertex
 10
1000.0
 20
-7.250000000000001
 30
67.00000000000007
 70
   192
  0
VERTEX
  5
71
330
5F
100
AcDbEntity
  8
ｴｸｽﾃﾘｱ商品
 62
   250
370
    20
100
AcDbFaceRecord
 10
0.0
 20
0.0
 30
0.0
 70
   128
 71
     1
 72
     2
 73
     3
 74
     4
  0
VERTEX
  5
72
330
5F
100
AcDbEntity
  8
ｴｸｽﾃﾘｱ商品
 62
   250
370
    20
100
AcDbFaceRecord
 10
0.0
 20
0.0
 30
0.0
 70
   128
 71
     2
 72
     5
 73
     6
 74
     3
  0
VERTEX
  5
73
330
5F
100
AcDbEntity
  8
ｴｸｽﾃﾘｱ商品
 62
   250
370
    20
100
AcDbFaceRecord
 10
0.0
 20
0.0
 30
0.0
 70
   128
 71
     5
 72
     7
 73
     8
 74
     6
  0
VERTEX
  5
74
330
5F
100
AcDbEntity
  8
ｴｸｽﾃﾘｱ商品
 62
   250
370
    20
100
AcDbFaceRecord
 10
0.0
 20
0.0
 30
0.0
 70
   128
 71
     7
 72
     9
 73
    10
 74
     8
  0
VERTEX
  5
75
330
5F
100
AcDbEntity
  8
ｴｸｽﾃﾘｱ商品
 62
   250
370
    20
100
AcDbFaceRecord
 10
0.0
 20
0.0
 30
0.0
 70
   128
 71
     9
 72
    11
 73
    12
 74
    10
  0
VERTEX
  5
76
330
5F
100
AcDbEntity
  8
ｴｸｽﾃﾘｱ商品
 62
   250
370
    20
100
AcDbFaceRecord
 10
0.0
 20
0.0
 30
0.0
 70
   128
 71
    11
 72
    13
 73
    14
 74
    12
  0
VERTEX
  5
77
330
5F
100
AcDbEntity
  8
ｴｸｽﾃﾘｱ商品
 62
   250
370
    20
100
AcDbFaceRecord
 10
0.0
 20
0.0
 30
0.0
 70
   128
 71
    13
 72
    15
 73
    16
 74
    14
  0
VERTEX
  5
78
330
5F
100
AcDbEntity
  8
ｴｸｽﾃﾘｱ商品
 62
   250
370
    20
100
AcDbFaceRecord
 10
0.0
 20
0.0
 30
0.0
 70
   128
 71
    15
 72
     1
 73
     4
 74
    16
  0
VERTEX
  5
79
330
5F
100
AcDbEntity
  8
ｴｸｽﾃﾘｱ商品
 62
   250
370
    20
100
AcDbFaceRecord
 10
0.0
 20
0.0
 30
0.0
 70
   128
 71
    11
 72
     9
 73
     7
  0
VERTEX
  5
7A
330
5F
100
AcDbEntity
  8
ｴｸｽﾃﾘｱ商品
 62
   250
370
    20
100
AcDbFaceRecord
 10
0.0
 20
0.0
 30
0.0
 70
   128
 71
    11
 72
     7
 73
     5
  0
VERTEX
  5
7B
330
5F
100
AcDbEntity
  8
ｴｸｽﾃﾘｱ商品
 62
   250
370
    20
100
AcDbFaceRecord
 10
0.0
 20
0.0
 30
0.0
 70
   128
 71
    13
 72
    11
 73
     5
  0
VERTEX
  5
7C
330
5F
100
AcDbEntity
  8
ｴｸｽﾃﾘｱ商品
 62
   250
370
    20
100
AcDbFaceRecord
 10
0.0
 20
0.0
 30
0.0
 70
   128
 71
     1
 72
    15
 73
    13
  0
VERTEX
  5
7D
330
5F
100
AcDbEntity
  8
ｴｸｽﾃﾘｱ商品
 62
   250
370
    20
100
AcDbFaceRecord
 10
0.0
 20
0.0
 30
0.0
 70
   128
 71
     1
 72
    13
 73
     2
  0
VERTEX
  5
7E
330
5F
100
AcDbEntity
  8
ｴｸｽﾃﾘｱ商品
 62
   250
370
    20
100
AcDbFaceRecord
 10
0.0
 20
0.0
 30
0.0
 70
   128
 71
     2
 72
    13
 73
     5
  0
VERTEX
  5
7F
330
5F
100
AcDbEntity
  8
ｴｸｽﾃﾘｱ商品
 62
   250
370
    20
100
AcDbFaceRecord
 10
0.0
 20
0.0
 30
0.0
 70
   128
 71
     6
 72
     8
 73
    10
  0
VERTEX
  5
80
330
5F
100
AcDbEntity
  8
ｴｸｽﾃﾘｱ商品
 62
   250
370
    20
100
AcDbFaceRecord
 10
0.0
 20
0.0
 30
0.0
 70
   128
 71
     6
 72
    10
 73
    12
  0
VERTEX
  5
81
330
5F
100
AcDbEntity
  8
ｴｸｽﾃﾘｱ商品
 62
   250
370
    20
100
AcDbFaceRecord
 10
0.0
 20
0.0
 30
0.0
 70
   128
 71
     6
 72
    12
 73
    14
  0
VERTEX
  5
82
330
5F
100
AcDbEntity
  8
ｴｸｽﾃﾘｱ商品
 62
   250
370
    20
100
AcDbFaceRecord
 10
0.0
 20
0.0
 30
0.0
 70
   128
 71
     3
 72
     6
 73
    14
  0
VERTEX
  5
83
330
5F
100
AcDbEntity
  8
ｴｸｽﾃﾘｱ商品
 62
   250
370
    20
100
AcDbFaceRecord
 10
0.0
 20
0.0
 30
0.0
 70
   128
 71
     3
 72
    14
 73
     4
  0
VERTEX
  5
84
330
5F
100
AcDbEntity
  8
ｴｸｽﾃﾘｱ商品
 62
   250
370
    20
100
AcDbFaceRecord
 10
0.0
 20
0.0
 30
0.0
 70
   128
 71
     4
 72
    14
 73
    16
  0
SEQEND
  5
60
330
5F
100
AcDbEntity
  8
ｴｸｽﾃﾘｱ商品
370
    20
  0
POLYLINE
  5
85
330
3C
100
AcDbEntity
  8
ｴｸｽﾃﾘｱ商品
 62
   250
370
    20
100
AcDbPolyFaceMesh
 66
     1
 10
0.0
 20
0.0
 30
0.0
 70
    64
 71
    12
 72
    14
  0
VERTEX
  5
87
330
85
100
AcDbEntity
  8
ｴｸｽﾃﾘｱ商品
 62
   250
370
    20
100
AcDbVertex
100
AcDbPolyFaceMeshVertex
 10
0.0
 20
7.250000000000003
 30
95.00000000000001
 70
   192
  0
VERTEX
  5
88
330
85
100
AcDbEntity
  8
ｴｸｽﾃﾘｱ商品
 62
   250
370
    20
100
AcDbVertex
100
AcDbPolyFaceMeshVertex
 10
10.0
 20
7.250000000000003
 30
95.00000000000001
 70
   192
  0
VERTEX
  5
89
330
85
100
AcDbEntity
  8
ｴｸｽﾃﾘｱ商品
 62
   250
370
    20
100
AcDbVertex
100
AcDbPolyFaceMeshVertex
 10
10.0
 20
-7.249999999999999
 30
95.00000000000001
 70
   192
  0
VERTEX
  5
8A
330
85
100
AcDbEntity
  8
ｴｸｽﾃﾘｱ商品
 62
   250
370
    20
100
AcDbVertex
100
AcDbPolyFaceMeshVertex
 10
0.0
 20
-7.249999999999999
 30
95.00000000000001
 70
   192
  0
VERTEX
  5
8B
330
85
100
AcDbEntity
  8
ｴｸｽﾃﾘｱ商品
 62
   250
370
    20
100
AcDbVertex
100
AcDbPolyFaceMeshVertex
 10
10.0
 20
7.250000000000028
 30
489.7000000000001
 70
   192
  0
VERTEX
  5
8C
330
85
100
AcDbEntity
  8
ｴｸｽﾃﾘｱ商品
 62
   250
370
    20
100
AcDbVertex
100
AcDbPolyFaceMeshVertex
 10
10.0
 20
-7.249999999999975
 30
489.7000000000001
 70
   192
  0
VERTEX
  5
8D
330
85
100
AcDbEntity
  8
ｴｸｽﾃﾘｱ商品
 62
   250
370
    20
100
AcDbVertex
100
AcDbPolyFaceMeshVertex
 10
30.00000000000001
 20
7.250000000000028
 30
489.7000000000001
 70
   192
  0
VERTEX
  5
8E
330
85
100
AcDbEntity
  8
ｴｸｽﾃﾘｱ商品
 62
   250
370
    20
100
AcDbVertex
100
AcDbPolyFaceMeshVertex
 10
30.00000000000001
 20
-7.249999999999975
 30
489.7000000000001
 70
   192
  0
VERTEX
  5
8F
330
85
100
AcDbEntity
  8
ｴｸｽﾃﾘｱ商品
 62
   250
370
    20
100
AcDbVertex
100
AcDbPolyFaceMeshVertex
 10
30.00000000000001
 20
7.250000000000028
 30
499.7
 70
   192
  0
VERTEX
  5
90
330
85
100
AcDbEntity
  8
ｴｸｽﾃﾘｱ商品
 62
   250
370
    20
100
AcDbVertex
100
AcDbPolyFaceMeshVertex
 10
30.00000000000001
 20
-7.249999999999975
 30
499.7
 70
   192
  0
VERTEX
  5
91
330
85
100
AcDbEntity
  8
ｴｸｽﾃﾘｱ商品
 62
   250
370
    20
100
AcDbVertex
100
AcDbPolyFaceMeshVertex
 10
0.0
 20
7.250000000000028
 30
499.7
 70
   192
  0
VERTEX
  5
92
330
85
100
AcDbEntity
  8
ｴｸｽﾃﾘｱ商品
 62
   250
370
    20
100
AcDbVertex
100
AcDbPolyFaceMeshVertex
 10
0.0
 20
-7.249999999999975
 30
499.7
 70
   192
  0
VERTEX
  5
93
330
85
100
AcDbEntity
  8
ｴｸｽﾃﾘｱ商品
 62
   250
370
    20
100
AcDbFaceRecord
 10
0.0
 20
0.0
 30
0.0
 70
   128
 71
     1
 72
     2
 73
     3
 74
     4
  0
VERTEX
  5
94
330
85
100
AcDbEntity
  8
ｴｸｽﾃﾘｱ商品
 62
   250
370
    20
100
AcDbFaceRecord
 10
0.0
 20
0.0
 30
0.0
 70
   128
 71
     2
 72
     5
 73
     6
 74
     3
  0
VERTEX
  5
95
330
85
100
AcDbEntity
  8
ｴｸｽﾃﾘｱ商品
 62
   250
370
    20
100
AcDbFaceRecord
 10
0.0
 20
0.0
 30
0.0
 70
   128
 71
     5
 72
     7
 73
     8
 74
     6
  0
VERTEX
  5
96
330
85
100
AcDbEntity
  8
ｴｸｽﾃﾘｱ商品
 62
   250
370
    20
100
AcDbFaceRecord
 10
0.0
 20
0.0
 30
0.0
 70
   128
 71
     7
 72
     9
 73
    10
 74
     8
  0
VERTEX
  5
97
330
85
100
AcDbEntity
  8
ｴｸｽﾃﾘｱ商品
 62
   250
370
    20
100
AcDbFaceRecord
 10
0.0
 20
0.0
 30
0.0
 70
   128
 71
     9
 72
    11
 73
    12
 74
    10
  0
VERTEX
  5
98
330
85
100
AcDbEntity
  8
ｴｸｽﾃﾘｱ商品
 62
   250
370
    20
100
AcDbFaceRecord
 10
0.0
 20
0.0
 30
0.0
 70
   128
 71
    11
 72
     1
 73
     4
 74
    12
  0
VERTEX
  5
99
330
85
100
AcDbEntity
  8
ｴｸｽﾃﾘｱ商品
 62
   250
370
    20
100
AcDbFaceRecord
 10
0.0
 20
0.0
 30
0.0
 70
   128
 71
    11
 72
     9
 73
     7
  0
VERTEX
  5
9A
330
85
100
AcDbEntity
  8
ｴｸｽﾃﾘｱ商品
 62
   250
370
    20
100
AcDbFaceRecord
 10
0.0
 20
0.0
 30
0.0
 70
   128
 71
    11
 72
     7
 73
     5
  0
VERTEX
  5
9B
330
85
100
AcDbEntity
  8
ｴｸｽﾃﾘｱ商品
 62
   250
370
    20
100
AcDbFaceRecord
 10
0.0
 20
0.0
 30
0.0
 70
   128
 71
     1
 72
    11
 73
     5
  0
VERTEX
  5
9C
330
85
100
AcDbEntity
  8
ｴｸｽﾃﾘｱ商品
 62
   250
370
    20
100
AcDbFaceRecord
 10
0.0
 20
0.0
 30
0.0
 70
   128
 71
     1
 72
     5
 73
     2
  0
VERTEX
  5
9D
330
85
100
AcDbEntity
  8
ｴｸｽﾃﾘｱ商品
 62
   250
370
    20
100
AcDbFaceRecord
 10
0.0
 20
0.0
 30
0.0
 70
   128
 71
     6
 72
     8
 73
    10
  0
VERTEX
  5
9E
330
85
100
AcDbEntity
  8
ｴｸｽﾃﾘｱ商品
 62
   250
370
    20
100
AcDbFaceRecord
 10
0.0
 20
0.0
 30
0.0
 70
   128
 71
     6
 72
    10
 73
    12
  0
VERTEX
  5
9F
330
85
100
AcDbEntity
  8
ｴｸｽﾃﾘｱ商品
 62
   250
370
    20
100
AcDbFaceRecord
 10
0.0
 20
0.0
 30
0.0
 70
   128
 71
     3
 72
     6
 73
     4
  0
VERTEX
  5
A0
330
85
100
AcDbEntity
  8
ｴｸｽﾃﾘｱ商品
 62
   250
370
    20
100
AcDbFaceRecord
 10
0.0
 20
0.0
 30
0.0
 70
   128
 71
     4
 72
     6
 73
    12
  0
SEQEND
  5
86
330
85
100
AcDbEntity
  8
ｴｸｽﾃﾘｱ商品
370
    20
  0
POLYLINE
  5
A1
330
3C
100
AcDbEntity
  8
ｴｸｽﾃﾘｱ商品
 62
   250
370
    20
100
AcDbPolyFaceMesh
 66
     1
 10
0.0
 20
0.0
 30
0.0
 70
    64
 71
    12
 72
    14
  0
VERTEX
  5
A3
330
A1
100
AcDbEntity
  8
ｴｸｽﾃﾘｱ商品
 62
   250
370
    20
100
AcDbVertex
100
AcDbPolyFaceMeshVertex
 10
1000.0
 20
7.250000000000003
 30
95.00000000000001
 70
   192
  0
VERTEX
  5
A4
330
A1
100
AcDbEntity
  8
ｴｸｽﾃﾘｱ商品
 62
   250
370
    20
100
AcDbVertex
100
AcDbPolyFaceMeshVertex
 10
1000.0
 20
-7.249999999999999
 30
95.00000000000001
 70
   192
  0
VERTEX
  5
A5
330
A1
100
AcDbEntity
  8
ｴｸｽﾃﾘｱ商品
 62
   250
370
    20
100
AcDbVertex
100
AcDbPolyFaceMeshVertex
 10
990.0
 20
-7.249999999999999
 30
95.00000000000001
 70
   192
  0
VERTEX
  5
A6
330
A1
100
AcDbEntity
  8
ｴｸｽﾃﾘｱ商品
 62
   250
370
    20
100
AcDbVertex
100
AcDbPolyFaceMeshVertex
 10
990.0
 20
7.250000000000003
 30
95.00000000000001
 70
   192
  0
VERTEX
  5
A7
330
A1
100
AcDbEntity
  8
ｴｸｽﾃﾘｱ商品
 62
   250
370
    20
100
AcDbVertex
100
AcDbPolyFaceMeshVertex
 10
990.0
 20
-7.249999999999975
 30
489.7000000000001
 70
   192
  0
VERTEX
  5
A8
330
A1
100
AcDbEntity
  8
ｴｸｽﾃﾘｱ商品
 62
   250
370
    20
100
AcDbVertex
100
AcDbPolyFaceMeshVertex
 10
990.0
 20
7.250000000000028
 30
489.7000000000001
 70
   192
  0
VERTEX
  5
A9
330
A1
100
AcDbEntity
  8
ｴｸｽﾃﾘｱ商品
 62
   250
370
    20
100
AcDbVertex
100
AcDbPolyFaceMeshVertex
 10
970.0
 20
-7.249999999999975
 30
489.7000000000001
 70
   192
  0
VERTEX
  5
AA
330
A1
100
AcDbEntity
  8
ｴｸｽﾃﾘｱ商品
 62
   250
370
    20
100
AcDbVertex
100
AcDbPolyFaceMeshVertex
 10
970.0
 20
7.250000000000028
 30
489.7000000000001
 70
   192
  0
VERTEX
  5
AB
330
A1
100
AcDbEntity
  8
ｴｸｽﾃﾘｱ商品
 62
   250
370
    20
100
AcDbVertex
100
AcDbPolyFaceMeshVertex
 10
970.0
 20
-7.249999999999975
 30
499.7
 70
   192
  0
VERTEX
  5
AC
330
A1
100
AcDbEntity
  8
ｴｸｽﾃﾘｱ商品
 62
   250
370
    20
100
AcDbVertex
100
AcDbPolyFaceMeshVertex
 10
970.0
 20
7.250000000000028
 30
499.7
 70
   192
  0
VERTEX
  5
AD
330
A1
100
AcDbEntity
  8
ｴｸｽﾃﾘｱ商品
 62
   250
370
    20
100
AcDbVertex
100
AcDbPolyFaceMeshVertex
 10
1000.0
 20
-7.249999999999975
 30
499.7
 70
   192
  0
VERTEX
  5
AE
330
A1
100
AcDbEntity
  8
ｴｸｽﾃﾘｱ商品
 62
   250
370
    20
100
AcDbVertex
100
AcDbPolyFaceMeshVertex
 10
1000.0
 20
7.250000000000028
 30
499.7
 70
   192
  0
VERTEX
  5
AF
330
A1
100
AcDbEntity
  8
ｴｸｽﾃﾘｱ商品
 62
   250
370
    20
100
AcDbFaceRecord
 10
0.0
 20
0.0
 30
0.0
 70
   128
 71
     1
 72
     2
 73
     3
 74
     4
  0
VERTEX
  5
B0
330
A1
100
AcDbEntity
  8
ｴｸｽﾃﾘｱ商品
 62
   250
370
    20
100
AcDbFaceRecord
 10
0.0
 20
0.0
 30
0.0
 70
   128
 71
     4
 72
     3
 73
     5
 74
     6
  0
VERTEX
  5
B1
330
A1
100
AcDbEntity
  8
ｴｸｽﾃﾘｱ商品
 62
   250
370
    20
100
AcDbFaceRecord
 10
0.0
 20
0.0
 30
0.0
 70
   128
 71
     6
 72
     5
 73
     7
 74
     8
  0
VERTEX
  5
B2
330
A1
100
AcDbEntity
  8
ｴｸｽﾃﾘｱ商品
 62
   250
370
    20
100
AcDbFaceRecord
 10
0.0
 20
0.0
 30
0.0
 70
   128
 71
     8
 72
     7
 73
     9
 74
    10
  0
VERTEX
  5
B3
330
A1
100
AcDbEntity
  8
ｴｸｽﾃﾘｱ商品
 62
   250
370
    20
100
AcDbFaceRecord
 10
0.0
 20
0.0
 30
0.0
 70
   128
 71
    10
 72
     9
 73
    11
 74
    12
  0
VERTEX
  5
B4
330
A1
100
AcDbEntity
  8
ｴｸｽﾃﾘｱ商品
 62
   250
370
    20
100
AcDbFaceRecord
 10
0.0
 20
0.0
 30
0.0
 70
   128
 71
    12
 72
    11
 73
     2
 74
     1
  0
VERTEX
  5
B5
330
A1
100
AcDbEntity
  8
ｴｸｽﾃﾘｱ商品
 62
   250
370
    20
100
AcDbFaceRecord
 10
0.0
 20
0.0
 30
0.0
 70
   128
 71
     6
 72
     8
 73
    10
  0
VERTEX
  5
B6
330
A1
100
AcDbEntity
  8
ｴｸｽﾃﾘｱ商品
 62
   250
370
    20
100
AcDbFaceRecord
 10
0.0
 20
0.0
 30
0.0
 70
   128
 71
     6
 72
    10
 73
    12
  0
VERTEX
  5
B7
330
A1
100
AcDbEntity
  8
ｴｸｽﾃﾘｱ商品
 62
   250
370
    20
100
AcDbFaceRecord
 10
0.0
 20
0.0
 30
0.0
 70
   128
 71
     4
 72
     6
 73
     1
  0
VERTEX
  5
B8
330
A1
100
AcDbEntity
  8
ｴｸｽﾃﾘｱ商品
 62
   250
370
    20
100
AcDbFaceRecord
 10
0.0
 20
0.0
 30
0.0
 70
   128
 71
     1
 72
     6
 73
    12
  0
VERTEX
  5
B9
330
A1
100
AcDbEntity
  8
ｴｸｽﾃﾘｱ商品
 62
   250
370
    20
100
AcDbFaceRecord
 10
0.0
 20
0.0
 30
0.0
 70
   128
 71
    11
 72
     9
 73
     7
  0
VERTEX
  5
BA
330
A1
100
AcDbEntity
  8
ｴｸｽﾃﾘｱ商品
 62
   250
370
    20
100
AcDbFaceRecord
 10
0.0
 20
0.0
 30
0.0
 70
   128
 71
    11
 72
     7
 73
     5
  0
VERTEX
  5
BB
330
A1
100
AcDbEntity
  8
ｴｸｽﾃﾘｱ商品
 62
   250
370
    20
100
AcDbFaceRecord
 10
0.0
 20
0.0
 30
0.0
 70
   128
 71
     2
 72
    11
 73
     5
  0
VERTEX
  5
BC
330
A1
100
AcDbEntity
  8
ｴｸｽﾃﾘｱ商品
 62
   250
370
    20
100
AcDbFaceRecord
 10
0.0
 20
0.0
 30
0.0
 70
   128
 71
     2
 72
     5
 73
     3
  0
SEQEND
  5
A2
330
A1
100
AcDbEntity
  8
ｴｸｽﾃﾘｱ商品
370
    20
  0
POLYLINE
  5
BD
330
3C
100
AcDbEntity
  8
ｴｸｽﾃﾘｱ商品
 62
   250
370
    20
100
AcDbPolyFaceMesh
 66
     1
 10
0.0
 20
0.0
 30
0.0
 70
    64
 71
    88
 72
   128
  0
VERTEX
  5
BF
330
BD
100
AcDbEntity
  8
ｴｸｽﾃﾘｱ商品
 62
   250
370
    20
100
AcDbVertex
100
AcDbPolyFaceMeshVertex
 10
1000.0
 20
7.250000000000028
 30
499.6
 70
   192
  0
VERTEX
  5
C0
330
BD
100
AcDbEntity
  8
ｴｸｽﾃﾘｱ商品
 62
   250
370
    20
100
AcDbVertex
100
AcDbPolyFaceMeshVertex
 10
962.8000000000001
 20
7.250000000000029
 30
516.8000000000001
 70
   192
  0
VERTEX
  5
C1
330
BD
100
AcDbEntity
  8
ｴｸｽﾃﾘｱ商品
 62
   250
370
    20
100
AcDbVertex
100
AcDbPolyFaceMeshVertex
 10
962.8000000000001
 20
-7.249999999999973
 30
516.8000000000001
 70
   192
  0
VERTEX
  5
C2
330
BD
100
AcDbEntity
  8
ｴｸｽﾃﾘｱ商品
 62
   250
370
    20
100
AcDbVertex
100
AcDbPolyFaceMeshVertex
 10
1000.0
 20
-7.249999999999973
 30
499.6
 70
   192
  0
VERTEX
  5
C3
330
BD
100
AcDbEntity
  8
ｴｸｽﾃﾘｱ商品
 62
   250
370
    20
100
AcDbVertex
100
AcDbPolyFaceMeshVertex
 10
889.0000000000001
 20
7.250000000000031
 30
546.4000000000001
 70
   192
  0
VERTEX
  5
C4
330
BD
100
AcDbEntity
  8
ｴｸｽﾃﾘｱ商品
 62
   250
370
    20
100
AcDbVertex
100
AcDbPolyFaceMeshVertex
 10
889.0000000000001
 20
-7.249999999999972
 30
546.4000000000001
 70
   192
  0
VERTEX
  5
C5
330
BD
100
AcDbEntity
  8
ｴｸｽﾃﾘｱ商品
 62
   250
370
    20
100
AcDbVertex
100
AcDbPolyFaceMeshVertex
 10
804.8000000000001
 20
7.250000000000033
 30
571.9000000000001
 70
   192
  0
VERTEX
  5
C6
330
BD
100
AcDbEntity
  8
ｴｸｽﾃﾘｱ商品
 62
   250
370
    20
100
AcDbVertex
100
AcDbPolyFaceMeshVertex
 10
804.8000000000001
 20
-7.24999999999997
 30
571.9000000000001
 70
   192
  0
VERTEX
  5
C7
330
BD
100
AcDbEntity
  8
ｴｸｽﾃﾘｱ商品
 62
   250
370
    20
100
AcDbVertex
100
AcDbPolyFaceMeshVertex
 10
710.3000000000001
 20
7.250000000000034
 30
590.9000000000001
 70
   192
  0
VERTEX
  5
C8
330
BD
100
AcDbEntity
  8
ｴｸｽﾃﾘｱ商品
 62
   250
370
    20
100
AcDbVertex
100
AcDbPolyFaceMeshVertex
 10
710.3000000000001
 20
-7.249999999999968
 30
590.9000000000001
 70
   192
  0
VERTEX
  5
C9
330
BD
100
AcDbEntity
  8
ｴｸｽﾃﾘｱ商品
 62
   250
370
    20
100
AcDbVertex
100
AcDbPolyFaceMeshVertex
 10
602.6000000000001
 20
7.250000000000034
 30
599.3000000000001
 70
   192
  0
VERTEX
  5
CA
330
BD
100
AcDbEntity
  8
ｴｸｽﾃﾘｱ商品
 62
   250
370
    20
100
AcDbVertex
100
AcDbPolyFaceMeshVertex
 10
602.6000000000001
 20
-7.249999999999968
 30
599.3000000000001
 70
   192
  0
VERTEX
  5
CB
330
BD
100
AcDbEntity
  8
ｴｸｽﾃﾘｱ商品
 62
   250
370
    20
100
AcDbVertex
100
AcDbPolyFaceMeshVertex
 10
446.1000000000001
 20
7.250000000000034
 30
590.6000000000001
 70
   192
  0
VERTEX
  5
CC
330
BD
100
AcDbEntity
  8
ｴｸｽﾃﾘｱ商品
 62
   250
370
    20
100
AcDbVertex
100
AcDbPolyFaceMeshVertex
 10
446.1000000000001
 20
-7.249999999999968
 30
590.6000000000001
 70
   192
  0
VERTEX
  5
CD
330
BD
100
AcDbEntity
  8
ｴｸｽﾃﾘｱ商品
 62
   250
370
    20
100
AcDbVertex
100
AcDbPolyFaceMeshVertex
 10
363.6
 20
7.250000000000033
 30
577.0000000000001
 70
   192
  0
VERTEX
  5
CE
330
BD
100
AcDbEntity
  8
ｴｸｽﾃﾘｱ商品
 62
   250
370
    20
100
AcDbVertex
100
AcDbPolyFaceMeshVertex
 10
363.6
 20
-7.24999999999997
 30
577.0000000000001
 70
   192
  0
VERTEX
  5
CF
330
BD
100
AcDbEntity
  8
ｴｸｽﾃﾘｱ商品
 62
   250
370
    20
100
AcDbVertex
100
AcDbPolyFaceMeshVertex
 10
250.3
 20
7.250000000000032
 30
552.3000000000001
 70
   192
  0
VERTEX
  5
D0
330
BD
100
AcDbEntity
  8
ｴｸｽﾃﾘｱ商品
 62
   250
370
    20
100
AcDbVertex
100
AcDbPolyFaceMeshVertex
 10
250.3
 20
-7.249999999999972
 30
552.3000000000001
 70
   192
  0
VERTEX
  5
D1
330
BD
100
AcDbEntity
  8
ｴｸｽﾃﾘｱ商品
 62
   250
370
    20
100
AcDbVertex
100
AcDbPolyFaceMeshVertex
 10
188.1
 20
7.250000000000031
 30
537.8000000000001
 70
   192
  0
VERTEX
  5
D2
330
BD
100
AcDbEntity
  8
ｴｸｽﾃﾘｱ商品
 62
   250
370
    20
100
AcDbVertex
100
AcDbPolyFaceMeshVertex
 10
188.1
 20
-7.249999999999972
 30
537.8000000000001
 70
   192
  0
VERTEX
  5
D3
330
BD
100
AcDbEntity
  8
ｴｸｽﾃﾘｱ商品
 62
   250
370
    20
100
AcDbVertex
100
AcDbPolyFaceMeshVertex
 10
132.7
 20
7.25000000000003
 30
526.9000000000001
 70
   192
  0
VERTEX
  5
D4
330
BD
100
AcDbEntity
  8
ｴｸｽﾃﾘｱ商品
 62
   250
370
    20
100
AcDbVertex
100
AcDbPolyFaceMeshVertex
 10
132.7
 20
-7.249999999999973
 30
526.9000000000001
 70
   192
  0
VERTEX
  5
D5
330
BD
100
AcDbEntity
  8
ｴｸｽﾃﾘｱ商品
 62
   250
370
    20
100
AcDbVertex
100
AcDbPolyFaceMeshVertex
 10
62.80000000000001
 20
7.250000000000029
 30
518.2
 70
   192
  0
VERTEX
  5
D6
330
BD
100
AcDbEntity
  8
ｴｸｽﾃﾘｱ商品
 62
   250
370
    20
100
AcDbVertex
100
AcDbPolyFaceMeshVertex
 10
62.80000000000001
 20
-7.249999999999973
 30
518.2
 70
   192
  0
VERTEX
  5
D7
330
BD
100
AcDbEntity
  8
ｴｸｽﾃﾘｱ商品
 62
   250
370
    20
100
AcDbVertex
100
AcDbPolyFaceMeshVertex
 10
40.90000000000001
 20
7.250000000000029
 30
518.6
 70
   192
  0
VERTEX
  5
D8
330
BD
100
AcDbEntity
  8
ｴｸｽﾃﾘｱ商品
 62
   250
370
    20
100
AcDbVertex
100
AcDbPolyFaceMeshVertex
 10
40.90000000000001
 20
-7.249999999999973
 30
518.6
 70
   192
  0
VERTEX
  5
D9
330
BD
100
AcDbEntity
  8
ｴｸｽﾃﾘｱ商品
 62
   250
370
    20
100
AcDbVertex
100
AcDbPolyFaceMeshVertex
 10
28.7
 20
7.25000000000003
 30
524.5000000000001
 70
   192
  0
VERTEX
  5
DA
330
BD
100
AcDbEntity
  8
ｴｸｽﾃﾘｱ商品
 62
   250
370
    20
100
AcDbVertex
100
AcDbPolyFaceMeshVertex
 10
28.7
 20
-7.249999999999973
 30
524.5000000000001
 70
   192
  0
VERTEX
  5
DB
330
BD
100
AcDbEntity
  8
ｴｸｽﾃﾘｱ商品
 62
   250
370
    20
100
AcDbVertex
100
AcDbPolyFaceMeshVertex
 10
22.70000000000001
 20
7.25000000000003
 30
532.3000000000001
 70
   192
  0
VERTEX
  5
DC
330
BD
100
AcDbEntity
  8
ｴｸｽﾃﾘｱ商品
 62
   250
370
    20
100
AcDbVertex
100
AcDbPolyFaceMeshVertex
 10
22.70000000000001
 20
-7.249999999999972
 30
532.3000000000001
 70
   192
  0
VERTEX
  5
DD
330
BD
100
AcDbEntity
  8
ｴｸｽﾃﾘｱ商品
 62
   250
370
    20
100
AcDbVertex
100
AcDbPolyFaceMeshVertex
 10
20.6
 20
7.250000000000031
 30
542.6000000000001
 70
   192
  0
VERTEX
  5
DE
330
BD
100
AcDbEntity
  8
ｴｸｽﾃﾘｱ商品
 62
   250
370
    20
100
AcDbVertex
100
AcDbPolyFaceMeshVertex
 10
20.6
 20
-7.249999999999972
 30
542.6000000000001
 70
   192
  0
VERTEX
  5
DF
330
BD
100
AcDbEntity
  8
ｴｸｽﾃﾘｱ商品
 62
   250
370
    20
100
AcDbVertex
100
AcDbPolyFaceMeshVertex
 10
23.90000000000001
 20
7.250000000000032
 30
552.0
 70
   192
  0
VERTEX
  5
E0
330
BD
100
AcDbEntity
  8
ｴｸｽﾃﾘｱ商品
 62
   250
370
    20
100
AcDbVertex
100
AcDbPolyFaceMeshVertex
 10
23.90000000000001
 20
-7.249999999999972
 30
552.0
 70
   192
  0
VERTEX
  5
E1
330
BD
100
AcDbEntity
  8
ｴｸｽﾃﾘｱ商品
 62
   250
370
    20
100
AcDbVertex
100
AcDbPolyFaceMeshVertex
 10
28.7
 20
7.250000000000032
 30
554.4000000000001
 70
   192
  0
VERTEX
  5
E2
330
BD
100
AcDbEntity
  8
ｴｸｽﾃﾘｱ商品
 62
   250
370
    20
100
AcDbVertex
100
AcDbPolyFaceMeshVertex
 10
28.7
 20
-7.249999999999972
 30
554.4000000000001
 70
   192
  0
VERTEX
  5
E3
330
BD
100
AcDbEntity
  8
ｴｸｽﾃﾘｱ商品
 62
   250
370
    20
100
AcDbVertex
100
AcDbPolyFaceMeshVertex
 10
33.70000000000001
 20
7.250000000000032
 30
553.4000000000001
 70
   192
  0
VERTEX
  5
E4
330
BD
100
AcDbEntity
  8
ｴｸｽﾃﾘｱ商品
 62
   250
370
    20
100
AcDbVertex
100
AcDbPolyFaceMeshVertex
 10
33.70000000000001
 20
-7.249999999999972
 30
553.4000000000001
 70
   192
  0
VERTEX
  5
E5
330
BD
100
AcDbEntity
  8
ｴｸｽﾃﾘｱ商品
 62
   250
370
    20
100
AcDbVertex
100
AcDbPolyFaceMeshVertex
 10
34.70000000000001
 20
7.250000000000031
 30
547.8000000000001
 70
   192
  0
VERTEX
  5
E6
330
BD
100
AcDbEntity
  8
ｴｸｽﾃﾘｱ商品
 62
   250
370
    20
100
AcDbVertex
100
AcDbPolyFaceMeshVertex
 10
34.70000000000001
 20
-7.249999999999972
 30
547.8000000000001
 70
   192
  0
VERTEX
  5
E7
330
BD
100
AcDbEntity
  8
ｴｸｽﾃﾘｱ商品
 62
   250
370
    20
100
AcDbVertex
100
AcDbPolyFaceMeshVertex
 10
53.40000000000001
 20
7.250000000000031
 30
540.4000000000001
 70
   192
  0
VERTEX
  5
E8
330
BD
100
AcDbEntity
  8
ｴｸｽﾃﾘｱ商品
 62
   250
370
    20
100
AcDbVertex
100
AcDbPolyFaceMeshVertex
 10
53.40000000000001
 20
-7.249999999999972
 30
540.4000000000001
 70
   192
  0
VERTEX
  5
E9
330
BD
100
AcDbEntity
  8
ｴｸｽﾃﾘｱ商品
 62
   250
370
    20
100
AcDbVertex
100
AcDbPolyFaceMeshVertex
 10
55.2
 20
7.250000000000032
 30
548.9000000000001
 70
   192
  0
VERTEX
  5
EA
330
BD
100
AcDbEntity
  8
ｴｸｽﾃﾘｱ商品
 62
   250
370
    20
100
AcDbVertex
100
AcDbPolyFaceMeshVertex
 10
55.2
 20
-7.249999999999972
 30
548.9000000000001
 70
   192
  0
VERTEX
  5
EB
330
BD
100
AcDbEntity
  8
ｴｸｽﾃﾘｱ商品
 62
   250
370
    20
100
AcDbVertex
100
AcDbPolyFaceMeshVertex
 10
54.70000000000001
 20
7.250000000000032
 30
556.5000000000001
 70
   192
  0
VERTEX
  5
EC
330
BD
100
AcDbEntity
  8
ｴｸｽﾃﾘｱ商品
 62
   250
370
    20
100
AcDbVertex
100
AcDbPolyFaceMeshVertex
 10
54.70000000000001
 20
-7.24999999999997
 30
556.5000000000001
 70
   192
  0
VERTEX
  5
ED
330
BD
100
AcDbEntity
  8
ｴｸｽﾃﾘｱ商品
 62
   250
370
    20
100
AcDbVertex
100
AcDbPolyFaceMeshVertex
 10
49.50000000000001
 20
7.250000000000033
 30
566.1
 70
   192
  0
VERTEX
  5
EE
330
BD
100
AcDbEntity
  8
ｴｸｽﾃﾘｱ商品
 62
   250
370
    20
100
AcDbVertex
100
AcDbPolyFaceMeshVertex
 10
49.50000000000001
 20
-7.24999999999997
 30
566.1
 70
   192
  0
VERTEX
  5
EF
330
BD
100
AcDbEntity
  8
ｴｸｽﾃﾘｱ商品
 62
   250
370
    20
100
AcDbVertex
100
AcDbPolyFaceMeshVertex
 10
35.4
 20
7.250000000000033
 30
573.7
 70
   192
  0
VERTEX
  5
F0
330
BD
100
AcDbEntity
  8
ｴｸｽﾃﾘｱ商品
 62
   250
370
    20
100
AcDbVertex
100
AcDbPolyFaceMeshVertex
 10
35.4
 20
-7.24999999999997
 30
573.7
 70
   192
  0
VERTEX
  5
F1
330
BD
100
AcDbEntity
  8
ｴｸｽﾃﾘｱ商品
 62
   250
370
    20
100
AcDbVertex
100
AcDbPolyFaceMeshVertex
 10
18.6
 20
7.250000000000033
 30
571.9000000000001
 70
   192
  0
VERTEX
  5
F2
330
BD
100
AcDbEntity
  8
ｴｸｽﾃﾘｱ商品
 62
   250
370
    20
100
AcDbVertex
100
AcDbPolyFaceMeshVertex
 10
18.6
 20
-7.24999999999997
 30
571.9000000000001
 70
   192
  0
VERTEX
  5
F3
330
BD
100
AcDbEntity
  8
ｴｸｽﾃﾘｱ商品
 62
   250
370
    20
100
AcDbVertex
100
AcDbPolyFaceMeshVertex
 10
8.600000000000001
 20
7.250000000000033
 30
564.8000000000001
 70
   192
  0
VERTEX
  5
F4
330
BD
100
AcDbEntity
  8
ｴｸｽﾃﾘｱ商品
 62
   250
370
    20
100
AcDbVertex
100
AcDbPolyFaceMeshVertex
 10
8.600000000000001
 20
-7.24999999999997
 30
564.8000000000001
 70
   192
  0
VERTEX
  5
F5
330
BD
100
AcDbEntity
  8
ｴｸｽﾃﾘｱ商品
 62
   250
370
    20
100
AcDbVertex
100
AcDbPolyFaceMeshVertex
 10
5.400000000000001
 20
7.250000000000032
 30
560.3000000000001
 70
   192
  0
VERTEX
  5
F6
330
BD
100
AcDbEntity
  8
ｴｸｽﾃﾘｱ商品
 62
   250
370
    20
100
AcDbVertex
100
AcDbPolyFaceMeshVertex
 10
5.400000000000001
 20
-7.24999999999997
 30
560.3000000000001
 70
   192
  0
VERTEX
  5
F7
330
BD
100
AcDbEntity
  8
ｴｸｽﾃﾘｱ商品
 62
   250
370
    20
100
AcDbVertex
100
AcDbPolyFaceMeshVertex
 10
1.5
 20
7.25000000000003
 30
533.5000000000001
 70
   192
  0
VERTEX
  5
F8
330
BD
100
AcDbEntity
  8
ｴｸｽﾃﾘｱ商品
 62
   250
370
    20
100
AcDbVertex
100
AcDbPolyFaceMeshVertex
 10
1.5
 20
-7.249999999999972
 30
533.5000000000001
 70
   192
  0
VERTEX
  5
F9
330
BD
100
AcDbEntity
  8
ｴｸｽﾃﾘｱ商品
 62
   250
370
    20
100
AcDbVertex
100
AcDbPolyFaceMeshVertex
 10
6.600000000000001
 20
7.250000000000029
 30
519.7
 70
   192
  0
VERTEX
  5
FA
330
BD
100
AcDbEntity
  8
ｴｸｽﾃﾘｱ商品
 62
   250
370
    20
100
AcDbVertex
100
AcDbPolyFaceMeshVertex
 10
6.600000000000001
 20
-7.249999999999973
 30
519.7
 70
   192
  0
VERTEX
  5
FB
330
BD
100
AcDbEntity
  8
ｴｸｽﾃﾘｱ商品
 62
   250
370
    20
100
AcDbVertex
100
AcDbPolyFaceMeshVertex
 10
12.0
 20
7.250000000000029
 30
512.5000000000001
 70
   192
  0
VERTEX
  5
FC
330
BD
100
AcDbEntity
  8
ｴｸｽﾃﾘｱ商品
 62
   250
370
    20
100
AcDbVertex
100
AcDbPolyFaceMeshVertex
 10
12.0
 20
-7.249999999999973
 30
512.5000000000001
 70
   192
  0
VERTEX
  5
FD
330
BD
100
AcDbEntity
  8
ｴｸｽﾃﾘｱ商品
 62
   250
370
    20
100
AcDbVertex
100
AcDbPolyFaceMeshVertex
 10
22.00000000000001
 20
7.250000000000028
 30
505.0000000000001
 70
   192
  0
VERTEX
  5
FE
330
BD
100
AcDbEntity
  8
ｴｸｽﾃﾘｱ商品
 62
   250
370
    20
100
AcDbVertex
100
AcDbPolyFaceMeshVertex
 10
22.00000000000001
 20
-7.249999999999973
 30
505.0000000000001
 70
   192
  0
VERTEX
  5
FF
330
BD
100
AcDbEntity
  8
ｴｸｽﾃﾘｱ商品
 62
   250
370
    20
100
AcDbVertex
100
AcDbPolyFaceMeshVertex
 10
38.60000000000001
 20
7.250000000000028
 30
498.5000000000001
 70
   192
  0
VERTEX
  5
100
330
BD
100
AcDbEntity
  8
ｴｸｽﾃﾘｱ商品
 62
   250
370
    20
100
AcDbVertex
100
AcDbPolyFaceMeshVertex
 10
38.60000000000001
 20
-7.249999999999975
 30
498.5000000000001
 70
   192
  0
VERTEX
  5
101
330
BD
100
AcDbEntity
  8
ｴｸｽﾃﾘｱ商品
 62
   250
370
    20
100
AcDbVertex
100
AcDbPolyFaceMeshVertex
 10
53.40000000000001
 20
7.250000000000028
 30
497.0000000000001
 70
   192
  0
VERTEX
  5
102
330
BD
100
AcDbEntity
  8
ｴｸｽﾃﾘｱ商品
 62
   250
370
    20
100
AcDbVertex
100
AcDbPolyFaceMeshVertex
 10
53.40000000000001
 20
-7.249999999999975
 30
497.0000000000001
 70
   192
  0
VERTEX
  5
103
330
BD
100
AcDbEntity
  8
ｴｸｽﾃﾘｱ商品
 62
   250
370
    20
100
AcDbVertex
100
AcDbPolyFaceMeshVertex
 10
80.70000000000002
 20
7.250000000000028
 30
499.4000000000001
 70
   192
  0
VERTEX
  5
104
330
BD
100
AcDbEntity
  8
ｴｸｽﾃﾘｱ商品
 62
   250
370
    20
100
AcDbVertex
100
AcDbPolyFaceMeshVertex
 10
80.70000000000002
 20
-7.249999999999973
 30
499.4000000000001
 70
   192
  0
VERTEX
  5
105
330
BD
100
AcDbEntity
  8
ｴｸｽﾃﾘｱ商品
 62
   250
370
    20
100
AcDbVertex
100
AcDbPolyFaceMeshVertex
 10
148.6
 20
7.250000000000029
 30
509.2000000000001
 70
   192
  0
VERTEX
  5
106
330
BD
100
AcDbEntity
  8
ｴｸｽﾃﾘｱ商品
 62
   250
370
    20
100
AcDbVertex
100
AcDbPolyFaceMeshVertex
 10
148.6
 20
-7.249999999999973
 30
509.2000000000001
 70
   192
  0
VERTEX
  5
107
330
BD
100
AcDbEntity
  8
ｴｸｽﾃﾘｱ商品
 62
   250
370
    20
100
AcDbVertex
100
AcDbPolyFaceMeshVertex
 10
286.1
 20
7.250000000000031
 30
540.0
 70
   192
  0
VERTEX
  5
108
330
BD
100
AcDbEntity
  8
ｴｸｽﾃﾘｱ商品
 62
   250
370
    20
100
AcDbVertex
100
AcDbPolyFaceMeshVertex
 10
286.1
 20
-7.249999999999972
 30
540.0
 70
   192
  0
VERTEX
  5
109
330
BD
100
AcDbEntity
  8
ｴｸｽﾃﾘｱ商品
 62
   250
370
    20
100
AcDbVertex
100
AcDbPolyFaceMeshVertex
 10
455.0
 20
7.250000000000033
 30
571.3000000000001
 70
   192
  0
VERTEX
  5
10A
330
BD
100
AcDbEntity
  8
ｴｸｽﾃﾘｱ商品
 62
   250
370
    20
100
AcDbVertex
100
AcDbPolyFaceMeshVertex
 10
455.0
 20
-7.24999999999997
 30
571.3000000000001
 70
   192
  0
VERTEX
  5
10B
330
BD
100
AcDbEntity
  8
ｴｸｽﾃﾘｱ商品
 62
   250
370
    20
100
AcDbVertex
100
AcDbPolyFaceMeshVertex
 10
554.6000000000001
 20
7.250000000000034
 30
579.1
 70
   192
  0
VERTEX
  5
10C
330
BD
100
AcDbEntity
  8
ｴｸｽﾃﾘｱ商品
 62
   250
370
    20
100
AcDbVertex
100
AcDbPolyFaceMeshVertex
 10
554.6000000000001
 20
-7.24999999999997
 30
579.1
 70
   192
  0
VERTEX
  5
10D
330
BD
100
AcDbEntity
  8
ｴｸｽﾃﾘｱ商品
 62
   250
370
    20
100
AcDbVertex
100
AcDbPolyFaceMeshVertex
 10
645.2000000000002
 20
7.250000000000034
 30
577.5
 70
   192
  0
VERTEX
  5
10E
330
BD
100
AcDbEntity
  8
ｴｸｽﾃﾘｱ商品
 62
   250
370
    20
100
AcDbVertex
100
AcDbPolyFaceMeshVertex
 10
645.2000000000002
 20
-7.24999999999997
 30
577.5
 70
   192
  0
VERTEX
  5
10F
330
BD
100
AcDbEntity
  8
ｴｸｽﾃﾘｱ商品
 62
   250
370
    20
100
AcDbVertex
100
AcDbPolyFaceMeshVertex
 10
697.7000000000002
 20
7.250000000000033
 30
571.9000000000001
 70
   192
  0
VERTEX
  5
110
330
BD
100
AcDbEntity
  8
ｴｸｽﾃﾘｱ商品
 62
   250
370
    20
100
AcDbVertex
100
AcDbPolyFaceMeshVertex
 10
697.7000000000002
 20
-7.24999999999997
 30
571.9000000000001
 70
   192
  0
VERTEX
  5
111
330
BD
100
AcDbEntity
  8
ｴｸｽﾃﾘｱ商品
 62
   250
370
    20
100
AcDbVertex
100
AcDbPolyFaceMeshVertex
 10
812.5
 20
7.250000000000031
 30
548.7
 70
   192
  0
VERTEX
  5
112
330
BD
100
AcDbEntity
  8
ｴｸｽﾃﾘｱ商品
 62
   250
370
    20
100
AcDbVertex
100
AcDbPolyFaceMeshVertex
 10
812.5
 20
-7.249999999999972
 30
548.7
 70
   192
  0
VERTEX
  5
113
330
BD
100
AcDbEntity
  8
ｴｸｽﾃﾘｱ商品
 62
   250
370
    20
100
AcDbVertex
100
AcDbPolyFaceMeshVertex
 10
901.6
 20
7.25000000000003
 30
521.0
 70
   192
  0
VERTEX
  5
114
330
BD
100
AcDbEntity
  8
ｴｸｽﾃﾘｱ商品
 62
   250
370
    20
100
AcDbVertex
100
AcDbPolyFaceMeshVertex
 10
901.6
 20
-7.249999999999973
 30
521.0
 70
   192
  0
VERTEX
  5
115
330
BD
100
AcDbEntity
  8
ｴｸｽﾃﾘｱ商品
 62
   250
370
    20
100
AcDbVertex
100
AcDbPolyFaceMeshVertex
 10
970.0
 20
7.250000000000028
 30
493.7
 70
   192
  0
VERTEX
  5
116
330
BD
100
AcDbEntity
  8
ｴｸｽﾃﾘｱ商品
 62
   250
370
    20
100
AcDbVertex
100
AcDbPolyFaceMeshVertex
 10
970.0
 20
-7.249999999999975
 30
493.7
 70
   192
  0
VERTEX
  5
117
330
BD
100
AcDbEntity
  8
ｴｸｽﾃﾘｱ商品
 62
   250
370
    20
100
AcDbFaceRecord
 10
0.0
 20
0.0
 30
0.0
 70
   128
 71
     1
 72
     2
 73
     3
 74
     4
  0
VERTEX
  5
118
330
BD
100
AcDbEntity
  8
ｴｸｽﾃﾘｱ商品
 62
   250
370
    20
100
AcDbFaceRecord
 10
0.0
 20
0.0
 30
0.0
 70
   128
 71
     2
 72
     5
 73
     6
 74
     3
  0
VERTEX
  5
119
330
BD
100
AcDbEntity
  8
ｴｸｽﾃﾘｱ商品
 62
   250
370
    20
100
AcDbFaceRecord
 10
0.0
 20
0.0
 30
0.0
 70
   128
 71
     5
 72
     7
 73
     8
 74
     6
  0
VERTEX
  5
11A
330
BD
100
AcDbEntity
  8
ｴｸｽﾃﾘｱ商品
 62
   250
370
    20
100
AcDbFaceRecord
 10
0.0
 20
0.0
 30
0.0
 70
   128
 71
     7
 72
     9
 73
    10
 74
     8
  0
VERTEX
  5
11B
330
BD
100
AcDbEntity
  8
ｴｸｽﾃﾘｱ商品
 62
   250
370
    20
100
AcDbFaceRecord
 10
0.0
 20
0.0
 30
0.0
 70
   128
 71
     9
 72
    11
 73
    12
 74
    10
  0
VERTEX
  5
11C
330
BD
100
AcDbEntity
  8
ｴｸｽﾃﾘｱ商品
 62
   250
370
    20
100
AcDbFaceRecord
 10
0.0
 20
0.0
 30
0.0
 70
   128
 71
    11
 72
    13
 73
    14
 74
    12
  0
VERTEX
  5
11D
330
BD
100
AcDbEntity
  8
ｴｸｽﾃﾘｱ商品
 62
   250
370
    20
100
AcDbFaceRecord
 10
0.0
 20
0.0
 30
0.0
 70
   128
 71
    13
 72
    15
 73
    16
 74
    14
  0
VERTEX
  5
11E
330
BD
100
AcDbEntity
  8
ｴｸｽﾃﾘｱ商品
 62
   250
370
    20
100
AcDbFaceRecord
 10
0.0
 20
0.0
 30
0.0
 70
   128
 71
    15
 72
    17
 73
    18
 74
    16
  0
VERTEX
  5
11F
330
BD
100
AcDbEntity
  8
ｴｸｽﾃﾘｱ商品
 62
   250
370
    20
100
AcDbFaceRecord
 10
0.0
 20
0.0
 30
0.0
 70
   128
 71
    17
 72
    19
 73
    20
 74
    18
  0
VERTEX
  5
120
330
BD
100
AcDbEntity
  8
ｴｸｽﾃﾘｱ商品
 62
   250
370
    20
100
AcDbFaceRecord
 10
0.0
 20
0.0
 30
0.0
 70
   128
 71
    19
 72
    21
 73
    22
 74
    20
  0
VERTEX
  5
121
330
BD
100
AcDbEntity
  8
ｴｸｽﾃﾘｱ商品
 62
   250
370
    20
100
AcDbFaceRecord
 10
0.0
 20
0.0
 30
0.0
 70
   128
 71
    21
 72
    23
 73
    24
 74
    22
  0
VERTEX
  5
122
330
BD
100
AcDbEntity
  8
ｴｸｽﾃﾘｱ商品
 62
   250
370
    20
100
AcDbFaceRecord
 10
0.0
 20
0.0
 30
0.0
 70
   128
 71
    23
 72
    25
 73
    26
 74
    24
  0
VERTEX
  5
123
330
BD
100
AcDbEntity
  8
ｴｸｽﾃﾘｱ商品
 62
   250
370
    20
100
AcDbFaceRecord
 10
0.0
 20
0.0
 30
0.0
 70
   128
 71
    25
 72
    27
 73
    28
 74
    26
  0
VERTEX
  5
124
330
BD
100
AcDbEntity
  8
ｴｸｽﾃﾘｱ商品
 62
   250
370
    20
100
AcDbFaceRecord
 10
0.0
 20
0.0
 30
0.0
 70
   128
 71
    27
 72
    29
 73
    30
 74
    28
  0
VERTEX
  5
125
330
BD
100
AcDbEntity
  8
ｴｸｽﾃﾘｱ商品
 62
   250
370
    20
100
AcDbFaceRecord
 10
0.0
 20
0.0
 30
0.0
 70
   128
 71
    29
 72
    31
 73
    32
 74
    30
  0
VERTEX
  5
126
330
BD
100
AcDbEntity
  8
ｴｸｽﾃﾘｱ商品
 62
   250
370
    20
100
AcDbFaceRecord
 10
0.0
 20
0.0
 30
0.0
 70
   128
 71
    31
 72
    33
 73
    34
 74
    32
  0
VERTEX
  5
127
330
BD
100
AcDbEntity
  8
ｴｸｽﾃﾘｱ商品
 62
   250
370
    20
100
AcDbFaceRecord
 10
0.0
 20
0.0
 30
0.0
 70
   128
 71
    33
 72
    35
 73
    36
 74
    34
  0
VERTEX
  5
128
330
BD
100
AcDbEntity
  8
ｴｸｽﾃﾘｱ商品
 62
   250
370
    20
100
AcDbFaceRecord
 10
0.0
 20
0.0
 30
0.0
 70
   128
 71
    35
 72
    37
 73
    38
 74
    36
  0
VERTEX
  5
129
330
BD
100
AcDbEntity
  8
ｴｸｽﾃﾘｱ商品
 62
   250
370
    20
100
AcDbFaceRecord
 10
0.0
 20
0.0
 30
0.0
 70
   128
 71
    37
 72
    39
 73
    40
 74
    38
  0
VERTEX
  5
12A
330
BD
100
AcDbEntity
  8
ｴｸｽﾃﾘｱ商品
 62
   250
370
    20
100
AcDbFaceRecord
 10
0.0
 20
0.0
 30
0.0
 70
   128
 71
    39
 72
    41
 73
    42
 74
    40
  0
VERTEX
  5
12B
330
BD
100
AcDbEntity
  8
ｴｸｽﾃﾘｱ商品
 62
   250
370
    20
100
AcDbFaceRecord
 10
0.0
 20
0.0
 30
0.0
 70
   128
 71
    41
 72
    43
 73
    44
 74
    42
  0
VERTEX
  5
12C
330
BD
100
AcDbEntity
  8
ｴｸｽﾃﾘｱ商品
 62
   250
370
    20
100
AcDbFaceRecord
 10
0.0
 20
0.0
 30
0.0
 70
   128
 71
    43
 72
    45
 73
    46
 74
    44
  0
VERTEX
  5
12D
330
BD
100
AcDbEntity
  8
ｴｸｽﾃﾘｱ商品
 62
   250
370
    20
100
AcDbFaceRecord
 10
0.0
 20
0.0
 30
0.0
 70
   128
 71
    45
 72
    47
 73
    48
 74
    46
  0
VERTEX
  5
12E
330
BD
100
AcDbEntity
  8
ｴｸｽﾃﾘｱ商品
 62
   250
370
    20
100
AcDbFaceRecord
 10
0.0
 20
0.0
 30
0.0
 70
   128
 71
    47
 72
    49
 73
    50
 74
    48
  0
VERTEX
  5
12F
330
BD
100
AcDbEntity
  8
ｴｸｽﾃﾘｱ商品
 62
   250
370
    20
100
AcDbFaceRecord
 10
0.0
 20
0.0
 30
0.0
 70
   128
 71
    49
 72
    51
 73
    52
 74
    50
  0
VERTEX
  5
130
330
BD
100
AcDbEntity
  8
ｴｸｽﾃﾘｱ商品
 62
   250
370
    20
100
AcDbFaceRecord
 10
0.0
 20
0.0
 30
0.0
 70
   128
 71
    51
 72
    53
 73
    54
 74
    52
  0
VERTEX
  5
131
330
BD
100
AcDbEntity
  8
ｴｸｽﾃﾘｱ商品
 62
   250
370
    20
100
AcDbFaceRecord
 10
0.0
 20
0.0
 30
0.0
 70
   128
 71
    53
 72
    55
 73
    56
 74
    54
  0
VERTEX
  5
132
330
BD
100
AcDbEntity
  8
ｴｸｽﾃﾘｱ商品
 62
   250
370
    20
100
AcDbFaceRecord
 10
0.0
 20
0.0
 30
0.0
 70
   128
 71
    55
 72
    57
 73
    58
 74
    56
  0
VERTEX
  5
133
330
BD
100
AcDbEntity
  8
ｴｸｽﾃﾘｱ商品
 62
   250
370
    20
100
AcDbFaceRecord
 10
0.0
 20
0.0
 30
0.0
 70
   128
 71
    57
 72
    59
 73
    60
 74
    58
  0
VERTEX
  5
134
330
BD
100
AcDbEntity
  8
ｴｸｽﾃﾘｱ商品
 62
   250
370
    20
100
AcDbFaceRecord
 10
0.0
 20
0.0
 30
0.0
 70
   128
 71
    59
 72
    61
 73
    62
 74
    60
  0
VERTEX
  5
135
330
BD
100
AcDbEntity
  8
ｴｸｽﾃﾘｱ商品
 62
   250
370
    20
100
AcDbFaceRecord
 10
0.0
 20
0.0
 30
0.0
 70
   128
 71
    61
 72
    63
 73
    64
 74
    62
  0
VERTEX
  5
136
330
BD
100
AcDbEntity
  8
ｴｸｽﾃﾘｱ商品
 62
   250
370
    20
100
AcDbFaceRecord
 10
0.0
 20
0.0
 30
0.0
 70
   128
 71
    63
 72
    65
 73
    66
 74
    64
  0
VERTEX
  5
137
330
BD
100
AcDbEntity
  8
ｴｸｽﾃﾘｱ商品
 62
   250
370
    20
100
AcDbFaceRecord
 10
0.0
 20
0.0
 30
0.0
 70
   128
 71
    65
 72
    67
 73
    68
 74
    66
  0
VERTEX
  5
138
330
BD
100
AcDbEntity
  8
ｴｸｽﾃﾘｱ商品
 62
   250
370
    20
100
AcDbFaceRecord
 10
0.0
 20
0.0
 30
0.0
 70
   128
 71
    67
 72
    69
 73
    70
 74
    68
  0
VERTEX
  5
139
330
BD
100
AcDbEntity
  8
ｴｸｽﾃﾘｱ商品
 62
   250
370
    20
100
AcDbFaceRecord
 10
0.0
 20
0.0
 30
0.0
 70
   128
 71
    69
 72
    71
 73
    72
 74
    70
  0
VERTEX
  5
13A
330
BD
100
AcDbEntity
  8
ｴｸｽﾃﾘｱ商品
 62
   250
370
    20
100
AcDbFaceRecord
 10
0.0
 20
0.0
 30
0.0
 70
   128
 71
    71
 72
    73
 73
    74
 74
    72
  0
VERTEX
  5
13B
330
BD
100
AcDbEntity
  8
ｴｸｽﾃﾘｱ商品
 62
   250
370
    20
100
AcDbFaceRecord
 10
0.0
 20
0.0
 30
0.0
 70
   128
 71
    73
 72
    75
 73
    76
 74
    74
  0
VERTEX
  5
13C
330
BD
100
AcDbEntity
  8
ｴｸｽﾃﾘｱ商品
 62
   250
370
    20
100
AcDbFaceRecord
 10
0.0
 20
0.0
 30
0.0
 70
   128
 71
    75
 72
    77
 73
    78
 74
    76
  0
VERTEX
  5
13D
330
BD
100
AcDbEntity
  8
ｴｸｽﾃﾘｱ商品
 62
   250
370
    20
100
AcDbFaceRecord
 10
0.0
 20
0.0
 30
0.0
 70
   128
 71
    77
 72
    79
 73
    80
 74
    78
  0
VERTEX
  5
13E
330
BD
100
AcDbEntity
  8
ｴｸｽﾃﾘｱ商品
 62
   250
370
    20
100
AcDbFaceRecord
 10
0.0
 20
0.0
 30
0.0
 70
   128
 71
    79
 72
    81
 73
    82
 74
    80
  0
VERTEX
  5
13F
330
BD
100
AcDbEntity
  8
ｴｸｽﾃﾘｱ商品
 62
   250
370
    20
100
AcDbFaceRecord
 10
0.0
 20
0.0
 30
0.0
 70
   128
 71
    81
 72
    83
 73
    84
 74
    82
  0
VERTEX
  5
140
330
BD
100
AcDbEntity
  8
ｴｸｽﾃﾘｱ商品
 62
   250
370
    20
100
AcDbFaceRecord
 10
0.0
 20
0.0
 30
0.0
 70
   128
 71
    83
 72
    85
 73
    86
 74
    84
  0
VERTEX
  5
141
330
BD
100
AcDbEntity
  8
ｴｸｽﾃﾘｱ商品
 62
   250
370
    20
100
AcDbFaceRecord
 10
0.0
 20
0.0
 30
0.0
 70
   128
 71
    85
 72
    87
 73
    88
 74
    86
  0
VERTEX
  5
142
330
BD
100
AcDbEntity
  8
ｴｸｽﾃﾘｱ商品
 62
   250
370
    20
100
AcDbFaceRecord
 10
0.0
 20
0.0
 30
0.0
 70
   128
 71
    87
 72
     1
 73
     4
 74
    88
  0
VERTEX
  5
143
330
BD
100
AcDbEntity
  8
ｴｸｽﾃﾘｱ商品
 62
   250
370
    20
100
AcDbFaceRecord
 10
0.0
 20
0.0
 30
0.0
 70
   128
 71
    13
 72
    11
 73
     9
  0
VERTEX
  5
144
330
BD
100
AcDbEntity
  8
ｴｸｽﾃﾘｱ商品
 62
   250
370
    20
100
AcDbFaceRecord
 10
0.0
 20
0.0
 30
0.0
 70
   128
 71
    77
 72
    13
 73
     9
  0
VERTEX
  5
145
330
BD
100
AcDbEntity
  8
ｴｸｽﾃﾘｱ商品
 62
   250
370
    20
100
AcDbFaceRecord
 10
0.0
 20
0.0
 30
0.0
 70
   128
 71
    79
 72
    77
 73
     9
  0
VERTEX
  5
146
330
BD
100
AcDbEntity
  8
ｴｸｽﾃﾘｱ商品
 62
   250
370
    20
100
AcDbFaceRecord
 10
0.0
 20
0.0
 30
0.0
 70
   128
 71
    15
 72
    13
 73
    77
  0
VERTEX
  5
147
330
BD
100
AcDbEntity
  8
ｴｸｽﾃﾘｱ商品
 62
   250
370
    20
100
AcDbFaceRecord
 10
0.0
 20
0.0
 30
0.0
 70
   128
 71
    81
 72
    79
 73
     9
  0
VERTEX
  5
148
330
BD
100
AcDbEntity
  8
ｴｸｽﾃﾘｱ商品
 62
   250
370
    20
100
AcDbFaceRecord
 10
0.0
 20
0.0
 30
0.0
 70
   128
 71
    81
 72
     9
 73
     7
  0
VERTEX
  5
149
330
BD
100
AcDbEntity
  8
ｴｸｽﾃﾘｱ商品
 62
   250
370
    20
100
AcDbFaceRecord
 10
0.0
 20
0.0
 30
0.0
 70
   128
 71
    15
 72
    77
 73
    75
  0
VERTEX
  5
14A
330
BD
100
AcDbEntity
  8
ｴｸｽﾃﾘｱ商品
 62
   250
370
    20
100
AcDbFaceRecord
 10
0.0
 20
0.0
 30
0.0
 70
   128
 71
    51
 72
    49
 73
    47
  0
VERTEX
  5
14B
330
BD
100
AcDbEntity
  8
ｴｸｽﾃﾘｱ商品
 62
   250
370
    20
100
AcDbFaceRecord
 10
0.0
 20
0.0
 30
0.0
 70
   128
 71
    53
 72
    51
 73
    47
  0
VERTEX
  5
14C
330
BD
100
AcDbEntity
  8
ｴｸｽﾃﾘｱ商品
 62
   250
370
    20
100
AcDbFaceRecord
 10
0.0
 20
0.0
 30
0.0
 70
   128
 71
    55
 72
    53
 73
    47
  0
VERTEX
  5
14D
330
BD
100
AcDbEntity
  8
ｴｸｽﾃﾘｱ商品
 62
   250
370
    20
100
AcDbFaceRecord
 10
0.0
 20
0.0
 30
0.0
 70
   128
 71
    55
 72
    47
 73
    45
  0
VERTEX
  5
14E
330
BD
100
AcDbEntity
  8
ｴｸｽﾃﾘｱ商品
 62
   250
370
    20
100
AcDbFaceRecord
 10
0.0
 20
0.0
 30
0.0
 70
   128
 71
    55
 72
    45
 73
    35
  0
VERTEX
  5
14F
330
BD
100
AcDbEntity
  8
ｴｸｽﾃﾘｱ商品
 62
   250
370
    20
100
AcDbFaceRecord
 10
0.0
 20
0.0
 30
0.0
 70
   128
 71
    37
 72
    35
 73
    45
  0
VERTEX
  5
150
330
BD
100
AcDbEntity
  8
ｴｸｽﾃﾘｱ商品
 62
   250
370
    20
100
AcDbFaceRecord
 10
0.0
 20
0.0
 30
0.0
 70
   128
 71
    17
 72
    15
 73
    75
  0
VERTEX
  5
151
330
BD
100
AcDbEntity
  8
ｴｸｽﾃﾘｱ商品
 62
   250
370
    20
100
AcDbFaceRecord
 10
0.0
 20
0.0
 30
0.0
 70
   128
 71
    55
 72
    35
 73
    33
  0
VERTEX
  5
152
330
BD
100
AcDbEntity
  8
ｴｸｽﾃﾘｱ商品
 62
   250
370
    20
100
AcDbFaceRecord
 10
0.0
 20
0.0
 30
0.0
 70
   128
 71
    37
 72
    45
 73
    43
  0
VERTEX
  5
153
330
BD
100
AcDbEntity
  8
ｴｸｽﾃﾘｱ商品
 62
   250
370
    20
100
AcDbFaceRecord
 10
0.0
 20
0.0
 30
0.0
 70
   128
 71
    83
 72
    81
 73
     7
  0
VERTEX
  5
154
330
BD
100
AcDbEntity
  8
ｴｸｽﾃﾘｱ商品
 62
   250
370
    20
100
AcDbFaceRecord
 10
0.0
 20
0.0
 30
0.0
 70
   128
 71
    39
 72
    37
 73
    43
  0
VERTEX
  5
155
330
BD
100
AcDbEntity
  8
ｴｸｽﾃﾘｱ商品
 62
   250
370
    20
100
AcDbFaceRecord
 10
0.0
 20
0.0
 30
0.0
 70
   128
 71
    83
 72
     7
 73
     5
  0
VERTEX
  5
156
330
BD
100
AcDbEntity
  8
ｴｸｽﾃﾘｱ商品
 62
   250
370
    20
100
AcDbFaceRecord
 10
0.0
 20
0.0
 30
0.0
 70
   128
 71
    55
 72
    33
 73
    31
  0
VERTEX
  5
157
330
BD
100
AcDbEntity
  8
ｴｸｽﾃﾘｱ商品
 62
   250
370
    20
100
AcDbFaceRecord
 10
0.0
 20
0.0
 30
0.0
 70
   128
 71
    41
 72
    39
 73
    43
  0
VERTEX
  5
158
330
BD
100
AcDbEntity
  8
ｴｸｽﾃﾘｱ商品
 62
   250
370
    20
100
AcDbFaceRecord
 10
0.0
 20
0.0
 30
0.0
 70
   128
 71
    17
 72
    75
 73
    73
  0
VERTEX
  5
159
330
BD
100
AcDbEntity
  8
ｴｸｽﾃﾘｱ商品
 62
   250
370
    20
100
AcDbFaceRecord
 10
0.0
 20
0.0
 30
0.0
 70
   128
 71
    19
 72
    17
 73
    73
  0
VERTEX
  5
15A
330
BD
100
AcDbEntity
  8
ｴｸｽﾃﾘｱ商品
 62
   250
370
    20
100
AcDbFaceRecord
 10
0.0
 20
0.0
 30
0.0
 70
   128
 71
    57
 72
    55
 73
    31
  0
VERTEX
  5
15B
330
BD
100
AcDbEntity
  8
ｴｸｽﾃﾘｱ商品
 62
   250
370
    20
100
AcDbFaceRecord
 10
0.0
 20
0.0
 30
0.0
 70
   128
 71
    57
 72
    31
 73
    29
  0
VERTEX
  5
15C
330
BD
100
AcDbEntity
  8
ｴｸｽﾃﾘｱ商品
 62
   250
370
    20
100
AcDbFaceRecord
 10
0.0
 20
0.0
 30
0.0
 70
   128
 71
    21
 72
    19
 73
    73
  0
VERTEX
  5
15D
330
BD
100
AcDbEntity
  8
ｴｸｽﾃﾘｱ商品
 62
   250
370
    20
100
AcDbFaceRecord
 10
0.0
 20
0.0
 30
0.0
 70
   128
 71
    57
 72
    29
 73
    27
  0
VERTEX
  5
15E
330
BD
100
AcDbEntity
  8
ｴｸｽﾃﾘｱ商品
 62
   250
370
    20
100
AcDbFaceRecord
 10
0.0
 20
0.0
 30
0.0
 70
   128
 71
    85
 72
    83
 73
     5
  0
VERTEX
  5
15F
330
BD
100
AcDbEntity
  8
ｴｸｽﾃﾘｱ商品
 62
   250
370
    20
100
AcDbFaceRecord
 10
0.0
 20
0.0
 30
0.0
 70
   128
 71
    59
 72
    57
 73
    27
  0
VERTEX
  5
160
330
BD
100
AcDbEntity
  8
ｴｸｽﾃﾘｱ商品
 62
   250
370
    20
100
AcDbFaceRecord
 10
0.0
 20
0.0
 30
0.0
 70
   128
 71
    59
 72
    27
 73
    25
  0
VERTEX
  5
161
330
BD
100
AcDbEntity
  8
ｴｸｽﾃﾘｱ商品
 62
   250
370
    20
100
AcDbFaceRecord
 10
0.0
 20
0.0
 30
0.0
 70
   128
 71
    23
 72
    21
 73
    73
  0
VERTEX
  5
162
330
BD
100
AcDbEntity
  8
ｴｸｽﾃﾘｱ商品
 62
   250
370
    20
100
AcDbFaceRecord
 10
0.0
 20
0.0
 30
0.0
 70
   128
 71
    85
 72
     5
 73
     2
  0
VERTEX
  5
163
330
BD
100
AcDbEntity
  8
ｴｸｽﾃﾘｱ商品
 62
   250
370
    20
100
AcDbFaceRecord
 10
0.0
 20
0.0
 30
0.0
 70
   128
 71
    61
 72
    59
 73
    25
  0
VERTEX
  5
164
330
BD
100
AcDbEntity
  8
ｴｸｽﾃﾘｱ商品
 62
   250
370
    20
100
AcDbFaceRecord
 10
0.0
 20
0.0
 30
0.0
 70
   128
 71
    61
 72
    25
 73
    23
  0
VERTEX
  5
165
330
BD
100
AcDbEntity
  8
ｴｸｽﾃﾘｱ商品
 62
   250
370
    20
100
AcDbFaceRecord
 10
0.0
 20
0.0
 30
0.0
 70
   128
 71
    61
 72
    23
 73
    73
  0
VERTEX
  5
166
330
BD
100
AcDbEntity
  8
ｴｸｽﾃﾘｱ商品
 62
   250
370
    20
100
AcDbFaceRecord
 10
0.0
 20
0.0
 30
0.0
 70
   128
 71
    61
 72
    73
 73
    71
  0
VERTEX
  5
167
330
BD
100
AcDbEntity
  8
ｴｸｽﾃﾘｱ商品
 62
   250
370
    20
100
AcDbFaceRecord
 10
0.0
 20
0.0
 30
0.0
 70
   128
 71
    63
 72
    61
 73
    71
  0
VERTEX
  5
168
330
BD
100
AcDbEntity
  8
ｴｸｽﾃﾘｱ商品
 62
   250
370
    20
100
AcDbFaceRecord
 10
0.0
 20
0.0
 30
0.0
 70
   128
 71
    85
 72
     2
 73
     1
  0
VERTEX
  5
169
330
BD
100
AcDbEntity
  8
ｴｸｽﾃﾘｱ商品
 62
   250
370
    20
100
AcDbFaceRecord
 10
0.0
 20
0.0
 30
0.0
 70
   128
 71
    63
 72
    71
 73
    69
  0
VERTEX
  5
16A
330
BD
100
AcDbEntity
  8
ｴｸｽﾃﾘｱ商品
 62
   250
370
    20
100
AcDbFaceRecord
 10
0.0
 20
0.0
 30
0.0
 70
   128
 71
    65
 72
    63
 73
    69
  0
VERTEX
  5
16B
330
BD
100
AcDbEntity
  8
ｴｸｽﾃﾘｱ商品
 62
   250
370
    20
100
AcDbFaceRecord
 10
0.0
 20
0.0
 30
0.0
 70
   128
 71
    67
 72
    65
 73
    69
  0
VERTEX
  5
16C
330
BD
100
AcDbEntity
  8
ｴｸｽﾃﾘｱ商品
 62
   250
370
    20
100
AcDbFaceRecord
 10
0.0
 20
0.0
 30
0.0
 70
   128
 71
    87
 72
    85
 73
     1
  0
VERTEX
  5
16D
330
BD
100
AcDbEntity
  8
ｴｸｽﾃﾘｱ商品
 62
   250
370
    20
100
AcDbFaceRecord
 10
0.0
 20
0.0
 30
0.0
 70
   128
 71
    10
 72
    12
 73
    14
  0
VERTEX
  5
16E
330
BD
100
AcDbEntity
  8
ｴｸｽﾃﾘｱ商品
 62
   250
370
    20
100
AcDbFaceRecord
 10
0.0
 20
0.0
 30
0.0
 70
   128
 71
    10
 72
    14
 73
    78
  0
VERTEX
  5
16F
330
BD
100
AcDbEntity
  8
ｴｸｽﾃﾘｱ商品
 62
   250
370
    20
100
AcDbFaceRecord
 10
0.0
 20
0.0
 30
0.0
 70
   128
 71
    10
 72
    78
 73
    80
  0
VERTEX
  5
170
330
BD
100
AcDbEntity
  8
ｴｸｽﾃﾘｱ商品
 62
   250
370
    20
100
AcDbFaceRecord
 10
0.0
 20
0.0
 30
0.0
 70
   128
 71
    78
 72
    14
 73
    16
  0
VERTEX
  5
171
330
BD
100
AcDbEntity
  8
ｴｸｽﾃﾘｱ商品
 62
   250
370
    20
100
AcDbFaceRecord
 10
0.0
 20
0.0
 30
0.0
 70
   128
 71
     8
 72
    10
 73
    80
  0
VERTEX
  5
172
330
BD
100
AcDbEntity
  8
ｴｸｽﾃﾘｱ商品
 62
   250
370
    20
100
AcDbFaceRecord
 10
0.0
 20
0.0
 30
0.0
 70
   128
 71
     8
 72
    80
 73
    82
  0
VERTEX
  5
173
330
BD
100
AcDbEntity
  8
ｴｸｽﾃﾘｱ商品
 62
   250
370
    20
100
AcDbFaceRecord
 10
0.0
 20
0.0
 30
0.0
 70
   128
 71
    76
 72
    78
 73
    16
  0
VERTEX
  5
174
330
BD
100
AcDbEntity
  8
ｴｸｽﾃﾘｱ商品
 62
   250
370
    20
100
AcDbFaceRecord
 10
0.0
 20
0.0
 30
0.0
 70
   128
 71
    48
 72
    50
 73
    52
  0
VERTEX
  5
175
330
BD
100
AcDbEntity
  8
ｴｸｽﾃﾘｱ商品
 62
   250
370
    20
100
AcDbFaceRecord
 10
0.0
 20
0.0
 30
0.0
 70
   128
 71
    48
 72
    52
 73
    54
  0
VERTEX
  5
176
330
BD
100
AcDbEntity
  8
ｴｸｽﾃﾘｱ商品
 62
   250
370
    20
100
AcDbFaceRecord
 10
0.0
 20
0.0
 30
0.0
 70
   128
 71
    48
 72
    54
 73
    56
  0
VERTEX
  5
177
330
BD
100
AcDbEntity
  8
ｴｸｽﾃﾘｱ商品
 62
   250
370
    20
100
AcDbFaceRecord
 10
0.0
 20
0.0
 30
0.0
 70
   128
 71
    46
 72
    48
 73
    56
  0
VERTEX
  5
178
330
BD
100
AcDbEntity
  8
ｴｸｽﾃﾘｱ商品
 62
   250
370
    20
100
AcDbFaceRecord
 10
0.0
 20
0.0
 30
0.0
 70
   128
 71
    36
 72
    46
 73
    56
  0
VERTEX
  5
179
330
BD
100
AcDbEntity
  8
ｴｸｽﾃﾘｱ商品
 62
   250
370
    20
100
AcDbFaceRecord
 10
0.0
 20
0.0
 30
0.0
 70
   128
 71
    46
 72
    36
 73
    38
  0
VERTEX
  5
17A
330
BD
100
AcDbEntity
  8
ｴｸｽﾃﾘｱ商品
 62
   250
370
    20
100
AcDbFaceRecord
 10
0.0
 20
0.0
 30
0.0
 70
   128
 71
    76
 72
    16
 73
    18
  0
VERTEX
  5
17B
330
BD
100
AcDbEntity
  8
ｴｸｽﾃﾘｱ商品
 62
   250
370
    20
100
AcDbFaceRecord
 10
0.0
 20
0.0
 30
0.0
 70
   128
 71
    34
 72
    36
 73
    56
  0
VERTEX
  5
17C
330
BD
100
AcDbEntity
  8
ｴｸｽﾃﾘｱ商品
 62
   250
370
    20
100
AcDbFaceRecord
 10
0.0
 20
0.0
 30
0.0
 70
   128
 71
    44
 72
    46
 73
    38
  0
VERTEX
  5
17D
330
BD
100
AcDbEntity
  8
ｴｸｽﾃﾘｱ商品
 62
   250
370
    20
100
AcDbFaceRecord
 10
0.0
 20
0.0
 30
0.0
 70
   128
 71
     8
 72
    82
 73
    84
  0
VERTEX
  5
17E
330
BD
100
AcDbEntity
  8
ｴｸｽﾃﾘｱ商品
 62
   250
370
    20
100
AcDbFaceRecord
 10
0.0
 20
0.0
 30
0.0
 70
   128
 71
    44
 72
    38
 73
    40
  0
VERTEX
  5
17F
330
BD
100
AcDbEntity
  8
ｴｸｽﾃﾘｱ商品
 62
   250
370
    20
100
AcDbFaceRecord
 10
0.0
 20
0.0
 30
0.0
 70
   128
 71
     6
 72
     8
 73
    84
  0
VERTEX
  5
180
330
BD
100
AcDbEntity
  8
ｴｸｽﾃﾘｱ商品
 62
   250
370
    20
100
AcDbFaceRecord
 10
0.0
 20
0.0
 30
0.0
 70
   128
 71
    32
 72
    34
 73
    56
  0
VERTEX
  5
181
330
BD
100
AcDbEntity
  8
ｴｸｽﾃﾘｱ商品
 62
   250
370
    20
100
AcDbFaceRecord
 10
0.0
 20
0.0
 30
0.0
 70
   128
 71
    42
 72
    44
 73
    40
  0
VERTEX
  5
182
330
BD
100
AcDbEntity
  8
ｴｸｽﾃﾘｱ商品
 62
   250
370
    20
100
AcDbFaceRecord
 10
0.0
 20
0.0
 30
0.0
 70
   128
 71
    74
 72
    76
 73
    18
  0
VERTEX
  5
183
330
BD
100
AcDbEntity
  8
ｴｸｽﾃﾘｱ商品
 62
   250
370
    20
100
AcDbFaceRecord
 10
0.0
 20
0.0
 30
0.0
 70
   128
 71
    74
 72
    18
 73
    20
  0
VERTEX
  5
184
330
BD
100
AcDbEntity
  8
ｴｸｽﾃﾘｱ商品
 62
   250
370
    20
100
AcDbFaceRecord
 10
0.0
 20
0.0
 30
0.0
 70
   128
 71
    32
 72
    56
 73
    58
  0
VERTEX
  5
185
330
BD
100
AcDbEntity
  8
ｴｸｽﾃﾘｱ商品
 62
   250
370
    20
100
AcDbFaceRecord
 10
0.0
 20
0.0
 30
0.0
 70
   128
 71
    30
 72
    32
 73
    58
  0
VERTEX
  5
186
330
BD
100
AcDbEntity
  8
ｴｸｽﾃﾘｱ商品
 62
   250
370
    20
100
AcDbFaceRecord
 10
0.0
 20
0.0
 30
0.0
 70
   128
 71
    74
 72
    20
 73
    22
  0
VERTEX
  5
187
330
BD
100
AcDbEntity
  8
ｴｸｽﾃﾘｱ商品
 62
   250
370
    20
100
AcDbFaceRecord
 10
0.0
 20
0.0
 30
0.0
 70
   128
 71
    28
 72
    30
 73
    58
  0
VERTEX
  5
188
330
BD
100
AcDbEntity
  8
ｴｸｽﾃﾘｱ商品
 62
   250
370
    20
100
AcDbFaceRecord
 10
0.0
 20
0.0
 30
0.0
 70
   128
 71
     6
 72
    84
 73
    86
  0
VERTEX
  5
189
330
BD
100
AcDbEntity
  8
ｴｸｽﾃﾘｱ商品
 62
   250
370
    20
100
AcDbFaceRecord
 10
0.0
 20
0.0
 30
0.0
 70
   128
 71
    28
 72
    58
 73
    60
  0
VERTEX
  5
18A
330
BD
100
AcDbEntity
  8
ｴｸｽﾃﾘｱ商品
 62
   250
370
    20
100
AcDbFaceRecord
 10
0.0
 20
0.0
 30
0.0
 70
   128
 71
    26
 72
    28
 73
    60
  0
VERTEX
  5
18B
330
BD
100
AcDbEntity
  8
ｴｸｽﾃﾘｱ商品
 62
   250
370
    20
100
AcDbFaceRecord
 10
0.0
 20
0.0
 30
0.0
 70
   128
 71
    74
 72
    22
 73
    24
  0
VERTEX
  5
18C
330
BD
100
AcDbEntity
  8
ｴｸｽﾃﾘｱ商品
 62
   250
370
    20
100
AcDbFaceRecord
 10
0.0
 20
0.0
 30
0.0
 70
   128
 71
     3
 72
     6
 73
    86
  0
VERTEX
  5
18D
330
BD
100
AcDbEntity
  8
ｴｸｽﾃﾘｱ商品
 62
   250
370
    20
100
AcDbFaceRecord
 10
0.0
 20
0.0
 30
0.0
 70
   128
 71
    26
 72
    60
 73
    62
  0
VERTEX
  5
18E
330
BD
100
AcDbEntity
  8
ｴｸｽﾃﾘｱ商品
 62
   250
370
    20
100
AcDbFaceRecord
 10
0.0
 20
0.0
 30
0.0
 70
   128
 71
    24
 72
    26
 73
    62
  0
VERTEX
  5
18F
330
BD
100
AcDbEntity
  8
ｴｸｽﾃﾘｱ商品
 62
   250
370
    20
100
AcDbFaceRecord
 10
0.0
 20
0.0
 30
0.0
 70
   128
 71
    74
 72
    24
 73
    62
  0
VERTEX
  5
190
330
BD
100
AcDbEntity
  8
ｴｸｽﾃﾘｱ商品
 62
   250
370
    20
100
AcDbFaceRecord
 10
0.0
 20
0.0
 30
0.0
 70
   128
 71
    72
 72
    74
 73
    62
  0
VERTEX
  5
191
330
BD
100
AcDbEntity
  8
ｴｸｽﾃﾘｱ商品
 62
   250
370
    20
100
AcDbFaceRecord
 10
0.0
 20
0.0
 30
0.0
 70
   128
 71
    72
 72
    62
 73
    64
  0
VERTEX
  5
192
330
BD
100
AcDbEntity
  8
ｴｸｽﾃﾘｱ商品
 62
   250
370
    20
100
AcDbFaceRecord
 10
0.0
 20
0.0
 30
0.0
 70
   128
 71
     4
 72
     3
 73
    86
  0
VERTEX
  5
193
330
BD
100
AcDbEntity
  8
ｴｸｽﾃﾘｱ商品
 62
   250
370
    20
100
AcDbFaceRecord
 10
0.0
 20
0.0
 30
0.0
 70
   128
 71
    70
 72
    72
 73
    64
  0
VERTEX
  5
194
330
BD
100
AcDbEntity
  8
ｴｸｽﾃﾘｱ商品
 62
   250
370
    20
100
AcDbFaceRecord
 10
0.0
 20
0.0
 30
0.0
 70
   128
 71
    70
 72
    64
 73
    66
  0
VERTEX
  5
195
330
BD
100
AcDbEntity
  8
ｴｸｽﾃﾘｱ商品
 62
   250
370
    20
100
AcDbFaceRecord
 10
0.0
 20
0.0
 30
0.0
 70
   128
 71
    68
 72
    70
 73
    66
  0
VERTEX
  5
196
330
BD
100
AcDbEntity
  8
ｴｸｽﾃﾘｱ商品
 62
   250
370
    20
100
AcDbFaceRecord
 10
0.0
 20
0.0
 30
0.0
 70
   128
 71
    88
 72
     4
 73
    86
  0
SEQEND
  5
BE
330
BD
100
AcDbEntity
  8
ｴｸｽﾃﾘｱ商品
370
    20
  0
POLYLINE
  5
197
330
3C
100
AcDbEntity
  8
ｴｸｽﾃﾘｱ商品
 62
   250
370
    20
100
AcDbPolyFaceMesh
 66
     1
 10
0.0
 20
0.0
 30
0.0
 70
    64
 71
    96
 72
    94
  0
VERTEX
  5
199
330
197
100
AcDbEntity
  8
ｴｸｽﾃﾘｱ商品
 62
   250
370
    20
100
AcDbVertex
100
AcDbPolyFaceMeshVertex
 10
8.797109616417883
 20
-5.196152422706634
 30
414.9508050760241
 70
   192
  0
VERTEX
  5
19A
330
197
100
AcDbEntity
  8
ｴｸｽﾃﾘｱ商品
 62
   250
370
    20
100
AcDbVertex
100
AcDbPolyFaceMeshVertex
 10
6.402890383582119
 20
-5.196152422706632
 30
409.4491949239759
 70
   192
  0
VERTEX
  5
19B
330
197
100
AcDbEntity
  8
ｴｸｽﾃﾘｱ商品
 62
   250
370
    20
100
AcDbVertex
100
AcDbPolyFaceMeshVertex
 10
49.50782939197556
 20
-5.196152422706632
 30
390.6905640592122
 70
   192
  0
VERTEX
  5
19C
330
197
100
AcDbEntity
  8
ｴｸｽﾃﾘｱ商品
 62
   250
370
    20
100
AcDbVertex
100
AcDbPolyFaceMeshVertex
 10
52.09217060802447
 20
-5.196152422706634
 30
396.1094359407879
 70
   192
  0
VERTEX
  5
19D
330
197
100
AcDbEntity
  8
ｴｸｽﾃﾘｱ商品
 62
   250
370
    20
100
AcDbVertex
100
AcDbPolyFaceMeshVertex
 10
5.205780767164239
 20
0.0000000000000007
 30
406.6983898479519
 70
   192
  0
VERTEX
  5
19E
330
197
100
AcDbEntity
  8
ｴｸｽﾃﾘｱ商品
 62
   250
370
    20
100
AcDbVertex
100
AcDbPolyFaceMeshVertex
 10
48.2156587839511
 20
0.0000000000000007
 30
387.9811281184244
 70
   192
  0
VERTEX
  5
19F
330
197
100
AcDbEntity
  8
ｴｸｽﾃﾘｱ商品
 62
   250
370
    20
100
AcDbVertex
100
AcDbPolyFaceMeshVertex
 10
6.402890383582121
 20
5.196152422706634
 30
409.4491949239759
 70
   192
  0
VERTEX
  5
1A0
330
197
100
AcDbEntity
  8
ｴｸｽﾃﾘｱ商品
 62
   250
370
    20
100
AcDbVertex
100
AcDbPolyFaceMeshVertex
 10
49.50782939197556
 20
5.196152422706634
 30
390.6905640592122
 70
   192
  0
VERTEX
  5
1A1
330
197
100
AcDbEntity
  8
ｴｸｽﾃﾘｱ商品
 62
   250
370
    20
100
AcDbVertex
100
AcDbPolyFaceMeshVertex
 10
8.797109616417883
 20
5.196152422706634
 30
414.9508050760241
 70
   192
  0
VERTEX
  5
1A2
330
197
100
AcDbEntity
  8
ｴｸｽﾃﾘｱ商品
 62
   250
370
    20
100
AcDbVertex
100
AcDbPolyFaceMeshVertex
 10
52.09217060802447
 20
5.196152422706634
 30
396.1094359407879
 70
   192
  0
VERTEX
  5
1A3
330
197
100
AcDbEntity
  8
ｴｸｽﾃﾘｱ商品
 62
   250
370
    20
100
AcDbVertex
100
AcDbPolyFaceMeshVertex
 10
9.994219232835764
 20
0.0
 30
417.7016101520481
 70
   192
  0
VERTEX
  5
1A4
330
197
100
AcDbEntity
  8
ｴｸｽﾃﾘｱ商品
 62
   250
370
    20
100
AcDbVertex
100
AcDbPolyFaceMeshVertex
 10
53.38434121604892
 20
0.0
 30
398.8188718815758
 70
   192
  0
VERTEX
  5
1A5
330
197
100
AcDbEntity
  8
ｴｸｽﾃﾘｱ商品
 62
   250
370
    20
100
AcDbVertex
100
AcDbPolyFaceMeshVertex
 10
141.610211573424
 20
-5.196152422706632
 30
342.7933338890115
 70
   192
  0
VERTEX
  5
1A6
330
197
100
AcDbEntity
  8
ｴｸｽﾃﾘｱ商品
 62
   250
370
    20
100
AcDbVertex
100
AcDbPolyFaceMeshVertex
 10
144.589788426576
 20
-5.196152422706634
 30
348.0066661109886
 70
   192
  0
VERTEX
  5
1A7
330
197
100
AcDbEntity
  8
ｴｸｽﾃﾘｱ商品
 62
   250
370
    20
100
AcDbVertex
100
AcDbPolyFaceMeshVertex
 10
140.120423146848
 20
0.0000000000000007
 30
340.1866677780228
 70
   192
  0
VERTEX
  5
1A8
330
197
100
AcDbEntity
  8
ｴｸｽﾃﾘｱ商品
 62
   250
370
    20
100
AcDbVertex
100
AcDbPolyFaceMeshVertex
 10
141.610211573424
 20
5.196152422706634
 30
342.7933338890115
 70
   192
  0
VERTEX
  5
1A9
330
197
100
AcDbEntity
  8
ｴｸｽﾃﾘｱ商品
 62
   250
370
    20
100
AcDbVertex
100
AcDbPolyFaceMeshVertex
 10
144.589788426576
 20
5.196152422706634
 30
348.0066661109886
 70
   192
  0
VERTEX
  5
1AA
330
197
100
AcDbEntity
  8
ｴｸｽﾃﾘｱ商品
 62
   250
370
    20
100
AcDbVertex
100
AcDbPolyFaceMeshVertex
 10
146.079576853152
 20
0.0
 30
350.6133322219773
 70
   192
  0
VERTEX
  5
1AB
330
197
100
AcDbEntity
  8
ｴｸｽﾃﾘｱ商品
 62
   250
370
    20
100
AcDbVertex
100
AcDbPolyFaceMeshVertex
 10
233.5686280203516
 20
-5.196152422706632
 30
285.2818812577082
 70
   192
  0
VERTEX
  5
1AC
330
197
100
AcDbEntity
  8
ｴｸｽﾃﾘｱ商品
 62
   250
370
    20
100
AcDbVertex
100
AcDbPolyFaceMeshVertex
 10
236.8313719796485
 20
-5.196152422706634
 30
290.3181187422919
 70
   192
  0
VERTEX
  5
1AD
330
197
100
AcDbEntity
  8
ｴｸｽﾃﾘｱ商品
 62
   250
370
    20
100
AcDbVertex
100
AcDbPolyFaceMeshVertex
 10
231.9372560407031
 20
0.0000000000000007
 30
282.7637625154164
 70
   192
  0
VERTEX
  5
1AE
330
197
100
AcDbEntity
  8
ｴｸｽﾃﾘｱ商品
 62
   250
370
    20
100
AcDbVertex
100
AcDbPolyFaceMeshVertex
 10
233.5686280203516
 20
5.196152422706634
 30
285.2818812577082
 70
   192
  0
VERTEX
  5
1AF
330
197
100
AcDbEntity
  8
ｴｸｽﾃﾘｱ商品
 62
   250
370
    20
100
AcDbVertex
100
AcDbPolyFaceMeshVertex
 10
236.8313719796485
 20
5.196152422706634
 30
290.3181187422919
 70
   192
  0
VERTEX
  5
1B0
330
197
100
AcDbEntity
  8
ｴｸｽﾃﾘｱ商品
 62
   250
370
    20
100
AcDbVertex
100
AcDbPolyFaceMeshVertex
 10
238.4627439592969
 20
0.0
 30
292.8362374845836
 70
   192
  0
VERTEX
  5
1B1
330
197
100
AcDbEntity
  8
ｴｸｽﾃﾘｱ商品
 62
   250
370
    20
100
AcDbVertex
100
AcDbPolyFaceMeshVertex
 10
331.0182060161422
 20
-5.196152422706632
 30
219.9157027866856
 70
   192
  0
VERTEX
  5
1B2
330
197
100
AcDbEntity
  8
ｴｸｽﾃﾘｱ商品
 62
   250
370
    20
100
AcDbVertex
100
AcDbPolyFaceMeshVertex
 10
334.3817939838579
 20
-5.196152422706634
 30
224.8842972133145
 70
   192
  0
VERTEX
  5
1B3
330
197
100
AcDbEntity
  8
ｴｸｽﾃﾘｱ商品
 62
   250
370
    20
100
AcDbVertex
100
AcDbPolyFaceMeshVertex
 10
329.3364120322843
 20
0.0000000000000007
 30
217.4314055733712
 70
   192
  0
VERTEX
  5
1B4
330
197
100
AcDbEntity
  8
ｴｸｽﾃﾘｱ商品
 62
   250
370
    20
100
AcDbVertex
100
AcDbPolyFaceMeshVertex
 10
331.0182060161422
 20
5.196152422706634
 30
219.9157027866856
 70
   192
  0
VERTEX
  5
1B5
330
197
100
AcDbEntity
  8
ｴｸｽﾃﾘｱ商品
 62
   250
370
    20
100
AcDbVertex
100
AcDbPolyFaceMeshVertex
 10
334.3817939838579
 20
5.196152422706634
 30
224.8842972133145
 70
   192
  0
VERTEX
  5
1B6
330
197
100
AcDbEntity
  8
ｴｸｽﾃﾘｱ商品
 62
   250
370
    20
100
AcDbVertex
100
AcDbPolyFaceMeshVertex
 10
336.0635879677158
 20
0.0
 30
227.3685944266289
 70
   192
  0
VERTEX
  5
1B7
330
197
100
AcDbEntity
  8
ｴｸｽﾃﾘｱ商品
 62
   250
370
    20
100
AcDbVertex
100
AcDbPolyFaceMeshVertex
 10
383.5037615353833
 20
-5.196152422706632
 30
184.0572507334635
 70
   192
  0
VERTEX
  5
1B8
330
197
100
AcDbEntity
  8
ｴｸｽﾃﾘｱ商品
 62
   250
370
    20
100
AcDbVertex
100
AcDbPolyFaceMeshVertex
 10
386.6962384646168
 20
-5.196152422706634
 30
189.1427492665365
 70
   192
  0
VERTEX
  5
1B9
330
197
100
AcDbEntity
  8
ｴｸｽﾃﾘｱ商品
 62
   250
370
    20
100
AcDbVertex
100
AcDbPolyFaceMeshVertex
 10
381.9075230707667
 20
0.0000000000000007
 30
181.5145014669271
 70
   192
  0
VERTEX
  5
1BA
330
197
100
AcDbEntity
  8
ｴｸｽﾃﾘｱ商品
 62
   250
370
    20
100
AcDbVertex
100
AcDbPolyFaceMeshVertex
 10
383.5037615353833
 20
5.196152422706634
 30
184.0572507334635
 70
   192
  0
VERTEX
  5
1BB
330
197
100
AcDbEntity
  8
ｴｸｽﾃﾘｱ商品
 62
   250
370
    20
100
AcDbVertex
100
AcDbPolyFaceMeshVertex
 10
386.6962384646168
 20
5.196152422706634
 30
189.1427492665365
 70
   192
  0
VERTEX
  5
1BC
330
197
100
AcDbEntity
  8
ｴｸｽﾃﾘｱ商品
 62
   250
370
    20
100
AcDbVertex
100
AcDbPolyFaceMeshVertex
 10
388.2924769292334
 20
0.0
 30
191.6854985330729
 70
   192
  0
VERTEX
  5
1BD
330
197
100
AcDbEntity
  8
ｴｸｽﾃﾘｱ商品
 62
   250
370
    20
100
AcDbVertex
100
AcDbPolyFaceMeshVertex
 10
436.4495207327804
 20
-5.196152422706632
 30
153.6159508533663
 70
   192
  0
VERTEX
  5
1BE
330
197
100
AcDbEntity
  8
ｴｸｽﾃﾘｱ商品
 62
   250
370
    20
100
AcDbVertex
100
AcDbPolyFaceMeshVertex
 10
439.1504792672198
 20
-5.196152422706634
 30
158.9840491466338
 70
   192
  0
VERTEX
  5
1BF
330
197
100
AcDbEntity
  8
ｴｸｽﾃﾘｱ商品
 62
   250
370
    20
100
AcDbVertex
100
AcDbPolyFaceMeshVertex
 10
435.0990414655607
 20
0.0000000000000007
 30
150.9319017067325
 70
   192
  0
VERTEX
  5
1C0
330
197
100
AcDbEntity
  8
ｴｸｽﾃﾘｱ商品
 62
   250
370
    20
100
AcDbVertex
100
AcDbPolyFaceMeshVertex
 10
436.4495207327804
 20
5.196152422706634
 30
153.6159508533663
 70
   192
  0
VERTEX
  5
1C1
330
197
100
AcDbEntity
  8
ｴｸｽﾃﾘｱ商品
 62
   250
370
    20
100
AcDbVertex
100
AcDbPolyFaceMeshVertex
 10
439.1504792672198
 20
5.196152422706634
 30
158.9840491466338
 70
   192
  0
VERTEX
  5
1C2
330
197
100
AcDbEntity
  8
ｴｸｽﾃﾘｱ商品
 62
   250
370
    20
100
AcDbVertex
100
AcDbPolyFaceMeshVertex
 10
440.5009585344395
 20
0.0
 30
161.6680982932676
 70
   192
  0
VERTEX
  5
1C3
330
197
100
AcDbEntity
  8
ｴｸｽﾃﾘｱ商品
 62
   250
370
    20
100
AcDbVertex
100
AcDbPolyFaceMeshVertex
 10
473.0331690028448
 20
-5.196152422706632
 30
137.6924896228699
 70
   192
  0
VERTEX
  5
1C4
330
197
100
AcDbEntity
  8
ｴｸｽﾃﾘｱ商品
 62
   250
370
    20
100
AcDbVertex
100
AcDbPolyFaceMeshVertex
 10
475.1668309971553
 20
-5.196152422706634
 30
143.3075103771302
 70
   192
  0
VERTEX
  5
1C5
330
197
100
AcDbEntity
  8
ｴｸｽﾃﾘｱ商品
 62
   250
370
    20
100
AcDbVertex
100
AcDbPolyFaceMeshVertex
 10
471.9663380056895
 20
0.0000000000000007
 30
134.8849792457397
 70
   192
  0
VERTEX
  5
1C6
330
197
100
AcDbEntity
  8
ｴｸｽﾃﾘｱ商品
 62
   250
370
    20
100
AcDbVertex
100
AcDbPolyFaceMeshVertex
 10
473.0331690028448
 20
5.196152422706634
 30
137.6924896228699
 70
   192
  0
VERTEX
  5
1C7
330
197
100
AcDbEntity
  8
ｴｸｽﾃﾘｱ商品
 62
   250
370
    20
100
AcDbVertex
100
AcDbPolyFaceMeshVertex
 10
475.1668309971553
 20
5.196152422706634
 30
143.3075103771302
 70
   192
  0
VERTEX
  5
1C8
330
197
100
AcDbEntity
  8
ｴｸｽﾃﾘｱ商品
 62
   250
370
    20
100
AcDbVertex
100
AcDbPolyFaceMeshVertex
 10
476.2336619943106
 20
0.0
 30
146.1150207542603
 70
   192
  0
VERTEX
  5
1C9
330
197
100
AcDbEntity
  8
ｴｸｽﾃﾘｱ商品
 62
   250
370
    20
100
AcDbVertex
100
AcDbPolyFaceMeshVertex
 10
528.4511361423095
 20
-5.196152422706632
 30
119.5886165101591
 70
   192
  0
VERTEX
  5
1CA
330
197
100
AcDbEntity
  8
ｴｸｽﾃﾘｱ商品
 62
   250
370
    20
100
AcDbVertex
100
AcDbPolyFaceMeshVertex
 10
529.9488638576905
 20
-5.196152422706634
 30
125.411383489841
 70
   192
  0
VERTEX
  5
1CB
330
197
100
AcDbEntity
  8
ｴｸｽﾃﾘｱ商品
 62
   250
370
    20
100
AcDbVertex
100
AcDbPolyFaceMeshVertex
 10
527.7022722846189
 20
0.0000000000000007
 30
116.6772330203182
 70
   192
  0
VERTEX
  5
1CC
330
197
100
AcDbEntity
  8
ｴｸｽﾃﾘｱ商品
 62
   250
370
    20
100
AcDbVertex
100
AcDbPolyFaceMeshVertex
 10
528.4511361423095
 20
5.196152422706634
 30
119.5886165101591
 70
   192
  0
VERTEX
  5
1CD
330
197
100
AcDbEntity
  8
ｴｸｽﾃﾘｱ商品
 62
   250
370
    20
100
AcDbVertex
100
AcDbPolyFaceMeshVertex
 10
529.9488638576905
 20
5.196152422706634
 30
125.411383489841
 70
   192
  0
VERTEX
  5
1CE
330
197
100
AcDbEntity
  8
ｴｸｽﾃﾘｱ商品
 62
   250
370
    20
100
AcDbVertex
100
AcDbPolyFaceMeshVertex
 10
530.6977277153811
 20
0.0
 30
128.3227669796819
 70
   192
  0
VERTEX
  5
1CF
330
197
100
AcDbEntity
  8
ｴｸｽﾃﾘｱ商品
 62
   250
370
    20
100
AcDbVertex
100
AcDbPolyFaceMeshVertex
 10
610.9811928747428
 20
-5.196152422706632
 30
103.9069004927905
 70
   192
  0
VERTEX
  5
1D0
330
197
100
AcDbEntity
  8
ｴｸｽﾃﾘｱ商品
 62
   250
370
    20
100
AcDbVertex
100
AcDbPolyFaceMeshVertex
 10
611.6188071252574
 20
-5.196152422706634
 30
109.8930995072095
 70
   192
  0
VERTEX
  5
1D1
330
197
100
AcDbEntity
  8
ｴｸｽﾃﾘｱ商品
 62
   250
370
    20
100
AcDbVertex
100
AcDbPolyFaceMeshVertex
 10
610.6623857494853
 20
0.0000000000000007
 30
100.913800985581
 70
   192
  0
VERTEX
  5
1D2
330
197
100
AcDbEntity
  8
ｴｸｽﾃﾘｱ商品
 62
   250
370
    20
100
AcDbVertex
100
AcDbPolyFaceMeshVertex
 10
610.9811928747428
 20
5.196152422706634
 30
103.9069004927905
 70
   192
  0
VERTEX
  5
1D3
330
197
100
AcDbEntity
  8
ｴｸｽﾃﾘｱ商品
 62
   250
370
    20
100
AcDbVertex
100
AcDbPolyFaceMeshVertex
 10
611.6188071252574
 20
5.196152422706634
 30
109.8930995072095
 70
   192
  0
VERTEX
  5
1D4
330
197
100
AcDbEntity
  8
ｴｸｽﾃﾘｱ商品
 62
   250
370
    20
100
AcDbVertex
100
AcDbPolyFaceMeshVertex
 10
611.9376142505147
 20
0.0
 30
112.886199014419
 70
   192
  0
VERTEX
  5
1D5
330
197
100
AcDbEntity
  8
ｴｸｽﾃﾘｱ商品
 62
   250
370
    20
100
AcDbVertex
100
AcDbPolyFaceMeshVertex
 10
717.7618942341508
 20
-5.196152422706632
 30
101.2951429807072
 70
   192
  0
VERTEX
  5
1D6
330
197
100
AcDbEntity
  8
ｴｸｽﾃﾘｱ商品
 62
   250
370
    20
100
AcDbVertex
100
AcDbPolyFaceMeshVertex
 10
717.4381057658495
 20
-5.196152422706634
 30
107.3048570192929
 70
   192
  0
VERTEX
  5
1D7
330
197
100
AcDbEntity
  8
ｴｸｽﾃﾘｱ商品
 62
   250
370
    20
100
AcDbVertex
100
AcDbPolyFaceMeshVertex
 10
717.9237884683012
 20
0.0000000000000007
 30
98.29028596141434
 70
   192
  0
VERTEX
  5
1D8
330
197
100
AcDbEntity
  8
ｴｸｽﾃﾘｱ商品
 62
   250
370
    20
100
AcDbVertex
100
AcDbPolyFaceMeshVertex
 10
717.7618942341508
 20
5.196152422706634
 30
101.2951429807072
 70
   192
  0
VERTEX
  5
1D9
330
197
100
AcDbEntity
  8
ｴｸｽﾃﾘｱ商品
 62
   250
370
    20
100
AcDbVertex
100
AcDbPolyFaceMeshVertex
 10
717.4381057658495
 20
5.196152422706634
 30
107.3048570192929
 70
   192
  0
VERTEX
  5
1DA
330
197
100
AcDbEntity
  8
ｴｸｽﾃﾘｱ商品
 62
   250
370
    20
100
AcDbVertex
100
AcDbPolyFaceMeshVertex
 10
717.2762115316991
 20
0.0
 30
110.3097140385857
 70
   192
  0
VERTEX
  5
1DB
330
197
100
AcDbEntity
  8
ｴｸｽﾃﾘｱ商品
 62
   250
370
    20
100
AcDbVertex
100
AcDbPolyFaceMeshVertex
 10
776.9875318561607
 20
-5.196152422706632
 30
109.1649892064598
 70
   192
  0
VERTEX
  5
1DC
330
197
100
AcDbEntity
  8
ｴｸｽﾃﾘｱ商品
 62
   250
370
    20
100
AcDbVertex
100
AcDbPolyFaceMeshVertex
 10
775.6124681438394
 20
-5.196152422706634
 30
115.0350107935402
 70
   192
  0
VERTEX
  5
1DD
330
197
100
AcDbEntity
  8
ｴｸｽﾃﾘｱ商品
 62
   250
370
    20
100
AcDbVertex
100
AcDbPolyFaceMeshVertex
 10
777.6750637123213
 20
0.0000000000000007
 30
106.2299784129196
 70
   192
  0
VERTEX
  5
1DE
330
197
100
AcDbEntity
  8
ｴｸｽﾃﾘｱ商品
 62
   250
370
    20
100
AcDbVertex
100
AcDbPolyFaceMeshVertex
 10
776.9875318561607
 20
5.196152422706634
 30
109.1649892064598
 70
   192
  0
VERTEX
  5
1DF
330
197
100
AcDbEntity
  8
ｴｸｽﾃﾘｱ商品
 62
   250
370
    20
100
AcDbVertex
100
AcDbPolyFaceMeshVertex
 10
775.6124681438394
 20
5.196152422706634
 30
115.0350107935402
 70
   192
  0
VERTEX
  5
1E0
330
197
100
AcDbEntity
  8
ｴｸｽﾃﾘｱ商品
 62
   250
370
    20
100
AcDbVertex
100
AcDbPolyFaceMeshVertex
 10
774.9249362876786
 20
0.0
 30
117.9700215870805
 70
   192
  0
VERTEX
  5
1E1
330
197
100
AcDbEntity
  8
ｴｸｽﾃﾘｱ商品
 62
   250
370
    20
100
AcDbVertex
100
AcDbPolyFaceMeshVertex
 10
876.604514941638
 20
-5.196152422706632
 30
143.0750127416172
 70
   192
  0
VERTEX
  5
1E2
330
197
100
AcDbEntity
  8
ｴｸｽﾃﾘｱ商品
 62
   250
370
    20
100
AcDbVertex
100
AcDbPolyFaceMeshVertex
 10
873.9954850583622
 20
-5.196152422706634
 30
148.5249872583829
 70
   192
  0
VERTEX
  5
1E3
330
197
100
AcDbEntity
  8
ｴｸｽﾃﾘｱ商品
 62
   250
370
    20
100
AcDbVertex
100
AcDbPolyFaceMeshVertex
 10
877.9090298832758
 20
0.0000000000000007
 30
140.3500254832344
 70
   192
  0
VERTEX
  5
1E4
330
197
100
AcDbEntity
  8
ｴｸｽﾃﾘｱ商品
 62
   250
370
    20
100
AcDbVertex
100
AcDbPolyFaceMeshVertex
 10
876.604514941638
 20
5.196152422706634
 30
143.0750127416172
 70
   192
  0
VERTEX
  5
1E5
330
197
100
AcDbEntity
  8
ｴｸｽﾃﾘｱ商品
 62
   250
370
    20
100
AcDbVertex
100
AcDbPolyFaceMeshVertex
 10
873.9954850583622
 20
5.196152422706634
 30
148.5249872583829
 70
   192
  0
VERTEX
  5
1E6
330
197
100
AcDbEntity
  8
ｴｸｽﾃﾘｱ商品
 62
   250
370
    20
100
AcDbVertex
100
AcDbPolyFaceMeshVertex
 10
872.6909701167243
 20
0.0
 30
151.2499745167657
 70
   192
  0
VERTEX
  5
1E7
330
197
100
AcDbEntity
  8
ｴｸｽﾃﾘｱ商品
 62
   250
370
    20
100
AcDbVertex
100
AcDbPolyFaceMeshVertex
 10
925.7185863870703
 20
-5.196152422706632
 30
174.2008028757596
 70
   192
  0
VERTEX
  5
1E8
330
197
100
AcDbEntity
  8
ｴｸｽﾃﾘｱ商品
 62
   250
370
    20
100
AcDbVertex
100
AcDbPolyFaceMeshVertex
 10
922.0814136129297
 20
-5.196152422706634
 30
178.9991971242405
 70
   192
  0
VERTEX
  5
1E9
330
197
100
AcDbEntity
  8
ｴｸｽﾃﾘｱ商品
 62
   250
370
    20
100
AcDbVertex
100
AcDbPolyFaceMeshVertex
 10
927.5371727741408
 20
0.0000000000000007
 30
171.8016057515192
 70
   192
  0
VERTEX
  5
1EA
330
197
100
AcDbEntity
  8
ｴｸｽﾃﾘｱ商品
 62
   250
370
    20
100
AcDbVertex
100
AcDbPolyFaceMeshVertex
 10
925.7185863870703
 20
5.196152422706634
 30
174.2008028757596
 70
   192
  0
VERTEX
  5
1EB
330
197
100
AcDbEntity
  8
ｴｸｽﾃﾘｱ商品
 62
   250
370
    20
100
AcDbVertex
100
AcDbPolyFaceMeshVertex
 10
922.0814136129297
 20
5.196152422706634
 30
178.9991971242405
 70
   192
  0
VERTEX
  5
1EC
330
197
100
AcDbEntity
  8
ｴｸｽﾃﾘｱ商品
 62
   250
370
    20
100
AcDbVertex
100
AcDbPolyFaceMeshVertex
 10
920.2628272258593
 20
0.0
 30
181.3983942484808
 70
   192
  0
VERTEX
  5
1ED
330
197
100
AcDbEntity
  8
ｴｸｽﾃﾘｱ商品
 62
   250
370
    20
100
AcDbVertex
100
AcDbPolyFaceMeshVertex
 10
960.7928022266087
 20
-5.196152422706632
 30
205.7372736017997
 70
   192
  0
VERTEX
  5
1EE
330
197
100
AcDbEntity
  8
ｴｸｽﾃﾘｱ商品
 62
   250
370
    20
100
AcDbVertex
100
AcDbPolyFaceMeshVertex
 10
956.4071977733915
 20
-5.196152422706634
 30
209.8627263982003
 70
   192
  0
VERTEX
  5
1EF
330
197
100
AcDbEntity
  8
ｴｸｽﾃﾘｱ商品
 62
   250
370
    20
100
AcDbVertex
100
AcDbPolyFaceMeshVertex
 10
962.9856044532172
 20
0.0000000000000007
 30
203.6745472035994
 70
   192
  0
VERTEX
  5
1F0
330
197
100
AcDbEntity
  8
ｴｸｽﾃﾘｱ商品
 62
   250
370
    20
100
AcDbVertex
100
AcDbPolyFaceMeshVertex
 10
960.7928022266087
 20
5.196152422706634
 30
205.7372736017997
 70
   192
  0
VERTEX
  5
1F1
330
197
100
AcDbEntity
  8
ｴｸｽﾃﾘｱ商品
 62
   250
370
    20
100
AcDbVertex
100
AcDbPolyFaceMeshVertex
 10
956.4071977733915
 20
5.196152422706634
 30
209.8627263982003
 70
   192
  0
VERTEX
  5
1F2
330
197
100
AcDbEntity
  8
ｴｸｽﾃﾘｱ商品
 62
   250
370
    20
100
AcDbVertex
100
AcDbPolyFaceMeshVertex
 10
954.214395546783
 20
0.0
 30
211.9254527964006
 70
   192
  0
VERTEX
  5
1F3
330
197
100
AcDbEntity
  8
ｴｸｽﾃﾘｱ商品
 62
   250
370
    20
100
AcDbVertex
100
AcDbPolyFaceMeshVertex
 10
996.9361557908138
 20
-5.196152422706632
 30
251.2436686185708
 70
   192
  0
VERTEX
  5
1F4
330
197
100
AcDbEntity
  8
ｴｸｽﾃﾘｱ商品
 62
   250
370
    20
100
AcDbVertex
100
AcDbPolyFaceMeshVertex
 10
992.0638442091861
 20
-5.196152422706634
 30
254.7563313814293
 70
   192
  0
VERTEX
  5
1F5
330
197
100
AcDbEntity
  8
ｴｸｽﾃﾘｱ商品
 62
   250
370
    20
100
AcDbVertex
100
AcDbPolyFaceMeshVertex
 10
999.3723115816276
 20
0.0000000000000007
 30
249.4873372371414
 70
   192
  0
VERTEX
  5
1F6
330
197
100
AcDbEntity
  8
ｴｸｽﾃﾘｱ商品
 62
   250
370
    20
100
AcDbVertex
100
AcDbPolyFaceMeshVertex
 10
996.9361557908138
 20
5.196152422706634
 30
251.2436686185708
 70
   192
  0
VERTEX
  5
1F7
330
197
100
AcDbEntity
  8
ｴｸｽﾃﾘｱ商品
 62
   250
370
    20
100
AcDbVertex
100
AcDbPolyFaceMeshVertex
 10
992.0638442091861
 20
5.196152422706634
 30
254.7563313814293
 70
   192
  0
VERTEX
  5
1F8
330
197
100
AcDbEntity
  8
ｴｸｽﾃﾘｱ商品
 62
   250
370
    20
100
AcDbVertex
100
AcDbPolyFaceMeshVertex
 10
989.6276884183723
 20
0.0
 30
256.5126627628586
 70
   192
  0
VERTEX
  5
1F9
330
197
100
AcDbEntity
  8
ｴｸｽﾃﾘｱ商品
 62
   250
370
    20
100
AcDbFaceRecord
 10
0.0
 20
0.0
 30
0.0
 70
   128
 71
     1
 72
     2
 73
     3
 74
     4
  0
VERTEX
  5
1FA
330
197
100
AcDbEntity
  8
ｴｸｽﾃﾘｱ商品
 62
   250
370
    20
100
AcDbFaceRecord
 10
0.0
 20
0.0
 30
0.0
 70
   128
 71
     2
 72
     5
 73
     6
 74
     3
  0
VERTEX
  5
1FB
330
197
100
AcDbEntity
  8
ｴｸｽﾃﾘｱ商品
 62
   250
370
    20
100
AcDbFaceRecord
 10
0.0
 20
0.0
 30
0.0
 70
   128
 71
     5
 72
     7
 73
     8
 74
     6
  0
VERTEX
  5
1FC
330
197
100
AcDbEntity
  8
ｴｸｽﾃﾘｱ商品
 62
   250
370
    20
100
AcDbFaceRecord
 10
0.0
 20
0.0
 30
0.0
 70
   128
 71
     7
 72
     9
 73
    10
 74
     8
  0
VERTEX
  5
1FD
330
197
100
AcDbEntity
  8
ｴｸｽﾃﾘｱ商品
 62
   250
370
    20
100
AcDbFaceRecord
 10
0.0
 20
0.0
 30
0.0
 70
   128
 71
     9
 72
    11
 73
    12
 74
    10
  0
VERTEX
  5
1FE
330
197
100
AcDbEntity
  8
ｴｸｽﾃﾘｱ商品
 62
   250
370
    20
100
AcDbFaceRecord
 10
0.0
 20
0.0
 30
0.0
 70
   128
 71
    11
 72
     1
 73
     4
 74
    12
  0
VERTEX
  5
1FF
330
197
100
AcDbEntity
  8
ｴｸｽﾃﾘｱ商品
 62
   250
370
    20
100
AcDbFaceRecord
 10
0.0
 20
0.0
 30
0.0
 70
   128
 71
     4
 72
     3
 73
    13
 74
    14
  0
VERTEX
  5
200
330
197
100
AcDbEntity
  8
ｴｸｽﾃﾘｱ商品
 62
   250
370
    20
100
AcDbFaceRecord
 10
0.0
 20
0.0
 30
0.0
 70
   128
 71
     3
 72
     6
 73
    15
 74
    13
  0
VERTEX
  5
201
330
197
100
AcDbEntity
  8
ｴｸｽﾃﾘｱ商品
 62
   250
370
    20
100
AcDbFaceRecord
 10
0.0
 20
0.0
 30
0.0
 70
   128
 71
     6
 72
     8
 73
    16
 74
    15
  0
VERTEX
  5
202
330
197
100
AcDbEntity
  8
ｴｸｽﾃﾘｱ商品
 62
   250
370
    20
100
AcDbFaceRecord
 10
0.0
 20
0.0
 30
0.0
 70
   128
 71
     8
 72
    10
 73
    17
 74
    16
  0
VERTEX
  5
203
330
197
100
AcDbEntity
  8
ｴｸｽﾃﾘｱ商品
 62
   250
370
    20
100
AcDbFaceRecord
 10
0.0
 20
0.0
 30
0.0
 70
   128
 71
    10
 72
    12
 73
    18
 74
    17
  0
VERTEX
  5
204
330
197
100
AcDbEntity
  8
ｴｸｽﾃﾘｱ商品
 62
   250
370
    20
100
AcDbFaceRecord
 10
0.0
 20
0.0
 30
0.0
 70
   128
 71
    12
 72
     4
 73
    14
 74
    18
  0
VERTEX
  5
205
330
197
100
AcDbEntity
  8
ｴｸｽﾃﾘｱ商品
 62
   250
370
    20
100
AcDbFaceRecord
 10
0.0
 20
0.0
 30
0.0
 70
   128
 71
    14
 72
    13
 73
    19
 74
    20
  0
VERTEX
  5
206
330
197
100
AcDbEntity
  8
ｴｸｽﾃﾘｱ商品
 62
   250
370
    20
100
AcDbFaceRecord
 10
0.0
 20
0.0
 30
0.0
 70
   128
 71
    13
 72
    15
 73
    21
 74
    19
  0
VERTEX
  5
207
330
197
100
AcDbEntity
  8
ｴｸｽﾃﾘｱ商品
 62
   250
370
    20
100
AcDbFaceRecord
 10
0.0
 20
0.0
 30
0.0
 70
   128
 71
    15
 72
    16
 73
    22
 74
    21
  0
VERTEX
  5
208
330
197
100
AcDbEntity
  8
ｴｸｽﾃﾘｱ商品
 62
   250
370
    20
100
AcDbFaceRecord
 10
0.0
 20
0.0
 30
0.0
 70
   128
 71
    16
 72
    17
 73
    23
 74
    22
  0
VERTEX
  5
209
330
197
100
AcDbEntity
  8
ｴｸｽﾃﾘｱ商品
 62
   250
370
    20
100
AcDbFaceRecord
 10
0.0
 20
0.0
 30
0.0
 70
   128
 71
    17
 72
    18
 73
    24
 74
    23
  0
VERTEX
  5
20A
330
197
100
AcDbEntity
  8
ｴｸｽﾃﾘｱ商品
 62
   250
370
    20
100
AcDbFaceRecord
 10
0.0
 20
0.0
 30
0.0
 70
   128
 71
    18
 72
    14
 73
    20
 74
    24
  0
VERTEX
  5
20B
330
197
100
AcDbEntity
  8
ｴｸｽﾃﾘｱ商品
 62
   250
370
    20
100
AcDbFaceRecord
 10
0.0
 20
0.0
 30
0.0
 70
   128
 71
    20
 72
    19
 73
    25
 74
    26
  0
VERTEX
  5
20C
330
197
100
AcDbEntity
  8
ｴｸｽﾃﾘｱ商品
 62
   250
370
    20
100
AcDbFaceRecord
 10
0.0
 20
0.0
 30
0.0
 70
   128
 71
    19
 72
    21
 73
    27
 74
    25
  0
VERTEX
  5
20D
330
197
100
AcDbEntity
  8
ｴｸｽﾃﾘｱ商品
 62
   250
370
    20
100
AcDbFaceRecord
 10
0.0
 20
0.0
 30
0.0
 70
   128
 71
    21
 72
    22
 73
    28
 74
    27
  0
VERTEX
  5
20E
330
197
100
AcDbEntity
  8
ｴｸｽﾃﾘｱ商品
 62
   250
370
    20
100
AcDbFaceRecord
 10
0.0
 20
0.0
 30
0.0
 70
   128
 71
    22
 72
    23
 73
    29
 74
    28
  0
VERTEX
  5
20F
330
197
100
AcDbEntity
  8
ｴｸｽﾃﾘｱ商品
 62
   250
370
    20
100
AcDbFaceRecord
 10
0.0
 20
0.0
 30
0.0
 70
   128
 71
    23
 72
    24
 73
    30
 74
    29
  0
VERTEX
  5
210
330
197
100
AcDbEntity
  8
ｴｸｽﾃﾘｱ商品
 62
   250
370
    20
100
AcDbFaceRecord
 10
0.0
 20
0.0
 30
0.0
 70
   128
 71
    24
 72
    20
 73
    26
 74
    30
  0
VERTEX
  5
211
330
197
100
AcDbEntity
  8
ｴｸｽﾃﾘｱ商品
 62
   250
370
    20
100
AcDbFaceRecord
 10
0.0
 20
0.0
 30
0.0
 70
   128
 71
    26
 72
    25
 73
    31
 74
    32
  0
VERTEX
  5
212
330
197
100
AcDbEntity
  8
ｴｸｽﾃﾘｱ商品
 62
   250
370
    20
100
AcDbFaceRecord
 10
0.0
 20
0.0
 30
0.0
 70
   128
 71
    25
 72
    27
 73
    33
 74
    31
  0
VERTEX
  5
213
330
197
100
AcDbEntity
  8
ｴｸｽﾃﾘｱ商品
 62
   250
370
    20
100
AcDbFaceRecord
 10
0.0
 20
0.0
 30
0.0
 70
   128
 71
    27
 72
    28
 73
    34
 74
    33
  0
VERTEX
  5
214
330
197
100
AcDbEntity
  8
ｴｸｽﾃﾘｱ商品
 62
   250
370
    20
100
AcDbFaceRecord
 10
0.0
 20
0.0
 30
0.0
 70
   128
 71
    28
 72
    29
 73
    35
 74
    34
  0
VERTEX
  5
215
330
197
100
AcDbEntity
  8
ｴｸｽﾃﾘｱ商品
 62
   250
370
    20
100
AcDbFaceRecord
 10
0.0
 20
0.0
 30
0.0
 70
   128
 71
    29
 72
    30
 73
    36
 74
    35
  0
VERTEX
  5
216
330
197
100
AcDbEntity
  8
ｴｸｽﾃﾘｱ商品
 62
   250
370
    20
100
AcDbFaceRecord
 10
0.0
 20
0.0
 30
0.0
 70
   128
 71
    30
 72
    26
 73
    32
 74
    36
  0
VERTEX
  5
217
330
197
100
AcDbEntity
  8
ｴｸｽﾃﾘｱ商品
 62
   250
370
    20
100
AcDbFaceRecord
 10
0.0
 20
0.0
 30
0.0
 70
   128
 71
    32
 72
    31
 73
    37
 74
    38
  0
VERTEX
  5
218
330
197
100
AcDbEntity
  8
ｴｸｽﾃﾘｱ商品
 62
   250
370
    20
100
AcDbFaceRecord
 10
0.0
 20
0.0
 30
0.0
 70
   128
 71
    31
 72
    33
 73
    39
 74
    37
  0
VERTEX
  5
219
330
197
100
AcDbEntity
  8
ｴｸｽﾃﾘｱ商品
 62
   250
370
    20
100
AcDbFaceRecord
 10
0.0
 20
0.0
 30
0.0
 70
   128
 71
    33
 72
    34
 73
    40
 74
    39
  0
VERTEX
  5
21A
330
197
100
AcDbEntity
  8
ｴｸｽﾃﾘｱ商品
 62
   250
370
    20
100
AcDbFaceRecord
 10
0.0
 20
0.0
 30
0.0
 70
   128
 71
    34
 72
    35
 73
    41
 74
    40
  0
VERTEX
  5
21B
330
197
100
AcDbEntity
  8
ｴｸｽﾃﾘｱ商品
 62
   250
370
    20
100
AcDbFaceRecord
 10
0.0
 20
0.0
 30
0.0
 70
   128
 71
    35
 72
    36
 73
    42
 74
    41
  0
VERTEX
  5
21C
330
197
100
AcDbEntity
  8
ｴｸｽﾃﾘｱ商品
 62
   250
370
    20
100
AcDbFaceRecord
 10
0.0
 20
0.0
 30
0.0
 70
   128
 71
    36
 72
    32
 73
    38
 74
    42
  0
VERTEX
  5
21D
330
197
100
AcDbEntity
  8
ｴｸｽﾃﾘｱ商品
 62
   250
370
    20
100
AcDbFaceRecord
 10
0.0
 20
0.0
 30
0.0
 70
   128
 71
    38
 72
    37
 73
    43
 74
    44
  0
VERTEX
  5
21E
330
197
100
AcDbEntity
  8
ｴｸｽﾃﾘｱ商品
 62
   250
370
    20
100
AcDbFaceRecord
 10
0.0
 20
0.0
 30
0.0
 70
   128
 71
    37
 72
    39
 73
    45
 74
    43
  0
VERTEX
  5
21F
330
197
100
AcDbEntity
  8
ｴｸｽﾃﾘｱ商品
 62
   250
370
    20
100
AcDbFaceRecord
 10
0.0
 20
0.0
 30
0.0
 70
   128
 71
    39
 72
    40
 73
    46
 74
    45
  0
VERTEX
  5
220
330
197
100
AcDbEntity
  8
ｴｸｽﾃﾘｱ商品
 62
   250
370
    20
100
AcDbFaceRecord
 10
0.0
 20
0.0
 30
0.0
 70
   128
 71
    40
 72
    41
 73
    47
 74
    46
  0
VERTEX
  5
221
330
197
100
AcDbEntity
  8
ｴｸｽﾃﾘｱ商品
 62
   250
370
    20
100
AcDbFaceRecord
 10
0.0
 20
0.0
 30
0.0
 70
   128
 71
    41
 72
    42
 73
    48
 74
    47
  0
VERTEX
  5
222
330
197
100
AcDbEntity
  8
ｴｸｽﾃﾘｱ商品
 62
   250
370
    20
100
AcDbFaceRecord
 10
0.0
 20
0.0
 30
0.0
 70
   128
 71
    42
 72
    38
 73
    44
 74
    48
  0
VERTEX
  5
223
330
197
100
AcDbEntity
  8
ｴｸｽﾃﾘｱ商品
 62
   250
370
    20
100
AcDbFaceRecord
 10
0.0
 20
0.0
 30
0.0
 70
   128
 71
    44
 72
    43
 73
    49
 74
    50
  0
VERTEX
  5
224
330
197
100
AcDbEntity
  8
ｴｸｽﾃﾘｱ商品
 62
   250
370
    20
100
AcDbFaceRecord
 10
0.0
 20
0.0
 30
0.0
 70
   128
 71
    43
 72
    45
 73
    51
 74
    49
  0
VERTEX
  5
225
330
197
100
AcDbEntity
  8
ｴｸｽﾃﾘｱ商品
 62
   250
370
    20
100
AcDbFaceRecord
 10
0.0
 20
0.0
 30
0.0
 70
   128
 71
    45
 72
    46
 73
    52
 74
    51
  0
VERTEX
  5
226
330
197
100
AcDbEntity
  8
ｴｸｽﾃﾘｱ商品
 62
   250
370
    20
100
AcDbFaceRecord
 10
0.0
 20
0.0
 30
0.0
 70
   128
 71
    46
 72
    47
 73
    53
 74
    52
  0
VERTEX
  5
227
330
197
100
AcDbEntity
  8
ｴｸｽﾃﾘｱ商品
 62
   250
370
    20
100
AcDbFaceRecord
 10
0.0
 20
0.0
 30
0.0
 70
   128
 71
    47
 72
    48
 73
    54
 74
    53
  0
VERTEX
  5
228
330
197
100
AcDbEntity
  8
ｴｸｽﾃﾘｱ商品
 62
   250
370
    20
100
AcDbFaceRecord
 10
0.0
 20
0.0
 30
0.0
 70
   128
 71
    48
 72
    44
 73
    50
 74
    54
  0
VERTEX
  5
229
330
197
100
AcDbEntity
  8
ｴｸｽﾃﾘｱ商品
 62
   250
370
    20
100
AcDbFaceRecord
 10
0.0
 20
0.0
 30
0.0
 70
   128
 71
    50
 72
    49
 73
    55
 74
    56
  0
VERTEX
  5
22A
330
197
100
AcDbEntity
  8
ｴｸｽﾃﾘｱ商品
 62
   250
370
    20
100
AcDbFaceRecord
 10
0.0
 20
0.0
 30
0.0
 70
   128
 71
    49
 72
    51
 73
    57
 74
    55
  0
VERTEX
  5
22B
330
197
100
AcDbEntity
  8
ｴｸｽﾃﾘｱ商品
 62
   250
370
    20
100
AcDbFaceRecord
 10
0.0
 20
0.0
 30
0.0
 70
   128
 71
    51
 72
    52
 73
    58
 74
    57
  0
VERTEX
  5
22C
330
197
100
AcDbEntity
  8
ｴｸｽﾃﾘｱ商品
 62
   250
370
    20
100
AcDbFaceRecord
 10
0.0
 20
0.0
 30
0.0
 70
   128
 71
    52
 72
    53
 73
    59
 74
    58
  0
VERTEX
  5
22D
330
197
100
AcDbEntity
  8
ｴｸｽﾃﾘｱ商品
 62
   250
370
    20
100
AcDbFaceRecord
 10
0.0
 20
0.0
 30
0.0
 70
   128
 71
    53
 72
    54
 73
    60
 74
    59
  0
VERTEX
  5
22E
330
197
100
AcDbEntity
  8
ｴｸｽﾃﾘｱ商品
 62
   250
370
    20
100
AcDbFaceRecord
 10
0.0
 20
0.0
 30
0.0
 70
   128
 71
    54
 72
    50
 73
    56
 74
    60
  0
VERTEX
  5
22F
330
197
100
AcDbEntity
  8
ｴｸｽﾃﾘｱ商品
 62
   250
370
    20
100
AcDbFaceRecord
 10
0.0
 20
0.0
 30
0.0
 70
   128
 71
    56
 72
    55
 73
    61
 74
    62
  0
VERTEX
  5
230
330
197
100
AcDbEntity
  8
ｴｸｽﾃﾘｱ商品
 62
   250
370
    20
100
AcDbFaceRecord
 10
0.0
 20
0.0
 30
0.0
 70
   128
 71
    55
 72
    57
 73
    63
 74
    61
  0
VERTEX
  5
231
330
197
100
AcDbEntity
  8
ｴｸｽﾃﾘｱ商品
 62
   250
370
    20
100
AcDbFaceRecord
 10
0.0
 20
0.0
 30
0.0
 70
   128
 71
    57
 72
    58
 73
    64
 74
    63
  0
VERTEX
  5
232
330
197
100
AcDbEntity
  8
ｴｸｽﾃﾘｱ商品
 62
   250
370
    20
100
AcDbFaceRecord
 10
0.0
 20
0.0
 30
0.0
 70
   128
 71
    58
 72
    59
 73
    65
 74
    64
  0
VERTEX
  5
233
330
197
100
AcDbEntity
  8
ｴｸｽﾃﾘｱ商品
 62
   250
370
    20
100
AcDbFaceRecord
 10
0.0
 20
0.0
 30
0.0
 70
   128
 71
    59
 72
    60
 73
    66
 74
    65
  0
VERTEX
  5
234
330
197
100
AcDbEntity
  8
ｴｸｽﾃﾘｱ商品
 62
   250
370
    20
100
AcDbFaceRecord
 10
0.0
 20
0.0
 30
0.0
 70
   128
 71
    60
 72
    56
 73
    62
 74
    66
  0
VERTEX
  5
235
330
197
100
AcDbEntity
  8
ｴｸｽﾃﾘｱ商品
 62
   250
370
    20
100
AcDbFaceRecord
 10
0.0
 20
0.0
 30
0.0
 70
   128
 71
    62
 72
    61
 73
    67
 74
    68
  0
VERTEX
  5
236
330
197
100
AcDbEntity
  8
ｴｸｽﾃﾘｱ商品
 62
   250
370
    20
100
AcDbFaceRecord
 10
0.0
 20
0.0
 30
0.0
 70
   128
 71
    61
 72
    63
 73
    69
 74
    67
  0
VERTEX
  5
237
330
197
100
AcDbEntity
  8
ｴｸｽﾃﾘｱ商品
 62
   250
370
    20
100
AcDbFaceRecord
 10
0.0
 20
0.0
 30
0.0
 70
   128
 71
    63
 72
    64
 73
    70
 74
    69
  0
VERTEX
  5
238
330
197
100
AcDbEntity
  8
ｴｸｽﾃﾘｱ商品
 62
   250
370
    20
100
AcDbFaceRecord
 10
0.0
 20
0.0
 30
0.0
 70
   128
 71
    64
 72
    65
 73
    71
 74
    70
  0
VERTEX
  5
239
330
197
100
AcDbEntity
  8
ｴｸｽﾃﾘｱ商品
 62
   250
370
    20
100
AcDbFaceRecord
 10
0.0
 20
0.0
 30
0.0
 70
   128
 71
    65
 72
    66
 73
    72
 74
    71
  0
VERTEX
  5
23A
330
197
100
AcDbEntity
  8
ｴｸｽﾃﾘｱ商品
 62
   250
370
    20
100
AcDbFaceRecord
 10
0.0
 20
0.0
 30
0.0
 70
   128
 71
    66
 72
    62
 73
    68
 74
    72
  0
VERTEX
  5
23B
330
197
100
AcDbEntity
  8
ｴｸｽﾃﾘｱ商品
 62
   250
370
    20
100
AcDbFaceRecord
 10
0.0
 20
0.0
 30
0.0
 70
   128
 71
    68
 72
    67
 73
    73
 74
    74
  0
VERTEX
  5
23C
330
197
100
AcDbEntity
  8
ｴｸｽﾃﾘｱ商品
 62
   250
370
    20
100
AcDbFaceRecord
 10
0.0
 20
0.0
 30
0.0
 70
   128
 71
    67
 72
    69
 73
    75
 74
    73
  0
VERTEX
  5
23D
330
197
100
AcDbEntity
  8
ｴｸｽﾃﾘｱ商品
 62
   250
370
    20
100
AcDbFaceRecord
 10
0.0
 20
0.0
 30
0.0
 70
   128
 71
    69
 72
    70
 73
    76
 74
    75
  0
VERTEX
  5
23E
330
197
100
AcDbEntity
  8
ｴｸｽﾃﾘｱ商品
 62
   250
370
    20
100
AcDbFaceRecord
 10
0.0
 20
0.0
 30
0.0
 70
   128
 71
    70
 72
    71
 73
    77
 74
    76
  0
VERTEX
  5
23F
330
197
100
AcDbEntity
  8
ｴｸｽﾃﾘｱ商品
 62
   250
370
    20
100
AcDbFaceRecord
 10
0.0
 20
0.0
 30
0.0
 70
   128
 71
    71
 72
    72
 73
    78
 74
    77
  0
VERTEX
  5
240
330
197
100
AcDbEntity
  8
ｴｸｽﾃﾘｱ商品
 62
   250
370
    20
100
AcDbFaceRecord
 10
0.0
 20
0.0
 30
0.0
 70
   128
 71
    72
 72
    68
 73
    74
 74
    78
  0
VERTEX
  5
241
330
197
100
AcDbEntity
  8
ｴｸｽﾃﾘｱ商品
 62
   250
370
    20
100
AcDbFaceRecord
 10
0.0
 20
0.0
 30
0.0
 70
   128
 71
    74
 72
    73
 73
    79
 74
    80
  0
VERTEX
  5
242
330
197
100
AcDbEntity
  8
ｴｸｽﾃﾘｱ商品
 62
   250
370
    20
100
AcDbFaceRecord
 10
0.0
 20
0.0
 30
0.0
 70
   128
 71
    73
 72
    75
 73
    81
 74
    79
  0
VERTEX
  5
243
330
197
100
AcDbEntity
  8
ｴｸｽﾃﾘｱ商品
 62
   250
370
    20
100
AcDbFaceRecord
 10
0.0
 20
0.0
 30
0.0
 70
   128
 71
    75
 72
    76
 73
    82
 74
    81
  0
VERTEX
  5
244
330
197
100
AcDbEntity
  8
ｴｸｽﾃﾘｱ商品
 62
   250
370
    20
100
AcDbFaceRecord
 10
0.0
 20
0.0
 30
0.0
 70
   128
 71
    76
 72
    77
 73
    83
 74
    82
  0
VERTEX
  5
245
330
197
100
AcDbEntity
  8
ｴｸｽﾃﾘｱ商品
 62
   250
370
    20
100
AcDbFaceRecord
 10
0.0
 20
0.0
 30
0.0
 70
   128
 71
    77
 72
    78
 73
    84
 74
    83
  0
VERTEX
  5
246
330
197
100
AcDbEntity
  8
ｴｸｽﾃﾘｱ商品
 62
   250
370
    20
100
AcDbFaceRecord
 10
0.0
 20
0.0
 30
0.0
 70
   128
 71
    78
 72
    74
 73
    80
 74
    84
  0
VERTEX
  5
247
330
197
100
AcDbEntity
  8
ｴｸｽﾃﾘｱ商品
 62
   250
370
    20
100
AcDbFaceRecord
 10
0.0
 20
0.0
 30
0.0
 70
   128
 71
    80
 72
    79
 73
    85
 74
    86
  0
VERTEX
  5
248
330
197
100
AcDbEntity
  8
ｴｸｽﾃﾘｱ商品
 62
   250
370
    20
100
AcDbFaceRecord
 10
0.0
 20
0.0
 30
0.0
 70
   128
 71
    79
 72
    81
 73
    87
 74
    85
  0
VERTEX
  5
249
330
197
100
AcDbEntity
  8
ｴｸｽﾃﾘｱ商品
 62
   250
370
    20
100
AcDbFaceRecord
 10
0.0
 20
0.0
 30
0.0
 70
   128
 71
    81
 72
    82
 73
    88
 74
    87
  0
VERTEX
  5
24A
330
197
100
AcDbEntity
  8
ｴｸｽﾃﾘｱ商品
 62
   250
370
    20
100
AcDbFaceRecord
 10
0.0
 20
0.0
 30
0.0
 70
   128
 71
    82
 72
    83
 73
    89
 74
    88
  0
VERTEX
  5
24B
330
197
100
AcDbEntity
  8
ｴｸｽﾃﾘｱ商品
 62
   250
370
    20
100
AcDbFaceRecord
 10
0.0
 20
0.0
 30
0.0
 70
   128
 71
    83
 72
    84
 73
    90
 74
    89
  0
VERTEX
  5
24C
330
197
100
AcDbEntity
  8
ｴｸｽﾃﾘｱ商品
 62
   250
370
    20
100
AcDbFaceRecord
 10
0.0
 20
0.0
 30
0.0
 70
   128
 71
    84
 72
    80
 73
    86
 74
    90
  0
VERTEX
  5
24D
330
197
100
AcDbEntity
  8
ｴｸｽﾃﾘｱ商品
 62
   250
370
    20
100
AcDbFaceRecord
 10
0.0
 20
0.0
 30
0.0
 70
   128
 71
    86
 72
    85
 73
    91
 74
    92
  0
VERTEX
  5
24E
330
197
100
AcDbEntity
  8
ｴｸｽﾃﾘｱ商品
 62
   250
370
    20
100
AcDbFaceRecord
 10
0.0
 20
0.0
 30
0.0
 70
   128
 71
    85
 72
    87
 73
    93
 74
    91
  0
VERTEX
  5
24F
330
197
100
AcDbEntity
  8
ｴｸｽﾃﾘｱ商品
 62
   250
370
    20
100
AcDbFaceRecord
 10
0.0
 20
0.0
 30
0.0
 70
   128
 71
    87
 72
    88
 73
    94
 74
    93
  0
VERTEX
  5
250
330
197
100
AcDbEntity
  8
ｴｸｽﾃﾘｱ商品
 62
   250
370
    20
100
AcDbFaceRecord
 10
0.0
 20
0.0
 30
0.0
 70
   128
 71
    88
 72
    89
 73
    95
 74
    94
  0
VERTEX
  5
251
330
197
100
AcDbEntity
  8
ｴｸｽﾃﾘｱ商品
 62
   250
370
    20
100
AcDbFaceRecord
 10
0.0
 20
0.0
 30
0.0
 70
   128
 71
    89
 72
    90
 73
    96
 74
    95
  0
VERTEX
  5
252
330
197
100
AcDbEntity
  8
ｴｸｽﾃﾘｱ商品
 62
   250
370
    20
100
AcDbFaceRecord
 10
0.0
 20
0.0
 30
0.0
 70
   128
 71
    90
 72
    86
 73
    92
 74
    96
  0
VERTEX
  5
253
330
197
100
AcDbEntity
  8
ｴｸｽﾃﾘｱ商品
 62
   250
370
    20
100
AcDbFaceRecord
 10
0.0
 20
0.0
 30
0.0
 70
   128
 71
     1
 72
    11
 73
     9
 74
     7
  0
VERTEX
  5
254
330
197
100
AcDbEntity
  8
ｴｸｽﾃﾘｱ商品
 62
   250
370
    20
100
AcDbFaceRecord
 10
0.0
 20
0.0
 30
0.0
 70
   128
 71
     1
 72
     7
 73
     5
 74
     2
  0
VERTEX
  5
255
330
197
100
AcDbEntity
  8
ｴｸｽﾃﾘｱ商品
 62
   250
370
    20
100
AcDbFaceRecord
 10
0.0
 20
0.0
 30
0.0
 70
   128
 71
    92
 72
    91
 73
    93
 74
    94
  0
VERTEX
  5
256
330
197
100
AcDbEntity
  8
ｴｸｽﾃﾘｱ商品
 62
   250
370
    20
100
AcDbFaceRecord
 10
0.0
 20
0.0
 30
0.0
 70
   128
 71
    92
 72
    94
 73
    95
 74
    96
  0
SEQEND
  5
198
330
197
100
AcDbEntity
  8
ｴｸｽﾃﾘｱ商品
370
    20
  0
POLYLINE
  5
257
330
3C
100
AcDbEntity
  8
ｴｸｽﾃﾘｱ商品
 62
   250
370
    20
100
AcDbPolyFaceMesh
 66
     1
 10
0.0
 20
0.0
 30
0.0
 70
    64
 71
   102
 72
   100
  0
VERTEX
  5
259
330
257
100
AcDbEntity
  8
ｴｸｽﾃﾘｱ商品
 62
   250
370
    20
100
AcDbVertex
100
AcDbPolyFaceMeshVertex
 10
8.034965051786243
 20
-5.196152422706634
 30
243.6153308489019
 70
   192
  0
VERTEX
  5
25A
330
257
100
AcDbEntity
  8
ｴｸｽﾃﾘｱ商品
 62
   250
370
    20
100
AcDbVertex
100
AcDbPolyFaceMeshVertex
 10
4.765034948213762
 20
-5.196152422706632
 30
238.5846691510981
 70
   192
  0
VERTEX
  5
25B
330
257
100
AcDbEntity
  8
ｴｸｽﾃﾘｱ商品
 62
   250
370
    20
100
AcDbVertex
100
AcDbPolyFaceMeshVertex
 10
12.9089474250016
 20
-5.196152422706632
 30
233.291126041186
 70
   192
  0
VERTEX
  5
25C
330
257
100
AcDbEntity
  8
ｴｸｽﾃﾘｱ商品
 62
   250
370
    20
100
AcDbVertex
100
AcDbPolyFaceMeshVertex
 10
15.8910525749984
 20
-5.196152422706634
 30
238.508873958814
 70
   192
  0
VERTEX
  5
25D
330
257
100
AcDbEntity
  8
ｴｸｽﾃﾘｱ商品
 62
   250
370
    20
100
AcDbVertex
100
AcDbPolyFaceMeshVertex
 10
3.130069896427524
 20
0.0000000000000007
 30
236.0693383021962
 70
   192
  0
VERTEX
  5
25E
330
257
100
AcDbEntity
  8
ｴｸｽﾃﾘｱ商品
 62
   250
370
    20
100
AcDbVertex
100
AcDbPolyFaceMeshVertex
 10
11.41789485000321
 20
0.0000000000000007
 30
230.682252082372
 70
   192
  0
VERTEX
  5
25F
330
257
100
AcDbEntity
  8
ｴｸｽﾃﾘｱ商品
 62
   250
370
    20
100
AcDbVertex
100
AcDbPolyFaceMeshVertex
 10
4.765034948213763
 20
5.196152422706634
 30
238.5846691510981
 70
   192
  0
VERTEX
  5
260
330
257
100
AcDbEntity
  8
ｴｸｽﾃﾘｱ商品
 62
   250
370
    20
100
AcDbVertex
100
AcDbPolyFaceMeshVertex
 10
12.90894742500161
 20
5.196152422706634
 30
233.291126041186
 70
   192
  0
VERTEX
  5
261
330
257
100
AcDbEntity
  8
ｴｸｽﾃﾘｱ商品
 62
   250
370
    20
100
AcDbVertex
100
AcDbPolyFaceMeshVertex
 10
8.034965051786243
 20
5.196152422706634
 30
243.6153308489019
 70
   192
  0
VERTEX
  5
262
330
257
100
AcDbEntity
  8
ｴｸｽﾃﾘｱ商品
 62
   250
370
    20
100
AcDbVertex
100
AcDbPolyFaceMeshVertex
 10
15.8910525749984
 20
5.196152422706634
 30
238.508873958814
 70
   192
  0
VERTEX
  5
263
330
257
100
AcDbEntity
  8
ｴｸｽﾃﾘｱ商品
 62
   250
370
    20
100
AcDbVertex
100
AcDbPolyFaceMeshVertex
 10
9.669930103572481
 20
0.0
 30
246.1306616978038
 70
   192
  0
VERTEX
  5
264
330
257
100
AcDbEntity
  8
ｴｸｽﾃﾘｱ商品
 62
   250
370
    20
100
AcDbVertex
100
AcDbPolyFaceMeshVertex
 10
17.38210514999679
 20
0.0
 30
241.1177479176281
 70
   192
  0
VERTEX
  5
265
330
257
100
AcDbEntity
  8
ｴｸｽﾃﾘｱ商品
 62
   250
370
    20
100
AcDbVertex
100
AcDbPolyFaceMeshVertex
 10
63.95241583038332
 20
-5.196152422706632
 30
207.8698711070097
 70
   192
  0
VERTEX
  5
266
330
257
100
AcDbEntity
  8
ｴｸｽﾃﾘｱ商品
 62
   250
370
    20
100
AcDbVertex
100
AcDbPolyFaceMeshVertex
 10
66.44758416961673
 20
-5.196152422706634
 30
213.3301288929904
 70
   192
  0
VERTEX
  5
267
330
257
100
AcDbEntity
  8
ｴｸｽﾃﾘｱ商品
 62
   250
370
    20
100
AcDbVertex
100
AcDbPolyFaceMeshVertex
 10
62.70483166076661
 20
0.0000000000000007
 30
205.1397422140194
 70
   192
  0
VERTEX
  5
268
330
257
100
AcDbEntity
  8
ｴｸｽﾃﾘｱ商品
 62
   250
370
    20
100
AcDbVertex
100
AcDbPolyFaceMeshVertex
 10
63.95241583038332
 20
5.196152422706634
 30
207.8698711070097
 70
   192
  0
VERTEX
  5
269
330
257
100
AcDbEntity
  8
ｴｸｽﾃﾘｱ商品
 62
   250
370
    20
100
AcDbVertex
100
AcDbPolyFaceMeshVertex
 10
66.44758416961673
 20
5.196152422706634
 30
213.3301288929904
 70
   192
  0
VERTEX
  5
26A
330
257
100
AcDbEntity
  8
ｴｸｽﾃﾘｱ商品
 62
   250
370
    20
100
AcDbVertex
100
AcDbPolyFaceMeshVertex
 10
67.69516833923343
 20
0.0
 30
216.0602577859807
 70
   192
  0
VERTEX
  5
26B
330
257
100
AcDbEntity
  8
ｴｸｽﾃﾘｱ商品
 62
   250
370
    20
100
AcDbVertex
100
AcDbPolyFaceMeshVertex
 10
116.6120349928105
 20
-5.196152422706632
 30
185.9032871135401
 70
   192
  0
VERTEX
  5
26C
330
257
100
AcDbEntity
  8
ｴｸｽﾃﾘｱ商品
 62
   250
370
    20
100
AcDbVertex
100
AcDbPolyFaceMeshVertex
 10
118.7879650071896
 20
-5.196152422706634
 30
191.49671288646
 70
   192
  0
VERTEX
  5
26D
330
257
100
AcDbEntity
  8
ｴｸｽﾃﾘｱ商品
 62
   250
370
    20
100
AcDbVertex
100
AcDbPolyFaceMeshVertex
 10
115.5240699856209
 20
0.0000000000000007
 30
183.1065742270802
 70
   192
  0
VERTEX
  5
26E
330
257
100
AcDbEntity
  8
ｴｸｽﾃﾘｱ商品
 62
   250
370
    20
100
AcDbVertex
100
AcDbPolyFaceMeshVertex
 10
116.6120349928105
 20
5.196152422706634
 30
185.9032871135401
 70
   192
  0
VERTEX
  5
26F
330
257
100
AcDbEntity
  8
ｴｸｽﾃﾘｱ商品
 62
   250
370
    20
100
AcDbVertex
100
AcDbPolyFaceMeshVertex
 10
118.7879650071896
 20
5.196152422706634
 30
191.49671288646
 70
   192
  0
VERTEX
  5
270
330
257
100
AcDbEntity
  8
ｴｸｽﾃﾘｱ商品
 62
   250
370
    20
100
AcDbVertex
100
AcDbPolyFaceMeshVertex
 10
119.8759300143792
 20
0.0
 30
194.2934257729198
 70
   192
  0
VERTEX
  5
271
330
257
100
AcDbEntity
  8
ｴｸｽﾃﾘｱ商品
 62
   250
370
    20
100
AcDbVertex
100
AcDbPolyFaceMeshVertex
 10
153.5626876955048
 20
-5.196152422706632
 30
172.5488392617511
 70
   192
  0
VERTEX
  5
272
330
257
100
AcDbEntity
  8
ｴｸｽﾃﾘｱ商品
 62
   250
370
    20
100
AcDbVertex
100
AcDbPolyFaceMeshVertex
 10
155.4373123044952
 20
-5.196152422706634
 30
178.251160738249
 70
   192
  0
VERTEX
  5
273
330
257
100
AcDbEntity
  8
ｴｸｽﾃﾘｱ商品
 62
   250
370
    20
100
AcDbVertex
100
AcDbPolyFaceMeshVertex
 10
152.6253753910096
 20
0.0000000000000007
 30
169.6976785235022
 70
   192
  0
VERTEX
  5
274
330
257
100
AcDbEntity
  8
ｴｸｽﾃﾘｱ商品
 62
   250
370
    20
100
AcDbVertex
100
AcDbPolyFaceMeshVertex
 10
153.5626876955048
 20
5.196152422706634
 30
172.5488392617511
 70
   192
  0
VERTEX
  5
275
330
257
100
AcDbEntity
  8
ｴｸｽﾃﾘｱ商品
 62
   250
370
    20
100
AcDbVertex
100
AcDbPolyFaceMeshVertex
 10
155.4373123044952
 20
5.196152422706634
 30
178.251160738249
 70
   192
  0
VERTEX
  5
276
330
257
100
AcDbEntity
  8
ｴｸｽﾃﾘｱ商品
 62
   250
370
    20
100
AcDbVertex
100
AcDbPolyFaceMeshVertex
 10
156.3746246089904
 20
0.0
 30
181.1023214764979
 70
   192
  0
VERTEX
  5
277
330
257
100
AcDbEntity
  8
ｴｸｽﾃﾘｱ商品
 62
   250
370
    20
100
AcDbVertex
100
AcDbPolyFaceMeshVertex
 10
217.4463156251074
 20
-5.196152422706632
 30
153.5943562496712
 70
   192
  0
VERTEX
  5
278
330
257
100
AcDbEntity
  8
ｴｸｽﾃﾘｱ商品
 62
   250
370
    20
100
AcDbVertex
100
AcDbPolyFaceMeshVertex
 10
218.9536843748927
 20
-5.196152422706634
 30
159.4056437503288
 70
   192
  0
VERTEX
  5
279
330
257
100
AcDbEntity
  8
ｴｸｽﾃﾘｱ商品
 62
   250
370
    20
100
AcDbVertex
100
AcDbPolyFaceMeshVertex
 10
216.6926312502147
 20
0.0000000000000007
 30
150.6887124993424
 70
   192
  0
VERTEX
  5
27A
330
257
100
AcDbEntity
  8
ｴｸｽﾃﾘｱ商品
 62
   250
370
    20
100
AcDbVertex
100
AcDbPolyFaceMeshVertex
 10
217.4463156251074
 20
5.196152422706634
 30
153.5943562496713
 70
   192
  0
VERTEX
  5
27B
330
257
100
AcDbEntity
  8
ｴｸｽﾃﾘｱ商品
 62
   250
370
    20
100
AcDbVertex
100
AcDbPolyFaceMeshVertex
 10
218.9536843748927
 20
5.196152422706634
 30
159.4056437503288
 70
   192
  0
VERTEX
  5
27C
330
257
100
AcDbEntity
  8
ｴｸｽﾃﾘｱ商品
 62
   250
370
    20
100
AcDbVertex
100
AcDbPolyFaceMeshVertex
 10
219.7073687497853
 20
0.0
 30
162.3112875006576
 70
   192
  0
VERTEX
  5
27D
330
257
100
AcDbEntity
  8
ｴｸｽﾃﾘｱ商品
 62
   250
370
    20
100
AcDbVertex
100
AcDbPolyFaceMeshVertex
 10
282.783080145132
 20
-5.196152422706632
 30
139.0416206806949
 70
   192
  0
VERTEX
  5
27E
330
257
100
AcDbEntity
  8
ｴｸｽﾃﾘｱ商品
 62
   250
370
    20
100
AcDbVertex
100
AcDbPolyFaceMeshVertex
 10
283.8169198548681
 20
-5.196152422706634
 30
144.9583793193051
 70
   192
  0
VERTEX
  5
27F
330
257
100
AcDbEntity
  8
ｴｸｽﾃﾘｱ商品
 62
   250
370
    20
100
AcDbVertex
100
AcDbPolyFaceMeshVertex
 10
282.2661602902639
 20
0.0000000000000007
 30
136.0832413613898
 70
   192
  0
VERTEX
  5
280
330
257
100
AcDbEntity
  8
ｴｸｽﾃﾘｱ商品
 62
   250
370
    20
100
AcDbVertex
100
AcDbPolyFaceMeshVertex
 10
282.783080145132
 20
5.196152422706634
 30
139.0416206806949
 70
   192
  0
VERTEX
  5
281
330
257
100
AcDbEntity
  8
ｴｸｽﾃﾘｱ商品
 62
   250
370
    20
100
AcDbVertex
100
AcDbPolyFaceMeshVertex
 10
283.8169198548681
 20
5.196152422706634
 30
144.9583793193051
 70
   192
  0
VERTEX
  5
282
330
257
100
AcDbEntity
  8
ｴｸｽﾃﾘｱ商品
 62
   250
370
    20
100
AcDbVertex
100
AcDbPolyFaceMeshVertex
 10
284.3338397097362
 20
0.0
 30
147.9167586386102
 70
   192
  0
VERTEX
  5
283
330
257
100
AcDbEntity
  8
ｴｸｽﾃﾘｱ商品
 62
   250
370
    20
100
AcDbVertex
100
AcDbPolyFaceMeshVertex
 10
348.1713878735198
 20
-5.196152422706632
 30
130.704862552498
 70
   192
  0
VERTEX
  5
284
330
257
100
AcDbEntity
  8
ｴｸｽﾃﾘｱ商品
 62
   250
370
    20
100
AcDbVertex
100
AcDbPolyFaceMeshVertex
 10
348.6286121264803
 20
-5.196152422706634
 30
136.695137447502
 70
   192
  0
VERTEX
  5
285
330
257
100
AcDbEntity
  8
ｴｸｽﾃﾘｱ商品
 62
   250
370
    20
100
AcDbVertex
100
AcDbPolyFaceMeshVertex
 10
347.9427757470397
 20
0.0000000000000007
 30
127.709725104996
 70
   192
  0
VERTEX
  5
286
330
257
100
AcDbEntity
  8
ｴｸｽﾃﾘｱ商品
 62
   250
370
    20
100
AcDbVertex
100
AcDbPolyFaceMeshVertex
 10
348.1713878735198
 20
5.196152422706634
 30
130.704862552498
 70
   192
  0
VERTEX
  5
287
330
257
100
AcDbEntity
  8
ｴｸｽﾃﾘｱ商品
 62
   250
370
    20
100
AcDbVertex
100
AcDbPolyFaceMeshVertex
 10
348.6286121264803
 20
5.196152422706634
 30
136.695137447502
 70
   192
  0
VERTEX
  5
288
330
257
100
AcDbEntity
  8
ｴｸｽﾃﾘｱ商品
 62
   250
370
    20
100
AcDbVertex
100
AcDbPolyFaceMeshVertex
 10
348.8572242529606
 20
0.0
 30
139.6902748950041
 70
   192
  0
VERTEX
  5
289
330
257
100
AcDbEntity
  8
ｴｸｽﾃﾘｱ商品
 62
   250
370
    20
100
AcDbVertex
100
AcDbPolyFaceMeshVertex
 10
407.2292209777241
 20
-5.196152422706632
 30
129.1957186060533
 70
   192
  0
VERTEX
  5
28A
330
257
100
AcDbEntity
  8
ｴｸｽﾃﾘｱ商品
 62
   250
370
    20
100
AcDbVertex
100
AcDbPolyFaceMeshVertex
 10
406.9707790222759
 20
-5.196152422706634
 30
135.2042813939468
 70
   192
  0
VERTEX
  5
28B
330
257
100
AcDbEntity
  8
ｴｸｽﾃﾘｱ商品
 62
   250
370
    20
100
AcDbVertex
100
AcDbPolyFaceMeshVertex
 10
407.3584419554482
 20
0.0000000000000007
 30
126.1914372121065
 70
   192
  0
VERTEX
  5
28C
330
257
100
AcDbEntity
  8
ｴｸｽﾃﾘｱ商品
 62
   250
370
    20
100
AcDbVertex
100
AcDbPolyFaceMeshVertex
 10
407.2292209777241
 20
5.196152422706634
 30
129.1957186060533
 70
   192
  0
VERTEX
  5
28D
330
257
100
AcDbEntity
  8
ｴｸｽﾃﾘｱ商品
 62
   250
370
    20
100
AcDbVertex
100
AcDbPolyFaceMeshVertex
 10
406.9707790222759
 20
5.196152422706634
 30
135.2042813939468
 70
   192
  0
VERTEX
  5
28E
330
257
100
AcDbEntity
  8
ｴｸｽﾃﾘｱ商品
 62
   250
370
    20
100
AcDbVertex
100
AcDbPolyFaceMeshVertex
 10
406.8415580445518
 20
0.0
 30
138.2085627878935
 70
   192
  0
VERTEX
  5
28F
330
257
100
AcDbEntity
  8
ｴｸｽﾃﾘｱ商品
 62
   250
370
    20
100
AcDbVertex
100
AcDbPolyFaceMeshVertex
 10
458.6216835263047
 20
-5.196152422706632
 30
134.9508666714149
 70
   192
  0
VERTEX
  5
290
330
257
100
AcDbEntity
  8
ｴｸｽﾃﾘｱ商品
 62
   250
370
    20
100
AcDbVertex
100
AcDbPolyFaceMeshVertex
 10
457.3783164736953
 20
-5.196152422706634
 30
140.8491333285851
 70
   192
  0
VERTEX
  5
291
330
257
100
AcDbEntity
  8
ｴｸｽﾃﾘｱ商品
 62
   250
370
    20
100
AcDbVertex
100
AcDbPolyFaceMeshVertex
 10
459.2433670526093
 20
0.0000000000000007
 30
132.0017333428299
 70
   192
  0
VERTEX
  5
292
330
257
100
AcDbEntity
  8
ｴｸｽﾃﾘｱ商品
 62
   250
370
    20
100
AcDbVertex
100
AcDbPolyFaceMeshVertex
 10
458.6216835263047
 20
5.196152422706634
 30
134.9508666714149
 70
   192
  0
VERTEX
  5
293
330
257
100
AcDbEntity
  8
ｴｸｽﾃﾘｱ商品
 62
   250
370
    20
100
AcDbVertex
100
AcDbPolyFaceMeshVertex
 10
457.3783164736953
 20
5.196152422706634
 30
140.8491333285851
 70
   192
  0
VERTEX
  5
294
330
257
100
AcDbEntity
  8
ｴｸｽﾃﾘｱ商品
 62
   250
370
    20
100
AcDbVertex
100
AcDbPolyFaceMeshVertex
 10
456.7566329473907
 20
0.0
 30
143.7982666571702
 70
   192
  0
VERTEX
  5
295
330
257
100
AcDbEntity
  8
ｴｸｽﾃﾘｱ商品
 62
   250
370
    20
100
AcDbVertex
100
AcDbPolyFaceMeshVertex
 10
545.7481625469462
 20
-5.196152422706632
 30
162.284664011224
 70
   192
  0
VERTEX
  5
296
330
257
100
AcDbEntity
  8
ｴｸｽﾃﾘｱ商品
 62
   250
370
    20
100
AcDbVertex
100
AcDbPolyFaceMeshVertex
 10
543.6518374530539
 20
-5.196152422706634
 30
167.915335988776
 70
   192
  0
VERTEX
  5
297
330
257
100
AcDbEntity
  8
ｴｸｽﾃﾘｱ商品
 62
   250
370
    20
100
AcDbVertex
100
AcDbPolyFaceMeshVertex
 10
546.7963250938924
 20
0.0000000000000007
 30
159.4693280224481
 70
   192
  0
VERTEX
  5
298
330
257
100
AcDbEntity
  8
ｴｸｽﾃﾘｱ商品
 62
   250
370
    20
100
AcDbVertex
100
AcDbPolyFaceMeshVertex
 10
545.7481625469462
 20
5.196152422706634
 30
162.284664011224
 70
   192
  0
VERTEX
  5
299
330
257
100
AcDbEntity
  8
ｴｸｽﾃﾘｱ商品
 62
   250
370
    20
100
AcDbVertex
100
AcDbPolyFaceMeshVertex
 10
543.6518374530539
 20
5.196152422706634
 30
167.915335988776
 70
   192
  0
VERTEX
  5
29A
330
257
100
AcDbEntity
  8
ｴｸｽﾃﾘｱ商品
 62
   250
370
    20
100
AcDbVertex
100
AcDbPolyFaceMeshVertex
 10
542.6036749061077
 20
0.0
 30
170.7306719775519
 70
   192
  0
VERTEX
  5
29B
330
257
100
AcDbEntity
  8
ｴｸｽﾃﾘｱ商品
 62
   250
370
    20
100
AcDbVertex
100
AcDbPolyFaceMeshVertex
 10
632.1039843535725
 20
-5.196152422706632
 30
199.6954904152561
 70
   192
  0
VERTEX
  5
29C
330
257
100
AcDbEntity
  8
ｴｸｽﾃﾘｱ商品
 62
   250
370
    20
100
AcDbVertex
100
AcDbPolyFaceMeshVertex
 10
629.4960156464277
 20
-5.196152422706634
 30
205.104509584744
 70
   192
  0
VERTEX
  5
29D
330
257
100
AcDbEntity
  8
ｴｸｽﾃﾘｱ商品
 62
   250
370
    20
100
AcDbVertex
100
AcDbPolyFaceMeshVertex
 10
633.4079687071448
 20
0.0000000000000007
 30
196.9909808305121
 70
   192
  0
VERTEX
  5
29E
330
257
100
AcDbEntity
  8
ｴｸｽﾃﾘｱ商品
 62
   250
370
    20
100
AcDbVertex
100
AcDbPolyFaceMeshVertex
 10
632.1039843535725
 20
5.196152422706634
 30
199.6954904152561
 70
   192
  0
VERTEX
  5
29F
330
257
100
AcDbEntity
  8
ｴｸｽﾃﾘｱ商品
 62
   250
370
    20
100
AcDbVertex
100
AcDbPolyFaceMeshVertex
 10
629.4960156464277
 20
5.196152422706634
 30
205.104509584744
 70
   192
  0
VERTEX
  5
2A0
330
257
100
AcDbEntity
  8
ｴｸｽﾃﾘｱ商品
 62
   250
370
    20
100
AcDbVertex
100
AcDbPolyFaceMeshVertex
 10
628.1920312928554
 20
0.0
 30
207.809019169488
 70
   192
  0
VERTEX
  5
2A1
330
257
100
AcDbEntity
  8
ｴｸｽﾃﾘｱ商品
 62
   250
370
    20
100
AcDbVertex
100
AcDbPolyFaceMeshVertex
 10
721.6353221534777
 20
-5.196152422706632
 30
247.4188014933691
 70
   192
  0
VERTEX
  5
2A2
330
257
100
AcDbEntity
  8
ｴｸｽﾃﾘｱ商品
 62
   250
370
    20
100
AcDbVertex
100
AcDbPolyFaceMeshVertex
 10
718.5646778465225
 20
-5.196152422706634
 30
252.581198506631
 70
   192
  0
VERTEX
  5
2A3
330
257
100
AcDbEntity
  8
ｴｸｽﾃﾘｱ商品
 62
   250
370
    20
100
AcDbVertex
100
AcDbPolyFaceMeshVertex
 10
723.1706443069553
 20
0.0000000000000007
 30
244.8376029867381
 70
   192
  0
VERTEX
  5
2A4
330
257
100
AcDbEntity
  8
ｴｸｽﾃﾘｱ商品
 62
   250
370
    20
100
AcDbVertex
100
AcDbPolyFaceMeshVertex
 10
721.6353221534777
 20
5.196152422706634
 30
247.4188014933691
 70
   192
  0
VERTEX
  5
2A5
330
257
100
AcDbEntity
  8
ｴｸｽﾃﾘｱ商品
 62
   250
370
    20
100
AcDbVertex
100
AcDbPolyFaceMeshVertex
 10
718.5646778465225
 20
5.196152422706634
 30
252.581198506631
 70
   192
  0
VERTEX
  5
2A6
330
257
100
AcDbEntity
  8
ｴｸｽﾃﾘｱ商品
 62
   250
370
    20
100
AcDbVertex
100
AcDbPolyFaceMeshVertex
 10
717.0293556930449
 20
0.0
 30
255.1623970132619
 70
   192
  0
VERTEX
  5
2A7
330
257
100
AcDbEntity
  8
ｴｸｽﾃﾘｱ商品
 62
   250
370
    20
100
AcDbVertex
100
AcDbPolyFaceMeshVertex
 10
844.3086834697312
 20
-5.196152422706632
 30
328.3992556956019
 70
   192
  0
VERTEX
  5
2A8
330
257
100
AcDbEntity
  8
ｴｸｽﾃﾘｱ商品
 62
   250
370
    20
100
AcDbVertex
100
AcDbPolyFaceMeshVertex
 10
840.6913165302689
 20
-5.196152422706634
 30
333.2007443043982
 70
   192
  0
VERTEX
  5
2A9
330
257
100
AcDbEntity
  8
ｴｸｽﾃﾘｱ商品
 62
   250
370
    20
100
AcDbVertex
100
AcDbPolyFaceMeshVertex
 10
846.1173669394624
 20
0.0000000000000007
 30
325.9985113912036
 70
   192
  0
VERTEX
  5
2AA
330
257
100
AcDbEntity
  8
ｴｸｽﾃﾘｱ商品
 62
   250
370
    20
100
AcDbVertex
100
AcDbPolyFaceMeshVertex
 10
844.3086834697312
 20
5.196152422706634
 30
328.3992556956019
 70
   192
  0
VERTEX
  5
2AB
330
257
100
AcDbEntity
  8
ｴｸｽﾃﾘｱ商品
 62
   250
370
    20
100
AcDbVertex
100
AcDbPolyFaceMeshVertex
 10
840.6913165302689
 20
5.196152422706634
 30
333.2007443043982
 70
   192
  0
VERTEX
  5
2AC
330
257
100
AcDbEntity
  8
ｴｸｽﾃﾘｱ商品
 62
   250
370
    20
100
AcDbVertex
100
AcDbPolyFaceMeshVertex
 10
838.8826330605377
 20
0.0
 30
335.6014886087964
 70
   192
  0
VERTEX
  5
2AD
330
257
100
AcDbEntity
  8
ｴｸｽﾃﾘｱ商品
 62
   250
370
    20
100
AcDbVertex
100
AcDbPolyFaceMeshVertex
 10
920.1987467558346
 20
-5.196152422706632
 30
393.3474976878094
 70
   192
  0
VERTEX
  5
2AE
330
257
100
AcDbEntity
  8
ｴｸｽﾃﾘｱ商品
 62
   250
370
    20
100
AcDbVertex
100
AcDbPolyFaceMeshVertex
 10
916.0012532441655
 20
-5.196152422706634
 30
397.6525023121907
 70
   192
  0
VERTEX
  5
2AF
330
257
100
AcDbEntity
  8
ｴｸｽﾃﾘｱ商品
 62
   250
370
    20
100
AcDbVertex
100
AcDbPolyFaceMeshVertex
 10
922.2974935116692
 20
0.0000000000000007
 30
391.1949953756187
 70
   192
  0
VERTEX
  5
2B0
330
257
100
AcDbEntity
  8
ｴｸｽﾃﾘｱ商品
 62
   250
370
    20
100
AcDbVertex
100
AcDbPolyFaceMeshVertex
 10
920.1987467558346
 20
5.196152422706634
 30
393.3474976878094
 70
   192
  0
VERTEX
  5
2B1
330
257
100
AcDbEntity
  8
ｴｸｽﾃﾘｱ商品
 62
   250
370
    20
100
AcDbVertex
100
AcDbPolyFaceMeshVertex
 10
916.0012532441655
 20
5.196152422706634
 30
397.6525023121907
 70
   192
  0
VERTEX
  5
2B2
330
257
100
AcDbEntity
  8
ｴｸｽﾃﾘｱ商品
 62
   250
370
    20
100
AcDbVertex
100
AcDbPolyFaceMeshVertex
 10
913.9025064883308
 20
0.0
 30
399.8050046243815
 70
   192
  0
VERTEX
  5
2B3
330
257
100
AcDbEntity
  8
ｴｸｽﾃﾘｱ商品
 62
   250
370
    20
100
AcDbVertex
100
AcDbPolyFaceMeshVertex
 10
964.8558229786332
 20
-5.196152422706632
 30
442.9329449351962
 70
   192
  0
VERTEX
  5
2B4
330
257
100
AcDbEntity
  8
ｴｸｽﾃﾘｱ商品
 62
   250
370
    20
100
AcDbVertex
100
AcDbPolyFaceMeshVertex
 10
960.1441770213668
 20
-5.196152422706634
 30
446.667055064804
 70
   192
  0
VERTEX
  5
2B5
330
257
100
AcDbEntity
  8
ｴｸｽﾃﾘｱ商品
 62
   250
370
    20
100
AcDbVertex
100
AcDbPolyFaceMeshVertex
 10
967.2116459572665
 20
0.0000000000000007
 30
441.0658898703923
 70
   192
  0
VERTEX
  5
2B6
330
257
100
AcDbEntity
  8
ｴｸｽﾃﾘｱ商品
 62
   250
370
    20
100
AcDbVertex
100
AcDbPolyFaceMeshVertex
 10
964.8558229786332
 20
5.196152422706634
 30
442.9329449351962
 70
   192
  0
VERTEX
  5
2B7
330
257
100
AcDbEntity
  8
ｴｸｽﾃﾘｱ商品
 62
   250
370
    20
100
AcDbVertex
100
AcDbPolyFaceMeshVertex
 10
960.1441770213668
 20
5.196152422706634
 30
446.667055064804
 70
   192
  0
VERTEX
  5
2B8
330
257
100
AcDbEntity
  8
ｴｸｽﾃﾘｱ商品
 62
   250
370
    20
100
AcDbVertex
100
AcDbPolyFaceMeshVertex
 10
957.7883540427335
 20
0.0
 30
448.5341101296079
 70
   192
  0
VERTEX
  5
2B9
330
257
100
AcDbEntity
  8
ｴｸｽﾃﾘｱ商品
 62
   250
370
    20
100
AcDbVertex
100
AcDbPolyFaceMeshVertex
 10
991.4239403058459
 20
-5.196152422706632
 30
481.1749319970932
 70
   192
  0
VERTEX
  5
2BA
330
257
100
AcDbEntity
  8
ｴｸｽﾃﾘｱ商品
 62
   250
370
    20
100
AcDbVertex
100
AcDbPolyFaceMeshVertex
 10
986.3760596941542
 20
-5.196152422706634
 30
484.425068002907
 70
   192
  0
VERTEX
  5
2BB
330
257
100
AcDbEntity
  8
ｴｸｽﾃﾘｱ商品
 62
   250
370
    20
100
AcDbVertex
100
AcDbPolyFaceMeshVertex
 10
993.9478806116917
 20
0.0000000000000007
 30
479.5498639941862
 70
   192
  0
VERTEX
  5
2BC
330
257
100
AcDbEntity
  8
ｴｸｽﾃﾘｱ商品
 62
   250
370
    20
100
AcDbVertex
100
AcDbPolyFaceMeshVertex
 10
991.4239403058459
 20
5.196152422706634
 30
481.1749319970932
 70
   192
  0
VERTEX
  5
2BD
330
257
100
AcDbEntity
  8
ｴｸｽﾃﾘｱ商品
 62
   250
370
    20
100
AcDbVertex
100
AcDbPolyFaceMeshVertex
 10
986.3760596941542
 20
5.196152422706634
 30
484.425068002907
 70
   192
  0
VERTEX
  5
2BE
330
257
100
AcDbEntity
  8
ｴｸｽﾃﾘｱ商品
 62
   250
370
    20
100
AcDbVertex
100
AcDbPolyFaceMeshVertex
 10
983.8521193883083
 20
0.0
 30
486.0501360058139
 70
   192
  0
VERTEX
  5
2BF
330
257
100
AcDbEntity
  8
ｴｸｽﾃﾘｱ商品
 62
   250
370
    20
100
AcDbFaceRecord
 10
0.0
 20
0.0
 30
0.0
 70
   128
 71
     1
 72
     2
 73
     3
 74
     4
  0
VERTEX
  5
2C0
330
257
100
AcDbEntity
  8
ｴｸｽﾃﾘｱ商品
 62
   250
370
    20
100
AcDbFaceRecord
 10
0.0
 20
0.0
 30
0.0
 70
   128
 71
     2
 72
     5
 73
     6
 74
     3
  0
VERTEX
  5
2C1
330
257
100
AcDbEntity
  8
ｴｸｽﾃﾘｱ商品
 62
   250
370
    20
100
AcDbFaceRecord
 10
0.0
 20
0.0
 30
0.0
 70
   128
 71
     5
 72
     7
 73
     8
 74
     6
  0
VERTEX
  5
2C2
330
257
100
AcDbEntity
  8
ｴｸｽﾃﾘｱ商品
 62
   250
370
    20
100
AcDbFaceRecord
 10
0.0
 20
0.0
 30
0.0
 70
   128
 71
     7
 72
     9
 73
    10
 74
     8
  0
VERTEX
  5
2C3
330
257
100
AcDbEntity
  8
ｴｸｽﾃﾘｱ商品
 62
   250
370
    20
100
AcDbFaceRecord
 10
0.0
 20
0.0
 30
0.0
 70
   128
 71
     9
 72
    11
 73
    12
 74
    10
  0
VERTEX
  5
2C4
330
257
100
AcDbEntity
  8
ｴｸｽﾃﾘｱ商品
 62
   250
370
    20
100
AcDbFaceRecord
 10
0.0
 20
0.0
 30
0.0
 70
   128
 71
    11
 72
     1
 73
     4
 74
    12
  0
VERTEX
  5
2C5
330
257
100
AcDbEntity
  8
ｴｸｽﾃﾘｱ商品
 62
   250
370
    20
100
AcDbFaceRecord
 10
0.0
 20
0.0
 30
0.0
 70
   128
 71
     4
 72
     3
 73
    13
 74
    14
  0
VERTEX
  5
2C6
330
257
100
AcDbEntity
  8
ｴｸｽﾃﾘｱ商品
 62
   250
370
    20
100
AcDbFaceRecord
 10
0.0
 20
0.0
 30
0.0
 70
   128
 71
     3
 72
     6
 73
    15
 74
    13
  0
VERTEX
  5
2C7
330
257
100
AcDbEntity
  8
ｴｸｽﾃﾘｱ商品
 62
   250
370
    20
100
AcDbFaceRecord
 10
0.0
 20
0.0
 30
0.0
 70
   128
 71
     6
 72
     8
 73
    16
 74
    15
  0
VERTEX
  5
2C8
330
257
100
AcDbEntity
  8
ｴｸｽﾃﾘｱ商品
 62
   250
370
    20
100
AcDbFaceRecord
 10
0.0
 20
0.0
 30
0.0
 70
   128
 71
     8
 72
    10
 73
    17
 74
    16
  0
VERTEX
  5
2C9
330
257
100
AcDbEntity
  8
ｴｸｽﾃﾘｱ商品
 62
   250
370
    20
100
AcDbFaceRecord
 10
0.0
 20
0.0
 30
0.0
 70
   128
 71
    10
 72
    12
 73
    18
 74
    17
  0
VERTEX
  5
2CA
330
257
100
AcDbEntity
  8
ｴｸｽﾃﾘｱ商品
 62
   250
370
    20
100
AcDbFaceRecord
 10
0.0
 20
0.0
 30
0.0
 70
   128
 71
    12
 72
     4
 73
    14
 74
    18
  0
VERTEX
  5
2CB
330
257
100
AcDbEntity
  8
ｴｸｽﾃﾘｱ商品
 62
   250
370
    20
100
AcDbFaceRecord
 10
0.0
 20
0.0
 30
0.0
 70
   128
 71
    14
 72
    13
 73
    19
 74
    20
  0
VERTEX
  5
2CC
330
257
100
AcDbEntity
  8
ｴｸｽﾃﾘｱ商品
 62
   250
370
    20
100
AcDbFaceRecord
 10
0.0
 20
0.0
 30
0.0
 70
   128
 71
    13
 72
    15
 73
    21
 74
    19
  0
VERTEX
  5
2CD
330
257
100
AcDbEntity
  8
ｴｸｽﾃﾘｱ商品
 62
   250
370
    20
100
AcDbFaceRecord
 10
0.0
 20
0.0
 30
0.0
 70
   128
 71
    15
 72
    16
 73
    22
 74
    21
  0
VERTEX
  5
2CE
330
257
100
AcDbEntity
  8
ｴｸｽﾃﾘｱ商品
 62
   250
370
    20
100
AcDbFaceRecord
 10
0.0
 20
0.0
 30
0.0
 70
   128
 71
    16
 72
    17
 73
    23
 74
    22
  0
VERTEX
  5
2CF
330
257
100
AcDbEntity
  8
ｴｸｽﾃﾘｱ商品
 62
   250
370
    20
100
AcDbFaceRecord
 10
0.0
 20
0.0
 30
0.0
 70
   128
 71
    17
 72
    18
 73
    24
 74
    23
  0
VERTEX
  5
2D0
330
257
100
AcDbEntity
  8
ｴｸｽﾃﾘｱ商品
 62
   250
370
    20
100
AcDbFaceRecord
 10
0.0
 20
0.0
 30
0.0
 70
   128
 71
    18
 72
    14
 73
    20
 74
    24
  0
VERTEX
  5
2D1
330
257
100
AcDbEntity
  8
ｴｸｽﾃﾘｱ商品
 62
   250
370
    20
100
AcDbFaceRecord
 10
0.0
 20
0.0
 30
0.0
 70
   128
 71
    20
 72
    19
 73
    25
 74
    26
  0
VERTEX
  5
2D2
330
257
100
AcDbEntity
  8
ｴｸｽﾃﾘｱ商品
 62
   250
370
    20
100
AcDbFaceRecord
 10
0.0
 20
0.0
 30
0.0
 70
   128
 71
    19
 72
    21
 73
    27
 74
    25
  0
VERTEX
  5
2D3
330
257
100
AcDbEntity
  8
ｴｸｽﾃﾘｱ商品
 62
   250
370
    20
100
AcDbFaceRecord
 10
0.0
 20
0.0
 30
0.0
 70
   128
 71
    21
 72
    22
 73
    28
 74
    27
  0
VERTEX
  5
2D4
330
257
100
AcDbEntity
  8
ｴｸｽﾃﾘｱ商品
 62
   250
370
    20
100
AcDbFaceRecord
 10
0.0
 20
0.0
 30
0.0
 70
   128
 71
    22
 72
    23
 73
    29
 74
    28
  0
VERTEX
  5
2D5
330
257
100
AcDbEntity
  8
ｴｸｽﾃﾘｱ商品
 62
   250
370
    20
100
AcDbFaceRecord
 10
0.0
 20
0.0
 30
0.0
 70
   128
 71
    23
 72
    24
 73
    30
 74
    29
  0
VERTEX
  5
2D6
330
257
100
AcDbEntity
  8
ｴｸｽﾃﾘｱ商品
 62
   250
370
    20
100
AcDbFaceRecord
 10
0.0
 20
0.0
 30
0.0
 70
   128
 71
    24
 72
    20
 73
    26
 74
    30
  0
VERTEX
  5
2D7
330
257
100
AcDbEntity
  8
ｴｸｽﾃﾘｱ商品
 62
   250
370
    20
100
AcDbFaceRecord
 10
0.0
 20
0.0
 30
0.0
 70
   128
 71
    26
 72
    25
 73
    31
 74
    32
  0
VERTEX
  5
2D8
330
257
100
AcDbEntity
  8
ｴｸｽﾃﾘｱ商品
 62
   250
370
    20
100
AcDbFaceRecord
 10
0.0
 20
0.0
 30
0.0
 70
   128
 71
    25
 72
    27
 73
    33
 74
    31
  0
VERTEX
  5
2D9
330
257
100
AcDbEntity
  8
ｴｸｽﾃﾘｱ商品
 62
   250
370
    20
100
AcDbFaceRecord
 10
0.0
 20
0.0
 30
0.0
 70
   128
 71
    27
 72
    28
 73
    34
 74
    33
  0
VERTEX
  5
2DA
330
257
100
AcDbEntity
  8
ｴｸｽﾃﾘｱ商品
 62
   250
370
    20
100
AcDbFaceRecord
 10
0.0
 20
0.0
 30
0.0
 70
   128
 71
    28
 72
    29
 73
    35
 74
    34
  0
VERTEX
  5
2DB
330
257
100
AcDbEntity
  8
ｴｸｽﾃﾘｱ商品
 62
   250
370
    20
100
AcDbFaceRecord
 10
0.0
 20
0.0
 30
0.0
 70
   128
 71
    29
 72
    30
 73
    36
 74
    35
  0
VERTEX
  5
2DC
330
257
100
AcDbEntity
  8
ｴｸｽﾃﾘｱ商品
 62
   250
370
    20
100
AcDbFaceRecord
 10
0.0
 20
0.0
 30
0.0
 70
   128
 71
    30
 72
    26
 73
    32
 74
    36
  0
VERTEX
  5
2DD
330
257
100
AcDbEntity
  8
ｴｸｽﾃﾘｱ商品
 62
   250
370
    20
100
AcDbFaceRecord
 10
0.0
 20
0.0
 30
0.0
 70
   128
 71
    32
 72
    31
 73
    37
 74
    38
  0
VERTEX
  5
2DE
330
257
100
AcDbEntity
  8
ｴｸｽﾃﾘｱ商品
 62
   250
370
    20
100
AcDbFaceRecord
 10
0.0
 20
0.0
 30
0.0
 70
   128
 71
    31
 72
    33
 73
    39
 74
    37
  0
VERTEX
  5
2DF
330
257
100
AcDbEntity
  8
ｴｸｽﾃﾘｱ商品
 62
   250
370
    20
100
AcDbFaceRecord
 10
0.0
 20
0.0
 30
0.0
 70
   128
 71
    33
 72
    34
 73
    40
 74
    39
  0
VERTEX
  5
2E0
330
257
100
AcDbEntity
  8
ｴｸｽﾃﾘｱ商品
 62
   250
370
    20
100
AcDbFaceRecord
 10
0.0
 20
0.0
 30
0.0
 70
   128
 71
    34
 72
    35
 73
    41
 74
    40
  0
VERTEX
  5
2E1
330
257
100
AcDbEntity
  8
ｴｸｽﾃﾘｱ商品
 62
   250
370
    20
100
AcDbFaceRecord
 10
0.0
 20
0.0
 30
0.0
 70
   128
 71
    35
 72
    36
 73
    42
 74
    41
  0
VERTEX
  5
2E2
330
257
100
AcDbEntity
  8
ｴｸｽﾃﾘｱ商品
 62
   250
370
    20
100
AcDbFaceRecord
 10
0.0
 20
0.0
 30
0.0
 70
   128
 71
    36
 72
    32
 73
    38
 74
    42
  0
VERTEX
  5
2E3
330
257
100
AcDbEntity
  8
ｴｸｽﾃﾘｱ商品
 62
   250
370
    20
100
AcDbFaceRecord
 10
0.0
 20
0.0
 30
0.0
 70
   128
 71
    38
 72
    37
 73
    43
 74
    44
  0
VERTEX
  5
2E4
330
257
100
AcDbEntity
  8
ｴｸｽﾃﾘｱ商品
 62
   250
370
    20
100
AcDbFaceRecord
 10
0.0
 20
0.0
 30
0.0
 70
   128
 71
    37
 72
    39
 73
    45
 74
    43
  0
VERTEX
  5
2E5
330
257
100
AcDbEntity
  8
ｴｸｽﾃﾘｱ商品
 62
   250
370
    20
100
AcDbFaceRecord
 10
0.0
 20
0.0
 30
0.0
 70
   128
 71
    39
 72
    40
 73
    46
 74
    45
  0
VERTEX
  5
2E6
330
257
100
AcDbEntity
  8
ｴｸｽﾃﾘｱ商品
 62
   250
370
    20
100
AcDbFaceRecord
 10
0.0
 20
0.0
 30
0.0
 70
   128
 71
    40
 72
    41
 73
    47
 74
    46
  0
VERTEX
  5
2E7
330
257
100
AcDbEntity
  8
ｴｸｽﾃﾘｱ商品
 62
   250
370
    20
100
AcDbFaceRecord
 10
0.0
 20
0.0
 30
0.0
 70
   128
 71
    41
 72
    42
 73
    48
 74
    47
  0
VERTEX
  5
2E8
330
257
100
AcDbEntity
  8
ｴｸｽﾃﾘｱ商品
 62
   250
370
    20
100
AcDbFaceRecord
 10
0.0
 20
0.0
 30
0.0
 70
   128
 71
    42
 72
    38
 73
    44
 74
    48
  0
VERTEX
  5
2E9
330
257
100
AcDbEntity
  8
ｴｸｽﾃﾘｱ商品
 62
   250
370
    20
100
AcDbFaceRecord
 10
0.0
 20
0.0
 30
0.0
 70
   128
 71
    44
 72
    43
 73
    49
 74
    50
  0
VERTEX
  5
2EA
330
257
100
AcDbEntity
  8
ｴｸｽﾃﾘｱ商品
 62
   250
370
    20
100
AcDbFaceRecord
 10
0.0
 20
0.0
 30
0.0
 70
   128
 71
    43
 72
    45
 73
    51
 74
    49
  0
VERTEX
  5
2EB
330
257
100
AcDbEntity
  8
ｴｸｽﾃﾘｱ商品
 62
   250
370
    20
100
AcDbFaceRecord
 10
0.0
 20
0.0
 30
0.0
 70
   128
 71
    45
 72
    46
 73
    52
 74
    51
  0
VERTEX
  5
2EC
330
257
100
AcDbEntity
  8
ｴｸｽﾃﾘｱ商品
 62
   250
370
    20
100
AcDbFaceRecord
 10
0.0
 20
0.0
 30
0.0
 70
   128
 71
    46
 72
    47
 73
    53
 74
    52
  0
VERTEX
  5
2ED
330
257
100
AcDbEntity
  8
ｴｸｽﾃﾘｱ商品
 62
   250
370
    20
100
AcDbFaceRecord
 10
0.0
 20
0.0
 30
0.0
 70
   128
 71
    47
 72
    48
 73
    54
 74
    53
  0
VERTEX
  5
2EE
330
257
100
AcDbEntity
  8
ｴｸｽﾃﾘｱ商品
 62
   250
370
    20
100
AcDbFaceRecord
 10
0.0
 20
0.0
 30
0.0
 70
   128
 71
    48
 72
    44
 73
    50
 74
    54
  0
VERTEX
  5
2EF
330
257
100
AcDbEntity
  8
ｴｸｽﾃﾘｱ商品
 62
   250
370
    20
100
AcDbFaceRecord
 10
0.0
 20
0.0
 30
0.0
 70
   128
 71
    50
 72
    49
 73
    55
 74
    56
  0
VERTEX
  5
2F0
330
257
100
AcDbEntity
  8
ｴｸｽﾃﾘｱ商品
 62
   250
370
    20
100
AcDbFaceRecord
 10
0.0
 20
0.0
 30
0.0
 70
   128
 71
    49
 72
    51
 73
    57
 74
    55
  0
VERTEX
  5
2F1
330
257
100
AcDbEntity
  8
ｴｸｽﾃﾘｱ商品
 62
   250
370
    20
100
AcDbFaceRecord
 10
0.0
 20
0.0
 30
0.0
 70
   128
 71
    51
 72
    52
 73
    58
 74
    57
  0
VERTEX
  5
2F2
330
257
100
AcDbEntity
  8
ｴｸｽﾃﾘｱ商品
 62
   250
370
    20
100
AcDbFaceRecord
 10
0.0
 20
0.0
 30
0.0
 70
   128
 71
    52
 72
    53
 73
    59
 74
    58
  0
VERTEX
  5
2F3
330
257
100
AcDbEntity
  8
ｴｸｽﾃﾘｱ商品
 62
   250
370
    20
100
AcDbFaceRecord
 10
0.0
 20
0.0
 30
0.0
 70
   128
 71
    53
 72
    54
 73
    60
 74
    59
  0
VERTEX
  5
2F4
330
257
100
AcDbEntity
  8
ｴｸｽﾃﾘｱ商品
 62
   250
370
    20
100
AcDbFaceRecord
 10
0.0
 20
0.0
 30
0.0
 70
   128
 71
    54
 72
    50
 73
    56
 74
    60
  0
VERTEX
  5
2F5
330
257
100
AcDbEntity
  8
ｴｸｽﾃﾘｱ商品
 62
   250
370
    20
100
AcDbFaceRecord
 10
0.0
 20
0.0
 30
0.0
 70
   128
 71
    56
 72
    55
 73
    61
 74
    62
  0
VERTEX
  5
2F6
330
257
100
AcDbEntity
  8
ｴｸｽﾃﾘｱ商品
 62
   250
370
    20
100
AcDbFaceRecord
 10
0.0
 20
0.0
 30
0.0
 70
   128
 71
    55
 72
    57
 73
    63
 74
    61
  0
VERTEX
  5
2F7
330
257
100
AcDbEntity
  8
ｴｸｽﾃﾘｱ商品
 62
   250
370
    20
100
AcDbFaceRecord
 10
0.0
 20
0.0
 30
0.0
 70
   128
 71
    57
 72
    58
 73
    64
 74
    63
  0
VERTEX
  5
2F8
330
257
100
AcDbEntity
  8
ｴｸｽﾃﾘｱ商品
 62
   250
370
    20
100
AcDbFaceRecord
 10
0.0
 20
0.0
 30
0.0
 70
   128
 71
    58
 72
    59
 73
    65
 74
    64
  0
VERTEX
  5
2F9
330
257
100
AcDbEntity
  8
ｴｸｽﾃﾘｱ商品
 62
   250
370
    20
100
AcDbFaceRecord
 10
0.0
 20
0.0
 30
0.0
 70
   128
 71
    59
 72
    60
 73
    66
 74
    65
  0
VERTEX
  5
2FA
330
257
100
AcDbEntity
  8
ｴｸｽﾃﾘｱ商品
 62
   250
370
    20
100
AcDbFaceRecord
 10
0.0
 20
0.0
 30
0.0
 70
   128
 71
    60
 72
    56
 73
    62
 74
    66
  0
VERTEX
  5
2FB
330
257
100
AcDbEntity
  8
ｴｸｽﾃﾘｱ商品
 62
   250
370
    20
100
AcDbFaceRecord
 10
0.0
 20
0.0
 30
0.0
 70
   128
 71
    62
 72
    61
 73
    67
 74
    68
  0
VERTEX
  5
2FC
330
257
100
AcDbEntity
  8
ｴｸｽﾃﾘｱ商品
 62
   250
370
    20
100
AcDbFaceRecord
 10
0.0
 20
0.0
 30
0.0
 70
   128
 71
    61
 72
    63
 73
    69
 74
    67
  0
VERTEX
  5
2FD
330
257
100
AcDbEntity
  8
ｴｸｽﾃﾘｱ商品
 62
   250
370
    20
100
AcDbFaceRecord
 10
0.0
 20
0.0
 30
0.0
 70
   128
 71
    63
 72
    64
 73
    70
 74
    69
  0
VERTEX
  5
2FE
330
257
100
AcDbEntity
  8
ｴｸｽﾃﾘｱ商品
 62
   250
370
    20
100
AcDbFaceRecord
 10
0.0
 20
0.0
 30
0.0
 70
   128
 71
    64
 72
    65
 73
    71
 74
    70
  0
VERTEX
  5
2FF
330
257
100
AcDbEntity
  8
ｴｸｽﾃﾘｱ商品
 62
   250
370
    20
100
AcDbFaceRecord
 10
0.0
 20
0.0
 30
0.0
 70
   128
 71
    65
 72
    66
 73
    72
 74
    71
  0
VERTEX
  5
300
330
257
100
AcDbEntity
  8
ｴｸｽﾃﾘｱ商品
 62
   250
370
    20
100
AcDbFaceRecord
 10
0.0
 20
0.0
 30
0.0
 70
   128
 71
    66
 72
    62
 73
    68
 74
    72
  0
VERTEX
  5
301
330
257
100
AcDbEntity
  8
ｴｸｽﾃﾘｱ商品
 62
   250
370
    20
100
AcDbFaceRecord
 10
0.0
 20
0.0
 30
0.0
 70
   128
 71
    68
 72
    67
 73
    73
 74
    74
  0
VERTEX
  5
302
330
257
100
AcDbEntity
  8
ｴｸｽﾃﾘｱ商品
 62
   250
370
    20
100
AcDbFaceRecord
 10
0.0
 20
0.0
 30
0.0
 70
   128
 71
    67
 72
    69
 73
    75
 74
    73
  0
VERTEX
  5
303
330
257
100
AcDbEntity
  8
ｴｸｽﾃﾘｱ商品
 62
   250
370
    20
100
AcDbFaceRecord
 10
0.0
 20
0.0
 30
0.0
 70
   128
 71
    69
 72
    70
 73
    76
 74
    75
  0
VERTEX
  5
304
330
257
100
AcDbEntity
  8
ｴｸｽﾃﾘｱ商品
 62
   250
370
    20
100
AcDbFaceRecord
 10
0.0
 20
0.0
 30
0.0
 70
   128
 71
    70
 72
    71
 73
    77
 74
    76
  0
VERTEX
  5
305
330
257
100
AcDbEntity
  8
ｴｸｽﾃﾘｱ商品
 62
   250
370
    20
100
AcDbFaceRecord
 10
0.0
 20
0.0
 30
0.0
 70
   128
 71
    71
 72
    72
 73
    78
 74
    77
  0
VERTEX
  5
306
330
257
100
AcDbEntity
  8
ｴｸｽﾃﾘｱ商品
 62
   250
370
    20
100
AcDbFaceRecord
 10
0.0
 20
0.0
 30
0.0
 70
   128
 71
    72
 72
    68
 73
    74
 74
    78
  0
VERTEX
  5
307
330
257
100
AcDbEntity
  8
ｴｸｽﾃﾘｱ商品
 62
   250
370
    20
100
AcDbFaceRecord
 10
0.0
 20
0.0
 30
0.0
 70
   128
 71
    74
 72
    73
 73
    79
 74
    80
  0
VERTEX
  5
308
330
257
100
AcDbEntity
  8
ｴｸｽﾃﾘｱ商品
 62
   250
370
    20
100
AcDbFaceRecord
 10
0.0
 20
0.0
 30
0.0
 70
   128
 71
    73
 72
    75
 73
    81
 74
    79
  0
VERTEX
  5
309
330
257
100
AcDbEntity
  8
ｴｸｽﾃﾘｱ商品
 62
   250
370
    20
100
AcDbFaceRecord
 10
0.0
 20
0.0
 30
0.0
 70
   128
 71
    75
 72
    76
 73
    82
 74
    81
  0
VERTEX
  5
30A
330
257
100
AcDbEntity
  8
ｴｸｽﾃﾘｱ商品
 62
   250
370
    20
100
AcDbFaceRecord
 10
0.0
 20
0.0
 30
0.0
 70
   128
 71
    76
 72
    77
 73
    83
 74
    82
  0
VERTEX
  5
30B
330
257
100
AcDbEntity
  8
ｴｸｽﾃﾘｱ商品
 62
   250
370
    20
100
AcDbFaceRecord
 10
0.0
 20
0.0
 30
0.0
 70
   128
 71
    77
 72
    78
 73
    84
 74
    83
  0
VERTEX
  5
30C
330
257
100
AcDbEntity
  8
ｴｸｽﾃﾘｱ商品
 62
   250
370
    20
100
AcDbFaceRecord
 10
0.0
 20
0.0
 30
0.0
 70
   128
 71
    78
 72
    74
 73
    80
 74
    84
  0
VERTEX
  5
30D
330
257
100
AcDbEntity
  8
ｴｸｽﾃﾘｱ商品
 62
   250
370
    20
100
AcDbFaceRecord
 10
0.0
 20
0.0
 30
0.0
 70
   128
 71
    80
 72
    79
 73
    85
 74
    86
  0
VERTEX
  5
30E
330
257
100
AcDbEntity
  8
ｴｸｽﾃﾘｱ商品
 62
   250
370
    20
100
AcDbFaceRecord
 10
0.0
 20
0.0
 30
0.0
 70
   128
 71
    79
 72
    81
 73
    87
 74
    85
  0
VERTEX
  5
30F
330
257
100
AcDbEntity
  8
ｴｸｽﾃﾘｱ商品
 62
   250
370
    20
100
AcDbFaceRecord
 10
0.0
 20
0.0
 30
0.0
 70
   128
 71
    81
 72
    82
 73
    88
 74
    87
  0
VERTEX
  5
310
330
257
100
AcDbEntity
  8
ｴｸｽﾃﾘｱ商品
 62
   250
370
    20
100
AcDbFaceRecord
 10
0.0
 20
0.0
 30
0.0
 70
   128
 71
    82
 72
    83
 73
    89
 74
    88
  0
VERTEX
  5
311
330
257
100
AcDbEntity
  8
ｴｸｽﾃﾘｱ商品
 62
   250
370
    20
100
AcDbFaceRecord
 10
0.0
 20
0.0
 30
0.0
 70
   128
 71
    83
 72
    84
 73
    90
 74
    89
  0
VERTEX
  5
312
330
257
100
AcDbEntity
  8
ｴｸｽﾃﾘｱ商品
 62
   250
370
    20
100
AcDbFaceRecord
 10
0.0
 20
0.0
 30
0.0
 70
   128
 71
    84
 72
    80
 73
    86
 74
    90
  0
VERTEX
  5
313
330
257
100
AcDbEntity
  8
ｴｸｽﾃﾘｱ商品
 62
   250
370
    20
100
AcDbFaceRecord
 10
0.0
 20
0.0
 30
0.0
 70
   128
 71
    86
 72
    85
 73
    91
 74
    92
  0
VERTEX
  5
314
330
257
100
AcDbEntity
  8
ｴｸｽﾃﾘｱ商品
 62
   250
370
    20
100
AcDbFaceRecord
 10
0.0
 20
0.0
 30
0.0
 70
   128
 71
    85
 72
    87
 73
    93
 74
    91
  0
VERTEX
  5
315
330
257
100
AcDbEntity
  8
ｴｸｽﾃﾘｱ商品
 62
   250
370
    20
100
AcDbFaceRecord
 10
0.0
 20
0.0
 30
0.0
 70
   128
 71
    87
 72
    88
 73
    94
 74
    93
  0
VERTEX
  5
316
330
257
100
AcDbEntity
  8
ｴｸｽﾃﾘｱ商品
 62
   250
370
    20
100
AcDbFaceRecord
 10
0.0
 20
0.0
 30
0.0
 70
   128
 71
    88
 72
    89
 73
    95
 74
    94
  0
VERTEX
  5
317
330
257
100
AcDbEntity
  8
ｴｸｽﾃﾘｱ商品
 62
   250
370
    20
100
AcDbFaceRecord
 10
0.0
 20
0.0
 30
0.0
 70
   128
 71
    89
 72
    90
 73
    96
 74
    95
  0
VERTEX
  5
318
330
257
100
AcDbEntity
  8
ｴｸｽﾃﾘｱ商品
 62
   250
370
    20
100
AcDbFaceRecord
 10
0.0
 20
0.0
 30
0.0
 70
   128
 71
    90
 72
    86
 73
    92
 74
    96
  0
VERTEX
  5
319
330
257
100
AcDbEntity
  8
ｴｸｽﾃﾘｱ商品
 62
   250
370
    20
100
AcDbFaceRecord
 10
0.0
 20
0.0
 30
0.0
 70
   128
 71
    92
 72
    91
 73
    97
 74
    98
  0
VERTEX
  5
31A
330
257
100
AcDbEntity
  8
ｴｸｽﾃﾘｱ商品
 62
   250
370
    20
100
AcDbFaceRecord
 10
0.0
 20
0.0
 30
0.0
 70
   128
 71
    91
 72
    93
 73
    99
 74
    97
  0
VERTEX
  5
31B
330
257
100
AcDbEntity
  8
ｴｸｽﾃﾘｱ商品
 62
   250
370
    20
100
AcDbFaceRecord
 10
0.0
 20
0.0
 30
0.0
 70
   128
 71
    93
 72
    94
 73
   100
 74
    99
  0
VERTEX
  5
31C
330
257
100
AcDbEntity
  8
ｴｸｽﾃﾘｱ商品
 62
   250
370
    20
100
AcDbFaceRecord
 10
0.0
 20
0.0
 30
0.0
 70
   128
 71
    94
 72
    95
 73
   101
 74
   100
  0
VERTEX
  5
31D
330
257
100
AcDbEntity
  8
ｴｸｽﾃﾘｱ商品
 62
   250
370
    20
100
AcDbFaceRecord
 10
0.0
 20
0.0
 30
0.0
 70
   128
 71
    95
 72
    96
 73
   102
 74
   101
  0
VERTEX
  5
31E
330
257
100
AcDbEntity
  8
ｴｸｽﾃﾘｱ商品
 62
   250
370
    20
100
AcDbFaceRecord
 10
0.0
 20
0.0
 30
0.0
 70
   128
 71
    96
 72
    92
 73
    98
 74
   102
  0
VERTEX
  5
31F
330
257
100
AcDbEntity
  8
ｴｸｽﾃﾘｱ商品
 62
   250
370
    20
100
AcDbFaceRecord
 10
0.0
 20
0.0
 30
0.0
 70
   128
 71
     1
 72
    11
 73
     9
 74
     7
  0
VERTEX
  5
320
330
257
100
AcDbEntity
  8
ｴｸｽﾃﾘｱ商品
 62
   250
370
    20
100
AcDbFaceRecord
 10
0.0
 20
0.0
 30
0.0
 70
   128
 71
     1
 72
     7
 73
     5
 74
     2
  0
VERTEX
  5
321
330
257
100
AcDbEntity
  8
ｴｸｽﾃﾘｱ商品
 62
   250
370
    20
100
AcDbFaceRecord
 10
0.0
 20
0.0
 30
0.0
 70
   128
 71
    98
 72
    97
 73
    99
 74
   100
  0
VERTEX
  5
322
330
257
100
AcDbEntity
  8
ｴｸｽﾃﾘｱ商品
 62
   250
370
    20
100
AcDbFaceRecord
 10
0.0
 20
0.0
 30
0.0
 70
   128
 71
    98
 72
   100
 73
   101
 74
   102
  0
SEQEND
  5
258
330
257
100
AcDbEntity
  8
ｴｸｽﾃﾘｱ商品
370
    20
  0
POLYLINE
  5
323
330
3C
100
AcDbEntity
  8
ｴｸｽﾃﾘｱ商品
 62
   250
370
    20
100
AcDbPolyFaceMesh
 66
     1
 10
0.0
 20
0.0
 30
0.0
 70
    64
 71
   138
 72
   136
  0
VERTEX
  5
325
330
323
100
AcDbEntity
  8
ｴｸｽﾃﾘｱ商品
 62
   250
370
    20
100
AcDbVertex
100
AcDbPolyFaceMeshVertex
 10
21.26947394742846
 20
-5.196152422706634
 30
488.2181677462586
 70
   192
  0
VERTEX
  5
326
330
323
100
AcDbEntity
  8
ｴｸｽﾃﾘｱ商品
 62
   250
370
    20
100
AcDbVertex
100
AcDbPolyFaceMeshVertex
 10
18.73052605257154
 20
-5.196152422706632
 30
482.7818322537414
 70
   192
  0
VERTEX
  5
327
330
323
100
AcDbEntity
  8
ｴｸｽﾃﾘｱ商品
 62
   250
370
    20
100
AcDbVertex
100
AcDbPolyFaceMeshVertex
 10
73.24871168123651
 20
-5.196152422706632
 30
457.320042262332
 70
   192
  0
VERTEX
  5
328
330
323
100
AcDbEntity
  8
ｴｸｽﾃﾘｱ商品
 62
   250
370
    20
100
AcDbVertex
100
AcDbPolyFaceMeshVertex
 10
75.95128831876349
 20
-5.196152422706634
 30
462.6799577376681
 70
   192
  0
VERTEX
  5
329
330
323
100
AcDbEntity
  8
ｴｸｽﾃﾘｱ商品
 62
   250
370
    20
100
AcDbVertex
100
AcDbPolyFaceMeshVertex
 10
17.46105210514309
 20
0.0000000000000007
 30
480.0636645074829
 70
   192
  0
VERTEX
  5
32A
330
323
100
AcDbEntity
  8
ｴｸｽﾃﾘｱ商品
 62
   250
370
    20
100
AcDbVertex
100
AcDbPolyFaceMeshVertex
 10
71.89742336247303
 20
0.0000000000000007
 30
454.6400845246639
 70
   192
  0
VERTEX
  5
32B
330
323
100
AcDbEntity
  8
ｴｸｽﾃﾘｱ商品
 62
   250
370
    20
100
AcDbVertex
100
AcDbPolyFaceMeshVertex
 10
18.73052605257155
 20
5.196152422706634
 30
482.7818322537415
 70
   192
  0
VERTEX
  5
32C
330
323
100
AcDbEntity
  8
ｴｸｽﾃﾘｱ商品
 62
   250
370
    20
100
AcDbVertex
100
AcDbPolyFaceMeshVertex
 10
73.24871168123653
 20
5.196152422706634
 30
457.320042262332
 70
   192
  0
VERTEX
  5
32D
330
323
100
AcDbEntity
  8
ｴｸｽﾃﾘｱ商品
 62
   250
370
    20
100
AcDbVertex
100
AcDbPolyFaceMeshVertex
 10
21.26947394742846
 20
5.196152422706634
 30
488.2181677462586
 70
   192
  0
VERTEX
  5
32E
330
323
100
AcDbEntity
  8
ｴｸｽﾃﾘｱ商品
 62
   250
370
    20
100
AcDbVertex
100
AcDbPolyFaceMeshVertex
 10
75.95128831876349
 20
5.196152422706634
 30
462.6799577376681
 70
   192
  0
VERTEX
  5
32F
330
323
100
AcDbEntity
  8
ｴｸｽﾃﾘｱ商品
 62
   250
370
    20
100
AcDbVertex
100
AcDbPolyFaceMeshVertex
 10
22.53894789485692
 20
0.0
 30
490.9363354925172
 70
   192
  0
VERTEX
  5
330
330
323
100
AcDbEntity
  8
ｴｸｽﾃﾘｱ商品
 62
   250
370
    20
100
AcDbVertex
100
AcDbPolyFaceMeshVertex
 10
77.30257663752698
 20
0.0
 30
465.3599154753361
 70
   192
  0
VERTEX
  5
331
330
323
100
AcDbEntity
  8
ｴｸｽﾃﾘｱ商品
 62
   250
370
    20
100
AcDbVertex
100
AcDbPolyFaceMeshVertex
 10
110.7453687280815
 20
-5.196152422706632
 30
436.9761113113842
 70
   192
  0
VERTEX
  5
332
330
323
100
AcDbEntity
  8
ｴｸｽﾃﾘｱ商品
 62
   250
370
    20
100
AcDbVertex
100
AcDbPolyFaceMeshVertex
 10
113.6546312719185
 20
-5.196152422706634
 30
442.2238886886159
 70
   192
  0
VERTEX
  5
333
330
323
100
AcDbEntity
  8
ｴｸｽﾃﾘｱ商品
 62
   250
370
    20
100
AcDbVertex
100
AcDbPolyFaceMeshVertex
 10
109.290737456163
 20
0.0000000000000007
 30
434.3522226227684
 70
   192
  0
VERTEX
  5
334
330
323
100
AcDbEntity
  8
ｴｸｽﾃﾘｱ商品
 62
   250
370
    20
100
AcDbVertex
100
AcDbPolyFaceMeshVertex
 10
110.7453687280815
 20
5.196152422706634
 30
436.9761113113842
 70
   192
  0
VERTEX
  5
335
330
323
100
AcDbEntity
  8
ｴｸｽﾃﾘｱ商品
 62
   250
370
    20
100
AcDbVertex
100
AcDbPolyFaceMeshVertex
 10
113.6546312719185
 20
5.196152422706634
 30
442.2238886886159
 70
   192
  0
VERTEX
  5
336
330
323
100
AcDbEntity
  8
ｴｸｽﾃﾘｱ商品
 62
   250
370
    20
100
AcDbVertex
100
AcDbPolyFaceMeshVertex
 10
115.1092625438371
 20
0.0
 30
444.8477773772317
 70
   192
  0
VERTEX
  5
337
330
323
100
AcDbEntity
  8
ｴｸｽﾃﾘｱ商品
 62
   250
370
    20
100
AcDbVertex
100
AcDbPolyFaceMeshVertex
 10
169.538516875712
 20
-5.196152422706632
 30
403.679991697165
 70
   192
  0
VERTEX
  5
338
330
323
100
AcDbEntity
  8
ｴｸｽﾃﾘｱ商品
 62
   250
370
    20
100
AcDbVertex
100
AcDbPolyFaceMeshVertex
 10
172.461483124288
 20
-5.196152422706634
 30
408.9200083028352
 70
   192
  0
VERTEX
  5
339
330
323
100
AcDbEntity
  8
ｴｸｽﾃﾘｱ商品
 62
   250
370
    20
100
AcDbVertex
100
AcDbPolyFaceMeshVertex
 10
168.077033751424
 20
0.0000000000000007
 30
401.0599833943297
 70
   192
  0
VERTEX
  5
33A
330
323
100
AcDbEntity
  8
ｴｸｽﾃﾘｱ商品
 62
   250
370
    20
100
AcDbVertex
100
AcDbPolyFaceMeshVertex
 10
169.538516875712
 20
5.196152422706634
 30
403.679991697165
 70
   192
  0
VERTEX
  5
33B
330
323
100
AcDbEntity
  8
ｴｸｽﾃﾘｱ商品
 62
   250
370
    20
100
AcDbVertex
100
AcDbPolyFaceMeshVertex
 10
172.461483124288
 20
5.196152422706634
 30
408.9200083028352
 70
   192
  0
VERTEX
  5
33C
330
323
100
AcDbEntity
  8
ｴｸｽﾃﾘｱ商品
 62
   250
370
    20
100
AcDbVertex
100
AcDbPolyFaceMeshVertex
 10
173.922966248576
 20
0.0
 30
411.5400166056705
 70
   192
  0
VERTEX
  5
33D
330
323
100
AcDbEntity
  8
ｴｸｽﾃﾘｱ商品
 62
   250
370
    20
100
AcDbVertex
100
AcDbPolyFaceMeshVertex
 10
367.0325319702278
 20
-5.196152422706632
 30
295.1832796072663
 70
   192
  0
VERTEX
  5
33E
330
323
100
AcDbEntity
  8
ｴｸｽﾃﾘｱ商品
 62
   250
370
    20
100
AcDbVertex
100
AcDbPolyFaceMeshVertex
 10
369.9674680297724
 20
-5.196152422706634
 30
300.4167203927336
 70
   192
  0
VERTEX
  5
33F
330
323
100
AcDbEntity
  8
ｴｸｽﾃﾘｱ商品
 62
   250
370
    20
100
AcDbVertex
100
AcDbPolyFaceMeshVertex
 10
365.5650639404553
 20
0.0000000000000007
 30
292.5665592145327
 70
   192
  0
VERTEX
  5
340
330
323
100
AcDbEntity
  8
ｴｸｽﾃﾘｱ商品
 62
   250
370
    20
100
AcDbVertex
100
AcDbPolyFaceMeshVertex
 10
367.0325319702278
 20
5.196152422706634
 30
295.1832796072663
 70
   192
  0
VERTEX
  5
341
330
323
100
AcDbEntity
  8
ｴｸｽﾃﾘｱ商品
 62
   250
370
    20
100
AcDbVertex
100
AcDbPolyFaceMeshVertex
 10
369.9674680297724
 20
5.196152422706634
 30
300.4167203927336
 70
   192
  0
VERTEX
  5
342
330
323
100
AcDbEntity
  8
ｴｸｽﾃﾘｱ商品
 62
   250
370
    20
100
AcDbVertex
100
AcDbPolyFaceMeshVertex
 10
371.4349360595447
 20
0.0
 30
303.0334407854673
 70
   192
  0
VERTEX
  5
343
330
323
100
AcDbEntity
  8
ｴｸｽﾃﾘｱ商品
 62
   250
370
    20
100
AcDbVertex
100
AcDbPolyFaceMeshVertex
 10
413.4131926517567
 20
-5.196152422706632
 30
268.6371131264776
 70
   192
  0
VERTEX
  5
344
330
323
100
AcDbEntity
  8
ｴｸｽﾃﾘｱ商品
 62
   250
370
    20
100
AcDbVertex
100
AcDbPolyFaceMeshVertex
 10
416.1868073482434
 20
-5.196152422706634
 30
273.9628868735224
 70
   192
  0
VERTEX
  5
345
330
323
100
AcDbEntity
  8
ｴｸｽﾃﾘｱ商品
 62
   250
370
    20
100
AcDbVertex
100
AcDbPolyFaceMeshVertex
 10
412.0263853035133
 20
0.0000000000000007
 30
265.9742262529553
 70
   192
  0
VERTEX
  5
346
330
323
100
AcDbEntity
  8
ｴｸｽﾃﾘｱ商品
 62
   250
370
    20
100
AcDbVertex
100
AcDbPolyFaceMeshVertex
 10
413.4131926517567
 20
5.196152422706634
 30
268.6371131264777
 70
   192
  0
VERTEX
  5
347
330
323
100
AcDbEntity
  8
ｴｸｽﾃﾘｱ商品
 62
   250
370
    20
100
AcDbVertex
100
AcDbPolyFaceMeshVertex
 10
416.1868073482434
 20
5.196152422706634
 30
273.9628868735224
 70
   192
  0
VERTEX
  5
348
330
323
100
AcDbEntity
  8
ｴｸｽﾃﾘｱ商品
 62
   250
370
    20
100
AcDbVertex
100
AcDbPolyFaceMeshVertex
 10
417.5736146964869
 20
0.0
 30
276.6257737470447
 70
   192
  0
VERTEX
  5
349
330
323
100
AcDbEntity
  8
ｴｸｽﾃﾘｱ商品
 62
   250
370
    20
100
AcDbVertex
100
AcDbPolyFaceMeshVertex
 10
478.1806940423627
 20
-5.196152422706632
 30
238.1110349516804
 70
   192
  0
VERTEX
  5
34A
330
323
100
AcDbEntity
  8
ｴｸｽﾃﾘｱ商品
 62
   250
370
    20
100
AcDbVertex
100
AcDbPolyFaceMeshVertex
 10
480.4193059576374
 20
-5.196152422706634
 30
243.6889650483197
 70
   192
  0
VERTEX
  5
34B
330
323
100
AcDbEntity
  8
ｴｸｽﾃﾘｱ商品
 62
   250
370
    20
100
AcDbVertex
100
AcDbPolyFaceMeshVertex
 10
477.0613880847254
 20
0.0000000000000007
 30
235.3220699033608
 70
   192
  0
VERTEX
  5
34C
330
323
100
AcDbEntity
  8
ｴｸｽﾃﾘｱ商品
 62
   250
370
    20
100
AcDbVertex
100
AcDbPolyFaceMeshVertex
 10
478.1806940423627
 20
5.196152422706634
 30
238.1110349516804
 70
   192
  0
VERTEX
  5
34D
330
323
100
AcDbEntity
  8
ｴｸｽﾃﾘｱ商品
 62
   250
370
    20
100
AcDbVertex
100
AcDbPolyFaceMeshVertex
 10
480.4193059576374
 20
5.196152422706634
 30
243.6889650483197
 70
   192
  0
VERTEX
  5
34E
330
323
100
AcDbEntity
  8
ｴｸｽﾃﾘｱ商品
 62
   250
370
    20
100
AcDbVertex
100
AcDbPolyFaceMeshVertex
 10
481.5386119152748
 20
0.0
 30
246.4779300966393
 70
   192
  0
VERTEX
  5
34F
330
323
100
AcDbEntity
  8
ｴｸｽﾃﾘｱ商品
 62
   250
370
    20
100
AcDbVertex
100
AcDbPolyFaceMeshVertex
 10
532.0347950088064
 20
-5.196152422706632
 30
220.0925600488889
 70
   192
  0
VERTEX
  5
350
330
323
100
AcDbEntity
  8
ｴｸｽﾃﾘｱ商品
 62
   250
370
    20
100
AcDbVertex
100
AcDbPolyFaceMeshVertex
 10
533.5652049911937
 20
-5.196152422706634
 30
225.9074399511111
 70
   192
  0
VERTEX
  5
351
330
323
100
AcDbEntity
  8
ｴｸｽﾃﾘｱ商品
 62
   250
370
    20
100
AcDbVertex
100
AcDbPolyFaceMeshVertex
 10
531.2695900176129
 20
0.0000000000000007
 30
217.1851200977779
 70
   192
  0
VERTEX
  5
352
330
323
100
AcDbEntity
  8
ｴｸｽﾃﾘｱ商品
 62
   250
370
    20
100
AcDbVertex
100
AcDbPolyFaceMeshVertex
 10
532.0347950088064
 20
5.196152422706634
 30
220.0925600488889
 70
   192
  0
VERTEX
  5
353
330
323
100
AcDbEntity
  8
ｴｸｽﾃﾘｱ商品
 62
   250
370
    20
100
AcDbVertex
100
AcDbPolyFaceMeshVertex
 10
533.5652049911937
 20
5.196152422706634
 30
225.9074399511111
 70
   192
  0
VERTEX
  5
354
330
323
100
AcDbEntity
  8
ｴｸｽﾃﾘｱ商品
 62
   250
370
    20
100
AcDbVertex
100
AcDbPolyFaceMeshVertex
 10
534.3304099823871
 20
0.0
 30
228.8148799022222
 70
   192
  0
VERTEX
  5
355
330
323
100
AcDbEntity
  8
ｴｸｽﾃﾘｱ商品
 62
   250
370
    20
100
AcDbVertex
100
AcDbPolyFaceMeshVertex
 10
594.6952386037839
 20
-5.196152422706632
 30
207.922554150025
 70
   192
  0
VERTEX
  5
356
330
323
100
AcDbEntity
  8
ｴｸｽﾃﾘｱ商品
 62
   250
370
    20
100
AcDbVertex
100
AcDbPolyFaceMeshVertex
 10
595.5047613962162
 20
-5.196152422706634
 30
213.8774458499751
 70
   192
  0
VERTEX
  5
357
330
323
100
AcDbEntity
  8
ｴｸｽﾃﾘｱ商品
 62
   250
370
    20
100
AcDbVertex
100
AcDbPolyFaceMeshVertex
 10
594.2904772075677
 20
0.0000000000000007
 30
204.9451083000499
 70
   192
  0
VERTEX
  5
358
330
323
100
AcDbEntity
  8
ｴｸｽﾃﾘｱ商品
 62
   250
370
    20
100
AcDbVertex
100
AcDbPolyFaceMeshVertex
 10
594.6952386037839
 20
5.196152422706634
 30
207.922554150025
 70
   192
  0
VERTEX
  5
359
330
323
100
AcDbEntity
  8
ｴｸｽﾃﾘｱ商品
 62
   250
370
    20
100
AcDbVertex
100
AcDbPolyFaceMeshVertex
 10
595.5047613962162
 20
5.196152422706634
 30
213.8774458499751
 70
   192
  0
VERTEX
  5
35A
330
323
100
AcDbEntity
  8
ｴｸｽﾃﾘｱ商品
 62
   250
370
    20
100
AcDbVertex
100
AcDbPolyFaceMeshVertex
 10
595.9095227924323
 20
0.0
 30
216.8548916999502
 70
   192
  0
VERTEX
  5
35B
330
323
100
AcDbEntity
  8
ｴｸｽﾃﾘｱ商品
 62
   250
370
    20
100
AcDbVertex
100
AcDbPolyFaceMeshVertex
 10
642.1429704277712
 20
-5.196152422706632
 30
204.1952376373126
 70
   192
  0
VERTEX
  5
35C
330
323
100
AcDbEntity
  8
ｴｸｽﾃﾘｱ商品
 62
   250
370
    20
100
AcDbVertex
100
AcDbPolyFaceMeshVertex
 10
642.257029572229
 20
-5.196152422706634
 30
210.2047623626875
 70
   192
  0
VERTEX
  5
35D
330
323
100
AcDbEntity
  8
ｴｸｽﾃﾘｱ商品
 62
   250
370
    20
100
AcDbVertex
100
AcDbPolyFaceMeshVertex
 10
642.0859408555422
 20
0.0000000000000007
 30
201.1904752746251
 70
   192
  0
VERTEX
  5
35E
330
323
100
AcDbEntity
  8
ｴｸｽﾃﾘｱ商品
 62
   250
370
    20
100
AcDbVertex
100
AcDbPolyFaceMeshVertex
 10
642.1429704277712
 20
5.196152422706634
 30
204.1952376373126
 70
   192
  0
VERTEX
  5
35F
330
323
100
AcDbEntity
  8
ｴｸｽﾃﾘｱ商品
 62
   250
370
    20
100
AcDbVertex
100
AcDbPolyFaceMeshVertex
 10
642.257029572229
 20
5.196152422706634
 30
210.2047623626875
 70
   192
  0
VERTEX
  5
360
330
323
100
AcDbEntity
  8
ｴｸｽﾃﾘｱ商品
 62
   250
370
    20
100
AcDbVertex
100
AcDbPolyFaceMeshVertex
 10
642.314059144458
 20
0.0
 30
213.2095247253749
 70
   192
  0
VERTEX
  5
361
330
323
100
AcDbEntity
  8
ｴｸｽﾃﾘｱ商品
 62
   250
370
    20
100
AcDbVertex
100
AcDbPolyFaceMeshVertex
 10
711.731675603221
 20
-5.196152422706632
 30
207.0109655923886
 70
   192
  0
VERTEX
  5
362
330
323
100
AcDbEntity
  8
ｴｸｽﾃﾘｱ商品
 62
   250
370
    20
100
AcDbVertex
100
AcDbPolyFaceMeshVertex
 10
711.0683243967791
 20
-5.196152422706634
 30
212.9890344076115
 70
   192
  0
VERTEX
  5
363
330
323
100
AcDbEntity
  8
ｴｸｽﾃﾘｱ商品
 62
   250
370
    20
100
AcDbVertex
100
AcDbPolyFaceMeshVertex
 10
712.063351206442
 20
0.0000000000000007
 30
204.0219311847772
 70
   192
  0
VERTEX
  5
364
330
323
100
AcDbEntity
  8
ｴｸｽﾃﾘｱ商品
 62
   250
370
    20
100
AcDbVertex
100
AcDbPolyFaceMeshVertex
 10
711.731675603221
 20
5.196152422706634
 30
207.0109655923886
 70
   192
  0
VERTEX
  5
365
330
323
100
AcDbEntity
  8
ｴｸｽﾃﾘｱ商品
 62
   250
370
    20
100
AcDbVertex
100
AcDbPolyFaceMeshVertex
 10
711.0683243967791
 20
5.196152422706634
 30
212.9890344076115
 70
   192
  0
VERTEX
  5
366
330
323
100
AcDbEntity
  8
ｴｸｽﾃﾘｱ商品
 62
   250
370
    20
100
AcDbVertex
100
AcDbPolyFaceMeshVertex
 10
710.7366487935581
 20
0.0
 30
215.9780688152229
 70
   192
  0
VERTEX
  5
367
330
323
100
AcDbEntity
  8
ｴｸｽﾃﾘｱ商品
 62
   250
370
    20
100
AcDbVertex
100
AcDbPolyFaceMeshVertex
 10
808.5400035401218
 20
-5.196152422706632
 30
224.6855150912419
 70
   192
  0
VERTEX
  5
368
330
323
100
AcDbEntity
  8
ｴｸｽﾃﾘｱ商品
 62
   250
370
    20
100
AcDbVertex
100
AcDbPolyFaceMeshVertex
 10
807.0599964598783
 20
-5.196152422706634
 30
230.5144849087582
 70
   192
  0
VERTEX
  5
369
330
323
100
AcDbEntity
  8
ｴｸｽﾃﾘｱ商品
 62
   250
370
    20
100
AcDbVertex
100
AcDbPolyFaceMeshVertex
 10
809.2800070802436
 20
0.0000000000000007
 30
221.7710301824837
 70
   192
  0
VERTEX
  5
36A
330
323
100
AcDbEntity
  8
ｴｸｽﾃﾘｱ商品
 62
   250
370
    20
100
AcDbVertex
100
AcDbPolyFaceMeshVertex
 10
808.5400035401218
 20
5.196152422706634
 30
224.6855150912419
 70
   192
  0
VERTEX
  5
36B
330
323
100
AcDbEntity
  8
ｴｸｽﾃﾘｱ商品
 62
   250
370
    20
100
AcDbVertex
100
AcDbPolyFaceMeshVertex
 10
807.0599964598783
 20
5.196152422706634
 30
230.5144849087582
 70
   192
  0
VERTEX
  5
36C
330
323
100
AcDbEntity
  8
ｴｸｽﾃﾘｱ商品
 62
   250
370
    20
100
AcDbVertex
100
AcDbPolyFaceMeshVertex
 10
806.3199929197565
 20
0.0
 30
233.4289698175164
 70
   192
  0
VERTEX
  5
36D
330
323
100
AcDbEntity
  8
ｴｸｽﾃﾘｱ商品
 62
   250
370
    20
100
AcDbVertex
100
AcDbPolyFaceMeshVertex
 10
892.4715819045447
 20
-5.196152422706632
 30
252.1941902968063
 70
   192
  0
VERTEX
  5
36E
330
323
100
AcDbEntity
  8
ｴｸｽﾃﾘｱ商品
 62
   250
370
    20
100
AcDbVertex
100
AcDbPolyFaceMeshVertex
 10
890.3284180954555
 20
-5.196152422706634
 30
257.8058097031939
 70
   192
  0
VERTEX
  5
36F
330
323
100
AcDbEntity
  8
ｴｸｽﾃﾘｱ商品
 62
   250
370
    20
100
AcDbVertex
100
AcDbPolyFaceMeshVertex
 10
893.5431638090893
 20
0.0000000000000007
 30
249.3883805936125
 70
   192
  0
VERTEX
  5
370
330
323
100
AcDbEntity
  8
ｴｸｽﾃﾘｱ商品
 62
   250
370
    20
100
AcDbVertex
100
AcDbPolyFaceMeshVertex
 10
892.4715819045447
 20
5.196152422706634
 30
252.1941902968063
 70
   192
  0
VERTEX
  5
371
330
323
100
AcDbEntity
  8
ｴｸｽﾃﾘｱ商品
 62
   250
370
    20
100
AcDbVertex
100
AcDbPolyFaceMeshVertex
 10
890.3284180954555
 20
5.196152422706634
 30
257.8058097031939
 70
   192
  0
VERTEX
  5
372
330
323
100
AcDbEntity
  8
ｴｸｽﾃﾘｱ商品
 62
   250
370
    20
100
AcDbVertex
100
AcDbPolyFaceMeshVertex
 10
889.2568361909109
 20
0.0
 30
260.6116194063875
 70
   192
  0
VERTEX
  5
373
330
323
100
AcDbEntity
  8
ｴｸｽﾃﾘｱ商品
 62
   250
370
    20
100
AcDbVertex
100
AcDbPolyFaceMeshVertex
 10
964.7280822367267
 20
-5.196152422706632
 30
283.850376116886
 70
   192
  0
VERTEX
  5
374
330
323
100
AcDbEntity
  8
ｴｸｽﾃﾘｱ商品
 62
   250
370
    20
100
AcDbVertex
100
AcDbPolyFaceMeshVertex
 10
961.8719177632734
 20
-5.196152422706634
 30
289.149623883114
 70
   192
  0
VERTEX
  5
375
330
323
100
AcDbEntity
  8
ｴｸｽﾃﾘｱ商品
 62
   250
370
    20
100
AcDbVertex
100
AcDbPolyFaceMeshVertex
 10
966.1561644734534
 20
0.0000000000000007
 30
281.200752233772
 70
   192
  0
VERTEX
  5
376
330
323
100
AcDbEntity
  8
ｴｸｽﾃﾘｱ商品
 62
   250
370
    20
100
AcDbVertex
100
AcDbPolyFaceMeshVertex
 10
964.7280822367267
 20
5.196152422706634
 30
283.850376116886
 70
   192
  0
VERTEX
  5
377
330
323
100
AcDbEntity
  8
ｴｸｽﾃﾘｱ商品
 62
   250
370
    20
100
AcDbVertex
100
AcDbPolyFaceMeshVertex
 10
961.8719177632734
 20
5.196152422706634
 30
289.149623883114
 70
   192
  0
VERTEX
  5
378
330
323
100
AcDbEntity
  8
ｴｸｽﾃﾘｱ商品
 62
   250
370
    20
100
AcDbVertex
100
AcDbPolyFaceMeshVertex
 10
960.4438355265468
 20
0.0
 30
291.7992477662281
 70
   192
  0
VERTEX
  5
379
330
323
100
AcDbEntity
  8
ｴｸｽﾃﾘｱ商品
 62
   250
370
    20
100
AcDbVertex
100
AcDbPolyFaceMeshVertex
 10
976.9854358743673
 20
-5.196152422706632
 30
291.8069039167581
 70
   192
  0
VERTEX
  5
37A
330
323
100
AcDbEntity
  8
ｴｸｽﾃﾘｱ商品
 62
   250
370
    20
100
AcDbVertex
100
AcDbPolyFaceMeshVertex
 10
972.4145641256326
 20
-5.196152422706634
 30
295.9930960832421
 70
   192
  0
VERTEX
  5
37B
330
323
100
AcDbEntity
  8
ｴｸｽﾃﾘｱ商品
 62
   250
370
    20
100
AcDbVertex
100
AcDbPolyFaceMeshVertex
 10
979.2708717487346
 20
0.0000000000000007
 30
289.7138078335161
 70
   192
  0
VERTEX
  5
37C
330
323
100
AcDbEntity
  8
ｴｸｽﾃﾘｱ商品
 62
   250
370
    20
100
AcDbVertex
100
AcDbPolyFaceMeshVertex
 10
976.9854358743673
 20
5.196152422706634
 30
291.8069039167581
 70
   192
  0
VERTEX
  5
37D
330
323
100
AcDbEntity
  8
ｴｸｽﾃﾘｱ商品
 62
   250
370
    20
100
AcDbVertex
100
AcDbPolyFaceMeshVertex
 10
972.4145641256326
 20
5.196152422706634
 30
295.9930960832421
 70
   192
  0
VERTEX
  5
37E
330
323
100
AcDbEntity
  8
ｴｸｽﾃﾘｱ商品
 62
   250
370
    20
100
AcDbVertex
100
AcDbPolyFaceMeshVertex
 10
970.1291282512655
 20
0.0
 30
298.086192166484
 70
   192
  0
VERTEX
  5
37F
330
323
100
AcDbEntity
  8
ｴｸｽﾃﾘｱ商品
 62
   250
370
    20
100
AcDbVertex
100
AcDbPolyFaceMeshVertex
 10
984.526417786001
 20
-5.196152422706632
 30
306.0145509966476
 70
   192
  0
VERTEX
  5
380
330
323
100
AcDbEntity
  8
ｴｸｽﾃﾘｱ商品
 62
   250
370
    20
100
AcDbVertex
100
AcDbPolyFaceMeshVertex
 10
978.673582213999
 20
-5.196152422706634
 30
307.7854490033524
 70
   192
  0
VERTEX
  5
381
330
323
100
AcDbEntity
  8
ｴｸｽﾃﾘｱ商品
 62
   250
370
    20
100
AcDbVertex
100
AcDbPolyFaceMeshVertex
 10
987.4528355720021
 20
0.0000000000000007
 30
305.1291019932953
 70
   192
  0
VERTEX
  5
382
330
323
100
AcDbEntity
  8
ｴｸｽﾃﾘｱ商品
 62
   250
370
    20
100
AcDbVertex
100
AcDbPolyFaceMeshVertex
 10
984.526417786001
 20
5.196152422706634
 30
306.0145509966476
 70
   192
  0
VERTEX
  5
383
330
323
100
AcDbEntity
  8
ｴｸｽﾃﾘｱ商品
 62
   250
370
    20
100
AcDbVertex
100
AcDbPolyFaceMeshVertex
 10
978.673582213999
 20
5.196152422706634
 30
307.7854490033524
 70
   192
  0
VERTEX
  5
384
330
323
100
AcDbEntity
  8
ｴｸｽﾃﾘｱ商品
 62
   250
370
    20
100
AcDbVertex
100
AcDbPolyFaceMeshVertex
 10
975.747164427998
 20
0.0
 30
308.6708980067048
 70
   192
  0
VERTEX
  5
385
330
323
100
AcDbEntity
  8
ｴｸｽﾃﾘｱ商品
 62
   250
370
    20
100
AcDbVertex
100
AcDbPolyFaceMeshVertex
 10
985.9348875705583
 20
-5.196152422706632
 30
320.0992488422212
 70
   192
  0
VERTEX
  5
386
330
323
100
AcDbEntity
  8
ｴｸｽﾃﾘｱ商品
 62
   250
370
    20
100
AcDbVertex
100
AcDbPolyFaceMeshVertex
 10
979.8651124294416
 20
-5.196152422706634
 30
319.7007511577788
 70
   192
  0
VERTEX
  5
387
330
323
100
AcDbEntity
  8
ｴｸｽﾃﾘｱ商品
 62
   250
370
    20
100
AcDbVertex
100
AcDbPolyFaceMeshVertex
 10
988.9697751411168
 20
0.0000000000000007
 30
320.2984976844425
 70
   192
  0
VERTEX
  5
388
330
323
100
AcDbEntity
  8
ｴｸｽﾃﾘｱ商品
 62
   250
370
    20
100
AcDbVertex
100
AcDbPolyFaceMeshVertex
 10
985.9348875705583
 20
5.196152422706634
 30
320.0992488422212
 70
   192
  0
VERTEX
  5
389
330
323
100
AcDbEntity
  8
ｴｸｽﾃﾘｱ商品
 62
   250
370
    20
100
AcDbVertex
100
AcDbPolyFaceMeshVertex
 10
979.8651124294416
 20
5.196152422706634
 30
319.7007511577788
 70
   192
  0
VERTEX
  5
38A
330
323
100
AcDbEntity
  8
ｴｸｽﾃﾘｱ商品
 62
   250
370
    20
100
AcDbVertex
100
AcDbPolyFaceMeshVertex
 10
976.8302248588833
 20
0.0
 30
319.5015023155576
 70
   192
  0
VERTEX
  5
38B
330
323
100
AcDbEntity
  8
ｴｸｽﾃﾘｱ商品
 62
   250
370
    20
100
AcDbVertex
100
AcDbPolyFaceMeshVertex
 10
981.3357861560052
 20
-5.196152422706632
 30
339.6721688157854
 70
   192
  0
VERTEX
  5
38C
330
323
100
AcDbEntity
  8
ｴｸｽﾃﾘｱ商品
 62
   250
370
    20
100
AcDbVertex
100
AcDbPolyFaceMeshVertex
 10
975.8642138439949
 20
-5.196152422706634
 30
336.7278311842146
 70
   192
  0
VERTEX
  5
38D
330
323
100
AcDbEntity
  8
ｴｸｽﾃﾘｱ商品
 62
   250
370
    20
100
AcDbVertex
100
AcDbPolyFaceMeshVertex
 10
984.0715723120102
 20
0.0000000000000007
 30
341.1443376315707
 70
   192
  0
VERTEX
  5
38E
330
323
100
AcDbEntity
  8
ｴｸｽﾃﾘｱ商品
 62
   250
370
    20
100
AcDbVertex
100
AcDbPolyFaceMeshVertex
 10
981.3357861560052
 20
5.196152422706634
 30
339.6721688157854
 70
   192
  0
VERTEX
  5
38F
330
323
100
AcDbEntity
  8
ｴｸｽﾃﾘｱ商品
 62
   250
370
    20
100
AcDbVertex
100
AcDbPolyFaceMeshVertex
 10
975.8642138439949
 20
5.196152422706634
 30
336.7278311842146
 70
   192
  0
VERTEX
  5
390
330
323
100
AcDbEntity
  8
ｴｸｽﾃﾘｱ商品
 62
   250
370
    20
100
AcDbVertex
100
AcDbPolyFaceMeshVertex
 10
973.1284276879899
 20
0.0
 30
335.2556623684293
 70
   192
  0
VERTEX
  5
391
330
323
100
AcDbEntity
  8
ｴｸｽﾃﾘｱ商品
 62
   250
370
    20
100
AcDbVertex
100
AcDbPolyFaceMeshVertex
 10
970.1337922063583
 20
-5.196152422706632
 30
351.53962775254
 70
   192
  0
VERTEX
  5
392
330
323
100
AcDbEntity
  8
ｴｸｽﾃﾘｱ商品
 62
   250
370
    20
100
AcDbVertex
100
AcDbPolyFaceMeshVertex
 10
966.8662077936417
 20
-5.196152422706634
 30
346.2603722474602
 70
   192
  0
VERTEX
  5
393
330
323
100
AcDbEntity
  8
ｴｸｽﾃﾘｱ商品
 62
   250
370
    20
100
AcDbVertex
100
AcDbPolyFaceMeshVertex
 10
971.7675844127165
 20
0.0000000000000007
 30
354.1792555050799
 70
   192
  0
VERTEX
  5
394
330
323
100
AcDbEntity
  8
ｴｸｽﾃﾘｱ商品
 62
   250
370
    20
100
AcDbVertex
100
AcDbPolyFaceMeshVertex
 10
970.1337922063583
 20
5.196152422706634
 30
351.53962775254
 70
   192
  0
VERTEX
  5
395
330
323
100
AcDbEntity
  8
ｴｸｽﾃﾘｱ商品
 62
   250
370
    20
100
AcDbVertex
100
AcDbPolyFaceMeshVertex
 10
966.8662077936417
 20
5.196152422706634
 30
346.2603722474602
 70
   192
  0
VERTEX
  5
396
330
323
100
AcDbEntity
  8
ｴｸｽﾃﾘｱ商品
 62
   250
370
    20
100
AcDbVertex
100
AcDbPolyFaceMeshVertex
 10
965.2324155872835
 20
0.0
 30
343.6207444949202
 70
   192
  0
VERTEX
  5
397
330
323
100
AcDbEntity
  8
ｴｸｽﾃﾘｱ商品
 62
   250
370
    20
100
AcDbVertex
100
AcDbPolyFaceMeshVertex
 10
955.3363734916479
 20
-5.196152422706632
 30
356.0236940297249
 70
   192
  0
VERTEX
  5
398
330
323
100
AcDbEntity
  8
ｴｸｽﾃﾘｱ商品
 62
   250
370
    20
100
AcDbVertex
100
AcDbPolyFaceMeshVertex
 10
955.2636265083522
 20
-5.196152422706634
 30
349.7763059702751
 70
   192
  0
VERTEX
  5
399
330
323
100
AcDbEntity
  8
ｴｸｽﾃﾘｱ商品
 62
   250
370
    20
100
AcDbVertex
100
AcDbPolyFaceMeshVertex
 10
955.3727469832959
 20
0.0000000000000007
 30
359.1473880594498
 70
   192
  0
VERTEX
  5
39A
330
323
100
AcDbEntity
  8
ｴｸｽﾃﾘｱ商品
 62
   250
370
    20
100
AcDbVertex
100
AcDbPolyFaceMeshVertex
 10
955.3363734916479
 20
5.196152422706634
 30
356.0236940297249
 70
   192
  0
VERTEX
  5
39B
330
323
100
AcDbEntity
  8
ｴｸｽﾃﾘｱ商品
 62
   250
370
    20
100
AcDbVertex
100
AcDbPolyFaceMeshVertex
 10
955.2636265083522
 20
5.196152422706634
 30
349.7763059702751
 70
   192
  0
VERTEX
  5
39C
330
323
100
AcDbEntity
  8
ｴｸｽﾃﾘｱ商品
 62
   250
370
    20
100
AcDbVertex
100
AcDbPolyFaceMeshVertex
 10
955.2272530167041
 20
0.0
 30
346.6526119405503
 70
   192
  0
VERTEX
  5
39D
330
323
100
AcDbEntity
  8
ｴｸｽﾃﾘｱ商品
 62
   250
370
    20
100
AcDbVertex
100
AcDbPolyFaceMeshVertex
 10
941.0486453666884
 20
-5.196152422706632
 30
352.0548806616806
 70
   192
  0
VERTEX
  5
39E
330
323
100
AcDbEntity
  8
ｴｸｽﾃﾘｱ商品
 62
   250
370
    20
100
AcDbVertex
100
AcDbPolyFaceMeshVertex
 10
944.3513546333118
 20
-5.196152422706634
 30
346.7451193383195
 70
   192
  0
VERTEX
  5
39F
330
323
100
AcDbEntity
  8
ｴｸｽﾃﾘｱ商品
 62
   250
370
    20
100
AcDbVertex
100
AcDbPolyFaceMeshVertex
 10
939.3972907333767
 20
0.0000000000000007
 30
354.7097613233611
 70
   192
  0
VERTEX
  5
3A0
330
323
100
AcDbEntity
  8
ｴｸｽﾃﾘｱ商品
 62
   250
370
    20
100
AcDbVertex
100
AcDbPolyFaceMeshVertex
 10
941.0486453666884
 20
5.196152422706634
 30
352.0548806616806
 70
   192
  0
VERTEX
  5
3A1
330
323
100
AcDbEntity
  8
ｴｸｽﾃﾘｱ商品
 62
   250
370
    20
100
AcDbVertex
100
AcDbPolyFaceMeshVertex
 10
944.3513546333118
 20
5.196152422706634
 30
346.7451193383195
 70
   192
  0
VERTEX
  5
3A2
330
323
100
AcDbEntity
  8
ｴｸｽﾃﾘｱ商品
 62
   250
370
    20
100
AcDbVertex
100
AcDbPolyFaceMeshVertex
 10
946.0027092666235
 20
0.0
 30
344.0902386766389
 70
   192
  0
VERTEX
  5
3A3
330
323
100
AcDbEntity
  8
ｴｸｽﾃﾘｱ商品
 62
   250
370
    20
100
AcDbVertex
100
AcDbPolyFaceMeshVertex
 10
929.9030284088072
 20
-5.196152422706632
 30
339.5717896688536
 70
   192
  0
VERTEX
  5
3A4
330
323
100
AcDbEntity
  8
ｴｸｽﾃﾘｱ商品
 62
   250
370
    20
100
AcDbVertex
100
AcDbPolyFaceMeshVertex
 10
935.496971591193
 20
-5.196152422706634
 30
336.8282103311464
 70
   192
  0
VERTEX
  5
3A5
330
323
100
AcDbEntity
  8
ｴｸｽﾃﾘｱ商品
 62
   250
370
    20
100
AcDbVertex
100
AcDbPolyFaceMeshVertex
 10
927.1060568176142
 20
0.0000000000000007
 30
340.9435793377072
 70
   192
  0
VERTEX
  5
3A6
330
323
100
AcDbEntity
  8
ｴｸｽﾃﾘｱ商品
 62
   250
370
    20
100
AcDbVertex
100
AcDbPolyFaceMeshVertex
 10
929.9030284088072
 20
5.196152422706634
 30
339.5717896688536
 70
   192
  0
VERTEX
  5
3A7
330
323
100
AcDbEntity
  8
ｴｸｽﾃﾘｱ商品
 62
   250
370
    20
100
AcDbVertex
100
AcDbPolyFaceMeshVertex
 10
935.496971591193
 20
5.196152422706634
 30
336.8282103311464
 70
   192
  0
VERTEX
  5
3A8
330
323
100
AcDbEntity
  8
ｴｸｽﾃﾘｱ商品
 62
   250
370
    20
100
AcDbVertex
100
AcDbPolyFaceMeshVertex
 10
938.2939431823859
 20
0.0
 30
335.4564206622928
 70
   192
  0
VERTEX
  5
3A9
330
323
100
AcDbEntity
  8
ｴｸｽﾃﾘｱ商品
 62
   250
370
    20
100
AcDbVertex
100
AcDbPolyFaceMeshVertex
 10
928.674323802859
 20
-5.196152422706632
 30
332.9367847967332
 70
   192
  0
VERTEX
  5
3AA
330
323
100
AcDbEntity
  8
ｴｸｽﾃﾘｱ商品
 62
   250
370
    20
100
AcDbVertex
100
AcDbPolyFaceMeshVertex
 10
934.7256761971412
 20
-5.196152422706634
 30
332.6632152032669
 70
   192
  0
VERTEX
  5
3AB
330
323
100
AcDbEntity
  8
ｴｸｽﾃﾘｱ商品
 62
   250
370
    20
100
AcDbVertex
100
AcDbPolyFaceMeshVertex
 10
925.6486476057179
 20
0.0000000000000007
 30
333.0735695934664
 70
   192
  0
VERTEX
  5
3AC
330
323
100
AcDbEntity
  8
ｴｸｽﾃﾘｱ商品
 62
   250
370
    20
100
AcDbVertex
100
AcDbPolyFaceMeshVertex
 10
928.674323802859
 20
5.196152422706634
 30
332.9367847967332
 70
   192
  0
VERTEX
  5
3AD
330
323
100
AcDbEntity
  8
ｴｸｽﾃﾘｱ商品
 62
   250
370
    20
100
AcDbVertex
100
AcDbPolyFaceMeshVertex
 10
934.7256761971412
 20
5.196152422706634
 30
332.6632152032669
 70
   192
  0
VERTEX
  5
3AE
330
323
100
AcDbEntity
  8
ｴｸｽﾃﾘｱ商品
 62
   250
370
    20
100
AcDbVertex
100
AcDbPolyFaceMeshVertex
 10
937.7513523942823
 20
0.0
 30
332.5264304065337
 70
   192
  0
VERTEX
  5
3AF
330
323
100
AcDbEntity
  8
ｴｸｽﾃﾘｱ商品
 62
   250
370
    20
100
AcDbFaceRecord
 10
0.0
 20
0.0
 30
0.0
 70
   128
 71
     1
 72
     2
 73
     3
 74
     4
  0
VERTEX
  5
3B0
330
323
100
AcDbEntity
  8
ｴｸｽﾃﾘｱ商品
 62
   250
370
    20
100
AcDbFaceRecord
 10
0.0
 20
0.0
 30
0.0
 70
   128
 71
     2
 72
     5
 73
     6
 74
     3
  0
VERTEX
  5
3B1
330
323
100
AcDbEntity
  8
ｴｸｽﾃﾘｱ商品
 62
   250
370
    20
100
AcDbFaceRecord
 10
0.0
 20
0.0
 30
0.0
 70
   128
 71
     5
 72
     7
 73
     8
 74
     6
  0
VERTEX
  5
3B2
330
323
100
AcDbEntity
  8
ｴｸｽﾃﾘｱ商品
 62
   250
370
    20
100
AcDbFaceRecord
 10
0.0
 20
0.0
 30
0.0
 70
   128
 71
     7
 72
     9
 73
    10
 74
     8
  0
VERTEX
  5
3B3
330
323
100
AcDbEntity
  8
ｴｸｽﾃﾘｱ商品
 62
   250
370
    20
100
AcDbFaceRecord
 10
0.0
 20
0.0
 30
0.0
 70
   128
 71
     9
 72
    11
 73
    12
 74
    10
  0
VERTEX
  5
3B4
330
323
100
AcDbEntity
  8
ｴｸｽﾃﾘｱ商品
 62
   250
370
    20
100
AcDbFaceRecord
 10
0.0
 20
0.0
 30
0.0
 70
   128
 71
    11
 72
     1
 73
     4
 74
    12
  0
VERTEX
  5
3B5
330
323
100
AcDbEntity
  8
ｴｸｽﾃﾘｱ商品
 62
   250
370
    20
100
AcDbFaceRecord
 10
0.0
 20
0.0
 30
0.0
 70
   128
 71
     4
 72
     3
 73
    13
 74
    14
  0
VERTEX
  5
3B6
330
323
100
AcDbEntity
  8
ｴｸｽﾃﾘｱ商品
 62
   250
370
    20
100
AcDbFaceRecord
 10
0.0
 20
0.0
 30
0.0
 70
   128
 71
     3
 72
     6
 73
    15
 74
    13
  0
VERTEX
  5
3B7
330
323
100
AcDbEntity
  8
ｴｸｽﾃﾘｱ商品
 62
   250
370
    20
100
AcDbFaceRecord
 10
0.0
 20
0.0
 30
0.0
 70
   128
 71
     6
 72
     8
 73
    16
 74
    15
  0
VERTEX
  5
3B8
330
323
100
AcDbEntity
  8
ｴｸｽﾃﾘｱ商品
 62
   250
370
    20
100
AcDbFaceRecord
 10
0.0
 20
0.0
 30
0.0
 70
   128
 71
     8
 72
    10
 73
    17
 74
    16
  0
VERTEX
  5
3B9
330
323
100
AcDbEntity
  8
ｴｸｽﾃﾘｱ商品
 62
   250
370
    20
100
AcDbFaceRecord
 10
0.0
 20
0.0
 30
0.0
 70
   128
 71
    10
 72
    12
 73
    18
 74
    17
  0
VERTEX
  5
3BA
330
323
100
AcDbEntity
  8
ｴｸｽﾃﾘｱ商品
 62
   250
370
    20
100
AcDbFaceRecord
 10
0.0
 20
0.0
 30
0.0
 70
   128
 71
    12
 72
     4
 73
    14
 74
    18
  0
VERTEX
  5
3BB
330
323
100
AcDbEntity
  8
ｴｸｽﾃﾘｱ商品
 62
   250
370
    20
100
AcDbFaceRecord
 10
0.0
 20
0.0
 30
0.0
 70
   128
 71
    14
 72
    13
 73
    19
 74
    20
  0
VERTEX
  5
3BC
330
323
100
AcDbEntity
  8
ｴｸｽﾃﾘｱ商品
 62
   250
370
    20
100
AcDbFaceRecord
 10
0.0
 20
0.0
 30
0.0
 70
   128
 71
    13
 72
    15
 73
    21
 74
    19
  0
VERTEX
  5
3BD
330
323
100
AcDbEntity
  8
ｴｸｽﾃﾘｱ商品
 62
   250
370
    20
100
AcDbFaceRecord
 10
0.0
 20
0.0
 30
0.0
 70
   128
 71
    15
 72
    16
 73
    22
 74
    21
  0
VERTEX
  5
3BE
330
323
100
AcDbEntity
  8
ｴｸｽﾃﾘｱ商品
 62
   250
370
    20
100
AcDbFaceRecord
 10
0.0
 20
0.0
 30
0.0
 70
   128
 71
    16
 72
    17
 73
    23
 74
    22
  0
VERTEX
  5
3BF
330
323
100
AcDbEntity
  8
ｴｸｽﾃﾘｱ商品
 62
   250
370
    20
100
AcDbFaceRecord
 10
0.0
 20
0.0
 30
0.0
 70
   128
 71
    17
 72
    18
 73
    24
 74
    23
  0
VERTEX
  5
3C0
330
323
100
AcDbEntity
  8
ｴｸｽﾃﾘｱ商品
 62
   250
370
    20
100
AcDbFaceRecord
 10
0.0
 20
0.0
 30
0.0
 70
   128
 71
    18
 72
    14
 73
    20
 74
    24
  0
VERTEX
  5
3C1
330
323
100
AcDbEntity
  8
ｴｸｽﾃﾘｱ商品
 62
   250
370
    20
100
AcDbFaceRecord
 10
0.0
 20
0.0
 30
0.0
 70
   128
 71
    20
 72
    19
 73
    25
 74
    26
  0
VERTEX
  5
3C2
330
323
100
AcDbEntity
  8
ｴｸｽﾃﾘｱ商品
 62
   250
370
    20
100
AcDbFaceRecord
 10
0.0
 20
0.0
 30
0.0
 70
   128
 71
    19
 72
    21
 73
    27
 74
    25
  0
VERTEX
  5
3C3
330
323
100
AcDbEntity
  8
ｴｸｽﾃﾘｱ商品
 62
   250
370
    20
100
AcDbFaceRecord
 10
0.0
 20
0.0
 30
0.0
 70
   128
 71
    21
 72
    22
 73
    28
 74
    27
  0
VERTEX
  5
3C4
330
323
100
AcDbEntity
  8
ｴｸｽﾃﾘｱ商品
 62
   250
370
    20
100
AcDbFaceRecord
 10
0.0
 20
0.0
 30
0.0
 70
   128
 71
    22
 72
    23
 73
    29
 74
    28
  0
VERTEX
  5
3C5
330
323
100
AcDbEntity
  8
ｴｸｽﾃﾘｱ商品
 62
   250
370
    20
100
AcDbFaceRecord
 10
0.0
 20
0.0
 30
0.0
 70
   128
 71
    23
 72
    24
 73
    30
 74
    29
  0
VERTEX
  5
3C6
330
323
100
AcDbEntity
  8
ｴｸｽﾃﾘｱ商品
 62
   250
370
    20
100
AcDbFaceRecord
 10
0.0
 20
0.0
 30
0.0
 70
   128
 71
    24
 72
    20
 73
    26
 74
    30
  0
VERTEX
  5
3C7
330
323
100
AcDbEntity
  8
ｴｸｽﾃﾘｱ商品
 62
   250
370
    20
100
AcDbFaceRecord
 10
0.0
 20
0.0
 30
0.0
 70
   128
 71
    26
 72
    25
 73
    31
 74
    32
  0
VERTEX
  5
3C8
330
323
100
AcDbEntity
  8
ｴｸｽﾃﾘｱ商品
 62
   250
370
    20
100
AcDbFaceRecord
 10
0.0
 20
0.0
 30
0.0
 70
   128
 71
    25
 72
    27
 73
    33
 74
    31
  0
VERTEX
  5
3C9
330
323
100
AcDbEntity
  8
ｴｸｽﾃﾘｱ商品
 62
   250
370
    20
100
AcDbFaceRecord
 10
0.0
 20
0.0
 30
0.0
 70
   128
 71
    27
 72
    28
 73
    34
 74
    33
  0
VERTEX
  5
3CA
330
323
100
AcDbEntity
  8
ｴｸｽﾃﾘｱ商品
 62
   250
370
    20
100
AcDbFaceRecord
 10
0.0
 20
0.0
 30
0.0
 70
   128
 71
    28
 72
    29
 73
    35
 74
    34
  0
VERTEX
  5
3CB
330
323
100
AcDbEntity
  8
ｴｸｽﾃﾘｱ商品
 62
   250
370
    20
100
AcDbFaceRecord
 10
0.0
 20
0.0
 30
0.0
 70
   128
 71
    29
 72
    30
 73
    36
 74
    35
  0
VERTEX
  5
3CC
330
323
100
AcDbEntity
  8
ｴｸｽﾃﾘｱ商品
 62
   250
370
    20
100
AcDbFaceRecord
 10
0.0
 20
0.0
 30
0.0
 70
   128
 71
    30
 72
    26
 73
    32
 74
    36
  0
VERTEX
  5
3CD
330
323
100
AcDbEntity
  8
ｴｸｽﾃﾘｱ商品
 62
   250
370
    20
100
AcDbFaceRecord
 10
0.0
 20
0.0
 30
0.0
 70
   128
 71
    32
 72
    31
 73
    37
 74
    38
  0
VERTEX
  5
3CE
330
323
100
AcDbEntity
  8
ｴｸｽﾃﾘｱ商品
 62
   250
370
    20
100
AcDbFaceRecord
 10
0.0
 20
0.0
 30
0.0
 70
   128
 71
    31
 72
    33
 73
    39
 74
    37
  0
VERTEX
  5
3CF
330
323
100
AcDbEntity
  8
ｴｸｽﾃﾘｱ商品
 62
   250
370
    20
100
AcDbFaceRecord
 10
0.0
 20
0.0
 30
0.0
 70
   128
 71
    33
 72
    34
 73
    40
 74
    39
  0
VERTEX
  5
3D0
330
323
100
AcDbEntity
  8
ｴｸｽﾃﾘｱ商品
 62
   250
370
    20
100
AcDbFaceRecord
 10
0.0
 20
0.0
 30
0.0
 70
   128
 71
    34
 72
    35
 73
    41
 74
    40
  0
VERTEX
  5
3D1
330
323
100
AcDbEntity
  8
ｴｸｽﾃﾘｱ商品
 62
   250
370
    20
100
AcDbFaceRecord
 10
0.0
 20
0.0
 30
0.0
 70
   128
 71
    35
 72
    36
 73
    42
 74
    41
  0
VERTEX
  5
3D2
330
323
100
AcDbEntity
  8
ｴｸｽﾃﾘｱ商品
 62
   250
370
    20
100
AcDbFaceRecord
 10
0.0
 20
0.0
 30
0.0
 70
   128
 71
    36
 72
    32
 73
    38
 74
    42
  0
VERTEX
  5
3D3
330
323
100
AcDbEntity
  8
ｴｸｽﾃﾘｱ商品
 62
   250
370
    20
100
AcDbFaceRecord
 10
0.0
 20
0.0
 30
0.0
 70
   128
 71
    38
 72
    37
 73
    43
 74
    44
  0
VERTEX
  5
3D4
330
323
100
AcDbEntity
  8
ｴｸｽﾃﾘｱ商品
 62
   250
370
    20
100
AcDbFaceRecord
 10
0.0
 20
0.0
 30
0.0
 70
   128
 71
    37
 72
    39
 73
    45
 74
    43
  0
VERTEX
  5
3D5
330
323
100
AcDbEntity
  8
ｴｸｽﾃﾘｱ商品
 62
   250
370
    20
100
AcDbFaceRecord
 10
0.0
 20
0.0
 30
0.0
 70
   128
 71
    39
 72
    40
 73
    46
 74
    45
  0
VERTEX
  5
3D6
330
323
100
AcDbEntity
  8
ｴｸｽﾃﾘｱ商品
 62
   250
370
    20
100
AcDbFaceRecord
 10
0.0
 20
0.0
 30
0.0
 70
   128
 71
    40
 72
    41
 73
    47
 74
    46
  0
VERTEX
  5
3D7
330
323
100
AcDbEntity
  8
ｴｸｽﾃﾘｱ商品
 62
   250
370
    20
100
AcDbFaceRecord
 10
0.0
 20
0.0
 30
0.0
 70
   128
 71
    41
 72
    42
 73
    48
 74
    47
  0
VERTEX
  5
3D8
330
323
100
AcDbEntity
  8
ｴｸｽﾃﾘｱ商品
 62
   250
370
    20
100
AcDbFaceRecord
 10
0.0
 20
0.0
 30
0.0
 70
   128
 71
    42
 72
    38
 73
    44
 74
    48
  0
VERTEX
  5
3D9
330
323
100
AcDbEntity
  8
ｴｸｽﾃﾘｱ商品
 62
   250
370
    20
100
AcDbFaceRecord
 10
0.0
 20
0.0
 30
0.0
 70
   128
 71
    44
 72
    43
 73
    49
 74
    50
  0
VERTEX
  5
3DA
330
323
100
AcDbEntity
  8
ｴｸｽﾃﾘｱ商品
 62
   250
370
    20
100
AcDbFaceRecord
 10
0.0
 20
0.0
 30
0.0
 70
   128
 71
    43
 72
    45
 73
    51
 74
    49
  0
VERTEX
  5
3DB
330
323
100
AcDbEntity
  8
ｴｸｽﾃﾘｱ商品
 62
   250
370
    20
100
AcDbFaceRecord
 10
0.0
 20
0.0
 30
0.0
 70
   128
 71
    45
 72
    46
 73
    52
 74
    51
  0
VERTEX
  5
3DC
330
323
100
AcDbEntity
  8
ｴｸｽﾃﾘｱ商品
 62
   250
370
    20
100
AcDbFaceRecord
 10
0.0
 20
0.0
 30
0.0
 70
   128
 71
    46
 72
    47
 73
    53
 74
    52
  0
VERTEX
  5
3DD
330
323
100
AcDbEntity
  8
ｴｸｽﾃﾘｱ商品
 62
   250
370
    20
100
AcDbFaceRecord
 10
0.0
 20
0.0
 30
0.0
 70
   128
 71
    47
 72
    48
 73
    54
 74
    53
  0
VERTEX
  5
3DE
330
323
100
AcDbEntity
  8
ｴｸｽﾃﾘｱ商品
 62
   250
370
    20
100
AcDbFaceRecord
 10
0.0
 20
0.0
 30
0.0
 70
   128
 71
    48
 72
    44
 73
    50
 74
    54
  0
VERTEX
  5
3DF
330
323
100
AcDbEntity
  8
ｴｸｽﾃﾘｱ商品
 62
   250
370
    20
100
AcDbFaceRecord
 10
0.0
 20
0.0
 30
0.0
 70
   128
 71
    50
 72
    49
 73
    55
 74
    56
  0
VERTEX
  5
3E0
330
323
100
AcDbEntity
  8
ｴｸｽﾃﾘｱ商品
 62
   250
370
    20
100
AcDbFaceRecord
 10
0.0
 20
0.0
 30
0.0
 70
   128
 71
    49
 72
    51
 73
    57
 74
    55
  0
VERTEX
  5
3E1
330
323
100
AcDbEntity
  8
ｴｸｽﾃﾘｱ商品
 62
   250
370
    20
100
AcDbFaceRecord
 10
0.0
 20
0.0
 30
0.0
 70
   128
 71
    51
 72
    52
 73
    58
 74
    57
  0
VERTEX
  5
3E2
330
323
100
AcDbEntity
  8
ｴｸｽﾃﾘｱ商品
 62
   250
370
    20
100
AcDbFaceRecord
 10
0.0
 20
0.0
 30
0.0
 70
   128
 71
    52
 72
    53
 73
    59
 74
    58
  0
VERTEX
  5
3E3
330
323
100
AcDbEntity
  8
ｴｸｽﾃﾘｱ商品
 62
   250
370
    20
100
AcDbFaceRecord
 10
0.0
 20
0.0
 30
0.0
 70
   128
 71
    53
 72
    54
 73
    60
 74
    59
  0
VERTEX
  5
3E4
330
323
100
AcDbEntity
  8
ｴｸｽﾃﾘｱ商品
 62
   250
370
    20
100
AcDbFaceRecord
 10
0.0
 20
0.0
 30
0.0
 70
   128
 71
    54
 72
    50
 73
    56
 74
    60
  0
VERTEX
  5
3E5
330
323
100
AcDbEntity
  8
ｴｸｽﾃﾘｱ商品
 62
   250
370
    20
100
AcDbFaceRecord
 10
0.0
 20
0.0
 30
0.0
 70
   128
 71
    56
 72
    55
 73
    61
 74
    62
  0
VERTEX
  5
3E6
330
323
100
AcDbEntity
  8
ｴｸｽﾃﾘｱ商品
 62
   250
370
    20
100
AcDbFaceRecord
 10
0.0
 20
0.0
 30
0.0
 70
   128
 71
    55
 72
    57
 73
    63
 74
    61
  0
VERTEX
  5
3E7
330
323
100
AcDbEntity
  8
ｴｸｽﾃﾘｱ商品
 62
   250
370
    20
100
AcDbFaceRecord
 10
0.0
 20
0.0
 30
0.0
 70
   128
 71
    57
 72
    58
 73
    64
 74
    63
  0
VERTEX
  5
3E8
330
323
100
AcDbEntity
  8
ｴｸｽﾃﾘｱ商品
 62
   250
370
    20
100
AcDbFaceRecord
 10
0.0
 20
0.0
 30
0.0
 70
   128
 71
    58
 72
    59
 73
    65
 74
    64
  0
VERTEX
  5
3E9
330
323
100
AcDbEntity
  8
ｴｸｽﾃﾘｱ商品
 62
   250
370
    20
100
AcDbFaceRecord
 10
0.0
 20
0.0
 30
0.0
 70
   128
 71
    59
 72
    60
 73
    66
 74
    65
  0
VERTEX
  5
3EA
330
323
100
AcDbEntity
  8
ｴｸｽﾃﾘｱ商品
 62
   250
370
    20
100
AcDbFaceRecord
 10
0.0
 20
0.0
 30
0.0
 70
   128
 71
    60
 72
    56
 73
    62
 74
    66
  0
VERTEX
  5
3EB
330
323
100
AcDbEntity
  8
ｴｸｽﾃﾘｱ商品
 62
   250
370
    20
100
AcDbFaceRecord
 10
0.0
 20
0.0
 30
0.0
 70
   128
 71
    62
 72
    61
 73
    67
 74
    68
  0
VERTEX
  5
3EC
330
323
100
AcDbEntity
  8
ｴｸｽﾃﾘｱ商品
 62
   250
370
    20
100
AcDbFaceRecord
 10
0.0
 20
0.0
 30
0.0
 70
   128
 71
    61
 72
    63
 73
    69
 74
    67
  0
VERTEX
  5
3ED
330
323
100
AcDbEntity
  8
ｴｸｽﾃﾘｱ商品
 62
   250
370
    20
100
AcDbFaceRecord
 10
0.0
 20
0.0
 30
0.0
 70
   128
 71
    63
 72
    64
 73
    70
 74
    69
  0
VERTEX
  5
3EE
330
323
100
AcDbEntity
  8
ｴｸｽﾃﾘｱ商品
 62
   250
370
    20
100
AcDbFaceRecord
 10
0.0
 20
0.0
 30
0.0
 70
   128
 71
    64
 72
    65
 73
    71
 74
    70
  0
VERTEX
  5
3EF
330
323
100
AcDbEntity
  8
ｴｸｽﾃﾘｱ商品
 62
   250
370
    20
100
AcDbFaceRecord
 10
0.0
 20
0.0
 30
0.0
 70
   128
 71
    65
 72
    66
 73
    72
 74
    71
  0
VERTEX
  5
3F0
330
323
100
AcDbEntity
  8
ｴｸｽﾃﾘｱ商品
 62
   250
370
    20
100
AcDbFaceRecord
 10
0.0
 20
0.0
 30
0.0
 70
   128
 71
    66
 72
    62
 73
    68
 74
    72
  0
VERTEX
  5
3F1
330
323
100
AcDbEntity
  8
ｴｸｽﾃﾘｱ商品
 62
   250
370
    20
100
AcDbFaceRecord
 10
0.0
 20
0.0
 30
0.0
 70
   128
 71
    68
 72
    67
 73
    73
 74
    74
  0
VERTEX
  5
3F2
330
323
100
AcDbEntity
  8
ｴｸｽﾃﾘｱ商品
 62
   250
370
    20
100
AcDbFaceRecord
 10
0.0
 20
0.0
 30
0.0
 70
   128
 71
    67
 72
    69
 73
    75
 74
    73
  0
VERTEX
  5
3F3
330
323
100
AcDbEntity
  8
ｴｸｽﾃﾘｱ商品
 62
   250
370
    20
100
AcDbFaceRecord
 10
0.0
 20
0.0
 30
0.0
 70
   128
 71
    69
 72
    70
 73
    76
 74
    75
  0
VERTEX
  5
3F4
330
323
100
AcDbEntity
  8
ｴｸｽﾃﾘｱ商品
 62
   250
370
    20
100
AcDbFaceRecord
 10
0.0
 20
0.0
 30
0.0
 70
   128
 71
    70
 72
    71
 73
    77
 74
    76
  0
VERTEX
  5
3F5
330
323
100
AcDbEntity
  8
ｴｸｽﾃﾘｱ商品
 62
   250
370
    20
100
AcDbFaceRecord
 10
0.0
 20
0.0
 30
0.0
 70
   128
 71
    71
 72
    72
 73
    78
 74
    77
  0
VERTEX
  5
3F6
330
323
100
AcDbEntity
  8
ｴｸｽﾃﾘｱ商品
 62
   250
370
    20
100
AcDbFaceRecord
 10
0.0
 20
0.0
 30
0.0
 70
   128
 71
    72
 72
    68
 73
    74
 74
    78
  0
VERTEX
  5
3F7
330
323
100
AcDbEntity
  8
ｴｸｽﾃﾘｱ商品
 62
   250
370
    20
100
AcDbFaceRecord
 10
0.0
 20
0.0
 30
0.0
 70
   128
 71
    74
 72
    73
 73
    79
 74
    80
  0
VERTEX
  5
3F8
330
323
100
AcDbEntity
  8
ｴｸｽﾃﾘｱ商品
 62
   250
370
    20
100
AcDbFaceRecord
 10
0.0
 20
0.0
 30
0.0
 70
   128
 71
    73
 72
    75
 73
    81
 74
    79
  0
VERTEX
  5
3F9
330
323
100
AcDbEntity
  8
ｴｸｽﾃﾘｱ商品
 62
   250
370
    20
100
AcDbFaceRecord
 10
0.0
 20
0.0
 30
0.0
 70
   128
 71
    75
 72
    76
 73
    82
 74
    81
  0
VERTEX
  5
3FA
330
323
100
AcDbEntity
  8
ｴｸｽﾃﾘｱ商品
 62
   250
370
    20
100
AcDbFaceRecord
 10
0.0
 20
0.0
 30
0.0
 70
   128
 71
    76
 72
    77
 73
    83
 74
    82
  0
VERTEX
  5
3FB
330
323
100
AcDbEntity
  8
ｴｸｽﾃﾘｱ商品
 62
   250
370
    20
100
AcDbFaceRecord
 10
0.0
 20
0.0
 30
0.0
 70
   128
 71
    77
 72
    78
 73
    84
 74
    83
  0
VERTEX
  5
3FC
330
323
100
AcDbEntity
  8
ｴｸｽﾃﾘｱ商品
 62
   250
370
    20
100
AcDbFaceRecord
 10
0.0
 20
0.0
 30
0.0
 70
   128
 71
    78
 72
    74
 73
    80
 74
    84
  0
VERTEX
  5
3FD
330
323
100
AcDbEntity
  8
ｴｸｽﾃﾘｱ商品
 62
   250
370
    20
100
AcDbFaceRecord
 10
0.0
 20
0.0
 30
0.0
 70
   128
 71
    80
 72
    79
 73
    85
 74
    86
  0
VERTEX
  5
3FE
330
323
100
AcDbEntity
  8
ｴｸｽﾃﾘｱ商品
 62
   250
370
    20
100
AcDbFaceRecord
 10
0.0
 20
0.0
 30
0.0
 70
   128
 71
    79
 72
    81
 73
    87
 74
    85
  0
VERTEX
  5
3FF
330
323
100
AcDbEntity
  8
ｴｸｽﾃﾘｱ商品
 62
   250
370
    20
100
AcDbFaceRecord
 10
0.0
 20
0.0
 30
0.0
 70
   128
 71
    81
 72
    82
 73
    88
 74
    87
  0
VERTEX
  5
400
330
323
100
AcDbEntity
  8
ｴｸｽﾃﾘｱ商品
 62
   250
370
    20
100
AcDbFaceRecord
 10
0.0
 20
0.0
 30
0.0
 70
   128
 71
    82
 72
    83
 73
    89
 74
    88
  0
VERTEX
  5
401
330
323
100
AcDbEntity
  8
ｴｸｽﾃﾘｱ商品
 62
   250
370
    20
100
AcDbFaceRecord
 10
0.0
 20
0.0
 30
0.0
 70
   128
 71
    83
 72
    84
 73
    90
 74
    89
  0
VERTEX
  5
402
330
323
100
AcDbEntity
  8
ｴｸｽﾃﾘｱ商品
 62
   250
370
    20
100
AcDbFaceRecord
 10
0.0
 20
0.0
 30
0.0
 70
   128
 71
    84
 72
    80
 73
    86
 74
    90
  0
VERTEX
  5
403
330
323
100
AcDbEntity
  8
ｴｸｽﾃﾘｱ商品
 62
   250
370
    20
100
AcDbFaceRecord
 10
0.0
 20
0.0
 30
0.0
 70
   128
 71
    86
 72
    85
 73
    91
 74
    92
  0
VERTEX
  5
404
330
323
100
AcDbEntity
  8
ｴｸｽﾃﾘｱ商品
 62
   250
370
    20
100
AcDbFaceRecord
 10
0.0
 20
0.0
 30
0.0
 70
   128
 71
    85
 72
    87
 73
    93
 74
    91
  0
VERTEX
  5
405
330
323
100
AcDbEntity
  8
ｴｸｽﾃﾘｱ商品
 62
   250
370
    20
100
AcDbFaceRecord
 10
0.0
 20
0.0
 30
0.0
 70
   128
 71
    87
 72
    88
 73
    94
 74
    93
  0
VERTEX
  5
406
330
323
100
AcDbEntity
  8
ｴｸｽﾃﾘｱ商品
 62
   250
370
    20
100
AcDbFaceRecord
 10
0.0
 20
0.0
 30
0.0
 70
   128
 71
    88
 72
    89
 73
    95
 74
    94
  0
VERTEX
  5
407
330
323
100
AcDbEntity
  8
ｴｸｽﾃﾘｱ商品
 62
   250
370
    20
100
AcDbFaceRecord
 10
0.0
 20
0.0
 30
0.0
 70
   128
 71
    89
 72
    90
 73
    96
 74
    95
  0
VERTEX
  5
408
330
323
100
AcDbEntity
  8
ｴｸｽﾃﾘｱ商品
 62
   250
370
    20
100
AcDbFaceRecord
 10
0.0
 20
0.0
 30
0.0
 70
   128
 71
    90
 72
    86
 73
    92
 74
    96
  0
VERTEX
  5
409
330
323
100
AcDbEntity
  8
ｴｸｽﾃﾘｱ商品
 62
   250
370
    20
100
AcDbFaceRecord
 10
0.0
 20
0.0
 30
0.0
 70
   128
 71
    92
 72
    91
 73
    97
 74
    98
  0
VERTEX
  5
40A
330
323
100
AcDbEntity
  8
ｴｸｽﾃﾘｱ商品
 62
   250
370
    20
100
AcDbFaceRecord
 10
0.0
 20
0.0
 30
0.0
 70
   128
 71
    91
 72
    93
 73
    99
 74
    97
  0
VERTEX
  5
40B
330
323
100
AcDbEntity
  8
ｴｸｽﾃﾘｱ商品
 62
   250
370
    20
100
AcDbFaceRecord
 10
0.0
 20
0.0
 30
0.0
 70
   128
 71
    93
 72
    94
 73
   100
 74
    99
  0
VERTEX
  5
40C
330
323
100
AcDbEntity
  8
ｴｸｽﾃﾘｱ商品
 62
   250
370
    20
100
AcDbFaceRecord
 10
0.0
 20
0.0
 30
0.0
 70
   128
 71
    94
 72
    95
 73
   101
 74
   100
  0
VERTEX
  5
40D
330
323
100
AcDbEntity
  8
ｴｸｽﾃﾘｱ商品
 62
   250
370
    20
100
AcDbFaceRecord
 10
0.0
 20
0.0
 30
0.0
 70
   128
 71
    95
 72
    96
 73
   102
 74
   101
  0
VERTEX
  5
40E
330
323
100
AcDbEntity
  8
ｴｸｽﾃﾘｱ商品
 62
   250
370
    20
100
AcDbFaceRecord
 10
0.0
 20
0.0
 30
0.0
 70
   128
 71
    96
 72
    92
 73
    98
 74
   102
  0
VERTEX
  5
40F
330
323
100
AcDbEntity
  8
ｴｸｽﾃﾘｱ商品
 62
   250
370
    20
100
AcDbFaceRecord
 10
0.0
 20
0.0
 30
0.0
 70
   128
 71
    98
 72
    97
 73
   103
 74
   104
  0
VERTEX
  5
410
330
323
100
AcDbEntity
  8
ｴｸｽﾃﾘｱ商品
 62
   250
370
    20
100
AcDbFaceRecord
 10
0.0
 20
0.0
 30
0.0
 70
   128
 71
    97
 72
    99
 73
   105
 74
   103
  0
VERTEX
  5
411
330
323
100
AcDbEntity
  8
ｴｸｽﾃﾘｱ商品
 62
   250
370
    20
100
AcDbFaceRecord
 10
0.0
 20
0.0
 30
0.0
 70
   128
 71
    99
 72
   100
 73
   106
 74
   105
  0
VERTEX
  5
412
330
323
100
AcDbEntity
  8
ｴｸｽﾃﾘｱ商品
 62
   250
370
    20
100
AcDbFaceRecord
 10
0.0
 20
0.0
 30
0.0
 70
   128
 71
   100
 72
   101
 73
   107
 74
   106
  0
VERTEX
  5
413
330
323
100
AcDbEntity
  8
ｴｸｽﾃﾘｱ商品
 62
   250
370
    20
100
AcDbFaceRecord
 10
0.0
 20
0.0
 30
0.0
 70
   128
 71
   101
 72
   102
 73
   108
 74
   107
  0
VERTEX
  5
414
330
323
100
AcDbEntity
  8
ｴｸｽﾃﾘｱ商品
 62
   250
370
    20
100
AcDbFaceRecord
 10
0.0
 20
0.0
 30
0.0
 70
   128
 71
   102
 72
    98
 73
   104
 74
   108
  0
VERTEX
  5
415
330
323
100
AcDbEntity
  8
ｴｸｽﾃﾘｱ商品
 62
   250
370
    20
100
AcDbFaceRecord
 10
0.0
 20
0.0
 30
0.0
 70
   128
 71
   104
 72
   103
 73
   109
 74
   110
  0
VERTEX
  5
416
330
323
100
AcDbEntity
  8
ｴｸｽﾃﾘｱ商品
 62
   250
370
    20
100
AcDbFaceRecord
 10
0.0
 20
0.0
 30
0.0
 70
   128
 71
   103
 72
   105
 73
   111
 74
   109
  0
VERTEX
  5
417
330
323
100
AcDbEntity
  8
ｴｸｽﾃﾘｱ商品
 62
   250
370
    20
100
AcDbFaceRecord
 10
0.0
 20
0.0
 30
0.0
 70
   128
 71
   105
 72
   106
 73
   112
 74
   111
  0
VERTEX
  5
418
330
323
100
AcDbEntity
  8
ｴｸｽﾃﾘｱ商品
 62
   250
370
    20
100
AcDbFaceRecord
 10
0.0
 20
0.0
 30
0.0
 70
   128
 71
   106
 72
   107
 73
   113
 74
   112
  0
VERTEX
  5
419
330
323
100
AcDbEntity
  8
ｴｸｽﾃﾘｱ商品
 62
   250
370
    20
100
AcDbFaceRecord
 10
0.0
 20
0.0
 30
0.0
 70
   128
 71
   107
 72
   108
 73
   114
 74
   113
  0
VERTEX
  5
41A
330
323
100
AcDbEntity
  8
ｴｸｽﾃﾘｱ商品
 62
   250
370
    20
100
AcDbFaceRecord
 10
0.0
 20
0.0
 30
0.0
 70
   128
 71
   108
 72
   104
 73
   110
 74
   114
  0
VERTEX
  5
41B
330
323
100
AcDbEntity
  8
ｴｸｽﾃﾘｱ商品
 62
   250
370
    20
100
AcDbFaceRecord
 10
0.0
 20
0.0
 30
0.0
 70
   128
 71
   110
 72
   109
 73
   115
 74
   116
  0
VERTEX
  5
41C
330
323
100
AcDbEntity
  8
ｴｸｽﾃﾘｱ商品
 62
   250
370
    20
100
AcDbFaceRecord
 10
0.0
 20
0.0
 30
0.0
 70
   128
 71
   109
 72
   111
 73
   117
 74
   115
  0
VERTEX
  5
41D
330
323
100
AcDbEntity
  8
ｴｸｽﾃﾘｱ商品
 62
   250
370
    20
100
AcDbFaceRecord
 10
0.0
 20
0.0
 30
0.0
 70
   128
 71
   111
 72
   112
 73
   118
 74
   117
  0
VERTEX
  5
41E
330
323
100
AcDbEntity
  8
ｴｸｽﾃﾘｱ商品
 62
   250
370
    20
100
AcDbFaceRecord
 10
0.0
 20
0.0
 30
0.0
 70
   128
 71
   112
 72
   113
 73
   119
 74
   118
  0
VERTEX
  5
41F
330
323
100
AcDbEntity
  8
ｴｸｽﾃﾘｱ商品
 62
   250
370
    20
100
AcDbFaceRecord
 10
0.0
 20
0.0
 30
0.0
 70
   128
 71
   113
 72
   114
 73
   120
 74
   119
  0
VERTEX
  5
420
330
323
100
AcDbEntity
  8
ｴｸｽﾃﾘｱ商品
 62
   250
370
    20
100
AcDbFaceRecord
 10
0.0
 20
0.0
 30
0.0
 70
   128
 71
   114
 72
   110
 73
   116
 74
   120
  0
VERTEX
  5
421
330
323
100
AcDbEntity
  8
ｴｸｽﾃﾘｱ商品
 62
   250
370
    20
100
AcDbFaceRecord
 10
0.0
 20
0.0
 30
0.0
 70
   128
 71
   116
 72
   115
 73
   121
 74
   122
  0
VERTEX
  5
422
330
323
100
AcDbEntity
  8
ｴｸｽﾃﾘｱ商品
 62
   250
370
    20
100
AcDbFaceRecord
 10
0.0
 20
0.0
 30
0.0
 70
   128
 71
   115
 72
   117
 73
   123
 74
   121
  0
VERTEX
  5
423
330
323
100
AcDbEntity
  8
ｴｸｽﾃﾘｱ商品
 62
   250
370
    20
100
AcDbFaceRecord
 10
0.0
 20
0.0
 30
0.0
 70
   128
 71
   117
 72
   118
 73
   124
 74
   123
  0
VERTEX
  5
424
330
323
100
AcDbEntity
  8
ｴｸｽﾃﾘｱ商品
 62
   250
370
    20
100
AcDbFaceRecord
 10
0.0
 20
0.0
 30
0.0
 70
   128
 71
   118
 72
   119
 73
   125
 74
   124
  0
VERTEX
  5
425
330
323
100
AcDbEntity
  8
ｴｸｽﾃﾘｱ商品
 62
   250
370
    20
100
AcDbFaceRecord
 10
0.0
 20
0.0
 30
0.0
 70
   128
 71
   119
 72
   120
 73
   126
 74
   125
  0
VERTEX
  5
426
330
323
100
AcDbEntity
  8
ｴｸｽﾃﾘｱ商品
 62
   250
370
    20
100
AcDbFaceRecord
 10
0.0
 20
0.0
 30
0.0
 70
   128
 71
   120
 72
   116
 73
   122
 74
   126
  0
VERTEX
  5
427
330
323
100
AcDbEntity
  8
ｴｸｽﾃﾘｱ商品
 62
   250
370
    20
100
AcDbFaceRecord
 10
0.0
 20
0.0
 30
0.0
 70
   128
 71
   122
 72
   121
 73
   127
 74
   128
  0
VERTEX
  5
428
330
323
100
AcDbEntity
  8
ｴｸｽﾃﾘｱ商品
 62
   250
370
    20
100
AcDbFaceRecord
 10
0.0
 20
0.0
 30
0.0
 70
   128
 71
   121
 72
   123
 73
   129
 74
   127
  0
VERTEX
  5
429
330
323
100
AcDbEntity
  8
ｴｸｽﾃﾘｱ商品
 62
   250
370
    20
100
AcDbFaceRecord
 10
0.0
 20
0.0
 30
0.0
 70
   128
 71
   123
 72
   124
 73
   130
 74
   129
  0
VERTEX
  5
42A
330
323
100
AcDbEntity
  8
ｴｸｽﾃﾘｱ商品
 62
   250
370
    20
100
AcDbFaceRecord
 10
0.0
 20
0.0
 30
0.0
 70
   128
 71
   124
 72
   125
 73
   131
 74
   130
  0
VERTEX
  5
42B
330
323
100
AcDbEntity
  8
ｴｸｽﾃﾘｱ商品
 62
   250
370
    20
100
AcDbFaceRecord
 10
0.0
 20
0.0
 30
0.0
 70
   128
 71
   125
 72
   126
 73
   132
 74
   131
  0
VERTEX
  5
42C
330
323
100
AcDbEntity
  8
ｴｸｽﾃﾘｱ商品
 62
   250
370
    20
100
AcDbFaceRecord
 10
0.0
 20
0.0
 30
0.0
 70
   128
 71
   126
 72
   122
 73
   128
 74
   132
  0
VERTEX
  5
42D
330
323
100
AcDbEntity
  8
ｴｸｽﾃﾘｱ商品
 62
   250
370
    20
100
AcDbFaceRecord
 10
0.0
 20
0.0
 30
0.0
 70
   128
 71
   128
 72
   127
 73
   133
 74
   134
  0
VERTEX
  5
42E
330
323
100
AcDbEntity
  8
ｴｸｽﾃﾘｱ商品
 62
   250
370
    20
100
AcDbFaceRecord
 10
0.0
 20
0.0
 30
0.0
 70
   128
 71
   127
 72
   129
 73
   135
 74
   133
  0
VERTEX
  5
42F
330
323
100
AcDbEntity
  8
ｴｸｽﾃﾘｱ商品
 62
   250
370
    20
100
AcDbFaceRecord
 10
0.0
 20
0.0
 30
0.0
 70
   128
 71
   129
 72
   130
 73
   136
 74
   135
  0
VERTEX
  5
430
330
323
100
AcDbEntity
  8
ｴｸｽﾃﾘｱ商品
 62
   250
370
    20
100
AcDbFaceRecord
 10
0.0
 20
0.0
 30
0.0
 70
   128
 71
   130
 72
   131
 73
   137
 74
   136
  0
VERTEX
  5
431
330
323
100
AcDbEntity
  8
ｴｸｽﾃﾘｱ商品
 62
   250
370
    20
100
AcDbFaceRecord
 10
0.0
 20
0.0
 30
0.0
 70
   128
 71
   131
 72
   132
 73
   138
 74
   137
  0
VERTEX
  5
432
330
323
100
AcDbEntity
  8
ｴｸｽﾃﾘｱ商品
 62
   250
370
    20
100
AcDbFaceRecord
 10
0.0
 20
0.0
 30
0.0
 70
   128
 71
   132
 72
   128
 73
   134
 74
   138
  0
VERTEX
  5
433
330
323
100
AcDbEntity
  8
ｴｸｽﾃﾘｱ商品
 62
   250
370
    20
100
AcDbFaceRecord
 10
0.0
 20
0.0
 30
0.0
 70
   128
 71
     1
 72
    11
 73
     9
 74
     7
  0
VERTEX
  5
434
330
323
100
AcDbEntity
  8
ｴｸｽﾃﾘｱ商品
 62
   250
370
    20
100
AcDbFaceRecord
 10
0.0
 20
0.0
 30
0.0
 70
   128
 71
     1
 72
     7
 73
     5
 74
     2
  0
VERTEX
  5
435
330
323
100
AcDbEntity
  8
ｴｸｽﾃﾘｱ商品
 62
   250
370
    20
100
AcDbFaceRecord
 10
0.0
 20
0.0
 30
0.0
 70
   128
 71
   134
 72
   133
 73
   135
 74
   136
  0
VERTEX
  5
436
330
323
100
AcDbEntity
  8
ｴｸｽﾃﾘｱ商品
 62
   250
370
    20
100
AcDbFaceRecord
 10
0.0
 20
0.0
 30
0.0
 70
   128
 71
   134
 72
   136
 73
   137
 74
   138
  0
SEQEND
  5
324
330
323
100
AcDbEntity
  8
ｴｸｽﾃﾘｱ商品
370
    20
  0
POLYLINE
  5
437
330
3C
100
AcDbEntity
  8
ｴｸｽﾃﾘｱ商品
 62
   250
370
    20
100
AcDbPolyFaceMesh
 66
     1
 10
0.0
 20
0.0
 30
0.0
 70
    64
 71
    60
 72
    58
  0
VERTEX
  5
439
330
437
100
AcDbEntity
  8
ｴｸｽﾃﾘｱ商品
 62
   250
370
    20
100
AcDbVertex
100
AcDbPolyFaceMeshVertex
 10
185.255845318834
 20
-5.196152422706634
 30
525.2651652644157
 70
   192
  0
VERTEX
  5
43A
330
437
100
AcDbEntity
  8
ｴｸｽﾃﾘｱ商品
 62
   250
370
    20
100
AcDbVertex
100
AcDbPolyFaceMeshVertex
 10
184.344154681166
 20
-5.196152422706632
 30
519.3348347355844
 70
   192
  0
VERTEX
  5
43B
330
437
100
AcDbEntity
  8
ｴｸｽﾃﾘｱ商品
 62
   250
370
    20
100
AcDbVertex
100
AcDbPolyFaceMeshVertex
 10
252.5544354689853
 20
-5.196152422706632
 30
508.8486275866517
 70
   192
  0
VERTEX
  5
43C
330
437
100
AcDbEntity
  8
ｴｸｽﾃﾘｱ商品
 62
   250
370
    20
100
AcDbVertex
100
AcDbPolyFaceMeshVertex
 10
253.6455645310147
 20
-5.196152422706634
 30
514.7513724133485
 70
   192
  0
VERTEX
  5
43D
330
437
100
AcDbEntity
  8
ｴｸｽﾃﾘｱ商品
 62
   250
370
    20
100
AcDbVertex
100
AcDbPolyFaceMeshVertex
 10
183.888309362332
 20
0.0000000000000007
 30
516.3696694711688
 70
   192
  0
VERTEX
  5
43E
330
437
100
AcDbEntity
  8
ｴｸｽﾃﾘｱ商品
 62
   250
370
    20
100
AcDbVertex
100
AcDbPolyFaceMeshVertex
 10
252.0088709379706
 20
0.0000000000000007
 30
505.8972551733034
 70
   192
  0
VERTEX
  5
43F
330
437
100
AcDbEntity
  8
ｴｸｽﾃﾘｱ商品
 62
   250
370
    20
100
AcDbVertex
100
AcDbPolyFaceMeshVertex
 10
184.344154681166
 20
5.196152422706634
 30
519.3348347355844
 70
   192
  0
VERTEX
  5
440
330
437
100
AcDbEntity
  8
ｴｸｽﾃﾘｱ商品
 62
   250
370
    20
100
AcDbVertex
100
AcDbPolyFaceMeshVertex
 10
252.5544354689853
 20
5.196152422706634
 30
508.8486275866517
 70
   192
  0
VERTEX
  5
441
330
437
100
AcDbEntity
  8
ｴｸｽﾃﾘｱ商品
 62
   250
370
    20
100
AcDbVertex
100
AcDbPolyFaceMeshVertex
 10
185.255845318834
 20
5.196152422706634
 30
525.2651652644157
 70
   192
  0
VERTEX
  5
442
330
437
100
AcDbEntity
  8
ｴｸｽﾃﾘｱ商品
 62
   250
370
    20
100
AcDbVertex
100
AcDbPolyFaceMeshVertex
 10
253.6455645310147
 20
5.196152422706634
 30
514.7513724133485
 70
   192
  0
VERTEX
  5
443
330
437
100
AcDbEntity
  8
ｴｸｽﾃﾘｱ商品
 62
   250
370
    20
100
AcDbVertex
100
AcDbPolyFaceMeshVertex
 10
185.7116906376681
 20
0.0
 30
528.2303305288314
 70
   192
  0
VERTEX
  5
444
330
437
100
AcDbEntity
  8
ｴｸｽﾃﾘｱ商品
 62
   250
370
    20
100
AcDbVertex
100
AcDbPolyFaceMeshVertex
 10
254.1911290620293
 20
0.0
 30
517.7027448266967
 70
   192
  0
VERTEX
  5
445
330
437
100
AcDbEntity
  8
ｴｸｽﾃﾘｱ商品
 62
   250
370
    20
100
AcDbVertex
100
AcDbPolyFaceMeshVertex
 10
305.1011465906741
 20
-5.196152422706632
 30
497.4817868506507
 70
   192
  0
VERTEX
  5
446
330
437
100
AcDbEntity
  8
ｴｸｽﾃﾘｱ商品
 62
   250
370
    20
100
AcDbVertex
100
AcDbPolyFaceMeshVertex
 10
306.498853409326
 20
-5.196152422706634
 30
503.3182131493494
 70
   192
  0
VERTEX
  5
447
330
437
100
AcDbEntity
  8
ｴｸｽﾃﾘｱ商品
 62
   250
370
    20
100
AcDbVertex
100
AcDbPolyFaceMeshVertex
 10
304.4022931813483
 20
0.0000000000000007
 30
494.5635737013014
 70
   192
  0
VERTEX
  5
448
330
437
100
AcDbEntity
  8
ｴｸｽﾃﾘｱ商品
 62
   250
370
    20
100
AcDbVertex
100
AcDbPolyFaceMeshVertex
 10
305.1011465906741
 20
5.196152422706634
 30
497.4817868506507
 70
   192
  0
VERTEX
  5
449
330
437
100
AcDbEntity
  8
ｴｸｽﾃﾘｱ商品
 62
   250
370
    20
100
AcDbVertex
100
AcDbPolyFaceMeshVertex
 10
306.498853409326
 20
5.196152422706634
 30
503.3182131493494
 70
   192
  0
VERTEX
  5
44A
330
437
100
AcDbEntity
  8
ｴｸｽﾃﾘｱ商品
 62
   250
370
    20
100
AcDbVertex
100
AcDbPolyFaceMeshVertex
 10
307.1977068186519
 20
0.0
 30
506.2364262986988
 70
   192
  0
VERTEX
  5
44B
330
437
100
AcDbEntity
  8
ｴｸｽﾃﾘｱ商品
 62
   250
370
    20
100
AcDbVertex
100
AcDbPolyFaceMeshVertex
 10
343.6859064164821
 20
-5.196152422706632
 30
487.3383706077837
 70
   192
  0
VERTEX
  5
44C
330
437
100
AcDbEntity
  8
ｴｸｽﾃﾘｱ商品
 62
   250
370
    20
100
AcDbVertex
100
AcDbPolyFaceMeshVertex
 10
345.514093583518
 20
-5.196152422706634
 30
493.0616293922164
 70
   192
  0
VERTEX
  5
44D
330
437
100
AcDbEntity
  8
ｴｸｽﾃﾘｱ商品
 62
   250
370
    20
100
AcDbVertex
100
AcDbPolyFaceMeshVertex
 10
342.7718128329641
 20
0.0000000000000007
 30
484.4767412155673
 70
   192
  0
VERTEX
  5
44E
330
437
100
AcDbEntity
  8
ｴｸｽﾃﾘｱ商品
 62
   250
370
    20
100
AcDbVertex
100
AcDbPolyFaceMeshVertex
 10
343.6859064164821
 20
5.196152422706634
 30
487.3383706077837
 70
   192
  0
VERTEX
  5
44F
330
437
100
AcDbEntity
  8
ｴｸｽﾃﾘｱ商品
 62
   250
370
    20
100
AcDbVertex
100
AcDbPolyFaceMeshVertex
 10
345.514093583518
 20
5.196152422706634
 30
493.0616293922164
 70
   192
  0
VERTEX
  5
450
330
437
100
AcDbEntity
  8
ｴｸｽﾃﾘｱ商品
 62
   250
370
    20
100
AcDbVertex
100
AcDbPolyFaceMeshVertex
 10
346.428187167036
 20
0.0
 30
495.9232587844328
 70
   192
  0
VERTEX
  5
451
330
437
100
AcDbEntity
  8
ｴｸｽﾃﾘｱ商品
 62
   250
370
    20
100
AcDbVertex
100
AcDbPolyFaceMeshVertex
 10
382.3153812220783
 20
-5.196152422706632
 30
472.7405999228925
 70
   192
  0
VERTEX
  5
452
330
437
100
AcDbEntity
  8
ｴｸｽﾃﾘｱ商品
 62
   250
370
    20
100
AcDbVertex
100
AcDbPolyFaceMeshVertex
 10
384.6846187779218
 20
-5.196152422706634
 30
478.2594000771076
 70
   192
  0
VERTEX
  5
453
330
437
100
AcDbEntity
  8
ｴｸｽﾃﾘｱ商品
 62
   250
370
    20
100
AcDbVertex
100
AcDbPolyFaceMeshVertex
 10
381.1307624441566
 20
0.0000000000000007
 30
469.9811998457851
 70
   192
  0
VERTEX
  5
454
330
437
100
AcDbEntity
  8
ｴｸｽﾃﾘｱ商品
 62
   250
370
    20
100
AcDbVertex
100
AcDbPolyFaceMeshVertex
 10
382.3153812220783
 20
5.196152422706634
 30
472.7405999228925
 70
   192
  0
VERTEX
  5
455
330
437
100
AcDbEntity
  8
ｴｸｽﾃﾘｱ商品
 62
   250
370
    20
100
AcDbVertex
100
AcDbPolyFaceMeshVertex
 10
384.6846187779218
 20
5.196152422706634
 30
478.2594000771076
 70
   192
  0
VERTEX
  5
456
330
437
100
AcDbEntity
  8
ｴｸｽﾃﾘｱ商品
 62
   250
370
    20
100
AcDbVertex
100
AcDbPolyFaceMeshVertex
 10
385.8692375558435
 20
0.0
 30
481.018800154215
 70
   192
  0
VERTEX
  5
457
330
437
100
AcDbEntity
  8
ｴｸｽﾃﾘｱ商品
 62
   250
370
    20
100
AcDbVertex
100
AcDbPolyFaceMeshVertex
 10
445.7330929583751
 20
-5.196152422706632
 30
442.1285912703091
 70
   192
  0
VERTEX
  5
458
330
437
100
AcDbEntity
  8
ｴｸｽﾃﾘｱ商品
 62
   250
370
    20
100
AcDbVertex
100
AcDbPolyFaceMeshVertex
 10
448.466907041625
 20
-5.196152422706634
 30
447.4714087296911
 70
   192
  0
VERTEX
  5
459
330
437
100
AcDbEntity
  8
ｴｸｽﾃﾘｱ商品
 62
   250
370
    20
100
AcDbVertex
100
AcDbPolyFaceMeshVertex
 10
444.3661859167502
 20
0.0000000000000007
 30
439.4571825406181
 70
   192
  0
VERTEX
  5
45A
330
437
100
AcDbEntity
  8
ｴｸｽﾃﾘｱ商品
 62
   250
370
    20
100
AcDbVertex
100
AcDbPolyFaceMeshVertex
 10
445.7330929583751
 20
5.196152422706634
 30
442.1285912703091
 70
   192
  0
VERTEX
  5
45B
330
437
100
AcDbEntity
  8
ｴｸｽﾃﾘｱ商品
 62
   250
370
    20
100
AcDbVertex
100
AcDbPolyFaceMeshVertex
 10
448.466907041625
 20
5.196152422706634
 30
447.4714087296911
 70
   192
  0
VERTEX
  5
45C
330
437
100
AcDbEntity
  8
ｴｸｽﾃﾘｱ商品
 62
   250
370
    20
100
AcDbVertex
100
AcDbPolyFaceMeshVertex
 10
449.8338140832499
 20
0.0
 30
450.1428174593821
 70
   192
  0
VERTEX
  5
45D
330
437
100
AcDbEntity
  8
ｴｸｽﾃﾘｱ商品
 62
   250
370
    20
100
AcDbVertex
100
AcDbPolyFaceMeshVertex
 10
485.510330614694
 20
-5.196152422706632
 30
420.5950490804221
 70
   192
  0
VERTEX
  5
45E
330
437
100
AcDbEntity
  8
ｴｸｽﾃﾘｱ商品
 62
   250
370
    20
100
AcDbVertex
100
AcDbPolyFaceMeshVertex
 10
488.4896693853061
 20
-5.196152422706634
 30
425.8049509195779
 70
   192
  0
VERTEX
  5
45F
330
437
100
AcDbEntity
  8
ｴｸｽﾃﾘｱ商品
 62
   250
370
    20
100
AcDbVertex
100
AcDbPolyFaceMeshVertex
 10
484.0206612293879
 20
0.0000000000000007
 30
417.9900981608442
 70
   192
  0
VERTEX
  5
460
330
437
100
AcDbEntity
  8
ｴｸｽﾃﾘｱ商品
 62
   250
370
    20
100
AcDbVertex
100
AcDbPolyFaceMeshVertex
 10
485.510330614694
 20
5.196152422706634
 30
420.5950490804221
 70
   192
  0
VERTEX
  5
461
330
437
100
AcDbEntity
  8
ｴｸｽﾃﾘｱ商品
 62
   250
370
    20
100
AcDbVertex
100
AcDbPolyFaceMeshVertex
 10
488.4896693853061
 20
5.196152422706634
 30
425.8049509195779
 70
   192
  0
VERTEX
  5
462
330
437
100
AcDbEntity
  8
ｴｸｽﾃﾘｱ商品
 62
   250
370
    20
100
AcDbVertex
100
AcDbPolyFaceMeshVertex
 10
489.9793387706122
 20
0.0
 30
428.4099018391559
 70
   192
  0
VERTEX
  5
463
330
437
100
AcDbEntity
  8
ｴｸｽﾃﾘｱ商品
 62
   250
370
    20
100
AcDbVertex
100
AcDbPolyFaceMeshVertex
 10
667.0960375818619
 20
-5.196152422706632
 30
311.0639897320369
 70
   192
  0
VERTEX
  5
464
330
437
100
AcDbEntity
  8
ｴｸｽﾃﾘｱ商品
 62
   250
370
    20
100
AcDbVertex
100
AcDbPolyFaceMeshVertex
 10
670.3039624181386
 20
-5.196152422706634
 30
316.1360102679631
 70
   192
  0
VERTEX
  5
465
330
437
100
AcDbEntity
  8
ｴｸｽﾃﾘｱ商品
 62
   250
370
    20
100
AcDbVertex
100
AcDbPolyFaceMeshVertex
 10
665.4920751637236
 20
0.0000000000000007
 30
308.5279794640739
 70
   192
  0
VERTEX
  5
466
330
437
100
AcDbEntity
  8
ｴｸｽﾃﾘｱ商品
 62
   250
370
    20
100
AcDbVertex
100
AcDbPolyFaceMeshVertex
 10
667.0960375818619
 20
5.196152422706634
 30
311.0639897320369
 70
   192
  0
VERTEX
  5
467
330
437
100
AcDbEntity
  8
ｴｸｽﾃﾘｱ商品
 62
   250
370
    20
100
AcDbVertex
100
AcDbPolyFaceMeshVertex
 10
670.3039624181386
 20
5.196152422706634
 30
316.1360102679631
 70
   192
  0
VERTEX
  5
468
330
437
100
AcDbEntity
  8
ｴｸｽﾃﾘｱ商品
 62
   250
370
    20
100
AcDbVertex
100
AcDbPolyFaceMeshVertex
 10
671.9079248362768
 20
0.0
 30
318.6720205359262
 70
   192
  0
VERTEX
  5
469
330
437
100
AcDbEntity
  8
ｴｸｽﾃﾘｱ商品
 62
   250
370
    20
100
AcDbVertex
100
AcDbPolyFaceMeshVertex
 10
902.0168805380539
 20
-5.196152422706632
 30
155.4164354840408
 70
   192
  0
VERTEX
  5
46A
330
437
100
AcDbEntity
  8
ｴｸｽﾃﾘｱ商品
 62
   250
370
    20
100
AcDbVertex
100
AcDbPolyFaceMeshVertex
 10
905.3831194619463
 20
-5.196152422706634
 30
160.3835645159593
 70
   192
  0
VERTEX
  5
46B
330
437
100
AcDbEntity
  8
ｴｸｽﾃﾘｱ商品
 62
   250
370
    20
100
AcDbVertex
100
AcDbPolyFaceMeshVertex
 10
900.3337610761076
 20
0.0000000000000007
 30
152.9328709680815
 70
   192
  0
VERTEX
  5
46C
330
437
100
AcDbEntity
  8
ｴｸｽﾃﾘｱ商品
 62
   250
370
    20
100
AcDbVertex
100
AcDbPolyFaceMeshVertex
 10
902.0168805380539
 20
5.196152422706634
 30
155.4164354840408
 70
   192
  0
VERTEX
  5
46D
330
437
100
AcDbEntity
  8
ｴｸｽﾃﾘｱ商品
 62
   250
370
    20
100
AcDbVertex
100
AcDbPolyFaceMeshVertex
 10
905.3831194619463
 20
5.196152422706634
 30
160.3835645159593
 70
   192
  0
VERTEX
  5
46E
330
437
100
AcDbEntity
  8
ｴｸｽﾃﾘｱ商品
 62
   250
370
    20
100
AcDbVertex
100
AcDbPolyFaceMeshVertex
 10
907.0662389238925
 20
0.0
 30
162.8671290319186
 70
   192
  0
VERTEX
  5
46F
330
437
100
AcDbEntity
  8
ｴｸｽﾃﾘｱ商品
 62
   250
370
    20
100
AcDbVertex
100
AcDbPolyFaceMeshVertex
 10
992.8837578018824
 20
-5.196152422706632
 30
92.43939183584271
 70
   192
  0
VERTEX
  5
470
330
437
100
AcDbEntity
  8
ｴｸｽﾃﾘｱ商品
 62
   250
370
    20
100
AcDbVertex
100
AcDbPolyFaceMeshVertex
 10
996.3162421981176
 20
-5.196152422706634
 30
97.36060816415733
 70
   192
  0
VERTEX
  5
471
330
437
100
AcDbEntity
  8
ｴｸｽﾃﾘｱ商品
 62
   250
370
    20
100
AcDbVertex
100
AcDbPolyFaceMeshVertex
 10
991.1675156037647
 20
0.0000000000000007
 30
89.9787836716854
 70
   192
  0
VERTEX
  5
472
330
437
100
AcDbEntity
  8
ｴｸｽﾃﾘｱ商品
 62
   250
370
    20
100
AcDbVertex
100
AcDbPolyFaceMeshVertex
 10
992.8837578018824
 20
5.196152422706634
 30
92.43939183584271
 70
   192
  0
VERTEX
  5
473
330
437
100
AcDbEntity
  8
ｴｸｽﾃﾘｱ商品
 62
   250
370
    20
100
AcDbVertex
100
AcDbPolyFaceMeshVertex
 10
996.3162421981176
 20
5.196152422706634
 30
97.36060816415733
 70
   192
  0
VERTEX
  5
474
330
437
100
AcDbEntity
  8
ｴｸｽﾃﾘｱ商品
 62
   250
370
    20
100
AcDbVertex
100
AcDbPolyFaceMeshVertex
 10
998.0324843962354
 20
0.0
 30
99.82121632831463
 70
   192
  0
VERTEX
  5
475
330
437
100
AcDbEntity
  8
ｴｸｽﾃﾘｱ商品
 62
   250
370
    20
100
AcDbFaceRecord
 10
0.0
 20
0.0
 30
0.0
 70
   128
 71
     1
 72
     2
 73
     3
 74
     4
  0
VERTEX
  5
476
330
437
100
AcDbEntity
  8
ｴｸｽﾃﾘｱ商品
 62
   250
370
    20
100
AcDbFaceRecord
 10
0.0
 20
0.0
 30
0.0
 70
   128
 71
     2
 72
     5
 73
     6
 74
     3
  0
VERTEX
  5
477
330
437
100
AcDbEntity
  8
ｴｸｽﾃﾘｱ商品
 62
   250
370
    20
100
AcDbFaceRecord
 10
0.0
 20
0.0
 30
0.0
 70
   128
 71
     5
 72
     7
 73
     8
 74
     6
  0
VERTEX
  5
478
330
437
100
AcDbEntity
  8
ｴｸｽﾃﾘｱ商品
 62
   250
370
    20
100
AcDbFaceRecord
 10
0.0
 20
0.0
 30
0.0
 70
   128
 71
     7
 72
     9
 73
    10
 74
     8
  0
VERTEX
  5
479
330
437
100
AcDbEntity
  8
ｴｸｽﾃﾘｱ商品
 62
   250
370
    20
100
AcDbFaceRecord
 10
0.0
 20
0.0
 30
0.0
 70
   128
 71
     9
 72
    11
 73
    12
 74
    10
  0
VERTEX
  5
47A
330
437
100
AcDbEntity
  8
ｴｸｽﾃﾘｱ商品
 62
   250
370
    20
100
AcDbFaceRecord
 10
0.0
 20
0.0
 30
0.0
 70
   128
 71
    11
 72
     1
 73
     4
 74
    12
  0
VERTEX
  5
47B
330
437
100
AcDbEntity
  8
ｴｸｽﾃﾘｱ商品
 62
   250
370
    20
100
AcDbFaceRecord
 10
0.0
 20
0.0
 30
0.0
 70
   128
 71
     4
 72
     3
 73
    13
 74
    14
  0
VERTEX
  5
47C
330
437
100
AcDbEntity
  8
ｴｸｽﾃﾘｱ商品
 62
   250
370
    20
100
AcDbFaceRecord
 10
0.0
 20
0.0
 30
0.0
 70
   128
 71
     3
 72
     6
 73
    15
 74
    13
  0
VERTEX
  5
47D
330
437
100
AcDbEntity
  8
ｴｸｽﾃﾘｱ商品
 62
   250
370
    20
100
AcDbFaceRecord
 10
0.0
 20
0.0
 30
0.0
 70
   128
 71
     6
 72
     8
 73
    16
 74
    15
  0
VERTEX
  5
47E
330
437
100
AcDbEntity
  8
ｴｸｽﾃﾘｱ商品
 62
   250
370
    20
100
AcDbFaceRecord
 10
0.0
 20
0.0
 30
0.0
 70
   128
 71
     8
 72
    10
 73
    17
 74
    16
  0
VERTEX
  5
47F
330
437
100
AcDbEntity
  8
ｴｸｽﾃﾘｱ商品
 62
   250
370
    20
100
AcDbFaceRecord
 10
0.0
 20
0.0
 30
0.0
 70
   128
 71
    10
 72
    12
 73
    18
 74
    17
  0
VERTEX
  5
480
330
437
100
AcDbEntity
  8
ｴｸｽﾃﾘｱ商品
 62
   250
370
    20
100
AcDbFaceRecord
 10
0.0
 20
0.0
 30
0.0
 70
   128
 71
    12
 72
     4
 73
    14
 74
    18
  0
VERTEX
  5
481
330
437
100
AcDbEntity
  8
ｴｸｽﾃﾘｱ商品
 62
   250
370
    20
100
AcDbFaceRecord
 10
0.0
 20
0.0
 30
0.0
 70
   128
 71
    14
 72
    13
 73
    19
 74
    20
  0
VERTEX
  5
482
330
437
100
AcDbEntity
  8
ｴｸｽﾃﾘｱ商品
 62
   250
370
    20
100
AcDbFaceRecord
 10
0.0
 20
0.0
 30
0.0
 70
   128
 71
    13
 72
    15
 73
    21
 74
    19
  0
VERTEX
  5
483
330
437
100
AcDbEntity
  8
ｴｸｽﾃﾘｱ商品
 62
   250
370
    20
100
AcDbFaceRecord
 10
0.0
 20
0.0
 30
0.0
 70
   128
 71
    15
 72
    16
 73
    22
 74
    21
  0
VERTEX
  5
484
330
437
100
AcDbEntity
  8
ｴｸｽﾃﾘｱ商品
 62
   250
370
    20
100
AcDbFaceRecord
 10
0.0
 20
0.0
 30
0.0
 70
   128
 71
    16
 72
    17
 73
    23
 74
    22
  0
VERTEX
  5
485
330
437
100
AcDbEntity
  8
ｴｸｽﾃﾘｱ商品
 62
   250
370
    20
100
AcDbFaceRecord
 10
0.0
 20
0.0
 30
0.0
 70
   128
 71
    17
 72
    18
 73
    24
 74
    23
  0
VERTEX
  5
486
330
437
100
AcDbEntity
  8
ｴｸｽﾃﾘｱ商品
 62
   250
370
    20
100
AcDbFaceRecord
 10
0.0
 20
0.0
 30
0.0
 70
   128
 71
    18
 72
    14
 73
    20
 74
    24
  0
VERTEX
  5
487
330
437
100
AcDbEntity
  8
ｴｸｽﾃﾘｱ商品
 62
   250
370
    20
100
AcDbFaceRecord
 10
0.0
 20
0.0
 30
0.0
 70
   128
 71
    20
 72
    19
 73
    25
 74
    26
  0
VERTEX
  5
488
330
437
100
AcDbEntity
  8
ｴｸｽﾃﾘｱ商品
 62
   250
370
    20
100
AcDbFaceRecord
 10
0.0
 20
0.0
 30
0.0
 70
   128
 71
    19
 72
    21
 73
    27
 74
    25
  0
VERTEX
  5
489
330
437
100
AcDbEntity
  8
ｴｸｽﾃﾘｱ商品
 62
   250
370
    20
100
AcDbFaceRecord
 10
0.0
 20
0.0
 30
0.0
 70
   128
 71
    21
 72
    22
 73
    28
 74
    27
  0
VERTEX
  5
48A
330
437
100
AcDbEntity
  8
ｴｸｽﾃﾘｱ商品
 62
   250
370
    20
100
AcDbFaceRecord
 10
0.0
 20
0.0
 30
0.0
 70
   128
 71
    22
 72
    23
 73
    29
 74
    28
  0
VERTEX
  5
48B
330
437
100
AcDbEntity
  8
ｴｸｽﾃﾘｱ商品
 62
   250
370
    20
100
AcDbFaceRecord
 10
0.0
 20
0.0
 30
0.0
 70
   128
 71
    23
 72
    24
 73
    30
 74
    29
  0
VERTEX
  5
48C
330
437
100
AcDbEntity
  8
ｴｸｽﾃﾘｱ商品
 62
   250
370
    20
100
AcDbFaceRecord
 10
0.0
 20
0.0
 30
0.0
 70
   128
 71
    24
 72
    20
 73
    26
 74
    30
  0
VERTEX
  5
48D
330
437
100
AcDbEntity
  8
ｴｸｽﾃﾘｱ商品
 62
   250
370
    20
100
AcDbFaceRecord
 10
0.0
 20
0.0
 30
0.0
 70
   128
 71
    26
 72
    25
 73
    31
 74
    32
  0
VERTEX
  5
48E
330
437
100
AcDbEntity
  8
ｴｸｽﾃﾘｱ商品
 62
   250
370
    20
100
AcDbFaceRecord
 10
0.0
 20
0.0
 30
0.0
 70
   128
 71
    25
 72
    27
 73
    33
 74
    31
  0
VERTEX
  5
48F
330
437
100
AcDbEntity
  8
ｴｸｽﾃﾘｱ商品
 62
   250
370
    20
100
AcDbFaceRecord
 10
0.0
 20
0.0
 30
0.0
 70
   128
 71
    27
 72
    28
 73
    34
 74
    33
  0
VERTEX
  5
490
330
437
100
AcDbEntity
  8
ｴｸｽﾃﾘｱ商品
 62
   250
370
    20
100
AcDbFaceRecord
 10
0.0
 20
0.0
 30
0.0
 70
   128
 71
    28
 72
    29
 73
    35
 74
    34
  0
VERTEX
  5
491
330
437
100
AcDbEntity
  8
ｴｸｽﾃﾘｱ商品
 62
   250
370
    20
100
AcDbFaceRecord
 10
0.0
 20
0.0
 30
0.0
 70
   128
 71
    29
 72
    30
 73
    36
 74
    35
  0
VERTEX
  5
492
330
437
100
AcDbEntity
  8
ｴｸｽﾃﾘｱ商品
 62
   250
370
    20
100
AcDbFaceRecord
 10
0.0
 20
0.0
 30
0.0
 70
   128
 71
    30
 72
    26
 73
    32
 74
    36
  0
VERTEX
  5
493
330
437
100
AcDbEntity
  8
ｴｸｽﾃﾘｱ商品
 62
   250
370
    20
100
AcDbFaceRecord
 10
0.0
 20
0.0
 30
0.0
 70
   128
 71
    32
 72
    31
 73
    37
 74
    38
  0
VERTEX
  5
494
330
437
100
AcDbEntity
  8
ｴｸｽﾃﾘｱ商品
 62
   250
370
    20
100
AcDbFaceRecord
 10
0.0
 20
0.0
 30
0.0
 70
   128
 71
    31
 72
    33
 73
    39
 74
    37
  0
VERTEX
  5
495
330
437
100
AcDbEntity
  8
ｴｸｽﾃﾘｱ商品
 62
   250
370
    20
100
AcDbFaceRecord
 10
0.0
 20
0.0
 30
0.0
 70
   128
 71
    33
 72
    34
 73
    40
 74
    39
  0
VERTEX
  5
496
330
437
100
AcDbEntity
  8
ｴｸｽﾃﾘｱ商品
 62
   250
370
    20
100
AcDbFaceRecord
 10
0.0
 20
0.0
 30
0.0
 70
   128
 71
    34
 72
    35
 73
    41
 74
    40
  0
VERTEX
  5
497
330
437
100
AcDbEntity
  8
ｴｸｽﾃﾘｱ商品
 62
   250
370
    20
100
AcDbFaceRecord
 10
0.0
 20
0.0
 30
0.0
 70
   128
 71
    35
 72
    36
 73
    42
 74
    41
  0
VERTEX
  5
498
330
437
100
AcDbEntity
  8
ｴｸｽﾃﾘｱ商品
 62
   250
370
    20
100
AcDbFaceRecord
 10
0.0
 20
0.0
 30
0.0
 70
   128
 71
    36
 72
    32
 73
    38
 74
    42
  0
VERTEX
  5
499
330
437
100
AcDbEntity
  8
ｴｸｽﾃﾘｱ商品
 62
   250
370
    20
100
AcDbFaceRecord
 10
0.0
 20
0.0
 30
0.0
 70
   128
 71
    38
 72
    37
 73
    43
 74
    44
  0
VERTEX
  5
49A
330
437
100
AcDbEntity
  8
ｴｸｽﾃﾘｱ商品
 62
   250
370
    20
100
AcDbFaceRecord
 10
0.0
 20
0.0
 30
0.0
 70
   128
 71
    37
 72
    39
 73
    45
 74
    43
  0
VERTEX
  5
49B
330
437
100
AcDbEntity
  8
ｴｸｽﾃﾘｱ商品
 62
   250
370
    20
100
AcDbFaceRecord
 10
0.0
 20
0.0
 30
0.0
 70
   128
 71
    39
 72
    40
 73
    46
 74
    45
  0
VERTEX
  5
49C
330
437
100
AcDbEntity
  8
ｴｸｽﾃﾘｱ商品
 62
   250
370
    20
100
AcDbFaceRecord
 10
0.0
 20
0.0
 30
0.0
 70
   128
 71
    40
 72
    41
 73
    47
 74
    46
  0
VERTEX
  5
49D
330
437
100
AcDbEntity
  8
ｴｸｽﾃﾘｱ商品
 62
   250
370
    20
100
AcDbFaceRecord
 10
0.0
 20
0.0
 30
0.0
 70
   128
 71
    41
 72
    42
 73
    48
 74
    47
  0
VERTEX
  5
49E
330
437
100
AcDbEntity
  8
ｴｸｽﾃﾘｱ商品
 62
   250
370
    20
100
AcDbFaceRecord
 10
0.0
 20
0.0
 30
0.0
 70
   128
 71
    42
 72
    38
 73
    44
 74
    48
  0
VERTEX
  5
49F
330
437
100
AcDbEntity
  8
ｴｸｽﾃﾘｱ商品
 62
   250
370
    20
100
AcDbFaceRecord
 10
0.0
 20
0.0
 30
0.0
 70
   128
 71
    44
 72
    43
 73
    49
 74
    50
  0
VERTEX
  5
4A0
330
437
100
AcDbEntity
  8
ｴｸｽﾃﾘｱ商品
 62
   250
370
    20
100
AcDbFaceRecord
 10
0.0
 20
0.0
 30
0.0
 70
   128
 71
    43
 72
    45
 73
    51
 74
    49
  0
VERTEX
  5
4A1
330
437
100
AcDbEntity
  8
ｴｸｽﾃﾘｱ商品
 62
   250
370
    20
100
AcDbFaceRecord
 10
0.0
 20
0.0
 30
0.0
 70
   128
 71
    45
 72
    46
 73
    52
 74
    51
  0
VERTEX
  5
4A2
330
437
100
AcDbEntity
  8
ｴｸｽﾃﾘｱ商品
 62
   250
370
    20
100
AcDbFaceRecord
 10
0.0
 20
0.0
 30
0.0
 70
   128
 71
    46
 72
    47
 73
    53
 74
    52
  0
VERTEX
  5
4A3
330
437
100
AcDbEntity
  8
ｴｸｽﾃﾘｱ商品
 62
   250
370
    20
100
AcDbFaceRecord
 10
0.0
 20
0.0
 30
0.0
 70
   128
 71
    47
 72
    48
 73
    54
 74
    53
  0
VERTEX
  5
4A4
330
437
100
AcDbEntity
  8
ｴｸｽﾃﾘｱ商品
 62
   250
370
    20
100
AcDbFaceRecord
 10
0.0
 20
0.0
 30
0.0
 70
   128
 71
    48
 72
    44
 73
    50
 74
    54
  0
VERTEX
  5
4A5
330
437
100
AcDbEntity
  8
ｴｸｽﾃﾘｱ商品
 62
   250
370
    20
100
AcDbFaceRecord
 10
0.0
 20
0.0
 30
0.0
 70
   128
 71
    50
 72
    49
 73
    55
 74
    56
  0
VERTEX
  5
4A6
330
437
100
AcDbEntity
  8
ｴｸｽﾃﾘｱ商品
 62
   250
370
    20
100
AcDbFaceRecord
 10
0.0
 20
0.0
 30
0.0
 70
   128
 71
    49
 72
    51
 73
    57
 74
    55
  0
VERTEX
  5
4A7
330
437
100
AcDbEntity
  8
ｴｸｽﾃﾘｱ商品
 62
   250
370
    20
100
AcDbFaceRecord
 10
0.0
 20
0.0
 30
0.0
 70
   128
 71
    51
 72
    52
 73
    58
 74
    57
  0
VERTEX
  5
4A8
330
437
100
AcDbEntity
  8
ｴｸｽﾃﾘｱ商品
 62
   250
370
    20
100
AcDbFaceRecord
 10
0.0
 20
0.0
 30
0.0
 70
   128
 71
    52
 72
    53
 73
    59
 74
    58
  0
VERTEX
  5
4A9
330
437
100
AcDbEntity
  8
ｴｸｽﾃﾘｱ商品
 62
   250
370
    20
100
AcDbFaceRecord
 10
0.0
 20
0.0
 30
0.0
 70
   128
 71
    53
 72
    54
 73
    60
 74
    59
  0
VERTEX
  5
4AA
330
437
100
AcDbEntity
  8
ｴｸｽﾃﾘｱ商品
 62
   250
370
    20
100
AcDbFaceRecord
 10
0.0
 20
0.0
 30
0.0
 70
   128
 71
    54
 72
    50
 73
    56
 74
    60
  0
VERTEX
  5
4AB
330
437
100
AcDbEntity
  8
ｴｸｽﾃﾘｱ商品
 62
   250
370
    20
100
AcDbFaceRecord
 10
0.0
 20
0.0
 30
0.0
 70
   128
 71
     1
 72
    11
 73
     9
 74
     7
  0
VERTEX
  5
4AC
330
437
100
AcDbEntity
  8
ｴｸｽﾃﾘｱ商品
 62
   250
370
    20
100
AcDbFaceRecord
 10
0.0
 20
0.0
 30
0.0
 70
   128
 71
     1
 72
     7
 73
     5
 74
     2
  0
VERTEX
  5
4AD
330
437
100
AcDbEntity
  8
ｴｸｽﾃﾘｱ商品
 62
   250
370
    20
100
AcDbFaceRecord
 10
0.0
 20
0.0
 30
0.0
 70
   128
 71
    56
 72
    55
 73
    57
 74
    58
  0
VERTEX
  5
4AE
330
437
100
AcDbEntity
  8
ｴｸｽﾃﾘｱ商品
 62
   250
370
    20
100
AcDbFaceRecord
 10
0.0
 20
0.0
 30
0.0
 70
   128
 71
    56
 72
    58
 73
    59
 74
    60
  0
SEQEND
  5
438
330
437
100
AcDbEntity
  8
ｴｸｽﾃﾘｱ商品
370
    20
  0
POLYLINE
  5
4AF
330
3C
100
AcDbEntity
  8
ｴｸｽﾃﾘｱ商品
 62
   250
370
    20
100
AcDbPolyFaceMesh
 66
     1
 10
0.0
 20
0.0
 30
0.0
 70
    64
 71
    60
 72
    58
  0
VERTEX
  5
4B1
330
4AF
100
AcDbEntity
  8
ｴｸｽﾃﾘｱ商品
 62
   250
370
    20
100
AcDbVertex
100
AcDbPolyFaceMeshVertex
 10
3.045991938862435
 20
-5.196152422706634
 30
94.85852795388078
 70
   192
  0
VERTEX
  5
4B2
330
4AF
100
AcDbEntity
  8
ｴｸｽﾃﾘｱ商品
 62
   250
370
    20
100
AcDbVertex
100
AcDbPolyFaceMeshVertex
 10
6.754008061137569
 20
-5.196152422706632
 30
90.14147204611926
 70
   192
  0
VERTEX
  5
4B3
330
4AF
100
AcDbEntity
  8
ｴｸｽﾃﾘｱ商品
 62
   250
370
    20
100
AcDbVertex
100
AcDbPolyFaceMeshVertex
 10
64.30035777167603
 20
-5.196152422706632
 30
135.3779069490121
 70
   192
  0
VERTEX
  5
4B4
330
4AF
100
AcDbEntity
  8
ｴｸｽﾃﾘｱ商品
 62
   250
370
    20
100
AcDbVertex
100
AcDbPolyFaceMeshVertex
 10
60.49964222832399
 20
-5.196152422706634
 30
140.022093050988
 70
   192
  0
VERTEX
  5
4B5
330
4AF
100
AcDbEntity
  8
ｴｸｽﾃﾘｱ商品
 62
   250
370
    20
100
AcDbVertex
100
AcDbPolyFaceMeshVertex
 10
8.608016122275131
 20
0.0000000000000007
 30
87.78294409223851
 70
   192
  0
VERTEX
  5
4B6
330
4AF
100
AcDbEntity
  8
ｴｸｽﾃﾘｱ商品
 62
   250
370
    20
100
AcDbVertex
100
AcDbPolyFaceMeshVertex
 10
66.20071554335205
 20
0.0000000000000007
 30
133.0558138980242
 70
   192
  0
VERTEX
  5
4B7
330
4AF
100
AcDbEntity
  8
ｴｸｽﾃﾘｱ商品
 62
   250
370
    20
100
AcDbVertex
100
AcDbPolyFaceMeshVertex
 10
6.754008061137566
 20
5.196152422706634
 30
90.14147204611928
 70
   192
  0
VERTEX
  5
4B8
330
4AF
100
AcDbEntity
  8
ｴｸｽﾃﾘｱ商品
 62
   250
370
    20
100
AcDbVertex
100
AcDbPolyFaceMeshVertex
 10
64.30035777167603
 20
5.196152422706634
 30
135.3779069490121
 70
   192
  0
VERTEX
  5
4B9
330
4AF
100
AcDbEntity
  8
ｴｸｽﾃﾘｱ商品
 62
   250
370
    20
100
AcDbVertex
100
AcDbPolyFaceMeshVertex
 10
3.045991938862435
 20
5.196152422706634
 30
94.85852795388078
 70
   192
  0
VERTEX
  5
4BA
330
4AF
100
AcDbEntity
  8
ｴｸｽﾃﾘｱ商品
 62
   250
370
    20
100
AcDbVertex
100
AcDbPolyFaceMeshVertex
 10
60.49964222832399
 20
5.196152422706634
 30
140.022093050988
 70
   192
  0
VERTEX
  5
4BB
330
4AF
100
AcDbEntity
  8
ｴｸｽﾃﾘｱ商品
 62
   250
370
    20
100
AcDbVertex
100
AcDbPolyFaceMeshVertex
 10
1.19198387772487
 20
0.0
 30
97.21705590776153
 70
   192
  0
VERTEX
  5
4BC
330
4AF
100
AcDbEntity
  8
ｴｸｽﾃﾘｱ商品
 62
   250
370
    20
100
AcDbVertex
100
AcDbPolyFaceMeshVertex
 10
58.59928445664798
 20
0.0
 30
142.3441861019759
 70
   192
  0
VERTEX
  5
4BD
330
4AF
100
AcDbEntity
  8
ｴｸｽﾃﾘｱ商品
 62
   250
370
    20
100
AcDbVertex
100
AcDbPolyFaceMeshVertex
 10
156.7139730790637
 20
-5.196152422706632
 30
214.0895035365815
 70
   192
  0
VERTEX
  5
4BE
330
4AF
100
AcDbEntity
  8
ｴｸｽﾃﾘｱ商品
 62
   250
370
    20
100
AcDbVertex
100
AcDbPolyFaceMeshVertex
 10
152.8860269209363
 20
-5.196152422706634
 30
218.7104964634186
 70
   192
  0
VERTEX
  5
4BF
330
4AF
100
AcDbEntity
  8
ｴｸｽﾃﾘｱ商品
 62
   250
370
    20
100
AcDbVertex
100
AcDbPolyFaceMeshVertex
 10
158.6279461581274
 20
0.0000000000000007
 30
211.779007073163
 70
   192
  0
VERTEX
  5
4C0
330
4AF
100
AcDbEntity
  8
ｴｸｽﾃﾘｱ商品
 62
   250
370
    20
100
AcDbVertex
100
AcDbPolyFaceMeshVertex
 10
156.7139730790637
 20
5.196152422706634
 30
214.0895035365815
 70
   192
  0
VERTEX
  5
4C1
330
4AF
100
AcDbEntity
  8
ｴｸｽﾃﾘｱ商品
 62
   250
370
    20
100
AcDbVertex
100
AcDbPolyFaceMeshVertex
 10
152.8860269209363
 20
5.196152422706634
 30
218.7104964634186
 70
   192
  0
VERTEX
  5
4C2
330
4AF
100
AcDbEntity
  8
ｴｸｽﾃﾘｱ商品
 62
   250
370
    20
100
AcDbVertex
100
AcDbPolyFaceMeshVertex
 10
150.9720538418726
 20
0.0
 30
221.0209929268371
 70
   192
  0
VERTEX
  5
4C3
330
4AF
100
AcDbEntity
  8
ｴｸｽﾃﾘｱ商品
 62
   250
370
    20
100
AcDbVertex
100
AcDbPolyFaceMeshVertex
 10
203.3389478867013
 20
-5.196152422706632
 30
251.6485110205118
 70
   192
  0
VERTEX
  5
4C4
330
4AF
100
AcDbEntity
  8
ｴｸｽﾃﾘｱ商品
 62
   250
370
    20
100
AcDbVertex
100
AcDbPolyFaceMeshVertex
 10
199.8610521132987
 20
-5.196152422706634
 30
256.5514889794883
 70
   192
  0
VERTEX
  5
4C5
330
4AF
100
AcDbEntity
  8
ｴｸｽﾃﾘｱ商品
 62
   250
370
    20
100
AcDbVertex
100
AcDbPolyFaceMeshVertex
 10
205.0778957734027
 20
0.0000000000000007
 30
249.1970220410236
 70
   192
  0
VERTEX
  5
4C6
330
4AF
100
AcDbEntity
  8
ｴｸｽﾃﾘｱ商品
 62
   250
370
    20
100
AcDbVertex
100
AcDbPolyFaceMeshVertex
 10
203.3389478867013
 20
5.196152422706634
 30
251.6485110205118
 70
   192
  0
VERTEX
  5
4C7
330
4AF
100
AcDbEntity
  8
ｴｸｽﾃﾘｱ商品
 62
   250
370
    20
100
AcDbVertex
100
AcDbPolyFaceMeshVertex
 10
199.8610521132987
 20
5.196152422706634
 30
256.5514889794883
 70
   192
  0
VERTEX
  5
4C8
330
4AF
100
AcDbEntity
  8
ｴｸｽﾃﾘｱ商品
 62
   250
370
    20
100
AcDbVertex
100
AcDbPolyFaceMeshVertex
 10
198.1221042265973
 20
0.0
 30
259.0029779589765
 70
   192
  0
VERTEX
  5
4C9
330
4AF
100
AcDbEntity
  8
ｴｸｽﾃﾘｱ商品
 62
   250
370
    20
100
AcDbVertex
100
AcDbPolyFaceMeshVertex
 10
394.0973455953861
 20
-5.196152422706632
 30
370.1363279123009
 70
   192
  0
VERTEX
  5
4CA
330
4AF
100
AcDbEntity
  8
ｴｸｽﾃﾘｱ商品
 62
   250
370
    20
100
AcDbVertex
100
AcDbPolyFaceMeshVertex
 10
391.302654404614
 20
-5.196152422706634
 30
375.4636720876993
 70
   192
  0
VERTEX
  5
4CB
330
4AF
100
AcDbEntity
  8
ｴｸｽﾃﾘｱ商品
 62
   250
370
    20
100
AcDbVertex
100
AcDbPolyFaceMeshVertex
 10
395.4946911907722
 20
0.0000000000000007
 30
367.4726558246016
 70
   192
  0
VERTEX
  5
4CC
330
4AF
100
AcDbEntity
  8
ｴｸｽﾃﾘｱ商品
 62
   250
370
    20
100
AcDbVertex
100
AcDbPolyFaceMeshVertex
 10
394.0973455953861
 20
5.196152422706634
 30
370.1363279123009
 70
   192
  0
VERTEX
  5
4CD
330
4AF
100
AcDbEntity
  8
ｴｸｽﾃﾘｱ商品
 62
   250
370
    20
100
AcDbVertex
100
AcDbPolyFaceMeshVertex
 10
391.302654404614
 20
5.196152422706634
 30
375.4636720876993
 70
   192
  0
VERTEX
  5
4CE
330
4AF
100
AcDbEntity
  8
ｴｸｽﾃﾘｱ商品
 62
   250
370
    20
100
AcDbVertex
100
AcDbPolyFaceMeshVertex
 10
389.9053088092278
 20
0.0
 30
378.1273441753985
 70
   192
  0
VERTEX
  5
4CF
330
4AF
100
AcDbEntity
  8
ｴｸｽﾃﾘｱ商品
 62
   250
370
    20
100
AcDbVertex
100
AcDbPolyFaceMeshVertex
 10
476.2002580176738
 20
-5.196152422706632
 30
405.8635346512115
 70
   192
  0
VERTEX
  5
4D0
330
4AF
100
AcDbEntity
  8
ｴｸｽﾃﾘｱ商品
 62
   250
370
    20
100
AcDbVertex
100
AcDbPolyFaceMeshVertex
 10
474.1997419823262
 20
-5.196152422706634
 30
411.5364653487886
 70
   192
  0
VERTEX
  5
4D1
330
4AF
100
AcDbEntity
  8
ｴｸｽﾃﾘｱ商品
 62
   250
370
    20
100
AcDbVertex
100
AcDbPolyFaceMeshVertex
 10
477.2005160353476
 20
0.0000000000000007
 30
403.0270693024229
 70
   192
  0
VERTEX
  5
4D2
330
4AF
100
AcDbEntity
  8
ｴｸｽﾃﾘｱ商品
 62
   250
370
    20
100
AcDbVertex
100
AcDbPolyFaceMeshVertex
 10
476.2002580176738
 20
5.196152422706634
 30
405.8635346512115
 70
   192
  0
VERTEX
  5
4D3
330
4AF
100
AcDbEntity
  8
ｴｸｽﾃﾘｱ商品
 62
   250
370
    20
100
AcDbVertex
100
AcDbPolyFaceMeshVertex
 10
474.1997419823262
 20
5.196152422706634
 30
411.5364653487886
 70
   192
  0
VERTEX
  5
4D4
330
4AF
100
AcDbEntity
  8
ｴｸｽﾃﾘｱ商品
 62
   250
370
    20
100
AcDbVertex
100
AcDbPolyFaceMeshVertex
 10
473.1994839646525
 20
0.0
 30
414.3729306975772
 70
   192
  0
VERTEX
  5
4D5
330
4AF
100
AcDbEntity
  8
ｴｸｽﾃﾘｱ商品
 62
   250
370
    20
100
AcDbVertex
100
AcDbPolyFaceMeshVertex
 10
581.2871764367422
 20
-5.196152422706632
 30
434.6776897016011
 70
   192
  0
VERTEX
  5
4D6
330
4AF
100
AcDbEntity
  8
ｴｸｽﾃﾘｱ商品
 62
   250
370
    20
100
AcDbVertex
100
AcDbPolyFaceMeshVertex
 10
579.912823563258
 20
-5.196152422706634
 30
440.522310298399
 70
   192
  0
VERTEX
  5
4D7
330
4AF
100
AcDbEntity
  8
ｴｸｽﾃﾘｱ商品
 62
   250
370
    20
100
AcDbVertex
100
AcDbPolyFaceMeshVertex
 10
581.9743528734842
 20
0.0000000000000007
 30
431.7553794032023
 70
   192
  0
VERTEX
  5
4D8
330
4AF
100
AcDbEntity
  8
ｴｸｽﾃﾘｱ商品
 62
   250
370
    20
100
AcDbVertex
100
AcDbPolyFaceMeshVertex
 10
581.2871764367422
 20
5.196152422706634
 30
434.6776897016011
 70
   192
  0
VERTEX
  5
4D9
330
4AF
100
AcDbEntity
  8
ｴｸｽﾃﾘｱ商品
 62
   250
370
    20
100
AcDbVertex
100
AcDbPolyFaceMeshVertex
 10
579.912823563258
 20
5.196152422706634
 30
440.522310298399
 70
   192
  0
VERTEX
  5
4DA
330
4AF
100
AcDbEntity
  8
ｴｸｽﾃﾘｱ商品
 62
   250
370
    20
100
AcDbVertex
100
AcDbPolyFaceMeshVertex
 10
579.225647126516
 20
0.0
 30
443.4446205967978
 70
   192
  0
VERTEX
  5
4DB
330
4AF
100
AcDbEntity
  8
ｴｸｽﾃﾘｱ商品
 62
   250
370
    20
100
AcDbVertex
100
AcDbPolyFaceMeshVertex
 10
680.2156662077443
 20
-5.196152422706632
 30
454.1439414728882
 70
   192
  0
VERTEX
  5
4DC
330
4AF
100
AcDbEntity
  8
ｴｸｽﾃﾘｱ商品
 62
   250
370
    20
100
AcDbVertex
100
AcDbPolyFaceMeshVertex
 10
679.1843337922561
 20
-5.196152422706634
 30
460.0560585271119
 70
   192
  0
VERTEX
  5
4DD
330
4AF
100
AcDbEntity
  8
ｴｸｽﾃﾘｱ商品
 62
   250
370
    20
100
AcDbVertex
100
AcDbPolyFaceMeshVertex
 10
680.7313324154885
 20
0.0000000000000007
 30
451.1878829457763
 70
   192
  0
VERTEX
  5
4DE
330
4AF
100
AcDbEntity
  8
ｴｸｽﾃﾘｱ商品
 62
   250
370
    20
100
AcDbVertex
100
AcDbPolyFaceMeshVertex
 10
680.2156662077443
 20
5.196152422706634
 30
454.1439414728882
 70
   192
  0
VERTEX
  5
4DF
330
4AF
100
AcDbEntity
  8
ｴｸｽﾃﾘｱ商品
 62
   250
370
    20
100
AcDbVertex
100
AcDbPolyFaceMeshVertex
 10
679.1843337922561
 20
5.196152422706634
 30
460.0560585271119
 70
   192
  0
VERTEX
  5
4E0
330
4AF
100
AcDbEntity
  8
ｴｸｽﾃﾘｱ商品
 62
   250
370
    20
100
AcDbVertex
100
AcDbPolyFaceMeshVertex
 10
678.6686675845118
 20
0.0
 30
463.0121170542238
 70
   192
  0
VERTEX
  5
4E1
330
4AF
100
AcDbEntity
  8
ｴｸｽﾃﾘｱ商品
 62
   250
370
    20
100
AcDbVertex
100
AcDbPolyFaceMeshVertex
 10
798.2915373178413
 20
-5.196152422706632
 30
472.1250385962531
 70
   192
  0
VERTEX
  5
4E2
330
4AF
100
AcDbEntity
  8
ｴｸｽﾃﾘｱ商品
 62
   250
370
    20
100
AcDbVertex
100
AcDbPolyFaceMeshVertex
 10
797.5084626821588
 20
-5.196152422706634
 30
478.0749614037469
 70
   192
  0
VERTEX
  5
4E3
330
4AF
100
AcDbEntity
  8
ｴｸｽﾃﾘｱ商品
 62
   250
370
    20
100
AcDbVertex
100
AcDbPolyFaceMeshVertex
 10
798.6830746356825
 20
0.0000000000000007
 30
469.1500771925063
 70
   192
  0
VERTEX
  5
4E4
330
4AF
100
AcDbEntity
  8
ｴｸｽﾃﾘｱ商品
 62
   250
370
    20
100
AcDbVertex
100
AcDbPolyFaceMeshVertex
 10
798.2915373178413
 20
5.196152422706634
 30
472.1250385962531
 70
   192
  0
VERTEX
  5
4E5
330
4AF
100
AcDbEntity
  8
ｴｸｽﾃﾘｱ商品
 62
   250
370
    20
100
AcDbVertex
100
AcDbPolyFaceMeshVertex
 10
797.5084626821588
 20
5.196152422706634
 30
478.0749614037469
 70
   192
  0
VERTEX
  5
4E6
330
4AF
100
AcDbEntity
  8
ｴｸｽﾃﾘｱ商品
 62
   250
370
    20
100
AcDbVertex
100
AcDbPolyFaceMeshVertex
 10
797.1169253643177
 20
0.0
 30
481.0499228074937
 70
   192
  0
VERTEX
  5
4E7
330
4AF
100
AcDbEntity
  8
ｴｸｽﾃﾘｱ商品
 62
   250
370
    20
100
AcDbVertex
100
AcDbPolyFaceMeshVertex
 10
972.9013871860411
 20
-5.196152422706632
 30
491.5150276485891
 70
   192
  0
VERTEX
  5
4E8
330
4AF
100
AcDbEntity
  8
ｴｸｽﾃﾘｱ商品
 62
   250
370
    20
100
AcDbVertex
100
AcDbPolyFaceMeshVertex
 10
972.2986128139589
 20
-5.196152422706634
 30
497.484972351411
 70
   192
  0
VERTEX
  5
4E9
330
4AF
100
AcDbEntity
  8
ｴｸｽﾃﾘｱ商品
 62
   250
370
    20
100
AcDbVertex
100
AcDbPolyFaceMeshVertex
 10
973.2027743720821
 20
0.0000000000000007
 30
488.5300552971781
 70
   192
  0
VERTEX
  5
4EA
330
4AF
100
AcDbEntity
  8
ｴｸｽﾃﾘｱ商品
 62
   250
370
    20
100
AcDbVertex
100
AcDbPolyFaceMeshVertex
 10
972.9013871860411
 20
5.196152422706634
 30
491.5150276485891
 70
   192
  0
VERTEX
  5
4EB
330
4AF
100
AcDbEntity
  8
ｴｸｽﾃﾘｱ商品
 62
   250
370
    20
100
AcDbVertex
100
AcDbPolyFaceMeshVertex
 10
972.2986128139589
 20
5.196152422706634
 30
497.484972351411
 70
   192
  0
VERTEX
  5
4EC
330
4AF
100
AcDbEntity
  8
ｴｸｽﾃﾘｱ商品
 62
   250
370
    20
100
AcDbVertex
100
AcDbPolyFaceMeshVertex
 10
971.9972256279179
 20
0.0
 30
500.469944702822
 70
   192
  0
VERTEX
  5
4ED
330
4AF
100
AcDbEntity
  8
ｴｸｽﾃﾘｱ商品
 62
   250
370
    20
100
AcDbFaceRecord
 10
0.0
 20
0.0
 30
0.0
 70
   128
 71
     1
 72
     2
 73
     3
 74
     4
  0
VERTEX
  5
4EE
330
4AF
100
AcDbEntity
  8
ｴｸｽﾃﾘｱ商品
 62
   250
370
    20
100
AcDbFaceRecord
 10
0.0
 20
0.0
 30
0.0
 70
   128
 71
     2
 72
     5
 73
     6
 74
     3
  0
VERTEX
  5
4EF
330
4AF
100
AcDbEntity
  8
ｴｸｽﾃﾘｱ商品
 62
   250
370
    20
100
AcDbFaceRecord
 10
0.0
 20
0.0
 30
0.0
 70
   128
 71
     5
 72
     7
 73
     8
 74
     6
  0
VERTEX
  5
4F0
330
4AF
100
AcDbEntity
  8
ｴｸｽﾃﾘｱ商品
 62
   250
370
    20
100
AcDbFaceRecord
 10
0.0
 20
0.0
 30
0.0
 70
   128
 71
     7
 72
     9
 73
    10
 74
     8
  0
VERTEX
  5
4F1
330
4AF
100
AcDbEntity
  8
ｴｸｽﾃﾘｱ商品
 62
   250
370
    20
100
AcDbFaceRecord
 10
0.0
 20
0.0
 30
0.0
 70
   128
 71
     9
 72
    11
 73
    12
 74
    10
  0
VERTEX
  5
4F2
330
4AF
100
AcDbEntity
  8
ｴｸｽﾃﾘｱ商品
 62
   250
370
    20
100
AcDbFaceRecord
 10
0.0
 20
0.0
 30
0.0
 70
   128
 71
    11
 72
     1
 73
     4
 74
    12
  0
VERTEX
  5
4F3
330
4AF
100
AcDbEntity
  8
ｴｸｽﾃﾘｱ商品
 62
   250
370
    20
100
AcDbFaceRecord
 10
0.0
 20
0.0
 30
0.0
 70
   128
 71
     4
 72
     3
 73
    13
 74
    14
  0
VERTEX
  5
4F4
330
4AF
100
AcDbEntity
  8
ｴｸｽﾃﾘｱ商品
 62
   250
370
    20
100
AcDbFaceRecord
 10
0.0
 20
0.0
 30
0.0
 70
   128
 71
     3
 72
     6
 73
    15
 74
    13
  0
VERTEX
  5
4F5
330
4AF
100
AcDbEntity
  8
ｴｸｽﾃﾘｱ商品
 62
   250
370
    20
100
AcDbFaceRecord
 10
0.0
 20
0.0
 30
0.0
 70
   128
 71
     6
 72
     8
 73
    16
 74
    15
  0
VERTEX
  5
4F6
330
4AF
100
AcDbEntity
  8
ｴｸｽﾃﾘｱ商品
 62
   250
370
    20
100
AcDbFaceRecord
 10
0.0
 20
0.0
 30
0.0
 70
   128
 71
     8
 72
    10
 73
    17
 74
    16
  0
VERTEX
  5
4F7
330
4AF
100
AcDbEntity
  8
ｴｸｽﾃﾘｱ商品
 62
   250
370
    20
100
AcDbFaceRecord
 10
0.0
 20
0.0
 30
0.0
 70
   128
 71
    10
 72
    12
 73
    18
 74
    17
  0
VERTEX
  5
4F8
330
4AF
100
AcDbEntity
  8
ｴｸｽﾃﾘｱ商品
 62
   250
370
    20
100
AcDbFaceRecord
 10
0.0
 20
0.0
 30
0.0
 70
   128
 71
    12
 72
     4
 73
    14
 74
    18
  0
VERTEX
  5
4F9
330
4AF
100
AcDbEntity
  8
ｴｸｽﾃﾘｱ商品
 62
   250
370
    20
100
AcDbFaceRecord
 10
0.0
 20
0.0
 30
0.0
 70
   128
 71
    14
 72
    13
 73
    19
 74
    20
  0
VERTEX
  5
4FA
330
4AF
100
AcDbEntity
  8
ｴｸｽﾃﾘｱ商品
 62
   250
370
    20
100
AcDbFaceRecord
 10
0.0
 20
0.0
 30
0.0
 70
   128
 71
    13
 72
    15
 73
    21
 74
    19
  0
VERTEX
  5
4FB
330
4AF
100
AcDbEntity
  8
ｴｸｽﾃﾘｱ商品
 62
   250
370
    20
100
AcDbFaceRecord
 10
0.0
 20
0.0
 30
0.0
 70
   128
 71
    15
 72
    16
 73
    22
 74
    21
  0
VERTEX
  5
4FC
330
4AF
100
AcDbEntity
  8
ｴｸｽﾃﾘｱ商品
 62
   250
370
    20
100
AcDbFaceRecord
 10
0.0
 20
0.0
 30
0.0
 70
   128
 71
    16
 72
    17
 73
    23
 74
    22
  0
VERTEX
  5
4FD
330
4AF
100
AcDbEntity
  8
ｴｸｽﾃﾘｱ商品
 62
   250
370
    20
100
AcDbFaceRecord
 10
0.0
 20
0.0
 30
0.0
 70
   128
 71
    17
 72
    18
 73
    24
 74
    23
  0
VERTEX
  5
4FE
330
4AF
100
AcDbEntity
  8
ｴｸｽﾃﾘｱ商品
 62
   250
370
    20
100
AcDbFaceRecord
 10
0.0
 20
0.0
 30
0.0
 70
   128
 71
    18
 72
    14
 73
    20
 74
    24
  0
VERTEX
  5
4FF
330
4AF
100
AcDbEntity
  8
ｴｸｽﾃﾘｱ商品
 62
   250
370
    20
100
AcDbFaceRecord
 10
0.0
 20
0.0
 30
0.0
 70
   128
 71
    20
 72
    19
 73
    25
 74
    26
  0
VERTEX
  5
500
330
4AF
100
AcDbEntity
  8
ｴｸｽﾃﾘｱ商品
 62
   250
370
    20
100
AcDbFaceRecord
 10
0.0
 20
0.0
 30
0.0
 70
   128
 71
    19
 72
    21
 73
    27
 74
    25
  0
VERTEX
  5
501
330
4AF
100
AcDbEntity
  8
ｴｸｽﾃﾘｱ商品
 62
   250
370
    20
100
AcDbFaceRecord
 10
0.0
 20
0.0
 30
0.0
 70
   128
 71
    21
 72
    22
 73
    28
 74
    27
  0
VERTEX
  5
502
330
4AF
100
AcDbEntity
  8
ｴｸｽﾃﾘｱ商品
 62
   250
370
    20
100
AcDbFaceRecord
 10
0.0
 20
0.0
 30
0.0
 70
   128
 71
    22
 72
    23
 73
    29
 74
    28
  0
VERTEX
  5
503
330
4AF
100
AcDbEntity
  8
ｴｸｽﾃﾘｱ商品
 62
   250
370
    20
100
AcDbFaceRecord
 10
0.0
 20
0.0
 30
0.0
 70
   128
 71
    23
 72
    24
 73
    30
 74
    29
  0
VERTEX
  5
504
330
4AF
100
AcDbEntity
  8
ｴｸｽﾃﾘｱ商品
 62
   250
370
    20
100
AcDbFaceRecord
 10
0.0
 20
0.0
 30
0.0
 70
   128
 71
    24
 72
    20
 73
    26
 74
    30
  0
VERTEX
  5
505
330
4AF
100
AcDbEntity
  8
ｴｸｽﾃﾘｱ商品
 62
   250
370
    20
100
AcDbFaceRecord
 10
0.0
 20
0.0
 30
0.0
 70
   128
 71
    26
 72
    25
 73
    31
 74
    32
  0
VERTEX
  5
506
330
4AF
100
AcDbEntity
  8
ｴｸｽﾃﾘｱ商品
 62
   250
370
    20
100
AcDbFaceRecord
 10
0.0
 20
0.0
 30
0.0
 70
   128
 71
    25
 72
    27
 73
    33
 74
    31
  0
VERTEX
  5
507
330
4AF
100
AcDbEntity
  8
ｴｸｽﾃﾘｱ商品
 62
   250
370
    20
100
AcDbFaceRecord
 10
0.0
 20
0.0
 30
0.0
 70
   128
 71
    27
 72
    28
 73
    34
 74
    33
  0
VERTEX
  5
508
330
4AF
100
AcDbEntity
  8
ｴｸｽﾃﾘｱ商品
 62
   250
370
    20
100
AcDbFaceRecord
 10
0.0
 20
0.0
 30
0.0
 70
   128
 71
    28
 72
    29
 73
    35
 74
    34
  0
VERTEX
  5
509
330
4AF
100
AcDbEntity
  8
ｴｸｽﾃﾘｱ商品
 62
   250
370
    20
100
AcDbFaceRecord
 10
0.0
 20
0.0
 30
0.0
 70
   128
 71
    29
 72
    30
 73
    36
 74
    35
  0
VERTEX
  5
50A
330
4AF
100
AcDbEntity
  8
ｴｸｽﾃﾘｱ商品
 62
   250
370
    20
100
AcDbFaceRecord
 10
0.0
 20
0.0
 30
0.0
 70
   128
 71
    30
 72
    26
 73
    32
 74
    36
  0
VERTEX
  5
50B
330
4AF
100
AcDbEntity
  8
ｴｸｽﾃﾘｱ商品
 62
   250
370
    20
100
AcDbFaceRecord
 10
0.0
 20
0.0
 30
0.0
 70
   128
 71
    32
 72
    31
 73
    37
 74
    38
  0
VERTEX
  5
50C
330
4AF
100
AcDbEntity
  8
ｴｸｽﾃﾘｱ商品
 62
   250
370
    20
100
AcDbFaceRecord
 10
0.0
 20
0.0
 30
0.0
 70
   128
 71
    31
 72
    33
 73
    39
 74
    37
  0
VERTEX
  5
50D
330
4AF
100
AcDbEntity
  8
ｴｸｽﾃﾘｱ商品
 62
   250
370
    20
100
AcDbFaceRecord
 10
0.0
 20
0.0
 30
0.0
 70
   128
 71
    33
 72
    34
 73
    40
 74
    39
  0
VERTEX
  5
50E
330
4AF
100
AcDbEntity
  8
ｴｸｽﾃﾘｱ商品
 62
   250
370
    20
100
AcDbFaceRecord
 10
0.0
 20
0.0
 30
0.0
 70
   128
 71
    34
 72
    35
 73
    41
 74
    40
  0
VERTEX
  5
50F
330
4AF
100
AcDbEntity
  8
ｴｸｽﾃﾘｱ商品
 62
   250
370
    20
100
AcDbFaceRecord
 10
0.0
 20
0.0
 30
0.0
 70
   128
 71
    35
 72
    36
 73
    42
 74
    41
  0
VERTEX
  5
510
330
4AF
100
AcDbEntity
  8
ｴｸｽﾃﾘｱ商品
 62
   250
370
    20
100
AcDbFaceRecord
 10
0.0
 20
0.0
 30
0.0
 70
   128
 71
    36
 72
    32
 73
    38
 74
    42
  0
VERTEX
  5
511
330
4AF
100
AcDbEntity
  8
ｴｸｽﾃﾘｱ商品
 62
   250
370
    20
100
AcDbFaceRecord
 10
0.0
 20
0.0
 30
0.0
 70
   128
 71
    38
 72
    37
 73
    43
 74
    44
  0
VERTEX
  5
512
330
4AF
100
AcDbEntity
  8
ｴｸｽﾃﾘｱ商品
 62
   250
370
    20
100
AcDbFaceRecord
 10
0.0
 20
0.0
 30
0.0
 70
   128
 71
    37
 72
    39
 73
    45
 74
    43
  0
VERTEX
  5
513
330
4AF
100
AcDbEntity
  8
ｴｸｽﾃﾘｱ商品
 62
   250
370
    20
100
AcDbFaceRecord
 10
0.0
 20
0.0
 30
0.0
 70
   128
 71
    39
 72
    40
 73
    46
 74
    45
  0
VERTEX
  5
514
330
4AF
100
AcDbEntity
  8
ｴｸｽﾃﾘｱ商品
 62
   250
370
    20
100
AcDbFaceRecord
 10
0.0
 20
0.0
 30
0.0
 70
   128
 71
    40
 72
    41
 73
    47
 74
    46
  0
VERTEX
  5
515
330
4AF
100
AcDbEntity
  8
ｴｸｽﾃﾘｱ商品
 62
   250
370
    20
100
AcDbFaceRecord
 10
0.0
 20
0.0
 30
0.0
 70
   128
 71
    41
 72
    42
 73
    48
 74
    47
  0
VERTEX
  5
516
330
4AF
100
AcDbEntity
  8
ｴｸｽﾃﾘｱ商品
 62
   250
370
    20
100
AcDbFaceRecord
 10
0.0
 20
0.0
 30
0.0
 70
   128
 71
    42
 72
    38
 73
    44
 74
    48
  0
VERTEX
  5
517
330
4AF
100
AcDbEntity
  8
ｴｸｽﾃﾘｱ商品
 62
   250
370
    20
100
AcDbFaceRecord
 10
0.0
 20
0.0
 30
0.0
 70
   128
 71
    44
 72
    43
 73
    49
 74
    50
  0
VERTEX
  5
518
330
4AF
100
AcDbEntity
  8
ｴｸｽﾃﾘｱ商品
 62
   250
370
    20
100
AcDbFaceRecord
 10
0.0
 20
0.0
 30
0.0
 70
   128
 71
    43
 72
    45
 73
    51
 74
    49
  0
VERTEX
  5
519
330
4AF
100
AcDbEntity
  8
ｴｸｽﾃﾘｱ商品
 62
   250
370
    20
100
AcDbFaceRecord
 10
0.0
 20
0.0
 30
0.0
 70
   128
 71
    45
 72
    46
 73
    52
 74
    51
  0
VERTEX
  5
51A
330
4AF
100
AcDbEntity
  8
ｴｸｽﾃﾘｱ商品
 62
   250
370
    20
100
AcDbFaceRecord
 10
0.0
 20
0.0
 30
0.0
 70
   128
 71
    46
 72
    47
 73
    53
 74
    52
  0
VERTEX
  5
51B
330
4AF
100
AcDbEntity
  8
ｴｸｽﾃﾘｱ商品
 62
   250
370
    20
100
AcDbFaceRecord
 10
0.0
 20
0.0
 30
0.0
 70
   128
 71
    47
 72
    48
 73
    54
 74
    53
  0
VERTEX
  5
51C
330
4AF
100
AcDbEntity
  8
ｴｸｽﾃﾘｱ商品
 62
   250
370
    20
100
AcDbFaceRecord
 10
0.0
 20
0.0
 30
0.0
 70
   128
 71
    48
 72
    44
 73
    50
 74
    54
  0
VERTEX
  5
51D
330
4AF
100
AcDbEntity
  8
ｴｸｽﾃﾘｱ商品
 62
   250
370
    20
100
AcDbFaceRecord
 10
0.0
 20
0.0
 30
0.0
 70
   128
 71
    50
 72
    49
 73
    55
 74
    56
  0
VERTEX
  5
51E
330
4AF
100
AcDbEntity
  8
ｴｸｽﾃﾘｱ商品
 62
   250
370
    20
100
AcDbFaceRecord
 10
0.0
 20
0.0
 30
0.0
 70
   128
 71
    49
 72
    51
 73
    57
 74
    55
  0
VERTEX
  5
51F
330
4AF
100
AcDbEntity
  8
ｴｸｽﾃﾘｱ商品
 62
   250
370
    20
100
AcDbFaceRecord
 10
0.0
 20
0.0
 30
0.0
 70
   128
 71
    51
 72
    52
 73
    58
 74
    57
  0
VERTEX
  5
520
330
4AF
100
AcDbEntity
  8
ｴｸｽﾃﾘｱ商品
 62
   250
370
    20
100
AcDbFaceRecord
 10
0.0
 20
0.0
 30
0.0
 70
   128
 71
    52
 72
    53
 73
    59
 74
    58
  0
VERTEX
  5
521
330
4AF
100
AcDbEntity
  8
ｴｸｽﾃﾘｱ商品
 62
   250
370
    20
100
AcDbFaceRecord
 10
0.0
 20
0.0
 30
0.0
 70
   128
 71
    53
 72
    54
 73
    60
 74
    59
  0
VERTEX
  5
522
330
4AF
100
AcDbEntity
  8
ｴｸｽﾃﾘｱ商品
 62
   250
370
    20
100
AcDbFaceRecord
 10
0.0
 20
0.0
 30
0.0
 70
   128
 71
    54
 72
    50
 73
    56
 74
    60
  0
VERTEX
  5
523
330
4AF
100
AcDbEntity
  8
ｴｸｽﾃﾘｱ商品
 62
   250
370
    20
100
AcDbFaceRecord
 10
0.0
 20
0.0
 30
0.0
 70
   128
 71
     1
 72
    11
 73
     9
 74
     7
  0
VERTEX
  5
524
330
4AF
100
AcDbEntity
  8
ｴｸｽﾃﾘｱ商品
 62
   250
370
    20
100
AcDbFaceRecord
 10
0.0
 20
0.0
 30
0.0
 70
   128
 71
     1
 72
     7
 73
     5
 74
     2
  0
VERTEX
  5
525
330
4AF
100
AcDbEntity
  8
ｴｸｽﾃﾘｱ商品
 62
   250
370
    20
100
AcDbFaceRecord
 10
0.0
 20
0.0
 30
0.0
 70
   128
 71
    56
 72
    55
 73
    57
 74
    58
  0
VERTEX
  5
526
330
4AF
100
AcDbEntity
  8
ｴｸｽﾃﾘｱ商品
 62
   250
370
    20
100
AcDbFaceRecord
 10
0.0
 20
0.0
 30
0.0
 70
   128
 71
    56
 72
    58
 73
    59
 74
    60
  0
SEQEND
  5
4B0
330
4AF
100
AcDbEntity
  8
ｴｸｽﾃﾘｱ商品
370
    20
  0
POLYLINE
  5
527
330
3C
100
AcDbEntity
  8
ｴｸｽﾃﾘｱ商品
 62
   250
370
    20
100
AcDbPolyFaceMesh
 66
     1
 10
0.0
 20
0.0
 30
0.0
 70
    64
 71
    72
 72
    70
  0
VERTEX
  5
529
330
527
100
AcDbEntity
  8
ｴｸｽﾃﾘｱ商品
 62
   250
370
    20
100
AcDbVertex
100
AcDbPolyFaceMeshVertex
 10
4.043992437259893
 20
-5.196152422706634
 30
96.38508325197826
 70
   192
  0
VERTEX
  5
52A
330
527
100
AcDbEntity
  8
ｴｸｽﾃﾘｱ商品
 62
   250
370
    20
100
AcDbVertex
100
AcDbPolyFaceMeshVertex
 10
9.556007562740113
 20
-5.196152422706632
 30
94.01491674802176
 70
   192
  0
VERTEX
  5
52B
330
527
100
AcDbEntity
  8
ｴｸｽﾃﾘｱ商品
 62
   250
370
    20
100
AcDbVertex
100
AcDbPolyFaceMeshVertex
 10
22.45306470518074
 20
-5.196152422706632
 30
124.0080728932325
 70
   192
  0
VERTEX
  5
52C
330
527
100
AcDbEntity
  8
ｴｸｽﾃﾘｱ商品
 62
   250
370
    20
100
AcDbVertex
100
AcDbPolyFaceMeshVertex
 10
16.94693529481927
 20
-5.196152422706634
 30
126.3919271067675
 70
   192
  0
VERTEX
  5
52D
330
527
100
AcDbEntity
  8
ｴｸｽﾃﾘｱ商品
 62
   250
370
    20
100
AcDbVertex
100
AcDbPolyFaceMeshVertex
 10
12.31201512548022
 20
0.0000000000000007
 30
92.82983349604352
 70
   192
  0
VERTEX
  5
52E
330
527
100
AcDbEntity
  8
ｴｸｽﾃﾘｱ商品
 62
   250
370
    20
100
AcDbVertex
100
AcDbPolyFaceMeshVertex
 10
25.20612941036146
 20
0.0000000000000007
 30
122.816145786465
 70
   192
  0
VERTEX
  5
52F
330
527
100
AcDbEntity
  8
ｴｸｽﾃﾘｱ商品
 62
   250
370
    20
100
AcDbVertex
100
AcDbPolyFaceMeshVertex
 10
9.55600756274011
 20
5.196152422706634
 30
94.01491674802176
 70
   192
  0
VERTEX
  5
530
330
527
100
AcDbEntity
  8
ｴｸｽﾃﾘｱ商品
 62
   250
370
    20
100
AcDbVertex
100
AcDbPolyFaceMeshVertex
 10
22.45306470518073
 20
5.196152422706634
 30
124.0080728932325
 70
   192
  0
VERTEX
  5
531
330
527
100
AcDbEntity
  8
ｴｸｽﾃﾘｱ商品
 62
   250
370
    20
100
AcDbVertex
100
AcDbPolyFaceMeshVertex
 10
4.043992437259893
 20
5.196152422706634
 30
96.38508325197826
 70
   192
  0
VERTEX
  5
532
330
527
100
AcDbEntity
  8
ｴｸｽﾃﾘｱ商品
 62
   250
370
    20
100
AcDbVertex
100
AcDbPolyFaceMeshVertex
 10
16.94693529481927
 20
5.196152422706634
 30
126.3919271067675
 70
   192
  0
VERTEX
  5
533
330
527
100
AcDbEntity
  8
ｴｸｽﾃﾘｱ商品
 62
   250
370
    20
100
AcDbVertex
100
AcDbPolyFaceMeshVertex
 10
1.287984874519785
 20
0.0
 30
97.5701665039565
 70
   192
  0
VERTEX
  5
534
330
527
100
AcDbEntity
  8
ｴｸｽﾃﾘｱ商品
 62
   250
370
    20
100
AcDbVertex
100
AcDbPolyFaceMeshVertex
 10
14.19387058963854
 20
0.0
 30
127.583854213535
 70
   192
  0
VERTEX
  5
535
330
527
100
AcDbEntity
  8
ｴｸｽﾃﾘｱ商品
 62
   250
370
    20
100
AcDbVertex
100
AcDbPolyFaceMeshVertex
 10
41.12683731782096
 20
-5.196152422706632
 30
166.8479041810542
 70
   192
  0
VERTEX
  5
536
330
527
100
AcDbEntity
  8
ｴｸｽﾃﾘｱ商品
 62
   250
370
    20
100
AcDbVertex
100
AcDbPolyFaceMeshVertex
 10
35.67316268217905
 20
-5.196152422706634
 30
169.3520958189458
 70
   192
  0
VERTEX
  5
537
330
527
100
AcDbEntity
  8
ｴｸｽﾃﾘｱ商品
 62
   250
370
    20
100
AcDbVertex
100
AcDbPolyFaceMeshVertex
 10
43.85367463564191
 20
0.0000000000000007
 30
165.5958083621084
 70
   192
  0
VERTEX
  5
538
330
527
100
AcDbEntity
  8
ｴｸｽﾃﾘｱ商品
 62
   250
370
    20
100
AcDbVertex
100
AcDbPolyFaceMeshVertex
 10
41.12683731782096
 20
5.196152422706634
 30
166.8479041810542
 70
   192
  0
VERTEX
  5
539
330
527
100
AcDbEntity
  8
ｴｸｽﾃﾘｱ商品
 62
   250
370
    20
100
AcDbVertex
100
AcDbPolyFaceMeshVertex
 10
35.67316268217905
 20
5.196152422706634
 30
169.3520958189458
 70
   192
  0
VERTEX
  5
53A
330
527
100
AcDbEntity
  8
ｴｸｽﾃﾘｱ商品
 62
   250
370
    20
100
AcDbVertex
100
AcDbPolyFaceMeshVertex
 10
32.9463253643581
 20
0.0
 30
170.6041916378916
 70
   192
  0
VERTEX
  5
53B
330
527
100
AcDbEntity
  8
ｴｸｽﾃﾘｱ商品
 62
   250
370
    20
100
AcDbVertex
100
AcDbPolyFaceMeshVertex
 10
70.62839869141587
 20
-5.196152422706632
 30
227.9440431067761
 70
   192
  0
VERTEX
  5
53C
330
527
100
AcDbEntity
  8
ｴｸｽﾃﾘｱ商品
 62
   250
370
    20
100
AcDbVertex
100
AcDbPolyFaceMeshVertex
 10
65.37160130858418
 20
-5.196152422706634
 30
230.855956893224
 70
   192
  0
VERTEX
  5
53D
330
527
100
AcDbEntity
  8
ｴｸｽﾃﾘｱ商品
 62
   250
370
    20
100
AcDbVertex
100
AcDbPolyFaceMeshVertex
 10
73.25679738283169
 20
0.0000000000000007
 30
226.4880862135521
 70
   192
  0
VERTEX
  5
53E
330
527
100
AcDbEntity
  8
ｴｸｽﾃﾘｱ商品
 62
   250
370
    20
100
AcDbVertex
100
AcDbPolyFaceMeshVertex
 10
70.62839869141585
 20
5.196152422706634
 30
227.9440431067761
 70
   192
  0
VERTEX
  5
53F
330
527
100
AcDbEntity
  8
ｴｸｽﾃﾘｱ商品
 62
   250
370
    20
100
AcDbVertex
100
AcDbPolyFaceMeshVertex
 10
65.37160130858418
 20
5.196152422706634
 30
230.855956893224
 70
   192
  0
VERTEX
  5
540
330
527
100
AcDbEntity
  8
ｴｸｽﾃﾘｱ商品
 62
   250
370
    20
100
AcDbVertex
100
AcDbPolyFaceMeshVertex
 10
62.74320261716834
 20
0.0
 30
232.311913786448
 70
   192
  0
VERTEX
  5
541
330
527
100
AcDbEntity
  8
ｴｸｽﾃﾘｱ商品
 62
   250
370
    20
100
AcDbVertex
100
AcDbPolyFaceMeshVertex
 10
99.87613358948697
 20
-5.196152422706632
 30
274.4021798326237
 70
   192
  0
VERTEX
  5
542
330
527
100
AcDbEntity
  8
ｴｸｽﾃﾘｱ商品
 62
   250
370
    20
100
AcDbVertex
100
AcDbPolyFaceMeshVertex
 10
94.92386641051309
 20
-5.196152422706634
 30
277.7978201673764
 70
   192
  0
VERTEX
  5
543
330
527
100
AcDbEntity
  8
ｴｸｽﾃﾘｱ商品
 62
   250
370
    20
100
AcDbVertex
100
AcDbPolyFaceMeshVertex
 10
102.3522671789739
 20
0.0000000000000007
 30
272.7043596652474
 70
   192
  0
VERTEX
  5
544
330
527
100
AcDbEntity
  8
ｴｸｽﾃﾘｱ商品
 62
   250
370
    20
100
AcDbVertex
100
AcDbPolyFaceMeshVertex
 10
99.87613358948697
 20
5.196152422706634
 30
274.4021798326237
 70
   192
  0
VERTEX
  5
545
330
527
100
AcDbEntity
  8
ｴｸｽﾃﾘｱ商品
 62
   250
370
    20
100
AcDbVertex
100
AcDbPolyFaceMeshVertex
 10
94.92386641051309
 20
5.196152422706634
 30
277.7978201673764
 70
   192
  0
VERTEX
  5
546
330
527
100
AcDbEntity
  8
ｴｸｽﾃﾘｱ商品
 62
   250
370
    20
100
AcDbVertex
100
AcDbPolyFaceMeshVertex
 10
92.44773282102615
 20
0.0
 30
279.4956403347527
 70
   192
  0
VERTEX
  5
547
330
527
100
AcDbEntity
  8
ｴｸｽﾃﾘｱ商品
 62
   250
370
    20
100
AcDbVertex
100
AcDbPolyFaceMeshVertex
 10
143.5452927402683
 20
-5.196152422706632
 30
333.0265304733987
 70
   192
  0
VERTEX
  5
548
330
527
100
AcDbEntity
  8
ｴｸｽﾃﾘｱ商品
 62
   250
370
    20
100
AcDbVertex
100
AcDbPolyFaceMeshVertex
 10
138.8547072597317
 20
-5.196152422706634
 30
336.7734695266014
 70
   192
  0
VERTEX
  5
549
330
527
100
AcDbEntity
  8
ｴｸｽﾃﾘｱ商品
 62
   250
370
    20
100
AcDbVertex
100
AcDbPolyFaceMeshVertex
 10
145.8905854805367
 20
0.0000000000000007
 30
331.1530609467974
 70
   192
  0
VERTEX
  5
54A
330
527
100
AcDbEntity
  8
ｴｸｽﾃﾘｱ商品
 62
   250
370
    20
100
AcDbVertex
100
AcDbPolyFaceMeshVertex
 10
143.5452927402683
 20
5.196152422706634
 30
333.0265304733987
 70
   192
  0
VERTEX
  5
54B
330
527
100
AcDbEntity
  8
ｴｸｽﾃﾘｱ商品
 62
   250
370
    20
100
AcDbVertex
100
AcDbPolyFaceMeshVertex
 10
138.8547072597317
 20
5.196152422706634
 30
336.7734695266014
 70
   192
  0
VERTEX
  5
54C
330
527
100
AcDbEntity
  8
ｴｸｽﾃﾘｱ商品
 62
   250
370
    20
100
AcDbVertex
100
AcDbPolyFaceMeshVertex
 10
136.5094145194633
 20
0.0
 30
338.6469390532027
 70
   192
  0
VERTEX
  5
54D
330
527
100
AcDbEntity
  8
ｴｸｽﾃﾘｱ商品
 62
   250
370
    20
100
AcDbVertex
100
AcDbPolyFaceMeshVertex
 10
195.5919739071022
 20
-5.196152422706632
 30
393.8473647871318
 70
   192
  0
VERTEX
  5
54E
330
527
100
AcDbEntity
  8
ｴｸｽﾃﾘｱ商品
 62
   250
370
    20
100
AcDbVertex
100
AcDbPolyFaceMeshVertex
 10
191.2080260928979
 20
-5.196152422706634
 30
397.9526352128684
 70
   192
  0
VERTEX
  5
54F
330
527
100
AcDbEntity
  8
ｴｸｽﾃﾘｱ商品
 62
   250
370
    20
100
AcDbVertex
100
AcDbPolyFaceMeshVertex
 10
197.7839478142044
 20
0.0000000000000007
 30
391.7947295742635
 70
   192
  0
VERTEX
  5
550
330
527
100
AcDbEntity
  8
ｴｸｽﾃﾘｱ商品
 62
   250
370
    20
100
AcDbVertex
100
AcDbPolyFaceMeshVertex
 10
195.5919739071022
 20
5.196152422706634
 30
393.8473647871318
 70
   192
  0
VERTEX
  5
551
330
527
100
AcDbEntity
  8
ｴｸｽﾃﾘｱ商品
 62
   250
370
    20
100
AcDbVertex
100
AcDbPolyFaceMeshVertex
 10
191.2080260928979
 20
5.196152422706634
 30
397.9526352128684
 70
   192
  0
VERTEX
  5
552
330
527
100
AcDbEntity
  8
ｴｸｽﾃﾘｱ商品
 62
   250
370
    20
100
AcDbVertex
100
AcDbPolyFaceMeshVertex
 10
189.0160521857957
 20
0.0
 30
400.0052704257367
 70
   192
  0
VERTEX
  5
553
330
527
100
AcDbEntity
  8
ｴｸｽﾃﾘｱ商品
 62
   250
370
    20
100
AcDbVertex
100
AcDbPolyFaceMeshVertex
 10
246.1056206816719
 20
-5.196152422706632
 30
443.167775811121
 70
   192
  0
VERTEX
  5
554
330
527
100
AcDbEntity
  8
ｴｸｽﾃﾘｱ商品
 62
   250
370
    20
100
AcDbVertex
100
AcDbPolyFaceMeshVertex
 10
242.2943793183282
 20
-5.196152422706634
 30
447.8322241888791
 70
   192
  0
VERTEX
  5
555
330
527
100
AcDbEntity
  8
ｴｸｽﾃﾘｱ商品
 62
   250
370
    20
100
AcDbVertex
100
AcDbPolyFaceMeshVertex
 10
248.0112413633437
 20
0.0000000000000007
 30
440.8355516222421
 70
   192
  0
VERTEX
  5
556
330
527
100
AcDbEntity
  8
ｴｸｽﾃﾘｱ商品
 62
   250
370
    20
100
AcDbVertex
100
AcDbPolyFaceMeshVertex
 10
246.1056206816719
 20
5.196152422706634
 30
443.167775811121
 70
   192
  0
VERTEX
  5
557
330
527
100
AcDbEntity
  8
ｴｸｽﾃﾘｱ商品
 62
   250
370
    20
100
AcDbVertex
100
AcDbPolyFaceMeshVertex
 10
242.2943793183282
 20
5.196152422706634
 30
447.8322241888791
 70
   192
  0
VERTEX
  5
558
330
527
100
AcDbEntity
  8
ｴｸｽﾃﾘｱ商品
 62
   250
370
    20
100
AcDbVertex
100
AcDbPolyFaceMeshVertex
 10
240.3887586366563
 20
0.0
 30
450.164448377758
 70
   192
  0
VERTEX
  5
559
330
527
100
AcDbEntity
  8
ｴｸｽﾃﾘｱ商品
 62
   250
370
    20
100
AcDbVertex
100
AcDbPolyFaceMeshVertex
 10
319.572262099317
 20
-5.196152422706632
 30
493.0733969094401
 70
   192
  0
VERTEX
  5
55A
330
527
100
AcDbEntity
  8
ｴｸｽﾃﾘｱ商品
 62
   250
370
    20
100
AcDbVertex
100
AcDbPolyFaceMeshVertex
 10
316.6277379006831
 20
-5.196152422706634
 30
498.3266030905599
 70
   192
  0
VERTEX
  5
55B
330
527
100
AcDbEntity
  8
ｴｸｽﾃﾘｱ商品
 62
   250
370
    20
100
AcDbVertex
100
AcDbPolyFaceMeshVertex
 10
321.0445241986338
 20
0.0000000000000007
 30
490.4467938188802
 70
   192
  0
VERTEX
  5
55C
330
527
100
AcDbEntity
  8
ｴｸｽﾃﾘｱ商品
 62
   250
370
    20
100
AcDbVertex
100
AcDbPolyFaceMeshVertex
 10
319.572262099317
 20
5.196152422706634
 30
493.0733969094401
 70
   192
  0
VERTEX
  5
55D
330
527
100
AcDbEntity
  8
ｴｸｽﾃﾘｱ商品
 62
   250
370
    20
100
AcDbVertex
100
AcDbPolyFaceMeshVertex
 10
316.6277379006831
 20
5.196152422706634
 30
498.3266030905599
 70
   192
  0
VERTEX
  5
55E
330
527
100
AcDbEntity
  8
ｴｸｽﾃﾘｱ商品
 62
   250
370
    20
100
AcDbVertex
100
AcDbPolyFaceMeshVertex
 10
315.1554758013663
 20
0.0
 30
500.9532061811198
 70
   192
  0
VERTEX
  5
55F
330
527
100
AcDbEntity
  8
ｴｸｽﾃﾘｱ商品
 62
   250
370
    20
100
AcDbVertex
100
AcDbPolyFaceMeshVertex
 10
401.5455211034416
 20
-5.196152422706632
 30
530.1802241042684
 70
   192
  0
VERTEX
  5
560
330
527
100
AcDbEntity
  8
ｴｸｽﾃﾘｱ商品
 62
   250
370
    20
100
AcDbVertex
100
AcDbPolyFaceMeshVertex
 10
399.4544788965585
 20
-5.196152422706634
 30
535.8197758957317
 70
   192
  0
VERTEX
  5
561
330
527
100
AcDbEntity
  8
ｴｸｽﾃﾘｱ商品
 62
   250
370
    20
100
AcDbVertex
100
AcDbPolyFaceMeshVertex
 10
402.5910422068831
 20
0.0000000000000007
 30
527.3604482085368
 70
   192
  0
VERTEX
  5
562
330
527
100
AcDbEntity
  8
ｴｸｽﾃﾘｱ商品
 62
   250
370
    20
100
AcDbVertex
100
AcDbPolyFaceMeshVertex
 10
401.5455211034416
 20
5.196152422706634
 30
530.1802241042684
 70
   192
  0
VERTEX
  5
563
330
527
100
AcDbEntity
  8
ｴｸｽﾃﾘｱ商品
 62
   250
370
    20
100
AcDbVertex
100
AcDbPolyFaceMeshVertex
 10
399.4544788965585
 20
5.196152422706634
 30
535.8197758957317
 70
   192
  0
VERTEX
  5
564
330
527
100
AcDbEntity
  8
ｴｸｽﾃﾘｱ商品
 62
   250
370
    20
100
AcDbVertex
100
AcDbPolyFaceMeshVertex
 10
398.408957793117
 20
0.0
 30
538.6395517914633
 70
   192
  0
VERTEX
  5
565
330
527
100
AcDbEntity
  8
ｴｸｽﾃﾘｱ商品
 62
   250
370
    20
100
AcDbVertex
100
AcDbPolyFaceMeshVertex
 10
516.1717089463627
 20
-5.196152422706632
 30
563.770680889542
 70
   192
  0
VERTEX
  5
566
330
527
100
AcDbEntity
  8
ｴｸｽﾃﾘｱ商品
 62
   250
370
    20
100
AcDbVertex
100
AcDbPolyFaceMeshVertex
 10
514.8282910536371
 20
-5.196152422706634
 30
569.6293191104583
 70
   192
  0
VERTEX
  5
567
330
527
100
AcDbEntity
  8
ｴｸｽﾃﾘｱ商品
 62
   250
370
    20
100
AcDbVertex
100
AcDbPolyFaceMeshVertex
 10
516.8434178927256
 20
0.0000000000000007
 30
560.8413617790837
 70
   192
  0
VERTEX
  5
568
330
527
100
AcDbEntity
  8
ｴｸｽﾃﾘｱ商品
 62
   250
370
    20
100
AcDbVertex
100
AcDbPolyFaceMeshVertex
 10
516.1717089463627
 20
5.196152422706634
 30
563.770680889542
 70
   192
  0
VERTEX
  5
569
330
527
100
AcDbEntity
  8
ｴｸｽﾃﾘｱ商品
 62
   250
370
    20
100
AcDbVertex
100
AcDbPolyFaceMeshVertex
 10
514.8282910536371
 20
5.196152422706634
 30
569.6293191104583
 70
   192
  0
VERTEX
  5
56A
330
527
100
AcDbEntity
  8
ｴｸｽﾃﾘｱ商品
 62
   250
370
    20
100
AcDbVertex
100
AcDbPolyFaceMeshVertex
 10
514.1565821072743
 20
0.0
 30
572.5586382209165
 70
   192
  0
VERTEX
  5
56B
330
527
100
AcDbEntity
  8
ｴｸｽﾃﾘｱ商品
 62
   250
370
    20
100
AcDbVertex
100
AcDbPolyFaceMeshVertex
 10
622.9214897012147
 20
-5.196152422706632
 30
581.628821782176
 70
   192
  0
VERTEX
  5
56C
330
527
100
AcDbEntity
  8
ｴｸｽﾃﾘｱ商品
 62
   250
370
    20
100
AcDbVertex
100
AcDbPolyFaceMeshVertex
 10
622.0785102987854
 20
-5.196152422706634
 30
587.5711782178242
 70
   192
  0
VERTEX
  5
56D
330
527
100
AcDbEntity
  8
ｴｸｽﾃﾘｱ商品
 62
   250
370
    20
100
AcDbVertex
100
AcDbPolyFaceMeshVertex
 10
623.3429794024293
 20
0.0000000000000007
 30
578.6576435643519
 70
   192
  0
VERTEX
  5
56E
330
527
100
AcDbEntity
  8
ｴｸｽﾃﾘｱ商品
 62
   250
370
    20
100
AcDbVertex
100
AcDbPolyFaceMeshVertex
 10
622.9214897012147
 20
5.196152422706634
 30
581.628821782176
 70
   192
  0
VERTEX
  5
56F
330
527
100
AcDbEntity
  8
ｴｸｽﾃﾘｱ商品
 62
   250
370
    20
100
AcDbVertex
100
AcDbPolyFaceMeshVertex
 10
622.0785102987854
 20
5.196152422706634
 30
587.5711782178242
 70
   192
  0
VERTEX
  5
570
330
527
100
AcDbEntity
  8
ｴｸｽﾃﾘｱ商品
 62
   250
370
    20
100
AcDbVertex
100
AcDbPolyFaceMeshVertex
 10
621.6570205975709
 20
0.0
 30
590.5423564356483
 70
   192
  0
VERTEX
  5
571
330
527
100
AcDbEntity
  8
ｴｸｽﾃﾘｱ商品
 62
   250
370
    20
100
AcDbFaceRecord
 10
0.0
 20
0.0
 30
0.0
 70
   128
 71
     1
 72
     2
 73
     3
 74
     4
  0
VERTEX
  5
572
330
527
100
AcDbEntity
  8
ｴｸｽﾃﾘｱ商品
 62
   250
370
    20
100
AcDbFaceRecord
 10
0.0
 20
0.0
 30
0.0
 70
   128
 71
     2
 72
     5
 73
     6
 74
     3
  0
VERTEX
  5
573
330
527
100
AcDbEntity
  8
ｴｸｽﾃﾘｱ商品
 62
   250
370
    20
100
AcDbFaceRecord
 10
0.0
 20
0.0
 30
0.0
 70
   128
 71
     5
 72
     7
 73
     8
 74
     6
  0
VERTEX
  5
574
330
527
100
AcDbEntity
  8
ｴｸｽﾃﾘｱ商品
 62
   250
370
    20
100
AcDbFaceRecord
 10
0.0
 20
0.0
 30
0.0
 70
   128
 71
     7
 72
     9
 73
    10
 74
     8
  0
VERTEX
  5
575
330
527
100
AcDbEntity
  8
ｴｸｽﾃﾘｱ商品
 62
   250
370
    20
100
AcDbFaceRecord
 10
0.0
 20
0.0
 30
0.0
 70
   128
 71
     9
 72
    11
 73
    12
 74
    10
  0
VERTEX
  5
576
330
527
100
AcDbEntity
  8
ｴｸｽﾃﾘｱ商品
 62
   250
370
    20
100
AcDbFaceRecord
 10
0.0
 20
0.0
 30
0.0
 70
   128
 71
    11
 72
     1
 73
     4
 74
    12
  0
VERTEX
  5
577
330
527
100
AcDbEntity
  8
ｴｸｽﾃﾘｱ商品
 62
   250
370
    20
100
AcDbFaceRecord
 10
0.0
 20
0.0
 30
0.0
 70
   128
 71
     4
 72
     3
 73
    13
 74
    14
  0
VERTEX
  5
578
330
527
100
AcDbEntity
  8
ｴｸｽﾃﾘｱ商品
 62
   250
370
    20
100
AcDbFaceRecord
 10
0.0
 20
0.0
 30
0.0
 70
   128
 71
     3
 72
     6
 73
    15
 74
    13
  0
VERTEX
  5
579
330
527
100
AcDbEntity
  8
ｴｸｽﾃﾘｱ商品
 62
   250
370
    20
100
AcDbFaceRecord
 10
0.0
 20
0.0
 30
0.0
 70
   128
 71
     6
 72
     8
 73
    16
 74
    15
  0
VERTEX
  5
57A
330
527
100
AcDbEntity
  8
ｴｸｽﾃﾘｱ商品
 62
   250
370
    20
100
AcDbFaceRecord
 10
0.0
 20
0.0
 30
0.0
 70
   128
 71
     8
 72
    10
 73
    17
 74
    16
  0
VERTEX
  5
57B
330
527
100
AcDbEntity
  8
ｴｸｽﾃﾘｱ商品
 62
   250
370
    20
100
AcDbFaceRecord
 10
0.0
 20
0.0
 30
0.0
 70
   128
 71
    10
 72
    12
 73
    18
 74
    17
  0
VERTEX
  5
57C
330
527
100
AcDbEntity
  8
ｴｸｽﾃﾘｱ商品
 62
   250
370
    20
100
AcDbFaceRecord
 10
0.0
 20
0.0
 30
0.0
 70
   128
 71
    12
 72
     4
 73
    14
 74
    18
  0
VERTEX
  5
57D
330
527
100
AcDbEntity
  8
ｴｸｽﾃﾘｱ商品
 62
   250
370
    20
100
AcDbFaceRecord
 10
0.0
 20
0.0
 30
0.0
 70
   128
 71
    14
 72
    13
 73
    19
 74
    20
  0
VERTEX
  5
57E
330
527
100
AcDbEntity
  8
ｴｸｽﾃﾘｱ商品
 62
   250
370
    20
100
AcDbFaceRecord
 10
0.0
 20
0.0
 30
0.0
 70
   128
 71
    13
 72
    15
 73
    21
 74
    19
  0
VERTEX
  5
57F
330
527
100
AcDbEntity
  8
ｴｸｽﾃﾘｱ商品
 62
   250
370
    20
100
AcDbFaceRecord
 10
0.0
 20
0.0
 30
0.0
 70
   128
 71
    15
 72
    16
 73
    22
 74
    21
  0
VERTEX
  5
580
330
527
100
AcDbEntity
  8
ｴｸｽﾃﾘｱ商品
 62
   250
370
    20
100
AcDbFaceRecord
 10
0.0
 20
0.0
 30
0.0
 70
   128
 71
    16
 72
    17
 73
    23
 74
    22
  0
VERTEX
  5
581
330
527
100
AcDbEntity
  8
ｴｸｽﾃﾘｱ商品
 62
   250
370
    20
100
AcDbFaceRecord
 10
0.0
 20
0.0
 30
0.0
 70
   128
 71
    17
 72
    18
 73
    24
 74
    23
  0
VERTEX
  5
582
330
527
100
AcDbEntity
  8
ｴｸｽﾃﾘｱ商品
 62
   250
370
    20
100
AcDbFaceRecord
 10
0.0
 20
0.0
 30
0.0
 70
   128
 71
    18
 72
    14
 73
    20
 74
    24
  0
VERTEX
  5
583
330
527
100
AcDbEntity
  8
ｴｸｽﾃﾘｱ商品
 62
   250
370
    20
100
AcDbFaceRecord
 10
0.0
 20
0.0
 30
0.0
 70
   128
 71
    20
 72
    19
 73
    25
 74
    26
  0
VERTEX
  5
584
330
527
100
AcDbEntity
  8
ｴｸｽﾃﾘｱ商品
 62
   250
370
    20
100
AcDbFaceRecord
 10
0.0
 20
0.0
 30
0.0
 70
   128
 71
    19
 72
    21
 73
    27
 74
    25
  0
VERTEX
  5
585
330
527
100
AcDbEntity
  8
ｴｸｽﾃﾘｱ商品
 62
   250
370
    20
100
AcDbFaceRecord
 10
0.0
 20
0.0
 30
0.0
 70
   128
 71
    21
 72
    22
 73
    28
 74
    27
  0
VERTEX
  5
586
330
527
100
AcDbEntity
  8
ｴｸｽﾃﾘｱ商品
 62
   250
370
    20
100
AcDbFaceRecord
 10
0.0
 20
0.0
 30
0.0
 70
   128
 71
    22
 72
    23
 73
    29
 74
    28
  0
VERTEX
  5
587
330
527
100
AcDbEntity
  8
ｴｸｽﾃﾘｱ商品
 62
   250
370
    20
100
AcDbFaceRecord
 10
0.0
 20
0.0
 30
0.0
 70
   128
 71
    23
 72
    24
 73
    30
 74
    29
  0
VERTEX
  5
588
330
527
100
AcDbEntity
  8
ｴｸｽﾃﾘｱ商品
 62
   250
370
    20
100
AcDbFaceRecord
 10
0.0
 20
0.0
 30
0.0
 70
   128
 71
    24
 72
    20
 73
    26
 74
    30
  0
VERTEX
  5
589
330
527
100
AcDbEntity
  8
ｴｸｽﾃﾘｱ商品
 62
   250
370
    20
100
AcDbFaceRecord
 10
0.0
 20
0.0
 30
0.0
 70
   128
 71
    26
 72
    25
 73
    31
 74
    32
  0
VERTEX
  5
58A
330
527
100
AcDbEntity
  8
ｴｸｽﾃﾘｱ商品
 62
   250
370
    20
100
AcDbFaceRecord
 10
0.0
 20
0.0
 30
0.0
 70
   128
 71
    25
 72
    27
 73
    33
 74
    31
  0
VERTEX
  5
58B
330
527
100
AcDbEntity
  8
ｴｸｽﾃﾘｱ商品
 62
   250
370
    20
100
AcDbFaceRecord
 10
0.0
 20
0.0
 30
0.0
 70
   128
 71
    27
 72
    28
 73
    34
 74
    33
  0
VERTEX
  5
58C
330
527
100
AcDbEntity
  8
ｴｸｽﾃﾘｱ商品
 62
   250
370
    20
100
AcDbFaceRecord
 10
0.0
 20
0.0
 30
0.0
 70
   128
 71
    28
 72
    29
 73
    35
 74
    34
  0
VERTEX
  5
58D
330
527
100
AcDbEntity
  8
ｴｸｽﾃﾘｱ商品
 62
   250
370
    20
100
AcDbFaceRecord
 10
0.0
 20
0.0
 30
0.0
 70
   128
 71
    29
 72
    30
 73
    36
 74
    35
  0
VERTEX
  5
58E
330
527
100
AcDbEntity
  8
ｴｸｽﾃﾘｱ商品
 62
   250
370
    20
100
AcDbFaceRecord
 10
0.0
 20
0.0
 30
0.0
 70
   128
 71
    30
 72
    26
 73
    32
 74
    36
  0
VERTEX
  5
58F
330
527
100
AcDbEntity
  8
ｴｸｽﾃﾘｱ商品
 62
   250
370
    20
100
AcDbFaceRecord
 10
0.0
 20
0.0
 30
0.0
 70
   128
 71
    32
 72
    31
 73
    37
 74
    38
  0
VERTEX
  5
590
330
527
100
AcDbEntity
  8
ｴｸｽﾃﾘｱ商品
 62
   250
370
    20
100
AcDbFaceRecord
 10
0.0
 20
0.0
 30
0.0
 70
   128
 71
    31
 72
    33
 73
    39
 74
    37
  0
VERTEX
  5
591
330
527
100
AcDbEntity
  8
ｴｸｽﾃﾘｱ商品
 62
   250
370
    20
100
AcDbFaceRecord
 10
0.0
 20
0.0
 30
0.0
 70
   128
 71
    33
 72
    34
 73
    40
 74
    39
  0
VERTEX
  5
592
330
527
100
AcDbEntity
  8
ｴｸｽﾃﾘｱ商品
 62
   250
370
    20
100
AcDbFaceRecord
 10
0.0
 20
0.0
 30
0.0
 70
   128
 71
    34
 72
    35
 73
    41
 74
    40
  0
VERTEX
  5
593
330
527
100
AcDbEntity
  8
ｴｸｽﾃﾘｱ商品
 62
   250
370
    20
100
AcDbFaceRecord
 10
0.0
 20
0.0
 30
0.0
 70
   128
 71
    35
 72
    36
 73
    42
 74
    41
  0
VERTEX
  5
594
330
527
100
AcDbEntity
  8
ｴｸｽﾃﾘｱ商品
 62
   250
370
    20
100
AcDbFaceRecord
 10
0.0
 20
0.0
 30
0.0
 70
   128
 71
    36
 72
    32
 73
    38
 74
    42
  0
VERTEX
  5
595
330
527
100
AcDbEntity
  8
ｴｸｽﾃﾘｱ商品
 62
   250
370
    20
100
AcDbFaceRecord
 10
0.0
 20
0.0
 30
0.0
 70
   128
 71
    38
 72
    37
 73
    43
 74
    44
  0
VERTEX
  5
596
330
527
100
AcDbEntity
  8
ｴｸｽﾃﾘｱ商品
 62
   250
370
    20
100
AcDbFaceRecord
 10
0.0
 20
0.0
 30
0.0
 70
   128
 71
    37
 72
    39
 73
    45
 74
    43
  0
VERTEX
  5
597
330
527
100
AcDbEntity
  8
ｴｸｽﾃﾘｱ商品
 62
   250
370
    20
100
AcDbFaceRecord
 10
0.0
 20
0.0
 30
0.0
 70
   128
 71
    39
 72
    40
 73
    46
 74
    45
  0
VERTEX
  5
598
330
527
100
AcDbEntity
  8
ｴｸｽﾃﾘｱ商品
 62
   250
370
    20
100
AcDbFaceRecord
 10
0.0
 20
0.0
 30
0.0
 70
   128
 71
    40
 72
    41
 73
    47
 74
    46
  0
VERTEX
  5
599
330
527
100
AcDbEntity
  8
ｴｸｽﾃﾘｱ商品
 62
   250
370
    20
100
AcDbFaceRecord
 10
0.0
 20
0.0
 30
0.0
 70
   128
 71
    41
 72
    42
 73
    48
 74
    47
  0
VERTEX
  5
59A
330
527
100
AcDbEntity
  8
ｴｸｽﾃﾘｱ商品
 62
   250
370
    20
100
AcDbFaceRecord
 10
0.0
 20
0.0
 30
0.0
 70
   128
 71
    42
 72
    38
 73
    44
 74
    48
  0
VERTEX
  5
59B
330
527
100
AcDbEntity
  8
ｴｸｽﾃﾘｱ商品
 62
   250
370
    20
100
AcDbFaceRecord
 10
0.0
 20
0.0
 30
0.0
 70
   128
 71
    44
 72
    43
 73
    49
 74
    50
  0
VERTEX
  5
59C
330
527
100
AcDbEntity
  8
ｴｸｽﾃﾘｱ商品
 62
   250
370
    20
100
AcDbFaceRecord
 10
0.0
 20
0.0
 30
0.0
 70
   128
 71
    43
 72
    45
 73
    51
 74
    49
  0
VERTEX
  5
59D
330
527
100
AcDbEntity
  8
ｴｸｽﾃﾘｱ商品
 62
   250
370
    20
100
AcDbFaceRecord
 10
0.0
 20
0.0
 30
0.0
 70
   128
 71
    45
 72
    46
 73
    52
 74
    51
  0
VERTEX
  5
59E
330
527
100
AcDbEntity
  8
ｴｸｽﾃﾘｱ商品
 62
   250
370
    20
100
AcDbFaceRecord
 10
0.0
 20
0.0
 30
0.0
 70
   128
 71
    46
 72
    47
 73
    53
 74
    52
  0
VERTEX
  5
59F
330
527
100
AcDbEntity
  8
ｴｸｽﾃﾘｱ商品
 62
   250
370
    20
100
AcDbFaceRecord
 10
0.0
 20
0.0
 30
0.0
 70
   128
 71
    47
 72
    48
 73
    54
 74
    53
  0
VERTEX
  5
5A0
330
527
100
AcDbEntity
  8
ｴｸｽﾃﾘｱ商品
 62
   250
370
    20
100
AcDbFaceRecord
 10
0.0
 20
0.0
 30
0.0
 70
   128
 71
    48
 72
    44
 73
    50
 74
    54
  0
VERTEX
  5
5A1
330
527
100
AcDbEntity
  8
ｴｸｽﾃﾘｱ商品
 62
   250
370
    20
100
AcDbFaceRecord
 10
0.0
 20
0.0
 30
0.0
 70
   128
 71
    50
 72
    49
 73
    55
 74
    56
  0
VERTEX
  5
5A2
330
527
100
AcDbEntity
  8
ｴｸｽﾃﾘｱ商品
 62
   250
370
    20
100
AcDbFaceRecord
 10
0.0
 20
0.0
 30
0.0
 70
   128
 71
    49
 72
    51
 73
    57
 74
    55
  0
VERTEX
  5
5A3
330
527
100
AcDbEntity
  8
ｴｸｽﾃﾘｱ商品
 62
   250
370
    20
100
AcDbFaceRecord
 10
0.0
 20
0.0
 30
0.0
 70
   128
 71
    51
 72
    52
 73
    58
 74
    57
  0
VERTEX
  5
5A4
330
527
100
AcDbEntity
  8
ｴｸｽﾃﾘｱ商品
 62
   250
370
    20
100
AcDbFaceRecord
 10
0.0
 20
0.0
 30
0.0
 70
   128
 71
    52
 72
    53
 73
    59
 74
    58
  0
VERTEX
  5
5A5
330
527
100
AcDbEntity
  8
ｴｸｽﾃﾘｱ商品
 62
   250
370
    20
100
AcDbFaceRecord
 10
0.0
 20
0.0
 30
0.0
 70
   128
 71
    53
 72
    54
 73
    60
 74
    59
  0
VERTEX
  5
5A6
330
527
100
AcDbEntity
  8
ｴｸｽﾃﾘｱ商品
 62
   250
370
    20
100
AcDbFaceRecord
 10
0.0
 20
0.0
 30
0.0
 70
   128
 71
    54
 72
    50
 73
    56
 74
    60
  0
VERTEX
  5
5A7
330
527
100
AcDbEntity
  8
ｴｸｽﾃﾘｱ商品
 62
   250
370
    20
100
AcDbFaceRecord
 10
0.0
 20
0.0
 30
0.0
 70
   128
 71
    56
 72
    55
 73
    61
 74
    62
  0
VERTEX
  5
5A8
330
527
100
AcDbEntity
  8
ｴｸｽﾃﾘｱ商品
 62
   250
370
    20
100
AcDbFaceRecord
 10
0.0
 20
0.0
 30
0.0
 70
   128
 71
    55
 72
    57
 73
    63
 74
    61
  0
VERTEX
  5
5A9
330
527
100
AcDbEntity
  8
ｴｸｽﾃﾘｱ商品
 62
   250
370
    20
100
AcDbFaceRecord
 10
0.0
 20
0.0
 30
0.0
 70
   128
 71
    57
 72
    58
 73
    64
 74
    63
  0
VERTEX
  5
5AA
330
527
100
AcDbEntity
  8
ｴｸｽﾃﾘｱ商品
 62
   250
370
    20
100
AcDbFaceRecord
 10
0.0
 20
0.0
 30
0.0
 70
   128
 71
    58
 72
    59
 73
    65
 74
    64
  0
VERTEX
  5
5AB
330
527
100
AcDbEntity
  8
ｴｸｽﾃﾘｱ商品
 62
   250
370
    20
100
AcDbFaceRecord
 10
0.0
 20
0.0
 30
0.0
 70
   128
 71
    59
 72
    60
 73
    66
 74
    65
  0
VERTEX
  5
5AC
330
527
100
AcDbEntity
  8
ｴｸｽﾃﾘｱ商品
 62
   250
370
    20
100
AcDbFaceRecord
 10
0.0
 20
0.0
 30
0.0
 70
   128
 71
    60
 72
    56
 73
    62
 74
    66
  0
VERTEX
  5
5AD
330
527
100
AcDbEntity
  8
ｴｸｽﾃﾘｱ商品
 62
   250
370
    20
100
AcDbFaceRecord
 10
0.0
 20
0.0
 30
0.0
 70
   128
 71
    62
 72
    61
 73
    67
 74
    68
  0
VERTEX
  5
5AE
330
527
100
AcDbEntity
  8
ｴｸｽﾃﾘｱ商品
 62
   250
370
    20
100
AcDbFaceRecord
 10
0.0
 20
0.0
 30
0.0
 70
   128
 71
    61
 72
    63
 73
    69
 74
    67
  0
VERTEX
  5
5AF
330
527
100
AcDbEntity
  8
ｴｸｽﾃﾘｱ商品
 62
   250
370
    20
100
AcDbFaceRecord
 10
0.0
 20
0.0
 30
0.0
 70
   128
 71
    63
 72
    64
 73
    70
 74
    69
  0
VERTEX
  5
5B0
330
527
100
AcDbEntity
  8
ｴｸｽﾃﾘｱ商品
 62
   250
370
    20
100
AcDbFaceRecord
 10
0.0
 20
0.0
 30
0.0
 70
   128
 71
    64
 72
    65
 73
    71
 74
    70
  0
VERTEX
  5
5B1
330
527
100
AcDbEntity
  8
ｴｸｽﾃﾘｱ商品
 62
   250
370
    20
100
AcDbFaceRecord
 10
0.0
 20
0.0
 30
0.0
 70
   128
 71
    65
 72
    66
 73
    72
 74
    71
  0
VERTEX
  5
5B2
330
527
100
AcDbEntity
  8
ｴｸｽﾃﾘｱ商品
 62
   250
370
    20
100
AcDbFaceRecord
 10
0.0
 20
0.0
 30
0.0
 70
   128
 71
    66
 72
    62
 73
    68
 74
    72
  0
VERTEX
  5
5B3
330
527
100
AcDbEntity
  8
ｴｸｽﾃﾘｱ商品
 62
   250
370
    20
100
AcDbFaceRecord
 10
0.0
 20
0.0
 30
0.0
 70
   128
 71
     1
 72
    11
 73
     9
 74
     7
  0
VERTEX
  5
5B4
330
527
100
AcDbEntity
  8
ｴｸｽﾃﾘｱ商品
 62
   250
370
    20
100
AcDbFaceRecord
 10
0.0
 20
0.0
 30
0.0
 70
   128
 71
     1
 72
     7
 73
     5
 74
     2
  0
VERTEX
  5
5B5
330
527
100
AcDbEntity
  8
ｴｸｽﾃﾘｱ商品
 62
   250
370
    20
100
AcDbFaceRecord
 10
0.0
 20
0.0
 30
0.0
 70
   128
 71
    68
 72
    67
 73
    69
 74
    70
  0
VERTEX
  5
5B6
330
527
100
AcDbEntity
  8
ｴｸｽﾃﾘｱ商品
 62
   250
370
    20
100
AcDbFaceRecord
 10
0.0
 20
0.0
 30
0.0
 70
   128
 71
    68
 72
    70
 73
    71
 74
    72
  0
SEQEND
  5
528
330
527
100
AcDbEntity
  8
ｴｸｽﾃﾘｱ商品
370
    20
  0
POLYLINE
  5
5B7
330
3C
100
AcDbEntity
  8
ｴｸｽﾃﾘｱ商品
 62
   250
370
    20
100
AcDbPolyFaceMesh
 66
     1
 10
0.0
 20
0.0
 30
0.0
 70
    64
 71
    30
 72
    29
  0
VERTEX
  5
5B9
330
5B7
100
AcDbEntity
  8
ｴｸｽﾃﾘｱ商品
 62
   250
370
    20
100
AcDbVertex
100
AcDbPolyFaceMeshVertex
 10
128.4
 20
3.000000000000008
 30
177.7
 70
   192
  0
VERTEX
  5
5BA
330
5B7
100
AcDbEntity
  8
ｴｸｽﾃﾘｱ商品
 62
   250
370
    20
100
AcDbVertex
100
AcDbPolyFaceMeshVertex
 10
140.1119869370208
 20
3.000000000000007
 30
157.3973065336874
 70
   192
  0
VERTEX
  5
5BB
330
5B7
100
AcDbEntity
  8
ｴｸｽﾃﾘｱ商品
 62
   250
370
    20
100
AcDbVertex
100
AcDbPolyFaceMeshVertex
 10
140.1119869370208
 20
-2.999999999999994
 30
157.3973065336874
 70
   192
  0
VERTEX
  5
5BC
330
5B7
100
AcDbEntity
  8
ｴｸｽﾃﾘｱ商品
 62
   250
370
    20
100
AcDbVertex
100
AcDbPolyFaceMeshVertex
 10
128.4
 20
-2.999999999999993
 30
177.7
 70
   192
  0
VERTEX
  5
5BD
330
5B7
100
AcDbEntity
  8
ｴｸｽﾃﾘｱ商品
 62
   250
370
    20
100
AcDbVertex
100
AcDbPolyFaceMeshVertex
 10
151.2127319882163
 20
3.000000000000006
 30
140.2563188343639
 70
   192
  0
VERTEX
  5
5BE
330
5B7
100
AcDbEntity
  8
ｴｸｽﾃﾘｱ商品
 62
   250
370
    20
100
AcDbVertex
100
AcDbPolyFaceMeshVertex
 10
151.2127319882163
 20
-2.999999999999996
 30
140.2563188343639
 70
   192
  0
VERTEX
  5
5BF
330
5B7
100
AcDbEntity
  8
ｴｸｽﾃﾘｱ商品
 62
   250
370
    20
100
AcDbVertex
100
AcDbPolyFaceMeshVertex
 10
159.9759288625128
 20
3.000000000000005
 30
128.9733059148322
 70
   192
  0
VERTEX
  5
5C0
330
5B7
100
AcDbEntity
  8
ｴｸｽﾃﾘｱ商品
 62
   250
370
    20
100
AcDbVertex
100
AcDbPolyFaceMeshVertex
 10
159.9759288625128
 20
-2.999999999999996
 30
128.9733059148322
 70
   192
  0
VERTEX
  5
5C1
330
5B7
100
AcDbEntity
  8
ｴｸｽﾃﾘｱ商品
 62
   250
370
    20
100
AcDbVertex
100
AcDbPolyFaceMeshVertex
 10
167.222921357525
 20
3.000000000000005
 30
122.3754956889135
 70
   192
  0
VERTEX
  5
5C2
330
5B7
100
AcDbEntity
  8
ｴｸｽﾃﾘｱ商品
 62
   250
370
    20
100
AcDbVertex
100
AcDbPolyFaceMeshVertex
 10
167.222921357525
 20
-2.999999999999997
 30
122.3754956889135
 70
   192
  0
VERTEX
  5
5C3
330
5B7
100
AcDbEntity
  8
ｴｸｽﾃﾘｱ商品
 62
   250
370
    20
100
AcDbVertex
100
AcDbPolyFaceMeshVertex
 10
179.9284136206815
 20
3.000000000000004
 30
113.5720607711743
 70
   192
  0
VERTEX
  5
5C4
330
5B7
100
AcDbEntity
  8
ｴｸｽﾃﾘｱ商品
 62
   250
370
    20
100
AcDbVertex
100
AcDbPolyFaceMeshVertex
 10
179.9284136206815
 20
-2.999999999999998
 30
113.5720607711743
 70
   192
  0
VERTEX
  5
5C5
330
5B7
100
AcDbEntity
  8
ｴｸｽﾃﾘｱ商品
 62
   250
370
    20
100
AcDbVertex
100
AcDbPolyFaceMeshVertex
 10
199.5633771006589
 20
3.000000000000004
 30
102.970730234871
 70
   192
  0
VERTEX
  5
5C6
330
5B7
100
AcDbEntity
  8
ｴｸｽﾃﾘｱ商品
 62
   250
370
    20
100
AcDbVertex
100
AcDbPolyFaceMeshVertex
 10
199.5633771006589
 20
-2.999999999999998
 30
102.970730234871
 70
   192
  0
VERTEX
  5
5C7
330
5B7
100
AcDbEntity
  8
ｴｸｽﾃﾘｱ商品
 62
   250
370
    20
100
AcDbVertex
100
AcDbPolyFaceMeshVertex
 10
216.7446735937579
 20
3.000000000000003
 30
95.60506320355454
 70
   192
  0
VERTEX
  5
5C8
330
5B7
100
AcDbEntity
  8
ｴｸｽﾃﾘｱ商品
 62
   250
370
    20
100
AcDbVertex
100
AcDbPolyFaceMeshVertex
 10
216.7446735937579
 20
-2.999999999999999
 30
95.60506320355454
 70
   192
  0
VERTEX
  5
5C9
330
5B7
100
AcDbEntity
  8
ｴｸｽﾃﾘｱ商品
 62
   250
370
    20
100
AcDbVertex
100
AcDbPolyFaceMeshVertex
 10
206.145640717629
 20
3.000000000000004
 30
110.6417018602071
 70
   192
  0
VERTEX
  5
5CA
330
5B7
100
AcDbEntity
  8
ｴｸｽﾃﾘｱ商品
 62
   250
370
    20
100
AcDbVertex
100
AcDbPolyFaceMeshVertex
 10
206.145640717629
 20
-2.999999999999998
 30
110.6417018602071
 70
   192
  0
VERTEX
  5
5CB
330
5B7
100
AcDbEntity
  8
ｴｸｽﾃﾘｱ商品
 62
   250
370
    20
100
AcDbVertex
100
AcDbPolyFaceMeshVertex
 10
194.5676876100434
 20
3.000000000000005
 30
125.3594123424305
 70
   192
  0
VERTEX
  5
5CC
330
5B7
100
AcDbEntity
  8
ｴｸｽﾃﾘｱ商品
 62
   250
370
    20
100
AcDbVertex
100
AcDbPolyFaceMeshVertex
 10
194.5676876100434
 20
-2.999999999999997
 30
125.3594123424305
 70
   192
  0
VERTEX
  5
5CD
330
5B7
100
AcDbEntity
  8
ｴｸｽﾃﾘｱ商品
 62
   250
370
    20
100
AcDbVertex
100
AcDbPolyFaceMeshVertex
 10
185.4796769102159
 20
3.000000000000006
 30
135.8521746822446
 70
   192
  0
VERTEX
  5
5CE
330
5B7
100
AcDbEntity
  8
ｴｸｽﾃﾘｱ商品
 62
   250
370
    20
100
AcDbVertex
100
AcDbPolyFaceMeshVertex
 10
185.4796769102159
 20
-2.999999999999996
 30
135.8521746822446
 70
   192
  0
VERTEX
  5
5CF
330
5B7
100
AcDbEntity
  8
ｴｸｽﾃﾘｱ商品
 62
   250
370
    20
100
AcDbVertex
100
AcDbPolyFaceMeshVertex
 10
177.1027768491255
 20
3.000000000000006
 30
144.3190244722494
 70
   192
  0
VERTEX
  5
5D0
330
5B7
100
AcDbEntity
  8
ｴｸｽﾃﾘｱ商品
 62
   250
370
    20
100
AcDbVertex
100
AcDbPolyFaceMeshVertex
 10
177.1027768491255
 20
-2.999999999999995
 30
144.3190244722494
 70
   192
  0
VERTEX
  5
5D1
330
5B7
100
AcDbEntity
  8
ｴｸｽﾃﾘｱ商品
 62
   250
370
    20
100
AcDbVertex
100
AcDbPolyFaceMeshVertex
 10
165.9415103245242
 20
3.000000000000007
 30
153.4621163763492
 70
   192
  0
VERTEX
  5
5D2
330
5B7
100
AcDbEntity
  8
ｴｸｽﾃﾘｱ商品
 62
   250
370
    20
100
AcDbVertex
100
AcDbPolyFaceMeshVertex
 10
165.9415103245242
 20
-2.999999999999995
 30
153.4621163763492
 70
   192
  0
VERTEX
  5
5D3
330
5B7
100
AcDbEntity
  8
ｴｸｽﾃﾘｱ商品
 62
   250
370
    20
100
AcDbVertex
100
AcDbPolyFaceMeshVertex
 10
153.4402343220554
 20
3.000000000000008
 30
162.4853141637246
 70
   192
  0
VERTEX
  5
5D4
330
5B7
100
AcDbEntity
  8
ｴｸｽﾃﾘｱ商品
 62
   250
370
    20
100
AcDbVertex
100
AcDbPolyFaceMeshVertex
 10
153.4402343220554
 20
-2.999999999999994
 30
162.4853141637246
 70
   192
  0
VERTEX
  5
5D5
330
5B7
100
AcDbEntity
  8
ｴｸｽﾃﾘｱ商品
 62
   250
370
    20
100
AcDbVertex
100
AcDbPolyFaceMeshVertex
 10
143.2202057117931
 20
3.000000000000008
 30
169.1156245037782
 70
   192
  0
VERTEX
  5
5D6
330
5B7
100
AcDbEntity
  8
ｴｸｽﾃﾘｱ商品
 62
   250
370
    20
100
AcDbVertex
100
AcDbPolyFaceMeshVertex
 10
143.2202057117931
 20
-2.999999999999994
 30
169.1156245037782
 70
   192
  0
VERTEX
  5
5D7
330
5B7
100
AcDbEntity
  8
ｴｸｽﾃﾘｱ商品
 62
   250
370
    20
100
AcDbFaceRecord
 10
0.0
 20
0.0
 30
0.0
 70
   128
 71
     1
 72
     2
 73
     3
 74
     4
  0
VERTEX
  5
5D8
330
5B7
100
AcDbEntity
  8
ｴｸｽﾃﾘｱ商品
 62
   250
370
    20
100
AcDbFaceRecord
 10
0.0
 20
0.0
 30
0.0
 70
   128
 71
     2
 72
     5
 73
     6
 74
     3
  0
VERTEX
  5
5D9
330
5B7
100
AcDbEntity
  8
ｴｸｽﾃﾘｱ商品
 62
   250
370
    20
100
AcDbFaceRecord
 10
0.0
 20
0.0
 30
0.0
 70
   128
 71
     5
 72
     7
 73
     8
 74
     6
  0
VERTEX
  5
5DA
330
5B7
100
AcDbEntity
  8
ｴｸｽﾃﾘｱ商品
 62
   250
370
    20
100
AcDbFaceRecord
 10
0.0
 20
0.0
 30
0.0
 70
   128
 71
     7
 72
     9
 73
    10
 74
     8
  0
VERTEX
  5
5DB
330
5B7
100
AcDbEntity
  8
ｴｸｽﾃﾘｱ商品
 62
   250
370
    20
100
AcDbFaceRecord
 10
0.0
 20
0.0
 30
0.0
 70
   128
 71
     9
 72
    11
 73
    12
 74
    10
  0
VERTEX
  5
5DC
330
5B7
100
AcDbEntity
  8
ｴｸｽﾃﾘｱ商品
 62
   250
370
    20
100
AcDbFaceRecord
 10
0.0
 20
0.0
 30
0.0
 70
   128
 71
    11
 72
    13
 73
    14
 74
    12
  0
VERTEX
  5
5DD
330
5B7
100
AcDbEntity
  8
ｴｸｽﾃﾘｱ商品
 62
   250
370
    20
100
AcDbFaceRecord
 10
0.0
 20
0.0
 30
0.0
 70
   128
 71
    13
 72
    15
 73
    16
 74
    14
  0
VERTEX
  5
5DE
330
5B7
100
AcDbEntity
  8
ｴｸｽﾃﾘｱ商品
 62
   250
370
    20
100
AcDbFaceRecord
 10
0.0
 20
0.0
 30
0.0
 70
   128
 71
    15
 72
    17
 73
    18
 74
    16
  0
VERTEX
  5
5DF
330
5B7
100
AcDbEntity
  8
ｴｸｽﾃﾘｱ商品
 62
   250
370
    20
100
AcDbFaceRecord
 10
0.0
 20
0.0
 30
0.0
 70
   128
 71
    17
 72
    19
 73
    20
 74
    18
  0
VERTEX
  5
5E0
330
5B7
100
AcDbEntity
  8
ｴｸｽﾃﾘｱ商品
 62
   250
370
    20
100
AcDbFaceRecord
 10
0.0
 20
0.0
 30
0.0
 70
   128
 71
    19
 72
    21
 73
    22
 74
    20
  0
VERTEX
  5
5E1
330
5B7
100
AcDbEntity
  8
ｴｸｽﾃﾘｱ商品
 62
   250
370
    20
100
AcDbFaceRecord
 10
0.0
 20
0.0
 30
0.0
 70
   128
 71
    21
 72
    23
 73
    24
 74
    22
  0
VERTEX
  5
5E2
330
5B7
100
AcDbEntity
  8
ｴｸｽﾃﾘｱ商品
 62
   250
370
    20
100
AcDbFaceRecord
 10
0.0
 20
0.0
 30
0.0
 70
   128
 71
    23
 72
    25
 73
    26
 74
    24
  0
VERTEX
  5
5E3
330
5B7
100
AcDbEntity
  8
ｴｸｽﾃﾘｱ商品
 62
   250
370
    20
100
AcDbFaceRecord
 10
0.0
 20
0.0
 30
0.0
 70
   128
 71
    25
 72
    27
 73
    28
 74
    26
  0
VERTEX
  5
5E4
330
5B7
100
AcDbEntity
  8
ｴｸｽﾃﾘｱ商品
 62
   250
370
    20
100
AcDbFaceRecord
 10
0.0
 20
0.0
 30
0.0
 70
   128
 71
    27
 72
    29
 73
    30
 74
    28
  0
VERTEX
  5
5E5
330
5B7
100
AcDbEntity
  8
ｴｸｽﾃﾘｱ商品
 62
   250
370
    20
100
AcDbFaceRecord
 10
0.0
 20
0.0
 30
0.0
 70
   128
 71
    29
 72
     1
 73
     4
 74
    30
  0
VERTEX
  5
5E6
330
5B7
100
AcDbEntity
  8
ｴｸｽﾃﾘｱ商品
 62
   250
370
    20
100
AcDbFaceRecord
 10
0.0
 20
0.0
 30
0.0
 70
   128
 71
     1
 72
    29
 73
    27
 74
    25
  0
VERTEX
  5
5E7
330
5B7
100
AcDbEntity
  8
ｴｸｽﾃﾘｱ商品
 62
   250
370
    20
100
AcDbFaceRecord
 10
0.0
 20
0.0
 30
0.0
 70
   128
 71
     1
 72
    25
 73
    23
 74
    21
  0
VERTEX
  5
5E8
330
5B7
100
AcDbEntity
  8
ｴｸｽﾃﾘｱ商品
 62
   250
370
    20
100
AcDbFaceRecord
 10
0.0
 20
0.0
 30
0.0
 70
   128
 71
     1
 72
    21
 73
    19
 74
    17
  0
VERTEX
  5
5E9
330
5B7
100
AcDbEntity
  8
ｴｸｽﾃﾘｱ商品
 62
   250
370
    20
100
AcDbFaceRecord
 10
0.0
 20
0.0
 30
0.0
 70
   128
 71
     1
 72
    17
 73
    15
 74
    13
  0
VERTEX
  5
5EA
330
5B7
100
AcDbEntity
  8
ｴｸｽﾃﾘｱ商品
 62
   250
370
    20
100
AcDbFaceRecord
 10
0.0
 20
0.0
 30
0.0
 70
   128
 71
     1
 72
    13
 73
    11
 74
     9
  0
VERTEX
  5
5EB
330
5B7
100
AcDbEntity
  8
ｴｸｽﾃﾘｱ商品
 62
   250
370
    20
100
AcDbFaceRecord
 10
0.0
 20
0.0
 30
0.0
 70
   128
 71
     1
 72
     9
 73
     7
 74
     5
  0
VERTEX
  5
5EC
330
5B7
100
AcDbEntity
  8
ｴｸｽﾃﾘｱ商品
 62
   250
370
    20
100
AcDbFaceRecord
 10
0.0
 20
0.0
 30
0.0
 70
   128
 71
     1
 72
     5
 73
     2
  0
VERTEX
  5
5ED
330
5B7
100
AcDbEntity
  8
ｴｸｽﾃﾘｱ商品
 62
   250
370
    20
100
AcDbFaceRecord
 10
0.0
 20
0.0
 30
0.0
 70
   128
 71
     4
 72
     3
 73
     6
 74
     8
  0
VERTEX
  5
5EE
330
5B7
100
AcDbEntity
  8
ｴｸｽﾃﾘｱ商品
 62
   250
370
    20
100
AcDbFaceRecord
 10
0.0
 20
0.0
 30
0.0
 70
   128
 71
     4
 72
     8
 73
    10
 74
    12
  0
VERTEX
  5
5EF
330
5B7
100
AcDbEntity
  8
ｴｸｽﾃﾘｱ商品
 62
   250
370
    20
100
AcDbFaceRecord
 10
0.0
 20
0.0
 30
0.0
 70
   128
 71
     4
 72
    12
 73
    14
 74
    16
  0
VERTEX
  5
5F0
330
5B7
100
AcDbEntity
  8
ｴｸｽﾃﾘｱ商品
 62
   250
370
    20
100
AcDbFaceRecord
 10
0.0
 20
0.0
 30
0.0
 70
   128
 71
     4
 72
    16
 73
    18
 74
    20
  0
VERTEX
  5
5F1
330
5B7
100
AcDbEntity
  8
ｴｸｽﾃﾘｱ商品
 62
   250
370
    20
100
AcDbFaceRecord
 10
0.0
 20
0.0
 30
0.0
 70
   128
 71
     4
 72
    20
 73
    22
 74
    24
  0
VERTEX
  5
5F2
330
5B7
100
AcDbEntity
  8
ｴｸｽﾃﾘｱ商品
 62
   250
370
    20
100
AcDbFaceRecord
 10
0.0
 20
0.0
 30
0.0
 70
   128
 71
     4
 72
    24
 73
    26
 74
    28
  0
VERTEX
  5
5F3
330
5B7
100
AcDbEntity
  8
ｴｸｽﾃﾘｱ商品
 62
   250
370
    20
100
AcDbFaceRecord
 10
0.0
 20
0.0
 30
0.0
 70
   128
 71
     4
 72
    28
 73
    30
  0
SEQEND
  5
5B8
330
5B7
100
AcDbEntity
  8
ｴｸｽﾃﾘｱ商品
370
    20
  0
POLYLINE
  5
5F4
330
3C
100
AcDbEntity
  8
ｴｸｽﾃﾘｱ商品
 62
   250
370
    20
100
AcDbPolyFaceMesh
 66
     1
 10
0.0
 20
0.0
 30
0.0
 70
    64
 71
    30
 72
    29
  0
VERTEX
  5
5F6
330
5F4
100
AcDbEntity
  8
ｴｸｽﾃﾘｱ商品
 62
   250
370
    20
100
AcDbVertex
100
AcDbPolyFaceMeshVertex
 10
335.5000000000001
 20
3.000000000000016
 30
310.3
 70
   192
  0
VERTEX
  5
5F7
330
5F4
100
AcDbEntity
  8
ｴｸｽﾃﾘｱ商品
 62
   250
370
    20
100
AcDbVertex
100
AcDbPolyFaceMeshVertex
 10
337.4528561777956
 20
3.000000000000015
 30
286.9428522128911
 70
   192
  0
VERTEX
  5
5F8
330
5F4
100
AcDbEntity
  8
ｴｸｽﾃﾘｱ商品
 62
   250
370
    20
100
AcDbVertex
100
AcDbPolyFaceMeshVertex
 10
337.4528561777956
 20
-2.999999999999988
 30
286.9428522128911
 70
   192
  0
VERTEX
  5
5F9
330
5F4
100
AcDbEntity
  8
ｴｸｽﾃﾘｱ商品
 62
   250
370
    20
100
AcDbVertex
100
AcDbPolyFaceMeshVertex
 10
335.5000000000001
 20
-2.999999999999986
 30
310.3
 70
   192
  0
VERTEX
  5
5FA
330
5F4
100
AcDbEntity
  8
ｴｸｽﾃﾘｱ商品
 62
   250
370
    20
100
AcDbVertex
100
AcDbPolyFaceMeshVertex
 10
340.1988330033021
 20
3.000000000000013
 30
266.7067554728135
 70
   192
  0
VERTEX
  5
5FB
330
5F4
100
AcDbEntity
  8
ｴｸｽﾃﾘｱ商品
 62
   250
370
    20
100
AcDbVertex
100
AcDbPolyFaceMeshVertex
 10
340.1988330033021
 20
-2.999999999999988
 30
266.7067554728135
 70
   192
  0
VERTEX
  5
5FC
330
5F4
100
AcDbEntity
  8
ｴｸｽﾃﾘｱ商品
 62
   250
370
    20
100
AcDbVertex
100
AcDbPolyFaceMeshVertex
 10
343.3239373536535
 20
3.000000000000012
 30
252.7663923929143
 70
   192
  0
VERTEX
  5
5FD
330
5F4
100
AcDbEntity
  8
ｴｸｽﾃﾘｱ商品
 62
   250
370
    20
100
AcDbVertex
100
AcDbPolyFaceMeshVertex
 10
343.3239373536535
 20
-2.999999999999989
 30
252.7663923929143
 70
   192
  0
VERTEX
  5
5FE
330
5F4
100
AcDbEntity
  8
ｴｸｽﾃﾘｱ商品
 62
   250
370
    20
100
AcDbVertex
100
AcDbPolyFaceMeshVertex
 10
347.0720012482863
 20
3.000000000000012
 30
243.7108958829625
 70
   192
  0
VERTEX
  5
5FF
330
5F4
100
AcDbEntity
  8
ｴｸｽﾃﾘｱ商品
 62
   250
370
    20
100
AcDbVertex
100
AcDbPolyFaceMeshVertex
 10
347.0720012482863
 20
-2.99999999999999
 30
243.7108958829625
 70
   192
  0
VERTEX
  5
600
330
5F4
100
AcDbEntity
  8
ｴｸｽﾃﾘｱ商品
 62
   250
370
    20
100
AcDbVertex
100
AcDbPolyFaceMeshVertex
 10
354.8199540802738
 20
3.000000000000012
 30
230.3355743199758
 70
   192
  0
VERTEX
  5
601
330
5F4
100
AcDbEntity
  8
ｴｸｽﾃﾘｱ商品
 62
   250
370
    20
100
AcDbVertex
100
AcDbPolyFaceMeshVertex
 10
354.8199540802738
 20
-2.999999999999991
 30
230.3355743199758
 70
   192
  0
VERTEX
  5
602
330
5F4
100
AcDbEntity
  8
ｴｸｽﾃﾘｱ商品
 62
   250
370
    20
100
AcDbVertex
100
AcDbPolyFaceMeshVertex
 10
368.0723732057452
 20
3.00000000000001
 30
212.3830428181836
 70
   192
  0
VERTEX
  5
603
330
5F4
100
AcDbEntity
  8
ｴｸｽﾃﾘｱ商品
 62
   250
370
    20
100
AcDbVertex
100
AcDbPolyFaceMeshVertex
 10
368.0723732057452
 20
-2.999999999999992
 30
212.3830428181836
 70
   192
  0
VERTEX
  5
604
330
5F4
100
AcDbEntity
  8
ｴｸｽﾃﾘｱ商品
 62
   250
370
    20
100
AcDbVertex
100
AcDbPolyFaceMeshVertex
 10
380.4823265786426
 20
3.000000000000009
 30
198.4029477797903
 70
   192
  0
VERTEX
  5
605
330
5F4
100
AcDbEntity
  8
ｴｸｽﾃﾘｱ商品
 62
   250
370
    20
100
AcDbVertex
100
AcDbPolyFaceMeshVertex
 10
380.4823265786426
 20
-2.999999999999993
 30
198.4029477797903
 70
   192
  0
VERTEX
  5
606
330
5F4
100
AcDbEntity
  8
ｴｸｽﾃﾘｱ商品
 62
   250
370
    20
100
AcDbVertex
100
AcDbPolyFaceMeshVertex
 10
377.294324257094
 20
3.000000000000011
 30
216.5213539237589
 70
   192
  0
VERTEX
  5
607
330
5F4
100
AcDbEntity
  8
ｴｸｽﾃﾘｱ商品
 62
   250
370
    20
100
AcDbVertex
100
AcDbPolyFaceMeshVertex
 10
377.294324257094
 20
-2.999999999999992
 30
216.5213539237589
 70
   192
  0
VERTEX
  5
608
330
5F4
100
AcDbEntity
  8
ｴｸｽﾃﾘｱ商品
 62
   250
370
    20
100
AcDbVertex
100
AcDbPolyFaceMeshVertex
 10
373.0847754157484
 20
3.000000000000012
 30
234.7679891903587
 70
   192
  0
VERTEX
  5
609
330
5F4
100
AcDbEntity
  8
ｴｸｽﾃﾘｱ商品
 62
   250
370
    20
100
AcDbVertex
100
AcDbPolyFaceMeshVertex
 10
373.0847754157484
 20
-2.99999999999999
 30
234.7679891903587
 70
   192
  0
VERTEX
  5
60A
330
5F4
100
AcDbEntity
  8
ｴｸｽﾃﾘｱ商品
 62
   250
370
    20
100
AcDbVertex
100
AcDbPolyFaceMeshVertex
 10
369.3292983970506
 20
3.000000000000012
 30
248.1316111680276
 70
   192
  0
VERTEX
  5
60B
330
5F4
100
AcDbEntity
  8
ｴｸｽﾃﾘｱ商品
 62
   250
370
    20
100
AcDbVertex
100
AcDbPolyFaceMeshVertex
 10
369.3292983970506
 20
-2.999999999999989
 30
248.1316111680276
 70
   192
  0
VERTEX
  5
60C
330
5F4
100
AcDbEntity
  8
ｴｸｽﾃﾘｱ商品
 62
   250
370
    20
100
AcDbVertex
100
AcDbPolyFaceMeshVertex
 10
365.3546619113479
 20
3.000000000000013
 30
259.3593564807126
 70
   192
  0
VERTEX
  5
60D
330
5F4
100
AcDbEntity
  8
ｴｸｽﾃﾘｱ商品
 62
   250
370
    20
100
AcDbVertex
100
AcDbPolyFaceMeshVertex
 10
365.3546619113479
 20
-2.999999999999989
 30
259.3593564807126
 70
   192
  0
VERTEX
  5
60E
330
5F4
100
AcDbEntity
  8
ｴｸｽﾃﾘｱ商品
 62
   250
370
    20
100
AcDbVertex
100
AcDbPolyFaceMeshVertex
 10
359.1485852137473
 20
3.000000000000014
 30
272.3845095325389
 70
   192
  0
VERTEX
  5
60F
330
5F4
100
AcDbEntity
  8
ｴｸｽﾃﾘｱ商品
 62
   250
370
    20
100
AcDbVertex
100
AcDbPolyFaceMeshVertex
 10
359.1485852137473
 20
-2.999999999999988
 30
272.3845095325389
 70
   192
  0
VERTEX
  5
610
330
5F4
100
AcDbEntity
  8
ｴｸｽﾃﾘｱ商品
 62
   250
370
    20
100
AcDbVertex
100
AcDbPolyFaceMeshVertex
 10
351.6789832579294
 20
3.000000000000015
 30
285.8717274302983
 70
   192
  0
VERTEX
  5
611
330
5F4
100
AcDbEntity
  8
ｴｸｽﾃﾘｱ商品
 62
   250
370
    20
100
AcDbVertex
100
AcDbPolyFaceMeshVertex
 10
351.6789832579294
 20
-2.999999999999988
 30
285.8717274302983
 70
   192
  0
VERTEX
  5
612
330
5F4
100
AcDbEntity
  8
ｴｸｽﾃﾘｱ商品
 62
   250
370
    20
100
AcDbVertex
100
AcDbPolyFaceMeshVertex
 10
345.254673733832
 20
3.000000000000015
 30
296.2224881336761
 70
   192
  0
VERTEX
  5
613
330
5F4
100
AcDbEntity
  8
ｴｸｽﾃﾘｱ商品
 62
   250
370
    20
100
AcDbVertex
100
AcDbPolyFaceMeshVertex
 10
345.254673733832
 20
-2.999999999999987
 30
296.2224881336761
 70
   192
  0
VERTEX
  5
614
330
5F4
100
AcDbEntity
  8
ｴｸｽﾃﾘｱ商品
 62
   250
370
    20
100
AcDbFaceRecord
 10
0.0
 20
0.0
 30
0.0
 70
   128
 71
     1
 72
     2
 73
     3
 74
     4
  0
VERTEX
  5
615
330
5F4
100
AcDbEntity
  8
ｴｸｽﾃﾘｱ商品
 62
   250
370
    20
100
AcDbFaceRecord
 10
0.0
 20
0.0
 30
0.0
 70
   128
 71
     2
 72
     5
 73
     6
 74
     3
  0
VERTEX
  5
616
330
5F4
100
AcDbEntity
  8
ｴｸｽﾃﾘｱ商品
 62
   250
370
    20
100
AcDbFaceRecord
 10
0.0
 20
0.0
 30
0.0
 70
   128
 71
     5
 72
     7
 73
     8
 74
     6
  0
VERTEX
  5
617
330
5F4
100
AcDbEntity
  8
ｴｸｽﾃﾘｱ商品
 62
   250
370
    20
100
AcDbFaceRecord
 10
0.0
 20
0.0
 30
0.0
 70
   128
 71
     7
 72
     9
 73
    10
 74
     8
  0
VERTEX
  5
618
330
5F4
100
AcDbEntity
  8
ｴｸｽﾃﾘｱ商品
 62
   250
370
    20
100
AcDbFaceRecord
 10
0.0
 20
0.0
 30
0.0
 70
   128
 71
     9
 72
    11
 73
    12
 74
    10
  0
VERTEX
  5
619
330
5F4
100
AcDbEntity
  8
ｴｸｽﾃﾘｱ商品
 62
   250
370
    20
100
AcDbFaceRecord
 10
0.0
 20
0.0
 30
0.0
 70
   128
 71
    11
 72
    13
 73
    14
 74
    12
  0
VERTEX
  5
61A
330
5F4
100
AcDbEntity
  8
ｴｸｽﾃﾘｱ商品
 62
   250
370
    20
100
AcDbFaceRecord
 10
0.0
 20
0.0
 30
0.0
 70
   128
 71
    13
 72
    15
 73
    16
 74
    14
  0
VERTEX
  5
61B
330
5F4
100
AcDbEntity
  8
ｴｸｽﾃﾘｱ商品
 62
   250
370
    20
100
AcDbFaceRecord
 10
0.0
 20
0.0
 30
0.0
 70
   128
 71
    15
 72
    17
 73
    18
 74
    16
  0
VERTEX
  5
61C
330
5F4
100
AcDbEntity
  8
ｴｸｽﾃﾘｱ商品
 62
   250
370
    20
100
AcDbFaceRecord
 10
0.0
 20
0.0
 30
0.0
 70
   128
 71
    17
 72
    19
 73
    20
 74
    18
  0
VERTEX
  5
61D
330
5F4
100
AcDbEntity
  8
ｴｸｽﾃﾘｱ商品
 62
   250
370
    20
100
AcDbFaceRecord
 10
0.0
 20
0.0
 30
0.0
 70
   128
 71
    19
 72
    21
 73
    22
 74
    20
  0
VERTEX
  5
61E
330
5F4
100
AcDbEntity
  8
ｴｸｽﾃﾘｱ商品
 62
   250
370
    20
100
AcDbFaceRecord
 10
0.0
 20
0.0
 30
0.0
 70
   128
 71
    21
 72
    23
 73
    24
 74
    22
  0
VERTEX
  5
61F
330
5F4
100
AcDbEntity
  8
ｴｸｽﾃﾘｱ商品
 62
   250
370
    20
100
AcDbFaceRecord
 10
0.0
 20
0.0
 30
0.0
 70
   128
 71
    23
 72
    25
 73
    26
 74
    24
  0
VERTEX
  5
620
330
5F4
100
AcDbEntity
  8
ｴｸｽﾃﾘｱ商品
 62
   250
370
    20
100
AcDbFaceRecord
 10
0.0
 20
0.0
 30
0.0
 70
   128
 71
    25
 72
    27
 73
    28
 74
    26
  0
VERTEX
  5
621
330
5F4
100
AcDbEntity
  8
ｴｸｽﾃﾘｱ商品
 62
   250
370
    20
100
AcDbFaceRecord
 10
0.0
 20
0.0
 30
0.0
 70
   128
 71
    27
 72
    29
 73
    30
 74
    28
  0
VERTEX
  5
622
330
5F4
100
AcDbEntity
  8
ｴｸｽﾃﾘｱ商品
 62
   250
370
    20
100
AcDbFaceRecord
 10
0.0
 20
0.0
 30
0.0
 70
   128
 71
    29
 72
     1
 73
     4
 74
    30
  0
VERTEX
  5
623
330
5F4
100
AcDbEntity
  8
ｴｸｽﾃﾘｱ商品
 62
   250
370
    20
100
AcDbFaceRecord
 10
0.0
 20
0.0
 30
0.0
 70
   128
 71
     1
 72
    29
 73
    27
 74
    25
  0
VERTEX
  5
624
330
5F4
100
AcDbEntity
  8
ｴｸｽﾃﾘｱ商品
 62
   250
370
    20
100
AcDbFaceRecord
 10
0.0
 20
0.0
 30
0.0
 70
   128
 71
     1
 72
    25
 73
    23
 74
    21
  0
VERTEX
  5
625
330
5F4
100
AcDbEntity
  8
ｴｸｽﾃﾘｱ商品
 62
   250
370
    20
100
AcDbFaceRecord
 10
0.0
 20
0.0
 30
0.0
 70
   128
 71
     1
 72
    21
 73
    19
 74
    17
  0
VERTEX
  5
626
330
5F4
100
AcDbEntity
  8
ｴｸｽﾃﾘｱ商品
 62
   250
370
    20
100
AcDbFaceRecord
 10
0.0
 20
0.0
 30
0.0
 70
   128
 71
     1
 72
    17
 73
    15
 74
    13
  0
VERTEX
  5
627
330
5F4
100
AcDbEntity
  8
ｴｸｽﾃﾘｱ商品
 62
   250
370
    20
100
AcDbFaceRecord
 10
0.0
 20
0.0
 30
0.0
 70
   128
 71
     1
 72
    13
 73
    11
 74
     9
  0
VERTEX
  5
628
330
5F4
100
AcDbEntity
  8
ｴｸｽﾃﾘｱ商品
 62
   250
370
    20
100
AcDbFaceRecord
 10
0.0
 20
0.0
 30
0.0
 70
   128
 71
     1
 72
     9
 73
     7
 74
     5
  0
VERTEX
  5
629
330
5F4
100
AcDbEntity
  8
ｴｸｽﾃﾘｱ商品
 62
   250
370
    20
100
AcDbFaceRecord
 10
0.0
 20
0.0
 30
0.0
 70
   128
 71
     1
 72
     5
 73
     2
  0
VERTEX
  5
62A
330
5F4
100
AcDbEntity
  8
ｴｸｽﾃﾘｱ商品
 62
   250
370
    20
100
AcDbFaceRecord
 10
0.0
 20
0.0
 30
0.0
 70
   128
 71
     4
 72
     3
 73
     6
 74
     8
  0
VERTEX
  5
62B
330
5F4
100
AcDbEntity
  8
ｴｸｽﾃﾘｱ商品
 62
   250
370
    20
100
AcDbFaceRecord
 10
0.0
 20
0.0
 30
0.0
 70
   128
 71
     4
 72
     8
 73
    10
 74
    12
  0
VERTEX
  5
62C
330
5F4
100
AcDbEntity
  8
ｴｸｽﾃﾘｱ商品
 62
   250
370
    20
100
AcDbFaceRecord
 10
0.0
 20
0.0
 30
0.0
 70
   128
 71
     4
 72
    12
 73
    14
 74
    16
  0
VERTEX
  5
62D
330
5F4
100
AcDbEntity
  8
ｴｸｽﾃﾘｱ商品
 62
   250
370
    20
100
AcDbFaceRecord
 10
0.0
 20
0.0
 30
0.0
 70
   128
 71
     4
 72
    16
 73
    18
 74
    20
  0
VERTEX
  5
62E
330
5F4
100
AcDbEntity
  8
ｴｸｽﾃﾘｱ商品
 62
   250
370
    20
100
AcDbFaceRecord
 10
0.0
 20
0.0
 30
0.0
 70
   128
 71
     4
 72
    20
 73
    22
 74
    24
  0
VERTEX
  5
62F
330
5F4
100
AcDbEntity
  8
ｴｸｽﾃﾘｱ商品
 62
   250
370
    20
100
AcDbFaceRecord
 10
0.0
 20
0.0
 30
0.0
 70
   128
 71
     4
 72
    24
 73
    26
 74
    28
  0
VERTEX
  5
630
330
5F4
100
AcDbEntity
  8
ｴｸｽﾃﾘｱ商品
 62
   250
370
    20
100
AcDbFaceRecord
 10
0.0
 20
0.0
 30
0.0
 70
   128
 71
     4
 72
    28
 73
    30
  0
SEQEND
  5
5F5
330
5F4
100
AcDbEntity
  8
ｴｸｽﾃﾘｱ商品
370
    20
  0
POLYLINE
  5
631
330
3C
100
AcDbEntity
  8
ｴｸｽﾃﾘｱ商品
 62
   250
370
    20
100
AcDbPolyFaceMesh
 66
     1
 10
0.0
 20
0.0
 30
0.0
 70
    64
 71
    34
 72
    33
  0
VERTEX
  5
633
330
631
100
AcDbEntity
  8
ｴｸｽﾃﾘｱ商品
 62
   250
370
    20
100
AcDbVertex
100
AcDbPolyFaceMeshVertex
 10
435.0000000000001
 20
3.000000000000025
 30
458.7
 70
   192
  0
VERTEX
  5
634
330
631
100
AcDbEntity
  8
ｴｸｽﾃﾘｱ商品
 62
   250
370
    20
100
AcDbVertex
100
AcDbPolyFaceMeshVertex
 10
457.6128341293565
 20
3.000000000000026
 30
471.8510354207649
 70
   192
  0
VERTEX
  5
635
330
631
100
AcDbEntity
  8
ｴｸｽﾃﾘｱ商品
 62
   250
370
    20
100
AcDbVertex
100
AcDbPolyFaceMeshVertex
 10
457.6128341293565
 20
-2.999999999999976
 30
471.8510354207649
 70
   192
  0
VERTEX
  5
636
330
631
100
AcDbEntity
  8
ｴｸｽﾃﾘｱ商品
 62
   250
370
    20
100
AcDbVertex
100
AcDbPolyFaceMeshVertex
 10
435.0000000000001
 20
-2.999999999999976
 30
458.7
 70
   192
  0
VERTEX
  5
637
330
631
100
AcDbEntity
  8
ｴｸｽﾃﾘｱ商品
 62
   250
370
    20
100
AcDbVertex
100
AcDbPolyFaceMeshVertex
 10
475.754910043409
 20
3.000000000000027
 30
483.5486882421115
 70
   192
  0
VERTEX
  5
638
330
631
100
AcDbEntity
  8
ｴｸｽﾃﾘｱ商品
 62
   250
370
    20
100
AcDbVertex
100
AcDbPolyFaceMeshVertex
 10
475.754910043409
 20
-2.999999999999975
 30
483.5486882421115
 70
   192
  0
VERTEX
  5
639
330
631
100
AcDbEntity
  8
ｴｸｽﾃﾘｱ商品
 62
   250
370
    20
100
AcDbVertex
100
AcDbPolyFaceMeshVertex
 10
488.2620053183254
 20
3.000000000000028
 30
492.8262185052885
 70
   192
  0
VERTEX
  5
63A
330
631
100
AcDbEntity
  8
ｴｸｽﾃﾘｱ商品
 62
   250
370
    20
100
AcDbVertex
100
AcDbPolyFaceMeshVertex
 10
488.2620053183254
 20
-2.999999999999975
 30
492.8262185052885
 70
   192
  0
VERTEX
  5
63B
330
631
100
AcDbEntity
  8
ｴｸｽﾃﾘｱ商品
 62
   250
370
    20
100
AcDbVertex
100
AcDbPolyFaceMeshVertex
 10
495.3602698251788
 20
3.000000000000028
 30
499.3388708828336
 70
   192
  0
VERTEX
  5
63C
330
631
100
AcDbEntity
  8
ｴｸｽﾃﾘｱ商品
 62
   250
370
    20
100
AcDbVertex
100
AcDbPolyFaceMeshVertex
 10
495.3602698251788
 20
-2.999999999999974
 30
499.3388708828336
 70
   192
  0
VERTEX
  5
63D
330
631
100
AcDbEntity
  8
ｴｸｽﾃﾘｱ商品
 62
   250
370
    20
100
AcDbVertex
100
AcDbPolyFaceMeshVertex
 10
505.7244718457524
 20
3.000000000000029
 30
512.6348596191682
 70
   192
  0
VERTEX
  5
63E
330
631
100
AcDbEntity
  8
ｴｸｽﾃﾘｱ商品
 62
   250
370
    20
100
AcDbVertex
100
AcDbPolyFaceMeshVertex
 10
505.7244718457524
 20
-2.999999999999973
 30
512.6348596191682
 70
   192
  0
VERTEX
  5
63F
330
631
100
AcDbEntity
  8
ｴｸｽﾃﾘｱ商品
 62
   250
370
    20
100
AcDbVertex
100
AcDbPolyFaceMeshVertex
 10
517.257701952632
 20
3.00000000000003
 30
532.0638226203623
 70
   192
  0
VERTEX
  5
640
330
631
100
AcDbEntity
  8
ｴｸｽﾃﾘｱ商品
 62
   250
370
    20
100
AcDbVertex
100
AcDbPolyFaceMeshVertex
 10
517.257701952632
 20
-2.999999999999972
 30
532.0638226203623
 70
   192
  0
VERTEX
  5
641
330
631
100
AcDbEntity
  8
ｴｸｽﾃﾘｱ商品
 62
   250
370
    20
100
AcDbVertex
100
AcDbPolyFaceMeshVertex
 10
525.100492379583
 20
3.000000000000031
 30
548.2307839402556
 70
   192
  0
VERTEX
  5
642
330
631
100
AcDbEntity
  8
ｴｸｽﾃﾘｱ商品
 62
   250
370
    20
100
AcDbVertex
100
AcDbPolyFaceMeshVertex
 10
525.100492379583
 20
-2.999999999999972
 30
548.2307839402556
 70
   192
  0
VERTEX
  5
643
330
631
100
AcDbEntity
  8
ｴｸｽﾃﾘｱ商品
 62
   250
370
    20
100
AcDbVertex
100
AcDbPolyFaceMeshVertex
 10
531.2308571542793
 20
3.000000000000032
 30
562.9843810517793
 70
   192
  0
VERTEX
  5
644
330
631
100
AcDbEntity
  8
ｴｸｽﾃﾘｱ商品
 62
   250
370
    20
100
AcDbVertex
100
AcDbPolyFaceMeshVertex
 10
531.2308571542793
 20
-2.999999999999971
 30
562.9843810517793
 70
   192
  0
VERTEX
  5
645
330
631
100
AcDbEntity
  8
ｴｸｽﾃﾘｱ商品
 62
   250
370
    20
100
AcDbVertex
100
AcDbPolyFaceMeshVertex
 10
517.050774731454
 20
3.000000000000031
 30
553.0735151722569
 70
   192
  0
VERTEX
  5
646
330
631
100
AcDbEntity
  8
ｴｸｽﾃﾘｱ商品
 62
   250
370
    20
100
AcDbVertex
100
AcDbPolyFaceMeshVertex
 10
517.050774731454
 20
-2.999999999999971
 30
553.0735151722569
 70
   192
  0
VERTEX
  5
647
330
631
100
AcDbEntity
  8
ｴｸｽﾃﾘｱ商品
 62
   250
370
    20
100
AcDbVertex
100
AcDbPolyFaceMeshVertex
 10
501.2658110710582
 20
3.00000000000003
 30
540.8336245583673
 70
   192
  0
VERTEX
  5
648
330
631
100
AcDbEntity
  8
ｴｸｽﾃﾘｱ商品
 62
   250
370
    20
100
AcDbVertex
100
AcDbPolyFaceMeshVertex
 10
501.2658110710582
 20
-2.999999999999972
 30
540.8336245583673
 70
   192
  0
VERTEX
  5
649
330
631
100
AcDbEntity
  8
ｴｸｽﾃﾘｱ商品
 62
   250
370
    20
100
AcDbVertex
100
AcDbPolyFaceMeshVertex
 10
487.6455728050634
 20
3.00000000000003
 30
529.3175874979228
 70
   192
  0
VERTEX
  5
64A
330
631
100
AcDbEntity
  8
ｴｸｽﾃﾘｱ商品
 62
   250
370
    20
100
AcDbVertex
100
AcDbPolyFaceMeshVertex
 10
487.6455728050634
 20
-2.999999999999972
 30
529.3175874979228
 70
   192
  0
VERTEX
  5
64B
330
631
100
AcDbEntity
  8
ｴｸｽﾃﾘｱ商品
 62
   250
370
    20
100
AcDbVertex
100
AcDbPolyFaceMeshVertex
 10
476.0601034920243
 20
3.000000000000029
 30
518.2371136453914
 70
   192
  0
VERTEX
  5
64C
330
631
100
AcDbEntity
  8
ｴｸｽﾃﾘｱ商品
 62
   250
370
    20
100
AcDbVertex
100
AcDbPolyFaceMeshVertex
 10
476.0601034920243
 20
-2.999999999999973
 30
518.2371136453914
 70
   192
  0
VERTEX
  5
64D
330
631
100
AcDbEntity
  8
ｴｸｽﾃﾘｱ商品
 62
   250
370
    20
100
AcDbVertex
100
AcDbPolyFaceMeshVertex
 10
465.6504975312252
 20
3.000000000000028
 30
506.0715843210713
 70
   192
  0
VERTEX
  5
64E
330
631
100
AcDbEntity
  8
ｴｸｽﾃﾘｱ商品
 62
   250
370
    20
100
AcDbVertex
100
AcDbPolyFaceMeshVertex
 10
465.6504975312252
 20
-2.999999999999974
 30
506.0715843210713
 70
   192
  0
VERTEX
  5
64F
330
631
100
AcDbEntity
  8
ｴｸｽﾃﾘｱ商品
 62
   250
370
    20
100
AcDbVertex
100
AcDbPolyFaceMeshVertex
 10
457.5977138807312
 20
3.000000000000028
 30
495.1329977817447
 70
   192
  0
VERTEX
  5
650
330
631
100
AcDbEntity
  8
ｴｸｽﾃﾘｱ商品
 62
   250
370
    20
100
AcDbVertex
100
AcDbPolyFaceMeshVertex
 10
457.5977138807312
 20
-2.999999999999974
 30
495.1329977817447
 70
   192
  0
VERTEX
  5
651
330
631
100
AcDbEntity
  8
ｴｸｽﾃﾘｱ商品
 62
   250
370
    20
100
AcDbVertex
100
AcDbPolyFaceMeshVertex
 10
450.4492397711784
 20
3.000000000000027
 30
484.5845705101059
 70
   192
  0
VERTEX
  5
652
330
631
100
AcDbEntity
  8
ｴｸｽﾃﾘｱ商品
 62
   250
370
    20
100
AcDbVertex
100
AcDbPolyFaceMeshVertex
 10
450.4492397711784
 20
-2.999999999999975
 30
484.5845705101059
 70
   192
  0
VERTEX
  5
653
330
631
100
AcDbEntity
  8
ｴｸｽﾃﾘｱ商品
 62
   250
370
    20
100
AcDbVertex
100
AcDbPolyFaceMeshVertex
 10
441.8769202982542
 20
3.000000000000026
 30
470.7236420111155
 70
   192
  0
VERTEX
  5
654
330
631
100
AcDbEntity
  8
ｴｸｽﾃﾘｱ商品
 62
   250
370
    20
100
AcDbVertex
100
AcDbPolyFaceMeshVertex
 10
441.8769202982542
 20
-2.999999999999976
 30
470.7236420111155
 70
   192
  0
VERTEX
  5
655
330
631
100
AcDbEntity
  8
ｴｸｽﾃﾘｱ商品
 62
   250
370
    20
100
AcDbFaceRecord
 10
0.0
 20
0.0
 30
0.0
 70
   128
 71
     1
 72
     2
 73
     3
 74
     4
  0
VERTEX
  5
656
330
631
100
AcDbEntity
  8
ｴｸｽﾃﾘｱ商品
 62
   250
370
    20
100
AcDbFaceRecord
 10
0.0
 20
0.0
 30
0.0
 70
   128
 71
     2
 72
     5
 73
     6
 74
     3
  0
VERTEX
  5
657
330
631
100
AcDbEntity
  8
ｴｸｽﾃﾘｱ商品
 62
   250
370
    20
100
AcDbFaceRecord
 10
0.0
 20
0.0
 30
0.0
 70
   128
 71
     5
 72
     7
 73
     8
 74
     6
  0
VERTEX
  5
658
330
631
100
AcDbEntity
  8
ｴｸｽﾃﾘｱ商品
 62
   250
370
    20
100
AcDbFaceRecord
 10
0.0
 20
0.0
 30
0.0
 70
   128
 71
     7
 72
     9
 73
    10
 74
     8
  0
VERTEX
  5
659
330
631
100
AcDbEntity
  8
ｴｸｽﾃﾘｱ商品
 62
   250
370
    20
100
AcDbFaceRecord
 10
0.0
 20
0.0
 30
0.0
 70
   128
 71
     9
 72
    11
 73
    12
 74
    10
  0
VERTEX
  5
65A
330
631
100
AcDbEntity
  8
ｴｸｽﾃﾘｱ商品
 62
   250
370
    20
100
AcDbFaceRecord
 10
0.0
 20
0.0
 30
0.0
 70
   128
 71
    11
 72
    13
 73
    14
 74
    12
  0
VERTEX
  5
65B
330
631
100
AcDbEntity
  8
ｴｸｽﾃﾘｱ商品
 62
   250
370
    20
100
AcDbFaceRecord
 10
0.0
 20
0.0
 30
0.0
 70
   128
 71
    13
 72
    15
 73
    16
 74
    14
  0
VERTEX
  5
65C
330
631
100
AcDbEntity
  8
ｴｸｽﾃﾘｱ商品
 62
   250
370
    20
100
AcDbFaceRecord
 10
0.0
 20
0.0
 30
0.0
 70
   128
 71
    15
 72
    17
 73
    18
 74
    16
  0
VERTEX
  5
65D
330
631
100
AcDbEntity
  8
ｴｸｽﾃﾘｱ商品
 62
   250
370
    20
100
AcDbFaceRecord
 10
0.0
 20
0.0
 30
0.0
 70
   128
 71
    17
 72
    19
 73
    20
 74
    18
  0
VERTEX
  5
65E
330
631
100
AcDbEntity
  8
ｴｸｽﾃﾘｱ商品
 62
   250
370
    20
100
AcDbFaceRecord
 10
0.0
 20
0.0
 30
0.0
 70
   128
 71
    19
 72
    21
 73
    22
 74
    20
  0
VERTEX
  5
65F
330
631
100
AcDbEntity
  8
ｴｸｽﾃﾘｱ商品
 62
   250
370
    20
100
AcDbFaceRecord
 10
0.0
 20
0.0
 30
0.0
 70
   128
 71
    21
 72
    23
 73
    24
 74
    22
  0
VERTEX
  5
660
330
631
100
AcDbEntity
  8
ｴｸｽﾃﾘｱ商品
 62
   250
370
    20
100
AcDbFaceRecord
 10
0.0
 20
0.0
 30
0.0
 70
   128
 71
    23
 72
    25
 73
    26
 74
    24
  0
VERTEX
  5
661
330
631
100
AcDbEntity
  8
ｴｸｽﾃﾘｱ商品
 62
   250
370
    20
100
AcDbFaceRecord
 10
0.0
 20
0.0
 30
0.0
 70
   128
 71
    25
 72
    27
 73
    28
 74
    26
  0
VERTEX
  5
662
330
631
100
AcDbEntity
  8
ｴｸｽﾃﾘｱ商品
 62
   250
370
    20
100
AcDbFaceRecord
 10
0.0
 20
0.0
 30
0.0
 70
   128
 71
    27
 72
    29
 73
    30
 74
    28
  0
VERTEX
  5
663
330
631
100
AcDbEntity
  8
ｴｸｽﾃﾘｱ商品
 62
   250
370
    20
100
AcDbFaceRecord
 10
0.0
 20
0.0
 30
0.0
 70
   128
 71
    29
 72
    31
 73
    32
 74
    30
  0
VERTEX
  5
664
330
631
100
AcDbEntity
  8
ｴｸｽﾃﾘｱ商品
 62
   250
370
    20
100
AcDbFaceRecord
 10
0.0
 20
0.0
 30
0.0
 70
   128
 71
    31
 72
    33
 73
    34
 74
    32
  0
VERTEX
  5
665
330
631
100
AcDbEntity
  8
ｴｸｽﾃﾘｱ商品
 62
   250
370
    20
100
AcDbFaceRecord
 10
0.0
 20
0.0
 30
0.0
 70
   128
 71
    33
 72
     1
 73
     4
 74
    34
  0
VERTEX
  5
666
330
631
100
AcDbEntity
  8
ｴｸｽﾃﾘｱ商品
 62
   250
370
    20
100
AcDbFaceRecord
 10
0.0
 20
0.0
 30
0.0
 70
   128
 71
     1
 72
    33
 73
    31
 74
    29
  0
VERTEX
  5
667
330
631
100
AcDbEntity
  8
ｴｸｽﾃﾘｱ商品
 62
   250
370
    20
100
AcDbFaceRecord
 10
0.0
 20
0.0
 30
0.0
 70
   128
 71
     1
 72
    29
 73
    27
 74
    25
  0
VERTEX
  5
668
330
631
100
AcDbEntity
  8
ｴｸｽﾃﾘｱ商品
 62
   250
370
    20
100
AcDbFaceRecord
 10
0.0
 20
0.0
 30
0.0
 70
   128
 71
     1
 72
    25
 73
    23
 74
    21
  0
VERTEX
  5
669
330
631
100
AcDbEntity
  8
ｴｸｽﾃﾘｱ商品
 62
   250
370
    20
100
AcDbFaceRecord
 10
0.0
 20
0.0
 30
0.0
 70
   128
 71
     1
 72
    21
 73
    19
 74
    17
  0
VERTEX
  5
66A
330
631
100
AcDbEntity
  8
ｴｸｽﾃﾘｱ商品
 62
   250
370
    20
100
AcDbFaceRecord
 10
0.0
 20
0.0
 30
0.0
 70
   128
 71
     1
 72
    17
 73
    15
 74
    13
  0
VERTEX
  5
66B
330
631
100
AcDbEntity
  8
ｴｸｽﾃﾘｱ商品
 62
   250
370
    20
100
AcDbFaceRecord
 10
0.0
 20
0.0
 30
0.0
 70
   128
 71
     1
 72
    13
 73
    11
 74
     9
  0
VERTEX
  5
66C
330
631
100
AcDbEntity
  8
ｴｸｽﾃﾘｱ商品
 62
   250
370
    20
100
AcDbFaceRecord
 10
0.0
 20
0.0
 30
0.0
 70
   128
 71
     1
 72
     9
 73
     7
 74
     5
  0
VERTEX
  5
66D
330
631
100
AcDbEntity
  8
ｴｸｽﾃﾘｱ商品
 62
   250
370
    20
100
AcDbFaceRecord
 10
0.0
 20
0.0
 30
0.0
 70
   128
 71
     1
 72
     5
 73
     2
  0
VERTEX
  5
66E
330
631
100
AcDbEntity
  8
ｴｸｽﾃﾘｱ商品
 62
   250
370
    20
100
AcDbFaceRecord
 10
0.0
 20
0.0
 30
0.0
 70
   128
 71
     4
 72
     3
 73
     6
 74
     8
  0
VERTEX
  5
66F
330
631
100
AcDbEntity
  8
ｴｸｽﾃﾘｱ商品
 62
   250
370
    20
100
AcDbFaceRecord
 10
0.0
 20
0.0
 30
0.0
 70
   128
 71
     4
 72
     8
 73
    10
 74
    12
  0
VERTEX
  5
670
330
631
100
AcDbEntity
  8
ｴｸｽﾃﾘｱ商品
 62
   250
370
    20
100
AcDbFaceRecord
 10
0.0
 20
0.0
 30
0.0
 70
   128
 71
     4
 72
    12
 73
    14
 74
    16
  0
VERTEX
  5
671
330
631
100
AcDbEntity
  8
ｴｸｽﾃﾘｱ商品
 62
   250
370
    20
100
AcDbFaceRecord
 10
0.0
 20
0.0
 30
0.0
 70
   128
 71
     4
 72
    16
 73
    18
 74
    20
  0
VERTEX
  5
672
330
631
100
AcDbEntity
  8
ｴｸｽﾃﾘｱ商品
 62
   250
370
    20
100
AcDbFaceRecord
 10
0.0
 20
0.0
 30
0.0
 70
   128
 71
     4
 72
    20
 73
    22
 74
    24
  0
VERTEX
  5
673
330
631
100
AcDbEntity
  8
ｴｸｽﾃﾘｱ商品
 62
   250
370
    20
100
AcDbFaceRecord
 10
0.0
 20
0.0
 30
0.0
 70
   128
 71
     4
 72
    24
 73
    26
 74
    28
  0
VERTEX
  5
674
330
631
100
AcDbEntity
  8
ｴｸｽﾃﾘｱ商品
 62
   250
370
    20
100
AcDbFaceRecord
 10
0.0
 20
0.0
 30
0.0
 70
   128
 71
     4
 72
    28
 73
    30
 74
    32
  0
VERTEX
  5
675
330
631
100
AcDbEntity
  8
ｴｸｽﾃﾘｱ商品
 62
   250
370
    20
100
AcDbFaceRecord
 10
0.0
 20
0.0
 30
0.0
 70
   128
 71
     4
 72
    32
 73
    34
  0
SEQEND
  5
632
330
631
100
AcDbEntity
  8
ｴｸｽﾃﾘｱ商品
370
    20
  0
POLYLINE
  5
676
330
3C
100
AcDbEntity
  8
ｴｸｽﾃﾘｱ商品
 62
   250
370
    20
100
AcDbPolyFaceMesh
 66
     1
 10
0.0
 20
0.0
 30
0.0
 70
    64
 71
    30
 72
    29
  0
VERTEX
  5
678
330
676
100
AcDbEntity
  8
ｴｸｽﾃﾘｱ商品
 62
   250
370
    20
100
AcDbVertex
100
AcDbPolyFaceMeshVertex
 10
547.8000000000001
 20
3.000000000000021
 30
395.0000000000001
 70
   192
  0
VERTEX
  5
679
330
676
100
AcDbEntity
  8
ｴｸｽﾃﾘｱ商品
 62
   250
370
    20
100
AcDbVertex
100
AcDbPolyFaceMeshVertex
 10
570.976372961269
 20
3.000000000000021
 30
398.4965320476387
 70
   192
  0
VERTEX
  5
67A
330
676
100
AcDbEntity
  8
ｴｸｽﾃﾘｱ商品
 62
   250
370
    20
100
AcDbVertex
100
AcDbPolyFaceMeshVertex
 10
570.976372961269
 20
-2.99999999999998
 30
398.4965320476387
 70
   192
  0
VERTEX
  5
67B
330
676
100
AcDbEntity
  8
ｴｸｽﾃﾘｱ商品
 62
   250
370
    20
100
AcDbVertex
100
AcDbPolyFaceMeshVertex
 10
547.8000000000001
 20
-2.99999999999998
 30
395.0000000000001
 70
   192
  0
VERTEX
  5
67C
330
676
100
AcDbEntity
  8
ｴｸｽﾃﾘｱ商品
 62
   250
370
    20
100
AcDbVertex
100
AcDbPolyFaceMeshVertex
 10
590.9859934063842
 20
3.000000000000022
 30
402.5775968158616
 70
   192
  0
VERTEX
  5
67D
330
676
100
AcDbEntity
  8
ｴｸｽﾃﾘｱ商品
 62
   250
370
    20
100
AcDbVertex
100
AcDbPolyFaceMeshVertex
 10
590.9859934063842
 20
-2.99999999999998
 30
402.5775968158616
 70
   192
  0
VERTEX
  5
67E
330
676
100
AcDbEntity
  8
ｴｸｽﾃﾘｱ商品
 62
   250
370
    20
100
AcDbVertex
100
AcDbPolyFaceMeshVertex
 10
604.6885953015769
 20
3.000000000000022
 30
406.6197127595051
 70
   192
  0
VERTEX
  5
67F
330
676
100
AcDbEntity
  8
ｴｸｽﾃﾘｱ商品
 62
   250
370
    20
100
AcDbVertex
100
AcDbPolyFaceMeshVertex
 10
604.6885953015769
 20
-2.99999999999998
 30
406.6197127595051
 70
   192
  0
VERTEX
  5
680
330
676
100
AcDbEntity
  8
ｴｸｽﾃﾘｱ商品
 62
   250
370
    20
100
AcDbVertex
100
AcDbPolyFaceMeshVertex
 10
613.4757842020747
 20
3.000000000000022
 30
410.9596794905952
 70
   192
  0
VERTEX
  5
681
330
676
100
AcDbEntity
  8
ｴｸｽﾃﾘｱ商品
 62
   250
370
    20
100
AcDbVertex
100
AcDbPolyFaceMeshVertex
 10
613.4757842020747
 20
-2.99999999999998
 30
410.9596794905952
 70
   192
  0
VERTEX
  5
682
330
676
100
AcDbEntity
  8
ｴｸｽﾃﾘｱ商品
 62
   250
370
    20
100
AcDbVertex
100
AcDbPolyFaceMeshVertex
 10
626.3082126422102
 20
3.000000000000023
 30
419.5770329316933
 70
   192
  0
VERTEX
  5
683
330
676
100
AcDbEntity
  8
ｴｸｽﾃﾘｱ商品
 62
   250
370
    20
100
AcDbVertex
100
AcDbPolyFaceMeshVertex
 10
626.3082126422102
 20
-2.999999999999979
 30
419.5770329316933
 70
   192
  0
VERTEX
  5
684
330
676
100
AcDbEntity
  8
ｴｸｽﾃﾘｱ商品
 62
   250
370
    20
100
AcDbVertex
100
AcDbPolyFaceMeshVertex
 10
643.3429854290771
 20
3.000000000000024
 30
433.990100478188
 70
   192
  0
VERTEX
  5
685
330
676
100
AcDbEntity
  8
ｴｸｽﾃﾘｱ商品
 62
   250
370
    20
100
AcDbVertex
100
AcDbPolyFaceMeshVertex
 10
643.3429854290771
 20
-2.999999999999978
 30
433.990100478188
 70
   192
  0
VERTEX
  5
686
330
676
100
AcDbEntity
  8
ｴｸｽﾃﾘｱ商品
 62
   250
370
    20
100
AcDbVertex
100
AcDbPolyFaceMeshVertex
 10
656.4698887714443
 20
3.000000000000024
 30
447.2992856012579
 70
   192
  0
VERTEX
  5
687
330
676
100
AcDbEntity
  8
ｴｸｽﾃﾘｱ商品
 62
   250
370
    20
100
AcDbVertex
100
AcDbPolyFaceMeshVertex
 10
656.4698887714443
 20
-2.999999999999977
 30
447.2992856012579
 70
   192
  0
VERTEX
  5
688
330
676
100
AcDbEntity
  8
ｴｸｽﾃﾘｱ商品
 62
   250
370
    20
100
AcDbVertex
100
AcDbPolyFaceMeshVertex
 10
638.602597866214
 20
3.000000000000024
 30
442.9175147597061
 70
   192
  0
VERTEX
  5
689
330
676
100
AcDbEntity
  8
ｴｸｽﾃﾘｱ商品
 62
   250
370
    20
100
AcDbVertex
100
AcDbPolyFaceMeshVertex
 10
638.602597866214
 20
-2.999999999999978
 30
442.9175147597061
 70
   192
  0
VERTEX
  5
68A
330
676
100
AcDbEntity
  8
ｴｸｽﾃﾘｱ商品
 62
   250
370
    20
100
AcDbVertex
100
AcDbPolyFaceMeshVertex
 10
620.6750616264515
 20
3.000000000000024
 30
437.5079450566706
 70
   192
  0
VERTEX
  5
68B
330
676
100
AcDbEntity
  8
ｴｸｽﾃﾘｱ商品
 62
   250
370
    20
100
AcDbVertex
100
AcDbPolyFaceMeshVertex
 10
620.6750616264515
 20
-2.999999999999978
 30
437.5079450566706
 70
   192
  0
VERTEX
  5
68C
330
676
100
AcDbEntity
  8
ｴｸｽﾃﾘｱ商品
 62
   250
370
    20
100
AcDbVertex
100
AcDbPolyFaceMeshVertex
 10
607.5897101053253
 20
3.000000000000024
 30
432.8750652213456
 70
   192
  0
VERTEX
  5
68D
330
676
100
AcDbEntity
  8
ｴｸｽﾃﾘｱ商品
 62
   250
370
    20
100
AcDbVertex
100
AcDbPolyFaceMeshVertex
 10
607.5897101053253
 20
-2.999999999999978
 30
432.8750652213456
 70
   192
  0
VERTEX
  5
68E
330
676
100
AcDbEntity
  8
ｴｸｽﾃﾘｱ商品
 62
   250
370
    20
100
AcDbVertex
100
AcDbPolyFaceMeshVertex
 10
596.6500640092985
 20
3.000000000000024
 30
428.1650606254149
 70
   192
  0
VERTEX
  5
68F
330
676
100
AcDbEntity
  8
ｴｸｽﾃﾘｱ商品
 62
   250
370
    20
100
AcDbVertex
100
AcDbPolyFaceMeshVertex
 10
596.6500640092985
 20
-2.999999999999979
 30
428.1650606254149
 70
   192
  0
VERTEX
  5
690
330
676
100
AcDbEntity
  8
ｴｸｽﾃﾘｱ商品
 62
   250
370
    20
100
AcDbVertex
100
AcDbPolyFaceMeshVertex
 10
584.0648480783892
 20
3.000000000000023
 30
421.1094004881643
 70
   192
  0
VERTEX
  5
691
330
676
100
AcDbEntity
  8
ｴｸｽﾃﾘｱ商品
 62
   250
370
    20
100
AcDbVertex
100
AcDbPolyFaceMeshVertex
 10
584.0648480783892
 20
-2.999999999999979
 30
421.1094004881643
 70
   192
  0
VERTEX
  5
692
330
676
100
AcDbEntity
  8
ｴｸｽﾃﾘｱ商品
 62
   250
370
    20
100
AcDbVertex
100
AcDbPolyFaceMeshVertex
 10
571.1023219128775
 20
3.000000000000023
 30
412.7623701534629
 70
   192
  0
VERTEX
  5
693
330
676
100
AcDbEntity
  8
ｴｸｽﾃﾘｱ商品
 62
   250
370
    20
100
AcDbVertex
100
AcDbPolyFaceMeshVertex
 10
571.1023219128775
 20
-2.99999999999998
 30
412.7623701534629
 70
   192
  0
VERTEX
  5
694
330
676
100
AcDbEntity
  8
ｴｸｽﾃﾘｱ商品
 62
   250
370
    20
100
AcDbVertex
100
AcDbPolyFaceMeshVertex
 10
561.2000817346463
 20
3.000000000000022
 30
405.666199393636
 70
   192
  0
VERTEX
  5
695
330
676
100
AcDbEntity
  8
ｴｸｽﾃﾘｱ商品
 62
   250
370
    20
100
AcDbVertex
100
AcDbPolyFaceMeshVertex
 10
561.2000817346463
 20
-2.99999999999998
 30
405.666199393636
 70
   192
  0
VERTEX
  5
696
330
676
100
AcDbEntity
  8
ｴｸｽﾃﾘｱ商品
 62
   250
370
    20
100
AcDbFaceRecord
 10
0.0
 20
0.0
 30
0.0
 70
   128
 71
     1
 72
     2
 73
     3
 74
     4
  0
VERTEX
  5
697
330
676
100
AcDbEntity
  8
ｴｸｽﾃﾘｱ商品
 62
   250
370
    20
100
AcDbFaceRecord
 10
0.0
 20
0.0
 30
0.0
 70
   128
 71
     2
 72
     5
 73
     6
 74
     3
  0
VERTEX
  5
698
330
676
100
AcDbEntity
  8
ｴｸｽﾃﾘｱ商品
 62
   250
370
    20
100
AcDbFaceRecord
 10
0.0
 20
0.0
 30
0.0
 70
   128
 71
     5
 72
     7
 73
     8
 74
     6
  0
VERTEX
  5
699
330
676
100
AcDbEntity
  8
ｴｸｽﾃﾘｱ商品
 62
   250
370
    20
100
AcDbFaceRecord
 10
0.0
 20
0.0
 30
0.0
 70
   128
 71
     7
 72
     9
 73
    10
 74
     8
  0
VERTEX
  5
69A
330
676
100
AcDbEntity
  8
ｴｸｽﾃﾘｱ商品
 62
   250
370
    20
100
AcDbFaceRecord
 10
0.0
 20
0.0
 30
0.0
 70
   128
 71
     9
 72
    11
 73
    12
 74
    10
  0
VERTEX
  5
69B
330
676
100
AcDbEntity
  8
ｴｸｽﾃﾘｱ商品
 62
   250
370
    20
100
AcDbFaceRecord
 10
0.0
 20
0.0
 30
0.0
 70
   128
 71
    11
 72
    13
 73
    14
 74
    12
  0
VERTEX
  5
69C
330
676
100
AcDbEntity
  8
ｴｸｽﾃﾘｱ商品
 62
   250
370
    20
100
AcDbFaceRecord
 10
0.0
 20
0.0
 30
0.0
 70
   128
 71
    13
 72
    15
 73
    16
 74
    14
  0
VERTEX
  5
69D
330
676
100
AcDbEntity
  8
ｴｸｽﾃﾘｱ商品
 62
   250
370
    20
100
AcDbFaceRecord
 10
0.0
 20
0.0
 30
0.0
 70
   128
 71
    15
 72
    17
 73
    18
 74
    16
  0
VERTEX
  5
69E
330
676
100
AcDbEntity
  8
ｴｸｽﾃﾘｱ商品
 62
   250
370
    20
100
AcDbFaceRecord
 10
0.0
 20
0.0
 30
0.0
 70
   128
 71
    17
 72
    19
 73
    20
 74
    18
  0
VERTEX
  5
69F
330
676
100
AcDbEntity
  8
ｴｸｽﾃﾘｱ商品
 62
   250
370
    20
100
AcDbFaceRecord
 10
0.0
 20
0.0
 30
0.0
 70
   128
 71
    19
 72
    21
 73
    22
 74
    20
  0
VERTEX
  5
6A0
330
676
100
AcDbEntity
  8
ｴｸｽﾃﾘｱ商品
 62
   250
370
    20
100
AcDbFaceRecord
 10
0.0
 20
0.0
 30
0.0
 70
   128
 71
    21
 72
    23
 73
    24
 74
    22
  0
VERTEX
  5
6A1
330
676
100
AcDbEntity
  8
ｴｸｽﾃﾘｱ商品
 62
   250
370
    20
100
AcDbFaceRecord
 10
0.0
 20
0.0
 30
0.0
 70
   128
 71
    23
 72
    25
 73
    26
 74
    24
  0
VERTEX
  5
6A2
330
676
100
AcDbEntity
  8
ｴｸｽﾃﾘｱ商品
 62
   250
370
    20
100
AcDbFaceRecord
 10
0.0
 20
0.0
 30
0.0
 70
   128
 71
    25
 72
    27
 73
    28
 74
    26
  0
VERTEX
  5
6A3
330
676
100
AcDbEntity
  8
ｴｸｽﾃﾘｱ商品
 62
   250
370
    20
100
AcDbFaceRecord
 10
0.0
 20
0.0
 30
0.0
 70
   128
 71
    27
 72
    29
 73
    30
 74
    28
  0
VERTEX
  5
6A4
330
676
100
AcDbEntity
  8
ｴｸｽﾃﾘｱ商品
 62
   250
370
    20
100
AcDbFaceRecord
 10
0.0
 20
0.0
 30
0.0
 70
   128
 71
    29
 72
     1
 73
     4
 74
    30
  0
VERTEX
  5
6A5
330
676
100
AcDbEntity
  8
ｴｸｽﾃﾘｱ商品
 62
   250
370
    20
100
AcDbFaceRecord
 10
0.0
 20
0.0
 30
0.0
 70
   128
 71
     1
 72
    29
 73
    27
 74
    25
  0
VERTEX
  5
6A6
330
676
100
AcDbEntity
  8
ｴｸｽﾃﾘｱ商品
 62
   250
370
    20
100
AcDbFaceRecord
 10
0.0
 20
0.0
 30
0.0
 70
   128
 71
     1
 72
    25
 73
    23
 74
    21
  0
VERTEX
  5
6A7
330
676
100
AcDbEntity
  8
ｴｸｽﾃﾘｱ商品
 62
   250
370
    20
100
AcDbFaceRecord
 10
0.0
 20
0.0
 30
0.0
 70
   128
 71
     1
 72
    21
 73
    19
 74
    17
  0
VERTEX
  5
6A8
330
676
100
AcDbEntity
  8
ｴｸｽﾃﾘｱ商品
 62
   250
370
    20
100
AcDbFaceRecord
 10
0.0
 20
0.0
 30
0.0
 70
   128
 71
     1
 72
    17
 73
    15
 74
    13
  0
VERTEX
  5
6A9
330
676
100
AcDbEntity
  8
ｴｸｽﾃﾘｱ商品
 62
   250
370
    20
100
AcDbFaceRecord
 10
0.0
 20
0.0
 30
0.0
 70
   128
 71
     1
 72
    13
 73
    11
 74
     9
  0
VERTEX
  5
6AA
330
676
100
AcDbEntity
  8
ｴｸｽﾃﾘｱ商品
 62
   250
370
    20
100
AcDbFaceRecord
 10
0.0
 20
0.0
 30
0.0
 70
   128
 71
     1
 72
     9
 73
     7
 74
     5
  0
VERTEX
  5
6AB
330
676
100
AcDbEntity
  8
ｴｸｽﾃﾘｱ商品
 62
   250
370
    20
100
AcDbFaceRecord
 10
0.0
 20
0.0
 30
0.0
 70
   128
 71
     1
 72
     5
 73
     2
  0
VERTEX
  5
6AC
330
676
100
AcDbEntity
  8
ｴｸｽﾃﾘｱ商品
 62
   250
370
    20
100
AcDbFaceRecord
 10
0.0
 20
0.0
 30
0.0
 70
   128
 71
     4
 72
     3
 73
     6
 74
     8
  0
VERTEX
  5
6AD
330
676
100
AcDbEntity
  8
ｴｸｽﾃﾘｱ商品
 62
   250
370
    20
100
AcDbFaceRecord
 10
0.0
 20
0.0
 30
0.0
 70
   128
 71
     4
 72
     8
 73
    10
 74
    12
  0
VERTEX
  5
6AE
330
676
100
AcDbEntity
  8
ｴｸｽﾃﾘｱ商品
 62
   250
370
    20
100
AcDbFaceRecord
 10
0.0
 20
0.0
 30
0.0
 70
   128
 71
     4
 72
    12
 73
    14
 74
    16
  0
VERTEX
  5
6AF
330
676
100
AcDbEntity
  8
ｴｸｽﾃﾘｱ商品
 62
   250
370
    20
100
AcDbFaceRecord
 10
0.0
 20
0.0
 30
0.0
 70
   128
 71
     4
 72
    16
 73
    18
 74
    20
  0
VERTEX
  5
6B0
330
676
100
AcDbEntity
  8
ｴｸｽﾃﾘｱ商品
 62
   250
370
    20
100
AcDbFaceRecord
 10
0.0
 20
0.0
 30
0.0
 70
   128
 71
     4
 72
    20
 73
    22
 74
    24
  0
VERTEX
  5
6B1
330
676
100
AcDbEntity
  8
ｴｸｽﾃﾘｱ商品
 62
   250
370
    20
100
AcDbFaceRecord
 10
0.0
 20
0.0
 30
0.0
 70
   128
 71
     4
 72
    24
 73
    26
 74
    28
  0
VERTEX
  5
6B2
330
676
100
AcDbEntity
  8
ｴｸｽﾃﾘｱ商品
 62
   250
370
    20
100
AcDbFaceRecord
 10
0.0
 20
0.0
 30
0.0
 70
   128
 71
     4
 72
    28
 73
    30
  0
SEQEND
  5
677
330
676
100
AcDbEntity
  8
ｴｸｽﾃﾘｱ商品
370
    20
  0
POLYLINE
  5
6B3
330
3C
100
AcDbEntity
  8
ｴｸｽﾃﾘｱ商品
 62
   250
370
    20
100
AcDbPolyFaceMesh
 66
     1
 10
0.0
 20
0.0
 30
0.0
 70
    64
 71
    28
 72
    26
  0
VERTEX
  5
6B5
330
6B3
100
AcDbEntity
  8
ｴｸｽﾃﾘｱ商品
 62
   250
370
    20
100
AcDbVertex
100
AcDbPolyFaceMeshVertex
 10
920.4164101364452
 20
3.00000000000002
 30
368.4529541521729
 70
   192
  0
VERTEX
  5
6B6
330
6B3
100
AcDbEntity
  8
ｴｸｽﾃﾘｱ商品
 62
   250
370
    20
100
AcDbVertex
100
AcDbPolyFaceMeshVertex
 10
937.1897221018471
 20
3.00000000000002
 30
370.1340269380159
 70
   192
  0
VERTEX
  5
6B7
330
6B3
100
AcDbEntity
  8
ｴｸｽﾃﾘｱ商品
 62
   250
370
    20
100
AcDbVertex
100
AcDbPolyFaceMeshVertex
 10
937.1897221018471
 20
-2.999999999999982
 30
370.1340269380159
 70
   192
  0
VERTEX
  5
6B8
330
6B3
100
AcDbEntity
  8
ｴｸｽﾃﾘｱ商品
 62
   250
370
    20
100
AcDbVertex
100
AcDbPolyFaceMeshVertex
 10
920.4164101364452
 20
-2.999999999999982
 30
368.4529541521729
 70
   192
  0
VERTEX
  5
6B9
330
6B3
100
AcDbEntity
  8
ｴｸｽﾃﾘｱ商品
 62
   250
370
    20
100
AcDbVertex
100
AcDbPolyFaceMeshVertex
 10
947.8823267231392
 20
3.00000000000002
 30
372.5667633422991
 70
   192
  0
VERTEX
  5
6BA
330
6B3
100
AcDbEntity
  8
ｴｸｽﾃﾘｱ商品
 62
   250
370
    20
100
AcDbVertex
100
AcDbPolyFaceMeshVertex
 10
947.8823267231392
 20
-2.999999999999982
 30
372.5667633422991
 70
   192
  0
VERTEX
  5
6BB
330
6B3
100
AcDbEntity
  8
ｴｸｽﾃﾘｱ商品
 62
   250
370
    20
100
AcDbVertex
100
AcDbPolyFaceMeshVertex
 10
954.6495666222975
 20
3.00000000000002
 30
375.3334335697095
 70
   192
  0
VERTEX
  5
6BC
330
6B3
100
AcDbEntity
  8
ｴｸｽﾃﾘｱ商品
 62
   250
370
    20
100
AcDbVertex
100
AcDbPolyFaceMeshVertex
 10
954.6495666222975
 20
-2.999999999999981
 30
375.3334335697095
 70
   192
  0
VERTEX
  5
6BD
330
6B3
100
AcDbEntity
  8
ｴｸｽﾃﾘｱ商品
 62
   250
370
    20
100
AcDbVertex
100
AcDbPolyFaceMeshVertex
 10
963.8262699892557
 20
3.00000000000002
 30
380.3101910798621
 70
   192
  0
VERTEX
  5
6BE
330
6B3
100
AcDbEntity
  8
ｴｸｽﾃﾘｱ商品
 62
   250
370
    20
100
AcDbVertex
100
AcDbPolyFaceMeshVertex
 10
963.8262699892557
 20
-2.999999999999981
 30
380.3101910798621
 70
   192
  0
VERTEX
  5
6BF
330
6B3
100
AcDbEntity
  8
ｴｸｽﾃﾘｱ商品
 62
   250
370
    20
100
AcDbVertex
100
AcDbPolyFaceMeshVertex
 10
976.2555498879993
 20
3.000000000000021
 30
388.4239449089283
 70
   192
  0
VERTEX
  5
6C0
330
6B3
100
AcDbEntity
  8
ｴｸｽﾃﾘｱ商品
 62
   250
370
    20
100
AcDbVertex
100
AcDbPolyFaceMeshVertex
 10
976.2555498879993
 20
-2.999999999999981
 30
388.4239449089283
 70
   192
  0
VERTEX
  5
6C1
330
6B3
100
AcDbEntity
  8
ｴｸｽﾃﾘｱ商品
 62
   250
370
    20
100
AcDbVertex
100
AcDbPolyFaceMeshVertex
 10
989.887570023202
 20
3.000000000000021
 30
399.1765272514835
 70
   192
  0
VERTEX
  5
6C2
330
6B3
100
AcDbEntity
  8
ｴｸｽﾃﾘｱ商品
 62
   250
370
    20
100
AcDbVertex
100
AcDbPolyFaceMeshVertex
 10
989.887570023202
 20
-2.99999999999998
 30
399.1765272514835
 70
   192
  0
VERTEX
  5
6C3
330
6B3
100
AcDbEntity
  8
ｴｸｽﾃﾘｱ商品
 62
   250
370
    20
100
AcDbVertex
100
AcDbPolyFaceMeshVertex
 10
979.0240154954644
 20
3.000000000000021
 30
397.8486782303694
 70
   192
  0
VERTEX
  5
6C4
330
6B3
100
AcDbEntity
  8
ｴｸｽﾃﾘｱ商品
 62
   250
370
    20
100
AcDbVertex
100
AcDbPolyFaceMeshVertex
 10
979.0240154954644
 20
-2.99999999999998
 30
397.8486782303694
 70
   192
  0
VERTEX
  5
6C5
330
6B3
100
AcDbEntity
  8
ｴｸｽﾃﾘｱ商品
 62
   250
370
    20
100
AcDbVertex
100
AcDbPolyFaceMeshVertex
 10
962.3271585452921
 20
3.000000000000021
 30
395.0299962714595
 70
   192
  0
VERTEX
  5
6C6
330
6B3
100
AcDbEntity
  8
ｴｸｽﾃﾘｱ商品
 62
   250
370
    20
100
AcDbVertex
100
AcDbPolyFaceMeshVertex
 10
962.3271585452921
 20
-2.99999999999998
 30
395.0299962714595
 70
   192
  0
VERTEX
  5
6C7
330
6B3
100
AcDbEntity
  8
ｴｸｽﾃﾘｱ商品
 62
   250
370
    20
100
AcDbVertex
100
AcDbPolyFaceMeshVertex
 10
951.7908219165338
 20
3.000000000000021
 30
392.7571983381879
 70
   192
  0
VERTEX
  5
6C8
330
6B3
100
AcDbEntity
  8
ｴｸｽﾃﾘｱ商品
 62
   250
370
    20
100
AcDbVertex
100
AcDbPolyFaceMeshVertex
 10
951.7908219165338
 20
-2.99999999999998
 30
392.7571983381879
 70
   192
  0
VERTEX
  5
6C9
330
6B3
100
AcDbEntity
  8
ｴｸｽﾃﾘｱ商品
 62
   250
370
    20
100
AcDbVertex
100
AcDbPolyFaceMeshVertex
 10
941.1382800420955
 20
3.000000000000021
 30
389.5975541155986
 70
   192
  0
VERTEX
  5
6CA
330
6B3
100
AcDbEntity
  8
ｴｸｽﾃﾘｱ商品
 62
   250
370
    20
100
AcDbVertex
100
AcDbPolyFaceMeshVertex
 10
941.1382800420955
 20
-2.99999999999998
 30
389.5975541155986
 70
   192
  0
VERTEX
  5
6CB
330
6B3
100
AcDbEntity
  8
ｴｸｽﾃﾘｱ商品
 62
   250
370
    20
100
AcDbVertex
100
AcDbPolyFaceMeshVertex
 10
928.9885018221173
 20
3.00000000000002
 30
384.6495354004621
 70
   192
  0
VERTEX
  5
6CC
330
6B3
100
AcDbEntity
  8
ｴｸｽﾃﾘｱ商品
 62
   250
370
    20
100
AcDbVertex
100
AcDbPolyFaceMeshVertex
 10
928.9885018221173
 20
-2.999999999999981
 30
384.6495354004621
 70
   192
  0
VERTEX
  5
6CD
330
6B3
100
AcDbEntity
  8
ｴｸｽﾃﾘｱ商品
 62
   250
370
    20
100
AcDbVertex
100
AcDbPolyFaceMeshVertex
 10
919.7136330854655
 20
3.00000000000002
 30
379.9562625639568
 70
   192
  0
VERTEX
  5
6CE
330
6B3
100
AcDbEntity
  8
ｴｸｽﾃﾘｱ商品
 62
   250
370
    20
100
AcDbVertex
100
AcDbPolyFaceMeshVertex
 10
919.7136330854655
 20
-2.999999999999981
 30
379.9562625639568
 70
   192
  0
VERTEX
  5
6CF
330
6B3
100
AcDbEntity
  8
ｴｸｽﾃﾘｱ商品
 62
   250
370
    20
100
AcDbVertex
100
AcDbPolyFaceMeshVertex
 10
907.6476508376728
 20
3.00000000000002
 30
373.2382217486629
 70
   192
  0
VERTEX
  5
6D0
330
6B3
100
AcDbEntity
  8
ｴｸｽﾃﾘｱ商品
 62
   250
370
    20
100
AcDbVertex
100
AcDbPolyFaceMeshVertex
 10
907.6476508376728
 20
-2.999999999999982
 30
373.2382217486629
 70
   192
  0
VERTEX
  5
6D1
330
6B3
100
AcDbEntity
  8
ｴｸｽﾃﾘｱ商品
 62
   250
370
    20
100
AcDbFaceRecord
 10
0.0
 20
0.0
 30
0.0
 70
   128
 71
     1
 72
     2
 73
     3
 74
     4
  0
VERTEX
  5
6D2
330
6B3
100
AcDbEntity
  8
ｴｸｽﾃﾘｱ商品
 62
   250
370
    20
100
AcDbFaceRecord
 10
0.0
 20
0.0
 30
0.0
 70
   128
 71
     2
 72
     5
 73
     6
 74
     3
  0
VERTEX
  5
6D3
330
6B3
100
AcDbEntity
  8
ｴｸｽﾃﾘｱ商品
 62
   250
370
    20
100
AcDbFaceRecord
 10
0.0
 20
0.0
 30
0.0
 70
   128
 71
     5
 72
     7
 73
     8
 74
     6
  0
VERTEX
  5
6D4
330
6B3
100
AcDbEntity
  8
ｴｸｽﾃﾘｱ商品
 62
   250
370
    20
100
AcDbFaceRecord
 10
0.0
 20
0.0
 30
0.0
 70
   128
 71
     7
 72
     9
 73
    10
 74
     8
  0
VERTEX
  5
6D5
330
6B3
100
AcDbEntity
  8
ｴｸｽﾃﾘｱ商品
 62
   250
370
    20
100
AcDbFaceRecord
 10
0.0
 20
0.0
 30
0.0
 70
   128
 71
     9
 72
    11
 73
    12
 74
    10
  0
VERTEX
  5
6D6
330
6B3
100
AcDbEntity
  8
ｴｸｽﾃﾘｱ商品
 62
   250
370
    20
100
AcDbFaceRecord
 10
0.0
 20
0.0
 30
0.0
 70
   128
 71
    11
 72
    13
 73
    14
 74
    12
  0
VERTEX
  5
6D7
330
6B3
100
AcDbEntity
  8
ｴｸｽﾃﾘｱ商品
 62
   250
370
    20
100
AcDbFaceRecord
 10
0.0
 20
0.0
 30
0.0
 70
   128
 71
    13
 72
    15
 73
    16
 74
    14
  0
VERTEX
  5
6D8
330
6B3
100
AcDbEntity
  8
ｴｸｽﾃﾘｱ商品
 62
   250
370
    20
100
AcDbFaceRecord
 10
0.0
 20
0.0
 30
0.0
 70
   128
 71
    15
 72
    17
 73
    18
 74
    16
  0
VERTEX
  5
6D9
330
6B3
100
AcDbEntity
  8
ｴｸｽﾃﾘｱ商品
 62
   250
370
    20
100
AcDbFaceRecord
 10
0.0
 20
0.0
 30
0.0
 70
   128
 71
    17
 72
    19
 73
    20
 74
    18
  0
VERTEX
  5
6DA
330
6B3
100
AcDbEntity
  8
ｴｸｽﾃﾘｱ商品
 62
   250
370
    20
100
AcDbFaceRecord
 10
0.0
 20
0.0
 30
0.0
 70
   128
 71
    19
 72
    21
 73
    22
 74
    20
  0
VERTEX
  5
6DB
330
6B3
100
AcDbEntity
  8
ｴｸｽﾃﾘｱ商品
 62
   250
370
    20
100
AcDbFaceRecord
 10
0.0
 20
0.0
 30
0.0
 70
   128
 71
    21
 72
    23
 73
    24
 74
    22
  0
VERTEX
  5
6DC
330
6B3
100
AcDbEntity
  8
ｴｸｽﾃﾘｱ商品
 62
   250
370
    20
100
AcDbFaceRecord
 10
0.0
 20
0.0
 30
0.0
 70
   128
 71
    23
 72
    25
 73
    26
 74
    24
  0
VERTEX
  5
6DD
330
6B3
100
AcDbEntity
  8
ｴｸｽﾃﾘｱ商品
 62
   250
370
    20
100
AcDbFaceRecord
 10
0.0
 20
0.0
 30
0.0
 70
   128
 71
    25
 72
    27
 73
    28
 74
    26
  0
VERTEX
  5
6DE
330
6B3
100
AcDbEntity
  8
ｴｸｽﾃﾘｱ商品
 62
   250
370
    20
100
AcDbFaceRecord
 10
0.0
 20
0.0
 30
0.0
 70
   128
 71
    27
 72
     1
 73
     4
 74
    28
  0
VERTEX
  5
6DF
330
6B3
100
AcDbEntity
  8
ｴｸｽﾃﾘｱ商品
 62
   250
370
    20
100
AcDbFaceRecord
 10
0.0
 20
0.0
 30
0.0
 70
   128
 71
     1
 72
    27
 73
    25
 74
    23
  0
VERTEX
  5
6E0
330
6B3
100
AcDbEntity
  8
ｴｸｽﾃﾘｱ商品
 62
   250
370
    20
100
AcDbFaceRecord
 10
0.0
 20
0.0
 30
0.0
 70
   128
 71
     1
 72
    23
 73
    21
 74
    19
  0
VERTEX
  5
6E1
330
6B3
100
AcDbEntity
  8
ｴｸｽﾃﾘｱ商品
 62
   250
370
    20
100
AcDbFaceRecord
 10
0.0
 20
0.0
 30
0.0
 70
   128
 71
     1
 72
    19
 73
    17
 74
    15
  0
VERTEX
  5
6E2
330
6B3
100
AcDbEntity
  8
ｴｸｽﾃﾘｱ商品
 62
   250
370
    20
100
AcDbFaceRecord
 10
0.0
 20
0.0
 30
0.0
 70
   128
 71
     1
 72
    15
 73
    13
 74
    11
  0
VERTEX
  5
6E3
330
6B3
100
AcDbEntity
  8
ｴｸｽﾃﾘｱ商品
 62
   250
370
    20
100
AcDbFaceRecord
 10
0.0
 20
0.0
 30
0.0
 70
   128
 71
     1
 72
    11
 73
     9
 74
     7
  0
VERTEX
  5
6E4
330
6B3
100
AcDbEntity
  8
ｴｸｽﾃﾘｱ商品
 62
   250
370
    20
100
AcDbFaceRecord
 10
0.0
 20
0.0
 30
0.0
 70
   128
 71
     1
 72
     7
 73
     5
 74
     2
  0
VERTEX
  5
6E5
330
6B3
100
AcDbEntity
  8
ｴｸｽﾃﾘｱ商品
 62
   250
370
    20
100
AcDbFaceRecord
 10
0.0
 20
0.0
 30
0.0
 70
   128
 71
     4
 72
     3
 73
     6
 74
     8
  0
VERTEX
  5
6E6
330
6B3
100
AcDbEntity
  8
ｴｸｽﾃﾘｱ商品
 62
   250
370
    20
100
AcDbFaceRecord
 10
0.0
 20
0.0
 30
0.0
 70
   128
 71
     4
 72
     8
 73
    10
 74
    12
  0
VERTEX
  5
6E7
330
6B3
100
AcDbEntity
  8
ｴｸｽﾃﾘｱ商品
 62
   250
370
    20
100
AcDbFaceRecord
 10
0.0
 20
0.0
 30
0.0
 70
   128
 71
     4
 72
    12
 73
    14
 74
    16
  0
VERTEX
  5
6E8
330
6B3
100
AcDbEntity
  8
ｴｸｽﾃﾘｱ商品
 62
   250
370
    20
100
AcDbFaceRecord
 10
0.0
 20
0.0
 30
0.0
 70
   128
 71
     4
 72
    16
 73
    18
 74
    20
  0
VERTEX
  5
6E9
330
6B3
100
AcDbEntity
  8
ｴｸｽﾃﾘｱ商品
 62
   250
370
    20
100
AcDbFaceRecord
 10
0.0
 20
0.0
 30
0.0
 70
   128
 71
     4
 72
    20
 73
    22
 74
    24
  0
VERTEX
  5
6EA
330
6B3
100
AcDbEntity
  8
ｴｸｽﾃﾘｱ商品
 62
   250
370
    20
100
AcDbFaceRecord
 10
0.0
 20
0.0
 30
0.0
 70
   128
 71
     4
 72
    24
 73
    26
 74
    28
  0
SEQEND
  5
6B4
330
6B3
100
AcDbEntity
  8
ｴｸｽﾃﾘｱ商品
370
    20
  0
ENDBLK
  5
3E
330
3C
100
AcDbEntity
  8
0
100
AcDbBlockEnd
  0
ENDSEC
  0
SECTION
  2
ENTITIES
  0
INSERT
  5
6EB
330
1F
100
AcDbEntity
  8
ｴｸｽﾃﾘｱ商品
  6
Continuous
370
     0
100
AcDbBlockReference
  2
オブジェクト_49
 10
0.0
 20
0.0
 30
0.0
  0
ENDSEC
  0
SECTION
  2
OBJECTS
  0
DICTIONARY
  5
C
330
0
100
AcDbDictionary
281
     1
  3
ACAD_GROUP
350
D
  3
ACAD_LAYOUT
350
1A
  3
ACAD_MLINESTYLE
350
17
  3
ACAD_PLOTSETTINGS
350
19
  3
ACAD_PLOTSTYLENAME
350
E
  3
ACAD_TABLESTYLE
350
6EE
  3
ACAD_VISUALSTYLE
350
2A
  3
WATERMARKS
350
6EC
  0
DICTIONARY
  5
D
102
{ACAD_REACTORS
330
C
102
}
330
C
100
AcDbDictionary
281
     1
  0
DICTIONARY
  5
1A
102
{ACAD_REACTORS
330
C
102
}
330
C
100
AcDbDictionary
281
     1
  3
Layout1
350
1E
  3
Layout2
350
26
  3
Model
350
22
  0
DICTIONARY
  5
17
102
{ACAD_REACTORS
330
C
102
}
330
C
100
AcDbDictionary
281
     1
  3
Standard
350
18
  0
DICTIONARY
  5
19
102
{ACAD_REACTORS
330
C
102
}
330
C
100
AcDbDictionary
281
     1
  0
ACDBDICTIONARYWDFLT
  5
E
102
{ACAD_REACTORS
330
C
102
}
330
C
100
AcDbDictionary
281
     1
  3
Normal
350
F
100
AcDbDictionaryWithDefault
340
F
  0
DICTIONARY
  5
6EE
102
{ACAD_REACTORS
330
C
102
}
330
C
100
AcDbDictionary
281
     1
  0
DICTIONARY
  5
2A
102
{ACAD_REACTORS
330
C
102
}
330
C
100
AcDbDictionary
281
     1
  3
2dWireframe
350
2F
  3
3D Hidden
350
31
  3
3dWireframe
350
30
  3
Basic
350
32
  3
Brighten
350
36
  3
ColorChange
350
3A
  3
Conceptual
350
34
  3
Dim
350
35
  3
Facepattern
350
39
  3
Flat
350
2B
  3
FlatWithEdges
350
2C
  3
Gouraud
350
2D
  3
GouraudWithEdges
350
2E
  3
Linepattern
350
38
  3
Realistic
350
33
  3
Thicken
350
37
  0
DICTIONARY
  5
6EC
102
{ACAD_REACTORS
330
C
102
}
330
C
100
AcDbDictionary
281
     1
  3
AC_WATERMARK
350
6ED
  0
LAYOUT
  5
1E
102
{ACAD_REACTORS
330
1A
102
}
330
1A
100
AcDbPlotSettings
  1

  2
none_device
  4

  6

 40
0.0
 41
0.0
 42
0.0
 43
0.0
 44
0.0
 45
0.0
 46
0.0
 47
0.0
 48
0.0
 49
0.0
140
0.0
141
0.0
142
1.0
143
1.0
 70
   688
 72
     0
 73
     0
 74
     5
  7

 75
    16
147
1.0
148
0.0
149
0.0
100
AcDbLayout
  1
Layout1
 70
     1
 71
     1
 10
0.0
 20
0.0
 11
12.0
 21
9.0
 12
0.0
 22
0.0
 32
0.0
 14
1.000000000000000E+20
 24
1.000000000000000E+20
 34
1.000000000000000E+20
 15
-1.000000000000000E+20
 25
-1.000000000000000E+20
 35
-1.000000000000000E+20
146
0.0
 13
0.0
 23
0.0
 33
0.0
 16
1.0
 26
0.0
 36
0.0
 17
0.0
 27
1.0
 37
0.0
 76
     0
330
1B
  0
LAYOUT
  5
26
102
{ACAD_REACTORS
330
1A
102
}
330
1A
100
AcDbPlotSettings
  1

  2
none_device
  4

  6

 40
0.0
 41
0.0
 42
0.0
 43
0.0
 44
0.0
 45
0.0
 46
0.0
 47
0.0
 48
0.0
 49
0.0
140
0.0
141
0.0
142
1.0
143
1.0
 70
   688
 72
     0
 73
     0
 74
     5
  7

 75
    16
147
1.0
148
0.0
149
0.0
100
AcDbLayout
  1
Layout2
 70
     1
 71
     2
 10
0.0
 20
0.0
 11
0.0
 21
0.0
 12
0.0
 22
0.0
 32
0.0
 14
0.0
 24
0.0
 34
0.0
 15
0.0
 25
0.0
 35
0.0
146
0.0
 13
0.0
 23
0.0
 33
0.0
 16
1.0
 26
0.0
 36
0.0
 17
0.0
 27
1.0
 37
0.0
 76
     0
330
23
  0
LAYOUT
  5
22
102
{ACAD_REACTORS
330
1A
102
}
330
1A
100
AcDbPlotSettings
  1

  2
none_device
  4

  6

 40
0.0
 41
0.0
 42
0.0
 43
0.0
 44
0.0
 45
0.0
 46
0.0
 47
0.0
 48
0.0
 49
0.0
140
0.0
141
0.0
142
1.0
143
1.0
 70
  1712
 72
     0
 73
     0
 74
     0
  7

 75
     0
147
1.0
148
0.0
149
0.0
100
AcDbLayout
  1
Model
 70
     1
 71
     0
 10
0.0
 20
0.0
 11
12.0
 21
9.0
 12
0.0
 22
0.0
 32
0.0
 14
1.000000000000000E+20
 24
1.000000000000000E+20
 34
1.000000000000000E+20
 15
-1.000000000000000E+20
 25
-1.000000000000000E+20
 35
-1.000000000000000E+20
146
0.0
 13
0.0
 23
0.0
 33
0.0
 16
1.0
 26
0.0
 36
0.0
 17
0.0
 27
1.0
 37
0.0
 76
     0
330
1F
331
29
  0
MLINESTYLE
  5
18
102
{ACAD_REACTORS
330
17
102
}
330
17
100
AcDbMlineStyle
  2
Standard
 70
     0
  3

 62
   256
 51
90.0
 52
90.0
 71
     2
 49
0.5
 62
   256
  6
BYLAYER
 49
-0.5
 62
   256
  6
BYLAYER
  0
ACDBPLACEHOLDER
  5
F
102
{ACAD_REACTORS
330
E
102
}
330
E
  0
VISUALSTYLE
  5
2F
102
{ACAD_REACTORS
330
2A
102
}
330
2A
100
AcDbVisualStyle
  2
2dWireframe
 70
     4
 71
     0
 72
     2
 73
     0
 90
        0
 40
-0.6
 41
-30.0
 62
     5
 63
     7
 74
     1
 91
        4
 64
     7
 65
   257
 75
     1
175
     1
 42
1.0
 92
        0
 66
   257
 43
1.0
 76
     1
 77
     6
 78
     2
 67
     7
 79
     5
170
     0
171
     0
290
     0
174
     0
 93
        1
 44
0.0
173
     0
291
     0
 45
0.0
1001
ACAD
1000
AcDbSavedByObjectVersion
1070
     0
  0
VISUALSTYLE
  5
31
102
{ACAD_REACTORS
330
2A
102
}
330
2A
100
AcDbVisualStyle
  2
3D Hidden
 70
     6
 71
     1
 72
     2
 73
     2
 90
        0
 40
-0.6
 41
-30.0
 62
     5
 63
     7
 74
     2
 91
        2
 64
     7
 65
   257
 75
     2
175
     1
 42
40.0
 92
        0
 66
   257
 43
1.0
 76
     1
 77
     6
 78
     2
 67
     7
 79
     3
170
     0
171
     0
290
     0
174
     0
 93
        1
 44
0.0
173
     0
291
     0
 45
0.0
1001
ACAD
1000
AcDbSavedByObjectVersion
1070
     0
  0
VISUALSTYLE
  5
30
102
{ACAD_REACTORS
330
2A
102
}
330
2A
100
AcDbVisualStyle
  2
3dWireframe
 70
     5
 71
     0
 72
     2
 73
     0
 90
        0
 40
-0.6
 41
-30.0
 62
     5
 63
     7
 74
     1
 91
        4
 64
     7
 65
   257
 75
     1
175
     1
 42
1.0
 92
        0
 66
   257
 43
1.0
 76
     1
 77
     6
 78
     2
 67
     7
 79
     5
170
     0
171
     0
290
     0
174
     0
 93
        1
 44
0.0
173
     0
291
     0
 45
0.0
1001
ACAD
1000
AcDbSavedByObjectVersion
1070
     0
  0
VISUALSTYLE
  5
32
102
{ACAD_REACTORS
330
2A
102
}
330
2A
100
AcDbVisualStyle
  2
Basic
 70
     7
 71
     1
 72
     0
 73
     1
 90
        0
 40
-0.6
 41
-30.0
 62
     5
 63
     7
 74
     0
 91
        4
 64
     7
 65
   257
 75
     1
175
     1
 42
1.0
 92
        8
 66
     7
 43
1.0
 76
     1
 77
     6
 78
     2
 67
     7
 79
     5
170
     0
171
     0
290
     0
174
     0
 93
        1
 44
0.0
173
     0
291
     1
 45
0.0
1001
ACAD
1000
AcDbSavedByObjectVersion
1070
     0
  0
VISUALSTYLE
  5
36
102
{ACAD_REACTORS
330
2A
102
}
330
2A
100
AcDbVisualStyle
  2
Brighten
 70
    12
 71
     2
 72
     2
 73
     0
 90
        0
 40
-0.6
 41
-30.0
 62
     5
 63
     7
 74
     1
 91
        4
 64
     7
 65
   257
 75
     1
175
     1
 42
1.0
 92
        8
 66
     7
 43
1.0
 76
     1
 77
     6
 78
     2
 67
     7
 79
     5
170
     0
171
     0
290
     0
174
     0
 93
        1
 44
50.0
173
     0
291
     1
 45
0.0
1001
ACAD
1000
AcDbSavedByObjectVersion
1070
     0
  0
VISUALSTYLE
  5
3A
102
{ACAD_REACTORS
330
2A
102
}
330
2A
100
AcDbVisualStyle
  2
ColorChange
 70
    16
 71
     2
 72
     2
 73
     3
 90
        0
 40
-0.6
 41
-30.0
 62
     5
 63
     8
 74
     1
 91
        4
 64
     7
 65
   257
 75
     1
175
     1
 42
1.0
 92
        8
 66
     8
 43
1.0
 76
     1
 77
     6
 78
     2
 67
     7
 79
     5
170
     0
171
     0
290
     0
174
     0
 93
        1
 44
0.0
173
     0
291
     1
 45
0.0
1001
ACAD
1000
AcDbSavedByObjectVersion
1070
     0
  0
VISUALSTYLE
  5
34
102
{ACAD_REACTORS
330
2A
102
}
330
2A
100
AcDbVisualStyle
  2
Conceptual
 70
     9
 71
     3
 72
     2
 73
     0
 90
        0
 40
-0.6
 41
-30.0
 62
     5
 63
     7
 74
     2
 91
        2
 64
     7
 65
   257
 75
     1
175
     1
 42
40.0
 92
        8
 66
     7
 43
1.0
 76
     1
 77
     6
 78
     2
 67
     7
 79
     3
170
     0
171
     0
290
     0
174
     0
 93
        1
 44
0.0
173
     0
291
     0
 45
0.0
1001
ACAD
1000
AcDbSavedByObjectVersion
1070
     0
  0
VISUALSTYLE
  5
35
102
{ACAD_REACTORS
330
2A
102
}
330
2A
100
AcDbVisualStyle
  2
Dim
 70
    11
 71
     2
 72
     2
 73
     0
 90
        0
 40
-0.6
 41
-30.0
 62
     5
 63
     7
 74
     1
 91
        4
 64
     7
 65
   257
 75
     1
175
     1
 42
1.0
 92
        8
 66
     7
 43
1.0
 76
     1
 77
     6
 78
     2
 67
     7
 79
     5
170
     0
171
     0
290
     0
174
     0
 93
        1
 44
-50.0
173
     0
291
     1
 45
0.0
1001
ACAD
1000
AcDbSavedByObjectVersion
1070
     0
  0
VISUALSTYLE
  5
39
102
{ACAD_REACTORS
330
2A
102
}
330
2A
100
AcDbVisualStyle
  2
Facepattern
 70
    15
 71
     2
 72
     2
 73
     0
 90
        0
 40
-0.6
 41
-30.0
 62
     5
 63
     7
 74
     1
 91
        4
 64
     7
 65
   257
 75
     1
175
     1
 42
1.0
 92
        8
 66
     7
 43
1.0
 76
     1
 77
     6
 78
     2
 67
     7
 79
     5
170
     0
171
     0
290
     0
174
     0
 93
        1
 44
0.0
173
     0
291
     1
 45
0.0
1001
ACAD
1000
AcDbSavedByObjectVersion
1070
     0
  0
VISUALSTYLE
  5
2B
102
{ACAD_REACTORS
330
2A
102
}
330
2A
100
AcDbVisualStyle
  2
Flat
 70
     0
 71
     2
 72
     1
 73
     1
 90
        2
 40
-0.6
 41
30.0
 62
     5
 63
     7
 74
     0
 91
        4
 64
     7
 65
   257
 75
     1
175
     1
 42
1.0
 92
        8
 66
     7
 43
1.0
 76
     1
 77
     6
 78
     2
 67
     7
 79
     5
170
     0
171
     0
290
     0
174
     0
 93
       13
 44
0.0
173
     0
291
     1
 45
0.0
1001
ACAD
1000
AcDbSavedByObjectVersion
1070
     0
  0
VISUALSTYLE
  5
2C
102
{ACAD_REACTORS
330
2A
102
}
330
2A
100
AcDbVisualStyle
  2
FlatWithEdges
 70
     1
 71
     2
 72
     1
 73
     1
 90
        2
 40
-0.6
 41
30.0
 62
     5
 63
     7
 74
     1
 91
        4
 64
     7
 65
   257
 75
     1
175
     1
 42
1.0
 92
        0
 66
   257
 43
1.0
 76
     1
 77
     6
 78
     2
 67
     7
 79
     5
170
     0
171
     0
290
     0
174
     0
 93
       13
 44
0.0
173
     0
291
     1
 45
0.0
1001
ACAD
1000
AcDbSavedByObjectVersion
1070
     0
  0
VISUALSTYLE
  5
2D
102
{ACAD_REACTORS
330
2A
102
}
330
2A
100
AcDbVisualStyle
  2
Gouraud
 70
     2
 71
     2
 72
     2
 73
     1
 90
        2
 40
-0.6
 41
30.0
 62
     5
 63
     7
 74
     0
 91
        4
 64
     7
 65
   257
 75
     1
175
     1
 42
1.0
 92
        0
 66
     7
 43
1.0
 76
     1
 77
     6
 78
     2
 67
     7
 79
     5
170
     0
171
     0
290
     0
174
     0
 93
       13
 44
0.0
173
     0
291
     1
 45
0.0
1001
ACAD
1000
AcDbSavedByObjectVersion
1070
     0
  0
VISUALSTYLE
  5
2E
102
{ACAD_REACTORS
330
2A
102
}
330
2A
100
AcDbVisualStyle
  2
GouraudWithEdges
 70
     3
 71
     2
 72
     2
 73
     1
 90
        2
 40
-0.6
 41
30.0
 62
     5
 63
     7
 74
     1
 91
        4
 64
     7
 65
   257
 75
     1
175
     1
 42
1.0
 92
        0
 66
   257
 43
1.0
 76
     1
 77
     6
 78
     2
 67
     7
 79
     5
170
     0
171
     0
290
     0
174
     0
 93
       13
 44
0.0
173
     0
291
     1
 45
0.0
1001
ACAD
1000
AcDbSavedByObjectVersion
1070
     0
  0
VISUALSTYLE
  5
38
102
{ACAD_REACTORS
330
2A
102
}
330
2A
100
AcDbVisualStyle
  2
Linepattern
 70
    14
 71
     2
 72
     2
 73
     0
 90
        0
 40
-0.6
 41
-30.0
 62
     5
 63
     7
 74
     1
 91
        4
 64
     7
 65
   257
 75
     7
175
     7
 42
1.0
 92
        8
 66
     7
 43
1.0
 76
     1
 77
     6
 78
     2
 67
     7
 79
     5
170
     0
171
     0
290
     0
174
     0
 93
        1
 44
0.0
173
     0
291
     1
 45
0.0
1001
ACAD
1000
AcDbSavedByObjectVersion
1070
     0
  0
VISUALSTYLE
  5
33
102
{ACAD_REACTORS
330
2A
102
}
330
2A
100
AcDbVisualStyle
  2
Realistic
 70
     8
 71
     2
 72
     2
 73
     0
 90
        0
 40
-0.6
 41
-30.0
 62
     5
 63
     7
 74
     1
 91
        0
 64
     7
 65
   257
 75
     1
175
     1
 42
1.0
 92
        8
 66
     8
 43
1.0
 76
     1
 77
     6
 78
     2
 67
     7
 79
     5
170
     0
171
     0
290
     0
174
     0
 93
       13
 44
0.0
173
     0
291
     0
 45
0.0
1001
ACAD
1000
AcDbSavedByObjectVersion
1070
     0
  0
VISUALSTYLE
  5
37
102
{ACAD_REACTORS
330
2A
102
}
330
2A
100
AcDbVisualStyle
  2
Thicken
 70
    13
 71
     2
 72
     2
 73
     0
 90
        0
 40
-0.6
 41
-30.0
 62
     5
 63
     7
 74
     1
 91
        4
 64
     7
 65
   257
 75
     1
175
     1
 42
1.0
 92
       12
 66
     7
 43
1.0
 76
     1
 77
     6
 78
     2
 67
     7
 79
     5
170
     0
171
     0
290
     0
174
     0
 93
        1
 44
0.0
173
     0
291
     1
 45
0.0
1001
ACAD
1000
AcDbSavedByObjectVersion
1070
     0
  0
XRECORD
  5
6ED
102
{ACAD_REACTORS
330
6EC
102
}
330
6EC
100
AcDbXrecord
280
     1
1000
・ｱ・ﾌDWG・t・@・C・・・ﾍRIKCAD21(TM)(R)・ﾅ・・・ｬ・ｳ・・・ﾜ・ｵ・ｽ・B
  0
ENDSEC
  0
EOF
