  0
SECTION
  2
HEADER
  9
$ACADVER
  1
AC1015
  9
$ACADMAINTVER
 70
     6
  9
$DWGCODEPAGE
  3
ANSI_932
  9
$INSBASE
 10
0.0
 20
0.0
 30
0.0
  9
$EXTMIN
 10
1.000000000000000E+20
 20
1.000000000000000E+20
 30
1.000000000000000E+20
  9
$EXTMAX
 10
-1.000000000000000E+20
 20
-1.000000000000000E+20
 30
-1.000000000000000E+20
  9
$LIMMIN
 10
0.0
 20
0.0
  9
$LIMMAX
 10
12.0
 20
9.0
  9
$ORTHOMODE
 70
     0
  9
$REGENMODE
 70
     1
  9
$FILLMODE
 70
     1
  9
$QTEXTMODE
 70
     0
  9
$MIRRTEXT
 70
     1
  9
$LTSCALE
 40
1.0
  9
$ATTMODE
 70
     1
  9
$TEXTSIZE
 40
0.2
  9
$TRACEWID
 40
0.05
  9
$TEXTSTYLE
  7
Standard
  9
$CLAYER
  8
0
  9
$CELTYPE
  6
ByLayer
  9
$CECOLOR
 62
   256
  9
$CELTSCALE
 40
1.0
  9
$DISPSILH
 70
     0
  9
$DIMSCALE
 40
1.0
  9
$DIMASZ
 40
0.18
  9
$DIMEXO
 40
0.0625
  9
$DIMDLI
 40
0.38
  9
$DIMRND
 40
0.0
  9
$DIMDLE
 40
0.0
  9
$DIMEXE
 40
0.18
  9
$DIMTP
 40
0.0
  9
$DIMTM
 40
0.0
  9
$DIMTXT
 40
0.18
  9
$DIMCEN
 40
0.09
  9
$DIMTSZ
 40
0.0
  9
$DIMTOL
 70
     0
  9
$DIMLIM
 70
     0
  9
$DIMTIH
 70
     1
  9
$DIMTOH
 70
     1
  9
$DIMSE1
 70
     0
  9
$DIMSE2
 70
     0
  9
$DIMTAD
 70
     0
  9
$DIMZIN
 70
     0
  9
$DIMBLK
  1

  9
$DIMASO
 70
     1
  9
$DIMSHO
 70
     1
  9
$DIMPOST
  1

  9
$DIMAPOST
  1

  9
$DIMALT
 70
     0
  9
$DIMALTD
 70
     2
  9
$DIMALTF
 40
25.4
  9
$DIMLFAC
 40
1.0
  9
$DIMTOFL
 70
     0
  9
$DIMTVP
 40
0.0
  9
$DIMTIX
 70
     0
  9
$DIMSOXD
 70
     0
  9
$DIMSAH
 70
     0
  9
$DIMBLK1
  1

  9
$DIMBLK2
  1

  9
$DIMSTYLE
  2
Standard
  9
$DIMCLRD
 70
     0
  9
$DIMCLRE
 70
     0
  9
$DIMCLRT
 70
     0
  9
$DIMTFAC
 40
1.0
  9
$DIMGAP
 40
0.09
  9
$DIMJUST
 70
     0
  9
$DIMSD1
 70
     0
  9
$DIMSD2
 70
     0
  9
$DIMTOLJ
 70
     1
  9
$DIMTZIN
 70
     0
  9
$DIMALTZ
 70
     0
  9
$DIMALTTZ
 70
     0
  9
$DIMUPT
 70
     0
  9
$DIMDEC
 70
     4
  9
$DIMTDEC
 70
     4
  9
$DIMALTU
 70
     2
  9
$DIMALTTD
 70
     2
  9
$DIMTXSTY
  7
Standard
  9
$DIMAUNIT
 70
     0
  9
$DIMADEC
 70
     0
  9
$DIMALTRND
 40
0.0
  9
$DIMAZIN
 70
     0
  9
$DIMDSEP
 70
    46
  9
$DIMATFIT
 70
     3
  9
$DIMFRAC
 70
     0
  9
$DIMLDRBLK
  1

  9
$DIMLUNIT
 70
     2
  9
$DIMLWD
 70
    -2
  9
$DIMLWE
 70
    -2
  9
$DIMTMOVE
 70
     0
  9
$LUNITS
 70
     2
  9
$LUPREC
 70
     4
  9
$SKETCHINC
 40
0.1
  9
$FILLETRAD
 40
0.5
  9
$AUNITS
 70
     0
  9
$AUPREC
 70
     0
  9
$MENU
  1
.
  9
$ELEVATION
 40
0.0
  9
$PELEVATION
 40
0.0
  9
$THICKNESS
 40
0.0
  9
$LIMCHECK
 70
     0
  9
$CHAMFERA
 40
0.5
  9
$CHAMFERB
 40
0.5
  9
$CHAMFERC
 40
1.0
  9
$CHAMFERD
 40
0.0
  9
$SKPOLY
 70
     0
  9
$TDCREATE
 40
2457585.445206586
  9
$TDUCREATE
 40
2457585.070206586
  9
$TDUPDATE
 40
2457585.445206597
  9
$TDUUPDATE
 40
2457585.070206597
  9
$TDINDWG
 40
0.0000000116
  9
$TDUSRTIMER
 40
0.0000000116
  9
$USRTIMER
 70
     1
  9
$ANGBASE
 50
0.0
  9
$ANGDIR
 70
     0
  9
$PDMODE
 70
     0
  9
$PDSIZE
 40
0.0
  9
$PLINEWID
 40
0.0
  9
$SPLFRAME
 70
     0
  9
$SPLINETYPE
 70
     6
  9
$SPLINESEGS
 70
     8
  9
$HANDSEED
  5
4C9
  9
$SURFTAB1
 70
     6
  9
$SURFTAB2
 70
     6
  9
$SURFTYPE
 70
     6
  9
$SURFU
 70
     6
  9
$SURFV
 70
     6
  9
$UCSBASE
  2

  9
$UCSNAME
  2

  9
$UCSORG
 10
0.0
 20
0.0
 30
0.0
  9
$UCSXDIR
 10
1.0
 20
0.0
 30
0.0
  9
$UCSYDIR
 10
0.0
 20
1.0
 30
0.0
  9
$UCSORTHOREF
  2

  9
$UCSORTHOVIEW
 70
     0
  9
$UCSORGTOP
 10
0.0
 20
0.0
 30
0.0
  9
$UCSORGBOTTOM
 10
0.0
 20
0.0
 30
0.0
  9
$UCSORGLEFT
 10
0.0
 20
0.0
 30
0.0
  9
$UCSORGRIGHT
 10
0.0
 20
0.0
 30
0.0
  9
$UCSORGFRONT
 10
0.0
 20
0.0
 30
0.0
  9
$UCSORGBACK
 10
0.0
 20
0.0
 30
0.0
  9
$PUCSBASE
  2

  9
$PUCSNAME
  2

  9
$PUCSORG
 10
0.0
 20
0.0
 30
0.0
  9
$PUCSXDIR
 10
1.0
 20
0.0
 30
0.0
  9
$PUCSYDIR
 10
0.0
 20
1.0
 30
0.0
  9
$PUCSORTHOREF
  2

  9
$PUCSORTHOVIEW
 70
     0
  9
$PUCSORGTOP
 10
0.0
 20
0.0
 30
0.0
  9
$PUCSORGBOTTOM
 10
0.0
 20
0.0
 30
0.0
  9
$PUCSORGLEFT
 10
0.0
 20
0.0
 30
0.0
  9
$PUCSORGRIGHT
 10
0.0
 20
0.0
 30
0.0
  9
$PUCSORGFRONT
 10
0.0
 20
0.0
 30
0.0
  9
$PUCSORGBACK
 10
0.0
 20
0.0
 30
0.0
  9
$USERI1
 70
     0
  9
$USERI2
 70
     0
  9
$USERI3
 70
     0
  9
$USERI4
 70
     0
  9
$USERI5
 70
     0
  9
$USERR1
 40
0.0
  9
$USERR2
 40
0.0
  9
$USERR3
 40
0.0
  9
$USERR4
 40
0.0
  9
$USERR5
 40
0.0
  9
$WORLDVIEW
 70
     1
  9
$SHADEDGE
 70
     3
  9
$SHADEDIF
 70
    70
  9
$TILEMODE
 70
     1
  9
$MAXACTVP
 70
    64
  9
$PINSBASE
 10
0.0
 20
0.0
 30
0.0
  9
$PLIMCHECK
 70
     0
  9
$PEXTMIN
 10
1.000000000000000E+20
 20
1.000000000000000E+20
 30
1.000000000000000E+20
  9
$PEXTMAX
 10
-1.000000000000000E+20
 20
-1.000000000000000E+20
 30
-1.000000000000000E+20
  9
$PLIMMIN
 10
0.0
 20
0.0
  9
$PLIMMAX
 10
12.0
 20
9.0
  9
$UNITMODE
 70
     0
  9
$VISRETAIN
 70
     1
  9
$PLINEGEN
 70
     0
  9
$PSLTSCALE
 70
     1
  9
$TREEDEPTH
 70
  3020
  9
$CMLSTYLE
  2
Standard
  9
$CMLJUST
 70
     0
  9
$CMLSCALE
 40
1.0
  9
$PROXYGRAPHICS
 70
     1
  9
$MEASUREMENT
 70
     0
  9
$CELWEIGHT
370
    -1
  9
$ENDCAPS
280
     0
  9
$JOINSTYLE
280
     0
  9
$LWDISPLAY
290
     1
  9
$INSUNITS
 70
     0
  9
$HYPERLINKBASE
  1

  9
$STYLESHEET
  1

  9
$XEDIT
290
     1
  9
$CEPSNTYPE
380
     0
  9
$PSTYLEMODE
290
     1
  9
$FINGERPRINTGUID
  2
{E98AD6D8-DB4B-4808-B5A9-79B4046784E7}
  9
$VERSIONGUID
  2
{FAEB1C32-E019-11D5-929B-00C0DF256EC4}
  9
$EXTNAMES
290
     1
  9
$PSVPSCALE
 40
0.0
  9
$OLESTARTUP
290
     0
  0
ENDSEC
  0
SECTION
  2
CLASSES
  0
CLASS
  1
ACDBDICTIONARYWDFLT
  2
AcDbDictionaryWithDefault
  3
ObjectDBX Classes
 90
        0
280
     0
281
     0
  0
CLASS
  1
VISUALSTYLE
  2
AcDbVisualStyle
  3
ObjectDBX Classes
 90
     4095
280
     0
281
     0
  0
CLASS
  1
ACDBPLACEHOLDER
  2
AcDbPlaceHolder
  3
ObjectDBX Classes
 90
        0
280
     0
281
     0
  0
CLASS
  1
LAYOUT
  2
AcDbLayout
  3
ObjectDBX Classes
 90
        0
280
     0
281
     0
  0
ENDSEC
  0
SECTION
  2
TABLES
  0
TABLE
  2
VPORT
  5
8
330
0
100
AcDbSymbolTable
 70
     1
  0
VPORT
  5
29
330
8
100
AcDbSymbolTableRecord
100
AcDbViewportTableRecord
  2
*Active
 70
     0
 10
0.0
 20
0.0
 11
1.0
 21
1.0
 12
10.42990654205607
 22
4.5
 13
0.0
 23
0.0
 14
0.5
 24
0.5
 15
0.5
 25
0.5
 16
0.0
 26
0.0
 36
1.0
 17
0.0
 27
0.0
 37
0.0
 40
9.0
 41
1.972972972850329
 42
50.0
 43
0.0
 44
0.0
 50
0.0
 51
0.0
 71
     0
 72
   100
 73
     1
 74
     3
 75
     0
 76
     0
 77
     0
 78
     0
281
     0
 65
     1
110
0.0
120
0.0
130
0.0
111
1.0
121
0.0
131
0.0
112
0.0
122
1.0
132
0.0
 79
     0
146
0.0
  0
ENDTAB
  0
TABLE
  2
LTYPE
  5
5
330
0
100
AcDbSymbolTable
 70
     1
  0
LTYPE
  5
14
330
5
100
AcDbSymbolTableRecord
100
AcDbLinetypeTableRecord
  2
ByBlock
 70
     0
  3

 72
    65
 73
     0
 40
0.0
  0
LTYPE
  5
15
330
5
100
AcDbSymbolTableRecord
100
AcDbLinetypeTableRecord
  2
ByLayer
 70
     0
  3

 72
    65
 73
     0
 40
0.0
  0
LTYPE
  5
16
330
5
100
AcDbSymbolTableRecord
100
AcDbLinetypeTableRecord
  2
Continuous
 70
     0
  3
Solid line
 72
    65
 73
     0
 40
0.0
  0
ENDTAB
  0
TABLE
  2
LAYER
  5
2
330
0
100
AcDbSymbolTable
 70
     2
  0
LAYER
  5
10
330
2
100
AcDbSymbolTableRecord
100
AcDbLayerTableRecord
  2
0
 70
     0
 62
     7
  6
Continuous
370
    -3
390
F
  0
LAYER
  5
3B
330
2
100
AcDbSymbolTableRecord
100
AcDbLayerTableRecord
  2
ｴｸｽﾃﾘｱ商品
 70
     0
 62
     7
  6
Continuous
370
    -3
390
F
  0
ENDTAB
  0
TABLE
  2
STYLE
  5
3
330
0
100
AcDbSymbolTable
 70
     1
  0
STYLE
  5
11
330
3
100
AcDbSymbolTableRecord
100
AcDbTextStyleTableRecord
  2
Standard
 70
     0
 40
0.0
 41
1.0
 50
0.0
 71
     0
 42
0.2
  3
txt
  4
EXTFONT.SHX
  0
ENDTAB
  0
TABLE
  2
VIEW
  5
6
330
0
100
AcDbSymbolTable
 70
     0
  0
ENDTAB
  0
TABLE
  2
UCS
  5
7
330
0
100
AcDbSymbolTable
 70
     0
  0
ENDTAB
  0
TABLE
  2
APPID
  5
9
330
0
100
AcDbSymbolTable
 70
     1
  0
APPID
  5
12
330
9
100
AcDbSymbolTableRecord
100
AcDbRegAppTableRecord
  2
ACAD
 70
     0
  0
ENDTAB
  0
TABLE
  2
DIMSTYLE
  5
A
330
0
100
AcDbSymbolTable
 70
     1
100
AcDbDimStyleTable
  0
DIMSTYLE
105
27
330
A
100
AcDbSymbolTableRecord
100
AcDbDimStyleTableRecord
  2
Standard
 70
     0
340
11
  0
ENDTAB
  0
TABLE
  2
BLOCK_RECORD
  5
1
330
0
100
AcDbSymbolTable
 70
     2
  0
BLOCK_RECORD
  5
1F
330
1
100
AcDbSymbolTableRecord
100
AcDbBlockTableRecord
  2
*Model_Space
340
22
  0
BLOCK_RECORD
  5
1B
330
1
100
AcDbSymbolTableRecord
100
AcDbBlockTableRecord
  2
*Paper_Space
340
1E
  0
BLOCK_RECORD
  5
23
330
1
100
AcDbSymbolTableRecord
100
AcDbBlockTableRecord
  2
*Paper_Space0
340
26
  0
BLOCK_RECORD
  5
3C
330
1
100
AcDbSymbolTableRecord
100
AcDbBlockTableRecord
  2
オブジェクト_19
340
0
102
{BLKREFS
331
4C5
102
}
  0
ENDTAB
  0
ENDSEC
  0
SECTION
  2
BLOCKS
  0
BLOCK
  5
20
330
1F
100
AcDbEntity
  8
0
100
AcDbBlockBegin
  2
*Model_Space
 70
     0
 71
     0
 10
0.0
 20
0.0
 30
0.0
  3
*Model_Space
  1

  0
ENDBLK
  5
21
330
1F
100
AcDbEntity
  8
0
100
AcDbBlockEnd
  0
BLOCK
  5
1C
330
1B
100
AcDbEntity
 67
     1
  8
0
100
AcDbBlockBegin
  2
*Paper_Space
 70
     0
 71
     0
 10
0.0
 20
0.0
 30
0.0
  3
*Paper_Space
  1

  0
ENDBLK
  5
1D
330
1B
100
AcDbEntity
 67
     1
  8
0
100
AcDbBlockEnd
  0
BLOCK
  5
24
330
23
100
AcDbEntity
  8
0
100
AcDbBlockBegin
  2
*Paper_Space0
 70
     0
 71
     0
 10
0.0
 20
0.0
 30
0.0
  3
*Paper_Space0
  1

  0
ENDBLK
  5
25
330
23
100
AcDbEntity
  8
0
100
AcDbBlockEnd
  0
BLOCK
  5
3D
330
3C
100
AcDbEntity
  8
0
100
AcDbBlockBegin
  2
オブジェクト_19
 70
     0
 71
     0
 10
0.0
 20
0.0
 30
0.0
  3
オブジェクト_19
  1

  0
POLYLINE
  5
3F
330
3C
100
AcDbEntity
  8
ｴｸｽﾃﾘｱ商品
 62
   250
370
    20
100
AcDbPolyFaceMesh
 66
     1
 10
0.0
 20
0.0
 30
0.0
 70
    64
 71
    24
 72
    18
  0
VERTEX
  5
41
330
3F
100
AcDbEntity
  8
ｴｸｽﾃﾘｱ商品
 62
   250
370
    20
100
AcDbVertex
100
AcDbPolyFaceMeshVertex
 10
100.0
 20
0.0
 30
0.0
 70
   192
  0
VERTEX
  5
42
330
3F
100
AcDbEntity
  8
ｴｸｽﾃﾘｱ商品
 62
   250
370
    20
100
AcDbVertex
100
AcDbPolyFaceMeshVertex
 10
0.0
 20
0.0
 30
0.0
 70
   192
  0
VERTEX
  5
43
330
3F
100
AcDbEntity
  8
ｴｸｽﾃﾘｱ商品
 62
   250
370
    20
100
AcDbVertex
100
AcDbPolyFaceMeshVertex
 10
0.0
 20
100.0
 30
0.0
 70
   192
  0
VERTEX
  5
44
330
3F
100
AcDbEntity
  8
ｴｸｽﾃﾘｱ商品
 62
   250
370
    20
100
AcDbVertex
100
AcDbPolyFaceMeshVertex
 10
100.0
 20
100.0
 30
0.0
 70
   192
  0
VERTEX
  5
45
330
3F
100
AcDbEntity
  8
ｴｸｽﾃﾘｱ商品
 62
   250
370
    20
100
AcDbVertex
100
AcDbPolyFaceMeshVertex
 10
0.0
 20
0.0
 30
1910.0
 70
   192
  0
VERTEX
  5
46
330
3F
100
AcDbEntity
  8
ｴｸｽﾃﾘｱ商品
 62
   250
370
    20
100
AcDbVertex
100
AcDbPolyFaceMeshVertex
 10
100.0
 20
0.0
 30
1910.0
 70
   192
  0
VERTEX
  5
47
330
3F
100
AcDbEntity
  8
ｴｸｽﾃﾘｱ商品
 62
   250
370
    20
100
AcDbVertex
100
AcDbPolyFaceMeshVertex
 10
100.0
 20
100.0
 30
1910.0
 70
   192
  0
VERTEX
  5
48
330
3F
100
AcDbEntity
  8
ｴｸｽﾃﾘｱ商品
 62
   250
370
    20
100
AcDbVertex
100
AcDbPolyFaceMeshVertex
 10
0.0
 20
100.0
 30
1910.0
 70
   192
  0
VERTEX
  5
49
330
3F
100
AcDbEntity
  8
ｴｸｽﾃﾘｱ商品
 62
   250
370
    20
100
AcDbVertex
100
AcDbPolyFaceMeshVertex
 10
1031.0
 20
0.0
 30
0.0
 70
   192
  0
VERTEX
  5
4A
330
3F
100
AcDbEntity
  8
ｴｸｽﾃﾘｱ商品
 62
   250
370
    20
100
AcDbVertex
100
AcDbPolyFaceMeshVertex
 10
931.0
 20
0.0
 30
0.0
 70
   192
  0
VERTEX
  5
4B
330
3F
100
AcDbEntity
  8
ｴｸｽﾃﾘｱ商品
 62
   250
370
    20
100
AcDbVertex
100
AcDbPolyFaceMeshVertex
 10
931.0
 20
100.0
 30
0.0
 70
   192
  0
VERTEX
  5
4C
330
3F
100
AcDbEntity
  8
ｴｸｽﾃﾘｱ商品
 62
   250
370
    20
100
AcDbVertex
100
AcDbPolyFaceMeshVertex
 10
1031.0
 20
100.0
 30
0.0
 70
   192
  0
VERTEX
  5
4D
330
3F
100
AcDbEntity
  8
ｴｸｽﾃﾘｱ商品
 62
   250
370
    20
100
AcDbVertex
100
AcDbPolyFaceMeshVertex
 10
931.0
 20
0.0
 30
1910.0
 70
   192
  0
VERTEX
  5
4E
330
3F
100
AcDbEntity
  8
ｴｸｽﾃﾘｱ商品
 62
   250
370
    20
100
AcDbVertex
100
AcDbPolyFaceMeshVertex
 10
1031.0
 20
0.0
 30
1910.0
 70
   192
  0
VERTEX
  5
4F
330
3F
100
AcDbEntity
  8
ｴｸｽﾃﾘｱ商品
 62
   250
370
    20
100
AcDbVertex
100
AcDbPolyFaceMeshVertex
 10
1031.0
 20
100.0
 30
1910.0
 70
   192
  0
VERTEX
  5
50
330
3F
100
AcDbEntity
  8
ｴｸｽﾃﾘｱ商品
 62
   250
370
    20
100
AcDbVertex
100
AcDbPolyFaceMeshVertex
 10
931.0
 20
100.0
 30
1910.0
 70
   192
  0
VERTEX
  5
51
330
3F
100
AcDbEntity
  8
ｴｸｽﾃﾘｱ商品
 62
   250
370
    20
100
AcDbVertex
100
AcDbPolyFaceMeshVertex
 10
906.0
 20
49.99999999999999
 30
91.00000000000003
 70
   192
  0
VERTEX
  5
52
330
3F
100
AcDbEntity
  8
ｴｸｽﾃﾘｱ商品
 62
   250
370
    20
100
AcDbVertex
100
AcDbPolyFaceMeshVertex
 10
106.0
 20
49.99999999999999
 30
91.00000000000003
 70
   192
  0
VERTEX
  5
53
330
3F
100
AcDbEntity
  8
ｴｸｽﾃﾘｱ商品
 62
   250
370
    20
100
AcDbVertex
100
AcDbPolyFaceMeshVertex
 10
106.0
 20
103.0
 30
91.00000000000003
 70
   192
  0
VERTEX
  5
54
330
3F
100
AcDbEntity
  8
ｴｸｽﾃﾘｱ商品
 62
   250
370
    20
100
AcDbVertex
100
AcDbPolyFaceMeshVertex
 10
906.0
 20
103.0
 30
91.00000000000003
 70
   192
  0
VERTEX
  5
55
330
3F
100
AcDbEntity
  8
ｴｸｽﾃﾘｱ商品
 62
   250
370
    20
100
AcDbVertex
100
AcDbPolyFaceMeshVertex
 10
106.0
 20
49.99999999999999
 30
102.0
 70
   192
  0
VERTEX
  5
56
330
3F
100
AcDbEntity
  8
ｴｸｽﾃﾘｱ商品
 62
   250
370
    20
100
AcDbVertex
100
AcDbPolyFaceMeshVertex
 10
906.0
 20
49.99999999999999
 30
102.0
 70
   192
  0
VERTEX
  5
57
330
3F
100
AcDbEntity
  8
ｴｸｽﾃﾘｱ商品
 62
   250
370
    20
100
AcDbVertex
100
AcDbPolyFaceMeshVertex
 10
906.0
 20
103.0
 30
102.0
 70
   192
  0
VERTEX
  5
58
330
3F
100
AcDbEntity
  8
ｴｸｽﾃﾘｱ商品
 62
   250
370
    20
100
AcDbVertex
100
AcDbPolyFaceMeshVertex
 10
106.0
 20
103.0
 30
102.0
 70
   192
  0
VERTEX
  5
59
330
3F
100
AcDbEntity
  8
ｴｸｽﾃﾘｱ商品
 62
   250
370
    20
100
AcDbFaceRecord
 10
0.0
 20
0.0
 30
0.0
 70
   128
 71
     1
 72
     2
 73
     3
 74
     4
  0
VERTEX
  5
5A
330
3F
100
AcDbEntity
  8
ｴｸｽﾃﾘｱ商品
 62
   250
370
    20
100
AcDbFaceRecord
 10
0.0
 20
0.0
 30
0.0
 70
   128
 71
     5
 72
     6
 73
     7
 74
     8
  0
VERTEX
  5
5B
330
3F
100
AcDbEntity
  8
ｴｸｽﾃﾘｱ商品
 62
   250
370
    20
100
AcDbFaceRecord
 10
0.0
 20
0.0
 30
0.0
 70
   128
 71
     2
 72
     1
 73
     6
 74
     5
  0
VERTEX
  5
5C
330
3F
100
AcDbEntity
  8
ｴｸｽﾃﾘｱ商品
 62
   250
370
    20
100
AcDbFaceRecord
 10
0.0
 20
0.0
 30
0.0
 70
   128
 71
     1
 72
     4
 73
     7
 74
     6
  0
VERTEX
  5
5D
330
3F
100
AcDbEntity
  8
ｴｸｽﾃﾘｱ商品
 62
   250
370
    20
100
AcDbFaceRecord
 10
0.0
 20
0.0
 30
0.0
 70
   128
 71
     4
 72
     3
 73
     8
 74
     7
  0
VERTEX
  5
5E
330
3F
100
AcDbEntity
  8
ｴｸｽﾃﾘｱ商品
 62
   250
370
    20
100
AcDbFaceRecord
 10
0.0
 20
0.0
 30
0.0
 70
   128
 71
     3
 72
     2
 73
     5
 74
     8
  0
VERTEX
  5
5F
330
3F
100
AcDbEntity
  8
ｴｸｽﾃﾘｱ商品
 62
   250
370
    20
100
AcDbFaceRecord
 10
0.0
 20
0.0
 30
0.0
 70
   128
 71
     9
 72
    10
 73
    11
 74
    12
  0
VERTEX
  5
60
330
3F
100
AcDbEntity
  8
ｴｸｽﾃﾘｱ商品
 62
   250
370
    20
100
AcDbFaceRecord
 10
0.0
 20
0.0
 30
0.0
 70
   128
 71
    13
 72
    14
 73
    15
 74
    16
  0
VERTEX
  5
61
330
3F
100
AcDbEntity
  8
ｴｸｽﾃﾘｱ商品
 62
   250
370
    20
100
AcDbFaceRecord
 10
0.0
 20
0.0
 30
0.0
 70
   128
 71
    10
 72
     9
 73
    14
 74
    13
  0
VERTEX
  5
62
330
3F
100
AcDbEntity
  8
ｴｸｽﾃﾘｱ商品
 62
   250
370
    20
100
AcDbFaceRecord
 10
0.0
 20
0.0
 30
0.0
 70
   128
 71
     9
 72
    12
 73
    15
 74
    14
  0
VERTEX
  5
63
330
3F
100
AcDbEntity
  8
ｴｸｽﾃﾘｱ商品
 62
   250
370
    20
100
AcDbFaceRecord
 10
0.0
 20
0.0
 30
0.0
 70
   128
 71
    12
 72
    11
 73
    16
 74
    15
  0
VERTEX
  5
64
330
3F
100
AcDbEntity
  8
ｴｸｽﾃﾘｱ商品
 62
   250
370
    20
100
AcDbFaceRecord
 10
0.0
 20
0.0
 30
0.0
 70
   128
 71
    11
 72
    10
 73
    13
 74
    16
  0
VERTEX
  5
65
330
3F
100
AcDbEntity
  8
ｴｸｽﾃﾘｱ商品
 62
    27
370
     0
100
AcDbFaceRecord
 10
0.0
 20
0.0
 30
0.0
 70
   128
 71
    17
 72
    18
 73
    19
 74
    20
  0
VERTEX
  5
66
330
3F
100
AcDbEntity
  8
ｴｸｽﾃﾘｱ商品
 62
    27
370
     0
100
AcDbFaceRecord
 10
0.0
 20
0.0
 30
0.0
 70
   128
 71
    21
 72
    22
 73
    23
 74
    24
  0
VERTEX
  5
67
330
3F
100
AcDbEntity
  8
ｴｸｽﾃﾘｱ商品
 62
    27
370
     0
100
AcDbFaceRecord
 10
0.0
 20
0.0
 30
0.0
 70
   128
 71
    18
 72
    17
 73
    22
 74
    21
  0
VERTEX
  5
68
330
3F
100
AcDbEntity
  8
ｴｸｽﾃﾘｱ商品
 62
    27
370
     0
100
AcDbFaceRecord
 10
0.0
 20
0.0
 30
0.0
 70
   128
 71
    17
 72
    20
 73
    23
 74
    22
  0
VERTEX
  5
69
330
3F
100
AcDbEntity
  8
ｴｸｽﾃﾘｱ商品
 62
    27
370
     0
100
AcDbFaceRecord
 10
0.0
 20
0.0
 30
0.0
 70
   128
 71
    20
 72
    19
 73
    24
 74
    23
  0
VERTEX
  5
6A
330
3F
100
AcDbEntity
  8
ｴｸｽﾃﾘｱ商品
 62
    27
370
     0
100
AcDbFaceRecord
 10
0.0
 20
0.0
 30
0.0
 70
   128
 71
    19
 72
    18
 73
    21
 74
    24
  0
SEQEND
  5
40
330
3F
100
AcDbEntity
  8
ｴｸｽﾃﾘｱ商品
370
    20
  0
POLYLINE
  5
6B
330
3C
100
AcDbEntity
  8
ｴｸｽﾃﾘｱ商品
 62
    27
370
     0
100
AcDbPolyFaceMesh
 66
     1
 10
0.0
 20
0.0
 30
0.0
 70
    64
 71
     8
 72
     6
  0
VERTEX
  5
6D
330
6B
100
AcDbEntity
  8
ｴｸｽﾃﾘｱ商品
 62
    27
370
     0
100
AcDbVertex
100
AcDbPolyFaceMeshVertex
 10
906.0
 20
49.99999999999999
 30
1880.0
 70
   192
  0
VERTEX
  5
6E
330
6B
100
AcDbEntity
  8
ｴｸｽﾃﾘｱ商品
 62
    27
370
     0
100
AcDbVertex
100
AcDbPolyFaceMeshVertex
 10
106.0
 20
49.99999999999999
 30
1880.0
 70
   192
  0
VERTEX
  5
6F
330
6B
100
AcDbEntity
  8
ｴｸｽﾃﾘｱ商品
 62
    27
370
     0
100
AcDbVertex
100
AcDbPolyFaceMeshVertex
 10
106.0
 20
103.0
 30
1880.0
 70
   192
  0
VERTEX
  5
70
330
6B
100
AcDbEntity
  8
ｴｸｽﾃﾘｱ商品
 62
    27
370
     0
100
AcDbVertex
100
AcDbPolyFaceMeshVertex
 10
906.0
 20
103.0
 30
1880.0
 70
   192
  0
VERTEX
  5
71
330
6B
100
AcDbEntity
  8
ｴｸｽﾃﾘｱ商品
 62
    27
370
     0
100
AcDbVertex
100
AcDbPolyFaceMeshVertex
 10
106.0
 20
49.99999999999999
 30
1891.0
 70
   192
  0
VERTEX
  5
72
330
6B
100
AcDbEntity
  8
ｴｸｽﾃﾘｱ商品
 62
    27
370
     0
100
AcDbVertex
100
AcDbPolyFaceMeshVertex
 10
906.0
 20
49.99999999999999
 30
1891.0
 70
   192
  0
VERTEX
  5
73
330
6B
100
AcDbEntity
  8
ｴｸｽﾃﾘｱ商品
 62
    27
370
     0
100
AcDbVertex
100
AcDbPolyFaceMeshVertex
 10
906.0
 20
103.0
 30
1891.0
 70
   192
  0
VERTEX
  5
74
330
6B
100
AcDbEntity
  8
ｴｸｽﾃﾘｱ商品
 62
    27
370
     0
100
AcDbVertex
100
AcDbPolyFaceMeshVertex
 10
106.0
 20
103.0
 30
1891.0
 70
   192
  0
VERTEX
  5
75
330
6B
100
AcDbEntity
  8
ｴｸｽﾃﾘｱ商品
 62
    27
370
     0
100
AcDbFaceRecord
 10
0.0
 20
0.0
 30
0.0
 70
   128
 71
     1
 72
     2
 73
     3
 74
     4
  0
VERTEX
  5
76
330
6B
100
AcDbEntity
  8
ｴｸｽﾃﾘｱ商品
 62
    27
370
     0
100
AcDbFaceRecord
 10
0.0
 20
0.0
 30
0.0
 70
   128
 71
     5
 72
     6
 73
     7
 74
     8
  0
VERTEX
  5
77
330
6B
100
AcDbEntity
  8
ｴｸｽﾃﾘｱ商品
 62
    27
370
     0
100
AcDbFaceRecord
 10
0.0
 20
0.0
 30
0.0
 70
   128
 71
     2
 72
     1
 73
     6
 74
     5
  0
VERTEX
  5
78
330
6B
100
AcDbEntity
  8
ｴｸｽﾃﾘｱ商品
 62
    27
370
     0
100
AcDbFaceRecord
 10
0.0
 20
0.0
 30
0.0
 70
   128
 71
     1
 72
     4
 73
     7
 74
     6
  0
VERTEX
  5
79
330
6B
100
AcDbEntity
  8
ｴｸｽﾃﾘｱ商品
 62
    27
370
     0
100
AcDbFaceRecord
 10
0.0
 20
0.0
 30
0.0
 70
   128
 71
     4
 72
     3
 73
     8
 74
     7
  0
VERTEX
  5
7A
330
6B
100
AcDbEntity
  8
ｴｸｽﾃﾘｱ商品
 62
    27
370
     0
100
AcDbFaceRecord
 10
0.0
 20
0.0
 30
0.0
 70
   128
 71
     3
 72
     2
 73
     5
 74
     8
  0
SEQEND
  5
6C
330
6B
100
AcDbEntity
  8
ｴｸｽﾃﾘｱ商品
370
     0
  0
POLYLINE
  5
7B
330
3C
100
AcDbEntity
  8
ｴｸｽﾃﾘｱ商品
 62
    27
370
     0
100
AcDbPolyFaceMesh
 66
     1
 10
0.0
 20
0.0
 30
0.0
 70
    64
 71
     8
 72
     6
  0
VERTEX
  5
7D
330
7B
100
AcDbEntity
  8
ｴｸｽﾃﾘｱ商品
 62
    27
370
     0
100
AcDbVertex
100
AcDbPolyFaceMeshVertex
 10
116.0
 20
49.99999999999999
 30
102.0
 70
   192
  0
VERTEX
  5
7E
330
7B
100
AcDbEntity
  8
ｴｸｽﾃﾘｱ商品
 62
    27
370
     0
100
AcDbVertex
100
AcDbPolyFaceMeshVertex
 10
106.0
 20
49.99999999999999
 30
102.0
 70
   192
  0
VERTEX
  5
7F
330
7B
100
AcDbEntity
  8
ｴｸｽﾃﾘｱ商品
 62
    27
370
     0
100
AcDbVertex
100
AcDbPolyFaceMeshVertex
 10
106.0
 20
103.0
 30
102.0
 70
   192
  0
VERTEX
  5
80
330
7B
100
AcDbEntity
  8
ｴｸｽﾃﾘｱ商品
 62
    27
370
     0
100
AcDbVertex
100
AcDbPolyFaceMeshVertex
 10
116.0
 20
103.0
 30
102.0
 70
   192
  0
VERTEX
  5
81
330
7B
100
AcDbEntity
  8
ｴｸｽﾃﾘｱ商品
 62
    27
370
     0
100
AcDbVertex
100
AcDbPolyFaceMeshVertex
 10
106.0
 20
49.99999999999999
 30
1880.0
 70
   192
  0
VERTEX
  5
82
330
7B
100
AcDbEntity
  8
ｴｸｽﾃﾘｱ商品
 62
    27
370
     0
100
AcDbVertex
100
AcDbPolyFaceMeshVertex
 10
116.0
 20
49.99999999999999
 30
1880.0
 70
   192
  0
VERTEX
  5
83
330
7B
100
AcDbEntity
  8
ｴｸｽﾃﾘｱ商品
 62
    27
370
     0
100
AcDbVertex
100
AcDbPolyFaceMeshVertex
 10
116.0
 20
103.0
 30
1880.0
 70
   192
  0
VERTEX
  5
84
330
7B
100
AcDbEntity
  8
ｴｸｽﾃﾘｱ商品
 62
    27
370
     0
100
AcDbVertex
100
AcDbPolyFaceMeshVertex
 10
106.0
 20
103.0
 30
1880.0
 70
   192
  0
VERTEX
  5
85
330
7B
100
AcDbEntity
  8
ｴｸｽﾃﾘｱ商品
 62
    27
370
     0
100
AcDbFaceRecord
 10
0.0
 20
0.0
 30
0.0
 70
   128
 71
     1
 72
     2
 73
     3
 74
     4
  0
VERTEX
  5
86
330
7B
100
AcDbEntity
  8
ｴｸｽﾃﾘｱ商品
 62
    27
370
     0
100
AcDbFaceRecord
 10
0.0
 20
0.0
 30
0.0
 70
   128
 71
     5
 72
     6
 73
     7
 74
     8
  0
VERTEX
  5
87
330
7B
100
AcDbEntity
  8
ｴｸｽﾃﾘｱ商品
 62
    27
370
     0
100
AcDbFaceRecord
 10
0.0
 20
0.0
 30
0.0
 70
   128
 71
     2
 72
     1
 73
     6
 74
     5
  0
VERTEX
  5
88
330
7B
100
AcDbEntity
  8
ｴｸｽﾃﾘｱ商品
 62
    27
370
     0
100
AcDbFaceRecord
 10
0.0
 20
0.0
 30
0.0
 70
   128
 71
     1
 72
     4
 73
     7
 74
     6
  0
VERTEX
  5
89
330
7B
100
AcDbEntity
  8
ｴｸｽﾃﾘｱ商品
 62
    27
370
     0
100
AcDbFaceRecord
 10
0.0
 20
0.0
 30
0.0
 70
   128
 71
     4
 72
     3
 73
     8
 74
     7
  0
VERTEX
  5
8A
330
7B
100
AcDbEntity
  8
ｴｸｽﾃﾘｱ商品
 62
    27
370
     0
100
AcDbFaceRecord
 10
0.0
 20
0.0
 30
0.0
 70
   128
 71
     3
 72
     2
 73
     5
 74
     8
  0
SEQEND
  5
7C
330
7B
100
AcDbEntity
  8
ｴｸｽﾃﾘｱ商品
370
     0
  0
POLYLINE
  5
8B
330
3C
100
AcDbEntity
  8
ｴｸｽﾃﾘｱ商品
 62
    27
370
     0
100
AcDbPolyFaceMesh
 66
     1
 10
0.0
 20
0.0
 30
0.0
 70
    64
 71
     8
 72
     6
  0
VERTEX
  5
8D
330
8B
100
AcDbEntity
  8
ｴｸｽﾃﾘｱ商品
 62
    27
370
     0
100
AcDbVertex
100
AcDbPolyFaceMeshVertex
 10
906.0
 20
49.99999999999999
 30
102.0
 70
   192
  0
VERTEX
  5
8E
330
8B
100
AcDbEntity
  8
ｴｸｽﾃﾘｱ商品
 62
    27
370
     0
100
AcDbVertex
100
AcDbPolyFaceMeshVertex
 10
896.0
 20
49.99999999999999
 30
102.0
 70
   192
  0
VERTEX
  5
8F
330
8B
100
AcDbEntity
  8
ｴｸｽﾃﾘｱ商品
 62
    27
370
     0
100
AcDbVertex
100
AcDbPolyFaceMeshVertex
 10
896.0
 20
103.0
 30
102.0
 70
   192
  0
VERTEX
  5
90
330
8B
100
AcDbEntity
  8
ｴｸｽﾃﾘｱ商品
 62
    27
370
     0
100
AcDbVertex
100
AcDbPolyFaceMeshVertex
 10
906.0
 20
103.0
 30
102.0
 70
   192
  0
VERTEX
  5
91
330
8B
100
AcDbEntity
  8
ｴｸｽﾃﾘｱ商品
 62
    27
370
     0
100
AcDbVertex
100
AcDbPolyFaceMeshVertex
 10
896.0
 20
49.99999999999999
 30
1880.0
 70
   192
  0
VERTEX
  5
92
330
8B
100
AcDbEntity
  8
ｴｸｽﾃﾘｱ商品
 62
    27
370
     0
100
AcDbVertex
100
AcDbPolyFaceMeshVertex
 10
906.0
 20
49.99999999999999
 30
1880.0
 70
   192
  0
VERTEX
  5
93
330
8B
100
AcDbEntity
  8
ｴｸｽﾃﾘｱ商品
 62
    27
370
     0
100
AcDbVertex
100
AcDbPolyFaceMeshVertex
 10
906.0
 20
103.0
 30
1880.0
 70
   192
  0
VERTEX
  5
94
330
8B
100
AcDbEntity
  8
ｴｸｽﾃﾘｱ商品
 62
    27
370
     0
100
AcDbVertex
100
AcDbPolyFaceMeshVertex
 10
896.0
 20
103.0
 30
1880.0
 70
   192
  0
VERTEX
  5
95
330
8B
100
AcDbEntity
  8
ｴｸｽﾃﾘｱ商品
 62
    27
370
     0
100
AcDbFaceRecord
 10
0.0
 20
0.0
 30
0.0
 70
   128
 71
     1
 72
     2
 73
     3
 74
     4
  0
VERTEX
  5
96
330
8B
100
AcDbEntity
  8
ｴｸｽﾃﾘｱ商品
 62
    27
370
     0
100
AcDbFaceRecord
 10
0.0
 20
0.0
 30
0.0
 70
   128
 71
     5
 72
     6
 73
     7
 74
     8
  0
VERTEX
  5
97
330
8B
100
AcDbEntity
  8
ｴｸｽﾃﾘｱ商品
 62
    27
370
     0
100
AcDbFaceRecord
 10
0.0
 20
0.0
 30
0.0
 70
   128
 71
     2
 72
     1
 73
     6
 74
     5
  0
VERTEX
  5
98
330
8B
100
AcDbEntity
  8
ｴｸｽﾃﾘｱ商品
 62
    27
370
     0
100
AcDbFaceRecord
 10
0.0
 20
0.0
 30
0.0
 70
   128
 71
     1
 72
     4
 73
     7
 74
     6
  0
VERTEX
  5
99
330
8B
100
AcDbEntity
  8
ｴｸｽﾃﾘｱ商品
 62
    27
370
     0
100
AcDbFaceRecord
 10
0.0
 20
0.0
 30
0.0
 70
   128
 71
     4
 72
     3
 73
     8
 74
     7
  0
VERTEX
  5
9A
330
8B
100
AcDbEntity
  8
ｴｸｽﾃﾘｱ商品
 62
    27
370
     0
100
AcDbFaceRecord
 10
0.0
 20
0.0
 30
0.0
 70
   128
 71
     3
 72
     2
 73
     5
 74
     8
  0
SEQEND
  5
8C
330
8B
100
AcDbEntity
  8
ｴｸｽﾃﾘｱ商品
370
     0
  0
POLYLINE
  5
9B
330
3C
100
AcDbEntity
  8
ｴｸｽﾃﾘｱ商品
 62
    27
370
     0
100
AcDbPolyFaceMesh
 66
     1
 10
0.0
 20
0.0
 30
0.0
 70
    64
 71
     8
 72
     6
  0
VERTEX
  5
9D
330
9B
100
AcDbEntity
  8
ｴｸｽﾃﾘｱ商品
 62
    27
370
     0
100
AcDbVertex
100
AcDbPolyFaceMeshVertex
 10
896.0
 20
51.5
 30
102.0
 70
   192
  0
VERTEX
  5
9E
330
9B
100
AcDbEntity
  8
ｴｸｽﾃﾘｱ商品
 62
    27
370
     0
100
AcDbVertex
100
AcDbPolyFaceMeshVertex
 10
116.0
 20
51.5
 30
102.0
 70
   192
  0
VERTEX
  5
9F
330
9B
100
AcDbEntity
  8
ｴｸｽﾃﾘｱ商品
 62
    27
370
     0
100
AcDbVertex
100
AcDbPolyFaceMeshVertex
 10
116.0
 20
101.5
 30
102.0
 70
   192
  0
VERTEX
  5
A0
330
9B
100
AcDbEntity
  8
ｴｸｽﾃﾘｱ商品
 62
    27
370
     0
100
AcDbVertex
100
AcDbPolyFaceMeshVertex
 10
896.0
 20
101.5
 30
102.0
 70
   192
  0
VERTEX
  5
A1
330
9B
100
AcDbEntity
  8
ｴｸｽﾃﾘｱ商品
 62
    27
370
     0
100
AcDbVertex
100
AcDbPolyFaceMeshVertex
 10
116.0
 20
51.5
 30
282.15
 70
   192
  0
VERTEX
  5
A2
330
9B
100
AcDbEntity
  8
ｴｸｽﾃﾘｱ商品
 62
    27
370
     0
100
AcDbVertex
100
AcDbPolyFaceMeshVertex
 10
896.0
 20
51.5
 30
282.15
 70
   192
  0
VERTEX
  5
A3
330
9B
100
AcDbEntity
  8
ｴｸｽﾃﾘｱ商品
 62
    27
370
     0
100
AcDbVertex
100
AcDbPolyFaceMeshVertex
 10
896.0
 20
101.5
 30
282.15
 70
   192
  0
VERTEX
  5
A4
330
9B
100
AcDbEntity
  8
ｴｸｽﾃﾘｱ商品
 62
    27
370
     0
100
AcDbVertex
100
AcDbPolyFaceMeshVertex
 10
116.0
 20
101.5
 30
282.15
 70
   192
  0
VERTEX
  5
A5
330
9B
100
AcDbEntity
  8
ｴｸｽﾃﾘｱ商品
 62
    27
370
     0
100
AcDbFaceRecord
 10
0.0
 20
0.0
 30
0.0
 70
   128
 71
     1
 72
     2
 73
     3
 74
     4
  0
VERTEX
  5
A6
330
9B
100
AcDbEntity
  8
ｴｸｽﾃﾘｱ商品
 62
    27
370
     0
100
AcDbFaceRecord
 10
0.0
 20
0.0
 30
0.0
 70
   128
 71
     5
 72
     6
 73
     7
 74
     8
  0
VERTEX
  5
A7
330
9B
100
AcDbEntity
  8
ｴｸｽﾃﾘｱ商品
 62
    27
370
     0
100
AcDbFaceRecord
 10
0.0
 20
0.0
 30
0.0
 70
   128
 71
     2
 72
     1
 73
     6
 74
     5
  0
VERTEX
  5
A8
330
9B
100
AcDbEntity
  8
ｴｸｽﾃﾘｱ商品
 62
    27
370
     0
100
AcDbFaceRecord
 10
0.0
 20
0.0
 30
0.0
 70
   128
 71
     1
 72
     4
 73
     7
 74
     6
  0
VERTEX
  5
A9
330
9B
100
AcDbEntity
  8
ｴｸｽﾃﾘｱ商品
 62
    27
370
     0
100
AcDbFaceRecord
 10
0.0
 20
0.0
 30
0.0
 70
   128
 71
     4
 72
     3
 73
     8
 74
     7
  0
VERTEX
  5
AA
330
9B
100
AcDbEntity
  8
ｴｸｽﾃﾘｱ商品
 62
    27
370
     0
100
AcDbFaceRecord
 10
0.0
 20
0.0
 30
0.0
 70
   128
 71
     3
 72
     2
 73
     5
 74
     8
  0
SEQEND
  5
9C
330
9B
100
AcDbEntity
  8
ｴｸｽﾃﾘｱ商品
370
     0
  0
POLYLINE
  5
AB
330
3C
100
AcDbEntity
  8
ｴｸｽﾃﾘｱ商品
 62
    27
370
     0
100
AcDbPolyFaceMesh
 66
     1
 10
0.0
 20
0.0
 30
0.0
 70
    64
 71
     8
 72
     6
  0
VERTEX
  5
AD
330
AB
100
AcDbEntity
  8
ｴｸｽﾃﾘｱ商品
 62
    27
370
     0
100
AcDbVertex
100
AcDbPolyFaceMeshVertex
 10
896.0
 20
51.5
 30
299.8500000000001
 70
   192
  0
VERTEX
  5
AE
330
AB
100
AcDbEntity
  8
ｴｸｽﾃﾘｱ商品
 62
    27
370
     0
100
AcDbVertex
100
AcDbPolyFaceMeshVertex
 10
116.0
 20
51.5
 30
299.8500000000001
 70
   192
  0
VERTEX
  5
AF
330
AB
100
AcDbEntity
  8
ｴｸｽﾃﾘｱ商品
 62
    27
370
     0
100
AcDbVertex
100
AcDbPolyFaceMeshVertex
 10
116.0
 20
101.5
 30
299.8500000000001
 70
   192
  0
VERTEX
  5
B0
330
AB
100
AcDbEntity
  8
ｴｸｽﾃﾘｱ商品
 62
    27
370
     0
100
AcDbVertex
100
AcDbPolyFaceMeshVertex
 10
896.0
 20
101.5
 30
299.8500000000001
 70
   192
  0
VERTEX
  5
B1
330
AB
100
AcDbEntity
  8
ｴｸｽﾃﾘｱ商品
 62
    27
370
     0
100
AcDbVertex
100
AcDbPolyFaceMeshVertex
 10
116.0
 20
51.5
 30
375.1500000000001
 70
   192
  0
VERTEX
  5
B2
330
AB
100
AcDbEntity
  8
ｴｸｽﾃﾘｱ商品
 62
    27
370
     0
100
AcDbVertex
100
AcDbPolyFaceMeshVertex
 10
896.0
 20
51.5
 30
375.1500000000001
 70
   192
  0
VERTEX
  5
B3
330
AB
100
AcDbEntity
  8
ｴｸｽﾃﾘｱ商品
 62
    27
370
     0
100
AcDbVertex
100
AcDbPolyFaceMeshVertex
 10
896.0
 20
101.5
 30
375.1500000000001
 70
   192
  0
VERTEX
  5
B4
330
AB
100
AcDbEntity
  8
ｴｸｽﾃﾘｱ商品
 62
    27
370
     0
100
AcDbVertex
100
AcDbPolyFaceMeshVertex
 10
116.0
 20
101.5
 30
375.1500000000001
 70
   192
  0
VERTEX
  5
B5
330
AB
100
AcDbEntity
  8
ｴｸｽﾃﾘｱ商品
 62
    27
370
     0
100
AcDbFaceRecord
 10
0.0
 20
0.0
 30
0.0
 70
   128
 71
     1
 72
     2
 73
     3
 74
     4
  0
VERTEX
  5
B6
330
AB
100
AcDbEntity
  8
ｴｸｽﾃﾘｱ商品
 62
    27
370
     0
100
AcDbFaceRecord
 10
0.0
 20
0.0
 30
0.0
 70
   128
 71
     5
 72
     6
 73
     7
 74
     8
  0
VERTEX
  5
B7
330
AB
100
AcDbEntity
  8
ｴｸｽﾃﾘｱ商品
 62
    27
370
     0
100
AcDbFaceRecord
 10
0.0
 20
0.0
 30
0.0
 70
   128
 71
     2
 72
     1
 73
     6
 74
     5
  0
VERTEX
  5
B8
330
AB
100
AcDbEntity
  8
ｴｸｽﾃﾘｱ商品
 62
    27
370
     0
100
AcDbFaceRecord
 10
0.0
 20
0.0
 30
0.0
 70
   128
 71
     1
 72
     4
 73
     7
 74
     6
  0
VERTEX
  5
B9
330
AB
100
AcDbEntity
  8
ｴｸｽﾃﾘｱ商品
 62
    27
370
     0
100
AcDbFaceRecord
 10
0.0
 20
0.0
 30
0.0
 70
   128
 71
     4
 72
     3
 73
     8
 74
     7
  0
VERTEX
  5
BA
330
AB
100
AcDbEntity
  8
ｴｸｽﾃﾘｱ商品
 62
    27
370
     0
100
AcDbFaceRecord
 10
0.0
 20
0.0
 30
0.0
 70
   128
 71
     3
 72
     2
 73
     5
 74
     8
  0
SEQEND
  5
AC
330
AB
100
AcDbEntity
  8
ｴｸｽﾃﾘｱ商品
370
     0
  0
POLYLINE
  5
BB
330
3C
100
AcDbEntity
  8
ｴｸｽﾃﾘｱ商品
 62
    27
370
     0
100
AcDbPolyFaceMesh
 66
     1
 10
0.0
 20
0.0
 30
0.0
 70
    64
 71
     8
 72
     6
  0
VERTEX
  5
BD
330
BB
100
AcDbEntity
  8
ｴｸｽﾃﾘｱ商品
 62
    27
370
     0
100
AcDbVertex
100
AcDbPolyFaceMeshVertex
 10
896.0
 20
51.5
 30
394.85
 70
   192
  0
VERTEX
  5
BE
330
BB
100
AcDbEntity
  8
ｴｸｽﾃﾘｱ商品
 62
    27
370
     0
100
AcDbVertex
100
AcDbPolyFaceMeshVertex
 10
116.0
 20
51.5
 30
394.85
 70
   192
  0
VERTEX
  5
BF
330
BB
100
AcDbEntity
  8
ｴｸｽﾃﾘｱ商品
 62
    27
370
     0
100
AcDbVertex
100
AcDbPolyFaceMeshVertex
 10
116.0
 20
101.5
 30
394.85
 70
   192
  0
VERTEX
  5
C0
330
BB
100
AcDbEntity
  8
ｴｸｽﾃﾘｱ商品
 62
    27
370
     0
100
AcDbVertex
100
AcDbPolyFaceMeshVertex
 10
896.0
 20
101.5
 30
394.85
 70
   192
  0
VERTEX
  5
C1
330
BB
100
AcDbEntity
  8
ｴｸｽﾃﾘｱ商品
 62
    27
370
     0
100
AcDbVertex
100
AcDbPolyFaceMeshVertex
 10
116.0
 20
51.5
 30
700.1500000000001
 70
   192
  0
VERTEX
  5
C2
330
BB
100
AcDbEntity
  8
ｴｸｽﾃﾘｱ商品
 62
    27
370
     0
100
AcDbVertex
100
AcDbPolyFaceMeshVertex
 10
896.0
 20
51.5
 30
700.1500000000001
 70
   192
  0
VERTEX
  5
C3
330
BB
100
AcDbEntity
  8
ｴｸｽﾃﾘｱ商品
 62
    27
370
     0
100
AcDbVertex
100
AcDbPolyFaceMeshVertex
 10
896.0
 20
101.5
 30
700.1500000000001
 70
   192
  0
VERTEX
  5
C4
330
BB
100
AcDbEntity
  8
ｴｸｽﾃﾘｱ商品
 62
    27
370
     0
100
AcDbVertex
100
AcDbPolyFaceMeshVertex
 10
116.0
 20
101.5
 30
700.1500000000001
 70
   192
  0
VERTEX
  5
C5
330
BB
100
AcDbEntity
  8
ｴｸｽﾃﾘｱ商品
 62
    27
370
     0
100
AcDbFaceRecord
 10
0.0
 20
0.0
 30
0.0
 70
   128
 71
     1
 72
     2
 73
     3
 74
     4
  0
VERTEX
  5
C6
330
BB
100
AcDbEntity
  8
ｴｸｽﾃﾘｱ商品
 62
    27
370
     0
100
AcDbFaceRecord
 10
0.0
 20
0.0
 30
0.0
 70
   128
 71
     5
 72
     6
 73
     7
 74
     8
  0
VERTEX
  5
C7
330
BB
100
AcDbEntity
  8
ｴｸｽﾃﾘｱ商品
 62
    27
370
     0
100
AcDbFaceRecord
 10
0.0
 20
0.0
 30
0.0
 70
   128
 71
     2
 72
     1
 73
     6
 74
     5
  0
VERTEX
  5
C8
330
BB
100
AcDbEntity
  8
ｴｸｽﾃﾘｱ商品
 62
    27
370
     0
100
AcDbFaceRecord
 10
0.0
 20
0.0
 30
0.0
 70
   128
 71
     1
 72
     4
 73
     7
 74
     6
  0
VERTEX
  5
C9
330
BB
100
AcDbEntity
  8
ｴｸｽﾃﾘｱ商品
 62
    27
370
     0
100
AcDbFaceRecord
 10
0.0
 20
0.0
 30
0.0
 70
   128
 71
     4
 72
     3
 73
     8
 74
     7
  0
VERTEX
  5
CA
330
BB
100
AcDbEntity
  8
ｴｸｽﾃﾘｱ商品
 62
    27
370
     0
100
AcDbFaceRecord
 10
0.0
 20
0.0
 30
0.0
 70
   128
 71
     3
 72
     2
 73
     5
 74
     8
  0
SEQEND
  5
BC
330
BB
100
AcDbEntity
  8
ｴｸｽﾃﾘｱ商品
370
     0
  0
POLYLINE
  5
CB
330
3C
100
AcDbEntity
  8
ｴｸｽﾃﾘｱ商品
 62
    27
370
     0
100
AcDbPolyFaceMesh
 66
     1
 10
0.0
 20
0.0
 30
0.0
 70
    64
 71
     8
 72
     6
  0
VERTEX
  5
CD
330
CB
100
AcDbEntity
  8
ｴｸｽﾃﾘｱ商品
 62
    27
370
     0
100
AcDbVertex
100
AcDbPolyFaceMeshVertex
 10
896.0
 20
51.5
 30
719.8500000000001
 70
   192
  0
VERTEX
  5
CE
330
CB
100
AcDbEntity
  8
ｴｸｽﾃﾘｱ商品
 62
    27
370
     0
100
AcDbVertex
100
AcDbPolyFaceMeshVertex
 10
116.0
 20
51.5
 30
719.8500000000001
 70
   192
  0
VERTEX
  5
CF
330
CB
100
AcDbEntity
  8
ｴｸｽﾃﾘｱ商品
 62
    27
370
     0
100
AcDbVertex
100
AcDbPolyFaceMeshVertex
 10
116.0
 20
101.5
 30
719.8500000000001
 70
   192
  0
VERTEX
  5
D0
330
CB
100
AcDbEntity
  8
ｴｸｽﾃﾘｱ商品
 62
    27
370
     0
100
AcDbVertex
100
AcDbPolyFaceMeshVertex
 10
896.0
 20
101.5
 30
719.8500000000001
 70
   192
  0
VERTEX
  5
D1
330
CB
100
AcDbEntity
  8
ｴｸｽﾃﾘｱ商品
 62
    27
370
     0
100
AcDbVertex
100
AcDbPolyFaceMeshVertex
 10
116.0
 20
51.5
 30
1025.15
 70
   192
  0
VERTEX
  5
D2
330
CB
100
AcDbEntity
  8
ｴｸｽﾃﾘｱ商品
 62
    27
370
     0
100
AcDbVertex
100
AcDbPolyFaceMeshVertex
 10
896.0
 20
51.5
 30
1025.15
 70
   192
  0
VERTEX
  5
D3
330
CB
100
AcDbEntity
  8
ｴｸｽﾃﾘｱ商品
 62
    27
370
     0
100
AcDbVertex
100
AcDbPolyFaceMeshVertex
 10
896.0
 20
101.5
 30
1025.15
 70
   192
  0
VERTEX
  5
D4
330
CB
100
AcDbEntity
  8
ｴｸｽﾃﾘｱ商品
 62
    27
370
     0
100
AcDbVertex
100
AcDbPolyFaceMeshVertex
 10
116.0
 20
101.5
 30
1025.15
 70
   192
  0
VERTEX
  5
D5
330
CB
100
AcDbEntity
  8
ｴｸｽﾃﾘｱ商品
 62
    27
370
     0
100
AcDbFaceRecord
 10
0.0
 20
0.0
 30
0.0
 70
   128
 71
     1
 72
     2
 73
     3
 74
     4
  0
VERTEX
  5
D6
330
CB
100
AcDbEntity
  8
ｴｸｽﾃﾘｱ商品
 62
    27
370
     0
100
AcDbFaceRecord
 10
0.0
 20
0.0
 30
0.0
 70
   128
 71
     5
 72
     6
 73
     7
 74
     8
  0
VERTEX
  5
D7
330
CB
100
AcDbEntity
  8
ｴｸｽﾃﾘｱ商品
 62
    27
370
     0
100
AcDbFaceRecord
 10
0.0
 20
0.0
 30
0.0
 70
   128
 71
     2
 72
     1
 73
     6
 74
     5
  0
VERTEX
  5
D8
330
CB
100
AcDbEntity
  8
ｴｸｽﾃﾘｱ商品
 62
    27
370
     0
100
AcDbFaceRecord
 10
0.0
 20
0.0
 30
0.0
 70
   128
 71
     1
 72
     4
 73
     7
 74
     6
  0
VERTEX
  5
D9
330
CB
100
AcDbEntity
  8
ｴｸｽﾃﾘｱ商品
 62
    27
370
     0
100
AcDbFaceRecord
 10
0.0
 20
0.0
 30
0.0
 70
   128
 71
     4
 72
     3
 73
     8
 74
     7
  0
VERTEX
  5
DA
330
CB
100
AcDbEntity
  8
ｴｸｽﾃﾘｱ商品
 62
    27
370
     0
100
AcDbFaceRecord
 10
0.0
 20
0.0
 30
0.0
 70
   128
 71
     3
 72
     2
 73
     5
 74
     8
  0
SEQEND
  5
CC
330
CB
100
AcDbEntity
  8
ｴｸｽﾃﾘｱ商品
370
     0
  0
POLYLINE
  5
DB
330
3C
100
AcDbEntity
  8
ｴｸｽﾃﾘｱ商品
 62
    27
370
     0
100
AcDbPolyFaceMesh
 66
     1
 10
0.0
 20
0.0
 30
0.0
 70
    64
 71
     8
 72
     6
  0
VERTEX
  5
DD
330
DB
100
AcDbEntity
  8
ｴｸｽﾃﾘｱ商品
 62
    27
370
     0
100
AcDbVertex
100
AcDbPolyFaceMeshVertex
 10
896.0
 20
51.5
 30
1044.85
 70
   192
  0
VERTEX
  5
DE
330
DB
100
AcDbEntity
  8
ｴｸｽﾃﾘｱ商品
 62
    27
370
     0
100
AcDbVertex
100
AcDbPolyFaceMeshVertex
 10
116.0
 20
51.5
 30
1044.85
 70
   192
  0
VERTEX
  5
DF
330
DB
100
AcDbEntity
  8
ｴｸｽﾃﾘｱ商品
 62
    27
370
     0
100
AcDbVertex
100
AcDbPolyFaceMeshVertex
 10
116.0
 20
101.5
 30
1044.85
 70
   192
  0
VERTEX
  5
E0
330
DB
100
AcDbEntity
  8
ｴｸｽﾃﾘｱ商品
 62
    27
370
     0
100
AcDbVertex
100
AcDbPolyFaceMeshVertex
 10
896.0
 20
101.5
 30
1044.85
 70
   192
  0
VERTEX
  5
E1
330
DB
100
AcDbEntity
  8
ｴｸｽﾃﾘｱ商品
 62
    27
370
     0
100
AcDbVertex
100
AcDbPolyFaceMeshVertex
 10
116.0
 20
51.5
 30
1170.15
 70
   192
  0
VERTEX
  5
E2
330
DB
100
AcDbEntity
  8
ｴｸｽﾃﾘｱ商品
 62
    27
370
     0
100
AcDbVertex
100
AcDbPolyFaceMeshVertex
 10
896.0
 20
51.5
 30
1170.15
 70
   192
  0
VERTEX
  5
E3
330
DB
100
AcDbEntity
  8
ｴｸｽﾃﾘｱ商品
 62
    27
370
     0
100
AcDbVertex
100
AcDbPolyFaceMeshVertex
 10
896.0
 20
101.5
 30
1170.15
 70
   192
  0
VERTEX
  5
E4
330
DB
100
AcDbEntity
  8
ｴｸｽﾃﾘｱ商品
 62
    27
370
     0
100
AcDbVertex
100
AcDbPolyFaceMeshVertex
 10
116.0
 20
101.5
 30
1170.15
 70
   192
  0
VERTEX
  5
E5
330
DB
100
AcDbEntity
  8
ｴｸｽﾃﾘｱ商品
 62
    27
370
     0
100
AcDbFaceRecord
 10
0.0
 20
0.0
 30
0.0
 70
   128
 71
     1
 72
     2
 73
     3
 74
     4
  0
VERTEX
  5
E6
330
DB
100
AcDbEntity
  8
ｴｸｽﾃﾘｱ商品
 62
    27
370
     0
100
AcDbFaceRecord
 10
0.0
 20
0.0
 30
0.0
 70
   128
 71
     5
 72
     6
 73
     7
 74
     8
  0
VERTEX
  5
E7
330
DB
100
AcDbEntity
  8
ｴｸｽﾃﾘｱ商品
 62
    27
370
     0
100
AcDbFaceRecord
 10
0.0
 20
0.0
 30
0.0
 70
   128
 71
     2
 72
     1
 73
     6
 74
     5
  0
VERTEX
  5
E8
330
DB
100
AcDbEntity
  8
ｴｸｽﾃﾘｱ商品
 62
    27
370
     0
100
AcDbFaceRecord
 10
0.0
 20
0.0
 30
0.0
 70
   128
 71
     1
 72
     4
 73
     7
 74
     6
  0
VERTEX
  5
E9
330
DB
100
AcDbEntity
  8
ｴｸｽﾃﾘｱ商品
 62
    27
370
     0
100
AcDbFaceRecord
 10
0.0
 20
0.0
 30
0.0
 70
   128
 71
     4
 72
     3
 73
     8
 74
     7
  0
VERTEX
  5
EA
330
DB
100
AcDbEntity
  8
ｴｸｽﾃﾘｱ商品
 62
    27
370
     0
100
AcDbFaceRecord
 10
0.0
 20
0.0
 30
0.0
 70
   128
 71
     3
 72
     2
 73
     5
 74
     8
  0
SEQEND
  5
DC
330
DB
100
AcDbEntity
  8
ｴｸｽﾃﾘｱ商品
370
     0
  0
POLYLINE
  5
EB
330
3C
100
AcDbEntity
  8
ｴｸｽﾃﾘｱ商品
 62
    27
370
     0
100
AcDbPolyFaceMesh
 66
     1
 10
0.0
 20
0.0
 30
0.0
 70
    64
 71
     8
 72
     6
  0
VERTEX
  5
ED
330
EB
100
AcDbEntity
  8
ｴｸｽﾃﾘｱ商品
 62
    27
370
     0
100
AcDbVertex
100
AcDbPolyFaceMeshVertex
 10
896.0
 20
51.5
 30
1189.85
 70
   192
  0
VERTEX
  5
EE
330
EB
100
AcDbEntity
  8
ｴｸｽﾃﾘｱ商品
 62
    27
370
     0
100
AcDbVertex
100
AcDbPolyFaceMeshVertex
 10
116.0
 20
51.5
 30
1189.85
 70
   192
  0
VERTEX
  5
EF
330
EB
100
AcDbEntity
  8
ｴｸｽﾃﾘｱ商品
 62
    27
370
     0
100
AcDbVertex
100
AcDbPolyFaceMeshVertex
 10
116.0
 20
101.5
 30
1189.85
 70
   192
  0
VERTEX
  5
F0
330
EB
100
AcDbEntity
  8
ｴｸｽﾃﾘｱ商品
 62
    27
370
     0
100
AcDbVertex
100
AcDbPolyFaceMeshVertex
 10
896.0
 20
101.5
 30
1189.85
 70
   192
  0
VERTEX
  5
F1
330
EB
100
AcDbEntity
  8
ｴｸｽﾃﾘｱ商品
 62
    27
370
     0
100
AcDbVertex
100
AcDbPolyFaceMeshVertex
 10
116.0
 20
51.5
 30
1440.15
 70
   192
  0
VERTEX
  5
F2
330
EB
100
AcDbEntity
  8
ｴｸｽﾃﾘｱ商品
 62
    27
370
     0
100
AcDbVertex
100
AcDbPolyFaceMeshVertex
 10
896.0
 20
51.5
 30
1440.15
 70
   192
  0
VERTEX
  5
F3
330
EB
100
AcDbEntity
  8
ｴｸｽﾃﾘｱ商品
 62
    27
370
     0
100
AcDbVertex
100
AcDbPolyFaceMeshVertex
 10
896.0
 20
101.5
 30
1440.15
 70
   192
  0
VERTEX
  5
F4
330
EB
100
AcDbEntity
  8
ｴｸｽﾃﾘｱ商品
 62
    27
370
     0
100
AcDbVertex
100
AcDbPolyFaceMeshVertex
 10
116.0
 20
101.5
 30
1440.15
 70
   192
  0
VERTEX
  5
F5
330
EB
100
AcDbEntity
  8
ｴｸｽﾃﾘｱ商品
 62
    27
370
     0
100
AcDbFaceRecord
 10
0.0
 20
0.0
 30
0.0
 70
   128
 71
     1
 72
     2
 73
     3
 74
     4
  0
VERTEX
  5
F6
330
EB
100
AcDbEntity
  8
ｴｸｽﾃﾘｱ商品
 62
    27
370
     0
100
AcDbFaceRecord
 10
0.0
 20
0.0
 30
0.0
 70
   128
 71
     5
 72
     6
 73
     7
 74
     8
  0
VERTEX
  5
F7
330
EB
100
AcDbEntity
  8
ｴｸｽﾃﾘｱ商品
 62
    27
370
     0
100
AcDbFaceRecord
 10
0.0
 20
0.0
 30
0.0
 70
   128
 71
     2
 72
     1
 73
     6
 74
     5
  0
VERTEX
  5
F8
330
EB
100
AcDbEntity
  8
ｴｸｽﾃﾘｱ商品
 62
    27
370
     0
100
AcDbFaceRecord
 10
0.0
 20
0.0
 30
0.0
 70
   128
 71
     1
 72
     4
 73
     7
 74
     6
  0
VERTEX
  5
F9
330
EB
100
AcDbEntity
  8
ｴｸｽﾃﾘｱ商品
 62
    27
370
     0
100
AcDbFaceRecord
 10
0.0
 20
0.0
 30
0.0
 70
   128
 71
     4
 72
     3
 73
     8
 74
     7
  0
VERTEX
  5
FA
330
EB
100
AcDbEntity
  8
ｴｸｽﾃﾘｱ商品
 62
    27
370
     0
100
AcDbFaceRecord
 10
0.0
 20
0.0
 30
0.0
 70
   128
 71
     3
 72
     2
 73
     5
 74
     8
  0
SEQEND
  5
EC
330
EB
100
AcDbEntity
  8
ｴｸｽﾃﾘｱ商品
370
     0
  0
POLYLINE
  5
FB
330
3C
100
AcDbEntity
  8
ｴｸｽﾃﾘｱ商品
 62
    27
370
     0
100
AcDbPolyFaceMesh
 66
     1
 10
0.0
 20
0.0
 30
0.0
 70
    64
 71
     8
 72
     6
  0
VERTEX
  5
FD
330
FB
100
AcDbEntity
  8
ｴｸｽﾃﾘｱ商品
 62
    27
370
     0
100
AcDbVertex
100
AcDbPolyFaceMeshVertex
 10
896.0
 20
51.5
 30
1459.85
 70
   192
  0
VERTEX
  5
FE
330
FB
100
AcDbEntity
  8
ｴｸｽﾃﾘｱ商品
 62
    27
370
     0
100
AcDbVertex
100
AcDbPolyFaceMeshVertex
 10
116.0
 20
51.5
 30
1459.85
 70
   192
  0
VERTEX
  5
FF
330
FB
100
AcDbEntity
  8
ｴｸｽﾃﾘｱ商品
 62
    27
370
     0
100
AcDbVertex
100
AcDbPolyFaceMeshVertex
 10
116.0
 20
101.5
 30
1459.85
 70
   192
  0
VERTEX
  5
100
330
FB
100
AcDbEntity
  8
ｴｸｽﾃﾘｱ商品
 62
    27
370
     0
100
AcDbVertex
100
AcDbPolyFaceMeshVertex
 10
896.0
 20
101.5
 30
1459.85
 70
   192
  0
VERTEX
  5
101
330
FB
100
AcDbEntity
  8
ｴｸｽﾃﾘｱ商品
 62
    27
370
     0
100
AcDbVertex
100
AcDbPolyFaceMeshVertex
 10
116.0
 20
51.5
 30
1535.15
 70
   192
  0
VERTEX
  5
102
330
FB
100
AcDbEntity
  8
ｴｸｽﾃﾘｱ商品
 62
    27
370
     0
100
AcDbVertex
100
AcDbPolyFaceMeshVertex
 10
896.0
 20
51.5
 30
1535.15
 70
   192
  0
VERTEX
  5
103
330
FB
100
AcDbEntity
  8
ｴｸｽﾃﾘｱ商品
 62
    27
370
     0
100
AcDbVertex
100
AcDbPolyFaceMeshVertex
 10
896.0
 20
101.5
 30
1535.15
 70
   192
  0
VERTEX
  5
104
330
FB
100
AcDbEntity
  8
ｴｸｽﾃﾘｱ商品
 62
    27
370
     0
100
AcDbVertex
100
AcDbPolyFaceMeshVertex
 10
116.0
 20
101.5
 30
1535.15
 70
   192
  0
VERTEX
  5
105
330
FB
100
AcDbEntity
  8
ｴｸｽﾃﾘｱ商品
 62
    27
370
     0
100
AcDbFaceRecord
 10
0.0
 20
0.0
 30
0.0
 70
   128
 71
     1
 72
     2
 73
     3
 74
     4
  0
VERTEX
  5
106
330
FB
100
AcDbEntity
  8
ｴｸｽﾃﾘｱ商品
 62
    27
370
     0
100
AcDbFaceRecord
 10
0.0
 20
0.0
 30
0.0
 70
   128
 71
     5
 72
     6
 73
     7
 74
     8
  0
VERTEX
  5
107
330
FB
100
AcDbEntity
  8
ｴｸｽﾃﾘｱ商品
 62
    27
370
     0
100
AcDbFaceRecord
 10
0.0
 20
0.0
 30
0.0
 70
   128
 71
     2
 72
     1
 73
     6
 74
     5
  0
VERTEX
  5
108
330
FB
100
AcDbEntity
  8
ｴｸｽﾃﾘｱ商品
 62
    27
370
     0
100
AcDbFaceRecord
 10
0.0
 20
0.0
 30
0.0
 70
   128
 71
     1
 72
     4
 73
     7
 74
     6
  0
VERTEX
  5
109
330
FB
100
AcDbEntity
  8
ｴｸｽﾃﾘｱ商品
 62
    27
370
     0
100
AcDbFaceRecord
 10
0.0
 20
0.0
 30
0.0
 70
   128
 71
     4
 72
     3
 73
     8
 74
     7
  0
VERTEX
  5
10A
330
FB
100
AcDbEntity
  8
ｴｸｽﾃﾘｱ商品
 62
    27
370
     0
100
AcDbFaceRecord
 10
0.0
 20
0.0
 30
0.0
 70
   128
 71
     3
 72
     2
 73
     5
 74
     8
  0
SEQEND
  5
FC
330
FB
100
AcDbEntity
  8
ｴｸｽﾃﾘｱ商品
370
     0
  0
POLYLINE
  5
10B
330
3C
100
AcDbEntity
  8
ｴｸｽﾃﾘｱ商品
 62
    27
370
     0
100
AcDbPolyFaceMesh
 66
     1
 10
0.0
 20
0.0
 30
0.0
 70
    64
 71
     8
 72
     6
  0
VERTEX
  5
10D
330
10B
100
AcDbEntity
  8
ｴｸｽﾃﾘｱ商品
 62
    27
370
     0
100
AcDbVertex
100
AcDbPolyFaceMeshVertex
 10
896.0
 20
51.5
 30
1554.85
 70
   192
  0
VERTEX
  5
10E
330
10B
100
AcDbEntity
  8
ｴｸｽﾃﾘｱ商品
 62
    27
370
     0
100
AcDbVertex
100
AcDbPolyFaceMeshVertex
 10
116.0
 20
51.5
 30
1554.85
 70
   192
  0
VERTEX
  5
10F
330
10B
100
AcDbEntity
  8
ｴｸｽﾃﾘｱ商品
 62
    27
370
     0
100
AcDbVertex
100
AcDbPolyFaceMeshVertex
 10
116.0
 20
101.5
 30
1554.85
 70
   192
  0
VERTEX
  5
110
330
10B
100
AcDbEntity
  8
ｴｸｽﾃﾘｱ商品
 62
    27
370
     0
100
AcDbVertex
100
AcDbPolyFaceMeshVertex
 10
896.0
 20
101.5
 30
1554.85
 70
   192
  0
VERTEX
  5
111
330
10B
100
AcDbEntity
  8
ｴｸｽﾃﾘｱ商品
 62
    27
370
     0
100
AcDbVertex
100
AcDbPolyFaceMeshVertex
 10
116.0
 20
51.5
 30
1680.15
 70
   192
  0
VERTEX
  5
112
330
10B
100
AcDbEntity
  8
ｴｸｽﾃﾘｱ商品
 62
    27
370
     0
100
AcDbVertex
100
AcDbPolyFaceMeshVertex
 10
896.0
 20
51.5
 30
1680.15
 70
   192
  0
VERTEX
  5
113
330
10B
100
AcDbEntity
  8
ｴｸｽﾃﾘｱ商品
 62
    27
370
     0
100
AcDbVertex
100
AcDbPolyFaceMeshVertex
 10
896.0
 20
101.5
 30
1680.15
 70
   192
  0
VERTEX
  5
114
330
10B
100
AcDbEntity
  8
ｴｸｽﾃﾘｱ商品
 62
    27
370
     0
100
AcDbVertex
100
AcDbPolyFaceMeshVertex
 10
116.0
 20
101.5
 30
1680.15
 70
   192
  0
VERTEX
  5
115
330
10B
100
AcDbEntity
  8
ｴｸｽﾃﾘｱ商品
 62
    27
370
     0
100
AcDbFaceRecord
 10
0.0
 20
0.0
 30
0.0
 70
   128
 71
     1
 72
     2
 73
     3
 74
     4
  0
VERTEX
  5
116
330
10B
100
AcDbEntity
  8
ｴｸｽﾃﾘｱ商品
 62
    27
370
     0
100
AcDbFaceRecord
 10
0.0
 20
0.0
 30
0.0
 70
   128
 71
     5
 72
     6
 73
     7
 74
     8
  0
VERTEX
  5
117
330
10B
100
AcDbEntity
  8
ｴｸｽﾃﾘｱ商品
 62
    27
370
     0
100
AcDbFaceRecord
 10
0.0
 20
0.0
 30
0.0
 70
   128
 71
     2
 72
     1
 73
     6
 74
     5
  0
VERTEX
  5
118
330
10B
100
AcDbEntity
  8
ｴｸｽﾃﾘｱ商品
 62
    27
370
     0
100
AcDbFaceRecord
 10
0.0
 20
0.0
 30
0.0
 70
   128
 71
     1
 72
     4
 73
     7
 74
     6
  0
VERTEX
  5
119
330
10B
100
AcDbEntity
  8
ｴｸｽﾃﾘｱ商品
 62
    27
370
     0
100
AcDbFaceRecord
 10
0.0
 20
0.0
 30
0.0
 70
   128
 71
     4
 72
     3
 73
     8
 74
     7
  0
VERTEX
  5
11A
330
10B
100
AcDbEntity
  8
ｴｸｽﾃﾘｱ商品
 62
    27
370
     0
100
AcDbFaceRecord
 10
0.0
 20
0.0
 30
0.0
 70
   128
 71
     3
 72
     2
 73
     5
 74
     8
  0
SEQEND
  5
10C
330
10B
100
AcDbEntity
  8
ｴｸｽﾃﾘｱ商品
370
     0
  0
POLYLINE
  5
11B
330
3C
100
AcDbEntity
  8
ｴｸｽﾃﾘｱ商品
 62
    27
370
     0
100
AcDbPolyFaceMesh
 66
     1
 10
0.0
 20
0.0
 30
0.0
 70
    64
 71
     8
 72
     6
  0
VERTEX
  5
11D
330
11B
100
AcDbEntity
  8
ｴｸｽﾃﾘｱ商品
 62
    27
370
     0
100
AcDbVertex
100
AcDbPolyFaceMeshVertex
 10
896.0
 20
51.5
 30
1699.85
 70
   192
  0
VERTEX
  5
11E
330
11B
100
AcDbEntity
  8
ｴｸｽﾃﾘｱ商品
 62
    27
370
     0
100
AcDbVertex
100
AcDbPolyFaceMeshVertex
 10
116.0
 20
51.5
 30
1699.85
 70
   192
  0
VERTEX
  5
11F
330
11B
100
AcDbEntity
  8
ｴｸｽﾃﾘｱ商品
 62
    27
370
     0
100
AcDbVertex
100
AcDbPolyFaceMeshVertex
 10
116.0
 20
101.5
 30
1699.85
 70
   192
  0
VERTEX
  5
120
330
11B
100
AcDbEntity
  8
ｴｸｽﾃﾘｱ商品
 62
    27
370
     0
100
AcDbVertex
100
AcDbPolyFaceMeshVertex
 10
896.0
 20
101.5
 30
1699.85
 70
   192
  0
VERTEX
  5
121
330
11B
100
AcDbEntity
  8
ｴｸｽﾃﾘｱ商品
 62
    27
370
     0
100
AcDbVertex
100
AcDbPolyFaceMeshVertex
 10
116.0
 20
51.5
 30
1880.0
 70
   192
  0
VERTEX
  5
122
330
11B
100
AcDbEntity
  8
ｴｸｽﾃﾘｱ商品
 62
    27
370
     0
100
AcDbVertex
100
AcDbPolyFaceMeshVertex
 10
896.0
 20
51.5
 30
1880.0
 70
   192
  0
VERTEX
  5
123
330
11B
100
AcDbEntity
  8
ｴｸｽﾃﾘｱ商品
 62
    27
370
     0
100
AcDbVertex
100
AcDbPolyFaceMeshVertex
 10
896.0
 20
101.5
 30
1880.0
 70
   192
  0
VERTEX
  5
124
330
11B
100
AcDbEntity
  8
ｴｸｽﾃﾘｱ商品
 62
    27
370
     0
100
AcDbVertex
100
AcDbPolyFaceMeshVertex
 10
116.0
 20
101.5
 30
1880.0
 70
   192
  0
VERTEX
  5
125
330
11B
100
AcDbEntity
  8
ｴｸｽﾃﾘｱ商品
 62
    27
370
     0
100
AcDbFaceRecord
 10
0.0
 20
0.0
 30
0.0
 70
   128
 71
     1
 72
     2
 73
     3
 74
     4
  0
VERTEX
  5
126
330
11B
100
AcDbEntity
  8
ｴｸｽﾃﾘｱ商品
 62
    27
370
     0
100
AcDbFaceRecord
 10
0.0
 20
0.0
 30
0.0
 70
   128
 71
     5
 72
     6
 73
     7
 74
     8
  0
VERTEX
  5
127
330
11B
100
AcDbEntity
  8
ｴｸｽﾃﾘｱ商品
 62
    27
370
     0
100
AcDbFaceRecord
 10
0.0
 20
0.0
 30
0.0
 70
   128
 71
     2
 72
     1
 73
     6
 74
     5
  0
VERTEX
  5
128
330
11B
100
AcDbEntity
  8
ｴｸｽﾃﾘｱ商品
 62
    27
370
     0
100
AcDbFaceRecord
 10
0.0
 20
0.0
 30
0.0
 70
   128
 71
     1
 72
     4
 73
     7
 74
     6
  0
VERTEX
  5
129
330
11B
100
AcDbEntity
  8
ｴｸｽﾃﾘｱ商品
 62
    27
370
     0
100
AcDbFaceRecord
 10
0.0
 20
0.0
 30
0.0
 70
   128
 71
     4
 72
     3
 73
     8
 74
     7
  0
VERTEX
  5
12A
330
11B
100
AcDbEntity
  8
ｴｸｽﾃﾘｱ商品
 62
    27
370
     0
100
AcDbFaceRecord
 10
0.0
 20
0.0
 30
0.0
 70
   128
 71
     3
 72
     2
 73
     5
 74
     8
  0
SEQEND
  5
11C
330
11B
100
AcDbEntity
  8
ｴｸｽﾃﾘｱ商品
370
     0
  0
POLYLINE
  5
12B
330
3C
100
AcDbEntity
  8
ｴｸｽﾃﾘｱ商品
 62
   250
370
    20
100
AcDbPolyFaceMesh
 66
     1
 10
0.0
 20
0.0
 30
0.0
 70
    64
 71
   476
 72
   444
  0
VERTEX
  5
12D
330
12B
100
AcDbEntity
  8
ｴｸｽﾃﾘｱ商品
 62
   250
370
    20
100
AcDbVertex
100
AcDbPolyFaceMeshVertex
 10
266.0
 20
57.49999999999999
 30
102.0
 70
   192
  0
VERTEX
  5
12E
330
12B
100
AcDbEntity
  8
ｴｸｽﾃﾘｱ商品
 62
   250
370
    20
100
AcDbVertex
100
AcDbPolyFaceMeshVertex
 10
116.0
 20
57.49999999999999
 30
102.0
 70
   192
  0
VERTEX
  5
12F
330
12B
100
AcDbEntity
  8
ｴｸｽﾃﾘｱ商品
 62
   250
370
    20
100
AcDbVertex
100
AcDbPolyFaceMeshVertex
 10
116.0
 20
95.5
 30
102.0
 70
   192
  0
VERTEX
  5
130
330
12B
100
AcDbEntity
  8
ｴｸｽﾃﾘｱ商品
 62
   250
370
    20
100
AcDbVertex
100
AcDbPolyFaceMeshVertex
 10
266.0
 20
95.5
 30
102.0
 70
   192
  0
VERTEX
  5
131
330
12B
100
AcDbEntity
  8
ｴｸｽﾃﾘｱ商品
 62
   250
370
    20
100
AcDbVertex
100
AcDbPolyFaceMeshVertex
 10
116.0
 20
57.49999999999999
 30
1891.0
 70
   192
  0
VERTEX
  5
132
330
12B
100
AcDbEntity
  8
ｴｸｽﾃﾘｱ商品
 62
   250
370
    20
100
AcDbVertex
100
AcDbPolyFaceMeshVertex
 10
266.0
 20
57.49999999999999
 30
1891.0
 70
   192
  0
VERTEX
  5
133
330
12B
100
AcDbEntity
  8
ｴｸｽﾃﾘｱ商品
 62
   250
370
    20
100
AcDbVertex
100
AcDbPolyFaceMeshVertex
 10
266.0
 20
95.5
 30
1891.0
 70
   192
  0
VERTEX
  5
134
330
12B
100
AcDbEntity
  8
ｴｸｽﾃﾘｱ商品
 62
   250
370
    20
100
AcDbVertex
100
AcDbPolyFaceMeshVertex
 10
116.0
 20
95.5
 30
1891.0
 70
   192
  0
VERTEX
  5
135
330
12B
100
AcDbEntity
  8
ｴｸｽﾃﾘｱ商品
 62
   250
370
    20
100
AcDbVertex
100
AcDbPolyFaceMeshVertex
 10
896.0
 20
57.49999999999999
 30
102.0
 70
   192
  0
VERTEX
  5
136
330
12B
100
AcDbEntity
  8
ｴｸｽﾃﾘｱ商品
 62
   250
370
    20
100
AcDbVertex
100
AcDbPolyFaceMeshVertex
 10
746.0
 20
57.49999999999999
 30
102.0
 70
   192
  0
VERTEX
  5
137
330
12B
100
AcDbEntity
  8
ｴｸｽﾃﾘｱ商品
 62
   250
370
    20
100
AcDbVertex
100
AcDbPolyFaceMeshVertex
 10
746.0
 20
95.5
 30
102.0
 70
   192
  0
VERTEX
  5
138
330
12B
100
AcDbEntity
  8
ｴｸｽﾃﾘｱ商品
 62
   250
370
    20
100
AcDbVertex
100
AcDbPolyFaceMeshVertex
 10
896.0
 20
95.5
 30
102.0
 70
   192
  0
VERTEX
  5
139
330
12B
100
AcDbEntity
  8
ｴｸｽﾃﾘｱ商品
 62
   250
370
    20
100
AcDbVertex
100
AcDbPolyFaceMeshVertex
 10
746.0
 20
57.49999999999999
 30
1891.0
 70
   192
  0
VERTEX
  5
13A
330
12B
100
AcDbEntity
  8
ｴｸｽﾃﾘｱ商品
 62
   250
370
    20
100
AcDbVertex
100
AcDbPolyFaceMeshVertex
 10
896.0
 20
57.49999999999999
 30
1891.0
 70
   192
  0
VERTEX
  5
13B
330
12B
100
AcDbEntity
  8
ｴｸｽﾃﾘｱ商品
 62
   250
370
    20
100
AcDbVertex
100
AcDbPolyFaceMeshVertex
 10
896.0
 20
95.5
 30
1891.0
 70
   192
  0
VERTEX
  5
13C
330
12B
100
AcDbEntity
  8
ｴｸｽﾃﾘｱ商品
 62
   250
370
    20
100
AcDbVertex
100
AcDbPolyFaceMeshVertex
 10
746.0
 20
95.5
 30
1891.0
 70
   192
  0
VERTEX
  5
13D
330
12B
100
AcDbEntity
  8
ｴｸｽﾃﾘｱ商品
 62
   250
370
    20
100
AcDbVertex
100
AcDbPolyFaceMeshVertex
 10
190.488887394336
 20
17.61771432346217
 30
706.0000000000001
 70
   192
  0
VERTEX
  5
13E
330
12B
100
AcDbEntity
  8
ｴｸｽﾃﾘｱ商品
 62
   250
370
    20
100
AcDbVertex
100
AcDbPolyFaceMeshVertex
 10
188.9903810567666
 20
13.99999999999998
 30
706.0000000000001
 70
   192
  0
VERTEX
  5
13F
330
12B
100
AcDbEntity
  8
ｴｸｽﾃﾘｱ商品
 62
   250
370
    20
100
AcDbVertex
100
AcDbPolyFaceMeshVertex
 10
186.6066017177982
 20
10.89339828220176
 30
706.0000000000001
 70
   192
  0
VERTEX
  5
140
330
12B
100
AcDbEntity
  8
ｴｸｽﾃﾘｱ商品
 62
   250
370
    20
100
AcDbVertex
100
AcDbPolyFaceMeshVertex
 10
183.5
 20
8.509618943233395
 30
706.0000000000001
 70
   192
  0
VERTEX
  5
141
330
12B
100
AcDbEntity
  8
ｴｸｽﾃﾘｱ商品
 62
   250
370
    20
100
AcDbVertex
100
AcDbPolyFaceMeshVertex
 10
179.8822856765378
 20
7.011112605663954
 30
706.0000000000001
 70
   192
  0
VERTEX
  5
142
330
12B
100
AcDbEntity
  8
ｴｸｽﾃﾘｱ商品
 62
   250
370
    20
100
AcDbVertex
100
AcDbPolyFaceMeshVertex
 10
176.0
 20
6.499999999999981
 30
706.0000000000001
 70
   192
  0
VERTEX
  5
143
330
12B
100
AcDbEntity
  8
ｴｸｽﾃﾘｱ商品
 62
   250
370
    20
100
AcDbVertex
100
AcDbPolyFaceMeshVertex
 10
172.1177143234622
 20
7.011112605663961
 30
706.0000000000001
 70
   192
  0
VERTEX
  5
144
330
12B
100
AcDbEntity
  8
ｴｸｽﾃﾘｱ商品
 62
   250
370
    20
100
AcDbVertex
100
AcDbPolyFaceMeshVertex
 10
168.5
 20
8.50961894323341
 30
706.0000000000001
 70
   192
  0
VERTEX
  5
145
330
12B
100
AcDbEntity
  8
ｴｸｽﾃﾘｱ商品
 62
   250
370
    20
100
AcDbVertex
100
AcDbPolyFaceMeshVertex
 10
165.3933982822018
 20
10.89339828220178
 30
706.0000000000001
 70
   192
  0
VERTEX
  5
146
330
12B
100
AcDbEntity
  8
ｴｸｽﾃﾘｱ商品
 62
   250
370
    20
100
AcDbVertex
100
AcDbPolyFaceMeshVertex
 10
163.0096189432334
 20
13.99999999999999
 30
706.0000000000001
 70
   192
  0
VERTEX
  5
147
330
12B
100
AcDbEntity
  8
ｴｸｽﾃﾘｱ商品
 62
   250
370
    20
100
AcDbVertex
100
AcDbPolyFaceMeshVertex
 10
161.511112605664
 20
17.61771432346219
 30
706.0000000000001
 70
   192
  0
VERTEX
  5
148
330
12B
100
AcDbEntity
  8
ｴｸｽﾃﾘｱ商品
 62
   250
370
    20
100
AcDbVertex
100
AcDbPolyFaceMeshVertex
 10
161.0
 20
21.5
 30
706.0000000000001
 70
   192
  0
VERTEX
  5
149
330
12B
100
AcDbEntity
  8
ｴｸｽﾃﾘｱ商品
 62
   250
370
    20
100
AcDbVertex
100
AcDbPolyFaceMeshVertex
 10
161.511112605664
 20
25.38228567653781
 30
706.0000000000001
 70
   192
  0
VERTEX
  5
14A
330
12B
100
AcDbEntity
  8
ｴｸｽﾃﾘｱ商品
 62
   250
370
    20
100
AcDbVertex
100
AcDbPolyFaceMeshVertex
 10
163.0096189432334
 20
29.0
 30
706.0000000000001
 70
   192
  0
VERTEX
  5
14B
330
12B
100
AcDbEntity
  8
ｴｸｽﾃﾘｱ商品
 62
   250
370
    20
100
AcDbVertex
100
AcDbPolyFaceMeshVertex
 10
165.3933982822018
 20
32.10660171779821
 30
706.0000000000001
 70
   192
  0
VERTEX
  5
14C
330
12B
100
AcDbEntity
  8
ｴｸｽﾃﾘｱ商品
 62
   250
370
    20
100
AcDbVertex
100
AcDbPolyFaceMeshVertex
 10
168.5
 20
34.49038105676658
 30
706.0000000000001
 70
   192
  0
VERTEX
  5
14D
330
12B
100
AcDbEntity
  8
ｴｸｽﾃﾘｱ商品
 62
   250
370
    20
100
AcDbVertex
100
AcDbPolyFaceMeshVertex
 10
172.1177143234622
 20
35.98888739433602
 30
706.0000000000001
 70
   192
  0
VERTEX
  5
14E
330
12B
100
AcDbEntity
  8
ｴｸｽﾃﾘｱ商品
 62
   250
370
    20
100
AcDbVertex
100
AcDbPolyFaceMeshVertex
 10
176.0
 20
36.49999999999999
 30
706.0000000000001
 70
   192
  0
VERTEX
  5
14F
330
12B
100
AcDbEntity
  8
ｴｸｽﾃﾘｱ商品
 62
   250
370
    20
100
AcDbVertex
100
AcDbPolyFaceMeshVertex
 10
179.8822856765378
 20
35.98888739433602
 30
706.0000000000001
 70
   192
  0
VERTEX
  5
150
330
12B
100
AcDbEntity
  8
ｴｸｽﾃﾘｱ商品
 62
   250
370
    20
100
AcDbVertex
100
AcDbPolyFaceMeshVertex
 10
183.5
 20
34.49038105676657
 30
706.0000000000001
 70
   192
  0
VERTEX
  5
151
330
12B
100
AcDbEntity
  8
ｴｸｽﾃﾘｱ商品
 62
   250
370
    20
100
AcDbVertex
100
AcDbPolyFaceMeshVertex
 10
186.6066017177982
 20
32.10660171779821
 30
706.0000000000001
 70
   192
  0
VERTEX
  5
152
330
12B
100
AcDbEntity
  8
ｴｸｽﾃﾘｱ商品
 62
   250
370
    20
100
AcDbVertex
100
AcDbPolyFaceMeshVertex
 10
188.9903810567666
 20
28.99999999999999
 30
706.0000000000001
 70
   192
  0
VERTEX
  5
153
330
12B
100
AcDbEntity
  8
ｴｸｽﾃﾘｱ商品
 62
   250
370
    20
100
AcDbVertex
100
AcDbPolyFaceMeshVertex
 10
190.488887394336
 20
25.3822856765378
 30
706.0000000000001
 70
   192
  0
VERTEX
  5
154
330
12B
100
AcDbEntity
  8
ｴｸｽﾃﾘｱ商品
 62
   250
370
    20
100
AcDbVertex
100
AcDbPolyFaceMeshVertex
 10
191.0
 20
21.49999999999999
 30
706.0000000000001
 70
   192
  0
VERTEX
  5
155
330
12B
100
AcDbEntity
  8
ｴｸｽﾃﾘｱ商品
 62
   250
370
    20
100
AcDbVertex
100
AcDbPolyFaceMeshVertex
 10
190.488887394336
 20
17.61771432346217
 30
1136.0
 70
   192
  0
VERTEX
  5
156
330
12B
100
AcDbEntity
  8
ｴｸｽﾃﾘｱ商品
 62
   250
370
    20
100
AcDbVertex
100
AcDbPolyFaceMeshVertex
 10
191.0
 20
21.49999999999999
 30
1136.0
 70
   192
  0
VERTEX
  5
157
330
12B
100
AcDbEntity
  8
ｴｸｽﾃﾘｱ商品
 62
   250
370
    20
100
AcDbVertex
100
AcDbPolyFaceMeshVertex
 10
190.488887394336
 20
25.3822856765378
 30
1136.0
 70
   192
  0
VERTEX
  5
158
330
12B
100
AcDbEntity
  8
ｴｸｽﾃﾘｱ商品
 62
   250
370
    20
100
AcDbVertex
100
AcDbPolyFaceMeshVertex
 10
188.9903810567666
 20
28.99999999999999
 30
1136.0
 70
   192
  0
VERTEX
  5
159
330
12B
100
AcDbEntity
  8
ｴｸｽﾃﾘｱ商品
 62
   250
370
    20
100
AcDbVertex
100
AcDbPolyFaceMeshVertex
 10
186.6066017177982
 20
32.10660171779821
 30
1136.0
 70
   192
  0
VERTEX
  5
15A
330
12B
100
AcDbEntity
  8
ｴｸｽﾃﾘｱ商品
 62
   250
370
    20
100
AcDbVertex
100
AcDbPolyFaceMeshVertex
 10
183.5
 20
34.49038105676657
 30
1136.0
 70
   192
  0
VERTEX
  5
15B
330
12B
100
AcDbEntity
  8
ｴｸｽﾃﾘｱ商品
 62
   250
370
    20
100
AcDbVertex
100
AcDbPolyFaceMeshVertex
 10
179.8822856765378
 20
35.98888739433602
 30
1136.0
 70
   192
  0
VERTEX
  5
15C
330
12B
100
AcDbEntity
  8
ｴｸｽﾃﾘｱ商品
 62
   250
370
    20
100
AcDbVertex
100
AcDbPolyFaceMeshVertex
 10
176.0
 20
36.49999999999999
 30
1136.0
 70
   192
  0
VERTEX
  5
15D
330
12B
100
AcDbEntity
  8
ｴｸｽﾃﾘｱ商品
 62
   250
370
    20
100
AcDbVertex
100
AcDbPolyFaceMeshVertex
 10
172.1177143234622
 20
35.98888739433602
 30
1136.0
 70
   192
  0
VERTEX
  5
15E
330
12B
100
AcDbEntity
  8
ｴｸｽﾃﾘｱ商品
 62
   250
370
    20
100
AcDbVertex
100
AcDbPolyFaceMeshVertex
 10
168.5
 20
34.49038105676658
 30
1136.0
 70
   192
  0
VERTEX
  5
15F
330
12B
100
AcDbEntity
  8
ｴｸｽﾃﾘｱ商品
 62
   250
370
    20
100
AcDbVertex
100
AcDbPolyFaceMeshVertex
 10
165.3933982822018
 20
32.10660171779821
 30
1136.0
 70
   192
  0
VERTEX
  5
160
330
12B
100
AcDbEntity
  8
ｴｸｽﾃﾘｱ商品
 62
   250
370
    20
100
AcDbVertex
100
AcDbPolyFaceMeshVertex
 10
163.0096189432334
 20
29.0
 30
1136.0
 70
   192
  0
VERTEX
  5
161
330
12B
100
AcDbEntity
  8
ｴｸｽﾃﾘｱ商品
 62
   250
370
    20
100
AcDbVertex
100
AcDbPolyFaceMeshVertex
 10
161.511112605664
 20
25.38228567653781
 30
1136.0
 70
   192
  0
VERTEX
  5
162
330
12B
100
AcDbEntity
  8
ｴｸｽﾃﾘｱ商品
 62
   250
370
    20
100
AcDbVertex
100
AcDbPolyFaceMeshVertex
 10
161.0
 20
21.5
 30
1136.0
 70
   192
  0
VERTEX
  5
163
330
12B
100
AcDbEntity
  8
ｴｸｽﾃﾘｱ商品
 62
   250
370
    20
100
AcDbVertex
100
AcDbPolyFaceMeshVertex
 10
161.511112605664
 20
17.61771432346219
 30
1136.0
 70
   192
  0
VERTEX
  5
164
330
12B
100
AcDbEntity
  8
ｴｸｽﾃﾘｱ商品
 62
   250
370
    20
100
AcDbVertex
100
AcDbPolyFaceMeshVertex
 10
163.0096189432334
 20
13.99999999999999
 30
1136.0
 70
   192
  0
VERTEX
  5
165
330
12B
100
AcDbEntity
  8
ｴｸｽﾃﾘｱ商品
 62
   250
370
    20
100
AcDbVertex
100
AcDbPolyFaceMeshVertex
 10
165.3933982822018
 20
10.89339828220178
 30
1136.0
 70
   192
  0
VERTEX
  5
166
330
12B
100
AcDbEntity
  8
ｴｸｽﾃﾘｱ商品
 62
   250
370
    20
100
AcDbVertex
100
AcDbPolyFaceMeshVertex
 10
168.5
 20
8.50961894323341
 30
1136.0
 70
   192
  0
VERTEX
  5
167
330
12B
100
AcDbEntity
  8
ｴｸｽﾃﾘｱ商品
 62
   250
370
    20
100
AcDbVertex
100
AcDbPolyFaceMeshVertex
 10
172.1177143234622
 20
7.011112605663961
 30
1136.0
 70
   192
  0
VERTEX
  5
168
330
12B
100
AcDbEntity
  8
ｴｸｽﾃﾘｱ商品
 62
   250
370
    20
100
AcDbVertex
100
AcDbPolyFaceMeshVertex
 10
176.0
 20
6.499999999999981
 30
1136.0
 70
   192
  0
VERTEX
  5
169
330
12B
100
AcDbEntity
  8
ｴｸｽﾃﾘｱ商品
 62
   250
370
    20
100
AcDbVertex
100
AcDbPolyFaceMeshVertex
 10
179.8822856765378
 20
7.011112605663954
 30
1136.0
 70
   192
  0
VERTEX
  5
16A
330
12B
100
AcDbEntity
  8
ｴｸｽﾃﾘｱ商品
 62
   250
370
    20
100
AcDbVertex
100
AcDbPolyFaceMeshVertex
 10
183.5
 20
8.509618943233395
 30
1136.0
 70
   192
  0
VERTEX
  5
16B
330
12B
100
AcDbEntity
  8
ｴｸｽﾃﾘｱ商品
 62
   250
370
    20
100
AcDbVertex
100
AcDbPolyFaceMeshVertex
 10
186.6066017177982
 20
10.89339828220176
 30
1136.0
 70
   192
  0
VERTEX
  5
16C
330
12B
100
AcDbEntity
  8
ｴｸｽﾃﾘｱ商品
 62
   250
370
    20
100
AcDbVertex
100
AcDbPolyFaceMeshVertex
 10
188.9903810567666
 20
13.99999999999998
 30
1136.0
 70
   192
  0
VERTEX
  5
16D
330
12B
100
AcDbEntity
  8
ｴｸｽﾃﾘｱ商品
 62
   250
370
    20
100
AcDbVertex
100
AcDbPolyFaceMeshVertex
 10
171.0
 20
41.49999999999999
 30
731.0000000000001
 70
   192
  0
VERTEX
  5
16E
330
12B
100
AcDbEntity
  8
ｴｸｽﾃﾘｱ商品
 62
   250
370
    20
100
AcDbVertex
100
AcDbPolyFaceMeshVertex
 10
136.0
 20
41.49999999999999
 30
731.0000000000001
 70
   192
  0
VERTEX
  5
16F
330
12B
100
AcDbEntity
  8
ｴｸｽﾃﾘｱ商品
 62
   250
370
    20
100
AcDbVertex
100
AcDbPolyFaceMeshVertex
 10
136.0
 20
51.5
 30
731.0000000000001
 70
   192
  0
VERTEX
  5
170
330
12B
100
AcDbEntity
  8
ｴｸｽﾃﾘｱ商品
 62
   250
370
    20
100
AcDbVertex
100
AcDbPolyFaceMeshVertex
 10
171.0
 20
51.5
 30
731.0000000000001
 70
   192
  0
VERTEX
  5
171
330
12B
100
AcDbEntity
  8
ｴｸｽﾃﾘｱ商品
 62
   250
370
    20
100
AcDbVertex
100
AcDbPolyFaceMeshVertex
 10
136.0
 20
41.49999999999999
 30
781.0000000000001
 70
   192
  0
VERTEX
  5
172
330
12B
100
AcDbEntity
  8
ｴｸｽﾃﾘｱ商品
 62
   250
370
    20
100
AcDbVertex
100
AcDbPolyFaceMeshVertex
 10
171.0
 20
41.49999999999999
 30
781.0000000000001
 70
   192
  0
VERTEX
  5
173
330
12B
100
AcDbEntity
  8
ｴｸｽﾃﾘｱ商品
 62
   250
370
    20
100
AcDbVertex
100
AcDbPolyFaceMeshVertex
 10
171.0
 20
51.5
 30
781.0000000000001
 70
   192
  0
VERTEX
  5
174
330
12B
100
AcDbEntity
  8
ｴｸｽﾃﾘｱ商品
 62
   250
370
    20
100
AcDbVertex
100
AcDbPolyFaceMeshVertex
 10
136.0
 20
51.5
 30
781.0000000000001
 70
   192
  0
VERTEX
  5
175
330
12B
100
AcDbEntity
  8
ｴｸｽﾃﾘｱ商品
 62
   250
370
    20
100
AcDbVertex
100
AcDbPolyFaceMeshVertex
 10
171.0
 20
25.49999999999999
 30
731.0000000000001
 70
   192
  0
VERTEX
  5
176
330
12B
100
AcDbEntity
  8
ｴｸｽﾃﾘｱ商品
 62
   250
370
    20
100
AcDbVertex
100
AcDbPolyFaceMeshVertex
 10
161.0
 20
25.49999999999999
 30
731.0000000000001
 70
   192
  0
VERTEX
  5
177
330
12B
100
AcDbEntity
  8
ｴｸｽﾃﾘｱ商品
 62
   250
370
    20
100
AcDbVertex
100
AcDbPolyFaceMeshVertex
 10
161.0
 20
41.49999999999999
 30
731.0000000000001
 70
   192
  0
VERTEX
  5
178
330
12B
100
AcDbEntity
  8
ｴｸｽﾃﾘｱ商品
 62
   250
370
    20
100
AcDbVertex
100
AcDbPolyFaceMeshVertex
 10
171.0
 20
41.49999999999999
 30
731.0000000000001
 70
   192
  0
VERTEX
  5
179
330
12B
100
AcDbEntity
  8
ｴｸｽﾃﾘｱ商品
 62
   250
370
    20
100
AcDbVertex
100
AcDbPolyFaceMeshVertex
 10
161.0
 20
25.49999999999999
 30
781.0000000000001
 70
   192
  0
VERTEX
  5
17A
330
12B
100
AcDbEntity
  8
ｴｸｽﾃﾘｱ商品
 62
   250
370
    20
100
AcDbVertex
100
AcDbPolyFaceMeshVertex
 10
171.0
 20
25.49999999999999
 30
781.0000000000001
 70
   192
  0
VERTEX
  5
17B
330
12B
100
AcDbEntity
  8
ｴｸｽﾃﾘｱ商品
 62
   250
370
    20
100
AcDbVertex
100
AcDbPolyFaceMeshVertex
 10
171.0
 20
41.49999999999999
 30
781.0000000000001
 70
   192
  0
VERTEX
  5
17C
330
12B
100
AcDbEntity
  8
ｴｸｽﾃﾘｱ商品
 62
   250
370
    20
100
AcDbVertex
100
AcDbPolyFaceMeshVertex
 10
161.0
 20
41.49999999999999
 30
781.0000000000001
 70
   192
  0
VERTEX
  5
17D
330
12B
100
AcDbEntity
  8
ｴｸｽﾃﾘｱ商品
 62
   250
370
    20
100
AcDbVertex
100
AcDbPolyFaceMeshVertex
 10
171.0
 20
41.49999999999999
 30
1061.0
 70
   192
  0
VERTEX
  5
17E
330
12B
100
AcDbEntity
  8
ｴｸｽﾃﾘｱ商品
 62
   250
370
    20
100
AcDbVertex
100
AcDbPolyFaceMeshVertex
 10
136.0
 20
41.49999999999999
 30
1061.0
 70
   192
  0
VERTEX
  5
17F
330
12B
100
AcDbEntity
  8
ｴｸｽﾃﾘｱ商品
 62
   250
370
    20
100
AcDbVertex
100
AcDbPolyFaceMeshVertex
 10
136.0
 20
51.5
 30
1061.0
 70
   192
  0
VERTEX
  5
180
330
12B
100
AcDbEntity
  8
ｴｸｽﾃﾘｱ商品
 62
   250
370
    20
100
AcDbVertex
100
AcDbPolyFaceMeshVertex
 10
171.0
 20
51.5
 30
1061.0
 70
   192
  0
VERTEX
  5
181
330
12B
100
AcDbEntity
  8
ｴｸｽﾃﾘｱ商品
 62
   250
370
    20
100
AcDbVertex
100
AcDbPolyFaceMeshVertex
 10
136.0
 20
41.49999999999999
 30
1111.0
 70
   192
  0
VERTEX
  5
182
330
12B
100
AcDbEntity
  8
ｴｸｽﾃﾘｱ商品
 62
   250
370
    20
100
AcDbVertex
100
AcDbPolyFaceMeshVertex
 10
171.0
 20
41.49999999999999
 30
1111.0
 70
   192
  0
VERTEX
  5
183
330
12B
100
AcDbEntity
  8
ｴｸｽﾃﾘｱ商品
 62
   250
370
    20
100
AcDbVertex
100
AcDbPolyFaceMeshVertex
 10
171.0
 20
51.5
 30
1111.0
 70
   192
  0
VERTEX
  5
184
330
12B
100
AcDbEntity
  8
ｴｸｽﾃﾘｱ商品
 62
   250
370
    20
100
AcDbVertex
100
AcDbPolyFaceMeshVertex
 10
136.0
 20
51.5
 30
1111.0
 70
   192
  0
VERTEX
  5
185
330
12B
100
AcDbEntity
  8
ｴｸｽﾃﾘｱ商品
 62
   250
370
    20
100
AcDbVertex
100
AcDbPolyFaceMeshVertex
 10
171.0
 20
25.49999999999999
 30
1061.0
 70
   192
  0
VERTEX
  5
186
330
12B
100
AcDbEntity
  8
ｴｸｽﾃﾘｱ商品
 62
   250
370
    20
100
AcDbVertex
100
AcDbPolyFaceMeshVertex
 10
161.0
 20
25.49999999999999
 30
1061.0
 70
   192
  0
VERTEX
  5
187
330
12B
100
AcDbEntity
  8
ｴｸｽﾃﾘｱ商品
 62
   250
370
    20
100
AcDbVertex
100
AcDbPolyFaceMeshVertex
 10
161.0
 20
41.49999999999999
 30
1061.0
 70
   192
  0
VERTEX
  5
188
330
12B
100
AcDbEntity
  8
ｴｸｽﾃﾘｱ商品
 62
   250
370
    20
100
AcDbVertex
100
AcDbPolyFaceMeshVertex
 10
171.0
 20
41.49999999999999
 30
1061.0
 70
   192
  0
VERTEX
  5
189
330
12B
100
AcDbEntity
  8
ｴｸｽﾃﾘｱ商品
 62
   250
370
    20
100
AcDbVertex
100
AcDbPolyFaceMeshVertex
 10
161.0
 20
25.49999999999999
 30
1111.0
 70
   192
  0
VERTEX
  5
18A
330
12B
100
AcDbEntity
  8
ｴｸｽﾃﾘｱ商品
 62
   250
370
    20
100
AcDbVertex
100
AcDbPolyFaceMeshVertex
 10
171.0
 20
25.49999999999999
 30
1111.0
 70
   192
  0
VERTEX
  5
18B
330
12B
100
AcDbEntity
  8
ｴｸｽﾃﾘｱ商品
 62
   250
370
    20
100
AcDbVertex
100
AcDbPolyFaceMeshVertex
 10
171.0
 20
41.49999999999999
 30
1111.0
 70
   192
  0
VERTEX
  5
18C
330
12B
100
AcDbEntity
  8
ｴｸｽﾃﾘｱ商品
 62
   250
370
    20
100
AcDbVertex
100
AcDbPolyFaceMeshVertex
 10
161.0
 20
41.49999999999999
 30
1111.0
 70
   192
  0
VERTEX
  5
18D
330
12B
100
AcDbEntity
  8
ｴｸｽﾃﾘｱ商品
 62
   250
370
    20
100
AcDbVertex
100
AcDbPolyFaceMeshVertex
 10
190.4888873943361
 20
135.3822856765378
 30
706.0
 70
   192
  0
VERTEX
  5
18E
330
12B
100
AcDbEntity
  8
ｴｸｽﾃﾘｱ商品
 62
   250
370
    20
100
AcDbVertex
100
AcDbPolyFaceMeshVertex
 10
191.0000000000001
 20
131.5
 30
706.0
 70
   192
  0
VERTEX
  5
18F
330
12B
100
AcDbEntity
  8
ｴｸｽﾃﾘｱ商品
 62
   250
370
    20
100
AcDbVertex
100
AcDbPolyFaceMeshVertex
 10
190.4888873943361
 20
127.6177143234622
 30
706.0
 70
   192
  0
VERTEX
  5
190
330
12B
100
AcDbEntity
  8
ｴｸｽﾃﾘｱ商品
 62
   250
370
    20
100
AcDbVertex
100
AcDbPolyFaceMeshVertex
 10
188.9903810567667
 20
124.0
 30
706.0
 70
   192
  0
VERTEX
  5
191
330
12B
100
AcDbEntity
  8
ｴｸｽﾃﾘｱ商品
 62
   250
370
    20
100
AcDbVertex
100
AcDbPolyFaceMeshVertex
 10
186.6066017177983
 20
120.8933982822018
 30
706.0
 70
   192
  0
VERTEX
  5
192
330
12B
100
AcDbEntity
  8
ｴｸｽﾃﾘｱ商品
 62
   250
370
    20
100
AcDbVertex
100
AcDbPolyFaceMeshVertex
 10
183.5000000000001
 20
118.5096189432334
 30
706.0
 70
   192
  0
VERTEX
  5
193
330
12B
100
AcDbEntity
  8
ｴｸｽﾃﾘｱ商品
 62
   250
370
    20
100
AcDbVertex
100
AcDbPolyFaceMeshVertex
 10
179.8822856765379
 20
117.011112605664
 30
706.0
 70
   192
  0
VERTEX
  5
194
330
12B
100
AcDbEntity
  8
ｴｸｽﾃﾘｱ商品
 62
   250
370
    20
100
AcDbVertex
100
AcDbPolyFaceMeshVertex
 10
176.0000000000001
 20
116.5
 30
706.0
 70
   192
  0
VERTEX
  5
195
330
12B
100
AcDbEntity
  8
ｴｸｽﾃﾘｱ商品
 62
   250
370
    20
100
AcDbVertex
100
AcDbPolyFaceMeshVertex
 10
172.1177143234623
 20
117.011112605664
 30
706.0
 70
   192
  0
VERTEX
  5
196
330
12B
100
AcDbEntity
  8
ｴｸｽﾃﾘｱ商品
 62
   250
370
    20
100
AcDbVertex
100
AcDbPolyFaceMeshVertex
 10
168.5000000000001
 20
118.5096189432334
 30
706.0
 70
   192
  0
VERTEX
  5
197
330
12B
100
AcDbEntity
  8
ｴｸｽﾃﾘｱ商品
 62
   250
370
    20
100
AcDbVertex
100
AcDbPolyFaceMeshVertex
 10
165.3933982822019
 20
120.8933982822018
 30
706.0
 70
   192
  0
VERTEX
  5
198
330
12B
100
AcDbEntity
  8
ｴｸｽﾃﾘｱ商品
 62
   250
370
    20
100
AcDbVertex
100
AcDbPolyFaceMeshVertex
 10
163.0096189432335
 20
124.0
 30
706.0
 70
   192
  0
VERTEX
  5
199
330
12B
100
AcDbEntity
  8
ｴｸｽﾃﾘｱ商品
 62
   250
370
    20
100
AcDbVertex
100
AcDbPolyFaceMeshVertex
 10
161.511112605664
 20
127.6177143234622
 30
706.0
 70
   192
  0
VERTEX
  5
19A
330
12B
100
AcDbEntity
  8
ｴｸｽﾃﾘｱ商品
 62
   250
370
    20
100
AcDbVertex
100
AcDbPolyFaceMeshVertex
 10
161.0000000000001
 20
131.5
 30
706.0
 70
   192
  0
VERTEX
  5
19B
330
12B
100
AcDbEntity
  8
ｴｸｽﾃﾘｱ商品
 62
   250
370
    20
100
AcDbVertex
100
AcDbPolyFaceMeshVertex
 10
161.511112605664
 20
135.3822856765378
 30
706.0
 70
   192
  0
VERTEX
  5
19C
330
12B
100
AcDbEntity
  8
ｴｸｽﾃﾘｱ商品
 62
   250
370
    20
100
AcDbVertex
100
AcDbPolyFaceMeshVertex
 10
163.0096189432335
 20
139.0
 30
706.0
 70
   192
  0
VERTEX
  5
19D
330
12B
100
AcDbEntity
  8
ｴｸｽﾃﾘｱ商品
 62
   250
370
    20
100
AcDbVertex
100
AcDbPolyFaceMeshVertex
 10
165.3933982822018
 20
142.1066017177982
 30
706.0
 70
   192
  0
VERTEX
  5
19E
330
12B
100
AcDbEntity
  8
ｴｸｽﾃﾘｱ商品
 62
   250
370
    20
100
AcDbVertex
100
AcDbPolyFaceMeshVertex
 10
168.5000000000001
 20
144.4903810567666
 30
706.0
 70
   192
  0
VERTEX
  5
19F
330
12B
100
AcDbEntity
  8
ｴｸｽﾃﾘｱ商品
 62
   250
370
    20
100
AcDbVertex
100
AcDbPolyFaceMeshVertex
 10
172.1177143234623
 20
145.988887394336
 30
706.0
 70
   192
  0
VERTEX
  5
1A0
330
12B
100
AcDbEntity
  8
ｴｸｽﾃﾘｱ商品
 62
   250
370
    20
100
AcDbVertex
100
AcDbPolyFaceMeshVertex
 10
176.0000000000001
 20
146.5
 30
706.0
 70
   192
  0
VERTEX
  5
1A1
330
12B
100
AcDbEntity
  8
ｴｸｽﾃﾘｱ商品
 62
   250
370
    20
100
AcDbVertex
100
AcDbPolyFaceMeshVertex
 10
179.8822856765379
 20
145.988887394336
 30
706.0
 70
   192
  0
VERTEX
  5
1A2
330
12B
100
AcDbEntity
  8
ｴｸｽﾃﾘｱ商品
 62
   250
370
    20
100
AcDbVertex
100
AcDbPolyFaceMeshVertex
 10
183.5000000000001
 20
144.4903810567666
 30
706.0
 70
   192
  0
VERTEX
  5
1A3
330
12B
100
AcDbEntity
  8
ｴｸｽﾃﾘｱ商品
 62
   250
370
    20
100
AcDbVertex
100
AcDbPolyFaceMeshVertex
 10
186.6066017177983
 20
142.1066017177982
 30
706.0
 70
   192
  0
VERTEX
  5
1A4
330
12B
100
AcDbEntity
  8
ｴｸｽﾃﾘｱ商品
 62
   250
370
    20
100
AcDbVertex
100
AcDbPolyFaceMeshVertex
 10
188.9903810567667
 20
139.0
 30
706.0
 70
   192
  0
VERTEX
  5
1A5
330
12B
100
AcDbEntity
  8
ｴｸｽﾃﾘｱ商品
 62
   250
370
    20
100
AcDbVertex
100
AcDbPolyFaceMeshVertex
 10
190.4888873943361
 20
135.3822856765378
 30
1136.0
 70
   192
  0
VERTEX
  5
1A6
330
12B
100
AcDbEntity
  8
ｴｸｽﾃﾘｱ商品
 62
   250
370
    20
100
AcDbVertex
100
AcDbPolyFaceMeshVertex
 10
188.9903810567667
 20
139.0
 30
1136.0
 70
   192
  0
VERTEX
  5
1A7
330
12B
100
AcDbEntity
  8
ｴｸｽﾃﾘｱ商品
 62
   250
370
    20
100
AcDbVertex
100
AcDbPolyFaceMeshVertex
 10
186.6066017177983
 20
142.1066017177982
 30
1136.0
 70
   192
  0
VERTEX
  5
1A8
330
12B
100
AcDbEntity
  8
ｴｸｽﾃﾘｱ商品
 62
   250
370
    20
100
AcDbVertex
100
AcDbPolyFaceMeshVertex
 10
183.5000000000001
 20
144.4903810567666
 30
1136.0
 70
   192
  0
VERTEX
  5
1A9
330
12B
100
AcDbEntity
  8
ｴｸｽﾃﾘｱ商品
 62
   250
370
    20
100
AcDbVertex
100
AcDbPolyFaceMeshVertex
 10
179.8822856765379
 20
145.988887394336
 30
1136.0
 70
   192
  0
VERTEX
  5
1AA
330
12B
100
AcDbEntity
  8
ｴｸｽﾃﾘｱ商品
 62
   250
370
    20
100
AcDbVertex
100
AcDbPolyFaceMeshVertex
 10
176.0000000000001
 20
146.5
 30
1136.0
 70
   192
  0
VERTEX
  5
1AB
330
12B
100
AcDbEntity
  8
ｴｸｽﾃﾘｱ商品
 62
   250
370
    20
100
AcDbVertex
100
AcDbPolyFaceMeshVertex
 10
172.1177143234623
 20
145.988887394336
 30
1136.0
 70
   192
  0
VERTEX
  5
1AC
330
12B
100
AcDbEntity
  8
ｴｸｽﾃﾘｱ商品
 62
   250
370
    20
100
AcDbVertex
100
AcDbPolyFaceMeshVertex
 10
168.5000000000001
 20
144.4903810567666
 30
1136.0
 70
   192
  0
VERTEX
  5
1AD
330
12B
100
AcDbEntity
  8
ｴｸｽﾃﾘｱ商品
 62
   250
370
    20
100
AcDbVertex
100
AcDbPolyFaceMeshVertex
 10
165.3933982822018
 20
142.1066017177982
 30
1136.0
 70
   192
  0
VERTEX
  5
1AE
330
12B
100
AcDbEntity
  8
ｴｸｽﾃﾘｱ商品
 62
   250
370
    20
100
AcDbVertex
100
AcDbPolyFaceMeshVertex
 10
163.0096189432335
 20
139.0
 30
1136.0
 70
   192
  0
VERTEX
  5
1AF
330
12B
100
AcDbEntity
  8
ｴｸｽﾃﾘｱ商品
 62
   250
370
    20
100
AcDbVertex
100
AcDbPolyFaceMeshVertex
 10
161.511112605664
 20
135.3822856765378
 30
1136.0
 70
   192
  0
VERTEX
  5
1B0
330
12B
100
AcDbEntity
  8
ｴｸｽﾃﾘｱ商品
 62
   250
370
    20
100
AcDbVertex
100
AcDbPolyFaceMeshVertex
 10
161.0000000000001
 20
131.5
 30
1136.0
 70
   192
  0
VERTEX
  5
1B1
330
12B
100
AcDbEntity
  8
ｴｸｽﾃﾘｱ商品
 62
   250
370
    20
100
AcDbVertex
100
AcDbPolyFaceMeshVertex
 10
161.511112605664
 20
127.6177143234622
 30
1136.0
 70
   192
  0
VERTEX
  5
1B2
330
12B
100
AcDbEntity
  8
ｴｸｽﾃﾘｱ商品
 62
   250
370
    20
100
AcDbVertex
100
AcDbPolyFaceMeshVertex
 10
163.0096189432335
 20
124.0
 30
1136.0
 70
   192
  0
VERTEX
  5
1B3
330
12B
100
AcDbEntity
  8
ｴｸｽﾃﾘｱ商品
 62
   250
370
    20
100
AcDbVertex
100
AcDbPolyFaceMeshVertex
 10
165.3933982822019
 20
120.8933982822018
 30
1136.0
 70
   192
  0
VERTEX
  5
1B4
330
12B
100
AcDbEntity
  8
ｴｸｽﾃﾘｱ商品
 62
   250
370
    20
100
AcDbVertex
100
AcDbPolyFaceMeshVertex
 10
168.5000000000001
 20
118.5096189432334
 30
1136.0
 70
   192
  0
VERTEX
  5
1B5
330
12B
100
AcDbEntity
  8
ｴｸｽﾃﾘｱ商品
 62
   250
370
    20
100
AcDbVertex
100
AcDbPolyFaceMeshVertex
 10
172.1177143234623
 20
117.011112605664
 30
1136.0
 70
   192
  0
VERTEX
  5
1B6
330
12B
100
AcDbEntity
  8
ｴｸｽﾃﾘｱ商品
 62
   250
370
    20
100
AcDbVertex
100
AcDbPolyFaceMeshVertex
 10
176.0000000000001
 20
116.5
 30
1136.0
 70
   192
  0
VERTEX
  5
1B7
330
12B
100
AcDbEntity
  8
ｴｸｽﾃﾘｱ商品
 62
   250
370
    20
100
AcDbVertex
100
AcDbPolyFaceMeshVertex
 10
179.8822856765379
 20
117.011112605664
 30
1136.0
 70
   192
  0
VERTEX
  5
1B8
330
12B
100
AcDbEntity
  8
ｴｸｽﾃﾘｱ商品
 62
   250
370
    20
100
AcDbVertex
100
AcDbPolyFaceMeshVertex
 10
183.5000000000001
 20
118.5096189432334
 30
1136.0
 70
   192
  0
VERTEX
  5
1B9
330
12B
100
AcDbEntity
  8
ｴｸｽﾃﾘｱ商品
 62
   250
370
    20
100
AcDbVertex
100
AcDbPolyFaceMeshVertex
 10
186.6066017177983
 20
120.8933982822018
 30
1136.0
 70
   192
  0
VERTEX
  5
1BA
330
12B
100
AcDbEntity
  8
ｴｸｽﾃﾘｱ商品
 62
   250
370
    20
100
AcDbVertex
100
AcDbPolyFaceMeshVertex
 10
188.9903810567667
 20
124.0
 30
1136.0
 70
   192
  0
VERTEX
  5
1BB
330
12B
100
AcDbEntity
  8
ｴｸｽﾃﾘｱ商品
 62
   250
370
    20
100
AcDbVertex
100
AcDbPolyFaceMeshVertex
 10
190.4888873943361
 20
127.6177143234622
 30
1136.0
 70
   192
  0
VERTEX
  5
1BC
330
12B
100
AcDbEntity
  8
ｴｸｽﾃﾘｱ商品
 62
   250
370
    20
100
AcDbVertex
100
AcDbPolyFaceMeshVertex
 10
191.0000000000001
 20
131.5
 30
1136.0
 70
   192
  0
VERTEX
  5
1BD
330
12B
100
AcDbEntity
  8
ｴｸｽﾃﾘｱ商品
 62
   250
370
    20
100
AcDbVertex
100
AcDbPolyFaceMeshVertex
 10
171.0000000000001
 20
111.5
 30
731.0
 70
   192
  0
VERTEX
  5
1BE
330
12B
100
AcDbEntity
  8
ｴｸｽﾃﾘｱ商品
 62
   250
370
    20
100
AcDbVertex
100
AcDbPolyFaceMeshVertex
 10
171.0000000000001
 20
101.5
 30
731.0
 70
   192
  0
VERTEX
  5
1BF
330
12B
100
AcDbEntity
  8
ｴｸｽﾃﾘｱ商品
 62
   250
370
    20
100
AcDbVertex
100
AcDbPolyFaceMeshVertex
 10
136.0000000000001
 20
101.5
 30
731.0
 70
   192
  0
VERTEX
  5
1C0
330
12B
100
AcDbEntity
  8
ｴｸｽﾃﾘｱ商品
 62
   250
370
    20
100
AcDbVertex
100
AcDbPolyFaceMeshVertex
 10
136.0000000000001
 20
111.5
 30
731.0
 70
   192
  0
VERTEX
  5
1C1
330
12B
100
AcDbEntity
  8
ｴｸｽﾃﾘｱ商品
 62
   250
370
    20
100
AcDbVertex
100
AcDbPolyFaceMeshVertex
 10
136.0000000000001
 20
111.5
 30
781.0
 70
   192
  0
VERTEX
  5
1C2
330
12B
100
AcDbEntity
  8
ｴｸｽﾃﾘｱ商品
 62
   250
370
    20
100
AcDbVertex
100
AcDbPolyFaceMeshVertex
 10
136.0000000000001
 20
101.5
 30
781.0
 70
   192
  0
VERTEX
  5
1C3
330
12B
100
AcDbEntity
  8
ｴｸｽﾃﾘｱ商品
 62
   250
370
    20
100
AcDbVertex
100
AcDbPolyFaceMeshVertex
 10
171.0000000000001
 20
101.5
 30
781.0
 70
   192
  0
VERTEX
  5
1C4
330
12B
100
AcDbEntity
  8
ｴｸｽﾃﾘｱ商品
 62
   250
370
    20
100
AcDbVertex
100
AcDbPolyFaceMeshVertex
 10
171.0000000000001
 20
111.5
 30
781.0
 70
   192
  0
VERTEX
  5
1C5
330
12B
100
AcDbEntity
  8
ｴｸｽﾃﾘｱ商品
 62
   250
370
    20
100
AcDbVertex
100
AcDbPolyFaceMeshVertex
 10
171.0000000000001
 20
127.5
 30
731.0
 70
   192
  0
VERTEX
  5
1C6
330
12B
100
AcDbEntity
  8
ｴｸｽﾃﾘｱ商品
 62
   250
370
    20
100
AcDbVertex
100
AcDbPolyFaceMeshVertex
 10
171.0000000000001
 20
111.5
 30
731.0
 70
   192
  0
VERTEX
  5
1C7
330
12B
100
AcDbEntity
  8
ｴｸｽﾃﾘｱ商品
 62
   250
370
    20
100
AcDbVertex
100
AcDbPolyFaceMeshVertex
 10
161.0000000000001
 20
111.5
 30
731.0
 70
   192
  0
VERTEX
  5
1C8
330
12B
100
AcDbEntity
  8
ｴｸｽﾃﾘｱ商品
 62
   250
370
    20
100
AcDbVertex
100
AcDbPolyFaceMeshVertex
 10
161.0000000000001
 20
127.5
 30
731.0
 70
   192
  0
VERTEX
  5
1C9
330
12B
100
AcDbEntity
  8
ｴｸｽﾃﾘｱ商品
 62
   250
370
    20
100
AcDbVertex
100
AcDbPolyFaceMeshVertex
 10
161.0000000000001
 20
127.5
 30
781.0
 70
   192
  0
VERTEX
  5
1CA
330
12B
100
AcDbEntity
  8
ｴｸｽﾃﾘｱ商品
 62
   250
370
    20
100
AcDbVertex
100
AcDbPolyFaceMeshVertex
 10
161.0000000000001
 20
111.5
 30
781.0
 70
   192
  0
VERTEX
  5
1CB
330
12B
100
AcDbEntity
  8
ｴｸｽﾃﾘｱ商品
 62
   250
370
    20
100
AcDbVertex
100
AcDbPolyFaceMeshVertex
 10
171.0000000000001
 20
111.5
 30
781.0
 70
   192
  0
VERTEX
  5
1CC
330
12B
100
AcDbEntity
  8
ｴｸｽﾃﾘｱ商品
 62
   250
370
    20
100
AcDbVertex
100
AcDbPolyFaceMeshVertex
 10
171.0000000000001
 20
127.5
 30
781.0
 70
   192
  0
VERTEX
  5
1CD
330
12B
100
AcDbEntity
  8
ｴｸｽﾃﾘｱ商品
 62
   250
370
    20
100
AcDbVertex
100
AcDbPolyFaceMeshVertex
 10
171.0
 20
111.5
 30
1061.0
 70
   192
  0
VERTEX
  5
1CE
330
12B
100
AcDbEntity
  8
ｴｸｽﾃﾘｱ商品
 62
   250
370
    20
100
AcDbVertex
100
AcDbPolyFaceMeshVertex
 10
171.0
 20
101.5
 30
1061.0
 70
   192
  0
VERTEX
  5
1CF
330
12B
100
AcDbEntity
  8
ｴｸｽﾃﾘｱ商品
 62
   250
370
    20
100
AcDbVertex
100
AcDbPolyFaceMeshVertex
 10
136.0
 20
101.5
 30
1061.0
 70
   192
  0
VERTEX
  5
1D0
330
12B
100
AcDbEntity
  8
ｴｸｽﾃﾘｱ商品
 62
   250
370
    20
100
AcDbVertex
100
AcDbPolyFaceMeshVertex
 10
136.0
 20
111.5
 30
1061.0
 70
   192
  0
VERTEX
  5
1D1
330
12B
100
AcDbEntity
  8
ｴｸｽﾃﾘｱ商品
 62
   250
370
    20
100
AcDbVertex
100
AcDbPolyFaceMeshVertex
 10
136.0
 20
111.5
 30
1111.0
 70
   192
  0
VERTEX
  5
1D2
330
12B
100
AcDbEntity
  8
ｴｸｽﾃﾘｱ商品
 62
   250
370
    20
100
AcDbVertex
100
AcDbPolyFaceMeshVertex
 10
136.0
 20
101.5
 30
1111.0
 70
   192
  0
VERTEX
  5
1D3
330
12B
100
AcDbEntity
  8
ｴｸｽﾃﾘｱ商品
 62
   250
370
    20
100
AcDbVertex
100
AcDbPolyFaceMeshVertex
 10
171.0
 20
101.5
 30
1111.0
 70
   192
  0
VERTEX
  5
1D4
330
12B
100
AcDbEntity
  8
ｴｸｽﾃﾘｱ商品
 62
   250
370
    20
100
AcDbVertex
100
AcDbPolyFaceMeshVertex
 10
171.0
 20
111.5
 30
1111.0
 70
   192
  0
VERTEX
  5
1D5
330
12B
100
AcDbEntity
  8
ｴｸｽﾃﾘｱ商品
 62
   250
370
    20
100
AcDbVertex
100
AcDbPolyFaceMeshVertex
 10
171.0
 20
127.5
 30
1061.0
 70
   192
  0
VERTEX
  5
1D6
330
12B
100
AcDbEntity
  8
ｴｸｽﾃﾘｱ商品
 62
   250
370
    20
100
AcDbVertex
100
AcDbPolyFaceMeshVertex
 10
171.0
 20
111.5
 30
1061.0
 70
   192
  0
VERTEX
  5
1D7
330
12B
100
AcDbEntity
  8
ｴｸｽﾃﾘｱ商品
 62
   250
370
    20
100
AcDbVertex
100
AcDbPolyFaceMeshVertex
 10
161.0
 20
111.5
 30
1061.0
 70
   192
  0
VERTEX
  5
1D8
330
12B
100
AcDbEntity
  8
ｴｸｽﾃﾘｱ商品
 62
   250
370
    20
100
AcDbVertex
100
AcDbPolyFaceMeshVertex
 10
161.0
 20
127.5
 30
1061.0
 70
   192
  0
VERTEX
  5
1D9
330
12B
100
AcDbEntity
  8
ｴｸｽﾃﾘｱ商品
 62
   250
370
    20
100
AcDbVertex
100
AcDbPolyFaceMeshVertex
 10
161.0
 20
127.5
 30
1111.0
 70
   192
  0
VERTEX
  5
1DA
330
12B
100
AcDbEntity
  8
ｴｸｽﾃﾘｱ商品
 62
   250
370
    20
100
AcDbVertex
100
AcDbPolyFaceMeshVertex
 10
161.0
 20
111.5
 30
1111.0
 70
   192
  0
VERTEX
  5
1DB
330
12B
100
AcDbEntity
  8
ｴｸｽﾃﾘｱ商品
 62
   250
370
    20
100
AcDbVertex
100
AcDbPolyFaceMeshVertex
 10
171.0
 20
111.5
 30
1111.0
 70
   192
  0
VERTEX
  5
1DC
330
12B
100
AcDbEntity
  8
ｴｸｽﾃﾘｱ商品
 62
   250
370
    20
100
AcDbVertex
100
AcDbPolyFaceMeshVertex
 10
171.0
 20
127.5
 30
1111.0
 70
   192
  0
VERTEX
  5
1DD
330
12B
100
AcDbEntity
  8
ｴｸｽﾃﾘｱ商品
 62
   250
370
    20
100
AcDbVertex
100
AcDbPolyFaceMeshVertex
 10
134.7435165257814
 20
49.99999999999999
 30
1193.82361909795
 70
   192
  0
VERTEX
  5
1DE
330
12B
100
AcDbEntity
  8
ｴｸｽﾃﾘｱ商品
 62
   250
370
    20
100
AcDbVertex
100
AcDbPolyFaceMeshVertex
 10
132.7455080756888
 20
49.99999999999999
 30
1189.0
 70
   192
  0
VERTEX
  5
1DF
330
12B
100
AcDbEntity
  8
ｴｸｽﾃﾘｱ商品
 62
   250
370
    20
100
AcDbVertex
100
AcDbPolyFaceMeshVertex
 10
129.567135623731
 20
49.99999999999999
 30
1184.857864376269
 70
   192
  0
VERTEX
  5
1E0
330
12B
100
AcDbEntity
  8
ｴｸｽﾃﾘｱ商品
 62
   250
370
    20
100
AcDbVertex
100
AcDbPolyFaceMeshVertex
 10
125.425
 20
49.99999999999999
 30
1181.679491924311
 70
   192
  0
VERTEX
  5
1E1
330
12B
100
AcDbEntity
  8
ｴｸｽﾃﾘｱ商品
 62
   250
370
    20
100
AcDbVertex
100
AcDbPolyFaceMeshVertex
 10
120.6013809020504
 20
49.99999999999999
 30
1179.681483474219
 70
   192
  0
VERTEX
  5
1E2
330
12B
100
AcDbEntity
  8
ｴｸｽﾃﾘｱ商品
 62
   250
370
    20
100
AcDbVertex
100
AcDbPolyFaceMeshVertex
 10
115.425
 20
49.99999999999999
 30
1179.0
 70
   192
  0
VERTEX
  5
1E3
330
12B
100
AcDbEntity
  8
ｴｸｽﾃﾘｱ商品
 62
   250
370
    20
100
AcDbVertex
100
AcDbPolyFaceMeshVertex
 10
110.2486190979496
 20
49.99999999999999
 30
1179.681483474219
 70
   192
  0
VERTEX
  5
1E4
330
12B
100
AcDbEntity
  8
ｴｸｽﾃﾘｱ商品
 62
   250
370
    20
100
AcDbVertex
100
AcDbPolyFaceMeshVertex
 10
105.425
 20
49.99999999999999
 30
1181.679491924311
 70
   192
  0
VERTEX
  5
1E5
330
12B
100
AcDbEntity
  8
ｴｸｽﾃﾘｱ商品
 62
   250
370
    20
100
AcDbVertex
100
AcDbPolyFaceMeshVertex
 10
101.282864376269
 20
49.99999999999999
 30
1184.857864376269
 70
   192
  0
VERTEX
  5
1E6
330
12B
100
AcDbEntity
  8
ｴｸｽﾃﾘｱ商品
 62
   250
370
    20
100
AcDbVertex
100
AcDbPolyFaceMeshVertex
 10
98.10449192431123
 20
49.99999999999999
 30
1189.0
 70
   192
  0
VERTEX
  5
1E7
330
12B
100
AcDbEntity
  8
ｴｸｽﾃﾘｱ商品
 62
   250
370
    20
100
AcDbVertex
100
AcDbPolyFaceMeshVertex
 10
96.10648347421863
 20
49.99999999999999
 30
1193.82361909795
 70
   192
  0
VERTEX
  5
1E8
330
12B
100
AcDbEntity
  8
ｴｸｽﾃﾘｱ商品
 62
   250
370
    20
100
AcDbVertex
100
AcDbPolyFaceMeshVertex
 10
95.42500000000001
 20
49.99999999999999
 30
1199.0
 70
   192
  0
VERTEX
  5
1E9
330
12B
100
AcDbEntity
  8
ｴｸｽﾃﾘｱ商品
 62
   250
370
    20
100
AcDbVertex
100
AcDbPolyFaceMeshVertex
 10
96.10648347421865
 20
49.99999999999999
 30
1204.17638090205
 70
   192
  0
VERTEX
  5
1EA
330
12B
100
AcDbEntity
  8
ｴｸｽﾃﾘｱ商品
 62
   250
370
    20
100
AcDbVertex
100
AcDbPolyFaceMeshVertex
 10
98.10449192431125
 20
49.99999999999999
 30
1209.0
 70
   192
  0
VERTEX
  5
1EB
330
12B
100
AcDbEntity
  8
ｴｸｽﾃﾘｱ商品
 62
   250
370
    20
100
AcDbVertex
100
AcDbPolyFaceMeshVertex
 10
101.2828643762691
 20
49.99999999999999
 30
1213.142135623731
 70
   192
  0
VERTEX
  5
1EC
330
12B
100
AcDbEntity
  8
ｴｸｽﾃﾘｱ商品
 62
   250
370
    20
100
AcDbVertex
100
AcDbPolyFaceMeshVertex
 10
105.425
 20
49.99999999999999
 30
1216.320508075689
 70
   192
  0
VERTEX
  5
1ED
330
12B
100
AcDbEntity
  8
ｴｸｽﾃﾘｱ商品
 62
   250
370
    20
100
AcDbVertex
100
AcDbPolyFaceMeshVertex
 10
110.2486190979496
 20
49.99999999999999
 30
1218.318516525781
 70
   192
  0
VERTEX
  5
1EE
330
12B
100
AcDbEntity
  8
ｴｸｽﾃﾘｱ商品
 62
   250
370
    20
100
AcDbVertex
100
AcDbPolyFaceMeshVertex
 10
115.425
 20
49.99999999999999
 30
1219.0
 70
   192
  0
VERTEX
  5
1EF
330
12B
100
AcDbEntity
  8
ｴｸｽﾃﾘｱ商品
 62
   250
370
    20
100
AcDbVertex
100
AcDbPolyFaceMeshVertex
 10
120.6013809020504
 20
49.99999999999999
 30
1218.318516525781
 70
   192
  0
VERTEX
  5
1F0
330
12B
100
AcDbEntity
  8
ｴｸｽﾃﾘｱ商品
 62
   250
370
    20
100
AcDbVertex
100
AcDbPolyFaceMeshVertex
 10
125.425
 20
49.99999999999999
 30
1216.320508075689
 70
   192
  0
VERTEX
  5
1F1
330
12B
100
AcDbEntity
  8
ｴｸｽﾃﾘｱ商品
 62
   250
370
    20
100
AcDbVertex
100
AcDbPolyFaceMeshVertex
 10
129.567135623731
 20
49.99999999999999
 30
1213.142135623731
 70
   192
  0
VERTEX
  5
1F2
330
12B
100
AcDbEntity
  8
ｴｸｽﾃﾘｱ商品
 62
   250
370
    20
100
AcDbVertex
100
AcDbPolyFaceMeshVertex
 10
132.7455080756888
 20
49.99999999999999
 30
1209.0
 70
   192
  0
VERTEX
  5
1F3
330
12B
100
AcDbEntity
  8
ｴｸｽﾃﾘｱ商品
 62
   250
370
    20
100
AcDbVertex
100
AcDbPolyFaceMeshVertex
 10
134.7435165257814
 20
49.99999999999999
 30
1204.17638090205
 70
   192
  0
VERTEX
  5
1F4
330
12B
100
AcDbEntity
  8
ｴｸｽﾃﾘｱ商品
 62
   250
370
    20
100
AcDbVertex
100
AcDbPolyFaceMeshVertex
 10
135.425
 20
49.99999999999999
 30
1199.0
 70
   192
  0
VERTEX
  5
1F5
330
12B
100
AcDbEntity
  8
ｴｸｽﾃﾘｱ商品
 62
   250
370
    20
100
AcDbVertex
100
AcDbPolyFaceMeshVertex
 10
134.7435165257814
 20
39.99999999999999
 30
1193.82361909795
 70
   192
  0
VERTEX
  5
1F6
330
12B
100
AcDbEntity
  8
ｴｸｽﾃﾘｱ商品
 62
   250
370
    20
100
AcDbVertex
100
AcDbPolyFaceMeshVertex
 10
135.425
 20
39.99999999999999
 30
1199.0
 70
   192
  0
VERTEX
  5
1F7
330
12B
100
AcDbEntity
  8
ｴｸｽﾃﾘｱ商品
 62
   250
370
    20
100
AcDbVertex
100
AcDbPolyFaceMeshVertex
 10
134.7435165257814
 20
39.99999999999999
 30
1204.17638090205
 70
   192
  0
VERTEX
  5
1F8
330
12B
100
AcDbEntity
  8
ｴｸｽﾃﾘｱ商品
 62
   250
370
    20
100
AcDbVertex
100
AcDbPolyFaceMeshVertex
 10
132.7455080756888
 20
39.99999999999999
 30
1209.0
 70
   192
  0
VERTEX
  5
1F9
330
12B
100
AcDbEntity
  8
ｴｸｽﾃﾘｱ商品
 62
   250
370
    20
100
AcDbVertex
100
AcDbPolyFaceMeshVertex
 10
129.567135623731
 20
39.99999999999999
 30
1213.142135623731
 70
   192
  0
VERTEX
  5
1FA
330
12B
100
AcDbEntity
  8
ｴｸｽﾃﾘｱ商品
 62
   250
370
    20
100
AcDbVertex
100
AcDbPolyFaceMeshVertex
 10
125.425
 20
39.99999999999999
 30
1216.320508075689
 70
   192
  0
VERTEX
  5
1FB
330
12B
100
AcDbEntity
  8
ｴｸｽﾃﾘｱ商品
 62
   250
370
    20
100
AcDbVertex
100
AcDbPolyFaceMeshVertex
 10
120.6013809020504
 20
39.99999999999999
 30
1218.318516525781
 70
   192
  0
VERTEX
  5
1FC
330
12B
100
AcDbEntity
  8
ｴｸｽﾃﾘｱ商品
 62
   250
370
    20
100
AcDbVertex
100
AcDbPolyFaceMeshVertex
 10
115.425
 20
39.99999999999999
 30
1219.0
 70
   192
  0
VERTEX
  5
1FD
330
12B
100
AcDbEntity
  8
ｴｸｽﾃﾘｱ商品
 62
   250
370
    20
100
AcDbVertex
100
AcDbPolyFaceMeshVertex
 10
110.2486190979496
 20
39.99999999999999
 30
1218.318516525781
 70
   192
  0
VERTEX
  5
1FE
330
12B
100
AcDbEntity
  8
ｴｸｽﾃﾘｱ商品
 62
   250
370
    20
100
AcDbVertex
100
AcDbPolyFaceMeshVertex
 10
105.425
 20
39.99999999999999
 30
1216.320508075689
 70
   192
  0
VERTEX
  5
1FF
330
12B
100
AcDbEntity
  8
ｴｸｽﾃﾘｱ商品
 62
   250
370
    20
100
AcDbVertex
100
AcDbPolyFaceMeshVertex
 10
101.2828643762691
 20
39.99999999999999
 30
1213.142135623731
 70
   192
  0
VERTEX
  5
200
330
12B
100
AcDbEntity
  8
ｴｸｽﾃﾘｱ商品
 62
   250
370
    20
100
AcDbVertex
100
AcDbPolyFaceMeshVertex
 10
98.10449192431125
 20
39.99999999999999
 30
1209.0
 70
   192
  0
VERTEX
  5
201
330
12B
100
AcDbEntity
  8
ｴｸｽﾃﾘｱ商品
 62
   250
370
    20
100
AcDbVertex
100
AcDbPolyFaceMeshVertex
 10
96.10648347421865
 20
39.99999999999999
 30
1204.17638090205
 70
   192
  0
VERTEX
  5
202
330
12B
100
AcDbEntity
  8
ｴｸｽﾃﾘｱ商品
 62
   250
370
    20
100
AcDbVertex
100
AcDbPolyFaceMeshVertex
 10
95.42500000000001
 20
39.99999999999999
 30
1199.0
 70
   192
  0
VERTEX
  5
203
330
12B
100
AcDbEntity
  8
ｴｸｽﾃﾘｱ商品
 62
   250
370
    20
100
AcDbVertex
100
AcDbPolyFaceMeshVertex
 10
96.10648347421863
 20
39.99999999999999
 30
1193.82361909795
 70
   192
  0
VERTEX
  5
204
330
12B
100
AcDbEntity
  8
ｴｸｽﾃﾘｱ商品
 62
   250
370
    20
100
AcDbVertex
100
AcDbPolyFaceMeshVertex
 10
98.10449192431123
 20
39.99999999999999
 30
1189.0
 70
   192
  0
VERTEX
  5
205
330
12B
100
AcDbEntity
  8
ｴｸｽﾃﾘｱ商品
 62
   250
370
    20
100
AcDbVertex
100
AcDbPolyFaceMeshVertex
 10
101.282864376269
 20
39.99999999999999
 30
1184.857864376269
 70
   192
  0
VERTEX
  5
206
330
12B
100
AcDbEntity
  8
ｴｸｽﾃﾘｱ商品
 62
   250
370
    20
100
AcDbVertex
100
AcDbPolyFaceMeshVertex
 10
105.425
 20
39.99999999999999
 30
1181.679491924311
 70
   192
  0
VERTEX
  5
207
330
12B
100
AcDbEntity
  8
ｴｸｽﾃﾘｱ商品
 62
   250
370
    20
100
AcDbVertex
100
AcDbPolyFaceMeshVertex
 10
110.2486190979496
 20
39.99999999999999
 30
1179.681483474219
 70
   192
  0
VERTEX
  5
208
330
12B
100
AcDbEntity
  8
ｴｸｽﾃﾘｱ商品
 62
   250
370
    20
100
AcDbVertex
100
AcDbPolyFaceMeshVertex
 10
115.425
 20
39.99999999999999
 30
1179.0
 70
   192
  0
VERTEX
  5
209
330
12B
100
AcDbEntity
  8
ｴｸｽﾃﾘｱ商品
 62
   250
370
    20
100
AcDbVertex
100
AcDbPolyFaceMeshVertex
 10
120.6013809020504
 20
39.99999999999999
 30
1179.681483474219
 70
   192
  0
VERTEX
  5
20A
330
12B
100
AcDbEntity
  8
ｴｸｽﾃﾘｱ商品
 62
   250
370
    20
100
AcDbVertex
100
AcDbPolyFaceMeshVertex
 10
125.425
 20
39.99999999999999
 30
1181.679491924311
 70
   192
  0
VERTEX
  5
20B
330
12B
100
AcDbEntity
  8
ｴｸｽﾃﾘｱ商品
 62
   250
370
    20
100
AcDbVertex
100
AcDbPolyFaceMeshVertex
 10
129.567135623731
 20
39.99999999999999
 30
1184.857864376269
 70
   192
  0
VERTEX
  5
20C
330
12B
100
AcDbEntity
  8
ｴｸｽﾃﾘｱ商品
 62
   250
370
    20
100
AcDbVertex
100
AcDbPolyFaceMeshVertex
 10
132.7455080756888
 20
39.99999999999999
 30
1189.0
 70
   192
  0
VERTEX
  5
20D
330
12B
100
AcDbEntity
  8
ｴｸｽﾃﾘｱ商品
 62
   250
370
    20
100
AcDbVertex
100
AcDbPolyFaceMeshVertex
 10
896.3407417371093
 20
107.4118095489748
 30
169.0
 70
   192
  0
VERTEX
  5
20E
330
12B
100
AcDbEntity
  8
ｴｸｽﾃﾘｱ商品
 62
   250
370
    20
100
AcDbVertex
100
AcDbPolyFaceMeshVertex
 10
896.0
 20
110.0
 30
169.0
 70
   192
  0
VERTEX
  5
20F
330
12B
100
AcDbEntity
  8
ｴｸｽﾃﾘｱ商品
 62
   250
370
    20
100
AcDbVertex
100
AcDbPolyFaceMeshVertex
 10
896.3407417371093
 20
112.5881904510252
 30
169.0
 70
   192
  0
VERTEX
  5
210
330
12B
100
AcDbEntity
  8
ｴｸｽﾃﾘｱ商品
 62
   250
370
    20
100
AcDbVertex
100
AcDbPolyFaceMeshVertex
 10
897.3397459621556
 20
115.0
 30
169.0
 70
   192
  0
VERTEX
  5
211
330
12B
100
AcDbEntity
  8
ｴｸｽﾃﾘｱ商品
 62
   250
370
    20
100
AcDbVertex
100
AcDbPolyFaceMeshVertex
 10
898.9289321881345
 20
117.0710678118655
 30
169.0
 70
   192
  0
VERTEX
  5
212
330
12B
100
AcDbEntity
  8
ｴｸｽﾃﾘｱ商品
 62
   250
370
    20
100
AcDbVertex
100
AcDbPolyFaceMeshVertex
 10
901.0
 20
118.6602540378444
 30
169.0
 70
   192
  0
VERTEX
  5
213
330
12B
100
AcDbEntity
  8
ｴｸｽﾃﾘｱ商品
 62
   250
370
    20
100
AcDbVertex
100
AcDbPolyFaceMeshVertex
 10
903.4118095489748
 20
119.6592582628907
 30
169.0
 70
   192
  0
VERTEX
  5
214
330
12B
100
AcDbEntity
  8
ｴｸｽﾃﾘｱ商品
 62
   250
370
    20
100
AcDbVertex
100
AcDbPolyFaceMeshVertex
 10
906.0
 20
120.0
 30
169.0
 70
   192
  0
VERTEX
  5
215
330
12B
100
AcDbEntity
  8
ｴｸｽﾃﾘｱ商品
 62
   250
370
    20
100
AcDbVertex
100
AcDbPolyFaceMeshVertex
 10
908.5881904510252
 20
119.6592582628907
 30
169.0
 70
   192
  0
VERTEX
  5
216
330
12B
100
AcDbEntity
  8
ｴｸｽﾃﾘｱ商品
 62
   250
370
    20
100
AcDbVertex
100
AcDbPolyFaceMeshVertex
 10
911.0
 20
118.6602540378444
 30
169.0
 70
   192
  0
VERTEX
  5
217
330
12B
100
AcDbEntity
  8
ｴｸｽﾃﾘｱ商品
 62
   250
370
    20
100
AcDbVertex
100
AcDbPolyFaceMeshVertex
 10
913.0710678118655
 20
117.0710678118655
 30
169.0
 70
   192
  0
VERTEX
  5
218
330
12B
100
AcDbEntity
  8
ｴｸｽﾃﾘｱ商品
 62
   250
370
    20
100
AcDbVertex
100
AcDbPolyFaceMeshVertex
 10
914.6602540378444
 20
115.0
 30
169.0
 70
   192
  0
VERTEX
  5
219
330
12B
100
AcDbEntity
  8
ｴｸｽﾃﾘｱ商品
 62
   250
370
    20
100
AcDbVertex
100
AcDbPolyFaceMeshVertex
 10
915.6592582628907
 20
112.5881904510252
 30
169.0
 70
   192
  0
VERTEX
  5
21A
330
12B
100
AcDbEntity
  8
ｴｸｽﾃﾘｱ商品
 62
   250
370
    20
100
AcDbVertex
100
AcDbPolyFaceMeshVertex
 10
916.0
 20
110.0
 30
169.0
 70
   192
  0
VERTEX
  5
21B
330
12B
100
AcDbEntity
  8
ｴｸｽﾃﾘｱ商品
 62
   250
370
    20
100
AcDbVertex
100
AcDbPolyFaceMeshVertex
 10
915.6592582628907
 20
107.4118095489748
 30
169.0
 70
   192
  0
VERTEX
  5
21C
330
12B
100
AcDbEntity
  8
ｴｸｽﾃﾘｱ商品
 62
   250
370
    20
100
AcDbVertex
100
AcDbPolyFaceMeshVertex
 10
914.6602540378444
 20
105.0
 30
169.0
 70
   192
  0
VERTEX
  5
21D
330
12B
100
AcDbEntity
  8
ｴｸｽﾃﾘｱ商品
 62
   250
370
    20
100
AcDbVertex
100
AcDbPolyFaceMeshVertex
 10
913.0710678118655
 20
102.9289321881345
 30
169.0
 70
   192
  0
VERTEX
  5
21E
330
12B
100
AcDbEntity
  8
ｴｸｽﾃﾘｱ商品
 62
   250
370
    20
100
AcDbVertex
100
AcDbPolyFaceMeshVertex
 10
911.0
 20
101.3397459621556
 30
169.0
 70
   192
  0
VERTEX
  5
21F
330
12B
100
AcDbEntity
  8
ｴｸｽﾃﾘｱ商品
 62
   250
370
    20
100
AcDbVertex
100
AcDbPolyFaceMeshVertex
 10
908.5881904510252
 20
100.3407417371093
 30
169.0
 70
   192
  0
VERTEX
  5
220
330
12B
100
AcDbEntity
  8
ｴｸｽﾃﾘｱ商品
 62
   250
370
    20
100
AcDbVertex
100
AcDbPolyFaceMeshVertex
 10
906.0
 20
100.0
 30
169.0
 70
   192
  0
VERTEX
  5
221
330
12B
100
AcDbEntity
  8
ｴｸｽﾃﾘｱ商品
 62
   250
370
    20
100
AcDbVertex
100
AcDbPolyFaceMeshVertex
 10
903.4118095489748
 20
100.3407417371093
 30
169.0
 70
   192
  0
VERTEX
  5
222
330
12B
100
AcDbEntity
  8
ｴｸｽﾃﾘｱ商品
 62
   250
370
    20
100
AcDbVertex
100
AcDbPolyFaceMeshVertex
 10
901.0
 20
101.3397459621556
 30
169.0
 70
   192
  0
VERTEX
  5
223
330
12B
100
AcDbEntity
  8
ｴｸｽﾃﾘｱ商品
 62
   250
370
    20
100
AcDbVertex
100
AcDbPolyFaceMeshVertex
 10
898.9289321881345
 20
102.9289321881345
 30
169.0
 70
   192
  0
VERTEX
  5
224
330
12B
100
AcDbEntity
  8
ｴｸｽﾃﾘｱ商品
 62
   250
370
    20
100
AcDbVertex
100
AcDbPolyFaceMeshVertex
 10
897.3397459621556
 20
105.0
 30
169.0
 70
   192
  0
VERTEX
  5
225
330
12B
100
AcDbEntity
  8
ｴｸｽﾃﾘｱ商品
 62
   250
370
    20
100
AcDbVertex
100
AcDbPolyFaceMeshVertex
 10
896.3407417371093
 20
107.4118095489748
 30
219.0000000000001
 70
   192
  0
VERTEX
  5
226
330
12B
100
AcDbEntity
  8
ｴｸｽﾃﾘｱ商品
 62
   250
370
    20
100
AcDbVertex
100
AcDbPolyFaceMeshVertex
 10
897.3397459621556
 20
105.0
 30
219.0000000000001
 70
   192
  0
VERTEX
  5
227
330
12B
100
AcDbEntity
  8
ｴｸｽﾃﾘｱ商品
 62
   250
370
    20
100
AcDbVertex
100
AcDbPolyFaceMeshVertex
 10
898.9289321881345
 20
102.9289321881345
 30
219.0000000000001
 70
   192
  0
VERTEX
  5
228
330
12B
100
AcDbEntity
  8
ｴｸｽﾃﾘｱ商品
 62
   250
370
    20
100
AcDbVertex
100
AcDbPolyFaceMeshVertex
 10
901.0
 20
101.3397459621556
 30
219.0000000000001
 70
   192
  0
VERTEX
  5
229
330
12B
100
AcDbEntity
  8
ｴｸｽﾃﾘｱ商品
 62
   250
370
    20
100
AcDbVertex
100
AcDbPolyFaceMeshVertex
 10
903.4118095489748
 20
100.3407417371093
 30
219.0000000000001
 70
   192
  0
VERTEX
  5
22A
330
12B
100
AcDbEntity
  8
ｴｸｽﾃﾘｱ商品
 62
   250
370
    20
100
AcDbVertex
100
AcDbPolyFaceMeshVertex
 10
906.0
 20
100.0
 30
219.0000000000001
 70
   192
  0
VERTEX
  5
22B
330
12B
100
AcDbEntity
  8
ｴｸｽﾃﾘｱ商品
 62
   250
370
    20
100
AcDbVertex
100
AcDbPolyFaceMeshVertex
 10
908.5881904510252
 20
100.3407417371093
 30
219.0000000000001
 70
   192
  0
VERTEX
  5
22C
330
12B
100
AcDbEntity
  8
ｴｸｽﾃﾘｱ商品
 62
   250
370
    20
100
AcDbVertex
100
AcDbPolyFaceMeshVertex
 10
911.0
 20
101.3397459621556
 30
219.0000000000001
 70
   192
  0
VERTEX
  5
22D
330
12B
100
AcDbEntity
  8
ｴｸｽﾃﾘｱ商品
 62
   250
370
    20
100
AcDbVertex
100
AcDbPolyFaceMeshVertex
 10
913.0710678118655
 20
102.9289321881345
 30
219.0000000000001
 70
   192
  0
VERTEX
  5
22E
330
12B
100
AcDbEntity
  8
ｴｸｽﾃﾘｱ商品
 62
   250
370
    20
100
AcDbVertex
100
AcDbPolyFaceMeshVertex
 10
914.6602540378444
 20
105.0
 30
219.0000000000001
 70
   192
  0
VERTEX
  5
22F
330
12B
100
AcDbEntity
  8
ｴｸｽﾃﾘｱ商品
 62
   250
370
    20
100
AcDbVertex
100
AcDbPolyFaceMeshVertex
 10
915.6592582628907
 20
107.4118095489748
 30
219.0000000000001
 70
   192
  0
VERTEX
  5
230
330
12B
100
AcDbEntity
  8
ｴｸｽﾃﾘｱ商品
 62
   250
370
    20
100
AcDbVertex
100
AcDbPolyFaceMeshVertex
 10
916.0
 20
110.0
 30
219.0000000000001
 70
   192
  0
VERTEX
  5
231
330
12B
100
AcDbEntity
  8
ｴｸｽﾃﾘｱ商品
 62
   250
370
    20
100
AcDbVertex
100
AcDbPolyFaceMeshVertex
 10
915.6592582628907
 20
112.5881904510252
 30
219.0000000000001
 70
   192
  0
VERTEX
  5
232
330
12B
100
AcDbEntity
  8
ｴｸｽﾃﾘｱ商品
 62
   250
370
    20
100
AcDbVertex
100
AcDbPolyFaceMeshVertex
 10
914.6602540378444
 20
115.0
 30
219.0000000000001
 70
   192
  0
VERTEX
  5
233
330
12B
100
AcDbEntity
  8
ｴｸｽﾃﾘｱ商品
 62
   250
370
    20
100
AcDbVertex
100
AcDbPolyFaceMeshVertex
 10
913.0710678118655
 20
117.0710678118655
 30
219.0000000000001
 70
   192
  0
VERTEX
  5
234
330
12B
100
AcDbEntity
  8
ｴｸｽﾃﾘｱ商品
 62
   250
370
    20
100
AcDbVertex
100
AcDbPolyFaceMeshVertex
 10
911.0
 20
118.6602540378444
 30
219.0000000000001
 70
   192
  0
VERTEX
  5
235
330
12B
100
AcDbEntity
  8
ｴｸｽﾃﾘｱ商品
 62
   250
370
    20
100
AcDbVertex
100
AcDbPolyFaceMeshVertex
 10
908.5881904510252
 20
119.6592582628907
 30
219.0000000000001
 70
   192
  0
VERTEX
  5
236
330
12B
100
AcDbEntity
  8
ｴｸｽﾃﾘｱ商品
 62
   250
370
    20
100
AcDbVertex
100
AcDbPolyFaceMeshVertex
 10
906.0
 20
120.0
 30
219.0000000000001
 70
   192
  0
VERTEX
  5
237
330
12B
100
AcDbEntity
  8
ｴｸｽﾃﾘｱ商品
 62
   250
370
    20
100
AcDbVertex
100
AcDbPolyFaceMeshVertex
 10
903.4118095489748
 20
119.6592582628907
 30
219.0000000000001
 70
   192
  0
VERTEX
  5
238
330
12B
100
AcDbEntity
  8
ｴｸｽﾃﾘｱ商品
 62
   250
370
    20
100
AcDbVertex
100
AcDbPolyFaceMeshVertex
 10
901.0
 20
118.6602540378444
 30
219.0000000000001
 70
   192
  0
VERTEX
  5
239
330
12B
100
AcDbEntity
  8
ｴｸｽﾃﾘｱ商品
 62
   250
370
    20
100
AcDbVertex
100
AcDbPolyFaceMeshVertex
 10
898.9289321881345
 20
117.0710678118655
 30
219.0000000000001
 70
   192
  0
VERTEX
  5
23A
330
12B
100
AcDbEntity
  8
ｴｸｽﾃﾘｱ商品
 62
   250
370
    20
100
AcDbVertex
100
AcDbPolyFaceMeshVertex
 10
897.3397459621556
 20
115.0
 30
219.0000000000001
 70
   192
  0
VERTEX
  5
23B
330
12B
100
AcDbEntity
  8
ｴｸｽﾃﾘｱ商品
 62
   250
370
    20
100
AcDbVertex
100
AcDbPolyFaceMeshVertex
 10
896.3407417371093
 20
112.5881904510252
 30
219.0000000000001
 70
   192
  0
VERTEX
  5
23C
330
12B
100
AcDbEntity
  8
ｴｸｽﾃﾘｱ商品
 62
   250
370
    20
100
AcDbVertex
100
AcDbPolyFaceMeshVertex
 10
896.0
 20
110.0
 30
219.0000000000001
 70
   192
  0
VERTEX
  5
23D
330
12B
100
AcDbEntity
  8
ｴｸｽﾃﾘｱ商品
 62
   250
370
    20
100
AcDbVertex
100
AcDbPolyFaceMeshVertex
 10
896.3407417371093
 20
107.4118095489748
 30
129.0
 70
   192
  0
VERTEX
  5
23E
330
12B
100
AcDbEntity
  8
ｴｸｽﾃﾘｱ商品
 62
   250
370
    20
100
AcDbVertex
100
AcDbPolyFaceMeshVertex
 10
896.0
 20
110.0
 30
129.0
 70
   192
  0
VERTEX
  5
23F
330
12B
100
AcDbEntity
  8
ｴｸｽﾃﾘｱ商品
 62
   250
370
    20
100
AcDbVertex
100
AcDbPolyFaceMeshVertex
 10
896.3407417371093
 20
112.5881904510252
 30
129.0
 70
   192
  0
VERTEX
  5
240
330
12B
100
AcDbEntity
  8
ｴｸｽﾃﾘｱ商品
 62
   250
370
    20
100
AcDbVertex
100
AcDbPolyFaceMeshVertex
 10
897.3397459621556
 20
115.0
 30
129.0
 70
   192
  0
VERTEX
  5
241
330
12B
100
AcDbEntity
  8
ｴｸｽﾃﾘｱ商品
 62
   250
370
    20
100
AcDbVertex
100
AcDbPolyFaceMeshVertex
 10
898.9289321881345
 20
117.0710678118655
 30
129.0
 70
   192
  0
VERTEX
  5
242
330
12B
100
AcDbEntity
  8
ｴｸｽﾃﾘｱ商品
 62
   250
370
    20
100
AcDbVertex
100
AcDbPolyFaceMeshVertex
 10
901.0
 20
118.6602540378444
 30
129.0
 70
   192
  0
VERTEX
  5
243
330
12B
100
AcDbEntity
  8
ｴｸｽﾃﾘｱ商品
 62
   250
370
    20
100
AcDbVertex
100
AcDbPolyFaceMeshVertex
 10
903.4118095489748
 20
119.6592582628907
 30
129.0
 70
   192
  0
VERTEX
  5
244
330
12B
100
AcDbEntity
  8
ｴｸｽﾃﾘｱ商品
 62
   250
370
    20
100
AcDbVertex
100
AcDbPolyFaceMeshVertex
 10
906.0
 20
120.0
 30
129.0
 70
   192
  0
VERTEX
  5
245
330
12B
100
AcDbEntity
  8
ｴｸｽﾃﾘｱ商品
 62
   250
370
    20
100
AcDbVertex
100
AcDbPolyFaceMeshVertex
 10
908.5881904510252
 20
119.6592582628907
 30
129.0
 70
   192
  0
VERTEX
  5
246
330
12B
100
AcDbEntity
  8
ｴｸｽﾃﾘｱ商品
 62
   250
370
    20
100
AcDbVertex
100
AcDbPolyFaceMeshVertex
 10
911.0
 20
118.6602540378444
 30
129.0
 70
   192
  0
VERTEX
  5
247
330
12B
100
AcDbEntity
  8
ｴｸｽﾃﾘｱ商品
 62
   250
370
    20
100
AcDbVertex
100
AcDbPolyFaceMeshVertex
 10
913.0710678118655
 20
117.0710678118655
 30
129.0
 70
   192
  0
VERTEX
  5
248
330
12B
100
AcDbEntity
  8
ｴｸｽﾃﾘｱ商品
 62
   250
370
    20
100
AcDbVertex
100
AcDbPolyFaceMeshVertex
 10
914.6602540378444
 20
115.0
 30
129.0
 70
   192
  0
VERTEX
  5
249
330
12B
100
AcDbEntity
  8
ｴｸｽﾃﾘｱ商品
 62
   250
370
    20
100
AcDbVertex
100
AcDbPolyFaceMeshVertex
 10
915.6592582628907
 20
112.5881904510252
 30
129.0
 70
   192
  0
VERTEX
  5
24A
330
12B
100
AcDbEntity
  8
ｴｸｽﾃﾘｱ商品
 62
   250
370
    20
100
AcDbVertex
100
AcDbPolyFaceMeshVertex
 10
916.0
 20
110.0
 30
129.0
 70
   192
  0
VERTEX
  5
24B
330
12B
100
AcDbEntity
  8
ｴｸｽﾃﾘｱ商品
 62
   250
370
    20
100
AcDbVertex
100
AcDbPolyFaceMeshVertex
 10
915.6592582628907
 20
107.4118095489748
 30
129.0
 70
   192
  0
VERTEX
  5
24C
330
12B
100
AcDbEntity
  8
ｴｸｽﾃﾘｱ商品
 62
   250
370
    20
100
AcDbVertex
100
AcDbPolyFaceMeshVertex
 10
914.6602540378444
 20
105.0
 30
129.0
 70
   192
  0
VERTEX
  5
24D
330
12B
100
AcDbEntity
  8
ｴｸｽﾃﾘｱ商品
 62
   250
370
    20
100
AcDbVertex
100
AcDbPolyFaceMeshVertex
 10
913.0710678118655
 20
102.9289321881345
 30
129.0
 70
   192
  0
VERTEX
  5
24E
330
12B
100
AcDbEntity
  8
ｴｸｽﾃﾘｱ商品
 62
   250
370
    20
100
AcDbVertex
100
AcDbPolyFaceMeshVertex
 10
911.0
 20
101.3397459621556
 30
129.0
 70
   192
  0
VERTEX
  5
24F
330
12B
100
AcDbEntity
  8
ｴｸｽﾃﾘｱ商品
 62
   250
370
    20
100
AcDbVertex
100
AcDbPolyFaceMeshVertex
 10
908.5881904510252
 20
100.3407417371093
 30
129.0
 70
   192
  0
VERTEX
  5
250
330
12B
100
AcDbEntity
  8
ｴｸｽﾃﾘｱ商品
 62
   250
370
    20
100
AcDbVertex
100
AcDbPolyFaceMeshVertex
 10
906.0
 20
100.0
 30
129.0
 70
   192
  0
VERTEX
  5
251
330
12B
100
AcDbEntity
  8
ｴｸｽﾃﾘｱ商品
 62
   250
370
    20
100
AcDbVertex
100
AcDbPolyFaceMeshVertex
 10
903.4118095489748
 20
100.3407417371093
 30
129.0
 70
   192
  0
VERTEX
  5
252
330
12B
100
AcDbEntity
  8
ｴｸｽﾃﾘｱ商品
 62
   250
370
    20
100
AcDbVertex
100
AcDbPolyFaceMeshVertex
 10
901.0
 20
101.3397459621556
 30
129.0
 70
   192
  0
VERTEX
  5
253
330
12B
100
AcDbEntity
  8
ｴｸｽﾃﾘｱ商品
 62
   250
370
    20
100
AcDbVertex
100
AcDbPolyFaceMeshVertex
 10
898.9289321881345
 20
102.9289321881345
 30
129.0
 70
   192
  0
VERTEX
  5
254
330
12B
100
AcDbEntity
  8
ｴｸｽﾃﾘｱ商品
 62
   250
370
    20
100
AcDbVertex
100
AcDbPolyFaceMeshVertex
 10
897.3397459621556
 20
105.0
 30
129.0
 70
   192
  0
VERTEX
  5
255
330
12B
100
AcDbEntity
  8
ｴｸｽﾃﾘｱ商品
 62
   250
370
    20
100
AcDbVertex
100
AcDbPolyFaceMeshVertex
 10
896.3407417371093
 20
107.4118095489748
 30
169.0
 70
   192
  0
VERTEX
  5
256
330
12B
100
AcDbEntity
  8
ｴｸｽﾃﾘｱ商品
 62
   250
370
    20
100
AcDbVertex
100
AcDbPolyFaceMeshVertex
 10
897.3397459621556
 20
105.0
 30
169.0
 70
   192
  0
VERTEX
  5
257
330
12B
100
AcDbEntity
  8
ｴｸｽﾃﾘｱ商品
 62
   250
370
    20
100
AcDbVertex
100
AcDbPolyFaceMeshVertex
 10
898.9289321881345
 20
102.9289321881345
 30
169.0
 70
   192
  0
VERTEX
  5
258
330
12B
100
AcDbEntity
  8
ｴｸｽﾃﾘｱ商品
 62
   250
370
    20
100
AcDbVertex
100
AcDbPolyFaceMeshVertex
 10
901.0
 20
101.3397459621556
 30
169.0
 70
   192
  0
VERTEX
  5
259
330
12B
100
AcDbEntity
  8
ｴｸｽﾃﾘｱ商品
 62
   250
370
    20
100
AcDbVertex
100
AcDbPolyFaceMeshVertex
 10
903.4118095489748
 20
100.3407417371093
 30
169.0
 70
   192
  0
VERTEX
  5
25A
330
12B
100
AcDbEntity
  8
ｴｸｽﾃﾘｱ商品
 62
   250
370
    20
100
AcDbVertex
100
AcDbPolyFaceMeshVertex
 10
906.0
 20
100.0
 30
169.0
 70
   192
  0
VERTEX
  5
25B
330
12B
100
AcDbEntity
  8
ｴｸｽﾃﾘｱ商品
 62
   250
370
    20
100
AcDbVertex
100
AcDbPolyFaceMeshVertex
 10
908.5881904510252
 20
100.3407417371093
 30
169.0
 70
   192
  0
VERTEX
  5
25C
330
12B
100
AcDbEntity
  8
ｴｸｽﾃﾘｱ商品
 62
   250
370
    20
100
AcDbVertex
100
AcDbPolyFaceMeshVertex
 10
911.0
 20
101.3397459621556
 30
169.0
 70
   192
  0
VERTEX
  5
25D
330
12B
100
AcDbEntity
  8
ｴｸｽﾃﾘｱ商品
 62
   250
370
    20
100
AcDbVertex
100
AcDbPolyFaceMeshVertex
 10
913.0710678118655
 20
102.9289321881345
 30
169.0
 70
   192
  0
VERTEX
  5
25E
330
12B
100
AcDbEntity
  8
ｴｸｽﾃﾘｱ商品
 62
   250
370
    20
100
AcDbVertex
100
AcDbPolyFaceMeshVertex
 10
914.6602540378444
 20
105.0
 30
169.0
 70
   192
  0
VERTEX
  5
25F
330
12B
100
AcDbEntity
  8
ｴｸｽﾃﾘｱ商品
 62
   250
370
    20
100
AcDbVertex
100
AcDbPolyFaceMeshVertex
 10
915.6592582628907
 20
107.4118095489748
 30
169.0
 70
   192
  0
VERTEX
  5
260
330
12B
100
AcDbEntity
  8
ｴｸｽﾃﾘｱ商品
 62
   250
370
    20
100
AcDbVertex
100
AcDbPolyFaceMeshVertex
 10
916.0
 20
110.0
 30
169.0
 70
   192
  0
VERTEX
  5
261
330
12B
100
AcDbEntity
  8
ｴｸｽﾃﾘｱ商品
 62
   250
370
    20
100
AcDbVertex
100
AcDbPolyFaceMeshVertex
 10
915.6592582628907
 20
112.5881904510252
 30
169.0
 70
   192
  0
VERTEX
  5
262
330
12B
100
AcDbEntity
  8
ｴｸｽﾃﾘｱ商品
 62
   250
370
    20
100
AcDbVertex
100
AcDbPolyFaceMeshVertex
 10
914.6602540378444
 20
115.0
 30
169.0
 70
   192
  0
VERTEX
  5
263
330
12B
100
AcDbEntity
  8
ｴｸｽﾃﾘｱ商品
 62
   250
370
    20
100
AcDbVertex
100
AcDbPolyFaceMeshVertex
 10
913.0710678118655
 20
117.0710678118655
 30
169.0
 70
   192
  0
VERTEX
  5
264
330
12B
100
AcDbEntity
  8
ｴｸｽﾃﾘｱ商品
 62
   250
370
    20
100
AcDbVertex
100
AcDbPolyFaceMeshVertex
 10
911.0
 20
118.6602540378444
 30
169.0
 70
   192
  0
VERTEX
  5
265
330
12B
100
AcDbEntity
  8
ｴｸｽﾃﾘｱ商品
 62
   250
370
    20
100
AcDbVertex
100
AcDbPolyFaceMeshVertex
 10
908.5881904510252
 20
119.6592582628907
 30
169.0
 70
   192
  0
VERTEX
  5
266
330
12B
100
AcDbEntity
  8
ｴｸｽﾃﾘｱ商品
 62
   250
370
    20
100
AcDbVertex
100
AcDbPolyFaceMeshVertex
 10
906.0
 20
120.0
 30
169.0
 70
   192
  0
VERTEX
  5
267
330
12B
100
AcDbEntity
  8
ｴｸｽﾃﾘｱ商品
 62
   250
370
    20
100
AcDbVertex
100
AcDbPolyFaceMeshVertex
 10
903.4118095489748
 20
119.6592582628907
 30
169.0
 70
   192
  0
VERTEX
  5
268
330
12B
100
AcDbEntity
  8
ｴｸｽﾃﾘｱ商品
 62
   250
370
    20
100
AcDbVertex
100
AcDbPolyFaceMeshVertex
 10
901.0
 20
118.6602540378444
 30
169.0
 70
   192
  0
VERTEX
  5
269
330
12B
100
AcDbEntity
  8
ｴｸｽﾃﾘｱ商品
 62
   250
370
    20
100
AcDbVertex
100
AcDbPolyFaceMeshVertex
 10
898.9289321881345
 20
117.0710678118655
 30
169.0
 70
   192
  0
VERTEX
  5
26A
330
12B
100
AcDbEntity
  8
ｴｸｽﾃﾘｱ商品
 62
   250
370
    20
100
AcDbVertex
100
AcDbPolyFaceMeshVertex
 10
897.3397459621556
 20
115.0
 30
169.0
 70
   192
  0
VERTEX
  5
26B
330
12B
100
AcDbEntity
  8
ｴｸｽﾃﾘｱ商品
 62
   250
370
    20
100
AcDbVertex
100
AcDbPolyFaceMeshVertex
 10
896.3407417371093
 20
112.5881904510252
 30
169.0
 70
   192
  0
VERTEX
  5
26C
330
12B
100
AcDbEntity
  8
ｴｸｽﾃﾘｱ商品
 62
   250
370
    20
100
AcDbVertex
100
AcDbPolyFaceMeshVertex
 10
896.0
 20
110.0
 30
169.0
 70
   192
  0
VERTEX
  5
26D
330
12B
100
AcDbEntity
  8
ｴｸｽﾃﾘｱ商品
 62
   250
370
    20
100
AcDbVertex
100
AcDbPolyFaceMeshVertex
 10
986.0
 20
105.0
 30
129.0
 70
   192
  0
VERTEX
  5
26E
330
12B
100
AcDbEntity
  8
ｴｸｽﾃﾘｱ商品
 62
   250
370
    20
100
AcDbVertex
100
AcDbPolyFaceMeshVertex
 10
986.0
 20
105.0
 30
169.0
 70
   192
  0
VERTEX
  5
26F
330
12B
100
AcDbEntity
  8
ｴｸｽﾃﾘｱ商品
 62
   250
370
    20
100
AcDbVertex
100
AcDbPolyFaceMeshVertex
 10
915.9999999999999
 20
105.0
 30
169.0
 70
   192
  0
VERTEX
  5
270
330
12B
100
AcDbEntity
  8
ｴｸｽﾃﾘｱ商品
 62
   250
370
    20
100
AcDbVertex
100
AcDbPolyFaceMeshVertex
 10
915.9999999999999
 20
105.0
 30
129.0
 70
   192
  0
VERTEX
  5
271
330
12B
100
AcDbEntity
  8
ｴｸｽﾃﾘｱ商品
 62
   250
370
    20
100
AcDbVertex
100
AcDbPolyFaceMeshVertex
 10
915.9999999999999
 20
115.0
 30
169.0
 70
   192
  0
VERTEX
  5
272
330
12B
100
AcDbEntity
  8
ｴｸｽﾃﾘｱ商品
 62
   250
370
    20
100
AcDbVertex
100
AcDbPolyFaceMeshVertex
 10
915.9999999999999
 20
115.0
 30
129.0
 70
   192
  0
VERTEX
  5
273
330
12B
100
AcDbEntity
  8
ｴｸｽﾃﾘｱ商品
 62
   250
370
    20
100
AcDbVertex
100
AcDbPolyFaceMeshVertex
 10
930.9999999999999
 20
115.0
 30
169.0
 70
   192
  0
VERTEX
  5
274
330
12B
100
AcDbEntity
  8
ｴｸｽﾃﾘｱ商品
 62
   250
370
    20
100
AcDbVertex
100
AcDbPolyFaceMeshVertex
 10
930.9999999999999
 20
115.0
 30
129.0
 70
   192
  0
VERTEX
  5
275
330
12B
100
AcDbEntity
  8
ｴｸｽﾃﾘｱ商品
 62
   250
370
    20
100
AcDbVertex
100
AcDbPolyFaceMeshVertex
 10
930.9999999999999
 20
130.0
 30
169.0
 70
   192
  0
VERTEX
  5
276
330
12B
100
AcDbEntity
  8
ｴｸｽﾃﾘｱ商品
 62
   250
370
    20
100
AcDbVertex
100
AcDbPolyFaceMeshVertex
 10
930.9999999999999
 20
130.0
 30
129.0
 70
   192
  0
VERTEX
  5
277
330
12B
100
AcDbEntity
  8
ｴｸｽﾃﾘｱ商品
 62
   250
370
    20
100
AcDbVertex
100
AcDbPolyFaceMeshVertex
 10
968.602
 20
130.0
 30
169.0
 70
   192
  0
VERTEX
  5
278
330
12B
100
AcDbEntity
  8
ｴｸｽﾃﾘｱ商品
 62
   250
370
    20
100
AcDbVertex
100
AcDbPolyFaceMeshVertex
 10
968.602
 20
130.0
 30
129.0
 70
   192
  0
VERTEX
  5
279
330
12B
100
AcDbEntity
  8
ｴｸｽﾃﾘｱ商品
 62
   250
370
    20
100
AcDbVertex
100
AcDbPolyFaceMeshVertex
 10
986.0
 20
122.608
 30
169.0
 70
   192
  0
VERTEX
  5
27A
330
12B
100
AcDbEntity
  8
ｴｸｽﾃﾘｱ商品
 62
   250
370
    20
100
AcDbVertex
100
AcDbPolyFaceMeshVertex
 10
986.0
 20
122.608
 30
129.0
 70
   192
  0
VERTEX
  5
27B
330
12B
100
AcDbEntity
  8
ｴｸｽﾃﾘｱ商品
 62
   250
370
    20
100
AcDbVertex
100
AcDbPolyFaceMeshVertex
 10
980.226
 20
105.0
 30
119.0
 70
   192
  0
VERTEX
  5
27C
330
12B
100
AcDbEntity
  8
ｴｸｽﾃﾘｱ商品
 62
   250
370
    20
100
AcDbVertex
100
AcDbPolyFaceMeshVertex
 10
980.226
 20
100.0
 30
119.0
 70
   192
  0
VERTEX
  5
27D
330
12B
100
AcDbEntity
  8
ｴｸｽﾃﾘｱ商品
 62
   250
370
    20
100
AcDbVertex
100
AcDbPolyFaceMeshVertex
 10
936.774
 20
100.0
 30
119.0
 70
   192
  0
VERTEX
  5
27E
330
12B
100
AcDbEntity
  8
ｴｸｽﾃﾘｱ商品
 62
   250
370
    20
100
AcDbVertex
100
AcDbPolyFaceMeshVertex
 10
936.774
 20
105.0
 30
119.0
 70
   192
  0
VERTEX
  5
27F
330
12B
100
AcDbEntity
  8
ｴｸｽﾃﾘｱ商品
 62
   250
370
    20
100
AcDbVertex
100
AcDbPolyFaceMeshVertex
 10
930.9999999999999
 20
100.0
 30
129.0
 70
   192
  0
VERTEX
  5
280
330
12B
100
AcDbEntity
  8
ｴｸｽﾃﾘｱ商品
 62
   250
370
    20
100
AcDbVertex
100
AcDbPolyFaceMeshVertex
 10
930.9999999999999
 20
105.0
 30
129.0
 70
   192
  0
VERTEX
  5
281
330
12B
100
AcDbEntity
  8
ｴｸｽﾃﾘｱ商品
 62
   250
370
    20
100
AcDbVertex
100
AcDbPolyFaceMeshVertex
 10
930.9999999999999
 20
100.0
 30
169.0
 70
   192
  0
VERTEX
  5
282
330
12B
100
AcDbEntity
  8
ｴｸｽﾃﾘｱ商品
 62
   250
370
    20
100
AcDbVertex
100
AcDbPolyFaceMeshVertex
 10
930.9999999999999
 20
105.0
 30
169.0
 70
   192
  0
VERTEX
  5
283
330
12B
100
AcDbEntity
  8
ｴｸｽﾃﾘｱ商品
 62
   250
370
    20
100
AcDbVertex
100
AcDbPolyFaceMeshVertex
 10
936.774
 20
100.0
 30
179.0000000000001
 70
   192
  0
VERTEX
  5
284
330
12B
100
AcDbEntity
  8
ｴｸｽﾃﾘｱ商品
 62
   250
370
    20
100
AcDbVertex
100
AcDbPolyFaceMeshVertex
 10
936.774
 20
105.0
 30
179.0000000000001
 70
   192
  0
VERTEX
  5
285
330
12B
100
AcDbEntity
  8
ｴｸｽﾃﾘｱ商品
 62
   250
370
    20
100
AcDbVertex
100
AcDbPolyFaceMeshVertex
 10
980.226
 20
100.0
 30
179.0000000000001
 70
   192
  0
VERTEX
  5
286
330
12B
100
AcDbEntity
  8
ｴｸｽﾃﾘｱ商品
 62
   250
370
    20
100
AcDbVertex
100
AcDbPolyFaceMeshVertex
 10
980.226
 20
105.0
 30
179.0000000000001
 70
   192
  0
VERTEX
  5
287
330
12B
100
AcDbEntity
  8
ｴｸｽﾃﾘｱ商品
 62
   250
370
    20
100
AcDbVertex
100
AcDbPolyFaceMeshVertex
 10
986.0
 20
100.0
 30
169.0
 70
   192
  0
VERTEX
  5
288
330
12B
100
AcDbEntity
  8
ｴｸｽﾃﾘｱ商品
 62
   250
370
    20
100
AcDbVertex
100
AcDbPolyFaceMeshVertex
 10
986.0
 20
105.0
 30
169.0
 70
   192
  0
VERTEX
  5
289
330
12B
100
AcDbEntity
  8
ｴｸｽﾃﾘｱ商品
 62
   250
370
    20
100
AcDbVertex
100
AcDbPolyFaceMeshVertex
 10
986.0
 20
100.0
 30
129.0
 70
   192
  0
VERTEX
  5
28A
330
12B
100
AcDbEntity
  8
ｴｸｽﾃﾘｱ商品
 62
   250
370
    20
100
AcDbVertex
100
AcDbPolyFaceMeshVertex
 10
986.0
 20
105.0
 30
129.0
 70
   192
  0
VERTEX
  5
28B
330
12B
100
AcDbEntity
  8
ｴｸｽﾃﾘｱ商品
 62
   250
370
    20
100
AcDbVertex
100
AcDbPolyFaceMeshVertex
 10
896.3407417371093
 20
107.4118095489748
 30
1739.0
 70
   192
  0
VERTEX
  5
28C
330
12B
100
AcDbEntity
  8
ｴｸｽﾃﾘｱ商品
 62
   250
370
    20
100
AcDbVertex
100
AcDbPolyFaceMeshVertex
 10
896.0
 20
110.0
 30
1739.0
 70
   192
  0
VERTEX
  5
28D
330
12B
100
AcDbEntity
  8
ｴｸｽﾃﾘｱ商品
 62
   250
370
    20
100
AcDbVertex
100
AcDbPolyFaceMeshVertex
 10
896.3407417371093
 20
112.5881904510252
 30
1739.0
 70
   192
  0
VERTEX
  5
28E
330
12B
100
AcDbEntity
  8
ｴｸｽﾃﾘｱ商品
 62
   250
370
    20
100
AcDbVertex
100
AcDbPolyFaceMeshVertex
 10
897.3397459621556
 20
115.0
 30
1739.0
 70
   192
  0
VERTEX
  5
28F
330
12B
100
AcDbEntity
  8
ｴｸｽﾃﾘｱ商品
 62
   250
370
    20
100
AcDbVertex
100
AcDbPolyFaceMeshVertex
 10
898.9289321881345
 20
117.0710678118655
 30
1739.0
 70
   192
  0
VERTEX
  5
290
330
12B
100
AcDbEntity
  8
ｴｸｽﾃﾘｱ商品
 62
   250
370
    20
100
AcDbVertex
100
AcDbPolyFaceMeshVertex
 10
901.0
 20
118.6602540378444
 30
1739.0
 70
   192
  0
VERTEX
  5
291
330
12B
100
AcDbEntity
  8
ｴｸｽﾃﾘｱ商品
 62
   250
370
    20
100
AcDbVertex
100
AcDbPolyFaceMeshVertex
 10
903.4118095489748
 20
119.6592582628907
 30
1739.0
 70
   192
  0
VERTEX
  5
292
330
12B
100
AcDbEntity
  8
ｴｸｽﾃﾘｱ商品
 62
   250
370
    20
100
AcDbVertex
100
AcDbPolyFaceMeshVertex
 10
906.0
 20
120.0
 30
1739.0
 70
   192
  0
VERTEX
  5
293
330
12B
100
AcDbEntity
  8
ｴｸｽﾃﾘｱ商品
 62
   250
370
    20
100
AcDbVertex
100
AcDbPolyFaceMeshVertex
 10
908.5881904510252
 20
119.6592582628907
 30
1739.0
 70
   192
  0
VERTEX
  5
294
330
12B
100
AcDbEntity
  8
ｴｸｽﾃﾘｱ商品
 62
   250
370
    20
100
AcDbVertex
100
AcDbPolyFaceMeshVertex
 10
911.0
 20
118.6602540378444
 30
1739.0
 70
   192
  0
VERTEX
  5
295
330
12B
100
AcDbEntity
  8
ｴｸｽﾃﾘｱ商品
 62
   250
370
    20
100
AcDbVertex
100
AcDbPolyFaceMeshVertex
 10
913.0710678118655
 20
117.0710678118655
 30
1739.0
 70
   192
  0
VERTEX
  5
296
330
12B
100
AcDbEntity
  8
ｴｸｽﾃﾘｱ商品
 62
   250
370
    20
100
AcDbVertex
100
AcDbPolyFaceMeshVertex
 10
914.6602540378444
 20
115.0
 30
1739.0
 70
   192
  0
VERTEX
  5
297
330
12B
100
AcDbEntity
  8
ｴｸｽﾃﾘｱ商品
 62
   250
370
    20
100
AcDbVertex
100
AcDbPolyFaceMeshVertex
 10
915.6592582628907
 20
112.5881904510252
 30
1739.0
 70
   192
  0
VERTEX
  5
298
330
12B
100
AcDbEntity
  8
ｴｸｽﾃﾘｱ商品
 62
   250
370
    20
100
AcDbVertex
100
AcDbPolyFaceMeshVertex
 10
916.0
 20
110.0
 30
1739.0
 70
   192
  0
VERTEX
  5
299
330
12B
100
AcDbEntity
  8
ｴｸｽﾃﾘｱ商品
 62
   250
370
    20
100
AcDbVertex
100
AcDbPolyFaceMeshVertex
 10
915.6592582628907
 20
107.4118095489748
 30
1739.0
 70
   192
  0
VERTEX
  5
29A
330
12B
100
AcDbEntity
  8
ｴｸｽﾃﾘｱ商品
 62
   250
370
    20
100
AcDbVertex
100
AcDbPolyFaceMeshVertex
 10
914.6602540378444
 20
105.0
 30
1739.0
 70
   192
  0
VERTEX
  5
29B
330
12B
100
AcDbEntity
  8
ｴｸｽﾃﾘｱ商品
 62
   250
370
    20
100
AcDbVertex
100
AcDbPolyFaceMeshVertex
 10
913.0710678118655
 20
102.9289321881345
 30
1739.0
 70
   192
  0
VERTEX
  5
29C
330
12B
100
AcDbEntity
  8
ｴｸｽﾃﾘｱ商品
 62
   250
370
    20
100
AcDbVertex
100
AcDbPolyFaceMeshVertex
 10
911.0
 20
101.3397459621556
 30
1739.0
 70
   192
  0
VERTEX
  5
29D
330
12B
100
AcDbEntity
  8
ｴｸｽﾃﾘｱ商品
 62
   250
370
    20
100
AcDbVertex
100
AcDbPolyFaceMeshVertex
 10
908.5881904510252
 20
100.3407417371093
 30
1739.0
 70
   192
  0
VERTEX
  5
29E
330
12B
100
AcDbEntity
  8
ｴｸｽﾃﾘｱ商品
 62
   250
370
    20
100
AcDbVertex
100
AcDbPolyFaceMeshVertex
 10
906.0
 20
100.0
 30
1739.0
 70
   192
  0
VERTEX
  5
29F
330
12B
100
AcDbEntity
  8
ｴｸｽﾃﾘｱ商品
 62
   250
370
    20
100
AcDbVertex
100
AcDbPolyFaceMeshVertex
 10
903.4118095489748
 20
100.3407417371093
 30
1739.0
 70
   192
  0
VERTEX
  5
2A0
330
12B
100
AcDbEntity
  8
ｴｸｽﾃﾘｱ商品
 62
   250
370
    20
100
AcDbVertex
100
AcDbPolyFaceMeshVertex
 10
901.0
 20
101.3397459621556
 30
1739.0
 70
   192
  0
VERTEX
  5
2A1
330
12B
100
AcDbEntity
  8
ｴｸｽﾃﾘｱ商品
 62
   250
370
    20
100
AcDbVertex
100
AcDbPolyFaceMeshVertex
 10
898.9289321881345
 20
102.9289321881345
 30
1739.0
 70
   192
  0
VERTEX
  5
2A2
330
12B
100
AcDbEntity
  8
ｴｸｽﾃﾘｱ商品
 62
   250
370
    20
100
AcDbVertex
100
AcDbPolyFaceMeshVertex
 10
897.3397459621556
 20
105.0
 30
1739.0
 70
   192
  0
VERTEX
  5
2A3
330
12B
100
AcDbEntity
  8
ｴｸｽﾃﾘｱ商品
 62
   250
370
    20
100
AcDbVertex
100
AcDbPolyFaceMeshVertex
 10
896.3407417371093
 20
107.4118095489748
 30
1789.0
 70
   192
  0
VERTEX
  5
2A4
330
12B
100
AcDbEntity
  8
ｴｸｽﾃﾘｱ商品
 62
   250
370
    20
100
AcDbVertex
100
AcDbPolyFaceMeshVertex
 10
897.3397459621556
 20
105.0
 30
1789.0
 70
   192
  0
VERTEX
  5
2A5
330
12B
100
AcDbEntity
  8
ｴｸｽﾃﾘｱ商品
 62
   250
370
    20
100
AcDbVertex
100
AcDbPolyFaceMeshVertex
 10
898.9289321881345
 20
102.9289321881345
 30
1789.0
 70
   192
  0
VERTEX
  5
2A6
330
12B
100
AcDbEntity
  8
ｴｸｽﾃﾘｱ商品
 62
   250
370
    20
100
AcDbVertex
100
AcDbPolyFaceMeshVertex
 10
901.0
 20
101.3397459621556
 30
1789.0
 70
   192
  0
VERTEX
  5
2A7
330
12B
100
AcDbEntity
  8
ｴｸｽﾃﾘｱ商品
 62
   250
370
    20
100
AcDbVertex
100
AcDbPolyFaceMeshVertex
 10
903.4118095489748
 20
100.3407417371093
 30
1789.0
 70
   192
  0
VERTEX
  5
2A8
330
12B
100
AcDbEntity
  8
ｴｸｽﾃﾘｱ商品
 62
   250
370
    20
100
AcDbVertex
100
AcDbPolyFaceMeshVertex
 10
906.0
 20
100.0
 30
1789.0
 70
   192
  0
VERTEX
  5
2A9
330
12B
100
AcDbEntity
  8
ｴｸｽﾃﾘｱ商品
 62
   250
370
    20
100
AcDbVertex
100
AcDbPolyFaceMeshVertex
 10
908.5881904510252
 20
100.3407417371093
 30
1789.0
 70
   192
  0
VERTEX
  5
2AA
330
12B
100
AcDbEntity
  8
ｴｸｽﾃﾘｱ商品
 62
   250
370
    20
100
AcDbVertex
100
AcDbPolyFaceMeshVertex
 10
911.0
 20
101.3397459621556
 30
1789.0
 70
   192
  0
VERTEX
  5
2AB
330
12B
100
AcDbEntity
  8
ｴｸｽﾃﾘｱ商品
 62
   250
370
    20
100
AcDbVertex
100
AcDbPolyFaceMeshVertex
 10
913.0710678118655
 20
102.9289321881345
 30
1789.0
 70
   192
  0
VERTEX
  5
2AC
330
12B
100
AcDbEntity
  8
ｴｸｽﾃﾘｱ商品
 62
   250
370
    20
100
AcDbVertex
100
AcDbPolyFaceMeshVertex
 10
914.6602540378444
 20
105.0
 30
1789.0
 70
   192
  0
VERTEX
  5
2AD
330
12B
100
AcDbEntity
  8
ｴｸｽﾃﾘｱ商品
 62
   250
370
    20
100
AcDbVertex
100
AcDbPolyFaceMeshVertex
 10
915.6592582628907
 20
107.4118095489748
 30
1789.0
 70
   192
  0
VERTEX
  5
2AE
330
12B
100
AcDbEntity
  8
ｴｸｽﾃﾘｱ商品
 62
   250
370
    20
100
AcDbVertex
100
AcDbPolyFaceMeshVertex
 10
916.0
 20
110.0
 30
1789.0
 70
   192
  0
VERTEX
  5
2AF
330
12B
100
AcDbEntity
  8
ｴｸｽﾃﾘｱ商品
 62
   250
370
    20
100
AcDbVertex
100
AcDbPolyFaceMeshVertex
 10
915.6592582628907
 20
112.5881904510252
 30
1789.0
 70
   192
  0
VERTEX
  5
2B0
330
12B
100
AcDbEntity
  8
ｴｸｽﾃﾘｱ商品
 62
   250
370
    20
100
AcDbVertex
100
AcDbPolyFaceMeshVertex
 10
914.6602540378444
 20
115.0
 30
1789.0
 70
   192
  0
VERTEX
  5
2B1
330
12B
100
AcDbEntity
  8
ｴｸｽﾃﾘｱ商品
 62
   250
370
    20
100
AcDbVertex
100
AcDbPolyFaceMeshVertex
 10
913.0710678118655
 20
117.0710678118655
 30
1789.0
 70
   192
  0
VERTEX
  5
2B2
330
12B
100
AcDbEntity
  8
ｴｸｽﾃﾘｱ商品
 62
   250
370
    20
100
AcDbVertex
100
AcDbPolyFaceMeshVertex
 10
911.0
 20
118.6602540378444
 30
1789.0
 70
   192
  0
VERTEX
  5
2B3
330
12B
100
AcDbEntity
  8
ｴｸｽﾃﾘｱ商品
 62
   250
370
    20
100
AcDbVertex
100
AcDbPolyFaceMeshVertex
 10
908.5881904510252
 20
119.6592582628907
 30
1789.0
 70
   192
  0
VERTEX
  5
2B4
330
12B
100
AcDbEntity
  8
ｴｸｽﾃﾘｱ商品
 62
   250
370
    20
100
AcDbVertex
100
AcDbPolyFaceMeshVertex
 10
906.0
 20
120.0
 30
1789.0
 70
   192
  0
VERTEX
  5
2B5
330
12B
100
AcDbEntity
  8
ｴｸｽﾃﾘｱ商品
 62
   250
370
    20
100
AcDbVertex
100
AcDbPolyFaceMeshVertex
 10
903.4118095489748
 20
119.6592582628907
 30
1789.0
 70
   192
  0
VERTEX
  5
2B6
330
12B
100
AcDbEntity
  8
ｴｸｽﾃﾘｱ商品
 62
   250
370
    20
100
AcDbVertex
100
AcDbPolyFaceMeshVertex
 10
901.0
 20
118.6602540378444
 30
1789.0
 70
   192
  0
VERTEX
  5
2B7
330
12B
100
AcDbEntity
  8
ｴｸｽﾃﾘｱ商品
 62
   250
370
    20
100
AcDbVertex
100
AcDbPolyFaceMeshVertex
 10
898.9289321881345
 20
117.0710678118655
 30
1789.0
 70
   192
  0
VERTEX
  5
2B8
330
12B
100
AcDbEntity
  8
ｴｸｽﾃﾘｱ商品
 62
   250
370
    20
100
AcDbVertex
100
AcDbPolyFaceMeshVertex
 10
897.3397459621556
 20
115.0
 30
1789.0
 70
   192
  0
VERTEX
  5
2B9
330
12B
100
AcDbEntity
  8
ｴｸｽﾃﾘｱ商品
 62
   250
370
    20
100
AcDbVertex
100
AcDbPolyFaceMeshVertex
 10
896.3407417371093
 20
112.5881904510252
 30
1789.0
 70
   192
  0
VERTEX
  5
2BA
330
12B
100
AcDbEntity
  8
ｴｸｽﾃﾘｱ商品
 62
   250
370
    20
100
AcDbVertex
100
AcDbPolyFaceMeshVertex
 10
896.0
 20
110.0
 30
1789.0
 70
   192
  0
VERTEX
  5
2BB
330
12B
100
AcDbEntity
  8
ｴｸｽﾃﾘｱ商品
 62
   250
370
    20
100
AcDbVertex
100
AcDbPolyFaceMeshVertex
 10
896.3407417371093
 20
107.4118095489748
 30
1699.0
 70
   192
  0
VERTEX
  5
2BC
330
12B
100
AcDbEntity
  8
ｴｸｽﾃﾘｱ商品
 62
   250
370
    20
100
AcDbVertex
100
AcDbPolyFaceMeshVertex
 10
896.0
 20
110.0
 30
1699.0
 70
   192
  0
VERTEX
  5
2BD
330
12B
100
AcDbEntity
  8
ｴｸｽﾃﾘｱ商品
 62
   250
370
    20
100
AcDbVertex
100
AcDbPolyFaceMeshVertex
 10
896.3407417371093
 20
112.5881904510252
 30
1699.0
 70
   192
  0
VERTEX
  5
2BE
330
12B
100
AcDbEntity
  8
ｴｸｽﾃﾘｱ商品
 62
   250
370
    20
100
AcDbVertex
100
AcDbPolyFaceMeshVertex
 10
897.3397459621556
 20
115.0
 30
1699.0
 70
   192
  0
VERTEX
  5
2BF
330
12B
100
AcDbEntity
  8
ｴｸｽﾃﾘｱ商品
 62
   250
370
    20
100
AcDbVertex
100
AcDbPolyFaceMeshVertex
 10
898.9289321881345
 20
117.0710678118655
 30
1699.0
 70
   192
  0
VERTEX
  5
2C0
330
12B
100
AcDbEntity
  8
ｴｸｽﾃﾘｱ商品
 62
   250
370
    20
100
AcDbVertex
100
AcDbPolyFaceMeshVertex
 10
901.0
 20
118.6602540378444
 30
1699.0
 70
   192
  0
VERTEX
  5
2C1
330
12B
100
AcDbEntity
  8
ｴｸｽﾃﾘｱ商品
 62
   250
370
    20
100
AcDbVertex
100
AcDbPolyFaceMeshVertex
 10
903.4118095489748
 20
119.6592582628907
 30
1699.0
 70
   192
  0
VERTEX
  5
2C2
330
12B
100
AcDbEntity
  8
ｴｸｽﾃﾘｱ商品
 62
   250
370
    20
100
AcDbVertex
100
AcDbPolyFaceMeshVertex
 10
906.0
 20
120.0
 30
1699.0
 70
   192
  0
VERTEX
  5
2C3
330
12B
100
AcDbEntity
  8
ｴｸｽﾃﾘｱ商品
 62
   250
370
    20
100
AcDbVertex
100
AcDbPolyFaceMeshVertex
 10
908.5881904510252
 20
119.6592582628907
 30
1699.0
 70
   192
  0
VERTEX
  5
2C4
330
12B
100
AcDbEntity
  8
ｴｸｽﾃﾘｱ商品
 62
   250
370
    20
100
AcDbVertex
100
AcDbPolyFaceMeshVertex
 10
911.0
 20
118.6602540378444
 30
1699.0
 70
   192
  0
VERTEX
  5
2C5
330
12B
100
AcDbEntity
  8
ｴｸｽﾃﾘｱ商品
 62
   250
370
    20
100
AcDbVertex
100
AcDbPolyFaceMeshVertex
 10
913.0710678118655
 20
117.0710678118655
 30
1699.0
 70
   192
  0
VERTEX
  5
2C6
330
12B
100
AcDbEntity
  8
ｴｸｽﾃﾘｱ商品
 62
   250
370
    20
100
AcDbVertex
100
AcDbPolyFaceMeshVertex
 10
914.6602540378444
 20
115.0
 30
1699.0
 70
   192
  0
VERTEX
  5
2C7
330
12B
100
AcDbEntity
  8
ｴｸｽﾃﾘｱ商品
 62
   250
370
    20
100
AcDbVertex
100
AcDbPolyFaceMeshVertex
 10
915.6592582628907
 20
112.5881904510252
 30
1699.0
 70
   192
  0
VERTEX
  5
2C8
330
12B
100
AcDbEntity
  8
ｴｸｽﾃﾘｱ商品
 62
   250
370
    20
100
AcDbVertex
100
AcDbPolyFaceMeshVertex
 10
916.0
 20
110.0
 30
1699.0
 70
   192
  0
VERTEX
  5
2C9
330
12B
100
AcDbEntity
  8
ｴｸｽﾃﾘｱ商品
 62
   250
370
    20
100
AcDbVertex
100
AcDbPolyFaceMeshVertex
 10
915.6592582628907
 20
107.4118095489748
 30
1699.0
 70
   192
  0
VERTEX
  5
2CA
330
12B
100
AcDbEntity
  8
ｴｸｽﾃﾘｱ商品
 62
   250
370
    20
100
AcDbVertex
100
AcDbPolyFaceMeshVertex
 10
914.6602540378444
 20
105.0
 30
1699.0
 70
   192
  0
VERTEX
  5
2CB
330
12B
100
AcDbEntity
  8
ｴｸｽﾃﾘｱ商品
 62
   250
370
    20
100
AcDbVertex
100
AcDbPolyFaceMeshVertex
 10
913.0710678118655
 20
102.9289321881345
 30
1699.0
 70
   192
  0
VERTEX
  5
2CC
330
12B
100
AcDbEntity
  8
ｴｸｽﾃﾘｱ商品
 62
   250
370
    20
100
AcDbVertex
100
AcDbPolyFaceMeshVertex
 10
911.0
 20
101.3397459621556
 30
1699.0
 70
   192
  0
VERTEX
  5
2CD
330
12B
100
AcDbEntity
  8
ｴｸｽﾃﾘｱ商品
 62
   250
370
    20
100
AcDbVertex
100
AcDbPolyFaceMeshVertex
 10
908.5881904510252
 20
100.3407417371093
 30
1699.0
 70
   192
  0
VERTEX
  5
2CE
330
12B
100
AcDbEntity
  8
ｴｸｽﾃﾘｱ商品
 62
   250
370
    20
100
AcDbVertex
100
AcDbPolyFaceMeshVertex
 10
906.0
 20
100.0
 30
1699.0
 70
   192
  0
VERTEX
  5
2CF
330
12B
100
AcDbEntity
  8
ｴｸｽﾃﾘｱ商品
 62
   250
370
    20
100
AcDbVertex
100
AcDbPolyFaceMeshVertex
 10
903.4118095489748
 20
100.3407417371093
 30
1699.0
 70
   192
  0
VERTEX
  5
2D0
330
12B
100
AcDbEntity
  8
ｴｸｽﾃﾘｱ商品
 62
   250
370
    20
100
AcDbVertex
100
AcDbPolyFaceMeshVertex
 10
901.0
 20
101.3397459621556
 30
1699.0
 70
   192
  0
VERTEX
  5
2D1
330
12B
100
AcDbEntity
  8
ｴｸｽﾃﾘｱ商品
 62
   250
370
    20
100
AcDbVertex
100
AcDbPolyFaceMeshVertex
 10
898.9289321881345
 20
102.9289321881345
 30
1699.0
 70
   192
  0
VERTEX
  5
2D2
330
12B
100
AcDbEntity
  8
ｴｸｽﾃﾘｱ商品
 62
   250
370
    20
100
AcDbVertex
100
AcDbPolyFaceMeshVertex
 10
897.3397459621556
 20
105.0
 30
1699.0
 70
   192
  0
VERTEX
  5
2D3
330
12B
100
AcDbEntity
  8
ｴｸｽﾃﾘｱ商品
 62
   250
370
    20
100
AcDbVertex
100
AcDbPolyFaceMeshVertex
 10
896.3407417371093
 20
107.4118095489748
 30
1739.0
 70
   192
  0
VERTEX
  5
2D4
330
12B
100
AcDbEntity
  8
ｴｸｽﾃﾘｱ商品
 62
   250
370
    20
100
AcDbVertex
100
AcDbPolyFaceMeshVertex
 10
897.3397459621556
 20
105.0
 30
1739.0
 70
   192
  0
VERTEX
  5
2D5
330
12B
100
AcDbEntity
  8
ｴｸｽﾃﾘｱ商品
 62
   250
370
    20
100
AcDbVertex
100
AcDbPolyFaceMeshVertex
 10
898.9289321881345
 20
102.9289321881345
 30
1739.0
 70
   192
  0
VERTEX
  5
2D6
330
12B
100
AcDbEntity
  8
ｴｸｽﾃﾘｱ商品
 62
   250
370
    20
100
AcDbVertex
100
AcDbPolyFaceMeshVertex
 10
901.0
 20
101.3397459621556
 30
1739.0
 70
   192
  0
VERTEX
  5
2D7
330
12B
100
AcDbEntity
  8
ｴｸｽﾃﾘｱ商品
 62
   250
370
    20
100
AcDbVertex
100
AcDbPolyFaceMeshVertex
 10
903.4118095489748
 20
100.3407417371093
 30
1739.0
 70
   192
  0
VERTEX
  5
2D8
330
12B
100
AcDbEntity
  8
ｴｸｽﾃﾘｱ商品
 62
   250
370
    20
100
AcDbVertex
100
AcDbPolyFaceMeshVertex
 10
906.0
 20
100.0
 30
1739.0
 70
   192
  0
VERTEX
  5
2D9
330
12B
100
AcDbEntity
  8
ｴｸｽﾃﾘｱ商品
 62
   250
370
    20
100
AcDbVertex
100
AcDbPolyFaceMeshVertex
 10
908.5881904510252
 20
100.3407417371093
 30
1739.0
 70
   192
  0
VERTEX
  5
2DA
330
12B
100
AcDbEntity
  8
ｴｸｽﾃﾘｱ商品
 62
   250
370
    20
100
AcDbVertex
100
AcDbPolyFaceMeshVertex
 10
911.0
 20
101.3397459621556
 30
1739.0
 70
   192
  0
VERTEX
  5
2DB
330
12B
100
AcDbEntity
  8
ｴｸｽﾃﾘｱ商品
 62
   250
370
    20
100
AcDbVertex
100
AcDbPolyFaceMeshVertex
 10
913.0710678118655
 20
102.9289321881345
 30
1739.0
 70
   192
  0
VERTEX
  5
2DC
330
12B
100
AcDbEntity
  8
ｴｸｽﾃﾘｱ商品
 62
   250
370
    20
100
AcDbVertex
100
AcDbPolyFaceMeshVertex
 10
914.6602540378444
 20
105.0
 30
1739.0
 70
   192
  0
VERTEX
  5
2DD
330
12B
100
AcDbEntity
  8
ｴｸｽﾃﾘｱ商品
 62
   250
370
    20
100
AcDbVertex
100
AcDbPolyFaceMeshVertex
 10
915.6592582628907
 20
107.4118095489748
 30
1739.0
 70
   192
  0
VERTEX
  5
2DE
330
12B
100
AcDbEntity
  8
ｴｸｽﾃﾘｱ商品
 62
   250
370
    20
100
AcDbVertex
100
AcDbPolyFaceMeshVertex
 10
916.0
 20
110.0
 30
1739.0
 70
   192
  0
VERTEX
  5
2DF
330
12B
100
AcDbEntity
  8
ｴｸｽﾃﾘｱ商品
 62
   250
370
    20
100
AcDbVertex
100
AcDbPolyFaceMeshVertex
 10
915.6592582628907
 20
112.5881904510252
 30
1739.0
 70
   192
  0
VERTEX
  5
2E0
330
12B
100
AcDbEntity
  8
ｴｸｽﾃﾘｱ商品
 62
   250
370
    20
100
AcDbVertex
100
AcDbPolyFaceMeshVertex
 10
914.6602540378444
 20
115.0
 30
1739.0
 70
   192
  0
VERTEX
  5
2E1
330
12B
100
AcDbEntity
  8
ｴｸｽﾃﾘｱ商品
 62
   250
370
    20
100
AcDbVertex
100
AcDbPolyFaceMeshVertex
 10
913.0710678118655
 20
117.0710678118655
 30
1739.0
 70
   192
  0
VERTEX
  5
2E2
330
12B
100
AcDbEntity
  8
ｴｸｽﾃﾘｱ商品
 62
   250
370
    20
100
AcDbVertex
100
AcDbPolyFaceMeshVertex
 10
911.0
 20
118.6602540378444
 30
1739.0
 70
   192
  0
VERTEX
  5
2E3
330
12B
100
AcDbEntity
  8
ｴｸｽﾃﾘｱ商品
 62
   250
370
    20
100
AcDbVertex
100
AcDbPolyFaceMeshVertex
 10
908.5881904510252
 20
119.6592582628907
 30
1739.0
 70
   192
  0
VERTEX
  5
2E4
330
12B
100
AcDbEntity
  8
ｴｸｽﾃﾘｱ商品
 62
   250
370
    20
100
AcDbVertex
100
AcDbPolyFaceMeshVertex
 10
906.0
 20
120.0
 30
1739.0
 70
   192
  0
VERTEX
  5
2E5
330
12B
100
AcDbEntity
  8
ｴｸｽﾃﾘｱ商品
 62
   250
370
    20
100
AcDbVertex
100
AcDbPolyFaceMeshVertex
 10
903.4118095489748
 20
119.6592582628907
 30
1739.0
 70
   192
  0
VERTEX
  5
2E6
330
12B
100
AcDbEntity
  8
ｴｸｽﾃﾘｱ商品
 62
   250
370
    20
100
AcDbVertex
100
AcDbPolyFaceMeshVertex
 10
901.0
 20
118.6602540378444
 30
1739.0
 70
   192
  0
VERTEX
  5
2E7
330
12B
100
AcDbEntity
  8
ｴｸｽﾃﾘｱ商品
 62
   250
370
    20
100
AcDbVertex
100
AcDbPolyFaceMeshVertex
 10
898.9289321881345
 20
117.0710678118655
 30
1739.0
 70
   192
  0
VERTEX
  5
2E8
330
12B
100
AcDbEntity
  8
ｴｸｽﾃﾘｱ商品
 62
   250
370
    20
100
AcDbVertex
100
AcDbPolyFaceMeshVertex
 10
897.3397459621556
 20
115.0
 30
1739.0
 70
   192
  0
VERTEX
  5
2E9
330
12B
100
AcDbEntity
  8
ｴｸｽﾃﾘｱ商品
 62
   250
370
    20
100
AcDbVertex
100
AcDbPolyFaceMeshVertex
 10
896.3407417371093
 20
112.5881904510252
 30
1739.0
 70
   192
  0
VERTEX
  5
2EA
330
12B
100
AcDbEntity
  8
ｴｸｽﾃﾘｱ商品
 62
   250
370
    20
100
AcDbVertex
100
AcDbPolyFaceMeshVertex
 10
896.0
 20
110.0
 30
1739.0
 70
   192
  0
VERTEX
  5
2EB
330
12B
100
AcDbEntity
  8
ｴｸｽﾃﾘｱ商品
 62
   250
370
    20
100
AcDbVertex
100
AcDbPolyFaceMeshVertex
 10
986.0
 20
105.0
 30
1699.0
 70
   192
  0
VERTEX
  5
2EC
330
12B
100
AcDbEntity
  8
ｴｸｽﾃﾘｱ商品
 62
   250
370
    20
100
AcDbVertex
100
AcDbPolyFaceMeshVertex
 10
986.0
 20
105.0
 30
1739.0
 70
   192
  0
VERTEX
  5
2ED
330
12B
100
AcDbEntity
  8
ｴｸｽﾃﾘｱ商品
 62
   250
370
    20
100
AcDbVertex
100
AcDbPolyFaceMeshVertex
 10
915.9999999999999
 20
105.0
 30
1739.0
 70
   192
  0
VERTEX
  5
2EE
330
12B
100
AcDbEntity
  8
ｴｸｽﾃﾘｱ商品
 62
   250
370
    20
100
AcDbVertex
100
AcDbPolyFaceMeshVertex
 10
915.9999999999999
 20
105.0
 30
1699.0
 70
   192
  0
VERTEX
  5
2EF
330
12B
100
AcDbEntity
  8
ｴｸｽﾃﾘｱ商品
 62
   250
370
    20
100
AcDbVertex
100
AcDbPolyFaceMeshVertex
 10
915.9999999999999
 20
115.0
 30
1739.0
 70
   192
  0
VERTEX
  5
2F0
330
12B
100
AcDbEntity
  8
ｴｸｽﾃﾘｱ商品
 62
   250
370
    20
100
AcDbVertex
100
AcDbPolyFaceMeshVertex
 10
915.9999999999999
 20
115.0
 30
1699.0
 70
   192
  0
VERTEX
  5
2F1
330
12B
100
AcDbEntity
  8
ｴｸｽﾃﾘｱ商品
 62
   250
370
    20
100
AcDbVertex
100
AcDbPolyFaceMeshVertex
 10
930.9999999999999
 20
115.0
 30
1739.0
 70
   192
  0
VERTEX
  5
2F2
330
12B
100
AcDbEntity
  8
ｴｸｽﾃﾘｱ商品
 62
   250
370
    20
100
AcDbVertex
100
AcDbPolyFaceMeshVertex
 10
930.9999999999999
 20
115.0
 30
1699.0
 70
   192
  0
VERTEX
  5
2F3
330
12B
100
AcDbEntity
  8
ｴｸｽﾃﾘｱ商品
 62
   250
370
    20
100
AcDbVertex
100
AcDbPolyFaceMeshVertex
 10
930.9999999999999
 20
130.0
 30
1739.0
 70
   192
  0
VERTEX
  5
2F4
330
12B
100
AcDbEntity
  8
ｴｸｽﾃﾘｱ商品
 62
   250
370
    20
100
AcDbVertex
100
AcDbPolyFaceMeshVertex
 10
930.9999999999999
 20
130.0
 30
1699.0
 70
   192
  0
VERTEX
  5
2F5
330
12B
100
AcDbEntity
  8
ｴｸｽﾃﾘｱ商品
 62
   250
370
    20
100
AcDbVertex
100
AcDbPolyFaceMeshVertex
 10
968.602
 20
130.0
 30
1739.0
 70
   192
  0
VERTEX
  5
2F6
330
12B
100
AcDbEntity
  8
ｴｸｽﾃﾘｱ商品
 62
   250
370
    20
100
AcDbVertex
100
AcDbPolyFaceMeshVertex
 10
968.602
 20
130.0
 30
1699.0
 70
   192
  0
VERTEX
  5
2F7
330
12B
100
AcDbEntity
  8
ｴｸｽﾃﾘｱ商品
 62
   250
370
    20
100
AcDbVertex
100
AcDbPolyFaceMeshVertex
 10
986.0
 20
122.608
 30
1739.0
 70
   192
  0
VERTEX
  5
2F8
330
12B
100
AcDbEntity
  8
ｴｸｽﾃﾘｱ商品
 62
   250
370
    20
100
AcDbVertex
100
AcDbPolyFaceMeshVertex
 10
986.0
 20
122.608
 30
1699.0
 70
   192
  0
VERTEX
  5
2F9
330
12B
100
AcDbEntity
  8
ｴｸｽﾃﾘｱ商品
 62
   250
370
    20
100
AcDbVertex
100
AcDbPolyFaceMeshVertex
 10
980.226
 20
105.0
 30
1689.0
 70
   192
  0
VERTEX
  5
2FA
330
12B
100
AcDbEntity
  8
ｴｸｽﾃﾘｱ商品
 62
   250
370
    20
100
AcDbVertex
100
AcDbPolyFaceMeshVertex
 10
980.226
 20
100.0
 30
1689.0
 70
   192
  0
VERTEX
  5
2FB
330
12B
100
AcDbEntity
  8
ｴｸｽﾃﾘｱ商品
 62
   250
370
    20
100
AcDbVertex
100
AcDbPolyFaceMeshVertex
 10
936.774
 20
100.0
 30
1689.0
 70
   192
  0
VERTEX
  5
2FC
330
12B
100
AcDbEntity
  8
ｴｸｽﾃﾘｱ商品
 62
   250
370
    20
100
AcDbVertex
100
AcDbPolyFaceMeshVertex
 10
936.774
 20
105.0
 30
1689.0
 70
   192
  0
VERTEX
  5
2FD
330
12B
100
AcDbEntity
  8
ｴｸｽﾃﾘｱ商品
 62
   250
370
    20
100
AcDbVertex
100
AcDbPolyFaceMeshVertex
 10
930.9999999999999
 20
100.0
 30
1699.0
 70
   192
  0
VERTEX
  5
2FE
330
12B
100
AcDbEntity
  8
ｴｸｽﾃﾘｱ商品
 62
   250
370
    20
100
AcDbVertex
100
AcDbPolyFaceMeshVertex
 10
930.9999999999999
 20
105.0
 30
1699.0
 70
   192
  0
VERTEX
  5
2FF
330
12B
100
AcDbEntity
  8
ｴｸｽﾃﾘｱ商品
 62
   250
370
    20
100
AcDbVertex
100
AcDbPolyFaceMeshVertex
 10
930.9999999999999
 20
100.0
 30
1739.0
 70
   192
  0
VERTEX
  5
300
330
12B
100
AcDbEntity
  8
ｴｸｽﾃﾘｱ商品
 62
   250
370
    20
100
AcDbVertex
100
AcDbPolyFaceMeshVertex
 10
930.9999999999999
 20
105.0
 30
1739.0
 70
   192
  0
VERTEX
  5
301
330
12B
100
AcDbEntity
  8
ｴｸｽﾃﾘｱ商品
 62
   250
370
    20
100
AcDbVertex
100
AcDbPolyFaceMeshVertex
 10
936.774
 20
100.0
 30
1749.0
 70
   192
  0
VERTEX
  5
302
330
12B
100
AcDbEntity
  8
ｴｸｽﾃﾘｱ商品
 62
   250
370
    20
100
AcDbVertex
100
AcDbPolyFaceMeshVertex
 10
936.774
 20
105.0
 30
1749.0
 70
   192
  0
VERTEX
  5
303
330
12B
100
AcDbEntity
  8
ｴｸｽﾃﾘｱ商品
 62
   250
370
    20
100
AcDbVertex
100
AcDbPolyFaceMeshVertex
 10
980.226
 20
100.0
 30
1749.0
 70
   192
  0
VERTEX
  5
304
330
12B
100
AcDbEntity
  8
ｴｸｽﾃﾘｱ商品
 62
   250
370
    20
100
AcDbVertex
100
AcDbPolyFaceMeshVertex
 10
980.226
 20
105.0
 30
1749.0
 70
   192
  0
VERTEX
  5
305
330
12B
100
AcDbEntity
  8
ｴｸｽﾃﾘｱ商品
 62
   250
370
    20
100
AcDbVertex
100
AcDbPolyFaceMeshVertex
 10
986.0
 20
100.0
 30
1739.0
 70
   192
  0
VERTEX
  5
306
330
12B
100
AcDbEntity
  8
ｴｸｽﾃﾘｱ商品
 62
   250
370
    20
100
AcDbVertex
100
AcDbPolyFaceMeshVertex
 10
986.0
 20
105.0
 30
1739.0
 70
   192
  0
VERTEX
  5
307
330
12B
100
AcDbEntity
  8
ｴｸｽﾃﾘｱ商品
 62
   250
370
    20
100
AcDbVertex
100
AcDbPolyFaceMeshVertex
 10
986.0
 20
100.0
 30
1699.0
 70
   192
  0
VERTEX
  5
308
330
12B
100
AcDbEntity
  8
ｴｸｽﾃﾘｱ商品
 62
   250
370
    20
100
AcDbVertex
100
AcDbPolyFaceMeshVertex
 10
986.0
 20
105.0
 30
1699.0
 70
   192
  0
VERTEX
  5
309
330
12B
100
AcDbEntity
  8
ｴｸｽﾃﾘｱ商品
 62
   250
370
    20
100
AcDbFaceRecord
 10
0.0
 20
0.0
 30
0.0
 70
   128
 71
     1
 72
     2
 73
     3
 74
     4
  0
VERTEX
  5
30A
330
12B
100
AcDbEntity
  8
ｴｸｽﾃﾘｱ商品
 62
   250
370
    20
100
AcDbFaceRecord
 10
0.0
 20
0.0
 30
0.0
 70
   128
 71
     5
 72
     6
 73
     7
 74
     8
  0
VERTEX
  5
30B
330
12B
100
AcDbEntity
  8
ｴｸｽﾃﾘｱ商品
 62
   250
370
    20
100
AcDbFaceRecord
 10
0.0
 20
0.0
 30
0.0
 70
   128
 71
     2
 72
     1
 73
     6
 74
     5
  0
VERTEX
  5
30C
330
12B
100
AcDbEntity
  8
ｴｸｽﾃﾘｱ商品
 62
   250
370
    20
100
AcDbFaceRecord
 10
0.0
 20
0.0
 30
0.0
 70
   128
 71
     1
 72
     4
 73
     7
 74
     6
  0
VERTEX
  5
30D
330
12B
100
AcDbEntity
  8
ｴｸｽﾃﾘｱ商品
 62
   250
370
    20
100
AcDbFaceRecord
 10
0.0
 20
0.0
 30
0.0
 70
   128
 71
     4
 72
     3
 73
     8
 74
     7
  0
VERTEX
  5
30E
330
12B
100
AcDbEntity
  8
ｴｸｽﾃﾘｱ商品
 62
   250
370
    20
100
AcDbFaceRecord
 10
0.0
 20
0.0
 30
0.0
 70
   128
 71
     3
 72
     2
 73
     5
 74
     8
  0
VERTEX
  5
30F
330
12B
100
AcDbEntity
  8
ｴｸｽﾃﾘｱ商品
 62
   250
370
    20
100
AcDbFaceRecord
 10
0.0
 20
0.0
 30
0.0
 70
   128
 71
     9
 72
    10
 73
    11
 74
    12
  0
VERTEX
  5
310
330
12B
100
AcDbEntity
  8
ｴｸｽﾃﾘｱ商品
 62
   250
370
    20
100
AcDbFaceRecord
 10
0.0
 20
0.0
 30
0.0
 70
   128
 71
    13
 72
    14
 73
    15
 74
    16
  0
VERTEX
  5
311
330
12B
100
AcDbEntity
  8
ｴｸｽﾃﾘｱ商品
 62
   250
370
    20
100
AcDbFaceRecord
 10
0.0
 20
0.0
 30
0.0
 70
   128
 71
    10
 72
     9
 73
    14
 74
    13
  0
VERTEX
  5
312
330
12B
100
AcDbEntity
  8
ｴｸｽﾃﾘｱ商品
 62
   250
370
    20
100
AcDbFaceRecord
 10
0.0
 20
0.0
 30
0.0
 70
   128
 71
     9
 72
    12
 73
    15
 74
    14
  0
VERTEX
  5
313
330
12B
100
AcDbEntity
  8
ｴｸｽﾃﾘｱ商品
 62
   250
370
    20
100
AcDbFaceRecord
 10
0.0
 20
0.0
 30
0.0
 70
   128
 71
    12
 72
    11
 73
    16
 74
    15
  0
VERTEX
  5
314
330
12B
100
AcDbEntity
  8
ｴｸｽﾃﾘｱ商品
 62
   250
370
    20
100
AcDbFaceRecord
 10
0.0
 20
0.0
 30
0.0
 70
   128
 71
    11
 72
    10
 73
    13
 74
    16
  0
VERTEX
  5
315
330
12B
100
AcDbEntity
  8
ｴｸｽﾃﾘｱ商品
 62
   250
370
    20
100
AcDbFaceRecord
 10
0.0
 20
0.0
 30
0.0
 70
   128
 71
    17
 72
    18
 73
    19
 74
    20
  0
VERTEX
  5
316
330
12B
100
AcDbEntity
  8
ｴｸｽﾃﾘｱ商品
 62
   250
370
    20
100
AcDbFaceRecord
 10
0.0
 20
0.0
 30
0.0
 70
   128
 71
    17
 72
    20
 73
    21
 74
    22
  0
VERTEX
  5
317
330
12B
100
AcDbEntity
  8
ｴｸｽﾃﾘｱ商品
 62
   250
370
    20
100
AcDbFaceRecord
 10
0.0
 20
0.0
 30
0.0
 70
   128
 71
    17
 72
    22
 73
    23
 74
    24
  0
VERTEX
  5
318
330
12B
100
AcDbEntity
  8
ｴｸｽﾃﾘｱ商品
 62
   250
370
    20
100
AcDbFaceRecord
 10
0.0
 20
0.0
 30
0.0
 70
   128
 71
    17
 72
    24
 73
    25
 74
    26
  0
VERTEX
  5
319
330
12B
100
AcDbEntity
  8
ｴｸｽﾃﾘｱ商品
 62
   250
370
    20
100
AcDbFaceRecord
 10
0.0
 20
0.0
 30
0.0
 70
   128
 71
    17
 72
    26
 73
    27
 74
    28
  0
VERTEX
  5
31A
330
12B
100
AcDbEntity
  8
ｴｸｽﾃﾘｱ商品
 62
   250
370
    20
100
AcDbFaceRecord
 10
0.0
 20
0.0
 30
0.0
 70
   128
 71
    17
 72
    28
 73
    29
 74
    30
  0
VERTEX
  5
31B
330
12B
100
AcDbEntity
  8
ｴｸｽﾃﾘｱ商品
 62
   250
370
    20
100
AcDbFaceRecord
 10
0.0
 20
0.0
 30
0.0
 70
   128
 71
    17
 72
    30
 73
    31
 74
    32
  0
VERTEX
  5
31C
330
12B
100
AcDbEntity
  8
ｴｸｽﾃﾘｱ商品
 62
   250
370
    20
100
AcDbFaceRecord
 10
0.0
 20
0.0
 30
0.0
 70
   128
 71
    17
 72
    32
 73
    33
 74
    34
  0
VERTEX
  5
31D
330
12B
100
AcDbEntity
  8
ｴｸｽﾃﾘｱ商品
 62
   250
370
    20
100
AcDbFaceRecord
 10
0.0
 20
0.0
 30
0.0
 70
   128
 71
    17
 72
    34
 73
    35
 74
    36
  0
VERTEX
  5
31E
330
12B
100
AcDbEntity
  8
ｴｸｽﾃﾘｱ商品
 62
   250
370
    20
100
AcDbFaceRecord
 10
0.0
 20
0.0
 30
0.0
 70
   128
 71
    17
 72
    36
 73
    37
 74
    38
  0
VERTEX
  5
31F
330
12B
100
AcDbEntity
  8
ｴｸｽﾃﾘｱ商品
 62
   250
370
    20
100
AcDbFaceRecord
 10
0.0
 20
0.0
 30
0.0
 70
   128
 71
    17
 72
    38
 73
    39
 74
    40
  0
VERTEX
  5
320
330
12B
100
AcDbEntity
  8
ｴｸｽﾃﾘｱ商品
 62
   250
370
    20
100
AcDbFaceRecord
 10
0.0
 20
0.0
 30
0.0
 70
   128
 71
    41
 72
    42
 73
    43
 74
    44
  0
VERTEX
  5
321
330
12B
100
AcDbEntity
  8
ｴｸｽﾃﾘｱ商品
 62
   250
370
    20
100
AcDbFaceRecord
 10
0.0
 20
0.0
 30
0.0
 70
   128
 71
    41
 72
    44
 73
    45
 74
    46
  0
VERTEX
  5
322
330
12B
100
AcDbEntity
  8
ｴｸｽﾃﾘｱ商品
 62
   250
370
    20
100
AcDbFaceRecord
 10
0.0
 20
0.0
 30
0.0
 70
   128
 71
    41
 72
    46
 73
    47
 74
    48
  0
VERTEX
  5
323
330
12B
100
AcDbEntity
  8
ｴｸｽﾃﾘｱ商品
 62
   250
370
    20
100
AcDbFaceRecord
 10
0.0
 20
0.0
 30
0.0
 70
   128
 71
    41
 72
    48
 73
    49
 74
    50
  0
VERTEX
  5
324
330
12B
100
AcDbEntity
  8
ｴｸｽﾃﾘｱ商品
 62
   250
370
    20
100
AcDbFaceRecord
 10
0.0
 20
0.0
 30
0.0
 70
   128
 71
    41
 72
    50
 73
    51
 74
    52
  0
VERTEX
  5
325
330
12B
100
AcDbEntity
  8
ｴｸｽﾃﾘｱ商品
 62
   250
370
    20
100
AcDbFaceRecord
 10
0.0
 20
0.0
 30
0.0
 70
   128
 71
    41
 72
    52
 73
    53
 74
    54
  0
VERTEX
  5
326
330
12B
100
AcDbEntity
  8
ｴｸｽﾃﾘｱ商品
 62
   250
370
    20
100
AcDbFaceRecord
 10
0.0
 20
0.0
 30
0.0
 70
   128
 71
    41
 72
    54
 73
    55
 74
    56
  0
VERTEX
  5
327
330
12B
100
AcDbEntity
  8
ｴｸｽﾃﾘｱ商品
 62
   250
370
    20
100
AcDbFaceRecord
 10
0.0
 20
0.0
 30
0.0
 70
   128
 71
    41
 72
    56
 73
    57
 74
    58
  0
VERTEX
  5
328
330
12B
100
AcDbEntity
  8
ｴｸｽﾃﾘｱ商品
 62
   250
370
    20
100
AcDbFaceRecord
 10
0.0
 20
0.0
 30
0.0
 70
   128
 71
    41
 72
    58
 73
    59
 74
    60
  0
VERTEX
  5
329
330
12B
100
AcDbEntity
  8
ｴｸｽﾃﾘｱ商品
 62
   250
370
    20
100
AcDbFaceRecord
 10
0.0
 20
0.0
 30
0.0
 70
   128
 71
    41
 72
    60
 73
    61
 74
    62
  0
VERTEX
  5
32A
330
12B
100
AcDbEntity
  8
ｴｸｽﾃﾘｱ商品
 62
   250
370
    20
100
AcDbFaceRecord
 10
0.0
 20
0.0
 30
0.0
 70
   128
 71
    41
 72
    62
 73
    63
 74
    64
  0
VERTEX
  5
32B
330
12B
100
AcDbEntity
  8
ｴｸｽﾃﾘｱ商品
 62
   250
370
    20
100
AcDbFaceRecord
 10
0.0
 20
0.0
 30
0.0
 70
   128
 71
    17
 72
    40
 73
    42
 74
    41
  0
VERTEX
  5
32C
330
12B
100
AcDbEntity
  8
ｴｸｽﾃﾘｱ商品
 62
   250
370
    20
100
AcDbFaceRecord
 10
0.0
 20
0.0
 30
0.0
 70
   128
 71
    40
 72
    39
 73
    43
 74
    42
  0
VERTEX
  5
32D
330
12B
100
AcDbEntity
  8
ｴｸｽﾃﾘｱ商品
 62
   250
370
    20
100
AcDbFaceRecord
 10
0.0
 20
0.0
 30
0.0
 70
   128
 71
    39
 72
    38
 73
    44
 74
    43
  0
VERTEX
  5
32E
330
12B
100
AcDbEntity
  8
ｴｸｽﾃﾘｱ商品
 62
   250
370
    20
100
AcDbFaceRecord
 10
0.0
 20
0.0
 30
0.0
 70
   128
 71
    38
 72
    37
 73
    45
 74
    44
  0
VERTEX
  5
32F
330
12B
100
AcDbEntity
  8
ｴｸｽﾃﾘｱ商品
 62
   250
370
    20
100
AcDbFaceRecord
 10
0.0
 20
0.0
 30
0.0
 70
   128
 71
    37
 72
    36
 73
    46
 74
    45
  0
VERTEX
  5
330
330
12B
100
AcDbEntity
  8
ｴｸｽﾃﾘｱ商品
 62
   250
370
    20
100
AcDbFaceRecord
 10
0.0
 20
0.0
 30
0.0
 70
   128
 71
    36
 72
    35
 73
    47
 74
    46
  0
VERTEX
  5
331
330
12B
100
AcDbEntity
  8
ｴｸｽﾃﾘｱ商品
 62
   250
370
    20
100
AcDbFaceRecord
 10
0.0
 20
0.0
 30
0.0
 70
   128
 71
    35
 72
    34
 73
    48
 74
    47
  0
VERTEX
  5
332
330
12B
100
AcDbEntity
  8
ｴｸｽﾃﾘｱ商品
 62
   250
370
    20
100
AcDbFaceRecord
 10
0.0
 20
0.0
 30
0.0
 70
   128
 71
    34
 72
    33
 73
    49
 74
    48
  0
VERTEX
  5
333
330
12B
100
AcDbEntity
  8
ｴｸｽﾃﾘｱ商品
 62
   250
370
    20
100
AcDbFaceRecord
 10
0.0
 20
0.0
 30
0.0
 70
   128
 71
    33
 72
    32
 73
    50
 74
    49
  0
VERTEX
  5
334
330
12B
100
AcDbEntity
  8
ｴｸｽﾃﾘｱ商品
 62
   250
370
    20
100
AcDbFaceRecord
 10
0.0
 20
0.0
 30
0.0
 70
   128
 71
    32
 72
    31
 73
    51
 74
    50
  0
VERTEX
  5
335
330
12B
100
AcDbEntity
  8
ｴｸｽﾃﾘｱ商品
 62
   250
370
    20
100
AcDbFaceRecord
 10
0.0
 20
0.0
 30
0.0
 70
   128
 71
    31
 72
    30
 73
    52
 74
    51
  0
VERTEX
  5
336
330
12B
100
AcDbEntity
  8
ｴｸｽﾃﾘｱ商品
 62
   250
370
    20
100
AcDbFaceRecord
 10
0.0
 20
0.0
 30
0.0
 70
   128
 71
    30
 72
    29
 73
    53
 74
    52
  0
VERTEX
  5
337
330
12B
100
AcDbEntity
  8
ｴｸｽﾃﾘｱ商品
 62
   250
370
    20
100
AcDbFaceRecord
 10
0.0
 20
0.0
 30
0.0
 70
   128
 71
    29
 72
    28
 73
    54
 74
    53
  0
VERTEX
  5
338
330
12B
100
AcDbEntity
  8
ｴｸｽﾃﾘｱ商品
 62
   250
370
    20
100
AcDbFaceRecord
 10
0.0
 20
0.0
 30
0.0
 70
   128
 71
    28
 72
    27
 73
    55
 74
    54
  0
VERTEX
  5
339
330
12B
100
AcDbEntity
  8
ｴｸｽﾃﾘｱ商品
 62
   250
370
    20
100
AcDbFaceRecord
 10
0.0
 20
0.0
 30
0.0
 70
   128
 71
    27
 72
    26
 73
    56
 74
    55
  0
VERTEX
  5
33A
330
12B
100
AcDbEntity
  8
ｴｸｽﾃﾘｱ商品
 62
   250
370
    20
100
AcDbFaceRecord
 10
0.0
 20
0.0
 30
0.0
 70
   128
 71
    26
 72
    25
 73
    57
 74
    56
  0
VERTEX
  5
33B
330
12B
100
AcDbEntity
  8
ｴｸｽﾃﾘｱ商品
 62
   250
370
    20
100
AcDbFaceRecord
 10
0.0
 20
0.0
 30
0.0
 70
   128
 71
    25
 72
    24
 73
    58
 74
    57
  0
VERTEX
  5
33C
330
12B
100
AcDbEntity
  8
ｴｸｽﾃﾘｱ商品
 62
   250
370
    20
100
AcDbFaceRecord
 10
0.0
 20
0.0
 30
0.0
 70
   128
 71
    24
 72
    23
 73
    59
 74
    58
  0
VERTEX
  5
33D
330
12B
100
AcDbEntity
  8
ｴｸｽﾃﾘｱ商品
 62
   250
370
    20
100
AcDbFaceRecord
 10
0.0
 20
0.0
 30
0.0
 70
   128
 71
    23
 72
    22
 73
    60
 74
    59
  0
VERTEX
  5
33E
330
12B
100
AcDbEntity
  8
ｴｸｽﾃﾘｱ商品
 62
   250
370
    20
100
AcDbFaceRecord
 10
0.0
 20
0.0
 30
0.0
 70
   128
 71
    22
 72
    21
 73
    61
 74
    60
  0
VERTEX
  5
33F
330
12B
100
AcDbEntity
  8
ｴｸｽﾃﾘｱ商品
 62
   250
370
    20
100
AcDbFaceRecord
 10
0.0
 20
0.0
 30
0.0
 70
   128
 71
    21
 72
    20
 73
    62
 74
    61
  0
VERTEX
  5
340
330
12B
100
AcDbEntity
  8
ｴｸｽﾃﾘｱ商品
 62
   250
370
    20
100
AcDbFaceRecord
 10
0.0
 20
0.0
 30
0.0
 70
   128
 71
    20
 72
    19
 73
    63
 74
    62
  0
VERTEX
  5
341
330
12B
100
AcDbEntity
  8
ｴｸｽﾃﾘｱ商品
 62
   250
370
    20
100
AcDbFaceRecord
 10
0.0
 20
0.0
 30
0.0
 70
   128
 71
    19
 72
    18
 73
    64
 74
    63
  0
VERTEX
  5
342
330
12B
100
AcDbEntity
  8
ｴｸｽﾃﾘｱ商品
 62
   250
370
    20
100
AcDbFaceRecord
 10
0.0
 20
0.0
 30
0.0
 70
   128
 71
    18
 72
    17
 73
    41
 74
    64
  0
VERTEX
  5
343
330
12B
100
AcDbEntity
  8
ｴｸｽﾃﾘｱ商品
 62
   250
370
    20
100
AcDbFaceRecord
 10
0.0
 20
0.0
 30
0.0
 70
   128
 71
    65
 72
    66
 73
    67
 74
    68
  0
VERTEX
  5
344
330
12B
100
AcDbEntity
  8
ｴｸｽﾃﾘｱ商品
 62
   250
370
    20
100
AcDbFaceRecord
 10
0.0
 20
0.0
 30
0.0
 70
   128
 71
    69
 72
    70
 73
    71
 74
    72
  0
VERTEX
  5
345
330
12B
100
AcDbEntity
  8
ｴｸｽﾃﾘｱ商品
 62
   250
370
    20
100
AcDbFaceRecord
 10
0.0
 20
0.0
 30
0.0
 70
   128
 71
    66
 72
    65
 73
    70
 74
    69
  0
VERTEX
  5
346
330
12B
100
AcDbEntity
  8
ｴｸｽﾃﾘｱ商品
 62
   250
370
    20
100
AcDbFaceRecord
 10
0.0
 20
0.0
 30
0.0
 70
   128
 71
    65
 72
    68
 73
    71
 74
    70
  0
VERTEX
  5
347
330
12B
100
AcDbEntity
  8
ｴｸｽﾃﾘｱ商品
 62
   250
370
    20
100
AcDbFaceRecord
 10
0.0
 20
0.0
 30
0.0
 70
   128
 71
    68
 72
    67
 73
    72
 74
    71
  0
VERTEX
  5
348
330
12B
100
AcDbEntity
  8
ｴｸｽﾃﾘｱ商品
 62
   250
370
    20
100
AcDbFaceRecord
 10
0.0
 20
0.0
 30
0.0
 70
   128
 71
    67
 72
    66
 73
    69
 74
    72
  0
VERTEX
  5
349
330
12B
100
AcDbEntity
  8
ｴｸｽﾃﾘｱ商品
 62
   250
370
    20
100
AcDbFaceRecord
 10
0.0
 20
0.0
 30
0.0
 70
   128
 71
    73
 72
    74
 73
    75
 74
    76
  0
VERTEX
  5
34A
330
12B
100
AcDbEntity
  8
ｴｸｽﾃﾘｱ商品
 62
   250
370
    20
100
AcDbFaceRecord
 10
0.0
 20
0.0
 30
0.0
 70
   128
 71
    77
 72
    78
 73
    79
 74
    80
  0
VERTEX
  5
34B
330
12B
100
AcDbEntity
  8
ｴｸｽﾃﾘｱ商品
 62
   250
370
    20
100
AcDbFaceRecord
 10
0.0
 20
0.0
 30
0.0
 70
   128
 71
    74
 72
    73
 73
    78
 74
    77
  0
VERTEX
  5
34C
330
12B
100
AcDbEntity
  8
ｴｸｽﾃﾘｱ商品
 62
   250
370
    20
100
AcDbFaceRecord
 10
0.0
 20
0.0
 30
0.0
 70
   128
 71
    73
 72
    76
 73
    79
 74
    78
  0
VERTEX
  5
34D
330
12B
100
AcDbEntity
  8
ｴｸｽﾃﾘｱ商品
 62
   250
370
    20
100
AcDbFaceRecord
 10
0.0
 20
0.0
 30
0.0
 70
   128
 71
    76
 72
    75
 73
    80
 74
    79
  0
VERTEX
  5
34E
330
12B
100
AcDbEntity
  8
ｴｸｽﾃﾘｱ商品
 62
   250
370
    20
100
AcDbFaceRecord
 10
0.0
 20
0.0
 30
0.0
 70
   128
 71
    75
 72
    74
 73
    77
 74
    80
  0
VERTEX
  5
34F
330
12B
100
AcDbEntity
  8
ｴｸｽﾃﾘｱ商品
 62
   250
370
    20
100
AcDbFaceRecord
 10
0.0
 20
0.0
 30
0.0
 70
   128
 71
    81
 72
    82
 73
    83
 74
    84
  0
VERTEX
  5
350
330
12B
100
AcDbEntity
  8
ｴｸｽﾃﾘｱ商品
 62
   250
370
    20
100
AcDbFaceRecord
 10
0.0
 20
0.0
 30
0.0
 70
   128
 71
    85
 72
    86
 73
    87
 74
    88
  0
VERTEX
  5
351
330
12B
100
AcDbEntity
  8
ｴｸｽﾃﾘｱ商品
 62
   250
370
    20
100
AcDbFaceRecord
 10
0.0
 20
0.0
 30
0.0
 70
   128
 71
    82
 72
    81
 73
    86
 74
    85
  0
VERTEX
  5
352
330
12B
100
AcDbEntity
  8
ｴｸｽﾃﾘｱ商品
 62
   250
370
    20
100
AcDbFaceRecord
 10
0.0
 20
0.0
 30
0.0
 70
   128
 71
    81
 72
    84
 73
    87
 74
    86
  0
VERTEX
  5
353
330
12B
100
AcDbEntity
  8
ｴｸｽﾃﾘｱ商品
 62
   250
370
    20
100
AcDbFaceRecord
 10
0.0
 20
0.0
 30
0.0
 70
   128
 71
    84
 72
    83
 73
    88
 74
    87
  0
VERTEX
  5
354
330
12B
100
AcDbEntity
  8
ｴｸｽﾃﾘｱ商品
 62
   250
370
    20
100
AcDbFaceRecord
 10
0.0
 20
0.0
 30
0.0
 70
   128
 71
    83
 72
    82
 73
    85
 74
    88
  0
VERTEX
  5
355
330
12B
100
AcDbEntity
  8
ｴｸｽﾃﾘｱ商品
 62
   250
370
    20
100
AcDbFaceRecord
 10
0.0
 20
0.0
 30
0.0
 70
   128
 71
    89
 72
    90
 73
    91
 74
    92
  0
VERTEX
  5
356
330
12B
100
AcDbEntity
  8
ｴｸｽﾃﾘｱ商品
 62
   250
370
    20
100
AcDbFaceRecord
 10
0.0
 20
0.0
 30
0.0
 70
   128
 71
    93
 72
    94
 73
    95
 74
    96
  0
VERTEX
  5
357
330
12B
100
AcDbEntity
  8
ｴｸｽﾃﾘｱ商品
 62
   250
370
    20
100
AcDbFaceRecord
 10
0.0
 20
0.0
 30
0.0
 70
   128
 71
    90
 72
    89
 73
    94
 74
    93
  0
VERTEX
  5
358
330
12B
100
AcDbEntity
  8
ｴｸｽﾃﾘｱ商品
 62
   250
370
    20
100
AcDbFaceRecord
 10
0.0
 20
0.0
 30
0.0
 70
   128
 71
    89
 72
    92
 73
    95
 74
    94
  0
VERTEX
  5
359
330
12B
100
AcDbEntity
  8
ｴｸｽﾃﾘｱ商品
 62
   250
370
    20
100
AcDbFaceRecord
 10
0.0
 20
0.0
 30
0.0
 70
   128
 71
    92
 72
    91
 73
    96
 74
    95
  0
VERTEX
  5
35A
330
12B
100
AcDbEntity
  8
ｴｸｽﾃﾘｱ商品
 62
   250
370
    20
100
AcDbFaceRecord
 10
0.0
 20
0.0
 30
0.0
 70
   128
 71
    91
 72
    90
 73
    93
 74
    96
  0
VERTEX
  5
35B
330
12B
100
AcDbEntity
  8
ｴｸｽﾃﾘｱ商品
 62
   250
370
    20
100
AcDbFaceRecord
 10
0.0
 20
0.0
 30
0.0
 70
   128
 71
    97
 72
    98
 73
    99
 74
   100
  0
VERTEX
  5
35C
330
12B
100
AcDbEntity
  8
ｴｸｽﾃﾘｱ商品
 62
   250
370
    20
100
AcDbFaceRecord
 10
0.0
 20
0.0
 30
0.0
 70
   128
 71
    97
 72
   100
 73
   101
 74
   102
  0
VERTEX
  5
35D
330
12B
100
AcDbEntity
  8
ｴｸｽﾃﾘｱ商品
 62
   250
370
    20
100
AcDbFaceRecord
 10
0.0
 20
0.0
 30
0.0
 70
   128
 71
    97
 72
   102
 73
   103
 74
   104
  0
VERTEX
  5
35E
330
12B
100
AcDbEntity
  8
ｴｸｽﾃﾘｱ商品
 62
   250
370
    20
100
AcDbFaceRecord
 10
0.0
 20
0.0
 30
0.0
 70
   128
 71
    97
 72
   104
 73
   105
 74
   106
  0
VERTEX
  5
35F
330
12B
100
AcDbEntity
  8
ｴｸｽﾃﾘｱ商品
 62
   250
370
    20
100
AcDbFaceRecord
 10
0.0
 20
0.0
 30
0.0
 70
   128
 71
    97
 72
   106
 73
   107
 74
   108
  0
VERTEX
  5
360
330
12B
100
AcDbEntity
  8
ｴｸｽﾃﾘｱ商品
 62
   250
370
    20
100
AcDbFaceRecord
 10
0.0
 20
0.0
 30
0.0
 70
   128
 71
    97
 72
   108
 73
   109
 74
   110
  0
VERTEX
  5
361
330
12B
100
AcDbEntity
  8
ｴｸｽﾃﾘｱ商品
 62
   250
370
    20
100
AcDbFaceRecord
 10
0.0
 20
0.0
 30
0.0
 70
   128
 71
    97
 72
   110
 73
   111
 74
   112
  0
VERTEX
  5
362
330
12B
100
AcDbEntity
  8
ｴｸｽﾃﾘｱ商品
 62
   250
370
    20
100
AcDbFaceRecord
 10
0.0
 20
0.0
 30
0.0
 70
   128
 71
    97
 72
   112
 73
   113
 74
   114
  0
VERTEX
  5
363
330
12B
100
AcDbEntity
  8
ｴｸｽﾃﾘｱ商品
 62
   250
370
    20
100
AcDbFaceRecord
 10
0.0
 20
0.0
 30
0.0
 70
   128
 71
    97
 72
   114
 73
   115
 74
   116
  0
VERTEX
  5
364
330
12B
100
AcDbEntity
  8
ｴｸｽﾃﾘｱ商品
 62
   250
370
    20
100
AcDbFaceRecord
 10
0.0
 20
0.0
 30
0.0
 70
   128
 71
    97
 72
   116
 73
   117
 74
   118
  0
VERTEX
  5
365
330
12B
100
AcDbEntity
  8
ｴｸｽﾃﾘｱ商品
 62
   250
370
    20
100
AcDbFaceRecord
 10
0.0
 20
0.0
 30
0.0
 70
   128
 71
    97
 72
   118
 73
   119
 74
   120
  0
VERTEX
  5
366
330
12B
100
AcDbEntity
  8
ｴｸｽﾃﾘｱ商品
 62
   250
370
    20
100
AcDbFaceRecord
 10
0.0
 20
0.0
 30
0.0
 70
   128
 71
   121
 72
   122
 73
   123
 74
   124
  0
VERTEX
  5
367
330
12B
100
AcDbEntity
  8
ｴｸｽﾃﾘｱ商品
 62
   250
370
    20
100
AcDbFaceRecord
 10
0.0
 20
0.0
 30
0.0
 70
   128
 71
   121
 72
   124
 73
   125
 74
   126
  0
VERTEX
  5
368
330
12B
100
AcDbEntity
  8
ｴｸｽﾃﾘｱ商品
 62
   250
370
    20
100
AcDbFaceRecord
 10
0.0
 20
0.0
 30
0.0
 70
   128
 71
   121
 72
   126
 73
   127
 74
   128
  0
VERTEX
  5
369
330
12B
100
AcDbEntity
  8
ｴｸｽﾃﾘｱ商品
 62
   250
370
    20
100
AcDbFaceRecord
 10
0.0
 20
0.0
 30
0.0
 70
   128
 71
   121
 72
   128
 73
   129
 74
   130
  0
VERTEX
  5
36A
330
12B
100
AcDbEntity
  8
ｴｸｽﾃﾘｱ商品
 62
   250
370
    20
100
AcDbFaceRecord
 10
0.0
 20
0.0
 30
0.0
 70
   128
 71
   121
 72
   130
 73
   131
 74
   132
  0
VERTEX
  5
36B
330
12B
100
AcDbEntity
  8
ｴｸｽﾃﾘｱ商品
 62
   250
370
    20
100
AcDbFaceRecord
 10
0.0
 20
0.0
 30
0.0
 70
   128
 71
   121
 72
   132
 73
   133
 74
   134
  0
VERTEX
  5
36C
330
12B
100
AcDbEntity
  8
ｴｸｽﾃﾘｱ商品
 62
   250
370
    20
100
AcDbFaceRecord
 10
0.0
 20
0.0
 30
0.0
 70
   128
 71
   121
 72
   134
 73
   135
 74
   136
  0
VERTEX
  5
36D
330
12B
100
AcDbEntity
  8
ｴｸｽﾃﾘｱ商品
 62
   250
370
    20
100
AcDbFaceRecord
 10
0.0
 20
0.0
 30
0.0
 70
   128
 71
   121
 72
   136
 73
   137
 74
   138
  0
VERTEX
  5
36E
330
12B
100
AcDbEntity
  8
ｴｸｽﾃﾘｱ商品
 62
   250
370
    20
100
AcDbFaceRecord
 10
0.0
 20
0.0
 30
0.0
 70
   128
 71
   121
 72
   138
 73
   139
 74
   140
  0
VERTEX
  5
36F
330
12B
100
AcDbEntity
  8
ｴｸｽﾃﾘｱ商品
 62
   250
370
    20
100
AcDbFaceRecord
 10
0.0
 20
0.0
 30
0.0
 70
   128
 71
   121
 72
   140
 73
   141
 74
   142
  0
VERTEX
  5
370
330
12B
100
AcDbEntity
  8
ｴｸｽﾃﾘｱ商品
 62
   250
370
    20
100
AcDbFaceRecord
 10
0.0
 20
0.0
 30
0.0
 70
   128
 71
   121
 72
   142
 73
   143
 74
   144
  0
VERTEX
  5
371
330
12B
100
AcDbEntity
  8
ｴｸｽﾃﾘｱ商品
 62
   250
370
    20
100
AcDbFaceRecord
 10
0.0
 20
0.0
 30
0.0
 70
   128
 71
    97
 72
   121
 73
   144
 74
    98
  0
VERTEX
  5
372
330
12B
100
AcDbEntity
  8
ｴｸｽﾃﾘｱ商品
 62
   250
370
    20
100
AcDbFaceRecord
 10
0.0
 20
0.0
 30
0.0
 70
   128
 71
    98
 72
   144
 73
   143
 74
    99
  0
VERTEX
  5
373
330
12B
100
AcDbEntity
  8
ｴｸｽﾃﾘｱ商品
 62
   250
370
    20
100
AcDbFaceRecord
 10
0.0
 20
0.0
 30
0.0
 70
   128
 71
    99
 72
   143
 73
   142
 74
   100
  0
VERTEX
  5
374
330
12B
100
AcDbEntity
  8
ｴｸｽﾃﾘｱ商品
 62
   250
370
    20
100
AcDbFaceRecord
 10
0.0
 20
0.0
 30
0.0
 70
   128
 71
   100
 72
   142
 73
   141
 74
   101
  0
VERTEX
  5
375
330
12B
100
AcDbEntity
  8
ｴｸｽﾃﾘｱ商品
 62
   250
370
    20
100
AcDbFaceRecord
 10
0.0
 20
0.0
 30
0.0
 70
   128
 71
   101
 72
   141
 73
   140
 74
   102
  0
VERTEX
  5
376
330
12B
100
AcDbEntity
  8
ｴｸｽﾃﾘｱ商品
 62
   250
370
    20
100
AcDbFaceRecord
 10
0.0
 20
0.0
 30
0.0
 70
   128
 71
   102
 72
   140
 73
   139
 74
   103
  0
VERTEX
  5
377
330
12B
100
AcDbEntity
  8
ｴｸｽﾃﾘｱ商品
 62
   250
370
    20
100
AcDbFaceRecord
 10
0.0
 20
0.0
 30
0.0
 70
   128
 71
   103
 72
   139
 73
   138
 74
   104
  0
VERTEX
  5
378
330
12B
100
AcDbEntity
  8
ｴｸｽﾃﾘｱ商品
 62
   250
370
    20
100
AcDbFaceRecord
 10
0.0
 20
0.0
 30
0.0
 70
   128
 71
   104
 72
   138
 73
   137
 74
   105
  0
VERTEX
  5
379
330
12B
100
AcDbEntity
  8
ｴｸｽﾃﾘｱ商品
 62
   250
370
    20
100
AcDbFaceRecord
 10
0.0
 20
0.0
 30
0.0
 70
   128
 71
   105
 72
   137
 73
   136
 74
   106
  0
VERTEX
  5
37A
330
12B
100
AcDbEntity
  8
ｴｸｽﾃﾘｱ商品
 62
   250
370
    20
100
AcDbFaceRecord
 10
0.0
 20
0.0
 30
0.0
 70
   128
 71
   106
 72
   136
 73
   135
 74
   107
  0
VERTEX
  5
37B
330
12B
100
AcDbEntity
  8
ｴｸｽﾃﾘｱ商品
 62
   250
370
    20
100
AcDbFaceRecord
 10
0.0
 20
0.0
 30
0.0
 70
   128
 71
   107
 72
   135
 73
   134
 74
   108
  0
VERTEX
  5
37C
330
12B
100
AcDbEntity
  8
ｴｸｽﾃﾘｱ商品
 62
   250
370
    20
100
AcDbFaceRecord
 10
0.0
 20
0.0
 30
0.0
 70
   128
 71
   108
 72
   134
 73
   133
 74
   109
  0
VERTEX
  5
37D
330
12B
100
AcDbEntity
  8
ｴｸｽﾃﾘｱ商品
 62
   250
370
    20
100
AcDbFaceRecord
 10
0.0
 20
0.0
 30
0.0
 70
   128
 71
   109
 72
   133
 73
   132
 74
   110
  0
VERTEX
  5
37E
330
12B
100
AcDbEntity
  8
ｴｸｽﾃﾘｱ商品
 62
   250
370
    20
100
AcDbFaceRecord
 10
0.0
 20
0.0
 30
0.0
 70
   128
 71
   110
 72
   132
 73
   131
 74
   111
  0
VERTEX
  5
37F
330
12B
100
AcDbEntity
  8
ｴｸｽﾃﾘｱ商品
 62
   250
370
    20
100
AcDbFaceRecord
 10
0.0
 20
0.0
 30
0.0
 70
   128
 71
   111
 72
   131
 73
   130
 74
   112
  0
VERTEX
  5
380
330
12B
100
AcDbEntity
  8
ｴｸｽﾃﾘｱ商品
 62
   250
370
    20
100
AcDbFaceRecord
 10
0.0
 20
0.0
 30
0.0
 70
   128
 71
   112
 72
   130
 73
   129
 74
   113
  0
VERTEX
  5
381
330
12B
100
AcDbEntity
  8
ｴｸｽﾃﾘｱ商品
 62
   250
370
    20
100
AcDbFaceRecord
 10
0.0
 20
0.0
 30
0.0
 70
   128
 71
   113
 72
   129
 73
   128
 74
   114
  0
VERTEX
  5
382
330
12B
100
AcDbEntity
  8
ｴｸｽﾃﾘｱ商品
 62
   250
370
    20
100
AcDbFaceRecord
 10
0.0
 20
0.0
 30
0.0
 70
   128
 71
   114
 72
   128
 73
   127
 74
   115
  0
VERTEX
  5
383
330
12B
100
AcDbEntity
  8
ｴｸｽﾃﾘｱ商品
 62
   250
370
    20
100
AcDbFaceRecord
 10
0.0
 20
0.0
 30
0.0
 70
   128
 71
   115
 72
   127
 73
   126
 74
   116
  0
VERTEX
  5
384
330
12B
100
AcDbEntity
  8
ｴｸｽﾃﾘｱ商品
 62
   250
370
    20
100
AcDbFaceRecord
 10
0.0
 20
0.0
 30
0.0
 70
   128
 71
   116
 72
   126
 73
   125
 74
   117
  0
VERTEX
  5
385
330
12B
100
AcDbEntity
  8
ｴｸｽﾃﾘｱ商品
 62
   250
370
    20
100
AcDbFaceRecord
 10
0.0
 20
0.0
 30
0.0
 70
   128
 71
   117
 72
   125
 73
   124
 74
   118
  0
VERTEX
  5
386
330
12B
100
AcDbEntity
  8
ｴｸｽﾃﾘｱ商品
 62
   250
370
    20
100
AcDbFaceRecord
 10
0.0
 20
0.0
 30
0.0
 70
   128
 71
   118
 72
   124
 73
   123
 74
   119
  0
VERTEX
  5
387
330
12B
100
AcDbEntity
  8
ｴｸｽﾃﾘｱ商品
 62
   250
370
    20
100
AcDbFaceRecord
 10
0.0
 20
0.0
 30
0.0
 70
   128
 71
   119
 72
   123
 73
   122
 74
   120
  0
VERTEX
  5
388
330
12B
100
AcDbEntity
  8
ｴｸｽﾃﾘｱ商品
 62
   250
370
    20
100
AcDbFaceRecord
 10
0.0
 20
0.0
 30
0.0
 70
   128
 71
   120
 72
   122
 73
   121
 74
    97
  0
VERTEX
  5
389
330
12B
100
AcDbEntity
  8
ｴｸｽﾃﾘｱ商品
 62
   250
370
    20
100
AcDbFaceRecord
 10
0.0
 20
0.0
 30
0.0
 70
   128
 71
   145
 72
   146
 73
   147
 74
   148
  0
VERTEX
  5
38A
330
12B
100
AcDbEntity
  8
ｴｸｽﾃﾘｱ商品
 62
   250
370
    20
100
AcDbFaceRecord
 10
0.0
 20
0.0
 30
0.0
 70
   128
 71
   149
 72
   150
 73
   151
 74
   152
  0
VERTEX
  5
38B
330
12B
100
AcDbEntity
  8
ｴｸｽﾃﾘｱ商品
 62
   250
370
    20
100
AcDbFaceRecord
 10
0.0
 20
0.0
 30
0.0
 70
   128
 71
   148
 72
   149
 73
   152
 74
   145
  0
VERTEX
  5
38C
330
12B
100
AcDbEntity
  8
ｴｸｽﾃﾘｱ商品
 62
   250
370
    20
100
AcDbFaceRecord
 10
0.0
 20
0.0
 30
0.0
 70
   128
 71
   145
 72
   152
 73
   151
 74
   146
  0
VERTEX
  5
38D
330
12B
100
AcDbEntity
  8
ｴｸｽﾃﾘｱ商品
 62
   250
370
    20
100
AcDbFaceRecord
 10
0.0
 20
0.0
 30
0.0
 70
   128
 71
   146
 72
   151
 73
   150
 74
   147
  0
VERTEX
  5
38E
330
12B
100
AcDbEntity
  8
ｴｸｽﾃﾘｱ商品
 62
   250
370
    20
100
AcDbFaceRecord
 10
0.0
 20
0.0
 30
0.0
 70
   128
 71
   147
 72
   150
 73
   149
 74
   148
  0
VERTEX
  5
38F
330
12B
100
AcDbEntity
  8
ｴｸｽﾃﾘｱ商品
 62
   250
370
    20
100
AcDbFaceRecord
 10
0.0
 20
0.0
 30
0.0
 70
   128
 71
   153
 72
   154
 73
   155
 74
   156
  0
VERTEX
  5
390
330
12B
100
AcDbEntity
  8
ｴｸｽﾃﾘｱ商品
 62
   250
370
    20
100
AcDbFaceRecord
 10
0.0
 20
0.0
 30
0.0
 70
   128
 71
   157
 72
   158
 73
   159
 74
   160
  0
VERTEX
  5
391
330
12B
100
AcDbEntity
  8
ｴｸｽﾃﾘｱ商品
 62
   250
370
    20
100
AcDbFaceRecord
 10
0.0
 20
0.0
 30
0.0
 70
   128
 71
   156
 72
   157
 73
   160
 74
   153
  0
VERTEX
  5
392
330
12B
100
AcDbEntity
  8
ｴｸｽﾃﾘｱ商品
 62
   250
370
    20
100
AcDbFaceRecord
 10
0.0
 20
0.0
 30
0.0
 70
   128
 71
   153
 72
   160
 73
   159
 74
   154
  0
VERTEX
  5
393
330
12B
100
AcDbEntity
  8
ｴｸｽﾃﾘｱ商品
 62
   250
370
    20
100
AcDbFaceRecord
 10
0.0
 20
0.0
 30
0.0
 70
   128
 71
   154
 72
   159
 73
   158
 74
   155
  0
VERTEX
  5
394
330
12B
100
AcDbEntity
  8
ｴｸｽﾃﾘｱ商品
 62
   250
370
    20
100
AcDbFaceRecord
 10
0.0
 20
0.0
 30
0.0
 70
   128
 71
   155
 72
   158
 73
   157
 74
   156
  0
VERTEX
  5
395
330
12B
100
AcDbEntity
  8
ｴｸｽﾃﾘｱ商品
 62
   250
370
    20
100
AcDbFaceRecord
 10
0.0
 20
0.0
 30
0.0
 70
   128
 71
   161
 72
   162
 73
   163
 74
   164
  0
VERTEX
  5
396
330
12B
100
AcDbEntity
  8
ｴｸｽﾃﾘｱ商品
 62
   250
370
    20
100
AcDbFaceRecord
 10
0.0
 20
0.0
 30
0.0
 70
   128
 71
   165
 72
   166
 73
   167
 74
   168
  0
VERTEX
  5
397
330
12B
100
AcDbEntity
  8
ｴｸｽﾃﾘｱ商品
 62
   250
370
    20
100
AcDbFaceRecord
 10
0.0
 20
0.0
 30
0.0
 70
   128
 71
   164
 72
   165
 73
   168
 74
   161
  0
VERTEX
  5
398
330
12B
100
AcDbEntity
  8
ｴｸｽﾃﾘｱ商品
 62
   250
370
    20
100
AcDbFaceRecord
 10
0.0
 20
0.0
 30
0.0
 70
   128
 71
   161
 72
   168
 73
   167
 74
   162
  0
VERTEX
  5
399
330
12B
100
AcDbEntity
  8
ｴｸｽﾃﾘｱ商品
 62
   250
370
    20
100
AcDbFaceRecord
 10
0.0
 20
0.0
 30
0.0
 70
   128
 71
   162
 72
   167
 73
   166
 74
   163
  0
VERTEX
  5
39A
330
12B
100
AcDbEntity
  8
ｴｸｽﾃﾘｱ商品
 62
   250
370
    20
100
AcDbFaceRecord
 10
0.0
 20
0.0
 30
0.0
 70
   128
 71
   163
 72
   166
 73
   165
 74
   164
  0
VERTEX
  5
39B
330
12B
100
AcDbEntity
  8
ｴｸｽﾃﾘｱ商品
 62
   250
370
    20
100
AcDbFaceRecord
 10
0.0
 20
0.0
 30
0.0
 70
   128
 71
   169
 72
   170
 73
   171
 74
   172
  0
VERTEX
  5
39C
330
12B
100
AcDbEntity
  8
ｴｸｽﾃﾘｱ商品
 62
   250
370
    20
100
AcDbFaceRecord
 10
0.0
 20
0.0
 30
0.0
 70
   128
 71
   173
 72
   174
 73
   175
 74
   176
  0
VERTEX
  5
39D
330
12B
100
AcDbEntity
  8
ｴｸｽﾃﾘｱ商品
 62
   250
370
    20
100
AcDbFaceRecord
 10
0.0
 20
0.0
 30
0.0
 70
   128
 71
   172
 72
   173
 73
   176
 74
   169
  0
VERTEX
  5
39E
330
12B
100
AcDbEntity
  8
ｴｸｽﾃﾘｱ商品
 62
   250
370
    20
100
AcDbFaceRecord
 10
0.0
 20
0.0
 30
0.0
 70
   128
 71
   169
 72
   176
 73
   175
 74
   170
  0
VERTEX
  5
39F
330
12B
100
AcDbEntity
  8
ｴｸｽﾃﾘｱ商品
 62
   250
370
    20
100
AcDbFaceRecord
 10
0.0
 20
0.0
 30
0.0
 70
   128
 71
   170
 72
   175
 73
   174
 74
   171
  0
VERTEX
  5
3A0
330
12B
100
AcDbEntity
  8
ｴｸｽﾃﾘｱ商品
 62
   250
370
    20
100
AcDbFaceRecord
 10
0.0
 20
0.0
 30
0.0
 70
   128
 71
   171
 72
   174
 73
   173
 74
   172
  0
VERTEX
  5
3A1
330
12B
100
AcDbEntity
  8
ｴｸｽﾃﾘｱ商品
 62
   250
370
    20
100
AcDbFaceRecord
 10
0.0
 20
0.0
 30
0.0
 70
   128
 71
   177
 72
   178
 73
   179
 74
   180
  0
VERTEX
  5
3A2
330
12B
100
AcDbEntity
  8
ｴｸｽﾃﾘｱ商品
 62
   250
370
    20
100
AcDbFaceRecord
 10
0.0
 20
0.0
 30
0.0
 70
   128
 71
   177
 72
   180
 73
   181
 74
   182
  0
VERTEX
  5
3A3
330
12B
100
AcDbEntity
  8
ｴｸｽﾃﾘｱ商品
 62
   250
370
    20
100
AcDbFaceRecord
 10
0.0
 20
0.0
 30
0.0
 70
   128
 71
   177
 72
   182
 73
   183
 74
   184
  0
VERTEX
  5
3A4
330
12B
100
AcDbEntity
  8
ｴｸｽﾃﾘｱ商品
 62
   250
370
    20
100
AcDbFaceRecord
 10
0.0
 20
0.0
 30
0.0
 70
   128
 71
   177
 72
   184
 73
   185
 74
   186
  0
VERTEX
  5
3A5
330
12B
100
AcDbEntity
  8
ｴｸｽﾃﾘｱ商品
 62
   250
370
    20
100
AcDbFaceRecord
 10
0.0
 20
0.0
 30
0.0
 70
   128
 71
   177
 72
   186
 73
   187
 74
   188
  0
VERTEX
  5
3A6
330
12B
100
AcDbEntity
  8
ｴｸｽﾃﾘｱ商品
 62
   250
370
    20
100
AcDbFaceRecord
 10
0.0
 20
0.0
 30
0.0
 70
   128
 71
   177
 72
   188
 73
   189
 74
   190
  0
VERTEX
  5
3A7
330
12B
100
AcDbEntity
  8
ｴｸｽﾃﾘｱ商品
 62
   250
370
    20
100
AcDbFaceRecord
 10
0.0
 20
0.0
 30
0.0
 70
   128
 71
   177
 72
   190
 73
   191
 74
   192
  0
VERTEX
  5
3A8
330
12B
100
AcDbEntity
  8
ｴｸｽﾃﾘｱ商品
 62
   250
370
    20
100
AcDbFaceRecord
 10
0.0
 20
0.0
 30
0.0
 70
   128
 71
   177
 72
   192
 73
   193
 74
   194
  0
VERTEX
  5
3A9
330
12B
100
AcDbEntity
  8
ｴｸｽﾃﾘｱ商品
 62
   250
370
    20
100
AcDbFaceRecord
 10
0.0
 20
0.0
 30
0.0
 70
   128
 71
   177
 72
   194
 73
   195
 74
   196
  0
VERTEX
  5
3AA
330
12B
100
AcDbEntity
  8
ｴｸｽﾃﾘｱ商品
 62
   250
370
    20
100
AcDbFaceRecord
 10
0.0
 20
0.0
 30
0.0
 70
   128
 71
   177
 72
   196
 73
   197
 74
   198
  0
VERTEX
  5
3AB
330
12B
100
AcDbEntity
  8
ｴｸｽﾃﾘｱ商品
 62
   250
370
    20
100
AcDbFaceRecord
 10
0.0
 20
0.0
 30
0.0
 70
   128
 71
   177
 72
   198
 73
   199
 74
   200
  0
VERTEX
  5
3AC
330
12B
100
AcDbEntity
  8
ｴｸｽﾃﾘｱ商品
 62
   250
370
    20
100
AcDbFaceRecord
 10
0.0
 20
0.0
 30
0.0
 70
   128
 71
   201
 72
   202
 73
   203
 74
   204
  0
VERTEX
  5
3AD
330
12B
100
AcDbEntity
  8
ｴｸｽﾃﾘｱ商品
 62
   250
370
    20
100
AcDbFaceRecord
 10
0.0
 20
0.0
 30
0.0
 70
   128
 71
   201
 72
   204
 73
   205
 74
   206
  0
VERTEX
  5
3AE
330
12B
100
AcDbEntity
  8
ｴｸｽﾃﾘｱ商品
 62
   250
370
    20
100
AcDbFaceRecord
 10
0.0
 20
0.0
 30
0.0
 70
   128
 71
   201
 72
   206
 73
   207
 74
   208
  0
VERTEX
  5
3AF
330
12B
100
AcDbEntity
  8
ｴｸｽﾃﾘｱ商品
 62
   250
370
    20
100
AcDbFaceRecord
 10
0.0
 20
0.0
 30
0.0
 70
   128
 71
   201
 72
   208
 73
   209
 74
   210
  0
VERTEX
  5
3B0
330
12B
100
AcDbEntity
  8
ｴｸｽﾃﾘｱ商品
 62
   250
370
    20
100
AcDbFaceRecord
 10
0.0
 20
0.0
 30
0.0
 70
   128
 71
   201
 72
   210
 73
   211
 74
   212
  0
VERTEX
  5
3B1
330
12B
100
AcDbEntity
  8
ｴｸｽﾃﾘｱ商品
 62
   250
370
    20
100
AcDbFaceRecord
 10
0.0
 20
0.0
 30
0.0
 70
   128
 71
   201
 72
   212
 73
   213
 74
   214
  0
VERTEX
  5
3B2
330
12B
100
AcDbEntity
  8
ｴｸｽﾃﾘｱ商品
 62
   250
370
    20
100
AcDbFaceRecord
 10
0.0
 20
0.0
 30
0.0
 70
   128
 71
   201
 72
   214
 73
   215
 74
   216
  0
VERTEX
  5
3B3
330
12B
100
AcDbEntity
  8
ｴｸｽﾃﾘｱ商品
 62
   250
370
    20
100
AcDbFaceRecord
 10
0.0
 20
0.0
 30
0.0
 70
   128
 71
   201
 72
   216
 73
   217
 74
   218
  0
VERTEX
  5
3B4
330
12B
100
AcDbEntity
  8
ｴｸｽﾃﾘｱ商品
 62
   250
370
    20
100
AcDbFaceRecord
 10
0.0
 20
0.0
 30
0.0
 70
   128
 71
   201
 72
   218
 73
   219
 74
   220
  0
VERTEX
  5
3B5
330
12B
100
AcDbEntity
  8
ｴｸｽﾃﾘｱ商品
 62
   250
370
    20
100
AcDbFaceRecord
 10
0.0
 20
0.0
 30
0.0
 70
   128
 71
   201
 72
   220
 73
   221
 74
   222
  0
VERTEX
  5
3B6
330
12B
100
AcDbEntity
  8
ｴｸｽﾃﾘｱ商品
 62
   250
370
    20
100
AcDbFaceRecord
 10
0.0
 20
0.0
 30
0.0
 70
   128
 71
   201
 72
   222
 73
   223
 74
   224
  0
VERTEX
  5
3B7
330
12B
100
AcDbEntity
  8
ｴｸｽﾃﾘｱ商品
 62
   250
370
    20
100
AcDbFaceRecord
 10
0.0
 20
0.0
 30
0.0
 70
   128
 71
   177
 72
   200
 73
   202
 74
   201
  0
VERTEX
  5
3B8
330
12B
100
AcDbEntity
  8
ｴｸｽﾃﾘｱ商品
 62
   250
370
    20
100
AcDbFaceRecord
 10
0.0
 20
0.0
 30
0.0
 70
   128
 71
   200
 72
   199
 73
   203
 74
   202
  0
VERTEX
  5
3B9
330
12B
100
AcDbEntity
  8
ｴｸｽﾃﾘｱ商品
 62
   250
370
    20
100
AcDbFaceRecord
 10
0.0
 20
0.0
 30
0.0
 70
   128
 71
   199
 72
   198
 73
   204
 74
   203
  0
VERTEX
  5
3BA
330
12B
100
AcDbEntity
  8
ｴｸｽﾃﾘｱ商品
 62
   250
370
    20
100
AcDbFaceRecord
 10
0.0
 20
0.0
 30
0.0
 70
   128
 71
   198
 72
   197
 73
   205
 74
   204
  0
VERTEX
  5
3BB
330
12B
100
AcDbEntity
  8
ｴｸｽﾃﾘｱ商品
 62
   250
370
    20
100
AcDbFaceRecord
 10
0.0
 20
0.0
 30
0.0
 70
   128
 71
   197
 72
   196
 73
   206
 74
   205
  0
VERTEX
  5
3BC
330
12B
100
AcDbEntity
  8
ｴｸｽﾃﾘｱ商品
 62
   250
370
    20
100
AcDbFaceRecord
 10
0.0
 20
0.0
 30
0.0
 70
   128
 71
   196
 72
   195
 73
   207
 74
   206
  0
VERTEX
  5
3BD
330
12B
100
AcDbEntity
  8
ｴｸｽﾃﾘｱ商品
 62
   250
370
    20
100
AcDbFaceRecord
 10
0.0
 20
0.0
 30
0.0
 70
   128
 71
   195
 72
   194
 73
   208
 74
   207
  0
VERTEX
  5
3BE
330
12B
100
AcDbEntity
  8
ｴｸｽﾃﾘｱ商品
 62
   250
370
    20
100
AcDbFaceRecord
 10
0.0
 20
0.0
 30
0.0
 70
   128
 71
   194
 72
   193
 73
   209
 74
   208
  0
VERTEX
  5
3BF
330
12B
100
AcDbEntity
  8
ｴｸｽﾃﾘｱ商品
 62
   250
370
    20
100
AcDbFaceRecord
 10
0.0
 20
0.0
 30
0.0
 70
   128
 71
   193
 72
   192
 73
   210
 74
   209
  0
VERTEX
  5
3C0
330
12B
100
AcDbEntity
  8
ｴｸｽﾃﾘｱ商品
 62
   250
370
    20
100
AcDbFaceRecord
 10
0.0
 20
0.0
 30
0.0
 70
   128
 71
   192
 72
   191
 73
   211
 74
   210
  0
VERTEX
  5
3C1
330
12B
100
AcDbEntity
  8
ｴｸｽﾃﾘｱ商品
 62
   250
370
    20
100
AcDbFaceRecord
 10
0.0
 20
0.0
 30
0.0
 70
   128
 71
   191
 72
   190
 73
   212
 74
   211
  0
VERTEX
  5
3C2
330
12B
100
AcDbEntity
  8
ｴｸｽﾃﾘｱ商品
 62
   250
370
    20
100
AcDbFaceRecord
 10
0.0
 20
0.0
 30
0.0
 70
   128
 71
   190
 72
   189
 73
   213
 74
   212
  0
VERTEX
  5
3C3
330
12B
100
AcDbEntity
  8
ｴｸｽﾃﾘｱ商品
 62
   250
370
    20
100
AcDbFaceRecord
 10
0.0
 20
0.0
 30
0.0
 70
   128
 71
   189
 72
   188
 73
   214
 74
   213
  0
VERTEX
  5
3C4
330
12B
100
AcDbEntity
  8
ｴｸｽﾃﾘｱ商品
 62
   250
370
    20
100
AcDbFaceRecord
 10
0.0
 20
0.0
 30
0.0
 70
   128
 71
   188
 72
   187
 73
   215
 74
   214
  0
VERTEX
  5
3C5
330
12B
100
AcDbEntity
  8
ｴｸｽﾃﾘｱ商品
 62
   250
370
    20
100
AcDbFaceRecord
 10
0.0
 20
0.0
 30
0.0
 70
   128
 71
   187
 72
   186
 73
   216
 74
   215
  0
VERTEX
  5
3C6
330
12B
100
AcDbEntity
  8
ｴｸｽﾃﾘｱ商品
 62
   250
370
    20
100
AcDbFaceRecord
 10
0.0
 20
0.0
 30
0.0
 70
   128
 71
   186
 72
   185
 73
   217
 74
   216
  0
VERTEX
  5
3C7
330
12B
100
AcDbEntity
  8
ｴｸｽﾃﾘｱ商品
 62
   250
370
    20
100
AcDbFaceRecord
 10
0.0
 20
0.0
 30
0.0
 70
   128
 71
   185
 72
   184
 73
   218
 74
   217
  0
VERTEX
  5
3C8
330
12B
100
AcDbEntity
  8
ｴｸｽﾃﾘｱ商品
 62
   250
370
    20
100
AcDbFaceRecord
 10
0.0
 20
0.0
 30
0.0
 70
   128
 71
   184
 72
   183
 73
   219
 74
   218
  0
VERTEX
  5
3C9
330
12B
100
AcDbEntity
  8
ｴｸｽﾃﾘｱ商品
 62
   250
370
    20
100
AcDbFaceRecord
 10
0.0
 20
0.0
 30
0.0
 70
   128
 71
   183
 72
   182
 73
   220
 74
   219
  0
VERTEX
  5
3CA
330
12B
100
AcDbEntity
  8
ｴｸｽﾃﾘｱ商品
 62
   250
370
    20
100
AcDbFaceRecord
 10
0.0
 20
0.0
 30
0.0
 70
   128
 71
   182
 72
   181
 73
   221
 74
   220
  0
VERTEX
  5
3CB
330
12B
100
AcDbEntity
  8
ｴｸｽﾃﾘｱ商品
 62
   250
370
    20
100
AcDbFaceRecord
 10
0.0
 20
0.0
 30
0.0
 70
   128
 71
   181
 72
   180
 73
   222
 74
   221
  0
VERTEX
  5
3CC
330
12B
100
AcDbEntity
  8
ｴｸｽﾃﾘｱ商品
 62
   250
370
    20
100
AcDbFaceRecord
 10
0.0
 20
0.0
 30
0.0
 70
   128
 71
   180
 72
   179
 73
   223
 74
   222
  0
VERTEX
  5
3CD
330
12B
100
AcDbEntity
  8
ｴｸｽﾃﾘｱ商品
 62
   250
370
    20
100
AcDbFaceRecord
 10
0.0
 20
0.0
 30
0.0
 70
   128
 71
   179
 72
   178
 73
   224
 74
   223
  0
VERTEX
  5
3CE
330
12B
100
AcDbEntity
  8
ｴｸｽﾃﾘｱ商品
 62
   250
370
    20
100
AcDbFaceRecord
 10
0.0
 20
0.0
 30
0.0
 70
   128
 71
   178
 72
   177
 73
   201
 74
   224
  0
VERTEX
  5
3CF
330
12B
100
AcDbEntity
  8
ｴｸｽﾃﾘｱ商品
 62
   250
370
    20
100
AcDbFaceRecord
 10
0.0
 20
0.0
 30
0.0
 70
   128
 71
   225
 72
   226
 73
   227
 74
   228
  0
VERTEX
  5
3D0
330
12B
100
AcDbEntity
  8
ｴｸｽﾃﾘｱ商品
 62
   250
370
    20
100
AcDbFaceRecord
 10
0.0
 20
0.0
 30
0.0
 70
   128
 71
   225
 72
   228
 73
   229
 74
   230
  0
VERTEX
  5
3D1
330
12B
100
AcDbEntity
  8
ｴｸｽﾃﾘｱ商品
 62
   250
370
    20
100
AcDbFaceRecord
 10
0.0
 20
0.0
 30
0.0
 70
   128
 71
   225
 72
   230
 73
   231
 74
   232
  0
VERTEX
  5
3D2
330
12B
100
AcDbEntity
  8
ｴｸｽﾃﾘｱ商品
 62
   250
370
    20
100
AcDbFaceRecord
 10
0.0
 20
0.0
 30
0.0
 70
   128
 71
   225
 72
   232
 73
   233
 74
   234
  0
VERTEX
  5
3D3
330
12B
100
AcDbEntity
  8
ｴｸｽﾃﾘｱ商品
 62
   250
370
    20
100
AcDbFaceRecord
 10
0.0
 20
0.0
 30
0.0
 70
   128
 71
   225
 72
   234
 73
   235
 74
   236
  0
VERTEX
  5
3D4
330
12B
100
AcDbEntity
  8
ｴｸｽﾃﾘｱ商品
 62
   250
370
    20
100
AcDbFaceRecord
 10
0.0
 20
0.0
 30
0.0
 70
   128
 71
   225
 72
   236
 73
   237
 74
   238
  0
VERTEX
  5
3D5
330
12B
100
AcDbEntity
  8
ｴｸｽﾃﾘｱ商品
 62
   250
370
    20
100
AcDbFaceRecord
 10
0.0
 20
0.0
 30
0.0
 70
   128
 71
   225
 72
   238
 73
   239
 74
   240
  0
VERTEX
  5
3D6
330
12B
100
AcDbEntity
  8
ｴｸｽﾃﾘｱ商品
 62
   250
370
    20
100
AcDbFaceRecord
 10
0.0
 20
0.0
 30
0.0
 70
   128
 71
   225
 72
   240
 73
   241
 74
   242
  0
VERTEX
  5
3D7
330
12B
100
AcDbEntity
  8
ｴｸｽﾃﾘｱ商品
 62
   250
370
    20
100
AcDbFaceRecord
 10
0.0
 20
0.0
 30
0.0
 70
   128
 71
   225
 72
   242
 73
   243
 74
   244
  0
VERTEX
  5
3D8
330
12B
100
AcDbEntity
  8
ｴｸｽﾃﾘｱ商品
 62
   250
370
    20
100
AcDbFaceRecord
 10
0.0
 20
0.0
 30
0.0
 70
   128
 71
   225
 72
   244
 73
   245
 74
   246
  0
VERTEX
  5
3D9
330
12B
100
AcDbEntity
  8
ｴｸｽﾃﾘｱ商品
 62
   250
370
    20
100
AcDbFaceRecord
 10
0.0
 20
0.0
 30
0.0
 70
   128
 71
   225
 72
   246
 73
   247
 74
   248
  0
VERTEX
  5
3DA
330
12B
100
AcDbEntity
  8
ｴｸｽﾃﾘｱ商品
 62
   250
370
    20
100
AcDbFaceRecord
 10
0.0
 20
0.0
 30
0.0
 70
   128
 71
   249
 72
   250
 73
   251
 74
   252
  0
VERTEX
  5
3DB
330
12B
100
AcDbEntity
  8
ｴｸｽﾃﾘｱ商品
 62
   250
370
    20
100
AcDbFaceRecord
 10
0.0
 20
0.0
 30
0.0
 70
   128
 71
   249
 72
   252
 73
   253
 74
   254
  0
VERTEX
  5
3DC
330
12B
100
AcDbEntity
  8
ｴｸｽﾃﾘｱ商品
 62
   250
370
    20
100
AcDbFaceRecord
 10
0.0
 20
0.0
 30
0.0
 70
   128
 71
   249
 72
   254
 73
   255
 74
   256
  0
VERTEX
  5
3DD
330
12B
100
AcDbEntity
  8
ｴｸｽﾃﾘｱ商品
 62
   250
370
    20
100
AcDbFaceRecord
 10
0.0
 20
0.0
 30
0.0
 70
   128
 71
   249
 72
   256
 73
   257
 74
   258
  0
VERTEX
  5
3DE
330
12B
100
AcDbEntity
  8
ｴｸｽﾃﾘｱ商品
 62
   250
370
    20
100
AcDbFaceRecord
 10
0.0
 20
0.0
 30
0.0
 70
   128
 71
   249
 72
   258
 73
   259
 74
   260
  0
VERTEX
  5
3DF
330
12B
100
AcDbEntity
  8
ｴｸｽﾃﾘｱ商品
 62
   250
370
    20
100
AcDbFaceRecord
 10
0.0
 20
0.0
 30
0.0
 70
   128
 71
   249
 72
   260
 73
   261
 74
   262
  0
VERTEX
  5
3E0
330
12B
100
AcDbEntity
  8
ｴｸｽﾃﾘｱ商品
 62
   250
370
    20
100
AcDbFaceRecord
 10
0.0
 20
0.0
 30
0.0
 70
   128
 71
   249
 72
   262
 73
   263
 74
   264
  0
VERTEX
  5
3E1
330
12B
100
AcDbEntity
  8
ｴｸｽﾃﾘｱ商品
 62
   250
370
    20
100
AcDbFaceRecord
 10
0.0
 20
0.0
 30
0.0
 70
   128
 71
   249
 72
   264
 73
   265
 74
   266
  0
VERTEX
  5
3E2
330
12B
100
AcDbEntity
  8
ｴｸｽﾃﾘｱ商品
 62
   250
370
    20
100
AcDbFaceRecord
 10
0.0
 20
0.0
 30
0.0
 70
   128
 71
   249
 72
   266
 73
   267
 74
   268
  0
VERTEX
  5
3E3
330
12B
100
AcDbEntity
  8
ｴｸｽﾃﾘｱ商品
 62
   250
370
    20
100
AcDbFaceRecord
 10
0.0
 20
0.0
 30
0.0
 70
   128
 71
   249
 72
   268
 73
   269
 74
   270
  0
VERTEX
  5
3E4
330
12B
100
AcDbEntity
  8
ｴｸｽﾃﾘｱ商品
 62
   250
370
    20
100
AcDbFaceRecord
 10
0.0
 20
0.0
 30
0.0
 70
   128
 71
   249
 72
   270
 73
   271
 74
   272
  0
VERTEX
  5
3E5
330
12B
100
AcDbEntity
  8
ｴｸｽﾃﾘｱ商品
 62
   250
370
    20
100
AcDbFaceRecord
 10
0.0
 20
0.0
 30
0.0
 70
   128
 71
   225
 72
   249
 73
   272
 74
   226
  0
VERTEX
  5
3E6
330
12B
100
AcDbEntity
  8
ｴｸｽﾃﾘｱ商品
 62
   250
370
    20
100
AcDbFaceRecord
 10
0.0
 20
0.0
 30
0.0
 70
   128
 71
   226
 72
   272
 73
   271
 74
   227
  0
VERTEX
  5
3E7
330
12B
100
AcDbEntity
  8
ｴｸｽﾃﾘｱ商品
 62
   250
370
    20
100
AcDbFaceRecord
 10
0.0
 20
0.0
 30
0.0
 70
   128
 71
   227
 72
   271
 73
   270
 74
   228
  0
VERTEX
  5
3E8
330
12B
100
AcDbEntity
  8
ｴｸｽﾃﾘｱ商品
 62
   250
370
    20
100
AcDbFaceRecord
 10
0.0
 20
0.0
 30
0.0
 70
   128
 71
   228
 72
   270
 73
   269
 74
   229
  0
VERTEX
  5
3E9
330
12B
100
AcDbEntity
  8
ｴｸｽﾃﾘｱ商品
 62
   250
370
    20
100
AcDbFaceRecord
 10
0.0
 20
0.0
 30
0.0
 70
   128
 71
   229
 72
   269
 73
   268
 74
   230
  0
VERTEX
  5
3EA
330
12B
100
AcDbEntity
  8
ｴｸｽﾃﾘｱ商品
 62
   250
370
    20
100
AcDbFaceRecord
 10
0.0
 20
0.0
 30
0.0
 70
   128
 71
   230
 72
   268
 73
   267
 74
   231
  0
VERTEX
  5
3EB
330
12B
100
AcDbEntity
  8
ｴｸｽﾃﾘｱ商品
 62
   250
370
    20
100
AcDbFaceRecord
 10
0.0
 20
0.0
 30
0.0
 70
   128
 71
   231
 72
   267
 73
   266
 74
   232
  0
VERTEX
  5
3EC
330
12B
100
AcDbEntity
  8
ｴｸｽﾃﾘｱ商品
 62
   250
370
    20
100
AcDbFaceRecord
 10
0.0
 20
0.0
 30
0.0
 70
   128
 71
   232
 72
   266
 73
   265
 74
   233
  0
VERTEX
  5
3ED
330
12B
100
AcDbEntity
  8
ｴｸｽﾃﾘｱ商品
 62
   250
370
    20
100
AcDbFaceRecord
 10
0.0
 20
0.0
 30
0.0
 70
   128
 71
   233
 72
   265
 73
   264
 74
   234
  0
VERTEX
  5
3EE
330
12B
100
AcDbEntity
  8
ｴｸｽﾃﾘｱ商品
 62
   250
370
    20
100
AcDbFaceRecord
 10
0.0
 20
0.0
 30
0.0
 70
   128
 71
   234
 72
   264
 73
   263
 74
   235
  0
VERTEX
  5
3EF
330
12B
100
AcDbEntity
  8
ｴｸｽﾃﾘｱ商品
 62
   250
370
    20
100
AcDbFaceRecord
 10
0.0
 20
0.0
 30
0.0
 70
   128
 71
   235
 72
   263
 73
   262
 74
   236
  0
VERTEX
  5
3F0
330
12B
100
AcDbEntity
  8
ｴｸｽﾃﾘｱ商品
 62
   250
370
    20
100
AcDbFaceRecord
 10
0.0
 20
0.0
 30
0.0
 70
   128
 71
   236
 72
   262
 73
   261
 74
   237
  0
VERTEX
  5
3F1
330
12B
100
AcDbEntity
  8
ｴｸｽﾃﾘｱ商品
 62
   250
370
    20
100
AcDbFaceRecord
 10
0.0
 20
0.0
 30
0.0
 70
   128
 71
   237
 72
   261
 73
   260
 74
   238
  0
VERTEX
  5
3F2
330
12B
100
AcDbEntity
  8
ｴｸｽﾃﾘｱ商品
 62
   250
370
    20
100
AcDbFaceRecord
 10
0.0
 20
0.0
 30
0.0
 70
   128
 71
   238
 72
   260
 73
   259
 74
   239
  0
VERTEX
  5
3F3
330
12B
100
AcDbEntity
  8
ｴｸｽﾃﾘｱ商品
 62
   250
370
    20
100
AcDbFaceRecord
 10
0.0
 20
0.0
 30
0.0
 70
   128
 71
   239
 72
   259
 73
   258
 74
   240
  0
VERTEX
  5
3F4
330
12B
100
AcDbEntity
  8
ｴｸｽﾃﾘｱ商品
 62
   250
370
    20
100
AcDbFaceRecord
 10
0.0
 20
0.0
 30
0.0
 70
   128
 71
   240
 72
   258
 73
   257
 74
   241
  0
VERTEX
  5
3F5
330
12B
100
AcDbEntity
  8
ｴｸｽﾃﾘｱ商品
 62
   250
370
    20
100
AcDbFaceRecord
 10
0.0
 20
0.0
 30
0.0
 70
   128
 71
   241
 72
   257
 73
   256
 74
   242
  0
VERTEX
  5
3F6
330
12B
100
AcDbEntity
  8
ｴｸｽﾃﾘｱ商品
 62
   250
370
    20
100
AcDbFaceRecord
 10
0.0
 20
0.0
 30
0.0
 70
   128
 71
   242
 72
   256
 73
   255
 74
   243
  0
VERTEX
  5
3F7
330
12B
100
AcDbEntity
  8
ｴｸｽﾃﾘｱ商品
 62
   250
370
    20
100
AcDbFaceRecord
 10
0.0
 20
0.0
 30
0.0
 70
   128
 71
   243
 72
   255
 73
   254
 74
   244
  0
VERTEX
  5
3F8
330
12B
100
AcDbEntity
  8
ｴｸｽﾃﾘｱ商品
 62
   250
370
    20
100
AcDbFaceRecord
 10
0.0
 20
0.0
 30
0.0
 70
   128
 71
   244
 72
   254
 73
   253
 74
   245
  0
VERTEX
  5
3F9
330
12B
100
AcDbEntity
  8
ｴｸｽﾃﾘｱ商品
 62
   250
370
    20
100
AcDbFaceRecord
 10
0.0
 20
0.0
 30
0.0
 70
   128
 71
   245
 72
   253
 73
   252
 74
   246
  0
VERTEX
  5
3FA
330
12B
100
AcDbEntity
  8
ｴｸｽﾃﾘｱ商品
 62
   250
370
    20
100
AcDbFaceRecord
 10
0.0
 20
0.0
 30
0.0
 70
   128
 71
   246
 72
   252
 73
   251
 74
   247
  0
VERTEX
  5
3FB
330
12B
100
AcDbEntity
  8
ｴｸｽﾃﾘｱ商品
 62
   250
370
    20
100
AcDbFaceRecord
 10
0.0
 20
0.0
 30
0.0
 70
   128
 71
   247
 72
   251
 73
   250
 74
   248
  0
VERTEX
  5
3FC
330
12B
100
AcDbEntity
  8
ｴｸｽﾃﾘｱ商品
 62
   250
370
    20
100
AcDbFaceRecord
 10
0.0
 20
0.0
 30
0.0
 70
   128
 71
   248
 72
   250
 73
   249
 74
   225
  0
VERTEX
  5
3FD
330
12B
100
AcDbEntity
  8
ｴｸｽﾃﾘｱ商品
 62
   250
370
    20
100
AcDbFaceRecord
 10
0.0
 20
0.0
 30
0.0
 70
   128
 71
   273
 72
   274
 73
   275
 74
   276
  0
VERTEX
  5
3FE
330
12B
100
AcDbEntity
  8
ｴｸｽﾃﾘｱ商品
 62
   250
370
    20
100
AcDbFaceRecord
 10
0.0
 20
0.0
 30
0.0
 70
   128
 71
   273
 72
   276
 73
   277
 74
   278
  0
VERTEX
  5
3FF
330
12B
100
AcDbEntity
  8
ｴｸｽﾃﾘｱ商品
 62
   250
370
    20
100
AcDbFaceRecord
 10
0.0
 20
0.0
 30
0.0
 70
   128
 71
   273
 72
   278
 73
   279
 74
   280
  0
VERTEX
  5
400
330
12B
100
AcDbEntity
  8
ｴｸｽﾃﾘｱ商品
 62
   250
370
    20
100
AcDbFaceRecord
 10
0.0
 20
0.0
 30
0.0
 70
   128
 71
   273
 72
   280
 73
   281
 74
   282
  0
VERTEX
  5
401
330
12B
100
AcDbEntity
  8
ｴｸｽﾃﾘｱ商品
 62
   250
370
    20
100
AcDbFaceRecord
 10
0.0
 20
0.0
 30
0.0
 70
   128
 71
   273
 72
   282
 73
   283
 74
   284
  0
VERTEX
  5
402
330
12B
100
AcDbEntity
  8
ｴｸｽﾃﾘｱ商品
 62
   250
370
    20
100
AcDbFaceRecord
 10
0.0
 20
0.0
 30
0.0
 70
   128
 71
   273
 72
   284
 73
   285
 74
   286
  0
VERTEX
  5
403
330
12B
100
AcDbEntity
  8
ｴｸｽﾃﾘｱ商品
 62
   250
370
    20
100
AcDbFaceRecord
 10
0.0
 20
0.0
 30
0.0
 70
   128
 71
   273
 72
   286
 73
   287
 74
   288
  0
VERTEX
  5
404
330
12B
100
AcDbEntity
  8
ｴｸｽﾃﾘｱ商品
 62
   250
370
    20
100
AcDbFaceRecord
 10
0.0
 20
0.0
 30
0.0
 70
   128
 71
   273
 72
   288
 73
   289
 74
   290
  0
VERTEX
  5
405
330
12B
100
AcDbEntity
  8
ｴｸｽﾃﾘｱ商品
 62
   250
370
    20
100
AcDbFaceRecord
 10
0.0
 20
0.0
 30
0.0
 70
   128
 71
   273
 72
   290
 73
   291
 74
   292
  0
VERTEX
  5
406
330
12B
100
AcDbEntity
  8
ｴｸｽﾃﾘｱ商品
 62
   250
370
    20
100
AcDbFaceRecord
 10
0.0
 20
0.0
 30
0.0
 70
   128
 71
   273
 72
   292
 73
   293
 74
   294
  0
VERTEX
  5
407
330
12B
100
AcDbEntity
  8
ｴｸｽﾃﾘｱ商品
 62
   250
370
    20
100
AcDbFaceRecord
 10
0.0
 20
0.0
 30
0.0
 70
   128
 71
   273
 72
   294
 73
   295
 74
   296
  0
VERTEX
  5
408
330
12B
100
AcDbEntity
  8
ｴｸｽﾃﾘｱ商品
 62
   250
370
    20
100
AcDbFaceRecord
 10
0.0
 20
0.0
 30
0.0
 70
   128
 71
   297
 72
   298
 73
   299
 74
   300
  0
VERTEX
  5
409
330
12B
100
AcDbEntity
  8
ｴｸｽﾃﾘｱ商品
 62
   250
370
    20
100
AcDbFaceRecord
 10
0.0
 20
0.0
 30
0.0
 70
   128
 71
   297
 72
   300
 73
   301
 74
   302
  0
VERTEX
  5
40A
330
12B
100
AcDbEntity
  8
ｴｸｽﾃﾘｱ商品
 62
   250
370
    20
100
AcDbFaceRecord
 10
0.0
 20
0.0
 30
0.0
 70
   128
 71
   297
 72
   302
 73
   303
 74
   304
  0
VERTEX
  5
40B
330
12B
100
AcDbEntity
  8
ｴｸｽﾃﾘｱ商品
 62
   250
370
    20
100
AcDbFaceRecord
 10
0.0
 20
0.0
 30
0.0
 70
   128
 71
   297
 72
   304
 73
   305
 74
   306
  0
VERTEX
  5
40C
330
12B
100
AcDbEntity
  8
ｴｸｽﾃﾘｱ商品
 62
   250
370
    20
100
AcDbFaceRecord
 10
0.0
 20
0.0
 30
0.0
 70
   128
 71
   297
 72
   306
 73
   307
 74
   308
  0
VERTEX
  5
40D
330
12B
100
AcDbEntity
  8
ｴｸｽﾃﾘｱ商品
 62
   250
370
    20
100
AcDbFaceRecord
 10
0.0
 20
0.0
 30
0.0
 70
   128
 71
   297
 72
   308
 73
   309
 74
   310
  0
VERTEX
  5
40E
330
12B
100
AcDbEntity
  8
ｴｸｽﾃﾘｱ商品
 62
   250
370
    20
100
AcDbFaceRecord
 10
0.0
 20
0.0
 30
0.0
 70
   128
 71
   297
 72
   310
 73
   311
 74
   312
  0
VERTEX
  5
40F
330
12B
100
AcDbEntity
  8
ｴｸｽﾃﾘｱ商品
 62
   250
370
    20
100
AcDbFaceRecord
 10
0.0
 20
0.0
 30
0.0
 70
   128
 71
   297
 72
   312
 73
   313
 74
   314
  0
VERTEX
  5
410
330
12B
100
AcDbEntity
  8
ｴｸｽﾃﾘｱ商品
 62
   250
370
    20
100
AcDbFaceRecord
 10
0.0
 20
0.0
 30
0.0
 70
   128
 71
   297
 72
   314
 73
   315
 74
   316
  0
VERTEX
  5
411
330
12B
100
AcDbEntity
  8
ｴｸｽﾃﾘｱ商品
 62
   250
370
    20
100
AcDbFaceRecord
 10
0.0
 20
0.0
 30
0.0
 70
   128
 71
   297
 72
   316
 73
   317
 74
   318
  0
VERTEX
  5
412
330
12B
100
AcDbEntity
  8
ｴｸｽﾃﾘｱ商品
 62
   250
370
    20
100
AcDbFaceRecord
 10
0.0
 20
0.0
 30
0.0
 70
   128
 71
   297
 72
   318
 73
   319
 74
   320
  0
VERTEX
  5
413
330
12B
100
AcDbEntity
  8
ｴｸｽﾃﾘｱ商品
 62
   250
370
    20
100
AcDbFaceRecord
 10
0.0
 20
0.0
 30
0.0
 70
   128
 71
   273
 72
   297
 73
   320
 74
   274
  0
VERTEX
  5
414
330
12B
100
AcDbEntity
  8
ｴｸｽﾃﾘｱ商品
 62
   250
370
    20
100
AcDbFaceRecord
 10
0.0
 20
0.0
 30
0.0
 70
   128
 71
   274
 72
   320
 73
   319
 74
   275
  0
VERTEX
  5
415
330
12B
100
AcDbEntity
  8
ｴｸｽﾃﾘｱ商品
 62
   250
370
    20
100
AcDbFaceRecord
 10
0.0
 20
0.0
 30
0.0
 70
   128
 71
   275
 72
   319
 73
   318
 74
   276
  0
VERTEX
  5
416
330
12B
100
AcDbEntity
  8
ｴｸｽﾃﾘｱ商品
 62
   250
370
    20
100
AcDbFaceRecord
 10
0.0
 20
0.0
 30
0.0
 70
   128
 71
   276
 72
   318
 73
   317
 74
   277
  0
VERTEX
  5
417
330
12B
100
AcDbEntity
  8
ｴｸｽﾃﾘｱ商品
 62
   250
370
    20
100
AcDbFaceRecord
 10
0.0
 20
0.0
 30
0.0
 70
   128
 71
   277
 72
   317
 73
   316
 74
   278
  0
VERTEX
  5
418
330
12B
100
AcDbEntity
  8
ｴｸｽﾃﾘｱ商品
 62
   250
370
    20
100
AcDbFaceRecord
 10
0.0
 20
0.0
 30
0.0
 70
   128
 71
   278
 72
   316
 73
   315
 74
   279
  0
VERTEX
  5
419
330
12B
100
AcDbEntity
  8
ｴｸｽﾃﾘｱ商品
 62
   250
370
    20
100
AcDbFaceRecord
 10
0.0
 20
0.0
 30
0.0
 70
   128
 71
   279
 72
   315
 73
   314
 74
   280
  0
VERTEX
  5
41A
330
12B
100
AcDbEntity
  8
ｴｸｽﾃﾘｱ商品
 62
   250
370
    20
100
AcDbFaceRecord
 10
0.0
 20
0.0
 30
0.0
 70
   128
 71
   280
 72
   314
 73
   313
 74
   281
  0
VERTEX
  5
41B
330
12B
100
AcDbEntity
  8
ｴｸｽﾃﾘｱ商品
 62
   250
370
    20
100
AcDbFaceRecord
 10
0.0
 20
0.0
 30
0.0
 70
   128
 71
   281
 72
   313
 73
   312
 74
   282
  0
VERTEX
  5
41C
330
12B
100
AcDbEntity
  8
ｴｸｽﾃﾘｱ商品
 62
   250
370
    20
100
AcDbFaceRecord
 10
0.0
 20
0.0
 30
0.0
 70
   128
 71
   282
 72
   312
 73
   311
 74
   283
  0
VERTEX
  5
41D
330
12B
100
AcDbEntity
  8
ｴｸｽﾃﾘｱ商品
 62
   250
370
    20
100
AcDbFaceRecord
 10
0.0
 20
0.0
 30
0.0
 70
   128
 71
   283
 72
   311
 73
   310
 74
   284
  0
VERTEX
  5
41E
330
12B
100
AcDbEntity
  8
ｴｸｽﾃﾘｱ商品
 62
   250
370
    20
100
AcDbFaceRecord
 10
0.0
 20
0.0
 30
0.0
 70
   128
 71
   284
 72
   310
 73
   309
 74
   285
  0
VERTEX
  5
41F
330
12B
100
AcDbEntity
  8
ｴｸｽﾃﾘｱ商品
 62
   250
370
    20
100
AcDbFaceRecord
 10
0.0
 20
0.0
 30
0.0
 70
   128
 71
   285
 72
   309
 73
   308
 74
   286
  0
VERTEX
  5
420
330
12B
100
AcDbEntity
  8
ｴｸｽﾃﾘｱ商品
 62
   250
370
    20
100
AcDbFaceRecord
 10
0.0
 20
0.0
 30
0.0
 70
   128
 71
   286
 72
   308
 73
   307
 74
   287
  0
VERTEX
  5
421
330
12B
100
AcDbEntity
  8
ｴｸｽﾃﾘｱ商品
 62
   250
370
    20
100
AcDbFaceRecord
 10
0.0
 20
0.0
 30
0.0
 70
   128
 71
   287
 72
   307
 73
   306
 74
   288
  0
VERTEX
  5
422
330
12B
100
AcDbEntity
  8
ｴｸｽﾃﾘｱ商品
 62
   250
370
    20
100
AcDbFaceRecord
 10
0.0
 20
0.0
 30
0.0
 70
   128
 71
   288
 72
   306
 73
   305
 74
   289
  0
VERTEX
  5
423
330
12B
100
AcDbEntity
  8
ｴｸｽﾃﾘｱ商品
 62
   250
370
    20
100
AcDbFaceRecord
 10
0.0
 20
0.0
 30
0.0
 70
   128
 71
   289
 72
   305
 73
   304
 74
   290
  0
VERTEX
  5
424
330
12B
100
AcDbEntity
  8
ｴｸｽﾃﾘｱ商品
 62
   250
370
    20
100
AcDbFaceRecord
 10
0.0
 20
0.0
 30
0.0
 70
   128
 71
   290
 72
   304
 73
   303
 74
   291
  0
VERTEX
  5
425
330
12B
100
AcDbEntity
  8
ｴｸｽﾃﾘｱ商品
 62
   250
370
    20
100
AcDbFaceRecord
 10
0.0
 20
0.0
 30
0.0
 70
   128
 71
   291
 72
   303
 73
   302
 74
   292
  0
VERTEX
  5
426
330
12B
100
AcDbEntity
  8
ｴｸｽﾃﾘｱ商品
 62
   250
370
    20
100
AcDbFaceRecord
 10
0.0
 20
0.0
 30
0.0
 70
   128
 71
   292
 72
   302
 73
   301
 74
   293
  0
VERTEX
  5
427
330
12B
100
AcDbEntity
  8
ｴｸｽﾃﾘｱ商品
 62
   250
370
    20
100
AcDbFaceRecord
 10
0.0
 20
0.0
 30
0.0
 70
   128
 71
   293
 72
   301
 73
   300
 74
   294
  0
VERTEX
  5
428
330
12B
100
AcDbEntity
  8
ｴｸｽﾃﾘｱ商品
 62
   250
370
    20
100
AcDbFaceRecord
 10
0.0
 20
0.0
 30
0.0
 70
   128
 71
   294
 72
   300
 73
   299
 74
   295
  0
VERTEX
  5
429
330
12B
100
AcDbEntity
  8
ｴｸｽﾃﾘｱ商品
 62
   250
370
    20
100
AcDbFaceRecord
 10
0.0
 20
0.0
 30
0.0
 70
   128
 71
   295
 72
   299
 73
   298
 74
   296
  0
VERTEX
  5
42A
330
12B
100
AcDbEntity
  8
ｴｸｽﾃﾘｱ商品
 62
   250
370
    20
100
AcDbFaceRecord
 10
0.0
 20
0.0
 30
0.0
 70
   128
 71
   296
 72
   298
 73
   297
 74
   273
  0
VERTEX
  5
42B
330
12B
100
AcDbEntity
  8
ｴｸｽﾃﾘｱ商品
 62
   250
370
    20
100
AcDbFaceRecord
 10
0.0
 20
0.0
 30
0.0
 70
   128
 71
   321
 72
   322
 73
   323
 74
   324
  0
VERTEX
  5
42C
330
12B
100
AcDbEntity
  8
ｴｸｽﾃﾘｱ商品
 62
   250
370
    20
100
AcDbFaceRecord
 10
0.0
 20
0.0
 30
0.0
 70
   128
 71
   324
 72
   323
 73
   325
 74
   326
  0
VERTEX
  5
42D
330
12B
100
AcDbEntity
  8
ｴｸｽﾃﾘｱ商品
 62
   250
370
    20
100
AcDbFaceRecord
 10
0.0
 20
0.0
 30
0.0
 70
   128
 71
   326
 72
   325
 73
   327
 74
   328
  0
VERTEX
  5
42E
330
12B
100
AcDbEntity
  8
ｴｸｽﾃﾘｱ商品
 62
   250
370
    20
100
AcDbFaceRecord
 10
0.0
 20
0.0
 30
0.0
 70
   128
 71
   328
 72
   327
 73
   329
 74
   330
  0
VERTEX
  5
42F
330
12B
100
AcDbEntity
  8
ｴｸｽﾃﾘｱ商品
 62
   250
370
    20
100
AcDbFaceRecord
 10
0.0
 20
0.0
 30
0.0
 70
   128
 71
   330
 72
   329
 73
   331
 74
   332
  0
VERTEX
  5
430
330
12B
100
AcDbEntity
  8
ｴｸｽﾃﾘｱ商品
 62
   250
370
    20
100
AcDbFaceRecord
 10
0.0
 20
0.0
 30
0.0
 70
   128
 71
   332
 72
   331
 73
   333
 74
   334
  0
VERTEX
  5
431
330
12B
100
AcDbEntity
  8
ｴｸｽﾃﾘｱ商品
 62
   250
370
    20
100
AcDbFaceRecord
 10
0.0
 20
0.0
 30
0.0
 70
   128
 71
   334
 72
   333
 73
   322
 74
   321
  0
VERTEX
  5
432
330
12B
100
AcDbEntity
  8
ｴｸｽﾃﾘｱ商品
 62
   250
370
    20
100
AcDbFaceRecord
 10
0.0
 20
0.0
 30
0.0
 70
   128
 71
   324
 72
   326
 73
   328
  0
VERTEX
  5
433
330
12B
100
AcDbEntity
  8
ｴｸｽﾃﾘｱ商品
 62
   250
370
    20
100
AcDbFaceRecord
 10
0.0
 20
0.0
 30
0.0
 70
   128
 71
   328
 72
   330
 73
   332
  0
VERTEX
  5
434
330
12B
100
AcDbEntity
  8
ｴｸｽﾃﾘｱ商品
 62
   250
370
    20
100
AcDbFaceRecord
 10
0.0
 20
0.0
 30
0.0
 70
   128
 71
   324
 72
   328
 73
   332
  0
VERTEX
  5
435
330
12B
100
AcDbEntity
  8
ｴｸｽﾃﾘｱ商品
 62
   250
370
    20
100
AcDbFaceRecord
 10
0.0
 20
0.0
 30
0.0
 70
   128
 71
   321
 72
   324
 73
   332
  0
VERTEX
  5
436
330
12B
100
AcDbEntity
  8
ｴｸｽﾃﾘｱ商品
 62
   250
370
    20
100
AcDbFaceRecord
 10
0.0
 20
0.0
 30
0.0
 70
   128
 71
   321
 72
   332
 73
   334
  0
VERTEX
  5
437
330
12B
100
AcDbEntity
  8
ｴｸｽﾃﾘｱ商品
 62
   250
370
    20
100
AcDbFaceRecord
 10
0.0
 20
0.0
 30
0.0
 70
   128
 71
   327
 72
   325
 73
   323
  0
VERTEX
  5
438
330
12B
100
AcDbEntity
  8
ｴｸｽﾃﾘｱ商品
 62
   250
370
    20
100
AcDbFaceRecord
 10
0.0
 20
0.0
 30
0.0
 70
   128
 71
   331
 72
   329
 73
   327
  0
VERTEX
  5
439
330
12B
100
AcDbEntity
  8
ｴｸｽﾃﾘｱ商品
 62
   250
370
    20
100
AcDbFaceRecord
 10
0.0
 20
0.0
 30
0.0
 70
   128
 71
   331
 72
   327
 73
   323
  0
VERTEX
  5
43A
330
12B
100
AcDbEntity
  8
ｴｸｽﾃﾘｱ商品
 62
   250
370
    20
100
AcDbFaceRecord
 10
0.0
 20
0.0
 30
0.0
 70
   128
 71
   333
 72
   331
 73
   322
  0
VERTEX
  5
43B
330
12B
100
AcDbEntity
  8
ｴｸｽﾃﾘｱ商品
 62
   250
370
    20
100
AcDbFaceRecord
 10
0.0
 20
0.0
 30
0.0
 70
   128
 71
   322
 72
   331
 73
   323
  0
VERTEX
  5
43C
330
12B
100
AcDbEntity
  8
ｴｸｽﾃﾘｱ商品
 62
   250
370
    20
100
AcDbFaceRecord
 10
0.0
 20
0.0
 30
0.0
 70
   128
 71
   335
 72
   336
 73
   337
 74
   338
  0
VERTEX
  5
43D
330
12B
100
AcDbEntity
  8
ｴｸｽﾃﾘｱ商品
 62
   250
370
    20
100
AcDbFaceRecord
 10
0.0
 20
0.0
 30
0.0
 70
   128
 71
   338
 72
   337
 73
   339
 74
   340
  0
VERTEX
  5
43E
330
12B
100
AcDbEntity
  8
ｴｸｽﾃﾘｱ商品
 62
   250
370
    20
100
AcDbFaceRecord
 10
0.0
 20
0.0
 30
0.0
 70
   128
 71
   340
 72
   339
 73
   341
 74
   342
  0
VERTEX
  5
43F
330
12B
100
AcDbEntity
  8
ｴｸｽﾃﾘｱ商品
 62
   250
370
    20
100
AcDbFaceRecord
 10
0.0
 20
0.0
 30
0.0
 70
   128
 71
   342
 72
   341
 73
   343
 74
   344
  0
VERTEX
  5
440
330
12B
100
AcDbEntity
  8
ｴｸｽﾃﾘｱ商品
 62
   250
370
    20
100
AcDbFaceRecord
 10
0.0
 20
0.0
 30
0.0
 70
   128
 71
   344
 72
   343
 73
   345
 74
   346
  0
VERTEX
  5
441
330
12B
100
AcDbEntity
  8
ｴｸｽﾃﾘｱ商品
 62
   250
370
    20
100
AcDbFaceRecord
 10
0.0
 20
0.0
 30
0.0
 70
   128
 71
   346
 72
   345
 73
   347
 74
   348
  0
VERTEX
  5
442
330
12B
100
AcDbEntity
  8
ｴｸｽﾃﾘｱ商品
 62
   250
370
    20
100
AcDbFaceRecord
 10
0.0
 20
0.0
 30
0.0
 70
   128
 71
   348
 72
   347
 73
   349
 74
   350
  0
VERTEX
  5
443
330
12B
100
AcDbEntity
  8
ｴｸｽﾃﾘｱ商品
 62
   250
370
    20
100
AcDbFaceRecord
 10
0.0
 20
0.0
 30
0.0
 70
   128
 71
   350
 72
   349
 73
   336
 74
   335
  0
VERTEX
  5
444
330
12B
100
AcDbEntity
  8
ｴｸｽﾃﾘｱ商品
 62
   250
370
    20
100
AcDbFaceRecord
 10
0.0
 20
0.0
 30
0.0
 70
   128
 71
   335
 72
   338
 73
   340
 74
   342
  0
VERTEX
  5
445
330
12B
100
AcDbEntity
  8
ｴｸｽﾃﾘｱ商品
 62
   250
370
    20
100
AcDbFaceRecord
 10
0.0
 20
0.0
 30
0.0
 70
   128
 71
   335
 72
   342
 73
   344
 74
   346
  0
VERTEX
  5
446
330
12B
100
AcDbEntity
  8
ｴｸｽﾃﾘｱ商品
 62
   250
370
    20
100
AcDbFaceRecord
 10
0.0
 20
0.0
 30
0.0
 70
   128
 71
   335
 72
   346
 73
   348
 74
   350
  0
VERTEX
  5
447
330
12B
100
AcDbEntity
  8
ｴｸｽﾃﾘｱ商品
 62
   250
370
    20
100
AcDbFaceRecord
 10
0.0
 20
0.0
 30
0.0
 70
   128
 71
   336
 72
   349
 73
   347
 74
   345
  0
VERTEX
  5
448
330
12B
100
AcDbEntity
  8
ｴｸｽﾃﾘｱ商品
 62
   250
370
    20
100
AcDbFaceRecord
 10
0.0
 20
0.0
 30
0.0
 70
   128
 71
   336
 72
   345
 73
   343
 74
   341
  0
VERTEX
  5
449
330
12B
100
AcDbEntity
  8
ｴｸｽﾃﾘｱ商品
 62
   250
370
    20
100
AcDbFaceRecord
 10
0.0
 20
0.0
 30
0.0
 70
   128
 71
   336
 72
   341
 73
   339
 74
   337
  0
VERTEX
  5
44A
330
12B
100
AcDbEntity
  8
ｴｸｽﾃﾘｱ商品
 62
   250
370
    20
100
AcDbFaceRecord
 10
0.0
 20
0.0
 30
0.0
 70
   128
 71
   351
 72
   352
 73
   353
 74
   354
  0
VERTEX
  5
44B
330
12B
100
AcDbEntity
  8
ｴｸｽﾃﾘｱ商品
 62
   250
370
    20
100
AcDbFaceRecord
 10
0.0
 20
0.0
 30
0.0
 70
   128
 71
   351
 72
   354
 73
   355
 74
   356
  0
VERTEX
  5
44C
330
12B
100
AcDbEntity
  8
ｴｸｽﾃﾘｱ商品
 62
   250
370
    20
100
AcDbFaceRecord
 10
0.0
 20
0.0
 30
0.0
 70
   128
 71
   351
 72
   356
 73
   357
 74
   358
  0
VERTEX
  5
44D
330
12B
100
AcDbEntity
  8
ｴｸｽﾃﾘｱ商品
 62
   250
370
    20
100
AcDbFaceRecord
 10
0.0
 20
0.0
 30
0.0
 70
   128
 71
   351
 72
   358
 73
   359
 74
   360
  0
VERTEX
  5
44E
330
12B
100
AcDbEntity
  8
ｴｸｽﾃﾘｱ商品
 62
   250
370
    20
100
AcDbFaceRecord
 10
0.0
 20
0.0
 30
0.0
 70
   128
 71
   351
 72
   360
 73
   361
 74
   362
  0
VERTEX
  5
44F
330
12B
100
AcDbEntity
  8
ｴｸｽﾃﾘｱ商品
 62
   250
370
    20
100
AcDbFaceRecord
 10
0.0
 20
0.0
 30
0.0
 70
   128
 71
   351
 72
   362
 73
   363
 74
   364
  0
VERTEX
  5
450
330
12B
100
AcDbEntity
  8
ｴｸｽﾃﾘｱ商品
 62
   250
370
    20
100
AcDbFaceRecord
 10
0.0
 20
0.0
 30
0.0
 70
   128
 71
   351
 72
   364
 73
   365
 74
   366
  0
VERTEX
  5
451
330
12B
100
AcDbEntity
  8
ｴｸｽﾃﾘｱ商品
 62
   250
370
    20
100
AcDbFaceRecord
 10
0.0
 20
0.0
 30
0.0
 70
   128
 71
   351
 72
   366
 73
   367
 74
   368
  0
VERTEX
  5
452
330
12B
100
AcDbEntity
  8
ｴｸｽﾃﾘｱ商品
 62
   250
370
    20
100
AcDbFaceRecord
 10
0.0
 20
0.0
 30
0.0
 70
   128
 71
   351
 72
   368
 73
   369
 74
   370
  0
VERTEX
  5
453
330
12B
100
AcDbEntity
  8
ｴｸｽﾃﾘｱ商品
 62
   250
370
    20
100
AcDbFaceRecord
 10
0.0
 20
0.0
 30
0.0
 70
   128
 71
   351
 72
   370
 73
   371
 74
   372
  0
VERTEX
  5
454
330
12B
100
AcDbEntity
  8
ｴｸｽﾃﾘｱ商品
 62
   250
370
    20
100
AcDbFaceRecord
 10
0.0
 20
0.0
 30
0.0
 70
   128
 71
   351
 72
   372
 73
   373
 74
   374
  0
VERTEX
  5
455
330
12B
100
AcDbEntity
  8
ｴｸｽﾃﾘｱ商品
 62
   250
370
    20
100
AcDbFaceRecord
 10
0.0
 20
0.0
 30
0.0
 70
   128
 71
   375
 72
   376
 73
   377
 74
   378
  0
VERTEX
  5
456
330
12B
100
AcDbEntity
  8
ｴｸｽﾃﾘｱ商品
 62
   250
370
    20
100
AcDbFaceRecord
 10
0.0
 20
0.0
 30
0.0
 70
   128
 71
   375
 72
   378
 73
   379
 74
   380
  0
VERTEX
  5
457
330
12B
100
AcDbEntity
  8
ｴｸｽﾃﾘｱ商品
 62
   250
370
    20
100
AcDbFaceRecord
 10
0.0
 20
0.0
 30
0.0
 70
   128
 71
   375
 72
   380
 73
   381
 74
   382
  0
VERTEX
  5
458
330
12B
100
AcDbEntity
  8
ｴｸｽﾃﾘｱ商品
 62
   250
370
    20
100
AcDbFaceRecord
 10
0.0
 20
0.0
 30
0.0
 70
   128
 71
   375
 72
   382
 73
   383
 74
   384
  0
VERTEX
  5
459
330
12B
100
AcDbEntity
  8
ｴｸｽﾃﾘｱ商品
 62
   250
370
    20
100
AcDbFaceRecord
 10
0.0
 20
0.0
 30
0.0
 70
   128
 71
   375
 72
   384
 73
   385
 74
   386
  0
VERTEX
  5
45A
330
12B
100
AcDbEntity
  8
ｴｸｽﾃﾘｱ商品
 62
   250
370
    20
100
AcDbFaceRecord
 10
0.0
 20
0.0
 30
0.0
 70
   128
 71
   375
 72
   386
 73
   387
 74
   388
  0
VERTEX
  5
45B
330
12B
100
AcDbEntity
  8
ｴｸｽﾃﾘｱ商品
 62
   250
370
    20
100
AcDbFaceRecord
 10
0.0
 20
0.0
 30
0.0
 70
   128
 71
   375
 72
   388
 73
   389
 74
   390
  0
VERTEX
  5
45C
330
12B
100
AcDbEntity
  8
ｴｸｽﾃﾘｱ商品
 62
   250
370
    20
100
AcDbFaceRecord
 10
0.0
 20
0.0
 30
0.0
 70
   128
 71
   375
 72
   390
 73
   391
 74
   392
  0
VERTEX
  5
45D
330
12B
100
AcDbEntity
  8
ｴｸｽﾃﾘｱ商品
 62
   250
370
    20
100
AcDbFaceRecord
 10
0.0
 20
0.0
 30
0.0
 70
   128
 71
   375
 72
   392
 73
   393
 74
   394
  0
VERTEX
  5
45E
330
12B
100
AcDbEntity
  8
ｴｸｽﾃﾘｱ商品
 62
   250
370
    20
100
AcDbFaceRecord
 10
0.0
 20
0.0
 30
0.0
 70
   128
 71
   375
 72
   394
 73
   395
 74
   396
  0
VERTEX
  5
45F
330
12B
100
AcDbEntity
  8
ｴｸｽﾃﾘｱ商品
 62
   250
370
    20
100
AcDbFaceRecord
 10
0.0
 20
0.0
 30
0.0
 70
   128
 71
   375
 72
   396
 73
   397
 74
   398
  0
VERTEX
  5
460
330
12B
100
AcDbEntity
  8
ｴｸｽﾃﾘｱ商品
 62
   250
370
    20
100
AcDbFaceRecord
 10
0.0
 20
0.0
 30
0.0
 70
   128
 71
   351
 72
   375
 73
   398
 74
   352
  0
VERTEX
  5
461
330
12B
100
AcDbEntity
  8
ｴｸｽﾃﾘｱ商品
 62
   250
370
    20
100
AcDbFaceRecord
 10
0.0
 20
0.0
 30
0.0
 70
   128
 71
   352
 72
   398
 73
   397
 74
   353
  0
VERTEX
  5
462
330
12B
100
AcDbEntity
  8
ｴｸｽﾃﾘｱ商品
 62
   250
370
    20
100
AcDbFaceRecord
 10
0.0
 20
0.0
 30
0.0
 70
   128
 71
   353
 72
   397
 73
   396
 74
   354
  0
VERTEX
  5
463
330
12B
100
AcDbEntity
  8
ｴｸｽﾃﾘｱ商品
 62
   250
370
    20
100
AcDbFaceRecord
 10
0.0
 20
0.0
 30
0.0
 70
   128
 71
   354
 72
   396
 73
   395
 74
   355
  0
VERTEX
  5
464
330
12B
100
AcDbEntity
  8
ｴｸｽﾃﾘｱ商品
 62
   250
370
    20
100
AcDbFaceRecord
 10
0.0
 20
0.0
 30
0.0
 70
   128
 71
   355
 72
   395
 73
   394
 74
   356
  0
VERTEX
  5
465
330
12B
100
AcDbEntity
  8
ｴｸｽﾃﾘｱ商品
 62
   250
370
    20
100
AcDbFaceRecord
 10
0.0
 20
0.0
 30
0.0
 70
   128
 71
   356
 72
   394
 73
   393
 74
   357
  0
VERTEX
  5
466
330
12B
100
AcDbEntity
  8
ｴｸｽﾃﾘｱ商品
 62
   250
370
    20
100
AcDbFaceRecord
 10
0.0
 20
0.0
 30
0.0
 70
   128
 71
   357
 72
   393
 73
   392
 74
   358
  0
VERTEX
  5
467
330
12B
100
AcDbEntity
  8
ｴｸｽﾃﾘｱ商品
 62
   250
370
    20
100
AcDbFaceRecord
 10
0.0
 20
0.0
 30
0.0
 70
   128
 71
   358
 72
   392
 73
   391
 74
   359
  0
VERTEX
  5
468
330
12B
100
AcDbEntity
  8
ｴｸｽﾃﾘｱ商品
 62
   250
370
    20
100
AcDbFaceRecord
 10
0.0
 20
0.0
 30
0.0
 70
   128
 71
   359
 72
   391
 73
   390
 74
   360
  0
VERTEX
  5
469
330
12B
100
AcDbEntity
  8
ｴｸｽﾃﾘｱ商品
 62
   250
370
    20
100
AcDbFaceRecord
 10
0.0
 20
0.0
 30
0.0
 70
   128
 71
   360
 72
   390
 73
   389
 74
   361
  0
VERTEX
  5
46A
330
12B
100
AcDbEntity
  8
ｴｸｽﾃﾘｱ商品
 62
   250
370
    20
100
AcDbFaceRecord
 10
0.0
 20
0.0
 30
0.0
 70
   128
 71
   361
 72
   389
 73
   388
 74
   362
  0
VERTEX
  5
46B
330
12B
100
AcDbEntity
  8
ｴｸｽﾃﾘｱ商品
 62
   250
370
    20
100
AcDbFaceRecord
 10
0.0
 20
0.0
 30
0.0
 70
   128
 71
   362
 72
   388
 73
   387
 74
   363
  0
VERTEX
  5
46C
330
12B
100
AcDbEntity
  8
ｴｸｽﾃﾘｱ商品
 62
   250
370
    20
100
AcDbFaceRecord
 10
0.0
 20
0.0
 30
0.0
 70
   128
 71
   363
 72
   387
 73
   386
 74
   364
  0
VERTEX
  5
46D
330
12B
100
AcDbEntity
  8
ｴｸｽﾃﾘｱ商品
 62
   250
370
    20
100
AcDbFaceRecord
 10
0.0
 20
0.0
 30
0.0
 70
   128
 71
   364
 72
   386
 73
   385
 74
   365
  0
VERTEX
  5
46E
330
12B
100
AcDbEntity
  8
ｴｸｽﾃﾘｱ商品
 62
   250
370
    20
100
AcDbFaceRecord
 10
0.0
 20
0.0
 30
0.0
 70
   128
 71
   365
 72
   385
 73
   384
 74
   366
  0
VERTEX
  5
46F
330
12B
100
AcDbEntity
  8
ｴｸｽﾃﾘｱ商品
 62
   250
370
    20
100
AcDbFaceRecord
 10
0.0
 20
0.0
 30
0.0
 70
   128
 71
   366
 72
   384
 73
   383
 74
   367
  0
VERTEX
  5
470
330
12B
100
AcDbEntity
  8
ｴｸｽﾃﾘｱ商品
 62
   250
370
    20
100
AcDbFaceRecord
 10
0.0
 20
0.0
 30
0.0
 70
   128
 71
   367
 72
   383
 73
   382
 74
   368
  0
VERTEX
  5
471
330
12B
100
AcDbEntity
  8
ｴｸｽﾃﾘｱ商品
 62
   250
370
    20
100
AcDbFaceRecord
 10
0.0
 20
0.0
 30
0.0
 70
   128
 71
   368
 72
   382
 73
   381
 74
   369
  0
VERTEX
  5
472
330
12B
100
AcDbEntity
  8
ｴｸｽﾃﾘｱ商品
 62
   250
370
    20
100
AcDbFaceRecord
 10
0.0
 20
0.0
 30
0.0
 70
   128
 71
   369
 72
   381
 73
   380
 74
   370
  0
VERTEX
  5
473
330
12B
100
AcDbEntity
  8
ｴｸｽﾃﾘｱ商品
 62
   250
370
    20
100
AcDbFaceRecord
 10
0.0
 20
0.0
 30
0.0
 70
   128
 71
   370
 72
   380
 73
   379
 74
   371
  0
VERTEX
  5
474
330
12B
100
AcDbEntity
  8
ｴｸｽﾃﾘｱ商品
 62
   250
370
    20
100
AcDbFaceRecord
 10
0.0
 20
0.0
 30
0.0
 70
   128
 71
   371
 72
   379
 73
   378
 74
   372
  0
VERTEX
  5
475
330
12B
100
AcDbEntity
  8
ｴｸｽﾃﾘｱ商品
 62
   250
370
    20
100
AcDbFaceRecord
 10
0.0
 20
0.0
 30
0.0
 70
   128
 71
   372
 72
   378
 73
   377
 74
   373
  0
VERTEX
  5
476
330
12B
100
AcDbEntity
  8
ｴｸｽﾃﾘｱ商品
 62
   250
370
    20
100
AcDbFaceRecord
 10
0.0
 20
0.0
 30
0.0
 70
   128
 71
   373
 72
   377
 73
   376
 74
   374
  0
VERTEX
  5
477
330
12B
100
AcDbEntity
  8
ｴｸｽﾃﾘｱ商品
 62
   250
370
    20
100
AcDbFaceRecord
 10
0.0
 20
0.0
 30
0.0
 70
   128
 71
   374
 72
   376
 73
   375
 74
   351
  0
VERTEX
  5
478
330
12B
100
AcDbEntity
  8
ｴｸｽﾃﾘｱ商品
 62
   250
370
    20
100
AcDbFaceRecord
 10
0.0
 20
0.0
 30
0.0
 70
   128
 71
   399
 72
   400
 73
   401
 74
   402
  0
VERTEX
  5
479
330
12B
100
AcDbEntity
  8
ｴｸｽﾃﾘｱ商品
 62
   250
370
    20
100
AcDbFaceRecord
 10
0.0
 20
0.0
 30
0.0
 70
   128
 71
   399
 72
   402
 73
   403
 74
   404
  0
VERTEX
  5
47A
330
12B
100
AcDbEntity
  8
ｴｸｽﾃﾘｱ商品
 62
   250
370
    20
100
AcDbFaceRecord
 10
0.0
 20
0.0
 30
0.0
 70
   128
 71
   399
 72
   404
 73
   405
 74
   406
  0
VERTEX
  5
47B
330
12B
100
AcDbEntity
  8
ｴｸｽﾃﾘｱ商品
 62
   250
370
    20
100
AcDbFaceRecord
 10
0.0
 20
0.0
 30
0.0
 70
   128
 71
   399
 72
   406
 73
   407
 74
   408
  0
VERTEX
  5
47C
330
12B
100
AcDbEntity
  8
ｴｸｽﾃﾘｱ商品
 62
   250
370
    20
100
AcDbFaceRecord
 10
0.0
 20
0.0
 30
0.0
 70
   128
 71
   399
 72
   408
 73
   409
 74
   410
  0
VERTEX
  5
47D
330
12B
100
AcDbEntity
  8
ｴｸｽﾃﾘｱ商品
 62
   250
370
    20
100
AcDbFaceRecord
 10
0.0
 20
0.0
 30
0.0
 70
   128
 71
   399
 72
   410
 73
   411
 74
   412
  0
VERTEX
  5
47E
330
12B
100
AcDbEntity
  8
ｴｸｽﾃﾘｱ商品
 62
   250
370
    20
100
AcDbFaceRecord
 10
0.0
 20
0.0
 30
0.0
 70
   128
 71
   399
 72
   412
 73
   413
 74
   414
  0
VERTEX
  5
47F
330
12B
100
AcDbEntity
  8
ｴｸｽﾃﾘｱ商品
 62
   250
370
    20
100
AcDbFaceRecord
 10
0.0
 20
0.0
 30
0.0
 70
   128
 71
   399
 72
   414
 73
   415
 74
   416
  0
VERTEX
  5
480
330
12B
100
AcDbEntity
  8
ｴｸｽﾃﾘｱ商品
 62
   250
370
    20
100
AcDbFaceRecord
 10
0.0
 20
0.0
 30
0.0
 70
   128
 71
   399
 72
   416
 73
   417
 74
   418
  0
VERTEX
  5
481
330
12B
100
AcDbEntity
  8
ｴｸｽﾃﾘｱ商品
 62
   250
370
    20
100
AcDbFaceRecord
 10
0.0
 20
0.0
 30
0.0
 70
   128
 71
   399
 72
   418
 73
   419
 74
   420
  0
VERTEX
  5
482
330
12B
100
AcDbEntity
  8
ｴｸｽﾃﾘｱ商品
 62
   250
370
    20
100
AcDbFaceRecord
 10
0.0
 20
0.0
 30
0.0
 70
   128
 71
   399
 72
   420
 73
   421
 74
   422
  0
VERTEX
  5
483
330
12B
100
AcDbEntity
  8
ｴｸｽﾃﾘｱ商品
 62
   250
370
    20
100
AcDbFaceRecord
 10
0.0
 20
0.0
 30
0.0
 70
   128
 71
   423
 72
   424
 73
   425
 74
   426
  0
VERTEX
  5
484
330
12B
100
AcDbEntity
  8
ｴｸｽﾃﾘｱ商品
 62
   250
370
    20
100
AcDbFaceRecord
 10
0.0
 20
0.0
 30
0.0
 70
   128
 71
   423
 72
   426
 73
   427
 74
   428
  0
VERTEX
  5
485
330
12B
100
AcDbEntity
  8
ｴｸｽﾃﾘｱ商品
 62
   250
370
    20
100
AcDbFaceRecord
 10
0.0
 20
0.0
 30
0.0
 70
   128
 71
   423
 72
   428
 73
   429
 74
   430
  0
VERTEX
  5
486
330
12B
100
AcDbEntity
  8
ｴｸｽﾃﾘｱ商品
 62
   250
370
    20
100
AcDbFaceRecord
 10
0.0
 20
0.0
 30
0.0
 70
   128
 71
   423
 72
   430
 73
   431
 74
   432
  0
VERTEX
  5
487
330
12B
100
AcDbEntity
  8
ｴｸｽﾃﾘｱ商品
 62
   250
370
    20
100
AcDbFaceRecord
 10
0.0
 20
0.0
 30
0.0
 70
   128
 71
   423
 72
   432
 73
   433
 74
   434
  0
VERTEX
  5
488
330
12B
100
AcDbEntity
  8
ｴｸｽﾃﾘｱ商品
 62
   250
370
    20
100
AcDbFaceRecord
 10
0.0
 20
0.0
 30
0.0
 70
   128
 71
   423
 72
   434
 73
   435
 74
   436
  0
VERTEX
  5
489
330
12B
100
AcDbEntity
  8
ｴｸｽﾃﾘｱ商品
 62
   250
370
    20
100
AcDbFaceRecord
 10
0.0
 20
0.0
 30
0.0
 70
   128
 71
   423
 72
   436
 73
   437
 74
   438
  0
VERTEX
  5
48A
330
12B
100
AcDbEntity
  8
ｴｸｽﾃﾘｱ商品
 62
   250
370
    20
100
AcDbFaceRecord
 10
0.0
 20
0.0
 30
0.0
 70
   128
 71
   423
 72
   438
 73
   439
 74
   440
  0
VERTEX
  5
48B
330
12B
100
AcDbEntity
  8
ｴｸｽﾃﾘｱ商品
 62
   250
370
    20
100
AcDbFaceRecord
 10
0.0
 20
0.0
 30
0.0
 70
   128
 71
   423
 72
   440
 73
   441
 74
   442
  0
VERTEX
  5
48C
330
12B
100
AcDbEntity
  8
ｴｸｽﾃﾘｱ商品
 62
   250
370
    20
100
AcDbFaceRecord
 10
0.0
 20
0.0
 30
0.0
 70
   128
 71
   423
 72
   442
 73
   443
 74
   444
  0
VERTEX
  5
48D
330
12B
100
AcDbEntity
  8
ｴｸｽﾃﾘｱ商品
 62
   250
370
    20
100
AcDbFaceRecord
 10
0.0
 20
0.0
 30
0.0
 70
   128
 71
   423
 72
   444
 73
   445
 74
   446
  0
VERTEX
  5
48E
330
12B
100
AcDbEntity
  8
ｴｸｽﾃﾘｱ商品
 62
   250
370
    20
100
AcDbFaceRecord
 10
0.0
 20
0.0
 30
0.0
 70
   128
 71
   399
 72
   423
 73
   446
 74
   400
  0
VERTEX
  5
48F
330
12B
100
AcDbEntity
  8
ｴｸｽﾃﾘｱ商品
 62
   250
370
    20
100
AcDbFaceRecord
 10
0.0
 20
0.0
 30
0.0
 70
   128
 71
   400
 72
   446
 73
   445
 74
   401
  0
VERTEX
  5
490
330
12B
100
AcDbEntity
  8
ｴｸｽﾃﾘｱ商品
 62
   250
370
    20
100
AcDbFaceRecord
 10
0.0
 20
0.0
 30
0.0
 70
   128
 71
   401
 72
   445
 73
   444
 74
   402
  0
VERTEX
  5
491
330
12B
100
AcDbEntity
  8
ｴｸｽﾃﾘｱ商品
 62
   250
370
    20
100
AcDbFaceRecord
 10
0.0
 20
0.0
 30
0.0
 70
   128
 71
   402
 72
   444
 73
   443
 74
   403
  0
VERTEX
  5
492
330
12B
100
AcDbEntity
  8
ｴｸｽﾃﾘｱ商品
 62
   250
370
    20
100
AcDbFaceRecord
 10
0.0
 20
0.0
 30
0.0
 70
   128
 71
   403
 72
   443
 73
   442
 74
   404
  0
VERTEX
  5
493
330
12B
100
AcDbEntity
  8
ｴｸｽﾃﾘｱ商品
 62
   250
370
    20
100
AcDbFaceRecord
 10
0.0
 20
0.0
 30
0.0
 70
   128
 71
   404
 72
   442
 73
   441
 74
   405
  0
VERTEX
  5
494
330
12B
100
AcDbEntity
  8
ｴｸｽﾃﾘｱ商品
 62
   250
370
    20
100
AcDbFaceRecord
 10
0.0
 20
0.0
 30
0.0
 70
   128
 71
   405
 72
   441
 73
   440
 74
   406
  0
VERTEX
  5
495
330
12B
100
AcDbEntity
  8
ｴｸｽﾃﾘｱ商品
 62
   250
370
    20
100
AcDbFaceRecord
 10
0.0
 20
0.0
 30
0.0
 70
   128
 71
   406
 72
   440
 73
   439
 74
   407
  0
VERTEX
  5
496
330
12B
100
AcDbEntity
  8
ｴｸｽﾃﾘｱ商品
 62
   250
370
    20
100
AcDbFaceRecord
 10
0.0
 20
0.0
 30
0.0
 70
   128
 71
   407
 72
   439
 73
   438
 74
   408
  0
VERTEX
  5
497
330
12B
100
AcDbEntity
  8
ｴｸｽﾃﾘｱ商品
 62
   250
370
    20
100
AcDbFaceRecord
 10
0.0
 20
0.0
 30
0.0
 70
   128
 71
   408
 72
   438
 73
   437
 74
   409
  0
VERTEX
  5
498
330
12B
100
AcDbEntity
  8
ｴｸｽﾃﾘｱ商品
 62
   250
370
    20
100
AcDbFaceRecord
 10
0.0
 20
0.0
 30
0.0
 70
   128
 71
   409
 72
   437
 73
   436
 74
   410
  0
VERTEX
  5
499
330
12B
100
AcDbEntity
  8
ｴｸｽﾃﾘｱ商品
 62
   250
370
    20
100
AcDbFaceRecord
 10
0.0
 20
0.0
 30
0.0
 70
   128
 71
   410
 72
   436
 73
   435
 74
   411
  0
VERTEX
  5
49A
330
12B
100
AcDbEntity
  8
ｴｸｽﾃﾘｱ商品
 62
   250
370
    20
100
AcDbFaceRecord
 10
0.0
 20
0.0
 30
0.0
 70
   128
 71
   411
 72
   435
 73
   434
 74
   412
  0
VERTEX
  5
49B
330
12B
100
AcDbEntity
  8
ｴｸｽﾃﾘｱ商品
 62
   250
370
    20
100
AcDbFaceRecord
 10
0.0
 20
0.0
 30
0.0
 70
   128
 71
   412
 72
   434
 73
   433
 74
   413
  0
VERTEX
  5
49C
330
12B
100
AcDbEntity
  8
ｴｸｽﾃﾘｱ商品
 62
   250
370
    20
100
AcDbFaceRecord
 10
0.0
 20
0.0
 30
0.0
 70
   128
 71
   413
 72
   433
 73
   432
 74
   414
  0
VERTEX
  5
49D
330
12B
100
AcDbEntity
  8
ｴｸｽﾃﾘｱ商品
 62
   250
370
    20
100
AcDbFaceRecord
 10
0.0
 20
0.0
 30
0.0
 70
   128
 71
   414
 72
   432
 73
   431
 74
   415
  0
VERTEX
  5
49E
330
12B
100
AcDbEntity
  8
ｴｸｽﾃﾘｱ商品
 62
   250
370
    20
100
AcDbFaceRecord
 10
0.0
 20
0.0
 30
0.0
 70
   128
 71
   415
 72
   431
 73
   430
 74
   416
  0
VERTEX
  5
49F
330
12B
100
AcDbEntity
  8
ｴｸｽﾃﾘｱ商品
 62
   250
370
    20
100
AcDbFaceRecord
 10
0.0
 20
0.0
 30
0.0
 70
   128
 71
   416
 72
   430
 73
   429
 74
   417
  0
VERTEX
  5
4A0
330
12B
100
AcDbEntity
  8
ｴｸｽﾃﾘｱ商品
 62
   250
370
    20
100
AcDbFaceRecord
 10
0.0
 20
0.0
 30
0.0
 70
   128
 71
   417
 72
   429
 73
   428
 74
   418
  0
VERTEX
  5
4A1
330
12B
100
AcDbEntity
  8
ｴｸｽﾃﾘｱ商品
 62
   250
370
    20
100
AcDbFaceRecord
 10
0.0
 20
0.0
 30
0.0
 70
   128
 71
   418
 72
   428
 73
   427
 74
   419
  0
VERTEX
  5
4A2
330
12B
100
AcDbEntity
  8
ｴｸｽﾃﾘｱ商品
 62
   250
370
    20
100
AcDbFaceRecord
 10
0.0
 20
0.0
 30
0.0
 70
   128
 71
   419
 72
   427
 73
   426
 74
   420
  0
VERTEX
  5
4A3
330
12B
100
AcDbEntity
  8
ｴｸｽﾃﾘｱ商品
 62
   250
370
    20
100
AcDbFaceRecord
 10
0.0
 20
0.0
 30
0.0
 70
   128
 71
   420
 72
   426
 73
   425
 74
   421
  0
VERTEX
  5
4A4
330
12B
100
AcDbEntity
  8
ｴｸｽﾃﾘｱ商品
 62
   250
370
    20
100
AcDbFaceRecord
 10
0.0
 20
0.0
 30
0.0
 70
   128
 71
   421
 72
   425
 73
   424
 74
   422
  0
VERTEX
  5
4A5
330
12B
100
AcDbEntity
  8
ｴｸｽﾃﾘｱ商品
 62
   250
370
    20
100
AcDbFaceRecord
 10
0.0
 20
0.0
 30
0.0
 70
   128
 71
   422
 72
   424
 73
   423
 74
   399
  0
VERTEX
  5
4A6
330
12B
100
AcDbEntity
  8
ｴｸｽﾃﾘｱ商品
 62
   250
370
    20
100
AcDbFaceRecord
 10
0.0
 20
0.0
 30
0.0
 70
   128
 71
   447
 72
   448
 73
   449
 74
   450
  0
VERTEX
  5
4A7
330
12B
100
AcDbEntity
  8
ｴｸｽﾃﾘｱ商品
 62
   250
370
    20
100
AcDbFaceRecord
 10
0.0
 20
0.0
 30
0.0
 70
   128
 71
   450
 72
   449
 73
   451
 74
   452
  0
VERTEX
  5
4A8
330
12B
100
AcDbEntity
  8
ｴｸｽﾃﾘｱ商品
 62
   250
370
    20
100
AcDbFaceRecord
 10
0.0
 20
0.0
 30
0.0
 70
   128
 71
   452
 72
   451
 73
   453
 74
   454
  0
VERTEX
  5
4A9
330
12B
100
AcDbEntity
  8
ｴｸｽﾃﾘｱ商品
 62
   250
370
    20
100
AcDbFaceRecord
 10
0.0
 20
0.0
 30
0.0
 70
   128
 71
   454
 72
   453
 73
   455
 74
   456
  0
VERTEX
  5
4AA
330
12B
100
AcDbEntity
  8
ｴｸｽﾃﾘｱ商品
 62
   250
370
    20
100
AcDbFaceRecord
 10
0.0
 20
0.0
 30
0.0
 70
   128
 71
   456
 72
   455
 73
   457
 74
   458
  0
VERTEX
  5
4AB
330
12B
100
AcDbEntity
  8
ｴｸｽﾃﾘｱ商品
 62
   250
370
    20
100
AcDbFaceRecord
 10
0.0
 20
0.0
 30
0.0
 70
   128
 71
   458
 72
   457
 73
   459
 74
   460
  0
VERTEX
  5
4AC
330
12B
100
AcDbEntity
  8
ｴｸｽﾃﾘｱ商品
 62
   250
370
    20
100
AcDbFaceRecord
 10
0.0
 20
0.0
 30
0.0
 70
   128
 71
   460
 72
   459
 73
   448
 74
   447
  0
VERTEX
  5
4AD
330
12B
100
AcDbEntity
  8
ｴｸｽﾃﾘｱ商品
 62
   250
370
    20
100
AcDbFaceRecord
 10
0.0
 20
0.0
 30
0.0
 70
   128
 71
   450
 72
   452
 73
   454
  0
VERTEX
  5
4AE
330
12B
100
AcDbEntity
  8
ｴｸｽﾃﾘｱ商品
 62
   250
370
    20
100
AcDbFaceRecord
 10
0.0
 20
0.0
 30
0.0
 70
   128
 71
   454
 72
   456
 73
   458
  0
VERTEX
  5
4AF
330
12B
100
AcDbEntity
  8
ｴｸｽﾃﾘｱ商品
 62
   250
370
    20
100
AcDbFaceRecord
 10
0.0
 20
0.0
 30
0.0
 70
   128
 71
   450
 72
   454
 73
   458
  0
VERTEX
  5
4B0
330
12B
100
AcDbEntity
  8
ｴｸｽﾃﾘｱ商品
 62
   250
370
    20
100
AcDbFaceRecord
 10
0.0
 20
0.0
 30
0.0
 70
   128
 71
   447
 72
   450
 73
   458
  0
VERTEX
  5
4B1
330
12B
100
AcDbEntity
  8
ｴｸｽﾃﾘｱ商品
 62
   250
370
    20
100
AcDbFaceRecord
 10
0.0
 20
0.0
 30
0.0
 70
   128
 71
   447
 72
   458
 73
   460
  0
VERTEX
  5
4B2
330
12B
100
AcDbEntity
  8
ｴｸｽﾃﾘｱ商品
 62
   250
370
    20
100
AcDbFaceRecord
 10
0.0
 20
0.0
 30
0.0
 70
   128
 71
   453
 72
   451
 73
   449
  0
VERTEX
  5
4B3
330
12B
100
AcDbEntity
  8
ｴｸｽﾃﾘｱ商品
 62
   250
370
    20
100
AcDbFaceRecord
 10
0.0
 20
0.0
 30
0.0
 70
   128
 71
   457
 72
   455
 73
   453
  0
VERTEX
  5
4B4
330
12B
100
AcDbEntity
  8
ｴｸｽﾃﾘｱ商品
 62
   250
370
    20
100
AcDbFaceRecord
 10
0.0
 20
0.0
 30
0.0
 70
   128
 71
   457
 72
   453
 73
   449
  0
VERTEX
  5
4B5
330
12B
100
AcDbEntity
  8
ｴｸｽﾃﾘｱ商品
 62
   250
370
    20
100
AcDbFaceRecord
 10
0.0
 20
0.0
 30
0.0
 70
   128
 71
   459
 72
   457
 73
   448
  0
VERTEX
  5
4B6
330
12B
100
AcDbEntity
  8
ｴｸｽﾃﾘｱ商品
 62
   250
370
    20
100
AcDbFaceRecord
 10
0.0
 20
0.0
 30
0.0
 70
   128
 71
   448
 72
   457
 73
   449
  0
VERTEX
  5
4B7
330
12B
100
AcDbEntity
  8
ｴｸｽﾃﾘｱ商品
 62
   250
370
    20
100
AcDbFaceRecord
 10
0.0
 20
0.0
 30
0.0
 70
   128
 71
   461
 72
   462
 73
   463
 74
   464
  0
VERTEX
  5
4B8
330
12B
100
AcDbEntity
  8
ｴｸｽﾃﾘｱ商品
 62
   250
370
    20
100
AcDbFaceRecord
 10
0.0
 20
0.0
 30
0.0
 70
   128
 71
   464
 72
   463
 73
   465
 74
   466
  0
VERTEX
  5
4B9
330
12B
100
AcDbEntity
  8
ｴｸｽﾃﾘｱ商品
 62
   250
370
    20
100
AcDbFaceRecord
 10
0.0
 20
0.0
 30
0.0
 70
   128
 71
   466
 72
   465
 73
   467
 74
   468
  0
VERTEX
  5
4BA
330
12B
100
AcDbEntity
  8
ｴｸｽﾃﾘｱ商品
 62
   250
370
    20
100
AcDbFaceRecord
 10
0.0
 20
0.0
 30
0.0
 70
   128
 71
   468
 72
   467
 73
   469
 74
   470
  0
VERTEX
  5
4BB
330
12B
100
AcDbEntity
  8
ｴｸｽﾃﾘｱ商品
 62
   250
370
    20
100
AcDbFaceRecord
 10
0.0
 20
0.0
 30
0.0
 70
   128
 71
   470
 72
   469
 73
   471
 74
   472
  0
VERTEX
  5
4BC
330
12B
100
AcDbEntity
  8
ｴｸｽﾃﾘｱ商品
 62
   250
370
    20
100
AcDbFaceRecord
 10
0.0
 20
0.0
 30
0.0
 70
   128
 71
   472
 72
   471
 73
   473
 74
   474
  0
VERTEX
  5
4BD
330
12B
100
AcDbEntity
  8
ｴｸｽﾃﾘｱ商品
 62
   250
370
    20
100
AcDbFaceRecord
 10
0.0
 20
0.0
 30
0.0
 70
   128
 71
   474
 72
   473
 73
   475
 74
   476
  0
VERTEX
  5
4BE
330
12B
100
AcDbEntity
  8
ｴｸｽﾃﾘｱ商品
 62
   250
370
    20
100
AcDbFaceRecord
 10
0.0
 20
0.0
 30
0.0
 70
   128
 71
   476
 72
   475
 73
   462
 74
   461
  0
VERTEX
  5
4BF
330
12B
100
AcDbEntity
  8
ｴｸｽﾃﾘｱ商品
 62
   250
370
    20
100
AcDbFaceRecord
 10
0.0
 20
0.0
 30
0.0
 70
   128
 71
   461
 72
   464
 73
   466
 74
   468
  0
VERTEX
  5
4C0
330
12B
100
AcDbEntity
  8
ｴｸｽﾃﾘｱ商品
 62
   250
370
    20
100
AcDbFaceRecord
 10
0.0
 20
0.0
 30
0.0
 70
   128
 71
   461
 72
   468
 73
   470
 74
   472
  0
VERTEX
  5
4C1
330
12B
100
AcDbEntity
  8
ｴｸｽﾃﾘｱ商品
 62
   250
370
    20
100
AcDbFaceRecord
 10
0.0
 20
0.0
 30
0.0
 70
   128
 71
   461
 72
   472
 73
   474
 74
   476
  0
VERTEX
  5
4C2
330
12B
100
AcDbEntity
  8
ｴｸｽﾃﾘｱ商品
 62
   250
370
    20
100
AcDbFaceRecord
 10
0.0
 20
0.0
 30
0.0
 70
   128
 71
   462
 72
   475
 73
   473
 74
   471
  0
VERTEX
  5
4C3
330
12B
100
AcDbEntity
  8
ｴｸｽﾃﾘｱ商品
 62
   250
370
    20
100
AcDbFaceRecord
 10
0.0
 20
0.0
 30
0.0
 70
   128
 71
   462
 72
   471
 73
   469
 74
   467
  0
VERTEX
  5
4C4
330
12B
100
AcDbEntity
  8
ｴｸｽﾃﾘｱ商品
 62
   250
370
    20
100
AcDbFaceRecord
 10
0.0
 20
0.0
 30
0.0
 70
   128
 71
   462
 72
   467
 73
   465
 74
   463
  0
SEQEND
  5
12C
330
12B
100
AcDbEntity
  8
ｴｸｽﾃﾘｱ商品
370
    20
  0
ENDBLK
  5
3E
330
3C
100
AcDbEntity
  8
0
100
AcDbBlockEnd
  0
ENDSEC
  0
SECTION
  2
ENTITIES
  0
INSERT
  5
4C5
330
1F
100
AcDbEntity
  8
ｴｸｽﾃﾘｱ商品
  6
Continuous
370
     0
100
AcDbBlockReference
  2
オブジェクト_19
 10
0.0
 20
0.0
 30
0.0
  0
ENDSEC
  0
SECTION
  2
OBJECTS
  0
DICTIONARY
  5
C
330
0
100
AcDbDictionary
281
     1
  3
ACAD_GROUP
350
D
  3
ACAD_LAYOUT
350
1A
  3
ACAD_MLINESTYLE
350
17
  3
ACAD_PLOTSETTINGS
350
19
  3
ACAD_PLOTSTYLENAME
350
E
  3
ACAD_TABLESTYLE
350
4C8
  3
ACAD_VISUALSTYLE
350
2A
  3
WATERMARKS
350
4C6
  0
DICTIONARY
  5
D
102
{ACAD_REACTORS
330
C
102
}
330
C
100
AcDbDictionary
281
     1
  0
DICTIONARY
  5
1A
102
{ACAD_REACTORS
330
C
102
}
330
C
100
AcDbDictionary
281
     1
  3
Layout1
350
1E
  3
Layout2
350
26
  3
Model
350
22
  0
DICTIONARY
  5
17
102
{ACAD_REACTORS
330
C
102
}
330
C
100
AcDbDictionary
281
     1
  3
Standard
350
18
  0
DICTIONARY
  5
19
102
{ACAD_REACTORS
330
C
102
}
330
C
100
AcDbDictionary
281
     1
  0
ACDBDICTIONARYWDFLT
  5
E
102
{ACAD_REACTORS
330
C
102
}
330
C
100
AcDbDictionary
281
     1
  3
Normal
350
F
100
AcDbDictionaryWithDefault
340
F
  0
DICTIONARY
  5
4C8
102
{ACAD_REACTORS
330
C
102
}
330
C
100
AcDbDictionary
281
     1
  0
DICTIONARY
  5
2A
102
{ACAD_REACTORS
330
C
102
}
330
C
100
AcDbDictionary
281
     1
  3
2dWireframe
350
2F
  3
3D Hidden
350
31
  3
3dWireframe
350
30
  3
Basic
350
32
  3
Brighten
350
36
  3
ColorChange
350
3A
  3
Conceptual
350
34
  3
Dim
350
35
  3
Facepattern
350
39
  3
Flat
350
2B
  3
FlatWithEdges
350
2C
  3
Gouraud
350
2D
  3
GouraudWithEdges
350
2E
  3
Linepattern
350
38
  3
Realistic
350
33
  3
Thicken
350
37
  0
DICTIONARY
  5
4C6
102
{ACAD_REACTORS
330
C
102
}
330
C
100
AcDbDictionary
281
     1
  3
AC_WATERMARK
350
4C7
  0
LAYOUT
  5
1E
102
{ACAD_REACTORS
330
1A
102
}
330
1A
100
AcDbPlotSettings
  1

  2
none_device
  4

  6

 40
0.0
 41
0.0
 42
0.0
 43
0.0
 44
0.0
 45
0.0
 46
0.0
 47
0.0
 48
0.0
 49
0.0
140
0.0
141
0.0
142
1.0
143
1.0
 70
   688
 72
     0
 73
     0
 74
     5
  7

 75
    16
147
1.0
148
0.0
149
0.0
100
AcDbLayout
  1
Layout1
 70
     1
 71
     1
 10
0.0
 20
0.0
 11
12.0
 21
9.0
 12
0.0
 22
0.0
 32
0.0
 14
1.000000000000000E+20
 24
1.000000000000000E+20
 34
1.000000000000000E+20
 15
-1.000000000000000E+20
 25
-1.000000000000000E+20
 35
-1.000000000000000E+20
146
0.0
 13
0.0
 23
0.0
 33
0.0
 16
1.0
 26
0.0
 36
0.0
 17
0.0
 27
1.0
 37
0.0
 76
     0
330
1B
  0
LAYOUT
  5
26
102
{ACAD_REACTORS
330
1A
102
}
330
1A
100
AcDbPlotSettings
  1

  2
none_device
  4

  6

 40
0.0
 41
0.0
 42
0.0
 43
0.0
 44
0.0
 45
0.0
 46
0.0
 47
0.0
 48
0.0
 49
0.0
140
0.0
141
0.0
142
1.0
143
1.0
 70
   688
 72
     0
 73
     0
 74
     5
  7

 75
    16
147
1.0
148
0.0
149
0.0
100
AcDbLayout
  1
Layout2
 70
     1
 71
     2
 10
0.0
 20
0.0
 11
0.0
 21
0.0
 12
0.0
 22
0.0
 32
0.0
 14
0.0
 24
0.0
 34
0.0
 15
0.0
 25
0.0
 35
0.0
146
0.0
 13
0.0
 23
0.0
 33
0.0
 16
1.0
 26
0.0
 36
0.0
 17
0.0
 27
1.0
 37
0.0
 76
     0
330
23
  0
LAYOUT
  5
22
102
{ACAD_REACTORS
330
1A
102
}
330
1A
100
AcDbPlotSettings
  1

  2
none_device
  4

  6

 40
0.0
 41
0.0
 42
0.0
 43
0.0
 44
0.0
 45
0.0
 46
0.0
 47
0.0
 48
0.0
 49
0.0
140
0.0
141
0.0
142
1.0
143
1.0
 70
  1712
 72
     0
 73
     0
 74
     0
  7

 75
     0
147
1.0
148
0.0
149
0.0
100
AcDbLayout
  1
Model
 70
     1
 71
     0
 10
0.0
 20
0.0
 11
12.0
 21
9.0
 12
0.0
 22
0.0
 32
0.0
 14
1.000000000000000E+20
 24
1.000000000000000E+20
 34
1.000000000000000E+20
 15
-1.000000000000000E+20
 25
-1.000000000000000E+20
 35
-1.000000000000000E+20
146
0.0
 13
0.0
 23
0.0
 33
0.0
 16
1.0
 26
0.0
 36
0.0
 17
0.0
 27
1.0
 37
0.0
 76
     0
330
1F
331
29
  0
MLINESTYLE
  5
18
102
{ACAD_REACTORS
330
17
102
}
330
17
100
AcDbMlineStyle
  2
Standard
 70
     0
  3

 62
   256
 51
90.0
 52
90.0
 71
     2
 49
0.5
 62
   256
  6
BYLAYER
 49
-0.5
 62
   256
  6
BYLAYER
  0
ACDBPLACEHOLDER
  5
F
102
{ACAD_REACTORS
330
E
102
}
330
E
  0
VISUALSTYLE
  5
2F
102
{ACAD_REACTORS
330
2A
102
}
330
2A
100
AcDbVisualStyle
  2
2dWireframe
 70
     4
 71
     0
 72
     2
 73
     0
 90
        0
 40
-0.6
 41
-30.0
 62
     5
 63
     7
 74
     1
 91
        4
 64
     7
 65
   257
 75
     1
175
     1
 42
1.0
 92
        0
 66
   257
 43
1.0
 76
     1
 77
     6
 78
     2
 67
     7
 79
     5
170
     0
171
     0
290
     0
174
     0
 93
        1
 44
0.0
173
     0
291
     0
 45
0.0
1001
ACAD
1000
AcDbSavedByObjectVersion
1070
     0
  0
VISUALSTYLE
  5
31
102
{ACAD_REACTORS
330
2A
102
}
330
2A
100
AcDbVisualStyle
  2
3D Hidden
 70
     6
 71
     1
 72
     2
 73
     2
 90
        0
 40
-0.6
 41
-30.0
 62
     5
 63
     7
 74
     2
 91
        2
 64
     7
 65
   257
 75
     2
175
     1
 42
40.0
 92
        0
 66
   257
 43
1.0
 76
     1
 77
     6
 78
     2
 67
     7
 79
     3
170
     0
171
     0
290
     0
174
     0
 93
        1
 44
0.0
173
     0
291
     0
 45
0.0
1001
ACAD
1000
AcDbSavedByObjectVersion
1070
     0
  0
VISUALSTYLE
  5
30
102
{ACAD_REACTORS
330
2A
102
}
330
2A
100
AcDbVisualStyle
  2
3dWireframe
 70
     5
 71
     0
 72
     2
 73
     0
 90
        0
 40
-0.6
 41
-30.0
 62
     5
 63
     7
 74
     1
 91
        4
 64
     7
 65
   257
 75
     1
175
     1
 42
1.0
 92
        0
 66
   257
 43
1.0
 76
     1
 77
     6
 78
     2
 67
     7
 79
     5
170
     0
171
     0
290
     0
174
     0
 93
        1
 44
0.0
173
     0
291
     0
 45
0.0
1001
ACAD
1000
AcDbSavedByObjectVersion
1070
     0
  0
VISUALSTYLE
  5
32
102
{ACAD_REACTORS
330
2A
102
}
330
2A
100
AcDbVisualStyle
  2
Basic
 70
     7
 71
     1
 72
     0
 73
     1
 90
        0
 40
-0.6
 41
-30.0
 62
     5
 63
     7
 74
     0
 91
        4
 64
     7
 65
   257
 75
     1
175
     1
 42
1.0
 92
        8
 66
     7
 43
1.0
 76
     1
 77
     6
 78
     2
 67
     7
 79
     5
170
     0
171
     0
290
     0
174
     0
 93
        1
 44
0.0
173
     0
291
     1
 45
0.0
1001
ACAD
1000
AcDbSavedByObjectVersion
1070
     0
  0
VISUALSTYLE
  5
36
102
{ACAD_REACTORS
330
2A
102
}
330
2A
100
AcDbVisualStyle
  2
Brighten
 70
    12
 71
     2
 72
     2
 73
     0
 90
        0
 40
-0.6
 41
-30.0
 62
     5
 63
     7
 74
     1
 91
        4
 64
     7
 65
   257
 75
     1
175
     1
 42
1.0
 92
        8
 66
     7
 43
1.0
 76
     1
 77
     6
 78
     2
 67
     7
 79
     5
170
     0
171
     0
290
     0
174
     0
 93
        1
 44
50.0
173
     0
291
     1
 45
0.0
1001
ACAD
1000
AcDbSavedByObjectVersion
1070
     0
  0
VISUALSTYLE
  5
3A
102
{ACAD_REACTORS
330
2A
102
}
330
2A
100
AcDbVisualStyle
  2
ColorChange
 70
    16
 71
     2
 72
     2
 73
     3
 90
        0
 40
-0.6
 41
-30.0
 62
     5
 63
     8
 74
     1
 91
        4
 64
     7
 65
   257
 75
     1
175
     1
 42
1.0
 92
        8
 66
     8
 43
1.0
 76
     1
 77
     6
 78
     2
 67
     7
 79
     5
170
     0
171
     0
290
     0
174
     0
 93
        1
 44
0.0
173
     0
291
     1
 45
0.0
1001
ACAD
1000
AcDbSavedByObjectVersion
1070
     0
  0
VISUALSTYLE
  5
34
102
{ACAD_REACTORS
330
2A
102
}
330
2A
100
AcDbVisualStyle
  2
Conceptual
 70
     9
 71
     3
 72
     2
 73
     0
 90
        0
 40
-0.6
 41
-30.0
 62
     5
 63
     7
 74
     2
 91
        2
 64
     7
 65
   257
 75
     1
175
     1
 42
40.0
 92
        8
 66
     7
 43
1.0
 76
     1
 77
     6
 78
     2
 67
     7
 79
     3
170
     0
171
     0
290
     0
174
     0
 93
        1
 44
0.0
173
     0
291
     0
 45
0.0
1001
ACAD
1000
AcDbSavedByObjectVersion
1070
     0
  0
VISUALSTYLE
  5
35
102
{ACAD_REACTORS
330
2A
102
}
330
2A
100
AcDbVisualStyle
  2
Dim
 70
    11
 71
     2
 72
     2
 73
     0
 90
        0
 40
-0.6
 41
-30.0
 62
     5
 63
     7
 74
     1
 91
        4
 64
     7
 65
   257
 75
     1
175
     1
 42
1.0
 92
        8
 66
     7
 43
1.0
 76
     1
 77
     6
 78
     2
 67
     7
 79
     5
170
     0
171
     0
290
     0
174
     0
 93
        1
 44
-50.0
173
     0
291
     1
 45
0.0
1001
ACAD
1000
AcDbSavedByObjectVersion
1070
     0
  0
VISUALSTYLE
  5
39
102
{ACAD_REACTORS
330
2A
102
}
330
2A
100
AcDbVisualStyle
  2
Facepattern
 70
    15
 71
     2
 72
     2
 73
     0
 90
        0
 40
-0.6
 41
-30.0
 62
     5
 63
     7
 74
     1
 91
        4
 64
     7
 65
   257
 75
     1
175
     1
 42
1.0
 92
        8
 66
     7
 43
1.0
 76
     1
 77
     6
 78
     2
 67
     7
 79
     5
170
     0
171
     0
290
     0
174
     0
 93
        1
 44
0.0
173
     0
291
     1
 45
0.0
1001
ACAD
1000
AcDbSavedByObjectVersion
1070
     0
  0
VISUALSTYLE
  5
2B
102
{ACAD_REACTORS
330
2A
102
}
330
2A
100
AcDbVisualStyle
  2
Flat
 70
     0
 71
     2
 72
     1
 73
     1
 90
        2
 40
-0.6
 41
30.0
 62
     5
 63
     7
 74
     0
 91
        4
 64
     7
 65
   257
 75
     1
175
     1
 42
1.0
 92
        8
 66
     7
 43
1.0
 76
     1
 77
     6
 78
     2
 67
     7
 79
     5
170
     0
171
     0
290
     0
174
     0
 93
       13
 44
0.0
173
     0
291
     1
 45
0.0
1001
ACAD
1000
AcDbSavedByObjectVersion
1070
     0
  0
VISUALSTYLE
  5
2C
102
{ACAD_REACTORS
330
2A
102
}
330
2A
100
AcDbVisualStyle
  2
FlatWithEdges
 70
     1
 71
     2
 72
     1
 73
     1
 90
        2
 40
-0.6
 41
30.0
 62
     5
 63
     7
 74
     1
 91
        4
 64
     7
 65
   257
 75
     1
175
     1
 42
1.0
 92
        0
 66
   257
 43
1.0
 76
     1
 77
     6
 78
     2
 67
     7
 79
     5
170
     0
171
     0
290
     0
174
     0
 93
       13
 44
0.0
173
     0
291
     1
 45
0.0
1001
ACAD
1000
AcDbSavedByObjectVersion
1070
     0
  0
VISUALSTYLE
  5
2D
102
{ACAD_REACTORS
330
2A
102
}
330
2A
100
AcDbVisualStyle
  2
Gouraud
 70
     2
 71
     2
 72
     2
 73
     1
 90
        2
 40
-0.6
 41
30.0
 62
     5
 63
     7
 74
     0
 91
        4
 64
     7
 65
   257
 75
     1
175
     1
 42
1.0
 92
        0
 66
     7
 43
1.0
 76
     1
 77
     6
 78
     2
 67
     7
 79
     5
170
     0
171
     0
290
     0
174
     0
 93
       13
 44
0.0
173
     0
291
     1
 45
0.0
1001
ACAD
1000
AcDbSavedByObjectVersion
1070
     0
  0
VISUALSTYLE
  5
2E
102
{ACAD_REACTORS
330
2A
102
}
330
2A
100
AcDbVisualStyle
  2
GouraudWithEdges
 70
     3
 71
     2
 72
     2
 73
     1
 90
        2
 40
-0.6
 41
30.0
 62
     5
 63
     7
 74
     1
 91
        4
 64
     7
 65
   257
 75
     1
175
     1
 42
1.0
 92
        0
 66
   257
 43
1.0
 76
     1
 77
     6
 78
     2
 67
     7
 79
     5
170
     0
171
     0
290
     0
174
     0
 93
       13
 44
0.0
173
     0
291
     1
 45
0.0
1001
ACAD
1000
AcDbSavedByObjectVersion
1070
     0
  0
VISUALSTYLE
  5
38
102
{ACAD_REACTORS
330
2A
102
}
330
2A
100
AcDbVisualStyle
  2
Linepattern
 70
    14
 71
     2
 72
     2
 73
     0
 90
        0
 40
-0.6
 41
-30.0
 62
     5
 63
     7
 74
     1
 91
        4
 64
     7
 65
   257
 75
     7
175
     7
 42
1.0
 92
        8
 66
     7
 43
1.0
 76
     1
 77
     6
 78
     2
 67
     7
 79
     5
170
     0
171
     0
290
     0
174
     0
 93
        1
 44
0.0
173
     0
291
     1
 45
0.0
1001
ACAD
1000
AcDbSavedByObjectVersion
1070
     0
  0
VISUALSTYLE
  5
33
102
{ACAD_REACTORS
330
2A
102
}
330
2A
100
AcDbVisualStyle
  2
Realistic
 70
     8
 71
     2
 72
     2
 73
     0
 90
        0
 40
-0.6
 41
-30.0
 62
     5
 63
     7
 74
     1
 91
        0
 64
     7
 65
   257
 75
     1
175
     1
 42
1.0
 92
        8
 66
     8
 43
1.0
 76
     1
 77
     6
 78
     2
 67
     7
 79
     5
170
     0
171
     0
290
     0
174
     0
 93
       13
 44
0.0
173
     0
291
     0
 45
0.0
1001
ACAD
1000
AcDbSavedByObjectVersion
1070
     0
  0
VISUALSTYLE
  5
37
102
{ACAD_REACTORS
330
2A
102
}
330
2A
100
AcDbVisualStyle
  2
Thicken
 70
    13
 71
     2
 72
     2
 73
     0
 90
        0
 40
-0.6
 41
-30.0
 62
     5
 63
     7
 74
     1
 91
        4
 64
     7
 65
   257
 75
     1
175
     1
 42
1.0
 92
       12
 66
     7
 43
1.0
 76
     1
 77
     6
 78
     2
 67
     7
 79
     5
170
     0
171
     0
290
     0
174
     0
 93
        1
 44
0.0
173
     0
291
     1
 45
0.0
1001
ACAD
1000
AcDbSavedByObjectVersion
1070
     0
  0
XRECORD
  5
4C7
102
{ACAD_REACTORS
330
4C6
102
}
330
4C6
100
AcDbXrecord
280
     1
1000
・ｱ・ﾌDWG・t・@・C・・・ﾍRIKCAD21(TM)(R)・ﾅ・・・ｬ・ｳ・・・ﾜ・ｵ・ｽ・B
  0
ENDSEC
  0
EOF
