  0
SECTION
  2
HEADER
  9
$ACADVER
  1
AC1015
  9
$ACADMAINTVER
 70
     6
  9
$DWGCODEPAGE
  3
ANSI_932
  9
$INSBASE
 10
0.0
 20
0.0
 30
0.0
  9
$EXTMIN
 10
1.000000000000000E+20
 20
1.000000000000000E+20
 30
1.000000000000000E+20
  9
$EXTMAX
 10
-1.000000000000000E+20
 20
-1.000000000000000E+20
 30
-1.000000000000000E+20
  9
$LIMMIN
 10
0.0
 20
0.0
  9
$LIMMAX
 10
12.0
 20
9.0
  9
$ORTHOMODE
 70
     0
  9
$REGENMODE
 70
     1
  9
$FILLMODE
 70
     1
  9
$QTEXTMODE
 70
     0
  9
$MIRRTEXT
 70
     1
  9
$LTSCALE
 40
1.0
  9
$ATTMODE
 70
     1
  9
$TEXTSIZE
 40
0.2
  9
$TRACEWID
 40
0.05
  9
$TEXTSTYLE
  7
Standard
  9
$CLAYER
  8
0
  9
$CELTYPE
  6
ByLayer
  9
$CECOLOR
 62
   256
  9
$CELTSCALE
 40
1.0
  9
$DISPSILH
 70
     0
  9
$DIMSCALE
 40
1.0
  9
$DIMASZ
 40
0.18
  9
$DIMEXO
 40
0.0625
  9
$DIMDLI
 40
0.38
  9
$DIMRND
 40
0.0
  9
$DIMDLE
 40
0.0
  9
$DIMEXE
 40
0.18
  9
$DIMTP
 40
0.0
  9
$DIMTM
 40
0.0
  9
$DIMTXT
 40
0.18
  9
$DIMCEN
 40
0.09
  9
$DIMTSZ
 40
0.0
  9
$DIMTOL
 70
     0
  9
$DIMLIM
 70
     0
  9
$DIMTIH
 70
     1
  9
$DIMTOH
 70
     1
  9
$DIMSE1
 70
     0
  9
$DIMSE2
 70
     0
  9
$DIMTAD
 70
     0
  9
$DIMZIN
 70
     0
  9
$DIMBLK
  1

  9
$DIMASO
 70
     1
  9
$DIMSHO
 70
     1
  9
$DIMPOST
  1

  9
$DIMAPOST
  1

  9
$DIMALT
 70
     0
  9
$DIMALTD
 70
     2
  9
$DIMALTF
 40
25.4
  9
$DIMLFAC
 40
1.0
  9
$DIMTOFL
 70
     0
  9
$DIMTVP
 40
0.0
  9
$DIMTIX
 70
     0
  9
$DIMSOXD
 70
     0
  9
$DIMSAH
 70
     0
  9
$DIMBLK1
  1

  9
$DIMBLK2
  1

  9
$DIMSTYLE
  2
Standard
  9
$DIMCLRD
 70
     0
  9
$DIMCLRE
 70
     0
  9
$DIMCLRT
 70
     0
  9
$DIMTFAC
 40
1.0
  9
$DIMGAP
 40
0.09
  9
$DIMJUST
 70
     0
  9
$DIMSD1
 70
     0
  9
$DIMSD2
 70
     0
  9
$DIMTOLJ
 70
     1
  9
$DIMTZIN
 70
     0
  9
$DIMALTZ
 70
     0
  9
$DIMALTTZ
 70
     0
  9
$DIMUPT
 70
     0
  9
$DIMDEC
 70
     4
  9
$DIMTDEC
 70
     4
  9
$DIMALTU
 70
     2
  9
$DIMALTTD
 70
     2
  9
$DIMTXSTY
  7
Standard
  9
$DIMAUNIT
 70
     0
  9
$DIMADEC
 70
     0
  9
$DIMALTRND
 40
0.0
  9
$DIMAZIN
 70
     0
  9
$DIMDSEP
 70
    46
  9
$DIMATFIT
 70
     3
  9
$DIMFRAC
 70
     0
  9
$DIMLDRBLK
  1

  9
$DIMLUNIT
 70
     2
  9
$DIMLWD
 70
    -2
  9
$DIMLWE
 70
    -2
  9
$DIMTMOVE
 70
     0
  9
$LUNITS
 70
     2
  9
$LUPREC
 70
     4
  9
$SKETCHINC
 40
0.1
  9
$FILLETRAD
 40
0.5
  9
$AUNITS
 70
     0
  9
$AUPREC
 70
     0
  9
$MENU
  1
.
  9
$ELEVATION
 40
0.0
  9
$PELEVATION
 40
0.0
  9
$THICKNESS
 40
0.0
  9
$LIMCHECK
 70
     0
  9
$CHAMFERA
 40
0.5
  9
$CHAMFERB
 40
0.5
  9
$CHAMFERC
 40
1.0
  9
$CHAMFERD
 40
0.0
  9
$SKPOLY
 70
     0
  9
$TDCREATE
 40
2457585.452939294
  9
$TDUCREATE
 40
2457585.077939294
  9
$TDUPDATE
 40
2457585.452939305
  9
$TDUUPDATE
 40
2457585.077939305
  9
$TDINDWG
 40
0.0000000116
  9
$TDUSRTIMER
 40
0.0000000116
  9
$USRTIMER
 70
     1
  9
$ANGBASE
 50
0.0
  9
$ANGDIR
 70
     0
  9
$PDMODE
 70
     0
  9
$PDSIZE
 40
0.0
  9
$PLINEWID
 40
0.0
  9
$SPLFRAME
 70
     0
  9
$SPLINETYPE
 70
     6
  9
$SPLINESEGS
 70
     8
  9
$HANDSEED
  5
46D
  9
$SURFTAB1
 70
     6
  9
$SURFTAB2
 70
     6
  9
$SURFTYPE
 70
     6
  9
$SURFU
 70
     6
  9
$SURFV
 70
     6
  9
$UCSBASE
  2

  9
$UCSNAME
  2

  9
$UCSORG
 10
0.0
 20
0.0
 30
0.0
  9
$UCSXDIR
 10
1.0
 20
0.0
 30
0.0
  9
$UCSYDIR
 10
0.0
 20
1.0
 30
0.0
  9
$UCSORTHOREF
  2

  9
$UCSORTHOVIEW
 70
     0
  9
$UCSORGTOP
 10
0.0
 20
0.0
 30
0.0
  9
$UCSORGBOTTOM
 10
0.0
 20
0.0
 30
0.0
  9
$UCSORGLEFT
 10
0.0
 20
0.0
 30
0.0
  9
$UCSORGRIGHT
 10
0.0
 20
0.0
 30
0.0
  9
$UCSORGFRONT
 10
0.0
 20
0.0
 30
0.0
  9
$UCSORGBACK
 10
0.0
 20
0.0
 30
0.0
  9
$PUCSBASE
  2

  9
$PUCSNAME
  2

  9
$PUCSORG
 10
0.0
 20
0.0
 30
0.0
  9
$PUCSXDIR
 10
1.0
 20
0.0
 30
0.0
  9
$PUCSYDIR
 10
0.0
 20
1.0
 30
0.0
  9
$PUCSORTHOREF
  2

  9
$PUCSORTHOVIEW
 70
     0
  9
$PUCSORGTOP
 10
0.0
 20
0.0
 30
0.0
  9
$PUCSORGBOTTOM
 10
0.0
 20
0.0
 30
0.0
  9
$PUCSORGLEFT
 10
0.0
 20
0.0
 30
0.0
  9
$PUCSORGRIGHT
 10
0.0
 20
0.0
 30
0.0
  9
$PUCSORGFRONT
 10
0.0
 20
0.0
 30
0.0
  9
$PUCSORGBACK
 10
0.0
 20
0.0
 30
0.0
  9
$USERI1
 70
     0
  9
$USERI2
 70
     0
  9
$USERI3
 70
     0
  9
$USERI4
 70
     0
  9
$USERI5
 70
     0
  9
$USERR1
 40
0.0
  9
$USERR2
 40
0.0
  9
$USERR3
 40
0.0
  9
$USERR4
 40
0.0
  9
$USERR5
 40
0.0
  9
$WORLDVIEW
 70
     1
  9
$SHADEDGE
 70
     3
  9
$SHADEDIF
 70
    70
  9
$TILEMODE
 70
     1
  9
$MAXACTVP
 70
    64
  9
$PINSBASE
 10
0.0
 20
0.0
 30
0.0
  9
$PLIMCHECK
 70
     0
  9
$PEXTMIN
 10
1.000000000000000E+20
 20
1.000000000000000E+20
 30
1.000000000000000E+20
  9
$PEXTMAX
 10
-1.000000000000000E+20
 20
-1.000000000000000E+20
 30
-1.000000000000000E+20
  9
$PLIMMIN
 10
0.0
 20
0.0
  9
$PLIMMAX
 10
12.0
 20
9.0
  9
$UNITMODE
 70
     0
  9
$VISRETAIN
 70
     1
  9
$PLINEGEN
 70
     0
  9
$PSLTSCALE
 70
     1
  9
$TREEDEPTH
 70
  3020
  9
$CMLSTYLE
  2
Standard
  9
$CMLJUST
 70
     0
  9
$CMLSCALE
 40
1.0
  9
$PROXYGRAPHICS
 70
     1
  9
$MEASUREMENT
 70
     0
  9
$CELWEIGHT
370
    -1
  9
$ENDCAPS
280
     0
  9
$JOINSTYLE
280
     0
  9
$LWDISPLAY
290
     1
  9
$INSUNITS
 70
     0
  9
$HYPERLINKBASE
  1

  9
$STYLESHEET
  1

  9
$XEDIT
290
     1
  9
$CEPSNTYPE
380
     0
  9
$PSTYLEMODE
290
     1
  9
$FINGERPRINTGUID
  2
{97599EDE-D551-40E5-B1E2-28DD5D7E5171}
  9
$VERSIONGUID
  2
{FAEB1C32-E019-11D5-929B-00C0DF256EC4}
  9
$EXTNAMES
290
     1
  9
$PSVPSCALE
 40
0.0
  9
$OLESTARTUP
290
     0
  0
ENDSEC
  0
SECTION
  2
CLASSES
  0
CLASS
  1
ACDBDICTIONARYWDFLT
  2
AcDbDictionaryWithDefault
  3
ObjectDBX Classes
 90
        0
280
     0
281
     0
  0
CLASS
  1
VISUALSTYLE
  2
AcDbVisualStyle
  3
ObjectDBX Classes
 90
     4095
280
     0
281
     0
  0
CLASS
  1
ACDBPLACEHOLDER
  2
AcDbPlaceHolder
  3
ObjectDBX Classes
 90
        0
280
     0
281
     0
  0
CLASS
  1
LAYOUT
  2
AcDbLayout
  3
ObjectDBX Classes
 90
        0
280
     0
281
     0
  0
ENDSEC
  0
SECTION
  2
TABLES
  0
TABLE
  2
VPORT
  5
8
330
0
100
AcDbSymbolTable
 70
     1
  0
VPORT
  5
29
330
8
100
AcDbSymbolTableRecord
100
AcDbViewportTableRecord
  2
*Active
 70
     0
 10
0.0
 20
0.0
 11
1.0
 21
1.0
 12
10.42990654205607
 22
4.5
 13
0.0
 23
0.0
 14
0.5
 24
0.5
 15
0.5
 25
0.5
 16
0.0
 26
0.0
 36
1.0
 17
0.0
 27
0.0
 37
0.0
 40
9.0
 41
1.972972972850329
 42
50.0
 43
0.0
 44
0.0
 50
0.0
 51
0.0
 71
     0
 72
   100
 73
     1
 74
     3
 75
     0
 76
     0
 77
     0
 78
     0
281
     0
 65
     1
110
0.0
120
0.0
130
0.0
111
1.0
121
0.0
131
0.0
112
0.0
122
1.0
132
0.0
 79
     0
146
0.0
  0
ENDTAB
  0
TABLE
  2
LTYPE
  5
5
330
0
100
AcDbSymbolTable
 70
     1
  0
LTYPE
  5
14
330
5
100
AcDbSymbolTableRecord
100
AcDbLinetypeTableRecord
  2
ByBlock
 70
     0
  3

 72
    65
 73
     0
 40
0.0
  0
LTYPE
  5
15
330
5
100
AcDbSymbolTableRecord
100
AcDbLinetypeTableRecord
  2
ByLayer
 70
     0
  3

 72
    65
 73
     0
 40
0.0
  0
LTYPE
  5
16
330
5
100
AcDbSymbolTableRecord
100
AcDbLinetypeTableRecord
  2
Continuous
 70
     0
  3
Solid line
 72
    65
 73
     0
 40
0.0
  0
ENDTAB
  0
TABLE
  2
LAYER
  5
2
330
0
100
AcDbSymbolTable
 70
     2
  0
LAYER
  5
10
330
2
100
AcDbSymbolTableRecord
100
AcDbLayerTableRecord
  2
0
 70
     0
 62
     7
  6
Continuous
370
    -3
390
F
  0
LAYER
  5
3B
330
2
100
AcDbSymbolTableRecord
100
AcDbLayerTableRecord
  2
ｴｸｽﾃﾘｱ商品
 70
     0
 62
     7
  6
Continuous
370
    -3
390
F
  0
ENDTAB
  0
TABLE
  2
STYLE
  5
3
330
0
100
AcDbSymbolTable
 70
     1
  0
STYLE
  5
11
330
3
100
AcDbSymbolTableRecord
100
AcDbTextStyleTableRecord
  2
Standard
 70
     0
 40
0.0
 41
1.0
 50
0.0
 71
     0
 42
0.2
  3
txt
  4
EXTFONT.SHX
  0
ENDTAB
  0
TABLE
  2
VIEW
  5
6
330
0
100
AcDbSymbolTable
 70
     0
  0
ENDTAB
  0
TABLE
  2
UCS
  5
7
330
0
100
AcDbSymbolTable
 70
     0
  0
ENDTAB
  0
TABLE
  2
APPID
  5
9
330
0
100
AcDbSymbolTable
 70
     1
  0
APPID
  5
12
330
9
100
AcDbSymbolTableRecord
100
AcDbRegAppTableRecord
  2
ACAD
 70
     0
  0
ENDTAB
  0
TABLE
  2
DIMSTYLE
  5
A
330
0
100
AcDbSymbolTable
 70
     1
100
AcDbDimStyleTable
  0
DIMSTYLE
105
27
330
A
100
AcDbSymbolTableRecord
100
AcDbDimStyleTableRecord
  2
Standard
 70
     0
340
11
  0
ENDTAB
  0
TABLE
  2
BLOCK_RECORD
  5
1
330
0
100
AcDbSymbolTable
 70
     2
  0
BLOCK_RECORD
  5
1F
330
1
100
AcDbSymbolTableRecord
100
AcDbBlockTableRecord
  2
*Model_Space
340
22
  0
BLOCK_RECORD
  5
1B
330
1
100
AcDbSymbolTableRecord
100
AcDbBlockTableRecord
  2
*Paper_Space
340
1E
  0
BLOCK_RECORD
  5
23
330
1
100
AcDbSymbolTableRecord
100
AcDbBlockTableRecord
  2
*Paper_Space0
340
26
  0
BLOCK_RECORD
  5
3C
330
1
100
AcDbSymbolTableRecord
100
AcDbBlockTableRecord
  2
オブジェクト_23
340
0
102
{BLKREFS
331
469
102
}
  0
ENDTAB
  0
ENDSEC
  0
SECTION
  2
BLOCKS
  0
BLOCK
  5
20
330
1F
100
AcDbEntity
  8
0
100
AcDbBlockBegin
  2
*Model_Space
 70
     0
 71
     0
 10
0.0
 20
0.0
 30
0.0
  3
*Model_Space
  1

  0
ENDBLK
  5
21
330
1F
100
AcDbEntity
  8
0
100
AcDbBlockEnd
  0
BLOCK
  5
1C
330
1B
100
AcDbEntity
 67
     1
  8
0
100
AcDbBlockBegin
  2
*Paper_Space
 70
     0
 71
     0
 10
0.0
 20
0.0
 30
0.0
  3
*Paper_Space
  1

  0
ENDBLK
  5
1D
330
1B
100
AcDbEntity
 67
     1
  8
0
100
AcDbBlockEnd
  0
BLOCK
  5
24
330
23
100
AcDbEntity
  8
0
100
AcDbBlockBegin
  2
*Paper_Space0
 70
     0
 71
     0
 10
0.0
 20
0.0
 30
0.0
  3
*Paper_Space0
  1

  0
ENDBLK
  5
25
330
23
100
AcDbEntity
  8
0
100
AcDbBlockEnd
  0
BLOCK
  5
3D
330
3C
100
AcDbEntity
  8
0
100
AcDbBlockBegin
  2
オブジェクト_23
 70
     0
 71
     0
 10
0.0
 20
0.0
 30
0.0
  3
オブジェクト_23
  1

  0
POLYLINE
  5
3F
330
3C
100
AcDbEntity
  8
ｴｸｽﾃﾘｱ商品
 62
   250
370
    20
100
AcDbPolyFaceMesh
 66
     1
 10
0.0
 20
0.0
 30
0.0
 70
    64
 71
    24
 72
    18
  0
VERTEX
  5
41
330
3F
100
AcDbEntity
  8
ｴｸｽﾃﾘｱ商品
 62
   250
370
    20
100
AcDbVertex
100
AcDbPolyFaceMeshVertex
 10
100.0
 20
0.0
 30
0.0
 70
   192
  0
VERTEX
  5
42
330
3F
100
AcDbEntity
  8
ｴｸｽﾃﾘｱ商品
 62
   250
370
    20
100
AcDbVertex
100
AcDbPolyFaceMeshVertex
 10
0.0
 20
0.0
 30
0.0
 70
   192
  0
VERTEX
  5
43
330
3F
100
AcDbEntity
  8
ｴｸｽﾃﾘｱ商品
 62
   250
370
    20
100
AcDbVertex
100
AcDbPolyFaceMeshVertex
 10
0.0
 20
100.0
 30
0.0
 70
   192
  0
VERTEX
  5
44
330
3F
100
AcDbEntity
  8
ｴｸｽﾃﾘｱ商品
 62
   250
370
    20
100
AcDbVertex
100
AcDbPolyFaceMeshVertex
 10
100.0
 20
100.0
 30
0.0
 70
   192
  0
VERTEX
  5
45
330
3F
100
AcDbEntity
  8
ｴｸｽﾃﾘｱ商品
 62
   250
370
    20
100
AcDbVertex
100
AcDbPolyFaceMeshVertex
 10
0.0
 20
0.0
 30
1910.0
 70
   192
  0
VERTEX
  5
46
330
3F
100
AcDbEntity
  8
ｴｸｽﾃﾘｱ商品
 62
   250
370
    20
100
AcDbVertex
100
AcDbPolyFaceMeshVertex
 10
100.0
 20
0.0
 30
1910.0
 70
   192
  0
VERTEX
  5
47
330
3F
100
AcDbEntity
  8
ｴｸｽﾃﾘｱ商品
 62
   250
370
    20
100
AcDbVertex
100
AcDbPolyFaceMeshVertex
 10
100.0
 20
100.0
 30
1910.0
 70
   192
  0
VERTEX
  5
48
330
3F
100
AcDbEntity
  8
ｴｸｽﾃﾘｱ商品
 62
   250
370
    20
100
AcDbVertex
100
AcDbPolyFaceMeshVertex
 10
0.0
 20
100.0
 30
1910.0
 70
   192
  0
VERTEX
  5
49
330
3F
100
AcDbEntity
  8
ｴｸｽﾃﾘｱ商品
 62
   250
370
    20
100
AcDbVertex
100
AcDbPolyFaceMeshVertex
 10
1031.0
 20
0.0
 30
0.0
 70
   192
  0
VERTEX
  5
4A
330
3F
100
AcDbEntity
  8
ｴｸｽﾃﾘｱ商品
 62
   250
370
    20
100
AcDbVertex
100
AcDbPolyFaceMeshVertex
 10
931.0
 20
0.0
 30
0.0
 70
   192
  0
VERTEX
  5
4B
330
3F
100
AcDbEntity
  8
ｴｸｽﾃﾘｱ商品
 62
   250
370
    20
100
AcDbVertex
100
AcDbPolyFaceMeshVertex
 10
931.0
 20
100.0
 30
0.0
 70
   192
  0
VERTEX
  5
4C
330
3F
100
AcDbEntity
  8
ｴｸｽﾃﾘｱ商品
 62
   250
370
    20
100
AcDbVertex
100
AcDbPolyFaceMeshVertex
 10
1031.0
 20
100.0
 30
0.0
 70
   192
  0
VERTEX
  5
4D
330
3F
100
AcDbEntity
  8
ｴｸｽﾃﾘｱ商品
 62
   250
370
    20
100
AcDbVertex
100
AcDbPolyFaceMeshVertex
 10
931.0
 20
0.0
 30
1910.0
 70
   192
  0
VERTEX
  5
4E
330
3F
100
AcDbEntity
  8
ｴｸｽﾃﾘｱ商品
 62
   250
370
    20
100
AcDbVertex
100
AcDbPolyFaceMeshVertex
 10
1031.0
 20
0.0
 30
1910.0
 70
   192
  0
VERTEX
  5
4F
330
3F
100
AcDbEntity
  8
ｴｸｽﾃﾘｱ商品
 62
   250
370
    20
100
AcDbVertex
100
AcDbPolyFaceMeshVertex
 10
1031.0
 20
100.0
 30
1910.0
 70
   192
  0
VERTEX
  5
50
330
3F
100
AcDbEntity
  8
ｴｸｽﾃﾘｱ商品
 62
   250
370
    20
100
AcDbVertex
100
AcDbPolyFaceMeshVertex
 10
931.0
 20
100.0
 30
1910.0
 70
   192
  0
VERTEX
  5
51
330
3F
100
AcDbEntity
  8
ｴｸｽﾃﾘｱ商品
 62
   250
370
    20
100
AcDbVertex
100
AcDbPolyFaceMeshVertex
 10
906.0
 20
49.99999999999999
 30
91.00000000000003
 70
   192
  0
VERTEX
  5
52
330
3F
100
AcDbEntity
  8
ｴｸｽﾃﾘｱ商品
 62
   250
370
    20
100
AcDbVertex
100
AcDbPolyFaceMeshVertex
 10
106.0
 20
49.99999999999999
 30
91.00000000000003
 70
   192
  0
VERTEX
  5
53
330
3F
100
AcDbEntity
  8
ｴｸｽﾃﾘｱ商品
 62
   250
370
    20
100
AcDbVertex
100
AcDbPolyFaceMeshVertex
 10
106.0
 20
103.0
 30
91.00000000000003
 70
   192
  0
VERTEX
  5
54
330
3F
100
AcDbEntity
  8
ｴｸｽﾃﾘｱ商品
 62
   250
370
    20
100
AcDbVertex
100
AcDbPolyFaceMeshVertex
 10
906.0
 20
103.0
 30
91.00000000000003
 70
   192
  0
VERTEX
  5
55
330
3F
100
AcDbEntity
  8
ｴｸｽﾃﾘｱ商品
 62
   250
370
    20
100
AcDbVertex
100
AcDbPolyFaceMeshVertex
 10
106.0
 20
49.99999999999999
 30
102.0
 70
   192
  0
VERTEX
  5
56
330
3F
100
AcDbEntity
  8
ｴｸｽﾃﾘｱ商品
 62
   250
370
    20
100
AcDbVertex
100
AcDbPolyFaceMeshVertex
 10
906.0
 20
49.99999999999999
 30
102.0
 70
   192
  0
VERTEX
  5
57
330
3F
100
AcDbEntity
  8
ｴｸｽﾃﾘｱ商品
 62
   250
370
    20
100
AcDbVertex
100
AcDbPolyFaceMeshVertex
 10
906.0
 20
103.0
 30
102.0
 70
   192
  0
VERTEX
  5
58
330
3F
100
AcDbEntity
  8
ｴｸｽﾃﾘｱ商品
 62
   250
370
    20
100
AcDbVertex
100
AcDbPolyFaceMeshVertex
 10
106.0
 20
103.0
 30
102.0
 70
   192
  0
VERTEX
  5
59
330
3F
100
AcDbEntity
  8
ｴｸｽﾃﾘｱ商品
 62
   250
370
    20
100
AcDbFaceRecord
 10
0.0
 20
0.0
 30
0.0
 70
   128
 71
     1
 72
     2
 73
     3
 74
     4
  0
VERTEX
  5
5A
330
3F
100
AcDbEntity
  8
ｴｸｽﾃﾘｱ商品
 62
   250
370
    20
100
AcDbFaceRecord
 10
0.0
 20
0.0
 30
0.0
 70
   128
 71
     5
 72
     6
 73
     7
 74
     8
  0
VERTEX
  5
5B
330
3F
100
AcDbEntity
  8
ｴｸｽﾃﾘｱ商品
 62
   250
370
    20
100
AcDbFaceRecord
 10
0.0
 20
0.0
 30
0.0
 70
   128
 71
     2
 72
     1
 73
     6
 74
     5
  0
VERTEX
  5
5C
330
3F
100
AcDbEntity
  8
ｴｸｽﾃﾘｱ商品
 62
   250
370
    20
100
AcDbFaceRecord
 10
0.0
 20
0.0
 30
0.0
 70
   128
 71
     1
 72
     4
 73
     7
 74
     6
  0
VERTEX
  5
5D
330
3F
100
AcDbEntity
  8
ｴｸｽﾃﾘｱ商品
 62
   250
370
    20
100
AcDbFaceRecord
 10
0.0
 20
0.0
 30
0.0
 70
   128
 71
     4
 72
     3
 73
     8
 74
     7
  0
VERTEX
  5
5E
330
3F
100
AcDbEntity
  8
ｴｸｽﾃﾘｱ商品
 62
   250
370
    20
100
AcDbFaceRecord
 10
0.0
 20
0.0
 30
0.0
 70
   128
 71
     3
 72
     2
 73
     5
 74
     8
  0
VERTEX
  5
5F
330
3F
100
AcDbEntity
  8
ｴｸｽﾃﾘｱ商品
 62
   250
370
    20
100
AcDbFaceRecord
 10
0.0
 20
0.0
 30
0.0
 70
   128
 71
     9
 72
    10
 73
    11
 74
    12
  0
VERTEX
  5
60
330
3F
100
AcDbEntity
  8
ｴｸｽﾃﾘｱ商品
 62
   250
370
    20
100
AcDbFaceRecord
 10
0.0
 20
0.0
 30
0.0
 70
   128
 71
    13
 72
    14
 73
    15
 74
    16
  0
VERTEX
  5
61
330
3F
100
AcDbEntity
  8
ｴｸｽﾃﾘｱ商品
 62
   250
370
    20
100
AcDbFaceRecord
 10
0.0
 20
0.0
 30
0.0
 70
   128
 71
    10
 72
     9
 73
    14
 74
    13
  0
VERTEX
  5
62
330
3F
100
AcDbEntity
  8
ｴｸｽﾃﾘｱ商品
 62
   250
370
    20
100
AcDbFaceRecord
 10
0.0
 20
0.0
 30
0.0
 70
   128
 71
     9
 72
    12
 73
    15
 74
    14
  0
VERTEX
  5
63
330
3F
100
AcDbEntity
  8
ｴｸｽﾃﾘｱ商品
 62
   250
370
    20
100
AcDbFaceRecord
 10
0.0
 20
0.0
 30
0.0
 70
   128
 71
    12
 72
    11
 73
    16
 74
    15
  0
VERTEX
  5
64
330
3F
100
AcDbEntity
  8
ｴｸｽﾃﾘｱ商品
 62
   250
370
    20
100
AcDbFaceRecord
 10
0.0
 20
0.0
 30
0.0
 70
   128
 71
    11
 72
    10
 73
    13
 74
    16
  0
VERTEX
  5
65
330
3F
100
AcDbEntity
  8
ｴｸｽﾃﾘｱ商品
 62
    27
370
     0
100
AcDbFaceRecord
 10
0.0
 20
0.0
 30
0.0
 70
   128
 71
    17
 72
    18
 73
    19
 74
    20
  0
VERTEX
  5
66
330
3F
100
AcDbEntity
  8
ｴｸｽﾃﾘｱ商品
 62
    27
370
     0
100
AcDbFaceRecord
 10
0.0
 20
0.0
 30
0.0
 70
   128
 71
    21
 72
    22
 73
    23
 74
    24
  0
VERTEX
  5
67
330
3F
100
AcDbEntity
  8
ｴｸｽﾃﾘｱ商品
 62
    27
370
     0
100
AcDbFaceRecord
 10
0.0
 20
0.0
 30
0.0
 70
   128
 71
    18
 72
    17
 73
    22
 74
    21
  0
VERTEX
  5
68
330
3F
100
AcDbEntity
  8
ｴｸｽﾃﾘｱ商品
 62
    27
370
     0
100
AcDbFaceRecord
 10
0.0
 20
0.0
 30
0.0
 70
   128
 71
    17
 72
    20
 73
    23
 74
    22
  0
VERTEX
  5
69
330
3F
100
AcDbEntity
  8
ｴｸｽﾃﾘｱ商品
 62
    27
370
     0
100
AcDbFaceRecord
 10
0.0
 20
0.0
 30
0.0
 70
   128
 71
    20
 72
    19
 73
    24
 74
    23
  0
VERTEX
  5
6A
330
3F
100
AcDbEntity
  8
ｴｸｽﾃﾘｱ商品
 62
    27
370
     0
100
AcDbFaceRecord
 10
0.0
 20
0.0
 30
0.0
 70
   128
 71
    19
 72
    18
 73
    21
 74
    24
  0
SEQEND
  5
40
330
3F
100
AcDbEntity
  8
ｴｸｽﾃﾘｱ商品
370
    20
  0
POLYLINE
  5
6B
330
3C
100
AcDbEntity
  8
ｴｸｽﾃﾘｱ商品
 62
    27
370
     0
100
AcDbPolyFaceMesh
 66
     1
 10
0.0
 20
0.0
 30
0.0
 70
    64
 71
     8
 72
     6
  0
VERTEX
  5
6D
330
6B
100
AcDbEntity
  8
ｴｸｽﾃﾘｱ商品
 62
    27
370
     0
100
AcDbVertex
100
AcDbPolyFaceMeshVertex
 10
906.0
 20
49.99999999999999
 30
1880.0
 70
   192
  0
VERTEX
  5
6E
330
6B
100
AcDbEntity
  8
ｴｸｽﾃﾘｱ商品
 62
    27
370
     0
100
AcDbVertex
100
AcDbPolyFaceMeshVertex
 10
106.0
 20
49.99999999999999
 30
1880.0
 70
   192
  0
VERTEX
  5
6F
330
6B
100
AcDbEntity
  8
ｴｸｽﾃﾘｱ商品
 62
    27
370
     0
100
AcDbVertex
100
AcDbPolyFaceMeshVertex
 10
106.0
 20
103.0
 30
1880.0
 70
   192
  0
VERTEX
  5
70
330
6B
100
AcDbEntity
  8
ｴｸｽﾃﾘｱ商品
 62
    27
370
     0
100
AcDbVertex
100
AcDbPolyFaceMeshVertex
 10
906.0
 20
103.0
 30
1880.0
 70
   192
  0
VERTEX
  5
71
330
6B
100
AcDbEntity
  8
ｴｸｽﾃﾘｱ商品
 62
    27
370
     0
100
AcDbVertex
100
AcDbPolyFaceMeshVertex
 10
106.0
 20
49.99999999999999
 30
1891.0
 70
   192
  0
VERTEX
  5
72
330
6B
100
AcDbEntity
  8
ｴｸｽﾃﾘｱ商品
 62
    27
370
     0
100
AcDbVertex
100
AcDbPolyFaceMeshVertex
 10
906.0
 20
49.99999999999999
 30
1891.0
 70
   192
  0
VERTEX
  5
73
330
6B
100
AcDbEntity
  8
ｴｸｽﾃﾘｱ商品
 62
    27
370
     0
100
AcDbVertex
100
AcDbPolyFaceMeshVertex
 10
906.0
 20
103.0
 30
1891.0
 70
   192
  0
VERTEX
  5
74
330
6B
100
AcDbEntity
  8
ｴｸｽﾃﾘｱ商品
 62
    27
370
     0
100
AcDbVertex
100
AcDbPolyFaceMeshVertex
 10
106.0
 20
103.0
 30
1891.0
 70
   192
  0
VERTEX
  5
75
330
6B
100
AcDbEntity
  8
ｴｸｽﾃﾘｱ商品
 62
    27
370
     0
100
AcDbFaceRecord
 10
0.0
 20
0.0
 30
0.0
 70
   128
 71
     1
 72
     2
 73
     3
 74
     4
  0
VERTEX
  5
76
330
6B
100
AcDbEntity
  8
ｴｸｽﾃﾘｱ商品
 62
    27
370
     0
100
AcDbFaceRecord
 10
0.0
 20
0.0
 30
0.0
 70
   128
 71
     5
 72
     6
 73
     7
 74
     8
  0
VERTEX
  5
77
330
6B
100
AcDbEntity
  8
ｴｸｽﾃﾘｱ商品
 62
    27
370
     0
100
AcDbFaceRecord
 10
0.0
 20
0.0
 30
0.0
 70
   128
 71
     2
 72
     1
 73
     6
 74
     5
  0
VERTEX
  5
78
330
6B
100
AcDbEntity
  8
ｴｸｽﾃﾘｱ商品
 62
    27
370
     0
100
AcDbFaceRecord
 10
0.0
 20
0.0
 30
0.0
 70
   128
 71
     1
 72
     4
 73
     7
 74
     6
  0
VERTEX
  5
79
330
6B
100
AcDbEntity
  8
ｴｸｽﾃﾘｱ商品
 62
    27
370
     0
100
AcDbFaceRecord
 10
0.0
 20
0.0
 30
0.0
 70
   128
 71
     4
 72
     3
 73
     8
 74
     7
  0
VERTEX
  5
7A
330
6B
100
AcDbEntity
  8
ｴｸｽﾃﾘｱ商品
 62
    27
370
     0
100
AcDbFaceRecord
 10
0.0
 20
0.0
 30
0.0
 70
   128
 71
     3
 72
     2
 73
     5
 74
     8
  0
SEQEND
  5
6C
330
6B
100
AcDbEntity
  8
ｴｸｽﾃﾘｱ商品
370
     0
  0
POLYLINE
  5
7B
330
3C
100
AcDbEntity
  8
ｴｸｽﾃﾘｱ商品
 62
    27
370
     0
100
AcDbPolyFaceMesh
 66
     1
 10
0.0
 20
0.0
 30
0.0
 70
    64
 71
     8
 72
     6
  0
VERTEX
  5
7D
330
7B
100
AcDbEntity
  8
ｴｸｽﾃﾘｱ商品
 62
    27
370
     0
100
AcDbVertex
100
AcDbPolyFaceMeshVertex
 10
116.0
 20
49.99999999999999
 30
102.0
 70
   192
  0
VERTEX
  5
7E
330
7B
100
AcDbEntity
  8
ｴｸｽﾃﾘｱ商品
 62
    27
370
     0
100
AcDbVertex
100
AcDbPolyFaceMeshVertex
 10
106.0
 20
49.99999999999999
 30
102.0
 70
   192
  0
VERTEX
  5
7F
330
7B
100
AcDbEntity
  8
ｴｸｽﾃﾘｱ商品
 62
    27
370
     0
100
AcDbVertex
100
AcDbPolyFaceMeshVertex
 10
106.0
 20
103.0
 30
102.0
 70
   192
  0
VERTEX
  5
80
330
7B
100
AcDbEntity
  8
ｴｸｽﾃﾘｱ商品
 62
    27
370
     0
100
AcDbVertex
100
AcDbPolyFaceMeshVertex
 10
116.0
 20
103.0
 30
102.0
 70
   192
  0
VERTEX
  5
81
330
7B
100
AcDbEntity
  8
ｴｸｽﾃﾘｱ商品
 62
    27
370
     0
100
AcDbVertex
100
AcDbPolyFaceMeshVertex
 10
106.0
 20
49.99999999999999
 30
1880.0
 70
   192
  0
VERTEX
  5
82
330
7B
100
AcDbEntity
  8
ｴｸｽﾃﾘｱ商品
 62
    27
370
     0
100
AcDbVertex
100
AcDbPolyFaceMeshVertex
 10
116.0
 20
49.99999999999999
 30
1880.0
 70
   192
  0
VERTEX
  5
83
330
7B
100
AcDbEntity
  8
ｴｸｽﾃﾘｱ商品
 62
    27
370
     0
100
AcDbVertex
100
AcDbPolyFaceMeshVertex
 10
116.0
 20
103.0
 30
1880.0
 70
   192
  0
VERTEX
  5
84
330
7B
100
AcDbEntity
  8
ｴｸｽﾃﾘｱ商品
 62
    27
370
     0
100
AcDbVertex
100
AcDbPolyFaceMeshVertex
 10
106.0
 20
103.0
 30
1880.0
 70
   192
  0
VERTEX
  5
85
330
7B
100
AcDbEntity
  8
ｴｸｽﾃﾘｱ商品
 62
    27
370
     0
100
AcDbFaceRecord
 10
0.0
 20
0.0
 30
0.0
 70
   128
 71
     1
 72
     2
 73
     3
 74
     4
  0
VERTEX
  5
86
330
7B
100
AcDbEntity
  8
ｴｸｽﾃﾘｱ商品
 62
    27
370
     0
100
AcDbFaceRecord
 10
0.0
 20
0.0
 30
0.0
 70
   128
 71
     5
 72
     6
 73
     7
 74
     8
  0
VERTEX
  5
87
330
7B
100
AcDbEntity
  8
ｴｸｽﾃﾘｱ商品
 62
    27
370
     0
100
AcDbFaceRecord
 10
0.0
 20
0.0
 30
0.0
 70
   128
 71
     2
 72
     1
 73
     6
 74
     5
  0
VERTEX
  5
88
330
7B
100
AcDbEntity
  8
ｴｸｽﾃﾘｱ商品
 62
    27
370
     0
100
AcDbFaceRecord
 10
0.0
 20
0.0
 30
0.0
 70
   128
 71
     1
 72
     4
 73
     7
 74
     6
  0
VERTEX
  5
89
330
7B
100
AcDbEntity
  8
ｴｸｽﾃﾘｱ商品
 62
    27
370
     0
100
AcDbFaceRecord
 10
0.0
 20
0.0
 30
0.0
 70
   128
 71
     4
 72
     3
 73
     8
 74
     7
  0
VERTEX
  5
8A
330
7B
100
AcDbEntity
  8
ｴｸｽﾃﾘｱ商品
 62
    27
370
     0
100
AcDbFaceRecord
 10
0.0
 20
0.0
 30
0.0
 70
   128
 71
     3
 72
     2
 73
     5
 74
     8
  0
SEQEND
  5
7C
330
7B
100
AcDbEntity
  8
ｴｸｽﾃﾘｱ商品
370
     0
  0
POLYLINE
  5
8B
330
3C
100
AcDbEntity
  8
ｴｸｽﾃﾘｱ商品
 62
    27
370
     0
100
AcDbPolyFaceMesh
 66
     1
 10
0.0
 20
0.0
 30
0.0
 70
    64
 71
     8
 72
     6
  0
VERTEX
  5
8D
330
8B
100
AcDbEntity
  8
ｴｸｽﾃﾘｱ商品
 62
    27
370
     0
100
AcDbVertex
100
AcDbPolyFaceMeshVertex
 10
906.0
 20
49.99999999999999
 30
102.0
 70
   192
  0
VERTEX
  5
8E
330
8B
100
AcDbEntity
  8
ｴｸｽﾃﾘｱ商品
 62
    27
370
     0
100
AcDbVertex
100
AcDbPolyFaceMeshVertex
 10
896.0
 20
49.99999999999999
 30
102.0
 70
   192
  0
VERTEX
  5
8F
330
8B
100
AcDbEntity
  8
ｴｸｽﾃﾘｱ商品
 62
    27
370
     0
100
AcDbVertex
100
AcDbPolyFaceMeshVertex
 10
896.0
 20
103.0
 30
102.0
 70
   192
  0
VERTEX
  5
90
330
8B
100
AcDbEntity
  8
ｴｸｽﾃﾘｱ商品
 62
    27
370
     0
100
AcDbVertex
100
AcDbPolyFaceMeshVertex
 10
906.0
 20
103.0
 30
102.0
 70
   192
  0
VERTEX
  5
91
330
8B
100
AcDbEntity
  8
ｴｸｽﾃﾘｱ商品
 62
    27
370
     0
100
AcDbVertex
100
AcDbPolyFaceMeshVertex
 10
896.0
 20
49.99999999999999
 30
1880.0
 70
   192
  0
VERTEX
  5
92
330
8B
100
AcDbEntity
  8
ｴｸｽﾃﾘｱ商品
 62
    27
370
     0
100
AcDbVertex
100
AcDbPolyFaceMeshVertex
 10
906.0
 20
49.99999999999999
 30
1880.0
 70
   192
  0
VERTEX
  5
93
330
8B
100
AcDbEntity
  8
ｴｸｽﾃﾘｱ商品
 62
    27
370
     0
100
AcDbVertex
100
AcDbPolyFaceMeshVertex
 10
906.0
 20
103.0
 30
1880.0
 70
   192
  0
VERTEX
  5
94
330
8B
100
AcDbEntity
  8
ｴｸｽﾃﾘｱ商品
 62
    27
370
     0
100
AcDbVertex
100
AcDbPolyFaceMeshVertex
 10
896.0
 20
103.0
 30
1880.0
 70
   192
  0
VERTEX
  5
95
330
8B
100
AcDbEntity
  8
ｴｸｽﾃﾘｱ商品
 62
    27
370
     0
100
AcDbFaceRecord
 10
0.0
 20
0.0
 30
0.0
 70
   128
 71
     1
 72
     2
 73
     3
 74
     4
  0
VERTEX
  5
96
330
8B
100
AcDbEntity
  8
ｴｸｽﾃﾘｱ商品
 62
    27
370
     0
100
AcDbFaceRecord
 10
0.0
 20
0.0
 30
0.0
 70
   128
 71
     5
 72
     6
 73
     7
 74
     8
  0
VERTEX
  5
97
330
8B
100
AcDbEntity
  8
ｴｸｽﾃﾘｱ商品
 62
    27
370
     0
100
AcDbFaceRecord
 10
0.0
 20
0.0
 30
0.0
 70
   128
 71
     2
 72
     1
 73
     6
 74
     5
  0
VERTEX
  5
98
330
8B
100
AcDbEntity
  8
ｴｸｽﾃﾘｱ商品
 62
    27
370
     0
100
AcDbFaceRecord
 10
0.0
 20
0.0
 30
0.0
 70
   128
 71
     1
 72
     4
 73
     7
 74
     6
  0
VERTEX
  5
99
330
8B
100
AcDbEntity
  8
ｴｸｽﾃﾘｱ商品
 62
    27
370
     0
100
AcDbFaceRecord
 10
0.0
 20
0.0
 30
0.0
 70
   128
 71
     4
 72
     3
 73
     8
 74
     7
  0
VERTEX
  5
9A
330
8B
100
AcDbEntity
  8
ｴｸｽﾃﾘｱ商品
 62
    27
370
     0
100
AcDbFaceRecord
 10
0.0
 20
0.0
 30
0.0
 70
   128
 71
     3
 72
     2
 73
     5
 74
     8
  0
SEQEND
  5
8C
330
8B
100
AcDbEntity
  8
ｴｸｽﾃﾘｱ商品
370
     0
  0
POLYLINE
  5
9B
330
3C
100
AcDbEntity
  8
ｴｸｽﾃﾘｱ商品
 62
    27
370
     0
100
AcDbPolyFaceMesh
 66
     1
 10
0.0
 20
0.0
 30
0.0
 70
    64
 71
     8
 72
     6
  0
VERTEX
  5
9D
330
9B
100
AcDbEntity
  8
ｴｸｽﾃﾘｱ商品
 62
    27
370
     0
100
AcDbVertex
100
AcDbPolyFaceMeshVertex
 10
896.0
 20
49.99999999999999
 30
102.0
 70
   192
  0
VERTEX
  5
9E
330
9B
100
AcDbEntity
  8
ｴｸｽﾃﾘｱ商品
 62
    27
370
     0
100
AcDbVertex
100
AcDbPolyFaceMeshVertex
 10
116.0
 20
49.99999999999999
 30
102.0
 70
   192
  0
VERTEX
  5
9F
330
9B
100
AcDbEntity
  8
ｴｸｽﾃﾘｱ商品
 62
    27
370
     0
100
AcDbVertex
100
AcDbPolyFaceMeshVertex
 10
116.0
 20
103.0
 30
102.0
 70
   192
  0
VERTEX
  5
A0
330
9B
100
AcDbEntity
  8
ｴｸｽﾃﾘｱ商品
 62
    27
370
     0
100
AcDbVertex
100
AcDbPolyFaceMeshVertex
 10
896.0
 20
103.0
 30
102.0
 70
   192
  0
VERTEX
  5
A1
330
9B
100
AcDbEntity
  8
ｴｸｽﾃﾘｱ商品
 62
    27
370
     0
100
AcDbVertex
100
AcDbPolyFaceMeshVertex
 10
116.0
 20
49.99999999999999
 30
117.0
 70
   192
  0
VERTEX
  5
A2
330
9B
100
AcDbEntity
  8
ｴｸｽﾃﾘｱ商品
 62
    27
370
     0
100
AcDbVertex
100
AcDbPolyFaceMeshVertex
 10
896.0
 20
49.99999999999999
 30
117.0
 70
   192
  0
VERTEX
  5
A3
330
9B
100
AcDbEntity
  8
ｴｸｽﾃﾘｱ商品
 62
    27
370
     0
100
AcDbVertex
100
AcDbPolyFaceMeshVertex
 10
896.0
 20
103.0
 30
117.0
 70
   192
  0
VERTEX
  5
A4
330
9B
100
AcDbEntity
  8
ｴｸｽﾃﾘｱ商品
 62
    27
370
     0
100
AcDbVertex
100
AcDbPolyFaceMeshVertex
 10
116.0
 20
103.0
 30
117.0
 70
   192
  0
VERTEX
  5
A5
330
9B
100
AcDbEntity
  8
ｴｸｽﾃﾘｱ商品
 62
    27
370
     0
100
AcDbFaceRecord
 10
0.0
 20
0.0
 30
0.0
 70
   128
 71
     1
 72
     2
 73
     3
 74
     4
  0
VERTEX
  5
A6
330
9B
100
AcDbEntity
  8
ｴｸｽﾃﾘｱ商品
 62
    27
370
     0
100
AcDbFaceRecord
 10
0.0
 20
0.0
 30
0.0
 70
   128
 71
     5
 72
     6
 73
     7
 74
     8
  0
VERTEX
  5
A7
330
9B
100
AcDbEntity
  8
ｴｸｽﾃﾘｱ商品
 62
    27
370
     0
100
AcDbFaceRecord
 10
0.0
 20
0.0
 30
0.0
 70
   128
 71
     2
 72
     1
 73
     6
 74
     5
  0
VERTEX
  5
A8
330
9B
100
AcDbEntity
  8
ｴｸｽﾃﾘｱ商品
 62
    27
370
     0
100
AcDbFaceRecord
 10
0.0
 20
0.0
 30
0.0
 70
   128
 71
     1
 72
     4
 73
     7
 74
     6
  0
VERTEX
  5
A9
330
9B
100
AcDbEntity
  8
ｴｸｽﾃﾘｱ商品
 62
    27
370
     0
100
AcDbFaceRecord
 10
0.0
 20
0.0
 30
0.0
 70
   128
 71
     4
 72
     3
 73
     8
 74
     7
  0
VERTEX
  5
AA
330
9B
100
AcDbEntity
  8
ｴｸｽﾃﾘｱ商品
 62
    27
370
     0
100
AcDbFaceRecord
 10
0.0
 20
0.0
 30
0.0
 70
   128
 71
     3
 72
     2
 73
     5
 74
     8
  0
SEQEND
  5
9C
330
9B
100
AcDbEntity
  8
ｴｸｽﾃﾘｱ商品
370
     0
  0
POLYLINE
  5
AB
330
3C
100
AcDbEntity
  8
ｴｸｽﾃﾘｱ商品
 62
    27
370
     0
100
AcDbPolyFaceMesh
 66
     1
 10
0.0
 20
0.0
 30
0.0
 70
    64
 71
     8
 72
     6
  0
VERTEX
  5
AD
330
AB
100
AcDbEntity
  8
ｴｸｽﾃﾘｱ商品
 62
    27
370
     0
100
AcDbVertex
100
AcDbPolyFaceMeshVertex
 10
896.0
 20
49.99999999999999
 30
1865.0
 70
   192
  0
VERTEX
  5
AE
330
AB
100
AcDbEntity
  8
ｴｸｽﾃﾘｱ商品
 62
    27
370
     0
100
AcDbVertex
100
AcDbPolyFaceMeshVertex
 10
116.0
 20
49.99999999999999
 30
1865.0
 70
   192
  0
VERTEX
  5
AF
330
AB
100
AcDbEntity
  8
ｴｸｽﾃﾘｱ商品
 62
    27
370
     0
100
AcDbVertex
100
AcDbPolyFaceMeshVertex
 10
116.0
 20
103.0
 30
1865.0
 70
   192
  0
VERTEX
  5
B0
330
AB
100
AcDbEntity
  8
ｴｸｽﾃﾘｱ商品
 62
    27
370
     0
100
AcDbVertex
100
AcDbPolyFaceMeshVertex
 10
896.0
 20
103.0
 30
1865.0
 70
   192
  0
VERTEX
  5
B1
330
AB
100
AcDbEntity
  8
ｴｸｽﾃﾘｱ商品
 62
    27
370
     0
100
AcDbVertex
100
AcDbPolyFaceMeshVertex
 10
116.0
 20
49.99999999999999
 30
1880.0
 70
   192
  0
VERTEX
  5
B2
330
AB
100
AcDbEntity
  8
ｴｸｽﾃﾘｱ商品
 62
    27
370
     0
100
AcDbVertex
100
AcDbPolyFaceMeshVertex
 10
896.0
 20
49.99999999999999
 30
1880.0
 70
   192
  0
VERTEX
  5
B3
330
AB
100
AcDbEntity
  8
ｴｸｽﾃﾘｱ商品
 62
    27
370
     0
100
AcDbVertex
100
AcDbPolyFaceMeshVertex
 10
896.0
 20
103.0
 30
1880.0
 70
   192
  0
VERTEX
  5
B4
330
AB
100
AcDbEntity
  8
ｴｸｽﾃﾘｱ商品
 62
    27
370
     0
100
AcDbVertex
100
AcDbPolyFaceMeshVertex
 10
116.0
 20
103.0
 30
1880.0
 70
   192
  0
VERTEX
  5
B5
330
AB
100
AcDbEntity
  8
ｴｸｽﾃﾘｱ商品
 62
    27
370
     0
100
AcDbFaceRecord
 10
0.0
 20
0.0
 30
0.0
 70
   128
 71
     1
 72
     2
 73
     3
 74
     4
  0
VERTEX
  5
B6
330
AB
100
AcDbEntity
  8
ｴｸｽﾃﾘｱ商品
 62
    27
370
     0
100
AcDbFaceRecord
 10
0.0
 20
0.0
 30
0.0
 70
   128
 71
     5
 72
     6
 73
     7
 74
     8
  0
VERTEX
  5
B7
330
AB
100
AcDbEntity
  8
ｴｸｽﾃﾘｱ商品
 62
    27
370
     0
100
AcDbFaceRecord
 10
0.0
 20
0.0
 30
0.0
 70
   128
 71
     2
 72
     1
 73
     6
 74
     5
  0
VERTEX
  5
B8
330
AB
100
AcDbEntity
  8
ｴｸｽﾃﾘｱ商品
 62
    27
370
     0
100
AcDbFaceRecord
 10
0.0
 20
0.0
 30
0.0
 70
   128
 71
     1
 72
     4
 73
     7
 74
     6
  0
VERTEX
  5
B9
330
AB
100
AcDbEntity
  8
ｴｸｽﾃﾘｱ商品
 62
    27
370
     0
100
AcDbFaceRecord
 10
0.0
 20
0.0
 30
0.0
 70
   128
 71
     4
 72
     3
 73
     8
 74
     7
  0
VERTEX
  5
BA
330
AB
100
AcDbEntity
  8
ｴｸｽﾃﾘｱ商品
 62
    27
370
     0
100
AcDbFaceRecord
 10
0.0
 20
0.0
 30
0.0
 70
   128
 71
     3
 72
     2
 73
     5
 74
     8
  0
SEQEND
  5
AC
330
AB
100
AcDbEntity
  8
ｴｸｽﾃﾘｱ商品
370
     0
  0
POLYLINE
  5
BB
330
3C
100
AcDbEntity
  8
ｴｸｽﾃﾘｱ商品
 62
    27
370
     0
100
AcDbPolyFaceMesh
 66
     1
 10
0.0
 20
0.0
 30
0.0
 70
    64
 71
     8
 72
     6
  0
VERTEX
  5
BD
330
BB
100
AcDbEntity
  8
ｴｸｽﾃﾘｱ商品
 62
    27
370
     0
100
AcDbVertex
100
AcDbPolyFaceMeshVertex
 10
130.85
 20
49.99999999999999
 30
117.0
 70
   192
  0
VERTEX
  5
BE
330
BB
100
AcDbEntity
  8
ｴｸｽﾃﾘｱ商品
 62
    27
370
     0
100
AcDbVertex
100
AcDbPolyFaceMeshVertex
 10
116.0
 20
49.99999999999999
 30
117.0
 70
   192
  0
VERTEX
  5
BF
330
BB
100
AcDbEntity
  8
ｴｸｽﾃﾘｱ商品
 62
    27
370
     0
100
AcDbVertex
100
AcDbPolyFaceMeshVertex
 10
116.0
 20
103.0
 30
117.0
 70
   192
  0
VERTEX
  5
C0
330
BB
100
AcDbEntity
  8
ｴｸｽﾃﾘｱ商品
 62
    27
370
     0
100
AcDbVertex
100
AcDbPolyFaceMeshVertex
 10
130.85
 20
103.0
 30
117.0
 70
   192
  0
VERTEX
  5
C1
330
BB
100
AcDbEntity
  8
ｴｸｽﾃﾘｱ商品
 62
    27
370
     0
100
AcDbVertex
100
AcDbPolyFaceMeshVertex
 10
116.0
 20
49.99999999999999
 30
1865.0
 70
   192
  0
VERTEX
  5
C2
330
BB
100
AcDbEntity
  8
ｴｸｽﾃﾘｱ商品
 62
    27
370
     0
100
AcDbVertex
100
AcDbPolyFaceMeshVertex
 10
130.85
 20
49.99999999999999
 30
1865.0
 70
   192
  0
VERTEX
  5
C3
330
BB
100
AcDbEntity
  8
ｴｸｽﾃﾘｱ商品
 62
    27
370
     0
100
AcDbVertex
100
AcDbPolyFaceMeshVertex
 10
130.85
 20
103.0
 30
1865.0
 70
   192
  0
VERTEX
  5
C4
330
BB
100
AcDbEntity
  8
ｴｸｽﾃﾘｱ商品
 62
    27
370
     0
100
AcDbVertex
100
AcDbPolyFaceMeshVertex
 10
116.0
 20
103.0
 30
1865.0
 70
   192
  0
VERTEX
  5
C5
330
BB
100
AcDbEntity
  8
ｴｸｽﾃﾘｱ商品
 62
    27
370
     0
100
AcDbFaceRecord
 10
0.0
 20
0.0
 30
0.0
 70
   128
 71
     1
 72
     2
 73
     3
 74
     4
  0
VERTEX
  5
C6
330
BB
100
AcDbEntity
  8
ｴｸｽﾃﾘｱ商品
 62
    27
370
     0
100
AcDbFaceRecord
 10
0.0
 20
0.0
 30
0.0
 70
   128
 71
     5
 72
     6
 73
     7
 74
     8
  0
VERTEX
  5
C7
330
BB
100
AcDbEntity
  8
ｴｸｽﾃﾘｱ商品
 62
    27
370
     0
100
AcDbFaceRecord
 10
0.0
 20
0.0
 30
0.0
 70
   128
 71
     2
 72
     1
 73
     6
 74
     5
  0
VERTEX
  5
C8
330
BB
100
AcDbEntity
  8
ｴｸｽﾃﾘｱ商品
 62
    27
370
     0
100
AcDbFaceRecord
 10
0.0
 20
0.0
 30
0.0
 70
   128
 71
     1
 72
     4
 73
     7
 74
     6
  0
VERTEX
  5
C9
330
BB
100
AcDbEntity
  8
ｴｸｽﾃﾘｱ商品
 62
    27
370
     0
100
AcDbFaceRecord
 10
0.0
 20
0.0
 30
0.0
 70
   128
 71
     4
 72
     3
 73
     8
 74
     7
  0
VERTEX
  5
CA
330
BB
100
AcDbEntity
  8
ｴｸｽﾃﾘｱ商品
 62
    27
370
     0
100
AcDbFaceRecord
 10
0.0
 20
0.0
 30
0.0
 70
   128
 71
     3
 72
     2
 73
     5
 74
     8
  0
SEQEND
  5
BC
330
BB
100
AcDbEntity
  8
ｴｸｽﾃﾘｱ商品
370
     0
  0
POLYLINE
  5
CB
330
3C
100
AcDbEntity
  8
ｴｸｽﾃﾘｱ商品
 62
    27
370
     0
100
AcDbPolyFaceMesh
 66
     1
 10
0.0
 20
0.0
 30
0.0
 70
    64
 71
     8
 72
     6
  0
VERTEX
  5
CD
330
CB
100
AcDbEntity
  8
ｴｸｽﾃﾘｱ商品
 62
    27
370
     0
100
AcDbVertex
100
AcDbPolyFaceMeshVertex
 10
896.0
 20
49.99999999999999
 30
117.0
 70
   192
  0
VERTEX
  5
CE
330
CB
100
AcDbEntity
  8
ｴｸｽﾃﾘｱ商品
 62
    27
370
     0
100
AcDbVertex
100
AcDbPolyFaceMeshVertex
 10
881.15
 20
49.99999999999999
 30
117.0
 70
   192
  0
VERTEX
  5
CF
330
CB
100
AcDbEntity
  8
ｴｸｽﾃﾘｱ商品
 62
    27
370
     0
100
AcDbVertex
100
AcDbPolyFaceMeshVertex
 10
881.15
 20
103.0
 30
117.0
 70
   192
  0
VERTEX
  5
D0
330
CB
100
AcDbEntity
  8
ｴｸｽﾃﾘｱ商品
 62
    27
370
     0
100
AcDbVertex
100
AcDbPolyFaceMeshVertex
 10
896.0
 20
103.0
 30
117.0
 70
   192
  0
VERTEX
  5
D1
330
CB
100
AcDbEntity
  8
ｴｸｽﾃﾘｱ商品
 62
    27
370
     0
100
AcDbVertex
100
AcDbPolyFaceMeshVertex
 10
881.15
 20
49.99999999999999
 30
1865.0
 70
   192
  0
VERTEX
  5
D2
330
CB
100
AcDbEntity
  8
ｴｸｽﾃﾘｱ商品
 62
    27
370
     0
100
AcDbVertex
100
AcDbPolyFaceMeshVertex
 10
896.0
 20
49.99999999999999
 30
1865.0
 70
   192
  0
VERTEX
  5
D3
330
CB
100
AcDbEntity
  8
ｴｸｽﾃﾘｱ商品
 62
    27
370
     0
100
AcDbVertex
100
AcDbPolyFaceMeshVertex
 10
896.0
 20
103.0
 30
1865.0
 70
   192
  0
VERTEX
  5
D4
330
CB
100
AcDbEntity
  8
ｴｸｽﾃﾘｱ商品
 62
    27
370
     0
100
AcDbVertex
100
AcDbPolyFaceMeshVertex
 10
881.15
 20
103.0
 30
1865.0
 70
   192
  0
VERTEX
  5
D5
330
CB
100
AcDbEntity
  8
ｴｸｽﾃﾘｱ商品
 62
    27
370
     0
100
AcDbFaceRecord
 10
0.0
 20
0.0
 30
0.0
 70
   128
 71
     1
 72
     2
 73
     3
 74
     4
  0
VERTEX
  5
D6
330
CB
100
AcDbEntity
  8
ｴｸｽﾃﾘｱ商品
 62
    27
370
     0
100
AcDbFaceRecord
 10
0.0
 20
0.0
 30
0.0
 70
   128
 71
     5
 72
     6
 73
     7
 74
     8
  0
VERTEX
  5
D7
330
CB
100
AcDbEntity
  8
ｴｸｽﾃﾘｱ商品
 62
    27
370
     0
100
AcDbFaceRecord
 10
0.0
 20
0.0
 30
0.0
 70
   128
 71
     2
 72
     1
 73
     6
 74
     5
  0
VERTEX
  5
D8
330
CB
100
AcDbEntity
  8
ｴｸｽﾃﾘｱ商品
 62
    27
370
     0
100
AcDbFaceRecord
 10
0.0
 20
0.0
 30
0.0
 70
   128
 71
     1
 72
     4
 73
     7
 74
     6
  0
VERTEX
  5
D9
330
CB
100
AcDbEntity
  8
ｴｸｽﾃﾘｱ商品
 62
    27
370
     0
100
AcDbFaceRecord
 10
0.0
 20
0.0
 30
0.0
 70
   128
 71
     4
 72
     3
 73
     8
 74
     7
  0
VERTEX
  5
DA
330
CB
100
AcDbEntity
  8
ｴｸｽﾃﾘｱ商品
 62
    27
370
     0
100
AcDbFaceRecord
 10
0.0
 20
0.0
 30
0.0
 70
   128
 71
     3
 72
     2
 73
     5
 74
     8
  0
SEQEND
  5
CC
330
CB
100
AcDbEntity
  8
ｴｸｽﾃﾘｱ商品
370
     0
  0
POLYLINE
  5
DB
330
3C
100
AcDbEntity
  8
ｴｸｽﾃﾘｱ商品
 62
    27
370
     0
100
AcDbPolyFaceMesh
 66
     1
 10
0.0
 20
0.0
 30
0.0
 70
    64
 71
     8
 72
     6
  0
VERTEX
  5
DD
330
DB
100
AcDbEntity
  8
ｴｸｽﾃﾘｱ商品
 62
    27
370
     0
100
AcDbVertex
100
AcDbPolyFaceMeshVertex
 10
881.1500000000001
 20
55.49999999999999
 30
117.0
 70
   192
  0
VERTEX
  5
DE
330
DB
100
AcDbEntity
  8
ｴｸｽﾃﾘｱ商品
 62
    27
370
     0
100
AcDbVertex
100
AcDbPolyFaceMeshVertex
 10
130.85
 20
55.49999999999999
 30
117.0
 70
   192
  0
VERTEX
  5
DF
330
DB
100
AcDbEntity
  8
ｴｸｽﾃﾘｱ商品
 62
    27
370
     0
100
AcDbVertex
100
AcDbPolyFaceMeshVertex
 10
130.85
 20
97.5
 30
117.0
 70
   192
  0
VERTEX
  5
E0
330
DB
100
AcDbEntity
  8
ｴｸｽﾃﾘｱ商品
 62
    27
370
     0
100
AcDbVertex
100
AcDbPolyFaceMeshVertex
 10
881.1500000000001
 20
97.5
 30
117.0
 70
   192
  0
VERTEX
  5
E1
330
DB
100
AcDbEntity
  8
ｴｸｽﾃﾘｱ商品
 62
    27
370
     0
100
AcDbVertex
100
AcDbPolyFaceMeshVertex
 10
130.85
 20
55.49999999999999
 30
1865.0
 70
   192
  0
VERTEX
  5
E2
330
DB
100
AcDbEntity
  8
ｴｸｽﾃﾘｱ商品
 62
    27
370
     0
100
AcDbVertex
100
AcDbPolyFaceMeshVertex
 10
881.1500000000001
 20
55.49999999999999
 30
1865.0
 70
   192
  0
VERTEX
  5
E3
330
DB
100
AcDbEntity
  8
ｴｸｽﾃﾘｱ商品
 62
    27
370
     0
100
AcDbVertex
100
AcDbPolyFaceMeshVertex
 10
881.1500000000001
 20
97.5
 30
1865.0
 70
   192
  0
VERTEX
  5
E4
330
DB
100
AcDbEntity
  8
ｴｸｽﾃﾘｱ商品
 62
    27
370
     0
100
AcDbVertex
100
AcDbPolyFaceMeshVertex
 10
130.85
 20
97.5
 30
1865.0
 70
   192
  0
VERTEX
  5
E5
330
DB
100
AcDbEntity
  8
ｴｸｽﾃﾘｱ商品
 62
    27
370
     0
100
AcDbFaceRecord
 10
0.0
 20
0.0
 30
0.0
 70
   128
 71
     1
 72
     2
 73
     3
 74
     4
  0
VERTEX
  5
E6
330
DB
100
AcDbEntity
  8
ｴｸｽﾃﾘｱ商品
 62
    27
370
     0
100
AcDbFaceRecord
 10
0.0
 20
0.0
 30
0.0
 70
   128
 71
     5
 72
     6
 73
     7
 74
     8
  0
VERTEX
  5
E7
330
DB
100
AcDbEntity
  8
ｴｸｽﾃﾘｱ商品
 62
    27
370
     0
100
AcDbFaceRecord
 10
0.0
 20
0.0
 30
0.0
 70
   128
 71
     2
 72
     1
 73
     6
 74
     5
  0
VERTEX
  5
E8
330
DB
100
AcDbEntity
  8
ｴｸｽﾃﾘｱ商品
 62
    27
370
     0
100
AcDbFaceRecord
 10
0.0
 20
0.0
 30
0.0
 70
   128
 71
     1
 72
     4
 73
     7
 74
     6
  0
VERTEX
  5
E9
330
DB
100
AcDbEntity
  8
ｴｸｽﾃﾘｱ商品
 62
    27
370
     0
100
AcDbFaceRecord
 10
0.0
 20
0.0
 30
0.0
 70
   128
 71
     4
 72
     3
 73
     8
 74
     7
  0
VERTEX
  5
EA
330
DB
100
AcDbEntity
  8
ｴｸｽﾃﾘｱ商品
 62
    27
370
     0
100
AcDbFaceRecord
 10
0.0
 20
0.0
 30
0.0
 70
   128
 71
     3
 72
     2
 73
     5
 74
     8
  0
SEQEND
  5
DC
330
DB
100
AcDbEntity
  8
ｴｸｽﾃﾘｱ商品
370
     0
  0
POLYLINE
  5
EB
330
3C
100
AcDbEntity
  8
ｴｸｽﾃﾘｱ商品
 62
   250
370
    20
100
AcDbPolyFaceMesh
 66
     1
 10
0.0
 20
0.0
 30
0.0
 70
    64
 71
   460
 72
   432
  0
VERTEX
  5
ED
330
EB
100
AcDbEntity
  8
ｴｸｽﾃﾘｱ商品
 62
   250
370
    20
100
AcDbVertex
100
AcDbPolyFaceMeshVertex
 10
190.488887394336
 20
21.61771432346216
 30
706.0000000000001
 70
   192
  0
VERTEX
  5
EE
330
EB
100
AcDbEntity
  8
ｴｸｽﾃﾘｱ商品
 62
   250
370
    20
100
AcDbVertex
100
AcDbPolyFaceMeshVertex
 10
188.9903810567666
 20
17.99999999999997
 30
706.0000000000001
 70
   192
  0
VERTEX
  5
EF
330
EB
100
AcDbEntity
  8
ｴｸｽﾃﾘｱ商品
 62
   250
370
    20
100
AcDbVertex
100
AcDbPolyFaceMeshVertex
 10
186.6066017177982
 20
14.89339828220176
 30
706.0000000000001
 70
   192
  0
VERTEX
  5
F0
330
EB
100
AcDbEntity
  8
ｴｸｽﾃﾘｱ商品
 62
   250
370
    20
100
AcDbVertex
100
AcDbPolyFaceMeshVertex
 10
183.5
 20
12.50961894323339
 30
706.0000000000001
 70
   192
  0
VERTEX
  5
F1
330
EB
100
AcDbEntity
  8
ｴｸｽﾃﾘｱ商品
 62
   250
370
    20
100
AcDbVertex
100
AcDbPolyFaceMeshVertex
 10
179.8822856765378
 20
11.01111260566395
 30
706.0000000000001
 70
   192
  0
VERTEX
  5
F2
330
EB
100
AcDbEntity
  8
ｴｸｽﾃﾘｱ商品
 62
   250
370
    20
100
AcDbVertex
100
AcDbPolyFaceMeshVertex
 10
176.0
 20
10.49999999999998
 30
706.0000000000001
 70
   192
  0
VERTEX
  5
F3
330
EB
100
AcDbEntity
  8
ｴｸｽﾃﾘｱ商品
 62
   250
370
    20
100
AcDbVertex
100
AcDbPolyFaceMeshVertex
 10
172.1177143234622
 20
11.01111260566396
 30
706.0000000000001
 70
   192
  0
VERTEX
  5
F4
330
EB
100
AcDbEntity
  8
ｴｸｽﾃﾘｱ商品
 62
   250
370
    20
100
AcDbVertex
100
AcDbPolyFaceMeshVertex
 10
168.5
 20
12.50961894323341
 30
706.0000000000001
 70
   192
  0
VERTEX
  5
F5
330
EB
100
AcDbEntity
  8
ｴｸｽﾃﾘｱ商品
 62
   250
370
    20
100
AcDbVertex
100
AcDbPolyFaceMeshVertex
 10
165.3933982822018
 20
14.89339828220178
 30
706.0000000000001
 70
   192
  0
VERTEX
  5
F6
330
EB
100
AcDbEntity
  8
ｴｸｽﾃﾘｱ商品
 62
   250
370
    20
100
AcDbVertex
100
AcDbPolyFaceMeshVertex
 10
163.0096189432334
 20
17.99999999999999
 30
706.0000000000001
 70
   192
  0
VERTEX
  5
F7
330
EB
100
AcDbEntity
  8
ｴｸｽﾃﾘｱ商品
 62
   250
370
    20
100
AcDbVertex
100
AcDbPolyFaceMeshVertex
 10
161.511112605664
 20
21.61771432346218
 30
706.0000000000001
 70
   192
  0
VERTEX
  5
F8
330
EB
100
AcDbEntity
  8
ｴｸｽﾃﾘｱ商品
 62
   250
370
    20
100
AcDbVertex
100
AcDbPolyFaceMeshVertex
 10
161.0
 20
25.5
 30
706.0000000000001
 70
   192
  0
VERTEX
  5
F9
330
EB
100
AcDbEntity
  8
ｴｸｽﾃﾘｱ商品
 62
   250
370
    20
100
AcDbVertex
100
AcDbPolyFaceMeshVertex
 10
161.511112605664
 20
29.3822856765378
 30
706.0000000000001
 70
   192
  0
VERTEX
  5
FA
330
EB
100
AcDbEntity
  8
ｴｸｽﾃﾘｱ商品
 62
   250
370
    20
100
AcDbVertex
100
AcDbPolyFaceMeshVertex
 10
163.0096189432334
 20
32.99999999999999
 30
706.0000000000001
 70
   192
  0
VERTEX
  5
FB
330
EB
100
AcDbEntity
  8
ｴｸｽﾃﾘｱ商品
 62
   250
370
    20
100
AcDbVertex
100
AcDbPolyFaceMeshVertex
 10
165.3933982822018
 20
36.10660171779821
 30
706.0000000000001
 70
   192
  0
VERTEX
  5
FC
330
EB
100
AcDbEntity
  8
ｴｸｽﾃﾘｱ商品
 62
   250
370
    20
100
AcDbVertex
100
AcDbPolyFaceMeshVertex
 10
168.5
 20
38.49038105676657
 30
706.0000000000001
 70
   192
  0
VERTEX
  5
FD
330
EB
100
AcDbEntity
  8
ｴｸｽﾃﾘｱ商品
 62
   250
370
    20
100
AcDbVertex
100
AcDbPolyFaceMeshVertex
 10
172.1177143234622
 20
39.98888739433602
 30
706.0000000000001
 70
   192
  0
VERTEX
  5
FE
330
EB
100
AcDbEntity
  8
ｴｸｽﾃﾘｱ商品
 62
   250
370
    20
100
AcDbVertex
100
AcDbPolyFaceMeshVertex
 10
176.0
 20
40.49999999999999
 30
706.0000000000001
 70
   192
  0
VERTEX
  5
FF
330
EB
100
AcDbEntity
  8
ｴｸｽﾃﾘｱ商品
 62
   250
370
    20
100
AcDbVertex
100
AcDbPolyFaceMeshVertex
 10
179.8822856765378
 20
39.98888739433602
 30
706.0000000000001
 70
   192
  0
VERTEX
  5
100
330
EB
100
AcDbEntity
  8
ｴｸｽﾃﾘｱ商品
 62
   250
370
    20
100
AcDbVertex
100
AcDbPolyFaceMeshVertex
 10
183.5
 20
38.49038105676657
 30
706.0000000000001
 70
   192
  0
VERTEX
  5
101
330
EB
100
AcDbEntity
  8
ｴｸｽﾃﾘｱ商品
 62
   250
370
    20
100
AcDbVertex
100
AcDbPolyFaceMeshVertex
 10
186.6066017177982
 20
36.1066017177982
 30
706.0000000000001
 70
   192
  0
VERTEX
  5
102
330
EB
100
AcDbEntity
  8
ｴｸｽﾃﾘｱ商品
 62
   250
370
    20
100
AcDbVertex
100
AcDbPolyFaceMeshVertex
 10
188.9903810567666
 20
32.99999999999999
 30
706.0000000000001
 70
   192
  0
VERTEX
  5
103
330
EB
100
AcDbEntity
  8
ｴｸｽﾃﾘｱ商品
 62
   250
370
    20
100
AcDbVertex
100
AcDbPolyFaceMeshVertex
 10
190.488887394336
 20
29.3822856765378
 30
706.0000000000001
 70
   192
  0
VERTEX
  5
104
330
EB
100
AcDbEntity
  8
ｴｸｽﾃﾘｱ商品
 62
   250
370
    20
100
AcDbVertex
100
AcDbPolyFaceMeshVertex
 10
191.0
 20
25.49999999999999
 30
706.0000000000001
 70
   192
  0
VERTEX
  5
105
330
EB
100
AcDbEntity
  8
ｴｸｽﾃﾘｱ商品
 62
   250
370
    20
100
AcDbVertex
100
AcDbPolyFaceMeshVertex
 10
190.488887394336
 20
21.61771432346216
 30
1136.0
 70
   192
  0
VERTEX
  5
106
330
EB
100
AcDbEntity
  8
ｴｸｽﾃﾘｱ商品
 62
   250
370
    20
100
AcDbVertex
100
AcDbPolyFaceMeshVertex
 10
191.0
 20
25.49999999999999
 30
1136.0
 70
   192
  0
VERTEX
  5
107
330
EB
100
AcDbEntity
  8
ｴｸｽﾃﾘｱ商品
 62
   250
370
    20
100
AcDbVertex
100
AcDbPolyFaceMeshVertex
 10
190.488887394336
 20
29.3822856765378
 30
1136.0
 70
   192
  0
VERTEX
  5
108
330
EB
100
AcDbEntity
  8
ｴｸｽﾃﾘｱ商品
 62
   250
370
    20
100
AcDbVertex
100
AcDbPolyFaceMeshVertex
 10
188.9903810567666
 20
32.99999999999999
 30
1136.0
 70
   192
  0
VERTEX
  5
109
330
EB
100
AcDbEntity
  8
ｴｸｽﾃﾘｱ商品
 62
   250
370
    20
100
AcDbVertex
100
AcDbPolyFaceMeshVertex
 10
186.6066017177982
 20
36.1066017177982
 30
1136.0
 70
   192
  0
VERTEX
  5
10A
330
EB
100
AcDbEntity
  8
ｴｸｽﾃﾘｱ商品
 62
   250
370
    20
100
AcDbVertex
100
AcDbPolyFaceMeshVertex
 10
183.5
 20
38.49038105676657
 30
1136.0
 70
   192
  0
VERTEX
  5
10B
330
EB
100
AcDbEntity
  8
ｴｸｽﾃﾘｱ商品
 62
   250
370
    20
100
AcDbVertex
100
AcDbPolyFaceMeshVertex
 10
179.8822856765378
 20
39.98888739433602
 30
1136.0
 70
   192
  0
VERTEX
  5
10C
330
EB
100
AcDbEntity
  8
ｴｸｽﾃﾘｱ商品
 62
   250
370
    20
100
AcDbVertex
100
AcDbPolyFaceMeshVertex
 10
176.0
 20
40.49999999999999
 30
1136.0
 70
   192
  0
VERTEX
  5
10D
330
EB
100
AcDbEntity
  8
ｴｸｽﾃﾘｱ商品
 62
   250
370
    20
100
AcDbVertex
100
AcDbPolyFaceMeshVertex
 10
172.1177143234622
 20
39.98888739433602
 30
1136.0
 70
   192
  0
VERTEX
  5
10E
330
EB
100
AcDbEntity
  8
ｴｸｽﾃﾘｱ商品
 62
   250
370
    20
100
AcDbVertex
100
AcDbPolyFaceMeshVertex
 10
168.5
 20
38.49038105676657
 30
1136.0
 70
   192
  0
VERTEX
  5
10F
330
EB
100
AcDbEntity
  8
ｴｸｽﾃﾘｱ商品
 62
   250
370
    20
100
AcDbVertex
100
AcDbPolyFaceMeshVertex
 10
165.3933982822018
 20
36.10660171779821
 30
1136.0
 70
   192
  0
VERTEX
  5
110
330
EB
100
AcDbEntity
  8
ｴｸｽﾃﾘｱ商品
 62
   250
370
    20
100
AcDbVertex
100
AcDbPolyFaceMeshVertex
 10
163.0096189432334
 20
32.99999999999999
 30
1136.0
 70
   192
  0
VERTEX
  5
111
330
EB
100
AcDbEntity
  8
ｴｸｽﾃﾘｱ商品
 62
   250
370
    20
100
AcDbVertex
100
AcDbPolyFaceMeshVertex
 10
161.511112605664
 20
29.3822856765378
 30
1136.0
 70
   192
  0
VERTEX
  5
112
330
EB
100
AcDbEntity
  8
ｴｸｽﾃﾘｱ商品
 62
   250
370
    20
100
AcDbVertex
100
AcDbPolyFaceMeshVertex
 10
161.0
 20
25.5
 30
1136.0
 70
   192
  0
VERTEX
  5
113
330
EB
100
AcDbEntity
  8
ｴｸｽﾃﾘｱ商品
 62
   250
370
    20
100
AcDbVertex
100
AcDbPolyFaceMeshVertex
 10
161.511112605664
 20
21.61771432346218
 30
1136.0
 70
   192
  0
VERTEX
  5
114
330
EB
100
AcDbEntity
  8
ｴｸｽﾃﾘｱ商品
 62
   250
370
    20
100
AcDbVertex
100
AcDbPolyFaceMeshVertex
 10
163.0096189432334
 20
17.99999999999999
 30
1136.0
 70
   192
  0
VERTEX
  5
115
330
EB
100
AcDbEntity
  8
ｴｸｽﾃﾘｱ商品
 62
   250
370
    20
100
AcDbVertex
100
AcDbPolyFaceMeshVertex
 10
165.3933982822018
 20
14.89339828220178
 30
1136.0
 70
   192
  0
VERTEX
  5
116
330
EB
100
AcDbEntity
  8
ｴｸｽﾃﾘｱ商品
 62
   250
370
    20
100
AcDbVertex
100
AcDbPolyFaceMeshVertex
 10
168.5
 20
12.50961894323341
 30
1136.0
 70
   192
  0
VERTEX
  5
117
330
EB
100
AcDbEntity
  8
ｴｸｽﾃﾘｱ商品
 62
   250
370
    20
100
AcDbVertex
100
AcDbPolyFaceMeshVertex
 10
172.1177143234622
 20
11.01111260566396
 30
1136.0
 70
   192
  0
VERTEX
  5
118
330
EB
100
AcDbEntity
  8
ｴｸｽﾃﾘｱ商品
 62
   250
370
    20
100
AcDbVertex
100
AcDbPolyFaceMeshVertex
 10
176.0
 20
10.49999999999998
 30
1136.0
 70
   192
  0
VERTEX
  5
119
330
EB
100
AcDbEntity
  8
ｴｸｽﾃﾘｱ商品
 62
   250
370
    20
100
AcDbVertex
100
AcDbPolyFaceMeshVertex
 10
179.8822856765378
 20
11.01111260566395
 30
1136.0
 70
   192
  0
VERTEX
  5
11A
330
EB
100
AcDbEntity
  8
ｴｸｽﾃﾘｱ商品
 62
   250
370
    20
100
AcDbVertex
100
AcDbPolyFaceMeshVertex
 10
183.5
 20
12.50961894323339
 30
1136.0
 70
   192
  0
VERTEX
  5
11B
330
EB
100
AcDbEntity
  8
ｴｸｽﾃﾘｱ商品
 62
   250
370
    20
100
AcDbVertex
100
AcDbPolyFaceMeshVertex
 10
186.6066017177982
 20
14.89339828220176
 30
1136.0
 70
   192
  0
VERTEX
  5
11C
330
EB
100
AcDbEntity
  8
ｴｸｽﾃﾘｱ商品
 62
   250
370
    20
100
AcDbVertex
100
AcDbPolyFaceMeshVertex
 10
188.9903810567666
 20
17.99999999999997
 30
1136.0
 70
   192
  0
VERTEX
  5
11D
330
EB
100
AcDbEntity
  8
ｴｸｽﾃﾘｱ商品
 62
   250
370
    20
100
AcDbVertex
100
AcDbPolyFaceMeshVertex
 10
171.0
 20
45.49999999999999
 30
731.0000000000001
 70
   192
  0
VERTEX
  5
11E
330
EB
100
AcDbEntity
  8
ｴｸｽﾃﾘｱ商品
 62
   250
370
    20
100
AcDbVertex
100
AcDbPolyFaceMeshVertex
 10
136.0
 20
45.49999999999999
 30
731.0000000000001
 70
   192
  0
VERTEX
  5
11F
330
EB
100
AcDbEntity
  8
ｴｸｽﾃﾘｱ商品
 62
   250
370
    20
100
AcDbVertex
100
AcDbPolyFaceMeshVertex
 10
136.0
 20
55.49999999999999
 30
731.0000000000001
 70
   192
  0
VERTEX
  5
120
330
EB
100
AcDbEntity
  8
ｴｸｽﾃﾘｱ商品
 62
   250
370
    20
100
AcDbVertex
100
AcDbPolyFaceMeshVertex
 10
171.0
 20
55.49999999999999
 30
731.0000000000001
 70
   192
  0
VERTEX
  5
121
330
EB
100
AcDbEntity
  8
ｴｸｽﾃﾘｱ商品
 62
   250
370
    20
100
AcDbVertex
100
AcDbPolyFaceMeshVertex
 10
136.0
 20
45.49999999999999
 30
781.0000000000001
 70
   192
  0
VERTEX
  5
122
330
EB
100
AcDbEntity
  8
ｴｸｽﾃﾘｱ商品
 62
   250
370
    20
100
AcDbVertex
100
AcDbPolyFaceMeshVertex
 10
171.0
 20
45.49999999999999
 30
781.0000000000001
 70
   192
  0
VERTEX
  5
123
330
EB
100
AcDbEntity
  8
ｴｸｽﾃﾘｱ商品
 62
   250
370
    20
100
AcDbVertex
100
AcDbPolyFaceMeshVertex
 10
171.0
 20
55.49999999999999
 30
781.0000000000001
 70
   192
  0
VERTEX
  5
124
330
EB
100
AcDbEntity
  8
ｴｸｽﾃﾘｱ商品
 62
   250
370
    20
100
AcDbVertex
100
AcDbPolyFaceMeshVertex
 10
136.0
 20
55.49999999999999
 30
781.0000000000001
 70
   192
  0
VERTEX
  5
125
330
EB
100
AcDbEntity
  8
ｴｸｽﾃﾘｱ商品
 62
   250
370
    20
100
AcDbVertex
100
AcDbPolyFaceMeshVertex
 10
171.0
 20
29.49999999999999
 30
731.0000000000001
 70
   192
  0
VERTEX
  5
126
330
EB
100
AcDbEntity
  8
ｴｸｽﾃﾘｱ商品
 62
   250
370
    20
100
AcDbVertex
100
AcDbPolyFaceMeshVertex
 10
161.0
 20
29.49999999999999
 30
731.0000000000001
 70
   192
  0
VERTEX
  5
127
330
EB
100
AcDbEntity
  8
ｴｸｽﾃﾘｱ商品
 62
   250
370
    20
100
AcDbVertex
100
AcDbPolyFaceMeshVertex
 10
161.0
 20
45.49999999999999
 30
731.0000000000001
 70
   192
  0
VERTEX
  5
128
330
EB
100
AcDbEntity
  8
ｴｸｽﾃﾘｱ商品
 62
   250
370
    20
100
AcDbVertex
100
AcDbPolyFaceMeshVertex
 10
171.0
 20
45.49999999999999
 30
731.0000000000001
 70
   192
  0
VERTEX
  5
129
330
EB
100
AcDbEntity
  8
ｴｸｽﾃﾘｱ商品
 62
   250
370
    20
100
AcDbVertex
100
AcDbPolyFaceMeshVertex
 10
161.0
 20
29.49999999999999
 30
781.0000000000001
 70
   192
  0
VERTEX
  5
12A
330
EB
100
AcDbEntity
  8
ｴｸｽﾃﾘｱ商品
 62
   250
370
    20
100
AcDbVertex
100
AcDbPolyFaceMeshVertex
 10
171.0
 20
29.49999999999999
 30
781.0000000000001
 70
   192
  0
VERTEX
  5
12B
330
EB
100
AcDbEntity
  8
ｴｸｽﾃﾘｱ商品
 62
   250
370
    20
100
AcDbVertex
100
AcDbPolyFaceMeshVertex
 10
171.0
 20
45.49999999999999
 30
781.0000000000001
 70
   192
  0
VERTEX
  5
12C
330
EB
100
AcDbEntity
  8
ｴｸｽﾃﾘｱ商品
 62
   250
370
    20
100
AcDbVertex
100
AcDbPolyFaceMeshVertex
 10
161.0
 20
45.49999999999999
 30
781.0000000000001
 70
   192
  0
VERTEX
  5
12D
330
EB
100
AcDbEntity
  8
ｴｸｽﾃﾘｱ商品
 62
   250
370
    20
100
AcDbVertex
100
AcDbPolyFaceMeshVertex
 10
171.0
 20
45.5
 30
1061.0
 70
   192
  0
VERTEX
  5
12E
330
EB
100
AcDbEntity
  8
ｴｸｽﾃﾘｱ商品
 62
   250
370
    20
100
AcDbVertex
100
AcDbPolyFaceMeshVertex
 10
136.0
 20
45.5
 30
1061.0
 70
   192
  0
VERTEX
  5
12F
330
EB
100
AcDbEntity
  8
ｴｸｽﾃﾘｱ商品
 62
   250
370
    20
100
AcDbVertex
100
AcDbPolyFaceMeshVertex
 10
136.0
 20
55.5
 30
1061.0
 70
   192
  0
VERTEX
  5
130
330
EB
100
AcDbEntity
  8
ｴｸｽﾃﾘｱ商品
 62
   250
370
    20
100
AcDbVertex
100
AcDbPolyFaceMeshVertex
 10
171.0
 20
55.5
 30
1061.0
 70
   192
  0
VERTEX
  5
131
330
EB
100
AcDbEntity
  8
ｴｸｽﾃﾘｱ商品
 62
   250
370
    20
100
AcDbVertex
100
AcDbPolyFaceMeshVertex
 10
136.0
 20
45.5
 30
1111.0
 70
   192
  0
VERTEX
  5
132
330
EB
100
AcDbEntity
  8
ｴｸｽﾃﾘｱ商品
 62
   250
370
    20
100
AcDbVertex
100
AcDbPolyFaceMeshVertex
 10
171.0
 20
45.5
 30
1111.0
 70
   192
  0
VERTEX
  5
133
330
EB
100
AcDbEntity
  8
ｴｸｽﾃﾘｱ商品
 62
   250
370
    20
100
AcDbVertex
100
AcDbPolyFaceMeshVertex
 10
171.0
 20
55.5
 30
1111.0
 70
   192
  0
VERTEX
  5
134
330
EB
100
AcDbEntity
  8
ｴｸｽﾃﾘｱ商品
 62
   250
370
    20
100
AcDbVertex
100
AcDbPolyFaceMeshVertex
 10
136.0
 20
55.5
 30
1111.0
 70
   192
  0
VERTEX
  5
135
330
EB
100
AcDbEntity
  8
ｴｸｽﾃﾘｱ商品
 62
   250
370
    20
100
AcDbVertex
100
AcDbPolyFaceMeshVertex
 10
171.0
 20
29.5
 30
1061.0
 70
   192
  0
VERTEX
  5
136
330
EB
100
AcDbEntity
  8
ｴｸｽﾃﾘｱ商品
 62
   250
370
    20
100
AcDbVertex
100
AcDbPolyFaceMeshVertex
 10
161.0
 20
29.5
 30
1061.0
 70
   192
  0
VERTEX
  5
137
330
EB
100
AcDbEntity
  8
ｴｸｽﾃﾘｱ商品
 62
   250
370
    20
100
AcDbVertex
100
AcDbPolyFaceMeshVertex
 10
161.0
 20
45.5
 30
1061.0
 70
   192
  0
VERTEX
  5
138
330
EB
100
AcDbEntity
  8
ｴｸｽﾃﾘｱ商品
 62
   250
370
    20
100
AcDbVertex
100
AcDbPolyFaceMeshVertex
 10
171.0
 20
45.5
 30
1061.0
 70
   192
  0
VERTEX
  5
139
330
EB
100
AcDbEntity
  8
ｴｸｽﾃﾘｱ商品
 62
   250
370
    20
100
AcDbVertex
100
AcDbPolyFaceMeshVertex
 10
161.0
 20
29.5
 30
1111.0
 70
   192
  0
VERTEX
  5
13A
330
EB
100
AcDbEntity
  8
ｴｸｽﾃﾘｱ商品
 62
   250
370
    20
100
AcDbVertex
100
AcDbPolyFaceMeshVertex
 10
171.0
 20
29.5
 30
1111.0
 70
   192
  0
VERTEX
  5
13B
330
EB
100
AcDbEntity
  8
ｴｸｽﾃﾘｱ商品
 62
   250
370
    20
100
AcDbVertex
100
AcDbPolyFaceMeshVertex
 10
171.0
 20
45.5
 30
1111.0
 70
   192
  0
VERTEX
  5
13C
330
EB
100
AcDbEntity
  8
ｴｸｽﾃﾘｱ商品
 62
   250
370
    20
100
AcDbVertex
100
AcDbPolyFaceMeshVertex
 10
161.0
 20
45.5
 30
1111.0
 70
   192
  0
VERTEX
  5
13D
330
EB
100
AcDbEntity
  8
ｴｸｽﾃﾘｱ商品
 62
   250
370
    20
100
AcDbVertex
100
AcDbPolyFaceMeshVertex
 10
190.4888873943361
 20
131.3822856765378
 30
706.0
 70
   192
  0
VERTEX
  5
13E
330
EB
100
AcDbEntity
  8
ｴｸｽﾃﾘｱ商品
 62
   250
370
    20
100
AcDbVertex
100
AcDbPolyFaceMeshVertex
 10
191.0000000000001
 20
127.5
 30
706.0
 70
   192
  0
VERTEX
  5
13F
330
EB
100
AcDbEntity
  8
ｴｸｽﾃﾘｱ商品
 62
   250
370
    20
100
AcDbVertex
100
AcDbPolyFaceMeshVertex
 10
190.4888873943361
 20
123.6177143234622
 30
706.0
 70
   192
  0
VERTEX
  5
140
330
EB
100
AcDbEntity
  8
ｴｸｽﾃﾘｱ商品
 62
   250
370
    20
100
AcDbVertex
100
AcDbPolyFaceMeshVertex
 10
188.9903810567667
 20
120.0
 30
706.0
 70
   192
  0
VERTEX
  5
141
330
EB
100
AcDbEntity
  8
ｴｸｽﾃﾘｱ商品
 62
   250
370
    20
100
AcDbVertex
100
AcDbPolyFaceMeshVertex
 10
186.6066017177983
 20
116.8933982822018
 30
706.0
 70
   192
  0
VERTEX
  5
142
330
EB
100
AcDbEntity
  8
ｴｸｽﾃﾘｱ商品
 62
   250
370
    20
100
AcDbVertex
100
AcDbPolyFaceMeshVertex
 10
183.5000000000001
 20
114.5096189432334
 30
706.0
 70
   192
  0
VERTEX
  5
143
330
EB
100
AcDbEntity
  8
ｴｸｽﾃﾘｱ商品
 62
   250
370
    20
100
AcDbVertex
100
AcDbPolyFaceMeshVertex
 10
179.8822856765379
 20
113.011112605664
 30
706.0
 70
   192
  0
VERTEX
  5
144
330
EB
100
AcDbEntity
  8
ｴｸｽﾃﾘｱ商品
 62
   250
370
    20
100
AcDbVertex
100
AcDbPolyFaceMeshVertex
 10
176.0000000000001
 20
112.5
 30
706.0
 70
   192
  0
VERTEX
  5
145
330
EB
100
AcDbEntity
  8
ｴｸｽﾃﾘｱ商品
 62
   250
370
    20
100
AcDbVertex
100
AcDbPolyFaceMeshVertex
 10
172.1177143234623
 20
113.011112605664
 30
706.0
 70
   192
  0
VERTEX
  5
146
330
EB
100
AcDbEntity
  8
ｴｸｽﾃﾘｱ商品
 62
   250
370
    20
100
AcDbVertex
100
AcDbPolyFaceMeshVertex
 10
168.5000000000001
 20
114.5096189432334
 30
706.0
 70
   192
  0
VERTEX
  5
147
330
EB
100
AcDbEntity
  8
ｴｸｽﾃﾘｱ商品
 62
   250
370
    20
100
AcDbVertex
100
AcDbPolyFaceMeshVertex
 10
165.3933982822019
 20
116.8933982822018
 30
706.0
 70
   192
  0
VERTEX
  5
148
330
EB
100
AcDbEntity
  8
ｴｸｽﾃﾘｱ商品
 62
   250
370
    20
100
AcDbVertex
100
AcDbPolyFaceMeshVertex
 10
163.0096189432335
 20
120.0
 30
706.0
 70
   192
  0
VERTEX
  5
149
330
EB
100
AcDbEntity
  8
ｴｸｽﾃﾘｱ商品
 62
   250
370
    20
100
AcDbVertex
100
AcDbPolyFaceMeshVertex
 10
161.511112605664
 20
123.6177143234622
 30
706.0
 70
   192
  0
VERTEX
  5
14A
330
EB
100
AcDbEntity
  8
ｴｸｽﾃﾘｱ商品
 62
   250
370
    20
100
AcDbVertex
100
AcDbPolyFaceMeshVertex
 10
161.0000000000001
 20
127.5
 30
706.0
 70
   192
  0
VERTEX
  5
14B
330
EB
100
AcDbEntity
  8
ｴｸｽﾃﾘｱ商品
 62
   250
370
    20
100
AcDbVertex
100
AcDbPolyFaceMeshVertex
 10
161.511112605664
 20
131.3822856765378
 30
706.0
 70
   192
  0
VERTEX
  5
14C
330
EB
100
AcDbEntity
  8
ｴｸｽﾃﾘｱ商品
 62
   250
370
    20
100
AcDbVertex
100
AcDbPolyFaceMeshVertex
 10
163.0096189432335
 20
135.0
 30
706.0
 70
   192
  0
VERTEX
  5
14D
330
EB
100
AcDbEntity
  8
ｴｸｽﾃﾘｱ商品
 62
   250
370
    20
100
AcDbVertex
100
AcDbPolyFaceMeshVertex
 10
165.3933982822018
 20
138.1066017177982
 30
706.0
 70
   192
  0
VERTEX
  5
14E
330
EB
100
AcDbEntity
  8
ｴｸｽﾃﾘｱ商品
 62
   250
370
    20
100
AcDbVertex
100
AcDbPolyFaceMeshVertex
 10
168.5000000000001
 20
140.4903810567666
 30
706.0
 70
   192
  0
VERTEX
  5
14F
330
EB
100
AcDbEntity
  8
ｴｸｽﾃﾘｱ商品
 62
   250
370
    20
100
AcDbVertex
100
AcDbPolyFaceMeshVertex
 10
172.1177143234623
 20
141.988887394336
 30
706.0
 70
   192
  0
VERTEX
  5
150
330
EB
100
AcDbEntity
  8
ｴｸｽﾃﾘｱ商品
 62
   250
370
    20
100
AcDbVertex
100
AcDbPolyFaceMeshVertex
 10
176.0000000000001
 20
142.5
 30
706.0
 70
   192
  0
VERTEX
  5
151
330
EB
100
AcDbEntity
  8
ｴｸｽﾃﾘｱ商品
 62
   250
370
    20
100
AcDbVertex
100
AcDbPolyFaceMeshVertex
 10
179.8822856765379
 20
141.988887394336
 30
706.0
 70
   192
  0
VERTEX
  5
152
330
EB
100
AcDbEntity
  8
ｴｸｽﾃﾘｱ商品
 62
   250
370
    20
100
AcDbVertex
100
AcDbPolyFaceMeshVertex
 10
183.5000000000001
 20
140.4903810567666
 30
706.0
 70
   192
  0
VERTEX
  5
153
330
EB
100
AcDbEntity
  8
ｴｸｽﾃﾘｱ商品
 62
   250
370
    20
100
AcDbVertex
100
AcDbPolyFaceMeshVertex
 10
186.6066017177983
 20
138.1066017177982
 30
706.0
 70
   192
  0
VERTEX
  5
154
330
EB
100
AcDbEntity
  8
ｴｸｽﾃﾘｱ商品
 62
   250
370
    20
100
AcDbVertex
100
AcDbPolyFaceMeshVertex
 10
188.9903810567667
 20
135.0
 30
706.0
 70
   192
  0
VERTEX
  5
155
330
EB
100
AcDbEntity
  8
ｴｸｽﾃﾘｱ商品
 62
   250
370
    20
100
AcDbVertex
100
AcDbPolyFaceMeshVertex
 10
190.4888873943361
 20
131.3822856765378
 30
1136.0
 70
   192
  0
VERTEX
  5
156
330
EB
100
AcDbEntity
  8
ｴｸｽﾃﾘｱ商品
 62
   250
370
    20
100
AcDbVertex
100
AcDbPolyFaceMeshVertex
 10
188.9903810567667
 20
135.0
 30
1136.0
 70
   192
  0
VERTEX
  5
157
330
EB
100
AcDbEntity
  8
ｴｸｽﾃﾘｱ商品
 62
   250
370
    20
100
AcDbVertex
100
AcDbPolyFaceMeshVertex
 10
186.6066017177983
 20
138.1066017177982
 30
1136.0
 70
   192
  0
VERTEX
  5
158
330
EB
100
AcDbEntity
  8
ｴｸｽﾃﾘｱ商品
 62
   250
370
    20
100
AcDbVertex
100
AcDbPolyFaceMeshVertex
 10
183.5000000000001
 20
140.4903810567666
 30
1136.0
 70
   192
  0
VERTEX
  5
159
330
EB
100
AcDbEntity
  8
ｴｸｽﾃﾘｱ商品
 62
   250
370
    20
100
AcDbVertex
100
AcDbPolyFaceMeshVertex
 10
179.8822856765379
 20
141.988887394336
 30
1136.0
 70
   192
  0
VERTEX
  5
15A
330
EB
100
AcDbEntity
  8
ｴｸｽﾃﾘｱ商品
 62
   250
370
    20
100
AcDbVertex
100
AcDbPolyFaceMeshVertex
 10
176.0000000000001
 20
142.5
 30
1136.0
 70
   192
  0
VERTEX
  5
15B
330
EB
100
AcDbEntity
  8
ｴｸｽﾃﾘｱ商品
 62
   250
370
    20
100
AcDbVertex
100
AcDbPolyFaceMeshVertex
 10
172.1177143234623
 20
141.988887394336
 30
1136.0
 70
   192
  0
VERTEX
  5
15C
330
EB
100
AcDbEntity
  8
ｴｸｽﾃﾘｱ商品
 62
   250
370
    20
100
AcDbVertex
100
AcDbPolyFaceMeshVertex
 10
168.5000000000001
 20
140.4903810567666
 30
1136.0
 70
   192
  0
VERTEX
  5
15D
330
EB
100
AcDbEntity
  8
ｴｸｽﾃﾘｱ商品
 62
   250
370
    20
100
AcDbVertex
100
AcDbPolyFaceMeshVertex
 10
165.3933982822018
 20
138.1066017177982
 30
1136.0
 70
   192
  0
VERTEX
  5
15E
330
EB
100
AcDbEntity
  8
ｴｸｽﾃﾘｱ商品
 62
   250
370
    20
100
AcDbVertex
100
AcDbPolyFaceMeshVertex
 10
163.0096189432335
 20
135.0
 30
1136.0
 70
   192
  0
VERTEX
  5
15F
330
EB
100
AcDbEntity
  8
ｴｸｽﾃﾘｱ商品
 62
   250
370
    20
100
AcDbVertex
100
AcDbPolyFaceMeshVertex
 10
161.511112605664
 20
131.3822856765378
 30
1136.0
 70
   192
  0
VERTEX
  5
160
330
EB
100
AcDbEntity
  8
ｴｸｽﾃﾘｱ商品
 62
   250
370
    20
100
AcDbVertex
100
AcDbPolyFaceMeshVertex
 10
161.0000000000001
 20
127.5
 30
1136.0
 70
   192
  0
VERTEX
  5
161
330
EB
100
AcDbEntity
  8
ｴｸｽﾃﾘｱ商品
 62
   250
370
    20
100
AcDbVertex
100
AcDbPolyFaceMeshVertex
 10
161.511112605664
 20
123.6177143234622
 30
1136.0
 70
   192
  0
VERTEX
  5
162
330
EB
100
AcDbEntity
  8
ｴｸｽﾃﾘｱ商品
 62
   250
370
    20
100
AcDbVertex
100
AcDbPolyFaceMeshVertex
 10
163.0096189432335
 20
120.0
 30
1136.0
 70
   192
  0
VERTEX
  5
163
330
EB
100
AcDbEntity
  8
ｴｸｽﾃﾘｱ商品
 62
   250
370
    20
100
AcDbVertex
100
AcDbPolyFaceMeshVertex
 10
165.3933982822019
 20
116.8933982822018
 30
1136.0
 70
   192
  0
VERTEX
  5
164
330
EB
100
AcDbEntity
  8
ｴｸｽﾃﾘｱ商品
 62
   250
370
    20
100
AcDbVertex
100
AcDbPolyFaceMeshVertex
 10
168.5000000000001
 20
114.5096189432334
 30
1136.0
 70
   192
  0
VERTEX
  5
165
330
EB
100
AcDbEntity
  8
ｴｸｽﾃﾘｱ商品
 62
   250
370
    20
100
AcDbVertex
100
AcDbPolyFaceMeshVertex
 10
172.1177143234623
 20
113.011112605664
 30
1136.0
 70
   192
  0
VERTEX
  5
166
330
EB
100
AcDbEntity
  8
ｴｸｽﾃﾘｱ商品
 62
   250
370
    20
100
AcDbVertex
100
AcDbPolyFaceMeshVertex
 10
176.0000000000001
 20
112.5
 30
1136.0
 70
   192
  0
VERTEX
  5
167
330
EB
100
AcDbEntity
  8
ｴｸｽﾃﾘｱ商品
 62
   250
370
    20
100
AcDbVertex
100
AcDbPolyFaceMeshVertex
 10
179.8822856765379
 20
113.011112605664
 30
1136.0
 70
   192
  0
VERTEX
  5
168
330
EB
100
AcDbEntity
  8
ｴｸｽﾃﾘｱ商品
 62
   250
370
    20
100
AcDbVertex
100
AcDbPolyFaceMeshVertex
 10
183.5000000000001
 20
114.5096189432334
 30
1136.0
 70
   192
  0
VERTEX
  5
169
330
EB
100
AcDbEntity
  8
ｴｸｽﾃﾘｱ商品
 62
   250
370
    20
100
AcDbVertex
100
AcDbPolyFaceMeshVertex
 10
186.6066017177983
 20
116.8933982822018
 30
1136.0
 70
   192
  0
VERTEX
  5
16A
330
EB
100
AcDbEntity
  8
ｴｸｽﾃﾘｱ商品
 62
   250
370
    20
100
AcDbVertex
100
AcDbPolyFaceMeshVertex
 10
188.9903810567667
 20
120.0
 30
1136.0
 70
   192
  0
VERTEX
  5
16B
330
EB
100
AcDbEntity
  8
ｴｸｽﾃﾘｱ商品
 62
   250
370
    20
100
AcDbVertex
100
AcDbPolyFaceMeshVertex
 10
190.4888873943361
 20
123.6177143234622
 30
1136.0
 70
   192
  0
VERTEX
  5
16C
330
EB
100
AcDbEntity
  8
ｴｸｽﾃﾘｱ商品
 62
   250
370
    20
100
AcDbVertex
100
AcDbPolyFaceMeshVertex
 10
191.0000000000001
 20
127.5
 30
1136.0
 70
   192
  0
VERTEX
  5
16D
330
EB
100
AcDbEntity
  8
ｴｸｽﾃﾘｱ商品
 62
   250
370
    20
100
AcDbVertex
100
AcDbPolyFaceMeshVertex
 10
171.0000000000001
 20
107.5
 30
731.0
 70
   192
  0
VERTEX
  5
16E
330
EB
100
AcDbEntity
  8
ｴｸｽﾃﾘｱ商品
 62
   250
370
    20
100
AcDbVertex
100
AcDbPolyFaceMeshVertex
 10
171.0000000000001
 20
97.5
 30
731.0
 70
   192
  0
VERTEX
  5
16F
330
EB
100
AcDbEntity
  8
ｴｸｽﾃﾘｱ商品
 62
   250
370
    20
100
AcDbVertex
100
AcDbPolyFaceMeshVertex
 10
136.0000000000001
 20
97.5
 30
731.0
 70
   192
  0
VERTEX
  5
170
330
EB
100
AcDbEntity
  8
ｴｸｽﾃﾘｱ商品
 62
   250
370
    20
100
AcDbVertex
100
AcDbPolyFaceMeshVertex
 10
136.0000000000001
 20
107.5
 30
731.0
 70
   192
  0
VERTEX
  5
171
330
EB
100
AcDbEntity
  8
ｴｸｽﾃﾘｱ商品
 62
   250
370
    20
100
AcDbVertex
100
AcDbPolyFaceMeshVertex
 10
136.0000000000001
 20
107.5
 30
781.0
 70
   192
  0
VERTEX
  5
172
330
EB
100
AcDbEntity
  8
ｴｸｽﾃﾘｱ商品
 62
   250
370
    20
100
AcDbVertex
100
AcDbPolyFaceMeshVertex
 10
136.0000000000001
 20
97.5
 30
781.0
 70
   192
  0
VERTEX
  5
173
330
EB
100
AcDbEntity
  8
ｴｸｽﾃﾘｱ商品
 62
   250
370
    20
100
AcDbVertex
100
AcDbPolyFaceMeshVertex
 10
171.0000000000001
 20
97.5
 30
781.0
 70
   192
  0
VERTEX
  5
174
330
EB
100
AcDbEntity
  8
ｴｸｽﾃﾘｱ商品
 62
   250
370
    20
100
AcDbVertex
100
AcDbPolyFaceMeshVertex
 10
171.0000000000001
 20
107.5
 30
781.0
 70
   192
  0
VERTEX
  5
175
330
EB
100
AcDbEntity
  8
ｴｸｽﾃﾘｱ商品
 62
   250
370
    20
100
AcDbVertex
100
AcDbPolyFaceMeshVertex
 10
171.0000000000001
 20
123.5
 30
731.0
 70
   192
  0
VERTEX
  5
176
330
EB
100
AcDbEntity
  8
ｴｸｽﾃﾘｱ商品
 62
   250
370
    20
100
AcDbVertex
100
AcDbPolyFaceMeshVertex
 10
171.0000000000001
 20
107.5
 30
731.0
 70
   192
  0
VERTEX
  5
177
330
EB
100
AcDbEntity
  8
ｴｸｽﾃﾘｱ商品
 62
   250
370
    20
100
AcDbVertex
100
AcDbPolyFaceMeshVertex
 10
161.0000000000001
 20
107.5
 30
731.0
 70
   192
  0
VERTEX
  5
178
330
EB
100
AcDbEntity
  8
ｴｸｽﾃﾘｱ商品
 62
   250
370
    20
100
AcDbVertex
100
AcDbPolyFaceMeshVertex
 10
161.0000000000001
 20
123.5
 30
731.0
 70
   192
  0
VERTEX
  5
179
330
EB
100
AcDbEntity
  8
ｴｸｽﾃﾘｱ商品
 62
   250
370
    20
100
AcDbVertex
100
AcDbPolyFaceMeshVertex
 10
161.0000000000001
 20
123.5
 30
781.0
 70
   192
  0
VERTEX
  5
17A
330
EB
100
AcDbEntity
  8
ｴｸｽﾃﾘｱ商品
 62
   250
370
    20
100
AcDbVertex
100
AcDbPolyFaceMeshVertex
 10
161.0000000000001
 20
107.5
 30
781.0
 70
   192
  0
VERTEX
  5
17B
330
EB
100
AcDbEntity
  8
ｴｸｽﾃﾘｱ商品
 62
   250
370
    20
100
AcDbVertex
100
AcDbPolyFaceMeshVertex
 10
171.0000000000001
 20
107.5
 30
781.0
 70
   192
  0
VERTEX
  5
17C
330
EB
100
AcDbEntity
  8
ｴｸｽﾃﾘｱ商品
 62
   250
370
    20
100
AcDbVertex
100
AcDbPolyFaceMeshVertex
 10
171.0000000000001
 20
123.5
 30
781.0
 70
   192
  0
VERTEX
  5
17D
330
EB
100
AcDbEntity
  8
ｴｸｽﾃﾘｱ商品
 62
   250
370
    20
100
AcDbVertex
100
AcDbPolyFaceMeshVertex
 10
171.0
 20
107.5
 30
1061.0
 70
   192
  0
VERTEX
  5
17E
330
EB
100
AcDbEntity
  8
ｴｸｽﾃﾘｱ商品
 62
   250
370
    20
100
AcDbVertex
100
AcDbPolyFaceMeshVertex
 10
171.0
 20
97.5
 30
1061.0
 70
   192
  0
VERTEX
  5
17F
330
EB
100
AcDbEntity
  8
ｴｸｽﾃﾘｱ商品
 62
   250
370
    20
100
AcDbVertex
100
AcDbPolyFaceMeshVertex
 10
136.0
 20
97.5
 30
1061.0
 70
   192
  0
VERTEX
  5
180
330
EB
100
AcDbEntity
  8
ｴｸｽﾃﾘｱ商品
 62
   250
370
    20
100
AcDbVertex
100
AcDbPolyFaceMeshVertex
 10
136.0
 20
107.5
 30
1061.0
 70
   192
  0
VERTEX
  5
181
330
EB
100
AcDbEntity
  8
ｴｸｽﾃﾘｱ商品
 62
   250
370
    20
100
AcDbVertex
100
AcDbPolyFaceMeshVertex
 10
136.0
 20
107.5
 30
1111.0
 70
   192
  0
VERTEX
  5
182
330
EB
100
AcDbEntity
  8
ｴｸｽﾃﾘｱ商品
 62
   250
370
    20
100
AcDbVertex
100
AcDbPolyFaceMeshVertex
 10
136.0
 20
97.5
 30
1111.0
 70
   192
  0
VERTEX
  5
183
330
EB
100
AcDbEntity
  8
ｴｸｽﾃﾘｱ商品
 62
   250
370
    20
100
AcDbVertex
100
AcDbPolyFaceMeshVertex
 10
171.0
 20
97.5
 30
1111.0
 70
   192
  0
VERTEX
  5
184
330
EB
100
AcDbEntity
  8
ｴｸｽﾃﾘｱ商品
 62
   250
370
    20
100
AcDbVertex
100
AcDbPolyFaceMeshVertex
 10
171.0
 20
107.5
 30
1111.0
 70
   192
  0
VERTEX
  5
185
330
EB
100
AcDbEntity
  8
ｴｸｽﾃﾘｱ商品
 62
   250
370
    20
100
AcDbVertex
100
AcDbPolyFaceMeshVertex
 10
171.0
 20
123.5
 30
1061.0
 70
   192
  0
VERTEX
  5
186
330
EB
100
AcDbEntity
  8
ｴｸｽﾃﾘｱ商品
 62
   250
370
    20
100
AcDbVertex
100
AcDbPolyFaceMeshVertex
 10
171.0
 20
107.5
 30
1061.0
 70
   192
  0
VERTEX
  5
187
330
EB
100
AcDbEntity
  8
ｴｸｽﾃﾘｱ商品
 62
   250
370
    20
100
AcDbVertex
100
AcDbPolyFaceMeshVertex
 10
161.0
 20
107.5
 30
1061.0
 70
   192
  0
VERTEX
  5
188
330
EB
100
AcDbEntity
  8
ｴｸｽﾃﾘｱ商品
 62
   250
370
    20
100
AcDbVertex
100
AcDbPolyFaceMeshVertex
 10
161.0
 20
123.5
 30
1061.0
 70
   192
  0
VERTEX
  5
189
330
EB
100
AcDbEntity
  8
ｴｸｽﾃﾘｱ商品
 62
   250
370
    20
100
AcDbVertex
100
AcDbPolyFaceMeshVertex
 10
161.0
 20
123.5
 30
1111.0
 70
   192
  0
VERTEX
  5
18A
330
EB
100
AcDbEntity
  8
ｴｸｽﾃﾘｱ商品
 62
   250
370
    20
100
AcDbVertex
100
AcDbPolyFaceMeshVertex
 10
161.0
 20
107.5
 30
1111.0
 70
   192
  0
VERTEX
  5
18B
330
EB
100
AcDbEntity
  8
ｴｸｽﾃﾘｱ商品
 62
   250
370
    20
100
AcDbVertex
100
AcDbPolyFaceMeshVertex
 10
171.0
 20
107.5
 30
1111.0
 70
   192
  0
VERTEX
  5
18C
330
EB
100
AcDbEntity
  8
ｴｸｽﾃﾘｱ商品
 62
   250
370
    20
100
AcDbVertex
100
AcDbPolyFaceMeshVertex
 10
171.0
 20
123.5
 30
1111.0
 70
   192
  0
VERTEX
  5
18D
330
EB
100
AcDbEntity
  8
ｴｸｽﾃﾘｱ商品
 62
   250
370
    20
100
AcDbVertex
100
AcDbPolyFaceMeshVertex
 10
134.7435165257814
 20
49.99999999999999
 30
1193.82361909795
 70
   192
  0
VERTEX
  5
18E
330
EB
100
AcDbEntity
  8
ｴｸｽﾃﾘｱ商品
 62
   250
370
    20
100
AcDbVertex
100
AcDbPolyFaceMeshVertex
 10
132.7455080756888
 20
49.99999999999999
 30
1189.0
 70
   192
  0
VERTEX
  5
18F
330
EB
100
AcDbEntity
  8
ｴｸｽﾃﾘｱ商品
 62
   250
370
    20
100
AcDbVertex
100
AcDbPolyFaceMeshVertex
 10
129.567135623731
 20
49.99999999999999
 30
1184.857864376269
 70
   192
  0
VERTEX
  5
190
330
EB
100
AcDbEntity
  8
ｴｸｽﾃﾘｱ商品
 62
   250
370
    20
100
AcDbVertex
100
AcDbPolyFaceMeshVertex
 10
125.425
 20
49.99999999999999
 30
1181.679491924311
 70
   192
  0
VERTEX
  5
191
330
EB
100
AcDbEntity
  8
ｴｸｽﾃﾘｱ商品
 62
   250
370
    20
100
AcDbVertex
100
AcDbPolyFaceMeshVertex
 10
120.6013809020504
 20
49.99999999999999
 30
1179.681483474219
 70
   192
  0
VERTEX
  5
192
330
EB
100
AcDbEntity
  8
ｴｸｽﾃﾘｱ商品
 62
   250
370
    20
100
AcDbVertex
100
AcDbPolyFaceMeshVertex
 10
115.425
 20
49.99999999999999
 30
1179.0
 70
   192
  0
VERTEX
  5
193
330
EB
100
AcDbEntity
  8
ｴｸｽﾃﾘｱ商品
 62
   250
370
    20
100
AcDbVertex
100
AcDbPolyFaceMeshVertex
 10
110.2486190979496
 20
49.99999999999999
 30
1179.681483474219
 70
   192
  0
VERTEX
  5
194
330
EB
100
AcDbEntity
  8
ｴｸｽﾃﾘｱ商品
 62
   250
370
    20
100
AcDbVertex
100
AcDbPolyFaceMeshVertex
 10
105.425
 20
49.99999999999999
 30
1181.679491924311
 70
   192
  0
VERTEX
  5
195
330
EB
100
AcDbEntity
  8
ｴｸｽﾃﾘｱ商品
 62
   250
370
    20
100
AcDbVertex
100
AcDbPolyFaceMeshVertex
 10
101.282864376269
 20
49.99999999999999
 30
1184.857864376269
 70
   192
  0
VERTEX
  5
196
330
EB
100
AcDbEntity
  8
ｴｸｽﾃﾘｱ商品
 62
   250
370
    20
100
AcDbVertex
100
AcDbPolyFaceMeshVertex
 10
98.10449192431123
 20
49.99999999999999
 30
1189.0
 70
   192
  0
VERTEX
  5
197
330
EB
100
AcDbEntity
  8
ｴｸｽﾃﾘｱ商品
 62
   250
370
    20
100
AcDbVertex
100
AcDbPolyFaceMeshVertex
 10
96.10648347421863
 20
49.99999999999999
 30
1193.82361909795
 70
   192
  0
VERTEX
  5
198
330
EB
100
AcDbEntity
  8
ｴｸｽﾃﾘｱ商品
 62
   250
370
    20
100
AcDbVertex
100
AcDbPolyFaceMeshVertex
 10
95.42500000000001
 20
49.99999999999999
 30
1199.0
 70
   192
  0
VERTEX
  5
199
330
EB
100
AcDbEntity
  8
ｴｸｽﾃﾘｱ商品
 62
   250
370
    20
100
AcDbVertex
100
AcDbPolyFaceMeshVertex
 10
96.10648347421865
 20
49.99999999999999
 30
1204.17638090205
 70
   192
  0
VERTEX
  5
19A
330
EB
100
AcDbEntity
  8
ｴｸｽﾃﾘｱ商品
 62
   250
370
    20
100
AcDbVertex
100
AcDbPolyFaceMeshVertex
 10
98.10449192431125
 20
49.99999999999999
 30
1209.0
 70
   192
  0
VERTEX
  5
19B
330
EB
100
AcDbEntity
  8
ｴｸｽﾃﾘｱ商品
 62
   250
370
    20
100
AcDbVertex
100
AcDbPolyFaceMeshVertex
 10
101.2828643762691
 20
49.99999999999999
 30
1213.142135623731
 70
   192
  0
VERTEX
  5
19C
330
EB
100
AcDbEntity
  8
ｴｸｽﾃﾘｱ商品
 62
   250
370
    20
100
AcDbVertex
100
AcDbPolyFaceMeshVertex
 10
105.425
 20
49.99999999999999
 30
1216.320508075689
 70
   192
  0
VERTEX
  5
19D
330
EB
100
AcDbEntity
  8
ｴｸｽﾃﾘｱ商品
 62
   250
370
    20
100
AcDbVertex
100
AcDbPolyFaceMeshVertex
 10
110.2486190979496
 20
49.99999999999999
 30
1218.318516525781
 70
   192
  0
VERTEX
  5
19E
330
EB
100
AcDbEntity
  8
ｴｸｽﾃﾘｱ商品
 62
   250
370
    20
100
AcDbVertex
100
AcDbPolyFaceMeshVertex
 10
115.425
 20
49.99999999999999
 30
1219.0
 70
   192
  0
VERTEX
  5
19F
330
EB
100
AcDbEntity
  8
ｴｸｽﾃﾘｱ商品
 62
   250
370
    20
100
AcDbVertex
100
AcDbPolyFaceMeshVertex
 10
120.6013809020504
 20
49.99999999999999
 30
1218.318516525781
 70
   192
  0
VERTEX
  5
1A0
330
EB
100
AcDbEntity
  8
ｴｸｽﾃﾘｱ商品
 62
   250
370
    20
100
AcDbVertex
100
AcDbPolyFaceMeshVertex
 10
125.425
 20
49.99999999999999
 30
1216.320508075689
 70
   192
  0
VERTEX
  5
1A1
330
EB
100
AcDbEntity
  8
ｴｸｽﾃﾘｱ商品
 62
   250
370
    20
100
AcDbVertex
100
AcDbPolyFaceMeshVertex
 10
129.567135623731
 20
49.99999999999999
 30
1213.142135623731
 70
   192
  0
VERTEX
  5
1A2
330
EB
100
AcDbEntity
  8
ｴｸｽﾃﾘｱ商品
 62
   250
370
    20
100
AcDbVertex
100
AcDbPolyFaceMeshVertex
 10
132.7455080756888
 20
49.99999999999999
 30
1209.0
 70
   192
  0
VERTEX
  5
1A3
330
EB
100
AcDbEntity
  8
ｴｸｽﾃﾘｱ商品
 62
   250
370
    20
100
AcDbVertex
100
AcDbPolyFaceMeshVertex
 10
134.7435165257814
 20
49.99999999999999
 30
1204.17638090205
 70
   192
  0
VERTEX
  5
1A4
330
EB
100
AcDbEntity
  8
ｴｸｽﾃﾘｱ商品
 62
   250
370
    20
100
AcDbVertex
100
AcDbPolyFaceMeshVertex
 10
135.425
 20
49.99999999999999
 30
1199.0
 70
   192
  0
VERTEX
  5
1A5
330
EB
100
AcDbEntity
  8
ｴｸｽﾃﾘｱ商品
 62
   250
370
    20
100
AcDbVertex
100
AcDbPolyFaceMeshVertex
 10
134.7435165257814
 20
39.99999999999999
 30
1193.82361909795
 70
   192
  0
VERTEX
  5
1A6
330
EB
100
AcDbEntity
  8
ｴｸｽﾃﾘｱ商品
 62
   250
370
    20
100
AcDbVertex
100
AcDbPolyFaceMeshVertex
 10
135.425
 20
39.99999999999999
 30
1199.0
 70
   192
  0
VERTEX
  5
1A7
330
EB
100
AcDbEntity
  8
ｴｸｽﾃﾘｱ商品
 62
   250
370
    20
100
AcDbVertex
100
AcDbPolyFaceMeshVertex
 10
134.7435165257814
 20
39.99999999999999
 30
1204.17638090205
 70
   192
  0
VERTEX
  5
1A8
330
EB
100
AcDbEntity
  8
ｴｸｽﾃﾘｱ商品
 62
   250
370
    20
100
AcDbVertex
100
AcDbPolyFaceMeshVertex
 10
132.7455080756888
 20
39.99999999999999
 30
1209.0
 70
   192
  0
VERTEX
  5
1A9
330
EB
100
AcDbEntity
  8
ｴｸｽﾃﾘｱ商品
 62
   250
370
    20
100
AcDbVertex
100
AcDbPolyFaceMeshVertex
 10
129.567135623731
 20
39.99999999999999
 30
1213.142135623731
 70
   192
  0
VERTEX
  5
1AA
330
EB
100
AcDbEntity
  8
ｴｸｽﾃﾘｱ商品
 62
   250
370
    20
100
AcDbVertex
100
AcDbPolyFaceMeshVertex
 10
125.425
 20
39.99999999999999
 30
1216.320508075689
 70
   192
  0
VERTEX
  5
1AB
330
EB
100
AcDbEntity
  8
ｴｸｽﾃﾘｱ商品
 62
   250
370
    20
100
AcDbVertex
100
AcDbPolyFaceMeshVertex
 10
120.6013809020504
 20
39.99999999999999
 30
1218.318516525781
 70
   192
  0
VERTEX
  5
1AC
330
EB
100
AcDbEntity
  8
ｴｸｽﾃﾘｱ商品
 62
   250
370
    20
100
AcDbVertex
100
AcDbPolyFaceMeshVertex
 10
115.425
 20
39.99999999999999
 30
1219.0
 70
   192
  0
VERTEX
  5
1AD
330
EB
100
AcDbEntity
  8
ｴｸｽﾃﾘｱ商品
 62
   250
370
    20
100
AcDbVertex
100
AcDbPolyFaceMeshVertex
 10
110.2486190979496
 20
39.99999999999999
 30
1218.318516525781
 70
   192
  0
VERTEX
  5
1AE
330
EB
100
AcDbEntity
  8
ｴｸｽﾃﾘｱ商品
 62
   250
370
    20
100
AcDbVertex
100
AcDbPolyFaceMeshVertex
 10
105.425
 20
39.99999999999999
 30
1216.320508075689
 70
   192
  0
VERTEX
  5
1AF
330
EB
100
AcDbEntity
  8
ｴｸｽﾃﾘｱ商品
 62
   250
370
    20
100
AcDbVertex
100
AcDbPolyFaceMeshVertex
 10
101.2828643762691
 20
39.99999999999999
 30
1213.142135623731
 70
   192
  0
VERTEX
  5
1B0
330
EB
100
AcDbEntity
  8
ｴｸｽﾃﾘｱ商品
 62
   250
370
    20
100
AcDbVertex
100
AcDbPolyFaceMeshVertex
 10
98.10449192431125
 20
39.99999999999999
 30
1209.0
 70
   192
  0
VERTEX
  5
1B1
330
EB
100
AcDbEntity
  8
ｴｸｽﾃﾘｱ商品
 62
   250
370
    20
100
AcDbVertex
100
AcDbPolyFaceMeshVertex
 10
96.10648347421865
 20
39.99999999999999
 30
1204.17638090205
 70
   192
  0
VERTEX
  5
1B2
330
EB
100
AcDbEntity
  8
ｴｸｽﾃﾘｱ商品
 62
   250
370
    20
100
AcDbVertex
100
AcDbPolyFaceMeshVertex
 10
95.42500000000001
 20
39.99999999999999
 30
1199.0
 70
   192
  0
VERTEX
  5
1B3
330
EB
100
AcDbEntity
  8
ｴｸｽﾃﾘｱ商品
 62
   250
370
    20
100
AcDbVertex
100
AcDbPolyFaceMeshVertex
 10
96.10648347421863
 20
39.99999999999999
 30
1193.82361909795
 70
   192
  0
VERTEX
  5
1B4
330
EB
100
AcDbEntity
  8
ｴｸｽﾃﾘｱ商品
 62
   250
370
    20
100
AcDbVertex
100
AcDbPolyFaceMeshVertex
 10
98.10449192431123
 20
39.99999999999999
 30
1189.0
 70
   192
  0
VERTEX
  5
1B5
330
EB
100
AcDbEntity
  8
ｴｸｽﾃﾘｱ商品
 62
   250
370
    20
100
AcDbVertex
100
AcDbPolyFaceMeshVertex
 10
101.282864376269
 20
39.99999999999999
 30
1184.857864376269
 70
   192
  0
VERTEX
  5
1B6
330
EB
100
AcDbEntity
  8
ｴｸｽﾃﾘｱ商品
 62
   250
370
    20
100
AcDbVertex
100
AcDbPolyFaceMeshVertex
 10
105.425
 20
39.99999999999999
 30
1181.679491924311
 70
   192
  0
VERTEX
  5
1B7
330
EB
100
AcDbEntity
  8
ｴｸｽﾃﾘｱ商品
 62
   250
370
    20
100
AcDbVertex
100
AcDbPolyFaceMeshVertex
 10
110.2486190979496
 20
39.99999999999999
 30
1179.681483474219
 70
   192
  0
VERTEX
  5
1B8
330
EB
100
AcDbEntity
  8
ｴｸｽﾃﾘｱ商品
 62
   250
370
    20
100
AcDbVertex
100
AcDbPolyFaceMeshVertex
 10
115.425
 20
39.99999999999999
 30
1179.0
 70
   192
  0
VERTEX
  5
1B9
330
EB
100
AcDbEntity
  8
ｴｸｽﾃﾘｱ商品
 62
   250
370
    20
100
AcDbVertex
100
AcDbPolyFaceMeshVertex
 10
120.6013809020504
 20
39.99999999999999
 30
1179.681483474219
 70
   192
  0
VERTEX
  5
1BA
330
EB
100
AcDbEntity
  8
ｴｸｽﾃﾘｱ商品
 62
   250
370
    20
100
AcDbVertex
100
AcDbPolyFaceMeshVertex
 10
125.425
 20
39.99999999999999
 30
1181.679491924311
 70
   192
  0
VERTEX
  5
1BB
330
EB
100
AcDbEntity
  8
ｴｸｽﾃﾘｱ商品
 62
   250
370
    20
100
AcDbVertex
100
AcDbPolyFaceMeshVertex
 10
129.567135623731
 20
39.99999999999999
 30
1184.857864376269
 70
   192
  0
VERTEX
  5
1BC
330
EB
100
AcDbEntity
  8
ｴｸｽﾃﾘｱ商品
 62
   250
370
    20
100
AcDbVertex
100
AcDbPolyFaceMeshVertex
 10
132.7455080756888
 20
39.99999999999999
 30
1189.0
 70
   192
  0
VERTEX
  5
1BD
330
EB
100
AcDbEntity
  8
ｴｸｽﾃﾘｱ商品
 62
   250
370
    20
100
AcDbVertex
100
AcDbPolyFaceMeshVertex
 10
896.3407417371093
 20
107.4118095489748
 30
169.0
 70
   192
  0
VERTEX
  5
1BE
330
EB
100
AcDbEntity
  8
ｴｸｽﾃﾘｱ商品
 62
   250
370
    20
100
AcDbVertex
100
AcDbPolyFaceMeshVertex
 10
896.0
 20
110.0
 30
169.0
 70
   192
  0
VERTEX
  5
1BF
330
EB
100
AcDbEntity
  8
ｴｸｽﾃﾘｱ商品
 62
   250
370
    20
100
AcDbVertex
100
AcDbPolyFaceMeshVertex
 10
896.3407417371093
 20
112.5881904510252
 30
169.0
 70
   192
  0
VERTEX
  5
1C0
330
EB
100
AcDbEntity
  8
ｴｸｽﾃﾘｱ商品
 62
   250
370
    20
100
AcDbVertex
100
AcDbPolyFaceMeshVertex
 10
897.3397459621556
 20
115.0
 30
169.0
 70
   192
  0
VERTEX
  5
1C1
330
EB
100
AcDbEntity
  8
ｴｸｽﾃﾘｱ商品
 62
   250
370
    20
100
AcDbVertex
100
AcDbPolyFaceMeshVertex
 10
898.9289321881345
 20
117.0710678118655
 30
169.0
 70
   192
  0
VERTEX
  5
1C2
330
EB
100
AcDbEntity
  8
ｴｸｽﾃﾘｱ商品
 62
   250
370
    20
100
AcDbVertex
100
AcDbPolyFaceMeshVertex
 10
901.0
 20
118.6602540378444
 30
169.0
 70
   192
  0
VERTEX
  5
1C3
330
EB
100
AcDbEntity
  8
ｴｸｽﾃﾘｱ商品
 62
   250
370
    20
100
AcDbVertex
100
AcDbPolyFaceMeshVertex
 10
903.4118095489748
 20
119.6592582628907
 30
169.0
 70
   192
  0
VERTEX
  5
1C4
330
EB
100
AcDbEntity
  8
ｴｸｽﾃﾘｱ商品
 62
   250
370
    20
100
AcDbVertex
100
AcDbPolyFaceMeshVertex
 10
906.0
 20
120.0
 30
169.0
 70
   192
  0
VERTEX
  5
1C5
330
EB
100
AcDbEntity
  8
ｴｸｽﾃﾘｱ商品
 62
   250
370
    20
100
AcDbVertex
100
AcDbPolyFaceMeshVertex
 10
908.5881904510252
 20
119.6592582628907
 30
169.0
 70
   192
  0
VERTEX
  5
1C6
330
EB
100
AcDbEntity
  8
ｴｸｽﾃﾘｱ商品
 62
   250
370
    20
100
AcDbVertex
100
AcDbPolyFaceMeshVertex
 10
911.0
 20
118.6602540378444
 30
169.0
 70
   192
  0
VERTEX
  5
1C7
330
EB
100
AcDbEntity
  8
ｴｸｽﾃﾘｱ商品
 62
   250
370
    20
100
AcDbVertex
100
AcDbPolyFaceMeshVertex
 10
913.0710678118655
 20
117.0710678118655
 30
169.0
 70
   192
  0
VERTEX
  5
1C8
330
EB
100
AcDbEntity
  8
ｴｸｽﾃﾘｱ商品
 62
   250
370
    20
100
AcDbVertex
100
AcDbPolyFaceMeshVertex
 10
914.6602540378444
 20
115.0
 30
169.0
 70
   192
  0
VERTEX
  5
1C9
330
EB
100
AcDbEntity
  8
ｴｸｽﾃﾘｱ商品
 62
   250
370
    20
100
AcDbVertex
100
AcDbPolyFaceMeshVertex
 10
915.6592582628907
 20
112.5881904510252
 30
169.0
 70
   192
  0
VERTEX
  5
1CA
330
EB
100
AcDbEntity
  8
ｴｸｽﾃﾘｱ商品
 62
   250
370
    20
100
AcDbVertex
100
AcDbPolyFaceMeshVertex
 10
916.0
 20
110.0
 30
169.0
 70
   192
  0
VERTEX
  5
1CB
330
EB
100
AcDbEntity
  8
ｴｸｽﾃﾘｱ商品
 62
   250
370
    20
100
AcDbVertex
100
AcDbPolyFaceMeshVertex
 10
915.6592582628907
 20
107.4118095489748
 30
169.0
 70
   192
  0
VERTEX
  5
1CC
330
EB
100
AcDbEntity
  8
ｴｸｽﾃﾘｱ商品
 62
   250
370
    20
100
AcDbVertex
100
AcDbPolyFaceMeshVertex
 10
914.6602540378444
 20
105.0
 30
169.0
 70
   192
  0
VERTEX
  5
1CD
330
EB
100
AcDbEntity
  8
ｴｸｽﾃﾘｱ商品
 62
   250
370
    20
100
AcDbVertex
100
AcDbPolyFaceMeshVertex
 10
913.0710678118655
 20
102.9289321881345
 30
169.0
 70
   192
  0
VERTEX
  5
1CE
330
EB
100
AcDbEntity
  8
ｴｸｽﾃﾘｱ商品
 62
   250
370
    20
100
AcDbVertex
100
AcDbPolyFaceMeshVertex
 10
911.0
 20
101.3397459621556
 30
169.0
 70
   192
  0
VERTEX
  5
1CF
330
EB
100
AcDbEntity
  8
ｴｸｽﾃﾘｱ商品
 62
   250
370
    20
100
AcDbVertex
100
AcDbPolyFaceMeshVertex
 10
908.5881904510252
 20
100.3407417371093
 30
169.0
 70
   192
  0
VERTEX
  5
1D0
330
EB
100
AcDbEntity
  8
ｴｸｽﾃﾘｱ商品
 62
   250
370
    20
100
AcDbVertex
100
AcDbPolyFaceMeshVertex
 10
906.0
 20
100.0
 30
169.0
 70
   192
  0
VERTEX
  5
1D1
330
EB
100
AcDbEntity
  8
ｴｸｽﾃﾘｱ商品
 62
   250
370
    20
100
AcDbVertex
100
AcDbPolyFaceMeshVertex
 10
903.4118095489748
 20
100.3407417371093
 30
169.0
 70
   192
  0
VERTEX
  5
1D2
330
EB
100
AcDbEntity
  8
ｴｸｽﾃﾘｱ商品
 62
   250
370
    20
100
AcDbVertex
100
AcDbPolyFaceMeshVertex
 10
901.0
 20
101.3397459621556
 30
169.0
 70
   192
  0
VERTEX
  5
1D3
330
EB
100
AcDbEntity
  8
ｴｸｽﾃﾘｱ商品
 62
   250
370
    20
100
AcDbVertex
100
AcDbPolyFaceMeshVertex
 10
898.9289321881345
 20
102.9289321881345
 30
169.0
 70
   192
  0
VERTEX
  5
1D4
330
EB
100
AcDbEntity
  8
ｴｸｽﾃﾘｱ商品
 62
   250
370
    20
100
AcDbVertex
100
AcDbPolyFaceMeshVertex
 10
897.3397459621556
 20
105.0
 30
169.0
 70
   192
  0
VERTEX
  5
1D5
330
EB
100
AcDbEntity
  8
ｴｸｽﾃﾘｱ商品
 62
   250
370
    20
100
AcDbVertex
100
AcDbPolyFaceMeshVertex
 10
896.3407417371093
 20
107.4118095489748
 30
219.0000000000001
 70
   192
  0
VERTEX
  5
1D6
330
EB
100
AcDbEntity
  8
ｴｸｽﾃﾘｱ商品
 62
   250
370
    20
100
AcDbVertex
100
AcDbPolyFaceMeshVertex
 10
897.3397459621556
 20
105.0
 30
219.0000000000001
 70
   192
  0
VERTEX
  5
1D7
330
EB
100
AcDbEntity
  8
ｴｸｽﾃﾘｱ商品
 62
   250
370
    20
100
AcDbVertex
100
AcDbPolyFaceMeshVertex
 10
898.9289321881345
 20
102.9289321881345
 30
219.0000000000001
 70
   192
  0
VERTEX
  5
1D8
330
EB
100
AcDbEntity
  8
ｴｸｽﾃﾘｱ商品
 62
   250
370
    20
100
AcDbVertex
100
AcDbPolyFaceMeshVertex
 10
901.0
 20
101.3397459621556
 30
219.0000000000001
 70
   192
  0
VERTEX
  5
1D9
330
EB
100
AcDbEntity
  8
ｴｸｽﾃﾘｱ商品
 62
   250
370
    20
100
AcDbVertex
100
AcDbPolyFaceMeshVertex
 10
903.4118095489748
 20
100.3407417371093
 30
219.0000000000001
 70
   192
  0
VERTEX
  5
1DA
330
EB
100
AcDbEntity
  8
ｴｸｽﾃﾘｱ商品
 62
   250
370
    20
100
AcDbVertex
100
AcDbPolyFaceMeshVertex
 10
906.0
 20
100.0
 30
219.0000000000001
 70
   192
  0
VERTEX
  5
1DB
330
EB
100
AcDbEntity
  8
ｴｸｽﾃﾘｱ商品
 62
   250
370
    20
100
AcDbVertex
100
AcDbPolyFaceMeshVertex
 10
908.5881904510252
 20
100.3407417371093
 30
219.0000000000001
 70
   192
  0
VERTEX
  5
1DC
330
EB
100
AcDbEntity
  8
ｴｸｽﾃﾘｱ商品
 62
   250
370
    20
100
AcDbVertex
100
AcDbPolyFaceMeshVertex
 10
911.0
 20
101.3397459621556
 30
219.0000000000001
 70
   192
  0
VERTEX
  5
1DD
330
EB
100
AcDbEntity
  8
ｴｸｽﾃﾘｱ商品
 62
   250
370
    20
100
AcDbVertex
100
AcDbPolyFaceMeshVertex
 10
913.0710678118655
 20
102.9289321881345
 30
219.0000000000001
 70
   192
  0
VERTEX
  5
1DE
330
EB
100
AcDbEntity
  8
ｴｸｽﾃﾘｱ商品
 62
   250
370
    20
100
AcDbVertex
100
AcDbPolyFaceMeshVertex
 10
914.6602540378444
 20
105.0
 30
219.0000000000001
 70
   192
  0
VERTEX
  5
1DF
330
EB
100
AcDbEntity
  8
ｴｸｽﾃﾘｱ商品
 62
   250
370
    20
100
AcDbVertex
100
AcDbPolyFaceMeshVertex
 10
915.6592582628907
 20
107.4118095489748
 30
219.0000000000001
 70
   192
  0
VERTEX
  5
1E0
330
EB
100
AcDbEntity
  8
ｴｸｽﾃﾘｱ商品
 62
   250
370
    20
100
AcDbVertex
100
AcDbPolyFaceMeshVertex
 10
916.0
 20
110.0
 30
219.0000000000001
 70
   192
  0
VERTEX
  5
1E1
330
EB
100
AcDbEntity
  8
ｴｸｽﾃﾘｱ商品
 62
   250
370
    20
100
AcDbVertex
100
AcDbPolyFaceMeshVertex
 10
915.6592582628907
 20
112.5881904510252
 30
219.0000000000001
 70
   192
  0
VERTEX
  5
1E2
330
EB
100
AcDbEntity
  8
ｴｸｽﾃﾘｱ商品
 62
   250
370
    20
100
AcDbVertex
100
AcDbPolyFaceMeshVertex
 10
914.6602540378444
 20
115.0
 30
219.0000000000001
 70
   192
  0
VERTEX
  5
1E3
330
EB
100
AcDbEntity
  8
ｴｸｽﾃﾘｱ商品
 62
   250
370
    20
100
AcDbVertex
100
AcDbPolyFaceMeshVertex
 10
913.0710678118655
 20
117.0710678118655
 30
219.0000000000001
 70
   192
  0
VERTEX
  5
1E4
330
EB
100
AcDbEntity
  8
ｴｸｽﾃﾘｱ商品
 62
   250
370
    20
100
AcDbVertex
100
AcDbPolyFaceMeshVertex
 10
911.0
 20
118.6602540378444
 30
219.0000000000001
 70
   192
  0
VERTEX
  5
1E5
330
EB
100
AcDbEntity
  8
ｴｸｽﾃﾘｱ商品
 62
   250
370
    20
100
AcDbVertex
100
AcDbPolyFaceMeshVertex
 10
908.5881904510252
 20
119.6592582628907
 30
219.0000000000001
 70
   192
  0
VERTEX
  5
1E6
330
EB
100
AcDbEntity
  8
ｴｸｽﾃﾘｱ商品
 62
   250
370
    20
100
AcDbVertex
100
AcDbPolyFaceMeshVertex
 10
906.0
 20
120.0
 30
219.0000000000001
 70
   192
  0
VERTEX
  5
1E7
330
EB
100
AcDbEntity
  8
ｴｸｽﾃﾘｱ商品
 62
   250
370
    20
100
AcDbVertex
100
AcDbPolyFaceMeshVertex
 10
903.4118095489748
 20
119.6592582628907
 30
219.0000000000001
 70
   192
  0
VERTEX
  5
1E8
330
EB
100
AcDbEntity
  8
ｴｸｽﾃﾘｱ商品
 62
   250
370
    20
100
AcDbVertex
100
AcDbPolyFaceMeshVertex
 10
901.0
 20
118.6602540378444
 30
219.0000000000001
 70
   192
  0
VERTEX
  5
1E9
330
EB
100
AcDbEntity
  8
ｴｸｽﾃﾘｱ商品
 62
   250
370
    20
100
AcDbVertex
100
AcDbPolyFaceMeshVertex
 10
898.9289321881345
 20
117.0710678118655
 30
219.0000000000001
 70
   192
  0
VERTEX
  5
1EA
330
EB
100
AcDbEntity
  8
ｴｸｽﾃﾘｱ商品
 62
   250
370
    20
100
AcDbVertex
100
AcDbPolyFaceMeshVertex
 10
897.3397459621556
 20
115.0
 30
219.0000000000001
 70
   192
  0
VERTEX
  5
1EB
330
EB
100
AcDbEntity
  8
ｴｸｽﾃﾘｱ商品
 62
   250
370
    20
100
AcDbVertex
100
AcDbPolyFaceMeshVertex
 10
896.3407417371093
 20
112.5881904510252
 30
219.0000000000001
 70
   192
  0
VERTEX
  5
1EC
330
EB
100
AcDbEntity
  8
ｴｸｽﾃﾘｱ商品
 62
   250
370
    20
100
AcDbVertex
100
AcDbPolyFaceMeshVertex
 10
896.0
 20
110.0
 30
219.0000000000001
 70
   192
  0
VERTEX
  5
1ED
330
EB
100
AcDbEntity
  8
ｴｸｽﾃﾘｱ商品
 62
   250
370
    20
100
AcDbVertex
100
AcDbPolyFaceMeshVertex
 10
896.3407417371093
 20
107.4118095489748
 30
129.0
 70
   192
  0
VERTEX
  5
1EE
330
EB
100
AcDbEntity
  8
ｴｸｽﾃﾘｱ商品
 62
   250
370
    20
100
AcDbVertex
100
AcDbPolyFaceMeshVertex
 10
896.0
 20
110.0
 30
129.0
 70
   192
  0
VERTEX
  5
1EF
330
EB
100
AcDbEntity
  8
ｴｸｽﾃﾘｱ商品
 62
   250
370
    20
100
AcDbVertex
100
AcDbPolyFaceMeshVertex
 10
896.3407417371093
 20
112.5881904510252
 30
129.0
 70
   192
  0
VERTEX
  5
1F0
330
EB
100
AcDbEntity
  8
ｴｸｽﾃﾘｱ商品
 62
   250
370
    20
100
AcDbVertex
100
AcDbPolyFaceMeshVertex
 10
897.3397459621556
 20
115.0
 30
129.0
 70
   192
  0
VERTEX
  5
1F1
330
EB
100
AcDbEntity
  8
ｴｸｽﾃﾘｱ商品
 62
   250
370
    20
100
AcDbVertex
100
AcDbPolyFaceMeshVertex
 10
898.9289321881345
 20
117.0710678118655
 30
129.0
 70
   192
  0
VERTEX
  5
1F2
330
EB
100
AcDbEntity
  8
ｴｸｽﾃﾘｱ商品
 62
   250
370
    20
100
AcDbVertex
100
AcDbPolyFaceMeshVertex
 10
901.0
 20
118.6602540378444
 30
129.0
 70
   192
  0
VERTEX
  5
1F3
330
EB
100
AcDbEntity
  8
ｴｸｽﾃﾘｱ商品
 62
   250
370
    20
100
AcDbVertex
100
AcDbPolyFaceMeshVertex
 10
903.4118095489748
 20
119.6592582628907
 30
129.0
 70
   192
  0
VERTEX
  5
1F4
330
EB
100
AcDbEntity
  8
ｴｸｽﾃﾘｱ商品
 62
   250
370
    20
100
AcDbVertex
100
AcDbPolyFaceMeshVertex
 10
906.0
 20
120.0
 30
129.0
 70
   192
  0
VERTEX
  5
1F5
330
EB
100
AcDbEntity
  8
ｴｸｽﾃﾘｱ商品
 62
   250
370
    20
100
AcDbVertex
100
AcDbPolyFaceMeshVertex
 10
908.5881904510252
 20
119.6592582628907
 30
129.0
 70
   192
  0
VERTEX
  5
1F6
330
EB
100
AcDbEntity
  8
ｴｸｽﾃﾘｱ商品
 62
   250
370
    20
100
AcDbVertex
100
AcDbPolyFaceMeshVertex
 10
911.0
 20
118.6602540378444
 30
129.0
 70
   192
  0
VERTEX
  5
1F7
330
EB
100
AcDbEntity
  8
ｴｸｽﾃﾘｱ商品
 62
   250
370
    20
100
AcDbVertex
100
AcDbPolyFaceMeshVertex
 10
913.0710678118655
 20
117.0710678118655
 30
129.0
 70
   192
  0
VERTEX
  5
1F8
330
EB
100
AcDbEntity
  8
ｴｸｽﾃﾘｱ商品
 62
   250
370
    20
100
AcDbVertex
100
AcDbPolyFaceMeshVertex
 10
914.6602540378444
 20
115.0
 30
129.0
 70
   192
  0
VERTEX
  5
1F9
330
EB
100
AcDbEntity
  8
ｴｸｽﾃﾘｱ商品
 62
   250
370
    20
100
AcDbVertex
100
AcDbPolyFaceMeshVertex
 10
915.6592582628907
 20
112.5881904510252
 30
129.0
 70
   192
  0
VERTEX
  5
1FA
330
EB
100
AcDbEntity
  8
ｴｸｽﾃﾘｱ商品
 62
   250
370
    20
100
AcDbVertex
100
AcDbPolyFaceMeshVertex
 10
916.0
 20
110.0
 30
129.0
 70
   192
  0
VERTEX
  5
1FB
330
EB
100
AcDbEntity
  8
ｴｸｽﾃﾘｱ商品
 62
   250
370
    20
100
AcDbVertex
100
AcDbPolyFaceMeshVertex
 10
915.6592582628907
 20
107.4118095489748
 30
129.0
 70
   192
  0
VERTEX
  5
1FC
330
EB
100
AcDbEntity
  8
ｴｸｽﾃﾘｱ商品
 62
   250
370
    20
100
AcDbVertex
100
AcDbPolyFaceMeshVertex
 10
914.6602540378444
 20
105.0
 30
129.0
 70
   192
  0
VERTEX
  5
1FD
330
EB
100
AcDbEntity
  8
ｴｸｽﾃﾘｱ商品
 62
   250
370
    20
100
AcDbVertex
100
AcDbPolyFaceMeshVertex
 10
913.0710678118655
 20
102.9289321881345
 30
129.0
 70
   192
  0
VERTEX
  5
1FE
330
EB
100
AcDbEntity
  8
ｴｸｽﾃﾘｱ商品
 62
   250
370
    20
100
AcDbVertex
100
AcDbPolyFaceMeshVertex
 10
911.0
 20
101.3397459621556
 30
129.0
 70
   192
  0
VERTEX
  5
1FF
330
EB
100
AcDbEntity
  8
ｴｸｽﾃﾘｱ商品
 62
   250
370
    20
100
AcDbVertex
100
AcDbPolyFaceMeshVertex
 10
908.5881904510252
 20
100.3407417371093
 30
129.0
 70
   192
  0
VERTEX
  5
200
330
EB
100
AcDbEntity
  8
ｴｸｽﾃﾘｱ商品
 62
   250
370
    20
100
AcDbVertex
100
AcDbPolyFaceMeshVertex
 10
906.0
 20
100.0
 30
129.0
 70
   192
  0
VERTEX
  5
201
330
EB
100
AcDbEntity
  8
ｴｸｽﾃﾘｱ商品
 62
   250
370
    20
100
AcDbVertex
100
AcDbPolyFaceMeshVertex
 10
903.4118095489748
 20
100.3407417371093
 30
129.0
 70
   192
  0
VERTEX
  5
202
330
EB
100
AcDbEntity
  8
ｴｸｽﾃﾘｱ商品
 62
   250
370
    20
100
AcDbVertex
100
AcDbPolyFaceMeshVertex
 10
901.0
 20
101.3397459621556
 30
129.0
 70
   192
  0
VERTEX
  5
203
330
EB
100
AcDbEntity
  8
ｴｸｽﾃﾘｱ商品
 62
   250
370
    20
100
AcDbVertex
100
AcDbPolyFaceMeshVertex
 10
898.9289321881345
 20
102.9289321881345
 30
129.0
 70
   192
  0
VERTEX
  5
204
330
EB
100
AcDbEntity
  8
ｴｸｽﾃﾘｱ商品
 62
   250
370
    20
100
AcDbVertex
100
AcDbPolyFaceMeshVertex
 10
897.3397459621556
 20
105.0
 30
129.0
 70
   192
  0
VERTEX
  5
205
330
EB
100
AcDbEntity
  8
ｴｸｽﾃﾘｱ商品
 62
   250
370
    20
100
AcDbVertex
100
AcDbPolyFaceMeshVertex
 10
896.3407417371093
 20
107.4118095489748
 30
169.0
 70
   192
  0
VERTEX
  5
206
330
EB
100
AcDbEntity
  8
ｴｸｽﾃﾘｱ商品
 62
   250
370
    20
100
AcDbVertex
100
AcDbPolyFaceMeshVertex
 10
897.3397459621556
 20
105.0
 30
169.0
 70
   192
  0
VERTEX
  5
207
330
EB
100
AcDbEntity
  8
ｴｸｽﾃﾘｱ商品
 62
   250
370
    20
100
AcDbVertex
100
AcDbPolyFaceMeshVertex
 10
898.9289321881345
 20
102.9289321881345
 30
169.0
 70
   192
  0
VERTEX
  5
208
330
EB
100
AcDbEntity
  8
ｴｸｽﾃﾘｱ商品
 62
   250
370
    20
100
AcDbVertex
100
AcDbPolyFaceMeshVertex
 10
901.0
 20
101.3397459621556
 30
169.0
 70
   192
  0
VERTEX
  5
209
330
EB
100
AcDbEntity
  8
ｴｸｽﾃﾘｱ商品
 62
   250
370
    20
100
AcDbVertex
100
AcDbPolyFaceMeshVertex
 10
903.4118095489748
 20
100.3407417371093
 30
169.0
 70
   192
  0
VERTEX
  5
20A
330
EB
100
AcDbEntity
  8
ｴｸｽﾃﾘｱ商品
 62
   250
370
    20
100
AcDbVertex
100
AcDbPolyFaceMeshVertex
 10
906.0
 20
100.0
 30
169.0
 70
   192
  0
VERTEX
  5
20B
330
EB
100
AcDbEntity
  8
ｴｸｽﾃﾘｱ商品
 62
   250
370
    20
100
AcDbVertex
100
AcDbPolyFaceMeshVertex
 10
908.5881904510252
 20
100.3407417371093
 30
169.0
 70
   192
  0
VERTEX
  5
20C
330
EB
100
AcDbEntity
  8
ｴｸｽﾃﾘｱ商品
 62
   250
370
    20
100
AcDbVertex
100
AcDbPolyFaceMeshVertex
 10
911.0
 20
101.3397459621556
 30
169.0
 70
   192
  0
VERTEX
  5
20D
330
EB
100
AcDbEntity
  8
ｴｸｽﾃﾘｱ商品
 62
   250
370
    20
100
AcDbVertex
100
AcDbPolyFaceMeshVertex
 10
913.0710678118655
 20
102.9289321881345
 30
169.0
 70
   192
  0
VERTEX
  5
20E
330
EB
100
AcDbEntity
  8
ｴｸｽﾃﾘｱ商品
 62
   250
370
    20
100
AcDbVertex
100
AcDbPolyFaceMeshVertex
 10
914.6602540378444
 20
105.0
 30
169.0
 70
   192
  0
VERTEX
  5
20F
330
EB
100
AcDbEntity
  8
ｴｸｽﾃﾘｱ商品
 62
   250
370
    20
100
AcDbVertex
100
AcDbPolyFaceMeshVertex
 10
915.6592582628907
 20
107.4118095489748
 30
169.0
 70
   192
  0
VERTEX
  5
210
330
EB
100
AcDbEntity
  8
ｴｸｽﾃﾘｱ商品
 62
   250
370
    20
100
AcDbVertex
100
AcDbPolyFaceMeshVertex
 10
916.0
 20
110.0
 30
169.0
 70
   192
  0
VERTEX
  5
211
330
EB
100
AcDbEntity
  8
ｴｸｽﾃﾘｱ商品
 62
   250
370
    20
100
AcDbVertex
100
AcDbPolyFaceMeshVertex
 10
915.6592582628907
 20
112.5881904510252
 30
169.0
 70
   192
  0
VERTEX
  5
212
330
EB
100
AcDbEntity
  8
ｴｸｽﾃﾘｱ商品
 62
   250
370
    20
100
AcDbVertex
100
AcDbPolyFaceMeshVertex
 10
914.6602540378444
 20
115.0
 30
169.0
 70
   192
  0
VERTEX
  5
213
330
EB
100
AcDbEntity
  8
ｴｸｽﾃﾘｱ商品
 62
   250
370
    20
100
AcDbVertex
100
AcDbPolyFaceMeshVertex
 10
913.0710678118655
 20
117.0710678118655
 30
169.0
 70
   192
  0
VERTEX
  5
214
330
EB
100
AcDbEntity
  8
ｴｸｽﾃﾘｱ商品
 62
   250
370
    20
100
AcDbVertex
100
AcDbPolyFaceMeshVertex
 10
911.0
 20
118.6602540378444
 30
169.0
 70
   192
  0
VERTEX
  5
215
330
EB
100
AcDbEntity
  8
ｴｸｽﾃﾘｱ商品
 62
   250
370
    20
100
AcDbVertex
100
AcDbPolyFaceMeshVertex
 10
908.5881904510252
 20
119.6592582628907
 30
169.0
 70
   192
  0
VERTEX
  5
216
330
EB
100
AcDbEntity
  8
ｴｸｽﾃﾘｱ商品
 62
   250
370
    20
100
AcDbVertex
100
AcDbPolyFaceMeshVertex
 10
906.0
 20
120.0
 30
169.0
 70
   192
  0
VERTEX
  5
217
330
EB
100
AcDbEntity
  8
ｴｸｽﾃﾘｱ商品
 62
   250
370
    20
100
AcDbVertex
100
AcDbPolyFaceMeshVertex
 10
903.4118095489748
 20
119.6592582628907
 30
169.0
 70
   192
  0
VERTEX
  5
218
330
EB
100
AcDbEntity
  8
ｴｸｽﾃﾘｱ商品
 62
   250
370
    20
100
AcDbVertex
100
AcDbPolyFaceMeshVertex
 10
901.0
 20
118.6602540378444
 30
169.0
 70
   192
  0
VERTEX
  5
219
330
EB
100
AcDbEntity
  8
ｴｸｽﾃﾘｱ商品
 62
   250
370
    20
100
AcDbVertex
100
AcDbPolyFaceMeshVertex
 10
898.9289321881345
 20
117.0710678118655
 30
169.0
 70
   192
  0
VERTEX
  5
21A
330
EB
100
AcDbEntity
  8
ｴｸｽﾃﾘｱ商品
 62
   250
370
    20
100
AcDbVertex
100
AcDbPolyFaceMeshVertex
 10
897.3397459621556
 20
115.0
 30
169.0
 70
   192
  0
VERTEX
  5
21B
330
EB
100
AcDbEntity
  8
ｴｸｽﾃﾘｱ商品
 62
   250
370
    20
100
AcDbVertex
100
AcDbPolyFaceMeshVertex
 10
896.3407417371093
 20
112.5881904510252
 30
169.0
 70
   192
  0
VERTEX
  5
21C
330
EB
100
AcDbEntity
  8
ｴｸｽﾃﾘｱ商品
 62
   250
370
    20
100
AcDbVertex
100
AcDbPolyFaceMeshVertex
 10
896.0
 20
110.0
 30
169.0
 70
   192
  0
VERTEX
  5
21D
330
EB
100
AcDbEntity
  8
ｴｸｽﾃﾘｱ商品
 62
   250
370
    20
100
AcDbVertex
100
AcDbPolyFaceMeshVertex
 10
986.0
 20
105.0
 30
129.0
 70
   192
  0
VERTEX
  5
21E
330
EB
100
AcDbEntity
  8
ｴｸｽﾃﾘｱ商品
 62
   250
370
    20
100
AcDbVertex
100
AcDbPolyFaceMeshVertex
 10
986.0
 20
105.0
 30
169.0
 70
   192
  0
VERTEX
  5
21F
330
EB
100
AcDbEntity
  8
ｴｸｽﾃﾘｱ商品
 62
   250
370
    20
100
AcDbVertex
100
AcDbPolyFaceMeshVertex
 10
915.9999999999999
 20
105.0
 30
169.0
 70
   192
  0
VERTEX
  5
220
330
EB
100
AcDbEntity
  8
ｴｸｽﾃﾘｱ商品
 62
   250
370
    20
100
AcDbVertex
100
AcDbPolyFaceMeshVertex
 10
915.9999999999999
 20
105.0
 30
129.0
 70
   192
  0
VERTEX
  5
221
330
EB
100
AcDbEntity
  8
ｴｸｽﾃﾘｱ商品
 62
   250
370
    20
100
AcDbVertex
100
AcDbPolyFaceMeshVertex
 10
915.9999999999999
 20
115.0
 30
169.0
 70
   192
  0
VERTEX
  5
222
330
EB
100
AcDbEntity
  8
ｴｸｽﾃﾘｱ商品
 62
   250
370
    20
100
AcDbVertex
100
AcDbPolyFaceMeshVertex
 10
915.9999999999999
 20
115.0
 30
129.0
 70
   192
  0
VERTEX
  5
223
330
EB
100
AcDbEntity
  8
ｴｸｽﾃﾘｱ商品
 62
   250
370
    20
100
AcDbVertex
100
AcDbPolyFaceMeshVertex
 10
930.9999999999999
 20
115.0
 30
169.0
 70
   192
  0
VERTEX
  5
224
330
EB
100
AcDbEntity
  8
ｴｸｽﾃﾘｱ商品
 62
   250
370
    20
100
AcDbVertex
100
AcDbPolyFaceMeshVertex
 10
930.9999999999999
 20
115.0
 30
129.0
 70
   192
  0
VERTEX
  5
225
330
EB
100
AcDbEntity
  8
ｴｸｽﾃﾘｱ商品
 62
   250
370
    20
100
AcDbVertex
100
AcDbPolyFaceMeshVertex
 10
930.9999999999999
 20
130.0
 30
169.0
 70
   192
  0
VERTEX
  5
226
330
EB
100
AcDbEntity
  8
ｴｸｽﾃﾘｱ商品
 62
   250
370
    20
100
AcDbVertex
100
AcDbPolyFaceMeshVertex
 10
930.9999999999999
 20
130.0
 30
129.0
 70
   192
  0
VERTEX
  5
227
330
EB
100
AcDbEntity
  8
ｴｸｽﾃﾘｱ商品
 62
   250
370
    20
100
AcDbVertex
100
AcDbPolyFaceMeshVertex
 10
968.602
 20
130.0
 30
169.0
 70
   192
  0
VERTEX
  5
228
330
EB
100
AcDbEntity
  8
ｴｸｽﾃﾘｱ商品
 62
   250
370
    20
100
AcDbVertex
100
AcDbPolyFaceMeshVertex
 10
968.602
 20
130.0
 30
129.0
 70
   192
  0
VERTEX
  5
229
330
EB
100
AcDbEntity
  8
ｴｸｽﾃﾘｱ商品
 62
   250
370
    20
100
AcDbVertex
100
AcDbPolyFaceMeshVertex
 10
986.0
 20
122.608
 30
169.0
 70
   192
  0
VERTEX
  5
22A
330
EB
100
AcDbEntity
  8
ｴｸｽﾃﾘｱ商品
 62
   250
370
    20
100
AcDbVertex
100
AcDbPolyFaceMeshVertex
 10
986.0
 20
122.608
 30
129.0
 70
   192
  0
VERTEX
  5
22B
330
EB
100
AcDbEntity
  8
ｴｸｽﾃﾘｱ商品
 62
   250
370
    20
100
AcDbVertex
100
AcDbPolyFaceMeshVertex
 10
980.226
 20
105.0
 30
119.0
 70
   192
  0
VERTEX
  5
22C
330
EB
100
AcDbEntity
  8
ｴｸｽﾃﾘｱ商品
 62
   250
370
    20
100
AcDbVertex
100
AcDbPolyFaceMeshVertex
 10
980.226
 20
100.0
 30
119.0
 70
   192
  0
VERTEX
  5
22D
330
EB
100
AcDbEntity
  8
ｴｸｽﾃﾘｱ商品
 62
   250
370
    20
100
AcDbVertex
100
AcDbPolyFaceMeshVertex
 10
936.774
 20
100.0
 30
119.0
 70
   192
  0
VERTEX
  5
22E
330
EB
100
AcDbEntity
  8
ｴｸｽﾃﾘｱ商品
 62
   250
370
    20
100
AcDbVertex
100
AcDbPolyFaceMeshVertex
 10
936.774
 20
105.0
 30
119.0
 70
   192
  0
VERTEX
  5
22F
330
EB
100
AcDbEntity
  8
ｴｸｽﾃﾘｱ商品
 62
   250
370
    20
100
AcDbVertex
100
AcDbPolyFaceMeshVertex
 10
930.9999999999999
 20
100.0
 30
129.0
 70
   192
  0
VERTEX
  5
230
330
EB
100
AcDbEntity
  8
ｴｸｽﾃﾘｱ商品
 62
   250
370
    20
100
AcDbVertex
100
AcDbPolyFaceMeshVertex
 10
930.9999999999999
 20
105.0
 30
129.0
 70
   192
  0
VERTEX
  5
231
330
EB
100
AcDbEntity
  8
ｴｸｽﾃﾘｱ商品
 62
   250
370
    20
100
AcDbVertex
100
AcDbPolyFaceMeshVertex
 10
930.9999999999999
 20
100.0
 30
169.0
 70
   192
  0
VERTEX
  5
232
330
EB
100
AcDbEntity
  8
ｴｸｽﾃﾘｱ商品
 62
   250
370
    20
100
AcDbVertex
100
AcDbPolyFaceMeshVertex
 10
930.9999999999999
 20
105.0
 30
169.0
 70
   192
  0
VERTEX
  5
233
330
EB
100
AcDbEntity
  8
ｴｸｽﾃﾘｱ商品
 62
   250
370
    20
100
AcDbVertex
100
AcDbPolyFaceMeshVertex
 10
936.774
 20
100.0
 30
179.0000000000001
 70
   192
  0
VERTEX
  5
234
330
EB
100
AcDbEntity
  8
ｴｸｽﾃﾘｱ商品
 62
   250
370
    20
100
AcDbVertex
100
AcDbPolyFaceMeshVertex
 10
936.774
 20
105.0
 30
179.0000000000001
 70
   192
  0
VERTEX
  5
235
330
EB
100
AcDbEntity
  8
ｴｸｽﾃﾘｱ商品
 62
   250
370
    20
100
AcDbVertex
100
AcDbPolyFaceMeshVertex
 10
980.226
 20
100.0
 30
179.0000000000001
 70
   192
  0
VERTEX
  5
236
330
EB
100
AcDbEntity
  8
ｴｸｽﾃﾘｱ商品
 62
   250
370
    20
100
AcDbVertex
100
AcDbPolyFaceMeshVertex
 10
980.226
 20
105.0
 30
179.0000000000001
 70
   192
  0
VERTEX
  5
237
330
EB
100
AcDbEntity
  8
ｴｸｽﾃﾘｱ商品
 62
   250
370
    20
100
AcDbVertex
100
AcDbPolyFaceMeshVertex
 10
986.0
 20
100.0
 30
169.0
 70
   192
  0
VERTEX
  5
238
330
EB
100
AcDbEntity
  8
ｴｸｽﾃﾘｱ商品
 62
   250
370
    20
100
AcDbVertex
100
AcDbPolyFaceMeshVertex
 10
986.0
 20
105.0
 30
169.0
 70
   192
  0
VERTEX
  5
239
330
EB
100
AcDbEntity
  8
ｴｸｽﾃﾘｱ商品
 62
   250
370
    20
100
AcDbVertex
100
AcDbPolyFaceMeshVertex
 10
986.0
 20
100.0
 30
129.0
 70
   192
  0
VERTEX
  5
23A
330
EB
100
AcDbEntity
  8
ｴｸｽﾃﾘｱ商品
 62
   250
370
    20
100
AcDbVertex
100
AcDbPolyFaceMeshVertex
 10
986.0
 20
105.0
 30
129.0
 70
   192
  0
VERTEX
  5
23B
330
EB
100
AcDbEntity
  8
ｴｸｽﾃﾘｱ商品
 62
   250
370
    20
100
AcDbVertex
100
AcDbPolyFaceMeshVertex
 10
896.3407417371093
 20
107.4118095489748
 30
1739.0
 70
   192
  0
VERTEX
  5
23C
330
EB
100
AcDbEntity
  8
ｴｸｽﾃﾘｱ商品
 62
   250
370
    20
100
AcDbVertex
100
AcDbPolyFaceMeshVertex
 10
896.0
 20
110.0
 30
1739.0
 70
   192
  0
VERTEX
  5
23D
330
EB
100
AcDbEntity
  8
ｴｸｽﾃﾘｱ商品
 62
   250
370
    20
100
AcDbVertex
100
AcDbPolyFaceMeshVertex
 10
896.3407417371093
 20
112.5881904510252
 30
1739.0
 70
   192
  0
VERTEX
  5
23E
330
EB
100
AcDbEntity
  8
ｴｸｽﾃﾘｱ商品
 62
   250
370
    20
100
AcDbVertex
100
AcDbPolyFaceMeshVertex
 10
897.3397459621556
 20
115.0
 30
1739.0
 70
   192
  0
VERTEX
  5
23F
330
EB
100
AcDbEntity
  8
ｴｸｽﾃﾘｱ商品
 62
   250
370
    20
100
AcDbVertex
100
AcDbPolyFaceMeshVertex
 10
898.9289321881345
 20
117.0710678118655
 30
1739.0
 70
   192
  0
VERTEX
  5
240
330
EB
100
AcDbEntity
  8
ｴｸｽﾃﾘｱ商品
 62
   250
370
    20
100
AcDbVertex
100
AcDbPolyFaceMeshVertex
 10
901.0
 20
118.6602540378444
 30
1739.0
 70
   192
  0
VERTEX
  5
241
330
EB
100
AcDbEntity
  8
ｴｸｽﾃﾘｱ商品
 62
   250
370
    20
100
AcDbVertex
100
AcDbPolyFaceMeshVertex
 10
903.4118095489748
 20
119.6592582628907
 30
1739.0
 70
   192
  0
VERTEX
  5
242
330
EB
100
AcDbEntity
  8
ｴｸｽﾃﾘｱ商品
 62
   250
370
    20
100
AcDbVertex
100
AcDbPolyFaceMeshVertex
 10
906.0
 20
120.0
 30
1739.0
 70
   192
  0
VERTEX
  5
243
330
EB
100
AcDbEntity
  8
ｴｸｽﾃﾘｱ商品
 62
   250
370
    20
100
AcDbVertex
100
AcDbPolyFaceMeshVertex
 10
908.5881904510252
 20
119.6592582628907
 30
1739.0
 70
   192
  0
VERTEX
  5
244
330
EB
100
AcDbEntity
  8
ｴｸｽﾃﾘｱ商品
 62
   250
370
    20
100
AcDbVertex
100
AcDbPolyFaceMeshVertex
 10
911.0
 20
118.6602540378444
 30
1739.0
 70
   192
  0
VERTEX
  5
245
330
EB
100
AcDbEntity
  8
ｴｸｽﾃﾘｱ商品
 62
   250
370
    20
100
AcDbVertex
100
AcDbPolyFaceMeshVertex
 10
913.0710678118655
 20
117.0710678118655
 30
1739.0
 70
   192
  0
VERTEX
  5
246
330
EB
100
AcDbEntity
  8
ｴｸｽﾃﾘｱ商品
 62
   250
370
    20
100
AcDbVertex
100
AcDbPolyFaceMeshVertex
 10
914.6602540378444
 20
115.0
 30
1739.0
 70
   192
  0
VERTEX
  5
247
330
EB
100
AcDbEntity
  8
ｴｸｽﾃﾘｱ商品
 62
   250
370
    20
100
AcDbVertex
100
AcDbPolyFaceMeshVertex
 10
915.6592582628907
 20
112.5881904510252
 30
1739.0
 70
   192
  0
VERTEX
  5
248
330
EB
100
AcDbEntity
  8
ｴｸｽﾃﾘｱ商品
 62
   250
370
    20
100
AcDbVertex
100
AcDbPolyFaceMeshVertex
 10
916.0
 20
110.0
 30
1739.0
 70
   192
  0
VERTEX
  5
249
330
EB
100
AcDbEntity
  8
ｴｸｽﾃﾘｱ商品
 62
   250
370
    20
100
AcDbVertex
100
AcDbPolyFaceMeshVertex
 10
915.6592582628907
 20
107.4118095489748
 30
1739.0
 70
   192
  0
VERTEX
  5
24A
330
EB
100
AcDbEntity
  8
ｴｸｽﾃﾘｱ商品
 62
   250
370
    20
100
AcDbVertex
100
AcDbPolyFaceMeshVertex
 10
914.6602540378444
 20
105.0
 30
1739.0
 70
   192
  0
VERTEX
  5
24B
330
EB
100
AcDbEntity
  8
ｴｸｽﾃﾘｱ商品
 62
   250
370
    20
100
AcDbVertex
100
AcDbPolyFaceMeshVertex
 10
913.0710678118655
 20
102.9289321881345
 30
1739.0
 70
   192
  0
VERTEX
  5
24C
330
EB
100
AcDbEntity
  8
ｴｸｽﾃﾘｱ商品
 62
   250
370
    20
100
AcDbVertex
100
AcDbPolyFaceMeshVertex
 10
911.0
 20
101.3397459621556
 30
1739.0
 70
   192
  0
VERTEX
  5
24D
330
EB
100
AcDbEntity
  8
ｴｸｽﾃﾘｱ商品
 62
   250
370
    20
100
AcDbVertex
100
AcDbPolyFaceMeshVertex
 10
908.5881904510252
 20
100.3407417371093
 30
1739.0
 70
   192
  0
VERTEX
  5
24E
330
EB
100
AcDbEntity
  8
ｴｸｽﾃﾘｱ商品
 62
   250
370
    20
100
AcDbVertex
100
AcDbPolyFaceMeshVertex
 10
906.0
 20
100.0
 30
1739.0
 70
   192
  0
VERTEX
  5
24F
330
EB
100
AcDbEntity
  8
ｴｸｽﾃﾘｱ商品
 62
   250
370
    20
100
AcDbVertex
100
AcDbPolyFaceMeshVertex
 10
903.4118095489748
 20
100.3407417371093
 30
1739.0
 70
   192
  0
VERTEX
  5
250
330
EB
100
AcDbEntity
  8
ｴｸｽﾃﾘｱ商品
 62
   250
370
    20
100
AcDbVertex
100
AcDbPolyFaceMeshVertex
 10
901.0
 20
101.3397459621556
 30
1739.0
 70
   192
  0
VERTEX
  5
251
330
EB
100
AcDbEntity
  8
ｴｸｽﾃﾘｱ商品
 62
   250
370
    20
100
AcDbVertex
100
AcDbPolyFaceMeshVertex
 10
898.9289321881345
 20
102.9289321881345
 30
1739.0
 70
   192
  0
VERTEX
  5
252
330
EB
100
AcDbEntity
  8
ｴｸｽﾃﾘｱ商品
 62
   250
370
    20
100
AcDbVertex
100
AcDbPolyFaceMeshVertex
 10
897.3397459621556
 20
105.0
 30
1739.0
 70
   192
  0
VERTEX
  5
253
330
EB
100
AcDbEntity
  8
ｴｸｽﾃﾘｱ商品
 62
   250
370
    20
100
AcDbVertex
100
AcDbPolyFaceMeshVertex
 10
896.3407417371093
 20
107.4118095489748
 30
1789.0
 70
   192
  0
VERTEX
  5
254
330
EB
100
AcDbEntity
  8
ｴｸｽﾃﾘｱ商品
 62
   250
370
    20
100
AcDbVertex
100
AcDbPolyFaceMeshVertex
 10
897.3397459621556
 20
105.0
 30
1789.0
 70
   192
  0
VERTEX
  5
255
330
EB
100
AcDbEntity
  8
ｴｸｽﾃﾘｱ商品
 62
   250
370
    20
100
AcDbVertex
100
AcDbPolyFaceMeshVertex
 10
898.9289321881345
 20
102.9289321881345
 30
1789.0
 70
   192
  0
VERTEX
  5
256
330
EB
100
AcDbEntity
  8
ｴｸｽﾃﾘｱ商品
 62
   250
370
    20
100
AcDbVertex
100
AcDbPolyFaceMeshVertex
 10
901.0
 20
101.3397459621556
 30
1789.0
 70
   192
  0
VERTEX
  5
257
330
EB
100
AcDbEntity
  8
ｴｸｽﾃﾘｱ商品
 62
   250
370
    20
100
AcDbVertex
100
AcDbPolyFaceMeshVertex
 10
903.4118095489748
 20
100.3407417371093
 30
1789.0
 70
   192
  0
VERTEX
  5
258
330
EB
100
AcDbEntity
  8
ｴｸｽﾃﾘｱ商品
 62
   250
370
    20
100
AcDbVertex
100
AcDbPolyFaceMeshVertex
 10
906.0
 20
100.0
 30
1789.0
 70
   192
  0
VERTEX
  5
259
330
EB
100
AcDbEntity
  8
ｴｸｽﾃﾘｱ商品
 62
   250
370
    20
100
AcDbVertex
100
AcDbPolyFaceMeshVertex
 10
908.5881904510252
 20
100.3407417371093
 30
1789.0
 70
   192
  0
VERTEX
  5
25A
330
EB
100
AcDbEntity
  8
ｴｸｽﾃﾘｱ商品
 62
   250
370
    20
100
AcDbVertex
100
AcDbPolyFaceMeshVertex
 10
911.0
 20
101.3397459621556
 30
1789.0
 70
   192
  0
VERTEX
  5
25B
330
EB
100
AcDbEntity
  8
ｴｸｽﾃﾘｱ商品
 62
   250
370
    20
100
AcDbVertex
100
AcDbPolyFaceMeshVertex
 10
913.0710678118655
 20
102.9289321881345
 30
1789.0
 70
   192
  0
VERTEX
  5
25C
330
EB
100
AcDbEntity
  8
ｴｸｽﾃﾘｱ商品
 62
   250
370
    20
100
AcDbVertex
100
AcDbPolyFaceMeshVertex
 10
914.6602540378444
 20
105.0
 30
1789.0
 70
   192
  0
VERTEX
  5
25D
330
EB
100
AcDbEntity
  8
ｴｸｽﾃﾘｱ商品
 62
   250
370
    20
100
AcDbVertex
100
AcDbPolyFaceMeshVertex
 10
915.6592582628907
 20
107.4118095489748
 30
1789.0
 70
   192
  0
VERTEX
  5
25E
330
EB
100
AcDbEntity
  8
ｴｸｽﾃﾘｱ商品
 62
   250
370
    20
100
AcDbVertex
100
AcDbPolyFaceMeshVertex
 10
916.0
 20
110.0
 30
1789.0
 70
   192
  0
VERTEX
  5
25F
330
EB
100
AcDbEntity
  8
ｴｸｽﾃﾘｱ商品
 62
   250
370
    20
100
AcDbVertex
100
AcDbPolyFaceMeshVertex
 10
915.6592582628907
 20
112.5881904510252
 30
1789.0
 70
   192
  0
VERTEX
  5
260
330
EB
100
AcDbEntity
  8
ｴｸｽﾃﾘｱ商品
 62
   250
370
    20
100
AcDbVertex
100
AcDbPolyFaceMeshVertex
 10
914.6602540378444
 20
115.0
 30
1789.0
 70
   192
  0
VERTEX
  5
261
330
EB
100
AcDbEntity
  8
ｴｸｽﾃﾘｱ商品
 62
   250
370
    20
100
AcDbVertex
100
AcDbPolyFaceMeshVertex
 10
913.0710678118655
 20
117.0710678118655
 30
1789.0
 70
   192
  0
VERTEX
  5
262
330
EB
100
AcDbEntity
  8
ｴｸｽﾃﾘｱ商品
 62
   250
370
    20
100
AcDbVertex
100
AcDbPolyFaceMeshVertex
 10
911.0
 20
118.6602540378444
 30
1789.0
 70
   192
  0
VERTEX
  5
263
330
EB
100
AcDbEntity
  8
ｴｸｽﾃﾘｱ商品
 62
   250
370
    20
100
AcDbVertex
100
AcDbPolyFaceMeshVertex
 10
908.5881904510252
 20
119.6592582628907
 30
1789.0
 70
   192
  0
VERTEX
  5
264
330
EB
100
AcDbEntity
  8
ｴｸｽﾃﾘｱ商品
 62
   250
370
    20
100
AcDbVertex
100
AcDbPolyFaceMeshVertex
 10
906.0
 20
120.0
 30
1789.0
 70
   192
  0
VERTEX
  5
265
330
EB
100
AcDbEntity
  8
ｴｸｽﾃﾘｱ商品
 62
   250
370
    20
100
AcDbVertex
100
AcDbPolyFaceMeshVertex
 10
903.4118095489748
 20
119.6592582628907
 30
1789.0
 70
   192
  0
VERTEX
  5
266
330
EB
100
AcDbEntity
  8
ｴｸｽﾃﾘｱ商品
 62
   250
370
    20
100
AcDbVertex
100
AcDbPolyFaceMeshVertex
 10
901.0
 20
118.6602540378444
 30
1789.0
 70
   192
  0
VERTEX
  5
267
330
EB
100
AcDbEntity
  8
ｴｸｽﾃﾘｱ商品
 62
   250
370
    20
100
AcDbVertex
100
AcDbPolyFaceMeshVertex
 10
898.9289321881345
 20
117.0710678118655
 30
1789.0
 70
   192
  0
VERTEX
  5
268
330
EB
100
AcDbEntity
  8
ｴｸｽﾃﾘｱ商品
 62
   250
370
    20
100
AcDbVertex
100
AcDbPolyFaceMeshVertex
 10
897.3397459621556
 20
115.0
 30
1789.0
 70
   192
  0
VERTEX
  5
269
330
EB
100
AcDbEntity
  8
ｴｸｽﾃﾘｱ商品
 62
   250
370
    20
100
AcDbVertex
100
AcDbPolyFaceMeshVertex
 10
896.3407417371093
 20
112.5881904510252
 30
1789.0
 70
   192
  0
VERTEX
  5
26A
330
EB
100
AcDbEntity
  8
ｴｸｽﾃﾘｱ商品
 62
   250
370
    20
100
AcDbVertex
100
AcDbPolyFaceMeshVertex
 10
896.0
 20
110.0
 30
1789.0
 70
   192
  0
VERTEX
  5
26B
330
EB
100
AcDbEntity
  8
ｴｸｽﾃﾘｱ商品
 62
   250
370
    20
100
AcDbVertex
100
AcDbPolyFaceMeshVertex
 10
896.3407417371093
 20
107.4118095489748
 30
1699.0
 70
   192
  0
VERTEX
  5
26C
330
EB
100
AcDbEntity
  8
ｴｸｽﾃﾘｱ商品
 62
   250
370
    20
100
AcDbVertex
100
AcDbPolyFaceMeshVertex
 10
896.0
 20
110.0
 30
1699.0
 70
   192
  0
VERTEX
  5
26D
330
EB
100
AcDbEntity
  8
ｴｸｽﾃﾘｱ商品
 62
   250
370
    20
100
AcDbVertex
100
AcDbPolyFaceMeshVertex
 10
896.3407417371093
 20
112.5881904510252
 30
1699.0
 70
   192
  0
VERTEX
  5
26E
330
EB
100
AcDbEntity
  8
ｴｸｽﾃﾘｱ商品
 62
   250
370
    20
100
AcDbVertex
100
AcDbPolyFaceMeshVertex
 10
897.3397459621556
 20
115.0
 30
1699.0
 70
   192
  0
VERTEX
  5
26F
330
EB
100
AcDbEntity
  8
ｴｸｽﾃﾘｱ商品
 62
   250
370
    20
100
AcDbVertex
100
AcDbPolyFaceMeshVertex
 10
898.9289321881345
 20
117.0710678118655
 30
1699.0
 70
   192
  0
VERTEX
  5
270
330
EB
100
AcDbEntity
  8
ｴｸｽﾃﾘｱ商品
 62
   250
370
    20
100
AcDbVertex
100
AcDbPolyFaceMeshVertex
 10
901.0
 20
118.6602540378444
 30
1699.0
 70
   192
  0
VERTEX
  5
271
330
EB
100
AcDbEntity
  8
ｴｸｽﾃﾘｱ商品
 62
   250
370
    20
100
AcDbVertex
100
AcDbPolyFaceMeshVertex
 10
903.4118095489748
 20
119.6592582628907
 30
1699.0
 70
   192
  0
VERTEX
  5
272
330
EB
100
AcDbEntity
  8
ｴｸｽﾃﾘｱ商品
 62
   250
370
    20
100
AcDbVertex
100
AcDbPolyFaceMeshVertex
 10
906.0
 20
120.0
 30
1699.0
 70
   192
  0
VERTEX
  5
273
330
EB
100
AcDbEntity
  8
ｴｸｽﾃﾘｱ商品
 62
   250
370
    20
100
AcDbVertex
100
AcDbPolyFaceMeshVertex
 10
908.5881904510252
 20
119.6592582628907
 30
1699.0
 70
   192
  0
VERTEX
  5
274
330
EB
100
AcDbEntity
  8
ｴｸｽﾃﾘｱ商品
 62
   250
370
    20
100
AcDbVertex
100
AcDbPolyFaceMeshVertex
 10
911.0
 20
118.6602540378444
 30
1699.0
 70
   192
  0
VERTEX
  5
275
330
EB
100
AcDbEntity
  8
ｴｸｽﾃﾘｱ商品
 62
   250
370
    20
100
AcDbVertex
100
AcDbPolyFaceMeshVertex
 10
913.0710678118655
 20
117.0710678118655
 30
1699.0
 70
   192
  0
VERTEX
  5
276
330
EB
100
AcDbEntity
  8
ｴｸｽﾃﾘｱ商品
 62
   250
370
    20
100
AcDbVertex
100
AcDbPolyFaceMeshVertex
 10
914.6602540378444
 20
115.0
 30
1699.0
 70
   192
  0
VERTEX
  5
277
330
EB
100
AcDbEntity
  8
ｴｸｽﾃﾘｱ商品
 62
   250
370
    20
100
AcDbVertex
100
AcDbPolyFaceMeshVertex
 10
915.6592582628907
 20
112.5881904510252
 30
1699.0
 70
   192
  0
VERTEX
  5
278
330
EB
100
AcDbEntity
  8
ｴｸｽﾃﾘｱ商品
 62
   250
370
    20
100
AcDbVertex
100
AcDbPolyFaceMeshVertex
 10
916.0
 20
110.0
 30
1699.0
 70
   192
  0
VERTEX
  5
279
330
EB
100
AcDbEntity
  8
ｴｸｽﾃﾘｱ商品
 62
   250
370
    20
100
AcDbVertex
100
AcDbPolyFaceMeshVertex
 10
915.6592582628907
 20
107.4118095489748
 30
1699.0
 70
   192
  0
VERTEX
  5
27A
330
EB
100
AcDbEntity
  8
ｴｸｽﾃﾘｱ商品
 62
   250
370
    20
100
AcDbVertex
100
AcDbPolyFaceMeshVertex
 10
914.6602540378444
 20
105.0
 30
1699.0
 70
   192
  0
VERTEX
  5
27B
330
EB
100
AcDbEntity
  8
ｴｸｽﾃﾘｱ商品
 62
   250
370
    20
100
AcDbVertex
100
AcDbPolyFaceMeshVertex
 10
913.0710678118655
 20
102.9289321881345
 30
1699.0
 70
   192
  0
VERTEX
  5
27C
330
EB
100
AcDbEntity
  8
ｴｸｽﾃﾘｱ商品
 62
   250
370
    20
100
AcDbVertex
100
AcDbPolyFaceMeshVertex
 10
911.0
 20
101.3397459621556
 30
1699.0
 70
   192
  0
VERTEX
  5
27D
330
EB
100
AcDbEntity
  8
ｴｸｽﾃﾘｱ商品
 62
   250
370
    20
100
AcDbVertex
100
AcDbPolyFaceMeshVertex
 10
908.5881904510252
 20
100.3407417371093
 30
1699.0
 70
   192
  0
VERTEX
  5
27E
330
EB
100
AcDbEntity
  8
ｴｸｽﾃﾘｱ商品
 62
   250
370
    20
100
AcDbVertex
100
AcDbPolyFaceMeshVertex
 10
906.0
 20
100.0
 30
1699.0
 70
   192
  0
VERTEX
  5
27F
330
EB
100
AcDbEntity
  8
ｴｸｽﾃﾘｱ商品
 62
   250
370
    20
100
AcDbVertex
100
AcDbPolyFaceMeshVertex
 10
903.4118095489748
 20
100.3407417371093
 30
1699.0
 70
   192
  0
VERTEX
  5
280
330
EB
100
AcDbEntity
  8
ｴｸｽﾃﾘｱ商品
 62
   250
370
    20
100
AcDbVertex
100
AcDbPolyFaceMeshVertex
 10
901.0
 20
101.3397459621556
 30
1699.0
 70
   192
  0
VERTEX
  5
281
330
EB
100
AcDbEntity
  8
ｴｸｽﾃﾘｱ商品
 62
   250
370
    20
100
AcDbVertex
100
AcDbPolyFaceMeshVertex
 10
898.9289321881345
 20
102.9289321881345
 30
1699.0
 70
   192
  0
VERTEX
  5
282
330
EB
100
AcDbEntity
  8
ｴｸｽﾃﾘｱ商品
 62
   250
370
    20
100
AcDbVertex
100
AcDbPolyFaceMeshVertex
 10
897.3397459621556
 20
105.0
 30
1699.0
 70
   192
  0
VERTEX
  5
283
330
EB
100
AcDbEntity
  8
ｴｸｽﾃﾘｱ商品
 62
   250
370
    20
100
AcDbVertex
100
AcDbPolyFaceMeshVertex
 10
896.3407417371093
 20
107.4118095489748
 30
1739.0
 70
   192
  0
VERTEX
  5
284
330
EB
100
AcDbEntity
  8
ｴｸｽﾃﾘｱ商品
 62
   250
370
    20
100
AcDbVertex
100
AcDbPolyFaceMeshVertex
 10
897.3397459621556
 20
105.0
 30
1739.0
 70
   192
  0
VERTEX
  5
285
330
EB
100
AcDbEntity
  8
ｴｸｽﾃﾘｱ商品
 62
   250
370
    20
100
AcDbVertex
100
AcDbPolyFaceMeshVertex
 10
898.9289321881345
 20
102.9289321881345
 30
1739.0
 70
   192
  0
VERTEX
  5
286
330
EB
100
AcDbEntity
  8
ｴｸｽﾃﾘｱ商品
 62
   250
370
    20
100
AcDbVertex
100
AcDbPolyFaceMeshVertex
 10
901.0
 20
101.3397459621556
 30
1739.0
 70
   192
  0
VERTEX
  5
287
330
EB
100
AcDbEntity
  8
ｴｸｽﾃﾘｱ商品
 62
   250
370
    20
100
AcDbVertex
100
AcDbPolyFaceMeshVertex
 10
903.4118095489748
 20
100.3407417371093
 30
1739.0
 70
   192
  0
VERTEX
  5
288
330
EB
100
AcDbEntity
  8
ｴｸｽﾃﾘｱ商品
 62
   250
370
    20
100
AcDbVertex
100
AcDbPolyFaceMeshVertex
 10
906.0
 20
100.0
 30
1739.0
 70
   192
  0
VERTEX
  5
289
330
EB
100
AcDbEntity
  8
ｴｸｽﾃﾘｱ商品
 62
   250
370
    20
100
AcDbVertex
100
AcDbPolyFaceMeshVertex
 10
908.5881904510252
 20
100.3407417371093
 30
1739.0
 70
   192
  0
VERTEX
  5
28A
330
EB
100
AcDbEntity
  8
ｴｸｽﾃﾘｱ商品
 62
   250
370
    20
100
AcDbVertex
100
AcDbPolyFaceMeshVertex
 10
911.0
 20
101.3397459621556
 30
1739.0
 70
   192
  0
VERTEX
  5
28B
330
EB
100
AcDbEntity
  8
ｴｸｽﾃﾘｱ商品
 62
   250
370
    20
100
AcDbVertex
100
AcDbPolyFaceMeshVertex
 10
913.0710678118655
 20
102.9289321881345
 30
1739.0
 70
   192
  0
VERTEX
  5
28C
330
EB
100
AcDbEntity
  8
ｴｸｽﾃﾘｱ商品
 62
   250
370
    20
100
AcDbVertex
100
AcDbPolyFaceMeshVertex
 10
914.6602540378444
 20
105.0
 30
1739.0
 70
   192
  0
VERTEX
  5
28D
330
EB
100
AcDbEntity
  8
ｴｸｽﾃﾘｱ商品
 62
   250
370
    20
100
AcDbVertex
100
AcDbPolyFaceMeshVertex
 10
915.6592582628907
 20
107.4118095489748
 30
1739.0
 70
   192
  0
VERTEX
  5
28E
330
EB
100
AcDbEntity
  8
ｴｸｽﾃﾘｱ商品
 62
   250
370
    20
100
AcDbVertex
100
AcDbPolyFaceMeshVertex
 10
916.0
 20
110.0
 30
1739.0
 70
   192
  0
VERTEX
  5
28F
330
EB
100
AcDbEntity
  8
ｴｸｽﾃﾘｱ商品
 62
   250
370
    20
100
AcDbVertex
100
AcDbPolyFaceMeshVertex
 10
915.6592582628907
 20
112.5881904510252
 30
1739.0
 70
   192
  0
VERTEX
  5
290
330
EB
100
AcDbEntity
  8
ｴｸｽﾃﾘｱ商品
 62
   250
370
    20
100
AcDbVertex
100
AcDbPolyFaceMeshVertex
 10
914.6602540378444
 20
115.0
 30
1739.0
 70
   192
  0
VERTEX
  5
291
330
EB
100
AcDbEntity
  8
ｴｸｽﾃﾘｱ商品
 62
   250
370
    20
100
AcDbVertex
100
AcDbPolyFaceMeshVertex
 10
913.0710678118655
 20
117.0710678118655
 30
1739.0
 70
   192
  0
VERTEX
  5
292
330
EB
100
AcDbEntity
  8
ｴｸｽﾃﾘｱ商品
 62
   250
370
    20
100
AcDbVertex
100
AcDbPolyFaceMeshVertex
 10
911.0
 20
118.6602540378444
 30
1739.0
 70
   192
  0
VERTEX
  5
293
330
EB
100
AcDbEntity
  8
ｴｸｽﾃﾘｱ商品
 62
   250
370
    20
100
AcDbVertex
100
AcDbPolyFaceMeshVertex
 10
908.5881904510252
 20
119.6592582628907
 30
1739.0
 70
   192
  0
VERTEX
  5
294
330
EB
100
AcDbEntity
  8
ｴｸｽﾃﾘｱ商品
 62
   250
370
    20
100
AcDbVertex
100
AcDbPolyFaceMeshVertex
 10
906.0
 20
120.0
 30
1739.0
 70
   192
  0
VERTEX
  5
295
330
EB
100
AcDbEntity
  8
ｴｸｽﾃﾘｱ商品
 62
   250
370
    20
100
AcDbVertex
100
AcDbPolyFaceMeshVertex
 10
903.4118095489748
 20
119.6592582628907
 30
1739.0
 70
   192
  0
VERTEX
  5
296
330
EB
100
AcDbEntity
  8
ｴｸｽﾃﾘｱ商品
 62
   250
370
    20
100
AcDbVertex
100
AcDbPolyFaceMeshVertex
 10
901.0
 20
118.6602540378444
 30
1739.0
 70
   192
  0
VERTEX
  5
297
330
EB
100
AcDbEntity
  8
ｴｸｽﾃﾘｱ商品
 62
   250
370
    20
100
AcDbVertex
100
AcDbPolyFaceMeshVertex
 10
898.9289321881345
 20
117.0710678118655
 30
1739.0
 70
   192
  0
VERTEX
  5
298
330
EB
100
AcDbEntity
  8
ｴｸｽﾃﾘｱ商品
 62
   250
370
    20
100
AcDbVertex
100
AcDbPolyFaceMeshVertex
 10
897.3397459621556
 20
115.0
 30
1739.0
 70
   192
  0
VERTEX
  5
299
330
EB
100
AcDbEntity
  8
ｴｸｽﾃﾘｱ商品
 62
   250
370
    20
100
AcDbVertex
100
AcDbPolyFaceMeshVertex
 10
896.3407417371093
 20
112.5881904510252
 30
1739.0
 70
   192
  0
VERTEX
  5
29A
330
EB
100
AcDbEntity
  8
ｴｸｽﾃﾘｱ商品
 62
   250
370
    20
100
AcDbVertex
100
AcDbPolyFaceMeshVertex
 10
896.0
 20
110.0
 30
1739.0
 70
   192
  0
VERTEX
  5
29B
330
EB
100
AcDbEntity
  8
ｴｸｽﾃﾘｱ商品
 62
   250
370
    20
100
AcDbVertex
100
AcDbPolyFaceMeshVertex
 10
986.0
 20
105.0
 30
1699.0
 70
   192
  0
VERTEX
  5
29C
330
EB
100
AcDbEntity
  8
ｴｸｽﾃﾘｱ商品
 62
   250
370
    20
100
AcDbVertex
100
AcDbPolyFaceMeshVertex
 10
986.0
 20
105.0
 30
1739.0
 70
   192
  0
VERTEX
  5
29D
330
EB
100
AcDbEntity
  8
ｴｸｽﾃﾘｱ商品
 62
   250
370
    20
100
AcDbVertex
100
AcDbPolyFaceMeshVertex
 10
915.9999999999999
 20
105.0
 30
1739.0
 70
   192
  0
VERTEX
  5
29E
330
EB
100
AcDbEntity
  8
ｴｸｽﾃﾘｱ商品
 62
   250
370
    20
100
AcDbVertex
100
AcDbPolyFaceMeshVertex
 10
915.9999999999999
 20
105.0
 30
1699.0
 70
   192
  0
VERTEX
  5
29F
330
EB
100
AcDbEntity
  8
ｴｸｽﾃﾘｱ商品
 62
   250
370
    20
100
AcDbVertex
100
AcDbPolyFaceMeshVertex
 10
915.9999999999999
 20
115.0
 30
1739.0
 70
   192
  0
VERTEX
  5
2A0
330
EB
100
AcDbEntity
  8
ｴｸｽﾃﾘｱ商品
 62
   250
370
    20
100
AcDbVertex
100
AcDbPolyFaceMeshVertex
 10
915.9999999999999
 20
115.0
 30
1699.0
 70
   192
  0
VERTEX
  5
2A1
330
EB
100
AcDbEntity
  8
ｴｸｽﾃﾘｱ商品
 62
   250
370
    20
100
AcDbVertex
100
AcDbPolyFaceMeshVertex
 10
930.9999999999999
 20
115.0
 30
1739.0
 70
   192
  0
VERTEX
  5
2A2
330
EB
100
AcDbEntity
  8
ｴｸｽﾃﾘｱ商品
 62
   250
370
    20
100
AcDbVertex
100
AcDbPolyFaceMeshVertex
 10
930.9999999999999
 20
115.0
 30
1699.0
 70
   192
  0
VERTEX
  5
2A3
330
EB
100
AcDbEntity
  8
ｴｸｽﾃﾘｱ商品
 62
   250
370
    20
100
AcDbVertex
100
AcDbPolyFaceMeshVertex
 10
930.9999999999999
 20
130.0
 30
1739.0
 70
   192
  0
VERTEX
  5
2A4
330
EB
100
AcDbEntity
  8
ｴｸｽﾃﾘｱ商品
 62
   250
370
    20
100
AcDbVertex
100
AcDbPolyFaceMeshVertex
 10
930.9999999999999
 20
130.0
 30
1699.0
 70
   192
  0
VERTEX
  5
2A5
330
EB
100
AcDbEntity
  8
ｴｸｽﾃﾘｱ商品
 62
   250
370
    20
100
AcDbVertex
100
AcDbPolyFaceMeshVertex
 10
968.602
 20
130.0
 30
1739.0
 70
   192
  0
VERTEX
  5
2A6
330
EB
100
AcDbEntity
  8
ｴｸｽﾃﾘｱ商品
 62
   250
370
    20
100
AcDbVertex
100
AcDbPolyFaceMeshVertex
 10
968.602
 20
130.0
 30
1699.0
 70
   192
  0
VERTEX
  5
2A7
330
EB
100
AcDbEntity
  8
ｴｸｽﾃﾘｱ商品
 62
   250
370
    20
100
AcDbVertex
100
AcDbPolyFaceMeshVertex
 10
986.0
 20
122.608
 30
1739.0
 70
   192
  0
VERTEX
  5
2A8
330
EB
100
AcDbEntity
  8
ｴｸｽﾃﾘｱ商品
 62
   250
370
    20
100
AcDbVertex
100
AcDbPolyFaceMeshVertex
 10
986.0
 20
122.608
 30
1699.0
 70
   192
  0
VERTEX
  5
2A9
330
EB
100
AcDbEntity
  8
ｴｸｽﾃﾘｱ商品
 62
   250
370
    20
100
AcDbVertex
100
AcDbPolyFaceMeshVertex
 10
980.226
 20
105.0
 30
1689.0
 70
   192
  0
VERTEX
  5
2AA
330
EB
100
AcDbEntity
  8
ｴｸｽﾃﾘｱ商品
 62
   250
370
    20
100
AcDbVertex
100
AcDbPolyFaceMeshVertex
 10
980.226
 20
100.0
 30
1689.0
 70
   192
  0
VERTEX
  5
2AB
330
EB
100
AcDbEntity
  8
ｴｸｽﾃﾘｱ商品
 62
   250
370
    20
100
AcDbVertex
100
AcDbPolyFaceMeshVertex
 10
936.774
 20
100.0
 30
1689.0
 70
   192
  0
VERTEX
  5
2AC
330
EB
100
AcDbEntity
  8
ｴｸｽﾃﾘｱ商品
 62
   250
370
    20
100
AcDbVertex
100
AcDbPolyFaceMeshVertex
 10
936.774
 20
105.0
 30
1689.0
 70
   192
  0
VERTEX
  5
2AD
330
EB
100
AcDbEntity
  8
ｴｸｽﾃﾘｱ商品
 62
   250
370
    20
100
AcDbVertex
100
AcDbPolyFaceMeshVertex
 10
930.9999999999999
 20
100.0
 30
1699.0
 70
   192
  0
VERTEX
  5
2AE
330
EB
100
AcDbEntity
  8
ｴｸｽﾃﾘｱ商品
 62
   250
370
    20
100
AcDbVertex
100
AcDbPolyFaceMeshVertex
 10
930.9999999999999
 20
105.0
 30
1699.0
 70
   192
  0
VERTEX
  5
2AF
330
EB
100
AcDbEntity
  8
ｴｸｽﾃﾘｱ商品
 62
   250
370
    20
100
AcDbVertex
100
AcDbPolyFaceMeshVertex
 10
930.9999999999999
 20
100.0
 30
1739.0
 70
   192
  0
VERTEX
  5
2B0
330
EB
100
AcDbEntity
  8
ｴｸｽﾃﾘｱ商品
 62
   250
370
    20
100
AcDbVertex
100
AcDbPolyFaceMeshVertex
 10
930.9999999999999
 20
105.0
 30
1739.0
 70
   192
  0
VERTEX
  5
2B1
330
EB
100
AcDbEntity
  8
ｴｸｽﾃﾘｱ商品
 62
   250
370
    20
100
AcDbVertex
100
AcDbPolyFaceMeshVertex
 10
936.774
 20
100.0
 30
1749.0
 70
   192
  0
VERTEX
  5
2B2
330
EB
100
AcDbEntity
  8
ｴｸｽﾃﾘｱ商品
 62
   250
370
    20
100
AcDbVertex
100
AcDbPolyFaceMeshVertex
 10
936.774
 20
105.0
 30
1749.0
 70
   192
  0
VERTEX
  5
2B3
330
EB
100
AcDbEntity
  8
ｴｸｽﾃﾘｱ商品
 62
   250
370
    20
100
AcDbVertex
100
AcDbPolyFaceMeshVertex
 10
980.226
 20
100.0
 30
1749.0
 70
   192
  0
VERTEX
  5
2B4
330
EB
100
AcDbEntity
  8
ｴｸｽﾃﾘｱ商品
 62
   250
370
    20
100
AcDbVertex
100
AcDbPolyFaceMeshVertex
 10
980.226
 20
105.0
 30
1749.0
 70
   192
  0
VERTEX
  5
2B5
330
EB
100
AcDbEntity
  8
ｴｸｽﾃﾘｱ商品
 62
   250
370
    20
100
AcDbVertex
100
AcDbPolyFaceMeshVertex
 10
986.0
 20
100.0
 30
1739.0
 70
   192
  0
VERTEX
  5
2B6
330
EB
100
AcDbEntity
  8
ｴｸｽﾃﾘｱ商品
 62
   250
370
    20
100
AcDbVertex
100
AcDbPolyFaceMeshVertex
 10
986.0
 20
105.0
 30
1739.0
 70
   192
  0
VERTEX
  5
2B7
330
EB
100
AcDbEntity
  8
ｴｸｽﾃﾘｱ商品
 62
   250
370
    20
100
AcDbVertex
100
AcDbPolyFaceMeshVertex
 10
986.0
 20
100.0
 30
1699.0
 70
   192
  0
VERTEX
  5
2B8
330
EB
100
AcDbEntity
  8
ｴｸｽﾃﾘｱ商品
 62
   250
370
    20
100
AcDbVertex
100
AcDbPolyFaceMeshVertex
 10
986.0
 20
105.0
 30
1699.0
 70
   192
  0
VERTEX
  5
2B9
330
EB
100
AcDbEntity
  8
ｴｸｽﾃﾘｱ商品
 62
   250
370
    20
100
AcDbFaceRecord
 10
0.0
 20
0.0
 30
0.0
 70
   128
 71
     1
 72
     2
 73
     3
 74
     4
  0
VERTEX
  5
2BA
330
EB
100
AcDbEntity
  8
ｴｸｽﾃﾘｱ商品
 62
   250
370
    20
100
AcDbFaceRecord
 10
0.0
 20
0.0
 30
0.0
 70
   128
 71
     1
 72
     4
 73
     5
 74
     6
  0
VERTEX
  5
2BB
330
EB
100
AcDbEntity
  8
ｴｸｽﾃﾘｱ商品
 62
   250
370
    20
100
AcDbFaceRecord
 10
0.0
 20
0.0
 30
0.0
 70
   128
 71
     1
 72
     6
 73
     7
 74
     8
  0
VERTEX
  5
2BC
330
EB
100
AcDbEntity
  8
ｴｸｽﾃﾘｱ商品
 62
   250
370
    20
100
AcDbFaceRecord
 10
0.0
 20
0.0
 30
0.0
 70
   128
 71
     1
 72
     8
 73
     9
 74
    10
  0
VERTEX
  5
2BD
330
EB
100
AcDbEntity
  8
ｴｸｽﾃﾘｱ商品
 62
   250
370
    20
100
AcDbFaceRecord
 10
0.0
 20
0.0
 30
0.0
 70
   128
 71
     1
 72
    10
 73
    11
 74
    12
  0
VERTEX
  5
2BE
330
EB
100
AcDbEntity
  8
ｴｸｽﾃﾘｱ商品
 62
   250
370
    20
100
AcDbFaceRecord
 10
0.0
 20
0.0
 30
0.0
 70
   128
 71
     1
 72
    12
 73
    13
 74
    14
  0
VERTEX
  5
2BF
330
EB
100
AcDbEntity
  8
ｴｸｽﾃﾘｱ商品
 62
   250
370
    20
100
AcDbFaceRecord
 10
0.0
 20
0.0
 30
0.0
 70
   128
 71
     1
 72
    14
 73
    15
 74
    16
  0
VERTEX
  5
2C0
330
EB
100
AcDbEntity
  8
ｴｸｽﾃﾘｱ商品
 62
   250
370
    20
100
AcDbFaceRecord
 10
0.0
 20
0.0
 30
0.0
 70
   128
 71
     1
 72
    16
 73
    17
 74
    18
  0
VERTEX
  5
2C1
330
EB
100
AcDbEntity
  8
ｴｸｽﾃﾘｱ商品
 62
   250
370
    20
100
AcDbFaceRecord
 10
0.0
 20
0.0
 30
0.0
 70
   128
 71
     1
 72
    18
 73
    19
 74
    20
  0
VERTEX
  5
2C2
330
EB
100
AcDbEntity
  8
ｴｸｽﾃﾘｱ商品
 62
   250
370
    20
100
AcDbFaceRecord
 10
0.0
 20
0.0
 30
0.0
 70
   128
 71
     1
 72
    20
 73
    21
 74
    22
  0
VERTEX
  5
2C3
330
EB
100
AcDbEntity
  8
ｴｸｽﾃﾘｱ商品
 62
   250
370
    20
100
AcDbFaceRecord
 10
0.0
 20
0.0
 30
0.0
 70
   128
 71
     1
 72
    22
 73
    23
 74
    24
  0
VERTEX
  5
2C4
330
EB
100
AcDbEntity
  8
ｴｸｽﾃﾘｱ商品
 62
   250
370
    20
100
AcDbFaceRecord
 10
0.0
 20
0.0
 30
0.0
 70
   128
 71
    25
 72
    26
 73
    27
 74
    28
  0
VERTEX
  5
2C5
330
EB
100
AcDbEntity
  8
ｴｸｽﾃﾘｱ商品
 62
   250
370
    20
100
AcDbFaceRecord
 10
0.0
 20
0.0
 30
0.0
 70
   128
 71
    25
 72
    28
 73
    29
 74
    30
  0
VERTEX
  5
2C6
330
EB
100
AcDbEntity
  8
ｴｸｽﾃﾘｱ商品
 62
   250
370
    20
100
AcDbFaceRecord
 10
0.0
 20
0.0
 30
0.0
 70
   128
 71
    25
 72
    30
 73
    31
 74
    32
  0
VERTEX
  5
2C7
330
EB
100
AcDbEntity
  8
ｴｸｽﾃﾘｱ商品
 62
   250
370
    20
100
AcDbFaceRecord
 10
0.0
 20
0.0
 30
0.0
 70
   128
 71
    25
 72
    32
 73
    33
 74
    34
  0
VERTEX
  5
2C8
330
EB
100
AcDbEntity
  8
ｴｸｽﾃﾘｱ商品
 62
   250
370
    20
100
AcDbFaceRecord
 10
0.0
 20
0.0
 30
0.0
 70
   128
 71
    25
 72
    34
 73
    35
 74
    36
  0
VERTEX
  5
2C9
330
EB
100
AcDbEntity
  8
ｴｸｽﾃﾘｱ商品
 62
   250
370
    20
100
AcDbFaceRecord
 10
0.0
 20
0.0
 30
0.0
 70
   128
 71
    25
 72
    36
 73
    37
 74
    38
  0
VERTEX
  5
2CA
330
EB
100
AcDbEntity
  8
ｴｸｽﾃﾘｱ商品
 62
   250
370
    20
100
AcDbFaceRecord
 10
0.0
 20
0.0
 30
0.0
 70
   128
 71
    25
 72
    38
 73
    39
 74
    40
  0
VERTEX
  5
2CB
330
EB
100
AcDbEntity
  8
ｴｸｽﾃﾘｱ商品
 62
   250
370
    20
100
AcDbFaceRecord
 10
0.0
 20
0.0
 30
0.0
 70
   128
 71
    25
 72
    40
 73
    41
 74
    42
  0
VERTEX
  5
2CC
330
EB
100
AcDbEntity
  8
ｴｸｽﾃﾘｱ商品
 62
   250
370
    20
100
AcDbFaceRecord
 10
0.0
 20
0.0
 30
0.0
 70
   128
 71
    25
 72
    42
 73
    43
 74
    44
  0
VERTEX
  5
2CD
330
EB
100
AcDbEntity
  8
ｴｸｽﾃﾘｱ商品
 62
   250
370
    20
100
AcDbFaceRecord
 10
0.0
 20
0.0
 30
0.0
 70
   128
 71
    25
 72
    44
 73
    45
 74
    46
  0
VERTEX
  5
2CE
330
EB
100
AcDbEntity
  8
ｴｸｽﾃﾘｱ商品
 62
   250
370
    20
100
AcDbFaceRecord
 10
0.0
 20
0.0
 30
0.0
 70
   128
 71
    25
 72
    46
 73
    47
 74
    48
  0
VERTEX
  5
2CF
330
EB
100
AcDbEntity
  8
ｴｸｽﾃﾘｱ商品
 62
   250
370
    20
100
AcDbFaceRecord
 10
0.0
 20
0.0
 30
0.0
 70
   128
 71
     1
 72
    24
 73
    26
 74
    25
  0
VERTEX
  5
2D0
330
EB
100
AcDbEntity
  8
ｴｸｽﾃﾘｱ商品
 62
   250
370
    20
100
AcDbFaceRecord
 10
0.0
 20
0.0
 30
0.0
 70
   128
 71
    24
 72
    23
 73
    27
 74
    26
  0
VERTEX
  5
2D1
330
EB
100
AcDbEntity
  8
ｴｸｽﾃﾘｱ商品
 62
   250
370
    20
100
AcDbFaceRecord
 10
0.0
 20
0.0
 30
0.0
 70
   128
 71
    23
 72
    22
 73
    28
 74
    27
  0
VERTEX
  5
2D2
330
EB
100
AcDbEntity
  8
ｴｸｽﾃﾘｱ商品
 62
   250
370
    20
100
AcDbFaceRecord
 10
0.0
 20
0.0
 30
0.0
 70
   128
 71
    22
 72
    21
 73
    29
 74
    28
  0
VERTEX
  5
2D3
330
EB
100
AcDbEntity
  8
ｴｸｽﾃﾘｱ商品
 62
   250
370
    20
100
AcDbFaceRecord
 10
0.0
 20
0.0
 30
0.0
 70
   128
 71
    21
 72
    20
 73
    30
 74
    29
  0
VERTEX
  5
2D4
330
EB
100
AcDbEntity
  8
ｴｸｽﾃﾘｱ商品
 62
   250
370
    20
100
AcDbFaceRecord
 10
0.0
 20
0.0
 30
0.0
 70
   128
 71
    20
 72
    19
 73
    31
 74
    30
  0
VERTEX
  5
2D5
330
EB
100
AcDbEntity
  8
ｴｸｽﾃﾘｱ商品
 62
   250
370
    20
100
AcDbFaceRecord
 10
0.0
 20
0.0
 30
0.0
 70
   128
 71
    19
 72
    18
 73
    32
 74
    31
  0
VERTEX
  5
2D6
330
EB
100
AcDbEntity
  8
ｴｸｽﾃﾘｱ商品
 62
   250
370
    20
100
AcDbFaceRecord
 10
0.0
 20
0.0
 30
0.0
 70
   128
 71
    18
 72
    17
 73
    33
 74
    32
  0
VERTEX
  5
2D7
330
EB
100
AcDbEntity
  8
ｴｸｽﾃﾘｱ商品
 62
   250
370
    20
100
AcDbFaceRecord
 10
0.0
 20
0.0
 30
0.0
 70
   128
 71
    17
 72
    16
 73
    34
 74
    33
  0
VERTEX
  5
2D8
330
EB
100
AcDbEntity
  8
ｴｸｽﾃﾘｱ商品
 62
   250
370
    20
100
AcDbFaceRecord
 10
0.0
 20
0.0
 30
0.0
 70
   128
 71
    16
 72
    15
 73
    35
 74
    34
  0
VERTEX
  5
2D9
330
EB
100
AcDbEntity
  8
ｴｸｽﾃﾘｱ商品
 62
   250
370
    20
100
AcDbFaceRecord
 10
0.0
 20
0.0
 30
0.0
 70
   128
 71
    15
 72
    14
 73
    36
 74
    35
  0
VERTEX
  5
2DA
330
EB
100
AcDbEntity
  8
ｴｸｽﾃﾘｱ商品
 62
   250
370
    20
100
AcDbFaceRecord
 10
0.0
 20
0.0
 30
0.0
 70
   128
 71
    14
 72
    13
 73
    37
 74
    36
  0
VERTEX
  5
2DB
330
EB
100
AcDbEntity
  8
ｴｸｽﾃﾘｱ商品
 62
   250
370
    20
100
AcDbFaceRecord
 10
0.0
 20
0.0
 30
0.0
 70
   128
 71
    13
 72
    12
 73
    38
 74
    37
  0
VERTEX
  5
2DC
330
EB
100
AcDbEntity
  8
ｴｸｽﾃﾘｱ商品
 62
   250
370
    20
100
AcDbFaceRecord
 10
0.0
 20
0.0
 30
0.0
 70
   128
 71
    12
 72
    11
 73
    39
 74
    38
  0
VERTEX
  5
2DD
330
EB
100
AcDbEntity
  8
ｴｸｽﾃﾘｱ商品
 62
   250
370
    20
100
AcDbFaceRecord
 10
0.0
 20
0.0
 30
0.0
 70
   128
 71
    11
 72
    10
 73
    40
 74
    39
  0
VERTEX
  5
2DE
330
EB
100
AcDbEntity
  8
ｴｸｽﾃﾘｱ商品
 62
   250
370
    20
100
AcDbFaceRecord
 10
0.0
 20
0.0
 30
0.0
 70
   128
 71
    10
 72
     9
 73
    41
 74
    40
  0
VERTEX
  5
2DF
330
EB
100
AcDbEntity
  8
ｴｸｽﾃﾘｱ商品
 62
   250
370
    20
100
AcDbFaceRecord
 10
0.0
 20
0.0
 30
0.0
 70
   128
 71
     9
 72
     8
 73
    42
 74
    41
  0
VERTEX
  5
2E0
330
EB
100
AcDbEntity
  8
ｴｸｽﾃﾘｱ商品
 62
   250
370
    20
100
AcDbFaceRecord
 10
0.0
 20
0.0
 30
0.0
 70
   128
 71
     8
 72
     7
 73
    43
 74
    42
  0
VERTEX
  5
2E1
330
EB
100
AcDbEntity
  8
ｴｸｽﾃﾘｱ商品
 62
   250
370
    20
100
AcDbFaceRecord
 10
0.0
 20
0.0
 30
0.0
 70
   128
 71
     7
 72
     6
 73
    44
 74
    43
  0
VERTEX
  5
2E2
330
EB
100
AcDbEntity
  8
ｴｸｽﾃﾘｱ商品
 62
   250
370
    20
100
AcDbFaceRecord
 10
0.0
 20
0.0
 30
0.0
 70
   128
 71
     6
 72
     5
 73
    45
 74
    44
  0
VERTEX
  5
2E3
330
EB
100
AcDbEntity
  8
ｴｸｽﾃﾘｱ商品
 62
   250
370
    20
100
AcDbFaceRecord
 10
0.0
 20
0.0
 30
0.0
 70
   128
 71
     5
 72
     4
 73
    46
 74
    45
  0
VERTEX
  5
2E4
330
EB
100
AcDbEntity
  8
ｴｸｽﾃﾘｱ商品
 62
   250
370
    20
100
AcDbFaceRecord
 10
0.0
 20
0.0
 30
0.0
 70
   128
 71
     4
 72
     3
 73
    47
 74
    46
  0
VERTEX
  5
2E5
330
EB
100
AcDbEntity
  8
ｴｸｽﾃﾘｱ商品
 62
   250
370
    20
100
AcDbFaceRecord
 10
0.0
 20
0.0
 30
0.0
 70
   128
 71
     3
 72
     2
 73
    48
 74
    47
  0
VERTEX
  5
2E6
330
EB
100
AcDbEntity
  8
ｴｸｽﾃﾘｱ商品
 62
   250
370
    20
100
AcDbFaceRecord
 10
0.0
 20
0.0
 30
0.0
 70
   128
 71
     2
 72
     1
 73
    25
 74
    48
  0
VERTEX
  5
2E7
330
EB
100
AcDbEntity
  8
ｴｸｽﾃﾘｱ商品
 62
   250
370
    20
100
AcDbFaceRecord
 10
0.0
 20
0.0
 30
0.0
 70
   128
 71
    49
 72
    50
 73
    51
 74
    52
  0
VERTEX
  5
2E8
330
EB
100
AcDbEntity
  8
ｴｸｽﾃﾘｱ商品
 62
   250
370
    20
100
AcDbFaceRecord
 10
0.0
 20
0.0
 30
0.0
 70
   128
 71
    53
 72
    54
 73
    55
 74
    56
  0
VERTEX
  5
2E9
330
EB
100
AcDbEntity
  8
ｴｸｽﾃﾘｱ商品
 62
   250
370
    20
100
AcDbFaceRecord
 10
0.0
 20
0.0
 30
0.0
 70
   128
 71
    50
 72
    49
 73
    54
 74
    53
  0
VERTEX
  5
2EA
330
EB
100
AcDbEntity
  8
ｴｸｽﾃﾘｱ商品
 62
   250
370
    20
100
AcDbFaceRecord
 10
0.0
 20
0.0
 30
0.0
 70
   128
 71
    49
 72
    52
 73
    55
 74
    54
  0
VERTEX
  5
2EB
330
EB
100
AcDbEntity
  8
ｴｸｽﾃﾘｱ商品
 62
   250
370
    20
100
AcDbFaceRecord
 10
0.0
 20
0.0
 30
0.0
 70
   128
 71
    52
 72
    51
 73
    56
 74
    55
  0
VERTEX
  5
2EC
330
EB
100
AcDbEntity
  8
ｴｸｽﾃﾘｱ商品
 62
   250
370
    20
100
AcDbFaceRecord
 10
0.0
 20
0.0
 30
0.0
 70
   128
 71
    51
 72
    50
 73
    53
 74
    56
  0
VERTEX
  5
2ED
330
EB
100
AcDbEntity
  8
ｴｸｽﾃﾘｱ商品
 62
   250
370
    20
100
AcDbFaceRecord
 10
0.0
 20
0.0
 30
0.0
 70
   128
 71
    57
 72
    58
 73
    59
 74
    60
  0
VERTEX
  5
2EE
330
EB
100
AcDbEntity
  8
ｴｸｽﾃﾘｱ商品
 62
   250
370
    20
100
AcDbFaceRecord
 10
0.0
 20
0.0
 30
0.0
 70
   128
 71
    61
 72
    62
 73
    63
 74
    64
  0
VERTEX
  5
2EF
330
EB
100
AcDbEntity
  8
ｴｸｽﾃﾘｱ商品
 62
   250
370
    20
100
AcDbFaceRecord
 10
0.0
 20
0.0
 30
0.0
 70
   128
 71
    58
 72
    57
 73
    62
 74
    61
  0
VERTEX
  5
2F0
330
EB
100
AcDbEntity
  8
ｴｸｽﾃﾘｱ商品
 62
   250
370
    20
100
AcDbFaceRecord
 10
0.0
 20
0.0
 30
0.0
 70
   128
 71
    57
 72
    60
 73
    63
 74
    62
  0
VERTEX
  5
2F1
330
EB
100
AcDbEntity
  8
ｴｸｽﾃﾘｱ商品
 62
   250
370
    20
100
AcDbFaceRecord
 10
0.0
 20
0.0
 30
0.0
 70
   128
 71
    60
 72
    59
 73
    64
 74
    63
  0
VERTEX
  5
2F2
330
EB
100
AcDbEntity
  8
ｴｸｽﾃﾘｱ商品
 62
   250
370
    20
100
AcDbFaceRecord
 10
0.0
 20
0.0
 30
0.0
 70
   128
 71
    59
 72
    58
 73
    61
 74
    64
  0
VERTEX
  5
2F3
330
EB
100
AcDbEntity
  8
ｴｸｽﾃﾘｱ商品
 62
   250
370
    20
100
AcDbFaceRecord
 10
0.0
 20
0.0
 30
0.0
 70
   128
 71
    65
 72
    66
 73
    67
 74
    68
  0
VERTEX
  5
2F4
330
EB
100
AcDbEntity
  8
ｴｸｽﾃﾘｱ商品
 62
   250
370
    20
100
AcDbFaceRecord
 10
0.0
 20
0.0
 30
0.0
 70
   128
 71
    69
 72
    70
 73
    71
 74
    72
  0
VERTEX
  5
2F5
330
EB
100
AcDbEntity
  8
ｴｸｽﾃﾘｱ商品
 62
   250
370
    20
100
AcDbFaceRecord
 10
0.0
 20
0.0
 30
0.0
 70
   128
 71
    66
 72
    65
 73
    70
 74
    69
  0
VERTEX
  5
2F6
330
EB
100
AcDbEntity
  8
ｴｸｽﾃﾘｱ商品
 62
   250
370
    20
100
AcDbFaceRecord
 10
0.0
 20
0.0
 30
0.0
 70
   128
 71
    65
 72
    68
 73
    71
 74
    70
  0
VERTEX
  5
2F7
330
EB
100
AcDbEntity
  8
ｴｸｽﾃﾘｱ商品
 62
   250
370
    20
100
AcDbFaceRecord
 10
0.0
 20
0.0
 30
0.0
 70
   128
 71
    68
 72
    67
 73
    72
 74
    71
  0
VERTEX
  5
2F8
330
EB
100
AcDbEntity
  8
ｴｸｽﾃﾘｱ商品
 62
   250
370
    20
100
AcDbFaceRecord
 10
0.0
 20
0.0
 30
0.0
 70
   128
 71
    67
 72
    66
 73
    69
 74
    72
  0
VERTEX
  5
2F9
330
EB
100
AcDbEntity
  8
ｴｸｽﾃﾘｱ商品
 62
   250
370
    20
100
AcDbFaceRecord
 10
0.0
 20
0.0
 30
0.0
 70
   128
 71
    73
 72
    74
 73
    75
 74
    76
  0
VERTEX
  5
2FA
330
EB
100
AcDbEntity
  8
ｴｸｽﾃﾘｱ商品
 62
   250
370
    20
100
AcDbFaceRecord
 10
0.0
 20
0.0
 30
0.0
 70
   128
 71
    77
 72
    78
 73
    79
 74
    80
  0
VERTEX
  5
2FB
330
EB
100
AcDbEntity
  8
ｴｸｽﾃﾘｱ商品
 62
   250
370
    20
100
AcDbFaceRecord
 10
0.0
 20
0.0
 30
0.0
 70
   128
 71
    74
 72
    73
 73
    78
 74
    77
  0
VERTEX
  5
2FC
330
EB
100
AcDbEntity
  8
ｴｸｽﾃﾘｱ商品
 62
   250
370
    20
100
AcDbFaceRecord
 10
0.0
 20
0.0
 30
0.0
 70
   128
 71
    73
 72
    76
 73
    79
 74
    78
  0
VERTEX
  5
2FD
330
EB
100
AcDbEntity
  8
ｴｸｽﾃﾘｱ商品
 62
   250
370
    20
100
AcDbFaceRecord
 10
0.0
 20
0.0
 30
0.0
 70
   128
 71
    76
 72
    75
 73
    80
 74
    79
  0
VERTEX
  5
2FE
330
EB
100
AcDbEntity
  8
ｴｸｽﾃﾘｱ商品
 62
   250
370
    20
100
AcDbFaceRecord
 10
0.0
 20
0.0
 30
0.0
 70
   128
 71
    75
 72
    74
 73
    77
 74
    80
  0
VERTEX
  5
2FF
330
EB
100
AcDbEntity
  8
ｴｸｽﾃﾘｱ商品
 62
   250
370
    20
100
AcDbFaceRecord
 10
0.0
 20
0.0
 30
0.0
 70
   128
 71
    81
 72
    82
 73
    83
 74
    84
  0
VERTEX
  5
300
330
EB
100
AcDbEntity
  8
ｴｸｽﾃﾘｱ商品
 62
   250
370
    20
100
AcDbFaceRecord
 10
0.0
 20
0.0
 30
0.0
 70
   128
 71
    81
 72
    84
 73
    85
 74
    86
  0
VERTEX
  5
301
330
EB
100
AcDbEntity
  8
ｴｸｽﾃﾘｱ商品
 62
   250
370
    20
100
AcDbFaceRecord
 10
0.0
 20
0.0
 30
0.0
 70
   128
 71
    81
 72
    86
 73
    87
 74
    88
  0
VERTEX
  5
302
330
EB
100
AcDbEntity
  8
ｴｸｽﾃﾘｱ商品
 62
   250
370
    20
100
AcDbFaceRecord
 10
0.0
 20
0.0
 30
0.0
 70
   128
 71
    81
 72
    88
 73
    89
 74
    90
  0
VERTEX
  5
303
330
EB
100
AcDbEntity
  8
ｴｸｽﾃﾘｱ商品
 62
   250
370
    20
100
AcDbFaceRecord
 10
0.0
 20
0.0
 30
0.0
 70
   128
 71
    81
 72
    90
 73
    91
 74
    92
  0
VERTEX
  5
304
330
EB
100
AcDbEntity
  8
ｴｸｽﾃﾘｱ商品
 62
   250
370
    20
100
AcDbFaceRecord
 10
0.0
 20
0.0
 30
0.0
 70
   128
 71
    81
 72
    92
 73
    93
 74
    94
  0
VERTEX
  5
305
330
EB
100
AcDbEntity
  8
ｴｸｽﾃﾘｱ商品
 62
   250
370
    20
100
AcDbFaceRecord
 10
0.0
 20
0.0
 30
0.0
 70
   128
 71
    81
 72
    94
 73
    95
 74
    96
  0
VERTEX
  5
306
330
EB
100
AcDbEntity
  8
ｴｸｽﾃﾘｱ商品
 62
   250
370
    20
100
AcDbFaceRecord
 10
0.0
 20
0.0
 30
0.0
 70
   128
 71
    81
 72
    96
 73
    97
 74
    98
  0
VERTEX
  5
307
330
EB
100
AcDbEntity
  8
ｴｸｽﾃﾘｱ商品
 62
   250
370
    20
100
AcDbFaceRecord
 10
0.0
 20
0.0
 30
0.0
 70
   128
 71
    81
 72
    98
 73
    99
 74
   100
  0
VERTEX
  5
308
330
EB
100
AcDbEntity
  8
ｴｸｽﾃﾘｱ商品
 62
   250
370
    20
100
AcDbFaceRecord
 10
0.0
 20
0.0
 30
0.0
 70
   128
 71
    81
 72
   100
 73
   101
 74
   102
  0
VERTEX
  5
309
330
EB
100
AcDbEntity
  8
ｴｸｽﾃﾘｱ商品
 62
   250
370
    20
100
AcDbFaceRecord
 10
0.0
 20
0.0
 30
0.0
 70
   128
 71
    81
 72
   102
 73
   103
 74
   104
  0
VERTEX
  5
30A
330
EB
100
AcDbEntity
  8
ｴｸｽﾃﾘｱ商品
 62
   250
370
    20
100
AcDbFaceRecord
 10
0.0
 20
0.0
 30
0.0
 70
   128
 71
   105
 72
   106
 73
   107
 74
   108
  0
VERTEX
  5
30B
330
EB
100
AcDbEntity
  8
ｴｸｽﾃﾘｱ商品
 62
   250
370
    20
100
AcDbFaceRecord
 10
0.0
 20
0.0
 30
0.0
 70
   128
 71
   105
 72
   108
 73
   109
 74
   110
  0
VERTEX
  5
30C
330
EB
100
AcDbEntity
  8
ｴｸｽﾃﾘｱ商品
 62
   250
370
    20
100
AcDbFaceRecord
 10
0.0
 20
0.0
 30
0.0
 70
   128
 71
   105
 72
   110
 73
   111
 74
   112
  0
VERTEX
  5
30D
330
EB
100
AcDbEntity
  8
ｴｸｽﾃﾘｱ商品
 62
   250
370
    20
100
AcDbFaceRecord
 10
0.0
 20
0.0
 30
0.0
 70
   128
 71
   105
 72
   112
 73
   113
 74
   114
  0
VERTEX
  5
30E
330
EB
100
AcDbEntity
  8
ｴｸｽﾃﾘｱ商品
 62
   250
370
    20
100
AcDbFaceRecord
 10
0.0
 20
0.0
 30
0.0
 70
   128
 71
   105
 72
   114
 73
   115
 74
   116
  0
VERTEX
  5
30F
330
EB
100
AcDbEntity
  8
ｴｸｽﾃﾘｱ商品
 62
   250
370
    20
100
AcDbFaceRecord
 10
0.0
 20
0.0
 30
0.0
 70
   128
 71
   105
 72
   116
 73
   117
 74
   118
  0
VERTEX
  5
310
330
EB
100
AcDbEntity
  8
ｴｸｽﾃﾘｱ商品
 62
   250
370
    20
100
AcDbFaceRecord
 10
0.0
 20
0.0
 30
0.0
 70
   128
 71
   105
 72
   118
 73
   119
 74
   120
  0
VERTEX
  5
311
330
EB
100
AcDbEntity
  8
ｴｸｽﾃﾘｱ商品
 62
   250
370
    20
100
AcDbFaceRecord
 10
0.0
 20
0.0
 30
0.0
 70
   128
 71
   105
 72
   120
 73
   121
 74
   122
  0
VERTEX
  5
312
330
EB
100
AcDbEntity
  8
ｴｸｽﾃﾘｱ商品
 62
   250
370
    20
100
AcDbFaceRecord
 10
0.0
 20
0.0
 30
0.0
 70
   128
 71
   105
 72
   122
 73
   123
 74
   124
  0
VERTEX
  5
313
330
EB
100
AcDbEntity
  8
ｴｸｽﾃﾘｱ商品
 62
   250
370
    20
100
AcDbFaceRecord
 10
0.0
 20
0.0
 30
0.0
 70
   128
 71
   105
 72
   124
 73
   125
 74
   126
  0
VERTEX
  5
314
330
EB
100
AcDbEntity
  8
ｴｸｽﾃﾘｱ商品
 62
   250
370
    20
100
AcDbFaceRecord
 10
0.0
 20
0.0
 30
0.0
 70
   128
 71
   105
 72
   126
 73
   127
 74
   128
  0
VERTEX
  5
315
330
EB
100
AcDbEntity
  8
ｴｸｽﾃﾘｱ商品
 62
   250
370
    20
100
AcDbFaceRecord
 10
0.0
 20
0.0
 30
0.0
 70
   128
 71
    81
 72
   105
 73
   128
 74
    82
  0
VERTEX
  5
316
330
EB
100
AcDbEntity
  8
ｴｸｽﾃﾘｱ商品
 62
   250
370
    20
100
AcDbFaceRecord
 10
0.0
 20
0.0
 30
0.0
 70
   128
 71
    82
 72
   128
 73
   127
 74
    83
  0
VERTEX
  5
317
330
EB
100
AcDbEntity
  8
ｴｸｽﾃﾘｱ商品
 62
   250
370
    20
100
AcDbFaceRecord
 10
0.0
 20
0.0
 30
0.0
 70
   128
 71
    83
 72
   127
 73
   126
 74
    84
  0
VERTEX
  5
318
330
EB
100
AcDbEntity
  8
ｴｸｽﾃﾘｱ商品
 62
   250
370
    20
100
AcDbFaceRecord
 10
0.0
 20
0.0
 30
0.0
 70
   128
 71
    84
 72
   126
 73
   125
 74
    85
  0
VERTEX
  5
319
330
EB
100
AcDbEntity
  8
ｴｸｽﾃﾘｱ商品
 62
   250
370
    20
100
AcDbFaceRecord
 10
0.0
 20
0.0
 30
0.0
 70
   128
 71
    85
 72
   125
 73
   124
 74
    86
  0
VERTEX
  5
31A
330
EB
100
AcDbEntity
  8
ｴｸｽﾃﾘｱ商品
 62
   250
370
    20
100
AcDbFaceRecord
 10
0.0
 20
0.0
 30
0.0
 70
   128
 71
    86
 72
   124
 73
   123
 74
    87
  0
VERTEX
  5
31B
330
EB
100
AcDbEntity
  8
ｴｸｽﾃﾘｱ商品
 62
   250
370
    20
100
AcDbFaceRecord
 10
0.0
 20
0.0
 30
0.0
 70
   128
 71
    87
 72
   123
 73
   122
 74
    88
  0
VERTEX
  5
31C
330
EB
100
AcDbEntity
  8
ｴｸｽﾃﾘｱ商品
 62
   250
370
    20
100
AcDbFaceRecord
 10
0.0
 20
0.0
 30
0.0
 70
   128
 71
    88
 72
   122
 73
   121
 74
    89
  0
VERTEX
  5
31D
330
EB
100
AcDbEntity
  8
ｴｸｽﾃﾘｱ商品
 62
   250
370
    20
100
AcDbFaceRecord
 10
0.0
 20
0.0
 30
0.0
 70
   128
 71
    89
 72
   121
 73
   120
 74
    90
  0
VERTEX
  5
31E
330
EB
100
AcDbEntity
  8
ｴｸｽﾃﾘｱ商品
 62
   250
370
    20
100
AcDbFaceRecord
 10
0.0
 20
0.0
 30
0.0
 70
   128
 71
    90
 72
   120
 73
   119
 74
    91
  0
VERTEX
  5
31F
330
EB
100
AcDbEntity
  8
ｴｸｽﾃﾘｱ商品
 62
   250
370
    20
100
AcDbFaceRecord
 10
0.0
 20
0.0
 30
0.0
 70
   128
 71
    91
 72
   119
 73
   118
 74
    92
  0
VERTEX
  5
320
330
EB
100
AcDbEntity
  8
ｴｸｽﾃﾘｱ商品
 62
   250
370
    20
100
AcDbFaceRecord
 10
0.0
 20
0.0
 30
0.0
 70
   128
 71
    92
 72
   118
 73
   117
 74
    93
  0
VERTEX
  5
321
330
EB
100
AcDbEntity
  8
ｴｸｽﾃﾘｱ商品
 62
   250
370
    20
100
AcDbFaceRecord
 10
0.0
 20
0.0
 30
0.0
 70
   128
 71
    93
 72
   117
 73
   116
 74
    94
  0
VERTEX
  5
322
330
EB
100
AcDbEntity
  8
ｴｸｽﾃﾘｱ商品
 62
   250
370
    20
100
AcDbFaceRecord
 10
0.0
 20
0.0
 30
0.0
 70
   128
 71
    94
 72
   116
 73
   115
 74
    95
  0
VERTEX
  5
323
330
EB
100
AcDbEntity
  8
ｴｸｽﾃﾘｱ商品
 62
   250
370
    20
100
AcDbFaceRecord
 10
0.0
 20
0.0
 30
0.0
 70
   128
 71
    95
 72
   115
 73
   114
 74
    96
  0
VERTEX
  5
324
330
EB
100
AcDbEntity
  8
ｴｸｽﾃﾘｱ商品
 62
   250
370
    20
100
AcDbFaceRecord
 10
0.0
 20
0.0
 30
0.0
 70
   128
 71
    96
 72
   114
 73
   113
 74
    97
  0
VERTEX
  5
325
330
EB
100
AcDbEntity
  8
ｴｸｽﾃﾘｱ商品
 62
   250
370
    20
100
AcDbFaceRecord
 10
0.0
 20
0.0
 30
0.0
 70
   128
 71
    97
 72
   113
 73
   112
 74
    98
  0
VERTEX
  5
326
330
EB
100
AcDbEntity
  8
ｴｸｽﾃﾘｱ商品
 62
   250
370
    20
100
AcDbFaceRecord
 10
0.0
 20
0.0
 30
0.0
 70
   128
 71
    98
 72
   112
 73
   111
 74
    99
  0
VERTEX
  5
327
330
EB
100
AcDbEntity
  8
ｴｸｽﾃﾘｱ商品
 62
   250
370
    20
100
AcDbFaceRecord
 10
0.0
 20
0.0
 30
0.0
 70
   128
 71
    99
 72
   111
 73
   110
 74
   100
  0
VERTEX
  5
328
330
EB
100
AcDbEntity
  8
ｴｸｽﾃﾘｱ商品
 62
   250
370
    20
100
AcDbFaceRecord
 10
0.0
 20
0.0
 30
0.0
 70
   128
 71
   100
 72
   110
 73
   109
 74
   101
  0
VERTEX
  5
329
330
EB
100
AcDbEntity
  8
ｴｸｽﾃﾘｱ商品
 62
   250
370
    20
100
AcDbFaceRecord
 10
0.0
 20
0.0
 30
0.0
 70
   128
 71
   101
 72
   109
 73
   108
 74
   102
  0
VERTEX
  5
32A
330
EB
100
AcDbEntity
  8
ｴｸｽﾃﾘｱ商品
 62
   250
370
    20
100
AcDbFaceRecord
 10
0.0
 20
0.0
 30
0.0
 70
   128
 71
   102
 72
   108
 73
   107
 74
   103
  0
VERTEX
  5
32B
330
EB
100
AcDbEntity
  8
ｴｸｽﾃﾘｱ商品
 62
   250
370
    20
100
AcDbFaceRecord
 10
0.0
 20
0.0
 30
0.0
 70
   128
 71
   103
 72
   107
 73
   106
 74
   104
  0
VERTEX
  5
32C
330
EB
100
AcDbEntity
  8
ｴｸｽﾃﾘｱ商品
 62
   250
370
    20
100
AcDbFaceRecord
 10
0.0
 20
0.0
 30
0.0
 70
   128
 71
   104
 72
   106
 73
   105
 74
    81
  0
VERTEX
  5
32D
330
EB
100
AcDbEntity
  8
ｴｸｽﾃﾘｱ商品
 62
   250
370
    20
100
AcDbFaceRecord
 10
0.0
 20
0.0
 30
0.0
 70
   128
 71
   129
 72
   130
 73
   131
 74
   132
  0
VERTEX
  5
32E
330
EB
100
AcDbEntity
  8
ｴｸｽﾃﾘｱ商品
 62
   250
370
    20
100
AcDbFaceRecord
 10
0.0
 20
0.0
 30
0.0
 70
   128
 71
   133
 72
   134
 73
   135
 74
   136
  0
VERTEX
  5
32F
330
EB
100
AcDbEntity
  8
ｴｸｽﾃﾘｱ商品
 62
   250
370
    20
100
AcDbFaceRecord
 10
0.0
 20
0.0
 30
0.0
 70
   128
 71
   132
 72
   133
 73
   136
 74
   129
  0
VERTEX
  5
330
330
EB
100
AcDbEntity
  8
ｴｸｽﾃﾘｱ商品
 62
   250
370
    20
100
AcDbFaceRecord
 10
0.0
 20
0.0
 30
0.0
 70
   128
 71
   129
 72
   136
 73
   135
 74
   130
  0
VERTEX
  5
331
330
EB
100
AcDbEntity
  8
ｴｸｽﾃﾘｱ商品
 62
   250
370
    20
100
AcDbFaceRecord
 10
0.0
 20
0.0
 30
0.0
 70
   128
 71
   130
 72
   135
 73
   134
 74
   131
  0
VERTEX
  5
332
330
EB
100
AcDbEntity
  8
ｴｸｽﾃﾘｱ商品
 62
   250
370
    20
100
AcDbFaceRecord
 10
0.0
 20
0.0
 30
0.0
 70
   128
 71
   131
 72
   134
 73
   133
 74
   132
  0
VERTEX
  5
333
330
EB
100
AcDbEntity
  8
ｴｸｽﾃﾘｱ商品
 62
   250
370
    20
100
AcDbFaceRecord
 10
0.0
 20
0.0
 30
0.0
 70
   128
 71
   137
 72
   138
 73
   139
 74
   140
  0
VERTEX
  5
334
330
EB
100
AcDbEntity
  8
ｴｸｽﾃﾘｱ商品
 62
   250
370
    20
100
AcDbFaceRecord
 10
0.0
 20
0.0
 30
0.0
 70
   128
 71
   141
 72
   142
 73
   143
 74
   144
  0
VERTEX
  5
335
330
EB
100
AcDbEntity
  8
ｴｸｽﾃﾘｱ商品
 62
   250
370
    20
100
AcDbFaceRecord
 10
0.0
 20
0.0
 30
0.0
 70
   128
 71
   140
 72
   141
 73
   144
 74
   137
  0
VERTEX
  5
336
330
EB
100
AcDbEntity
  8
ｴｸｽﾃﾘｱ商品
 62
   250
370
    20
100
AcDbFaceRecord
 10
0.0
 20
0.0
 30
0.0
 70
   128
 71
   137
 72
   144
 73
   143
 74
   138
  0
VERTEX
  5
337
330
EB
100
AcDbEntity
  8
ｴｸｽﾃﾘｱ商品
 62
   250
370
    20
100
AcDbFaceRecord
 10
0.0
 20
0.0
 30
0.0
 70
   128
 71
   138
 72
   143
 73
   142
 74
   139
  0
VERTEX
  5
338
330
EB
100
AcDbEntity
  8
ｴｸｽﾃﾘｱ商品
 62
   250
370
    20
100
AcDbFaceRecord
 10
0.0
 20
0.0
 30
0.0
 70
   128
 71
   139
 72
   142
 73
   141
 74
   140
  0
VERTEX
  5
339
330
EB
100
AcDbEntity
  8
ｴｸｽﾃﾘｱ商品
 62
   250
370
    20
100
AcDbFaceRecord
 10
0.0
 20
0.0
 30
0.0
 70
   128
 71
   145
 72
   146
 73
   147
 74
   148
  0
VERTEX
  5
33A
330
EB
100
AcDbEntity
  8
ｴｸｽﾃﾘｱ商品
 62
   250
370
    20
100
AcDbFaceRecord
 10
0.0
 20
0.0
 30
0.0
 70
   128
 71
   149
 72
   150
 73
   151
 74
   152
  0
VERTEX
  5
33B
330
EB
100
AcDbEntity
  8
ｴｸｽﾃﾘｱ商品
 62
   250
370
    20
100
AcDbFaceRecord
 10
0.0
 20
0.0
 30
0.0
 70
   128
 71
   148
 72
   149
 73
   152
 74
   145
  0
VERTEX
  5
33C
330
EB
100
AcDbEntity
  8
ｴｸｽﾃﾘｱ商品
 62
   250
370
    20
100
AcDbFaceRecord
 10
0.0
 20
0.0
 30
0.0
 70
   128
 71
   145
 72
   152
 73
   151
 74
   146
  0
VERTEX
  5
33D
330
EB
100
AcDbEntity
  8
ｴｸｽﾃﾘｱ商品
 62
   250
370
    20
100
AcDbFaceRecord
 10
0.0
 20
0.0
 30
0.0
 70
   128
 71
   146
 72
   151
 73
   150
 74
   147
  0
VERTEX
  5
33E
330
EB
100
AcDbEntity
  8
ｴｸｽﾃﾘｱ商品
 62
   250
370
    20
100
AcDbFaceRecord
 10
0.0
 20
0.0
 30
0.0
 70
   128
 71
   147
 72
   150
 73
   149
 74
   148
  0
VERTEX
  5
33F
330
EB
100
AcDbEntity
  8
ｴｸｽﾃﾘｱ商品
 62
   250
370
    20
100
AcDbFaceRecord
 10
0.0
 20
0.0
 30
0.0
 70
   128
 71
   153
 72
   154
 73
   155
 74
   156
  0
VERTEX
  5
340
330
EB
100
AcDbEntity
  8
ｴｸｽﾃﾘｱ商品
 62
   250
370
    20
100
AcDbFaceRecord
 10
0.0
 20
0.0
 30
0.0
 70
   128
 71
   157
 72
   158
 73
   159
 74
   160
  0
VERTEX
  5
341
330
EB
100
AcDbEntity
  8
ｴｸｽﾃﾘｱ商品
 62
   250
370
    20
100
AcDbFaceRecord
 10
0.0
 20
0.0
 30
0.0
 70
   128
 71
   156
 72
   157
 73
   160
 74
   153
  0
VERTEX
  5
342
330
EB
100
AcDbEntity
  8
ｴｸｽﾃﾘｱ商品
 62
   250
370
    20
100
AcDbFaceRecord
 10
0.0
 20
0.0
 30
0.0
 70
   128
 71
   153
 72
   160
 73
   159
 74
   154
  0
VERTEX
  5
343
330
EB
100
AcDbEntity
  8
ｴｸｽﾃﾘｱ商品
 62
   250
370
    20
100
AcDbFaceRecord
 10
0.0
 20
0.0
 30
0.0
 70
   128
 71
   154
 72
   159
 73
   158
 74
   155
  0
VERTEX
  5
344
330
EB
100
AcDbEntity
  8
ｴｸｽﾃﾘｱ商品
 62
   250
370
    20
100
AcDbFaceRecord
 10
0.0
 20
0.0
 30
0.0
 70
   128
 71
   155
 72
   158
 73
   157
 74
   156
  0
VERTEX
  5
345
330
EB
100
AcDbEntity
  8
ｴｸｽﾃﾘｱ商品
 62
   251
370
    20
100
AcDbFaceRecord
 10
0.0
 20
0.0
 30
0.0
 70
   128
 71
   161
 72
   162
 73
   163
 74
   164
  0
VERTEX
  5
346
330
EB
100
AcDbEntity
  8
ｴｸｽﾃﾘｱ商品
 62
   251
370
    20
100
AcDbFaceRecord
 10
0.0
 20
0.0
 30
0.0
 70
   128
 71
   161
 72
   164
 73
   165
 74
   166
  0
VERTEX
  5
347
330
EB
100
AcDbEntity
  8
ｴｸｽﾃﾘｱ商品
 62
   251
370
    20
100
AcDbFaceRecord
 10
0.0
 20
0.0
 30
0.0
 70
   128
 71
   161
 72
   166
 73
   167
 74
   168
  0
VERTEX
  5
348
330
EB
100
AcDbEntity
  8
ｴｸｽﾃﾘｱ商品
 62
   251
370
    20
100
AcDbFaceRecord
 10
0.0
 20
0.0
 30
0.0
 70
   128
 71
   161
 72
   168
 73
   169
 74
   170
  0
VERTEX
  5
349
330
EB
100
AcDbEntity
  8
ｴｸｽﾃﾘｱ商品
 62
   251
370
    20
100
AcDbFaceRecord
 10
0.0
 20
0.0
 30
0.0
 70
   128
 71
   161
 72
   170
 73
   171
 74
   172
  0
VERTEX
  5
34A
330
EB
100
AcDbEntity
  8
ｴｸｽﾃﾘｱ商品
 62
   251
370
    20
100
AcDbFaceRecord
 10
0.0
 20
0.0
 30
0.0
 70
   128
 71
   161
 72
   172
 73
   173
 74
   174
  0
VERTEX
  5
34B
330
EB
100
AcDbEntity
  8
ｴｸｽﾃﾘｱ商品
 62
   251
370
    20
100
AcDbFaceRecord
 10
0.0
 20
0.0
 30
0.0
 70
   128
 71
   161
 72
   174
 73
   175
 74
   176
  0
VERTEX
  5
34C
330
EB
100
AcDbEntity
  8
ｴｸｽﾃﾘｱ商品
 62
   251
370
    20
100
AcDbFaceRecord
 10
0.0
 20
0.0
 30
0.0
 70
   128
 71
   161
 72
   176
 73
   177
 74
   178
  0
VERTEX
  5
34D
330
EB
100
AcDbEntity
  8
ｴｸｽﾃﾘｱ商品
 62
   251
370
    20
100
AcDbFaceRecord
 10
0.0
 20
0.0
 30
0.0
 70
   128
 71
   161
 72
   178
 73
   179
 74
   180
  0
VERTEX
  5
34E
330
EB
100
AcDbEntity
  8
ｴｸｽﾃﾘｱ商品
 62
   251
370
    20
100
AcDbFaceRecord
 10
0.0
 20
0.0
 30
0.0
 70
   128
 71
   161
 72
   180
 73
   181
 74
   182
  0
VERTEX
  5
34F
330
EB
100
AcDbEntity
  8
ｴｸｽﾃﾘｱ商品
 62
   251
370
    20
100
AcDbFaceRecord
 10
0.0
 20
0.0
 30
0.0
 70
   128
 71
   161
 72
   182
 73
   183
 74
   184
  0
VERTEX
  5
350
330
EB
100
AcDbEntity
  8
ｴｸｽﾃﾘｱ商品
 62
   251
370
    20
100
AcDbFaceRecord
 10
0.0
 20
0.0
 30
0.0
 70
   128
 71
   185
 72
   186
 73
   187
 74
   188
  0
VERTEX
  5
351
330
EB
100
AcDbEntity
  8
ｴｸｽﾃﾘｱ商品
 62
   251
370
    20
100
AcDbFaceRecord
 10
0.0
 20
0.0
 30
0.0
 70
   128
 71
   185
 72
   188
 73
   189
 74
   190
  0
VERTEX
  5
352
330
EB
100
AcDbEntity
  8
ｴｸｽﾃﾘｱ商品
 62
   251
370
    20
100
AcDbFaceRecord
 10
0.0
 20
0.0
 30
0.0
 70
   128
 71
   185
 72
   190
 73
   191
 74
   192
  0
VERTEX
  5
353
330
EB
100
AcDbEntity
  8
ｴｸｽﾃﾘｱ商品
 62
   251
370
    20
100
AcDbFaceRecord
 10
0.0
 20
0.0
 30
0.0
 70
   128
 71
   185
 72
   192
 73
   193
 74
   194
  0
VERTEX
  5
354
330
EB
100
AcDbEntity
  8
ｴｸｽﾃﾘｱ商品
 62
   251
370
    20
100
AcDbFaceRecord
 10
0.0
 20
0.0
 30
0.0
 70
   128
 71
   185
 72
   194
 73
   195
 74
   196
  0
VERTEX
  5
355
330
EB
100
AcDbEntity
  8
ｴｸｽﾃﾘｱ商品
 62
   251
370
    20
100
AcDbFaceRecord
 10
0.0
 20
0.0
 30
0.0
 70
   128
 71
   185
 72
   196
 73
   197
 74
   198
  0
VERTEX
  5
356
330
EB
100
AcDbEntity
  8
ｴｸｽﾃﾘｱ商品
 62
   251
370
    20
100
AcDbFaceRecord
 10
0.0
 20
0.0
 30
0.0
 70
   128
 71
   185
 72
   198
 73
   199
 74
   200
  0
VERTEX
  5
357
330
EB
100
AcDbEntity
  8
ｴｸｽﾃﾘｱ商品
 62
   251
370
    20
100
AcDbFaceRecord
 10
0.0
 20
0.0
 30
0.0
 70
   128
 71
   185
 72
   200
 73
   201
 74
   202
  0
VERTEX
  5
358
330
EB
100
AcDbEntity
  8
ｴｸｽﾃﾘｱ商品
 62
   251
370
    20
100
AcDbFaceRecord
 10
0.0
 20
0.0
 30
0.0
 70
   128
 71
   185
 72
   202
 73
   203
 74
   204
  0
VERTEX
  5
359
330
EB
100
AcDbEntity
  8
ｴｸｽﾃﾘｱ商品
 62
   251
370
    20
100
AcDbFaceRecord
 10
0.0
 20
0.0
 30
0.0
 70
   128
 71
   185
 72
   204
 73
   205
 74
   206
  0
VERTEX
  5
35A
330
EB
100
AcDbEntity
  8
ｴｸｽﾃﾘｱ商品
 62
   251
370
    20
100
AcDbFaceRecord
 10
0.0
 20
0.0
 30
0.0
 70
   128
 71
   185
 72
   206
 73
   207
 74
   208
  0
VERTEX
  5
35B
330
EB
100
AcDbEntity
  8
ｴｸｽﾃﾘｱ商品
 62
   251
370
    20
100
AcDbFaceRecord
 10
0.0
 20
0.0
 30
0.0
 70
   128
 71
   161
 72
   184
 73
   186
 74
   185
  0
VERTEX
  5
35C
330
EB
100
AcDbEntity
  8
ｴｸｽﾃﾘｱ商品
 62
   251
370
    20
100
AcDbFaceRecord
 10
0.0
 20
0.0
 30
0.0
 70
   128
 71
   184
 72
   183
 73
   187
 74
   186
  0
VERTEX
  5
35D
330
EB
100
AcDbEntity
  8
ｴｸｽﾃﾘｱ商品
 62
   251
370
    20
100
AcDbFaceRecord
 10
0.0
 20
0.0
 30
0.0
 70
   128
 71
   183
 72
   182
 73
   188
 74
   187
  0
VERTEX
  5
35E
330
EB
100
AcDbEntity
  8
ｴｸｽﾃﾘｱ商品
 62
   251
370
    20
100
AcDbFaceRecord
 10
0.0
 20
0.0
 30
0.0
 70
   128
 71
   182
 72
   181
 73
   189
 74
   188
  0
VERTEX
  5
35F
330
EB
100
AcDbEntity
  8
ｴｸｽﾃﾘｱ商品
 62
   251
370
    20
100
AcDbFaceRecord
 10
0.0
 20
0.0
 30
0.0
 70
   128
 71
   181
 72
   180
 73
   190
 74
   189
  0
VERTEX
  5
360
330
EB
100
AcDbEntity
  8
ｴｸｽﾃﾘｱ商品
 62
   251
370
    20
100
AcDbFaceRecord
 10
0.0
 20
0.0
 30
0.0
 70
   128
 71
   180
 72
   179
 73
   191
 74
   190
  0
VERTEX
  5
361
330
EB
100
AcDbEntity
  8
ｴｸｽﾃﾘｱ商品
 62
   251
370
    20
100
AcDbFaceRecord
 10
0.0
 20
0.0
 30
0.0
 70
   128
 71
   179
 72
   178
 73
   192
 74
   191
  0
VERTEX
  5
362
330
EB
100
AcDbEntity
  8
ｴｸｽﾃﾘｱ商品
 62
   251
370
    20
100
AcDbFaceRecord
 10
0.0
 20
0.0
 30
0.0
 70
   128
 71
   178
 72
   177
 73
   193
 74
   192
  0
VERTEX
  5
363
330
EB
100
AcDbEntity
  8
ｴｸｽﾃﾘｱ商品
 62
   251
370
    20
100
AcDbFaceRecord
 10
0.0
 20
0.0
 30
0.0
 70
   128
 71
   177
 72
   176
 73
   194
 74
   193
  0
VERTEX
  5
364
330
EB
100
AcDbEntity
  8
ｴｸｽﾃﾘｱ商品
 62
   251
370
    20
100
AcDbFaceRecord
 10
0.0
 20
0.0
 30
0.0
 70
   128
 71
   176
 72
   175
 73
   195
 74
   194
  0
VERTEX
  5
365
330
EB
100
AcDbEntity
  8
ｴｸｽﾃﾘｱ商品
 62
   251
370
    20
100
AcDbFaceRecord
 10
0.0
 20
0.0
 30
0.0
 70
   128
 71
   175
 72
   174
 73
   196
 74
   195
  0
VERTEX
  5
366
330
EB
100
AcDbEntity
  8
ｴｸｽﾃﾘｱ商品
 62
   251
370
    20
100
AcDbFaceRecord
 10
0.0
 20
0.0
 30
0.0
 70
   128
 71
   174
 72
   173
 73
   197
 74
   196
  0
VERTEX
  5
367
330
EB
100
AcDbEntity
  8
ｴｸｽﾃﾘｱ商品
 62
   251
370
    20
100
AcDbFaceRecord
 10
0.0
 20
0.0
 30
0.0
 70
   128
 71
   173
 72
   172
 73
   198
 74
   197
  0
VERTEX
  5
368
330
EB
100
AcDbEntity
  8
ｴｸｽﾃﾘｱ商品
 62
   251
370
    20
100
AcDbFaceRecord
 10
0.0
 20
0.0
 30
0.0
 70
   128
 71
   172
 72
   171
 73
   199
 74
   198
  0
VERTEX
  5
369
330
EB
100
AcDbEntity
  8
ｴｸｽﾃﾘｱ商品
 62
   251
370
    20
100
AcDbFaceRecord
 10
0.0
 20
0.0
 30
0.0
 70
   128
 71
   171
 72
   170
 73
   200
 74
   199
  0
VERTEX
  5
36A
330
EB
100
AcDbEntity
  8
ｴｸｽﾃﾘｱ商品
 62
   251
370
    20
100
AcDbFaceRecord
 10
0.0
 20
0.0
 30
0.0
 70
   128
 71
   170
 72
   169
 73
   201
 74
   200
  0
VERTEX
  5
36B
330
EB
100
AcDbEntity
  8
ｴｸｽﾃﾘｱ商品
 62
   251
370
    20
100
AcDbFaceRecord
 10
0.0
 20
0.0
 30
0.0
 70
   128
 71
   169
 72
   168
 73
   202
 74
   201
  0
VERTEX
  5
36C
330
EB
100
AcDbEntity
  8
ｴｸｽﾃﾘｱ商品
 62
   251
370
    20
100
AcDbFaceRecord
 10
0.0
 20
0.0
 30
0.0
 70
   128
 71
   168
 72
   167
 73
   203
 74
   202
  0
VERTEX
  5
36D
330
EB
100
AcDbEntity
  8
ｴｸｽﾃﾘｱ商品
 62
   251
370
    20
100
AcDbFaceRecord
 10
0.0
 20
0.0
 30
0.0
 70
   128
 71
   167
 72
   166
 73
   204
 74
   203
  0
VERTEX
  5
36E
330
EB
100
AcDbEntity
  8
ｴｸｽﾃﾘｱ商品
 62
   251
370
    20
100
AcDbFaceRecord
 10
0.0
 20
0.0
 30
0.0
 70
   128
 71
   166
 72
   165
 73
   205
 74
   204
  0
VERTEX
  5
36F
330
EB
100
AcDbEntity
  8
ｴｸｽﾃﾘｱ商品
 62
   251
370
    20
100
AcDbFaceRecord
 10
0.0
 20
0.0
 30
0.0
 70
   128
 71
   165
 72
   164
 73
   206
 74
   205
  0
VERTEX
  5
370
330
EB
100
AcDbEntity
  8
ｴｸｽﾃﾘｱ商品
 62
   251
370
    20
100
AcDbFaceRecord
 10
0.0
 20
0.0
 30
0.0
 70
   128
 71
   164
 72
   163
 73
   207
 74
   206
  0
VERTEX
  5
371
330
EB
100
AcDbEntity
  8
ｴｸｽﾃﾘｱ商品
 62
   251
370
    20
100
AcDbFaceRecord
 10
0.0
 20
0.0
 30
0.0
 70
   128
 71
   163
 72
   162
 73
   208
 74
   207
  0
VERTEX
  5
372
330
EB
100
AcDbEntity
  8
ｴｸｽﾃﾘｱ商品
 62
   251
370
    20
100
AcDbFaceRecord
 10
0.0
 20
0.0
 30
0.0
 70
   128
 71
   162
 72
   161
 73
   185
 74
   208
  0
VERTEX
  5
373
330
EB
100
AcDbEntity
  8
ｴｸｽﾃﾘｱ商品
 62
   250
370
    20
100
AcDbFaceRecord
 10
0.0
 20
0.0
 30
0.0
 70
   128
 71
   209
 72
   210
 73
   211
 74
   212
  0
VERTEX
  5
374
330
EB
100
AcDbEntity
  8
ｴｸｽﾃﾘｱ商品
 62
   250
370
    20
100
AcDbFaceRecord
 10
0.0
 20
0.0
 30
0.0
 70
   128
 71
   209
 72
   212
 73
   213
 74
   214
  0
VERTEX
  5
375
330
EB
100
AcDbEntity
  8
ｴｸｽﾃﾘｱ商品
 62
   250
370
    20
100
AcDbFaceRecord
 10
0.0
 20
0.0
 30
0.0
 70
   128
 71
   209
 72
   214
 73
   215
 74
   216
  0
VERTEX
  5
376
330
EB
100
AcDbEntity
  8
ｴｸｽﾃﾘｱ商品
 62
   250
370
    20
100
AcDbFaceRecord
 10
0.0
 20
0.0
 30
0.0
 70
   128
 71
   209
 72
   216
 73
   217
 74
   218
  0
VERTEX
  5
377
330
EB
100
AcDbEntity
  8
ｴｸｽﾃﾘｱ商品
 62
   250
370
    20
100
AcDbFaceRecord
 10
0.0
 20
0.0
 30
0.0
 70
   128
 71
   209
 72
   218
 73
   219
 74
   220
  0
VERTEX
  5
378
330
EB
100
AcDbEntity
  8
ｴｸｽﾃﾘｱ商品
 62
   250
370
    20
100
AcDbFaceRecord
 10
0.0
 20
0.0
 30
0.0
 70
   128
 71
   209
 72
   220
 73
   221
 74
   222
  0
VERTEX
  5
379
330
EB
100
AcDbEntity
  8
ｴｸｽﾃﾘｱ商品
 62
   250
370
    20
100
AcDbFaceRecord
 10
0.0
 20
0.0
 30
0.0
 70
   128
 71
   209
 72
   222
 73
   223
 74
   224
  0
VERTEX
  5
37A
330
EB
100
AcDbEntity
  8
ｴｸｽﾃﾘｱ商品
 62
   250
370
    20
100
AcDbFaceRecord
 10
0.0
 20
0.0
 30
0.0
 70
   128
 71
   209
 72
   224
 73
   225
 74
   226
  0
VERTEX
  5
37B
330
EB
100
AcDbEntity
  8
ｴｸｽﾃﾘｱ商品
 62
   250
370
    20
100
AcDbFaceRecord
 10
0.0
 20
0.0
 30
0.0
 70
   128
 71
   209
 72
   226
 73
   227
 74
   228
  0
VERTEX
  5
37C
330
EB
100
AcDbEntity
  8
ｴｸｽﾃﾘｱ商品
 62
   250
370
    20
100
AcDbFaceRecord
 10
0.0
 20
0.0
 30
0.0
 70
   128
 71
   209
 72
   228
 73
   229
 74
   230
  0
VERTEX
  5
37D
330
EB
100
AcDbEntity
  8
ｴｸｽﾃﾘｱ商品
 62
   250
370
    20
100
AcDbFaceRecord
 10
0.0
 20
0.0
 30
0.0
 70
   128
 71
   209
 72
   230
 73
   231
 74
   232
  0
VERTEX
  5
37E
330
EB
100
AcDbEntity
  8
ｴｸｽﾃﾘｱ商品
 62
   250
370
    20
100
AcDbFaceRecord
 10
0.0
 20
0.0
 30
0.0
 70
   128
 71
   233
 72
   234
 73
   235
 74
   236
  0
VERTEX
  5
37F
330
EB
100
AcDbEntity
  8
ｴｸｽﾃﾘｱ商品
 62
   250
370
    20
100
AcDbFaceRecord
 10
0.0
 20
0.0
 30
0.0
 70
   128
 71
   233
 72
   236
 73
   237
 74
   238
  0
VERTEX
  5
380
330
EB
100
AcDbEntity
  8
ｴｸｽﾃﾘｱ商品
 62
   250
370
    20
100
AcDbFaceRecord
 10
0.0
 20
0.0
 30
0.0
 70
   128
 71
   233
 72
   238
 73
   239
 74
   240
  0
VERTEX
  5
381
330
EB
100
AcDbEntity
  8
ｴｸｽﾃﾘｱ商品
 62
   250
370
    20
100
AcDbFaceRecord
 10
0.0
 20
0.0
 30
0.0
 70
   128
 71
   233
 72
   240
 73
   241
 74
   242
  0
VERTEX
  5
382
330
EB
100
AcDbEntity
  8
ｴｸｽﾃﾘｱ商品
 62
   250
370
    20
100
AcDbFaceRecord
 10
0.0
 20
0.0
 30
0.0
 70
   128
 71
   233
 72
   242
 73
   243
 74
   244
  0
VERTEX
  5
383
330
EB
100
AcDbEntity
  8
ｴｸｽﾃﾘｱ商品
 62
   250
370
    20
100
AcDbFaceRecord
 10
0.0
 20
0.0
 30
0.0
 70
   128
 71
   233
 72
   244
 73
   245
 74
   246
  0
VERTEX
  5
384
330
EB
100
AcDbEntity
  8
ｴｸｽﾃﾘｱ商品
 62
   250
370
    20
100
AcDbFaceRecord
 10
0.0
 20
0.0
 30
0.0
 70
   128
 71
   233
 72
   246
 73
   247
 74
   248
  0
VERTEX
  5
385
330
EB
100
AcDbEntity
  8
ｴｸｽﾃﾘｱ商品
 62
   250
370
    20
100
AcDbFaceRecord
 10
0.0
 20
0.0
 30
0.0
 70
   128
 71
   233
 72
   248
 73
   249
 74
   250
  0
VERTEX
  5
386
330
EB
100
AcDbEntity
  8
ｴｸｽﾃﾘｱ商品
 62
   250
370
    20
100
AcDbFaceRecord
 10
0.0
 20
0.0
 30
0.0
 70
   128
 71
   233
 72
   250
 73
   251
 74
   252
  0
VERTEX
  5
387
330
EB
100
AcDbEntity
  8
ｴｸｽﾃﾘｱ商品
 62
   250
370
    20
100
AcDbFaceRecord
 10
0.0
 20
0.0
 30
0.0
 70
   128
 71
   233
 72
   252
 73
   253
 74
   254
  0
VERTEX
  5
388
330
EB
100
AcDbEntity
  8
ｴｸｽﾃﾘｱ商品
 62
   250
370
    20
100
AcDbFaceRecord
 10
0.0
 20
0.0
 30
0.0
 70
   128
 71
   233
 72
   254
 73
   255
 74
   256
  0
VERTEX
  5
389
330
EB
100
AcDbEntity
  8
ｴｸｽﾃﾘｱ商品
 62
   250
370
    20
100
AcDbFaceRecord
 10
0.0
 20
0.0
 30
0.0
 70
   128
 71
   209
 72
   233
 73
   256
 74
   210
  0
VERTEX
  5
38A
330
EB
100
AcDbEntity
  8
ｴｸｽﾃﾘｱ商品
 62
   250
370
    20
100
AcDbFaceRecord
 10
0.0
 20
0.0
 30
0.0
 70
   128
 71
   210
 72
   256
 73
   255
 74
   211
  0
VERTEX
  5
38B
330
EB
100
AcDbEntity
  8
ｴｸｽﾃﾘｱ商品
 62
   250
370
    20
100
AcDbFaceRecord
 10
0.0
 20
0.0
 30
0.0
 70
   128
 71
   211
 72
   255
 73
   254
 74
   212
  0
VERTEX
  5
38C
330
EB
100
AcDbEntity
  8
ｴｸｽﾃﾘｱ商品
 62
   250
370
    20
100
AcDbFaceRecord
 10
0.0
 20
0.0
 30
0.0
 70
   128
 71
   212
 72
   254
 73
   253
 74
   213
  0
VERTEX
  5
38D
330
EB
100
AcDbEntity
  8
ｴｸｽﾃﾘｱ商品
 62
   250
370
    20
100
AcDbFaceRecord
 10
0.0
 20
0.0
 30
0.0
 70
   128
 71
   213
 72
   253
 73
   252
 74
   214
  0
VERTEX
  5
38E
330
EB
100
AcDbEntity
  8
ｴｸｽﾃﾘｱ商品
 62
   250
370
    20
100
AcDbFaceRecord
 10
0.0
 20
0.0
 30
0.0
 70
   128
 71
   214
 72
   252
 73
   251
 74
   215
  0
VERTEX
  5
38F
330
EB
100
AcDbEntity
  8
ｴｸｽﾃﾘｱ商品
 62
   250
370
    20
100
AcDbFaceRecord
 10
0.0
 20
0.0
 30
0.0
 70
   128
 71
   215
 72
   251
 73
   250
 74
   216
  0
VERTEX
  5
390
330
EB
100
AcDbEntity
  8
ｴｸｽﾃﾘｱ商品
 62
   250
370
    20
100
AcDbFaceRecord
 10
0.0
 20
0.0
 30
0.0
 70
   128
 71
   216
 72
   250
 73
   249
 74
   217
  0
VERTEX
  5
391
330
EB
100
AcDbEntity
  8
ｴｸｽﾃﾘｱ商品
 62
   250
370
    20
100
AcDbFaceRecord
 10
0.0
 20
0.0
 30
0.0
 70
   128
 71
   217
 72
   249
 73
   248
 74
   218
  0
VERTEX
  5
392
330
EB
100
AcDbEntity
  8
ｴｸｽﾃﾘｱ商品
 62
   250
370
    20
100
AcDbFaceRecord
 10
0.0
 20
0.0
 30
0.0
 70
   128
 71
   218
 72
   248
 73
   247
 74
   219
  0
VERTEX
  5
393
330
EB
100
AcDbEntity
  8
ｴｸｽﾃﾘｱ商品
 62
   250
370
    20
100
AcDbFaceRecord
 10
0.0
 20
0.0
 30
0.0
 70
   128
 71
   219
 72
   247
 73
   246
 74
   220
  0
VERTEX
  5
394
330
EB
100
AcDbEntity
  8
ｴｸｽﾃﾘｱ商品
 62
   250
370
    20
100
AcDbFaceRecord
 10
0.0
 20
0.0
 30
0.0
 70
   128
 71
   220
 72
   246
 73
   245
 74
   221
  0
VERTEX
  5
395
330
EB
100
AcDbEntity
  8
ｴｸｽﾃﾘｱ商品
 62
   250
370
    20
100
AcDbFaceRecord
 10
0.0
 20
0.0
 30
0.0
 70
   128
 71
   221
 72
   245
 73
   244
 74
   222
  0
VERTEX
  5
396
330
EB
100
AcDbEntity
  8
ｴｸｽﾃﾘｱ商品
 62
   250
370
    20
100
AcDbFaceRecord
 10
0.0
 20
0.0
 30
0.0
 70
   128
 71
   222
 72
   244
 73
   243
 74
   223
  0
VERTEX
  5
397
330
EB
100
AcDbEntity
  8
ｴｸｽﾃﾘｱ商品
 62
   250
370
    20
100
AcDbFaceRecord
 10
0.0
 20
0.0
 30
0.0
 70
   128
 71
   223
 72
   243
 73
   242
 74
   224
  0
VERTEX
  5
398
330
EB
100
AcDbEntity
  8
ｴｸｽﾃﾘｱ商品
 62
   250
370
    20
100
AcDbFaceRecord
 10
0.0
 20
0.0
 30
0.0
 70
   128
 71
   224
 72
   242
 73
   241
 74
   225
  0
VERTEX
  5
399
330
EB
100
AcDbEntity
  8
ｴｸｽﾃﾘｱ商品
 62
   250
370
    20
100
AcDbFaceRecord
 10
0.0
 20
0.0
 30
0.0
 70
   128
 71
   225
 72
   241
 73
   240
 74
   226
  0
VERTEX
  5
39A
330
EB
100
AcDbEntity
  8
ｴｸｽﾃﾘｱ商品
 62
   250
370
    20
100
AcDbFaceRecord
 10
0.0
 20
0.0
 30
0.0
 70
   128
 71
   226
 72
   240
 73
   239
 74
   227
  0
VERTEX
  5
39B
330
EB
100
AcDbEntity
  8
ｴｸｽﾃﾘｱ商品
 62
   250
370
    20
100
AcDbFaceRecord
 10
0.0
 20
0.0
 30
0.0
 70
   128
 71
   227
 72
   239
 73
   238
 74
   228
  0
VERTEX
  5
39C
330
EB
100
AcDbEntity
  8
ｴｸｽﾃﾘｱ商品
 62
   250
370
    20
100
AcDbFaceRecord
 10
0.0
 20
0.0
 30
0.0
 70
   128
 71
   228
 72
   238
 73
   237
 74
   229
  0
VERTEX
  5
39D
330
EB
100
AcDbEntity
  8
ｴｸｽﾃﾘｱ商品
 62
   250
370
    20
100
AcDbFaceRecord
 10
0.0
 20
0.0
 30
0.0
 70
   128
 71
   229
 72
   237
 73
   236
 74
   230
  0
VERTEX
  5
39E
330
EB
100
AcDbEntity
  8
ｴｸｽﾃﾘｱ商品
 62
   250
370
    20
100
AcDbFaceRecord
 10
0.0
 20
0.0
 30
0.0
 70
   128
 71
   230
 72
   236
 73
   235
 74
   231
  0
VERTEX
  5
39F
330
EB
100
AcDbEntity
  8
ｴｸｽﾃﾘｱ商品
 62
   250
370
    20
100
AcDbFaceRecord
 10
0.0
 20
0.0
 30
0.0
 70
   128
 71
   231
 72
   235
 73
   234
 74
   232
  0
VERTEX
  5
3A0
330
EB
100
AcDbEntity
  8
ｴｸｽﾃﾘｱ商品
 62
   250
370
    20
100
AcDbFaceRecord
 10
0.0
 20
0.0
 30
0.0
 70
   128
 71
   232
 72
   234
 73
   233
 74
   209
  0
VERTEX
  5
3A1
330
EB
100
AcDbEntity
  8
ｴｸｽﾃﾘｱ商品
 62
   250
370
    20
100
AcDbFaceRecord
 10
0.0
 20
0.0
 30
0.0
 70
   128
 71
   257
 72
   258
 73
   259
 74
   260
  0
VERTEX
  5
3A2
330
EB
100
AcDbEntity
  8
ｴｸｽﾃﾘｱ商品
 62
   250
370
    20
100
AcDbFaceRecord
 10
0.0
 20
0.0
 30
0.0
 70
   128
 71
   257
 72
   260
 73
   261
 74
   262
  0
VERTEX
  5
3A3
330
EB
100
AcDbEntity
  8
ｴｸｽﾃﾘｱ商品
 62
   250
370
    20
100
AcDbFaceRecord
 10
0.0
 20
0.0
 30
0.0
 70
   128
 71
   257
 72
   262
 73
   263
 74
   264
  0
VERTEX
  5
3A4
330
EB
100
AcDbEntity
  8
ｴｸｽﾃﾘｱ商品
 62
   250
370
    20
100
AcDbFaceRecord
 10
0.0
 20
0.0
 30
0.0
 70
   128
 71
   257
 72
   264
 73
   265
 74
   266
  0
VERTEX
  5
3A5
330
EB
100
AcDbEntity
  8
ｴｸｽﾃﾘｱ商品
 62
   250
370
    20
100
AcDbFaceRecord
 10
0.0
 20
0.0
 30
0.0
 70
   128
 71
   257
 72
   266
 73
   267
 74
   268
  0
VERTEX
  5
3A6
330
EB
100
AcDbEntity
  8
ｴｸｽﾃﾘｱ商品
 62
   250
370
    20
100
AcDbFaceRecord
 10
0.0
 20
0.0
 30
0.0
 70
   128
 71
   257
 72
   268
 73
   269
 74
   270
  0
VERTEX
  5
3A7
330
EB
100
AcDbEntity
  8
ｴｸｽﾃﾘｱ商品
 62
   250
370
    20
100
AcDbFaceRecord
 10
0.0
 20
0.0
 30
0.0
 70
   128
 71
   257
 72
   270
 73
   271
 74
   272
  0
VERTEX
  5
3A8
330
EB
100
AcDbEntity
  8
ｴｸｽﾃﾘｱ商品
 62
   250
370
    20
100
AcDbFaceRecord
 10
0.0
 20
0.0
 30
0.0
 70
   128
 71
   257
 72
   272
 73
   273
 74
   274
  0
VERTEX
  5
3A9
330
EB
100
AcDbEntity
  8
ｴｸｽﾃﾘｱ商品
 62
   250
370
    20
100
AcDbFaceRecord
 10
0.0
 20
0.0
 30
0.0
 70
   128
 71
   257
 72
   274
 73
   275
 74
   276
  0
VERTEX
  5
3AA
330
EB
100
AcDbEntity
  8
ｴｸｽﾃﾘｱ商品
 62
   250
370
    20
100
AcDbFaceRecord
 10
0.0
 20
0.0
 30
0.0
 70
   128
 71
   257
 72
   276
 73
   277
 74
   278
  0
VERTEX
  5
3AB
330
EB
100
AcDbEntity
  8
ｴｸｽﾃﾘｱ商品
 62
   250
370
    20
100
AcDbFaceRecord
 10
0.0
 20
0.0
 30
0.0
 70
   128
 71
   257
 72
   278
 73
   279
 74
   280
  0
VERTEX
  5
3AC
330
EB
100
AcDbEntity
  8
ｴｸｽﾃﾘｱ商品
 62
   250
370
    20
100
AcDbFaceRecord
 10
0.0
 20
0.0
 30
0.0
 70
   128
 71
   281
 72
   282
 73
   283
 74
   284
  0
VERTEX
  5
3AD
330
EB
100
AcDbEntity
  8
ｴｸｽﾃﾘｱ商品
 62
   250
370
    20
100
AcDbFaceRecord
 10
0.0
 20
0.0
 30
0.0
 70
   128
 71
   281
 72
   284
 73
   285
 74
   286
  0
VERTEX
  5
3AE
330
EB
100
AcDbEntity
  8
ｴｸｽﾃﾘｱ商品
 62
   250
370
    20
100
AcDbFaceRecord
 10
0.0
 20
0.0
 30
0.0
 70
   128
 71
   281
 72
   286
 73
   287
 74
   288
  0
VERTEX
  5
3AF
330
EB
100
AcDbEntity
  8
ｴｸｽﾃﾘｱ商品
 62
   250
370
    20
100
AcDbFaceRecord
 10
0.0
 20
0.0
 30
0.0
 70
   128
 71
   281
 72
   288
 73
   289
 74
   290
  0
VERTEX
  5
3B0
330
EB
100
AcDbEntity
  8
ｴｸｽﾃﾘｱ商品
 62
   250
370
    20
100
AcDbFaceRecord
 10
0.0
 20
0.0
 30
0.0
 70
   128
 71
   281
 72
   290
 73
   291
 74
   292
  0
VERTEX
  5
3B1
330
EB
100
AcDbEntity
  8
ｴｸｽﾃﾘｱ商品
 62
   250
370
    20
100
AcDbFaceRecord
 10
0.0
 20
0.0
 30
0.0
 70
   128
 71
   281
 72
   292
 73
   293
 74
   294
  0
VERTEX
  5
3B2
330
EB
100
AcDbEntity
  8
ｴｸｽﾃﾘｱ商品
 62
   250
370
    20
100
AcDbFaceRecord
 10
0.0
 20
0.0
 30
0.0
 70
   128
 71
   281
 72
   294
 73
   295
 74
   296
  0
VERTEX
  5
3B3
330
EB
100
AcDbEntity
  8
ｴｸｽﾃﾘｱ商品
 62
   250
370
    20
100
AcDbFaceRecord
 10
0.0
 20
0.0
 30
0.0
 70
   128
 71
   281
 72
   296
 73
   297
 74
   298
  0
VERTEX
  5
3B4
330
EB
100
AcDbEntity
  8
ｴｸｽﾃﾘｱ商品
 62
   250
370
    20
100
AcDbFaceRecord
 10
0.0
 20
0.0
 30
0.0
 70
   128
 71
   281
 72
   298
 73
   299
 74
   300
  0
VERTEX
  5
3B5
330
EB
100
AcDbEntity
  8
ｴｸｽﾃﾘｱ商品
 62
   250
370
    20
100
AcDbFaceRecord
 10
0.0
 20
0.0
 30
0.0
 70
   128
 71
   281
 72
   300
 73
   301
 74
   302
  0
VERTEX
  5
3B6
330
EB
100
AcDbEntity
  8
ｴｸｽﾃﾘｱ商品
 62
   250
370
    20
100
AcDbFaceRecord
 10
0.0
 20
0.0
 30
0.0
 70
   128
 71
   281
 72
   302
 73
   303
 74
   304
  0
VERTEX
  5
3B7
330
EB
100
AcDbEntity
  8
ｴｸｽﾃﾘｱ商品
 62
   250
370
    20
100
AcDbFaceRecord
 10
0.0
 20
0.0
 30
0.0
 70
   128
 71
   257
 72
   281
 73
   304
 74
   258
  0
VERTEX
  5
3B8
330
EB
100
AcDbEntity
  8
ｴｸｽﾃﾘｱ商品
 62
   250
370
    20
100
AcDbFaceRecord
 10
0.0
 20
0.0
 30
0.0
 70
   128
 71
   258
 72
   304
 73
   303
 74
   259
  0
VERTEX
  5
3B9
330
EB
100
AcDbEntity
  8
ｴｸｽﾃﾘｱ商品
 62
   250
370
    20
100
AcDbFaceRecord
 10
0.0
 20
0.0
 30
0.0
 70
   128
 71
   259
 72
   303
 73
   302
 74
   260
  0
VERTEX
  5
3BA
330
EB
100
AcDbEntity
  8
ｴｸｽﾃﾘｱ商品
 62
   250
370
    20
100
AcDbFaceRecord
 10
0.0
 20
0.0
 30
0.0
 70
   128
 71
   260
 72
   302
 73
   301
 74
   261
  0
VERTEX
  5
3BB
330
EB
100
AcDbEntity
  8
ｴｸｽﾃﾘｱ商品
 62
   250
370
    20
100
AcDbFaceRecord
 10
0.0
 20
0.0
 30
0.0
 70
   128
 71
   261
 72
   301
 73
   300
 74
   262
  0
VERTEX
  5
3BC
330
EB
100
AcDbEntity
  8
ｴｸｽﾃﾘｱ商品
 62
   250
370
    20
100
AcDbFaceRecord
 10
0.0
 20
0.0
 30
0.0
 70
   128
 71
   262
 72
   300
 73
   299
 74
   263
  0
VERTEX
  5
3BD
330
EB
100
AcDbEntity
  8
ｴｸｽﾃﾘｱ商品
 62
   250
370
    20
100
AcDbFaceRecord
 10
0.0
 20
0.0
 30
0.0
 70
   128
 71
   263
 72
   299
 73
   298
 74
   264
  0
VERTEX
  5
3BE
330
EB
100
AcDbEntity
  8
ｴｸｽﾃﾘｱ商品
 62
   250
370
    20
100
AcDbFaceRecord
 10
0.0
 20
0.0
 30
0.0
 70
   128
 71
   264
 72
   298
 73
   297
 74
   265
  0
VERTEX
  5
3BF
330
EB
100
AcDbEntity
  8
ｴｸｽﾃﾘｱ商品
 62
   250
370
    20
100
AcDbFaceRecord
 10
0.0
 20
0.0
 30
0.0
 70
   128
 71
   265
 72
   297
 73
   296
 74
   266
  0
VERTEX
  5
3C0
330
EB
100
AcDbEntity
  8
ｴｸｽﾃﾘｱ商品
 62
   250
370
    20
100
AcDbFaceRecord
 10
0.0
 20
0.0
 30
0.0
 70
   128
 71
   266
 72
   296
 73
   295
 74
   267
  0
VERTEX
  5
3C1
330
EB
100
AcDbEntity
  8
ｴｸｽﾃﾘｱ商品
 62
   250
370
    20
100
AcDbFaceRecord
 10
0.0
 20
0.0
 30
0.0
 70
   128
 71
   267
 72
   295
 73
   294
 74
   268
  0
VERTEX
  5
3C2
330
EB
100
AcDbEntity
  8
ｴｸｽﾃﾘｱ商品
 62
   250
370
    20
100
AcDbFaceRecord
 10
0.0
 20
0.0
 30
0.0
 70
   128
 71
   268
 72
   294
 73
   293
 74
   269
  0
VERTEX
  5
3C3
330
EB
100
AcDbEntity
  8
ｴｸｽﾃﾘｱ商品
 62
   250
370
    20
100
AcDbFaceRecord
 10
0.0
 20
0.0
 30
0.0
 70
   128
 71
   269
 72
   293
 73
   292
 74
   270
  0
VERTEX
  5
3C4
330
EB
100
AcDbEntity
  8
ｴｸｽﾃﾘｱ商品
 62
   250
370
    20
100
AcDbFaceRecord
 10
0.0
 20
0.0
 30
0.0
 70
   128
 71
   270
 72
   292
 73
   291
 74
   271
  0
VERTEX
  5
3C5
330
EB
100
AcDbEntity
  8
ｴｸｽﾃﾘｱ商品
 62
   250
370
    20
100
AcDbFaceRecord
 10
0.0
 20
0.0
 30
0.0
 70
   128
 71
   271
 72
   291
 73
   290
 74
   272
  0
VERTEX
  5
3C6
330
EB
100
AcDbEntity
  8
ｴｸｽﾃﾘｱ商品
 62
   250
370
    20
100
AcDbFaceRecord
 10
0.0
 20
0.0
 30
0.0
 70
   128
 71
   272
 72
   290
 73
   289
 74
   273
  0
VERTEX
  5
3C7
330
EB
100
AcDbEntity
  8
ｴｸｽﾃﾘｱ商品
 62
   250
370
    20
100
AcDbFaceRecord
 10
0.0
 20
0.0
 30
0.0
 70
   128
 71
   273
 72
   289
 73
   288
 74
   274
  0
VERTEX
  5
3C8
330
EB
100
AcDbEntity
  8
ｴｸｽﾃﾘｱ商品
 62
   250
370
    20
100
AcDbFaceRecord
 10
0.0
 20
0.0
 30
0.0
 70
   128
 71
   274
 72
   288
 73
   287
 74
   275
  0
VERTEX
  5
3C9
330
EB
100
AcDbEntity
  8
ｴｸｽﾃﾘｱ商品
 62
   250
370
    20
100
AcDbFaceRecord
 10
0.0
 20
0.0
 30
0.0
 70
   128
 71
   275
 72
   287
 73
   286
 74
   276
  0
VERTEX
  5
3CA
330
EB
100
AcDbEntity
  8
ｴｸｽﾃﾘｱ商品
 62
   250
370
    20
100
AcDbFaceRecord
 10
0.0
 20
0.0
 30
0.0
 70
   128
 71
   276
 72
   286
 73
   285
 74
   277
  0
VERTEX
  5
3CB
330
EB
100
AcDbEntity
  8
ｴｸｽﾃﾘｱ商品
 62
   250
370
    20
100
AcDbFaceRecord
 10
0.0
 20
0.0
 30
0.0
 70
   128
 71
   277
 72
   285
 73
   284
 74
   278
  0
VERTEX
  5
3CC
330
EB
100
AcDbEntity
  8
ｴｸｽﾃﾘｱ商品
 62
   250
370
    20
100
AcDbFaceRecord
 10
0.0
 20
0.0
 30
0.0
 70
   128
 71
   278
 72
   284
 73
   283
 74
   279
  0
VERTEX
  5
3CD
330
EB
100
AcDbEntity
  8
ｴｸｽﾃﾘｱ商品
 62
   250
370
    20
100
AcDbFaceRecord
 10
0.0
 20
0.0
 30
0.0
 70
   128
 71
   279
 72
   283
 73
   282
 74
   280
  0
VERTEX
  5
3CE
330
EB
100
AcDbEntity
  8
ｴｸｽﾃﾘｱ商品
 62
   250
370
    20
100
AcDbFaceRecord
 10
0.0
 20
0.0
 30
0.0
 70
   128
 71
   280
 72
   282
 73
   281
 74
   257
  0
VERTEX
  5
3CF
330
EB
100
AcDbEntity
  8
ｴｸｽﾃﾘｱ商品
 62
   250
370
    20
100
AcDbFaceRecord
 10
0.0
 20
0.0
 30
0.0
 70
   128
 71
   305
 72
   306
 73
   307
 74
   308
  0
VERTEX
  5
3D0
330
EB
100
AcDbEntity
  8
ｴｸｽﾃﾘｱ商品
 62
   250
370
    20
100
AcDbFaceRecord
 10
0.0
 20
0.0
 30
0.0
 70
   128
 71
   308
 72
   307
 73
   309
 74
   310
  0
VERTEX
  5
3D1
330
EB
100
AcDbEntity
  8
ｴｸｽﾃﾘｱ商品
 62
   250
370
    20
100
AcDbFaceRecord
 10
0.0
 20
0.0
 30
0.0
 70
   128
 71
   310
 72
   309
 73
   311
 74
   312
  0
VERTEX
  5
3D2
330
EB
100
AcDbEntity
  8
ｴｸｽﾃﾘｱ商品
 62
   250
370
    20
100
AcDbFaceRecord
 10
0.0
 20
0.0
 30
0.0
 70
   128
 71
   312
 72
   311
 73
   313
 74
   314
  0
VERTEX
  5
3D3
330
EB
100
AcDbEntity
  8
ｴｸｽﾃﾘｱ商品
 62
   250
370
    20
100
AcDbFaceRecord
 10
0.0
 20
0.0
 30
0.0
 70
   128
 71
   314
 72
   313
 73
   315
 74
   316
  0
VERTEX
  5
3D4
330
EB
100
AcDbEntity
  8
ｴｸｽﾃﾘｱ商品
 62
   250
370
    20
100
AcDbFaceRecord
 10
0.0
 20
0.0
 30
0.0
 70
   128
 71
   316
 72
   315
 73
   317
 74
   318
  0
VERTEX
  5
3D5
330
EB
100
AcDbEntity
  8
ｴｸｽﾃﾘｱ商品
 62
   250
370
    20
100
AcDbFaceRecord
 10
0.0
 20
0.0
 30
0.0
 70
   128
 71
   318
 72
   317
 73
   306
 74
   305
  0
VERTEX
  5
3D6
330
EB
100
AcDbEntity
  8
ｴｸｽﾃﾘｱ商品
 62
   250
370
    20
100
AcDbFaceRecord
 10
0.0
 20
0.0
 30
0.0
 70
   128
 71
   308
 72
   310
 73
   312
  0
VERTEX
  5
3D7
330
EB
100
AcDbEntity
  8
ｴｸｽﾃﾘｱ商品
 62
   250
370
    20
100
AcDbFaceRecord
 10
0.0
 20
0.0
 30
0.0
 70
   128
 71
   312
 72
   314
 73
   316
  0
VERTEX
  5
3D8
330
EB
100
AcDbEntity
  8
ｴｸｽﾃﾘｱ商品
 62
   250
370
    20
100
AcDbFaceRecord
 10
0.0
 20
0.0
 30
0.0
 70
   128
 71
   308
 72
   312
 73
   316
  0
VERTEX
  5
3D9
330
EB
100
AcDbEntity
  8
ｴｸｽﾃﾘｱ商品
 62
   250
370
    20
100
AcDbFaceRecord
 10
0.0
 20
0.0
 30
0.0
 70
   128
 71
   305
 72
   308
 73
   316
  0
VERTEX
  5
3DA
330
EB
100
AcDbEntity
  8
ｴｸｽﾃﾘｱ商品
 62
   250
370
    20
100
AcDbFaceRecord
 10
0.0
 20
0.0
 30
0.0
 70
   128
 71
   305
 72
   316
 73
   318
  0
VERTEX
  5
3DB
330
EB
100
AcDbEntity
  8
ｴｸｽﾃﾘｱ商品
 62
   250
370
    20
100
AcDbFaceRecord
 10
0.0
 20
0.0
 30
0.0
 70
   128
 71
   311
 72
   309
 73
   307
  0
VERTEX
  5
3DC
330
EB
100
AcDbEntity
  8
ｴｸｽﾃﾘｱ商品
 62
   250
370
    20
100
AcDbFaceRecord
 10
0.0
 20
0.0
 30
0.0
 70
   128
 71
   315
 72
   313
 73
   311
  0
VERTEX
  5
3DD
330
EB
100
AcDbEntity
  8
ｴｸｽﾃﾘｱ商品
 62
   250
370
    20
100
AcDbFaceRecord
 10
0.0
 20
0.0
 30
0.0
 70
   128
 71
   315
 72
   311
 73
   307
  0
VERTEX
  5
3DE
330
EB
100
AcDbEntity
  8
ｴｸｽﾃﾘｱ商品
 62
   250
370
    20
100
AcDbFaceRecord
 10
0.0
 20
0.0
 30
0.0
 70
   128
 71
   317
 72
   315
 73
   306
  0
VERTEX
  5
3DF
330
EB
100
AcDbEntity
  8
ｴｸｽﾃﾘｱ商品
 62
   250
370
    20
100
AcDbFaceRecord
 10
0.0
 20
0.0
 30
0.0
 70
   128
 71
   306
 72
   315
 73
   307
  0
VERTEX
  5
3E0
330
EB
100
AcDbEntity
  8
ｴｸｽﾃﾘｱ商品
 62
   250
370
    20
100
AcDbFaceRecord
 10
0.0
 20
0.0
 30
0.0
 70
   128
 71
   319
 72
   320
 73
   321
 74
   322
  0
VERTEX
  5
3E1
330
EB
100
AcDbEntity
  8
ｴｸｽﾃﾘｱ商品
 62
   250
370
    20
100
AcDbFaceRecord
 10
0.0
 20
0.0
 30
0.0
 70
   128
 71
   322
 72
   321
 73
   323
 74
   324
  0
VERTEX
  5
3E2
330
EB
100
AcDbEntity
  8
ｴｸｽﾃﾘｱ商品
 62
   250
370
    20
100
AcDbFaceRecord
 10
0.0
 20
0.0
 30
0.0
 70
   128
 71
   324
 72
   323
 73
   325
 74
   326
  0
VERTEX
  5
3E3
330
EB
100
AcDbEntity
  8
ｴｸｽﾃﾘｱ商品
 62
   250
370
    20
100
AcDbFaceRecord
 10
0.0
 20
0.0
 30
0.0
 70
   128
 71
   326
 72
   325
 73
   327
 74
   328
  0
VERTEX
  5
3E4
330
EB
100
AcDbEntity
  8
ｴｸｽﾃﾘｱ商品
 62
   250
370
    20
100
AcDbFaceRecord
 10
0.0
 20
0.0
 30
0.0
 70
   128
 71
   328
 72
   327
 73
   329
 74
   330
  0
VERTEX
  5
3E5
330
EB
100
AcDbEntity
  8
ｴｸｽﾃﾘｱ商品
 62
   250
370
    20
100
AcDbFaceRecord
 10
0.0
 20
0.0
 30
0.0
 70
   128
 71
   330
 72
   329
 73
   331
 74
   332
  0
VERTEX
  5
3E6
330
EB
100
AcDbEntity
  8
ｴｸｽﾃﾘｱ商品
 62
   250
370
    20
100
AcDbFaceRecord
 10
0.0
 20
0.0
 30
0.0
 70
   128
 71
   332
 72
   331
 73
   333
 74
   334
  0
VERTEX
  5
3E7
330
EB
100
AcDbEntity
  8
ｴｸｽﾃﾘｱ商品
 62
   250
370
    20
100
AcDbFaceRecord
 10
0.0
 20
0.0
 30
0.0
 70
   128
 71
   334
 72
   333
 73
   320
 74
   319
  0
VERTEX
  5
3E8
330
EB
100
AcDbEntity
  8
ｴｸｽﾃﾘｱ商品
 62
   250
370
    20
100
AcDbFaceRecord
 10
0.0
 20
0.0
 30
0.0
 70
   128
 71
   319
 72
   322
 73
   324
 74
   326
  0
VERTEX
  5
3E9
330
EB
100
AcDbEntity
  8
ｴｸｽﾃﾘｱ商品
 62
   250
370
    20
100
AcDbFaceRecord
 10
0.0
 20
0.0
 30
0.0
 70
   128
 71
   319
 72
   326
 73
   328
 74
   330
  0
VERTEX
  5
3EA
330
EB
100
AcDbEntity
  8
ｴｸｽﾃﾘｱ商品
 62
   250
370
    20
100
AcDbFaceRecord
 10
0.0
 20
0.0
 30
0.0
 70
   128
 71
   319
 72
   330
 73
   332
 74
   334
  0
VERTEX
  5
3EB
330
EB
100
AcDbEntity
  8
ｴｸｽﾃﾘｱ商品
 62
   250
370
    20
100
AcDbFaceRecord
 10
0.0
 20
0.0
 30
0.0
 70
   128
 71
   320
 72
   333
 73
   331
 74
   329
  0
VERTEX
  5
3EC
330
EB
100
AcDbEntity
  8
ｴｸｽﾃﾘｱ商品
 62
   250
370
    20
100
AcDbFaceRecord
 10
0.0
 20
0.0
 30
0.0
 70
   128
 71
   320
 72
   329
 73
   327
 74
   325
  0
VERTEX
  5
3ED
330
EB
100
AcDbEntity
  8
ｴｸｽﾃﾘｱ商品
 62
   250
370
    20
100
AcDbFaceRecord
 10
0.0
 20
0.0
 30
0.0
 70
   128
 71
   320
 72
   325
 73
   323
 74
   321
  0
VERTEX
  5
3EE
330
EB
100
AcDbEntity
  8
ｴｸｽﾃﾘｱ商品
 62
   250
370
    20
100
AcDbFaceRecord
 10
0.0
 20
0.0
 30
0.0
 70
   128
 71
   335
 72
   336
 73
   337
 74
   338
  0
VERTEX
  5
3EF
330
EB
100
AcDbEntity
  8
ｴｸｽﾃﾘｱ商品
 62
   250
370
    20
100
AcDbFaceRecord
 10
0.0
 20
0.0
 30
0.0
 70
   128
 71
   335
 72
   338
 73
   339
 74
   340
  0
VERTEX
  5
3F0
330
EB
100
AcDbEntity
  8
ｴｸｽﾃﾘｱ商品
 62
   250
370
    20
100
AcDbFaceRecord
 10
0.0
 20
0.0
 30
0.0
 70
   128
 71
   335
 72
   340
 73
   341
 74
   342
  0
VERTEX
  5
3F1
330
EB
100
AcDbEntity
  8
ｴｸｽﾃﾘｱ商品
 62
   250
370
    20
100
AcDbFaceRecord
 10
0.0
 20
0.0
 30
0.0
 70
   128
 71
   335
 72
   342
 73
   343
 74
   344
  0
VERTEX
  5
3F2
330
EB
100
AcDbEntity
  8
ｴｸｽﾃﾘｱ商品
 62
   250
370
    20
100
AcDbFaceRecord
 10
0.0
 20
0.0
 30
0.0
 70
   128
 71
   335
 72
   344
 73
   345
 74
   346
  0
VERTEX
  5
3F3
330
EB
100
AcDbEntity
  8
ｴｸｽﾃﾘｱ商品
 62
   250
370
    20
100
AcDbFaceRecord
 10
0.0
 20
0.0
 30
0.0
 70
   128
 71
   335
 72
   346
 73
   347
 74
   348
  0
VERTEX
  5
3F4
330
EB
100
AcDbEntity
  8
ｴｸｽﾃﾘｱ商品
 62
   250
370
    20
100
AcDbFaceRecord
 10
0.0
 20
0.0
 30
0.0
 70
   128
 71
   335
 72
   348
 73
   349
 74
   350
  0
VERTEX
  5
3F5
330
EB
100
AcDbEntity
  8
ｴｸｽﾃﾘｱ商品
 62
   250
370
    20
100
AcDbFaceRecord
 10
0.0
 20
0.0
 30
0.0
 70
   128
 71
   335
 72
   350
 73
   351
 74
   352
  0
VERTEX
  5
3F6
330
EB
100
AcDbEntity
  8
ｴｸｽﾃﾘｱ商品
 62
   250
370
    20
100
AcDbFaceRecord
 10
0.0
 20
0.0
 30
0.0
 70
   128
 71
   335
 72
   352
 73
   353
 74
   354
  0
VERTEX
  5
3F7
330
EB
100
AcDbEntity
  8
ｴｸｽﾃﾘｱ商品
 62
   250
370
    20
100
AcDbFaceRecord
 10
0.0
 20
0.0
 30
0.0
 70
   128
 71
   335
 72
   354
 73
   355
 74
   356
  0
VERTEX
  5
3F8
330
EB
100
AcDbEntity
  8
ｴｸｽﾃﾘｱ商品
 62
   250
370
    20
100
AcDbFaceRecord
 10
0.0
 20
0.0
 30
0.0
 70
   128
 71
   335
 72
   356
 73
   357
 74
   358
  0
VERTEX
  5
3F9
330
EB
100
AcDbEntity
  8
ｴｸｽﾃﾘｱ商品
 62
   250
370
    20
100
AcDbFaceRecord
 10
0.0
 20
0.0
 30
0.0
 70
   128
 71
   359
 72
   360
 73
   361
 74
   362
  0
VERTEX
  5
3FA
330
EB
100
AcDbEntity
  8
ｴｸｽﾃﾘｱ商品
 62
   250
370
    20
100
AcDbFaceRecord
 10
0.0
 20
0.0
 30
0.0
 70
   128
 71
   359
 72
   362
 73
   363
 74
   364
  0
VERTEX
  5
3FB
330
EB
100
AcDbEntity
  8
ｴｸｽﾃﾘｱ商品
 62
   250
370
    20
100
AcDbFaceRecord
 10
0.0
 20
0.0
 30
0.0
 70
   128
 71
   359
 72
   364
 73
   365
 74
   366
  0
VERTEX
  5
3FC
330
EB
100
AcDbEntity
  8
ｴｸｽﾃﾘｱ商品
 62
   250
370
    20
100
AcDbFaceRecord
 10
0.0
 20
0.0
 30
0.0
 70
   128
 71
   359
 72
   366
 73
   367
 74
   368
  0
VERTEX
  5
3FD
330
EB
100
AcDbEntity
  8
ｴｸｽﾃﾘｱ商品
 62
   250
370
    20
100
AcDbFaceRecord
 10
0.0
 20
0.0
 30
0.0
 70
   128
 71
   359
 72
   368
 73
   369
 74
   370
  0
VERTEX
  5
3FE
330
EB
100
AcDbEntity
  8
ｴｸｽﾃﾘｱ商品
 62
   250
370
    20
100
AcDbFaceRecord
 10
0.0
 20
0.0
 30
0.0
 70
   128
 71
   359
 72
   370
 73
   371
 74
   372
  0
VERTEX
  5
3FF
330
EB
100
AcDbEntity
  8
ｴｸｽﾃﾘｱ商品
 62
   250
370
    20
100
AcDbFaceRecord
 10
0.0
 20
0.0
 30
0.0
 70
   128
 71
   359
 72
   372
 73
   373
 74
   374
  0
VERTEX
  5
400
330
EB
100
AcDbEntity
  8
ｴｸｽﾃﾘｱ商品
 62
   250
370
    20
100
AcDbFaceRecord
 10
0.0
 20
0.0
 30
0.0
 70
   128
 71
   359
 72
   374
 73
   375
 74
   376
  0
VERTEX
  5
401
330
EB
100
AcDbEntity
  8
ｴｸｽﾃﾘｱ商品
 62
   250
370
    20
100
AcDbFaceRecord
 10
0.0
 20
0.0
 30
0.0
 70
   128
 71
   359
 72
   376
 73
   377
 74
   378
  0
VERTEX
  5
402
330
EB
100
AcDbEntity
  8
ｴｸｽﾃﾘｱ商品
 62
   250
370
    20
100
AcDbFaceRecord
 10
0.0
 20
0.0
 30
0.0
 70
   128
 71
   359
 72
   378
 73
   379
 74
   380
  0
VERTEX
  5
403
330
EB
100
AcDbEntity
  8
ｴｸｽﾃﾘｱ商品
 62
   250
370
    20
100
AcDbFaceRecord
 10
0.0
 20
0.0
 30
0.0
 70
   128
 71
   359
 72
   380
 73
   381
 74
   382
  0
VERTEX
  5
404
330
EB
100
AcDbEntity
  8
ｴｸｽﾃﾘｱ商品
 62
   250
370
    20
100
AcDbFaceRecord
 10
0.0
 20
0.0
 30
0.0
 70
   128
 71
   335
 72
   359
 73
   382
 74
   336
  0
VERTEX
  5
405
330
EB
100
AcDbEntity
  8
ｴｸｽﾃﾘｱ商品
 62
   250
370
    20
100
AcDbFaceRecord
 10
0.0
 20
0.0
 30
0.0
 70
   128
 71
   336
 72
   382
 73
   381
 74
   337
  0
VERTEX
  5
406
330
EB
100
AcDbEntity
  8
ｴｸｽﾃﾘｱ商品
 62
   250
370
    20
100
AcDbFaceRecord
 10
0.0
 20
0.0
 30
0.0
 70
   128
 71
   337
 72
   381
 73
   380
 74
   338
  0
VERTEX
  5
407
330
EB
100
AcDbEntity
  8
ｴｸｽﾃﾘｱ商品
 62
   250
370
    20
100
AcDbFaceRecord
 10
0.0
 20
0.0
 30
0.0
 70
   128
 71
   338
 72
   380
 73
   379
 74
   339
  0
VERTEX
  5
408
330
EB
100
AcDbEntity
  8
ｴｸｽﾃﾘｱ商品
 62
   250
370
    20
100
AcDbFaceRecord
 10
0.0
 20
0.0
 30
0.0
 70
   128
 71
   339
 72
   379
 73
   378
 74
   340
  0
VERTEX
  5
409
330
EB
100
AcDbEntity
  8
ｴｸｽﾃﾘｱ商品
 62
   250
370
    20
100
AcDbFaceRecord
 10
0.0
 20
0.0
 30
0.0
 70
   128
 71
   340
 72
   378
 73
   377
 74
   341
  0
VERTEX
  5
40A
330
EB
100
AcDbEntity
  8
ｴｸｽﾃﾘｱ商品
 62
   250
370
    20
100
AcDbFaceRecord
 10
0.0
 20
0.0
 30
0.0
 70
   128
 71
   341
 72
   377
 73
   376
 74
   342
  0
VERTEX
  5
40B
330
EB
100
AcDbEntity
  8
ｴｸｽﾃﾘｱ商品
 62
   250
370
    20
100
AcDbFaceRecord
 10
0.0
 20
0.0
 30
0.0
 70
   128
 71
   342
 72
   376
 73
   375
 74
   343
  0
VERTEX
  5
40C
330
EB
100
AcDbEntity
  8
ｴｸｽﾃﾘｱ商品
 62
   250
370
    20
100
AcDbFaceRecord
 10
0.0
 20
0.0
 30
0.0
 70
   128
 71
   343
 72
   375
 73
   374
 74
   344
  0
VERTEX
  5
40D
330
EB
100
AcDbEntity
  8
ｴｸｽﾃﾘｱ商品
 62
   250
370
    20
100
AcDbFaceRecord
 10
0.0
 20
0.0
 30
0.0
 70
   128
 71
   344
 72
   374
 73
   373
 74
   345
  0
VERTEX
  5
40E
330
EB
100
AcDbEntity
  8
ｴｸｽﾃﾘｱ商品
 62
   250
370
    20
100
AcDbFaceRecord
 10
0.0
 20
0.0
 30
0.0
 70
   128
 71
   345
 72
   373
 73
   372
 74
   346
  0
VERTEX
  5
40F
330
EB
100
AcDbEntity
  8
ｴｸｽﾃﾘｱ商品
 62
   250
370
    20
100
AcDbFaceRecord
 10
0.0
 20
0.0
 30
0.0
 70
   128
 71
   346
 72
   372
 73
   371
 74
   347
  0
VERTEX
  5
410
330
EB
100
AcDbEntity
  8
ｴｸｽﾃﾘｱ商品
 62
   250
370
    20
100
AcDbFaceRecord
 10
0.0
 20
0.0
 30
0.0
 70
   128
 71
   347
 72
   371
 73
   370
 74
   348
  0
VERTEX
  5
411
330
EB
100
AcDbEntity
  8
ｴｸｽﾃﾘｱ商品
 62
   250
370
    20
100
AcDbFaceRecord
 10
0.0
 20
0.0
 30
0.0
 70
   128
 71
   348
 72
   370
 73
   369
 74
   349
  0
VERTEX
  5
412
330
EB
100
AcDbEntity
  8
ｴｸｽﾃﾘｱ商品
 62
   250
370
    20
100
AcDbFaceRecord
 10
0.0
 20
0.0
 30
0.0
 70
   128
 71
   349
 72
   369
 73
   368
 74
   350
  0
VERTEX
  5
413
330
EB
100
AcDbEntity
  8
ｴｸｽﾃﾘｱ商品
 62
   250
370
    20
100
AcDbFaceRecord
 10
0.0
 20
0.0
 30
0.0
 70
   128
 71
   350
 72
   368
 73
   367
 74
   351
  0
VERTEX
  5
414
330
EB
100
AcDbEntity
  8
ｴｸｽﾃﾘｱ商品
 62
   250
370
    20
100
AcDbFaceRecord
 10
0.0
 20
0.0
 30
0.0
 70
   128
 71
   351
 72
   367
 73
   366
 74
   352
  0
VERTEX
  5
415
330
EB
100
AcDbEntity
  8
ｴｸｽﾃﾘｱ商品
 62
   250
370
    20
100
AcDbFaceRecord
 10
0.0
 20
0.0
 30
0.0
 70
   128
 71
   352
 72
   366
 73
   365
 74
   353
  0
VERTEX
  5
416
330
EB
100
AcDbEntity
  8
ｴｸｽﾃﾘｱ商品
 62
   250
370
    20
100
AcDbFaceRecord
 10
0.0
 20
0.0
 30
0.0
 70
   128
 71
   353
 72
   365
 73
   364
 74
   354
  0
VERTEX
  5
417
330
EB
100
AcDbEntity
  8
ｴｸｽﾃﾘｱ商品
 62
   250
370
    20
100
AcDbFaceRecord
 10
0.0
 20
0.0
 30
0.0
 70
   128
 71
   354
 72
   364
 73
   363
 74
   355
  0
VERTEX
  5
418
330
EB
100
AcDbEntity
  8
ｴｸｽﾃﾘｱ商品
 62
   250
370
    20
100
AcDbFaceRecord
 10
0.0
 20
0.0
 30
0.0
 70
   128
 71
   355
 72
   363
 73
   362
 74
   356
  0
VERTEX
  5
419
330
EB
100
AcDbEntity
  8
ｴｸｽﾃﾘｱ商品
 62
   250
370
    20
100
AcDbFaceRecord
 10
0.0
 20
0.0
 30
0.0
 70
   128
 71
   356
 72
   362
 73
   361
 74
   357
  0
VERTEX
  5
41A
330
EB
100
AcDbEntity
  8
ｴｸｽﾃﾘｱ商品
 62
   250
370
    20
100
AcDbFaceRecord
 10
0.0
 20
0.0
 30
0.0
 70
   128
 71
   357
 72
   361
 73
   360
 74
   358
  0
VERTEX
  5
41B
330
EB
100
AcDbEntity
  8
ｴｸｽﾃﾘｱ商品
 62
   250
370
    20
100
AcDbFaceRecord
 10
0.0
 20
0.0
 30
0.0
 70
   128
 71
   358
 72
   360
 73
   359
 74
   335
  0
VERTEX
  5
41C
330
EB
100
AcDbEntity
  8
ｴｸｽﾃﾘｱ商品
 62
   250
370
    20
100
AcDbFaceRecord
 10
0.0
 20
0.0
 30
0.0
 70
   128
 71
   383
 72
   384
 73
   385
 74
   386
  0
VERTEX
  5
41D
330
EB
100
AcDbEntity
  8
ｴｸｽﾃﾘｱ商品
 62
   250
370
    20
100
AcDbFaceRecord
 10
0.0
 20
0.0
 30
0.0
 70
   128
 71
   383
 72
   386
 73
   387
 74
   388
  0
VERTEX
  5
41E
330
EB
100
AcDbEntity
  8
ｴｸｽﾃﾘｱ商品
 62
   250
370
    20
100
AcDbFaceRecord
 10
0.0
 20
0.0
 30
0.0
 70
   128
 71
   383
 72
   388
 73
   389
 74
   390
  0
VERTEX
  5
41F
330
EB
100
AcDbEntity
  8
ｴｸｽﾃﾘｱ商品
 62
   250
370
    20
100
AcDbFaceRecord
 10
0.0
 20
0.0
 30
0.0
 70
   128
 71
   383
 72
   390
 73
   391
 74
   392
  0
VERTEX
  5
420
330
EB
100
AcDbEntity
  8
ｴｸｽﾃﾘｱ商品
 62
   250
370
    20
100
AcDbFaceRecord
 10
0.0
 20
0.0
 30
0.0
 70
   128
 71
   383
 72
   392
 73
   393
 74
   394
  0
VERTEX
  5
421
330
EB
100
AcDbEntity
  8
ｴｸｽﾃﾘｱ商品
 62
   250
370
    20
100
AcDbFaceRecord
 10
0.0
 20
0.0
 30
0.0
 70
   128
 71
   383
 72
   394
 73
   395
 74
   396
  0
VERTEX
  5
422
330
EB
100
AcDbEntity
  8
ｴｸｽﾃﾘｱ商品
 62
   250
370
    20
100
AcDbFaceRecord
 10
0.0
 20
0.0
 30
0.0
 70
   128
 71
   383
 72
   396
 73
   397
 74
   398
  0
VERTEX
  5
423
330
EB
100
AcDbEntity
  8
ｴｸｽﾃﾘｱ商品
 62
   250
370
    20
100
AcDbFaceRecord
 10
0.0
 20
0.0
 30
0.0
 70
   128
 71
   383
 72
   398
 73
   399
 74
   400
  0
VERTEX
  5
424
330
EB
100
AcDbEntity
  8
ｴｸｽﾃﾘｱ商品
 62
   250
370
    20
100
AcDbFaceRecord
 10
0.0
 20
0.0
 30
0.0
 70
   128
 71
   383
 72
   400
 73
   401
 74
   402
  0
VERTEX
  5
425
330
EB
100
AcDbEntity
  8
ｴｸｽﾃﾘｱ商品
 62
   250
370
    20
100
AcDbFaceRecord
 10
0.0
 20
0.0
 30
0.0
 70
   128
 71
   383
 72
   402
 73
   403
 74
   404
  0
VERTEX
  5
426
330
EB
100
AcDbEntity
  8
ｴｸｽﾃﾘｱ商品
 62
   250
370
    20
100
AcDbFaceRecord
 10
0.0
 20
0.0
 30
0.0
 70
   128
 71
   383
 72
   404
 73
   405
 74
   406
  0
VERTEX
  5
427
330
EB
100
AcDbEntity
  8
ｴｸｽﾃﾘｱ商品
 62
   250
370
    20
100
AcDbFaceRecord
 10
0.0
 20
0.0
 30
0.0
 70
   128
 71
   407
 72
   408
 73
   409
 74
   410
  0
VERTEX
  5
428
330
EB
100
AcDbEntity
  8
ｴｸｽﾃﾘｱ商品
 62
   250
370
    20
100
AcDbFaceRecord
 10
0.0
 20
0.0
 30
0.0
 70
   128
 71
   407
 72
   410
 73
   411
 74
   412
  0
VERTEX
  5
429
330
EB
100
AcDbEntity
  8
ｴｸｽﾃﾘｱ商品
 62
   250
370
    20
100
AcDbFaceRecord
 10
0.0
 20
0.0
 30
0.0
 70
   128
 71
   407
 72
   412
 73
   413
 74
   414
  0
VERTEX
  5
42A
330
EB
100
AcDbEntity
  8
ｴｸｽﾃﾘｱ商品
 62
   250
370
    20
100
AcDbFaceRecord
 10
0.0
 20
0.0
 30
0.0
 70
   128
 71
   407
 72
   414
 73
   415
 74
   416
  0
VERTEX
  5
42B
330
EB
100
AcDbEntity
  8
ｴｸｽﾃﾘｱ商品
 62
   250
370
    20
100
AcDbFaceRecord
 10
0.0
 20
0.0
 30
0.0
 70
   128
 71
   407
 72
   416
 73
   417
 74
   418
  0
VERTEX
  5
42C
330
EB
100
AcDbEntity
  8
ｴｸｽﾃﾘｱ商品
 62
   250
370
    20
100
AcDbFaceRecord
 10
0.0
 20
0.0
 30
0.0
 70
   128
 71
   407
 72
   418
 73
   419
 74
   420
  0
VERTEX
  5
42D
330
EB
100
AcDbEntity
  8
ｴｸｽﾃﾘｱ商品
 62
   250
370
    20
100
AcDbFaceRecord
 10
0.0
 20
0.0
 30
0.0
 70
   128
 71
   407
 72
   420
 73
   421
 74
   422
  0
VERTEX
  5
42E
330
EB
100
AcDbEntity
  8
ｴｸｽﾃﾘｱ商品
 62
   250
370
    20
100
AcDbFaceRecord
 10
0.0
 20
0.0
 30
0.0
 70
   128
 71
   407
 72
   422
 73
   423
 74
   424
  0
VERTEX
  5
42F
330
EB
100
AcDbEntity
  8
ｴｸｽﾃﾘｱ商品
 62
   250
370
    20
100
AcDbFaceRecord
 10
0.0
 20
0.0
 30
0.0
 70
   128
 71
   407
 72
   424
 73
   425
 74
   426
  0
VERTEX
  5
430
330
EB
100
AcDbEntity
  8
ｴｸｽﾃﾘｱ商品
 62
   250
370
    20
100
AcDbFaceRecord
 10
0.0
 20
0.0
 30
0.0
 70
   128
 71
   407
 72
   426
 73
   427
 74
   428
  0
VERTEX
  5
431
330
EB
100
AcDbEntity
  8
ｴｸｽﾃﾘｱ商品
 62
   250
370
    20
100
AcDbFaceRecord
 10
0.0
 20
0.0
 30
0.0
 70
   128
 71
   407
 72
   428
 73
   429
 74
   430
  0
VERTEX
  5
432
330
EB
100
AcDbEntity
  8
ｴｸｽﾃﾘｱ商品
 62
   250
370
    20
100
AcDbFaceRecord
 10
0.0
 20
0.0
 30
0.0
 70
   128
 71
   383
 72
   407
 73
   430
 74
   384
  0
VERTEX
  5
433
330
EB
100
AcDbEntity
  8
ｴｸｽﾃﾘｱ商品
 62
   250
370
    20
100
AcDbFaceRecord
 10
0.0
 20
0.0
 30
0.0
 70
   128
 71
   384
 72
   430
 73
   429
 74
   385
  0
VERTEX
  5
434
330
EB
100
AcDbEntity
  8
ｴｸｽﾃﾘｱ商品
 62
   250
370
    20
100
AcDbFaceRecord
 10
0.0
 20
0.0
 30
0.0
 70
   128
 71
   385
 72
   429
 73
   428
 74
   386
  0
VERTEX
  5
435
330
EB
100
AcDbEntity
  8
ｴｸｽﾃﾘｱ商品
 62
   250
370
    20
100
AcDbFaceRecord
 10
0.0
 20
0.0
 30
0.0
 70
   128
 71
   386
 72
   428
 73
   427
 74
   387
  0
VERTEX
  5
436
330
EB
100
AcDbEntity
  8
ｴｸｽﾃﾘｱ商品
 62
   250
370
    20
100
AcDbFaceRecord
 10
0.0
 20
0.0
 30
0.0
 70
   128
 71
   387
 72
   427
 73
   426
 74
   388
  0
VERTEX
  5
437
330
EB
100
AcDbEntity
  8
ｴｸｽﾃﾘｱ商品
 62
   250
370
    20
100
AcDbFaceRecord
 10
0.0
 20
0.0
 30
0.0
 70
   128
 71
   388
 72
   426
 73
   425
 74
   389
  0
VERTEX
  5
438
330
EB
100
AcDbEntity
  8
ｴｸｽﾃﾘｱ商品
 62
   250
370
    20
100
AcDbFaceRecord
 10
0.0
 20
0.0
 30
0.0
 70
   128
 71
   389
 72
   425
 73
   424
 74
   390
  0
VERTEX
  5
439
330
EB
100
AcDbEntity
  8
ｴｸｽﾃﾘｱ商品
 62
   250
370
    20
100
AcDbFaceRecord
 10
0.0
 20
0.0
 30
0.0
 70
   128
 71
   390
 72
   424
 73
   423
 74
   391
  0
VERTEX
  5
43A
330
EB
100
AcDbEntity
  8
ｴｸｽﾃﾘｱ商品
 62
   250
370
    20
100
AcDbFaceRecord
 10
0.0
 20
0.0
 30
0.0
 70
   128
 71
   391
 72
   423
 73
   422
 74
   392
  0
VERTEX
  5
43B
330
EB
100
AcDbEntity
  8
ｴｸｽﾃﾘｱ商品
 62
   250
370
    20
100
AcDbFaceRecord
 10
0.0
 20
0.0
 30
0.0
 70
   128
 71
   392
 72
   422
 73
   421
 74
   393
  0
VERTEX
  5
43C
330
EB
100
AcDbEntity
  8
ｴｸｽﾃﾘｱ商品
 62
   250
370
    20
100
AcDbFaceRecord
 10
0.0
 20
0.0
 30
0.0
 70
   128
 71
   393
 72
   421
 73
   420
 74
   394
  0
VERTEX
  5
43D
330
EB
100
AcDbEntity
  8
ｴｸｽﾃﾘｱ商品
 62
   250
370
    20
100
AcDbFaceRecord
 10
0.0
 20
0.0
 30
0.0
 70
   128
 71
   394
 72
   420
 73
   419
 74
   395
  0
VERTEX
  5
43E
330
EB
100
AcDbEntity
  8
ｴｸｽﾃﾘｱ商品
 62
   250
370
    20
100
AcDbFaceRecord
 10
0.0
 20
0.0
 30
0.0
 70
   128
 71
   395
 72
   419
 73
   418
 74
   396
  0
VERTEX
  5
43F
330
EB
100
AcDbEntity
  8
ｴｸｽﾃﾘｱ商品
 62
   250
370
    20
100
AcDbFaceRecord
 10
0.0
 20
0.0
 30
0.0
 70
   128
 71
   396
 72
   418
 73
   417
 74
   397
  0
VERTEX
  5
440
330
EB
100
AcDbEntity
  8
ｴｸｽﾃﾘｱ商品
 62
   250
370
    20
100
AcDbFaceRecord
 10
0.0
 20
0.0
 30
0.0
 70
   128
 71
   397
 72
   417
 73
   416
 74
   398
  0
VERTEX
  5
441
330
EB
100
AcDbEntity
  8
ｴｸｽﾃﾘｱ商品
 62
   250
370
    20
100
AcDbFaceRecord
 10
0.0
 20
0.0
 30
0.0
 70
   128
 71
   398
 72
   416
 73
   415
 74
   399
  0
VERTEX
  5
442
330
EB
100
AcDbEntity
  8
ｴｸｽﾃﾘｱ商品
 62
   250
370
    20
100
AcDbFaceRecord
 10
0.0
 20
0.0
 30
0.0
 70
   128
 71
   399
 72
   415
 73
   414
 74
   400
  0
VERTEX
  5
443
330
EB
100
AcDbEntity
  8
ｴｸｽﾃﾘｱ商品
 62
   250
370
    20
100
AcDbFaceRecord
 10
0.0
 20
0.0
 30
0.0
 70
   128
 71
   400
 72
   414
 73
   413
 74
   401
  0
VERTEX
  5
444
330
EB
100
AcDbEntity
  8
ｴｸｽﾃﾘｱ商品
 62
   250
370
    20
100
AcDbFaceRecord
 10
0.0
 20
0.0
 30
0.0
 70
   128
 71
   401
 72
   413
 73
   412
 74
   402
  0
VERTEX
  5
445
330
EB
100
AcDbEntity
  8
ｴｸｽﾃﾘｱ商品
 62
   250
370
    20
100
AcDbFaceRecord
 10
0.0
 20
0.0
 30
0.0
 70
   128
 71
   402
 72
   412
 73
   411
 74
   403
  0
VERTEX
  5
446
330
EB
100
AcDbEntity
  8
ｴｸｽﾃﾘｱ商品
 62
   250
370
    20
100
AcDbFaceRecord
 10
0.0
 20
0.0
 30
0.0
 70
   128
 71
   403
 72
   411
 73
   410
 74
   404
  0
VERTEX
  5
447
330
EB
100
AcDbEntity
  8
ｴｸｽﾃﾘｱ商品
 62
   250
370
    20
100
AcDbFaceRecord
 10
0.0
 20
0.0
 30
0.0
 70
   128
 71
   404
 72
   410
 73
   409
 74
   405
  0
VERTEX
  5
448
330
EB
100
AcDbEntity
  8
ｴｸｽﾃﾘｱ商品
 62
   250
370
    20
100
AcDbFaceRecord
 10
0.0
 20
0.0
 30
0.0
 70
   128
 71
   405
 72
   409
 73
   408
 74
   406
  0
VERTEX
  5
449
330
EB
100
AcDbEntity
  8
ｴｸｽﾃﾘｱ商品
 62
   250
370
    20
100
AcDbFaceRecord
 10
0.0
 20
0.0
 30
0.0
 70
   128
 71
   406
 72
   408
 73
   407
 74
   383
  0
VERTEX
  5
44A
330
EB
100
AcDbEntity
  8
ｴｸｽﾃﾘｱ商品
 62
   250
370
    20
100
AcDbFaceRecord
 10
0.0
 20
0.0
 30
0.0
 70
   128
 71
   431
 72
   432
 73
   433
 74
   434
  0
VERTEX
  5
44B
330
EB
100
AcDbEntity
  8
ｴｸｽﾃﾘｱ商品
 62
   250
370
    20
100
AcDbFaceRecord
 10
0.0
 20
0.0
 30
0.0
 70
   128
 71
   434
 72
   433
 73
   435
 74
   436
  0
VERTEX
  5
44C
330
EB
100
AcDbEntity
  8
ｴｸｽﾃﾘｱ商品
 62
   250
370
    20
100
AcDbFaceRecord
 10
0.0
 20
0.0
 30
0.0
 70
   128
 71
   436
 72
   435
 73
   437
 74
   438
  0
VERTEX
  5
44D
330
EB
100
AcDbEntity
  8
ｴｸｽﾃﾘｱ商品
 62
   250
370
    20
100
AcDbFaceRecord
 10
0.0
 20
0.0
 30
0.0
 70
   128
 71
   438
 72
   437
 73
   439
 74
   440
  0
VERTEX
  5
44E
330
EB
100
AcDbEntity
  8
ｴｸｽﾃﾘｱ商品
 62
   250
370
    20
100
AcDbFaceRecord
 10
0.0
 20
0.0
 30
0.0
 70
   128
 71
   440
 72
   439
 73
   441
 74
   442
  0
VERTEX
  5
44F
330
EB
100
AcDbEntity
  8
ｴｸｽﾃﾘｱ商品
 62
   250
370
    20
100
AcDbFaceRecord
 10
0.0
 20
0.0
 30
0.0
 70
   128
 71
   442
 72
   441
 73
   443
 74
   444
  0
VERTEX
  5
450
330
EB
100
AcDbEntity
  8
ｴｸｽﾃﾘｱ商品
 62
   250
370
    20
100
AcDbFaceRecord
 10
0.0
 20
0.0
 30
0.0
 70
   128
 71
   444
 72
   443
 73
   432
 74
   431
  0
VERTEX
  5
451
330
EB
100
AcDbEntity
  8
ｴｸｽﾃﾘｱ商品
 62
   250
370
    20
100
AcDbFaceRecord
 10
0.0
 20
0.0
 30
0.0
 70
   128
 71
   434
 72
   436
 73
   438
  0
VERTEX
  5
452
330
EB
100
AcDbEntity
  8
ｴｸｽﾃﾘｱ商品
 62
   250
370
    20
100
AcDbFaceRecord
 10
0.0
 20
0.0
 30
0.0
 70
   128
 71
   438
 72
   440
 73
   442
  0
VERTEX
  5
453
330
EB
100
AcDbEntity
  8
ｴｸｽﾃﾘｱ商品
 62
   250
370
    20
100
AcDbFaceRecord
 10
0.0
 20
0.0
 30
0.0
 70
   128
 71
   434
 72
   438
 73
   442
  0
VERTEX
  5
454
330
EB
100
AcDbEntity
  8
ｴｸｽﾃﾘｱ商品
 62
   250
370
    20
100
AcDbFaceRecord
 10
0.0
 20
0.0
 30
0.0
 70
   128
 71
   431
 72
   434
 73
   442
  0
VERTEX
  5
455
330
EB
100
AcDbEntity
  8
ｴｸｽﾃﾘｱ商品
 62
   250
370
    20
100
AcDbFaceRecord
 10
0.0
 20
0.0
 30
0.0
 70
   128
 71
   431
 72
   442
 73
   444
  0
VERTEX
  5
456
330
EB
100
AcDbEntity
  8
ｴｸｽﾃﾘｱ商品
 62
   250
370
    20
100
AcDbFaceRecord
 10
0.0
 20
0.0
 30
0.0
 70
   128
 71
   437
 72
   435
 73
   433
  0
VERTEX
  5
457
330
EB
100
AcDbEntity
  8
ｴｸｽﾃﾘｱ商品
 62
   250
370
    20
100
AcDbFaceRecord
 10
0.0
 20
0.0
 30
0.0
 70
   128
 71
   441
 72
   439
 73
   437
  0
VERTEX
  5
458
330
EB
100
AcDbEntity
  8
ｴｸｽﾃﾘｱ商品
 62
   250
370
    20
100
AcDbFaceRecord
 10
0.0
 20
0.0
 30
0.0
 70
   128
 71
   441
 72
   437
 73
   433
  0
VERTEX
  5
459
330
EB
100
AcDbEntity
  8
ｴｸｽﾃﾘｱ商品
 62
   250
370
    20
100
AcDbFaceRecord
 10
0.0
 20
0.0
 30
0.0
 70
   128
 71
   443
 72
   441
 73
   432
  0
VERTEX
  5
45A
330
EB
100
AcDbEntity
  8
ｴｸｽﾃﾘｱ商品
 62
   250
370
    20
100
AcDbFaceRecord
 10
0.0
 20
0.0
 30
0.0
 70
   128
 71
   432
 72
   441
 73
   433
  0
VERTEX
  5
45B
330
EB
100
AcDbEntity
  8
ｴｸｽﾃﾘｱ商品
 62
   250
370
    20
100
AcDbFaceRecord
 10
0.0
 20
0.0
 30
0.0
 70
   128
 71
   445
 72
   446
 73
   447
 74
   448
  0
VERTEX
  5
45C
330
EB
100
AcDbEntity
  8
ｴｸｽﾃﾘｱ商品
 62
   250
370
    20
100
AcDbFaceRecord
 10
0.0
 20
0.0
 30
0.0
 70
   128
 71
   448
 72
   447
 73
   449
 74
   450
  0
VERTEX
  5
45D
330
EB
100
AcDbEntity
  8
ｴｸｽﾃﾘｱ商品
 62
   250
370
    20
100
AcDbFaceRecord
 10
0.0
 20
0.0
 30
0.0
 70
   128
 71
   450
 72
   449
 73
   451
 74
   452
  0
VERTEX
  5
45E
330
EB
100
AcDbEntity
  8
ｴｸｽﾃﾘｱ商品
 62
   250
370
    20
100
AcDbFaceRecord
 10
0.0
 20
0.0
 30
0.0
 70
   128
 71
   452
 72
   451
 73
   453
 74
   454
  0
VERTEX
  5
45F
330
EB
100
AcDbEntity
  8
ｴｸｽﾃﾘｱ商品
 62
   250
370
    20
100
AcDbFaceRecord
 10
0.0
 20
0.0
 30
0.0
 70
   128
 71
   454
 72
   453
 73
   455
 74
   456
  0
VERTEX
  5
460
330
EB
100
AcDbEntity
  8
ｴｸｽﾃﾘｱ商品
 62
   250
370
    20
100
AcDbFaceRecord
 10
0.0
 20
0.0
 30
0.0
 70
   128
 71
   456
 72
   455
 73
   457
 74
   458
  0
VERTEX
  5
461
330
EB
100
AcDbEntity
  8
ｴｸｽﾃﾘｱ商品
 62
   250
370
    20
100
AcDbFaceRecord
 10
0.0
 20
0.0
 30
0.0
 70
   128
 71
   458
 72
   457
 73
   459
 74
   460
  0
VERTEX
  5
462
330
EB
100
AcDbEntity
  8
ｴｸｽﾃﾘｱ商品
 62
   250
370
    20
100
AcDbFaceRecord
 10
0.0
 20
0.0
 30
0.0
 70
   128
 71
   460
 72
   459
 73
   446
 74
   445
  0
VERTEX
  5
463
330
EB
100
AcDbEntity
  8
ｴｸｽﾃﾘｱ商品
 62
   250
370
    20
100
AcDbFaceRecord
 10
0.0
 20
0.0
 30
0.0
 70
   128
 71
   445
 72
   448
 73
   450
 74
   452
  0
VERTEX
  5
464
330
EB
100
AcDbEntity
  8
ｴｸｽﾃﾘｱ商品
 62
   250
370
    20
100
AcDbFaceRecord
 10
0.0
 20
0.0
 30
0.0
 70
   128
 71
   445
 72
   452
 73
   454
 74
   456
  0
VERTEX
  5
465
330
EB
100
AcDbEntity
  8
ｴｸｽﾃﾘｱ商品
 62
   250
370
    20
100
AcDbFaceRecord
 10
0.0
 20
0.0
 30
0.0
 70
   128
 71
   445
 72
   456
 73
   458
 74
   460
  0
VERTEX
  5
466
330
EB
100
AcDbEntity
  8
ｴｸｽﾃﾘｱ商品
 62
   250
370
    20
100
AcDbFaceRecord
 10
0.0
 20
0.0
 30
0.0
 70
   128
 71
   446
 72
   459
 73
   457
 74
   455
  0
VERTEX
  5
467
330
EB
100
AcDbEntity
  8
ｴｸｽﾃﾘｱ商品
 62
   250
370
    20
100
AcDbFaceRecord
 10
0.0
 20
0.0
 30
0.0
 70
   128
 71
   446
 72
   455
 73
   453
 74
   451
  0
VERTEX
  5
468
330
EB
100
AcDbEntity
  8
ｴｸｽﾃﾘｱ商品
 62
   250
370
    20
100
AcDbFaceRecord
 10
0.0
 20
0.0
 30
0.0
 70
   128
 71
   446
 72
   451
 73
   449
 74
   447
  0
SEQEND
  5
EC
330
EB
100
AcDbEntity
  8
ｴｸｽﾃﾘｱ商品
370
    20
  0
ENDBLK
  5
3E
330
3C
100
AcDbEntity
  8
0
100
AcDbBlockEnd
  0
ENDSEC
  0
SECTION
  2
ENTITIES
  0
INSERT
  5
469
330
1F
100
AcDbEntity
  8
ｴｸｽﾃﾘｱ商品
  6
Continuous
 62
   250
370
    20
100
AcDbBlockReference
  2
オブジェクト_23
 10
0.0
 20
0.0
 30
0.0
  0
ENDSEC
  0
SECTION
  2
OBJECTS
  0
DICTIONARY
  5
C
330
0
100
AcDbDictionary
281
     1
  3
ACAD_GROUP
350
D
  3
ACAD_LAYOUT
350
1A
  3
ACAD_MLINESTYLE
350
17
  3
ACAD_PLOTSETTINGS
350
19
  3
ACAD_PLOTSTYLENAME
350
E
  3
ACAD_TABLESTYLE
350
46C
  3
ACAD_VISUALSTYLE
350
2A
  3
WATERMARKS
350
46A
  0
DICTIONARY
  5
D
102
{ACAD_REACTORS
330
C
102
}
330
C
100
AcDbDictionary
281
     1
  0
DICTIONARY
  5
1A
102
{ACAD_REACTORS
330
C
102
}
330
C
100
AcDbDictionary
281
     1
  3
Layout1
350
1E
  3
Layout2
350
26
  3
Model
350
22
  0
DICTIONARY
  5
17
102
{ACAD_REACTORS
330
C
102
}
330
C
100
AcDbDictionary
281
     1
  3
Standard
350
18
  0
DICTIONARY
  5
19
102
{ACAD_REACTORS
330
C
102
}
330
C
100
AcDbDictionary
281
     1
  0
ACDBDICTIONARYWDFLT
  5
E
102
{ACAD_REACTORS
330
C
102
}
330
C
100
AcDbDictionary
281
     1
  3
Normal
350
F
100
AcDbDictionaryWithDefault
340
F
  0
DICTIONARY
  5
46C
102
{ACAD_REACTORS
330
C
102
}
330
C
100
AcDbDictionary
281
     1
  0
DICTIONARY
  5
2A
102
{ACAD_REACTORS
330
C
102
}
330
C
100
AcDbDictionary
281
     1
  3
2dWireframe
350
2F
  3
3D Hidden
350
31
  3
3dWireframe
350
30
  3
Basic
350
32
  3
Brighten
350
36
  3
ColorChange
350
3A
  3
Conceptual
350
34
  3
Dim
350
35
  3
Facepattern
350
39
  3
Flat
350
2B
  3
FlatWithEdges
350
2C
  3
Gouraud
350
2D
  3
GouraudWithEdges
350
2E
  3
Linepattern
350
38
  3
Realistic
350
33
  3
Thicken
350
37
  0
DICTIONARY
  5
46A
102
{ACAD_REACTORS
330
C
102
}
330
C
100
AcDbDictionary
281
     1
  3
AC_WATERMARK
350
46B
  0
LAYOUT
  5
1E
102
{ACAD_REACTORS
330
1A
102
}
330
1A
100
AcDbPlotSettings
  1

  2
none_device
  4

  6

 40
0.0
 41
0.0
 42
0.0
 43
0.0
 44
0.0
 45
0.0
 46
0.0
 47
0.0
 48
0.0
 49
0.0
140
0.0
141
0.0
142
1.0
143
1.0
 70
   688
 72
     0
 73
     0
 74
     5
  7

 75
    16
147
1.0
148
0.0
149
0.0
100
AcDbLayout
  1
Layout1
 70
     1
 71
     1
 10
0.0
 20
0.0
 11
12.0
 21
9.0
 12
0.0
 22
0.0
 32
0.0
 14
1.000000000000000E+20
 24
1.000000000000000E+20
 34
1.000000000000000E+20
 15
-1.000000000000000E+20
 25
-1.000000000000000E+20
 35
-1.000000000000000E+20
146
0.0
 13
0.0
 23
0.0
 33
0.0
 16
1.0
 26
0.0
 36
0.0
 17
0.0
 27
1.0
 37
0.0
 76
     0
330
1B
  0
LAYOUT
  5
26
102
{ACAD_REACTORS
330
1A
102
}
330
1A
100
AcDbPlotSettings
  1

  2
none_device
  4

  6

 40
0.0
 41
0.0
 42
0.0
 43
0.0
 44
0.0
 45
0.0
 46
0.0
 47
0.0
 48
0.0
 49
0.0
140
0.0
141
0.0
142
1.0
143
1.0
 70
   688
 72
     0
 73
     0
 74
     5
  7

 75
    16
147
1.0
148
0.0
149
0.0
100
AcDbLayout
  1
Layout2
 70
     1
 71
     2
 10
0.0
 20
0.0
 11
0.0
 21
0.0
 12
0.0
 22
0.0
 32
0.0
 14
0.0
 24
0.0
 34
0.0
 15
0.0
 25
0.0
 35
0.0
146
0.0
 13
0.0
 23
0.0
 33
0.0
 16
1.0
 26
0.0
 36
0.0
 17
0.0
 27
1.0
 37
0.0
 76
     0
330
23
  0
LAYOUT
  5
22
102
{ACAD_REACTORS
330
1A
102
}
330
1A
100
AcDbPlotSettings
  1

  2
none_device
  4

  6

 40
0.0
 41
0.0
 42
0.0
 43
0.0
 44
0.0
 45
0.0
 46
0.0
 47
0.0
 48
0.0
 49
0.0
140
0.0
141
0.0
142
1.0
143
1.0
 70
  1712
 72
     0
 73
     0
 74
     0
  7

 75
     0
147
1.0
148
0.0
149
0.0
100
AcDbLayout
  1
Model
 70
     1
 71
     0
 10
0.0
 20
0.0
 11
12.0
 21
9.0
 12
0.0
 22
0.0
 32
0.0
 14
1.000000000000000E+20
 24
1.000000000000000E+20
 34
1.000000000000000E+20
 15
-1.000000000000000E+20
 25
-1.000000000000000E+20
 35
-1.000000000000000E+20
146
0.0
 13
0.0
 23
0.0
 33
0.0
 16
1.0
 26
0.0
 36
0.0
 17
0.0
 27
1.0
 37
0.0
 76
     0
330
1F
331
29
  0
MLINESTYLE
  5
18
102
{ACAD_REACTORS
330
17
102
}
330
17
100
AcDbMlineStyle
  2
Standard
 70
     0
  3

 62
   256
 51
90.0
 52
90.0
 71
     2
 49
0.5
 62
   256
  6
BYLAYER
 49
-0.5
 62
   256
  6
BYLAYER
  0
ACDBPLACEHOLDER
  5
F
102
{ACAD_REACTORS
330
E
102
}
330
E
  0
VISUALSTYLE
  5
2F
102
{ACAD_REACTORS
330
2A
102
}
330
2A
100
AcDbVisualStyle
  2
2dWireframe
 70
     4
 71
     0
 72
     2
 73
     0
 90
        0
 40
-0.6
 41
-30.0
 62
     5
 63
     7
 74
     1
 91
        4
 64
     7
 65
   257
 75
     1
175
     1
 42
1.0
 92
        0
 66
   257
 43
1.0
 76
     1
 77
     6
 78
     2
 67
     7
 79
     5
170
     0
171
     0
290
     0
174
     0
 93
        1
 44
0.0
173
     0
291
     0
 45
0.0
1001
ACAD
1000
AcDbSavedByObjectVersion
1070
     0
  0
VISUALSTYLE
  5
31
102
{ACAD_REACTORS
330
2A
102
}
330
2A
100
AcDbVisualStyle
  2
3D Hidden
 70
     6
 71
     1
 72
     2
 73
     2
 90
        0
 40
-0.6
 41
-30.0
 62
     5
 63
     7
 74
     2
 91
        2
 64
     7
 65
   257
 75
     2
175
     1
 42
40.0
 92
        0
 66
   257
 43
1.0
 76
     1
 77
     6
 78
     2
 67
     7
 79
     3
170
     0
171
     0
290
     0
174
     0
 93
        1
 44
0.0
173
     0
291
     0
 45
0.0
1001
ACAD
1000
AcDbSavedByObjectVersion
1070
     0
  0
VISUALSTYLE
  5
30
102
{ACAD_REACTORS
330
2A
102
}
330
2A
100
AcDbVisualStyle
  2
3dWireframe
 70
     5
 71
     0
 72
     2
 73
     0
 90
        0
 40
-0.6
 41
-30.0
 62
     5
 63
     7
 74
     1
 91
        4
 64
     7
 65
   257
 75
     1
175
     1
 42
1.0
 92
        0
 66
   257
 43
1.0
 76
     1
 77
     6
 78
     2
 67
     7
 79
     5
170
     0
171
     0
290
     0
174
     0
 93
        1
 44
0.0
173
     0
291
     0
 45
0.0
1001
ACAD
1000
AcDbSavedByObjectVersion
1070
     0
  0
VISUALSTYLE
  5
32
102
{ACAD_REACTORS
330
2A
102
}
330
2A
100
AcDbVisualStyle
  2
Basic
 70
     7
 71
     1
 72
     0
 73
     1
 90
        0
 40
-0.6
 41
-30.0
 62
     5
 63
     7
 74
     0
 91
        4
 64
     7
 65
   257
 75
     1
175
     1
 42
1.0
 92
        8
 66
     7
 43
1.0
 76
     1
 77
     6
 78
     2
 67
     7
 79
     5
170
     0
171
     0
290
     0
174
     0
 93
        1
 44
0.0
173
     0
291
     1
 45
0.0
1001
ACAD
1000
AcDbSavedByObjectVersion
1070
     0
  0
VISUALSTYLE
  5
36
102
{ACAD_REACTORS
330
2A
102
}
330
2A
100
AcDbVisualStyle
  2
Brighten
 70
    12
 71
     2
 72
     2
 73
     0
 90
        0
 40
-0.6
 41
-30.0
 62
     5
 63
     7
 74
     1
 91
        4
 64
     7
 65
   257
 75
     1
175
     1
 42
1.0
 92
        8
 66
     7
 43
1.0
 76
     1
 77
     6
 78
     2
 67
     7
 79
     5
170
     0
171
     0
290
     0
174
     0
 93
        1
 44
50.0
173
     0
291
     1
 45
0.0
1001
ACAD
1000
AcDbSavedByObjectVersion
1070
     0
  0
VISUALSTYLE
  5
3A
102
{ACAD_REACTORS
330
2A
102
}
330
2A
100
AcDbVisualStyle
  2
ColorChange
 70
    16
 71
     2
 72
     2
 73
     3
 90
        0
 40
-0.6
 41
-30.0
 62
     5
 63
     8
 74
     1
 91
        4
 64
     7
 65
   257
 75
     1
175
     1
 42
1.0
 92
        8
 66
     8
 43
1.0
 76
     1
 77
     6
 78
     2
 67
     7
 79
     5
170
     0
171
     0
290
     0
174
     0
 93
        1
 44
0.0
173
     0
291
     1
 45
0.0
1001
ACAD
1000
AcDbSavedByObjectVersion
1070
     0
  0
VISUALSTYLE
  5
34
102
{ACAD_REACTORS
330
2A
102
}
330
2A
100
AcDbVisualStyle
  2
Conceptual
 70
     9
 71
     3
 72
     2
 73
     0
 90
        0
 40
-0.6
 41
-30.0
 62
     5
 63
     7
 74
     2
 91
        2
 64
     7
 65
   257
 75
     1
175
     1
 42
40.0
 92
        8
 66
     7
 43
1.0
 76
     1
 77
     6
 78
     2
 67
     7
 79
     3
170
     0
171
     0
290
     0
174
     0
 93
        1
 44
0.0
173
     0
291
     0
 45
0.0
1001
ACAD
1000
AcDbSavedByObjectVersion
1070
     0
  0
VISUALSTYLE
  5
35
102
{ACAD_REACTORS
330
2A
102
}
330
2A
100
AcDbVisualStyle
  2
Dim
 70
    11
 71
     2
 72
     2
 73
     0
 90
        0
 40
-0.6
 41
-30.0
 62
     5
 63
     7
 74
     1
 91
        4
 64
     7
 65
   257
 75
     1
175
     1
 42
1.0
 92
        8
 66
     7
 43
1.0
 76
     1
 77
     6
 78
     2
 67
     7
 79
     5
170
     0
171
     0
290
     0
174
     0
 93
        1
 44
-50.0
173
     0
291
     1
 45
0.0
1001
ACAD
1000
AcDbSavedByObjectVersion
1070
     0
  0
VISUALSTYLE
  5
39
102
{ACAD_REACTORS
330
2A
102
}
330
2A
100
AcDbVisualStyle
  2
Facepattern
 70
    15
 71
     2
 72
     2
 73
     0
 90
        0
 40
-0.6
 41
-30.0
 62
     5
 63
     7
 74
     1
 91
        4
 64
     7
 65
   257
 75
     1
175
     1
 42
1.0
 92
        8
 66
     7
 43
1.0
 76
     1
 77
     6
 78
     2
 67
     7
 79
     5
170
     0
171
     0
290
     0
174
     0
 93
        1
 44
0.0
173
     0
291
     1
 45
0.0
1001
ACAD
1000
AcDbSavedByObjectVersion
1070
     0
  0
VISUALSTYLE
  5
2B
102
{ACAD_REACTORS
330
2A
102
}
330
2A
100
AcDbVisualStyle
  2
Flat
 70
     0
 71
     2
 72
     1
 73
     1
 90
        2
 40
-0.6
 41
30.0
 62
     5
 63
     7
 74
     0
 91
        4
 64
     7
 65
   257
 75
     1
175
     1
 42
1.0
 92
        8
 66
     7
 43
1.0
 76
     1
 77
     6
 78
     2
 67
     7
 79
     5
170
     0
171
     0
290
     0
174
     0
 93
       13
 44
0.0
173
     0
291
     1
 45
0.0
1001
ACAD
1000
AcDbSavedByObjectVersion
1070
     0
  0
VISUALSTYLE
  5
2C
102
{ACAD_REACTORS
330
2A
102
}
330
2A
100
AcDbVisualStyle
  2
FlatWithEdges
 70
     1
 71
     2
 72
     1
 73
     1
 90
        2
 40
-0.6
 41
30.0
 62
     5
 63
     7
 74
     1
 91
        4
 64
     7
 65
   257
 75
     1
175
     1
 42
1.0
 92
        0
 66
   257
 43
1.0
 76
     1
 77
     6
 78
     2
 67
     7
 79
     5
170
     0
171
     0
290
     0
174
     0
 93
       13
 44
0.0
173
     0
291
     1
 45
0.0
1001
ACAD
1000
AcDbSavedByObjectVersion
1070
     0
  0
VISUALSTYLE
  5
2D
102
{ACAD_REACTORS
330
2A
102
}
330
2A
100
AcDbVisualStyle
  2
Gouraud
 70
     2
 71
     2
 72
     2
 73
     1
 90
        2
 40
-0.6
 41
30.0
 62
     5
 63
     7
 74
     0
 91
        4
 64
     7
 65
   257
 75
     1
175
     1
 42
1.0
 92
        0
 66
     7
 43
1.0
 76
     1
 77
     6
 78
     2
 67
     7
 79
     5
170
     0
171
     0
290
     0
174
     0
 93
       13
 44
0.0
173
     0
291
     1
 45
0.0
1001
ACAD
1000
AcDbSavedByObjectVersion
1070
     0
  0
VISUALSTYLE
  5
2E
102
{ACAD_REACTORS
330
2A
102
}
330
2A
100
AcDbVisualStyle
  2
GouraudWithEdges
 70
     3
 71
     2
 72
     2
 73
     1
 90
        2
 40
-0.6
 41
30.0
 62
     5
 63
     7
 74
     1
 91
        4
 64
     7
 65
   257
 75
     1
175
     1
 42
1.0
 92
        0
 66
   257
 43
1.0
 76
     1
 77
     6
 78
     2
 67
     7
 79
     5
170
     0
171
     0
290
     0
174
     0
 93
       13
 44
0.0
173
     0
291
     1
 45
0.0
1001
ACAD
1000
AcDbSavedByObjectVersion
1070
     0
  0
VISUALSTYLE
  5
38
102
{ACAD_REACTORS
330
2A
102
}
330
2A
100
AcDbVisualStyle
  2
Linepattern
 70
    14
 71
     2
 72
     2
 73
     0
 90
        0
 40
-0.6
 41
-30.0
 62
     5
 63
     7
 74
     1
 91
        4
 64
     7
 65
   257
 75
     7
175
     7
 42
1.0
 92
        8
 66
     7
 43
1.0
 76
     1
 77
     6
 78
     2
 67
     7
 79
     5
170
     0
171
     0
290
     0
174
     0
 93
        1
 44
0.0
173
     0
291
     1
 45
0.0
1001
ACAD
1000
AcDbSavedByObjectVersion
1070
     0
  0
VISUALSTYLE
  5
33
102
{ACAD_REACTORS
330
2A
102
}
330
2A
100
AcDbVisualStyle
  2
Realistic
 70
     8
 71
     2
 72
     2
 73
     0
 90
        0
 40
-0.6
 41
-30.0
 62
     5
 63
     7
 74
     1
 91
        0
 64
     7
 65
   257
 75
     1
175
     1
 42
1.0
 92
        8
 66
     8
 43
1.0
 76
     1
 77
     6
 78
     2
 67
     7
 79
     5
170
     0
171
     0
290
     0
174
     0
 93
       13
 44
0.0
173
     0
291
     0
 45
0.0
1001
ACAD
1000
AcDbSavedByObjectVersion
1070
     0
  0
VISUALSTYLE
  5
37
102
{ACAD_REACTORS
330
2A
102
}
330
2A
100
AcDbVisualStyle
  2
Thicken
 70
    13
 71
     2
 72
     2
 73
     0
 90
        0
 40
-0.6
 41
-30.0
 62
     5
 63
     7
 74
     1
 91
        4
 64
     7
 65
   257
 75
     1
175
     1
 42
1.0
 92
       12
 66
     7
 43
1.0
 76
     1
 77
     6
 78
     2
 67
     7
 79
     5
170
     0
171
     0
290
     0
174
     0
 93
        1
 44
0.0
173
     0
291
     1
 45
0.0
1001
ACAD
1000
AcDbSavedByObjectVersion
1070
     0
  0
XRECORD
  5
46B
102
{ACAD_REACTORS
330
46A
102
}
330
46A
100
AcDbXrecord
280
     1
1000
・ｱ・ﾌDWG・t・@・C・・・ﾍRIKCAD21(TM)(R)・ﾅ・・・ｬ・ｳ・・・ﾜ・ｵ・ｽ・B
  0
ENDSEC
  0
EOF
