  0
SECTION
  2
HEADER
  9
$ACADVER
  1
AC1018
  9
$ACADMAINTVER
 70
     0
  9
$DWGCODEPAGE
  3
ANSI_932
  9
$INSBASE
 10
0.0
 20
0.0
 30
0.0
  9
$EXTMIN
 10
0.0000000000000006
 20
-49.80000108480453
 30
0.0
  9
$EXTMAX
 10
2000.0
 20
18.00000108778477
 30
800.000011920929
  9
$LIMMIN
 10
0.0000000000000006
 20
-49.80000108480453
  9
$LIMMAX
 10
2000.0
 20
18.00000108778477
  9
$ORTHOMODE
 70
     0
  9
$REGENMODE
 70
     1
  9
$FILLMODE
 70
     1
  9
$QTEXTMODE
 70
     0
  9
$MIRRTEXT
 70
     1
  9
$LTSCALE
 40
1.0
  9
$ATTMODE
 70
     1
  9
$TEXTSIZE
 40
0.2
  9
$TRACEWID
 40
0.05
  9
$TEXTSTYLE
  7
Standard
  9
$CLAYER
  8
0
  9
$CELTYPE
  6
ByLayer
  9
$CECOLOR
 62
   256
  9
$CELTSCALE
 40
1.0
  9
$DISPSILH
 70
     0
  9
$DIMSCALE
 40
1.0
  9
$DIMASZ
 40
0.18
  9
$DIMEXO
 40
0.0625
  9
$DIMDLI
 40
0.38
  9
$DIMRND
 40
0.0
  9
$DIMDLE
 40
0.0
  9
$DIMEXE
 40
0.18
  9
$DIMTP
 40
0.0
  9
$DIMTM
 40
0.0
  9
$DIMTXT
 40
0.18
  9
$DIMCEN
 40
0.09
  9
$DIMTSZ
 40
0.0
  9
$DIMTOL
 70
     0
  9
$DIMLIM
 70
     0
  9
$DIMTIH
 70
     1
  9
$DIMTOH
 70
     1
  9
$DIMSE1
 70
     0
  9
$DIMSE2
 70
     0
  9
$DIMTAD
 70
     0
  9
$DIMZIN
 70
     0
  9
$DIMBLK
  1

  9
$DIMASO
 70
     1
  9
$DIMSHO
 70
     1
  9
$DIMPOST
  1

  9
$DIMAPOST
  1

  9
$DIMALT
 70
     0
  9
$DIMALTD
 70
     2
  9
$DIMALTF
 40
25.4
  9
$DIMLFAC
 40
1.0
  9
$DIMTOFL
 70
     0
  9
$DIMTVP
 40
0.0
  9
$DIMTIX
 70
     0
  9
$DIMSOXD
 70
     0
  9
$DIMSAH
 70
     0
  9
$DIMBLK1
  1

  9
$DIMBLK2
  1

  9
$DIMSTYLE
  2
Standard
  9
$DIMCLRD
 70
     0
  9
$DIMCLRE
 70
     0
  9
$DIMCLRT
 70
     0
  9
$DIMTFAC
 40
1.0
  9
$DIMGAP
 40
0.09
  9
$DIMJUST
 70
     0
  9
$DIMSD1
 70
     0
  9
$DIMSD2
 70
     0
  9
$DIMTOLJ
 70
     1
  9
$DIMTZIN
 70
     0
  9
$DIMALTZ
 70
     0
  9
$DIMALTTZ
 70
     0
  9
$DIMUPT
 70
     0
  9
$DIMDEC
 70
     4
  9
$DIMTDEC
 70
     4
  9
$DIMALTU
 70
     2
  9
$DIMALTTD
 70
     2
  9
$DIMTXSTY
  7
Standard
  9
$DIMAUNIT
 70
     0
  9
$DIMADEC
 70
     0
  9
$DIMALTRND
 40
0.0
  9
$DIMAZIN
 70
     0
  9
$DIMDSEP
 70
    46
  9
$DIMATFIT
 70
     3
  9
$DIMFRAC
 70
     0
  9
$DIMLDRBLK
  1

  9
$DIMLUNIT
 70
     2
  9
$DIMLWD
 70
    -2
  9
$DIMLWE
 70
    -2
  9
$DIMTMOVE
 70
     0
  9
$LUNITS
 70
     2
  9
$LUPREC
 70
     4
  9
$SKETCHINC
 40
0.1
  9
$FILLETRAD
 40
0.5
  9
$AUNITS
 70
     0
  9
$AUPREC
 70
     0
  9
$MENU
  1
.
  9
$ELEVATION
 40
0.0
  9
$PELEVATION
 40
0.0
  9
$THICKNESS
 40
0.0
  9
$LIMCHECK
 70
     0
  9
$CHAMFERA
 40
0.0
  9
$CHAMFERB
 40
0.0
  9
$CHAMFERC
 40
0.0
  9
$CHAMFERD
 40
0.0
  9
$SKPOLY
 70
     0
  9
$TDCREATE
 40
2459380.441197917
  9
$TDUCREATE
 40
2459380.066197917
  9
$TDUPDATE
 40
2459380.441198125
  9
$TDUUPDATE
 40
2459380.066198125
  9
$TDINDWG
 40
0.0000000116
  9
$TDUSRTIMER
 40
0.0000000116
  9
$USRTIMER
 70
     1
  9
$ANGBASE
 50
0.0
  9
$ANGDIR
 70
     0
  9
$PDMODE
 70
     0
  9
$PDSIZE
 40
0.0
  9
$PLINEWID
 40
0.0
  9
$SPLFRAME
 70
     0
  9
$SPLINETYPE
 70
     6
  9
$SPLINESEGS
 70
     8
  9
$HANDSEED
  5
33C
  9
$SURFTAB1
 70
     6
  9
$SURFTAB2
 70
     6
  9
$SURFTYPE
 70
     6
  9
$SURFU
 70
     6
  9
$SURFV
 70
     6
  9
$UCSBASE
  2

  9
$UCSNAME
  2

  9
$UCSORG
 10
0.0
 20
0.0
 30
0.0
  9
$UCSXDIR
 10
1.0
 20
0.0
 30
0.0
  9
$UCSYDIR
 10
0.0
 20
1.0
 30
0.0
  9
$UCSORTHOREF
  2

  9
$UCSORTHOVIEW
 70
     0
  9
$UCSORGTOP
 10
0.0
 20
0.0
 30
0.0
  9
$UCSORGBOTTOM
 10
0.0
 20
0.0
 30
0.0
  9
$UCSORGLEFT
 10
0.0
 20
0.0
 30
0.0
  9
$UCSORGRIGHT
 10
0.0
 20
0.0
 30
0.0
  9
$UCSORGFRONT
 10
0.0
 20
0.0
 30
0.0
  9
$UCSORGBACK
 10
0.0
 20
0.0
 30
0.0
  9
$PUCSBASE
  2

  9
$PUCSNAME
  2

  9
$PUCSORG
 10
0.0
 20
0.0
 30
0.0
  9
$PUCSXDIR
 10
1.0
 20
0.0
 30
0.0
  9
$PUCSYDIR
 10
0.0
 20
1.0
 30
0.0
  9
$PUCSORTHOREF
  2

  9
$PUCSORTHOVIEW
 70
     0
  9
$PUCSORGTOP
 10
0.0
 20
0.0
 30
0.0
  9
$PUCSORGBOTTOM
 10
0.0
 20
0.0
 30
0.0
  9
$PUCSORGLEFT
 10
0.0
 20
0.0
 30
0.0
  9
$PUCSORGRIGHT
 10
0.0
 20
0.0
 30
0.0
  9
$PUCSORGFRONT
 10
0.0
 20
0.0
 30
0.0
  9
$PUCSORGBACK
 10
0.0
 20
0.0
 30
0.0
  9
$USERI1
 70
     0
  9
$USERI2
 70
     0
  9
$USERI3
 70
     0
  9
$USERI4
 70
     0
  9
$USERI5
 70
     0
  9
$USERR1
 40
0.0
  9
$USERR2
 40
0.0
  9
$USERR3
 40
0.0
  9
$USERR4
 40
0.0
  9
$USERR5
 40
0.0
  9
$WORLDVIEW
 70
     1
  9
$SHADEDGE
 70
     3
  9
$SHADEDIF
 70
    70
  9
$TILEMODE
 70
     1
  9
$MAXACTVP
 70
    64
  9
$PINSBASE
 10
0.0
 20
0.0
 30
0.0
  9
$PLIMCHECK
 70
     0
  9
$PEXTMIN
 10
1.000000000000000E+20
 20
1.000000000000000E+20
 30
1.000000000000000E+20
  9
$PEXTMAX
 10
-1.000000000000000E+20
 20
-1.000000000000000E+20
 30
-1.000000000000000E+20
  9
$PLIMMIN
 10
0.0
 20
0.0
  9
$PLIMMAX
 10
12.0
 20
9.0
  9
$UNITMODE
 70
     0
  9
$VISRETAIN
 70
     1
  9
$PLINEGEN
 70
     0
  9
$PSLTSCALE
 70
     1
  9
$TREEDEPTH
 70
  3020
  9
$CMLSTYLE
  2
Standard
  9
$CMLJUST
 70
     0
  9
$CMLSCALE
 40
1.0
  9
$PROXYGRAPHICS
 70
     1
  9
$MEASUREMENT
 70
     0
  9
$CELWEIGHT
370
    -1
  9
$ENDCAPS
280
     0
  9
$JOINSTYLE
280
     0
  9
$LWDISPLAY
290
     1
  9
$INSUNITS
 70
     4
  9
$HYPERLINKBASE
  1

  9
$STYLESHEET
  1

  9
$XEDIT
290
     1
  9
$CEPSNTYPE
380
     0
  9
$PSTYLEMODE
290
     1
  9
$FINGERPRINTGUID
  2
{A4CEDA2F-9C9E-4BF9-8864-D2CE5316F2C5}
  9
$VERSIONGUID
  2
{FAEB1C32-E019-11D5-929B-00C0DF256EC4}
  9
$EXTNAMES
290
     1
  9
$PSVPSCALE
 40
0.0
  9
$OLESTARTUP
290
     0
  9
$SORTENTS
280
   127
  9
$INDEXCTL
280
     0
  9
$HIDETEXT
280
     1
  9
$XCLIPFRAME
290
     0
  9
$HALOGAP
280
     0
  9
$OBSCOLOR
 70
   257
  9
$OBSLTYPE
280
     0
  9
$INTERSECTIONDISPLAY
280
     0
  9
$INTERSECTIONCOLOR
 70
   257
  9
$DIMASSOC
280
     2
  9
$PROJECTNAME
  1

  0
ENDSEC
  0
SECTION
  2
CLASSES
  0
CLASS
  1
ACDBDICTIONARYWDFLT
  2
AcDbDictionaryWithDefault
  3
ObjectDBX Classes
 90
        0
 91
        4
280
     0
281
     0
  0
CLASS
  1
VISUALSTYLE
  2
AcDbVisualStyle
  3
ObjectDBX Classes
 90
     4095
 91
        4
280
     0
281
     0
  0
CLASS
  1
MATERIAL
  2
AcDbMaterial
  3
ObjectDBX Classes
 90
     1153
 91
        4
280
     0
281
     0
  0
CLASS
  1
SCALE
  2
AcDbScale
  3
ObjectDBX Classes
 90
     1153
 91
        4
280
     0
281
     0
  0
CLASS
  1
TABLESTYLE
  2
AcDbTableStyle
  3
ObjectDBX Classes
 90
     4095
 91
        4
280
     0
281
     0
  0
CLASS
  1
MLEADERSTYLE
  2
AcDbMLeaderStyle
  3
ACDB_MLEADERSTYLE_CLASS
 90
     4095
 91
        4
280
     0
281
     0
  0
CLASS
  1
SUN
  2
AcDbSun
  3
SCENEOE
 90
     1153
 91
        4
280
     0
281
     0
  0
CLASS
  1
DICTIONARYVAR
  2
AcDbDictionaryVar
  3
ObjectDBX Classes
 90
        0
 91
        4
280
     0
281
     0
  0
CLASS
  1
CELLSTYLEMAP
  2
AcDbCellStyleMap
  3
ObjectDBX Classes
 90
     1152
 91
        4
280
     0
281
     0
  0
ENDSEC
  0
SECTION
  2
TABLES
  0
TABLE
  2
VPORT
  5
8
102
{ACAD_XDICTIONARY
360
2F5
102
}
330
0
100
AcDbSymbolTable
 70
     1
  0
VPORT
  5
29
330
8
100
AcDbSymbolTableRecord
100
AcDbViewportTableRecord
  2
*Active
 70
     0
 10
0.0
 20
0.0
 11
1.0
 21
1.0
 12
1000.0
 22
-15.9
 13
0.0
 23
0.0
 14
0.5
 24
0.5
 15
0.5
 25
0.5
 16
0.0
 26
0.0
 36
1.0
 17
0.0
 27
0.0
 37
0.0
 40
69.15599999999999
 41
29.49852507374631
 42
50.0
 43
0.0
 44
0.0
 50
0.0
 51
0.0
 71
     0
 72
   100
 73
     1
 74
     3
 75
     0
 76
     0
 77
     0
 78
     0
281
     0
 65
     1
110
0.0
120
0.0
130
0.0
111
1.0
121
0.0
131
0.0
112
0.0
122
1.0
132
0.0
 79
     0
146
0.0
  0
ENDTAB
  0
TABLE
  2
LTYPE
  5
5
330
0
100
AcDbSymbolTable
 70
     1
  0
LTYPE
  5
14
330
5
100
AcDbSymbolTableRecord
100
AcDbLinetypeTableRecord
  2
ByBlock
 70
     0
  3

 72
    65
 73
     0
 40
0.0
  0
LTYPE
  5
15
330
5
100
AcDbSymbolTableRecord
100
AcDbLinetypeTableRecord
  2
ByLayer
 70
     0
  3

 72
    65
 73
     0
 40
0.0
  0
LTYPE
  5
16
330
5
100
AcDbSymbolTableRecord
100
AcDbLinetypeTableRecord
  2
Continuous
 70
     0
  3
Solid line
 72
    65
 73
     0
 40
0.0
  0
ENDTAB
  0
TABLE
  2
LAYER
  5
2
330
0
100
AcDbSymbolTable
 70
     2
  0
LAYER
  5
10
330
2
100
AcDbSymbolTableRecord
100
AcDbLayerTableRecord
  2
0
 70
     0
 62
     7
  6
Continuous
370
    -3
390
F
  0
LAYER
  5
72
330
2
100
AcDbSymbolTableRecord
100
AcDbLayerTableRecord
  2
D01 金物
 70
     0
 62
     7
  6
Continuous
370
    -3
390
F
  0
ENDTAB
  0
TABLE
  2
STYLE
  5
3
330
0
100
AcDbSymbolTable
 70
     1
  0
STYLE
  5
11
330
3
100
AcDbSymbolTableRecord
100
AcDbTextStyleTableRecord
  2
Standard
 70
     0
 40
0.0
 41
1.0
 50
0.0
 71
     0
 42
0.2
  3
txt
  4
EXTFONT.SHX
  0
ENDTAB
  0
TABLE
  2
VIEW
  5
6
330
0
100
AcDbSymbolTable
 70
     0
  0
ENDTAB
  0
TABLE
  2
UCS
  5
7
330
0
100
AcDbSymbolTable
 70
     0
  0
ENDTAB
  0
TABLE
  2
APPID
  5
9
330
0
100
AcDbSymbolTable
 70
     2
  0
APPID
  5
12
330
9
100
AcDbSymbolTableRecord
100
AcDbRegAppTableRecord
  2
ACAD
 70
     0
  0
APPID
  5
333
330
9
100
AcDbSymbolTableRecord
100
AcDbRegAppTableRecord
  2
ACAD_MLEADERVER
 70
     0
  0
ENDTAB
  0
TABLE
  2
DIMSTYLE
  5
A
330
0
100
AcDbSymbolTable
 70
     1
100
AcDbDimStyleTable
  0
DIMSTYLE
105
27
330
A
100
AcDbSymbolTableRecord
100
AcDbDimStyleTableRecord
  2
Standard
 70
     0
178
     0
340
11
  0
ENDTAB
  0
TABLE
  2
BLOCK_RECORD
  5
1
330
0
100
AcDbSymbolTable
 70
     2
  0
BLOCK_RECORD
  5
1F
330
1
100
AcDbSymbolTableRecord
100
AcDbBlockTableRecord
  2
*Model_Space
340
22
  0
BLOCK_RECORD
  5
1B
330
1
100
AcDbSymbolTableRecord
100
AcDbBlockTableRecord
  2
*Paper_Space
340
1E
  0
BLOCK_RECORD
  5
23
330
1
100
AcDbSymbolTableRecord
100
AcDbBlockTableRecord
  2
*Paper_Space0
340
26
  0
BLOCK_RECORD
  5
6E
330
1
100
AcDbSymbolTableRecord
100
AcDbBlockTableRecord
  2
オブジェクト_1EC13DB4-CE41-435E-94D8-34D7491CC94D
340
0
102
{BLKREFS
331
71
102
}
  0
ENDTAB
  0
ENDSEC
  0
SECTION
  2
BLOCKS
  0
BLOCK
  5
20
330
1F
100
AcDbEntity
  8
0
100
AcDbBlockBegin
  2
*Model_Space
 70
     0
 10
0.0
 20
0.0
 30
0.0
  3
*Model_Space
  1

  0
ENDBLK
  5
21
330
1F
100
AcDbEntity
  8
0
100
AcDbBlockEnd
  0
BLOCK
  5
1C
330
1B
100
AcDbEntity
 67
     1
  8
0
100
AcDbBlockBegin
  2
*Paper_Space
 70
     0
 10
0.0
 20
0.0
 30
0.0
  3
*Paper_Space
  1

  0
ENDBLK
  5
1D
330
1B
100
AcDbEntity
 67
     1
  8
0
100
AcDbBlockEnd
  0
BLOCK
  5
24
330
23
100
AcDbEntity
  8
0
100
AcDbBlockBegin
  2
*Paper_Space0
 70
     0
 10
0.0
 20
0.0
 30
0.0
  3
*Paper_Space0
  1

  0
ENDBLK
  5
25
330
23
100
AcDbEntity
  8
0
100
AcDbBlockEnd
  0
BLOCK
  5
6F
330
6E
100
AcDbEntity
  8
0
100
AcDbBlockBegin
  2
オブジェクト_1EC13DB4-CE41-435E-94D8-34D7491CC94D
 70
     0
 10
0.0
 20
0.0
 30
0.0
  3
オブジェクト_1EC13DB4-CE41-435E-94D8-34D7491CC94D
  1

  0
POLYLINE
  5
73
330
6E
100
AcDbEntity
  8
D01 金物
370
     0
100
AcDbPolyFaceMesh
 66
     1
 10
0.0
 20
0.0
 30
0.0
 70
    64
 71
     8
 72
     6
  0
VERTEX
  5
74
330
73
100
AcDbEntity
  8
D01 金物
370
     0
100
AcDbVertex
100
AcDbPolyFaceMeshVertex
 10
121.0
 20
-18.0
 30
0.0
 70
   192
  0
VERTEX
  5
75
330
73
100
AcDbEntity
  8
D01 金物
370
     0
100
AcDbVertex
100
AcDbPolyFaceMeshVertex
 10
79.0
 20
-18.0
 30
0.0
 70
   192
  0
VERTEX
  5
76
330
73
100
AcDbEntity
  8
D01 金物
370
     0
100
AcDbVertex
100
AcDbPolyFaceMeshVertex
 10
79.0
 20
18.0
 30
0.0
 70
   192
  0
VERTEX
  5
77
330
73
100
AcDbEntity
  8
D01 金物
370
     0
100
AcDbVertex
100
AcDbPolyFaceMeshVertex
 10
121.0
 20
18.0
 30
0.0
 70
   192
  0
VERTEX
  5
78
330
73
100
AcDbEntity
  8
D01 金物
370
     0
100
AcDbVertex
100
AcDbPolyFaceMeshVertex
 10
79.0
 20
-18.0
 30
800.0
 70
   192
  0
VERTEX
  5
79
330
73
100
AcDbEntity
  8
D01 金物
370
     0
100
AcDbVertex
100
AcDbPolyFaceMeshVertex
 10
121.0
 20
-18.0
 30
800.0
 70
   192
  0
VERTEX
  5
7A
330
73
100
AcDbEntity
  8
D01 金物
370
     0
100
AcDbVertex
100
AcDbPolyFaceMeshVertex
 10
121.0
 20
18.0
 30
800.0
 70
   192
  0
VERTEX
  5
7B
330
73
100
AcDbEntity
  8
D01 金物
370
     0
100
AcDbVertex
100
AcDbPolyFaceMeshVertex
 10
79.0
 20
18.0
 30
800.0
 70
   192
  0
VERTEX
  5
7C
330
73
100
AcDbEntity
  8
D01 金物
 62
     9
420
 12434869
370
     0
100
AcDbFaceRecord
 10
0.0
 20
0.0
 30
0.0
 70
   128
 71
     1
 72
     2
 73
     3
 74
     4
  0
VERTEX
  5
7D
330
73
100
AcDbEntity
  8
D01 金物
 62
     9
420
 12434869
370
     0
100
AcDbFaceRecord
 10
0.0
 20
0.0
 30
0.0
 70
   128
 71
     5
 72
     6
 73
     7
 74
     8
  0
VERTEX
  5
7E
330
73
100
AcDbEntity
  8
D01 金物
 62
     9
420
 12434869
370
     0
100
AcDbFaceRecord
 10
0.0
 20
0.0
 30
0.0
 70
   128
 71
     2
 72
     1
 73
     6
 74
     5
  0
VERTEX
  5
7F
330
73
100
AcDbEntity
  8
D01 金物
 62
     9
420
 12434869
370
     0
100
AcDbFaceRecord
 10
0.0
 20
0.0
 30
0.0
 70
   128
 71
     1
 72
     4
 73
     7
 74
     6
  0
VERTEX
  5
80
330
73
100
AcDbEntity
  8
D01 金物
 62
     9
420
 12434869
370
     0
100
AcDbFaceRecord
 10
0.0
 20
0.0
 30
0.0
 70
   128
 71
     4
 72
     3
 73
     8
 74
     7
  0
VERTEX
  5
81
330
73
100
AcDbEntity
  8
D01 金物
 62
     9
420
 12434869
370
     0
100
AcDbFaceRecord
 10
0.0
 20
0.0
 30
0.0
 70
   128
 71
     3
 72
     2
 73
     5
 74
     8
  0
SEQEND
  5
82
330
73
100
AcDbEntity
  8
D01 金物
370
     0
  0
POLYLINE
  5
83
330
6E
100
AcDbEntity
  8
D01 金物
370
     0
100
AcDbPolyFaceMesh
 66
     1
 10
0.0
 20
0.0
 30
0.0
 70
    64
 71
     8
 72
     6
  0
VERTEX
  5
84
330
83
100
AcDbEntity
  8
D01 金物
370
     0
100
AcDbVertex
100
AcDbPolyFaceMeshVertex
 10
0.0000000000000019
 20
-18.0
 30
80.0
 70
   192
  0
VERTEX
  5
85
330
83
100
AcDbEntity
  8
D01 金物
370
     0
100
AcDbVertex
100
AcDbPolyFaceMeshVertex
 10
0.0000000000000019
 20
-17.99999999999999
 30
140.5
 70
   192
  0
VERTEX
  5
86
330
83
100
AcDbEntity
  8
D01 金物
370
     0
100
AcDbVertex
100
AcDbPolyFaceMeshVertex
 10
2000.0
 20
-18.00000000000011
 30
140.5
 70
   192
  0
VERTEX
  5
87
330
83
100
AcDbEntity
  8
D01 金物
370
     0
100
AcDbVertex
100
AcDbPolyFaceMeshVertex
 10
2000.0
 20
-18.00000000000012
 30
80.0
 70
   192
  0
VERTEX
  5
88
330
83
100
AcDbEntity
  8
D01 金物
370
     0
100
AcDbVertex
100
AcDbPolyFaceMeshVertex
 10
0.0000000000000006
 20
-39.8
 30
140.5
 70
   192
  0
VERTEX
  5
89
330
83
100
AcDbEntity
  8
D01 金物
370
     0
100
AcDbVertex
100
AcDbPolyFaceMeshVertex
 10
2000.0
 20
-39.80000000000011
 30
140.5
 70
   192
  0
VERTEX
  5
8A
330
83
100
AcDbEntity
  8
D01 金物
370
     0
100
AcDbVertex
100
AcDbPolyFaceMeshVertex
 10
0.0000000000000006
 20
-39.8
 30
80.0
 70
   192
  0
VERTEX
  5
8B
330
83
100
AcDbEntity
  8
D01 金物
370
     0
100
AcDbVertex
100
AcDbPolyFaceMeshVertex
 10
2000.0
 20
-39.80000000000012
 30
80.0
 70
   192
  0
VERTEX
  5
8C
330
83
100
AcDbEntity
  8
D01 金物
 62
     9
420
 12434869
370
     0
100
AcDbFaceRecord
 10
0.0
 20
0.0
 30
0.0
 70
   128
 71
     1
 72
     2
 73
     3
 74
     4
  0
VERTEX
  5
8D
330
83
100
AcDbEntity
  8
D01 金物
 62
     9
420
 12434869
370
     0
100
AcDbFaceRecord
 10
0.0
 20
0.0
 30
0.0
 70
   128
 71
     2
 72
     5
 73
     6
 74
     3
  0
VERTEX
  5
8E
330
83
100
AcDbEntity
  8
D01 金物
 62
     9
420
 12434869
370
     0
100
AcDbFaceRecord
 10
0.0
 20
0.0
 30
0.0
 70
   128
 71
     5
 72
     7
 73
     8
 74
     6
  0
VERTEX
  5
8F
330
83
100
AcDbEntity
  8
D01 金物
 62
     9
420
 12434869
370
     0
100
AcDbFaceRecord
 10
0.0
 20
0.0
 30
0.0
 70
   128
 71
     7
 72
     1
 73
     4
 74
     8
  0
VERTEX
  5
90
330
83
100
AcDbEntity
  8
D01 金物
 62
     9
420
 12434869
370
     0
100
AcDbFaceRecord
 10
0.0
 20
0.0
 30
0.0
 70
   128
 71
     1
 72
     7
 73
     5
 74
     2
  0
VERTEX
  5
91
330
83
100
AcDbEntity
  8
D01 金物
 62
     9
420
 12434869
370
     0
100
AcDbFaceRecord
 10
0.0
 20
0.0
 30
0.0
 70
   128
 71
     4
 72
     3
 73
     6
 74
     8
  0
SEQEND
  5
92
330
83
100
AcDbEntity
  8
D01 金物
370
     0
  0
POLYLINE
  5
93
330
6E
100
AcDbEntity
  8
D01 金物
370
     0
100
AcDbPolyFaceMesh
 66
     1
 10
0.0
 20
0.0
 30
0.0
 70
    64
 71
     8
 72
     6
  0
VERTEX
  5
94
330
93
100
AcDbEntity
  8
D01 金物
370
     0
100
AcDbVertex
100
AcDbPolyFaceMeshVertex
 10
0.0000000000000019
 20
-18.0
 30
800.0
 70
   192
  0
VERTEX
  5
95
330
93
100
AcDbEntity
  8
D01 金物
370
     0
100
AcDbVertex
100
AcDbPolyFaceMeshVertex
 10
2000.0
 20
-18.00000000000012
 30
800.0
 70
   192
  0
VERTEX
  5
96
330
93
100
AcDbEntity
  8
D01 金物
370
     0
100
AcDbVertex
100
AcDbPolyFaceMeshVertex
 10
2000.0
 20
-18.00000000000011
 30
739.5
 70
   192
  0
VERTEX
  5
97
330
93
100
AcDbEntity
  8
D01 金物
370
     0
100
AcDbVertex
100
AcDbPolyFaceMeshVertex
 10
0.0000000000000019
 20
-17.99999999999999
 30
739.5
 70
   192
  0
VERTEX
  5
98
330
93
100
AcDbEntity
  8
D01 金物
370
     0
100
AcDbVertex
100
AcDbPolyFaceMeshVertex
 10
2000.0
 20
-39.80000000000011
 30
739.5
 70
   192
  0
VERTEX
  5
99
330
93
100
AcDbEntity
  8
D01 金物
370
     0
100
AcDbVertex
100
AcDbPolyFaceMeshVertex
 10
0.0000000000000006
 20
-39.8
 30
739.5
 70
   192
  0
VERTEX
  5
9A
330
93
100
AcDbEntity
  8
D01 金物
370
     0
100
AcDbVertex
100
AcDbPolyFaceMeshVertex
 10
2000.0
 20
-39.80000000000012
 30
800.0
 70
   192
  0
VERTEX
  5
9B
330
93
100
AcDbEntity
  8
D01 金物
370
     0
100
AcDbVertex
100
AcDbPolyFaceMeshVertex
 10
0.0000000000000006
 20
-39.8
 30
800.0
 70
   192
  0
VERTEX
  5
9C
330
93
100
AcDbEntity
  8
D01 金物
 62
     9
420
 12434869
370
     0
100
AcDbFaceRecord
 10
0.0
 20
0.0
 30
0.0
 70
   128
 71
     1
 72
     2
 73
     3
 74
     4
  0
VERTEX
  5
9D
330
93
100
AcDbEntity
  8
D01 金物
 62
     9
420
 12434869
370
     0
100
AcDbFaceRecord
 10
0.0
 20
0.0
 30
0.0
 70
   128
 71
     4
 72
     3
 73
     5
 74
     6
  0
VERTEX
  5
9E
330
93
100
AcDbEntity
  8
D01 金物
 62
     9
420
 12434869
370
     0
100
AcDbFaceRecord
 10
0.0
 20
0.0
 30
0.0
 70
   128
 71
     6
 72
     5
 73
     7
 74
     8
  0
VERTEX
  5
9F
330
93
100
AcDbEntity
  8
D01 金物
 62
     9
420
 12434869
370
     0
100
AcDbFaceRecord
 10
0.0
 20
0.0
 30
0.0
 70
   128
 71
     8
 72
     7
 73
     2
 74
     1
  0
VERTEX
  5
A0
330
93
100
AcDbEntity
  8
D01 金物
 62
     9
420
 12434869
370
     0
100
AcDbFaceRecord
 10
0.0
 20
0.0
 30
0.0
 70
   128
 71
     1
 72
     4
 73
     6
 74
     8
  0
VERTEX
  5
A1
330
93
100
AcDbEntity
  8
D01 金物
 62
     9
420
 12434869
370
     0
100
AcDbFaceRecord
 10
0.0
 20
0.0
 30
0.0
 70
   128
 71
     2
 72
     7
 73
     5
 74
     3
  0
SEQEND
  5
A2
330
93
100
AcDbEntity
  8
D01 金物
370
     0
  0
POLYLINE
  5
A3
330
6E
100
AcDbEntity
  8
D01 金物
370
     0
100
AcDbPolyFaceMesh
 66
     1
 10
0.0
 20
0.0
 30
0.0
 70
    64
 71
     8
 72
     6
  0
VERTEX
  5
A4
330
A3
100
AcDbEntity
  8
D01 金物
370
     0
100
AcDbVertex
100
AcDbPolyFaceMeshVertex
 10
14.5
 20
-39.8
 30
80.0
 70
   192
  0
VERTEX
  5
A5
330
A3
100
AcDbEntity
  8
D01 金物
370
     0
100
AcDbVertex
100
AcDbPolyFaceMeshVertex
 10
44.5
 20
-39.8
 30
80.0
 70
   192
  0
VERTEX
  5
A6
330
A3
100
AcDbEntity
  8
D01 金物
370
     0
100
AcDbVertex
100
AcDbPolyFaceMeshVertex
 10
44.5
 20
-49.8
 30
80.0
 70
   192
  0
VERTEX
  5
A7
330
A3
100
AcDbEntity
  8
D01 金物
370
     0
100
AcDbVertex
100
AcDbPolyFaceMeshVertex
 10
14.5
 20
-49.8
 30
80.0
 70
   192
  0
VERTEX
  5
A8
330
A3
100
AcDbEntity
  8
D01 金物
370
     0
100
AcDbVertex
100
AcDbPolyFaceMeshVertex
 10
44.5
 20
-39.79999999999995
 30
800.0
 70
   192
  0
VERTEX
  5
A9
330
A3
100
AcDbEntity
  8
D01 金物
370
     0
100
AcDbVertex
100
AcDbPolyFaceMeshVertex
 10
44.5
 20
-49.79999999999995
 30
800.0
 70
   192
  0
VERTEX
  5
AA
330
A3
100
AcDbEntity
  8
D01 金物
370
     0
100
AcDbVertex
100
AcDbPolyFaceMeshVertex
 10
14.5
 20
-39.79999999999995
 30
800.0
 70
   192
  0
VERTEX
  5
AB
330
A3
100
AcDbEntity
  8
D01 金物
370
     0
100
AcDbVertex
100
AcDbPolyFaceMeshVertex
 10
14.5
 20
-49.79999999999995
 30
800.0
 70
   192
  0
VERTEX
  5
AC
330
A3
100
AcDbEntity
  8
D01 金物
 62
    45
420
 11634515
370
     0
100
AcDbFaceRecord
 10
0.0
 20
0.0
 30
0.0
 70
   128
 71
     1
 72
     2
 73
     3
 74
     4
  0
VERTEX
  5
AD
330
A3
100
AcDbEntity
  8
D01 金物
 62
    45
420
 11634515
370
     0
100
AcDbFaceRecord
 10
0.0
 20
0.0
 30
0.0
 70
   128
 71
     2
 72
     5
 73
     6
 74
     3
  0
VERTEX
  5
AE
330
A3
100
AcDbEntity
  8
D01 金物
 62
    45
420
 11634515
370
     0
100
AcDbFaceRecord
 10
0.0
 20
0.0
 30
0.0
 70
   128
 71
     5
 72
     7
 73
     8
 74
     6
  0
VERTEX
  5
AF
330
A3
100
AcDbEntity
  8
D01 金物
 62
    45
420
 11634515
370
     0
100
AcDbFaceRecord
 10
0.0
 20
0.0
 30
0.0
 70
   128
 71
     7
 72
     1
 73
     4
 74
     8
  0
VERTEX
  5
B0
330
A3
100
AcDbEntity
  8
D01 金物
 62
    45
420
 11634515
370
     0
100
AcDbFaceRecord
 10
0.0
 20
0.0
 30
0.0
 70
   128
 71
     1
 72
     7
 73
     5
 74
     2
  0
VERTEX
  5
B1
330
A3
100
AcDbEntity
  8
D01 金物
 62
    45
420
 11634515
370
     0
100
AcDbFaceRecord
 10
0.0
 20
0.0
 30
0.0
 70
   128
 71
     4
 72
     3
 73
     6
 74
     8
  0
SEQEND
  5
B2
330
A3
100
AcDbEntity
  8
D01 金物
370
     0
  0
POLYLINE
  5
B3
330
6E
100
AcDbEntity
  8
D01 金物
370
     0
100
AcDbPolyFaceMesh
 66
     1
 10
0.0
 20
0.0
 30
0.0
 70
    64
 71
     8
 72
     6
  0
VERTEX
  5
B4
330
B3
100
AcDbEntity
  8
D01 金物
370
     0
100
AcDbVertex
100
AcDbPolyFaceMeshVertex
 10
70.0
 20
-39.8
 30
80.0
 70
   192
  0
VERTEX
  5
B5
330
B3
100
AcDbEntity
  8
D01 金物
370
     0
100
AcDbVertex
100
AcDbPolyFaceMeshVertex
 10
100.0
 20
-39.8
 30
80.0
 70
   192
  0
VERTEX
  5
B6
330
B3
100
AcDbEntity
  8
D01 金物
370
     0
100
AcDbVertex
100
AcDbPolyFaceMeshVertex
 10
100.0
 20
-49.8
 30
80.0
 70
   192
  0
VERTEX
  5
B7
330
B3
100
AcDbEntity
  8
D01 金物
370
     0
100
AcDbVertex
100
AcDbPolyFaceMeshVertex
 10
70.0
 20
-49.8
 30
80.0
 70
   192
  0
VERTEX
  5
B8
330
B3
100
AcDbEntity
  8
D01 金物
370
     0
100
AcDbVertex
100
AcDbPolyFaceMeshVertex
 10
100.0
 20
-39.79999999999995
 30
800.0
 70
   192
  0
VERTEX
  5
B9
330
B3
100
AcDbEntity
  8
D01 金物
370
     0
100
AcDbVertex
100
AcDbPolyFaceMeshVertex
 10
100.0
 20
-49.79999999999995
 30
800.0
 70
   192
  0
VERTEX
  5
BA
330
B3
100
AcDbEntity
  8
D01 金物
370
     0
100
AcDbVertex
100
AcDbPolyFaceMeshVertex
 10
70.0
 20
-39.79999999999995
 30
800.0
 70
   192
  0
VERTEX
  5
BB
330
B3
100
AcDbEntity
  8
D01 金物
370
     0
100
AcDbVertex
100
AcDbPolyFaceMeshVertex
 10
70.0
 20
-49.79999999999995
 30
800.0
 70
   192
  0
VERTEX
  5
BC
330
B3
100
AcDbEntity
  8
D01 金物
 62
    45
420
 11634515
370
     0
100
AcDbFaceRecord
 10
0.0
 20
0.0
 30
0.0
 70
   128
 71
     1
 72
     2
 73
     3
 74
     4
  0
VERTEX
  5
BD
330
B3
100
AcDbEntity
  8
D01 金物
 62
    45
420
 11634515
370
     0
100
AcDbFaceRecord
 10
0.0
 20
0.0
 30
0.0
 70
   128
 71
     2
 72
     5
 73
     6
 74
     3
  0
VERTEX
  5
BE
330
B3
100
AcDbEntity
  8
D01 金物
 62
    45
420
 11634515
370
     0
100
AcDbFaceRecord
 10
0.0
 20
0.0
 30
0.0
 70
   128
 71
     5
 72
     7
 73
     8
 74
     6
  0
VERTEX
  5
BF
330
B3
100
AcDbEntity
  8
D01 金物
 62
    45
420
 11634515
370
     0
100
AcDbFaceRecord
 10
0.0
 20
0.0
 30
0.0
 70
   128
 71
     7
 72
     1
 73
     4
 74
     8
  0
VERTEX
  5
C0
330
B3
100
AcDbEntity
  8
D01 金物
 62
    45
420
 11634515
370
     0
100
AcDbFaceRecord
 10
0.0
 20
0.0
 30
0.0
 70
   128
 71
     1
 72
     7
 73
     5
 74
     2
  0
VERTEX
  5
C1
330
B3
100
AcDbEntity
  8
D01 金物
 62
    45
420
 11634515
370
     0
100
AcDbFaceRecord
 10
0.0
 20
0.0
 30
0.0
 70
   128
 71
     4
 72
     3
 73
     6
 74
     8
  0
SEQEND
  5
C2
330
B3
100
AcDbEntity
  8
D01 金物
370
     0
  0
POLYLINE
  5
C3
330
6E
100
AcDbEntity
  8
D01 金物
370
     0
100
AcDbPolyFaceMesh
 66
     1
 10
0.0
 20
0.0
 30
0.0
 70
    64
 71
     8
 72
     6
  0
VERTEX
  5
C4
330
C3
100
AcDbEntity
  8
D01 金物
370
     0
100
AcDbVertex
100
AcDbPolyFaceMeshVertex
 10
125.5
 20
-39.8
 30
80.0
 70
   192
  0
VERTEX
  5
C5
330
C3
100
AcDbEntity
  8
D01 金物
370
     0
100
AcDbVertex
100
AcDbPolyFaceMeshVertex
 10
155.5
 20
-39.8
 30
80.0
 70
   192
  0
VERTEX
  5
C6
330
C3
100
AcDbEntity
  8
D01 金物
370
     0
100
AcDbVertex
100
AcDbPolyFaceMeshVertex
 10
155.5
 20
-49.8
 30
80.0
 70
   192
  0
VERTEX
  5
C7
330
C3
100
AcDbEntity
  8
D01 金物
370
     0
100
AcDbVertex
100
AcDbPolyFaceMeshVertex
 10
125.5
 20
-49.8
 30
80.0
 70
   192
  0
VERTEX
  5
C8
330
C3
100
AcDbEntity
  8
D01 金物
370
     0
100
AcDbVertex
100
AcDbPolyFaceMeshVertex
 10
155.5
 20
-39.79999999999995
 30
800.0
 70
   192
  0
VERTEX
  5
C9
330
C3
100
AcDbEntity
  8
D01 金物
370
     0
100
AcDbVertex
100
AcDbPolyFaceMeshVertex
 10
155.5
 20
-49.79999999999995
 30
800.0
 70
   192
  0
VERTEX
  5
CA
330
C3
100
AcDbEntity
  8
D01 金物
370
     0
100
AcDbVertex
100
AcDbPolyFaceMeshVertex
 10
125.5
 20
-39.79999999999995
 30
800.0
 70
   192
  0
VERTEX
  5
CB
330
C3
100
AcDbEntity
  8
D01 金物
370
     0
100
AcDbVertex
100
AcDbPolyFaceMeshVertex
 10
125.5
 20
-49.79999999999995
 30
800.0
 70
   192
  0
VERTEX
  5
CC
330
C3
100
AcDbEntity
  8
D01 金物
 62
    45
420
 11634515
370
     0
100
AcDbFaceRecord
 10
0.0
 20
0.0
 30
0.0
 70
   128
 71
     1
 72
     2
 73
     3
 74
     4
  0
VERTEX
  5
CD
330
C3
100
AcDbEntity
  8
D01 金物
 62
    45
420
 11634515
370
     0
100
AcDbFaceRecord
 10
0.0
 20
0.0
 30
0.0
 70
   128
 71
     2
 72
     5
 73
     6
 74
     3
  0
VERTEX
  5
CE
330
C3
100
AcDbEntity
  8
D01 金物
 62
    45
420
 11634515
370
     0
100
AcDbFaceRecord
 10
0.0
 20
0.0
 30
0.0
 70
   128
 71
     5
 72
     7
 73
     8
 74
     6
  0
VERTEX
  5
CF
330
C3
100
AcDbEntity
  8
D01 金物
 62
    45
420
 11634515
370
     0
100
AcDbFaceRecord
 10
0.0
 20
0.0
 30
0.0
 70
   128
 71
     7
 72
     1
 73
     4
 74
     8
  0
VERTEX
  5
D0
330
C3
100
AcDbEntity
  8
D01 金物
 62
    45
420
 11634515
370
     0
100
AcDbFaceRecord
 10
0.0
 20
0.0
 30
0.0
 70
   128
 71
     1
 72
     7
 73
     5
 74
     2
  0
VERTEX
  5
D1
330
C3
100
AcDbEntity
  8
D01 金物
 62
    45
420
 11634515
370
     0
100
AcDbFaceRecord
 10
0.0
 20
0.0
 30
0.0
 70
   128
 71
     4
 72
     3
 73
     6
 74
     8
  0
SEQEND
  5
D2
330
C3
100
AcDbEntity
  8
D01 金物
370
     0
  0
POLYLINE
  5
D3
330
6E
100
AcDbEntity
  8
D01 金物
370
     0
100
AcDbPolyFaceMesh
 66
     1
 10
0.0
 20
0.0
 30
0.0
 70
    64
 71
     8
 72
     6
  0
VERTEX
  5
D4
330
D3
100
AcDbEntity
  8
D01 金物
370
     0
100
AcDbVertex
100
AcDbPolyFaceMeshVertex
 10
181.0
 20
-39.8
 30
80.0
 70
   192
  0
VERTEX
  5
D5
330
D3
100
AcDbEntity
  8
D01 金物
370
     0
100
AcDbVertex
100
AcDbPolyFaceMeshVertex
 10
211.0
 20
-39.8
 30
80.0
 70
   192
  0
VERTEX
  5
D6
330
D3
100
AcDbEntity
  8
D01 金物
370
     0
100
AcDbVertex
100
AcDbPolyFaceMeshVertex
 10
211.0
 20
-49.8
 30
80.0
 70
   192
  0
VERTEX
  5
D7
330
D3
100
AcDbEntity
  8
D01 金物
370
     0
100
AcDbVertex
100
AcDbPolyFaceMeshVertex
 10
181.0
 20
-49.8
 30
80.0
 70
   192
  0
VERTEX
  5
D8
330
D3
100
AcDbEntity
  8
D01 金物
370
     0
100
AcDbVertex
100
AcDbPolyFaceMeshVertex
 10
211.0
 20
-39.79999999999995
 30
800.0
 70
   192
  0
VERTEX
  5
D9
330
D3
100
AcDbEntity
  8
D01 金物
370
     0
100
AcDbVertex
100
AcDbPolyFaceMeshVertex
 10
211.0
 20
-49.79999999999995
 30
800.0
 70
   192
  0
VERTEX
  5
DA
330
D3
100
AcDbEntity
  8
D01 金物
370
     0
100
AcDbVertex
100
AcDbPolyFaceMeshVertex
 10
181.0
 20
-39.79999999999995
 30
800.0
 70
   192
  0
VERTEX
  5
DB
330
D3
100
AcDbEntity
  8
D01 金物
370
     0
100
AcDbVertex
100
AcDbPolyFaceMeshVertex
 10
181.0
 20
-49.79999999999995
 30
800.0
 70
   192
  0
VERTEX
  5
DC
330
D3
100
AcDbEntity
  8
D01 金物
 62
    45
420
 11634515
370
     0
100
AcDbFaceRecord
 10
0.0
 20
0.0
 30
0.0
 70
   128
 71
     1
 72
     2
 73
     3
 74
     4
  0
VERTEX
  5
DD
330
D3
100
AcDbEntity
  8
D01 金物
 62
    45
420
 11634515
370
     0
100
AcDbFaceRecord
 10
0.0
 20
0.0
 30
0.0
 70
   128
 71
     2
 72
     5
 73
     6
 74
     3
  0
VERTEX
  5
DE
330
D3
100
AcDbEntity
  8
D01 金物
 62
    45
420
 11634515
370
     0
100
AcDbFaceRecord
 10
0.0
 20
0.0
 30
0.0
 70
   128
 71
     5
 72
     7
 73
     8
 74
     6
  0
VERTEX
  5
DF
330
D3
100
AcDbEntity
  8
D01 金物
 62
    45
420
 11634515
370
     0
100
AcDbFaceRecord
 10
0.0
 20
0.0
 30
0.0
 70
   128
 71
     7
 72
     1
 73
     4
 74
     8
  0
VERTEX
  5
E0
330
D3
100
AcDbEntity
  8
D01 金物
 62
    45
420
 11634515
370
     0
100
AcDbFaceRecord
 10
0.0
 20
0.0
 30
0.0
 70
   128
 71
     1
 72
     7
 73
     5
 74
     2
  0
VERTEX
  5
E1
330
D3
100
AcDbEntity
  8
D01 金物
 62
    45
420
 11634515
370
     0
100
AcDbFaceRecord
 10
0.0
 20
0.0
 30
0.0
 70
   128
 71
     4
 72
     3
 73
     6
 74
     8
  0
SEQEND
  5
E2
330
D3
100
AcDbEntity
  8
D01 金物
370
     0
  0
POLYLINE
  5
E3
330
6E
100
AcDbEntity
  8
D01 金物
370
     0
100
AcDbPolyFaceMesh
 66
     1
 10
0.0
 20
0.0
 30
0.0
 70
    64
 71
     8
 72
     6
  0
VERTEX
  5
E4
330
E3
100
AcDbEntity
  8
D01 金物
370
     0
100
AcDbVertex
100
AcDbPolyFaceMeshVertex
 10
236.5
 20
-39.8
 30
80.0
 70
   192
  0
VERTEX
  5
E5
330
E3
100
AcDbEntity
  8
D01 金物
370
     0
100
AcDbVertex
100
AcDbPolyFaceMeshVertex
 10
266.5
 20
-39.8
 30
80.0
 70
   192
  0
VERTEX
  5
E6
330
E3
100
AcDbEntity
  8
D01 金物
370
     0
100
AcDbVertex
100
AcDbPolyFaceMeshVertex
 10
266.5
 20
-49.8
 30
80.0
 70
   192
  0
VERTEX
  5
E7
330
E3
100
AcDbEntity
  8
D01 金物
370
     0
100
AcDbVertex
100
AcDbPolyFaceMeshVertex
 10
236.5
 20
-49.8
 30
80.0
 70
   192
  0
VERTEX
  5
E8
330
E3
100
AcDbEntity
  8
D01 金物
370
     0
100
AcDbVertex
100
AcDbPolyFaceMeshVertex
 10
266.5
 20
-39.79999999999995
 30
800.0
 70
   192
  0
VERTEX
  5
E9
330
E3
100
AcDbEntity
  8
D01 金物
370
     0
100
AcDbVertex
100
AcDbPolyFaceMeshVertex
 10
266.5
 20
-49.79999999999995
 30
800.0
 70
   192
  0
VERTEX
  5
EA
330
E3
100
AcDbEntity
  8
D01 金物
370
     0
100
AcDbVertex
100
AcDbPolyFaceMeshVertex
 10
236.5
 20
-39.79999999999995
 30
800.0
 70
   192
  0
VERTEX
  5
EB
330
E3
100
AcDbEntity
  8
D01 金物
370
     0
100
AcDbVertex
100
AcDbPolyFaceMeshVertex
 10
236.5
 20
-49.79999999999995
 30
800.0
 70
   192
  0
VERTEX
  5
EC
330
E3
100
AcDbEntity
  8
D01 金物
 62
    45
420
 11634515
370
     0
100
AcDbFaceRecord
 10
0.0
 20
0.0
 30
0.0
 70
   128
 71
     1
 72
     2
 73
     3
 74
     4
  0
VERTEX
  5
ED
330
E3
100
AcDbEntity
  8
D01 金物
 62
    45
420
 11634515
370
     0
100
AcDbFaceRecord
 10
0.0
 20
0.0
 30
0.0
 70
   128
 71
     2
 72
     5
 73
     6
 74
     3
  0
VERTEX
  5
EE
330
E3
100
AcDbEntity
  8
D01 金物
 62
    45
420
 11634515
370
     0
100
AcDbFaceRecord
 10
0.0
 20
0.0
 30
0.0
 70
   128
 71
     5
 72
     7
 73
     8
 74
     6
  0
VERTEX
  5
EF
330
E3
100
AcDbEntity
  8
D01 金物
 62
    45
420
 11634515
370
     0
100
AcDbFaceRecord
 10
0.0
 20
0.0
 30
0.0
 70
   128
 71
     7
 72
     1
 73
     4
 74
     8
  0
VERTEX
  5
F0
330
E3
100
AcDbEntity
  8
D01 金物
 62
    45
420
 11634515
370
     0
100
AcDbFaceRecord
 10
0.0
 20
0.0
 30
0.0
 70
   128
 71
     1
 72
     7
 73
     5
 74
     2
  0
VERTEX
  5
F1
330
E3
100
AcDbEntity
  8
D01 金物
 62
    45
420
 11634515
370
     0
100
AcDbFaceRecord
 10
0.0
 20
0.0
 30
0.0
 70
   128
 71
     4
 72
     3
 73
     6
 74
     8
  0
SEQEND
  5
F2
330
E3
100
AcDbEntity
  8
D01 金物
370
     0
  0
POLYLINE
  5
F3
330
6E
100
AcDbEntity
  8
D01 金物
370
     0
100
AcDbPolyFaceMesh
 66
     1
 10
0.0
 20
0.0
 30
0.0
 70
    64
 71
     8
 72
     6
  0
VERTEX
  5
F4
330
F3
100
AcDbEntity
  8
D01 金物
370
     0
100
AcDbVertex
100
AcDbPolyFaceMeshVertex
 10
292.0000000000001
 20
-39.8
 30
80.0
 70
   192
  0
VERTEX
  5
F5
330
F3
100
AcDbEntity
  8
D01 金物
370
     0
100
AcDbVertex
100
AcDbPolyFaceMeshVertex
 10
322.0000000000001
 20
-39.8
 30
80.0
 70
   192
  0
VERTEX
  5
F6
330
F3
100
AcDbEntity
  8
D01 金物
370
     0
100
AcDbVertex
100
AcDbPolyFaceMeshVertex
 10
322.0000000000001
 20
-49.8
 30
80.0
 70
   192
  0
VERTEX
  5
F7
330
F3
100
AcDbEntity
  8
D01 金物
370
     0
100
AcDbVertex
100
AcDbPolyFaceMeshVertex
 10
292.0000000000001
 20
-49.8
 30
80.0
 70
   192
  0
VERTEX
  5
F8
330
F3
100
AcDbEntity
  8
D01 金物
370
     0
100
AcDbVertex
100
AcDbPolyFaceMeshVertex
 10
322.0000000000001
 20
-39.79999999999995
 30
800.0
 70
   192
  0
VERTEX
  5
F9
330
F3
100
AcDbEntity
  8
D01 金物
370
     0
100
AcDbVertex
100
AcDbPolyFaceMeshVertex
 10
322.0000000000001
 20
-49.79999999999995
 30
800.0
 70
   192
  0
VERTEX
  5
FA
330
F3
100
AcDbEntity
  8
D01 金物
370
     0
100
AcDbVertex
100
AcDbPolyFaceMeshVertex
 10
292.0000000000001
 20
-39.79999999999995
 30
800.0
 70
   192
  0
VERTEX
  5
FB
330
F3
100
AcDbEntity
  8
D01 金物
370
     0
100
AcDbVertex
100
AcDbPolyFaceMeshVertex
 10
292.0000000000001
 20
-49.79999999999995
 30
800.0
 70
   192
  0
VERTEX
  5
FC
330
F3
100
AcDbEntity
  8
D01 金物
 62
    45
420
 11634515
370
     0
100
AcDbFaceRecord
 10
0.0
 20
0.0
 30
0.0
 70
   128
 71
     1
 72
     2
 73
     3
 74
     4
  0
VERTEX
  5
FD
330
F3
100
AcDbEntity
  8
D01 金物
 62
    45
420
 11634515
370
     0
100
AcDbFaceRecord
 10
0.0
 20
0.0
 30
0.0
 70
   128
 71
     2
 72
     5
 73
     6
 74
     3
  0
VERTEX
  5
FE
330
F3
100
AcDbEntity
  8
D01 金物
 62
    45
420
 11634515
370
     0
100
AcDbFaceRecord
 10
0.0
 20
0.0
 30
0.0
 70
   128
 71
     5
 72
     7
 73
     8
 74
     6
  0
VERTEX
  5
FF
330
F3
100
AcDbEntity
  8
D01 金物
 62
    45
420
 11634515
370
     0
100
AcDbFaceRecord
 10
0.0
 20
0.0
 30
0.0
 70
   128
 71
     7
 72
     1
 73
     4
 74
     8
  0
VERTEX
  5
100
330
F3
100
AcDbEntity
  8
D01 金物
 62
    45
420
 11634515
370
     0
100
AcDbFaceRecord
 10
0.0
 20
0.0
 30
0.0
 70
   128
 71
     1
 72
     7
 73
     5
 74
     2
  0
VERTEX
  5
101
330
F3
100
AcDbEntity
  8
D01 金物
 62
    45
420
 11634515
370
     0
100
AcDbFaceRecord
 10
0.0
 20
0.0
 30
0.0
 70
   128
 71
     4
 72
     3
 73
     6
 74
     8
  0
SEQEND
  5
102
330
F3
100
AcDbEntity
  8
D01 金物
370
     0
  0
POLYLINE
  5
103
330
6E
100
AcDbEntity
  8
D01 金物
370
     0
100
AcDbPolyFaceMesh
 66
     1
 10
0.0
 20
0.0
 30
0.0
 70
    64
 71
     8
 72
     6
  0
VERTEX
  5
104
330
103
100
AcDbEntity
  8
D01 金物
370
     0
100
AcDbVertex
100
AcDbPolyFaceMeshVertex
 10
347.5000000000001
 20
-39.8
 30
80.0
 70
   192
  0
VERTEX
  5
105
330
103
100
AcDbEntity
  8
D01 金物
370
     0
100
AcDbVertex
100
AcDbPolyFaceMeshVertex
 10
377.5000000000001
 20
-39.8
 30
80.0
 70
   192
  0
VERTEX
  5
106
330
103
100
AcDbEntity
  8
D01 金物
370
     0
100
AcDbVertex
100
AcDbPolyFaceMeshVertex
 10
377.5000000000001
 20
-49.8
 30
80.0
 70
   192
  0
VERTEX
  5
107
330
103
100
AcDbEntity
  8
D01 金物
370
     0
100
AcDbVertex
100
AcDbPolyFaceMeshVertex
 10
347.5000000000001
 20
-49.8
 30
80.0
 70
   192
  0
VERTEX
  5
108
330
103
100
AcDbEntity
  8
D01 金物
370
     0
100
AcDbVertex
100
AcDbPolyFaceMeshVertex
 10
377.5000000000001
 20
-39.79999999999995
 30
800.0
 70
   192
  0
VERTEX
  5
109
330
103
100
AcDbEntity
  8
D01 金物
370
     0
100
AcDbVertex
100
AcDbPolyFaceMeshVertex
 10
377.5000000000001
 20
-49.79999999999995
 30
800.0
 70
   192
  0
VERTEX
  5
10A
330
103
100
AcDbEntity
  8
D01 金物
370
     0
100
AcDbVertex
100
AcDbPolyFaceMeshVertex
 10
347.5000000000001
 20
-39.79999999999995
 30
800.0
 70
   192
  0
VERTEX
  5
10B
330
103
100
AcDbEntity
  8
D01 金物
370
     0
100
AcDbVertex
100
AcDbPolyFaceMeshVertex
 10
347.5000000000001
 20
-49.79999999999995
 30
800.0
 70
   192
  0
VERTEX
  5
10C
330
103
100
AcDbEntity
  8
D01 金物
 62
    45
420
 11634515
370
     0
100
AcDbFaceRecord
 10
0.0
 20
0.0
 30
0.0
 70
   128
 71
     1
 72
     2
 73
     3
 74
     4
  0
VERTEX
  5
10D
330
103
100
AcDbEntity
  8
D01 金物
 62
    45
420
 11634515
370
     0
100
AcDbFaceRecord
 10
0.0
 20
0.0
 30
0.0
 70
   128
 71
     2
 72
     5
 73
     6
 74
     3
  0
VERTEX
  5
10E
330
103
100
AcDbEntity
  8
D01 金物
 62
    45
420
 11634515
370
     0
100
AcDbFaceRecord
 10
0.0
 20
0.0
 30
0.0
 70
   128
 71
     5
 72
     7
 73
     8
 74
     6
  0
VERTEX
  5
10F
330
103
100
AcDbEntity
  8
D01 金物
 62
    45
420
 11634515
370
     0
100
AcDbFaceRecord
 10
0.0
 20
0.0
 30
0.0
 70
   128
 71
     7
 72
     1
 73
     4
 74
     8
  0
VERTEX
  5
110
330
103
100
AcDbEntity
  8
D01 金物
 62
    45
420
 11634515
370
     0
100
AcDbFaceRecord
 10
0.0
 20
0.0
 30
0.0
 70
   128
 71
     1
 72
     7
 73
     5
 74
     2
  0
VERTEX
  5
111
330
103
100
AcDbEntity
  8
D01 金物
 62
    45
420
 11634515
370
     0
100
AcDbFaceRecord
 10
0.0
 20
0.0
 30
0.0
 70
   128
 71
     4
 72
     3
 73
     6
 74
     8
  0
SEQEND
  5
112
330
103
100
AcDbEntity
  8
D01 金物
370
     0
  0
POLYLINE
  5
113
330
6E
100
AcDbEntity
  8
D01 金物
370
     0
100
AcDbPolyFaceMesh
 66
     1
 10
0.0
 20
0.0
 30
0.0
 70
    64
 71
     8
 72
     6
  0
VERTEX
  5
114
330
113
100
AcDbEntity
  8
D01 金物
370
     0
100
AcDbVertex
100
AcDbPolyFaceMeshVertex
 10
403.0
 20
-39.8
 30
80.0
 70
   192
  0
VERTEX
  5
115
330
113
100
AcDbEntity
  8
D01 金物
370
     0
100
AcDbVertex
100
AcDbPolyFaceMeshVertex
 10
433.0000000000001
 20
-39.8
 30
80.0
 70
   192
  0
VERTEX
  5
116
330
113
100
AcDbEntity
  8
D01 金物
370
     0
100
AcDbVertex
100
AcDbPolyFaceMeshVertex
 10
433.0000000000001
 20
-49.8
 30
80.0
 70
   192
  0
VERTEX
  5
117
330
113
100
AcDbEntity
  8
D01 金物
370
     0
100
AcDbVertex
100
AcDbPolyFaceMeshVertex
 10
403.0
 20
-49.8
 30
80.0
 70
   192
  0
VERTEX
  5
118
330
113
100
AcDbEntity
  8
D01 金物
370
     0
100
AcDbVertex
100
AcDbPolyFaceMeshVertex
 10
433.0000000000001
 20
-39.79999999999995
 30
800.0
 70
   192
  0
VERTEX
  5
119
330
113
100
AcDbEntity
  8
D01 金物
370
     0
100
AcDbVertex
100
AcDbPolyFaceMeshVertex
 10
433.0000000000001
 20
-49.79999999999995
 30
800.0
 70
   192
  0
VERTEX
  5
11A
330
113
100
AcDbEntity
  8
D01 金物
370
     0
100
AcDbVertex
100
AcDbPolyFaceMeshVertex
 10
403.0
 20
-39.79999999999995
 30
800.0
 70
   192
  0
VERTEX
  5
11B
330
113
100
AcDbEntity
  8
D01 金物
370
     0
100
AcDbVertex
100
AcDbPolyFaceMeshVertex
 10
403.0
 20
-49.79999999999995
 30
800.0
 70
   192
  0
VERTEX
  5
11C
330
113
100
AcDbEntity
  8
D01 金物
 62
    45
420
 11634515
370
     0
100
AcDbFaceRecord
 10
0.0
 20
0.0
 30
0.0
 70
   128
 71
     1
 72
     2
 73
     3
 74
     4
  0
VERTEX
  5
11D
330
113
100
AcDbEntity
  8
D01 金物
 62
    45
420
 11634515
370
     0
100
AcDbFaceRecord
 10
0.0
 20
0.0
 30
0.0
 70
   128
 71
     2
 72
     5
 73
     6
 74
     3
  0
VERTEX
  5
11E
330
113
100
AcDbEntity
  8
D01 金物
 62
    45
420
 11634515
370
     0
100
AcDbFaceRecord
 10
0.0
 20
0.0
 30
0.0
 70
   128
 71
     5
 72
     7
 73
     8
 74
     6
  0
VERTEX
  5
11F
330
113
100
AcDbEntity
  8
D01 金物
 62
    45
420
 11634515
370
     0
100
AcDbFaceRecord
 10
0.0
 20
0.0
 30
0.0
 70
   128
 71
     7
 72
     1
 73
     4
 74
     8
  0
VERTEX
  5
120
330
113
100
AcDbEntity
  8
D01 金物
 62
    45
420
 11634515
370
     0
100
AcDbFaceRecord
 10
0.0
 20
0.0
 30
0.0
 70
   128
 71
     1
 72
     7
 73
     5
 74
     2
  0
VERTEX
  5
121
330
113
100
AcDbEntity
  8
D01 金物
 62
    45
420
 11634515
370
     0
100
AcDbFaceRecord
 10
0.0
 20
0.0
 30
0.0
 70
   128
 71
     4
 72
     3
 73
     6
 74
     8
  0
SEQEND
  5
122
330
113
100
AcDbEntity
  8
D01 金物
370
     0
  0
POLYLINE
  5
123
330
6E
100
AcDbEntity
  8
D01 金物
370
     0
100
AcDbPolyFaceMesh
 66
     1
 10
0.0
 20
0.0
 30
0.0
 70
    64
 71
     8
 72
     6
  0
VERTEX
  5
124
330
123
100
AcDbEntity
  8
D01 金物
370
     0
100
AcDbVertex
100
AcDbPolyFaceMeshVertex
 10
458.5
 20
-39.8
 30
80.0
 70
   192
  0
VERTEX
  5
125
330
123
100
AcDbEntity
  8
D01 金物
370
     0
100
AcDbVertex
100
AcDbPolyFaceMeshVertex
 10
488.5000000000001
 20
-39.8
 30
80.0
 70
   192
  0
VERTEX
  5
126
330
123
100
AcDbEntity
  8
D01 金物
370
     0
100
AcDbVertex
100
AcDbPolyFaceMeshVertex
 10
488.5000000000001
 20
-49.8
 30
80.0
 70
   192
  0
VERTEX
  5
127
330
123
100
AcDbEntity
  8
D01 金物
370
     0
100
AcDbVertex
100
AcDbPolyFaceMeshVertex
 10
458.5
 20
-49.8
 30
80.0
 70
   192
  0
VERTEX
  5
128
330
123
100
AcDbEntity
  8
D01 金物
370
     0
100
AcDbVertex
100
AcDbPolyFaceMeshVertex
 10
488.5000000000001
 20
-39.79999999999995
 30
800.0
 70
   192
  0
VERTEX
  5
129
330
123
100
AcDbEntity
  8
D01 金物
370
     0
100
AcDbVertex
100
AcDbPolyFaceMeshVertex
 10
488.5000000000001
 20
-49.79999999999995
 30
800.0
 70
   192
  0
VERTEX
  5
12A
330
123
100
AcDbEntity
  8
D01 金物
370
     0
100
AcDbVertex
100
AcDbPolyFaceMeshVertex
 10
458.5
 20
-39.79999999999995
 30
800.0
 70
   192
  0
VERTEX
  5
12B
330
123
100
AcDbEntity
  8
D01 金物
370
     0
100
AcDbVertex
100
AcDbPolyFaceMeshVertex
 10
458.5
 20
-49.79999999999995
 30
800.0
 70
   192
  0
VERTEX
  5
12C
330
123
100
AcDbEntity
  8
D01 金物
 62
    45
420
 11634515
370
     0
100
AcDbFaceRecord
 10
0.0
 20
0.0
 30
0.0
 70
   128
 71
     1
 72
     2
 73
     3
 74
     4
  0
VERTEX
  5
12D
330
123
100
AcDbEntity
  8
D01 金物
 62
    45
420
 11634515
370
     0
100
AcDbFaceRecord
 10
0.0
 20
0.0
 30
0.0
 70
   128
 71
     2
 72
     5
 73
     6
 74
     3
  0
VERTEX
  5
12E
330
123
100
AcDbEntity
  8
D01 金物
 62
    45
420
 11634515
370
     0
100
AcDbFaceRecord
 10
0.0
 20
0.0
 30
0.0
 70
   128
 71
     5
 72
     7
 73
     8
 74
     6
  0
VERTEX
  5
12F
330
123
100
AcDbEntity
  8
D01 金物
 62
    45
420
 11634515
370
     0
100
AcDbFaceRecord
 10
0.0
 20
0.0
 30
0.0
 70
   128
 71
     7
 72
     1
 73
     4
 74
     8
  0
VERTEX
  5
130
330
123
100
AcDbEntity
  8
D01 金物
 62
    45
420
 11634515
370
     0
100
AcDbFaceRecord
 10
0.0
 20
0.0
 30
0.0
 70
   128
 71
     1
 72
     7
 73
     5
 74
     2
  0
VERTEX
  5
131
330
123
100
AcDbEntity
  8
D01 金物
 62
    45
420
 11634515
370
     0
100
AcDbFaceRecord
 10
0.0
 20
0.0
 30
0.0
 70
   128
 71
     4
 72
     3
 73
     6
 74
     8
  0
SEQEND
  5
132
330
123
100
AcDbEntity
  8
D01 金物
370
     0
  0
POLYLINE
  5
133
330
6E
100
AcDbEntity
  8
D01 金物
370
     0
100
AcDbPolyFaceMesh
 66
     1
 10
0.0
 20
0.0
 30
0.0
 70
    64
 71
     8
 72
     6
  0
VERTEX
  5
134
330
133
100
AcDbEntity
  8
D01 金物
370
     0
100
AcDbVertex
100
AcDbPolyFaceMeshVertex
 10
514.0
 20
-39.8
 30
80.0
 70
   192
  0
VERTEX
  5
135
330
133
100
AcDbEntity
  8
D01 金物
370
     0
100
AcDbVertex
100
AcDbPolyFaceMeshVertex
 10
544.0
 20
-39.8
 30
80.0
 70
   192
  0
VERTEX
  5
136
330
133
100
AcDbEntity
  8
D01 金物
370
     0
100
AcDbVertex
100
AcDbPolyFaceMeshVertex
 10
544.0
 20
-49.8
 30
80.0
 70
   192
  0
VERTEX
  5
137
330
133
100
AcDbEntity
  8
D01 金物
370
     0
100
AcDbVertex
100
AcDbPolyFaceMeshVertex
 10
514.0
 20
-49.8
 30
80.0
 70
   192
  0
VERTEX
  5
138
330
133
100
AcDbEntity
  8
D01 金物
370
     0
100
AcDbVertex
100
AcDbPolyFaceMeshVertex
 10
544.0
 20
-39.79999999999995
 30
800.0
 70
   192
  0
VERTEX
  5
139
330
133
100
AcDbEntity
  8
D01 金物
370
     0
100
AcDbVertex
100
AcDbPolyFaceMeshVertex
 10
544.0
 20
-49.79999999999995
 30
800.0
 70
   192
  0
VERTEX
  5
13A
330
133
100
AcDbEntity
  8
D01 金物
370
     0
100
AcDbVertex
100
AcDbPolyFaceMeshVertex
 10
514.0
 20
-39.79999999999995
 30
800.0
 70
   192
  0
VERTEX
  5
13B
330
133
100
AcDbEntity
  8
D01 金物
370
     0
100
AcDbVertex
100
AcDbPolyFaceMeshVertex
 10
514.0
 20
-49.79999999999995
 30
800.0
 70
   192
  0
VERTEX
  5
13C
330
133
100
AcDbEntity
  8
D01 金物
 62
    45
420
 11634515
370
     0
100
AcDbFaceRecord
 10
0.0
 20
0.0
 30
0.0
 70
   128
 71
     1
 72
     2
 73
     3
 74
     4
  0
VERTEX
  5
13D
330
133
100
AcDbEntity
  8
D01 金物
 62
    45
420
 11634515
370
     0
100
AcDbFaceRecord
 10
0.0
 20
0.0
 30
0.0
 70
   128
 71
     2
 72
     5
 73
     6
 74
     3
  0
VERTEX
  5
13E
330
133
100
AcDbEntity
  8
D01 金物
 62
    45
420
 11634515
370
     0
100
AcDbFaceRecord
 10
0.0
 20
0.0
 30
0.0
 70
   128
 71
     5
 72
     7
 73
     8
 74
     6
  0
VERTEX
  5
13F
330
133
100
AcDbEntity
  8
D01 金物
 62
    45
420
 11634515
370
     0
100
AcDbFaceRecord
 10
0.0
 20
0.0
 30
0.0
 70
   128
 71
     7
 72
     1
 73
     4
 74
     8
  0
VERTEX
  5
140
330
133
100
AcDbEntity
  8
D01 金物
 62
    45
420
 11634515
370
     0
100
AcDbFaceRecord
 10
0.0
 20
0.0
 30
0.0
 70
   128
 71
     1
 72
     7
 73
     5
 74
     2
  0
VERTEX
  5
141
330
133
100
AcDbEntity
  8
D01 金物
 62
    45
420
 11634515
370
     0
100
AcDbFaceRecord
 10
0.0
 20
0.0
 30
0.0
 70
   128
 71
     4
 72
     3
 73
     6
 74
     8
  0
SEQEND
  5
142
330
133
100
AcDbEntity
  8
D01 金物
370
     0
  0
POLYLINE
  5
143
330
6E
100
AcDbEntity
  8
D01 金物
370
     0
100
AcDbPolyFaceMesh
 66
     1
 10
0.0
 20
0.0
 30
0.0
 70
    64
 71
     8
 72
     6
  0
VERTEX
  5
144
330
143
100
AcDbEntity
  8
D01 金物
370
     0
100
AcDbVertex
100
AcDbPolyFaceMeshVertex
 10
569.5
 20
-39.8
 30
80.0
 70
   192
  0
VERTEX
  5
145
330
143
100
AcDbEntity
  8
D01 金物
370
     0
100
AcDbVertex
100
AcDbPolyFaceMeshVertex
 10
599.5
 20
-39.8
 30
80.0
 70
   192
  0
VERTEX
  5
146
330
143
100
AcDbEntity
  8
D01 金物
370
     0
100
AcDbVertex
100
AcDbPolyFaceMeshVertex
 10
599.5
 20
-49.8
 30
80.0
 70
   192
  0
VERTEX
  5
147
330
143
100
AcDbEntity
  8
D01 金物
370
     0
100
AcDbVertex
100
AcDbPolyFaceMeshVertex
 10
569.5
 20
-49.8
 30
80.0
 70
   192
  0
VERTEX
  5
148
330
143
100
AcDbEntity
  8
D01 金物
370
     0
100
AcDbVertex
100
AcDbPolyFaceMeshVertex
 10
599.5
 20
-39.79999999999995
 30
800.0
 70
   192
  0
VERTEX
  5
149
330
143
100
AcDbEntity
  8
D01 金物
370
     0
100
AcDbVertex
100
AcDbPolyFaceMeshVertex
 10
599.5
 20
-49.79999999999995
 30
800.0
 70
   192
  0
VERTEX
  5
14A
330
143
100
AcDbEntity
  8
D01 金物
370
     0
100
AcDbVertex
100
AcDbPolyFaceMeshVertex
 10
569.5
 20
-39.79999999999995
 30
800.0
 70
   192
  0
VERTEX
  5
14B
330
143
100
AcDbEntity
  8
D01 金物
370
     0
100
AcDbVertex
100
AcDbPolyFaceMeshVertex
 10
569.5
 20
-49.79999999999995
 30
800.0
 70
   192
  0
VERTEX
  5
14C
330
143
100
AcDbEntity
  8
D01 金物
 62
    45
420
 11634515
370
     0
100
AcDbFaceRecord
 10
0.0
 20
0.0
 30
0.0
 70
   128
 71
     1
 72
     2
 73
     3
 74
     4
  0
VERTEX
  5
14D
330
143
100
AcDbEntity
  8
D01 金物
 62
    45
420
 11634515
370
     0
100
AcDbFaceRecord
 10
0.0
 20
0.0
 30
0.0
 70
   128
 71
     2
 72
     5
 73
     6
 74
     3
  0
VERTEX
  5
14E
330
143
100
AcDbEntity
  8
D01 金物
 62
    45
420
 11634515
370
     0
100
AcDbFaceRecord
 10
0.0
 20
0.0
 30
0.0
 70
   128
 71
     5
 72
     7
 73
     8
 74
     6
  0
VERTEX
  5
14F
330
143
100
AcDbEntity
  8
D01 金物
 62
    45
420
 11634515
370
     0
100
AcDbFaceRecord
 10
0.0
 20
0.0
 30
0.0
 70
   128
 71
     7
 72
     1
 73
     4
 74
     8
  0
VERTEX
  5
150
330
143
100
AcDbEntity
  8
D01 金物
 62
    45
420
 11634515
370
     0
100
AcDbFaceRecord
 10
0.0
 20
0.0
 30
0.0
 70
   128
 71
     1
 72
     7
 73
     5
 74
     2
  0
VERTEX
  5
151
330
143
100
AcDbEntity
  8
D01 金物
 62
    45
420
 11634515
370
     0
100
AcDbFaceRecord
 10
0.0
 20
0.0
 30
0.0
 70
   128
 71
     4
 72
     3
 73
     6
 74
     8
  0
SEQEND
  5
152
330
143
100
AcDbEntity
  8
D01 金物
370
     0
  0
POLYLINE
  5
153
330
6E
100
AcDbEntity
  8
D01 金物
370
     0
100
AcDbPolyFaceMesh
 66
     1
 10
0.0
 20
0.0
 30
0.0
 70
    64
 71
     8
 72
     6
  0
VERTEX
  5
154
330
153
100
AcDbEntity
  8
D01 金物
370
     0
100
AcDbVertex
100
AcDbPolyFaceMeshVertex
 10
625.0
 20
-39.8
 30
80.0
 70
   192
  0
VERTEX
  5
155
330
153
100
AcDbEntity
  8
D01 金物
370
     0
100
AcDbVertex
100
AcDbPolyFaceMeshVertex
 10
655.0
 20
-39.8
 30
80.0
 70
   192
  0
VERTEX
  5
156
330
153
100
AcDbEntity
  8
D01 金物
370
     0
100
AcDbVertex
100
AcDbPolyFaceMeshVertex
 10
655.0
 20
-49.8
 30
80.0
 70
   192
  0
VERTEX
  5
157
330
153
100
AcDbEntity
  8
D01 金物
370
     0
100
AcDbVertex
100
AcDbPolyFaceMeshVertex
 10
625.0
 20
-49.8
 30
80.0
 70
   192
  0
VERTEX
  5
158
330
153
100
AcDbEntity
  8
D01 金物
370
     0
100
AcDbVertex
100
AcDbPolyFaceMeshVertex
 10
655.0
 20
-39.79999999999995
 30
800.0
 70
   192
  0
VERTEX
  5
159
330
153
100
AcDbEntity
  8
D01 金物
370
     0
100
AcDbVertex
100
AcDbPolyFaceMeshVertex
 10
655.0
 20
-49.79999999999995
 30
800.0
 70
   192
  0
VERTEX
  5
15A
330
153
100
AcDbEntity
  8
D01 金物
370
     0
100
AcDbVertex
100
AcDbPolyFaceMeshVertex
 10
625.0
 20
-39.79999999999995
 30
800.0
 70
   192
  0
VERTEX
  5
15B
330
153
100
AcDbEntity
  8
D01 金物
370
     0
100
AcDbVertex
100
AcDbPolyFaceMeshVertex
 10
625.0
 20
-49.79999999999995
 30
800.0
 70
   192
  0
VERTEX
  5
15C
330
153
100
AcDbEntity
  8
D01 金物
 62
    45
420
 11634515
370
     0
100
AcDbFaceRecord
 10
0.0
 20
0.0
 30
0.0
 70
   128
 71
     1
 72
     2
 73
     3
 74
     4
  0
VERTEX
  5
15D
330
153
100
AcDbEntity
  8
D01 金物
 62
    45
420
 11634515
370
     0
100
AcDbFaceRecord
 10
0.0
 20
0.0
 30
0.0
 70
   128
 71
     2
 72
     5
 73
     6
 74
     3
  0
VERTEX
  5
15E
330
153
100
AcDbEntity
  8
D01 金物
 62
    45
420
 11634515
370
     0
100
AcDbFaceRecord
 10
0.0
 20
0.0
 30
0.0
 70
   128
 71
     5
 72
     7
 73
     8
 74
     6
  0
VERTEX
  5
15F
330
153
100
AcDbEntity
  8
D01 金物
 62
    45
420
 11634515
370
     0
100
AcDbFaceRecord
 10
0.0
 20
0.0
 30
0.0
 70
   128
 71
     7
 72
     1
 73
     4
 74
     8
  0
VERTEX
  5
160
330
153
100
AcDbEntity
  8
D01 金物
 62
    45
420
 11634515
370
     0
100
AcDbFaceRecord
 10
0.0
 20
0.0
 30
0.0
 70
   128
 71
     1
 72
     7
 73
     5
 74
     2
  0
VERTEX
  5
161
330
153
100
AcDbEntity
  8
D01 金物
 62
    45
420
 11634515
370
     0
100
AcDbFaceRecord
 10
0.0
 20
0.0
 30
0.0
 70
   128
 71
     4
 72
     3
 73
     6
 74
     8
  0
SEQEND
  5
162
330
153
100
AcDbEntity
  8
D01 金物
370
     0
  0
POLYLINE
  5
163
330
6E
100
AcDbEntity
  8
D01 金物
370
     0
100
AcDbPolyFaceMesh
 66
     1
 10
0.0
 20
0.0
 30
0.0
 70
    64
 71
     8
 72
     6
  0
VERTEX
  5
164
330
163
100
AcDbEntity
  8
D01 金物
370
     0
100
AcDbVertex
100
AcDbPolyFaceMeshVertex
 10
680.5
 20
-39.8
 30
80.0
 70
   192
  0
VERTEX
  5
165
330
163
100
AcDbEntity
  8
D01 金物
370
     0
100
AcDbVertex
100
AcDbPolyFaceMeshVertex
 10
710.5
 20
-39.8
 30
80.0
 70
   192
  0
VERTEX
  5
166
330
163
100
AcDbEntity
  8
D01 金物
370
     0
100
AcDbVertex
100
AcDbPolyFaceMeshVertex
 10
710.5
 20
-49.8
 30
80.0
 70
   192
  0
VERTEX
  5
167
330
163
100
AcDbEntity
  8
D01 金物
370
     0
100
AcDbVertex
100
AcDbPolyFaceMeshVertex
 10
680.5
 20
-49.8
 30
80.0
 70
   192
  0
VERTEX
  5
168
330
163
100
AcDbEntity
  8
D01 金物
370
     0
100
AcDbVertex
100
AcDbPolyFaceMeshVertex
 10
710.5
 20
-39.79999999999995
 30
800.0
 70
   192
  0
VERTEX
  5
169
330
163
100
AcDbEntity
  8
D01 金物
370
     0
100
AcDbVertex
100
AcDbPolyFaceMeshVertex
 10
710.5
 20
-49.79999999999995
 30
800.0
 70
   192
  0
VERTEX
  5
16A
330
163
100
AcDbEntity
  8
D01 金物
370
     0
100
AcDbVertex
100
AcDbPolyFaceMeshVertex
 10
680.5
 20
-39.79999999999995
 30
800.0
 70
   192
  0
VERTEX
  5
16B
330
163
100
AcDbEntity
  8
D01 金物
370
     0
100
AcDbVertex
100
AcDbPolyFaceMeshVertex
 10
680.5
 20
-49.79999999999995
 30
800.0
 70
   192
  0
VERTEX
  5
16C
330
163
100
AcDbEntity
  8
D01 金物
 62
    45
420
 11634515
370
     0
100
AcDbFaceRecord
 10
0.0
 20
0.0
 30
0.0
 70
   128
 71
     1
 72
     2
 73
     3
 74
     4
  0
VERTEX
  5
16D
330
163
100
AcDbEntity
  8
D01 金物
 62
    45
420
 11634515
370
     0
100
AcDbFaceRecord
 10
0.0
 20
0.0
 30
0.0
 70
   128
 71
     2
 72
     5
 73
     6
 74
     3
  0
VERTEX
  5
16E
330
163
100
AcDbEntity
  8
D01 金物
 62
    45
420
 11634515
370
     0
100
AcDbFaceRecord
 10
0.0
 20
0.0
 30
0.0
 70
   128
 71
     5
 72
     7
 73
     8
 74
     6
  0
VERTEX
  5
16F
330
163
100
AcDbEntity
  8
D01 金物
 62
    45
420
 11634515
370
     0
100
AcDbFaceRecord
 10
0.0
 20
0.0
 30
0.0
 70
   128
 71
     7
 72
     1
 73
     4
 74
     8
  0
VERTEX
  5
170
330
163
100
AcDbEntity
  8
D01 金物
 62
    45
420
 11634515
370
     0
100
AcDbFaceRecord
 10
0.0
 20
0.0
 30
0.0
 70
   128
 71
     1
 72
     7
 73
     5
 74
     2
  0
VERTEX
  5
171
330
163
100
AcDbEntity
  8
D01 金物
 62
    45
420
 11634515
370
     0
100
AcDbFaceRecord
 10
0.0
 20
0.0
 30
0.0
 70
   128
 71
     4
 72
     3
 73
     6
 74
     8
  0
SEQEND
  5
172
330
163
100
AcDbEntity
  8
D01 金物
370
     0
  0
POLYLINE
  5
173
330
6E
100
AcDbEntity
  8
D01 金物
370
     0
100
AcDbPolyFaceMesh
 66
     1
 10
0.0
 20
0.0
 30
0.0
 70
    64
 71
     8
 72
     6
  0
VERTEX
  5
174
330
173
100
AcDbEntity
  8
D01 金物
370
     0
100
AcDbVertex
100
AcDbPolyFaceMeshVertex
 10
736.0
 20
-39.8
 30
80.0
 70
   192
  0
VERTEX
  5
175
330
173
100
AcDbEntity
  8
D01 金物
370
     0
100
AcDbVertex
100
AcDbPolyFaceMeshVertex
 10
766.0
 20
-39.8
 30
80.0
 70
   192
  0
VERTEX
  5
176
330
173
100
AcDbEntity
  8
D01 金物
370
     0
100
AcDbVertex
100
AcDbPolyFaceMeshVertex
 10
766.0
 20
-49.8
 30
80.0
 70
   192
  0
VERTEX
  5
177
330
173
100
AcDbEntity
  8
D01 金物
370
     0
100
AcDbVertex
100
AcDbPolyFaceMeshVertex
 10
736.0
 20
-49.8
 30
80.0
 70
   192
  0
VERTEX
  5
178
330
173
100
AcDbEntity
  8
D01 金物
370
     0
100
AcDbVertex
100
AcDbPolyFaceMeshVertex
 10
766.0
 20
-39.79999999999995
 30
800.0
 70
   192
  0
VERTEX
  5
179
330
173
100
AcDbEntity
  8
D01 金物
370
     0
100
AcDbVertex
100
AcDbPolyFaceMeshVertex
 10
766.0
 20
-49.79999999999995
 30
800.0
 70
   192
  0
VERTEX
  5
17A
330
173
100
AcDbEntity
  8
D01 金物
370
     0
100
AcDbVertex
100
AcDbPolyFaceMeshVertex
 10
736.0
 20
-39.79999999999995
 30
800.0
 70
   192
  0
VERTEX
  5
17B
330
173
100
AcDbEntity
  8
D01 金物
370
     0
100
AcDbVertex
100
AcDbPolyFaceMeshVertex
 10
736.0
 20
-49.79999999999995
 30
800.0
 70
   192
  0
VERTEX
  5
17C
330
173
100
AcDbEntity
  8
D01 金物
 62
    45
420
 11634515
370
     0
100
AcDbFaceRecord
 10
0.0
 20
0.0
 30
0.0
 70
   128
 71
     1
 72
     2
 73
     3
 74
     4
  0
VERTEX
  5
17D
330
173
100
AcDbEntity
  8
D01 金物
 62
    45
420
 11634515
370
     0
100
AcDbFaceRecord
 10
0.0
 20
0.0
 30
0.0
 70
   128
 71
     2
 72
     5
 73
     6
 74
     3
  0
VERTEX
  5
17E
330
173
100
AcDbEntity
  8
D01 金物
 62
    45
420
 11634515
370
     0
100
AcDbFaceRecord
 10
0.0
 20
0.0
 30
0.0
 70
   128
 71
     5
 72
     7
 73
     8
 74
     6
  0
VERTEX
  5
17F
330
173
100
AcDbEntity
  8
D01 金物
 62
    45
420
 11634515
370
     0
100
AcDbFaceRecord
 10
0.0
 20
0.0
 30
0.0
 70
   128
 71
     7
 72
     1
 73
     4
 74
     8
  0
VERTEX
  5
180
330
173
100
AcDbEntity
  8
D01 金物
 62
    45
420
 11634515
370
     0
100
AcDbFaceRecord
 10
0.0
 20
0.0
 30
0.0
 70
   128
 71
     1
 72
     7
 73
     5
 74
     2
  0
VERTEX
  5
181
330
173
100
AcDbEntity
  8
D01 金物
 62
    45
420
 11634515
370
     0
100
AcDbFaceRecord
 10
0.0
 20
0.0
 30
0.0
 70
   128
 71
     4
 72
     3
 73
     6
 74
     8
  0
SEQEND
  5
182
330
173
100
AcDbEntity
  8
D01 金物
370
     0
  0
POLYLINE
  5
183
330
6E
100
AcDbEntity
  8
D01 金物
370
     0
100
AcDbPolyFaceMesh
 66
     1
 10
0.0
 20
0.0
 30
0.0
 70
    64
 71
     8
 72
     6
  0
VERTEX
  5
184
330
183
100
AcDbEntity
  8
D01 金物
370
     0
100
AcDbVertex
100
AcDbPolyFaceMeshVertex
 10
791.5
 20
-39.8
 30
80.0
 70
   192
  0
VERTEX
  5
185
330
183
100
AcDbEntity
  8
D01 金物
370
     0
100
AcDbVertex
100
AcDbPolyFaceMeshVertex
 10
821.5
 20
-39.8
 30
80.0
 70
   192
  0
VERTEX
  5
186
330
183
100
AcDbEntity
  8
D01 金物
370
     0
100
AcDbVertex
100
AcDbPolyFaceMeshVertex
 10
821.5
 20
-49.8
 30
80.0
 70
   192
  0
VERTEX
  5
187
330
183
100
AcDbEntity
  8
D01 金物
370
     0
100
AcDbVertex
100
AcDbPolyFaceMeshVertex
 10
791.5
 20
-49.8
 30
80.0
 70
   192
  0
VERTEX
  5
188
330
183
100
AcDbEntity
  8
D01 金物
370
     0
100
AcDbVertex
100
AcDbPolyFaceMeshVertex
 10
821.5
 20
-39.79999999999995
 30
800.0
 70
   192
  0
VERTEX
  5
189
330
183
100
AcDbEntity
  8
D01 金物
370
     0
100
AcDbVertex
100
AcDbPolyFaceMeshVertex
 10
821.5
 20
-49.79999999999995
 30
800.0
 70
   192
  0
VERTEX
  5
18A
330
183
100
AcDbEntity
  8
D01 金物
370
     0
100
AcDbVertex
100
AcDbPolyFaceMeshVertex
 10
791.5
 20
-39.79999999999995
 30
800.0
 70
   192
  0
VERTEX
  5
18B
330
183
100
AcDbEntity
  8
D01 金物
370
     0
100
AcDbVertex
100
AcDbPolyFaceMeshVertex
 10
791.5
 20
-49.79999999999995
 30
800.0
 70
   192
  0
VERTEX
  5
18C
330
183
100
AcDbEntity
  8
D01 金物
 62
    45
420
 11634515
370
     0
100
AcDbFaceRecord
 10
0.0
 20
0.0
 30
0.0
 70
   128
 71
     1
 72
     2
 73
     3
 74
     4
  0
VERTEX
  5
18D
330
183
100
AcDbEntity
  8
D01 金物
 62
    45
420
 11634515
370
     0
100
AcDbFaceRecord
 10
0.0
 20
0.0
 30
0.0
 70
   128
 71
     2
 72
     5
 73
     6
 74
     3
  0
VERTEX
  5
18E
330
183
100
AcDbEntity
  8
D01 金物
 62
    45
420
 11634515
370
     0
100
AcDbFaceRecord
 10
0.0
 20
0.0
 30
0.0
 70
   128
 71
     5
 72
     7
 73
     8
 74
     6
  0
VERTEX
  5
18F
330
183
100
AcDbEntity
  8
D01 金物
 62
    45
420
 11634515
370
     0
100
AcDbFaceRecord
 10
0.0
 20
0.0
 30
0.0
 70
   128
 71
     7
 72
     1
 73
     4
 74
     8
  0
VERTEX
  5
190
330
183
100
AcDbEntity
  8
D01 金物
 62
    45
420
 11634515
370
     0
100
AcDbFaceRecord
 10
0.0
 20
0.0
 30
0.0
 70
   128
 71
     1
 72
     7
 73
     5
 74
     2
  0
VERTEX
  5
191
330
183
100
AcDbEntity
  8
D01 金物
 62
    45
420
 11634515
370
     0
100
AcDbFaceRecord
 10
0.0
 20
0.0
 30
0.0
 70
   128
 71
     4
 72
     3
 73
     6
 74
     8
  0
SEQEND
  5
192
330
183
100
AcDbEntity
  8
D01 金物
370
     0
  0
POLYLINE
  5
193
330
6E
100
AcDbEntity
  8
D01 金物
370
     0
100
AcDbPolyFaceMesh
 66
     1
 10
0.0
 20
0.0
 30
0.0
 70
    64
 71
     8
 72
     6
  0
VERTEX
  5
194
330
193
100
AcDbEntity
  8
D01 金物
370
     0
100
AcDbVertex
100
AcDbPolyFaceMeshVertex
 10
847.0
 20
-39.8
 30
80.0
 70
   192
  0
VERTEX
  5
195
330
193
100
AcDbEntity
  8
D01 金物
370
     0
100
AcDbVertex
100
AcDbPolyFaceMeshVertex
 10
877.0
 20
-39.8
 30
80.0
 70
   192
  0
VERTEX
  5
196
330
193
100
AcDbEntity
  8
D01 金物
370
     0
100
AcDbVertex
100
AcDbPolyFaceMeshVertex
 10
877.0
 20
-49.8
 30
80.0
 70
   192
  0
VERTEX
  5
197
330
193
100
AcDbEntity
  8
D01 金物
370
     0
100
AcDbVertex
100
AcDbPolyFaceMeshVertex
 10
847.0
 20
-49.8
 30
80.0
 70
   192
  0
VERTEX
  5
198
330
193
100
AcDbEntity
  8
D01 金物
370
     0
100
AcDbVertex
100
AcDbPolyFaceMeshVertex
 10
877.0
 20
-39.79999999999995
 30
800.0
 70
   192
  0
VERTEX
  5
199
330
193
100
AcDbEntity
  8
D01 金物
370
     0
100
AcDbVertex
100
AcDbPolyFaceMeshVertex
 10
877.0
 20
-49.79999999999995
 30
800.0
 70
   192
  0
VERTEX
  5
19A
330
193
100
AcDbEntity
  8
D01 金物
370
     0
100
AcDbVertex
100
AcDbPolyFaceMeshVertex
 10
847.0
 20
-39.79999999999995
 30
800.0
 70
   192
  0
VERTEX
  5
19B
330
193
100
AcDbEntity
  8
D01 金物
370
     0
100
AcDbVertex
100
AcDbPolyFaceMeshVertex
 10
847.0
 20
-49.79999999999995
 30
800.0
 70
   192
  0
VERTEX
  5
19C
330
193
100
AcDbEntity
  8
D01 金物
 62
    45
420
 11634515
370
     0
100
AcDbFaceRecord
 10
0.0
 20
0.0
 30
0.0
 70
   128
 71
     1
 72
     2
 73
     3
 74
     4
  0
VERTEX
  5
19D
330
193
100
AcDbEntity
  8
D01 金物
 62
    45
420
 11634515
370
     0
100
AcDbFaceRecord
 10
0.0
 20
0.0
 30
0.0
 70
   128
 71
     2
 72
     5
 73
     6
 74
     3
  0
VERTEX
  5
19E
330
193
100
AcDbEntity
  8
D01 金物
 62
    45
420
 11634515
370
     0
100
AcDbFaceRecord
 10
0.0
 20
0.0
 30
0.0
 70
   128
 71
     5
 72
     7
 73
     8
 74
     6
  0
VERTEX
  5
19F
330
193
100
AcDbEntity
  8
D01 金物
 62
    45
420
 11634515
370
     0
100
AcDbFaceRecord
 10
0.0
 20
0.0
 30
0.0
 70
   128
 71
     7
 72
     1
 73
     4
 74
     8
  0
VERTEX
  5
1A0
330
193
100
AcDbEntity
  8
D01 金物
 62
    45
420
 11634515
370
     0
100
AcDbFaceRecord
 10
0.0
 20
0.0
 30
0.0
 70
   128
 71
     1
 72
     7
 73
     5
 74
     2
  0
VERTEX
  5
1A1
330
193
100
AcDbEntity
  8
D01 金物
 62
    45
420
 11634515
370
     0
100
AcDbFaceRecord
 10
0.0
 20
0.0
 30
0.0
 70
   128
 71
     4
 72
     3
 73
     6
 74
     8
  0
SEQEND
  5
1A2
330
193
100
AcDbEntity
  8
D01 金物
370
     0
  0
POLYLINE
  5
1A3
330
6E
100
AcDbEntity
  8
D01 金物
370
     0
100
AcDbPolyFaceMesh
 66
     1
 10
0.0
 20
0.0
 30
0.0
 70
    64
 71
     8
 72
     6
  0
VERTEX
  5
1A4
330
1A3
100
AcDbEntity
  8
D01 金物
370
     0
100
AcDbVertex
100
AcDbPolyFaceMeshVertex
 10
902.5
 20
-39.8
 30
80.0
 70
   192
  0
VERTEX
  5
1A5
330
1A3
100
AcDbEntity
  8
D01 金物
370
     0
100
AcDbVertex
100
AcDbPolyFaceMeshVertex
 10
932.5
 20
-39.8
 30
80.0
 70
   192
  0
VERTEX
  5
1A6
330
1A3
100
AcDbEntity
  8
D01 金物
370
     0
100
AcDbVertex
100
AcDbPolyFaceMeshVertex
 10
932.5
 20
-49.8
 30
80.0
 70
   192
  0
VERTEX
  5
1A7
330
1A3
100
AcDbEntity
  8
D01 金物
370
     0
100
AcDbVertex
100
AcDbPolyFaceMeshVertex
 10
902.5
 20
-49.8
 30
80.0
 70
   192
  0
VERTEX
  5
1A8
330
1A3
100
AcDbEntity
  8
D01 金物
370
     0
100
AcDbVertex
100
AcDbPolyFaceMeshVertex
 10
932.5
 20
-39.79999999999995
 30
800.0
 70
   192
  0
VERTEX
  5
1A9
330
1A3
100
AcDbEntity
  8
D01 金物
370
     0
100
AcDbVertex
100
AcDbPolyFaceMeshVertex
 10
932.5
 20
-49.79999999999995
 30
800.0
 70
   192
  0
VERTEX
  5
1AA
330
1A3
100
AcDbEntity
  8
D01 金物
370
     0
100
AcDbVertex
100
AcDbPolyFaceMeshVertex
 10
902.5
 20
-39.79999999999995
 30
800.0
 70
   192
  0
VERTEX
  5
1AB
330
1A3
100
AcDbEntity
  8
D01 金物
370
     0
100
AcDbVertex
100
AcDbPolyFaceMeshVertex
 10
902.5
 20
-49.79999999999995
 30
800.0
 70
   192
  0
VERTEX
  5
1AC
330
1A3
100
AcDbEntity
  8
D01 金物
 62
    45
420
 11634515
370
     0
100
AcDbFaceRecord
 10
0.0
 20
0.0
 30
0.0
 70
   128
 71
     1
 72
     2
 73
     3
 74
     4
  0
VERTEX
  5
1AD
330
1A3
100
AcDbEntity
  8
D01 金物
 62
    45
420
 11634515
370
     0
100
AcDbFaceRecord
 10
0.0
 20
0.0
 30
0.0
 70
   128
 71
     2
 72
     5
 73
     6
 74
     3
  0
VERTEX
  5
1AE
330
1A3
100
AcDbEntity
  8
D01 金物
 62
    45
420
 11634515
370
     0
100
AcDbFaceRecord
 10
0.0
 20
0.0
 30
0.0
 70
   128
 71
     5
 72
     7
 73
     8
 74
     6
  0
VERTEX
  5
1AF
330
1A3
100
AcDbEntity
  8
D01 金物
 62
    45
420
 11634515
370
     0
100
AcDbFaceRecord
 10
0.0
 20
0.0
 30
0.0
 70
   128
 71
     7
 72
     1
 73
     4
 74
     8
  0
VERTEX
  5
1B0
330
1A3
100
AcDbEntity
  8
D01 金物
 62
    45
420
 11634515
370
     0
100
AcDbFaceRecord
 10
0.0
 20
0.0
 30
0.0
 70
   128
 71
     1
 72
     7
 73
     5
 74
     2
  0
VERTEX
  5
1B1
330
1A3
100
AcDbEntity
  8
D01 金物
 62
    45
420
 11634515
370
     0
100
AcDbFaceRecord
 10
0.0
 20
0.0
 30
0.0
 70
   128
 71
     4
 72
     3
 73
     6
 74
     8
  0
SEQEND
  5
1B2
330
1A3
100
AcDbEntity
  8
D01 金物
370
     0
  0
POLYLINE
  5
1B3
330
6E
100
AcDbEntity
  8
D01 金物
370
     0
100
AcDbPolyFaceMesh
 66
     1
 10
0.0
 20
0.0
 30
0.0
 70
    64
 71
     8
 72
     6
  0
VERTEX
  5
1B4
330
1B3
100
AcDbEntity
  8
D01 金物
370
     0
100
AcDbVertex
100
AcDbPolyFaceMeshVertex
 10
958.0
 20
-39.8
 30
80.0
 70
   192
  0
VERTEX
  5
1B5
330
1B3
100
AcDbEntity
  8
D01 金物
370
     0
100
AcDbVertex
100
AcDbPolyFaceMeshVertex
 10
988.0
 20
-39.8
 30
80.0
 70
   192
  0
VERTEX
  5
1B6
330
1B3
100
AcDbEntity
  8
D01 金物
370
     0
100
AcDbVertex
100
AcDbPolyFaceMeshVertex
 10
988.0
 20
-49.8
 30
80.0
 70
   192
  0
VERTEX
  5
1B7
330
1B3
100
AcDbEntity
  8
D01 金物
370
     0
100
AcDbVertex
100
AcDbPolyFaceMeshVertex
 10
958.0
 20
-49.8
 30
80.0
 70
   192
  0
VERTEX
  5
1B8
330
1B3
100
AcDbEntity
  8
D01 金物
370
     0
100
AcDbVertex
100
AcDbPolyFaceMeshVertex
 10
988.0
 20
-39.79999999999995
 30
800.0
 70
   192
  0
VERTEX
  5
1B9
330
1B3
100
AcDbEntity
  8
D01 金物
370
     0
100
AcDbVertex
100
AcDbPolyFaceMeshVertex
 10
988.0
 20
-49.79999999999995
 30
800.0
 70
   192
  0
VERTEX
  5
1BA
330
1B3
100
AcDbEntity
  8
D01 金物
370
     0
100
AcDbVertex
100
AcDbPolyFaceMeshVertex
 10
958.0
 20
-39.79999999999995
 30
800.0
 70
   192
  0
VERTEX
  5
1BB
330
1B3
100
AcDbEntity
  8
D01 金物
370
     0
100
AcDbVertex
100
AcDbPolyFaceMeshVertex
 10
958.0
 20
-49.79999999999995
 30
800.0
 70
   192
  0
VERTEX
  5
1BC
330
1B3
100
AcDbEntity
  8
D01 金物
 62
    45
420
 11634515
370
     0
100
AcDbFaceRecord
 10
0.0
 20
0.0
 30
0.0
 70
   128
 71
     1
 72
     2
 73
     3
 74
     4
  0
VERTEX
  5
1BD
330
1B3
100
AcDbEntity
  8
D01 金物
 62
    45
420
 11634515
370
     0
100
AcDbFaceRecord
 10
0.0
 20
0.0
 30
0.0
 70
   128
 71
     2
 72
     5
 73
     6
 74
     3
  0
VERTEX
  5
1BE
330
1B3
100
AcDbEntity
  8
D01 金物
 62
    45
420
 11634515
370
     0
100
AcDbFaceRecord
 10
0.0
 20
0.0
 30
0.0
 70
   128
 71
     5
 72
     7
 73
     8
 74
     6
  0
VERTEX
  5
1BF
330
1B3
100
AcDbEntity
  8
D01 金物
 62
    45
420
 11634515
370
     0
100
AcDbFaceRecord
 10
0.0
 20
0.0
 30
0.0
 70
   128
 71
     7
 72
     1
 73
     4
 74
     8
  0
VERTEX
  5
1C0
330
1B3
100
AcDbEntity
  8
D01 金物
 62
    45
420
 11634515
370
     0
100
AcDbFaceRecord
 10
0.0
 20
0.0
 30
0.0
 70
   128
 71
     1
 72
     7
 73
     5
 74
     2
  0
VERTEX
  5
1C1
330
1B3
100
AcDbEntity
  8
D01 金物
 62
    45
420
 11634515
370
     0
100
AcDbFaceRecord
 10
0.0
 20
0.0
 30
0.0
 70
   128
 71
     4
 72
     3
 73
     6
 74
     8
  0
SEQEND
  5
1C2
330
1B3
100
AcDbEntity
  8
D01 金物
370
     0
  0
POLYLINE
  5
1C3
330
6E
100
AcDbEntity
  8
D01 金物
370
     0
100
AcDbPolyFaceMesh
 66
     1
 10
0.0
 20
0.0
 30
0.0
 70
    64
 71
     8
 72
     6
  0
VERTEX
  5
1C4
330
1C3
100
AcDbEntity
  8
D01 金物
370
     0
100
AcDbVertex
100
AcDbPolyFaceMeshVertex
 10
1013.5
 20
-39.8
 30
80.0
 70
   192
  0
VERTEX
  5
1C5
330
1C3
100
AcDbEntity
  8
D01 金物
370
     0
100
AcDbVertex
100
AcDbPolyFaceMeshVertex
 10
1043.5
 20
-39.8
 30
80.0
 70
   192
  0
VERTEX
  5
1C6
330
1C3
100
AcDbEntity
  8
D01 金物
370
     0
100
AcDbVertex
100
AcDbPolyFaceMeshVertex
 10
1043.5
 20
-49.8
 30
80.0
 70
   192
  0
VERTEX
  5
1C7
330
1C3
100
AcDbEntity
  8
D01 金物
370
     0
100
AcDbVertex
100
AcDbPolyFaceMeshVertex
 10
1013.5
 20
-49.8
 30
80.0
 70
   192
  0
VERTEX
  5
1C8
330
1C3
100
AcDbEntity
  8
D01 金物
370
     0
100
AcDbVertex
100
AcDbPolyFaceMeshVertex
 10
1043.5
 20
-39.79999999999995
 30
800.0
 70
   192
  0
VERTEX
  5
1C9
330
1C3
100
AcDbEntity
  8
D01 金物
370
     0
100
AcDbVertex
100
AcDbPolyFaceMeshVertex
 10
1043.5
 20
-49.79999999999995
 30
800.0
 70
   192
  0
VERTEX
  5
1CA
330
1C3
100
AcDbEntity
  8
D01 金物
370
     0
100
AcDbVertex
100
AcDbPolyFaceMeshVertex
 10
1013.5
 20
-39.79999999999995
 30
800.0
 70
   192
  0
VERTEX
  5
1CB
330
1C3
100
AcDbEntity
  8
D01 金物
370
     0
100
AcDbVertex
100
AcDbPolyFaceMeshVertex
 10
1013.5
 20
-49.79999999999995
 30
800.0
 70
   192
  0
VERTEX
  5
1CC
330
1C3
100
AcDbEntity
  8
D01 金物
 62
    45
420
 11634515
370
     0
100
AcDbFaceRecord
 10
0.0
 20
0.0
 30
0.0
 70
   128
 71
     1
 72
     2
 73
     3
 74
     4
  0
VERTEX
  5
1CD
330
1C3
100
AcDbEntity
  8
D01 金物
 62
    45
420
 11634515
370
     0
100
AcDbFaceRecord
 10
0.0
 20
0.0
 30
0.0
 70
   128
 71
     2
 72
     5
 73
     6
 74
     3
  0
VERTEX
  5
1CE
330
1C3
100
AcDbEntity
  8
D01 金物
 62
    45
420
 11634515
370
     0
100
AcDbFaceRecord
 10
0.0
 20
0.0
 30
0.0
 70
   128
 71
     5
 72
     7
 73
     8
 74
     6
  0
VERTEX
  5
1CF
330
1C3
100
AcDbEntity
  8
D01 金物
 62
    45
420
 11634515
370
     0
100
AcDbFaceRecord
 10
0.0
 20
0.0
 30
0.0
 70
   128
 71
     7
 72
     1
 73
     4
 74
     8
  0
VERTEX
  5
1D0
330
1C3
100
AcDbEntity
  8
D01 金物
 62
    45
420
 11634515
370
     0
100
AcDbFaceRecord
 10
0.0
 20
0.0
 30
0.0
 70
   128
 71
     1
 72
     7
 73
     5
 74
     2
  0
VERTEX
  5
1D1
330
1C3
100
AcDbEntity
  8
D01 金物
 62
    45
420
 11634515
370
     0
100
AcDbFaceRecord
 10
0.0
 20
0.0
 30
0.0
 70
   128
 71
     4
 72
     3
 73
     6
 74
     8
  0
SEQEND
  5
1D2
330
1C3
100
AcDbEntity
  8
D01 金物
370
     0
  0
POLYLINE
  5
1D3
330
6E
100
AcDbEntity
  8
D01 金物
370
     0
100
AcDbPolyFaceMesh
 66
     1
 10
0.0
 20
0.0
 30
0.0
 70
    64
 71
     8
 72
     6
  0
VERTEX
  5
1D4
330
1D3
100
AcDbEntity
  8
D01 金物
370
     0
100
AcDbVertex
100
AcDbPolyFaceMeshVertex
 10
1069.0
 20
-39.8
 30
80.0
 70
   192
  0
VERTEX
  5
1D5
330
1D3
100
AcDbEntity
  8
D01 金物
370
     0
100
AcDbVertex
100
AcDbPolyFaceMeshVertex
 10
1099.0
 20
-39.8
 30
80.0
 70
   192
  0
VERTEX
  5
1D6
330
1D3
100
AcDbEntity
  8
D01 金物
370
     0
100
AcDbVertex
100
AcDbPolyFaceMeshVertex
 10
1099.0
 20
-49.8
 30
80.0
 70
   192
  0
VERTEX
  5
1D7
330
1D3
100
AcDbEntity
  8
D01 金物
370
     0
100
AcDbVertex
100
AcDbPolyFaceMeshVertex
 10
1069.0
 20
-49.8
 30
80.0
 70
   192
  0
VERTEX
  5
1D8
330
1D3
100
AcDbEntity
  8
D01 金物
370
     0
100
AcDbVertex
100
AcDbPolyFaceMeshVertex
 10
1099.0
 20
-39.79999999999995
 30
800.0
 70
   192
  0
VERTEX
  5
1D9
330
1D3
100
AcDbEntity
  8
D01 金物
370
     0
100
AcDbVertex
100
AcDbPolyFaceMeshVertex
 10
1099.0
 20
-49.79999999999995
 30
800.0
 70
   192
  0
VERTEX
  5
1DA
330
1D3
100
AcDbEntity
  8
D01 金物
370
     0
100
AcDbVertex
100
AcDbPolyFaceMeshVertex
 10
1069.0
 20
-39.79999999999995
 30
800.0
 70
   192
  0
VERTEX
  5
1DB
330
1D3
100
AcDbEntity
  8
D01 金物
370
     0
100
AcDbVertex
100
AcDbPolyFaceMeshVertex
 10
1069.0
 20
-49.79999999999995
 30
800.0
 70
   192
  0
VERTEX
  5
1DC
330
1D3
100
AcDbEntity
  8
D01 金物
 62
    45
420
 11634515
370
     0
100
AcDbFaceRecord
 10
0.0
 20
0.0
 30
0.0
 70
   128
 71
     1
 72
     2
 73
     3
 74
     4
  0
VERTEX
  5
1DD
330
1D3
100
AcDbEntity
  8
D01 金物
 62
    45
420
 11634515
370
     0
100
AcDbFaceRecord
 10
0.0
 20
0.0
 30
0.0
 70
   128
 71
     2
 72
     5
 73
     6
 74
     3
  0
VERTEX
  5
1DE
330
1D3
100
AcDbEntity
  8
D01 金物
 62
    45
420
 11634515
370
     0
100
AcDbFaceRecord
 10
0.0
 20
0.0
 30
0.0
 70
   128
 71
     5
 72
     7
 73
     8
 74
     6
  0
VERTEX
  5
1DF
330
1D3
100
AcDbEntity
  8
D01 金物
 62
    45
420
 11634515
370
     0
100
AcDbFaceRecord
 10
0.0
 20
0.0
 30
0.0
 70
   128
 71
     7
 72
     1
 73
     4
 74
     8
  0
VERTEX
  5
1E0
330
1D3
100
AcDbEntity
  8
D01 金物
 62
    45
420
 11634515
370
     0
100
AcDbFaceRecord
 10
0.0
 20
0.0
 30
0.0
 70
   128
 71
     1
 72
     7
 73
     5
 74
     2
  0
VERTEX
  5
1E1
330
1D3
100
AcDbEntity
  8
D01 金物
 62
    45
420
 11634515
370
     0
100
AcDbFaceRecord
 10
0.0
 20
0.0
 30
0.0
 70
   128
 71
     4
 72
     3
 73
     6
 74
     8
  0
SEQEND
  5
1E2
330
1D3
100
AcDbEntity
  8
D01 金物
370
     0
  0
POLYLINE
  5
1E3
330
6E
100
AcDbEntity
  8
D01 金物
370
     0
100
AcDbPolyFaceMesh
 66
     1
 10
0.0
 20
0.0
 30
0.0
 70
    64
 71
     8
 72
     6
  0
VERTEX
  5
1E4
330
1E3
100
AcDbEntity
  8
D01 金物
370
     0
100
AcDbVertex
100
AcDbPolyFaceMeshVertex
 10
1124.5
 20
-39.8
 30
80.0
 70
   192
  0
VERTEX
  5
1E5
330
1E3
100
AcDbEntity
  8
D01 金物
370
     0
100
AcDbVertex
100
AcDbPolyFaceMeshVertex
 10
1154.5
 20
-39.8
 30
80.0
 70
   192
  0
VERTEX
  5
1E6
330
1E3
100
AcDbEntity
  8
D01 金物
370
     0
100
AcDbVertex
100
AcDbPolyFaceMeshVertex
 10
1154.5
 20
-49.8
 30
80.0
 70
   192
  0
VERTEX
  5
1E7
330
1E3
100
AcDbEntity
  8
D01 金物
370
     0
100
AcDbVertex
100
AcDbPolyFaceMeshVertex
 10
1124.5
 20
-49.8
 30
80.0
 70
   192
  0
VERTEX
  5
1E8
330
1E3
100
AcDbEntity
  8
D01 金物
370
     0
100
AcDbVertex
100
AcDbPolyFaceMeshVertex
 10
1154.5
 20
-39.79999999999995
 30
800.0
 70
   192
  0
VERTEX
  5
1E9
330
1E3
100
AcDbEntity
  8
D01 金物
370
     0
100
AcDbVertex
100
AcDbPolyFaceMeshVertex
 10
1154.5
 20
-49.79999999999995
 30
800.0
 70
   192
  0
VERTEX
  5
1EA
330
1E3
100
AcDbEntity
  8
D01 金物
370
     0
100
AcDbVertex
100
AcDbPolyFaceMeshVertex
 10
1124.5
 20
-39.79999999999995
 30
800.0
 70
   192
  0
VERTEX
  5
1EB
330
1E3
100
AcDbEntity
  8
D01 金物
370
     0
100
AcDbVertex
100
AcDbPolyFaceMeshVertex
 10
1124.5
 20
-49.79999999999995
 30
800.0
 70
   192
  0
VERTEX
  5
1EC
330
1E3
100
AcDbEntity
  8
D01 金物
 62
    45
420
 11634515
370
     0
100
AcDbFaceRecord
 10
0.0
 20
0.0
 30
0.0
 70
   128
 71
     1
 72
     2
 73
     3
 74
     4
  0
VERTEX
  5
1ED
330
1E3
100
AcDbEntity
  8
D01 金物
 62
    45
420
 11634515
370
     0
100
AcDbFaceRecord
 10
0.0
 20
0.0
 30
0.0
 70
   128
 71
     2
 72
     5
 73
     6
 74
     3
  0
VERTEX
  5
1EE
330
1E3
100
AcDbEntity
  8
D01 金物
 62
    45
420
 11634515
370
     0
100
AcDbFaceRecord
 10
0.0
 20
0.0
 30
0.0
 70
   128
 71
     5
 72
     7
 73
     8
 74
     6
  0
VERTEX
  5
1EF
330
1E3
100
AcDbEntity
  8
D01 金物
 62
    45
420
 11634515
370
     0
100
AcDbFaceRecord
 10
0.0
 20
0.0
 30
0.0
 70
   128
 71
     7
 72
     1
 73
     4
 74
     8
  0
VERTEX
  5
1F0
330
1E3
100
AcDbEntity
  8
D01 金物
 62
    45
420
 11634515
370
     0
100
AcDbFaceRecord
 10
0.0
 20
0.0
 30
0.0
 70
   128
 71
     1
 72
     7
 73
     5
 74
     2
  0
VERTEX
  5
1F1
330
1E3
100
AcDbEntity
  8
D01 金物
 62
    45
420
 11634515
370
     0
100
AcDbFaceRecord
 10
0.0
 20
0.0
 30
0.0
 70
   128
 71
     4
 72
     3
 73
     6
 74
     8
  0
SEQEND
  5
1F2
330
1E3
100
AcDbEntity
  8
D01 金物
370
     0
  0
POLYLINE
  5
1F3
330
6E
100
AcDbEntity
  8
D01 金物
370
     0
100
AcDbPolyFaceMesh
 66
     1
 10
0.0
 20
0.0
 30
0.0
 70
    64
 71
     8
 72
     6
  0
VERTEX
  5
1F4
330
1F3
100
AcDbEntity
  8
D01 金物
370
     0
100
AcDbVertex
100
AcDbPolyFaceMeshVertex
 10
1180.0
 20
-39.8
 30
80.0
 70
   192
  0
VERTEX
  5
1F5
330
1F3
100
AcDbEntity
  8
D01 金物
370
     0
100
AcDbVertex
100
AcDbPolyFaceMeshVertex
 10
1210.0
 20
-39.8
 30
80.0
 70
   192
  0
VERTEX
  5
1F6
330
1F3
100
AcDbEntity
  8
D01 金物
370
     0
100
AcDbVertex
100
AcDbPolyFaceMeshVertex
 10
1210.0
 20
-49.8
 30
80.0
 70
   192
  0
VERTEX
  5
1F7
330
1F3
100
AcDbEntity
  8
D01 金物
370
     0
100
AcDbVertex
100
AcDbPolyFaceMeshVertex
 10
1180.0
 20
-49.8
 30
80.0
 70
   192
  0
VERTEX
  5
1F8
330
1F3
100
AcDbEntity
  8
D01 金物
370
     0
100
AcDbVertex
100
AcDbPolyFaceMeshVertex
 10
1210.0
 20
-39.79999999999995
 30
800.0
 70
   192
  0
VERTEX
  5
1F9
330
1F3
100
AcDbEntity
  8
D01 金物
370
     0
100
AcDbVertex
100
AcDbPolyFaceMeshVertex
 10
1210.0
 20
-49.79999999999995
 30
800.0
 70
   192
  0
VERTEX
  5
1FA
330
1F3
100
AcDbEntity
  8
D01 金物
370
     0
100
AcDbVertex
100
AcDbPolyFaceMeshVertex
 10
1180.0
 20
-39.79999999999995
 30
800.0
 70
   192
  0
VERTEX
  5
1FB
330
1F3
100
AcDbEntity
  8
D01 金物
370
     0
100
AcDbVertex
100
AcDbPolyFaceMeshVertex
 10
1180.0
 20
-49.79999999999995
 30
800.0
 70
   192
  0
VERTEX
  5
1FC
330
1F3
100
AcDbEntity
  8
D01 金物
 62
    45
420
 11634515
370
     0
100
AcDbFaceRecord
 10
0.0
 20
0.0
 30
0.0
 70
   128
 71
     1
 72
     2
 73
     3
 74
     4
  0
VERTEX
  5
1FD
330
1F3
100
AcDbEntity
  8
D01 金物
 62
    45
420
 11634515
370
     0
100
AcDbFaceRecord
 10
0.0
 20
0.0
 30
0.0
 70
   128
 71
     2
 72
     5
 73
     6
 74
     3
  0
VERTEX
  5
1FE
330
1F3
100
AcDbEntity
  8
D01 金物
 62
    45
420
 11634515
370
     0
100
AcDbFaceRecord
 10
0.0
 20
0.0
 30
0.0
 70
   128
 71
     5
 72
     7
 73
     8
 74
     6
  0
VERTEX
  5
1FF
330
1F3
100
AcDbEntity
  8
D01 金物
 62
    45
420
 11634515
370
     0
100
AcDbFaceRecord
 10
0.0
 20
0.0
 30
0.0
 70
   128
 71
     7
 72
     1
 73
     4
 74
     8
  0
VERTEX
  5
200
330
1F3
100
AcDbEntity
  8
D01 金物
 62
    45
420
 11634515
370
     0
100
AcDbFaceRecord
 10
0.0
 20
0.0
 30
0.0
 70
   128
 71
     1
 72
     7
 73
     5
 74
     2
  0
VERTEX
  5
201
330
1F3
100
AcDbEntity
  8
D01 金物
 62
    45
420
 11634515
370
     0
100
AcDbFaceRecord
 10
0.0
 20
0.0
 30
0.0
 70
   128
 71
     4
 72
     3
 73
     6
 74
     8
  0
SEQEND
  5
202
330
1F3
100
AcDbEntity
  8
D01 金物
370
     0
  0
POLYLINE
  5
203
330
6E
100
AcDbEntity
  8
D01 金物
370
     0
100
AcDbPolyFaceMesh
 66
     1
 10
0.0
 20
0.0
 30
0.0
 70
    64
 71
     8
 72
     6
  0
VERTEX
  5
204
330
203
100
AcDbEntity
  8
D01 金物
370
     0
100
AcDbVertex
100
AcDbPolyFaceMeshVertex
 10
1235.5
 20
-39.8
 30
80.0
 70
   192
  0
VERTEX
  5
205
330
203
100
AcDbEntity
  8
D01 金物
370
     0
100
AcDbVertex
100
AcDbPolyFaceMeshVertex
 10
1265.5
 20
-39.8
 30
80.0
 70
   192
  0
VERTEX
  5
206
330
203
100
AcDbEntity
  8
D01 金物
370
     0
100
AcDbVertex
100
AcDbPolyFaceMeshVertex
 10
1265.5
 20
-49.8
 30
80.0
 70
   192
  0
VERTEX
  5
207
330
203
100
AcDbEntity
  8
D01 金物
370
     0
100
AcDbVertex
100
AcDbPolyFaceMeshVertex
 10
1235.5
 20
-49.8
 30
80.0
 70
   192
  0
VERTEX
  5
208
330
203
100
AcDbEntity
  8
D01 金物
370
     0
100
AcDbVertex
100
AcDbPolyFaceMeshVertex
 10
1265.5
 20
-39.79999999999995
 30
800.0
 70
   192
  0
VERTEX
  5
209
330
203
100
AcDbEntity
  8
D01 金物
370
     0
100
AcDbVertex
100
AcDbPolyFaceMeshVertex
 10
1265.5
 20
-49.79999999999995
 30
800.0
 70
   192
  0
VERTEX
  5
20A
330
203
100
AcDbEntity
  8
D01 金物
370
     0
100
AcDbVertex
100
AcDbPolyFaceMeshVertex
 10
1235.5
 20
-39.79999999999995
 30
800.0
 70
   192
  0
VERTEX
  5
20B
330
203
100
AcDbEntity
  8
D01 金物
370
     0
100
AcDbVertex
100
AcDbPolyFaceMeshVertex
 10
1235.5
 20
-49.79999999999995
 30
800.0
 70
   192
  0
VERTEX
  5
20C
330
203
100
AcDbEntity
  8
D01 金物
 62
    45
420
 11634515
370
     0
100
AcDbFaceRecord
 10
0.0
 20
0.0
 30
0.0
 70
   128
 71
     1
 72
     2
 73
     3
 74
     4
  0
VERTEX
  5
20D
330
203
100
AcDbEntity
  8
D01 金物
 62
    45
420
 11634515
370
     0
100
AcDbFaceRecord
 10
0.0
 20
0.0
 30
0.0
 70
   128
 71
     2
 72
     5
 73
     6
 74
     3
  0
VERTEX
  5
20E
330
203
100
AcDbEntity
  8
D01 金物
 62
    45
420
 11634515
370
     0
100
AcDbFaceRecord
 10
0.0
 20
0.0
 30
0.0
 70
   128
 71
     5
 72
     7
 73
     8
 74
     6
  0
VERTEX
  5
20F
330
203
100
AcDbEntity
  8
D01 金物
 62
    45
420
 11634515
370
     0
100
AcDbFaceRecord
 10
0.0
 20
0.0
 30
0.0
 70
   128
 71
     7
 72
     1
 73
     4
 74
     8
  0
VERTEX
  5
210
330
203
100
AcDbEntity
  8
D01 金物
 62
    45
420
 11634515
370
     0
100
AcDbFaceRecord
 10
0.0
 20
0.0
 30
0.0
 70
   128
 71
     1
 72
     7
 73
     5
 74
     2
  0
VERTEX
  5
211
330
203
100
AcDbEntity
  8
D01 金物
 62
    45
420
 11634515
370
     0
100
AcDbFaceRecord
 10
0.0
 20
0.0
 30
0.0
 70
   128
 71
     4
 72
     3
 73
     6
 74
     8
  0
SEQEND
  5
212
330
203
100
AcDbEntity
  8
D01 金物
370
     0
  0
POLYLINE
  5
213
330
6E
100
AcDbEntity
  8
D01 金物
370
     0
100
AcDbPolyFaceMesh
 66
     1
 10
0.0
 20
0.0
 30
0.0
 70
    64
 71
     8
 72
     6
  0
VERTEX
  5
214
330
213
100
AcDbEntity
  8
D01 金物
370
     0
100
AcDbVertex
100
AcDbPolyFaceMeshVertex
 10
1291.0
 20
-39.8
 30
80.0
 70
   192
  0
VERTEX
  5
215
330
213
100
AcDbEntity
  8
D01 金物
370
     0
100
AcDbVertex
100
AcDbPolyFaceMeshVertex
 10
1321.0
 20
-39.8
 30
80.0
 70
   192
  0
VERTEX
  5
216
330
213
100
AcDbEntity
  8
D01 金物
370
     0
100
AcDbVertex
100
AcDbPolyFaceMeshVertex
 10
1321.0
 20
-49.8
 30
80.0
 70
   192
  0
VERTEX
  5
217
330
213
100
AcDbEntity
  8
D01 金物
370
     0
100
AcDbVertex
100
AcDbPolyFaceMeshVertex
 10
1291.0
 20
-49.8
 30
80.0
 70
   192
  0
VERTEX
  5
218
330
213
100
AcDbEntity
  8
D01 金物
370
     0
100
AcDbVertex
100
AcDbPolyFaceMeshVertex
 10
1321.0
 20
-39.79999999999995
 30
800.0
 70
   192
  0
VERTEX
  5
219
330
213
100
AcDbEntity
  8
D01 金物
370
     0
100
AcDbVertex
100
AcDbPolyFaceMeshVertex
 10
1321.0
 20
-49.79999999999995
 30
800.0
 70
   192
  0
VERTEX
  5
21A
330
213
100
AcDbEntity
  8
D01 金物
370
     0
100
AcDbVertex
100
AcDbPolyFaceMeshVertex
 10
1291.0
 20
-39.79999999999995
 30
800.0
 70
   192
  0
VERTEX
  5
21B
330
213
100
AcDbEntity
  8
D01 金物
370
     0
100
AcDbVertex
100
AcDbPolyFaceMeshVertex
 10
1291.0
 20
-49.79999999999995
 30
800.0
 70
   192
  0
VERTEX
  5
21C
330
213
100
AcDbEntity
  8
D01 金物
 62
    45
420
 11634515
370
     0
100
AcDbFaceRecord
 10
0.0
 20
0.0
 30
0.0
 70
   128
 71
     1
 72
     2
 73
     3
 74
     4
  0
VERTEX
  5
21D
330
213
100
AcDbEntity
  8
D01 金物
 62
    45
420
 11634515
370
     0
100
AcDbFaceRecord
 10
0.0
 20
0.0
 30
0.0
 70
   128
 71
     2
 72
     5
 73
     6
 74
     3
  0
VERTEX
  5
21E
330
213
100
AcDbEntity
  8
D01 金物
 62
    45
420
 11634515
370
     0
100
AcDbFaceRecord
 10
0.0
 20
0.0
 30
0.0
 70
   128
 71
     5
 72
     7
 73
     8
 74
     6
  0
VERTEX
  5
21F
330
213
100
AcDbEntity
  8
D01 金物
 62
    45
420
 11634515
370
     0
100
AcDbFaceRecord
 10
0.0
 20
0.0
 30
0.0
 70
   128
 71
     7
 72
     1
 73
     4
 74
     8
  0
VERTEX
  5
220
330
213
100
AcDbEntity
  8
D01 金物
 62
    45
420
 11634515
370
     0
100
AcDbFaceRecord
 10
0.0
 20
0.0
 30
0.0
 70
   128
 71
     1
 72
     7
 73
     5
 74
     2
  0
VERTEX
  5
221
330
213
100
AcDbEntity
  8
D01 金物
 62
    45
420
 11634515
370
     0
100
AcDbFaceRecord
 10
0.0
 20
0.0
 30
0.0
 70
   128
 71
     4
 72
     3
 73
     6
 74
     8
  0
SEQEND
  5
222
330
213
100
AcDbEntity
  8
D01 金物
370
     0
  0
POLYLINE
  5
223
330
6E
100
AcDbEntity
  8
D01 金物
370
     0
100
AcDbPolyFaceMesh
 66
     1
 10
0.0
 20
0.0
 30
0.0
 70
    64
 71
     8
 72
     6
  0
VERTEX
  5
224
330
223
100
AcDbEntity
  8
D01 金物
370
     0
100
AcDbVertex
100
AcDbPolyFaceMeshVertex
 10
1346.5
 20
-39.8
 30
80.0
 70
   192
  0
VERTEX
  5
225
330
223
100
AcDbEntity
  8
D01 金物
370
     0
100
AcDbVertex
100
AcDbPolyFaceMeshVertex
 10
1376.5
 20
-39.8
 30
80.0
 70
   192
  0
VERTEX
  5
226
330
223
100
AcDbEntity
  8
D01 金物
370
     0
100
AcDbVertex
100
AcDbPolyFaceMeshVertex
 10
1376.5
 20
-49.8
 30
80.0
 70
   192
  0
VERTEX
  5
227
330
223
100
AcDbEntity
  8
D01 金物
370
     0
100
AcDbVertex
100
AcDbPolyFaceMeshVertex
 10
1346.5
 20
-49.8
 30
80.0
 70
   192
  0
VERTEX
  5
228
330
223
100
AcDbEntity
  8
D01 金物
370
     0
100
AcDbVertex
100
AcDbPolyFaceMeshVertex
 10
1376.5
 20
-39.79999999999995
 30
800.0
 70
   192
  0
VERTEX
  5
229
330
223
100
AcDbEntity
  8
D01 金物
370
     0
100
AcDbVertex
100
AcDbPolyFaceMeshVertex
 10
1376.5
 20
-49.79999999999995
 30
800.0
 70
   192
  0
VERTEX
  5
22A
330
223
100
AcDbEntity
  8
D01 金物
370
     0
100
AcDbVertex
100
AcDbPolyFaceMeshVertex
 10
1346.5
 20
-39.79999999999995
 30
800.0
 70
   192
  0
VERTEX
  5
22B
330
223
100
AcDbEntity
  8
D01 金物
370
     0
100
AcDbVertex
100
AcDbPolyFaceMeshVertex
 10
1346.5
 20
-49.79999999999995
 30
800.0
 70
   192
  0
VERTEX
  5
22C
330
223
100
AcDbEntity
  8
D01 金物
 62
    45
420
 11634515
370
     0
100
AcDbFaceRecord
 10
0.0
 20
0.0
 30
0.0
 70
   128
 71
     1
 72
     2
 73
     3
 74
     4
  0
VERTEX
  5
22D
330
223
100
AcDbEntity
  8
D01 金物
 62
    45
420
 11634515
370
     0
100
AcDbFaceRecord
 10
0.0
 20
0.0
 30
0.0
 70
   128
 71
     2
 72
     5
 73
     6
 74
     3
  0
VERTEX
  5
22E
330
223
100
AcDbEntity
  8
D01 金物
 62
    45
420
 11634515
370
     0
100
AcDbFaceRecord
 10
0.0
 20
0.0
 30
0.0
 70
   128
 71
     5
 72
     7
 73
     8
 74
     6
  0
VERTEX
  5
22F
330
223
100
AcDbEntity
  8
D01 金物
 62
    45
420
 11634515
370
     0
100
AcDbFaceRecord
 10
0.0
 20
0.0
 30
0.0
 70
   128
 71
     7
 72
     1
 73
     4
 74
     8
  0
VERTEX
  5
230
330
223
100
AcDbEntity
  8
D01 金物
 62
    45
420
 11634515
370
     0
100
AcDbFaceRecord
 10
0.0
 20
0.0
 30
0.0
 70
   128
 71
     1
 72
     7
 73
     5
 74
     2
  0
VERTEX
  5
231
330
223
100
AcDbEntity
  8
D01 金物
 62
    45
420
 11634515
370
     0
100
AcDbFaceRecord
 10
0.0
 20
0.0
 30
0.0
 70
   128
 71
     4
 72
     3
 73
     6
 74
     8
  0
SEQEND
  5
232
330
223
100
AcDbEntity
  8
D01 金物
370
     0
  0
POLYLINE
  5
233
330
6E
100
AcDbEntity
  8
D01 金物
370
     0
100
AcDbPolyFaceMesh
 66
     1
 10
0.0
 20
0.0
 30
0.0
 70
    64
 71
     8
 72
     6
  0
VERTEX
  5
234
330
233
100
AcDbEntity
  8
D01 金物
370
     0
100
AcDbVertex
100
AcDbPolyFaceMeshVertex
 10
1402.000000000001
 20
-39.8
 30
80.0
 70
   192
  0
VERTEX
  5
235
330
233
100
AcDbEntity
  8
D01 金物
370
     0
100
AcDbVertex
100
AcDbPolyFaceMeshVertex
 10
1432.000000000001
 20
-39.8
 30
80.0
 70
   192
  0
VERTEX
  5
236
330
233
100
AcDbEntity
  8
D01 金物
370
     0
100
AcDbVertex
100
AcDbPolyFaceMeshVertex
 10
1432.000000000001
 20
-49.8
 30
80.0
 70
   192
  0
VERTEX
  5
237
330
233
100
AcDbEntity
  8
D01 金物
370
     0
100
AcDbVertex
100
AcDbPolyFaceMeshVertex
 10
1402.000000000001
 20
-49.8
 30
80.0
 70
   192
  0
VERTEX
  5
238
330
233
100
AcDbEntity
  8
D01 金物
370
     0
100
AcDbVertex
100
AcDbPolyFaceMeshVertex
 10
1432.000000000001
 20
-39.79999999999995
 30
800.0
 70
   192
  0
VERTEX
  5
239
330
233
100
AcDbEntity
  8
D01 金物
370
     0
100
AcDbVertex
100
AcDbPolyFaceMeshVertex
 10
1432.000000000001
 20
-49.79999999999995
 30
800.0
 70
   192
  0
VERTEX
  5
23A
330
233
100
AcDbEntity
  8
D01 金物
370
     0
100
AcDbVertex
100
AcDbPolyFaceMeshVertex
 10
1402.000000000001
 20
-39.79999999999995
 30
800.0
 70
   192
  0
VERTEX
  5
23B
330
233
100
AcDbEntity
  8
D01 金物
370
     0
100
AcDbVertex
100
AcDbPolyFaceMeshVertex
 10
1402.000000000001
 20
-49.79999999999995
 30
800.0
 70
   192
  0
VERTEX
  5
23C
330
233
100
AcDbEntity
  8
D01 金物
 62
    45
420
 11634515
370
     0
100
AcDbFaceRecord
 10
0.0
 20
0.0
 30
0.0
 70
   128
 71
     1
 72
     2
 73
     3
 74
     4
  0
VERTEX
  5
23D
330
233
100
AcDbEntity
  8
D01 金物
 62
    45
420
 11634515
370
     0
100
AcDbFaceRecord
 10
0.0
 20
0.0
 30
0.0
 70
   128
 71
     2
 72
     5
 73
     6
 74
     3
  0
VERTEX
  5
23E
330
233
100
AcDbEntity
  8
D01 金物
 62
    45
420
 11634515
370
     0
100
AcDbFaceRecord
 10
0.0
 20
0.0
 30
0.0
 70
   128
 71
     5
 72
     7
 73
     8
 74
     6
  0
VERTEX
  5
23F
330
233
100
AcDbEntity
  8
D01 金物
 62
    45
420
 11634515
370
     0
100
AcDbFaceRecord
 10
0.0
 20
0.0
 30
0.0
 70
   128
 71
     7
 72
     1
 73
     4
 74
     8
  0
VERTEX
  5
240
330
233
100
AcDbEntity
  8
D01 金物
 62
    45
420
 11634515
370
     0
100
AcDbFaceRecord
 10
0.0
 20
0.0
 30
0.0
 70
   128
 71
     1
 72
     7
 73
     5
 74
     2
  0
VERTEX
  5
241
330
233
100
AcDbEntity
  8
D01 金物
 62
    45
420
 11634515
370
     0
100
AcDbFaceRecord
 10
0.0
 20
0.0
 30
0.0
 70
   128
 71
     4
 72
     3
 73
     6
 74
     8
  0
SEQEND
  5
242
330
233
100
AcDbEntity
  8
D01 金物
370
     0
  0
POLYLINE
  5
243
330
6E
100
AcDbEntity
  8
D01 金物
370
     0
100
AcDbPolyFaceMesh
 66
     1
 10
0.0
 20
0.0
 30
0.0
 70
    64
 71
     8
 72
     6
  0
VERTEX
  5
244
330
243
100
AcDbEntity
  8
D01 金物
370
     0
100
AcDbVertex
100
AcDbPolyFaceMeshVertex
 10
1457.500000000001
 20
-39.8
 30
80.0
 70
   192
  0
VERTEX
  5
245
330
243
100
AcDbEntity
  8
D01 金物
370
     0
100
AcDbVertex
100
AcDbPolyFaceMeshVertex
 10
1487.500000000001
 20
-39.8
 30
80.0
 70
   192
  0
VERTEX
  5
246
330
243
100
AcDbEntity
  8
D01 金物
370
     0
100
AcDbVertex
100
AcDbPolyFaceMeshVertex
 10
1487.500000000001
 20
-49.8
 30
80.0
 70
   192
  0
VERTEX
  5
247
330
243
100
AcDbEntity
  8
D01 金物
370
     0
100
AcDbVertex
100
AcDbPolyFaceMeshVertex
 10
1457.500000000001
 20
-49.8
 30
80.0
 70
   192
  0
VERTEX
  5
248
330
243
100
AcDbEntity
  8
D01 金物
370
     0
100
AcDbVertex
100
AcDbPolyFaceMeshVertex
 10
1487.500000000001
 20
-39.79999999999995
 30
800.0
 70
   192
  0
VERTEX
  5
249
330
243
100
AcDbEntity
  8
D01 金物
370
     0
100
AcDbVertex
100
AcDbPolyFaceMeshVertex
 10
1487.500000000001
 20
-49.79999999999995
 30
800.0
 70
   192
  0
VERTEX
  5
24A
330
243
100
AcDbEntity
  8
D01 金物
370
     0
100
AcDbVertex
100
AcDbPolyFaceMeshVertex
 10
1457.500000000001
 20
-39.79999999999995
 30
800.0
 70
   192
  0
VERTEX
  5
24B
330
243
100
AcDbEntity
  8
D01 金物
370
     0
100
AcDbVertex
100
AcDbPolyFaceMeshVertex
 10
1457.500000000001
 20
-49.79999999999995
 30
800.0
 70
   192
  0
VERTEX
  5
24C
330
243
100
AcDbEntity
  8
D01 金物
 62
    45
420
 11634515
370
     0
100
AcDbFaceRecord
 10
0.0
 20
0.0
 30
0.0
 70
   128
 71
     1
 72
     2
 73
     3
 74
     4
  0
VERTEX
  5
24D
330
243
100
AcDbEntity
  8
D01 金物
 62
    45
420
 11634515
370
     0
100
AcDbFaceRecord
 10
0.0
 20
0.0
 30
0.0
 70
   128
 71
     2
 72
     5
 73
     6
 74
     3
  0
VERTEX
  5
24E
330
243
100
AcDbEntity
  8
D01 金物
 62
    45
420
 11634515
370
     0
100
AcDbFaceRecord
 10
0.0
 20
0.0
 30
0.0
 70
   128
 71
     5
 72
     7
 73
     8
 74
     6
  0
VERTEX
  5
24F
330
243
100
AcDbEntity
  8
D01 金物
 62
    45
420
 11634515
370
     0
100
AcDbFaceRecord
 10
0.0
 20
0.0
 30
0.0
 70
   128
 71
     7
 72
     1
 73
     4
 74
     8
  0
VERTEX
  5
250
330
243
100
AcDbEntity
  8
D01 金物
 62
    45
420
 11634515
370
     0
100
AcDbFaceRecord
 10
0.0
 20
0.0
 30
0.0
 70
   128
 71
     1
 72
     7
 73
     5
 74
     2
  0
VERTEX
  5
251
330
243
100
AcDbEntity
  8
D01 金物
 62
    45
420
 11634515
370
     0
100
AcDbFaceRecord
 10
0.0
 20
0.0
 30
0.0
 70
   128
 71
     4
 72
     3
 73
     6
 74
     8
  0
SEQEND
  5
252
330
243
100
AcDbEntity
  8
D01 金物
370
     0
  0
POLYLINE
  5
253
330
6E
100
AcDbEntity
  8
D01 金物
370
     0
100
AcDbPolyFaceMesh
 66
     1
 10
0.0
 20
0.0
 30
0.0
 70
    64
 71
     8
 72
     6
  0
VERTEX
  5
254
330
253
100
AcDbEntity
  8
D01 金物
370
     0
100
AcDbVertex
100
AcDbPolyFaceMeshVertex
 10
1513.000000000001
 20
-39.8
 30
80.0
 70
   192
  0
VERTEX
  5
255
330
253
100
AcDbEntity
  8
D01 金物
370
     0
100
AcDbVertex
100
AcDbPolyFaceMeshVertex
 10
1543.000000000001
 20
-39.8
 30
80.0
 70
   192
  0
VERTEX
  5
256
330
253
100
AcDbEntity
  8
D01 金物
370
     0
100
AcDbVertex
100
AcDbPolyFaceMeshVertex
 10
1543.000000000001
 20
-49.8
 30
80.0
 70
   192
  0
VERTEX
  5
257
330
253
100
AcDbEntity
  8
D01 金物
370
     0
100
AcDbVertex
100
AcDbPolyFaceMeshVertex
 10
1513.000000000001
 20
-49.8
 30
80.0
 70
   192
  0
VERTEX
  5
258
330
253
100
AcDbEntity
  8
D01 金物
370
     0
100
AcDbVertex
100
AcDbPolyFaceMeshVertex
 10
1543.000000000001
 20
-39.79999999999995
 30
800.0
 70
   192
  0
VERTEX
  5
259
330
253
100
AcDbEntity
  8
D01 金物
370
     0
100
AcDbVertex
100
AcDbPolyFaceMeshVertex
 10
1543.000000000001
 20
-49.79999999999995
 30
800.0
 70
   192
  0
VERTEX
  5
25A
330
253
100
AcDbEntity
  8
D01 金物
370
     0
100
AcDbVertex
100
AcDbPolyFaceMeshVertex
 10
1513.000000000001
 20
-39.79999999999995
 30
800.0
 70
   192
  0
VERTEX
  5
25B
330
253
100
AcDbEntity
  8
D01 金物
370
     0
100
AcDbVertex
100
AcDbPolyFaceMeshVertex
 10
1513.000000000001
 20
-49.79999999999995
 30
800.0
 70
   192
  0
VERTEX
  5
25C
330
253
100
AcDbEntity
  8
D01 金物
 62
    45
420
 11634515
370
     0
100
AcDbFaceRecord
 10
0.0
 20
0.0
 30
0.0
 70
   128
 71
     1
 72
     2
 73
     3
 74
     4
  0
VERTEX
  5
25D
330
253
100
AcDbEntity
  8
D01 金物
 62
    45
420
 11634515
370
     0
100
AcDbFaceRecord
 10
0.0
 20
0.0
 30
0.0
 70
   128
 71
     2
 72
     5
 73
     6
 74
     3
  0
VERTEX
  5
25E
330
253
100
AcDbEntity
  8
D01 金物
 62
    45
420
 11634515
370
     0
100
AcDbFaceRecord
 10
0.0
 20
0.0
 30
0.0
 70
   128
 71
     5
 72
     7
 73
     8
 74
     6
  0
VERTEX
  5
25F
330
253
100
AcDbEntity
  8
D01 金物
 62
    45
420
 11634515
370
     0
100
AcDbFaceRecord
 10
0.0
 20
0.0
 30
0.0
 70
   128
 71
     7
 72
     1
 73
     4
 74
     8
  0
VERTEX
  5
260
330
253
100
AcDbEntity
  8
D01 金物
 62
    45
420
 11634515
370
     0
100
AcDbFaceRecord
 10
0.0
 20
0.0
 30
0.0
 70
   128
 71
     1
 72
     7
 73
     5
 74
     2
  0
VERTEX
  5
261
330
253
100
AcDbEntity
  8
D01 金物
 62
    45
420
 11634515
370
     0
100
AcDbFaceRecord
 10
0.0
 20
0.0
 30
0.0
 70
   128
 71
     4
 72
     3
 73
     6
 74
     8
  0
SEQEND
  5
262
330
253
100
AcDbEntity
  8
D01 金物
370
     0
  0
POLYLINE
  5
263
330
6E
100
AcDbEntity
  8
D01 金物
370
     0
100
AcDbPolyFaceMesh
 66
     1
 10
0.0
 20
0.0
 30
0.0
 70
    64
 71
     8
 72
     6
  0
VERTEX
  5
264
330
263
100
AcDbEntity
  8
D01 金物
370
     0
100
AcDbVertex
100
AcDbPolyFaceMeshVertex
 10
1568.500000000001
 20
-39.8
 30
80.0
 70
   192
  0
VERTEX
  5
265
330
263
100
AcDbEntity
  8
D01 金物
370
     0
100
AcDbVertex
100
AcDbPolyFaceMeshVertex
 10
1598.500000000001
 20
-39.8
 30
80.0
 70
   192
  0
VERTEX
  5
266
330
263
100
AcDbEntity
  8
D01 金物
370
     0
100
AcDbVertex
100
AcDbPolyFaceMeshVertex
 10
1598.500000000001
 20
-49.8
 30
80.0
 70
   192
  0
VERTEX
  5
267
330
263
100
AcDbEntity
  8
D01 金物
370
     0
100
AcDbVertex
100
AcDbPolyFaceMeshVertex
 10
1568.500000000001
 20
-49.8
 30
80.0
 70
   192
  0
VERTEX
  5
268
330
263
100
AcDbEntity
  8
D01 金物
370
     0
100
AcDbVertex
100
AcDbPolyFaceMeshVertex
 10
1598.500000000001
 20
-39.79999999999995
 30
800.0
 70
   192
  0
VERTEX
  5
269
330
263
100
AcDbEntity
  8
D01 金物
370
     0
100
AcDbVertex
100
AcDbPolyFaceMeshVertex
 10
1598.500000000001
 20
-49.79999999999995
 30
800.0
 70
   192
  0
VERTEX
  5
26A
330
263
100
AcDbEntity
  8
D01 金物
370
     0
100
AcDbVertex
100
AcDbPolyFaceMeshVertex
 10
1568.500000000001
 20
-39.79999999999995
 30
800.0
 70
   192
  0
VERTEX
  5
26B
330
263
100
AcDbEntity
  8
D01 金物
370
     0
100
AcDbVertex
100
AcDbPolyFaceMeshVertex
 10
1568.500000000001
 20
-49.79999999999995
 30
800.0
 70
   192
  0
VERTEX
  5
26C
330
263
100
AcDbEntity
  8
D01 金物
 62
    45
420
 11634515
370
     0
100
AcDbFaceRecord
 10
0.0
 20
0.0
 30
0.0
 70
   128
 71
     1
 72
     2
 73
     3
 74
     4
  0
VERTEX
  5
26D
330
263
100
AcDbEntity
  8
D01 金物
 62
    45
420
 11634515
370
     0
100
AcDbFaceRecord
 10
0.0
 20
0.0
 30
0.0
 70
   128
 71
     2
 72
     5
 73
     6
 74
     3
  0
VERTEX
  5
26E
330
263
100
AcDbEntity
  8
D01 金物
 62
    45
420
 11634515
370
     0
100
AcDbFaceRecord
 10
0.0
 20
0.0
 30
0.0
 70
   128
 71
     5
 72
     7
 73
     8
 74
     6
  0
VERTEX
  5
26F
330
263
100
AcDbEntity
  8
D01 金物
 62
    45
420
 11634515
370
     0
100
AcDbFaceRecord
 10
0.0
 20
0.0
 30
0.0
 70
   128
 71
     7
 72
     1
 73
     4
 74
     8
  0
VERTEX
  5
270
330
263
100
AcDbEntity
  8
D01 金物
 62
    45
420
 11634515
370
     0
100
AcDbFaceRecord
 10
0.0
 20
0.0
 30
0.0
 70
   128
 71
     1
 72
     7
 73
     5
 74
     2
  0
VERTEX
  5
271
330
263
100
AcDbEntity
  8
D01 金物
 62
    45
420
 11634515
370
     0
100
AcDbFaceRecord
 10
0.0
 20
0.0
 30
0.0
 70
   128
 71
     4
 72
     3
 73
     6
 74
     8
  0
SEQEND
  5
272
330
263
100
AcDbEntity
  8
D01 金物
370
     0
  0
POLYLINE
  5
273
330
6E
100
AcDbEntity
  8
D01 金物
370
     0
100
AcDbPolyFaceMesh
 66
     1
 10
0.0
 20
0.0
 30
0.0
 70
    64
 71
     8
 72
     6
  0
VERTEX
  5
274
330
273
100
AcDbEntity
  8
D01 金物
370
     0
100
AcDbVertex
100
AcDbPolyFaceMeshVertex
 10
1624.000000000001
 20
-39.8
 30
80.0
 70
   192
  0
VERTEX
  5
275
330
273
100
AcDbEntity
  8
D01 金物
370
     0
100
AcDbVertex
100
AcDbPolyFaceMeshVertex
 10
1654.000000000001
 20
-39.8
 30
80.0
 70
   192
  0
VERTEX
  5
276
330
273
100
AcDbEntity
  8
D01 金物
370
     0
100
AcDbVertex
100
AcDbPolyFaceMeshVertex
 10
1654.000000000001
 20
-49.8
 30
80.0
 70
   192
  0
VERTEX
  5
277
330
273
100
AcDbEntity
  8
D01 金物
370
     0
100
AcDbVertex
100
AcDbPolyFaceMeshVertex
 10
1624.000000000001
 20
-49.8
 30
80.0
 70
   192
  0
VERTEX
  5
278
330
273
100
AcDbEntity
  8
D01 金物
370
     0
100
AcDbVertex
100
AcDbPolyFaceMeshVertex
 10
1654.000000000001
 20
-39.79999999999995
 30
800.0
 70
   192
  0
VERTEX
  5
279
330
273
100
AcDbEntity
  8
D01 金物
370
     0
100
AcDbVertex
100
AcDbPolyFaceMeshVertex
 10
1654.000000000001
 20
-49.79999999999995
 30
800.0
 70
   192
  0
VERTEX
  5
27A
330
273
100
AcDbEntity
  8
D01 金物
370
     0
100
AcDbVertex
100
AcDbPolyFaceMeshVertex
 10
1624.000000000001
 20
-39.79999999999995
 30
800.0
 70
   192
  0
VERTEX
  5
27B
330
273
100
AcDbEntity
  8
D01 金物
370
     0
100
AcDbVertex
100
AcDbPolyFaceMeshVertex
 10
1624.000000000001
 20
-49.79999999999995
 30
800.0
 70
   192
  0
VERTEX
  5
27C
330
273
100
AcDbEntity
  8
D01 金物
 62
    45
420
 11634515
370
     0
100
AcDbFaceRecord
 10
0.0
 20
0.0
 30
0.0
 70
   128
 71
     1
 72
     2
 73
     3
 74
     4
  0
VERTEX
  5
27D
330
273
100
AcDbEntity
  8
D01 金物
 62
    45
420
 11634515
370
     0
100
AcDbFaceRecord
 10
0.0
 20
0.0
 30
0.0
 70
   128
 71
     2
 72
     5
 73
     6
 74
     3
  0
VERTEX
  5
27E
330
273
100
AcDbEntity
  8
D01 金物
 62
    45
420
 11634515
370
     0
100
AcDbFaceRecord
 10
0.0
 20
0.0
 30
0.0
 70
   128
 71
     5
 72
     7
 73
     8
 74
     6
  0
VERTEX
  5
27F
330
273
100
AcDbEntity
  8
D01 金物
 62
    45
420
 11634515
370
     0
100
AcDbFaceRecord
 10
0.0
 20
0.0
 30
0.0
 70
   128
 71
     7
 72
     1
 73
     4
 74
     8
  0
VERTEX
  5
280
330
273
100
AcDbEntity
  8
D01 金物
 62
    45
420
 11634515
370
     0
100
AcDbFaceRecord
 10
0.0
 20
0.0
 30
0.0
 70
   128
 71
     1
 72
     7
 73
     5
 74
     2
  0
VERTEX
  5
281
330
273
100
AcDbEntity
  8
D01 金物
 62
    45
420
 11634515
370
     0
100
AcDbFaceRecord
 10
0.0
 20
0.0
 30
0.0
 70
   128
 71
     4
 72
     3
 73
     6
 74
     8
  0
SEQEND
  5
282
330
273
100
AcDbEntity
  8
D01 金物
370
     0
  0
POLYLINE
  5
283
330
6E
100
AcDbEntity
  8
D01 金物
370
     0
100
AcDbPolyFaceMesh
 66
     1
 10
0.0
 20
0.0
 30
0.0
 70
    64
 71
     8
 72
     6
  0
VERTEX
  5
284
330
283
100
AcDbEntity
  8
D01 金物
370
     0
100
AcDbVertex
100
AcDbPolyFaceMeshVertex
 10
1679.500000000001
 20
-39.8
 30
80.0
 70
   192
  0
VERTEX
  5
285
330
283
100
AcDbEntity
  8
D01 金物
370
     0
100
AcDbVertex
100
AcDbPolyFaceMeshVertex
 10
1709.500000000001
 20
-39.8
 30
80.0
 70
   192
  0
VERTEX
  5
286
330
283
100
AcDbEntity
  8
D01 金物
370
     0
100
AcDbVertex
100
AcDbPolyFaceMeshVertex
 10
1709.500000000001
 20
-49.8
 30
80.0
 70
   192
  0
VERTEX
  5
287
330
283
100
AcDbEntity
  8
D01 金物
370
     0
100
AcDbVertex
100
AcDbPolyFaceMeshVertex
 10
1679.500000000001
 20
-49.8
 30
80.0
 70
   192
  0
VERTEX
  5
288
330
283
100
AcDbEntity
  8
D01 金物
370
     0
100
AcDbVertex
100
AcDbPolyFaceMeshVertex
 10
1709.500000000001
 20
-39.79999999999995
 30
800.0
 70
   192
  0
VERTEX
  5
289
330
283
100
AcDbEntity
  8
D01 金物
370
     0
100
AcDbVertex
100
AcDbPolyFaceMeshVertex
 10
1709.500000000001
 20
-49.79999999999995
 30
800.0
 70
   192
  0
VERTEX
  5
28A
330
283
100
AcDbEntity
  8
D01 金物
370
     0
100
AcDbVertex
100
AcDbPolyFaceMeshVertex
 10
1679.500000000001
 20
-39.79999999999995
 30
800.0
 70
   192
  0
VERTEX
  5
28B
330
283
100
AcDbEntity
  8
D01 金物
370
     0
100
AcDbVertex
100
AcDbPolyFaceMeshVertex
 10
1679.500000000001
 20
-49.79999999999995
 30
800.0
 70
   192
  0
VERTEX
  5
28C
330
283
100
AcDbEntity
  8
D01 金物
 62
    45
420
 11634515
370
     0
100
AcDbFaceRecord
 10
0.0
 20
0.0
 30
0.0
 70
   128
 71
     1
 72
     2
 73
     3
 74
     4
  0
VERTEX
  5
28D
330
283
100
AcDbEntity
  8
D01 金物
 62
    45
420
 11634515
370
     0
100
AcDbFaceRecord
 10
0.0
 20
0.0
 30
0.0
 70
   128
 71
     2
 72
     5
 73
     6
 74
     3
  0
VERTEX
  5
28E
330
283
100
AcDbEntity
  8
D01 金物
 62
    45
420
 11634515
370
     0
100
AcDbFaceRecord
 10
0.0
 20
0.0
 30
0.0
 70
   128
 71
     5
 72
     7
 73
     8
 74
     6
  0
VERTEX
  5
28F
330
283
100
AcDbEntity
  8
D01 金物
 62
    45
420
 11634515
370
     0
100
AcDbFaceRecord
 10
0.0
 20
0.0
 30
0.0
 70
   128
 71
     7
 72
     1
 73
     4
 74
     8
  0
VERTEX
  5
290
330
283
100
AcDbEntity
  8
D01 金物
 62
    45
420
 11634515
370
     0
100
AcDbFaceRecord
 10
0.0
 20
0.0
 30
0.0
 70
   128
 71
     1
 72
     7
 73
     5
 74
     2
  0
VERTEX
  5
291
330
283
100
AcDbEntity
  8
D01 金物
 62
    45
420
 11634515
370
     0
100
AcDbFaceRecord
 10
0.0
 20
0.0
 30
0.0
 70
   128
 71
     4
 72
     3
 73
     6
 74
     8
  0
SEQEND
  5
292
330
283
100
AcDbEntity
  8
D01 金物
370
     0
  0
POLYLINE
  5
293
330
6E
100
AcDbEntity
  8
D01 金物
370
     0
100
AcDbPolyFaceMesh
 66
     1
 10
0.0
 20
0.0
 30
0.0
 70
    64
 71
     8
 72
     6
  0
VERTEX
  5
294
330
293
100
AcDbEntity
  8
D01 金物
370
     0
100
AcDbVertex
100
AcDbPolyFaceMeshVertex
 10
1735.000000000001
 20
-39.8
 30
80.0
 70
   192
  0
VERTEX
  5
295
330
293
100
AcDbEntity
  8
D01 金物
370
     0
100
AcDbVertex
100
AcDbPolyFaceMeshVertex
 10
1765.000000000001
 20
-39.8
 30
80.0
 70
   192
  0
VERTEX
  5
296
330
293
100
AcDbEntity
  8
D01 金物
370
     0
100
AcDbVertex
100
AcDbPolyFaceMeshVertex
 10
1765.000000000001
 20
-49.8
 30
80.0
 70
   192
  0
VERTEX
  5
297
330
293
100
AcDbEntity
  8
D01 金物
370
     0
100
AcDbVertex
100
AcDbPolyFaceMeshVertex
 10
1735.000000000001
 20
-49.8
 30
80.0
 70
   192
  0
VERTEX
  5
298
330
293
100
AcDbEntity
  8
D01 金物
370
     0
100
AcDbVertex
100
AcDbPolyFaceMeshVertex
 10
1765.000000000001
 20
-39.79999999999995
 30
800.0
 70
   192
  0
VERTEX
  5
299
330
293
100
AcDbEntity
  8
D01 金物
370
     0
100
AcDbVertex
100
AcDbPolyFaceMeshVertex
 10
1765.000000000001
 20
-49.79999999999995
 30
800.0
 70
   192
  0
VERTEX
  5
29A
330
293
100
AcDbEntity
  8
D01 金物
370
     0
100
AcDbVertex
100
AcDbPolyFaceMeshVertex
 10
1735.000000000001
 20
-39.79999999999995
 30
800.0
 70
   192
  0
VERTEX
  5
29B
330
293
100
AcDbEntity
  8
D01 金物
370
     0
100
AcDbVertex
100
AcDbPolyFaceMeshVertex
 10
1735.000000000001
 20
-49.79999999999995
 30
800.0
 70
   192
  0
VERTEX
  5
29C
330
293
100
AcDbEntity
  8
D01 金物
 62
    45
420
 11634515
370
     0
100
AcDbFaceRecord
 10
0.0
 20
0.0
 30
0.0
 70
   128
 71
     1
 72
     2
 73
     3
 74
     4
  0
VERTEX
  5
29D
330
293
100
AcDbEntity
  8
D01 金物
 62
    45
420
 11634515
370
     0
100
AcDbFaceRecord
 10
0.0
 20
0.0
 30
0.0
 70
   128
 71
     2
 72
     5
 73
     6
 74
     3
  0
VERTEX
  5
29E
330
293
100
AcDbEntity
  8
D01 金物
 62
    45
420
 11634515
370
     0
100
AcDbFaceRecord
 10
0.0
 20
0.0
 30
0.0
 70
   128
 71
     5
 72
     7
 73
     8
 74
     6
  0
VERTEX
  5
29F
330
293
100
AcDbEntity
  8
D01 金物
 62
    45
420
 11634515
370
     0
100
AcDbFaceRecord
 10
0.0
 20
0.0
 30
0.0
 70
   128
 71
     7
 72
     1
 73
     4
 74
     8
  0
VERTEX
  5
2A0
330
293
100
AcDbEntity
  8
D01 金物
 62
    45
420
 11634515
370
     0
100
AcDbFaceRecord
 10
0.0
 20
0.0
 30
0.0
 70
   128
 71
     1
 72
     7
 73
     5
 74
     2
  0
VERTEX
  5
2A1
330
293
100
AcDbEntity
  8
D01 金物
 62
    45
420
 11634515
370
     0
100
AcDbFaceRecord
 10
0.0
 20
0.0
 30
0.0
 70
   128
 71
     4
 72
     3
 73
     6
 74
     8
  0
SEQEND
  5
2A2
330
293
100
AcDbEntity
  8
D01 金物
370
     0
  0
POLYLINE
  5
2A3
330
6E
100
AcDbEntity
  8
D01 金物
370
     0
100
AcDbPolyFaceMesh
 66
     1
 10
0.0
 20
0.0
 30
0.0
 70
    64
 71
     8
 72
     6
  0
VERTEX
  5
2A4
330
2A3
100
AcDbEntity
  8
D01 金物
370
     0
100
AcDbVertex
100
AcDbPolyFaceMeshVertex
 10
1790.500000000001
 20
-39.8
 30
80.0
 70
   192
  0
VERTEX
  5
2A5
330
2A3
100
AcDbEntity
  8
D01 金物
370
     0
100
AcDbVertex
100
AcDbPolyFaceMeshVertex
 10
1820.500000000001
 20
-39.8
 30
80.0
 70
   192
  0
VERTEX
  5
2A6
330
2A3
100
AcDbEntity
  8
D01 金物
370
     0
100
AcDbVertex
100
AcDbPolyFaceMeshVertex
 10
1820.500000000001
 20
-49.8
 30
80.0
 70
   192
  0
VERTEX
  5
2A7
330
2A3
100
AcDbEntity
  8
D01 金物
370
     0
100
AcDbVertex
100
AcDbPolyFaceMeshVertex
 10
1790.500000000001
 20
-49.8
 30
80.0
 70
   192
  0
VERTEX
  5
2A8
330
2A3
100
AcDbEntity
  8
D01 金物
370
     0
100
AcDbVertex
100
AcDbPolyFaceMeshVertex
 10
1820.500000000001
 20
-39.79999999999995
 30
800.0
 70
   192
  0
VERTEX
  5
2A9
330
2A3
100
AcDbEntity
  8
D01 金物
370
     0
100
AcDbVertex
100
AcDbPolyFaceMeshVertex
 10
1820.500000000001
 20
-49.79999999999995
 30
800.0
 70
   192
  0
VERTEX
  5
2AA
330
2A3
100
AcDbEntity
  8
D01 金物
370
     0
100
AcDbVertex
100
AcDbPolyFaceMeshVertex
 10
1790.500000000001
 20
-39.79999999999995
 30
800.0
 70
   192
  0
VERTEX
  5
2AB
330
2A3
100
AcDbEntity
  8
D01 金物
370
     0
100
AcDbVertex
100
AcDbPolyFaceMeshVertex
 10
1790.500000000001
 20
-49.79999999999995
 30
800.0
 70
   192
  0
VERTEX
  5
2AC
330
2A3
100
AcDbEntity
  8
D01 金物
 62
    45
420
 11634515
370
     0
100
AcDbFaceRecord
 10
0.0
 20
0.0
 30
0.0
 70
   128
 71
     1
 72
     2
 73
     3
 74
     4
  0
VERTEX
  5
2AD
330
2A3
100
AcDbEntity
  8
D01 金物
 62
    45
420
 11634515
370
     0
100
AcDbFaceRecord
 10
0.0
 20
0.0
 30
0.0
 70
   128
 71
     2
 72
     5
 73
     6
 74
     3
  0
VERTEX
  5
2AE
330
2A3
100
AcDbEntity
  8
D01 金物
 62
    45
420
 11634515
370
     0
100
AcDbFaceRecord
 10
0.0
 20
0.0
 30
0.0
 70
   128
 71
     5
 72
     7
 73
     8
 74
     6
  0
VERTEX
  5
2AF
330
2A3
100
AcDbEntity
  8
D01 金物
 62
    45
420
 11634515
370
     0
100
AcDbFaceRecord
 10
0.0
 20
0.0
 30
0.0
 70
   128
 71
     7
 72
     1
 73
     4
 74
     8
  0
VERTEX
  5
2B0
330
2A3
100
AcDbEntity
  8
D01 金物
 62
    45
420
 11634515
370
     0
100
AcDbFaceRecord
 10
0.0
 20
0.0
 30
0.0
 70
   128
 71
     1
 72
     7
 73
     5
 74
     2
  0
VERTEX
  5
2B1
330
2A3
100
AcDbEntity
  8
D01 金物
 62
    45
420
 11634515
370
     0
100
AcDbFaceRecord
 10
0.0
 20
0.0
 30
0.0
 70
   128
 71
     4
 72
     3
 73
     6
 74
     8
  0
SEQEND
  5
2B2
330
2A3
100
AcDbEntity
  8
D01 金物
370
     0
  0
POLYLINE
  5
2B3
330
6E
100
AcDbEntity
  8
D01 金物
370
     0
100
AcDbPolyFaceMesh
 66
     1
 10
0.0
 20
0.0
 30
0.0
 70
    64
 71
     8
 72
     6
  0
VERTEX
  5
2B4
330
2B3
100
AcDbEntity
  8
D01 金物
370
     0
100
AcDbVertex
100
AcDbPolyFaceMeshVertex
 10
1846.000000000001
 20
-39.8
 30
80.0
 70
   192
  0
VERTEX
  5
2B5
330
2B3
100
AcDbEntity
  8
D01 金物
370
     0
100
AcDbVertex
100
AcDbPolyFaceMeshVertex
 10
1876.000000000001
 20
-39.8
 30
80.0
 70
   192
  0
VERTEX
  5
2B6
330
2B3
100
AcDbEntity
  8
D01 金物
370
     0
100
AcDbVertex
100
AcDbPolyFaceMeshVertex
 10
1876.000000000001
 20
-49.8
 30
80.0
 70
   192
  0
VERTEX
  5
2B7
330
2B3
100
AcDbEntity
  8
D01 金物
370
     0
100
AcDbVertex
100
AcDbPolyFaceMeshVertex
 10
1846.000000000001
 20
-49.8
 30
80.0
 70
   192
  0
VERTEX
  5
2B8
330
2B3
100
AcDbEntity
  8
D01 金物
370
     0
100
AcDbVertex
100
AcDbPolyFaceMeshVertex
 10
1876.000000000001
 20
-39.79999999999995
 30
800.0
 70
   192
  0
VERTEX
  5
2B9
330
2B3
100
AcDbEntity
  8
D01 金物
370
     0
100
AcDbVertex
100
AcDbPolyFaceMeshVertex
 10
1876.000000000001
 20
-49.79999999999995
 30
800.0
 70
   192
  0
VERTEX
  5
2BA
330
2B3
100
AcDbEntity
  8
D01 金物
370
     0
100
AcDbVertex
100
AcDbPolyFaceMeshVertex
 10
1846.000000000001
 20
-39.79999999999995
 30
800.0
 70
   192
  0
VERTEX
  5
2BB
330
2B3
100
AcDbEntity
  8
D01 金物
370
     0
100
AcDbVertex
100
AcDbPolyFaceMeshVertex
 10
1846.000000000001
 20
-49.79999999999995
 30
800.0
 70
   192
  0
VERTEX
  5
2BC
330
2B3
100
AcDbEntity
  8
D01 金物
 62
    45
420
 11634515
370
     0
100
AcDbFaceRecord
 10
0.0
 20
0.0
 30
0.0
 70
   128
 71
     1
 72
     2
 73
     3
 74
     4
  0
VERTEX
  5
2BD
330
2B3
100
AcDbEntity
  8
D01 金物
 62
    45
420
 11634515
370
     0
100
AcDbFaceRecord
 10
0.0
 20
0.0
 30
0.0
 70
   128
 71
     2
 72
     5
 73
     6
 74
     3
  0
VERTEX
  5
2BE
330
2B3
100
AcDbEntity
  8
D01 金物
 62
    45
420
 11634515
370
     0
100
AcDbFaceRecord
 10
0.0
 20
0.0
 30
0.0
 70
   128
 71
     5
 72
     7
 73
     8
 74
     6
  0
VERTEX
  5
2BF
330
2B3
100
AcDbEntity
  8
D01 金物
 62
    45
420
 11634515
370
     0
100
AcDbFaceRecord
 10
0.0
 20
0.0
 30
0.0
 70
   128
 71
     7
 72
     1
 73
     4
 74
     8
  0
VERTEX
  5
2C0
330
2B3
100
AcDbEntity
  8
D01 金物
 62
    45
420
 11634515
370
     0
100
AcDbFaceRecord
 10
0.0
 20
0.0
 30
0.0
 70
   128
 71
     1
 72
     7
 73
     5
 74
     2
  0
VERTEX
  5
2C1
330
2B3
100
AcDbEntity
  8
D01 金物
 62
    45
420
 11634515
370
     0
100
AcDbFaceRecord
 10
0.0
 20
0.0
 30
0.0
 70
   128
 71
     4
 72
     3
 73
     6
 74
     8
  0
SEQEND
  5
2C2
330
2B3
100
AcDbEntity
  8
D01 金物
370
     0
  0
POLYLINE
  5
2C3
330
6E
100
AcDbEntity
  8
D01 金物
370
     0
100
AcDbPolyFaceMesh
 66
     1
 10
0.0
 20
0.0
 30
0.0
 70
    64
 71
     8
 72
     6
  0
VERTEX
  5
2C4
330
2C3
100
AcDbEntity
  8
D01 金物
370
     0
100
AcDbVertex
100
AcDbPolyFaceMeshVertex
 10
1901.500000000002
 20
-39.8
 30
80.0
 70
   192
  0
VERTEX
  5
2C5
330
2C3
100
AcDbEntity
  8
D01 金物
370
     0
100
AcDbVertex
100
AcDbPolyFaceMeshVertex
 10
1931.500000000002
 20
-39.8
 30
80.0
 70
   192
  0
VERTEX
  5
2C6
330
2C3
100
AcDbEntity
  8
D01 金物
370
     0
100
AcDbVertex
100
AcDbPolyFaceMeshVertex
 10
1931.500000000002
 20
-49.8
 30
80.0
 70
   192
  0
VERTEX
  5
2C7
330
2C3
100
AcDbEntity
  8
D01 金物
370
     0
100
AcDbVertex
100
AcDbPolyFaceMeshVertex
 10
1901.500000000002
 20
-49.8
 30
80.0
 70
   192
  0
VERTEX
  5
2C8
330
2C3
100
AcDbEntity
  8
D01 金物
370
     0
100
AcDbVertex
100
AcDbPolyFaceMeshVertex
 10
1931.500000000002
 20
-39.79999999999995
 30
800.0
 70
   192
  0
VERTEX
  5
2C9
330
2C3
100
AcDbEntity
  8
D01 金物
370
     0
100
AcDbVertex
100
AcDbPolyFaceMeshVertex
 10
1931.500000000002
 20
-49.79999999999995
 30
800.0
 70
   192
  0
VERTEX
  5
2CA
330
2C3
100
AcDbEntity
  8
D01 金物
370
     0
100
AcDbVertex
100
AcDbPolyFaceMeshVertex
 10
1901.500000000002
 20
-39.79999999999995
 30
800.0
 70
   192
  0
VERTEX
  5
2CB
330
2C3
100
AcDbEntity
  8
D01 金物
370
     0
100
AcDbVertex
100
AcDbPolyFaceMeshVertex
 10
1901.500000000002
 20
-49.79999999999995
 30
800.0
 70
   192
  0
VERTEX
  5
2CC
330
2C3
100
AcDbEntity
  8
D01 金物
 62
    45
420
 11634515
370
     0
100
AcDbFaceRecord
 10
0.0
 20
0.0
 30
0.0
 70
   128
 71
     1
 72
     2
 73
     3
 74
     4
  0
VERTEX
  5
2CD
330
2C3
100
AcDbEntity
  8
D01 金物
 62
    45
420
 11634515
370
     0
100
AcDbFaceRecord
 10
0.0
 20
0.0
 30
0.0
 70
   128
 71
     2
 72
     5
 73
     6
 74
     3
  0
VERTEX
  5
2CE
330
2C3
100
AcDbEntity
  8
D01 金物
 62
    45
420
 11634515
370
     0
100
AcDbFaceRecord
 10
0.0
 20
0.0
 30
0.0
 70
   128
 71
     5
 72
     7
 73
     8
 74
     6
  0
VERTEX
  5
2CF
330
2C3
100
AcDbEntity
  8
D01 金物
 62
    45
420
 11634515
370
     0
100
AcDbFaceRecord
 10
0.0
 20
0.0
 30
0.0
 70
   128
 71
     7
 72
     1
 73
     4
 74
     8
  0
VERTEX
  5
2D0
330
2C3
100
AcDbEntity
  8
D01 金物
 62
    45
420
 11634515
370
     0
100
AcDbFaceRecord
 10
0.0
 20
0.0
 30
0.0
 70
   128
 71
     1
 72
     7
 73
     5
 74
     2
  0
VERTEX
  5
2D1
330
2C3
100
AcDbEntity
  8
D01 金物
 62
    45
420
 11634515
370
     0
100
AcDbFaceRecord
 10
0.0
 20
0.0
 30
0.0
 70
   128
 71
     4
 72
     3
 73
     6
 74
     8
  0
SEQEND
  5
2D2
330
2C3
100
AcDbEntity
  8
D01 金物
370
     0
  0
POLYLINE
  5
2D3
330
6E
100
AcDbEntity
  8
D01 金物
370
     0
100
AcDbPolyFaceMesh
 66
     1
 10
0.0
 20
0.0
 30
0.0
 70
    64
 71
     8
 72
     6
  0
VERTEX
  5
2D4
330
2D3
100
AcDbEntity
  8
D01 金物
370
     0
100
AcDbVertex
100
AcDbPolyFaceMeshVertex
 10
1957.000000000002
 20
-39.8
 30
80.0
 70
   192
  0
VERTEX
  5
2D5
330
2D3
100
AcDbEntity
  8
D01 金物
370
     0
100
AcDbVertex
100
AcDbPolyFaceMeshVertex
 10
1987.000000000002
 20
-39.8
 30
80.0
 70
   192
  0
VERTEX
  5
2D6
330
2D3
100
AcDbEntity
  8
D01 金物
370
     0
100
AcDbVertex
100
AcDbPolyFaceMeshVertex
 10
1987.000000000002
 20
-49.8
 30
80.0
 70
   192
  0
VERTEX
  5
2D7
330
2D3
100
AcDbEntity
  8
D01 金物
370
     0
100
AcDbVertex
100
AcDbPolyFaceMeshVertex
 10
1957.000000000002
 20
-49.8
 30
80.0
 70
   192
  0
VERTEX
  5
2D8
330
2D3
100
AcDbEntity
  8
D01 金物
370
     0
100
AcDbVertex
100
AcDbPolyFaceMeshVertex
 10
1987.000000000002
 20
-39.79999999999995
 30
800.0
 70
   192
  0
VERTEX
  5
2D9
330
2D3
100
AcDbEntity
  8
D01 金物
370
     0
100
AcDbVertex
100
AcDbPolyFaceMeshVertex
 10
1987.000000000002
 20
-49.79999999999995
 30
800.0
 70
   192
  0
VERTEX
  5
2DA
330
2D3
100
AcDbEntity
  8
D01 金物
370
     0
100
AcDbVertex
100
AcDbPolyFaceMeshVertex
 10
1957.000000000002
 20
-39.79999999999995
 30
800.0
 70
   192
  0
VERTEX
  5
2DB
330
2D3
100
AcDbEntity
  8
D01 金物
370
     0
100
AcDbVertex
100
AcDbPolyFaceMeshVertex
 10
1957.000000000002
 20
-49.79999999999995
 30
800.0
 70
   192
  0
VERTEX
  5
2DC
330
2D3
100
AcDbEntity
  8
D01 金物
 62
    45
420
 11634515
370
     0
100
AcDbFaceRecord
 10
0.0
 20
0.0
 30
0.0
 70
   128
 71
     1
 72
     2
 73
     3
 74
     4
  0
VERTEX
  5
2DD
330
2D3
100
AcDbEntity
  8
D01 金物
 62
    45
420
 11634515
370
     0
100
AcDbFaceRecord
 10
0.0
 20
0.0
 30
0.0
 70
   128
 71
     2
 72
     5
 73
     6
 74
     3
  0
VERTEX
  5
2DE
330
2D3
100
AcDbEntity
  8
D01 金物
 62
    45
420
 11634515
370
     0
100
AcDbFaceRecord
 10
0.0
 20
0.0
 30
0.0
 70
   128
 71
     5
 72
     7
 73
     8
 74
     6
  0
VERTEX
  5
2DF
330
2D3
100
AcDbEntity
  8
D01 金物
 62
    45
420
 11634515
370
     0
100
AcDbFaceRecord
 10
0.0
 20
0.0
 30
0.0
 70
   128
 71
     7
 72
     1
 73
     4
 74
     8
  0
VERTEX
  5
2E0
330
2D3
100
AcDbEntity
  8
D01 金物
 62
    45
420
 11634515
370
     0
100
AcDbFaceRecord
 10
0.0
 20
0.0
 30
0.0
 70
   128
 71
     1
 72
     7
 73
     5
 74
     2
  0
VERTEX
  5
2E1
330
2D3
100
AcDbEntity
  8
D01 金物
 62
    45
420
 11634515
370
     0
100
AcDbFaceRecord
 10
0.0
 20
0.0
 30
0.0
 70
   128
 71
     4
 72
     3
 73
     6
 74
     8
  0
SEQEND
  5
2E2
330
2D3
100
AcDbEntity
  8
D01 金物
370
     0
  0
POLYLINE
  5
2E3
330
6E
100
AcDbEntity
  8
D01 金物
370
     0
100
AcDbPolyFaceMesh
 66
     1
 10
0.0
 20
0.0
 30
0.0
 70
    64
 71
     8
 72
     6
  0
VERTEX
  5
2E4
330
2E3
100
AcDbEntity
  8
D01 金物
370
     0
100
AcDbVertex
100
AcDbPolyFaceMeshVertex
 10
1921.0
 20
-18.0
 30
0.0
 70
   192
  0
VERTEX
  5
2E5
330
2E3
100
AcDbEntity
  8
D01 金物
370
     0
100
AcDbVertex
100
AcDbPolyFaceMeshVertex
 10
1879.0
 20
-18.0
 30
0.0
 70
   192
  0
VERTEX
  5
2E6
330
2E3
100
AcDbEntity
  8
D01 金物
370
     0
100
AcDbVertex
100
AcDbPolyFaceMeshVertex
 10
1879.0
 20
18.0
 30
0.0
 70
   192
  0
VERTEX
  5
2E7
330
2E3
100
AcDbEntity
  8
D01 金物
370
     0
100
AcDbVertex
100
AcDbPolyFaceMeshVertex
 10
1921.0
 20
18.0
 30
0.0
 70
   192
  0
VERTEX
  5
2E8
330
2E3
100
AcDbEntity
  8
D01 金物
370
     0
100
AcDbVertex
100
AcDbPolyFaceMeshVertex
 10
1879.0
 20
-18.0
 30
800.0
 70
   192
  0
VERTEX
  5
2E9
330
2E3
100
AcDbEntity
  8
D01 金物
370
     0
100
AcDbVertex
100
AcDbPolyFaceMeshVertex
 10
1921.0
 20
-18.0
 30
800.0
 70
   192
  0
VERTEX
  5
2EA
330
2E3
100
AcDbEntity
  8
D01 金物
370
     0
100
AcDbVertex
100
AcDbPolyFaceMeshVertex
 10
1921.0
 20
18.0
 30
800.0
 70
   192
  0
VERTEX
  5
2EB
330
2E3
100
AcDbEntity
  8
D01 金物
370
     0
100
AcDbVertex
100
AcDbPolyFaceMeshVertex
 10
1879.0
 20
18.0
 30
800.0
 70
   192
  0
VERTEX
  5
2EC
330
2E3
100
AcDbEntity
  8
D01 金物
 62
     9
420
 12434869
370
     0
100
AcDbFaceRecord
 10
0.0
 20
0.0
 30
0.0
 70
   128
 71
     1
 72
     2
 73
     3
 74
     4
  0
VERTEX
  5
2ED
330
2E3
100
AcDbEntity
  8
D01 金物
 62
     9
420
 12434869
370
     0
100
AcDbFaceRecord
 10
0.0
 20
0.0
 30
0.0
 70
   128
 71
     5
 72
     6
 73
     7
 74
     8
  0
VERTEX
  5
2EE
330
2E3
100
AcDbEntity
  8
D01 金物
 62
     9
420
 12434869
370
     0
100
AcDbFaceRecord
 10
0.0
 20
0.0
 30
0.0
 70
   128
 71
     2
 72
     1
 73
     6
 74
     5
  0
VERTEX
  5
2EF
330
2E3
100
AcDbEntity
  8
D01 金物
 62
     9
420
 12434869
370
     0
100
AcDbFaceRecord
 10
0.0
 20
0.0
 30
0.0
 70
   128
 71
     1
 72
     4
 73
     7
 74
     6
  0
VERTEX
  5
2F0
330
2E3
100
AcDbEntity
  8
D01 金物
 62
     9
420
 12434869
370
     0
100
AcDbFaceRecord
 10
0.0
 20
0.0
 30
0.0
 70
   128
 71
     4
 72
     3
 73
     8
 74
     7
  0
VERTEX
  5
2F1
330
2E3
100
AcDbEntity
  8
D01 金物
 62
     9
420
 12434869
370
     0
100
AcDbFaceRecord
 10
0.0
 20
0.0
 30
0.0
 70
   128
 71
     3
 72
     2
 73
     5
 74
     8
  0
SEQEND
  5
2F2
330
2E3
100
AcDbEntity
  8
D01 金物
370
     0
  0
ENDBLK
  5
70
330
6E
100
AcDbEntity
  8
0
100
AcDbBlockEnd
  0
ENDSEC
  0
SECTION
  2
ENTITIES
  0
INSERT
  5
71
330
1F
100
AcDbEntity
  8
D01 金物
  6
Continuous
 62
     7
370
    13
100
AcDbBlockReference
  2
オブジェクト_1EC13DB4-CE41-435E-94D8-34D7491CC94D
 10
0.0
 20
0.0
 30
0.0
  0
ENDSEC
  0
SECTION
  2
OBJECTS
  0
DICTIONARY
  5
C
330
0
100
AcDbDictionary
281
     1
  3
ACAD_DETAILVIEWSTYLE
350
33A
  3
ACAD_GROUP
350
D
  3
ACAD_LAYOUT
350
1A
  3
ACAD_MATERIAL
350
43
  3
ACAD_MLEADERSTYLE
350
6B
  3
ACAD_MLINESTYLE
350
17
  3
ACAD_PLOTSETTINGS
350
19
  3
ACAD_PLOTSTYLENAME
350
E
  3
ACAD_SCALELIST
350
47
  3
ACAD_SECTIONVIEWSTYLE
350
33B
  3
ACAD_TABLESTYLE
350
69
  3
ACAD_VISUALSTYLE
350
2A
  3
ACDB_RECOMPOSE_DATA
350
336
  3
AcDbVariableDictionary
350
2F7
  3
WATERMARKS
350
2F3
  0
DICTIONARY
  5
2F5
330
8
100
AcDbDictionary
280
     1
281
     1
  3
ACAD_XREC_ROUNDTRIP
360
2F6
  0
DICTIONARY
  5
33A
102
{ACAD_REACTORS
330
C
102
}
330
C
100
AcDbDictionary
281
     1
  0
DICTIONARY
  5
D
102
{ACAD_REACTORS
330
C
102
}
330
C
100
AcDbDictionary
281
     1
  0
DICTIONARY
  5
1A
102
{ACAD_REACTORS
330
C
102
}
330
C
100
AcDbDictionary
281
     1
  3
Layout1
350
1E
  3
Layout2
350
26
  3
Model
350
22
  0
DICTIONARY
  5
43
102
{ACAD_REACTORS
330
C
102
}
330
C
100
AcDbDictionary
281
     1
  3
ByBlock
350
45
  3
ByLayer
350
44
  3
Global
350
46
  0
DICTIONARY
  5
6B
102
{ACAD_REACTORS
330
C
102
}
330
C
100
AcDbDictionary
281
     1
  3
Standard
350
6C
  0
DICTIONARY
  5
17
102
{ACAD_REACTORS
330
C
102
}
330
C
100
AcDbDictionary
281
     1
  3
Standard
350
18
  0
DICTIONARY
  5
19
102
{ACAD_REACTORS
330
C
102
}
330
C
100
AcDbDictionary
281
     1
  0
ACDBDICTIONARYWDFLT
  5
E
102
{ACAD_REACTORS
330
C
102
}
330
C
100
AcDbDictionary
281
     1
  3
Normal
350
F
100
AcDbDictionaryWithDefault
340
F
  0
DICTIONARY
  5
47
102
{ACAD_REACTORS
330
C
102
}
330
C
100
AcDbDictionary
281
     1
  3
A0
350
48
  3
A1
350
49
  3
A2
350
4A
  3
A3
350
4B
  3
A4
350
4C
  3
A5
350
4D
  3
A6
350
4E
  3
A7
350
4F
  3
A8
350
50
  3
A9
350
51
  3
B0
350
52
  3
B1
350
53
  3
B2
350
54
  3
B3
350
55
  3
B4
350
56
  3
B5
350
57
  3
B6
350
58
  3
B7
350
59
  3
B8
350
5A
  3
B9
350
5B
  3
C0
350
5C
  3
C1
350
5D
  3
C2
350
5E
  3
C3
350
5F
  3
C4
350
60
  3
C5
350
61
  3
C6
350
62
  3
C7
350
63
  3
C8
350
64
  3
C9
350
65
  3
D0
350
66
  3
D1
350
67
  3
D2
350
68
  0
DICTIONARY
  5
33B
102
{ACAD_REACTORS
330
C
102
}
330
C
100
AcDbDictionary
281
     1
  0
DICTIONARY
  5
69
102
{ACAD_REACTORS
330
C
102
}
330
C
100
AcDbDictionary
281
     1
  3
Standard
350
6A
  0
DICTIONARY
  5
2A
102
{ACAD_REACTORS
330
C
102
}
330
C
100
AcDbDictionary
281
     1
  3
2dWireframe
350
2F
  3
Basic
350
32
  3
Brighten
350
36
  3
ColorChange
350
3A
  3
Conceptual
350
34
  3
Dim
350
35
  3
EdgeColorOff
350
3D
  3
Facepattern
350
39
  3
Flat
350
2B
  3
FlatWithEdges
350
2C
  3
Gouraud
350
2D
  3
GouraudWithEdges
350
2E
  3
Hidden
350
31
  3
JitterOff
350
3B
  3
Linepattern
350
38
  3
OverhangOff
350
3C
  3
Realistic
350
33
  3
Shaded
350
42
  3
Shaded with edges
350
41
  3
Shades of Gray
350
3E
  3
Sketchy
350
3F
  3
Thicken
350
37
  3
Wireframe
350
30
  3
X-Ray
350
40
  0
XRECORD
  5
336
102
{ACAD_REACTORS
330
C
102
}
330
C
100
AcDbXrecord
280
     1
 90
        1
330
6A
  0
DICTIONARY
  5
2F7
102
{ACAD_REACTORS
330
C
102
}
330
C
100
AcDbDictionary
281
     1
  3
CANNOSCALE
350
2F8
  3
CMLEADERSTYLE
350
338
  3
CTABLESTYLE
350
337
  3
MSLTSCALE
350
2F9
  3
XCLIPFRAME
350
339
  0
DICTIONARY
  5
2F3
102
{ACAD_REACTORS
330
C
102
}
330
C
100
AcDbDictionary
281
     1
  3
AC_WATERMARK
350
2F4
  0
XRECORD
  5
2F6
102
{ACAD_REACTORS
330
2F5
102
}
330
2F5
100
AcDbXrecord
280
     1
102
VTR_0.000_0.000_1.000_1.000_VISUALSTYLE
340
2F
102
VTR_0.000_0.000_1.000_1.000_GRIDDISPLAY
 70
     3
102
VTR_0.000_0.000_1.000_1.000_GRIDMAJOR
 70
     5
102
VTR_0.000_0.000_1.000_1.000_DEFAULTLIGHTING
280
     1
102
VTR_0.000_0.000_1.000_1.000_DEFAULTLIGHTINGTYPE
 70
     1
102
VTR_0.000_0.000_1.000_1.000_BRIGHTNESS
141
0.0
102
VTR_0.000_0.000_1.000_1.000_CONTRAST
142
0.0
  0
LAYOUT
  5
1E
102
{ACAD_REACTORS
330
1A
102
}
330
1A
100
AcDbPlotSettings
  1

  2
none_device
  4

  6

 40
0.0
 41
0.0
 42
0.0
 43
0.0
 44
0.0
 45
0.0
 46
0.0
 47
0.0
 48
0.0
 49
0.0
140
0.0
141
0.0
142
1.0
143
1.0
 70
   688
 72
     0
 73
     0
 74
     5
  7

 75
    16
 76
     0
 77
     2
 78
   300
147
1.0
148
0.0
149
0.0
100
AcDbLayout
  1
Layout1
 70
     1
 71
     1
 10
0.0
 20
0.0
 11
12.0
 21
9.0
 12
0.0
 22
0.0
 32
0.0
 14
1.000000000000000E+20
 24
1.000000000000000E+20
 34
1.000000000000000E+20
 15
-1.000000000000000E+20
 25
-1.000000000000000E+20
 35
-1.000000000000000E+20
146
0.0
 13
0.0
 23
0.0
 33
0.0
 16
1.0
 26
0.0
 36
0.0
 17
0.0
 27
1.0
 37
0.0
 76
     0
330
1B
  0
LAYOUT
  5
26
102
{ACAD_REACTORS
330
1A
102
}
330
1A
100
AcDbPlotSettings
  1

  2
none_device
  4

  6

 40
0.0
 41
0.0
 42
0.0
 43
0.0
 44
0.0
 45
0.0
 46
0.0
 47
0.0
 48
0.0
 49
0.0
140
0.0
141
0.0
142
1.0
143
1.0
 70
   688
 72
     0
 73
     0
 74
     5
  7

 75
    16
 76
     0
 77
     2
 78
   300
147
1.0
148
0.0
149
0.0
100
AcDbLayout
  1
Layout2
 70
     1
 71
     2
 10
0.0
 20
0.0
 11
0.0
 21
0.0
 12
0.0
 22
0.0
 32
0.0
 14
0.0
 24
0.0
 34
0.0
 15
0.0
 25
0.0
 35
0.0
146
0.0
 13
0.0
 23
0.0
 33
0.0
 16
1.0
 26
0.0
 36
0.0
 17
0.0
 27
1.0
 37
0.0
 76
     0
330
23
  0
LAYOUT
  5
22
102
{ACAD_REACTORS
330
1A
102
}
330
1A
100
AcDbPlotSettings
  1

  2
none_device
  4
Letter_(8.50_x_11.00_Inches)
  6

 40
6.35
 41
6.35
 42
6.35000508
 43
6.35000508
 44
215.9
 45
279.4
 46
0.0
 47
0.0
 48
0.0
 49
0.0
140
0.0
141
0.0
142
1.0
143
1.0
 70
  1712
 72
     0
 73
     0
 74
     0
  7

 75
     0
 76
     0
 77
     2
 78
   300
147
1.0
148
0.0
149
0.0
100
AcDbLayout
  1
Model
 70
     1
 71
     0
 10
0.0000000000000006
 20
-49.80000108480453
 11
2000.0
 21
18.00000108778477
 12
0.0
 22
0.0
 32
0.0
 14
0.0000000000000006
 24
-49.80000108480453
 34
0.0
 15
2000.0
 25
18.00000108778477
 35
800.000011920929
146
0.0
 13
0.0
 23
0.0
 33
0.0
 16
1.0
 26
0.0
 36
0.0
 17
0.0
 27
1.0
 37
0.0
 76
     0
330
1F
331
29
  0
MATERIAL
  5
45
102
{ACAD_REACTORS
330
43
102
}
102
{ACAD_XDICTIONARY
360
32C
102
}
330
43
100
AcDbMaterial
  1
ByBlock
  0
MATERIAL
  5
44
102
{ACAD_REACTORS
330
43
102
}
102
{ACAD_XDICTIONARY
360
32A
102
}
330
43
100
AcDbMaterial
  1
ByLayer
  0
MATERIAL
  5
46
102
{ACAD_REACTORS
330
43
102
}
102
{ACAD_XDICTIONARY
360
32E
102
}
330
43
100
AcDbMaterial
  1
Global
  0
MLEADERSTYLE
  5
6C
102
{ACAD_REACTORS
330
6B
102
}
102
{ACAD_XDICTIONARY
360
334
102
}
330
6B
100
AcDbMLeaderStyle
170
     2
171
     1
172
     0
 90
        2
 40
0.0
 41
0.0
173
     1
 91
-1056964608
340
14
 92
       -2
290
     1
 42
0.09
291
     1
 43
0.36
  3
Standard
341
0
 44
0.18
300

342
11
174
     1
178
     6
175
     1
176
     0
 93
-1056964608
 45
0.18
292
     0
297
     0
 46
0.18
343
0
 94
-1056964608
 47
1.0
 49
1.0
140
1.0
293
     1
141
0.0
294
     1
177
     0
142
1.0
295
     0
296
     0
143
0.125
1001
ACAD_MLEADERVER
1070
     2
  0
MLINESTYLE
  5
18
102
{ACAD_REACTORS
330
17
102
}
330
17
100
AcDbMlineStyle
  2
Standard
 70
     0
  3

 62
   256
 51
90.0
 52
90.0
 71
     2
 49
0.5
 62
   256
  6
BYLAYER
 49
-0.5
 62
   256
  6
BYLAYER
  0
ACDBPLACEHOLDER
  5
F
102
{ACAD_REACTORS
330
E
102
}
330
E
  0
SCALE
  5
48
102
{ACAD_REACTORS
330
47
102
}
330
47
100
AcDbScale
 70
     0
300
1:1
140
1.0
141
1.0
290
     1
  0
SCALE
  5
49
102
{ACAD_REACTORS
330
47
102
}
330
47
100
AcDbScale
 70
     0
300
1:2
140
1.0
141
2.0
290
     0
  0
SCALE
  5
4A
102
{ACAD_REACTORS
330
47
102
}
330
47
100
AcDbScale
 70
     0
300
1:4
140
1.0
141
4.0
290
     0
  0
SCALE
  5
4B
102
{ACAD_REACTORS
330
47
102
}
330
47
100
AcDbScale
 70
     0
300
1:5
140
1.0
141
5.0
290
     0
  0
SCALE
  5
4C
102
{ACAD_REACTORS
330
47
102
}
330
47
100
AcDbScale
 70
     0
300
1:8
140
1.0
141
8.0
290
     0
  0
SCALE
  5
4D
102
{ACAD_REACTORS
330
47
102
}
330
47
100
AcDbScale
 70
     0
300
1:10
140
1.0
141
10.0
290
     0
  0
SCALE
  5
4E
102
{ACAD_REACTORS
330
47
102
}
330
47
100
AcDbScale
 70
     0
300
1:16
140
1.0
141
16.0
290
     0
  0
SCALE
  5
4F
102
{ACAD_REACTORS
330
47
102
}
330
47
100
AcDbScale
 70
     0
300
1:20
140
1.0
141
20.0
290
     0
  0
SCALE
  5
50
102
{ACAD_REACTORS
330
47
102
}
330
47
100
AcDbScale
 70
     0
300
1:30
140
1.0
141
30.0
290
     0
  0
SCALE
  5
51
102
{ACAD_REACTORS
330
47
102
}
330
47
100
AcDbScale
 70
     0
300
1:40
140
1.0
141
40.0
290
     0
  0
SCALE
  5
52
102
{ACAD_REACTORS
330
47
102
}
330
47
100
AcDbScale
 70
     0
300
1:50
140
1.0
141
50.0
290
     0
  0
SCALE
  5
53
102
{ACAD_REACTORS
330
47
102
}
330
47
100
AcDbScale
 70
     0
300
1:100
140
1.0
141
100.0
290
     0
  0
SCALE
  5
54
102
{ACAD_REACTORS
330
47
102
}
330
47
100
AcDbScale
 70
     0
300
2:1
140
2.0
141
1.0
290
     0
  0
SCALE
  5
55
102
{ACAD_REACTORS
330
47
102
}
330
47
100
AcDbScale
 70
     0
300
4:1
140
4.0
141
1.0
290
     0
  0
SCALE
  5
56
102
{ACAD_REACTORS
330
47
102
}
330
47
100
AcDbScale
 70
     0
300
8:1
140
8.0
141
1.0
290
     0
  0
SCALE
  5
57
102
{ACAD_REACTORS
330
47
102
}
330
47
100
AcDbScale
 70
     0
300
10:1
140
10.0
141
1.0
290
     0
  0
SCALE
  5
58
102
{ACAD_REACTORS
330
47
102
}
330
47
100
AcDbScale
 70
     0
300
100:1
140
100.0
141
1.0
290
     0
  0
SCALE
  5
59
102
{ACAD_REACTORS
330
47
102
}
330
47
100
AcDbScale
 70
     0
300
1/128" = 1'-0"
140
0.0078125
141
12.0
290
     0
  0
SCALE
  5
5A
102
{ACAD_REACTORS
330
47
102
}
330
47
100
AcDbScale
 70
     0
300
1/64" = 1'-0"
140
0.015625
141
12.0
290
     0
  0
SCALE
  5
5B
102
{ACAD_REACTORS
330
47
102
}
330
47
100
AcDbScale
 70
     0
300
1/32" = 1'-0"
140
0.03125
141
12.0
290
     0
  0
SCALE
  5
5C
102
{ACAD_REACTORS
330
47
102
}
330
47
100
AcDbScale
 70
     0
300
1/16" = 1'-0"
140
0.0625
141
12.0
290
     0
  0
SCALE
  5
5D
102
{ACAD_REACTORS
330
47
102
}
330
47
100
AcDbScale
 70
     0
300
3/32" = 1'-0"
140
0.09375
141
12.0
290
     0
  0
SCALE
  5
5E
102
{ACAD_REACTORS
330
47
102
}
330
47
100
AcDbScale
 70
     0
300
1/8" = 1'-0"
140
0.125
141
12.0
290
     0
  0
SCALE
  5
5F
102
{ACAD_REACTORS
330
47
102
}
330
47
100
AcDbScale
 70
     0
300
3/16" = 1'-0"
140
0.1875
141
12.0
290
     0
  0
SCALE
  5
60
102
{ACAD_REACTORS
330
47
102
}
330
47
100
AcDbScale
 70
     0
300
1/4" = 1'-0"
140
0.25
141
12.0
290
     0
  0
SCALE
  5
61
102
{ACAD_REACTORS
330
47
102
}
330
47
100
AcDbScale
 70
     0
300
3/8" = 1'-0"
140
0.375
141
12.0
290
     0
  0
SCALE
  5
62
102
{ACAD_REACTORS
330
47
102
}
330
47
100
AcDbScale
 70
     0
300
1/2" = 1'-0"
140
0.5
141
12.0
290
     0
  0
SCALE
  5
63
102
{ACAD_REACTORS
330
47
102
}
330
47
100
AcDbScale
 70
     0
300
3/4" = 1'-0"
140
0.75
141
12.0
290
     0
  0
SCALE
  5
64
102
{ACAD_REACTORS
330
47
102
}
330
47
100
AcDbScale
 70
     0
300
1" = 1'-0"
140
1.0
141
12.0
290
     0
  0
SCALE
  5
65
102
{ACAD_REACTORS
330
47
102
}
330
47
100
AcDbScale
 70
     0
300
1-1/2" = 1'-0"
140
1.5
141
12.0
290
     0
  0
SCALE
  5
66
102
{ACAD_REACTORS
330
47
102
}
330
47
100
AcDbScale
 70
     0
300
3" = 1'-0"
140
3.0
141
12.0
290
     0
  0
SCALE
  5
67
102
{ACAD_REACTORS
330
47
102
}
330
47
100
AcDbScale
 70
     0
300
6" = 1'-0"
140
6.0
141
12.0
290
     0
  0
SCALE
  5
68
102
{ACAD_REACTORS
330
47
102
}
330
47
100
AcDbScale
 70
     0
300
1'-0" = 1'-0"
140
12.0
141
12.0
290
     0
  0
TABLESTYLE
  5
6A
102
{ACAD_REACTORS
330
69
102
}
102
{ACAD_XDICTIONARY
360
330
102
}
330
69
100
AcDbTableStyle
  3
Standard
 70
     0
 71
     0
 40
0.06
 41
0.06
280
     0
281
     0
  7
Standard
140
0.18
170
     2
 62
     0
 63
   257
283
     0
274
    -2
284
     1
 64
     0
275
    -2
285
     1
 65
     0
276
    -2
286
     1
 66
     0
277
    -2
287
     1
 67
     0
278
    -2
288
     1
 68
     0
279
    -2
289
     1
 69
     0
  7
Standard
140
0.25
170
     5
 62
     0
 63
   257
283
     0
274
    -2
284
     1
 64
     0
275
    -2
285
     1
 65
     0
276
    -2
286
     1
 66
     0
277
    -2
287
     1
 67
     0
278
    -2
288
     1
 68
     0
279
    -2
289
     1
 69
     0
  7
Standard
140
0.18
170
     5
 62
     0
 63
   257
283
     0
274
    -2
284
     1
 64
     0
275
    -2
285
     1
 65
     0
276
    -2
286
     1
 66
     0
277
    -2
287
     1
 67
     0
278
    -2
288
     1
 68
     0
279
    -2
289
     1
 69
     0
  0
VISUALSTYLE
  5
2F
102
{ACAD_REACTORS
330
2A
102
}
102
{ACAD_XDICTIONARY
360
302
102
}
330
2A
100
AcDbVisualStyle
  2
2dWireframe
 70
     4
 71
     0
 72
     2
 73
     0
 90
        0
 40
0.6
 41
30.0
 62
     5
 63
     7
421
 16777215
 74
     1
 91
        4
 64
     7
 65
   257
 75
     1
175
     1
 42
1.0
 92
        0
 66
   257
 43
1.0
 76
     1
 77
     6
 78
     2
 67
     7
 79
     5
170
     0
171
     0
290
     0
174
     0
 93
        1
 44
0.0
173
     0
291
     0
 45
0.0
1001
ACAD
1000
AcDbSavedByObjectVersion
1070
     0
  0
VISUALSTYLE
  5
32
102
{ACAD_REACTORS
330
2A
102
}
102
{ACAD_XDICTIONARY
360
308
102
}
330
2A
100
AcDbVisualStyle
  2
Basic
 70
     7
 71
     1
 72
     0
 73
     1
 90
        0
 40
0.6
 41
30.0
 62
     5
 63
     7
421
 16777215
 74
     0
 91
        4
 64
     7
 65
   257
 75
     1
175
     1
 42
1.0
 92
        8
 66
     7
 43
1.0
 76
     1
 77
     6
 78
     2
 67
     7
 79
     5
170
     0
171
     0
290
     0
174
     0
 93
        1
 44
0.0
173
     0
291
     1
 45
0.0
1001
ACAD
1000
AcDbSavedByObjectVersion
1070
     0
  0
VISUALSTYLE
  5
36
102
{ACAD_REACTORS
330
2A
102
}
102
{ACAD_XDICTIONARY
360
310
102
}
330
2A
100
AcDbVisualStyle
  2
Brighten
 70
    12
 71
     2
 72
     2
 73
     0
 90
        0
 40
0.6
 41
30.0
 62
     5
 63
     7
421
 16777215
 74
     1
 91
        4
 64
     7
 65
   257
 75
     1
175
     1
 42
1.0
 92
        8
 66
     7
 43
1.0
 76
     1
 77
     6
 78
     2
 67
     7
 79
     5
170
     0
171
     0
290
     0
174
     0
 93
        1
 44
50.0
173
     0
291
     1
 45
0.0
1001
ACAD
1000
AcDbSavedByObjectVersion
1070
     0
  0
VISUALSTYLE
  5
3A
102
{ACAD_REACTORS
330
2A
102
}
102
{ACAD_XDICTIONARY
360
318
102
}
330
2A
100
AcDbVisualStyle
  2
ColorChange
 70
    16
 71
     2
 72
     2
 73
     3
 90
        0
 40
0.6
 41
30.0
 62
     5
 63
     8
421
  8421504
 74
     1
 91
        4
 64
     7
 65
   257
 75
     1
175
     1
 42
1.0
 92
        8
 66
     8
424
  8421504
 43
1.0
 76
     1
 77
     6
 78
     2
 67
     7
 79
     5
170
     0
171
     0
290
     0
174
     0
 93
        1
 44
0.0
173
     0
291
     1
 45
0.0
1001
ACAD
1000
AcDbSavedByObjectVersion
1070
     0
  0
VISUALSTYLE
  5
34
102
{ACAD_REACTORS
330
2A
102
}
102
{ACAD_XDICTIONARY
360
30C
102
}
330
2A
100
AcDbVisualStyle
  2
Conceptual
 70
     9
 71
     3
 72
     2
 73
     0
 90
        0
 40
0.6
 41
30.0
 62
     5
 63
     7
421
 16777215
 74
     2
 91
        2
 64
     7
 65
   257
 75
     1
175
     1
 42
179.0
 92
        8
 66
     7
 43
1.0
 76
     1
 77
     6
 78
     2
 67
     7
 79
     3
170
     0
171
     0
290
     0
174
     0
 93
        1
 44
0.0
173
     0
291
     0
 45
0.0
1001
ACAD
1000
AcDbSavedByObjectVersion
1070
     0
  0
VISUALSTYLE
  5
35
102
{ACAD_REACTORS
330
2A
102
}
102
{ACAD_XDICTIONARY
360
30E
102
}
330
2A
100
AcDbVisualStyle
  2
Dim
 70
    11
 71
     2
 72
     2
 73
     0
 90
        0
 40
0.6
 41
30.0
 62
     5
 63
     7
421
 16777215
 74
     1
 91
        4
 64
     7
 65
   257
 75
     1
175
     1
 42
1.0
 92
        8
 66
     7
 43
1.0
 76
     1
 77
     6
 78
     2
 67
     7
 79
     5
170
     0
171
     0
290
     0
174
     0
 93
        1
 44
-50.0
173
     0
291
     1
 45
0.0
1001
ACAD
1000
AcDbSavedByObjectVersion
1070
     0
  0
VISUALSTYLE
  5
3D
102
{ACAD_REACTORS
330
2A
102
}
102
{ACAD_XDICTIONARY
360
31E
102
}
330
2A
100
AcDbVisualStyle
  2
EdgeColorOff
 70
    22
 71
     2
 72
     2
 73
     0
 90
        0
 40
0.6
 41
30.0
 62
     5
 63
     7
421
 16777215
 74
     1
 91
        4
 64
     7
 65
   257
 75
     1
175
     1
 42
1.0
 92
        8
 66
     7
 43
1.0
 76
     1
 77
     6
 78
     2
 67
     7
 79
     5
170
     0
171
     0
290
     0
174
     0
 93
        1
 44
0.0
173
     0
291
     1
 45
0.0
1001
ACAD
1000
AcDbSavedByObjectVersion
1070
     0
  0
VISUALSTYLE
  5
39
102
{ACAD_REACTORS
330
2A
102
}
102
{ACAD_XDICTIONARY
360
316
102
}
330
2A
100
AcDbVisualStyle
  2
Facepattern
 70
    15
 71
     2
 72
     2
 73
     0
 90
        0
 40
0.6
 41
30.0
 62
     5
 63
     7
421
 16777215
 74
     1
 91
        4
 64
     7
 65
   257
 75
     1
175
     1
 42
1.0
 92
        8
 66
     7
 43
1.0
 76
     1
 77
     6
 78
     2
 67
     7
 79
     5
170
     0
171
     0
290
     0
174
     0
 93
        1
 44
0.0
173
     0
291
     1
 45
0.0
1001
ACAD
1000
AcDbSavedByObjectVersion
1070
     0
  0
VISUALSTYLE
  5
2B
102
{ACAD_REACTORS
330
2A
102
}
102
{ACAD_XDICTIONARY
360
2FA
102
}
330
2A
100
AcDbVisualStyle
  2
Flat
 70
     0
 71
     2
 72
     1
 73
     1
 90
        2
 40
0.6
 41
30.0
 62
     5
 63
     7
421
 16777215
 74
     0
 91
        0
 64
     7
 65
   257
 75
     1
175
     1
 42
1.0
 92
        8
 66
     7
 43
1.0
 76
     1
 77
     6
 78
     2
 67
     7
 79
     5
170
     0
171
     0
290
     0
174
     0
 93
       13
 44
0.0
173
     0
291
     1
 45
0.0
1001
ACAD
1000
AcDbSavedByObjectVersion
1070
     0
  0
VISUALSTYLE
  5
2C
102
{ACAD_REACTORS
330
2A
102
}
102
{ACAD_XDICTIONARY
360
2FC
102
}
330
2A
100
AcDbVisualStyle
  2
FlatWithEdges
 70
     1
 71
     2
 72
     1
 73
     1
 90
        2
 40
0.6
 41
30.0
 62
     5
 63
     7
421
 16777215
 74
     1
 91
        0
 64
     7
 65
   257
 75
     1
175
     1
 42
1.0
 92
        0
 66
   257
 43
1.0
 76
     1
 77
     6
 78
     2
 67
     7
 79
     5
170
     0
171
     0
290
     0
174
     0
 93
       13
 44
0.0
173
     0
291
     1
 45
0.0
1001
ACAD
1000
AcDbSavedByObjectVersion
1070
     0
  0
VISUALSTYLE
  5
2D
102
{ACAD_REACTORS
330
2A
102
}
102
{ACAD_XDICTIONARY
360
2FE
102
}
330
2A
100
AcDbVisualStyle
  2
Gouraud
 70
     2
 71
     2
 72
     2
 73
     1
 90
        2
 40
0.6
 41
30.0
 62
     5
 63
     7
421
 16777215
 74
     0
 91
        0
 64
     7
 65
   257
 75
     1
175
     1
 42
1.0
 92
        0
 66
     7
 43
1.0
 76
     1
 77
     6
 78
     2
 67
     7
 79
     5
170
     0
171
     0
290
     0
174
     0
 93
       13
 44
0.0
173
     0
291
     1
 45
0.0
1001
ACAD
1000
AcDbSavedByObjectVersion
1070
     0
  0
VISUALSTYLE
  5
2E
102
{ACAD_REACTORS
330
2A
102
}
102
{ACAD_XDICTIONARY
360
300
102
}
330
2A
100
AcDbVisualStyle
  2
GouraudWithEdges
 70
     3
 71
     2
 72
     2
 73
     1
 90
        2
 40
0.6
 41
30.0
 62
     5
 63
     7
421
 16777215
 74
     1
 91
        0
 64
     7
 65
   257
 75
     1
175
     1
 42
1.0
 92
        0
 66
   257
 43
1.0
 76
     1
 77
     6
 78
     2
 67
     7
 79
     5
170
     0
171
     0
290
     0
174
     0
 93
       13
 44
0.0
173
     0
291
     1
 45
0.0
1001
ACAD
1000
AcDbSavedByObjectVersion
1070
     0
  0
VISUALSTYLE
  5
31
102
{ACAD_REACTORS
330
2A
102
}
102
{ACAD_XDICTIONARY
360
306
102
}
330
2A
100
AcDbVisualStyle
  2
Hidden
 70
     6
 71
     1
 72
     2
 73
     2
 90
        0
 40
0.6
 41
30.0
 62
     5
 63
     7
421
 16777215
 74
     2
 91
        2
 64
     7
 65
   257
 75
     2
175
     1
 42
40.0
 92
        0
 66
   257
 43
1.0
 76
     1
 77
     6
 78
     2
 67
     7
 79
     3
170
     0
171
     0
290
     0
174
     0
 93
        1
 44
0.0
173
     0
291
     0
 45
0.0
1001
ACAD
1000
AcDbSavedByObjectVersion
1070
     0
  0
VISUALSTYLE
  5
3B
102
{ACAD_REACTORS
330
2A
102
}
102
{ACAD_XDICTIONARY
360
31A
102
}
330
2A
100
AcDbVisualStyle
  2
JitterOff
 70
    20
 71
     2
 72
     2
 73
     0
 90
        0
 40
0.6
 41
30.0
 62
     5
 63
     7
421
 16777215
 74
     1
 91
        4
 64
     7
 65
   257
 75
     1
175
     1
 42
1.0
 92
       10
 66
     7
 43
1.0
 76
     1
 77
     6
 78
     2
 67
     7
 79
     5
170
     0
171
     0
290
     0
174
     0
 93
        1
 44
0.0
173
     0
291
     1
 45
0.0
1001
ACAD
1000
AcDbSavedByObjectVersion
1070
     0
  0
VISUALSTYLE
  5
38
102
{ACAD_REACTORS
330
2A
102
}
102
{ACAD_XDICTIONARY
360
314
102
}
330
2A
100
AcDbVisualStyle
  2
Linepattern
 70
    14
 71
     2
 72
     2
 73
     0
 90
        0
 40
0.6
 41
30.0
 62
     5
 63
     7
421
 16777215
 74
     1
 91
        4
 64
     7
 65
   257
 75
     7
175
     7
 42
1.0
 92
        8
 66
     7
 43
1.0
 76
     1
 77
     6
 78
     2
 67
     7
 79
     5
170
     0
171
     0
290
     0
174
     0
 93
        1
 44
0.0
173
     0
291
     1
 45
0.0
1001
ACAD
1000
AcDbSavedByObjectVersion
1070
     0
  0
VISUALSTYLE
  5
3C
102
{ACAD_REACTORS
330
2A
102
}
102
{ACAD_XDICTIONARY
360
31C
102
}
330
2A
100
AcDbVisualStyle
  2
OverhangOff
 70
    21
 71
     2
 72
     2
 73
     0
 90
        0
 40
0.6
 41
30.0
 62
     5
 63
     7
421
 16777215
 74
     1
 91
        4
 64
     7
 65
   257
 75
     1
175
     1
 42
1.0
 92
        9
 66
     7
 43
1.0
 76
     1
 77
     6
 78
     2
 67
     7
 79
     5
170
     0
171
     0
290
     0
174
     0
 93
        1
 44
0.0
173
     0
291
     1
 45
0.0
1001
ACAD
1000
AcDbSavedByObjectVersion
1070
     0
  0
VISUALSTYLE
  5
33
102
{ACAD_REACTORS
330
2A
102
}
102
{ACAD_XDICTIONARY
360
30A
102
}
330
2A
100
AcDbVisualStyle
  2
Realistic
 70
     8
 71
     2
 72
     3
 73
     0
 90
        2
 40
0.6
 41
30.0
 62
     5
 63
     7
421
 16777215
 74
     0
 91
        0
 64
     7
 65
   257
 75
     1
175
     1
 42
1.0
 92
        8
 66
   257
 43
1.0
 76
     1
 77
     6
 78
     2
 67
     7
 79
     3
170
     0
171
     0
290
     0
174
     0
 93
       13
 44
0.0
173
     0
291
     0
 45
0.0
1001
ACAD
1000
AcDbSavedByObjectVersion
1070
     0
  0
VISUALSTYLE
  5
42
102
{ACAD_REACTORS
330
2A
102
}
102
{ACAD_XDICTIONARY
360
328
102
}
330
2A
100
AcDbVisualStyle
  2
Shaded
 70
    27
 71
     2
 72
     2
 73
     1
 90
        2
 40
0.6
 41
30.0
 62
     5
 63
     7
421
 16777215
 74
     0
 91
        4
 64
     7
 65
   257
 75
     1
175
     1
 42
1.0
 92
        8
 66
   257
 43
1.0
 76
     1
 77
     6
 78
     2
 67
     8
425
  7895160
 79
     3
170
     0
171
     0
290
     0
174
     0
 93
        5
 44
0.0
173
     0
291
     0
 45
0.0
1001
ACAD
1000
AcDbSavedByObjectVersion
1070
     0
  0
VISUALSTYLE
  5
41
102
{ACAD_REACTORS
330
2A
102
}
102
{ACAD_XDICTIONARY
360
326
102
}
330
2A
100
AcDbVisualStyle
  2
Shaded with edges
 70
    26
 71
     2
 72
     2
 73
     1
 90
        2
 40
0.6
 41
30.0
 62
     5
 63
     7
421
 16777215
 74
     1
 91
       10
 64
     7
 65
   257
 75
     2
175
     1
 42
1.0
 92
        8
 66
   257
 43
1.0
 76
     1
 77
     6
 78
     2
 67
     7
 79
     3
170
     0
171
     0
290
     0
174
     0
 93
        5
 44
0.0
173
     0
291
     0
 45
0.0
1001
ACAD
1000
AcDbSavedByObjectVersion
1070
     0
  0
VISUALSTYLE
  5
3E
102
{ACAD_REACTORS
330
2A
102
}
102
{ACAD_XDICTIONARY
360
320
102
}
330
2A
100
AcDbVisualStyle
  2
Shades of Gray
 70
    23
 71
     2
 72
     2
 73
     3
 90
        0
 40
0.6
 41
30.0
 62
     5
 63
     7
421
 16777215
 74
     2
 91
        2
 64
     7
 65
     7
 75
     1
175
     1
 42
40.0
 92
        8
 66
     7
 43
1.0
 76
     1
 77
     6
 78
     2
 67
     7
 79
     3
170
     0
171
     0
290
     0
174
     0
 93
        1
 44
0.0
173
     0
291
     0
 45
0.0
1001
ACAD
1000
AcDbSavedByObjectVersion
1070
     0
  0
VISUALSTYLE
  5
3F
102
{ACAD_REACTORS
330
2A
102
}
102
{ACAD_XDICTIONARY
360
322
102
}
330
2A
100
AcDbVisualStyle
  2
Sketchy
 70
    24
 71
     1
 72
     2
 73
     2
 90
        0
 40
0.6
 41
30.0
 62
     5
 63
     7
421
 16777215
 74
     2
 91
        2
 64
     7
 65
     7
 75
     1
175
     1
 42
40.0
 92
       11
 66
     7
 43
1.0
 76
     1
 77
     6
 78
     2
 67
     7
 79
     6
170
     0
171
     0
290
     0
174
     0
 93
        1
 44
0.0
173
     0
291
     0
 45
0.0
1001
ACAD
1000
AcDbSavedByObjectVersion
1070
     0
  0
VISUALSTYLE
  5
37
102
{ACAD_REACTORS
330
2A
102
}
102
{ACAD_XDICTIONARY
360
312
102
}
330
2A
100
AcDbVisualStyle
  2
Thicken
 70
    13
 71
     2
 72
     2
 73
     0
 90
        0
 40
0.6
 41
30.0
 62
     5
 63
     7
421
 16777215
 74
     1
 91
        4
 64
     7
 65
   257
 75
     1
175
     1
 42
1.0
 92
       12
 66
     7
 43
1.0
 76
     1
 77
     6
 78
     2
 67
     7
 79
     5
170
     0
171
     0
290
     0
174
     0
 93
        1
 44
0.0
173
     0
291
     1
 45
0.0
1001
ACAD
1000
AcDbSavedByObjectVersion
1070
     0
  0
VISUALSTYLE
  5
30
102
{ACAD_REACTORS
330
2A
102
}
102
{ACAD_XDICTIONARY
360
304
102
}
330
2A
100
AcDbVisualStyle
  2
Wireframe
 70
     5
 71
     0
 72
     2
 73
     0
 90
        0
 40
0.6
 41
30.0
 62
     5
 63
     7
421
 16777215
 74
     1
 91
        4
 64
     7
 65
   257
 75
     1
175
     1
 42
1.0
 92
        0
 66
   257
 43
1.0
 76
     1
 77
     6
 78
     2
 67
     7
 79
     3
170
     0
171
     0
290
     0
174
     0
 93
        1
 44
0.0
173
     0
291
     0
 45
0.0
1001
ACAD
1000
AcDbSavedByObjectVersion
1070
     0
  0
VISUALSTYLE
  5
40
102
{ACAD_REACTORS
330
2A
102
}
102
{ACAD_XDICTIONARY
360
324
102
}
330
2A
100
AcDbVisualStyle
  2
X-Ray
 70
    25
 71
     2
 72
     2
 73
     1
 90
        1
 40
0.5
 41
30.0
 62
     5
 63
     7
421
 16777215
 74
     1
 91
        0
 64
     7
 65
   257
 75
     1
175
     1
 42
1.0
 92
        8
 66
     7
 43
1.0
 76
     1
 77
     6
 78
     2
 67
     7
 79
     3
170
     0
171
     0
290
     0
174
     0
 93
       13
 44
0.0
173
     0
291
     0
 45
0.0
1001
ACAD
1000
AcDbSavedByObjectVersion
1070
     0
  0
DICTIONARYVAR
  5
2F8
102
{ACAD_REACTORS
330
2F7
102
}
330
2F7
100
DictionaryVariables
280
     0
  1
1:1
  0
DICTIONARYVAR
  5
338
102
{ACAD_REACTORS
330
2F7
102
}
330
2F7
100
DictionaryVariables
280
     0
  1
Standard
  0
DICTIONARYVAR
  5
337
102
{ACAD_REACTORS
330
2F7
102
}
330
2F7
100
DictionaryVariables
280
     0
  1
Standard
  0
DICTIONARYVAR
  5
2F9
102
{ACAD_REACTORS
330
2F7
102
}
330
2F7
100
DictionaryVariables
280
     0
  1
1
  0
DICTIONARYVAR
  5
339
102
{ACAD_REACTORS
330
2F7
102
}
330
2F7
100
DictionaryVariables
280
     0
  1
0
  0
XRECORD
  5
2F4
102
{ACAD_REACTORS
330
2F3
102
}
330
2F3
100
AcDbXrecord
280
     1
1000
このDWGファイルはRIKCAD(TM)\U+00AEで作成されました。
  0
DICTIONARY
  5
32C
330
45
100
AcDbDictionary
280
     1
281
     1
  3
ACAD_XREC_ROUNDTRIP
360
32D
  0
DICTIONARY
  5
32A
330
44
100
AcDbDictionary
280
     1
281
     1
  3
ACAD_XREC_ROUNDTRIP
360
32B
  0
DICTIONARY
  5
32E
330
46
100
AcDbDictionary
280
     1
281
     1
  3
ACAD_XREC_ROUNDTRIP
360
32F
  0
DICTIONARY
  5
334
330
6C
100
AcDbDictionary
280
     1
281
     1
  3
ACAD_XREC_ROUNDTRIP
360
335
  0
DICTIONARY
  5
330
330
6A
100
AcDbDictionary
280
     1
281
     1
  3
ACAD_ROUNDTRIP_2008_TABLESTYLE_CELLSTYLEMAP
360
332
  3
ACAD_XREC_ROUNDTRIP
360
331
  0
DICTIONARY
  5
302
330
2F
100
AcDbDictionary
280
     1
281
     1
  3
ACAD_XREC_ROUNDTRIP
360
303
  0
DICTIONARY
  5
308
330
32
100
AcDbDictionary
280
     1
281
     1
  3
ACAD_XREC_ROUNDTRIP
360
309
  0
DICTIONARY
  5
310
330
36
100
AcDbDictionary
280
     1
281
     1
  3
ACAD_XREC_ROUNDTRIP
360
311
  0
DICTIONARY
  5
318
330
3A
100
AcDbDictionary
280
     1
281
     1
  3
ACAD_XREC_ROUNDTRIP
360
319
  0
DICTIONARY
  5
30C
330
34
100
AcDbDictionary
280
     1
281
     1
  3
ACAD_XREC_ROUNDTRIP
360
30D
  0
DICTIONARY
  5
30E
330
35
100
AcDbDictionary
280
     1
281
     1
  3
ACAD_XREC_ROUNDTRIP
360
30F
  0
DICTIONARY
  5
31E
330
3D
100
AcDbDictionary
280
     1
281
     1
  3
ACAD_XREC_ROUNDTRIP
360
31F
  0
DICTIONARY
  5
316
330
39
100
AcDbDictionary
280
     1
281
     1
  3
ACAD_XREC_ROUNDTRIP
360
317
  0
DICTIONARY
  5
2FA
330
2B
100
AcDbDictionary
280
     1
281
     1
  3
ACAD_XREC_ROUNDTRIP
360
2FB
  0
DICTIONARY
  5
2FC
330
2C
100
AcDbDictionary
280
     1
281
     1
  3
ACAD_XREC_ROUNDTRIP
360
2FD
  0
DICTIONARY
  5
2FE
330
2D
100
AcDbDictionary
280
     1
281
     1
  3
ACAD_XREC_ROUNDTRIP
360
2FF
  0
DICTIONARY
  5
300
330
2E
100
AcDbDictionary
280
     1
281
     1
  3
ACAD_XREC_ROUNDTRIP
360
301
  0
DICTIONARY
  5
306
330
31
100
AcDbDictionary
280
     1
281
     1
  3
ACAD_XREC_ROUNDTRIP
360
307
  0
DICTIONARY
  5
31A
330
3B
100
AcDbDictionary
280
     1
281
     1
  3
ACAD_XREC_ROUNDTRIP
360
31B
  0
DICTIONARY
  5
314
330
38
100
AcDbDictionary
280
     1
281
     1
  3
ACAD_XREC_ROUNDTRIP
360
315
  0
DICTIONARY
  5
31C
330
3C
100
AcDbDictionary
280
     1
281
     1
  3
ACAD_XREC_ROUNDTRIP
360
31D
  0
DICTIONARY
  5
30A
330
33
100
AcDbDictionary
280
     1
281
     1
  3
ACAD_XREC_ROUNDTRIP
360
30B
  0
DICTIONARY
  5
328
330
42
100
AcDbDictionary
280
     1
281
     1
  3
ACAD_XREC_ROUNDTRIP
360
329
  0
DICTIONARY
  5
326
330
41
100
AcDbDictionary
280
     1
281
     1
  3
ACAD_XREC_ROUNDTRIP
360
327
  0
DICTIONARY
  5
320
330
3E
100
AcDbDictionary
280
     1
281
     1
  3
ACAD_XREC_ROUNDTRIP
360
321
  0
DICTIONARY
  5
322
330
3F
100
AcDbDictionary
280
     1
281
     1
  3
ACAD_XREC_ROUNDTRIP
360
323
  0
DICTIONARY
  5
312
330
37
100
AcDbDictionary
280
     1
281
     1
  3
ACAD_XREC_ROUNDTRIP
360
313
  0
DICTIONARY
  5
304
330
30
100
AcDbDictionary
280
     1
281
     1
  3
ACAD_XREC_ROUNDTRIP
360
305
  0
DICTIONARY
  5
324
330
40
100
AcDbDictionary
280
     1
281
     1
  3
ACAD_XREC_ROUNDTRIP
360
325
  0
XRECORD
  5
32D
102
{ACAD_REACTORS
330
32C
102
}
330
32C
100
AcDbXrecord
280
     1
102
MATERIAL
148
0.0
149
0.0
149
0.0
 93
        0
 94
      127
282
     0
 72
     1
 77
     1
171
     1
175
     1
179
     1
273
     0
  0
XRECORD
  5
32B
102
{ACAD_REACTORS
330
32A
102
}
330
32A
100
AcDbXrecord
280
     1
102
MATERIAL
148
0.0
149
0.0
149
0.0
 93
        0
 94
      127
282
     0
 72
     1
 77
     1
171
     1
175
     1
179
     1
273
     0
  0
XRECORD
  5
32F
102
{ACAD_REACTORS
330
32E
102
}
330
32E
100
AcDbXrecord
280
     1
102
MATERIAL
148
0.0
149
0.0
149
0.0
 93
        0
 94
      127
282
     0
 72
     1
 77
     1
171
     1
175
     1
179
     1
273
     0
  0
XRECORD
  5
335
102
{ACAD_REACTORS
330
334
102
}
330
334
100
AcDbXrecord
280
     1
102
ACAD_ROUNDTRIP_2010_MLEADER_STYLE
  0
CELLSTYLEMAP
  5
332
102
{ACAD_REACTORS
330
330
102
}
330
330
100
AcDbCellStyleMap
 90
        3
300
CELLSTYLE
  1
TABLEFORMAT_BEGIN
 90
        5
170
     1
 91
        0
 92
    32768
 62
   257
 93
        1
300
CONTENTFORMAT
  1
CONTENTFORMAT_BEGIN
 90
        0
 91
        0
 92
        4
 93
        0
300

 40
0.0
140
1.0
 94
        5
 62
     0
340
11
144
0.25
309
CONTENTFORMAT_END
171
     1
301
MARGIN
  1
CELLMARGIN_BEGIN
 40
0.06
 40
0.06
 40
0.06
 40
0.06
 40
0.06
 40
0.06
309
CELLMARGIN_END
 94
        6
 95
        1
302
GRIDFORMAT
  1
GRIDFORMAT_BEGIN
 90
        0
 91
        1
 62
     0
 92
       -2
340
14
 93
        0
 40
0.045
309
GRIDFORMAT_END
 95
        2
302
GRIDFORMAT
  1
GRIDFORMAT_BEGIN
 90
        0
 91
        1
 62
     0
 92
       -2
340
14
 93
        0
 40
0.045
309
GRIDFORMAT_END
 95
        4
302
GRIDFORMAT
  1
GRIDFORMAT_BEGIN
 90
        0
 91
        1
 62
     0
 92
       -2
340
14
 93
        0
 40
0.045
309
GRIDFORMAT_END
 95
        8
302
GRIDFORMAT
  1
GRIDFORMAT_BEGIN
 90
        0
 91
        1
 62
     0
 92
       -2
340
14
 93
        0
 40
0.045
309
GRIDFORMAT_END
 95
       16
302
GRIDFORMAT
  1
GRIDFORMAT_BEGIN
 90
        0
 91
        1
 62
     0
 92
       -2
340
14
 93
        0
 40
0.045
309
GRIDFORMAT_END
 95
       32
302
GRIDFORMAT
  1
GRIDFORMAT_BEGIN
 90
        0
 91
        1
 62
     0
 92
       -2
340
14
 93
        0
 40
0.045
309
GRIDFORMAT_END
309
TABLEFORMAT_END
  1
CELLSTYLE_BEGIN
 90
        1
 91
        1
300
_TITLE
309
CELLSTYLE_END
300
CELLSTYLE
  1
TABLEFORMAT_BEGIN
 90
        5
170
     1
 91
        0
 92
        0
 62
   257
 93
        1
300
CONTENTFORMAT
  1
CONTENTFORMAT_BEGIN
 90
        0
 91
        0
 92
        4
 93
        0
300

 40
0.0
140
1.0
 94
        5
 62
     0
340
11
144
0.18
309
CONTENTFORMAT_END
171
     1
301
MARGIN
  1
CELLMARGIN_BEGIN
 40
0.06
 40
0.06
 40
0.06
 40
0.06
 40
0.06
 40
0.06
309
CELLMARGIN_END
 94
        6
 95
        1
302
GRIDFORMAT
  1
GRIDFORMAT_BEGIN
 90
        0
 91
        1
 62
     0
 92
       -2
340
14
 93
        0
 40
0.045
309
GRIDFORMAT_END
 95
        2
302
GRIDFORMAT
  1
GRIDFORMAT_BEGIN
 90
        0
 91
        1
 62
     0
 92
       -2
340
14
 93
        0
 40
0.045
309
GRIDFORMAT_END
 95
        4
302
GRIDFORMAT
  1
GRIDFORMAT_BEGIN
 90
        0
 91
        1
 62
     0
 92
       -2
340
14
 93
        0
 40
0.045
309
GRIDFORMAT_END
 95
        8
302
GRIDFORMAT
  1
GRIDFORMAT_BEGIN
 90
        0
 91
        1
 62
     0
 92
       -2
340
14
 93
        0
 40
0.045
309
GRIDFORMAT_END
 95
       16
302
GRIDFORMAT
  1
GRIDFORMAT_BEGIN
 90
        0
 91
        1
 62
     0
 92
       -2
340
14
 93
        0
 40
0.045
309
GRIDFORMAT_END
 95
       32
302
GRIDFORMAT
  1
GRIDFORMAT_BEGIN
 90
        0
 91
        1
 62
     0
 92
       -2
340
14
 93
        0
 40
0.045
309
GRIDFORMAT_END
309
TABLEFORMAT_END
  1
CELLSTYLE_BEGIN
 90
        2
 91
        1
300
_HEADER
309
CELLSTYLE_END
300
CELLSTYLE
  1
TABLEFORMAT_BEGIN
 90
        5
170
     1
 91
        0
 92
        0
 62
   257
 93
        1
300
CONTENTFORMAT
  1
CONTENTFORMAT_BEGIN
 90
        0
 91
        0
 92
        4
 93
        0
300

 40
0.0
140
1.0
 94
        2
 62
     0
340
11
144
0.18
309
CONTENTFORMAT_END
171
     1
301
MARGIN
  1
CELLMARGIN_BEGIN
 40
0.06
 40
0.06
 40
0.06
 40
0.06
 40
0.06
 40
0.06
309
CELLMARGIN_END
 94
        6
 95
        1
302
GRIDFORMAT
  1
GRIDFORMAT_BEGIN
 90
        0
 91
        1
 62
     0
 92
       -2
340
14
 93
        0
 40
0.045
309
GRIDFORMAT_END
 95
        2
302
GRIDFORMAT
  1
GRIDFORMAT_BEGIN
 90
        0
 91
        1
 62
     0
 92
       -2
340
14
 93
        0
 40
0.045
309
GRIDFORMAT_END
 95
        4
302
GRIDFORMAT
  1
GRIDFORMAT_BEGIN
 90
        0
 91
        1
 62
     0
 92
       -2
340
14
 93
        0
 40
0.045
309
GRIDFORMAT_END
 95
        8
302
GRIDFORMAT
  1
GRIDFORMAT_BEGIN
 90
        0
 91
        1
 62
     0
 92
       -2
340
14
 93
        0
 40
0.045
309
GRIDFORMAT_END
 95
       16
302
GRIDFORMAT
  1
GRIDFORMAT_BEGIN
 90
        0
 91
        1
 62
     0
 92
       -2
340
14
 93
        0
 40
0.045
309
GRIDFORMAT_END
 95
       32
302
GRIDFORMAT
  1
GRIDFORMAT_BEGIN
 90
        0
 91
        1
 62
     0
 92
       -2
340
14
 93
        0
 40
0.045
309
GRIDFORMAT_END
309
TABLEFORMAT_END
  1
CELLSTYLE_BEGIN
 90
        3
 91
        2
300
_DATA
309
CELLSTYLE_END
  0
XRECORD
  5
331
102
{ACAD_REACTORS
330
330
102
}
330
330
100
AcDbXrecord
280
     1
102
ACAD_ROUNDTRIP_PRE2007_TABLESTYLE
 90
        4
 91
        0
  1

 92
        4
 93
        0
  2

 94
        4
 95
        0
  3

  0
XRECORD
  5
303
102
{ACAD_REACTORS
330
302
102
}
330
302
100
AcDbXrecord
280
     1
102
RTVSPropertyOp0
 70
     1
102
RTVSPropertyOp1
 70
     1
102
RTVSPropertyOp2
 70
     1
102
RTVSPropertyOp3
 70
     1
102
RTVSPropertyOp4
 70
     1
102
RTVSPropertyOp5
 70
     1
102
RTVSPropertyOp6
 70
     1
102
RTVSPropertyOp7
 70
     1
102
RTVSPropertyOp8
 70
     1
102
RTVSPropertyOp9
 70
     1
102
RTVSPropertyOp10
 70
     1
102
RTVSPropertyOp11
 70
     1
102
RTVSPropertyOp12
 70
     1
102
RTVSPropertyOp13
 70
     1
102
RTVSPropertyOp14
 70
     1
102
RTVSPropertyOp15
 70
     1
102
RTVSPropertyOp16
 70
     1
102
RTVSPropertyOp17
 70
     1
102
RTVSPropertyOp18
 70
     1
102
RTVSPropertyOp19
 70
     1
102
RTVSPropertyOp20
 70
     1
102
RTVSPropertyOp21
 70
     1
102
RTVSPropertyOp22
 70
     1
102
RTVSPropertyOp23
 70
     1
102
RTVSPropertyOp24
 70
     1
102
RTVSPropertyOp25
 70
     1
102
RTVSPropertyOp26
 70
     1
102
RTVSPropertyOp27
 70
     1
102
RTVSPropertyOp28
 70
     1
102
RTVSPropertyOp29
 70
     1
102
RTVSPropertyOp30
 70
     1
102
RTVSPropertyOp31
 70
     1
102
RTVSPropertyOp32
 70
     1
102
RTVSPropertyOp33
 70
     1
102
RTVSPropertyOp34
 70
     1
102
RTVSPropertyOp35
 70
     1
102
RTVSPropertyOp36
 70
     1
102
RTVSPropertyOp37
 70
     1
102
RTVSPropertyOp38
 70
     1
102
RTVSPropertyOp39
 70
     1
102
RTVSPropertyOp40
 70
     1
102
RTVSPropertyOp41
 70
     1
102
RTVSPropertyOp42
 70
     1
102
RTVSPropertyOp43
 70
     1
102
RTVSPropertyOp44
 70
     1
102
RTVSPropertyOp45
 70
     1
102
RTVSPropertyOp46
 70
     1
102
RTVSPropertyOp47
 70
     1
102
RTVSPropertyOp48
 70
     1
102
RTVSPropertyOp49
 70
     1
102
RTVSPropertyOp50
 70
     1
102
RTVSPropertyOp51
 70
     0
102
RTVSPropertyOp52
 70
     0
102
RTVSPropertyOp53
 70
     1
102
RTVSPropertyOp54
 70
     1
102
RTVSPropertyOp55
 70
     1
102
RTVSPropertyOp56
 70
     1
102
RTVSPropertyOp57
 70
     1
102
RTVSPost2010Prop28
280
     1
102
RTVSPost2010PropOp28
 70
     1
102
RTVSPost2010Prop29
280
     1
102
RTVSPost2010PropOp29
 70
     1
102
RTVSPost2010Prop30
280
     0
102
RTVSPost2010PropOp30
 70
     1
102
RTVSPost2010Prop31
280
     0
102
RTVSPost2010PropOp31
 70
     1
102
RTVSPost2010Prop32
280
     0
102
RTVSPost2010PropOp32
 70
     1
102
RTVSPost2010Prop33
280
     0
102
RTVSPost2010PropOp33
 70
     1
102
RTVSPost2010Prop34
280
     0
102
RTVSPost2010PropOp34
 70
     1
102
RTVSPost2010Prop35
280
     0
102
RTVSPost2010PropOp35
 70
     1
102
RTVSPost2010Prop36
280
     0
102
RTVSPost2010PropOp36
 70
     1
102
RTVSPost2010Prop37
 90
       50
102
RTVSPost2010PropOp37
 70
     1
102
RTVSPost2010Prop38
140
0.0
102
RTVSPost2010PropOp38
 70
     1
102
RTVSPost2010Prop39
140
1.0
102
RTVSPost2010PropOp39
 70
     1
102
RTVSPost2010Prop40
 90
        0
102
RTVSPost2010PropOp40
 70
     1
102
RTVSPost2010Prop41ColorIndex
 90
       18
102
RTVSPost2010Prop41ColorRGB
 90
        0
102
RTVSPost2010PropOp41
 70
     1
102
RTVSPost2010Prop42
 90
       50
102
RTVSPost2010PropOp42
 70
     1
102
RTVSPost2010Prop43
 90
        3
102
RTVSPost2010PropOp43
 70
     1
102
RTVSPost2010Prop44ColorIndex
 90
        5
102
RTVSPost2010Prop44ColorRGB
 90
      255
102
RTVSPost2010PropOp44
 70
     1
102
RTVSPost2010Prop45
280
     0
102
RTVSPost2010PropOp45
 70
     1
102
RTVSPost2010Prop46
 90
       50
102
RTVSPost2010PropOp46
 70
     1
102
RTVSPost2010Prop47
 90
       50
102
RTVSPost2010PropOp47
 70
     1
102
RTVSPost2010Prop48
 90
       50
102
RTVSPost2010PropOp48
 70
     1
102
RTVSPost2010Prop49
280
     0
102
RTVSPost2010PropOp49
 70
     1
102
RTVSPost2010Prop50
 90
       50
102
RTVSPost2010PropOp50
 70
     1
102
RTVSPost2010Prop51ColorIndex
 90
      256
102
RTVSPost2010Prop51ColorRGB
 90
-16777216
102
RTVSPost2010PropOp51
 70
     0
102
RTVSPost2010Prop52
140
1.0
102
RTVSPost2010PropOp52
 70
     0
102
RTVSPost2010Prop53
 90
        2
102
RTVSPost2010PropOp53
 70
     1
102
RTVSPost2010Prop54
  1
strokes_ogs.tif
102
RTVSPost2010PropOp54
 70
     1
102
RTVSPost2010Prop55
280
     0
102
RTVSPost2010PropOp55
 70
     1
102
RTVSPost2010Prop56
140
1.0
102
RTVSPost2010PropOp56
 70
     1
102
RTVSPost2010Prop57
140
1.0
102
RTVSPost2010PropOp57
 70
     1
  0
XRECORD
  5
309
102
{ACAD_REACTORS
330
308
102
}
330
308
100
AcDbXrecord
280
     1
102
RTVSPropertyOp0
 70
     1
102
RTVSPropertyOp1
 70
     1
102
RTVSPropertyOp2
 70
     1
102
RTVSPropertyOp3
 70
     1
102
RTVSPropertyOp4
 70
     1
102
RTVSPropertyOp5
 70
     1
102
RTVSPropertyOp6
 70
     1
102
RTVSPropertyOp7
 70
     1
102
RTVSPropertyOp8
 70
     1
102
RTVSPropertyOp9
 70
     1
102
RTVSPropertyOp10
 70
     1
102
RTVSPropertyOp11
 70
     1
102
RTVSPropertyOp12
 70
     1
102
RTVSPropertyOp13
 70
     1
102
RTVSPropertyOp14
 70
     1
102
RTVSPropertyOp15
 70
     1
102
RTVSPropertyOp16
 70
     1
102
RTVSPropertyOp17
 70
     1
102
RTVSPropertyOp18
 70
     1
102
RTVSPropertyOp19
 70
     1
102
RTVSPropertyOp20
 70
     1
102
RTVSPropertyOp21
 70
     1
102
RTVSPropertyOp22
 70
     1
102
RTVSPropertyOp23
 70
     1
102
RTVSPropertyOp24
 70
     1
102
RTVSPropertyOp25
 70
     1
102
RTVSPropertyOp26
 70
     1
102
RTVSPropertyOp27
 70
     1
102
RTVSPropertyOp28
 70
     1
102
RTVSPropertyOp29
 70
     1
102
RTVSPropertyOp30
 70
     1
102
RTVSPropertyOp31
 70
     1
102
RTVSPropertyOp32
 70
     1
102
RTVSPropertyOp33
 70
     1
102
RTVSPropertyOp34
 70
     1
102
RTVSPropertyOp35
 70
     1
102
RTVSPropertyOp36
 70
     1
102
RTVSPropertyOp37
 70
     1
102
RTVSPropertyOp38
 70
     1
102
RTVSPropertyOp39
 70
     1
102
RTVSPropertyOp40
 70
     1
102
RTVSPropertyOp41
 70
     1
102
RTVSPropertyOp42
 70
     1
102
RTVSPropertyOp43
 70
     1
102
RTVSPropertyOp44
 70
     1
102
RTVSPropertyOp45
 70
     1
102
RTVSPropertyOp46
 70
     1
102
RTVSPropertyOp47
 70
     1
102
RTVSPropertyOp48
 70
     1
102
RTVSPropertyOp49
 70
     1
102
RTVSPropertyOp50
 70
     1
102
RTVSPropertyOp51
 70
     0
102
RTVSPropertyOp52
 70
     0
102
RTVSPropertyOp53
 70
     1
102
RTVSPropertyOp54
 70
     1
102
RTVSPropertyOp55
 70
     1
102
RTVSPropertyOp56
 70
     1
102
RTVSPropertyOp57
 70
     1
102
RTVSPost2010Prop28
280
     0
102
RTVSPost2010PropOp28
 70
     1
102
RTVSPost2010Prop29
280
     1
102
RTVSPost2010PropOp29
 70
     1
102
RTVSPost2010Prop30
280
     1
102
RTVSPost2010PropOp30
 70
     1
102
RTVSPost2010Prop31
280
     0
102
RTVSPost2010PropOp31
 70
     1
102
RTVSPost2010Prop32
280
     0
102
RTVSPost2010PropOp32
 70
     1
102
RTVSPost2010Prop33
280
     0
102
RTVSPost2010PropOp33
 70
     1
102
RTVSPost2010Prop34
280
     0
102
RTVSPost2010PropOp34
 70
     1
102
RTVSPost2010Prop35
280
     0
102
RTVSPost2010PropOp35
 70
     1
102
RTVSPost2010Prop36
280
     0
102
RTVSPost2010PropOp36
 70
     1
102
RTVSPost2010Prop37
 90
       50
102
RTVSPost2010PropOp37
 70
     1
102
RTVSPost2010Prop38
140
0.0
102
RTVSPost2010PropOp38
 70
     1
102
RTVSPost2010Prop39
140
1.0
102
RTVSPost2010PropOp39
 70
     1
102
RTVSPost2010Prop40
 90
        0
102
RTVSPost2010PropOp40
 70
     1
102
RTVSPost2010Prop41ColorIndex
 90
       18
102
RTVSPost2010Prop41ColorRGB
 90
        0
102
RTVSPost2010PropOp41
 70
     1
102
RTVSPost2010Prop42
 90
       50
102
RTVSPost2010PropOp42
 70
     1
102
RTVSPost2010Prop43
 90
        3
102
RTVSPost2010PropOp43
 70
     1
102
RTVSPost2010Prop44ColorIndex
 90
        5
102
RTVSPost2010Prop44ColorRGB
 90
      255
102
RTVSPost2010PropOp44
 70
     1
102
RTVSPost2010Prop45
280
     0
102
RTVSPost2010PropOp45
 70
     1
102
RTVSPost2010Prop46
 90
       50
102
RTVSPost2010PropOp46
 70
     1
102
RTVSPost2010Prop47
 90
       50
102
RTVSPost2010PropOp47
 70
     1
102
RTVSPost2010Prop48
 90
       50
102
RTVSPost2010PropOp48
 70
     1
102
RTVSPost2010Prop49
280
     0
102
RTVSPost2010PropOp49
 70
     1
102
RTVSPost2010Prop50
 90
       50
102
RTVSPost2010PropOp50
 70
     1
102
RTVSPost2010Prop51ColorIndex
 90
      256
102
RTVSPost2010Prop51ColorRGB
 90
-16777216
102
RTVSPost2010PropOp51
 70
     0
102
RTVSPost2010Prop52
140
1.0
102
RTVSPost2010PropOp52
 70
     0
102
RTVSPost2010Prop53
 90
        2
102
RTVSPost2010PropOp53
 70
     1
102
RTVSPost2010Prop54
  1
strokes_ogs.tif
102
RTVSPost2010PropOp54
 70
     1
102
RTVSPost2010Prop55
280
     0
102
RTVSPost2010PropOp55
 70
     1
102
RTVSPost2010Prop56
140
1.0
102
RTVSPost2010PropOp56
 70
     1
102
RTVSPost2010Prop57
140
1.0
102
RTVSPost2010PropOp57
 70
     1
  0
XRECORD
  5
311
102
{ACAD_REACTORS
330
310
102
}
330
310
100
AcDbXrecord
280
     1
102
RTVSPropertyOp0
 70
     1
102
RTVSPropertyOp1
 70
     1
102
RTVSPropertyOp2
 70
     1
102
RTVSPropertyOp3
 70
     1
102
RTVSPropertyOp4
 70
     1
102
RTVSPropertyOp5
 70
     1
102
RTVSPropertyOp6
 70
     1
102
RTVSPropertyOp7
 70
     1
102
RTVSPropertyOp8
 70
     1
102
RTVSPropertyOp9
 70
     1
102
RTVSPropertyOp10
 70
     1
102
RTVSPropertyOp11
 70
     1
102
RTVSPropertyOp12
 70
     1
102
RTVSPropertyOp13
 70
     1
102
RTVSPropertyOp14
 70
     1
102
RTVSPropertyOp15
 70
     1
102
RTVSPropertyOp16
 70
     1
102
RTVSPropertyOp17
 70
     1
102
RTVSPropertyOp18
 70
     1
102
RTVSPropertyOp19
 70
     1
102
RTVSPropertyOp20
 70
     1
102
RTVSPropertyOp21
 70
     1
102
RTVSPropertyOp22
 70
     1
102
RTVSPropertyOp23
 70
     1
102
RTVSPropertyOp24
 70
     1
102
RTVSPropertyOp25
 70
     1
102
RTVSPropertyOp26
 70
     1
102
RTVSPropertyOp27
 70
     1
102
RTVSPropertyOp28
 70
     1
102
RTVSPropertyOp29
 70
     1
102
RTVSPropertyOp30
 70
     1
102
RTVSPropertyOp31
 70
     1
102
RTVSPropertyOp32
 70
     1
102
RTVSPropertyOp33
 70
     1
102
RTVSPropertyOp34
 70
     1
102
RTVSPropertyOp35
 70
     1
102
RTVSPropertyOp36
 70
     1
102
RTVSPropertyOp37
 70
     1
102
RTVSPropertyOp38
 70
     1
102
RTVSPropertyOp39
 70
     1
102
RTVSPropertyOp40
 70
     1
102
RTVSPropertyOp41
 70
     1
102
RTVSPropertyOp42
 70
     1
102
RTVSPropertyOp43
 70
     1
102
RTVSPropertyOp44
 70
     1
102
RTVSPropertyOp45
 70
     1
102
RTVSPropertyOp46
 70
     1
102
RTVSPropertyOp47
 70
     1
102
RTVSPropertyOp48
 70
     1
102
RTVSPropertyOp49
 70
     1
102
RTVSPropertyOp50
 70
     1
102
RTVSPropertyOp51
 70
     0
102
RTVSPropertyOp52
 70
     0
102
RTVSPropertyOp53
 70
     1
102
RTVSPropertyOp54
 70
     1
102
RTVSPropertyOp55
 70
     1
102
RTVSPropertyOp56
 70
     1
102
RTVSPropertyOp57
 70
     1
102
RTVSPost2010Prop28
280
     0
102
RTVSPost2010PropOp28
 70
     1
102
RTVSPost2010Prop29
280
     1
102
RTVSPost2010PropOp29
 70
     1
102
RTVSPost2010Prop30
280
     1
102
RTVSPost2010PropOp30
 70
     1
102
RTVSPost2010Prop31
280
     0
102
RTVSPost2010PropOp31
 70
     1
102
RTVSPost2010Prop32
280
     0
102
RTVSPost2010PropOp32
 70
     1
102
RTVSPost2010Prop33
280
     0
102
RTVSPost2010PropOp33
 70
     1
102
RTVSPost2010Prop34
280
     0
102
RTVSPost2010PropOp34
 70
     1
102
RTVSPost2010Prop35
280
     0
102
RTVSPost2010PropOp35
 70
     1
102
RTVSPost2010Prop36
280
     0
102
RTVSPost2010PropOp36
 70
     1
102
RTVSPost2010Prop37
 90
       50
102
RTVSPost2010PropOp37
 70
     1
102
RTVSPost2010Prop38
140
0.0
102
RTVSPost2010PropOp38
 70
     1
102
RTVSPost2010Prop39
140
1.0
102
RTVSPost2010PropOp39
 70
     1
102
RTVSPost2010Prop40
 90
        0
102
RTVSPost2010PropOp40
 70
     1
102
RTVSPost2010Prop41ColorIndex
 90
       18
102
RTVSPost2010Prop41ColorRGB
 90
        0
102
RTVSPost2010PropOp41
 70
     1
102
RTVSPost2010Prop42
 90
       50
102
RTVSPost2010PropOp42
 70
     1
102
RTVSPost2010Prop43
 90
        3
102
RTVSPost2010PropOp43
 70
     1
102
RTVSPost2010Prop44ColorIndex
 90
        5
102
RTVSPost2010Prop44ColorRGB
 90
      255
102
RTVSPost2010PropOp44
 70
     1
102
RTVSPost2010Prop45
280
     0
102
RTVSPost2010PropOp45
 70
     1
102
RTVSPost2010Prop46
 90
       50
102
RTVSPost2010PropOp46
 70
     1
102
RTVSPost2010Prop47
 90
       50
102
RTVSPost2010PropOp47
 70
     1
102
RTVSPost2010Prop48
 90
       50
102
RTVSPost2010PropOp48
 70
     1
102
RTVSPost2010Prop49
280
     0
102
RTVSPost2010PropOp49
 70
     1
102
RTVSPost2010Prop50
 90
       50
102
RTVSPost2010PropOp50
 70
     1
102
RTVSPost2010Prop51ColorIndex
 90
      256
102
RTVSPost2010Prop51ColorRGB
 90
-16777216
102
RTVSPost2010PropOp51
 70
     0
102
RTVSPost2010Prop52
140
1.0
102
RTVSPost2010PropOp52
 70
     0
102
RTVSPost2010Prop53
 90
        2
102
RTVSPost2010PropOp53
 70
     1
102
RTVSPost2010Prop54
  1
strokes_ogs.tif
102
RTVSPost2010PropOp54
 70
     1
102
RTVSPost2010Prop55
280
     0
102
RTVSPost2010PropOp55
 70
     1
102
RTVSPost2010Prop56
140
1.0
102
RTVSPost2010PropOp56
 70
     1
102
RTVSPost2010Prop57
140
1.0
102
RTVSPost2010PropOp57
 70
     1
  0
XRECORD
  5
319
102
{ACAD_REACTORS
330
318
102
}
330
318
100
AcDbXrecord
280
     1
102
RTVSPropertyOp0
 70
     1
102
RTVSPropertyOp1
 70
     1
102
RTVSPropertyOp2
 70
     1
102
RTVSPropertyOp3
 70
     1
102
RTVSPropertyOp4
 70
     1
102
RTVSPropertyOp5
 70
     1
102
RTVSPropertyOp6
 70
     1
102
RTVSPropertyOp7
 70
     1
102
RTVSPropertyOp8
 70
     1
102
RTVSPropertyOp9
 70
     1
102
RTVSPropertyOp10
 70
     1
102
RTVSPropertyOp11
 70
     1
102
RTVSPropertyOp12
 70
     1
102
RTVSPropertyOp13
 70
     1
102
RTVSPropertyOp14
 70
     1
102
RTVSPropertyOp15
 70
     1
102
RTVSPropertyOp16
 70
     1
102
RTVSPropertyOp17
 70
     1
102
RTVSPropertyOp18
 70
     1
102
RTVSPropertyOp19
 70
     1
102
RTVSPropertyOp20
 70
     1
102
RTVSPropertyOp21
 70
     1
102
RTVSPropertyOp22
 70
     1
102
RTVSPropertyOp23
 70
     1
102
RTVSPropertyOp24
 70
     1
102
RTVSPropertyOp25
 70
     1
102
RTVSPropertyOp26
 70
     1
102
RTVSPropertyOp27
 70
     1
102
RTVSPropertyOp28
 70
     1
102
RTVSPropertyOp29
 70
     1
102
RTVSPropertyOp30
 70
     1
102
RTVSPropertyOp31
 70
     1
102
RTVSPropertyOp32
 70
     1
102
RTVSPropertyOp33
 70
     1
102
RTVSPropertyOp34
 70
     1
102
RTVSPropertyOp35
 70
     1
102
RTVSPropertyOp36
 70
     1
102
RTVSPropertyOp37
 70
     1
102
RTVSPropertyOp38
 70
     1
102
RTVSPropertyOp39
 70
     1
102
RTVSPropertyOp40
 70
     1
102
RTVSPropertyOp41
 70
     1
102
RTVSPropertyOp42
 70
     1
102
RTVSPropertyOp43
 70
     1
102
RTVSPropertyOp44
 70
     1
102
RTVSPropertyOp45
 70
     1
102
RTVSPropertyOp46
 70
     1
102
RTVSPropertyOp47
 70
     1
102
RTVSPropertyOp48
 70
     1
102
RTVSPropertyOp49
 70
     1
102
RTVSPropertyOp50
 70
     1
102
RTVSPropertyOp51
 70
     0
102
RTVSPropertyOp52
 70
     0
102
RTVSPropertyOp53
 70
     1
102
RTVSPropertyOp54
 70
     1
102
RTVSPropertyOp55
 70
     1
102
RTVSPropertyOp56
 70
     1
102
RTVSPropertyOp57
 70
     1
102
RTVSPost2010Prop28
280
     0
102
RTVSPost2010PropOp28
 70
     1
102
RTVSPost2010Prop29
280
     1
102
RTVSPost2010PropOp29
 70
     1
102
RTVSPost2010Prop30
280
     1
102
RTVSPost2010PropOp30
 70
     1
102
RTVSPost2010Prop31
280
     0
102
RTVSPost2010PropOp31
 70
     1
102
RTVSPost2010Prop32
280
     0
102
RTVSPost2010PropOp32
 70
     1
102
RTVSPost2010Prop33
280
     0
102
RTVSPost2010PropOp33
 70
     1
102
RTVSPost2010Prop34
280
     0
102
RTVSPost2010PropOp34
 70
     1
102
RTVSPost2010Prop35
280
     0
102
RTVSPost2010PropOp35
 70
     1
102
RTVSPost2010Prop36
280
     0
102
RTVSPost2010PropOp36
 70
     1
102
RTVSPost2010Prop37
 90
       50
102
RTVSPost2010PropOp37
 70
     1
102
RTVSPost2010Prop38
140
0.0
102
RTVSPost2010PropOp38
 70
     1
102
RTVSPost2010Prop39
140
1.0
102
RTVSPost2010PropOp39
 70
     1
102
RTVSPost2010Prop40
 90
        0
102
RTVSPost2010PropOp40
 70
     1
102
RTVSPost2010Prop41ColorIndex
 90
       18
102
RTVSPost2010Prop41ColorRGB
 90
        0
102
RTVSPost2010PropOp41
 70
     1
102
RTVSPost2010Prop42
 90
       50
102
RTVSPost2010PropOp42
 70
     1
102
RTVSPost2010Prop43
 90
        3
102
RTVSPost2010PropOp43
 70
     1
102
RTVSPost2010Prop44ColorIndex
 90
        5
102
RTVSPost2010Prop44ColorRGB
 90
      255
102
RTVSPost2010PropOp44
 70
     1
102
RTVSPost2010Prop45
280
     0
102
RTVSPost2010PropOp45
 70
     1
102
RTVSPost2010Prop46
 90
       50
102
RTVSPost2010PropOp46
 70
     1
102
RTVSPost2010Prop47
 90
       50
102
RTVSPost2010PropOp47
 70
     1
102
RTVSPost2010Prop48
 90
       50
102
RTVSPost2010PropOp48
 70
     1
102
RTVSPost2010Prop49
280
     0
102
RTVSPost2010PropOp49
 70
     1
102
RTVSPost2010Prop50
 90
       50
102
RTVSPost2010PropOp50
 70
     1
102
RTVSPost2010Prop51ColorIndex
 90
      256
102
RTVSPost2010Prop51ColorRGB
 90
-16777216
102
RTVSPost2010PropOp51
 70
     0
102
RTVSPost2010Prop52
140
1.0
102
RTVSPost2010PropOp52
 70
     0
102
RTVSPost2010Prop53
 90
        2
102
RTVSPost2010PropOp53
 70
     1
102
RTVSPost2010Prop54
  1
strokes_ogs.tif
102
RTVSPost2010PropOp54
 70
     1
102
RTVSPost2010Prop55
280
     0
102
RTVSPost2010PropOp55
 70
     1
102
RTVSPost2010Prop56
140
1.0
102
RTVSPost2010PropOp56
 70
     1
102
RTVSPost2010Prop57
140
1.0
102
RTVSPost2010PropOp57
 70
     1
  0
XRECORD
  5
30D
102
{ACAD_REACTORS
330
30C
102
}
330
30C
100
AcDbXrecord
280
     1
102
RTVSPropertyOp0
 70
     1
102
RTVSPropertyOp1
 70
     1
102
RTVSPropertyOp2
 70
     1
102
RTVSPropertyOp3
 70
     1
102
RTVSPropertyOp4
 70
     1
102
RTVSPropertyOp5
 70
     1
102
RTVSPropertyOp6
 70
     1
102
RTVSPropertyOp7
 70
     1
102
RTVSPropertyOp8
 70
     1
102
RTVSPropertyOp9
 70
     1
102
RTVSPropertyOp10
 70
     1
102
RTVSPropertyOp11
 70
     1
102
RTVSPropertyOp12
 70
     1
102
RTVSPropertyOp13
 70
     1
102
RTVSPropertyOp14
 70
     1
102
RTVSPropertyOp15
 70
     1
102
RTVSPropertyOp16
 70
     1
102
RTVSPropertyOp17
 70
     1
102
RTVSPropertyOp18
 70
     1
102
RTVSPropertyOp19
 70
     1
102
RTVSPropertyOp20
 70
     1
102
RTVSPropertyOp21
 70
     1
102
RTVSPropertyOp22
 70
     1
102
RTVSPropertyOp23
 70
     1
102
RTVSPropertyOp24
 70
     1
102
RTVSPropertyOp25
 70
     1
102
RTVSPropertyOp26
 70
     1
102
RTVSPropertyOp27
 70
     1
102
RTVSPropertyOp28
 70
     1
102
RTVSPropertyOp29
 70
     1
102
RTVSPropertyOp30
 70
     1
102
RTVSPropertyOp31
 70
     1
102
RTVSPropertyOp32
 70
     1
102
RTVSPropertyOp33
 70
     1
102
RTVSPropertyOp34
 70
     1
102
RTVSPropertyOp35
 70
     1
102
RTVSPropertyOp36
 70
     1
102
RTVSPropertyOp37
 70
     1
102
RTVSPropertyOp38
 70
     1
102
RTVSPropertyOp39
 70
     1
102
RTVSPropertyOp40
 70
     1
102
RTVSPropertyOp41
 70
     1
102
RTVSPropertyOp42
 70
     1
102
RTVSPropertyOp43
 70
     1
102
RTVSPropertyOp44
 70
     1
102
RTVSPropertyOp45
 70
     1
102
RTVSPropertyOp46
 70
     1
102
RTVSPropertyOp47
 70
     1
102
RTVSPropertyOp48
 70
     1
102
RTVSPropertyOp49
 70
     1
102
RTVSPropertyOp50
 70
     1
102
RTVSPropertyOp51
 70
     0
102
RTVSPropertyOp52
 70
     0
102
RTVSPropertyOp53
 70
     1
102
RTVSPropertyOp54
 70
     1
102
RTVSPropertyOp55
 70
     1
102
RTVSPropertyOp56
 70
     1
102
RTVSPropertyOp57
 70
     1
102
RTVSPost2010Prop28
280
     0
102
RTVSPost2010PropOp28
 70
     1
102
RTVSPost2010Prop29
280
     1
102
RTVSPost2010PropOp29
 70
     1
102
RTVSPost2010Prop30
280
     1
102
RTVSPost2010PropOp30
 70
     1
102
RTVSPost2010Prop31
280
     0
102
RTVSPost2010PropOp31
 70
     1
102
RTVSPost2010Prop32
280
     0
102
RTVSPost2010PropOp32
 70
     1
102
RTVSPost2010Prop33
280
     0
102
RTVSPost2010PropOp33
 70
     1
102
RTVSPost2010Prop34
280
     0
102
RTVSPost2010PropOp34
 70
     1
102
RTVSPost2010Prop35
280
     0
102
RTVSPost2010PropOp35
 70
     1
102
RTVSPost2010Prop36
280
     0
102
RTVSPost2010PropOp36
 70
     1
102
RTVSPost2010Prop37
 90
       50
102
RTVSPost2010PropOp37
 70
     1
102
RTVSPost2010Prop38
140
0.0
102
RTVSPost2010PropOp38
 70
     1
102
RTVSPost2010Prop39
140
1.0
102
RTVSPost2010PropOp39
 70
     1
102
RTVSPost2010Prop40
 90
        0
102
RTVSPost2010PropOp40
 70
     1
102
RTVSPost2010Prop41ColorIndex
 90
       18
102
RTVSPost2010Prop41ColorRGB
 90
        0
102
RTVSPost2010PropOp41
 70
     1
102
RTVSPost2010Prop42
 90
       50
102
RTVSPost2010PropOp42
 70
     1
102
RTVSPost2010Prop43
 90
        3
102
RTVSPost2010PropOp43
 70
     1
102
RTVSPost2010Prop44ColorIndex
 90
        5
102
RTVSPost2010Prop44ColorRGB
 90
      255
102
RTVSPost2010PropOp44
 70
     1
102
RTVSPost2010Prop45
280
     0
102
RTVSPost2010PropOp45
 70
     1
102
RTVSPost2010Prop46
 90
       50
102
RTVSPost2010PropOp46
 70
     1
102
RTVSPost2010Prop47
 90
       50
102
RTVSPost2010PropOp47
 70
     1
102
RTVSPost2010Prop48
 90
       50
102
RTVSPost2010PropOp48
 70
     1
102
RTVSPost2010Prop49
280
     0
102
RTVSPost2010PropOp49
 70
     1
102
RTVSPost2010Prop50
 90
       50
102
RTVSPost2010PropOp50
 70
     1
102
RTVSPost2010Prop51ColorIndex
 90
      256
102
RTVSPost2010Prop51ColorRGB
 90
-16777216
102
RTVSPost2010PropOp51
 70
     0
102
RTVSPost2010Prop52
140
1.0
102
RTVSPost2010PropOp52
 70
     0
102
RTVSPost2010Prop53
 90
        2
102
RTVSPost2010PropOp53
 70
     1
102
RTVSPost2010Prop54
  1
strokes_ogs.tif
102
RTVSPost2010PropOp54
 70
     1
102
RTVSPost2010Prop55
280
     0
102
RTVSPost2010PropOp55
 70
     1
102
RTVSPost2010Prop56
140
1.0
102
RTVSPost2010PropOp56
 70
     1
102
RTVSPost2010Prop57
140
1.0
102
RTVSPost2010PropOp57
 70
     1
  0
XRECORD
  5
30F
102
{ACAD_REACTORS
330
30E
102
}
330
30E
100
AcDbXrecord
280
     1
102
RTVSPropertyOp0
 70
     1
102
RTVSPropertyOp1
 70
     1
102
RTVSPropertyOp2
 70
     1
102
RTVSPropertyOp3
 70
     1
102
RTVSPropertyOp4
 70
     1
102
RTVSPropertyOp5
 70
     1
102
RTVSPropertyOp6
 70
     1
102
RTVSPropertyOp7
 70
     1
102
RTVSPropertyOp8
 70
     1
102
RTVSPropertyOp9
 70
     1
102
RTVSPropertyOp10
 70
     1
102
RTVSPropertyOp11
 70
     1
102
RTVSPropertyOp12
 70
     1
102
RTVSPropertyOp13
 70
     1
102
RTVSPropertyOp14
 70
     1
102
RTVSPropertyOp15
 70
     1
102
RTVSPropertyOp16
 70
     1
102
RTVSPropertyOp17
 70
     1
102
RTVSPropertyOp18
 70
     1
102
RTVSPropertyOp19
 70
     1
102
RTVSPropertyOp20
 70
     1
102
RTVSPropertyOp21
 70
     1
102
RTVSPropertyOp22
 70
     1
102
RTVSPropertyOp23
 70
     1
102
RTVSPropertyOp24
 70
     1
102
RTVSPropertyOp25
 70
     1
102
RTVSPropertyOp26
 70
     1
102
RTVSPropertyOp27
 70
     1
102
RTVSPropertyOp28
 70
     1
102
RTVSPropertyOp29
 70
     1
102
RTVSPropertyOp30
 70
     1
102
RTVSPropertyOp31
 70
     1
102
RTVSPropertyOp32
 70
     1
102
RTVSPropertyOp33
 70
     1
102
RTVSPropertyOp34
 70
     1
102
RTVSPropertyOp35
 70
     1
102
RTVSPropertyOp36
 70
     1
102
RTVSPropertyOp37
 70
     1
102
RTVSPropertyOp38
 70
     1
102
RTVSPropertyOp39
 70
     1
102
RTVSPropertyOp40
 70
     1
102
RTVSPropertyOp41
 70
     1
102
RTVSPropertyOp42
 70
     1
102
RTVSPropertyOp43
 70
     1
102
RTVSPropertyOp44
 70
     1
102
RTVSPropertyOp45
 70
     1
102
RTVSPropertyOp46
 70
     1
102
RTVSPropertyOp47
 70
     1
102
RTVSPropertyOp48
 70
     1
102
RTVSPropertyOp49
 70
     1
102
RTVSPropertyOp50
 70
     1
102
RTVSPropertyOp51
 70
     0
102
RTVSPropertyOp52
 70
     0
102
RTVSPropertyOp53
 70
     1
102
RTVSPropertyOp54
 70
     1
102
RTVSPropertyOp55
 70
     1
102
RTVSPropertyOp56
 70
     1
102
RTVSPropertyOp57
 70
     1
102
RTVSPost2010Prop28
280
     0
102
RTVSPost2010PropOp28
 70
     1
102
RTVSPost2010Prop29
280
     1
102
RTVSPost2010PropOp29
 70
     1
102
RTVSPost2010Prop30
280
     1
102
RTVSPost2010PropOp30
 70
     1
102
RTVSPost2010Prop31
280
     0
102
RTVSPost2010PropOp31
 70
     1
102
RTVSPost2010Prop32
280
     0
102
RTVSPost2010PropOp32
 70
     1
102
RTVSPost2010Prop33
280
     0
102
RTVSPost2010PropOp33
 70
     1
102
RTVSPost2010Prop34
280
     0
102
RTVSPost2010PropOp34
 70
     1
102
RTVSPost2010Prop35
280
     0
102
RTVSPost2010PropOp35
 70
     1
102
RTVSPost2010Prop36
280
     0
102
RTVSPost2010PropOp36
 70
     1
102
RTVSPost2010Prop37
 90
       50
102
RTVSPost2010PropOp37
 70
     1
102
RTVSPost2010Prop38
140
0.0
102
RTVSPost2010PropOp38
 70
     1
102
RTVSPost2010Prop39
140
1.0
102
RTVSPost2010PropOp39
 70
     1
102
RTVSPost2010Prop40
 90
        0
102
RTVSPost2010PropOp40
 70
     1
102
RTVSPost2010Prop41ColorIndex
 90
       18
102
RTVSPost2010Prop41ColorRGB
 90
        0
102
RTVSPost2010PropOp41
 70
     1
102
RTVSPost2010Prop42
 90
       50
102
RTVSPost2010PropOp42
 70
     1
102
RTVSPost2010Prop43
 90
        3
102
RTVSPost2010PropOp43
 70
     1
102
RTVSPost2010Prop44ColorIndex
 90
        5
102
RTVSPost2010Prop44ColorRGB
 90
      255
102
RTVSPost2010PropOp44
 70
     1
102
RTVSPost2010Prop45
280
     0
102
RTVSPost2010PropOp45
 70
     1
102
RTVSPost2010Prop46
 90
       50
102
RTVSPost2010PropOp46
 70
     1
102
RTVSPost2010Prop47
 90
       50
102
RTVSPost2010PropOp47
 70
     1
102
RTVSPost2010Prop48
 90
       50
102
RTVSPost2010PropOp48
 70
     1
102
RTVSPost2010Prop49
280
     0
102
RTVSPost2010PropOp49
 70
     1
102
RTVSPost2010Prop50
 90
       50
102
RTVSPost2010PropOp50
 70
     1
102
RTVSPost2010Prop51ColorIndex
 90
      256
102
RTVSPost2010Prop51ColorRGB
 90
-16777216
102
RTVSPost2010PropOp51
 70
     0
102
RTVSPost2010Prop52
140
1.0
102
RTVSPost2010PropOp52
 70
     0
102
RTVSPost2010Prop53
 90
        2
102
RTVSPost2010PropOp53
 70
     1
102
RTVSPost2010Prop54
  1
strokes_ogs.tif
102
RTVSPost2010PropOp54
 70
     1
102
RTVSPost2010Prop55
280
     0
102
RTVSPost2010PropOp55
 70
     1
102
RTVSPost2010Prop56
140
1.0
102
RTVSPost2010PropOp56
 70
     1
102
RTVSPost2010Prop57
140
1.0
102
RTVSPost2010PropOp57
 70
     1
  0
XRECORD
  5
31F
102
{ACAD_REACTORS
330
31E
102
}
330
31E
100
AcDbXrecord
280
     1
102
RTVSPropertyOp0
 70
     0
102
RTVSPropertyOp1
 70
     0
102
RTVSPropertyOp2
 70
     0
102
RTVSPropertyOp3
 70
     0
102
RTVSPropertyOp4
 70
     0
102
RTVSPropertyOp5
 70
     0
102
RTVSPropertyOp6
 70
     0
102
RTVSPropertyOp7
 70
     0
102
RTVSPropertyOp8
 70
     0
102
RTVSPropertyOp9
 70
     0
102
RTVSPropertyOp10
 70
     0
102
RTVSPropertyOp11
 70
     0
102
RTVSPropertyOp12
 70
     0
102
RTVSPropertyOp13
 70
     0
102
RTVSPropertyOp14
 70
     2
102
RTVSPropertyOp15
 70
     0
102
RTVSPropertyOp16
 70
     0
102
RTVSPropertyOp17
 70
     0
102
RTVSPropertyOp18
 70
     0
102
RTVSPropertyOp19
 70
     0
102
RTVSPropertyOp20
 70
     0
102
RTVSPropertyOp21
 70
     0
102
RTVSPropertyOp22
 70
     0
102
RTVSPropertyOp23
 70
     0
102
RTVSPropertyOp24
 70
     0
102
RTVSPropertyOp25
 70
     0
102
RTVSPropertyOp26
 70
     0
102
RTVSPropertyOp27
 70
     0
102
RTVSPropertyOp28
 70
     0
102
RTVSPropertyOp29
 70
     0
102
RTVSPropertyOp30
 70
     0
102
RTVSPropertyOp31
 70
     0
102
RTVSPropertyOp32
 70
     0
102
RTVSPropertyOp33
 70
     0
102
RTVSPropertyOp34
 70
     0
102
RTVSPropertyOp35
 70
     0
102
RTVSPropertyOp36
 70
     0
102
RTVSPropertyOp37
 70
     0
102
RTVSPropertyOp38
 70
     0
102
RTVSPropertyOp39
 70
     0
102
RTVSPropertyOp40
 70
     0
102
RTVSPropertyOp41
 70
     0
102
RTVSPropertyOp42
 70
     0
102
RTVSPropertyOp43
 70
     0
102
RTVSPropertyOp44
 70
     0
102
RTVSPropertyOp45
 70
     0
102
RTVSPropertyOp46
 70
     0
102
RTVSPropertyOp47
 70
     0
102
RTVSPropertyOp48
 70
     0
102
RTVSPropertyOp49
 70
     0
102
RTVSPropertyOp50
 70
     0
102
RTVSPropertyOp51
 70
     0
102
RTVSPropertyOp52
 70
     0
102
RTVSPropertyOp53
 70
     0
102
RTVSPropertyOp54
 70
     0
102
RTVSPropertyOp55
 70
     0
102
RTVSPropertyOp56
 70
     0
102
RTVSPropertyOp57
 70
     0
102
RTVSPost2010Prop28
280
     0
102
RTVSPost2010PropOp28
 70
     0
102
RTVSPost2010Prop29
280
     1
102
RTVSPost2010PropOp29
 70
     0
102
RTVSPost2010Prop30
280
     1
102
RTVSPost2010PropOp30
 70
     0
102
RTVSPost2010Prop31
280
     0
102
RTVSPost2010PropOp31
 70
     0
102
RTVSPost2010Prop32
280
     0
102
RTVSPost2010PropOp32
 70
     0
102
RTVSPost2010Prop33
280
     0
102
RTVSPost2010PropOp33
 70
     0
102
RTVSPost2010Prop34
280
     0
102
RTVSPost2010PropOp34
 70
     0
102
RTVSPost2010Prop35
280
     0
102
RTVSPost2010PropOp35
 70
     0
102
RTVSPost2010Prop36
280
     0
102
RTVSPost2010PropOp36
 70
     0
102
RTVSPost2010Prop37
 90
       50
102
RTVSPost2010PropOp37
 70
     0
102
RTVSPost2010Prop38
140
0.0
102
RTVSPost2010PropOp38
 70
     0
102
RTVSPost2010Prop39
140
1.0
102
RTVSPost2010PropOp39
 70
     0
102
RTVSPost2010Prop40
 90
        0
102
RTVSPost2010PropOp40
 70
     0
102
RTVSPost2010Prop41ColorIndex
 90
       18
102
RTVSPost2010Prop41ColorRGB
 90
        0
102
RTVSPost2010PropOp41
 70
     0
102
RTVSPost2010Prop42
 90
       50
102
RTVSPost2010PropOp42
 70
     0
102
RTVSPost2010Prop43
 90
        3
102
RTVSPost2010PropOp43
 70
     0
102
RTVSPost2010Prop44ColorIndex
 90
        5
102
RTVSPost2010Prop44ColorRGB
 90
      255
102
RTVSPost2010PropOp44
 70
     0
102
RTVSPost2010Prop45
280
     0
102
RTVSPost2010PropOp45
 70
     0
102
RTVSPost2010Prop46
 90
       50
102
RTVSPost2010PropOp46
 70
     0
102
RTVSPost2010Prop47
 90
       50
102
RTVSPost2010PropOp47
 70
     0
102
RTVSPost2010Prop48
 90
       50
102
RTVSPost2010PropOp48
 70
     0
102
RTVSPost2010Prop49
280
     0
102
RTVSPost2010PropOp49
 70
     0
102
RTVSPost2010Prop50
 90
       50
102
RTVSPost2010PropOp50
 70
     0
102
RTVSPost2010Prop51ColorIndex
 90
      256
102
RTVSPost2010Prop51ColorRGB
 90
-16777216
102
RTVSPost2010PropOp51
 70
     0
102
RTVSPost2010Prop52
140
1.0
102
RTVSPost2010PropOp52
 70
     0
102
RTVSPost2010Prop53
 90
        2
102
RTVSPost2010PropOp53
 70
     0
102
RTVSPost2010Prop54
  1
strokes_ogs.tif
102
RTVSPost2010PropOp54
 70
     0
102
RTVSPost2010Prop55
280
     0
102
RTVSPost2010PropOp55
 70
     0
102
RTVSPost2010Prop56
140
1.0
102
RTVSPost2010PropOp56
 70
     0
102
RTVSPost2010Prop57
140
1.0
102
RTVSPost2010PropOp57
 70
     0
  0
XRECORD
  5
317
102
{ACAD_REACTORS
330
316
102
}
330
316
100
AcDbXrecord
280
     1
102
RTVSPropertyOp0
 70
     1
102
RTVSPropertyOp1
 70
     1
102
RTVSPropertyOp2
 70
     1
102
RTVSPropertyOp3
 70
     1
102
RTVSPropertyOp4
 70
     1
102
RTVSPropertyOp5
 70
     1
102
RTVSPropertyOp6
 70
     1
102
RTVSPropertyOp7
 70
     1
102
RTVSPropertyOp8
 70
     1
102
RTVSPropertyOp9
 70
     1
102
RTVSPropertyOp10
 70
     1
102
RTVSPropertyOp11
 70
     1
102
RTVSPropertyOp12
 70
     1
102
RTVSPropertyOp13
 70
     1
102
RTVSPropertyOp14
 70
     1
102
RTVSPropertyOp15
 70
     1
102
RTVSPropertyOp16
 70
     1
102
RTVSPropertyOp17
 70
     1
102
RTVSPropertyOp18
 70
     1
102
RTVSPropertyOp19
 70
     1
102
RTVSPropertyOp20
 70
     1
102
RTVSPropertyOp21
 70
     1
102
RTVSPropertyOp22
 70
     1
102
RTVSPropertyOp23
 70
     1
102
RTVSPropertyOp24
 70
     1
102
RTVSPropertyOp25
 70
     1
102
RTVSPropertyOp26
 70
     1
102
RTVSPropertyOp27
 70
     1
102
RTVSPropertyOp28
 70
     1
102
RTVSPropertyOp29
 70
     1
102
RTVSPropertyOp30
 70
     1
102
RTVSPropertyOp31
 70
     1
102
RTVSPropertyOp32
 70
     1
102
RTVSPropertyOp33
 70
     1
102
RTVSPropertyOp34
 70
     1
102
RTVSPropertyOp35
 70
     1
102
RTVSPropertyOp36
 70
     1
102
RTVSPropertyOp37
 70
     1
102
RTVSPropertyOp38
 70
     1
102
RTVSPropertyOp39
 70
     1
102
RTVSPropertyOp40
 70
     1
102
RTVSPropertyOp41
 70
     1
102
RTVSPropertyOp42
 70
     1
102
RTVSPropertyOp43
 70
     1
102
RTVSPropertyOp44
 70
     1
102
RTVSPropertyOp45
 70
     1
102
RTVSPropertyOp46
 70
     1
102
RTVSPropertyOp47
 70
     1
102
RTVSPropertyOp48
 70
     1
102
RTVSPropertyOp49
 70
     1
102
RTVSPropertyOp50
 70
     1
102
RTVSPropertyOp51
 70
     0
102
RTVSPropertyOp52
 70
     0
102
RTVSPropertyOp53
 70
     1
102
RTVSPropertyOp54
 70
     1
102
RTVSPropertyOp55
 70
     1
102
RTVSPropertyOp56
 70
     1
102
RTVSPropertyOp57
 70
     1
102
RTVSPost2010Prop28
280
     0
102
RTVSPost2010PropOp28
 70
     1
102
RTVSPost2010Prop29
280
     1
102
RTVSPost2010PropOp29
 70
     1
102
RTVSPost2010Prop30
280
     1
102
RTVSPost2010PropOp30
 70
     1
102
RTVSPost2010Prop31
280
     0
102
RTVSPost2010PropOp31
 70
     1
102
RTVSPost2010Prop32
280
     0
102
RTVSPost2010PropOp32
 70
     1
102
RTVSPost2010Prop33
280
     0
102
RTVSPost2010PropOp33
 70
     1
102
RTVSPost2010Prop34
280
     0
102
RTVSPost2010PropOp34
 70
     1
102
RTVSPost2010Prop35
280
     0
102
RTVSPost2010PropOp35
 70
     1
102
RTVSPost2010Prop36
280
     0
102
RTVSPost2010PropOp36
 70
     1
102
RTVSPost2010Prop37
 90
       50
102
RTVSPost2010PropOp37
 70
     1
102
RTVSPost2010Prop38
140
0.0
102
RTVSPost2010PropOp38
 70
     1
102
RTVSPost2010Prop39
140
1.0
102
RTVSPost2010PropOp39
 70
     1
102
RTVSPost2010Prop40
 90
        0
102
RTVSPost2010PropOp40
 70
     1
102
RTVSPost2010Prop41ColorIndex
 90
       18
102
RTVSPost2010Prop41ColorRGB
 90
        0
102
RTVSPost2010PropOp41
 70
     1
102
RTVSPost2010Prop42
 90
       50
102
RTVSPost2010PropOp42
 70
     1
102
RTVSPost2010Prop43
 90
        3
102
RTVSPost2010PropOp43
 70
     1
102
RTVSPost2010Prop44ColorIndex
 90
        5
102
RTVSPost2010Prop44ColorRGB
 90
      255
102
RTVSPost2010PropOp44
 70
     1
102
RTVSPost2010Prop45
280
     0
102
RTVSPost2010PropOp45
 70
     1
102
RTVSPost2010Prop46
 90
       50
102
RTVSPost2010PropOp46
 70
     1
102
RTVSPost2010Prop47
 90
       50
102
RTVSPost2010PropOp47
 70
     1
102
RTVSPost2010Prop48
 90
       50
102
RTVSPost2010PropOp48
 70
     1
102
RTVSPost2010Prop49
280
     0
102
RTVSPost2010PropOp49
 70
     1
102
RTVSPost2010Prop50
 90
       50
102
RTVSPost2010PropOp50
 70
     1
102
RTVSPost2010Prop51ColorIndex
 90
      256
102
RTVSPost2010Prop51ColorRGB
 90
-16777216
102
RTVSPost2010PropOp51
 70
     0
102
RTVSPost2010Prop52
140
1.0
102
RTVSPost2010PropOp52
 70
     0
102
RTVSPost2010Prop53
 90
        2
102
RTVSPost2010PropOp53
 70
     1
102
RTVSPost2010Prop54
  1
strokes_ogs.tif
102
RTVSPost2010PropOp54
 70
     1
102
RTVSPost2010Prop55
280
     0
102
RTVSPost2010PropOp55
 70
     1
102
RTVSPost2010Prop56
140
1.0
102
RTVSPost2010PropOp56
 70
     1
102
RTVSPost2010Prop57
140
1.0
102
RTVSPost2010PropOp57
 70
     1
  0
XRECORD
  5
2FB
102
{ACAD_REACTORS
330
2FA
102
}
330
2FA
100
AcDbXrecord
280
     1
102
RTVSPropertyOp0
 70
     1
102
RTVSPropertyOp1
 70
     1
102
RTVSPropertyOp2
 70
     1
102
RTVSPropertyOp3
 70
     1
102
RTVSPropertyOp4
 70
     1
102
RTVSPropertyOp5
 70
     1
102
RTVSPropertyOp6
 70
     1
102
RTVSPropertyOp7
 70
     1
102
RTVSPropertyOp8
 70
     1
102
RTVSPropertyOp9
 70
     1
102
RTVSPropertyOp10
 70
     1
102
RTVSPropertyOp11
 70
     1
102
RTVSPropertyOp12
 70
     1
102
RTVSPropertyOp13
 70
     1
102
RTVSPropertyOp14
 70
     1
102
RTVSPropertyOp15
 70
     1
102
RTVSPropertyOp16
 70
     1
102
RTVSPropertyOp17
 70
     1
102
RTVSPropertyOp18
 70
     1
102
RTVSPropertyOp19
 70
     1
102
RTVSPropertyOp20
 70
     1
102
RTVSPropertyOp21
 70
     1
102
RTVSPropertyOp22
 70
     1
102
RTVSPropertyOp23
 70
     1
102
RTVSPropertyOp24
 70
     1
102
RTVSPropertyOp25
 70
     1
102
RTVSPropertyOp26
 70
     1
102
RTVSPropertyOp27
 70
     1
102
RTVSPropertyOp28
 70
     1
102
RTVSPropertyOp29
 70
     1
102
RTVSPropertyOp30
 70
     1
102
RTVSPropertyOp31
 70
     1
102
RTVSPropertyOp32
 70
     1
102
RTVSPropertyOp33
 70
     1
102
RTVSPropertyOp34
 70
     1
102
RTVSPropertyOp35
 70
     1
102
RTVSPropertyOp36
 70
     1
102
RTVSPropertyOp37
 70
     1
102
RTVSPropertyOp38
 70
     1
102
RTVSPropertyOp39
 70
     1
102
RTVSPropertyOp40
 70
     1
102
RTVSPropertyOp41
 70
     1
102
RTVSPropertyOp42
 70
     1
102
RTVSPropertyOp43
 70
     1
102
RTVSPropertyOp44
 70
     1
102
RTVSPropertyOp45
 70
     1
102
RTVSPropertyOp46
 70
     1
102
RTVSPropertyOp47
 70
     1
102
RTVSPropertyOp48
 70
     1
102
RTVSPropertyOp49
 70
     1
102
RTVSPropertyOp50
 70
     1
102
RTVSPropertyOp51
 70
     0
102
RTVSPropertyOp52
 70
     0
102
RTVSPropertyOp53
 70
     1
102
RTVSPropertyOp54
 70
     1
102
RTVSPropertyOp55
 70
     1
102
RTVSPropertyOp56
 70
     1
102
RTVSPropertyOp57
 70
     1
102
RTVSPost2010Prop28
280
     0
102
RTVSPost2010PropOp28
 70
     1
102
RTVSPost2010Prop29
280
     1
102
RTVSPost2010PropOp29
 70
     1
102
RTVSPost2010Prop30
280
     1
102
RTVSPost2010PropOp30
 70
     1
102
RTVSPost2010Prop31
280
     0
102
RTVSPost2010PropOp31
 70
     1
102
RTVSPost2010Prop32
280
     0
102
RTVSPost2010PropOp32
 70
     1
102
RTVSPost2010Prop33
280
     0
102
RTVSPost2010PropOp33
 70
     1
102
RTVSPost2010Prop34
280
     0
102
RTVSPost2010PropOp34
 70
     1
102
RTVSPost2010Prop35
280
     0
102
RTVSPost2010PropOp35
 70
     1
102
RTVSPost2010Prop36
280
     0
102
RTVSPost2010PropOp36
 70
     1
102
RTVSPost2010Prop37
 90
       50
102
RTVSPost2010PropOp37
 70
     1
102
RTVSPost2010Prop38
140
0.0
102
RTVSPost2010PropOp38
 70
     1
102
RTVSPost2010Prop39
140
1.0
102
RTVSPost2010PropOp39
 70
     1
102
RTVSPost2010Prop40
 90
        0
102
RTVSPost2010PropOp40
 70
     1
102
RTVSPost2010Prop41ColorIndex
 90
       18
102
RTVSPost2010Prop41ColorRGB
 90
        0
102
RTVSPost2010PropOp41
 70
     1
102
RTVSPost2010Prop42
 90
       50
102
RTVSPost2010PropOp42
 70
     1
102
RTVSPost2010Prop43
 90
        3
102
RTVSPost2010PropOp43
 70
     1
102
RTVSPost2010Prop44ColorIndex
 90
        5
102
RTVSPost2010Prop44ColorRGB
 90
      255
102
RTVSPost2010PropOp44
 70
     1
102
RTVSPost2010Prop45
280
     0
102
RTVSPost2010PropOp45
 70
     1
102
RTVSPost2010Prop46
 90
       50
102
RTVSPost2010PropOp46
 70
     1
102
RTVSPost2010Prop47
 90
       50
102
RTVSPost2010PropOp47
 70
     1
102
RTVSPost2010Prop48
 90
       50
102
RTVSPost2010PropOp48
 70
     1
102
RTVSPost2010Prop49
280
     0
102
RTVSPost2010PropOp49
 70
     1
102
RTVSPost2010Prop50
 90
       50
102
RTVSPost2010PropOp50
 70
     1
102
RTVSPost2010Prop51ColorIndex
 90
      256
102
RTVSPost2010Prop51ColorRGB
 90
-16777216
102
RTVSPost2010PropOp51
 70
     0
102
RTVSPost2010Prop52
140
1.0
102
RTVSPost2010PropOp52
 70
     0
102
RTVSPost2010Prop53
 90
        2
102
RTVSPost2010PropOp53
 70
     1
102
RTVSPost2010Prop54
  1
strokes_ogs.tif
102
RTVSPost2010PropOp54
 70
     1
102
RTVSPost2010Prop55
280
     0
102
RTVSPost2010PropOp55
 70
     1
102
RTVSPost2010Prop56
140
1.0
102
RTVSPost2010PropOp56
 70
     1
102
RTVSPost2010Prop57
140
1.0
102
RTVSPost2010PropOp57
 70
     1
  0
XRECORD
  5
2FD
102
{ACAD_REACTORS
330
2FC
102
}
330
2FC
100
AcDbXrecord
280
     1
102
RTVSPropertyOp0
 70
     1
102
RTVSPropertyOp1
 70
     1
102
RTVSPropertyOp2
 70
     1
102
RTVSPropertyOp3
 70
     1
102
RTVSPropertyOp4
 70
     1
102
RTVSPropertyOp5
 70
     1
102
RTVSPropertyOp6
 70
     1
102
RTVSPropertyOp7
 70
     1
102
RTVSPropertyOp8
 70
     1
102
RTVSPropertyOp9
 70
     1
102
RTVSPropertyOp10
 70
     1
102
RTVSPropertyOp11
 70
     1
102
RTVSPropertyOp12
 70
     1
102
RTVSPropertyOp13
 70
     1
102
RTVSPropertyOp14
 70
     1
102
RTVSPropertyOp15
 70
     1
102
RTVSPropertyOp16
 70
     1
102
RTVSPropertyOp17
 70
     1
102
RTVSPropertyOp18
 70
     1
102
RTVSPropertyOp19
 70
     1
102
RTVSPropertyOp20
 70
     1
102
RTVSPropertyOp21
 70
     1
102
RTVSPropertyOp22
 70
     1
102
RTVSPropertyOp23
 70
     1
102
RTVSPropertyOp24
 70
     1
102
RTVSPropertyOp25
 70
     1
102
RTVSPropertyOp26
 70
     1
102
RTVSPropertyOp27
 70
     1
102
RTVSPropertyOp28
 70
     1
102
RTVSPropertyOp29
 70
     1
102
RTVSPropertyOp30
 70
     1
102
RTVSPropertyOp31
 70
     1
102
RTVSPropertyOp32
 70
     1
102
RTVSPropertyOp33
 70
     1
102
RTVSPropertyOp34
 70
     1
102
RTVSPropertyOp35
 70
     1
102
RTVSPropertyOp36
 70
     1
102
RTVSPropertyOp37
 70
     1
102
RTVSPropertyOp38
 70
     1
102
RTVSPropertyOp39
 70
     1
102
RTVSPropertyOp40
 70
     1
102
RTVSPropertyOp41
 70
     1
102
RTVSPropertyOp42
 70
     1
102
RTVSPropertyOp43
 70
     1
102
RTVSPropertyOp44
 70
     1
102
RTVSPropertyOp45
 70
     1
102
RTVSPropertyOp46
 70
     1
102
RTVSPropertyOp47
 70
     1
102
RTVSPropertyOp48
 70
     1
102
RTVSPropertyOp49
 70
     1
102
RTVSPropertyOp50
 70
     1
102
RTVSPropertyOp51
 70
     0
102
RTVSPropertyOp52
 70
     0
102
RTVSPropertyOp53
 70
     1
102
RTVSPropertyOp54
 70
     1
102
RTVSPropertyOp55
 70
     1
102
RTVSPropertyOp56
 70
     1
102
RTVSPropertyOp57
 70
     1
102
RTVSPost2010Prop28
280
     0
102
RTVSPost2010PropOp28
 70
     1
102
RTVSPost2010Prop29
280
     1
102
RTVSPost2010PropOp29
 70
     1
102
RTVSPost2010Prop30
280
     1
102
RTVSPost2010PropOp30
 70
     1
102
RTVSPost2010Prop31
280
     0
102
RTVSPost2010PropOp31
 70
     1
102
RTVSPost2010Prop32
280
     0
102
RTVSPost2010PropOp32
 70
     1
102
RTVSPost2010Prop33
280
     0
102
RTVSPost2010PropOp33
 70
     1
102
RTVSPost2010Prop34
280
     0
102
RTVSPost2010PropOp34
 70
     1
102
RTVSPost2010Prop35
280
     0
102
RTVSPost2010PropOp35
 70
     1
102
RTVSPost2010Prop36
280
     0
102
RTVSPost2010PropOp36
 70
     1
102
RTVSPost2010Prop37
 90
       50
102
RTVSPost2010PropOp37
 70
     1
102
RTVSPost2010Prop38
140
0.0
102
RTVSPost2010PropOp38
 70
     1
102
RTVSPost2010Prop39
140
1.0
102
RTVSPost2010PropOp39
 70
     1
102
RTVSPost2010Prop40
 90
        0
102
RTVSPost2010PropOp40
 70
     1
102
RTVSPost2010Prop41ColorIndex
 90
       18
102
RTVSPost2010Prop41ColorRGB
 90
        0
102
RTVSPost2010PropOp41
 70
     1
102
RTVSPost2010Prop42
 90
       50
102
RTVSPost2010PropOp42
 70
     1
102
RTVSPost2010Prop43
 90
        3
102
RTVSPost2010PropOp43
 70
     1
102
RTVSPost2010Prop44ColorIndex
 90
        5
102
RTVSPost2010Prop44ColorRGB
 90
      255
102
RTVSPost2010PropOp44
 70
     1
102
RTVSPost2010Prop45
280
     0
102
RTVSPost2010PropOp45
 70
     1
102
RTVSPost2010Prop46
 90
       50
102
RTVSPost2010PropOp46
 70
     1
102
RTVSPost2010Prop47
 90
       50
102
RTVSPost2010PropOp47
 70
     1
102
RTVSPost2010Prop48
 90
       50
102
RTVSPost2010PropOp48
 70
     1
102
RTVSPost2010Prop49
280
     0
102
RTVSPost2010PropOp49
 70
     1
102
RTVSPost2010Prop50
 90
       50
102
RTVSPost2010PropOp50
 70
     1
102
RTVSPost2010Prop51ColorIndex
 90
      256
102
RTVSPost2010Prop51ColorRGB
 90
-16777216
102
RTVSPost2010PropOp51
 70
     0
102
RTVSPost2010Prop52
140
1.0
102
RTVSPost2010PropOp52
 70
     0
102
RTVSPost2010Prop53
 90
        2
102
RTVSPost2010PropOp53
 70
     1
102
RTVSPost2010Prop54
  1
strokes_ogs.tif
102
RTVSPost2010PropOp54
 70
     1
102
RTVSPost2010Prop55
280
     0
102
RTVSPost2010PropOp55
 70
     1
102
RTVSPost2010Prop56
140
1.0
102
RTVSPost2010PropOp56
 70
     1
102
RTVSPost2010Prop57
140
1.0
102
RTVSPost2010PropOp57
 70
     1
  0
XRECORD
  5
2FF
102
{ACAD_REACTORS
330
2FE
102
}
330
2FE
100
AcDbXrecord
280
     1
102
RTVSPropertyOp0
 70
     1
102
RTVSPropertyOp1
 70
     1
102
RTVSPropertyOp2
 70
     1
102
RTVSPropertyOp3
 70
     1
102
RTVSPropertyOp4
 70
     1
102
RTVSPropertyOp5
 70
     1
102
RTVSPropertyOp6
 70
     1
102
RTVSPropertyOp7
 70
     1
102
RTVSPropertyOp8
 70
     1
102
RTVSPropertyOp9
 70
     1
102
RTVSPropertyOp10
 70
     1
102
RTVSPropertyOp11
 70
     1
102
RTVSPropertyOp12
 70
     1
102
RTVSPropertyOp13
 70
     1
102
RTVSPropertyOp14
 70
     1
102
RTVSPropertyOp15
 70
     1
102
RTVSPropertyOp16
 70
     1
102
RTVSPropertyOp17
 70
     1
102
RTVSPropertyOp18
 70
     1
102
RTVSPropertyOp19
 70
     1
102
RTVSPropertyOp20
 70
     1
102
RTVSPropertyOp21
 70
     1
102
RTVSPropertyOp22
 70
     1
102
RTVSPropertyOp23
 70
     1
102
RTVSPropertyOp24
 70
     1
102
RTVSPropertyOp25
 70
     1
102
RTVSPropertyOp26
 70
     1
102
RTVSPropertyOp27
 70
     1
102
RTVSPropertyOp28
 70
     1
102
RTVSPropertyOp29
 70
     1
102
RTVSPropertyOp30
 70
     1
102
RTVSPropertyOp31
 70
     1
102
RTVSPropertyOp32
 70
     1
102
RTVSPropertyOp33
 70
     1
102
RTVSPropertyOp34
 70
     1
102
RTVSPropertyOp35
 70
     1
102
RTVSPropertyOp36
 70
     1
102
RTVSPropertyOp37
 70
     1
102
RTVSPropertyOp38
 70
     1
102
RTVSPropertyOp39
 70
     1
102
RTVSPropertyOp40
 70
     1
102
RTVSPropertyOp41
 70
     1
102
RTVSPropertyOp42
 70
     1
102
RTVSPropertyOp43
 70
     1
102
RTVSPropertyOp44
 70
     1
102
RTVSPropertyOp45
 70
     1
102
RTVSPropertyOp46
 70
     1
102
RTVSPropertyOp47
 70
     1
102
RTVSPropertyOp48
 70
     1
102
RTVSPropertyOp49
 70
     1
102
RTVSPropertyOp50
 70
     1
102
RTVSPropertyOp51
 70
     0
102
RTVSPropertyOp52
 70
     0
102
RTVSPropertyOp53
 70
     1
102
RTVSPropertyOp54
 70
     1
102
RTVSPropertyOp55
 70
     1
102
RTVSPropertyOp56
 70
     1
102
RTVSPropertyOp57
 70
     1
102
RTVSPost2010Prop28
280
     0
102
RTVSPost2010PropOp28
 70
     1
102
RTVSPost2010Prop29
280
     1
102
RTVSPost2010PropOp29
 70
     1
102
RTVSPost2010Prop30
280
     1
102
RTVSPost2010PropOp30
 70
     1
102
RTVSPost2010Prop31
280
     0
102
RTVSPost2010PropOp31
 70
     1
102
RTVSPost2010Prop32
280
     0
102
RTVSPost2010PropOp32
 70
     1
102
RTVSPost2010Prop33
280
     0
102
RTVSPost2010PropOp33
 70
     1
102
RTVSPost2010Prop34
280
     0
102
RTVSPost2010PropOp34
 70
     1
102
RTVSPost2010Prop35
280
     0
102
RTVSPost2010PropOp35
 70
     1
102
RTVSPost2010Prop36
280
     0
102
RTVSPost2010PropOp36
 70
     1
102
RTVSPost2010Prop37
 90
       50
102
RTVSPost2010PropOp37
 70
     1
102
RTVSPost2010Prop38
140
0.0
102
RTVSPost2010PropOp38
 70
     1
102
RTVSPost2010Prop39
140
1.0
102
RTVSPost2010PropOp39
 70
     1
102
RTVSPost2010Prop40
 90
        0
102
RTVSPost2010PropOp40
 70
     1
102
RTVSPost2010Prop41ColorIndex
 90
       18
102
RTVSPost2010Prop41ColorRGB
 90
        0
102
RTVSPost2010PropOp41
 70
     1
102
RTVSPost2010Prop42
 90
       50
102
RTVSPost2010PropOp42
 70
     1
102
RTVSPost2010Prop43
 90
        3
102
RTVSPost2010PropOp43
 70
     1
102
RTVSPost2010Prop44ColorIndex
 90
        5
102
RTVSPost2010Prop44ColorRGB
 90
      255
102
RTVSPost2010PropOp44
 70
     1
102
RTVSPost2010Prop45
280
     0
102
RTVSPost2010PropOp45
 70
     1
102
RTVSPost2010Prop46
 90
       50
102
RTVSPost2010PropOp46
 70
     1
102
RTVSPost2010Prop47
 90
       50
102
RTVSPost2010PropOp47
 70
     1
102
RTVSPost2010Prop48
 90
       50
102
RTVSPost2010PropOp48
 70
     1
102
RTVSPost2010Prop49
280
     0
102
RTVSPost2010PropOp49
 70
     1
102
RTVSPost2010Prop50
 90
       50
102
RTVSPost2010PropOp50
 70
     1
102
RTVSPost2010Prop51ColorIndex
 90
      256
102
RTVSPost2010Prop51ColorRGB
 90
-16777216
102
RTVSPost2010PropOp51
 70
     0
102
RTVSPost2010Prop52
140
1.0
102
RTVSPost2010PropOp52
 70
     0
102
RTVSPost2010Prop53
 90
        2
102
RTVSPost2010PropOp53
 70
     1
102
RTVSPost2010Prop54
  1
strokes_ogs.tif
102
RTVSPost2010PropOp54
 70
     1
102
RTVSPost2010Prop55
280
     0
102
RTVSPost2010PropOp55
 70
     1
102
RTVSPost2010Prop56
140
1.0
102
RTVSPost2010PropOp56
 70
     1
102
RTVSPost2010Prop57
140
1.0
102
RTVSPost2010PropOp57
 70
     1
  0
XRECORD
  5
301
102
{ACAD_REACTORS
330
300
102
}
330
300
100
AcDbXrecord
280
     1
102
RTVSPropertyOp0
 70
     1
102
RTVSPropertyOp1
 70
     1
102
RTVSPropertyOp2
 70
     1
102
RTVSPropertyOp3
 70
     1
102
RTVSPropertyOp4
 70
     1
102
RTVSPropertyOp5
 70
     1
102
RTVSPropertyOp6
 70
     1
102
RTVSPropertyOp7
 70
     1
102
RTVSPropertyOp8
 70
     1
102
RTVSPropertyOp9
 70
     1
102
RTVSPropertyOp10
 70
     1
102
RTVSPropertyOp11
 70
     1
102
RTVSPropertyOp12
 70
     1
102
RTVSPropertyOp13
 70
     1
102
RTVSPropertyOp14
 70
     1
102
RTVSPropertyOp15
 70
     1
102
RTVSPropertyOp16
 70
     1
102
RTVSPropertyOp17
 70
     1
102
RTVSPropertyOp18
 70
     1
102
RTVSPropertyOp19
 70
     1
102
RTVSPropertyOp20
 70
     1
102
RTVSPropertyOp21
 70
     1
102
RTVSPropertyOp22
 70
     1
102
RTVSPropertyOp23
 70
     1
102
RTVSPropertyOp24
 70
     1
102
RTVSPropertyOp25
 70
     1
102
RTVSPropertyOp26
 70
     1
102
RTVSPropertyOp27
 70
     1
102
RTVSPropertyOp28
 70
     1
102
RTVSPropertyOp29
 70
     1
102
RTVSPropertyOp30
 70
     1
102
RTVSPropertyOp31
 70
     1
102
RTVSPropertyOp32
 70
     1
102
RTVSPropertyOp33
 70
     1
102
RTVSPropertyOp34
 70
     1
102
RTVSPropertyOp35
 70
     1
102
RTVSPropertyOp36
 70
     1
102
RTVSPropertyOp37
 70
     1
102
RTVSPropertyOp38
 70
     1
102
RTVSPropertyOp39
 70
     1
102
RTVSPropertyOp40
 70
     1
102
RTVSPropertyOp41
 70
     1
102
RTVSPropertyOp42
 70
     1
102
RTVSPropertyOp43
 70
     1
102
RTVSPropertyOp44
 70
     1
102
RTVSPropertyOp45
 70
     1
102
RTVSPropertyOp46
 70
     1
102
RTVSPropertyOp47
 70
     1
102
RTVSPropertyOp48
 70
     1
102
RTVSPropertyOp49
 70
     1
102
RTVSPropertyOp50
 70
     1
102
RTVSPropertyOp51
 70
     0
102
RTVSPropertyOp52
 70
     0
102
RTVSPropertyOp53
 70
     1
102
RTVSPropertyOp54
 70
     1
102
RTVSPropertyOp55
 70
     1
102
RTVSPropertyOp56
 70
     1
102
RTVSPropertyOp57
 70
     1
102
RTVSPost2010Prop28
280
     0
102
RTVSPost2010PropOp28
 70
     1
102
RTVSPost2010Prop29
280
     1
102
RTVSPost2010PropOp29
 70
     1
102
RTVSPost2010Prop30
280
     1
102
RTVSPost2010PropOp30
 70
     1
102
RTVSPost2010Prop31
280
     0
102
RTVSPost2010PropOp31
 70
     1
102
RTVSPost2010Prop32
280
     0
102
RTVSPost2010PropOp32
 70
     1
102
RTVSPost2010Prop33
280
     0
102
RTVSPost2010PropOp33
 70
     1
102
RTVSPost2010Prop34
280
     0
102
RTVSPost2010PropOp34
 70
     1
102
RTVSPost2010Prop35
280
     0
102
RTVSPost2010PropOp35
 70
     1
102
RTVSPost2010Prop36
280
     0
102
RTVSPost2010PropOp36
 70
     1
102
RTVSPost2010Prop37
 90
       50
102
RTVSPost2010PropOp37
 70
     1
102
RTVSPost2010Prop38
140
0.0
102
RTVSPost2010PropOp38
 70
     1
102
RTVSPost2010Prop39
140
1.0
102
RTVSPost2010PropOp39
 70
     1
102
RTVSPost2010Prop40
 90
        0
102
RTVSPost2010PropOp40
 70
     1
102
RTVSPost2010Prop41ColorIndex
 90
       18
102
RTVSPost2010Prop41ColorRGB
 90
        0
102
RTVSPost2010PropOp41
 70
     1
102
RTVSPost2010Prop42
 90
       50
102
RTVSPost2010PropOp42
 70
     1
102
RTVSPost2010Prop43
 90
        3
102
RTVSPost2010PropOp43
 70
     1
102
RTVSPost2010Prop44ColorIndex
 90
        5
102
RTVSPost2010Prop44ColorRGB
 90
      255
102
RTVSPost2010PropOp44
 70
     1
102
RTVSPost2010Prop45
280
     0
102
RTVSPost2010PropOp45
 70
     1
102
RTVSPost2010Prop46
 90
       50
102
RTVSPost2010PropOp46
 70
     1
102
RTVSPost2010Prop47
 90
       50
102
RTVSPost2010PropOp47
 70
     1
102
RTVSPost2010Prop48
 90
       50
102
RTVSPost2010PropOp48
 70
     1
102
RTVSPost2010Prop49
280
     0
102
RTVSPost2010PropOp49
 70
     1
102
RTVSPost2010Prop50
 90
       50
102
RTVSPost2010PropOp50
 70
     1
102
RTVSPost2010Prop51ColorIndex
 90
      256
102
RTVSPost2010Prop51ColorRGB
 90
-16777216
102
RTVSPost2010PropOp51
 70
     0
102
RTVSPost2010Prop52
140
1.0
102
RTVSPost2010PropOp52
 70
     0
102
RTVSPost2010Prop53
 90
        2
102
RTVSPost2010PropOp53
 70
     1
102
RTVSPost2010Prop54
  1
strokes_ogs.tif
102
RTVSPost2010PropOp54
 70
     1
102
RTVSPost2010Prop55
280
     0
102
RTVSPost2010PropOp55
 70
     1
102
RTVSPost2010Prop56
140
1.0
102
RTVSPost2010PropOp56
 70
     1
102
RTVSPost2010Prop57
140
1.0
102
RTVSPost2010PropOp57
 70
     1
  0
XRECORD
  5
307
102
{ACAD_REACTORS
330
306
102
}
330
306
100
AcDbXrecord
280
     1
102
RTVSPropertyOp0
 70
     1
102
RTVSPropertyOp1
 70
     1
102
RTVSPropertyOp2
 70
     1
102
RTVSPropertyOp3
 70
     1
102
RTVSPropertyOp4
 70
     1
102
RTVSPropertyOp5
 70
     1
102
RTVSPropertyOp6
 70
     1
102
RTVSPropertyOp7
 70
     1
102
RTVSPropertyOp8
 70
     1
102
RTVSPropertyOp9
 70
     1
102
RTVSPropertyOp10
 70
     1
102
RTVSPropertyOp11
 70
     1
102
RTVSPropertyOp12
 70
     1
102
RTVSPropertyOp13
 70
     1
102
RTVSPropertyOp14
 70
     1
102
RTVSPropertyOp15
 70
     1
102
RTVSPropertyOp16
 70
     1
102
RTVSPropertyOp17
 70
     1
102
RTVSPropertyOp18
 70
     1
102
RTVSPropertyOp19
 70
     1
102
RTVSPropertyOp20
 70
     1
102
RTVSPropertyOp21
 70
     1
102
RTVSPropertyOp22
 70
     1
102
RTVSPropertyOp23
 70
     1
102
RTVSPropertyOp24
 70
     1
102
RTVSPropertyOp25
 70
     1
102
RTVSPropertyOp26
 70
     1
102
RTVSPropertyOp27
 70
     1
102
RTVSPropertyOp28
 70
     1
102
RTVSPropertyOp29
 70
     1
102
RTVSPropertyOp30
 70
     1
102
RTVSPropertyOp31
 70
     1
102
RTVSPropertyOp32
 70
     1
102
RTVSPropertyOp33
 70
     1
102
RTVSPropertyOp34
 70
     1
102
RTVSPropertyOp35
 70
     1
102
RTVSPropertyOp36
 70
     1
102
RTVSPropertyOp37
 70
     1
102
RTVSPropertyOp38
 70
     1
102
RTVSPropertyOp39
 70
     1
102
RTVSPropertyOp40
 70
     1
102
RTVSPropertyOp41
 70
     1
102
RTVSPropertyOp42
 70
     1
102
RTVSPropertyOp43
 70
     1
102
RTVSPropertyOp44
 70
     1
102
RTVSPropertyOp45
 70
     1
102
RTVSPropertyOp46
 70
     1
102
RTVSPropertyOp47
 70
     1
102
RTVSPropertyOp48
 70
     1
102
RTVSPropertyOp49
 70
     1
102
RTVSPropertyOp50
 70
     1
102
RTVSPropertyOp51
 70
     0
102
RTVSPropertyOp52
 70
     0
102
RTVSPropertyOp53
 70
     1
102
RTVSPropertyOp54
 70
     1
102
RTVSPropertyOp55
 70
     1
102
RTVSPropertyOp56
 70
     1
102
RTVSPropertyOp57
 70
     1
102
RTVSPost2010Prop28
280
     0
102
RTVSPost2010PropOp28
 70
     1
102
RTVSPost2010Prop29
280
     1
102
RTVSPost2010PropOp29
 70
     1
102
RTVSPost2010Prop30
280
     1
102
RTVSPost2010PropOp30
 70
     1
102
RTVSPost2010Prop31
280
     0
102
RTVSPost2010PropOp31
 70
     1
102
RTVSPost2010Prop32
280
     0
102
RTVSPost2010PropOp32
 70
     1
102
RTVSPost2010Prop33
280
     0
102
RTVSPost2010PropOp33
 70
     1
102
RTVSPost2010Prop34
280
     0
102
RTVSPost2010PropOp34
 70
     1
102
RTVSPost2010Prop35
280
     0
102
RTVSPost2010PropOp35
 70
     1
102
RTVSPost2010Prop36
280
     0
102
RTVSPost2010PropOp36
 70
     1
102
RTVSPost2010Prop37
 90
       50
102
RTVSPost2010PropOp37
 70
     1
102
RTVSPost2010Prop38
140
0.0
102
RTVSPost2010PropOp38
 70
     1
102
RTVSPost2010Prop39
140
1.0
102
RTVSPost2010PropOp39
 70
     1
102
RTVSPost2010Prop40
 90
        0
102
RTVSPost2010PropOp40
 70
     1
102
RTVSPost2010Prop41ColorIndex
 90
       18
102
RTVSPost2010Prop41ColorRGB
 90
        0
102
RTVSPost2010PropOp41
 70
     1
102
RTVSPost2010Prop42
 90
       50
102
RTVSPost2010PropOp42
 70
     1
102
RTVSPost2010Prop43
 90
        3
102
RTVSPost2010PropOp43
 70
     1
102
RTVSPost2010Prop44ColorIndex
 90
        5
102
RTVSPost2010Prop44ColorRGB
 90
      255
102
RTVSPost2010PropOp44
 70
     1
102
RTVSPost2010Prop45
280
     0
102
RTVSPost2010PropOp45
 70
     1
102
RTVSPost2010Prop46
 90
       50
102
RTVSPost2010PropOp46
 70
     1
102
RTVSPost2010Prop47
 90
       50
102
RTVSPost2010PropOp47
 70
     1
102
RTVSPost2010Prop48
 90
       50
102
RTVSPost2010PropOp48
 70
     1
102
RTVSPost2010Prop49
280
     0
102
RTVSPost2010PropOp49
 70
     1
102
RTVSPost2010Prop50
 90
       50
102
RTVSPost2010PropOp50
 70
     1
102
RTVSPost2010Prop51ColorIndex
 90
      256
102
RTVSPost2010Prop51ColorRGB
 90
-16777216
102
RTVSPost2010PropOp51
 70
     0
102
RTVSPost2010Prop52
140
1.0
102
RTVSPost2010PropOp52
 70
     0
102
RTVSPost2010Prop53
 90
        2
102
RTVSPost2010PropOp53
 70
     1
102
RTVSPost2010Prop54
  1
strokes_ogs.tif
102
RTVSPost2010PropOp54
 70
     1
102
RTVSPost2010Prop55
280
     0
102
RTVSPost2010PropOp55
 70
     1
102
RTVSPost2010Prop56
140
1.0
102
RTVSPost2010PropOp56
 70
     1
102
RTVSPost2010Prop57
140
1.0
102
RTVSPost2010PropOp57
 70
     1
  0
XRECORD
  5
31B
102
{ACAD_REACTORS
330
31A
102
}
330
31A
100
AcDbXrecord
280
     1
102
RTVSPropertyOp0
 70
     0
102
RTVSPropertyOp1
 70
     0
102
RTVSPropertyOp2
 70
     0
102
RTVSPropertyOp3
 70
     0
102
RTVSPropertyOp4
 70
     0
102
RTVSPropertyOp5
 70
     0
102
RTVSPropertyOp6
 70
     0
102
RTVSPropertyOp7
 70
     0
102
RTVSPropertyOp8
 70
     0
102
RTVSPropertyOp9
 70
     0
102
RTVSPropertyOp10
 70
     0
102
RTVSPropertyOp11
 70
     0
102
RTVSPropertyOp12
 70
     0
102
RTVSPropertyOp13
 70
     0
102
RTVSPropertyOp14
 70
     2
102
RTVSPropertyOp15
 70
     0
102
RTVSPropertyOp16
 70
     0
102
RTVSPropertyOp17
 70
     0
102
RTVSPropertyOp18
 70
     0
102
RTVSPropertyOp19
 70
     0
102
RTVSPropertyOp20
 70
     0
102
RTVSPropertyOp21
 70
     0
102
RTVSPropertyOp22
 70
     0
102
RTVSPropertyOp23
 70
     0
102
RTVSPropertyOp24
 70
     0
102
RTVSPropertyOp25
 70
     0
102
RTVSPropertyOp26
 70
     0
102
RTVSPropertyOp27
 70
     0
102
RTVSPropertyOp28
 70
     0
102
RTVSPropertyOp29
 70
     0
102
RTVSPropertyOp30
 70
     0
102
RTVSPropertyOp31
 70
     0
102
RTVSPropertyOp32
 70
     0
102
RTVSPropertyOp33
 70
     0
102
RTVSPropertyOp34
 70
     0
102
RTVSPropertyOp35
 70
     0
102
RTVSPropertyOp36
 70
     0
102
RTVSPropertyOp37
 70
     0
102
RTVSPropertyOp38
 70
     0
102
RTVSPropertyOp39
 70
     0
102
RTVSPropertyOp40
 70
     0
102
RTVSPropertyOp41
 70
     0
102
RTVSPropertyOp42
 70
     0
102
RTVSPropertyOp43
 70
     0
102
RTVSPropertyOp44
 70
     0
102
RTVSPropertyOp45
 70
     0
102
RTVSPropertyOp46
 70
     0
102
RTVSPropertyOp47
 70
     0
102
RTVSPropertyOp48
 70
     0
102
RTVSPropertyOp49
 70
     0
102
RTVSPropertyOp50
 70
     0
102
RTVSPropertyOp51
 70
     0
102
RTVSPropertyOp52
 70
     0
102
RTVSPropertyOp53
 70
     0
102
RTVSPropertyOp54
 70
     0
102
RTVSPropertyOp55
 70
     0
102
RTVSPropertyOp56
 70
     0
102
RTVSPropertyOp57
 70
     0
102
RTVSPost2010Prop28
280
     0
102
RTVSPost2010PropOp28
 70
     0
102
RTVSPost2010Prop29
280
     1
102
RTVSPost2010PropOp29
 70
     0
102
RTVSPost2010Prop30
280
     1
102
RTVSPost2010PropOp30
 70
     0
102
RTVSPost2010Prop31
280
     0
102
RTVSPost2010PropOp31
 70
     0
102
RTVSPost2010Prop32
280
     0
102
RTVSPost2010PropOp32
 70
     0
102
RTVSPost2010Prop33
280
     0
102
RTVSPost2010PropOp33
 70
     0
102
RTVSPost2010Prop34
280
     0
102
RTVSPost2010PropOp34
 70
     0
102
RTVSPost2010Prop35
280
     0
102
RTVSPost2010PropOp35
 70
     0
102
RTVSPost2010Prop36
280
     0
102
RTVSPost2010PropOp36
 70
     0
102
RTVSPost2010Prop37
 90
       50
102
RTVSPost2010PropOp37
 70
     0
102
RTVSPost2010Prop38
140
0.0
102
RTVSPost2010PropOp38
 70
     0
102
RTVSPost2010Prop39
140
1.0
102
RTVSPost2010PropOp39
 70
     0
102
RTVSPost2010Prop40
 90
        0
102
RTVSPost2010PropOp40
 70
     0
102
RTVSPost2010Prop41ColorIndex
 90
       18
102
RTVSPost2010Prop41ColorRGB
 90
        0
102
RTVSPost2010PropOp41
 70
     0
102
RTVSPost2010Prop42
 90
       50
102
RTVSPost2010PropOp42
 70
     0
102
RTVSPost2010Prop43
 90
        3
102
RTVSPost2010PropOp43
 70
     0
102
RTVSPost2010Prop44ColorIndex
 90
        5
102
RTVSPost2010Prop44ColorRGB
 90
      255
102
RTVSPost2010PropOp44
 70
     0
102
RTVSPost2010Prop45
280
     0
102
RTVSPost2010PropOp45
 70
     0
102
RTVSPost2010Prop46
 90
       50
102
RTVSPost2010PropOp46
 70
     0
102
RTVSPost2010Prop47
 90
       50
102
RTVSPost2010PropOp47
 70
     0
102
RTVSPost2010Prop48
 90
       50
102
RTVSPost2010PropOp48
 70
     0
102
RTVSPost2010Prop49
280
     0
102
RTVSPost2010PropOp49
 70
     0
102
RTVSPost2010Prop50
 90
       50
102
RTVSPost2010PropOp50
 70
     0
102
RTVSPost2010Prop51ColorIndex
 90
      256
102
RTVSPost2010Prop51ColorRGB
 90
-16777216
102
RTVSPost2010PropOp51
 70
     0
102
RTVSPost2010Prop52
140
1.0
102
RTVSPost2010PropOp52
 70
     0
102
RTVSPost2010Prop53
 90
        2
102
RTVSPost2010PropOp53
 70
     0
102
RTVSPost2010Prop54
  1
strokes_ogs.tif
102
RTVSPost2010PropOp54
 70
     0
102
RTVSPost2010Prop55
280
     0
102
RTVSPost2010PropOp55
 70
     0
102
RTVSPost2010Prop56
140
1.0
102
RTVSPost2010PropOp56
 70
     0
102
RTVSPost2010Prop57
140
1.0
102
RTVSPost2010PropOp57
 70
     0
  0
XRECORD
  5
315
102
{ACAD_REACTORS
330
314
102
}
330
314
100
AcDbXrecord
280
     1
102
RTVSPropertyOp0
 70
     1
102
RTVSPropertyOp1
 70
     1
102
RTVSPropertyOp2
 70
     1
102
RTVSPropertyOp3
 70
     1
102
RTVSPropertyOp4
 70
     1
102
RTVSPropertyOp5
 70
     1
102
RTVSPropertyOp6
 70
     1
102
RTVSPropertyOp7
 70
     1
102
RTVSPropertyOp8
 70
     1
102
RTVSPropertyOp9
 70
     1
102
RTVSPropertyOp10
 70
     1
102
RTVSPropertyOp11
 70
     1
102
RTVSPropertyOp12
 70
     1
102
RTVSPropertyOp13
 70
     1
102
RTVSPropertyOp14
 70
     1
102
RTVSPropertyOp15
 70
     1
102
RTVSPropertyOp16
 70
     1
102
RTVSPropertyOp17
 70
     1
102
RTVSPropertyOp18
 70
     1
102
RTVSPropertyOp19
 70
     1
102
RTVSPropertyOp20
 70
     1
102
RTVSPropertyOp21
 70
     1
102
RTVSPropertyOp22
 70
     1
102
RTVSPropertyOp23
 70
     1
102
RTVSPropertyOp24
 70
     1
102
RTVSPropertyOp25
 70
     1
102
RTVSPropertyOp26
 70
     1
102
RTVSPropertyOp27
 70
     1
102
RTVSPropertyOp28
 70
     1
102
RTVSPropertyOp29
 70
     1
102
RTVSPropertyOp30
 70
     1
102
RTVSPropertyOp31
 70
     1
102
RTVSPropertyOp32
 70
     1
102
RTVSPropertyOp33
 70
     1
102
RTVSPropertyOp34
 70
     1
102
RTVSPropertyOp35
 70
     1
102
RTVSPropertyOp36
 70
     1
102
RTVSPropertyOp37
 70
     1
102
RTVSPropertyOp38
 70
     1
102
RTVSPropertyOp39
 70
     1
102
RTVSPropertyOp40
 70
     1
102
RTVSPropertyOp41
 70
     1
102
RTVSPropertyOp42
 70
     1
102
RTVSPropertyOp43
 70
     1
102
RTVSPropertyOp44
 70
     1
102
RTVSPropertyOp45
 70
     1
102
RTVSPropertyOp46
 70
     1
102
RTVSPropertyOp47
 70
     1
102
RTVSPropertyOp48
 70
     1
102
RTVSPropertyOp49
 70
     1
102
RTVSPropertyOp50
 70
     1
102
RTVSPropertyOp51
 70
     0
102
RTVSPropertyOp52
 70
     0
102
RTVSPropertyOp53
 70
     1
102
RTVSPropertyOp54
 70
     1
102
RTVSPropertyOp55
 70
     1
102
RTVSPropertyOp56
 70
     1
102
RTVSPropertyOp57
 70
     1
102
RTVSPost2010Prop28
280
     0
102
RTVSPost2010PropOp28
 70
     1
102
RTVSPost2010Prop29
280
     1
102
RTVSPost2010PropOp29
 70
     1
102
RTVSPost2010Prop30
280
     1
102
RTVSPost2010PropOp30
 70
     1
102
RTVSPost2010Prop31
280
     0
102
RTVSPost2010PropOp31
 70
     1
102
RTVSPost2010Prop32
280
     0
102
RTVSPost2010PropOp32
 70
     1
102
RTVSPost2010Prop33
280
     0
102
RTVSPost2010PropOp33
 70
     1
102
RTVSPost2010Prop34
280
     0
102
RTVSPost2010PropOp34
 70
     1
102
RTVSPost2010Prop35
280
     0
102
RTVSPost2010PropOp35
 70
     1
102
RTVSPost2010Prop36
280
     0
102
RTVSPost2010PropOp36
 70
     1
102
RTVSPost2010Prop37
 90
       50
102
RTVSPost2010PropOp37
 70
     1
102
RTVSPost2010Prop38
140
0.0
102
RTVSPost2010PropOp38
 70
     1
102
RTVSPost2010Prop39
140
1.0
102
RTVSPost2010PropOp39
 70
     1
102
RTVSPost2010Prop40
 90
        0
102
RTVSPost2010PropOp40
 70
     1
102
RTVSPost2010Prop41ColorIndex
 90
       18
102
RTVSPost2010Prop41ColorRGB
 90
        0
102
RTVSPost2010PropOp41
 70
     1
102
RTVSPost2010Prop42
 90
       50
102
RTVSPost2010PropOp42
 70
     1
102
RTVSPost2010Prop43
 90
        3
102
RTVSPost2010PropOp43
 70
     1
102
RTVSPost2010Prop44ColorIndex
 90
        5
102
RTVSPost2010Prop44ColorRGB
 90
      255
102
RTVSPost2010PropOp44
 70
     1
102
RTVSPost2010Prop45
280
     0
102
RTVSPost2010PropOp45
 70
     1
102
RTVSPost2010Prop46
 90
       50
102
RTVSPost2010PropOp46
 70
     1
102
RTVSPost2010Prop47
 90
       50
102
RTVSPost2010PropOp47
 70
     1
102
RTVSPost2010Prop48
 90
       50
102
RTVSPost2010PropOp48
 70
     1
102
RTVSPost2010Prop49
280
     0
102
RTVSPost2010PropOp49
 70
     1
102
RTVSPost2010Prop50
 90
       50
102
RTVSPost2010PropOp50
 70
     1
102
RTVSPost2010Prop51ColorIndex
 90
      256
102
RTVSPost2010Prop51ColorRGB
 90
-16777216
102
RTVSPost2010PropOp51
 70
     0
102
RTVSPost2010Prop52
140
1.0
102
RTVSPost2010PropOp52
 70
     0
102
RTVSPost2010Prop53
 90
        2
102
RTVSPost2010PropOp53
 70
     1
102
RTVSPost2010Prop54
  1
strokes_ogs.tif
102
RTVSPost2010PropOp54
 70
     1
102
RTVSPost2010Prop55
280
     0
102
RTVSPost2010PropOp55
 70
     1
102
RTVSPost2010Prop56
140
1.0
102
RTVSPost2010PropOp56
 70
     1
102
RTVSPost2010Prop57
140
1.0
102
RTVSPost2010PropOp57
 70
     1
  0
XRECORD
  5
31D
102
{ACAD_REACTORS
330
31C
102
}
330
31C
100
AcDbXrecord
280
     1
102
RTVSPropertyOp0
 70
     0
102
RTVSPropertyOp1
 70
     0
102
RTVSPropertyOp2
 70
     0
102
RTVSPropertyOp3
 70
     0
102
RTVSPropertyOp4
 70
     0
102
RTVSPropertyOp5
 70
     0
102
RTVSPropertyOp6
 70
     0
102
RTVSPropertyOp7
 70
     0
102
RTVSPropertyOp8
 70
     0
102
RTVSPropertyOp9
 70
     0
102
RTVSPropertyOp10
 70
     0
102
RTVSPropertyOp11
 70
     0
102
RTVSPropertyOp12
 70
     0
102
RTVSPropertyOp13
 70
     0
102
RTVSPropertyOp14
 70
     2
102
RTVSPropertyOp15
 70
     0
102
RTVSPropertyOp16
 70
     0
102
RTVSPropertyOp17
 70
     0
102
RTVSPropertyOp18
 70
     0
102
RTVSPropertyOp19
 70
     0
102
RTVSPropertyOp20
 70
     0
102
RTVSPropertyOp21
 70
     0
102
RTVSPropertyOp22
 70
     0
102
RTVSPropertyOp23
 70
     0
102
RTVSPropertyOp24
 70
     0
102
RTVSPropertyOp25
 70
     0
102
RTVSPropertyOp26
 70
     0
102
RTVSPropertyOp27
 70
     0
102
RTVSPropertyOp28
 70
     0
102
RTVSPropertyOp29
 70
     0
102
RTVSPropertyOp30
 70
     0
102
RTVSPropertyOp31
 70
     0
102
RTVSPropertyOp32
 70
     0
102
RTVSPropertyOp33
 70
     0
102
RTVSPropertyOp34
 70
     0
102
RTVSPropertyOp35
 70
     0
102
RTVSPropertyOp36
 70
     0
102
RTVSPropertyOp37
 70
     0
102
RTVSPropertyOp38
 70
     0
102
RTVSPropertyOp39
 70
     0
102
RTVSPropertyOp40
 70
     0
102
RTVSPropertyOp41
 70
     0
102
RTVSPropertyOp42
 70
     0
102
RTVSPropertyOp43
 70
     0
102
RTVSPropertyOp44
 70
     0
102
RTVSPropertyOp45
 70
     0
102
RTVSPropertyOp46
 70
     0
102
RTVSPropertyOp47
 70
     0
102
RTVSPropertyOp48
 70
     0
102
RTVSPropertyOp49
 70
     0
102
RTVSPropertyOp50
 70
     0
102
RTVSPropertyOp51
 70
     0
102
RTVSPropertyOp52
 70
     0
102
RTVSPropertyOp53
 70
     0
102
RTVSPropertyOp54
 70
     0
102
RTVSPropertyOp55
 70
     0
102
RTVSPropertyOp56
 70
     0
102
RTVSPropertyOp57
 70
     0
102
RTVSPost2010Prop28
280
     0
102
RTVSPost2010PropOp28
 70
     0
102
RTVSPost2010Prop29
280
     1
102
RTVSPost2010PropOp29
 70
     0
102
RTVSPost2010Prop30
280
     1
102
RTVSPost2010PropOp30
 70
     0
102
RTVSPost2010Prop31
280
     0
102
RTVSPost2010PropOp31
 70
     0
102
RTVSPost2010Prop32
280
     0
102
RTVSPost2010PropOp32
 70
     0
102
RTVSPost2010Prop33
280
     0
102
RTVSPost2010PropOp33
 70
     0
102
RTVSPost2010Prop34
280
     0
102
RTVSPost2010PropOp34
 70
     0
102
RTVSPost2010Prop35
280
     0
102
RTVSPost2010PropOp35
 70
     0
102
RTVSPost2010Prop36
280
     0
102
RTVSPost2010PropOp36
 70
     0
102
RTVSPost2010Prop37
 90
       50
102
RTVSPost2010PropOp37
 70
     0
102
RTVSPost2010Prop38
140
0.0
102
RTVSPost2010PropOp38
 70
     0
102
RTVSPost2010Prop39
140
1.0
102
RTVSPost2010PropOp39
 70
     0
102
RTVSPost2010Prop40
 90
        0
102
RTVSPost2010PropOp40
 70
     0
102
RTVSPost2010Prop41ColorIndex
 90
       18
102
RTVSPost2010Prop41ColorRGB
 90
        0
102
RTVSPost2010PropOp41
 70
     0
102
RTVSPost2010Prop42
 90
       50
102
RTVSPost2010PropOp42
 70
     0
102
RTVSPost2010Prop43
 90
        3
102
RTVSPost2010PropOp43
 70
     0
102
RTVSPost2010Prop44ColorIndex
 90
        5
102
RTVSPost2010Prop44ColorRGB
 90
      255
102
RTVSPost2010PropOp44
 70
     0
102
RTVSPost2010Prop45
280
     0
102
RTVSPost2010PropOp45
 70
     0
102
RTVSPost2010Prop46
 90
       50
102
RTVSPost2010PropOp46
 70
     0
102
RTVSPost2010Prop47
 90
       50
102
RTVSPost2010PropOp47
 70
     0
102
RTVSPost2010Prop48
 90
       50
102
RTVSPost2010PropOp48
 70
     0
102
RTVSPost2010Prop49
280
     0
102
RTVSPost2010PropOp49
 70
     0
102
RTVSPost2010Prop50
 90
       50
102
RTVSPost2010PropOp50
 70
     0
102
RTVSPost2010Prop51ColorIndex
 90
      256
102
RTVSPost2010Prop51ColorRGB
 90
-16777216
102
RTVSPost2010PropOp51
 70
     0
102
RTVSPost2010Prop52
140
1.0
102
RTVSPost2010PropOp52
 70
     0
102
RTVSPost2010Prop53
 90
        2
102
RTVSPost2010PropOp53
 70
     0
102
RTVSPost2010Prop54
  1
strokes_ogs.tif
102
RTVSPost2010PropOp54
 70
     0
102
RTVSPost2010Prop55
280
     0
102
RTVSPost2010PropOp55
 70
     0
102
RTVSPost2010Prop56
140
1.0
102
RTVSPost2010PropOp56
 70
     0
102
RTVSPost2010Prop57
140
1.0
102
RTVSPost2010PropOp57
 70
     0
  0
XRECORD
  5
30B
102
{ACAD_REACTORS
330
30A
102
}
330
30A
100
AcDbXrecord
280
     1
102
RTVSPropertyOp0
 70
     1
102
RTVSPropertyOp1
 70
     1
102
RTVSPropertyOp2
 70
     1
102
RTVSPropertyOp3
 70
     1
102
RTVSPropertyOp4
 70
     1
102
RTVSPropertyOp5
 70
     1
102
RTVSPropertyOp6
 70
     1
102
RTVSPropertyOp7
 70
     1
102
RTVSPropertyOp8
 70
     1
102
RTVSPropertyOp9
 70
     1
102
RTVSPropertyOp10
 70
     1
102
RTVSPropertyOp11
 70
     1
102
RTVSPropertyOp12
 70
     1
102
RTVSPropertyOp13
 70
     1
102
RTVSPropertyOp14
 70
     1
102
RTVSPropertyOp15
 70
     1
102
RTVSPropertyOp16
 70
     1
102
RTVSPropertyOp17
 70
     1
102
RTVSPropertyOp18
 70
     1
102
RTVSPropertyOp19
 70
     1
102
RTVSPropertyOp20
 70
     1
102
RTVSPropertyOp21
 70
     1
102
RTVSPropertyOp22
 70
     1
102
RTVSPropertyOp23
 70
     1
102
RTVSPropertyOp24
 70
     1
102
RTVSPropertyOp25
 70
     1
102
RTVSPropertyOp26
 70
     1
102
RTVSPropertyOp27
 70
     1
102
RTVSPropertyOp28
 70
     1
102
RTVSPropertyOp29
 70
     1
102
RTVSPropertyOp30
 70
     1
102
RTVSPropertyOp31
 70
     1
102
RTVSPropertyOp32
 70
     1
102
RTVSPropertyOp33
 70
     1
102
RTVSPropertyOp34
 70
     1
102
RTVSPropertyOp35
 70
     1
102
RTVSPropertyOp36
 70
     1
102
RTVSPropertyOp37
 70
     1
102
RTVSPropertyOp38
 70
     1
102
RTVSPropertyOp39
 70
     1
102
RTVSPropertyOp40
 70
     1
102
RTVSPropertyOp41
 70
     1
102
RTVSPropertyOp42
 70
     1
102
RTVSPropertyOp43
 70
     1
102
RTVSPropertyOp44
 70
     1
102
RTVSPropertyOp45
 70
     1
102
RTVSPropertyOp46
 70
     1
102
RTVSPropertyOp47
 70
     1
102
RTVSPropertyOp48
 70
     1
102
RTVSPropertyOp49
 70
     1
102
RTVSPropertyOp50
 70
     1
102
RTVSPropertyOp51
 70
     0
102
RTVSPropertyOp52
 70
     0
102
RTVSPropertyOp53
 70
     1
102
RTVSPropertyOp54
 70
     1
102
RTVSPropertyOp55
 70
     1
102
RTVSPropertyOp56
 70
     1
102
RTVSPropertyOp57
 70
     1
102
RTVSPost2010Prop28
280
     0
102
RTVSPost2010PropOp28
 70
     1
102
RTVSPost2010Prop29
280
     1
102
RTVSPost2010PropOp29
 70
     1
102
RTVSPost2010Prop30
280
     1
102
RTVSPost2010PropOp30
 70
     1
102
RTVSPost2010Prop31
280
     0
102
RTVSPost2010PropOp31
 70
     1
102
RTVSPost2010Prop32
280
     0
102
RTVSPost2010PropOp32
 70
     1
102
RTVSPost2010Prop33
280
     0
102
RTVSPost2010PropOp33
 70
     1
102
RTVSPost2010Prop34
280
     0
102
RTVSPost2010PropOp34
 70
     1
102
RTVSPost2010Prop35
280
     0
102
RTVSPost2010PropOp35
 70
     1
102
RTVSPost2010Prop36
280
     0
102
RTVSPost2010PropOp36
 70
     1
102
RTVSPost2010Prop37
 90
       50
102
RTVSPost2010PropOp37
 70
     1
102
RTVSPost2010Prop38
140
0.0
102
RTVSPost2010PropOp38
 70
     1
102
RTVSPost2010Prop39
140
1.0
102
RTVSPost2010PropOp39
 70
     1
102
RTVSPost2010Prop40
 90
        0
102
RTVSPost2010PropOp40
 70
     1
102
RTVSPost2010Prop41ColorIndex
 90
       18
102
RTVSPost2010Prop41ColorRGB
 90
        0
102
RTVSPost2010PropOp41
 70
     1
102
RTVSPost2010Prop42
 90
       50
102
RTVSPost2010PropOp42
 70
     1
102
RTVSPost2010Prop43
 90
        3
102
RTVSPost2010PropOp43
 70
     1
102
RTVSPost2010Prop44ColorIndex
 90
        5
102
RTVSPost2010Prop44ColorRGB
 90
      255
102
RTVSPost2010PropOp44
 70
     1
102
RTVSPost2010Prop45
280
     0
102
RTVSPost2010PropOp45
 70
     1
102
RTVSPost2010Prop46
 90
       50
102
RTVSPost2010PropOp46
 70
     1
102
RTVSPost2010Prop47
 90
       50
102
RTVSPost2010PropOp47
 70
     1
102
RTVSPost2010Prop48
 90
       50
102
RTVSPost2010PropOp48
 70
     1
102
RTVSPost2010Prop49
280
     0
102
RTVSPost2010PropOp49
 70
     1
102
RTVSPost2010Prop50
 90
       50
102
RTVSPost2010PropOp50
 70
     1
102
RTVSPost2010Prop51ColorIndex
 90
      256
102
RTVSPost2010Prop51ColorRGB
 90
-16777216
102
RTVSPost2010PropOp51
 70
     0
102
RTVSPost2010Prop52
140
1.0
102
RTVSPost2010PropOp52
 70
     0
102
RTVSPost2010Prop53
 90
        2
102
RTVSPost2010PropOp53
 70
     1
102
RTVSPost2010Prop54
  1
strokes_ogs.tif
102
RTVSPost2010PropOp54
 70
     1
102
RTVSPost2010Prop55
280
     0
102
RTVSPost2010PropOp55
 70
     1
102
RTVSPost2010Prop56
140
1.0
102
RTVSPost2010PropOp56
 70
     1
102
RTVSPost2010Prop57
140
1.0
102
RTVSPost2010PropOp57
 70
     1
  0
XRECORD
  5
329
102
{ACAD_REACTORS
330
328
102
}
330
328
100
AcDbXrecord
280
     1
102
RTVSPropertyOp0
 70
     1
102
RTVSPropertyOp1
 70
     1
102
RTVSPropertyOp2
 70
     1
102
RTVSPropertyOp3
 70
     1
102
RTVSPropertyOp4
 70
     1
102
RTVSPropertyOp5
 70
     1
102
RTVSPropertyOp6
 70
     1
102
RTVSPropertyOp7
 70
     1
102
RTVSPropertyOp8
 70
     1
102
RTVSPropertyOp9
 70
     1
102
RTVSPropertyOp10
 70
     1
102
RTVSPropertyOp11
 70
     1
102
RTVSPropertyOp12
 70
     1
102
RTVSPropertyOp13
 70
     1
102
RTVSPropertyOp14
 70
     1
102
RTVSPropertyOp15
 70
     1
102
RTVSPropertyOp16
 70
     1
102
RTVSPropertyOp17
 70
     1
102
RTVSPropertyOp18
 70
     1
102
RTVSPropertyOp19
 70
     1
102
RTVSPropertyOp20
 70
     1
102
RTVSPropertyOp21
 70
     1
102
RTVSPropertyOp22
 70
     1
102
RTVSPropertyOp23
 70
     1
102
RTVSPropertyOp24
 70
     1
102
RTVSPropertyOp25
 70
     1
102
RTVSPropertyOp26
 70
     1
102
RTVSPropertyOp27
 70
     1
102
RTVSPropertyOp28
 70
     1
102
RTVSPropertyOp29
 70
     1
102
RTVSPropertyOp30
 70
     1
102
RTVSPropertyOp31
 70
     1
102
RTVSPropertyOp32
 70
     1
102
RTVSPropertyOp33
 70
     1
102
RTVSPropertyOp34
 70
     1
102
RTVSPropertyOp35
 70
     1
102
RTVSPropertyOp36
 70
     1
102
RTVSPropertyOp37
 70
     1
102
RTVSPropertyOp38
 70
     1
102
RTVSPropertyOp39
 70
     1
102
RTVSPropertyOp40
 70
     1
102
RTVSPropertyOp41
 70
     1
102
RTVSPropertyOp42
 70
     1
102
RTVSPropertyOp43
 70
     1
102
RTVSPropertyOp44
 70
     1
102
RTVSPropertyOp45
 70
     1
102
RTVSPropertyOp46
 70
     1
102
RTVSPropertyOp47
 70
     1
102
RTVSPropertyOp48
 70
     1
102
RTVSPropertyOp49
 70
     1
102
RTVSPropertyOp50
 70
     1
102
RTVSPropertyOp51
 70
     0
102
RTVSPropertyOp52
 70
     0
102
RTVSPropertyOp53
 70
     1
102
RTVSPropertyOp54
 70
     1
102
RTVSPropertyOp55
 70
     1
102
RTVSPropertyOp56
 70
     1
102
RTVSPropertyOp57
 70
     1
102
RTVSPost2010Prop28
280
     0
102
RTVSPost2010PropOp28
 70
     1
102
RTVSPost2010Prop29
280
     1
102
RTVSPost2010PropOp29
 70
     1
102
RTVSPost2010Prop30
280
     1
102
RTVSPost2010PropOp30
 70
     1
102
RTVSPost2010Prop31
280
     0
102
RTVSPost2010PropOp31
 70
     1
102
RTVSPost2010Prop32
280
     0
102
RTVSPost2010PropOp32
 70
     1
102
RTVSPost2010Prop33
280
     0
102
RTVSPost2010PropOp33
 70
     1
102
RTVSPost2010Prop34
280
     0
102
RTVSPost2010PropOp34
 70
     1
102
RTVSPost2010Prop35
280
     0
102
RTVSPost2010PropOp35
 70
     1
102
RTVSPost2010Prop36
280
     0
102
RTVSPost2010PropOp36
 70
     1
102
RTVSPost2010Prop37
 90
       50
102
RTVSPost2010PropOp37
 70
     1
102
RTVSPost2010Prop38
140
0.0
102
RTVSPost2010PropOp38
 70
     1
102
RTVSPost2010Prop39
140
1.0
102
RTVSPost2010PropOp39
 70
     1
102
RTVSPost2010Prop40
 90
        0
102
RTVSPost2010PropOp40
 70
     1
102
RTVSPost2010Prop41ColorIndex
 90
       18
102
RTVSPost2010Prop41ColorRGB
 90
        0
102
RTVSPost2010PropOp41
 70
     1
102
RTVSPost2010Prop42
 90
       50
102
RTVSPost2010PropOp42
 70
     1
102
RTVSPost2010Prop43
 90
        3
102
RTVSPost2010PropOp43
 70
     1
102
RTVSPost2010Prop44ColorIndex
 90
        5
102
RTVSPost2010Prop44ColorRGB
 90
      255
102
RTVSPost2010PropOp44
 70
     1
102
RTVSPost2010Prop45
280
     0
102
RTVSPost2010PropOp45
 70
     1
102
RTVSPost2010Prop46
 90
       50
102
RTVSPost2010PropOp46
 70
     1
102
RTVSPost2010Prop47
 90
       50
102
RTVSPost2010PropOp47
 70
     1
102
RTVSPost2010Prop48
 90
       50
102
RTVSPost2010PropOp48
 70
     1
102
RTVSPost2010Prop49
280
     0
102
RTVSPost2010PropOp49
 70
     1
102
RTVSPost2010Prop50
 90
       50
102
RTVSPost2010PropOp50
 70
     1
102
RTVSPost2010Prop51ColorIndex
 90
      256
102
RTVSPost2010Prop51ColorRGB
 90
-16777216
102
RTVSPost2010PropOp51
 70
     0
102
RTVSPost2010Prop52
140
1.0
102
RTVSPost2010PropOp52
 70
     0
102
RTVSPost2010Prop53
 90
        2
102
RTVSPost2010PropOp53
 70
     1
102
RTVSPost2010Prop54
  1
strokes_ogs.tif
102
RTVSPost2010PropOp54
 70
     1
102
RTVSPost2010Prop55
280
     0
102
RTVSPost2010PropOp55
 70
     1
102
RTVSPost2010Prop56
140
1.0
102
RTVSPost2010PropOp56
 70
     1
102
RTVSPost2010Prop57
140
1.0
102
RTVSPost2010PropOp57
 70
     1
  0
XRECORD
  5
327
102
{ACAD_REACTORS
330
326
102
}
330
326
100
AcDbXrecord
280
     1
102
RTVSPropertyOp0
 70
     1
102
RTVSPropertyOp1
 70
     1
102
RTVSPropertyOp2
 70
     1
102
RTVSPropertyOp3
 70
     1
102
RTVSPropertyOp4
 70
     1
102
RTVSPropertyOp5
 70
     1
102
RTVSPropertyOp6
 70
     1
102
RTVSPropertyOp7
 70
     1
102
RTVSPropertyOp8
 70
     1
102
RTVSPropertyOp9
 70
     1
102
RTVSPropertyOp10
 70
     1
102
RTVSPropertyOp11
 70
     1
102
RTVSPropertyOp12
 70
     1
102
RTVSPropertyOp13
 70
     1
102
RTVSPropertyOp14
 70
     1
102
RTVSPropertyOp15
 70
     1
102
RTVSPropertyOp16
 70
     1
102
RTVSPropertyOp17
 70
     1
102
RTVSPropertyOp18
 70
     1
102
RTVSPropertyOp19
 70
     1
102
RTVSPropertyOp20
 70
     1
102
RTVSPropertyOp21
 70
     1
102
RTVSPropertyOp22
 70
     1
102
RTVSPropertyOp23
 70
     1
102
RTVSPropertyOp24
 70
     1
102
RTVSPropertyOp25
 70
     1
102
RTVSPropertyOp26
 70
     1
102
RTVSPropertyOp27
 70
     1
102
RTVSPropertyOp28
 70
     1
102
RTVSPropertyOp29
 70
     1
102
RTVSPropertyOp30
 70
     1
102
RTVSPropertyOp31
 70
     1
102
RTVSPropertyOp32
 70
     1
102
RTVSPropertyOp33
 70
     1
102
RTVSPropertyOp34
 70
     1
102
RTVSPropertyOp35
 70
     1
102
RTVSPropertyOp36
 70
     1
102
RTVSPropertyOp37
 70
     1
102
RTVSPropertyOp38
 70
     1
102
RTVSPropertyOp39
 70
     1
102
RTVSPropertyOp40
 70
     1
102
RTVSPropertyOp41
 70
     1
102
RTVSPropertyOp42
 70
     1
102
RTVSPropertyOp43
 70
     1
102
RTVSPropertyOp44
 70
     1
102
RTVSPropertyOp45
 70
     1
102
RTVSPropertyOp46
 70
     1
102
RTVSPropertyOp47
 70
     1
102
RTVSPropertyOp48
 70
     1
102
RTVSPropertyOp49
 70
     1
102
RTVSPropertyOp50
 70
     1
102
RTVSPropertyOp51
 70
     0
102
RTVSPropertyOp52
 70
     0
102
RTVSPropertyOp53
 70
     1
102
RTVSPropertyOp54
 70
     1
102
RTVSPropertyOp55
 70
     1
102
RTVSPropertyOp56
 70
     1
102
RTVSPropertyOp57
 70
     1
102
RTVSPost2010Prop28
280
     0
102
RTVSPost2010PropOp28
 70
     1
102
RTVSPost2010Prop29
280
     1
102
RTVSPost2010PropOp29
 70
     1
102
RTVSPost2010Prop30
280
     1
102
RTVSPost2010PropOp30
 70
     1
102
RTVSPost2010Prop31
280
     0
102
RTVSPost2010PropOp31
 70
     1
102
RTVSPost2010Prop32
280
     0
102
RTVSPost2010PropOp32
 70
     1
102
RTVSPost2010Prop33
280
     0
102
RTVSPost2010PropOp33
 70
     1
102
RTVSPost2010Prop34
280
     0
102
RTVSPost2010PropOp34
 70
     1
102
RTVSPost2010Prop35
280
     0
102
RTVSPost2010PropOp35
 70
     1
102
RTVSPost2010Prop36
280
     0
102
RTVSPost2010PropOp36
 70
     1
102
RTVSPost2010Prop37
 90
       50
102
RTVSPost2010PropOp37
 70
     1
102
RTVSPost2010Prop38
140
0.0
102
RTVSPost2010PropOp38
 70
     1
102
RTVSPost2010Prop39
140
1.0
102
RTVSPost2010PropOp39
 70
     1
102
RTVSPost2010Prop40
 90
        0
102
RTVSPost2010PropOp40
 70
     1
102
RTVSPost2010Prop41ColorIndex
 90
       18
102
RTVSPost2010Prop41ColorRGB
 90
        0
102
RTVSPost2010PropOp41
 70
     1
102
RTVSPost2010Prop42
 90
       50
102
RTVSPost2010PropOp42
 70
     1
102
RTVSPost2010Prop43
 90
        3
102
RTVSPost2010PropOp43
 70
     1
102
RTVSPost2010Prop44ColorIndex
 90
        5
102
RTVSPost2010Prop44ColorRGB
 90
      255
102
RTVSPost2010PropOp44
 70
     1
102
RTVSPost2010Prop45
280
     0
102
RTVSPost2010PropOp45
 70
     1
102
RTVSPost2010Prop46
 90
       50
102
RTVSPost2010PropOp46
 70
     1
102
RTVSPost2010Prop47
 90
       50
102
RTVSPost2010PropOp47
 70
     1
102
RTVSPost2010Prop48
 90
       50
102
RTVSPost2010PropOp48
 70
     1
102
RTVSPost2010Prop49
280
     0
102
RTVSPost2010PropOp49
 70
     1
102
RTVSPost2010Prop50
 90
       50
102
RTVSPost2010PropOp50
 70
     1
102
RTVSPost2010Prop51ColorIndex
 90
      256
102
RTVSPost2010Prop51ColorRGB
 90
-16777216
102
RTVSPost2010PropOp51
 70
     0
102
RTVSPost2010Prop52
140
1.0
102
RTVSPost2010PropOp52
 70
     0
102
RTVSPost2010Prop53
 90
        2
102
RTVSPost2010PropOp53
 70
     1
102
RTVSPost2010Prop54
  1
strokes_ogs.tif
102
RTVSPost2010PropOp54
 70
     1
102
RTVSPost2010Prop55
280
     0
102
RTVSPost2010PropOp55
 70
     1
102
RTVSPost2010Prop56
140
1.0
102
RTVSPost2010PropOp56
 70
     1
102
RTVSPost2010Prop57
140
1.0
102
RTVSPost2010PropOp57
 70
     1
  0
XRECORD
  5
321
102
{ACAD_REACTORS
330
320
102
}
330
320
100
AcDbXrecord
280
     1
102
RTVSPropertyOp0
 70
     1
102
RTVSPropertyOp1
 70
     1
102
RTVSPropertyOp2
 70
     1
102
RTVSPropertyOp3
 70
     1
102
RTVSPropertyOp4
 70
     1
102
RTVSPropertyOp5
 70
     1
102
RTVSPropertyOp6
 70
     1
102
RTVSPropertyOp7
 70
     1
102
RTVSPropertyOp8
 70
     1
102
RTVSPropertyOp9
 70
     1
102
RTVSPropertyOp10
 70
     1
102
RTVSPropertyOp11
 70
     1
102
RTVSPropertyOp12
 70
     1
102
RTVSPropertyOp13
 70
     1
102
RTVSPropertyOp14
 70
     1
102
RTVSPropertyOp15
 70
     1
102
RTVSPropertyOp16
 70
     1
102
RTVSPropertyOp17
 70
     1
102
RTVSPropertyOp18
 70
     1
102
RTVSPropertyOp19
 70
     1
102
RTVSPropertyOp20
 70
     1
102
RTVSPropertyOp21
 70
     1
102
RTVSPropertyOp22
 70
     1
102
RTVSPropertyOp23
 70
     1
102
RTVSPropertyOp24
 70
     1
102
RTVSPropertyOp25
 70
     1
102
RTVSPropertyOp26
 70
     1
102
RTVSPropertyOp27
 70
     1
102
RTVSPropertyOp28
 70
     1
102
RTVSPropertyOp29
 70
     1
102
RTVSPropertyOp30
 70
     1
102
RTVSPropertyOp31
 70
     1
102
RTVSPropertyOp32
 70
     1
102
RTVSPropertyOp33
 70
     1
102
RTVSPropertyOp34
 70
     1
102
RTVSPropertyOp35
 70
     1
102
RTVSPropertyOp36
 70
     1
102
RTVSPropertyOp37
 70
     1
102
RTVSPropertyOp38
 70
     1
102
RTVSPropertyOp39
 70
     1
102
RTVSPropertyOp40
 70
     1
102
RTVSPropertyOp41
 70
     1
102
RTVSPropertyOp42
 70
     1
102
RTVSPropertyOp43
 70
     1
102
RTVSPropertyOp44
 70
     1
102
RTVSPropertyOp45
 70
     1
102
RTVSPropertyOp46
 70
     1
102
RTVSPropertyOp47
 70
     1
102
RTVSPropertyOp48
 70
     1
102
RTVSPropertyOp49
 70
     1
102
RTVSPropertyOp50
 70
     1
102
RTVSPropertyOp51
 70
     0
102
RTVSPropertyOp52
 70
     0
102
RTVSPropertyOp53
 70
     1
102
RTVSPropertyOp54
 70
     1
102
RTVSPropertyOp55
 70
     1
102
RTVSPropertyOp56
 70
     1
102
RTVSPropertyOp57
 70
     1
102
RTVSPost2010Prop28
280
     0
102
RTVSPost2010PropOp28
 70
     1
102
RTVSPost2010Prop29
280
     1
102
RTVSPost2010PropOp29
 70
     1
102
RTVSPost2010Prop30
280
     1
102
RTVSPost2010PropOp30
 70
     1
102
RTVSPost2010Prop31
280
     0
102
RTVSPost2010PropOp31
 70
     1
102
RTVSPost2010Prop32
280
     0
102
RTVSPost2010PropOp32
 70
     1
102
RTVSPost2010Prop33
280
     0
102
RTVSPost2010PropOp33
 70
     1
102
RTVSPost2010Prop34
280
     0
102
RTVSPost2010PropOp34
 70
     1
102
RTVSPost2010Prop35
280
     0
102
RTVSPost2010PropOp35
 70
     1
102
RTVSPost2010Prop36
280
     0
102
RTVSPost2010PropOp36
 70
     1
102
RTVSPost2010Prop37
 90
       50
102
RTVSPost2010PropOp37
 70
     1
102
RTVSPost2010Prop38
140
0.0
102
RTVSPost2010PropOp38
 70
     1
102
RTVSPost2010Prop39
140
1.0
102
RTVSPost2010PropOp39
 70
     1
102
RTVSPost2010Prop40
 90
        0
102
RTVSPost2010PropOp40
 70
     1
102
RTVSPost2010Prop41ColorIndex
 90
       18
102
RTVSPost2010Prop41ColorRGB
 90
        0
102
RTVSPost2010PropOp41
 70
     1
102
RTVSPost2010Prop42
 90
       50
102
RTVSPost2010PropOp42
 70
     1
102
RTVSPost2010Prop43
 90
        3
102
RTVSPost2010PropOp43
 70
     1
102
RTVSPost2010Prop44ColorIndex
 90
        5
102
RTVSPost2010Prop44ColorRGB
 90
      255
102
RTVSPost2010PropOp44
 70
     1
102
RTVSPost2010Prop45
280
     0
102
RTVSPost2010PropOp45
 70
     1
102
RTVSPost2010Prop46
 90
       50
102
RTVSPost2010PropOp46
 70
     1
102
RTVSPost2010Prop47
 90
       50
102
RTVSPost2010PropOp47
 70
     1
102
RTVSPost2010Prop48
 90
       50
102
RTVSPost2010PropOp48
 70
     1
102
RTVSPost2010Prop49
280
     0
102
RTVSPost2010PropOp49
 70
     1
102
RTVSPost2010Prop50
 90
       50
102
RTVSPost2010PropOp50
 70
     1
102
RTVSPost2010Prop51ColorIndex
 90
      256
102
RTVSPost2010Prop51ColorRGB
 90
-16777216
102
RTVSPost2010PropOp51
 70
     0
102
RTVSPost2010Prop52
140
1.0
102
RTVSPost2010PropOp52
 70
     0
102
RTVSPost2010Prop53
 90
        2
102
RTVSPost2010PropOp53
 70
     1
102
RTVSPost2010Prop54
  1
strokes_ogs.tif
102
RTVSPost2010PropOp54
 70
     1
102
RTVSPost2010Prop55
280
     0
102
RTVSPost2010PropOp55
 70
     1
102
RTVSPost2010Prop56
140
1.0
102
RTVSPost2010PropOp56
 70
     1
102
RTVSPost2010Prop57
140
1.0
102
RTVSPost2010PropOp57
 70
     1
  0
XRECORD
  5
323
102
{ACAD_REACTORS
330
322
102
}
330
322
100
AcDbXrecord
280
     1
102
RTVSPropertyOp0
 70
     1
102
RTVSPropertyOp1
 70
     1
102
RTVSPropertyOp2
 70
     1
102
RTVSPropertyOp3
 70
     1
102
RTVSPropertyOp4
 70
     1
102
RTVSPropertyOp5
 70
     1
102
RTVSPropertyOp6
 70
     1
102
RTVSPropertyOp7
 70
     1
102
RTVSPropertyOp8
 70
     1
102
RTVSPropertyOp9
 70
     1
102
RTVSPropertyOp10
 70
     1
102
RTVSPropertyOp11
 70
     1
102
RTVSPropertyOp12
 70
     1
102
RTVSPropertyOp13
 70
     1
102
RTVSPropertyOp14
 70
     1
102
RTVSPropertyOp15
 70
     1
102
RTVSPropertyOp16
 70
     1
102
RTVSPropertyOp17
 70
     1
102
RTVSPropertyOp18
 70
     1
102
RTVSPropertyOp19
 70
     1
102
RTVSPropertyOp20
 70
     1
102
RTVSPropertyOp21
 70
     1
102
RTVSPropertyOp22
 70
     1
102
RTVSPropertyOp23
 70
     1
102
RTVSPropertyOp24
 70
     1
102
RTVSPropertyOp25
 70
     1
102
RTVSPropertyOp26
 70
     1
102
RTVSPropertyOp27
 70
     1
102
RTVSPropertyOp28
 70
     1
102
RTVSPropertyOp29
 70
     1
102
RTVSPropertyOp30
 70
     1
102
RTVSPropertyOp31
 70
     1
102
RTVSPropertyOp32
 70
     1
102
RTVSPropertyOp33
 70
     1
102
RTVSPropertyOp34
 70
     1
102
RTVSPropertyOp35
 70
     1
102
RTVSPropertyOp36
 70
     1
102
RTVSPropertyOp37
 70
     1
102
RTVSPropertyOp38
 70
     1
102
RTVSPropertyOp39
 70
     1
102
RTVSPropertyOp40
 70
     1
102
RTVSPropertyOp41
 70
     1
102
RTVSPropertyOp42
 70
     1
102
RTVSPropertyOp43
 70
     1
102
RTVSPropertyOp44
 70
     1
102
RTVSPropertyOp45
 70
     1
102
RTVSPropertyOp46
 70
     1
102
RTVSPropertyOp47
 70
     1
102
RTVSPropertyOp48
 70
     1
102
RTVSPropertyOp49
 70
     1
102
RTVSPropertyOp50
 70
     1
102
RTVSPropertyOp51
 70
     0
102
RTVSPropertyOp52
 70
     0
102
RTVSPropertyOp53
 70
     1
102
RTVSPropertyOp54
 70
     1
102
RTVSPropertyOp55
 70
     1
102
RTVSPropertyOp56
 70
     1
102
RTVSPropertyOp57
 70
     1
102
RTVSPost2010Prop28
280
     0
102
RTVSPost2010PropOp28
 70
     1
102
RTVSPost2010Prop29
280
     1
102
RTVSPost2010PropOp29
 70
     1
102
RTVSPost2010Prop30
280
     1
102
RTVSPost2010PropOp30
 70
     1
102
RTVSPost2010Prop31
280
     0
102
RTVSPost2010PropOp31
 70
     1
102
RTVSPost2010Prop32
280
     0
102
RTVSPost2010PropOp32
 70
     1
102
RTVSPost2010Prop33
280
     0
102
RTVSPost2010PropOp33
 70
     1
102
RTVSPost2010Prop34
280
     0
102
RTVSPost2010PropOp34
 70
     1
102
RTVSPost2010Prop35
280
     0
102
RTVSPost2010PropOp35
 70
     1
102
RTVSPost2010Prop36
280
     0
102
RTVSPost2010PropOp36
 70
     1
102
RTVSPost2010Prop37
 90
       50
102
RTVSPost2010PropOp37
 70
     1
102
RTVSPost2010Prop38
140
0.0
102
RTVSPost2010PropOp38
 70
     1
102
RTVSPost2010Prop39
140
1.0
102
RTVSPost2010PropOp39
 70
     1
102
RTVSPost2010Prop40
 90
        0
102
RTVSPost2010PropOp40
 70
     1
102
RTVSPost2010Prop41ColorIndex
 90
       18
102
RTVSPost2010Prop41ColorRGB
 90
        0
102
RTVSPost2010PropOp41
 70
     1
102
RTVSPost2010Prop42
 90
       50
102
RTVSPost2010PropOp42
 70
     1
102
RTVSPost2010Prop43
 90
        3
102
RTVSPost2010PropOp43
 70
     1
102
RTVSPost2010Prop44ColorIndex
 90
        5
102
RTVSPost2010Prop44ColorRGB
 90
      255
102
RTVSPost2010PropOp44
 70
     1
102
RTVSPost2010Prop45
280
     0
102
RTVSPost2010PropOp45
 70
     1
102
RTVSPost2010Prop46
 90
       50
102
RTVSPost2010PropOp46
 70
     1
102
RTVSPost2010Prop47
 90
       50
102
RTVSPost2010PropOp47
 70
     1
102
RTVSPost2010Prop48
 90
       50
102
RTVSPost2010PropOp48
 70
     1
102
RTVSPost2010Prop49
280
     0
102
RTVSPost2010PropOp49
 70
     1
102
RTVSPost2010Prop50
 90
       50
102
RTVSPost2010PropOp50
 70
     1
102
RTVSPost2010Prop51ColorIndex
 90
      256
102
RTVSPost2010Prop51ColorRGB
 90
-16777216
102
RTVSPost2010PropOp51
 70
     0
102
RTVSPost2010Prop52
140
1.0
102
RTVSPost2010PropOp52
 70
     0
102
RTVSPost2010Prop53
 90
        2
102
RTVSPost2010PropOp53
 70
     1
102
RTVSPost2010Prop54
  1
strokes_ogs.tif
102
RTVSPost2010PropOp54
 70
     1
102
RTVSPost2010Prop55
280
     0
102
RTVSPost2010PropOp55
 70
     1
102
RTVSPost2010Prop56
140
1.0
102
RTVSPost2010PropOp56
 70
     1
102
RTVSPost2010Prop57
140
1.0
102
RTVSPost2010PropOp57
 70
     1
  0
XRECORD
  5
313
102
{ACAD_REACTORS
330
312
102
}
330
312
100
AcDbXrecord
280
     1
102
RTVSPropertyOp0
 70
     1
102
RTVSPropertyOp1
 70
     1
102
RTVSPropertyOp2
 70
     1
102
RTVSPropertyOp3
 70
     1
102
RTVSPropertyOp4
 70
     1
102
RTVSPropertyOp5
 70
     1
102
RTVSPropertyOp6
 70
     1
102
RTVSPropertyOp7
 70
     1
102
RTVSPropertyOp8
 70
     1
102
RTVSPropertyOp9
 70
     1
102
RTVSPropertyOp10
 70
     1
102
RTVSPropertyOp11
 70
     1
102
RTVSPropertyOp12
 70
     1
102
RTVSPropertyOp13
 70
     1
102
RTVSPropertyOp14
 70
     1
102
RTVSPropertyOp15
 70
     1
102
RTVSPropertyOp16
 70
     1
102
RTVSPropertyOp17
 70
     1
102
RTVSPropertyOp18
 70
     1
102
RTVSPropertyOp19
 70
     1
102
RTVSPropertyOp20
 70
     1
102
RTVSPropertyOp21
 70
     1
102
RTVSPropertyOp22
 70
     1
102
RTVSPropertyOp23
 70
     1
102
RTVSPropertyOp24
 70
     1
102
RTVSPropertyOp25
 70
     1
102
RTVSPropertyOp26
 70
     1
102
RTVSPropertyOp27
 70
     1
102
RTVSPropertyOp28
 70
     1
102
RTVSPropertyOp29
 70
     1
102
RTVSPropertyOp30
 70
     1
102
RTVSPropertyOp31
 70
     1
102
RTVSPropertyOp32
 70
     1
102
RTVSPropertyOp33
 70
     1
102
RTVSPropertyOp34
 70
     1
102
RTVSPropertyOp35
 70
     1
102
RTVSPropertyOp36
 70
     1
102
RTVSPropertyOp37
 70
     1
102
RTVSPropertyOp38
 70
     1
102
RTVSPropertyOp39
 70
     1
102
RTVSPropertyOp40
 70
     1
102
RTVSPropertyOp41
 70
     1
102
RTVSPropertyOp42
 70
     1
102
RTVSPropertyOp43
 70
     1
102
RTVSPropertyOp44
 70
     1
102
RTVSPropertyOp45
 70
     1
102
RTVSPropertyOp46
 70
     1
102
RTVSPropertyOp47
 70
     1
102
RTVSPropertyOp48
 70
     1
102
RTVSPropertyOp49
 70
     1
102
RTVSPropertyOp50
 70
     1
102
RTVSPropertyOp51
 70
     0
102
RTVSPropertyOp52
 70
     0
102
RTVSPropertyOp53
 70
     1
102
RTVSPropertyOp54
 70
     1
102
RTVSPropertyOp55
 70
     1
102
RTVSPropertyOp56
 70
     1
102
RTVSPropertyOp57
 70
     1
102
RTVSPost2010Prop28
280
     0
102
RTVSPost2010PropOp28
 70
     1
102
RTVSPost2010Prop29
280
     1
102
RTVSPost2010PropOp29
 70
     1
102
RTVSPost2010Prop30
280
     1
102
RTVSPost2010PropOp30
 70
     1
102
RTVSPost2010Prop31
280
     0
102
RTVSPost2010PropOp31
 70
     1
102
RTVSPost2010Prop32
280
     0
102
RTVSPost2010PropOp32
 70
     1
102
RTVSPost2010Prop33
280
     0
102
RTVSPost2010PropOp33
 70
     1
102
RTVSPost2010Prop34
280
     0
102
RTVSPost2010PropOp34
 70
     1
102
RTVSPost2010Prop35
280
     0
102
RTVSPost2010PropOp35
 70
     1
102
RTVSPost2010Prop36
280
     0
102
RTVSPost2010PropOp36
 70
     1
102
RTVSPost2010Prop37
 90
       50
102
RTVSPost2010PropOp37
 70
     1
102
RTVSPost2010Prop38
140
0.0
102
RTVSPost2010PropOp38
 70
     1
102
RTVSPost2010Prop39
140
1.0
102
RTVSPost2010PropOp39
 70
     1
102
RTVSPost2010Prop40
 90
        0
102
RTVSPost2010PropOp40
 70
     1
102
RTVSPost2010Prop41ColorIndex
 90
       18
102
RTVSPost2010Prop41ColorRGB
 90
        0
102
RTVSPost2010PropOp41
 70
     1
102
RTVSPost2010Prop42
 90
       50
102
RTVSPost2010PropOp42
 70
     1
102
RTVSPost2010Prop43
 90
        3
102
RTVSPost2010PropOp43
 70
     1
102
RTVSPost2010Prop44ColorIndex
 90
        5
102
RTVSPost2010Prop44ColorRGB
 90
      255
102
RTVSPost2010PropOp44
 70
     1
102
RTVSPost2010Prop45
280
     0
102
RTVSPost2010PropOp45
 70
     1
102
RTVSPost2010Prop46
 90
       50
102
RTVSPost2010PropOp46
 70
     1
102
RTVSPost2010Prop47
 90
       50
102
RTVSPost2010PropOp47
 70
     1
102
RTVSPost2010Prop48
 90
       50
102
RTVSPost2010PropOp48
 70
     1
102
RTVSPost2010Prop49
280
     0
102
RTVSPost2010PropOp49
 70
     1
102
RTVSPost2010Prop50
 90
       50
102
RTVSPost2010PropOp50
 70
     1
102
RTVSPost2010Prop51ColorIndex
 90
      256
102
RTVSPost2010Prop51ColorRGB
 90
-16777216
102
RTVSPost2010PropOp51
 70
     0
102
RTVSPost2010Prop52
140
1.0
102
RTVSPost2010PropOp52
 70
     0
102
RTVSPost2010Prop53
 90
        2
102
RTVSPost2010PropOp53
 70
     1
102
RTVSPost2010Prop54
  1
strokes_ogs.tif
102
RTVSPost2010PropOp54
 70
     1
102
RTVSPost2010Prop55
280
     0
102
RTVSPost2010PropOp55
 70
     1
102
RTVSPost2010Prop56
140
1.0
102
RTVSPost2010PropOp56
 70
     1
102
RTVSPost2010Prop57
140
1.0
102
RTVSPost2010PropOp57
 70
     1
  0
XRECORD
  5
305
102
{ACAD_REACTORS
330
304
102
}
330
304
100
AcDbXrecord
280
     1
102
RTVSPropertyOp0
 70
     1
102
RTVSPropertyOp1
 70
     1
102
RTVSPropertyOp2
 70
     1
102
RTVSPropertyOp3
 70
     1
102
RTVSPropertyOp4
 70
     1
102
RTVSPropertyOp5
 70
     1
102
RTVSPropertyOp6
 70
     1
102
RTVSPropertyOp7
 70
     1
102
RTVSPropertyOp8
 70
     1
102
RTVSPropertyOp9
 70
     1
102
RTVSPropertyOp10
 70
     1
102
RTVSPropertyOp11
 70
     1
102
RTVSPropertyOp12
 70
     1
102
RTVSPropertyOp13
 70
     1
102
RTVSPropertyOp14
 70
     1
102
RTVSPropertyOp15
 70
     1
102
RTVSPropertyOp16
 70
     1
102
RTVSPropertyOp17
 70
     1
102
RTVSPropertyOp18
 70
     1
102
RTVSPropertyOp19
 70
     1
102
RTVSPropertyOp20
 70
     1
102
RTVSPropertyOp21
 70
     1
102
RTVSPropertyOp22
 70
     1
102
RTVSPropertyOp23
 70
     1
102
RTVSPropertyOp24
 70
     1
102
RTVSPropertyOp25
 70
     1
102
RTVSPropertyOp26
 70
     1
102
RTVSPropertyOp27
 70
     1
102
RTVSPropertyOp28
 70
     1
102
RTVSPropertyOp29
 70
     1
102
RTVSPropertyOp30
 70
     1
102
RTVSPropertyOp31
 70
     1
102
RTVSPropertyOp32
 70
     1
102
RTVSPropertyOp33
 70
     1
102
RTVSPropertyOp34
 70
     1
102
RTVSPropertyOp35
 70
     1
102
RTVSPropertyOp36
 70
     1
102
RTVSPropertyOp37
 70
     1
102
RTVSPropertyOp38
 70
     1
102
RTVSPropertyOp39
 70
     1
102
RTVSPropertyOp40
 70
     1
102
RTVSPropertyOp41
 70
     1
102
RTVSPropertyOp42
 70
     1
102
RTVSPropertyOp43
 70
     1
102
RTVSPropertyOp44
 70
     1
102
RTVSPropertyOp45
 70
     1
102
RTVSPropertyOp46
 70
     1
102
RTVSPropertyOp47
 70
     1
102
RTVSPropertyOp48
 70
     1
102
RTVSPropertyOp49
 70
     1
102
RTVSPropertyOp50
 70
     1
102
RTVSPropertyOp51
 70
     0
102
RTVSPropertyOp52
 70
     0
102
RTVSPropertyOp53
 70
     1
102
RTVSPropertyOp54
 70
     1
102
RTVSPropertyOp55
 70
     1
102
RTVSPropertyOp56
 70
     1
102
RTVSPropertyOp57
 70
     1
102
RTVSPost2010Prop28
280
     0
102
RTVSPost2010PropOp28
 70
     1
102
RTVSPost2010Prop29
280
     1
102
RTVSPost2010PropOp29
 70
     1
102
RTVSPost2010Prop30
280
     1
102
RTVSPost2010PropOp30
 70
     1
102
RTVSPost2010Prop31
280
     0
102
RTVSPost2010PropOp31
 70
     1
102
RTVSPost2010Prop32
280
     0
102
RTVSPost2010PropOp32
 70
     1
102
RTVSPost2010Prop33
280
     0
102
RTVSPost2010PropOp33
 70
     1
102
RTVSPost2010Prop34
280
     0
102
RTVSPost2010PropOp34
 70
     1
102
RTVSPost2010Prop35
280
     0
102
RTVSPost2010PropOp35
 70
     1
102
RTVSPost2010Prop36
280
     0
102
RTVSPost2010PropOp36
 70
     1
102
RTVSPost2010Prop37
 90
       50
102
RTVSPost2010PropOp37
 70
     1
102
RTVSPost2010Prop38
140
0.0
102
RTVSPost2010PropOp38
 70
     1
102
RTVSPost2010Prop39
140
1.0
102
RTVSPost2010PropOp39
 70
     1
102
RTVSPost2010Prop40
 90
        0
102
RTVSPost2010PropOp40
 70
     1
102
RTVSPost2010Prop41ColorIndex
 90
       18
102
RTVSPost2010Prop41ColorRGB
 90
        0
102
RTVSPost2010PropOp41
 70
     1
102
RTVSPost2010Prop42
 90
       50
102
RTVSPost2010PropOp42
 70
     1
102
RTVSPost2010Prop43
 90
        3
102
RTVSPost2010PropOp43
 70
     1
102
RTVSPost2010Prop44ColorIndex
 90
        5
102
RTVSPost2010Prop44ColorRGB
 90
      255
102
RTVSPost2010PropOp44
 70
     1
102
RTVSPost2010Prop45
280
     0
102
RTVSPost2010PropOp45
 70
     1
102
RTVSPost2010Prop46
 90
       50
102
RTVSPost2010PropOp46
 70
     1
102
RTVSPost2010Prop47
 90
       50
102
RTVSPost2010PropOp47
 70
     1
102
RTVSPost2010Prop48
 90
       50
102
RTVSPost2010PropOp48
 70
     1
102
RTVSPost2010Prop49
280
     0
102
RTVSPost2010PropOp49
 70
     1
102
RTVSPost2010Prop50
 90
       50
102
RTVSPost2010PropOp50
 70
     1
102
RTVSPost2010Prop51ColorIndex
 90
      256
102
RTVSPost2010Prop51ColorRGB
 90
-16777216
102
RTVSPost2010PropOp51
 70
     0
102
RTVSPost2010Prop52
140
1.0
102
RTVSPost2010PropOp52
 70
     0
102
RTVSPost2010Prop53
 90
        2
102
RTVSPost2010PropOp53
 70
     1
102
RTVSPost2010Prop54
  1
strokes_ogs.tif
102
RTVSPost2010PropOp54
 70
     1
102
RTVSPost2010Prop55
280
     0
102
RTVSPost2010PropOp55
 70
     1
102
RTVSPost2010Prop56
140
1.0
102
RTVSPost2010PropOp56
 70
     1
102
RTVSPost2010Prop57
140
1.0
102
RTVSPost2010PropOp57
 70
     1
  0
XRECORD
  5
325
102
{ACAD_REACTORS
330
324
102
}
330
324
100
AcDbXrecord
280
     1
102
RTVSPropertyOp0
 70
     1
102
RTVSPropertyOp1
 70
     1
102
RTVSPropertyOp2
 70
     1
102
RTVSPropertyOp3
 70
     1
102
RTVSPropertyOp4
 70
     1
102
RTVSPropertyOp5
 70
     1
102
RTVSPropertyOp6
 70
     1
102
RTVSPropertyOp7
 70
     1
102
RTVSPropertyOp8
 70
     1
102
RTVSPropertyOp9
 70
     1
102
RTVSPropertyOp10
 70
     1
102
RTVSPropertyOp11
 70
     1
102
RTVSPropertyOp12
 70
     1
102
RTVSPropertyOp13
 70
     1
102
RTVSPropertyOp14
 70
     1
102
RTVSPropertyOp15
 70
     1
102
RTVSPropertyOp16
 70
     1
102
RTVSPropertyOp17
 70
     1
102
RTVSPropertyOp18
 70
     1
102
RTVSPropertyOp19
 70
     1
102
RTVSPropertyOp20
 70
     1
102
RTVSPropertyOp21
 70
     1
102
RTVSPropertyOp22
 70
     1
102
RTVSPropertyOp23
 70
     1
102
RTVSPropertyOp24
 70
     1
102
RTVSPropertyOp25
 70
     1
102
RTVSPropertyOp26
 70
     1
102
RTVSPropertyOp27
 70
     1
102
RTVSPropertyOp28
 70
     1
102
RTVSPropertyOp29
 70
     1
102
RTVSPropertyOp30
 70
     1
102
RTVSPropertyOp31
 70
     1
102
RTVSPropertyOp32
 70
     1
102
RTVSPropertyOp33
 70
     1
102
RTVSPropertyOp34
 70
     1
102
RTVSPropertyOp35
 70
     1
102
RTVSPropertyOp36
 70
     1
102
RTVSPropertyOp37
 70
     1
102
RTVSPropertyOp38
 70
     1
102
RTVSPropertyOp39
 70
     1
102
RTVSPropertyOp40
 70
     1
102
RTVSPropertyOp41
 70
     1
102
RTVSPropertyOp42
 70
     1
102
RTVSPropertyOp43
 70
     1
102
RTVSPropertyOp44
 70
     1
102
RTVSPropertyOp45
 70
     1
102
RTVSPropertyOp46
 70
     1
102
RTVSPropertyOp47
 70
     1
102
RTVSPropertyOp48
 70
     1
102
RTVSPropertyOp49
 70
     1
102
RTVSPropertyOp50
 70
     1
102
RTVSPropertyOp51
 70
     0
102
RTVSPropertyOp52
 70
     0
102
RTVSPropertyOp53
 70
     1
102
RTVSPropertyOp54
 70
     1
102
RTVSPropertyOp55
 70
     1
102
RTVSPropertyOp56
 70
     1
102
RTVSPropertyOp57
 70
     1
102
RTVSPost2010Prop28
280
     0
102
RTVSPost2010PropOp28
 70
     1
102
RTVSPost2010Prop29
280
     1
102
RTVSPost2010PropOp29
 70
     1
102
RTVSPost2010Prop30
280
     1
102
RTVSPost2010PropOp30
 70
     1
102
RTVSPost2010Prop31
280
     0
102
RTVSPost2010PropOp31
 70
     1
102
RTVSPost2010Prop32
280
     0
102
RTVSPost2010PropOp32
 70
     1
102
RTVSPost2010Prop33
280
     0
102
RTVSPost2010PropOp33
 70
     1
102
RTVSPost2010Prop34
280
     0
102
RTVSPost2010PropOp34
 70
     1
102
RTVSPost2010Prop35
280
     0
102
RTVSPost2010PropOp35
 70
     1
102
RTVSPost2010Prop36
280
     0
102
RTVSPost2010PropOp36
 70
     1
102
RTVSPost2010Prop37
 90
       50
102
RTVSPost2010PropOp37
 70
     1
102
RTVSPost2010Prop38
140
0.0
102
RTVSPost2010PropOp38
 70
     1
102
RTVSPost2010Prop39
140
1.0
102
RTVSPost2010PropOp39
 70
     1
102
RTVSPost2010Prop40
 90
        0
102
RTVSPost2010PropOp40
 70
     1
102
RTVSPost2010Prop41ColorIndex
 90
       18
102
RTVSPost2010Prop41ColorRGB
 90
        0
102
RTVSPost2010PropOp41
 70
     1
102
RTVSPost2010Prop42
 90
       50
102
RTVSPost2010PropOp42
 70
     1
102
RTVSPost2010Prop43
 90
        3
102
RTVSPost2010PropOp43
 70
     1
102
RTVSPost2010Prop44ColorIndex
 90
        5
102
RTVSPost2010Prop44ColorRGB
 90
      255
102
RTVSPost2010PropOp44
 70
     1
102
RTVSPost2010Prop45
280
     0
102
RTVSPost2010PropOp45
 70
     1
102
RTVSPost2010Prop46
 90
       50
102
RTVSPost2010PropOp46
 70
     1
102
RTVSPost2010Prop47
 90
       50
102
RTVSPost2010PropOp47
 70
     1
102
RTVSPost2010Prop48
 90
       50
102
RTVSPost2010PropOp48
 70
     1
102
RTVSPost2010Prop49
280
     0
102
RTVSPost2010PropOp49
 70
     1
102
RTVSPost2010Prop50
 90
       50
102
RTVSPost2010PropOp50
 70
     1
102
RTVSPost2010Prop51ColorIndex
 90
      256
102
RTVSPost2010Prop51ColorRGB
 90
-16777216
102
RTVSPost2010PropOp51
 70
     0
102
RTVSPost2010Prop52
140
1.0
102
RTVSPost2010PropOp52
 70
     0
102
RTVSPost2010Prop53
 90
        2
102
RTVSPost2010PropOp53
 70
     1
102
RTVSPost2010Prop54
  1
strokes_ogs.tif
102
RTVSPost2010PropOp54
 70
     1
102
RTVSPost2010Prop55
280
     0
102
RTVSPost2010PropOp55
 70
     1
102
RTVSPost2010Prop56
140
1.0
102
RTVSPost2010PropOp56
 70
     1
102
RTVSPost2010Prop57
140
1.0
102
RTVSPost2010PropOp57
 70
     1
  0
ENDSEC
  0
EOF
