  0
SECTION
  2
HEADER
  9
$ACADVER
  1
AC1015
  9
$ACADMAINTVER
 70
     6
  9
$DWGCODEPAGE
  3
ANSI_932
  9
$INSBASE
 10
0.0
 20
0.0
 30
0.0
  9
$EXTMIN
 10
1.000000000000000E+20
 20
1.000000000000000E+20
 30
1.000000000000000E+20
  9
$EXTMAX
 10
-1.000000000000000E+20
 20
-1.000000000000000E+20
 30
-1.000000000000000E+20
  9
$LIMMIN
 10
0.0
 20
0.0
  9
$LIMMAX
 10
12.0
 20
9.0
  9
$ORTHOMODE
 70
     0
  9
$REGENMODE
 70
     1
  9
$FILLMODE
 70
     1
  9
$QTEXTMODE
 70
     0
  9
$MIRRTEXT
 70
     1
  9
$LTSCALE
 40
1.0
  9
$ATTMODE
 70
     1
  9
$TEXTSIZE
 40
0.2
  9
$TRACEWID
 40
0.05
  9
$TEXTSTYLE
  7
Standard
  9
$CLAYER
  8
0
  9
$CELTYPE
  6
ByLayer
  9
$CECOLOR
 62
   256
  9
$CELTSCALE
 40
1.0
  9
$DISPSILH
 70
     0
  9
$DIMSCALE
 40
1.0
  9
$DIMASZ
 40
0.18
  9
$DIMEXO
 40
0.0625
  9
$DIMDLI
 40
0.38
  9
$DIMRND
 40
0.0
  9
$DIMDLE
 40
0.0
  9
$DIMEXE
 40
0.18
  9
$DIMTP
 40
0.0
  9
$DIMTM
 40
0.0
  9
$DIMTXT
 40
0.18
  9
$DIMCEN
 40
0.09
  9
$DIMTSZ
 40
0.0
  9
$DIMTOL
 70
     0
  9
$DIMLIM
 70
     0
  9
$DIMTIH
 70
     1
  9
$DIMTOH
 70
     1
  9
$DIMSE1
 70
     0
  9
$DIMSE2
 70
     0
  9
$DIMTAD
 70
     0
  9
$DIMZIN
 70
     0
  9
$DIMBLK
  1

  9
$DIMASO
 70
     1
  9
$DIMSHO
 70
     1
  9
$DIMPOST
  1

  9
$DIMAPOST
  1

  9
$DIMALT
 70
     0
  9
$DIMALTD
 70
     2
  9
$DIMALTF
 40
25.4
  9
$DIMLFAC
 40
1.0
  9
$DIMTOFL
 70
     0
  9
$DIMTVP
 40
0.0
  9
$DIMTIX
 70
     0
  9
$DIMSOXD
 70
     0
  9
$DIMSAH
 70
     0
  9
$DIMBLK1
  1

  9
$DIMBLK2
  1

  9
$DIMSTYLE
  2
Standard
  9
$DIMCLRD
 70
     0
  9
$DIMCLRE
 70
     0
  9
$DIMCLRT
 70
     0
  9
$DIMTFAC
 40
1.0
  9
$DIMGAP
 40
0.09
  9
$DIMJUST
 70
     0
  9
$DIMSD1
 70
     0
  9
$DIMSD2
 70
     0
  9
$DIMTOLJ
 70
     1
  9
$DIMTZIN
 70
     0
  9
$DIMALTZ
 70
     0
  9
$DIMALTTZ
 70
     0
  9
$DIMUPT
 70
     0
  9
$DIMDEC
 70
     4
  9
$DIMTDEC
 70
     4
  9
$DIMALTU
 70
     2
  9
$DIMALTTD
 70
     2
  9
$DIMTXSTY
  7
Standard
  9
$DIMAUNIT
 70
     0
  9
$DIMADEC
 70
     0
  9
$DIMALTRND
 40
0.0
  9
$DIMAZIN
 70
     0
  9
$DIMDSEP
 70
    46
  9
$DIMATFIT
 70
     3
  9
$DIMFRAC
 70
     0
  9
$DIMLDRBLK
  1

  9
$DIMLUNIT
 70
     2
  9
$DIMLWD
 70
    -2
  9
$DIMLWE
 70
    -2
  9
$DIMTMOVE
 70
     0
  9
$LUNITS
 70
     2
  9
$LUPREC
 70
     4
  9
$SKETCHINC
 40
0.1
  9
$FILLETRAD
 40
0.5
  9
$AUNITS
 70
     0
  9
$AUPREC
 70
     0
  9
$MENU
  1
.
  9
$ELEVATION
 40
0.0
  9
$PELEVATION
 40
0.0
  9
$THICKNESS
 40
0.0
  9
$LIMCHECK
 70
     0
  9
$CHAMFERA
 40
0.5
  9
$CHAMFERB
 40
0.5
  9
$CHAMFERC
 40
1.0
  9
$CHAMFERD
 40
0.0
  9
$SKPOLY
 70
     0
  9
$TDCREATE
 40
2457920.688028032
  9
$TDUCREATE
 40
2457920.313028032
  9
$TDUPDATE
 40
2457920.688028044
  9
$TDUUPDATE
 40
2457920.313028044
  9
$TDINDWG
 40
0.0000000116
  9
$TDUSRTIMER
 40
0.0000000116
  9
$USRTIMER
 70
     1
  9
$ANGBASE
 50
0.0
  9
$ANGDIR
 70
     0
  9
$PDMODE
 70
     0
  9
$PDSIZE
 40
0.0
  9
$PLINEWID
 40
0.0
  9
$SPLFRAME
 70
     0
  9
$SPLINETYPE
 70
     6
  9
$SPLINESEGS
 70
     8
  9
$HANDSEED
  5
766
  9
$SURFTAB1
 70
     6
  9
$SURFTAB2
 70
     6
  9
$SURFTYPE
 70
     6
  9
$SURFU
 70
     6
  9
$SURFV
 70
     6
  9
$UCSBASE
  2

  9
$UCSNAME
  2

  9
$UCSORG
 10
0.0
 20
0.0
 30
0.0
  9
$UCSXDIR
 10
1.0
 20
0.0
 30
0.0
  9
$UCSYDIR
 10
0.0
 20
1.0
 30
0.0
  9
$UCSORTHOREF
  2

  9
$UCSORTHOVIEW
 70
     0
  9
$UCSORGTOP
 10
0.0
 20
0.0
 30
0.0
  9
$UCSORGBOTTOM
 10
0.0
 20
0.0
 30
0.0
  9
$UCSORGLEFT
 10
0.0
 20
0.0
 30
0.0
  9
$UCSORGRIGHT
 10
0.0
 20
0.0
 30
0.0
  9
$UCSORGFRONT
 10
0.0
 20
0.0
 30
0.0
  9
$UCSORGBACK
 10
0.0
 20
0.0
 30
0.0
  9
$PUCSBASE
  2

  9
$PUCSNAME
  2

  9
$PUCSORG
 10
0.0
 20
0.0
 30
0.0
  9
$PUCSXDIR
 10
1.0
 20
0.0
 30
0.0
  9
$PUCSYDIR
 10
0.0
 20
1.0
 30
0.0
  9
$PUCSORTHOREF
  2

  9
$PUCSORTHOVIEW
 70
     0
  9
$PUCSORGTOP
 10
0.0
 20
0.0
 30
0.0
  9
$PUCSORGBOTTOM
 10
0.0
 20
0.0
 30
0.0
  9
$PUCSORGLEFT
 10
0.0
 20
0.0
 30
0.0
  9
$PUCSORGRIGHT
 10
0.0
 20
0.0
 30
0.0
  9
$PUCSORGFRONT
 10
0.0
 20
0.0
 30
0.0
  9
$PUCSORGBACK
 10
0.0
 20
0.0
 30
0.0
  9
$USERI1
 70
     0
  9
$USERI2
 70
     0
  9
$USERI3
 70
     0
  9
$USERI4
 70
     0
  9
$USERI5
 70
     0
  9
$USERR1
 40
0.0
  9
$USERR2
 40
0.0
  9
$USERR3
 40
0.0
  9
$USERR4
 40
0.0
  9
$USERR5
 40
0.0
  9
$WORLDVIEW
 70
     1
  9
$SHADEDGE
 70
     3
  9
$SHADEDIF
 70
    70
  9
$TILEMODE
 70
     1
  9
$MAXACTVP
 70
    64
  9
$PINSBASE
 10
0.0
 20
0.0
 30
0.0
  9
$PLIMCHECK
 70
     0
  9
$PEXTMIN
 10
1.000000000000000E+20
 20
1.000000000000000E+20
 30
1.000000000000000E+20
  9
$PEXTMAX
 10
-1.000000000000000E+20
 20
-1.000000000000000E+20
 30
-1.000000000000000E+20
  9
$PLIMMIN
 10
0.0
 20
0.0
  9
$PLIMMAX
 10
12.0
 20
9.0
  9
$UNITMODE
 70
     0
  9
$VISRETAIN
 70
     1
  9
$PLINEGEN
 70
     0
  9
$PSLTSCALE
 70
     1
  9
$TREEDEPTH
 70
  3020
  9
$CMLSTYLE
  2
Standard
  9
$CMLJUST
 70
     0
  9
$CMLSCALE
 40
1.0
  9
$PROXYGRAPHICS
 70
     1
  9
$MEASUREMENT
 70
     0
  9
$CELWEIGHT
370
    -1
  9
$ENDCAPS
280
     0
  9
$JOINSTYLE
280
     0
  9
$LWDISPLAY
290
     1
  9
$INSUNITS
 70
     0
  9
$HYPERLINKBASE
  1

  9
$STYLESHEET
  1

  9
$XEDIT
290
     1
  9
$CEPSNTYPE
380
     0
  9
$PSTYLEMODE
290
     1
  9
$FINGERPRINTGUID
  2
{168B616A-BD5F-4387-9C0D-4FD0CC29CE87}
  9
$VERSIONGUID
  2
{FAEB1C32-E019-11D5-929B-00C0DF256EC4}
  9
$EXTNAMES
290
     1
  9
$PSVPSCALE
 40
0.0
  9
$OLESTARTUP
290
     0
  0
ENDSEC
  0
SECTION
  2
CLASSES
  0
CLASS
  1
ACDBDICTIONARYWDFLT
  2
AcDbDictionaryWithDefault
  3
ObjectDBX Classes
 90
        0
280
     0
281
     0
  0
CLASS
  1
VISUALSTYLE
  2
AcDbVisualStyle
  3
ObjectDBX Classes
 90
     4095
280
     0
281
     0
  0
CLASS
  1
ACDBPLACEHOLDER
  2
AcDbPlaceHolder
  3
ObjectDBX Classes
 90
        0
280
     0
281
     0
  0
CLASS
  1
LAYOUT
  2
AcDbLayout
  3
ObjectDBX Classes
 90
        0
280
     0
281
     0
  0
ENDSEC
  0
SECTION
  2
TABLES
  0
TABLE
  2
VPORT
  5
8
330
0
100
AcDbSymbolTable
 70
     1
  0
VPORT
  5
29
330
8
100
AcDbSymbolTableRecord
100
AcDbViewportTableRecord
  2
*Active
 70
     0
 10
0.0
 20
0.0
 11
1.0
 21
1.0
 12
10.42990654205607
 22
4.5
 13
0.0
 23
0.0
 14
0.5
 24
0.5
 15
0.5
 25
0.5
 16
0.0
 26
0.0
 36
1.0
 17
0.0
 27
0.0
 37
0.0
 40
9.0
 41
1.972972972850329
 42
50.0
 43
0.0
 44
0.0
 50
0.0
 51
0.0
 71
     0
 72
   100
 73
     1
 74
     3
 75
     0
 76
     0
 77
     0
 78
     0
281
     0
 65
     1
110
0.0
120
0.0
130
0.0
111
1.0
121
0.0
131
0.0
112
0.0
122
1.0
132
0.0
 79
     0
146
0.0
  0
ENDTAB
  0
TABLE
  2
LTYPE
  5
5
330
0
100
AcDbSymbolTable
 70
     1
  0
LTYPE
  5
14
330
5
100
AcDbSymbolTableRecord
100
AcDbLinetypeTableRecord
  2
ByBlock
 70
     0
  3

 72
    65
 73
     0
 40
0.0
  0
LTYPE
  5
15
330
5
100
AcDbSymbolTableRecord
100
AcDbLinetypeTableRecord
  2
ByLayer
 70
     0
  3

 72
    65
 73
     0
 40
0.0
  0
LTYPE
  5
16
330
5
100
AcDbSymbolTableRecord
100
AcDbLinetypeTableRecord
  2
Continuous
 70
     0
  3
Solid line
 72
    65
 73
     0
 40
0.0
  0
ENDTAB
  0
TABLE
  2
LAYER
  5
2
330
0
100
AcDbSymbolTable
 70
     2
  0
LAYER
  5
10
330
2
100
AcDbSymbolTableRecord
100
AcDbLayerTableRecord
  2
0
 70
     0
 62
     7
  6
Continuous
370
    -3
390
F
  0
LAYER
  5
3B
330
2
100
AcDbSymbolTableRecord
100
AcDbLayerTableRecord
  2
ｴｸｽﾃﾘｱ商品
 70
     0
 62
     7
  6
Continuous
370
    -3
390
F
  0
ENDTAB
  0
TABLE
  2
STYLE
  5
3
330
0
100
AcDbSymbolTable
 70
     1
  0
STYLE
  5
11
330
3
100
AcDbSymbolTableRecord
100
AcDbTextStyleTableRecord
  2
Standard
 70
     0
 40
0.0
 41
1.0
 50
0.0
 71
     0
 42
0.2
  3
txt
  4
EXTFONT.SHX
  0
ENDTAB
  0
TABLE
  2
VIEW
  5
6
330
0
100
AcDbSymbolTable
 70
     0
  0
ENDTAB
  0
TABLE
  2
UCS
  5
7
330
0
100
AcDbSymbolTable
 70
     0
  0
ENDTAB
  0
TABLE
  2
APPID
  5
9
330
0
100
AcDbSymbolTable
 70
     1
  0
APPID
  5
12
330
9
100
AcDbSymbolTableRecord
100
AcDbRegAppTableRecord
  2
ACAD
 70
     0
  0
ENDTAB
  0
TABLE
  2
DIMSTYLE
  5
A
330
0
100
AcDbSymbolTable
 70
     1
100
AcDbDimStyleTable
  0
DIMSTYLE
105
27
330
A
100
AcDbSymbolTableRecord
100
AcDbDimStyleTableRecord
  2
Standard
 70
     0
340
11
  0
ENDTAB
  0
TABLE
  2
BLOCK_RECORD
  5
1
330
0
100
AcDbSymbolTable
 70
     2
  0
BLOCK_RECORD
  5
1F
330
1
100
AcDbSymbolTableRecord
100
AcDbBlockTableRecord
  2
*Model_Space
340
22
  0
BLOCK_RECORD
  5
1B
330
1
100
AcDbSymbolTableRecord
100
AcDbBlockTableRecord
  2
*Paper_Space
340
1E
  0
BLOCK_RECORD
  5
23
330
1
100
AcDbSymbolTableRecord
100
AcDbBlockTableRecord
  2
*Paper_Space0
340
26
  0
BLOCK_RECORD
  5
3C
330
1
100
AcDbSymbolTableRecord
100
AcDbBlockTableRecord
  2
オブジェクト_175
340
0
102
{BLKREFS
331
762
102
}
  0
ENDTAB
  0
ENDSEC
  0
SECTION
  2
BLOCKS
  0
BLOCK
  5
20
330
1F
100
AcDbEntity
  8
0
100
AcDbBlockBegin
  2
*Model_Space
 70
     0
 71
     0
 10
0.0
 20
0.0
 30
0.0
  3
*Model_Space
  1

  0
ENDBLK
  5
21
330
1F
100
AcDbEntity
  8
0
100
AcDbBlockEnd
  0
BLOCK
  5
1C
330
1B
100
AcDbEntity
 67
     1
  8
0
100
AcDbBlockBegin
  2
*Paper_Space
 70
     0
 71
     0
 10
0.0
 20
0.0
 30
0.0
  3
*Paper_Space
  1

  0
ENDBLK
  5
1D
330
1B
100
AcDbEntity
 67
     1
  8
0
100
AcDbBlockEnd
  0
BLOCK
  5
24
330
23
100
AcDbEntity
  8
0
100
AcDbBlockBegin
  2
*Paper_Space0
 70
     0
 71
     0
 10
0.0
 20
0.0
 30
0.0
  3
*Paper_Space0
  1

  0
ENDBLK
  5
25
330
23
100
AcDbEntity
  8
0
100
AcDbBlockEnd
  0
BLOCK
  5
3D
330
3C
100
AcDbEntity
  8
0
100
AcDbBlockBegin
  2
オブジェクト_175
 70
     0
 71
     0
 10
261.6180824131682
 20
1393.918479908237
 30
0.0
  3
オブジェクト_175
  1

  0
POLYLINE
  5
3F
330
3C
100
AcDbEntity
  8
ｴｸｽﾃﾘｱ商品
 62
   253
370
    20
100
AcDbPolyFaceMesh
 66
     1
 10
0.0
 20
0.0
 30
0.0
 70
    64
 71
    16
 72
    20
  0
VERTEX
  5
41
330
3F
100
AcDbEntity
  8
ｴｸｽﾃﾘｱ商品
 62
   253
370
    20
100
AcDbVertex
100
AcDbPolyFaceMeshVertex
 10
446.6180824131682
 20
568.9184799082369
 30
11.0
 70
   192
  0
VERTEX
  5
42
330
3F
100
AcDbEntity
  8
ｴｸｽﾃﾘｱ商品
 62
   253
370
    20
100
AcDbVertex
100
AcDbPolyFaceMeshVertex
 10
446.6180824131682
 20
550.4184799082369
 30
11.0
 70
   192
  0
VERTEX
  5
43
330
3F
100
AcDbEntity
  8
ｴｸｽﾃﾘｱ商品
 62
   253
370
    20
100
AcDbVertex
100
AcDbPolyFaceMeshVertex
 10
446.6180824131682
 20
550.4184799082369
 30
441.0
 70
   192
  0
VERTEX
  5
44
330
3F
100
AcDbEntity
  8
ｴｸｽﾃﾘｱ商品
 62
   253
370
    20
100
AcDbVertex
100
AcDbPolyFaceMeshVertex
 10
446.6180824131682
 20
568.9184799082369
 30
441.0
 70
   192
  0
VERTEX
  5
45
330
3F
100
AcDbEntity
  8
ｴｸｽﾃﾘｱ商品
 62
   253
370
    20
100
AcDbVertex
100
AcDbPolyFaceMeshVertex
 10
443.1180824131682
 20
550.4184799082369
 30
11.0
 70
   192
  0
VERTEX
  5
46
330
3F
100
AcDbEntity
  8
ｴｸｽﾃﾘｱ商品
 62
   253
370
    20
100
AcDbVertex
100
AcDbPolyFaceMeshVertex
 10
443.1180824131682
 20
550.4184799082369
 30
441.0
 70
   192
  0
VERTEX
  5
47
330
3F
100
AcDbEntity
  8
ｴｸｽﾃﾘｱ商品
 62
   253
370
    20
100
AcDbVertex
100
AcDbPolyFaceMeshVertex
 10
443.1180824131682
 20
513.9184799082369
 30
11.0
 70
   192
  0
VERTEX
  5
48
330
3F
100
AcDbEntity
  8
ｴｸｽﾃﾘｱ商品
 62
   253
370
    20
100
AcDbVertex
100
AcDbPolyFaceMeshVertex
 10
443.1180824131682
 20
513.9184799082369
 30
441.0
 70
   192
  0
VERTEX
  5
49
330
3F
100
AcDbEntity
  8
ｴｸｽﾃﾘｱ商品
 62
   253
370
    20
100
AcDbVertex
100
AcDbPolyFaceMeshVertex
 10
480.1180824131682
 20
513.9184799082369
 30
11.0
 70
   192
  0
VERTEX
  5
4A
330
3F
100
AcDbEntity
  8
ｴｸｽﾃﾘｱ商品
 62
   253
370
    20
100
AcDbVertex
100
AcDbPolyFaceMeshVertex
 10
480.1180824131682
 20
513.9184799082369
 30
441.0
 70
   192
  0
VERTEX
  5
4B
330
3F
100
AcDbEntity
  8
ｴｸｽﾃﾘｱ商品
 62
   253
370
    20
100
AcDbVertex
100
AcDbPolyFaceMeshVertex
 10
480.1180824131682
 20
550.4184799082369
 30
11.0
 70
   192
  0
VERTEX
  5
4C
330
3F
100
AcDbEntity
  8
ｴｸｽﾃﾘｱ商品
 62
   253
370
    20
100
AcDbVertex
100
AcDbPolyFaceMeshVertex
 10
480.1180824131682
 20
550.4184799082369
 30
441.0
 70
   192
  0
VERTEX
  5
4D
330
3F
100
AcDbEntity
  8
ｴｸｽﾃﾘｱ商品
 62
   253
370
    20
100
AcDbVertex
100
AcDbPolyFaceMeshVertex
 10
476.6180824131682
 20
550.4184799082369
 30
11.0
 70
   192
  0
VERTEX
  5
4E
330
3F
100
AcDbEntity
  8
ｴｸｽﾃﾘｱ商品
 62
   253
370
    20
100
AcDbVertex
100
AcDbPolyFaceMeshVertex
 10
476.6180824131682
 20
550.4184799082369
 30
441.0
 70
   192
  0
VERTEX
  5
4F
330
3F
100
AcDbEntity
  8
ｴｸｽﾃﾘｱ商品
 62
   253
370
    20
100
AcDbVertex
100
AcDbPolyFaceMeshVertex
 10
476.6180824131682
 20
568.9184799082369
 30
11.0
 70
   192
  0
VERTEX
  5
50
330
3F
100
AcDbEntity
  8
ｴｸｽﾃﾘｱ商品
 62
   253
370
    20
100
AcDbVertex
100
AcDbPolyFaceMeshVertex
 10
476.6180824131682
 20
568.9184799082369
 30
441.0
 70
   192
  0
VERTEX
  5
51
330
3F
100
AcDbEntity
  8
ｴｸｽﾃﾘｱ商品
 62
   253
370
    20
100
AcDbFaceRecord
 10
0.0
 20
0.0
 30
0.0
 70
   128
 71
     1
 72
     2
 73
     3
 74
     4
  0
VERTEX
  5
52
330
3F
100
AcDbEntity
  8
ｴｸｽﾃﾘｱ商品
 62
   253
370
    20
100
AcDbFaceRecord
 10
0.0
 20
0.0
 30
0.0
 70
   128
 71
     2
 72
     5
 73
     6
 74
     3
  0
VERTEX
  5
53
330
3F
100
AcDbEntity
  8
ｴｸｽﾃﾘｱ商品
 62
   253
370
    20
100
AcDbFaceRecord
 10
0.0
 20
0.0
 30
0.0
 70
   128
 71
     5
 72
     7
 73
     8
 74
     6
  0
VERTEX
  5
54
330
3F
100
AcDbEntity
  8
ｴｸｽﾃﾘｱ商品
 62
   253
370
    20
100
AcDbFaceRecord
 10
0.0
 20
0.0
 30
0.0
 70
   128
 71
     7
 72
     9
 73
    10
 74
     8
  0
VERTEX
  5
55
330
3F
100
AcDbEntity
  8
ｴｸｽﾃﾘｱ商品
 62
   253
370
    20
100
AcDbFaceRecord
 10
0.0
 20
0.0
 30
0.0
 70
   128
 71
     9
 72
    11
 73
    12
 74
    10
  0
VERTEX
  5
56
330
3F
100
AcDbEntity
  8
ｴｸｽﾃﾘｱ商品
 62
   253
370
    20
100
AcDbFaceRecord
 10
0.0
 20
0.0
 30
0.0
 70
   128
 71
    11
 72
    13
 73
    14
 74
    12
  0
VERTEX
  5
57
330
3F
100
AcDbEntity
  8
ｴｸｽﾃﾘｱ商品
 62
   253
370
    20
100
AcDbFaceRecord
 10
0.0
 20
0.0
 30
0.0
 70
   128
 71
    13
 72
    15
 73
    16
 74
    14
  0
VERTEX
  5
58
330
3F
100
AcDbEntity
  8
ｴｸｽﾃﾘｱ商品
 62
   253
370
    20
100
AcDbFaceRecord
 10
0.0
 20
0.0
 30
0.0
 70
   128
 71
    15
 72
     1
 73
     4
 74
    16
  0
VERTEX
  5
59
330
3F
100
AcDbEntity
  8
ｴｸｽﾃﾘｱ商品
 62
   253
370
    20
100
AcDbFaceRecord
 10
0.0
 20
0.0
 30
0.0
 70
   128
 71
     7
 72
     5
 73
     2
  0
VERTEX
  5
5A
330
3F
100
AcDbEntity
  8
ｴｸｽﾃﾘｱ商品
 62
   253
370
    20
100
AcDbFaceRecord
 10
0.0
 20
0.0
 30
0.0
 70
   128
 71
     2
 72
     1
 73
    15
  0
VERTEX
  5
5B
330
3F
100
AcDbEntity
  8
ｴｸｽﾃﾘｱ商品
 62
   253
370
    20
100
AcDbFaceRecord
 10
0.0
 20
0.0
 30
0.0
 70
   128
 71
     2
 72
    15
 73
    13
  0
VERTEX
  5
5C
330
3F
100
AcDbEntity
  8
ｴｸｽﾃﾘｱ商品
 62
   253
370
    20
100
AcDbFaceRecord
 10
0.0
 20
0.0
 30
0.0
 70
   128
 71
     7
 72
     2
 73
    13
  0
VERTEX
  5
5D
330
3F
100
AcDbEntity
  8
ｴｸｽﾃﾘｱ商品
 62
   253
370
    20
100
AcDbFaceRecord
 10
0.0
 20
0.0
 30
0.0
 70
   128
 71
     9
 72
     7
 73
    13
  0
VERTEX
  5
5E
330
3F
100
AcDbEntity
  8
ｴｸｽﾃﾘｱ商品
 62
   253
370
    20
100
AcDbFaceRecord
 10
0.0
 20
0.0
 30
0.0
 70
   128
 71
     9
 72
    13
 73
    11
  0
VERTEX
  5
5F
330
3F
100
AcDbEntity
  8
ｴｸｽﾃﾘｱ商品
 62
   253
370
    20
100
AcDbFaceRecord
 10
0.0
 20
0.0
 30
0.0
 70
   128
 71
     3
 72
     6
 73
     8
  0
VERTEX
  5
60
330
3F
100
AcDbEntity
  8
ｴｸｽﾃﾘｱ商品
 62
   253
370
    20
100
AcDbFaceRecord
 10
0.0
 20
0.0
 30
0.0
 70
   128
 71
    16
 72
     4
 73
     3
  0
VERTEX
  5
61
330
3F
100
AcDbEntity
  8
ｴｸｽﾃﾘｱ商品
 62
   253
370
    20
100
AcDbFaceRecord
 10
0.0
 20
0.0
 30
0.0
 70
   128
 71
    14
 72
    16
 73
     3
  0
VERTEX
  5
62
330
3F
100
AcDbEntity
  8
ｴｸｽﾃﾘｱ商品
 62
   253
370
    20
100
AcDbFaceRecord
 10
0.0
 20
0.0
 30
0.0
 70
   128
 71
    14
 72
     3
 73
     8
  0
VERTEX
  5
63
330
3F
100
AcDbEntity
  8
ｴｸｽﾃﾘｱ商品
 62
   253
370
    20
100
AcDbFaceRecord
 10
0.0
 20
0.0
 30
0.0
 70
   128
 71
    12
 72
    14
 73
    10
  0
VERTEX
  5
64
330
3F
100
AcDbEntity
  8
ｴｸｽﾃﾘｱ商品
 62
   253
370
    20
100
AcDbFaceRecord
 10
0.0
 20
0.0
 30
0.0
 70
   128
 71
    10
 72
    14
 73
     8
  0
SEQEND
  5
40
330
3F
100
AcDbEntity
  8
ｴｸｽﾃﾘｱ商品
370
    20
  0
POLYLINE
  5
65
330
3C
100
AcDbEntity
  8
ｴｸｽﾃﾘｱ商品
 62
   253
370
    20
100
AcDbPolyFaceMesh
 66
     1
 10
0.0
 20
0.0
 30
0.0
 70
    64
 71
    16
 72
    20
  0
VERTEX
  5
67
330
65
100
AcDbEntity
  8
ｴｸｽﾃﾘｱ商品
 62
   253
370
    20
100
AcDbVertex
100
AcDbPolyFaceMeshVertex
 10
3686.618082413168
 20
568.9184799082369
 30
11.0
 70
   192
  0
VERTEX
  5
68
330
65
100
AcDbEntity
  8
ｴｸｽﾃﾘｱ商品
 62
   253
370
    20
100
AcDbVertex
100
AcDbPolyFaceMeshVertex
 10
3686.618082413168
 20
550.4184799082369
 30
11.0
 70
   192
  0
VERTEX
  5
69
330
65
100
AcDbEntity
  8
ｴｸｽﾃﾘｱ商品
 62
   253
370
    20
100
AcDbVertex
100
AcDbPolyFaceMeshVertex
 10
3686.618082413168
 20
550.4184799082369
 30
441.0
 70
   192
  0
VERTEX
  5
6A
330
65
100
AcDbEntity
  8
ｴｸｽﾃﾘｱ商品
 62
   253
370
    20
100
AcDbVertex
100
AcDbPolyFaceMeshVertex
 10
3686.618082413168
 20
568.9184799082369
 30
441.0
 70
   192
  0
VERTEX
  5
6B
330
65
100
AcDbEntity
  8
ｴｸｽﾃﾘｱ商品
 62
   253
370
    20
100
AcDbVertex
100
AcDbPolyFaceMeshVertex
 10
3683.118082413168
 20
550.4184799082369
 30
11.0
 70
   192
  0
VERTEX
  5
6C
330
65
100
AcDbEntity
  8
ｴｸｽﾃﾘｱ商品
 62
   253
370
    20
100
AcDbVertex
100
AcDbPolyFaceMeshVertex
 10
3683.118082413168
 20
550.4184799082369
 30
441.0
 70
   192
  0
VERTEX
  5
6D
330
65
100
AcDbEntity
  8
ｴｸｽﾃﾘｱ商品
 62
   253
370
    20
100
AcDbVertex
100
AcDbPolyFaceMeshVertex
 10
3683.118082413168
 20
513.9184799082369
 30
11.0
 70
   192
  0
VERTEX
  5
6E
330
65
100
AcDbEntity
  8
ｴｸｽﾃﾘｱ商品
 62
   253
370
    20
100
AcDbVertex
100
AcDbPolyFaceMeshVertex
 10
3683.118082413168
 20
513.9184799082369
 30
441.0
 70
   192
  0
VERTEX
  5
6F
330
65
100
AcDbEntity
  8
ｴｸｽﾃﾘｱ商品
 62
   253
370
    20
100
AcDbVertex
100
AcDbPolyFaceMeshVertex
 10
3720.118082413168
 20
513.9184799082369
 30
11.0
 70
   192
  0
VERTEX
  5
70
330
65
100
AcDbEntity
  8
ｴｸｽﾃﾘｱ商品
 62
   253
370
    20
100
AcDbVertex
100
AcDbPolyFaceMeshVertex
 10
3720.118082413168
 20
513.9184799082369
 30
441.0
 70
   192
  0
VERTEX
  5
71
330
65
100
AcDbEntity
  8
ｴｸｽﾃﾘｱ商品
 62
   253
370
    20
100
AcDbVertex
100
AcDbPolyFaceMeshVertex
 10
3720.118082413168
 20
550.4184799082369
 30
11.0
 70
   192
  0
VERTEX
  5
72
330
65
100
AcDbEntity
  8
ｴｸｽﾃﾘｱ商品
 62
   253
370
    20
100
AcDbVertex
100
AcDbPolyFaceMeshVertex
 10
3720.118082413168
 20
550.4184799082369
 30
441.0
 70
   192
  0
VERTEX
  5
73
330
65
100
AcDbEntity
  8
ｴｸｽﾃﾘｱ商品
 62
   253
370
    20
100
AcDbVertex
100
AcDbPolyFaceMeshVertex
 10
3716.618082413168
 20
550.4184799082369
 30
11.0
 70
   192
  0
VERTEX
  5
74
330
65
100
AcDbEntity
  8
ｴｸｽﾃﾘｱ商品
 62
   253
370
    20
100
AcDbVertex
100
AcDbPolyFaceMeshVertex
 10
3716.618082413168
 20
550.4184799082369
 30
441.0
 70
   192
  0
VERTEX
  5
75
330
65
100
AcDbEntity
  8
ｴｸｽﾃﾘｱ商品
 62
   253
370
    20
100
AcDbVertex
100
AcDbPolyFaceMeshVertex
 10
3716.618082413168
 20
568.9184799082369
 30
11.0
 70
   192
  0
VERTEX
  5
76
330
65
100
AcDbEntity
  8
ｴｸｽﾃﾘｱ商品
 62
   253
370
    20
100
AcDbVertex
100
AcDbPolyFaceMeshVertex
 10
3716.618082413168
 20
568.9184799082369
 30
441.0
 70
   192
  0
VERTEX
  5
77
330
65
100
AcDbEntity
  8
ｴｸｽﾃﾘｱ商品
 62
   253
370
    20
100
AcDbFaceRecord
 10
0.0
 20
0.0
 30
0.0
 70
   128
 71
     1
 72
     2
 73
     3
 74
     4
  0
VERTEX
  5
78
330
65
100
AcDbEntity
  8
ｴｸｽﾃﾘｱ商品
 62
   253
370
    20
100
AcDbFaceRecord
 10
0.0
 20
0.0
 30
0.0
 70
   128
 71
     2
 72
     5
 73
     6
 74
     3
  0
VERTEX
  5
79
330
65
100
AcDbEntity
  8
ｴｸｽﾃﾘｱ商品
 62
   253
370
    20
100
AcDbFaceRecord
 10
0.0
 20
0.0
 30
0.0
 70
   128
 71
     5
 72
     7
 73
     8
 74
     6
  0
VERTEX
  5
7A
330
65
100
AcDbEntity
  8
ｴｸｽﾃﾘｱ商品
 62
   253
370
    20
100
AcDbFaceRecord
 10
0.0
 20
0.0
 30
0.0
 70
   128
 71
     7
 72
     9
 73
    10
 74
     8
  0
VERTEX
  5
7B
330
65
100
AcDbEntity
  8
ｴｸｽﾃﾘｱ商品
 62
   253
370
    20
100
AcDbFaceRecord
 10
0.0
 20
0.0
 30
0.0
 70
   128
 71
     9
 72
    11
 73
    12
 74
    10
  0
VERTEX
  5
7C
330
65
100
AcDbEntity
  8
ｴｸｽﾃﾘｱ商品
 62
   253
370
    20
100
AcDbFaceRecord
 10
0.0
 20
0.0
 30
0.0
 70
   128
 71
    11
 72
    13
 73
    14
 74
    12
  0
VERTEX
  5
7D
330
65
100
AcDbEntity
  8
ｴｸｽﾃﾘｱ商品
 62
   253
370
    20
100
AcDbFaceRecord
 10
0.0
 20
0.0
 30
0.0
 70
   128
 71
    13
 72
    15
 73
    16
 74
    14
  0
VERTEX
  5
7E
330
65
100
AcDbEntity
  8
ｴｸｽﾃﾘｱ商品
 62
   253
370
    20
100
AcDbFaceRecord
 10
0.0
 20
0.0
 30
0.0
 70
   128
 71
    15
 72
     1
 73
     4
 74
    16
  0
VERTEX
  5
7F
330
65
100
AcDbEntity
  8
ｴｸｽﾃﾘｱ商品
 62
   253
370
    20
100
AcDbFaceRecord
 10
0.0
 20
0.0
 30
0.0
 70
   128
 71
     7
 72
     5
 73
     2
  0
VERTEX
  5
80
330
65
100
AcDbEntity
  8
ｴｸｽﾃﾘｱ商品
 62
   253
370
    20
100
AcDbFaceRecord
 10
0.0
 20
0.0
 30
0.0
 70
   128
 71
     2
 72
     1
 73
    15
  0
VERTEX
  5
81
330
65
100
AcDbEntity
  8
ｴｸｽﾃﾘｱ商品
 62
   253
370
    20
100
AcDbFaceRecord
 10
0.0
 20
0.0
 30
0.0
 70
   128
 71
     2
 72
    15
 73
    13
  0
VERTEX
  5
82
330
65
100
AcDbEntity
  8
ｴｸｽﾃﾘｱ商品
 62
   253
370
    20
100
AcDbFaceRecord
 10
0.0
 20
0.0
 30
0.0
 70
   128
 71
     7
 72
     2
 73
    13
  0
VERTEX
  5
83
330
65
100
AcDbEntity
  8
ｴｸｽﾃﾘｱ商品
 62
   253
370
    20
100
AcDbFaceRecord
 10
0.0
 20
0.0
 30
0.0
 70
   128
 71
     9
 72
     7
 73
    13
  0
VERTEX
  5
84
330
65
100
AcDbEntity
  8
ｴｸｽﾃﾘｱ商品
 62
   253
370
    20
100
AcDbFaceRecord
 10
0.0
 20
0.0
 30
0.0
 70
   128
 71
     9
 72
    13
 73
    11
  0
VERTEX
  5
85
330
65
100
AcDbEntity
  8
ｴｸｽﾃﾘｱ商品
 62
   253
370
    20
100
AcDbFaceRecord
 10
0.0
 20
0.0
 30
0.0
 70
   128
 71
     3
 72
     6
 73
     8
  0
VERTEX
  5
86
330
65
100
AcDbEntity
  8
ｴｸｽﾃﾘｱ商品
 62
   253
370
    20
100
AcDbFaceRecord
 10
0.0
 20
0.0
 30
0.0
 70
   128
 71
    16
 72
     4
 73
     3
  0
VERTEX
  5
87
330
65
100
AcDbEntity
  8
ｴｸｽﾃﾘｱ商品
 62
   253
370
    20
100
AcDbFaceRecord
 10
0.0
 20
0.0
 30
0.0
 70
   128
 71
    14
 72
    16
 73
     3
  0
VERTEX
  5
88
330
65
100
AcDbEntity
  8
ｴｸｽﾃﾘｱ商品
 62
   253
370
    20
100
AcDbFaceRecord
 10
0.0
 20
0.0
 30
0.0
 70
   128
 71
    14
 72
     3
 73
     8
  0
VERTEX
  5
89
330
65
100
AcDbEntity
  8
ｴｸｽﾃﾘｱ商品
 62
   253
370
    20
100
AcDbFaceRecord
 10
0.0
 20
0.0
 30
0.0
 70
   128
 71
    12
 72
    14
 73
    10
  0
VERTEX
  5
8A
330
65
100
AcDbEntity
  8
ｴｸｽﾃﾘｱ商品
 62
   253
370
    20
100
AcDbFaceRecord
 10
0.0
 20
0.0
 30
0.0
 70
   128
 71
    10
 72
    14
 73
     8
  0
SEQEND
  5
66
330
65
100
AcDbEntity
  8
ｴｸｽﾃﾘｱ商品
370
    20
  0
POLYLINE
  5
8B
330
3C
100
AcDbEntity
  8
ｴｸｽﾃﾘｱ商品
 62
   253
370
    20
100
AcDbPolyFaceMesh
 66
     1
 10
0.0
 20
0.0
 30
0.0
 70
    64
 71
    16
 72
    20
  0
VERTEX
  5
8D
330
8B
100
AcDbEntity
  8
ｴｸｽﾃﾘｱ商品
 62
   253
370
    20
100
AcDbVertex
100
AcDbPolyFaceMeshVertex
 10
1256.618082413168
 20
568.9184799082369
 30
11.0
 70
   192
  0
VERTEX
  5
8E
330
8B
100
AcDbEntity
  8
ｴｸｽﾃﾘｱ商品
 62
   253
370
    20
100
AcDbVertex
100
AcDbPolyFaceMeshVertex
 10
1256.618082413168
 20
550.4184799082369
 30
11.0
 70
   192
  0
VERTEX
  5
8F
330
8B
100
AcDbEntity
  8
ｴｸｽﾃﾘｱ商品
 62
   253
370
    20
100
AcDbVertex
100
AcDbPolyFaceMeshVertex
 10
1256.618082413168
 20
550.4184799082369
 30
441.0
 70
   192
  0
VERTEX
  5
90
330
8B
100
AcDbEntity
  8
ｴｸｽﾃﾘｱ商品
 62
   253
370
    20
100
AcDbVertex
100
AcDbPolyFaceMeshVertex
 10
1256.618082413168
 20
568.9184799082369
 30
441.0
 70
   192
  0
VERTEX
  5
91
330
8B
100
AcDbEntity
  8
ｴｸｽﾃﾘｱ商品
 62
   253
370
    20
100
AcDbVertex
100
AcDbPolyFaceMeshVertex
 10
1253.118082413168
 20
550.4184799082369
 30
11.0
 70
   192
  0
VERTEX
  5
92
330
8B
100
AcDbEntity
  8
ｴｸｽﾃﾘｱ商品
 62
   253
370
    20
100
AcDbVertex
100
AcDbPolyFaceMeshVertex
 10
1253.118082413168
 20
550.4184799082369
 30
441.0
 70
   192
  0
VERTEX
  5
93
330
8B
100
AcDbEntity
  8
ｴｸｽﾃﾘｱ商品
 62
   253
370
    20
100
AcDbVertex
100
AcDbPolyFaceMeshVertex
 10
1253.118082413168
 20
513.9184799082369
 30
11.0
 70
   192
  0
VERTEX
  5
94
330
8B
100
AcDbEntity
  8
ｴｸｽﾃﾘｱ商品
 62
   253
370
    20
100
AcDbVertex
100
AcDbPolyFaceMeshVertex
 10
1253.118082413168
 20
513.9184799082369
 30
441.0
 70
   192
  0
VERTEX
  5
95
330
8B
100
AcDbEntity
  8
ｴｸｽﾃﾘｱ商品
 62
   253
370
    20
100
AcDbVertex
100
AcDbPolyFaceMeshVertex
 10
1290.118082413168
 20
513.9184799082369
 30
11.0
 70
   192
  0
VERTEX
  5
96
330
8B
100
AcDbEntity
  8
ｴｸｽﾃﾘｱ商品
 62
   253
370
    20
100
AcDbVertex
100
AcDbPolyFaceMeshVertex
 10
1290.118082413168
 20
513.9184799082369
 30
441.0
 70
   192
  0
VERTEX
  5
97
330
8B
100
AcDbEntity
  8
ｴｸｽﾃﾘｱ商品
 62
   253
370
    20
100
AcDbVertex
100
AcDbPolyFaceMeshVertex
 10
1290.118082413168
 20
550.4184799082369
 30
11.0
 70
   192
  0
VERTEX
  5
98
330
8B
100
AcDbEntity
  8
ｴｸｽﾃﾘｱ商品
 62
   253
370
    20
100
AcDbVertex
100
AcDbPolyFaceMeshVertex
 10
1290.118082413168
 20
550.4184799082369
 30
441.0
 70
   192
  0
VERTEX
  5
99
330
8B
100
AcDbEntity
  8
ｴｸｽﾃﾘｱ商品
 62
   253
370
    20
100
AcDbVertex
100
AcDbPolyFaceMeshVertex
 10
1286.618082413168
 20
550.4184799082369
 30
11.0
 70
   192
  0
VERTEX
  5
9A
330
8B
100
AcDbEntity
  8
ｴｸｽﾃﾘｱ商品
 62
   253
370
    20
100
AcDbVertex
100
AcDbPolyFaceMeshVertex
 10
1286.618082413168
 20
550.4184799082369
 30
441.0
 70
   192
  0
VERTEX
  5
9B
330
8B
100
AcDbEntity
  8
ｴｸｽﾃﾘｱ商品
 62
   253
370
    20
100
AcDbVertex
100
AcDbPolyFaceMeshVertex
 10
1286.618082413168
 20
568.9184799082369
 30
11.0
 70
   192
  0
VERTEX
  5
9C
330
8B
100
AcDbEntity
  8
ｴｸｽﾃﾘｱ商品
 62
   253
370
    20
100
AcDbVertex
100
AcDbPolyFaceMeshVertex
 10
1286.618082413168
 20
568.9184799082369
 30
441.0
 70
   192
  0
VERTEX
  5
9D
330
8B
100
AcDbEntity
  8
ｴｸｽﾃﾘｱ商品
 62
   253
370
    20
100
AcDbFaceRecord
 10
0.0
 20
0.0
 30
0.0
 70
   128
 71
     1
 72
     2
 73
     3
 74
     4
  0
VERTEX
  5
9E
330
8B
100
AcDbEntity
  8
ｴｸｽﾃﾘｱ商品
 62
   253
370
    20
100
AcDbFaceRecord
 10
0.0
 20
0.0
 30
0.0
 70
   128
 71
     2
 72
     5
 73
     6
 74
     3
  0
VERTEX
  5
9F
330
8B
100
AcDbEntity
  8
ｴｸｽﾃﾘｱ商品
 62
   253
370
    20
100
AcDbFaceRecord
 10
0.0
 20
0.0
 30
0.0
 70
   128
 71
     5
 72
     7
 73
     8
 74
     6
  0
VERTEX
  5
A0
330
8B
100
AcDbEntity
  8
ｴｸｽﾃﾘｱ商品
 62
   253
370
    20
100
AcDbFaceRecord
 10
0.0
 20
0.0
 30
0.0
 70
   128
 71
     7
 72
     9
 73
    10
 74
     8
  0
VERTEX
  5
A1
330
8B
100
AcDbEntity
  8
ｴｸｽﾃﾘｱ商品
 62
   253
370
    20
100
AcDbFaceRecord
 10
0.0
 20
0.0
 30
0.0
 70
   128
 71
     9
 72
    11
 73
    12
 74
    10
  0
VERTEX
  5
A2
330
8B
100
AcDbEntity
  8
ｴｸｽﾃﾘｱ商品
 62
   253
370
    20
100
AcDbFaceRecord
 10
0.0
 20
0.0
 30
0.0
 70
   128
 71
    11
 72
    13
 73
    14
 74
    12
  0
VERTEX
  5
A3
330
8B
100
AcDbEntity
  8
ｴｸｽﾃﾘｱ商品
 62
   253
370
    20
100
AcDbFaceRecord
 10
0.0
 20
0.0
 30
0.0
 70
   128
 71
    13
 72
    15
 73
    16
 74
    14
  0
VERTEX
  5
A4
330
8B
100
AcDbEntity
  8
ｴｸｽﾃﾘｱ商品
 62
   253
370
    20
100
AcDbFaceRecord
 10
0.0
 20
0.0
 30
0.0
 70
   128
 71
    15
 72
     1
 73
     4
 74
    16
  0
VERTEX
  5
A5
330
8B
100
AcDbEntity
  8
ｴｸｽﾃﾘｱ商品
 62
   253
370
    20
100
AcDbFaceRecord
 10
0.0
 20
0.0
 30
0.0
 70
   128
 71
     7
 72
     5
 73
     2
  0
VERTEX
  5
A6
330
8B
100
AcDbEntity
  8
ｴｸｽﾃﾘｱ商品
 62
   253
370
    20
100
AcDbFaceRecord
 10
0.0
 20
0.0
 30
0.0
 70
   128
 71
     2
 72
     1
 73
    15
  0
VERTEX
  5
A7
330
8B
100
AcDbEntity
  8
ｴｸｽﾃﾘｱ商品
 62
   253
370
    20
100
AcDbFaceRecord
 10
0.0
 20
0.0
 30
0.0
 70
   128
 71
     2
 72
    15
 73
    13
  0
VERTEX
  5
A8
330
8B
100
AcDbEntity
  8
ｴｸｽﾃﾘｱ商品
 62
   253
370
    20
100
AcDbFaceRecord
 10
0.0
 20
0.0
 30
0.0
 70
   128
 71
     7
 72
     2
 73
    13
  0
VERTEX
  5
A9
330
8B
100
AcDbEntity
  8
ｴｸｽﾃﾘｱ商品
 62
   253
370
    20
100
AcDbFaceRecord
 10
0.0
 20
0.0
 30
0.0
 70
   128
 71
     9
 72
     7
 73
    13
  0
VERTEX
  5
AA
330
8B
100
AcDbEntity
  8
ｴｸｽﾃﾘｱ商品
 62
   253
370
    20
100
AcDbFaceRecord
 10
0.0
 20
0.0
 30
0.0
 70
   128
 71
     9
 72
    13
 73
    11
  0
VERTEX
  5
AB
330
8B
100
AcDbEntity
  8
ｴｸｽﾃﾘｱ商品
 62
   253
370
    20
100
AcDbFaceRecord
 10
0.0
 20
0.0
 30
0.0
 70
   128
 71
     3
 72
     6
 73
     8
  0
VERTEX
  5
AC
330
8B
100
AcDbEntity
  8
ｴｸｽﾃﾘｱ商品
 62
   253
370
    20
100
AcDbFaceRecord
 10
0.0
 20
0.0
 30
0.0
 70
   128
 71
    16
 72
     4
 73
     3
  0
VERTEX
  5
AD
330
8B
100
AcDbEntity
  8
ｴｸｽﾃﾘｱ商品
 62
   253
370
    20
100
AcDbFaceRecord
 10
0.0
 20
0.0
 30
0.0
 70
   128
 71
    14
 72
    16
 73
     3
  0
VERTEX
  5
AE
330
8B
100
AcDbEntity
  8
ｴｸｽﾃﾘｱ商品
 62
   253
370
    20
100
AcDbFaceRecord
 10
0.0
 20
0.0
 30
0.0
 70
   128
 71
    14
 72
     3
 73
     8
  0
VERTEX
  5
AF
330
8B
100
AcDbEntity
  8
ｴｸｽﾃﾘｱ商品
 62
   253
370
    20
100
AcDbFaceRecord
 10
0.0
 20
0.0
 30
0.0
 70
   128
 71
    12
 72
    14
 73
    10
  0
VERTEX
  5
B0
330
8B
100
AcDbEntity
  8
ｴｸｽﾃﾘｱ商品
 62
   253
370
    20
100
AcDbFaceRecord
 10
0.0
 20
0.0
 30
0.0
 70
   128
 71
    10
 72
    14
 73
     8
  0
SEQEND
  5
8C
330
8B
100
AcDbEntity
  8
ｴｸｽﾃﾘｱ商品
370
    20
  0
POLYLINE
  5
B1
330
3C
100
AcDbEntity
  8
ｴｸｽﾃﾘｱ商品
 62
   253
370
    20
100
AcDbPolyFaceMesh
 66
     1
 10
0.0
 20
0.0
 30
0.0
 70
    64
 71
    16
 72
    20
  0
VERTEX
  5
B3
330
B1
100
AcDbEntity
  8
ｴｸｽﾃﾘｱ商品
 62
   253
370
    20
100
AcDbVertex
100
AcDbPolyFaceMeshVertex
 10
2066.618082413168
 20
568.9184799082369
 30
11.0
 70
   192
  0
VERTEX
  5
B4
330
B1
100
AcDbEntity
  8
ｴｸｽﾃﾘｱ商品
 62
   253
370
    20
100
AcDbVertex
100
AcDbPolyFaceMeshVertex
 10
2066.618082413168
 20
550.4184799082369
 30
11.0
 70
   192
  0
VERTEX
  5
B5
330
B1
100
AcDbEntity
  8
ｴｸｽﾃﾘｱ商品
 62
   253
370
    20
100
AcDbVertex
100
AcDbPolyFaceMeshVertex
 10
2066.618082413168
 20
550.4184799082369
 30
441.0
 70
   192
  0
VERTEX
  5
B6
330
B1
100
AcDbEntity
  8
ｴｸｽﾃﾘｱ商品
 62
   253
370
    20
100
AcDbVertex
100
AcDbPolyFaceMeshVertex
 10
2066.618082413168
 20
568.9184799082369
 30
441.0
 70
   192
  0
VERTEX
  5
B7
330
B1
100
AcDbEntity
  8
ｴｸｽﾃﾘｱ商品
 62
   253
370
    20
100
AcDbVertex
100
AcDbPolyFaceMeshVertex
 10
2063.118082413168
 20
550.4184799082369
 30
11.0
 70
   192
  0
VERTEX
  5
B8
330
B1
100
AcDbEntity
  8
ｴｸｽﾃﾘｱ商品
 62
   253
370
    20
100
AcDbVertex
100
AcDbPolyFaceMeshVertex
 10
2063.118082413168
 20
550.4184799082369
 30
441.0
 70
   192
  0
VERTEX
  5
B9
330
B1
100
AcDbEntity
  8
ｴｸｽﾃﾘｱ商品
 62
   253
370
    20
100
AcDbVertex
100
AcDbPolyFaceMeshVertex
 10
2063.118082413168
 20
513.9184799082369
 30
11.0
 70
   192
  0
VERTEX
  5
BA
330
B1
100
AcDbEntity
  8
ｴｸｽﾃﾘｱ商品
 62
   253
370
    20
100
AcDbVertex
100
AcDbPolyFaceMeshVertex
 10
2063.118082413168
 20
513.9184799082369
 30
441.0
 70
   192
  0
VERTEX
  5
BB
330
B1
100
AcDbEntity
  8
ｴｸｽﾃﾘｱ商品
 62
   253
370
    20
100
AcDbVertex
100
AcDbPolyFaceMeshVertex
 10
2100.118082413168
 20
513.9184799082369
 30
11.0
 70
   192
  0
VERTEX
  5
BC
330
B1
100
AcDbEntity
  8
ｴｸｽﾃﾘｱ商品
 62
   253
370
    20
100
AcDbVertex
100
AcDbPolyFaceMeshVertex
 10
2100.118082413168
 20
513.9184799082369
 30
441.0
 70
   192
  0
VERTEX
  5
BD
330
B1
100
AcDbEntity
  8
ｴｸｽﾃﾘｱ商品
 62
   253
370
    20
100
AcDbVertex
100
AcDbPolyFaceMeshVertex
 10
2100.118082413168
 20
550.4184799082369
 30
11.0
 70
   192
  0
VERTEX
  5
BE
330
B1
100
AcDbEntity
  8
ｴｸｽﾃﾘｱ商品
 62
   253
370
    20
100
AcDbVertex
100
AcDbPolyFaceMeshVertex
 10
2100.118082413168
 20
550.4184799082369
 30
441.0
 70
   192
  0
VERTEX
  5
BF
330
B1
100
AcDbEntity
  8
ｴｸｽﾃﾘｱ商品
 62
   253
370
    20
100
AcDbVertex
100
AcDbPolyFaceMeshVertex
 10
2096.618082413168
 20
550.4184799082369
 30
11.0
 70
   192
  0
VERTEX
  5
C0
330
B1
100
AcDbEntity
  8
ｴｸｽﾃﾘｱ商品
 62
   253
370
    20
100
AcDbVertex
100
AcDbPolyFaceMeshVertex
 10
2096.618082413168
 20
550.4184799082369
 30
441.0
 70
   192
  0
VERTEX
  5
C1
330
B1
100
AcDbEntity
  8
ｴｸｽﾃﾘｱ商品
 62
   253
370
    20
100
AcDbVertex
100
AcDbPolyFaceMeshVertex
 10
2096.618082413168
 20
568.9184799082369
 30
11.0
 70
   192
  0
VERTEX
  5
C2
330
B1
100
AcDbEntity
  8
ｴｸｽﾃﾘｱ商品
 62
   253
370
    20
100
AcDbVertex
100
AcDbPolyFaceMeshVertex
 10
2096.618082413168
 20
568.9184799082369
 30
441.0
 70
   192
  0
VERTEX
  5
C3
330
B1
100
AcDbEntity
  8
ｴｸｽﾃﾘｱ商品
 62
   253
370
    20
100
AcDbFaceRecord
 10
0.0
 20
0.0
 30
0.0
 70
   128
 71
     1
 72
     2
 73
     3
 74
     4
  0
VERTEX
  5
C4
330
B1
100
AcDbEntity
  8
ｴｸｽﾃﾘｱ商品
 62
   253
370
    20
100
AcDbFaceRecord
 10
0.0
 20
0.0
 30
0.0
 70
   128
 71
     2
 72
     5
 73
     6
 74
     3
  0
VERTEX
  5
C5
330
B1
100
AcDbEntity
  8
ｴｸｽﾃﾘｱ商品
 62
   253
370
    20
100
AcDbFaceRecord
 10
0.0
 20
0.0
 30
0.0
 70
   128
 71
     5
 72
     7
 73
     8
 74
     6
  0
VERTEX
  5
C6
330
B1
100
AcDbEntity
  8
ｴｸｽﾃﾘｱ商品
 62
   253
370
    20
100
AcDbFaceRecord
 10
0.0
 20
0.0
 30
0.0
 70
   128
 71
     7
 72
     9
 73
    10
 74
     8
  0
VERTEX
  5
C7
330
B1
100
AcDbEntity
  8
ｴｸｽﾃﾘｱ商品
 62
   253
370
    20
100
AcDbFaceRecord
 10
0.0
 20
0.0
 30
0.0
 70
   128
 71
     9
 72
    11
 73
    12
 74
    10
  0
VERTEX
  5
C8
330
B1
100
AcDbEntity
  8
ｴｸｽﾃﾘｱ商品
 62
   253
370
    20
100
AcDbFaceRecord
 10
0.0
 20
0.0
 30
0.0
 70
   128
 71
    11
 72
    13
 73
    14
 74
    12
  0
VERTEX
  5
C9
330
B1
100
AcDbEntity
  8
ｴｸｽﾃﾘｱ商品
 62
   253
370
    20
100
AcDbFaceRecord
 10
0.0
 20
0.0
 30
0.0
 70
   128
 71
    13
 72
    15
 73
    16
 74
    14
  0
VERTEX
  5
CA
330
B1
100
AcDbEntity
  8
ｴｸｽﾃﾘｱ商品
 62
   253
370
    20
100
AcDbFaceRecord
 10
0.0
 20
0.0
 30
0.0
 70
   128
 71
    15
 72
     1
 73
     4
 74
    16
  0
VERTEX
  5
CB
330
B1
100
AcDbEntity
  8
ｴｸｽﾃﾘｱ商品
 62
   253
370
    20
100
AcDbFaceRecord
 10
0.0
 20
0.0
 30
0.0
 70
   128
 71
     7
 72
     5
 73
     2
  0
VERTEX
  5
CC
330
B1
100
AcDbEntity
  8
ｴｸｽﾃﾘｱ商品
 62
   253
370
    20
100
AcDbFaceRecord
 10
0.0
 20
0.0
 30
0.0
 70
   128
 71
     2
 72
     1
 73
    15
  0
VERTEX
  5
CD
330
B1
100
AcDbEntity
  8
ｴｸｽﾃﾘｱ商品
 62
   253
370
    20
100
AcDbFaceRecord
 10
0.0
 20
0.0
 30
0.0
 70
   128
 71
     2
 72
    15
 73
    13
  0
VERTEX
  5
CE
330
B1
100
AcDbEntity
  8
ｴｸｽﾃﾘｱ商品
 62
   253
370
    20
100
AcDbFaceRecord
 10
0.0
 20
0.0
 30
0.0
 70
   128
 71
     7
 72
     2
 73
    13
  0
VERTEX
  5
CF
330
B1
100
AcDbEntity
  8
ｴｸｽﾃﾘｱ商品
 62
   253
370
    20
100
AcDbFaceRecord
 10
0.0
 20
0.0
 30
0.0
 70
   128
 71
     9
 72
     7
 73
    13
  0
VERTEX
  5
D0
330
B1
100
AcDbEntity
  8
ｴｸｽﾃﾘｱ商品
 62
   253
370
    20
100
AcDbFaceRecord
 10
0.0
 20
0.0
 30
0.0
 70
   128
 71
     9
 72
    13
 73
    11
  0
VERTEX
  5
D1
330
B1
100
AcDbEntity
  8
ｴｸｽﾃﾘｱ商品
 62
   253
370
    20
100
AcDbFaceRecord
 10
0.0
 20
0.0
 30
0.0
 70
   128
 71
     3
 72
     6
 73
     8
  0
VERTEX
  5
D2
330
B1
100
AcDbEntity
  8
ｴｸｽﾃﾘｱ商品
 62
   253
370
    20
100
AcDbFaceRecord
 10
0.0
 20
0.0
 30
0.0
 70
   128
 71
    16
 72
     4
 73
     3
  0
VERTEX
  5
D3
330
B1
100
AcDbEntity
  8
ｴｸｽﾃﾘｱ商品
 62
   253
370
    20
100
AcDbFaceRecord
 10
0.0
 20
0.0
 30
0.0
 70
   128
 71
    14
 72
    16
 73
     3
  0
VERTEX
  5
D4
330
B1
100
AcDbEntity
  8
ｴｸｽﾃﾘｱ商品
 62
   253
370
    20
100
AcDbFaceRecord
 10
0.0
 20
0.0
 30
0.0
 70
   128
 71
    14
 72
     3
 73
     8
  0
VERTEX
  5
D5
330
B1
100
AcDbEntity
  8
ｴｸｽﾃﾘｱ商品
 62
   253
370
    20
100
AcDbFaceRecord
 10
0.0
 20
0.0
 30
0.0
 70
   128
 71
    12
 72
    14
 73
    10
  0
VERTEX
  5
D6
330
B1
100
AcDbEntity
  8
ｴｸｽﾃﾘｱ商品
 62
   253
370
    20
100
AcDbFaceRecord
 10
0.0
 20
0.0
 30
0.0
 70
   128
 71
    10
 72
    14
 73
     8
  0
SEQEND
  5
B2
330
B1
100
AcDbEntity
  8
ｴｸｽﾃﾘｱ商品
370
    20
  0
POLYLINE
  5
D7
330
3C
100
AcDbEntity
  8
ｴｸｽﾃﾘｱ商品
 62
   253
370
    20
100
AcDbPolyFaceMesh
 66
     1
 10
0.0
 20
0.0
 30
0.0
 70
    64
 71
    16
 72
    20
  0
VERTEX
  5
D9
330
D7
100
AcDbEntity
  8
ｴｸｽﾃﾘｱ商品
 62
   253
370
    20
100
AcDbVertex
100
AcDbPolyFaceMeshVertex
 10
2876.618082413168
 20
568.9184799082369
 30
11.0
 70
   192
  0
VERTEX
  5
DA
330
D7
100
AcDbEntity
  8
ｴｸｽﾃﾘｱ商品
 62
   253
370
    20
100
AcDbVertex
100
AcDbPolyFaceMeshVertex
 10
2876.618082413168
 20
550.4184799082369
 30
11.0
 70
   192
  0
VERTEX
  5
DB
330
D7
100
AcDbEntity
  8
ｴｸｽﾃﾘｱ商品
 62
   253
370
    20
100
AcDbVertex
100
AcDbPolyFaceMeshVertex
 10
2876.618082413168
 20
550.4184799082369
 30
441.0
 70
   192
  0
VERTEX
  5
DC
330
D7
100
AcDbEntity
  8
ｴｸｽﾃﾘｱ商品
 62
   253
370
    20
100
AcDbVertex
100
AcDbPolyFaceMeshVertex
 10
2876.618082413168
 20
568.9184799082369
 30
441.0
 70
   192
  0
VERTEX
  5
DD
330
D7
100
AcDbEntity
  8
ｴｸｽﾃﾘｱ商品
 62
   253
370
    20
100
AcDbVertex
100
AcDbPolyFaceMeshVertex
 10
2873.118082413168
 20
550.4184799082369
 30
11.0
 70
   192
  0
VERTEX
  5
DE
330
D7
100
AcDbEntity
  8
ｴｸｽﾃﾘｱ商品
 62
   253
370
    20
100
AcDbVertex
100
AcDbPolyFaceMeshVertex
 10
2873.118082413168
 20
550.4184799082369
 30
441.0
 70
   192
  0
VERTEX
  5
DF
330
D7
100
AcDbEntity
  8
ｴｸｽﾃﾘｱ商品
 62
   253
370
    20
100
AcDbVertex
100
AcDbPolyFaceMeshVertex
 10
2873.118082413168
 20
513.9184799082369
 30
11.0
 70
   192
  0
VERTEX
  5
E0
330
D7
100
AcDbEntity
  8
ｴｸｽﾃﾘｱ商品
 62
   253
370
    20
100
AcDbVertex
100
AcDbPolyFaceMeshVertex
 10
2873.118082413168
 20
513.9184799082369
 30
441.0
 70
   192
  0
VERTEX
  5
E1
330
D7
100
AcDbEntity
  8
ｴｸｽﾃﾘｱ商品
 62
   253
370
    20
100
AcDbVertex
100
AcDbPolyFaceMeshVertex
 10
2910.118082413168
 20
513.9184799082369
 30
11.0
 70
   192
  0
VERTEX
  5
E2
330
D7
100
AcDbEntity
  8
ｴｸｽﾃﾘｱ商品
 62
   253
370
    20
100
AcDbVertex
100
AcDbPolyFaceMeshVertex
 10
2910.118082413168
 20
513.9184799082369
 30
441.0
 70
   192
  0
VERTEX
  5
E3
330
D7
100
AcDbEntity
  8
ｴｸｽﾃﾘｱ商品
 62
   253
370
    20
100
AcDbVertex
100
AcDbPolyFaceMeshVertex
 10
2910.118082413168
 20
550.4184799082369
 30
11.0
 70
   192
  0
VERTEX
  5
E4
330
D7
100
AcDbEntity
  8
ｴｸｽﾃﾘｱ商品
 62
   253
370
    20
100
AcDbVertex
100
AcDbPolyFaceMeshVertex
 10
2910.118082413168
 20
550.4184799082369
 30
441.0
 70
   192
  0
VERTEX
  5
E5
330
D7
100
AcDbEntity
  8
ｴｸｽﾃﾘｱ商品
 62
   253
370
    20
100
AcDbVertex
100
AcDbPolyFaceMeshVertex
 10
2906.618082413169
 20
550.4184799082369
 30
11.0
 70
   192
  0
VERTEX
  5
E6
330
D7
100
AcDbEntity
  8
ｴｸｽﾃﾘｱ商品
 62
   253
370
    20
100
AcDbVertex
100
AcDbPolyFaceMeshVertex
 10
2906.618082413169
 20
550.4184799082369
 30
441.0
 70
   192
  0
VERTEX
  5
E7
330
D7
100
AcDbEntity
  8
ｴｸｽﾃﾘｱ商品
 62
   253
370
    20
100
AcDbVertex
100
AcDbPolyFaceMeshVertex
 10
2906.618082413169
 20
568.9184799082369
 30
11.0
 70
   192
  0
VERTEX
  5
E8
330
D7
100
AcDbEntity
  8
ｴｸｽﾃﾘｱ商品
 62
   253
370
    20
100
AcDbVertex
100
AcDbPolyFaceMeshVertex
 10
2906.618082413169
 20
568.9184799082369
 30
441.0
 70
   192
  0
VERTEX
  5
E9
330
D7
100
AcDbEntity
  8
ｴｸｽﾃﾘｱ商品
 62
   253
370
    20
100
AcDbFaceRecord
 10
0.0
 20
0.0
 30
0.0
 70
   128
 71
     1
 72
     2
 73
     3
 74
     4
  0
VERTEX
  5
EA
330
D7
100
AcDbEntity
  8
ｴｸｽﾃﾘｱ商品
 62
   253
370
    20
100
AcDbFaceRecord
 10
0.0
 20
0.0
 30
0.0
 70
   128
 71
     2
 72
     5
 73
     6
 74
     3
  0
VERTEX
  5
EB
330
D7
100
AcDbEntity
  8
ｴｸｽﾃﾘｱ商品
 62
   253
370
    20
100
AcDbFaceRecord
 10
0.0
 20
0.0
 30
0.0
 70
   128
 71
     5
 72
     7
 73
     8
 74
     6
  0
VERTEX
  5
EC
330
D7
100
AcDbEntity
  8
ｴｸｽﾃﾘｱ商品
 62
   253
370
    20
100
AcDbFaceRecord
 10
0.0
 20
0.0
 30
0.0
 70
   128
 71
     7
 72
     9
 73
    10
 74
     8
  0
VERTEX
  5
ED
330
D7
100
AcDbEntity
  8
ｴｸｽﾃﾘｱ商品
 62
   253
370
    20
100
AcDbFaceRecord
 10
0.0
 20
0.0
 30
0.0
 70
   128
 71
     9
 72
    11
 73
    12
 74
    10
  0
VERTEX
  5
EE
330
D7
100
AcDbEntity
  8
ｴｸｽﾃﾘｱ商品
 62
   253
370
    20
100
AcDbFaceRecord
 10
0.0
 20
0.0
 30
0.0
 70
   128
 71
    11
 72
    13
 73
    14
 74
    12
  0
VERTEX
  5
EF
330
D7
100
AcDbEntity
  8
ｴｸｽﾃﾘｱ商品
 62
   253
370
    20
100
AcDbFaceRecord
 10
0.0
 20
0.0
 30
0.0
 70
   128
 71
    13
 72
    15
 73
    16
 74
    14
  0
VERTEX
  5
F0
330
D7
100
AcDbEntity
  8
ｴｸｽﾃﾘｱ商品
 62
   253
370
    20
100
AcDbFaceRecord
 10
0.0
 20
0.0
 30
0.0
 70
   128
 71
    15
 72
     1
 73
     4
 74
    16
  0
VERTEX
  5
F1
330
D7
100
AcDbEntity
  8
ｴｸｽﾃﾘｱ商品
 62
   253
370
    20
100
AcDbFaceRecord
 10
0.0
 20
0.0
 30
0.0
 70
   128
 71
     7
 72
     5
 73
     2
  0
VERTEX
  5
F2
330
D7
100
AcDbEntity
  8
ｴｸｽﾃﾘｱ商品
 62
   253
370
    20
100
AcDbFaceRecord
 10
0.0
 20
0.0
 30
0.0
 70
   128
 71
     2
 72
     1
 73
    15
  0
VERTEX
  5
F3
330
D7
100
AcDbEntity
  8
ｴｸｽﾃﾘｱ商品
 62
   253
370
    20
100
AcDbFaceRecord
 10
0.0
 20
0.0
 30
0.0
 70
   128
 71
     2
 72
    15
 73
    13
  0
VERTEX
  5
F4
330
D7
100
AcDbEntity
  8
ｴｸｽﾃﾘｱ商品
 62
   253
370
    20
100
AcDbFaceRecord
 10
0.0
 20
0.0
 30
0.0
 70
   128
 71
     7
 72
     2
 73
    13
  0
VERTEX
  5
F5
330
D7
100
AcDbEntity
  8
ｴｸｽﾃﾘｱ商品
 62
   253
370
    20
100
AcDbFaceRecord
 10
0.0
 20
0.0
 30
0.0
 70
   128
 71
     9
 72
     7
 73
    13
  0
VERTEX
  5
F6
330
D7
100
AcDbEntity
  8
ｴｸｽﾃﾘｱ商品
 62
   253
370
    20
100
AcDbFaceRecord
 10
0.0
 20
0.0
 30
0.0
 70
   128
 71
     9
 72
    13
 73
    11
  0
VERTEX
  5
F7
330
D7
100
AcDbEntity
  8
ｴｸｽﾃﾘｱ商品
 62
   253
370
    20
100
AcDbFaceRecord
 10
0.0
 20
0.0
 30
0.0
 70
   128
 71
     3
 72
     6
 73
     8
  0
VERTEX
  5
F8
330
D7
100
AcDbEntity
  8
ｴｸｽﾃﾘｱ商品
 62
   253
370
    20
100
AcDbFaceRecord
 10
0.0
 20
0.0
 30
0.0
 70
   128
 71
    16
 72
     4
 73
     3
  0
VERTEX
  5
F9
330
D7
100
AcDbEntity
  8
ｴｸｽﾃﾘｱ商品
 62
   253
370
    20
100
AcDbFaceRecord
 10
0.0
 20
0.0
 30
0.0
 70
   128
 71
    14
 72
    16
 73
     3
  0
VERTEX
  5
FA
330
D7
100
AcDbEntity
  8
ｴｸｽﾃﾘｱ商品
 62
   253
370
    20
100
AcDbFaceRecord
 10
0.0
 20
0.0
 30
0.0
 70
   128
 71
    14
 72
     3
 73
     8
  0
VERTEX
  5
FB
330
D7
100
AcDbEntity
  8
ｴｸｽﾃﾘｱ商品
 62
   253
370
    20
100
AcDbFaceRecord
 10
0.0
 20
0.0
 30
0.0
 70
   128
 71
    12
 72
    14
 73
    10
  0
VERTEX
  5
FC
330
D7
100
AcDbEntity
  8
ｴｸｽﾃﾘｱ商品
 62
   253
370
    20
100
AcDbFaceRecord
 10
0.0
 20
0.0
 30
0.0
 70
   128
 71
    10
 72
    14
 73
     8
  0
SEQEND
  5
D8
330
D7
100
AcDbEntity
  8
ｴｸｽﾃﾘｱ商品
370
    20
  0
POLYLINE
  5
FD
330
3C
100
AcDbEntity
  8
ｴｸｽﾃﾘｱ商品
 62
   253
370
    20
100
AcDbPolyFaceMesh
 66
     1
 10
0.0
 20
0.0
 30
0.0
 70
    64
 71
    30
 72
    29
  0
VERTEX
  5
FF
330
FD
100
AcDbEntity
  8
ｴｸｽﾃﾘｱ商品
 62
   253
370
    20
100
AcDbVertex
100
AcDbPolyFaceMeshVertex
 10
216.0130824131682
 20
498.313479908237
 30
20.85000000000001
 70
   192
  0
VERTEX
  5
100
330
FD
100
AcDbEntity
  8
ｴｸｽﾃﾘｱ商品
 62
   253
370
    20
100
AcDbVertex
100
AcDbPolyFaceMeshVertex
 10
3947.223082413168
 20
498.3134799082367
 30
20.85000000000001
 70
   192
  0
VERTEX
  5
101
330
FD
100
AcDbEntity
  8
ｴｸｽﾃﾘｱ商品
 62
   253
370
    20
100
AcDbVertex
100
AcDbPolyFaceMeshVertex
 10
3901.618082413168
 20
543.9184799082367
 30
21.0
 70
   192
  0
VERTEX
  5
102
330
FD
100
AcDbEntity
  8
ｴｸｽﾃﾘｱ商品
 62
   253
370
    20
100
AcDbVertex
100
AcDbPolyFaceMeshVertex
 10
261.6180824131682
 20
543.9184799082369
 30
21.0
 70
   192
  0
VERTEX
  5
103
330
FD
100
AcDbEntity
  8
ｴｸｽﾃﾘｱ商品
 62
   253
370
    20
100
AcDbVertex
100
AcDbPolyFaceMeshVertex
 10
198.9130824131682
 20
481.2134799082369
 30
15.37300000000001
 70
   192
  0
VERTEX
  5
104
330
FD
100
AcDbEntity
  8
ｴｸｽﾃﾘｱ商品
 62
   253
370
    20
100
AcDbVertex
100
AcDbPolyFaceMeshVertex
 10
3964.323082413169
 20
481.2134799082366
 30
15.37300000000001
 70
   192
  0
VERTEX
  5
105
330
FD
100
AcDbEntity
  8
ｴｸｽﾃﾘｱ商品
 62
   253
370
    20
100
AcDbVertex
100
AcDbPolyFaceMeshVertex
 10
182.6550824131681
 20
464.9554799082369
 30
7.753000000000006
 70
   192
  0
VERTEX
  5
106
330
FD
100
AcDbEntity
  8
ｴｸｽﾃﾘｱ商品
 62
   253
370
    20
100
AcDbVertex
100
AcDbPolyFaceMeshVertex
 10
3980.581082413169
 20
464.9554799082367
 30
7.753000000000006
 70
   192
  0
VERTEX
  5
107
330
FD
100
AcDbEntity
  8
ｴｸｽﾃﾘｱ商品
 62
   253
370
    20
100
AcDbVertex
100
AcDbPolyFaceMeshVertex
 10
181.8970824131682
 20
464.1974799082369
 30
7.018000000000007
 70
   192
  0
VERTEX
  5
108
330
FD
100
AcDbEntity
  8
ｴｸｽﾃﾘｱ商品
 62
   253
370
    20
100
AcDbVertex
100
AcDbPolyFaceMeshVertex
 10
3981.339082413168
 20
464.1974799082367
 30
7.018000000000007
 70
   192
  0
VERTEX
  5
109
330
FD
100
AcDbEntity
  8
ｴｸｽﾃﾘｱ商品
 62
   253
370
    20
100
AcDbVertex
100
AcDbPolyFaceMeshVertex
 10
181.6180824131682
 20
463.9184799082369
 30
6.000000000000007
 70
   192
  0
VERTEX
  5
10A
330
FD
100
AcDbEntity
  8
ｴｸｽﾃﾘｱ商品
 62
   253
370
    20
100
AcDbVertex
100
AcDbPolyFaceMeshVertex
 10
181.6180824131682
 20
463.9184799082369
 30
6.000000000000007
 70
   192
  0
VERTEX
  5
10B
330
FD
100
AcDbEntity
  8
ｴｸｽﾃﾘｱ商品
 62
   253
370
    20
100
AcDbVertex
100
AcDbPolyFaceMeshVertex
 10
3981.618082413168
 20
463.9184799082367
 30
6.000000000000007
 70
   192
  0
VERTEX
  5
10C
330
FD
100
AcDbEntity
  8
ｴｸｽﾃﾘｱ商品
 62
   253
370
    20
100
AcDbVertex
100
AcDbPolyFaceMeshVertex
 10
3981.618082413168
 20
463.9184799082367
 30
6.000000000000007
 70
   192
  0
VERTEX
  5
10D
330
FD
100
AcDbEntity
  8
ｴｸｽﾃﾘｱ商品
 62
   253
370
    20
100
AcDbVertex
100
AcDbPolyFaceMeshVertex
 10
181.6180824131682
 20
463.9184799082369
 30
-39.0
 70
   192
  0
VERTEX
  5
10E
330
FD
100
AcDbEntity
  8
ｴｸｽﾃﾘｱ商品
 62
   253
370
    20
100
AcDbVertex
100
AcDbPolyFaceMeshVertex
 10
3981.618082413168
 20
463.9184799082367
 30
-39.0
 70
   192
  0
VERTEX
  5
10F
330
FD
100
AcDbEntity
  8
ｴｸｽﾃﾘｱ商品
 62
   253
370
    20
100
AcDbVertex
100
AcDbPolyFaceMeshVertex
 10
181.6180824131682
 20
463.9184799082369
 30
-39.0
 70
   192
  0
VERTEX
  5
110
330
FD
100
AcDbEntity
  8
ｴｸｽﾃﾘｱ商品
 62
   253
370
    20
100
AcDbVertex
100
AcDbPolyFaceMeshVertex
 10
341.6180824131682
 20
623.9184799082369
 30
-39.00000000000001
 70
   192
  0
VERTEX
  5
111
330
FD
100
AcDbEntity
  8
ｴｸｽﾃﾘｱ商品
 62
   253
370
    20
100
AcDbVertex
100
AcDbPolyFaceMeshVertex
 10
3821.618082413168
 20
623.9184799082367
 30
-39.00000000000001
 70
   192
  0
VERTEX
  5
112
330
FD
100
AcDbEntity
  8
ｴｸｽﾃﾘｱ商品
 62
   253
370
    20
100
AcDbVertex
100
AcDbPolyFaceMeshVertex
 10
3981.618082413168
 20
463.9184799082367
 30
-39.0
 70
   192
  0
VERTEX
  5
113
330
FD
100
AcDbEntity
  8
ｴｸｽﾃﾘｱ商品
 62
   253
370
    20
100
AcDbVertex
100
AcDbPolyFaceMeshVertex
 10
341.6180824131682
 20
623.9184799082369
 30
5.999999999999996
 70
   192
  0
VERTEX
  5
114
330
FD
100
AcDbEntity
  8
ｴｸｽﾃﾘｱ商品
 62
   253
370
    20
100
AcDbVertex
100
AcDbPolyFaceMeshVertex
 10
3821.618082413168
 20
623.9184799082367
 30
5.999999999999996
 70
   192
  0
VERTEX
  5
115
330
FD
100
AcDbEntity
  8
ｴｸｽﾃﾘｱ商品
 62
   253
370
    20
100
AcDbVertex
100
AcDbPolyFaceMeshVertex
 10
341.3390824131682
 20
623.639479908237
 30
7.017999999999996
 70
   192
  0
VERTEX
  5
116
330
FD
100
AcDbEntity
  8
ｴｸｽﾃﾘｱ商品
 62
   253
370
    20
100
AcDbVertex
100
AcDbPolyFaceMeshVertex
 10
3821.897082413168
 20
623.6394799082368
 30
7.017999999999996
 70
   192
  0
VERTEX
  5
117
330
FD
100
AcDbEntity
  8
ｴｸｽﾃﾘｱ商品
 62
   253
370
    20
100
AcDbVertex
100
AcDbPolyFaceMeshVertex
 10
340.5810824131682
 20
622.881479908237
 30
7.752999999999996
 70
   192
  0
VERTEX
  5
118
330
FD
100
AcDbEntity
  8
ｴｸｽﾃﾘｱ商品
 62
   253
370
    20
100
AcDbVertex
100
AcDbPolyFaceMeshVertex
 10
3822.655082413168
 20
622.8814799082368
 30
7.752999999999996
 70
   192
  0
VERTEX
  5
119
330
FD
100
AcDbEntity
  8
ｴｸｽﾃﾘｱ商品
 62
   253
370
    20
100
AcDbVertex
100
AcDbPolyFaceMeshVertex
 10
324.3230824131682
 20
606.623479908237
 30
15.373
 70
   192
  0
VERTEX
  5
11A
330
FD
100
AcDbEntity
  8
ｴｸｽﾃﾘｱ商品
 62
   253
370
    20
100
AcDbVertex
100
AcDbPolyFaceMeshVertex
 10
3838.913082413168
 20
606.6234799082367
 30
15.373
 70
   192
  0
VERTEX
  5
11B
330
FD
100
AcDbEntity
  8
ｴｸｽﾃﾘｱ商品
 62
   253
370
    20
100
AcDbVertex
100
AcDbPolyFaceMeshVertex
 10
306.6190824131682
 20
588.919479908237
 30
20.962
 70
   192
  0
VERTEX
  5
11C
330
FD
100
AcDbEntity
  8
ｴｸｽﾃﾘｱ商品
 62
   253
370
    20
100
AcDbVertex
100
AcDbPolyFaceMeshVertex
 10
3856.617082413168
 20
588.9194799082367
 30
20.962
 70
   192
  0
VERTEX
  5
11D
330
FD
100
AcDbEntity
  8
ｴｸｽﾃﾘｱ商品
 62
   253
370
    20
100
AcDbFaceRecord
 10
0.0
 20
0.0
 30
0.0
 70
   128
 71
     1
 72
     2
 73
     3
 74
     4
  0
VERTEX
  5
11E
330
FD
100
AcDbEntity
  8
ｴｸｽﾃﾘｱ商品
 62
   253
370
    20
100
AcDbFaceRecord
 10
0.0
 20
0.0
 30
0.0
 70
   128
 71
     5
 72
     6
 73
     2
 74
     1
  0
VERTEX
  5
11F
330
FD
100
AcDbEntity
  8
ｴｸｽﾃﾘｱ商品
 62
   253
370
    20
100
AcDbFaceRecord
 10
0.0
 20
0.0
 30
0.0
 70
   128
 71
     7
 72
     8
 73
     6
 74
     5
  0
VERTEX
  5
120
330
FD
100
AcDbEntity
  8
ｴｸｽﾃﾘｱ商品
 62
   253
370
    20
100
AcDbFaceRecord
 10
0.0
 20
0.0
 30
0.0
 70
   128
 71
     9
 72
    10
 73
     8
 74
     7
  0
VERTEX
  5
121
330
FD
100
AcDbEntity
  8
ｴｸｽﾃﾘｱ商品
 62
   253
370
    20
100
AcDbFaceRecord
 10
0.0
 20
0.0
 30
0.0
 70
   128
 71
    11
 72
    12
 73
    13
 74
    14
  0
VERTEX
  5
122
330
FD
100
AcDbEntity
  8
ｴｸｽﾃﾘｱ商品
 62
   253
370
    20
100
AcDbFaceRecord
 10
0.0
 20
0.0
 30
0.0
 70
   128
 71
    11
 72
    14
 73
    10
 74
     9
  0
VERTEX
  5
123
330
FD
100
AcDbEntity
  8
ｴｸｽﾃﾘｱ商品
 62
   253
370
    20
100
AcDbFaceRecord
 10
0.0
 20
0.0
 30
0.0
 70
   128
 71
    12
 72
    15
 73
    16
 74
    13
  0
VERTEX
  5
124
330
FD
100
AcDbEntity
  8
ｴｸｽﾃﾘｱ商品
 62
   253
370
    20
100
AcDbFaceRecord
 10
0.0
 20
0.0
 30
0.0
 70
   128
 71
    15
 72
    17
 73
    18
 74
    19
  0
VERTEX
  5
125
330
FD
100
AcDbEntity
  8
ｴｸｽﾃﾘｱ商品
 62
   253
370
    20
100
AcDbFaceRecord
 10
0.0
 20
0.0
 30
0.0
 70
   128
 71
    15
 72
    19
 73
    20
 74
    16
  0
VERTEX
  5
126
330
FD
100
AcDbEntity
  8
ｴｸｽﾃﾘｱ商品
 62
   253
370
    20
100
AcDbFaceRecord
 10
0.0
 20
0.0
 30
0.0
 70
   128
 71
    21
 72
    22
 73
    19
 74
    18
  0
VERTEX
  5
127
330
FD
100
AcDbEntity
  8
ｴｸｽﾃﾘｱ商品
 62
   253
370
    20
100
AcDbFaceRecord
 10
0.0
 20
0.0
 30
0.0
 70
   128
 71
    23
 72
    24
 73
    22
 74
    21
  0
VERTEX
  5
128
330
FD
100
AcDbEntity
  8
ｴｸｽﾃﾘｱ商品
 62
   253
370
    20
100
AcDbFaceRecord
 10
0.0
 20
0.0
 30
0.0
 70
   128
 71
    25
 72
    26
 73
    24
 74
    23
  0
VERTEX
  5
129
330
FD
100
AcDbEntity
  8
ｴｸｽﾃﾘｱ商品
 62
   253
370
    20
100
AcDbFaceRecord
 10
0.0
 20
0.0
 30
0.0
 70
   128
 71
    27
 72
    28
 73
    26
 74
    25
  0
VERTEX
  5
12A
330
FD
100
AcDbEntity
  8
ｴｸｽﾃﾘｱ商品
 62
   253
370
    20
100
AcDbFaceRecord
 10
0.0
 20
0.0
 30
0.0
 70
   128
 71
    29
 72
    30
 73
    28
 74
    27
  0
VERTEX
  5
12B
330
FD
100
AcDbEntity
  8
ｴｸｽﾃﾘｱ商品
 62
   253
370
    20
100
AcDbFaceRecord
 10
0.0
 20
0.0
 30
0.0
 70
   128
 71
     4
 72
     3
 73
    30
 74
    29
  0
VERTEX
  5
12C
330
FD
100
AcDbEntity
  8
ｴｸｽﾃﾘｱ商品
 62
   253
370
    20
100
AcDbFaceRecord
 10
0.0
 20
0.0
 30
0.0
 70
   128
 71
    17
 72
    15
 73
    12
 74
    11
  0
VERTEX
  5
12D
330
FD
100
AcDbEntity
  8
ｴｸｽﾃﾘｱ商品
 62
   253
370
    20
100
AcDbFaceRecord
 10
0.0
 20
0.0
 30
0.0
 70
   128
 71
    14
 72
    13
 73
    16
 74
    20
  0
VERTEX
  5
12E
330
FD
100
AcDbEntity
  8
ｴｸｽﾃﾘｱ商品
 62
   253
370
    20
100
AcDbFaceRecord
 10
0.0
 20
0.0
 30
0.0
 70
   128
 71
    11
 72
     9
 73
     7
 74
     5
  0
VERTEX
  5
12F
330
FD
100
AcDbEntity
  8
ｴｸｽﾃﾘｱ商品
 62
   253
370
    20
100
AcDbFaceRecord
 10
0.0
 20
0.0
 30
0.0
 70
   128
 71
    11
 72
     5
 73
     1
 74
     4
  0
VERTEX
  5
130
330
FD
100
AcDbEntity
  8
ｴｸｽﾃﾘｱ商品
 62
   253
370
    20
100
AcDbFaceRecord
 10
0.0
 20
0.0
 30
0.0
 70
   128
 71
    11
 72
     4
 73
    29
 74
    27
  0
VERTEX
  5
131
330
FD
100
AcDbEntity
  8
ｴｸｽﾃﾘｱ商品
 62
   253
370
    20
100
AcDbFaceRecord
 10
0.0
 20
0.0
 30
0.0
 70
   128
 71
    11
 72
    27
 73
    25
 74
    23
  0
VERTEX
  5
132
330
FD
100
AcDbEntity
  8
ｴｸｽﾃﾘｱ商品
 62
   253
370
    20
100
AcDbFaceRecord
 10
0.0
 20
0.0
 30
0.0
 70
   128
 71
    11
 72
    23
 73
    21
 74
    18
  0
VERTEX
  5
133
330
FD
100
AcDbEntity
  8
ｴｸｽﾃﾘｱ商品
 62
   253
370
    20
100
AcDbFaceRecord
 10
0.0
 20
0.0
 30
0.0
 70
   128
 71
    11
 72
    18
 73
    17
  0
VERTEX
  5
134
330
FD
100
AcDbEntity
  8
ｴｸｽﾃﾘｱ商品
 62
   253
370
    20
100
AcDbFaceRecord
 10
0.0
 20
0.0
 30
0.0
 70
   128
 71
    14
 72
    20
 73
    19
 74
    22
  0
VERTEX
  5
135
330
FD
100
AcDbEntity
  8
ｴｸｽﾃﾘｱ商品
 62
   253
370
    20
100
AcDbFaceRecord
 10
0.0
 20
0.0
 30
0.0
 70
   128
 71
    14
 72
    22
 73
    24
 74
    26
  0
VERTEX
  5
136
330
FD
100
AcDbEntity
  8
ｴｸｽﾃﾘｱ商品
 62
   253
370
    20
100
AcDbFaceRecord
 10
0.0
 20
0.0
 30
0.0
 70
   128
 71
    14
 72
    26
 73
    28
 74
    30
  0
VERTEX
  5
137
330
FD
100
AcDbEntity
  8
ｴｸｽﾃﾘｱ商品
 62
   253
370
    20
100
AcDbFaceRecord
 10
0.0
 20
0.0
 30
0.0
 70
   128
 71
    14
 72
    30
 73
     3
 74
     2
  0
VERTEX
  5
138
330
FD
100
AcDbEntity
  8
ｴｸｽﾃﾘｱ商品
 62
   253
370
    20
100
AcDbFaceRecord
 10
0.0
 20
0.0
 30
0.0
 70
   128
 71
    14
 72
     2
 73
     6
 74
     8
  0
VERTEX
  5
139
330
FD
100
AcDbEntity
  8
ｴｸｽﾃﾘｱ商品
 62
   253
370
    20
100
AcDbFaceRecord
 10
0.0
 20
0.0
 30
0.0
 70
   128
 71
    14
 72
     8
 73
    10
  0
SEQEND
  5
FE
330
FD
100
AcDbEntity
  8
ｴｸｽﾃﾘｱ商品
370
    20
  0
POLYLINE
  5
13A
330
3C
100
AcDbEntity
  8
ｴｸｽﾃﾘｱ商品
 62
   253
370
    20
100
AcDbPolyFaceMesh
 66
     1
 10
0.0
 20
0.0
 30
0.0
 70
    64
 71
   176
 72
   232
  0
VERTEX
  5
13C
330
13A
100
AcDbEntity
  8
ｴｸｽﾃﾘｱ商品
 62
   253
370
    20
100
AcDbVertex
100
AcDbPolyFaceMeshVertex
 10
292.6180824131682
 20
574.9184799082369
 30
441.0
 70
   192
  0
VERTEX
  5
13D
330
13A
100
AcDbEntity
  8
ｴｸｽﾃﾘｱ商品
 62
   253
370
    20
100
AcDbVertex
100
AcDbPolyFaceMeshVertex
 10
3870.618082413169
 20
574.9184799082367
 30
441.0
 70
   192
  0
VERTEX
  5
13E
330
13A
100
AcDbEntity
  8
ｴｸｽﾃﾘｱ商品
 62
   253
370
    20
100
AcDbVertex
100
AcDbPolyFaceMeshVertex
 10
3932.618082413168
 20
512.9184799082367
 30
441.0
 70
   192
  0
VERTEX
  5
13F
330
13A
100
AcDbEntity
  8
ｴｸｽﾃﾘｱ商品
 62
   253
370
    20
100
AcDbVertex
100
AcDbPolyFaceMeshVertex
 10
230.6180824131682
 20
512.9184799082369
 30
441.0
 70
   192
  0
VERTEX
  5
140
330
13A
100
AcDbEntity
  8
ｴｸｽﾃﾘｱ商品
 62
   253
370
    20
100
AcDbVertex
100
AcDbPolyFaceMeshVertex
 10
292.7050824131682
 20
575.0054799082369
 30
441.0
 70
   192
  0
VERTEX
  5
141
330
13A
100
AcDbEntity
  8
ｴｸｽﾃﾘｱ商品
 62
   253
370
    20
100
AcDbVertex
100
AcDbPolyFaceMeshVertex
 10
3870.531082413168
 20
575.0054799082367
 30
441.0
 70
   192
  0
VERTEX
  5
142
330
13A
100
AcDbEntity
  8
ｴｸｽﾃﾘｱ商品
 62
   253
370
    20
100
AcDbVertex
100
AcDbPolyFaceMeshVertex
 10
292.8780824131682
 20
575.1784799082369
 30
441.03
 70
   192
  0
VERTEX
  5
143
330
13A
100
AcDbEntity
  8
ｴｸｽﾃﾘｱ商品
 62
   253
370
    20
100
AcDbVertex
100
AcDbPolyFaceMeshVertex
 10
3870.358082413168
 20
575.1784799082367
 30
441.03
 70
   192
  0
VERTEX
  5
144
330
13A
100
AcDbEntity
  8
ｴｸｽﾃﾘｱ商品
 62
   253
370
    20
100
AcDbVertex
100
AcDbPolyFaceMeshVertex
 10
293.0420824131682
 20
575.3424799082369
 30
441.09
 70
   192
  0
VERTEX
  5
145
330
13A
100
AcDbEntity
  8
ｴｸｽﾃﾘｱ商品
 62
   253
370
    20
100
AcDbVertex
100
AcDbPolyFaceMeshVertex
 10
3870.194082413168
 20
575.3424799082368
 30
441.09
 70
   192
  0
VERTEX
  5
146
330
13A
100
AcDbEntity
  8
ｴｸｽﾃﾘｱ商品
 62
   253
370
    20
100
AcDbVertex
100
AcDbPolyFaceMeshVertex
 10
293.1940824131682
 20
575.4944799082369
 30
441.178
 70
   192
  0
VERTEX
  5
147
330
13A
100
AcDbEntity
  8
ｴｸｽﾃﾘｱ商品
 62
   253
370
    20
100
AcDbVertex
100
AcDbPolyFaceMeshVertex
 10
3870.042082413168
 20
575.4944799082366
 30
441.178
 70
   192
  0
VERTEX
  5
148
330
13A
100
AcDbEntity
  8
ｴｸｽﾃﾘｱ商品
 62
   253
370
    20
100
AcDbVertex
100
AcDbPolyFaceMeshVertex
 10
293.3280824131682
 20
575.628479908237
 30
441.29
 70
   192
  0
VERTEX
  5
149
330
13A
100
AcDbEntity
  8
ｴｸｽﾃﾘｱ商品
 62
   253
370
    20
100
AcDbVertex
100
AcDbPolyFaceMeshVertex
 10
3869.908082413168
 20
575.6284799082367
 30
441.29
 70
   192
  0
VERTEX
  5
14A
330
13A
100
AcDbEntity
  8
ｴｸｽﾃﾘｱ商品
 62
   253
370
    20
100
AcDbVertex
100
AcDbPolyFaceMeshVertex
 10
293.4400824131682
 20
575.7404799082369
 30
441.424
 70
   192
  0
VERTEX
  5
14B
330
13A
100
AcDbEntity
  8
ｴｸｽﾃﾘｱ商品
 62
   253
370
    20
100
AcDbVertex
100
AcDbPolyFaceMeshVertex
 10
3869.796082413168
 20
575.7404799082367
 30
441.424
 70
   192
  0
VERTEX
  5
14C
330
13A
100
AcDbEntity
  8
ｴｸｽﾃﾘｱ商品
 62
   253
370
    20
100
AcDbVertex
100
AcDbPolyFaceMeshVertex
 10
293.5280824131682
 20
575.8284799082369
 30
441.576
 70
   192
  0
VERTEX
  5
14D
330
13A
100
AcDbEntity
  8
ｴｸｽﾃﾘｱ商品
 62
   253
370
    20
100
AcDbVertex
100
AcDbPolyFaceMeshVertex
 10
3869.708082413169
 20
575.8284799082367
 30
441.576
 70
   192
  0
VERTEX
  5
14E
330
13A
100
AcDbEntity
  8
ｴｸｽﾃﾘｱ商品
 62
   253
370
    20
100
AcDbVertex
100
AcDbPolyFaceMeshVertex
 10
293.5880824131683
 20
575.888479908237
 30
441.74
 70
   192
  0
VERTEX
  5
14F
330
13A
100
AcDbEntity
  8
ｴｸｽﾃﾘｱ商品
 62
   253
370
    20
100
AcDbVertex
100
AcDbPolyFaceMeshVertex
 10
3869.648082413168
 20
575.8884799082366
 30
441.74
 70
   192
  0
VERTEX
  5
150
330
13A
100
AcDbEntity
  8
ｴｸｽﾃﾘｱ商品
 62
   253
370
    20
100
AcDbVertex
100
AcDbPolyFaceMeshVertex
 10
293.6180824131682
 20
575.9184799082369
 30
441.913
 70
   192
  0
VERTEX
  5
151
330
13A
100
AcDbEntity
  8
ｴｸｽﾃﾘｱ商品
 62
   253
370
    20
100
AcDbVertex
100
AcDbPolyFaceMeshVertex
 10
3869.618082413168
 20
575.9184799082367
 30
441.913
 70
   192
  0
VERTEX
  5
152
330
13A
100
AcDbEntity
  8
ｴｸｽﾃﾘｱ商品
 62
   253
370
    20
100
AcDbVertex
100
AcDbPolyFaceMeshVertex
 10
293.6180824131682
 20
575.9184799082369
 30
442.0
 70
   192
  0
VERTEX
  5
153
330
13A
100
AcDbEntity
  8
ｴｸｽﾃﾘｱ商品
 62
   253
370
    20
100
AcDbVertex
100
AcDbPolyFaceMeshVertex
 10
3869.618082413168
 20
575.9184799082367
 30
442.0
 70
   192
  0
VERTEX
  5
154
330
13A
100
AcDbEntity
  8
ｴｸｽﾃﾘｱ商品
 62
   253
370
    20
100
AcDbVertex
100
AcDbPolyFaceMeshVertex
 10
293.6180824131682
 20
575.9184799082369
 30
458.0
 70
   192
  0
VERTEX
  5
155
330
13A
100
AcDbEntity
  8
ｴｸｽﾃﾘｱ商品
 62
   253
370
    20
100
AcDbVertex
100
AcDbPolyFaceMeshVertex
 10
3869.618082413168
 20
575.9184799082367
 30
458.0
 70
   192
  0
VERTEX
  5
156
330
13A
100
AcDbEntity
  8
ｴｸｽﾃﾘｱ商品
 62
   253
370
    20
100
AcDbVertex
100
AcDbPolyFaceMeshVertex
 10
293.6180824131682
 20
575.9184799082369
 30
458.087
 70
   192
  0
VERTEX
  5
157
330
13A
100
AcDbEntity
  8
ｴｸｽﾃﾘｱ商品
 62
   253
370
    20
100
AcDbVertex
100
AcDbPolyFaceMeshVertex
 10
3869.618082413168
 20
575.9184799082367
 30
458.087
 70
   192
  0
VERTEX
  5
158
330
13A
100
AcDbEntity
  8
ｴｸｽﾃﾘｱ商品
 62
   253
370
    20
100
AcDbVertex
100
AcDbPolyFaceMeshVertex
 10
293.6480824131682
 20
575.9484799082369
 30
458.26
 70
   192
  0
VERTEX
  5
159
330
13A
100
AcDbEntity
  8
ｴｸｽﾃﾘｱ商品
 62
   253
370
    20
100
AcDbVertex
100
AcDbPolyFaceMeshVertex
 10
3869.588082413168
 20
575.9484799082368
 30
458.26
 70
   192
  0
VERTEX
  5
15A
330
13A
100
AcDbEntity
  8
ｴｸｽﾃﾘｱ商品
 62
   253
370
    20
100
AcDbVertex
100
AcDbPolyFaceMeshVertex
 10
293.7080824131683
 20
576.008479908237
 30
458.424
 70
   192
  0
VERTEX
  5
15B
330
13A
100
AcDbEntity
  8
ｴｸｽﾃﾘｱ商品
 62
   253
370
    20
100
AcDbVertex
100
AcDbPolyFaceMeshVertex
 10
3869.528082413168
 20
576.0084799082367
 30
458.424
 70
   192
  0
VERTEX
  5
15C
330
13A
100
AcDbEntity
  8
ｴｸｽﾃﾘｱ商品
 62
   253
370
    20
100
AcDbVertex
100
AcDbPolyFaceMeshVertex
 10
293.7960824131682
 20
576.096479908237
 30
458.576
 70
   192
  0
VERTEX
  5
15D
330
13A
100
AcDbEntity
  8
ｴｸｽﾃﾘｱ商品
 62
   253
370
    20
100
AcDbVertex
100
AcDbPolyFaceMeshVertex
 10
3869.440082413168
 20
576.0964799082368
 30
458.576
 70
   192
  0
VERTEX
  5
15E
330
13A
100
AcDbEntity
  8
ｴｸｽﾃﾘｱ商品
 62
   253
370
    20
100
AcDbVertex
100
AcDbPolyFaceMeshVertex
 10
293.9080824131682
 20
576.208479908237
 30
458.71
 70
   192
  0
VERTEX
  5
15F
330
13A
100
AcDbEntity
  8
ｴｸｽﾃﾘｱ商品
 62
   253
370
    20
100
AcDbVertex
100
AcDbPolyFaceMeshVertex
 10
3869.328082413168
 20
576.2084799082368
 30
458.71
 70
   192
  0
VERTEX
  5
160
330
13A
100
AcDbEntity
  8
ｴｸｽﾃﾘｱ商品
 62
   253
370
    20
100
AcDbVertex
100
AcDbPolyFaceMeshVertex
 10
294.0420824131682
 20
576.3424799082369
 30
458.822
 70
   192
  0
VERTEX
  5
161
330
13A
100
AcDbEntity
  8
ｴｸｽﾃﾘｱ商品
 62
   253
370
    20
100
AcDbVertex
100
AcDbPolyFaceMeshVertex
 10
3869.194082413168
 20
576.3424799082368
 30
458.822
 70
   192
  0
VERTEX
  5
162
330
13A
100
AcDbEntity
  8
ｴｸｽﾃﾘｱ商品
 62
   253
370
    20
100
AcDbVertex
100
AcDbPolyFaceMeshVertex
 10
294.1940824131683
 20
576.4944799082369
 30
458.91
 70
   192
  0
VERTEX
  5
163
330
13A
100
AcDbEntity
  8
ｴｸｽﾃﾘｱ商品
 62
   253
370
    20
100
AcDbVertex
100
AcDbPolyFaceMeshVertex
 10
3869.042082413168
 20
576.4944799082367
 30
458.91
 70
   192
  0
VERTEX
  5
164
330
13A
100
AcDbEntity
  8
ｴｸｽﾃﾘｱ商品
 62
   253
370
    20
100
AcDbVertex
100
AcDbPolyFaceMeshVertex
 10
294.3580824131682
 20
576.6584799082369
 30
458.97
 70
   192
  0
VERTEX
  5
165
330
13A
100
AcDbEntity
  8
ｴｸｽﾃﾘｱ商品
 62
   253
370
    20
100
AcDbVertex
100
AcDbPolyFaceMeshVertex
 10
3868.878082413168
 20
576.6584799082367
 30
458.97
 70
   192
  0
VERTEX
  5
166
330
13A
100
AcDbEntity
  8
ｴｸｽﾃﾘｱ商品
 62
   253
370
    20
100
AcDbVertex
100
AcDbPolyFaceMeshVertex
 10
294.5310824131682
 20
576.8314799082369
 30
459.0
 70
   192
  0
VERTEX
  5
167
330
13A
100
AcDbEntity
  8
ｴｸｽﾃﾘｱ商品
 62
   253
370
    20
100
AcDbVertex
100
AcDbPolyFaceMeshVertex
 10
3868.705082413168
 20
576.8314799082367
 30
459.0
 70
   192
  0
VERTEX
  5
168
330
13A
100
AcDbEntity
  8
ｴｸｽﾃﾘｱ商品
 62
   253
370
    20
100
AcDbVertex
100
AcDbPolyFaceMeshVertex
 10
294.6180824131682
 20
576.9184799082369
 30
459.0
 70
   192
  0
VERTEX
  5
169
330
13A
100
AcDbEntity
  8
ｴｸｽﾃﾘｱ商品
 62
   253
370
    20
100
AcDbVertex
100
AcDbPolyFaceMeshVertex
 10
3868.618082413168
 20
576.9184799082368
 30
459.0
 70
   192
  0
VERTEX
  5
16A
330
13A
100
AcDbEntity
  8
ｴｸｽﾃﾘｱ商品
 62
   253
370
    20
100
AcDbVertex
100
AcDbPolyFaceMeshVertex
 10
299.6180824131682
 20
581.9184799082369
 30
459.0
 70
   192
  0
VERTEX
  5
16B
330
13A
100
AcDbEntity
  8
ｴｸｽﾃﾘｱ商品
 62
   253
370
    20
100
AcDbVertex
100
AcDbPolyFaceMeshVertex
 10
3863.618082413168
 20
581.9184799082368
 30
459.0
 70
   192
  0
VERTEX
  5
16C
330
13A
100
AcDbEntity
  8
ｴｸｽﾃﾘｱ商品
 62
   253
370
    20
100
AcDbVertex
100
AcDbPolyFaceMeshVertex
 10
299.7930824131682
 20
582.0934799082369
 30
459.0
 70
   192
  0
VERTEX
  5
16D
330
13A
100
AcDbEntity
  8
ｴｸｽﾃﾘｱ商品
 62
   253
370
    20
100
AcDbVertex
100
AcDbPolyFaceMeshVertex
 10
3863.443082413169
 20
582.0934799082366
 30
459.0
 70
   192
  0
VERTEX
  5
16E
330
13A
100
AcDbEntity
  8
ｴｸｽﾃﾘｱ商品
 62
   253
370
    20
100
AcDbVertex
100
AcDbPolyFaceMeshVertex
 10
300.1380824131681
 20
582.4384799082369
 30
459.061
 70
   192
  0
VERTEX
  5
16F
330
13A
100
AcDbEntity
  8
ｴｸｽﾃﾘｱ商品
 62
   253
370
    20
100
AcDbVertex
100
AcDbPolyFaceMeshVertex
 10
3863.098082413168
 20
582.4384799082367
 30
459.061
 70
   192
  0
VERTEX
  5
170
330
13A
100
AcDbEntity
  8
ｴｸｽﾃﾘｱ商品
 62
   253
370
    20
100
AcDbVertex
100
AcDbPolyFaceMeshVertex
 10
300.4660824131681
 20
582.766479908237
 30
459.18
 70
   192
  0
VERTEX
  5
171
330
13A
100
AcDbEntity
  8
ｴｸｽﾃﾘｱ商品
 62
   253
370
    20
100
AcDbVertex
100
AcDbPolyFaceMeshVertex
 10
3862.770082413168
 20
582.7664799082368
 30
459.18
 70
   192
  0
VERTEX
  5
172
330
13A
100
AcDbEntity
  8
ｴｸｽﾃﾘｱ商品
 62
   253
370
    20
100
AcDbVertex
100
AcDbPolyFaceMeshVertex
 10
300.7700824131682
 20
583.0704799082368
 30
459.355
 70
   192
  0
VERTEX
  5
173
330
13A
100
AcDbEntity
  8
ｴｸｽﾃﾘｱ商品
 62
   253
370
    20
100
AcDbVertex
100
AcDbPolyFaceMeshVertex
 10
3862.466082413168
 20
583.0704799082367
 30
459.355
 70
   192
  0
VERTEX
  5
174
330
13A
100
AcDbEntity
  8
ｴｸｽﾃﾘｱ商品
 62
   253
370
    20
100
AcDbVertex
100
AcDbPolyFaceMeshVertex
 10
301.0380824131682
 20
583.338479908237
 30
459.58
 70
   192
  0
VERTEX
  5
175
330
13A
100
AcDbEntity
  8
ｴｸｽﾃﾘｱ商品
 62
   253
370
    20
100
AcDbVertex
100
AcDbPolyFaceMeshVertex
 10
3862.198082413168
 20
583.3384799082368
 30
459.58
 70
   192
  0
VERTEX
  5
176
330
13A
100
AcDbEntity
  8
ｴｸｽﾃﾘｱ商品
 62
   253
370
    20
100
AcDbVertex
100
AcDbPolyFaceMeshVertex
 10
301.2630824131683
 20
583.563479908237
 30
459.848
 70
   192
  0
VERTEX
  5
177
330
13A
100
AcDbEntity
  8
ｴｸｽﾃﾘｱ商品
 62
   253
370
    20
100
AcDbVertex
100
AcDbPolyFaceMeshVertex
 10
3861.973082413168
 20
583.5634799082368
 30
459.848
 70
   192
  0
VERTEX
  5
178
330
13A
100
AcDbEntity
  8
ｴｸｽﾃﾘｱ商品
 62
   253
370
    20
100
AcDbVertex
100
AcDbPolyFaceMeshVertex
 10
301.4380824131682
 20
583.7384799082369
 30
460.152
 70
   192
  0
VERTEX
  5
179
330
13A
100
AcDbEntity
  8
ｴｸｽﾃﾘｱ商品
 62
   253
370
    20
100
AcDbVertex
100
AcDbPolyFaceMeshVertex
 10
3861.798082413168
 20
583.7384799082367
 30
460.152
 70
   192
  0
VERTEX
  5
17A
330
13A
100
AcDbEntity
  8
ｴｸｽﾃﾘｱ商品
 62
   253
370
    20
100
AcDbVertex
100
AcDbPolyFaceMeshVertex
 10
301.5570824131682
 20
583.857479908237
 30
460.48
 70
   192
  0
VERTEX
  5
17B
330
13A
100
AcDbEntity
  8
ｴｸｽﾃﾘｱ商品
 62
   253
370
    20
100
AcDbVertex
100
AcDbPolyFaceMeshVertex
 10
3861.679082413169
 20
583.8574799082367
 30
460.48
 70
   192
  0
VERTEX
  5
17C
330
13A
100
AcDbEntity
  8
ｴｸｽﾃﾘｱ商品
 62
   253
370
    20
100
AcDbVertex
100
AcDbPolyFaceMeshVertex
 10
301.6180824131682
 20
583.918479908237
 30
460.825
 70
   192
  0
VERTEX
  5
17D
330
13A
100
AcDbEntity
  8
ｴｸｽﾃﾘｱ商品
 62
   253
370
    20
100
AcDbVertex
100
AcDbPolyFaceMeshVertex
 10
3861.618082413168
 20
583.9184799082368
 30
460.825
 70
   192
  0
VERTEX
  5
17E
330
13A
100
AcDbEntity
  8
ｴｸｽﾃﾘｱ商品
 62
   253
370
    20
100
AcDbVertex
100
AcDbPolyFaceMeshVertex
 10
301.6180824131682
 20
583.918479908237
 30
461.0
 70
   192
  0
VERTEX
  5
17F
330
13A
100
AcDbEntity
  8
ｴｸｽﾃﾘｱ商品
 62
   253
370
    20
100
AcDbVertex
100
AcDbPolyFaceMeshVertex
 10
3861.618082413168
 20
583.9184799082368
 30
461.0
 70
   192
  0
VERTEX
  5
180
330
13A
100
AcDbEntity
  8
ｴｸｽﾃﾘｱ商品
 62
   253
370
    20
100
AcDbVertex
100
AcDbPolyFaceMeshVertex
 10
301.6180824131682
 20
583.918479908237
 30
465.0
 70
   192
  0
VERTEX
  5
181
330
13A
100
AcDbEntity
  8
ｴｸｽﾃﾘｱ商品
 62
   253
370
    20
100
AcDbVertex
100
AcDbPolyFaceMeshVertex
 10
3861.618082413168
 20
583.9184799082368
 30
465.0
 70
   192
  0
VERTEX
  5
182
330
13A
100
AcDbEntity
  8
ｴｸｽﾃﾘｱ商品
 62
   253
370
    20
100
AcDbVertex
100
AcDbPolyFaceMeshVertex
 10
301.6180824131682
 20
583.918479908237
 30
465.175
 70
   192
  0
VERTEX
  5
183
330
13A
100
AcDbEntity
  8
ｴｸｽﾃﾘｱ商品
 62
   253
370
    20
100
AcDbVertex
100
AcDbPolyFaceMeshVertex
 10
3861.618082413168
 20
583.9184799082368
 30
465.175
 70
   192
  0
VERTEX
  5
184
330
13A
100
AcDbEntity
  8
ｴｸｽﾃﾘｱ商品
 62
   253
370
    20
100
AcDbVertex
100
AcDbPolyFaceMeshVertex
 10
301.5570824131682
 20
583.857479908237
 30
465.52
 70
   192
  0
VERTEX
  5
185
330
13A
100
AcDbEntity
  8
ｴｸｽﾃﾘｱ商品
 62
   253
370
    20
100
AcDbVertex
100
AcDbPolyFaceMeshVertex
 10
3861.679082413169
 20
583.8574799082367
 30
465.52
 70
   192
  0
VERTEX
  5
186
330
13A
100
AcDbEntity
  8
ｴｸｽﾃﾘｱ商品
 62
   253
370
    20
100
AcDbVertex
100
AcDbPolyFaceMeshVertex
 10
301.4380824131682
 20
583.7384799082369
 30
465.848
 70
   192
  0
VERTEX
  5
187
330
13A
100
AcDbEntity
  8
ｴｸｽﾃﾘｱ商品
 62
   253
370
    20
100
AcDbVertex
100
AcDbPolyFaceMeshVertex
 10
3861.798082413168
 20
583.7384799082367
 30
465.848
 70
   192
  0
VERTEX
  5
188
330
13A
100
AcDbEntity
  8
ｴｸｽﾃﾘｱ商品
 62
   253
370
    20
100
AcDbVertex
100
AcDbPolyFaceMeshVertex
 10
301.2630824131683
 20
583.563479908237
 30
466.152
 70
   192
  0
VERTEX
  5
189
330
13A
100
AcDbEntity
  8
ｴｸｽﾃﾘｱ商品
 62
   253
370
    20
100
AcDbVertex
100
AcDbPolyFaceMeshVertex
 10
3861.973082413168
 20
583.5634799082368
 30
466.152
 70
   192
  0
VERTEX
  5
18A
330
13A
100
AcDbEntity
  8
ｴｸｽﾃﾘｱ商品
 62
   253
370
    20
100
AcDbVertex
100
AcDbPolyFaceMeshVertex
 10
301.0380824131682
 20
583.338479908237
 30
466.42
 70
   192
  0
VERTEX
  5
18B
330
13A
100
AcDbEntity
  8
ｴｸｽﾃﾘｱ商品
 62
   253
370
    20
100
AcDbVertex
100
AcDbPolyFaceMeshVertex
 10
3862.198082413168
 20
583.3384799082368
 30
466.42
 70
   192
  0
VERTEX
  5
18C
330
13A
100
AcDbEntity
  8
ｴｸｽﾃﾘｱ商品
 62
   253
370
    20
100
AcDbVertex
100
AcDbPolyFaceMeshVertex
 10
300.7700824131682
 20
583.0704799082368
 30
466.645
 70
   192
  0
VERTEX
  5
18D
330
13A
100
AcDbEntity
  8
ｴｸｽﾃﾘｱ商品
 62
   253
370
    20
100
AcDbVertex
100
AcDbPolyFaceMeshVertex
 10
3862.466082413168
 20
583.0704799082367
 30
466.645
 70
   192
  0
VERTEX
  5
18E
330
13A
100
AcDbEntity
  8
ｴｸｽﾃﾘｱ商品
 62
   253
370
    20
100
AcDbVertex
100
AcDbPolyFaceMeshVertex
 10
300.4660824131681
 20
582.766479908237
 30
466.82
 70
   192
  0
VERTEX
  5
18F
330
13A
100
AcDbEntity
  8
ｴｸｽﾃﾘｱ商品
 62
   253
370
    20
100
AcDbVertex
100
AcDbPolyFaceMeshVertex
 10
3862.770082413168
 20
582.7664799082368
 30
466.82
 70
   192
  0
VERTEX
  5
190
330
13A
100
AcDbEntity
  8
ｴｸｽﾃﾘｱ商品
 62
   253
370
    20
100
AcDbVertex
100
AcDbPolyFaceMeshVertex
 10
300.1380824131681
 20
582.4384799082369
 30
466.939
 70
   192
  0
VERTEX
  5
191
330
13A
100
AcDbEntity
  8
ｴｸｽﾃﾘｱ商品
 62
   253
370
    20
100
AcDbVertex
100
AcDbPolyFaceMeshVertex
 10
3863.098082413168
 20
582.4384799082367
 30
466.939
 70
   192
  0
VERTEX
  5
192
330
13A
100
AcDbEntity
  8
ｴｸｽﾃﾘｱ商品
 62
   253
370
    20
100
AcDbVertex
100
AcDbPolyFaceMeshVertex
 10
299.7990824131682
 20
582.099479908237
 30
466.992
 70
   192
  0
VERTEX
  5
193
330
13A
100
AcDbEntity
  8
ｴｸｽﾃﾘｱ商品
 62
   253
370
    20
100
AcDbVertex
100
AcDbPolyFaceMeshVertex
 10
3863.437082413168
 20
582.0994799082367
 30
466.992
 70
   192
  0
VERTEX
  5
194
330
13A
100
AcDbEntity
  8
ｴｸｽﾃﾘｱ商品
 62
   253
370
    20
100
AcDbVertex
100
AcDbPolyFaceMeshVertex
 10
249.2930824131682
 20
531.5934799082369
 30
471.586
 70
   192
  0
VERTEX
  5
195
330
13A
100
AcDbEntity
  8
ｴｸｽﾃﾘｱ商品
 62
   253
370
    20
100
AcDbVertex
100
AcDbPolyFaceMeshVertex
 10
3913.943082413168
 20
531.5934799082366
 30
471.586
 70
   192
  0
VERTEX
  5
196
330
13A
100
AcDbEntity
  8
ｴｸｽﾃﾘｱ商品
 62
   253
370
    20
100
AcDbVertex
100
AcDbPolyFaceMeshVertex
 10
223.6470824131682
 20
505.947479908237
 30
471.0000000000001
 70
   192
  0
VERTEX
  5
197
330
13A
100
AcDbEntity
  8
ｴｸｽﾃﾘｱ商品
 62
   253
370
    20
100
AcDbVertex
100
AcDbPolyFaceMeshVertex
 10
3939.589082413168
 20
505.9474799082367
 30
471.0000000000001
 70
   192
  0
VERTEX
  5
198
330
13A
100
AcDbEntity
  8
ｴｸｽﾃﾘｱ商品
 62
   253
370
    20
100
AcDbVertex
100
AcDbPolyFaceMeshVertex
 10
223.4720824131682
 20
505.7724799082369
 30
471.002
 70
   192
  0
VERTEX
  5
199
330
13A
100
AcDbEntity
  8
ｴｸｽﾃﾘｱ商品
 62
   253
370
    20
100
AcDbVertex
100
AcDbPolyFaceMeshVertex
 10
3939.764082413168
 20
505.7724799082367
 30
471.002
 70
   192
  0
VERTEX
  5
19A
330
13A
100
AcDbEntity
  8
ｴｸｽﾃﾘｱ商品
 62
   253
370
    20
100
AcDbVertex
100
AcDbPolyFaceMeshVertex
 10
223.1260824131682
 20
505.426479908237
 30
470.947
 70
   192
  0
VERTEX
  5
19B
330
13A
100
AcDbEntity
  8
ｴｸｽﾃﾘｱ商品
 62
   253
370
    20
100
AcDbVertex
100
AcDbPolyFaceMeshVertex
 10
3940.110082413169
 20
505.4264799082367
 30
470.947
 70
   192
  0
VERTEX
  5
19C
330
13A
100
AcDbEntity
  8
ｴｸｽﾃﾘｱ商品
 62
   253
370
    20
100
AcDbVertex
100
AcDbPolyFaceMeshVertex
 10
222.7960824131682
 20
505.0964799082369
 30
470.8320000000001
 70
   192
  0
VERTEX
  5
19D
330
13A
100
AcDbEntity
  8
ｴｸｽﾃﾘｱ商品
 62
   253
370
    20
100
AcDbVertex
100
AcDbPolyFaceMeshVertex
 10
3940.440082413168
 20
505.0964799082367
 30
470.8320000000001
 70
   192
  0
VERTEX
  5
19E
330
13A
100
AcDbEntity
  8
ｴｸｽﾃﾘｱ商品
 62
   253
370
    20
100
AcDbVertex
100
AcDbPolyFaceMeshVertex
 10
222.4900824131682
 20
504.7904799082369
 30
470.6610000000001
 70
   192
  0
VERTEX
  5
19F
330
13A
100
AcDbEntity
  8
ｴｸｽﾃﾘｱ商品
 62
   253
370
    20
100
AcDbVertex
100
AcDbPolyFaceMeshVertex
 10
3940.746082413168
 20
504.7904799082366
 30
470.6610000000001
 70
   192
  0
VERTEX
  5
1A0
330
13A
100
AcDbEntity
  8
ｴｸｽﾃﾘｱ商品
 62
   253
370
    20
100
AcDbVertex
100
AcDbPolyFaceMeshVertex
 10
222.2190824131683
 20
504.519479908237
 30
470.44
 70
   192
  0
VERTEX
  5
1A1
330
13A
100
AcDbEntity
  8
ｴｸｽﾃﾘｱ商品
 62
   253
370
    20
100
AcDbVertex
100
AcDbPolyFaceMeshVertex
 10
3941.017082413168
 20
504.5194799082366
 30
470.44
 70
   192
  0
VERTEX
  5
1A2
330
13A
100
AcDbEntity
  8
ｴｸｽﾃﾘｱ商品
 62
   253
370
    20
100
AcDbVertex
100
AcDbPolyFaceMeshVertex
 10
221.9900824131682
 20
504.2904799082369
 30
470.175
 70
   192
  0
VERTEX
  5
1A3
330
13A
100
AcDbEntity
  8
ｴｸｽﾃﾘｱ商品
 62
   253
370
    20
100
AcDbVertex
100
AcDbPolyFaceMeshVertex
 10
3941.246082413168
 20
504.2904799082367
 30
470.175
 70
   192
  0
VERTEX
  5
1A4
330
13A
100
AcDbEntity
  8
ｴｸｽﾃﾘｱ商品
 62
   253
370
    20
100
AcDbVertex
100
AcDbPolyFaceMeshVertex
 10
221.8110824131682
 20
504.1114799082369
 30
469.8750000000001
 70
   192
  0
VERTEX
  5
1A5
330
13A
100
AcDbEntity
  8
ｴｸｽﾃﾘｱ商品
 62
   253
370
    20
100
AcDbVertex
100
AcDbPolyFaceMeshVertex
 10
3941.425082413169
 20
504.1114799082367
 30
469.8750000000001
 70
   192
  0
VERTEX
  5
1A6
330
13A
100
AcDbEntity
  8
ｴｸｽﾃﾘｱ商品
 62
   253
370
    20
100
AcDbVertex
100
AcDbPolyFaceMeshVertex
 10
221.6860824131682
 20
503.986479908237
 30
469.548
 70
   192
  0
VERTEX
  5
1A7
330
13A
100
AcDbEntity
  8
ｴｸｽﾃﾘｱ商品
 62
   253
370
    20
100
AcDbVertex
100
AcDbPolyFaceMeshVertex
 10
3941.550082413168
 20
503.9864799082367
 30
469.548
 70
   192
  0
VERTEX
  5
1A8
330
13A
100
AcDbEntity
  8
ｴｸｽﾃﾘｱ商品
 62
   253
370
    20
100
AcDbVertex
100
AcDbPolyFaceMeshVertex
 10
221.6210824131682
 20
503.921479908237
 30
469.204
 70
   192
  0
VERTEX
  5
1A9
330
13A
100
AcDbEntity
  8
ｴｸｽﾃﾘｱ商品
 62
   253
370
    20
100
AcDbVertex
100
AcDbPolyFaceMeshVertex
 10
3941.615082413168
 20
503.9214799082367
 30
469.204
 70
   192
  0
VERTEX
  5
1AA
330
13A
100
AcDbEntity
  8
ｴｸｽﾃﾘｱ商品
 62
   253
370
    20
100
AcDbVertex
100
AcDbPolyFaceMeshVertex
 10
221.6180824131682
 20
503.9184799082369
 30
469.0
 70
   192
  0
VERTEX
  5
1AB
330
13A
100
AcDbEntity
  8
ｴｸｽﾃﾘｱ商品
 62
   253
370
    20
100
AcDbVertex
100
AcDbPolyFaceMeshVertex
 10
3941.618082413168
 20
503.9184799082367
 30
469.0
 70
   192
  0
VERTEX
  5
1AC
330
13A
100
AcDbEntity
  8
ｴｸｽﾃﾘｱ商品
 62
   253
370
    20
100
AcDbVertex
100
AcDbPolyFaceMeshVertex
 10
221.6180824131682
 20
503.9184799082369
 30
461.0
 70
   192
  0
VERTEX
  5
1AD
330
13A
100
AcDbEntity
  8
ｴｸｽﾃﾘｱ商品
 62
   253
370
    20
100
AcDbVertex
100
AcDbPolyFaceMeshVertex
 10
3941.618082413168
 20
503.9184799082367
 30
461.0
 70
   192
  0
VERTEX
  5
1AE
330
13A
100
AcDbEntity
  8
ｴｸｽﾃﾘｱ商品
 62
   253
370
    20
100
AcDbVertex
100
AcDbPolyFaceMeshVertex
 10
221.6180824131682
 20
503.9184799082369
 30
460.825
 70
   192
  0
VERTEX
  5
1AF
330
13A
100
AcDbEntity
  8
ｴｸｽﾃﾘｱ商品
 62
   253
370
    20
100
AcDbVertex
100
AcDbPolyFaceMeshVertex
 10
3941.618082413168
 20
503.9184799082367
 30
460.825
 70
   192
  0
VERTEX
  5
1B0
330
13A
100
AcDbEntity
  8
ｴｸｽﾃﾘｱ商品
 62
   253
370
    20
100
AcDbVertex
100
AcDbPolyFaceMeshVertex
 10
221.6790824131682
 20
503.9794799082369
 30
460.4800000000001
 70
   192
  0
VERTEX
  5
1B1
330
13A
100
AcDbEntity
  8
ｴｸｽﾃﾘｱ商品
 62
   253
370
    20
100
AcDbVertex
100
AcDbPolyFaceMeshVertex
 10
3941.557082413168
 20
503.9794799082367
 30
460.4800000000001
 70
   192
  0
VERTEX
  5
1B2
330
13A
100
AcDbEntity
  8
ｴｸｽﾃﾘｱ商品
 62
   253
370
    20
100
AcDbVertex
100
AcDbPolyFaceMeshVertex
 10
221.7980824131682
 20
504.098479908237
 30
460.152
 70
   192
  0
VERTEX
  5
1B3
330
13A
100
AcDbEntity
  8
ｴｸｽﾃﾘｱ商品
 62
   253
370
    20
100
AcDbVertex
100
AcDbPolyFaceMeshVertex
 10
3941.438082413169
 20
504.0984799082366
 30
460.152
 70
   192
  0
VERTEX
  5
1B4
330
13A
100
AcDbEntity
  8
ｴｸｽﾃﾘｱ商品
 62
   253
370
    20
100
AcDbVertex
100
AcDbPolyFaceMeshVertex
 10
221.9730824131682
 20
504.2734799082369
 30
459.848
 70
   192
  0
VERTEX
  5
1B5
330
13A
100
AcDbEntity
  8
ｴｸｽﾃﾘｱ商品
 62
   253
370
    20
100
AcDbVertex
100
AcDbPolyFaceMeshVertex
 10
3941.263082413168
 20
504.2734799082367
 30
459.848
 70
   192
  0
VERTEX
  5
1B6
330
13A
100
AcDbEntity
  8
ｴｸｽﾃﾘｱ商品
 62
   253
370
    20
100
AcDbVertex
100
AcDbPolyFaceMeshVertex
 10
222.1980824131682
 20
504.4984799082369
 30
459.58
 70
   192
  0
VERTEX
  5
1B7
330
13A
100
AcDbEntity
  8
ｴｸｽﾃﾘｱ商品
 62
   253
370
    20
100
AcDbVertex
100
AcDbPolyFaceMeshVertex
 10
3941.038082413168
 20
504.4984799082367
 30
459.58
 70
   192
  0
VERTEX
  5
1B8
330
13A
100
AcDbEntity
  8
ｴｸｽﾃﾘｱ商品
 62
   253
370
    20
100
AcDbVertex
100
AcDbPolyFaceMeshVertex
 10
222.4660824131682
 20
504.766479908237
 30
459.355
 70
   192
  0
VERTEX
  5
1B9
330
13A
100
AcDbEntity
  8
ｴｸｽﾃﾘｱ商品
 62
   253
370
    20
100
AcDbVertex
100
AcDbPolyFaceMeshVertex
 10
3940.770082413168
 20
504.7664799082366
 30
459.355
 70
   192
  0
VERTEX
  5
1BA
330
13A
100
AcDbEntity
  8
ｴｸｽﾃﾘｱ商品
 62
   253
370
    20
100
AcDbVertex
100
AcDbPolyFaceMeshVertex
 10
222.7700824131683
 20
505.070479908237
 30
459.18
 70
   192
  0
VERTEX
  5
1BB
330
13A
100
AcDbEntity
  8
ｴｸｽﾃﾘｱ商品
 62
   253
370
    20
100
AcDbVertex
100
AcDbPolyFaceMeshVertex
 10
3940.466082413168
 20
505.0704799082367
 30
459.18
 70
   192
  0
VERTEX
  5
1BC
330
13A
100
AcDbEntity
  8
ｴｸｽﾃﾘｱ商品
 62
   253
370
    20
100
AcDbVertex
100
AcDbPolyFaceMeshVertex
 10
223.0980824131682
 20
505.3984799082369
 30
459.061
 70
   192
  0
VERTEX
  5
1BD
330
13A
100
AcDbEntity
  8
ｴｸｽﾃﾘｱ商品
 62
   253
370
    20
100
AcDbVertex
100
AcDbPolyFaceMeshVertex
 10
3940.138082413168
 20
505.3984799082367
 30
459.061
 70
   192
  0
VERTEX
  5
1BE
330
13A
100
AcDbEntity
  8
ｴｸｽﾃﾘｱ商品
 62
   253
370
    20
100
AcDbVertex
100
AcDbPolyFaceMeshVertex
 10
223.4430824131683
 20
505.743479908237
 30
459.0
 70
   192
  0
VERTEX
  5
1BF
330
13A
100
AcDbEntity
  8
ｴｸｽﾃﾘｱ商品
 62
   253
370
    20
100
AcDbVertex
100
AcDbPolyFaceMeshVertex
 10
3939.793082413168
 20
505.7434799082366
 30
459.0
 70
   192
  0
VERTEX
  5
1C0
330
13A
100
AcDbEntity
  8
ｴｸｽﾃﾘｱ商品
 62
   253
370
    20
100
AcDbVertex
100
AcDbPolyFaceMeshVertex
 10
223.6180824131682
 20
505.9184799082369
 30
459.0
 70
   192
  0
VERTEX
  5
1C1
330
13A
100
AcDbEntity
  8
ｴｸｽﾃﾘｱ商品
 62
   253
370
    20
100
AcDbVertex
100
AcDbPolyFaceMeshVertex
 10
3939.618082413168
 20
505.9184799082367
 30
459.0
 70
   192
  0
VERTEX
  5
1C2
330
13A
100
AcDbEntity
  8
ｴｸｽﾃﾘｱ商品
 62
   253
370
    20
100
AcDbVertex
100
AcDbPolyFaceMeshVertex
 10
228.6180824131682
 20
510.9184799082369
 30
459.0
 70
   192
  0
VERTEX
  5
1C3
330
13A
100
AcDbEntity
  8
ｴｸｽﾃﾘｱ商品
 62
   253
370
    20
100
AcDbVertex
100
AcDbPolyFaceMeshVertex
 10
3934.618082413168
 20
510.9184799082367
 30
459.0
 70
   192
  0
VERTEX
  5
1C4
330
13A
100
AcDbEntity
  8
ｴｸｽﾃﾘｱ商品
 62
   253
370
    20
100
AcDbVertex
100
AcDbPolyFaceMeshVertex
 10
228.7050824131682
 20
511.005479908237
 30
459.0
 70
   192
  0
VERTEX
  5
1C5
330
13A
100
AcDbEntity
  8
ｴｸｽﾃﾘｱ商品
 62
   253
370
    20
100
AcDbVertex
100
AcDbPolyFaceMeshVertex
 10
3934.531082413168
 20
511.0054799082366
 30
459.0
 70
   192
  0
VERTEX
  5
1C6
330
13A
100
AcDbEntity
  8
ｴｸｽﾃﾘｱ商品
 62
   253
370
    20
100
AcDbVertex
100
AcDbPolyFaceMeshVertex
 10
228.8780824131683
 20
511.178479908237
 30
458.97
 70
   192
  0
VERTEX
  5
1C7
330
13A
100
AcDbEntity
  8
ｴｸｽﾃﾘｱ商品
 62
   253
370
    20
100
AcDbVertex
100
AcDbPolyFaceMeshVertex
 10
3934.358082413168
 20
511.1784799082367
 30
458.97
 70
   192
  0
VERTEX
  5
1C8
330
13A
100
AcDbEntity
  8
ｴｸｽﾃﾘｱ商品
 62
   253
370
    20
100
AcDbVertex
100
AcDbPolyFaceMeshVertex
 10
229.0420824131681
 20
511.3424799082369
 30
458.91
 70
   192
  0
VERTEX
  5
1C9
330
13A
100
AcDbEntity
  8
ｴｸｽﾃﾘｱ商品
 62
   253
370
    20
100
AcDbVertex
100
AcDbPolyFaceMeshVertex
 10
3934.194082413168
 20
511.3424799082367
 30
458.91
 70
   192
  0
VERTEX
  5
1CA
330
13A
100
AcDbEntity
  8
ｴｸｽﾃﾘｱ商品
 62
   253
370
    20
100
AcDbVertex
100
AcDbPolyFaceMeshVertex
 10
229.1940824131682
 20
511.4944799082369
 30
458.822
 70
   192
  0
VERTEX
  5
1CB
330
13A
100
AcDbEntity
  8
ｴｸｽﾃﾘｱ商品
 62
   253
370
    20
100
AcDbVertex
100
AcDbPolyFaceMeshVertex
 10
3934.042082413168
 20
511.4944799082367
 30
458.822
 70
   192
  0
VERTEX
  5
1CC
330
13A
100
AcDbEntity
  8
ｴｸｽﾃﾘｱ商品
 62
   253
370
    20
100
AcDbVertex
100
AcDbPolyFaceMeshVertex
 10
229.3280824131681
 20
511.6284799082369
 30
458.71
 70
   192
  0
VERTEX
  5
1CD
330
13A
100
AcDbEntity
  8
ｴｸｽﾃﾘｱ商品
 62
   253
370
    20
100
AcDbVertex
100
AcDbPolyFaceMeshVertex
 10
3933.908082413168
 20
511.6284799082367
 30
458.71
 70
   192
  0
VERTEX
  5
1CE
330
13A
100
AcDbEntity
  8
ｴｸｽﾃﾘｱ商品
 62
   253
370
    20
100
AcDbVertex
100
AcDbPolyFaceMeshVertex
 10
229.4400824131682
 20
511.7404799082369
 30
458.576
 70
   192
  0
VERTEX
  5
1CF
330
13A
100
AcDbEntity
  8
ｴｸｽﾃﾘｱ商品
 62
   253
370
    20
100
AcDbVertex
100
AcDbPolyFaceMeshVertex
 10
3933.796082413168
 20
511.7404799082367
 30
458.576
 70
   192
  0
VERTEX
  5
1D0
330
13A
100
AcDbEntity
  8
ｴｸｽﾃﾘｱ商品
 62
   253
370
    20
100
AcDbVertex
100
AcDbPolyFaceMeshVertex
 10
229.5280824131681
 20
511.8284799082369
 30
458.424
 70
   192
  0
VERTEX
  5
1D1
330
13A
100
AcDbEntity
  8
ｴｸｽﾃﾘｱ商品
 62
   253
370
    20
100
AcDbVertex
100
AcDbPolyFaceMeshVertex
 10
3933.708082413169
 20
511.8284799082367
 30
458.424
 70
   192
  0
VERTEX
  5
1D2
330
13A
100
AcDbEntity
  8
ｴｸｽﾃﾘｱ商品
 62
   253
370
    20
100
AcDbVertex
100
AcDbPolyFaceMeshVertex
 10
229.5880824131682
 20
511.8884799082369
 30
458.26
 70
   192
  0
VERTEX
  5
1D3
330
13A
100
AcDbEntity
  8
ｴｸｽﾃﾘｱ商品
 62
   253
370
    20
100
AcDbVertex
100
AcDbPolyFaceMeshVertex
 10
3933.648082413169
 20
511.8884799082367
 30
458.26
 70
   192
  0
VERTEX
  5
1D4
330
13A
100
AcDbEntity
  8
ｴｸｽﾃﾘｱ商品
 62
   253
370
    20
100
AcDbVertex
100
AcDbPolyFaceMeshVertex
 10
229.6180824131682
 20
511.9184799082369
 30
458.087
 70
   192
  0
VERTEX
  5
1D5
330
13A
100
AcDbEntity
  8
ｴｸｽﾃﾘｱ商品
 62
   253
370
    20
100
AcDbVertex
100
AcDbPolyFaceMeshVertex
 10
3933.618082413168
 20
511.9184799082367
 30
458.087
 70
   192
  0
VERTEX
  5
1D6
330
13A
100
AcDbEntity
  8
ｴｸｽﾃﾘｱ商品
 62
   253
370
    20
100
AcDbVertex
100
AcDbPolyFaceMeshVertex
 10
229.6180824131682
 20
511.9184799082369
 30
458.0
 70
   192
  0
VERTEX
  5
1D7
330
13A
100
AcDbEntity
  8
ｴｸｽﾃﾘｱ商品
 62
   253
370
    20
100
AcDbVertex
100
AcDbPolyFaceMeshVertex
 10
3933.618082413168
 20
511.9184799082367
 30
458.0
 70
   192
  0
VERTEX
  5
1D8
330
13A
100
AcDbEntity
  8
ｴｸｽﾃﾘｱ商品
 62
   253
370
    20
100
AcDbVertex
100
AcDbPolyFaceMeshVertex
 10
229.6180824131682
 20
511.9184799082369
 30
442.0
 70
   192
  0
VERTEX
  5
1D9
330
13A
100
AcDbEntity
  8
ｴｸｽﾃﾘｱ商品
 62
   253
370
    20
100
AcDbVertex
100
AcDbPolyFaceMeshVertex
 10
3933.618082413168
 20
511.9184799082367
 30
442.0
 70
   192
  0
VERTEX
  5
1DA
330
13A
100
AcDbEntity
  8
ｴｸｽﾃﾘｱ商品
 62
   253
370
    20
100
AcDbVertex
100
AcDbPolyFaceMeshVertex
 10
229.6180824131682
 20
511.9184799082369
 30
441.913
 70
   192
  0
VERTEX
  5
1DB
330
13A
100
AcDbEntity
  8
ｴｸｽﾃﾘｱ商品
 62
   253
370
    20
100
AcDbVertex
100
AcDbPolyFaceMeshVertex
 10
3933.618082413168
 20
511.9184799082367
 30
441.913
 70
   192
  0
VERTEX
  5
1DC
330
13A
100
AcDbEntity
  8
ｴｸｽﾃﾘｱ商品
 62
   253
370
    20
100
AcDbVertex
100
AcDbPolyFaceMeshVertex
 10
229.6480824131681
 20
511.9484799082369
 30
441.74
 70
   192
  0
VERTEX
  5
1DD
330
13A
100
AcDbEntity
  8
ｴｸｽﾃﾘｱ商品
 62
   253
370
    20
100
AcDbVertex
100
AcDbPolyFaceMeshVertex
 10
3933.588082413169
 20
511.9484799082367
 30
441.74
 70
   192
  0
VERTEX
  5
1DE
330
13A
100
AcDbEntity
  8
ｴｸｽﾃﾘｱ商品
 62
   253
370
    20
100
AcDbVertex
100
AcDbPolyFaceMeshVertex
 10
229.7080824131682
 20
512.008479908237
 30
441.576
 70
   192
  0
VERTEX
  5
1DF
330
13A
100
AcDbEntity
  8
ｴｸｽﾃﾘｱ商品
 62
   253
370
    20
100
AcDbVertex
100
AcDbPolyFaceMeshVertex
 10
3933.528082413169
 20
512.0084799082367
 30
441.576
 70
   192
  0
VERTEX
  5
1E0
330
13A
100
AcDbEntity
  8
ｴｸｽﾃﾘｱ商品
 62
   253
370
    20
100
AcDbVertex
100
AcDbPolyFaceMeshVertex
 10
229.7960824131682
 20
512.0964799082369
 30
441.424
 70
   192
  0
VERTEX
  5
1E1
330
13A
100
AcDbEntity
  8
ｴｸｽﾃﾘｱ商品
 62
   253
370
    20
100
AcDbVertex
100
AcDbPolyFaceMeshVertex
 10
3933.440082413169
 20
512.0964799082367
 30
441.424
 70
   192
  0
VERTEX
  5
1E2
330
13A
100
AcDbEntity
  8
ｴｸｽﾃﾘｱ商品
 62
   253
370
    20
100
AcDbVertex
100
AcDbPolyFaceMeshVertex
 10
229.9080824131682
 20
512.2084799082369
 30
441.29
 70
   192
  0
VERTEX
  5
1E3
330
13A
100
AcDbEntity
  8
ｴｸｽﾃﾘｱ商品
 62
   253
370
    20
100
AcDbVertex
100
AcDbPolyFaceMeshVertex
 10
3933.328082413168
 20
512.2084799082367
 30
441.29
 70
   192
  0
VERTEX
  5
1E4
330
13A
100
AcDbEntity
  8
ｴｸｽﾃﾘｱ商品
 62
   253
370
    20
100
AcDbVertex
100
AcDbPolyFaceMeshVertex
 10
230.0420824131682
 20
512.3424799082369
 30
441.178
 70
   192
  0
VERTEX
  5
1E5
330
13A
100
AcDbEntity
  8
ｴｸｽﾃﾘｱ商品
 62
   253
370
    20
100
AcDbVertex
100
AcDbPolyFaceMeshVertex
 10
3933.194082413168
 20
512.3424799082367
 30
441.178
 70
   192
  0
VERTEX
  5
1E6
330
13A
100
AcDbEntity
  8
ｴｸｽﾃﾘｱ商品
 62
   253
370
    20
100
AcDbVertex
100
AcDbPolyFaceMeshVertex
 10
230.1940824131682
 20
512.4944799082369
 30
441.09
 70
   192
  0
VERTEX
  5
1E7
330
13A
100
AcDbEntity
  8
ｴｸｽﾃﾘｱ商品
 62
   253
370
    20
100
AcDbVertex
100
AcDbPolyFaceMeshVertex
 10
3933.042082413168
 20
512.4944799082367
 30
441.09
 70
   192
  0
VERTEX
  5
1E8
330
13A
100
AcDbEntity
  8
ｴｸｽﾃﾘｱ商品
 62
   253
370
    20
100
AcDbVertex
100
AcDbPolyFaceMeshVertex
 10
230.3580824131682
 20
512.658479908237
 30
441.03
 70
   192
  0
VERTEX
  5
1E9
330
13A
100
AcDbEntity
  8
ｴｸｽﾃﾘｱ商品
 62
   253
370
    20
100
AcDbVertex
100
AcDbPolyFaceMeshVertex
 10
3932.878082413168
 20
512.6584799082367
 30
441.03
 70
   192
  0
VERTEX
  5
1EA
330
13A
100
AcDbEntity
  8
ｴｸｽﾃﾘｱ商品
 62
   253
370
    20
100
AcDbVertex
100
AcDbPolyFaceMeshVertex
 10
230.5310824131682
 20
512.8314799082369
 30
441.0
 70
   192
  0
VERTEX
  5
1EB
330
13A
100
AcDbEntity
  8
ｴｸｽﾃﾘｱ商品
 62
   253
370
    20
100
AcDbVertex
100
AcDbPolyFaceMeshVertex
 10
3932.705082413169
 20
512.8314799082367
 30
441.0
 70
   192
  0
VERTEX
  5
1EC
330
13A
100
AcDbEntity
  8
ｴｸｽﾃﾘｱ商品
 62
   253
370
    20
100
AcDbFaceRecord
 10
0.0
 20
0.0
 30
0.0
 70
   128
 71
     1
 72
     2
 73
     3
 74
     4
  0
VERTEX
  5
1ED
330
13A
100
AcDbEntity
  8
ｴｸｽﾃﾘｱ商品
 62
   253
370
    20
100
AcDbFaceRecord
 10
0.0
 20
0.0
 30
0.0
 70
   128
 71
     5
 72
     6
 73
     2
 74
     1
  0
VERTEX
  5
1EE
330
13A
100
AcDbEntity
  8
ｴｸｽﾃﾘｱ商品
 62
   253
370
    20
100
AcDbFaceRecord
 10
0.0
 20
0.0
 30
0.0
 70
   128
 71
     7
 72
     8
 73
     6
 74
     5
  0
VERTEX
  5
1EF
330
13A
100
AcDbEntity
  8
ｴｸｽﾃﾘｱ商品
 62
   253
370
    20
100
AcDbFaceRecord
 10
0.0
 20
0.0
 30
0.0
 70
   128
 71
     9
 72
    10
 73
     8
 74
     7
  0
VERTEX
  5
1F0
330
13A
100
AcDbEntity
  8
ｴｸｽﾃﾘｱ商品
 62
   253
370
    20
100
AcDbFaceRecord
 10
0.0
 20
0.0
 30
0.0
 70
   128
 71
    11
 72
    12
 73
    10
 74
     9
  0
VERTEX
  5
1F1
330
13A
100
AcDbEntity
  8
ｴｸｽﾃﾘｱ商品
 62
   253
370
    20
100
AcDbFaceRecord
 10
0.0
 20
0.0
 30
0.0
 70
   128
 71
    13
 72
    14
 73
    12
 74
    11
  0
VERTEX
  5
1F2
330
13A
100
AcDbEntity
  8
ｴｸｽﾃﾘｱ商品
 62
   253
370
    20
100
AcDbFaceRecord
 10
0.0
 20
0.0
 30
0.0
 70
   128
 71
    15
 72
    16
 73
    14
 74
    13
  0
VERTEX
  5
1F3
330
13A
100
AcDbEntity
  8
ｴｸｽﾃﾘｱ商品
 62
   253
370
    20
100
AcDbFaceRecord
 10
0.0
 20
0.0
 30
0.0
 70
   128
 71
    17
 72
    18
 73
    16
 74
    15
  0
VERTEX
  5
1F4
330
13A
100
AcDbEntity
  8
ｴｸｽﾃﾘｱ商品
 62
   253
370
    20
100
AcDbFaceRecord
 10
0.0
 20
0.0
 30
0.0
 70
   128
 71
    19
 72
    20
 73
    18
 74
    17
  0
VERTEX
  5
1F5
330
13A
100
AcDbEntity
  8
ｴｸｽﾃﾘｱ商品
 62
   253
370
    20
100
AcDbFaceRecord
 10
0.0
 20
0.0
 30
0.0
 70
   128
 71
    21
 72
    22
 73
    20
 74
    19
  0
VERTEX
  5
1F6
330
13A
100
AcDbEntity
  8
ｴｸｽﾃﾘｱ商品
 62
   253
370
    20
100
AcDbFaceRecord
 10
0.0
 20
0.0
 30
0.0
 70
   128
 71
    23
 72
    24
 73
    22
 74
    21
  0
VERTEX
  5
1F7
330
13A
100
AcDbEntity
  8
ｴｸｽﾃﾘｱ商品
 62
   253
370
    20
100
AcDbFaceRecord
 10
0.0
 20
0.0
 30
0.0
 70
   128
 71
    25
 72
    26
 73
    24
 74
    23
  0
VERTEX
  5
1F8
330
13A
100
AcDbEntity
  8
ｴｸｽﾃﾘｱ商品
 62
   253
370
    20
100
AcDbFaceRecord
 10
0.0
 20
0.0
 30
0.0
 70
   128
 71
    27
 72
    28
 73
    26
 74
    25
  0
VERTEX
  5
1F9
330
13A
100
AcDbEntity
  8
ｴｸｽﾃﾘｱ商品
 62
   253
370
    20
100
AcDbFaceRecord
 10
0.0
 20
0.0
 30
0.0
 70
   128
 71
    29
 72
    30
 73
    28
 74
    27
  0
VERTEX
  5
1FA
330
13A
100
AcDbEntity
  8
ｴｸｽﾃﾘｱ商品
 62
   253
370
    20
100
AcDbFaceRecord
 10
0.0
 20
0.0
 30
0.0
 70
   128
 71
    31
 72
    32
 73
    30
 74
    29
  0
VERTEX
  5
1FB
330
13A
100
AcDbEntity
  8
ｴｸｽﾃﾘｱ商品
 62
   253
370
    20
100
AcDbFaceRecord
 10
0.0
 20
0.0
 30
0.0
 70
   128
 71
    33
 72
    34
 73
    32
 74
    31
  0
VERTEX
  5
1FC
330
13A
100
AcDbEntity
  8
ｴｸｽﾃﾘｱ商品
 62
   253
370
    20
100
AcDbFaceRecord
 10
0.0
 20
0.0
 30
0.0
 70
   128
 71
    35
 72
    36
 73
    34
 74
    33
  0
VERTEX
  5
1FD
330
13A
100
AcDbEntity
  8
ｴｸｽﾃﾘｱ商品
 62
   253
370
    20
100
AcDbFaceRecord
 10
0.0
 20
0.0
 30
0.0
 70
   128
 71
    37
 72
    38
 73
    36
 74
    35
  0
VERTEX
  5
1FE
330
13A
100
AcDbEntity
  8
ｴｸｽﾃﾘｱ商品
 62
   253
370
    20
100
AcDbFaceRecord
 10
0.0
 20
0.0
 30
0.0
 70
   128
 71
    39
 72
    40
 73
    38
 74
    37
  0
VERTEX
  5
1FF
330
13A
100
AcDbEntity
  8
ｴｸｽﾃﾘｱ商品
 62
   253
370
    20
100
AcDbFaceRecord
 10
0.0
 20
0.0
 30
0.0
 70
   128
 71
    41
 72
    42
 73
    40
 74
    39
  0
VERTEX
  5
200
330
13A
100
AcDbEntity
  8
ｴｸｽﾃﾘｱ商品
 62
   253
370
    20
100
AcDbFaceRecord
 10
0.0
 20
0.0
 30
0.0
 70
   128
 71
    43
 72
    44
 73
    42
 74
    41
  0
VERTEX
  5
201
330
13A
100
AcDbEntity
  8
ｴｸｽﾃﾘｱ商品
 62
   253
370
    20
100
AcDbFaceRecord
 10
0.0
 20
0.0
 30
0.0
 70
   128
 71
    45
 72
    46
 73
    44
 74
    43
  0
VERTEX
  5
202
330
13A
100
AcDbEntity
  8
ｴｸｽﾃﾘｱ商品
 62
   253
370
    20
100
AcDbFaceRecord
 10
0.0
 20
0.0
 30
0.0
 70
   128
 71
    47
 72
    48
 73
    46
 74
    45
  0
VERTEX
  5
203
330
13A
100
AcDbEntity
  8
ｴｸｽﾃﾘｱ商品
 62
   253
370
    20
100
AcDbFaceRecord
 10
0.0
 20
0.0
 30
0.0
 70
   128
 71
    49
 72
    50
 73
    48
 74
    47
  0
VERTEX
  5
204
330
13A
100
AcDbEntity
  8
ｴｸｽﾃﾘｱ商品
 62
   253
370
    20
100
AcDbFaceRecord
 10
0.0
 20
0.0
 30
0.0
 70
   128
 71
    51
 72
    52
 73
    50
 74
    49
  0
VERTEX
  5
205
330
13A
100
AcDbEntity
  8
ｴｸｽﾃﾘｱ商品
 62
   253
370
    20
100
AcDbFaceRecord
 10
0.0
 20
0.0
 30
0.0
 70
   128
 71
    53
 72
    54
 73
    52
 74
    51
  0
VERTEX
  5
206
330
13A
100
AcDbEntity
  8
ｴｸｽﾃﾘｱ商品
 62
   253
370
    20
100
AcDbFaceRecord
 10
0.0
 20
0.0
 30
0.0
 70
   128
 71
    55
 72
    56
 73
    54
 74
    53
  0
VERTEX
  5
207
330
13A
100
AcDbEntity
  8
ｴｸｽﾃﾘｱ商品
 62
   253
370
    20
100
AcDbFaceRecord
 10
0.0
 20
0.0
 30
0.0
 70
   128
 71
    57
 72
    58
 73
    56
 74
    55
  0
VERTEX
  5
208
330
13A
100
AcDbEntity
  8
ｴｸｽﾃﾘｱ商品
 62
   253
370
    20
100
AcDbFaceRecord
 10
0.0
 20
0.0
 30
0.0
 70
   128
 71
    59
 72
    60
 73
    58
 74
    57
  0
VERTEX
  5
209
330
13A
100
AcDbEntity
  8
ｴｸｽﾃﾘｱ商品
 62
   253
370
    20
100
AcDbFaceRecord
 10
0.0
 20
0.0
 30
0.0
 70
   128
 71
    61
 72
    62
 73
    60
 74
    59
  0
VERTEX
  5
20A
330
13A
100
AcDbEntity
  8
ｴｸｽﾃﾘｱ商品
 62
   253
370
    20
100
AcDbFaceRecord
 10
0.0
 20
0.0
 30
0.0
 70
   128
 71
    63
 72
    64
 73
    62
 74
    61
  0
VERTEX
  5
20B
330
13A
100
AcDbEntity
  8
ｴｸｽﾃﾘｱ商品
 62
   253
370
    20
100
AcDbFaceRecord
 10
0.0
 20
0.0
 30
0.0
 70
   128
 71
    65
 72
    66
 73
    64
 74
    63
  0
VERTEX
  5
20C
330
13A
100
AcDbEntity
  8
ｴｸｽﾃﾘｱ商品
 62
   253
370
    20
100
AcDbFaceRecord
 10
0.0
 20
0.0
 30
0.0
 70
   128
 71
    67
 72
    68
 73
    66
 74
    65
  0
VERTEX
  5
20D
330
13A
100
AcDbEntity
  8
ｴｸｽﾃﾘｱ商品
 62
   253
370
    20
100
AcDbFaceRecord
 10
0.0
 20
0.0
 30
0.0
 70
   128
 71
    69
 72
    70
 73
    68
 74
    67
  0
VERTEX
  5
20E
330
13A
100
AcDbEntity
  8
ｴｸｽﾃﾘｱ商品
 62
   253
370
    20
100
AcDbFaceRecord
 10
0.0
 20
0.0
 30
0.0
 70
   128
 71
    71
 72
    72
 73
    70
 74
    69
  0
VERTEX
  5
20F
330
13A
100
AcDbEntity
  8
ｴｸｽﾃﾘｱ商品
 62
   253
370
    20
100
AcDbFaceRecord
 10
0.0
 20
0.0
 30
0.0
 70
   128
 71
    73
 72
    74
 73
    72
 74
    71
  0
VERTEX
  5
210
330
13A
100
AcDbEntity
  8
ｴｸｽﾃﾘｱ商品
 62
   253
370
    20
100
AcDbFaceRecord
 10
0.0
 20
0.0
 30
0.0
 70
   128
 71
    75
 72
    76
 73
    74
 74
    73
  0
VERTEX
  5
211
330
13A
100
AcDbEntity
  8
ｴｸｽﾃﾘｱ商品
 62
   253
370
    20
100
AcDbFaceRecord
 10
0.0
 20
0.0
 30
0.0
 70
   128
 71
    77
 72
    78
 73
    76
 74
    75
  0
VERTEX
  5
212
330
13A
100
AcDbEntity
  8
ｴｸｽﾃﾘｱ商品
 62
   253
370
    20
100
AcDbFaceRecord
 10
0.0
 20
0.0
 30
0.0
 70
   128
 71
    79
 72
    80
 73
    78
 74
    77
  0
VERTEX
  5
213
330
13A
100
AcDbEntity
  8
ｴｸｽﾃﾘｱ商品
 62
   253
370
    20
100
AcDbFaceRecord
 10
0.0
 20
0.0
 30
0.0
 70
   128
 71
    81
 72
    82
 73
    80
 74
    79
  0
VERTEX
  5
214
330
13A
100
AcDbEntity
  8
ｴｸｽﾃﾘｱ商品
 62
   253
370
    20
100
AcDbFaceRecord
 10
0.0
 20
0.0
 30
0.0
 70
   128
 71
    83
 72
    84
 73
    82
 74
    81
  0
VERTEX
  5
215
330
13A
100
AcDbEntity
  8
ｴｸｽﾃﾘｱ商品
 62
   253
370
    20
100
AcDbFaceRecord
 10
0.0
 20
0.0
 30
0.0
 70
   128
 71
    85
 72
    86
 73
    84
 74
    83
  0
VERTEX
  5
216
330
13A
100
AcDbEntity
  8
ｴｸｽﾃﾘｱ商品
 62
   253
370
    20
100
AcDbFaceRecord
 10
0.0
 20
0.0
 30
0.0
 70
   128
 71
    87
 72
    88
 73
    86
 74
    85
  0
VERTEX
  5
217
330
13A
100
AcDbEntity
  8
ｴｸｽﾃﾘｱ商品
 62
   253
370
    20
100
AcDbFaceRecord
 10
0.0
 20
0.0
 30
0.0
 70
   128
 71
    89
 72
    90
 73
    88
 74
    87
  0
VERTEX
  5
218
330
13A
100
AcDbEntity
  8
ｴｸｽﾃﾘｱ商品
 62
   253
370
    20
100
AcDbFaceRecord
 10
0.0
 20
0.0
 30
0.0
 70
   128
 71
    91
 72
    92
 73
    90
 74
    89
  0
VERTEX
  5
219
330
13A
100
AcDbEntity
  8
ｴｸｽﾃﾘｱ商品
 62
   253
370
    20
100
AcDbFaceRecord
 10
0.0
 20
0.0
 30
0.0
 70
   128
 71
    93
 72
    94
 73
    92
 74
    91
  0
VERTEX
  5
21A
330
13A
100
AcDbEntity
  8
ｴｸｽﾃﾘｱ商品
 62
   253
370
    20
100
AcDbFaceRecord
 10
0.0
 20
0.0
 30
0.0
 70
   128
 71
    95
 72
    96
 73
    94
 74
    93
  0
VERTEX
  5
21B
330
13A
100
AcDbEntity
  8
ｴｸｽﾃﾘｱ商品
 62
   253
370
    20
100
AcDbFaceRecord
 10
0.0
 20
0.0
 30
0.0
 70
   128
 71
    97
 72
    98
 73
    96
 74
    95
  0
VERTEX
  5
21C
330
13A
100
AcDbEntity
  8
ｴｸｽﾃﾘｱ商品
 62
   253
370
    20
100
AcDbFaceRecord
 10
0.0
 20
0.0
 30
0.0
 70
   128
 71
    99
 72
   100
 73
    98
 74
    97
  0
VERTEX
  5
21D
330
13A
100
AcDbEntity
  8
ｴｸｽﾃﾘｱ商品
 62
   253
370
    20
100
AcDbFaceRecord
 10
0.0
 20
0.0
 30
0.0
 70
   128
 71
   101
 72
   102
 73
   100
 74
    99
  0
VERTEX
  5
21E
330
13A
100
AcDbEntity
  8
ｴｸｽﾃﾘｱ商品
 62
   253
370
    20
100
AcDbFaceRecord
 10
0.0
 20
0.0
 30
0.0
 70
   128
 71
   103
 72
   104
 73
   102
 74
   101
  0
VERTEX
  5
21F
330
13A
100
AcDbEntity
  8
ｴｸｽﾃﾘｱ商品
 62
   253
370
    20
100
AcDbFaceRecord
 10
0.0
 20
0.0
 30
0.0
 70
   128
 71
   105
 72
   106
 73
   104
 74
   103
  0
VERTEX
  5
220
330
13A
100
AcDbEntity
  8
ｴｸｽﾃﾘｱ商品
 62
   253
370
    20
100
AcDbFaceRecord
 10
0.0
 20
0.0
 30
0.0
 70
   128
 71
   107
 72
   108
 73
   106
 74
   105
  0
VERTEX
  5
221
330
13A
100
AcDbEntity
  8
ｴｸｽﾃﾘｱ商品
 62
   253
370
    20
100
AcDbFaceRecord
 10
0.0
 20
0.0
 30
0.0
 70
   128
 71
   109
 72
   110
 73
   108
 74
   107
  0
VERTEX
  5
222
330
13A
100
AcDbEntity
  8
ｴｸｽﾃﾘｱ商品
 62
   253
370
    20
100
AcDbFaceRecord
 10
0.0
 20
0.0
 30
0.0
 70
   128
 71
   111
 72
   112
 73
   110
 74
   109
  0
VERTEX
  5
223
330
13A
100
AcDbEntity
  8
ｴｸｽﾃﾘｱ商品
 62
   253
370
    20
100
AcDbFaceRecord
 10
0.0
 20
0.0
 30
0.0
 70
   128
 71
   113
 72
   114
 73
   112
 74
   111
  0
VERTEX
  5
224
330
13A
100
AcDbEntity
  8
ｴｸｽﾃﾘｱ商品
 62
   253
370
    20
100
AcDbFaceRecord
 10
0.0
 20
0.0
 30
0.0
 70
   128
 71
   115
 72
   116
 73
   114
 74
   113
  0
VERTEX
  5
225
330
13A
100
AcDbEntity
  8
ｴｸｽﾃﾘｱ商品
 62
   253
370
    20
100
AcDbFaceRecord
 10
0.0
 20
0.0
 30
0.0
 70
   128
 71
   117
 72
   118
 73
   116
 74
   115
  0
VERTEX
  5
226
330
13A
100
AcDbEntity
  8
ｴｸｽﾃﾘｱ商品
 62
   253
370
    20
100
AcDbFaceRecord
 10
0.0
 20
0.0
 30
0.0
 70
   128
 71
   119
 72
   120
 73
   118
 74
   117
  0
VERTEX
  5
227
330
13A
100
AcDbEntity
  8
ｴｸｽﾃﾘｱ商品
 62
   253
370
    20
100
AcDbFaceRecord
 10
0.0
 20
0.0
 30
0.0
 70
   128
 71
   121
 72
   122
 73
   120
 74
   119
  0
VERTEX
  5
228
330
13A
100
AcDbEntity
  8
ｴｸｽﾃﾘｱ商品
 62
   253
370
    20
100
AcDbFaceRecord
 10
0.0
 20
0.0
 30
0.0
 70
   128
 71
   123
 72
   124
 73
   122
 74
   121
  0
VERTEX
  5
229
330
13A
100
AcDbEntity
  8
ｴｸｽﾃﾘｱ商品
 62
   253
370
    20
100
AcDbFaceRecord
 10
0.0
 20
0.0
 30
0.0
 70
   128
 71
   125
 72
   126
 73
   124
 74
   123
  0
VERTEX
  5
22A
330
13A
100
AcDbEntity
  8
ｴｸｽﾃﾘｱ商品
 62
   253
370
    20
100
AcDbFaceRecord
 10
0.0
 20
0.0
 30
0.0
 70
   128
 71
   127
 72
   128
 73
   126
 74
   125
  0
VERTEX
  5
22B
330
13A
100
AcDbEntity
  8
ｴｸｽﾃﾘｱ商品
 62
   253
370
    20
100
AcDbFaceRecord
 10
0.0
 20
0.0
 30
0.0
 70
   128
 71
   129
 72
   130
 73
   128
 74
   127
  0
VERTEX
  5
22C
330
13A
100
AcDbEntity
  8
ｴｸｽﾃﾘｱ商品
 62
   253
370
    20
100
AcDbFaceRecord
 10
0.0
 20
0.0
 30
0.0
 70
   128
 71
   131
 72
   132
 73
   130
 74
   129
  0
VERTEX
  5
22D
330
13A
100
AcDbEntity
  8
ｴｸｽﾃﾘｱ商品
 62
   253
370
    20
100
AcDbFaceRecord
 10
0.0
 20
0.0
 30
0.0
 70
   128
 71
   133
 72
   134
 73
   132
 74
   131
  0
VERTEX
  5
22E
330
13A
100
AcDbEntity
  8
ｴｸｽﾃﾘｱ商品
 62
   253
370
    20
100
AcDbFaceRecord
 10
0.0
 20
0.0
 30
0.0
 70
   128
 71
   135
 72
   136
 73
   134
 74
   133
  0
VERTEX
  5
22F
330
13A
100
AcDbEntity
  8
ｴｸｽﾃﾘｱ商品
 62
   253
370
    20
100
AcDbFaceRecord
 10
0.0
 20
0.0
 30
0.0
 70
   128
 71
   137
 72
   138
 73
   136
 74
   135
  0
VERTEX
  5
230
330
13A
100
AcDbEntity
  8
ｴｸｽﾃﾘｱ商品
 62
   253
370
    20
100
AcDbFaceRecord
 10
0.0
 20
0.0
 30
0.0
 70
   128
 71
   139
 72
   140
 73
   138
 74
   137
  0
VERTEX
  5
231
330
13A
100
AcDbEntity
  8
ｴｸｽﾃﾘｱ商品
 62
   253
370
    20
100
AcDbFaceRecord
 10
0.0
 20
0.0
 30
0.0
 70
   128
 71
   141
 72
   142
 73
   140
 74
   139
  0
VERTEX
  5
232
330
13A
100
AcDbEntity
  8
ｴｸｽﾃﾘｱ商品
 62
   253
370
    20
100
AcDbFaceRecord
 10
0.0
 20
0.0
 30
0.0
 70
   128
 71
   143
 72
   144
 73
   142
 74
   141
  0
VERTEX
  5
233
330
13A
100
AcDbEntity
  8
ｴｸｽﾃﾘｱ商品
 62
   253
370
    20
100
AcDbFaceRecord
 10
0.0
 20
0.0
 30
0.0
 70
   128
 71
   145
 72
   146
 73
   144
 74
   143
  0
VERTEX
  5
234
330
13A
100
AcDbEntity
  8
ｴｸｽﾃﾘｱ商品
 62
   253
370
    20
100
AcDbFaceRecord
 10
0.0
 20
0.0
 30
0.0
 70
   128
 71
   147
 72
   148
 73
   146
 74
   145
  0
VERTEX
  5
235
330
13A
100
AcDbEntity
  8
ｴｸｽﾃﾘｱ商品
 62
   253
370
    20
100
AcDbFaceRecord
 10
0.0
 20
0.0
 30
0.0
 70
   128
 71
   149
 72
   150
 73
   148
 74
   147
  0
VERTEX
  5
236
330
13A
100
AcDbEntity
  8
ｴｸｽﾃﾘｱ商品
 62
   253
370
    20
100
AcDbFaceRecord
 10
0.0
 20
0.0
 30
0.0
 70
   128
 71
   151
 72
   152
 73
   150
 74
   149
  0
VERTEX
  5
237
330
13A
100
AcDbEntity
  8
ｴｸｽﾃﾘｱ商品
 62
   253
370
    20
100
AcDbFaceRecord
 10
0.0
 20
0.0
 30
0.0
 70
   128
 71
   153
 72
   154
 73
   152
 74
   151
  0
VERTEX
  5
238
330
13A
100
AcDbEntity
  8
ｴｸｽﾃﾘｱ商品
 62
   253
370
    20
100
AcDbFaceRecord
 10
0.0
 20
0.0
 30
0.0
 70
   128
 71
   155
 72
   156
 73
   154
 74
   153
  0
VERTEX
  5
239
330
13A
100
AcDbEntity
  8
ｴｸｽﾃﾘｱ商品
 62
   253
370
    20
100
AcDbFaceRecord
 10
0.0
 20
0.0
 30
0.0
 70
   128
 71
   157
 72
   158
 73
   156
 74
   155
  0
VERTEX
  5
23A
330
13A
100
AcDbEntity
  8
ｴｸｽﾃﾘｱ商品
 62
   253
370
    20
100
AcDbFaceRecord
 10
0.0
 20
0.0
 30
0.0
 70
   128
 71
   159
 72
   160
 73
   158
 74
   157
  0
VERTEX
  5
23B
330
13A
100
AcDbEntity
  8
ｴｸｽﾃﾘｱ商品
 62
   253
370
    20
100
AcDbFaceRecord
 10
0.0
 20
0.0
 30
0.0
 70
   128
 71
   161
 72
   162
 73
   160
 74
   159
  0
VERTEX
  5
23C
330
13A
100
AcDbEntity
  8
ｴｸｽﾃﾘｱ商品
 62
   253
370
    20
100
AcDbFaceRecord
 10
0.0
 20
0.0
 30
0.0
 70
   128
 71
   163
 72
   164
 73
   162
 74
   161
  0
VERTEX
  5
23D
330
13A
100
AcDbEntity
  8
ｴｸｽﾃﾘｱ商品
 62
   253
370
    20
100
AcDbFaceRecord
 10
0.0
 20
0.0
 30
0.0
 70
   128
 71
   165
 72
   166
 73
   164
 74
   163
  0
VERTEX
  5
23E
330
13A
100
AcDbEntity
  8
ｴｸｽﾃﾘｱ商品
 62
   253
370
    20
100
AcDbFaceRecord
 10
0.0
 20
0.0
 30
0.0
 70
   128
 71
   167
 72
   168
 73
   166
 74
   165
  0
VERTEX
  5
23F
330
13A
100
AcDbEntity
  8
ｴｸｽﾃﾘｱ商品
 62
   253
370
    20
100
AcDbFaceRecord
 10
0.0
 20
0.0
 30
0.0
 70
   128
 71
   169
 72
   170
 73
   168
 74
   167
  0
VERTEX
  5
240
330
13A
100
AcDbEntity
  8
ｴｸｽﾃﾘｱ商品
 62
   253
370
    20
100
AcDbFaceRecord
 10
0.0
 20
0.0
 30
0.0
 70
   128
 71
   171
 72
   172
 73
   170
 74
   169
  0
VERTEX
  5
241
330
13A
100
AcDbEntity
  8
ｴｸｽﾃﾘｱ商品
 62
   253
370
    20
100
AcDbFaceRecord
 10
0.0
 20
0.0
 30
0.0
 70
   128
 71
   173
 72
   174
 73
   172
 74
   171
  0
VERTEX
  5
242
330
13A
100
AcDbEntity
  8
ｴｸｽﾃﾘｱ商品
 62
   253
370
    20
100
AcDbFaceRecord
 10
0.0
 20
0.0
 30
0.0
 70
   128
 71
   175
 72
   176
 73
   174
 74
   173
  0
VERTEX
  5
243
330
13A
100
AcDbEntity
  8
ｴｸｽﾃﾘｱ商品
 62
   253
370
    20
100
AcDbFaceRecord
 10
0.0
 20
0.0
 30
0.0
 70
   128
 71
     4
 72
     3
 73
   176
 74
   175
  0
VERTEX
  5
244
330
13A
100
AcDbEntity
  8
ｴｸｽﾃﾘｱ商品
 62
   253
370
    20
100
AcDbFaceRecord
 10
0.0
 20
0.0
 30
0.0
 70
   128
 71
    95
 72
    93
 73
    91
  0
VERTEX
  5
245
330
13A
100
AcDbEntity
  8
ｴｸｽﾃﾘｱ商品
 62
   253
370
    20
100
AcDbFaceRecord
 10
0.0
 20
0.0
 30
0.0
 70
   128
 71
    95
 72
    91
 73
    89
  0
VERTEX
  5
246
330
13A
100
AcDbEntity
  8
ｴｸｽﾃﾘｱ商品
 62
   253
370
    20
100
AcDbFaceRecord
 10
0.0
 20
0.0
 30
0.0
 70
   128
 71
    97
 72
    95
 73
    89
  0
VERTEX
  5
247
330
13A
100
AcDbEntity
  8
ｴｸｽﾃﾘｱ商品
 62
   253
370
    20
100
AcDbFaceRecord
 10
0.0
 20
0.0
 30
0.0
 70
   128
 71
    99
 72
    97
 73
    89
  0
VERTEX
  5
248
330
13A
100
AcDbEntity
  8
ｴｸｽﾃﾘｱ商品
 62
   253
370
    20
100
AcDbFaceRecord
 10
0.0
 20
0.0
 30
0.0
 70
   128
 71
   101
 72
    99
 73
    89
  0
VERTEX
  5
249
330
13A
100
AcDbEntity
  8
ｴｸｽﾃﾘｱ商品
 62
   253
370
    20
100
AcDbFaceRecord
 10
0.0
 20
0.0
 30
0.0
 70
   128
 71
   103
 72
   101
 73
    89
  0
VERTEX
  5
24A
330
13A
100
AcDbEntity
  8
ｴｸｽﾃﾘｱ商品
 62
   253
370
    20
100
AcDbFaceRecord
 10
0.0
 20
0.0
 30
0.0
 70
   128
 71
   105
 72
   103
 73
    89
  0
VERTEX
  5
24B
330
13A
100
AcDbEntity
  8
ｴｸｽﾃﾘｱ商品
 62
   253
370
    20
100
AcDbFaceRecord
 10
0.0
 20
0.0
 30
0.0
 70
   128
 71
   107
 72
   105
 73
    89
  0
VERTEX
  5
24C
330
13A
100
AcDbEntity
  8
ｴｸｽﾃﾘｱ商品
 62
   253
370
    20
100
AcDbFaceRecord
 10
0.0
 20
0.0
 30
0.0
 70
   128
 71
   109
 72
   107
 73
    89
  0
VERTEX
  5
24D
330
13A
100
AcDbEntity
  8
ｴｸｽﾃﾘｱ商品
 62
   253
370
    20
100
AcDbFaceRecord
 10
0.0
 20
0.0
 30
0.0
 70
   128
 71
   111
 72
   109
 73
    89
  0
VERTEX
  5
24E
330
13A
100
AcDbEntity
  8
ｴｸｽﾃﾘｱ商品
 62
   253
370
    20
100
AcDbFaceRecord
 10
0.0
 20
0.0
 30
0.0
 70
   128
 71
   111
 72
    89
 73
    87
  0
VERTEX
  5
24F
330
13A
100
AcDbEntity
  8
ｴｸｽﾃﾘｱ商品
 62
   253
370
    20
100
AcDbFaceRecord
 10
0.0
 20
0.0
 30
0.0
 70
   128
 71
   111
 72
    87
 73
    85
  0
VERTEX
  5
250
330
13A
100
AcDbEntity
  8
ｴｸｽﾃﾘｱ商品
 62
   253
370
    20
100
AcDbFaceRecord
 10
0.0
 20
0.0
 30
0.0
 70
   128
 71
   111
 72
    85
 73
    83
  0
VERTEX
  5
251
330
13A
100
AcDbEntity
  8
ｴｸｽﾃﾘｱ商品
 62
   253
370
    20
100
AcDbFaceRecord
 10
0.0
 20
0.0
 30
0.0
 70
   128
 71
   111
 72
    83
 73
    81
  0
VERTEX
  5
252
330
13A
100
AcDbEntity
  8
ｴｸｽﾃﾘｱ商品
 62
   253
370
    20
100
AcDbFaceRecord
 10
0.0
 20
0.0
 30
0.0
 70
   128
 71
   111
 72
    81
 73
    79
  0
VERTEX
  5
253
330
13A
100
AcDbEntity
  8
ｴｸｽﾃﾘｱ商品
 62
   253
370
    20
100
AcDbFaceRecord
 10
0.0
 20
0.0
 30
0.0
 70
   128
 71
   111
 72
    79
 73
    77
  0
VERTEX
  5
254
330
13A
100
AcDbEntity
  8
ｴｸｽﾃﾘｱ商品
 62
   253
370
    20
100
AcDbFaceRecord
 10
0.0
 20
0.0
 30
0.0
 70
   128
 71
   111
 72
    77
 73
    75
  0
VERTEX
  5
255
330
13A
100
AcDbEntity
  8
ｴｸｽﾃﾘｱ商品
 62
   253
370
    20
100
AcDbFaceRecord
 10
0.0
 20
0.0
 30
0.0
 70
   128
 71
   111
 72
    75
 73
    73
  0
VERTEX
  5
256
330
13A
100
AcDbEntity
  8
ｴｸｽﾃﾘｱ商品
 62
   253
370
    20
100
AcDbFaceRecord
 10
0.0
 20
0.0
 30
0.0
 70
   128
 71
   111
 72
    73
 73
    71
  0
VERTEX
  5
257
330
13A
100
AcDbEntity
  8
ｴｸｽﾃﾘｱ商品
 62
   253
370
    20
100
AcDbFaceRecord
 10
0.0
 20
0.0
 30
0.0
 70
   128
 71
   115
 72
   111
 73
    71
  0
VERTEX
  5
258
330
13A
100
AcDbEntity
  8
ｴｸｽﾃﾘｱ商品
 62
   253
370
    20
100
AcDbFaceRecord
 10
0.0
 20
0.0
 30
0.0
 70
   128
 71
   115
 72
    71
 73
    65
  0
VERTEX
  5
259
330
13A
100
AcDbEntity
  8
ｴｸｽﾃﾘｱ商品
 62
   253
370
    20
100
AcDbFaceRecord
 10
0.0
 20
0.0
 30
0.0
 70
   128
 71
   117
 72
   115
 73
    65
  0
VERTEX
  5
25A
330
13A
100
AcDbEntity
  8
ｴｸｽﾃﾘｱ商品
 62
   253
370
    20
100
AcDbFaceRecord
 10
0.0
 20
0.0
 30
0.0
 70
   128
 71
   117
 72
    65
 73
    63
  0
VERTEX
  5
25B
330
13A
100
AcDbEntity
  8
ｴｸｽﾃﾘｱ商品
 62
   253
370
    20
100
AcDbFaceRecord
 10
0.0
 20
0.0
 30
0.0
 70
   128
 71
   119
 72
   117
 73
    63
  0
VERTEX
  5
25C
330
13A
100
AcDbEntity
  8
ｴｸｽﾃﾘｱ商品
 62
   253
370
    20
100
AcDbFaceRecord
 10
0.0
 20
0.0
 30
0.0
 70
   128
 71
   119
 72
    63
 73
    61
  0
VERTEX
  5
25D
330
13A
100
AcDbEntity
  8
ｴｸｽﾃﾘｱ商品
 62
   253
370
    20
100
AcDbFaceRecord
 10
0.0
 20
0.0
 30
0.0
 70
   128
 71
   121
 72
   119
 73
    61
  0
VERTEX
  5
25E
330
13A
100
AcDbEntity
  8
ｴｸｽﾃﾘｱ商品
 62
   253
370
    20
100
AcDbFaceRecord
 10
0.0
 20
0.0
 30
0.0
 70
   128
 71
   121
 72
    61
 73
    59
  0
VERTEX
  5
25F
330
13A
100
AcDbEntity
  8
ｴｸｽﾃﾘｱ商品
 62
   253
370
    20
100
AcDbFaceRecord
 10
0.0
 20
0.0
 30
0.0
 70
   128
 71
   123
 72
   121
 73
    59
  0
VERTEX
  5
260
330
13A
100
AcDbEntity
  8
ｴｸｽﾃﾘｱ商品
 62
   253
370
    20
100
AcDbFaceRecord
 10
0.0
 20
0.0
 30
0.0
 70
   128
 71
   123
 72
    59
 73
    57
  0
VERTEX
  5
261
330
13A
100
AcDbEntity
  8
ｴｸｽﾃﾘｱ商品
 62
   253
370
    20
100
AcDbFaceRecord
 10
0.0
 20
0.0
 30
0.0
 70
   128
 71
   125
 72
   123
 73
    57
  0
VERTEX
  5
262
330
13A
100
AcDbEntity
  8
ｴｸｽﾃﾘｱ商品
 62
   253
370
    20
100
AcDbFaceRecord
 10
0.0
 20
0.0
 30
0.0
 70
   128
 71
   125
 72
    57
 73
    55
  0
VERTEX
  5
263
330
13A
100
AcDbEntity
  8
ｴｸｽﾃﾘｱ商品
 62
   253
370
    20
100
AcDbFaceRecord
 10
0.0
 20
0.0
 30
0.0
 70
   128
 71
   127
 72
   125
 73
    55
  0
VERTEX
  5
264
330
13A
100
AcDbEntity
  8
ｴｸｽﾃﾘｱ商品
 62
   253
370
    20
100
AcDbFaceRecord
 10
0.0
 20
0.0
 30
0.0
 70
   128
 71
   127
 72
    55
 73
    53
  0
VERTEX
  5
265
330
13A
100
AcDbEntity
  8
ｴｸｽﾃﾘｱ商品
 62
   253
370
    20
100
AcDbFaceRecord
 10
0.0
 20
0.0
 30
0.0
 70
   128
 71
   129
 72
   127
 73
    53
  0
VERTEX
  5
266
330
13A
100
AcDbEntity
  8
ｴｸｽﾃﾘｱ商品
 62
   253
370
    20
100
AcDbFaceRecord
 10
0.0
 20
0.0
 30
0.0
 70
   128
 71
   129
 72
    53
 73
    51
  0
VERTEX
  5
267
330
13A
100
AcDbEntity
  8
ｴｸｽﾃﾘｱ商品
 62
   253
370
    20
100
AcDbFaceRecord
 10
0.0
 20
0.0
 30
0.0
 70
   128
 71
   131
 72
   129
 73
    51
  0
VERTEX
  5
268
330
13A
100
AcDbEntity
  8
ｴｸｽﾃﾘｱ商品
 62
   253
370
    20
100
AcDbFaceRecord
 10
0.0
 20
0.0
 30
0.0
 70
   128
 71
   137
 72
   131
 73
    51
  0
VERTEX
  5
269
330
13A
100
AcDbEntity
  8
ｴｸｽﾃﾘｱ商品
 62
   253
370
    20
100
AcDbFaceRecord
 10
0.0
 20
0.0
 30
0.0
 70
   128
 71
   137
 72
    51
 73
    49
  0
VERTEX
  5
26A
330
13A
100
AcDbEntity
  8
ｴｸｽﾃﾘｱ商品
 62
   253
370
    20
100
AcDbFaceRecord
 10
0.0
 20
0.0
 30
0.0
 70
   128
 71
   139
 72
   137
 73
    43
  0
VERTEX
  5
26B
330
13A
100
AcDbEntity
  8
ｴｸｽﾃﾘｱ商品
 62
   253
370
    20
100
AcDbFaceRecord
 10
0.0
 20
0.0
 30
0.0
 70
   128
 71
   139
 72
    43
 73
    41
  0
VERTEX
  5
26C
330
13A
100
AcDbEntity
  8
ｴｸｽﾃﾘｱ商品
 62
   253
370
    20
100
AcDbFaceRecord
 10
0.0
 20
0.0
 30
0.0
 70
   128
 71
   141
 72
   139
 73
    41
  0
VERTEX
  5
26D
330
13A
100
AcDbEntity
  8
ｴｸｽﾃﾘｱ商品
 62
   253
370
    20
100
AcDbFaceRecord
 10
0.0
 20
0.0
 30
0.0
 70
   128
 71
   141
 72
    41
 73
    39
  0
VERTEX
  5
26E
330
13A
100
AcDbEntity
  8
ｴｸｽﾃﾘｱ商品
 62
   253
370
    20
100
AcDbFaceRecord
 10
0.0
 20
0.0
 30
0.0
 70
   128
 71
   143
 72
   141
 73
    39
  0
VERTEX
  5
26F
330
13A
100
AcDbEntity
  8
ｴｸｽﾃﾘｱ商品
 62
   253
370
    20
100
AcDbFaceRecord
 10
0.0
 20
0.0
 30
0.0
 70
   128
 71
   143
 72
    39
 73
    37
  0
VERTEX
  5
270
330
13A
100
AcDbEntity
  8
ｴｸｽﾃﾘｱ商品
 62
   253
370
    20
100
AcDbFaceRecord
 10
0.0
 20
0.0
 30
0.0
 70
   128
 71
   145
 72
   143
 73
    37
  0
VERTEX
  5
271
330
13A
100
AcDbEntity
  8
ｴｸｽﾃﾘｱ商品
 62
   253
370
    20
100
AcDbFaceRecord
 10
0.0
 20
0.0
 30
0.0
 70
   128
 71
   145
 72
    37
 73
    35
  0
VERTEX
  5
272
330
13A
100
AcDbEntity
  8
ｴｸｽﾃﾘｱ商品
 62
   253
370
    20
100
AcDbFaceRecord
 10
0.0
 20
0.0
 30
0.0
 70
   128
 71
   147
 72
   145
 73
    35
  0
VERTEX
  5
273
330
13A
100
AcDbEntity
  8
ｴｸｽﾃﾘｱ商品
 62
   253
370
    20
100
AcDbFaceRecord
 10
0.0
 20
0.0
 30
0.0
 70
   128
 71
   147
 72
    35
 73
    33
  0
VERTEX
  5
274
330
13A
100
AcDbEntity
  8
ｴｸｽﾃﾘｱ商品
 62
   253
370
    20
100
AcDbFaceRecord
 10
0.0
 20
0.0
 30
0.0
 70
   128
 71
   149
 72
   147
 73
    33
  0
VERTEX
  5
275
330
13A
100
AcDbEntity
  8
ｴｸｽﾃﾘｱ商品
 62
   253
370
    20
100
AcDbFaceRecord
 10
0.0
 20
0.0
 30
0.0
 70
   128
 71
   149
 72
    33
 73
    31
  0
VERTEX
  5
276
330
13A
100
AcDbEntity
  8
ｴｸｽﾃﾘｱ商品
 62
   253
370
    20
100
AcDbFaceRecord
 10
0.0
 20
0.0
 30
0.0
 70
   128
 71
   151
 72
   149
 73
    31
  0
VERTEX
  5
277
330
13A
100
AcDbEntity
  8
ｴｸｽﾃﾘｱ商品
 62
   253
370
    20
100
AcDbFaceRecord
 10
0.0
 20
0.0
 30
0.0
 70
   128
 71
   151
 72
    31
 73
    29
  0
VERTEX
  5
278
330
13A
100
AcDbEntity
  8
ｴｸｽﾃﾘｱ商品
 62
   253
370
    20
100
AcDbFaceRecord
 10
0.0
 20
0.0
 30
0.0
 70
   128
 71
   153
 72
   151
 73
    29
  0
VERTEX
  5
279
330
13A
100
AcDbEntity
  8
ｴｸｽﾃﾘｱ商品
 62
   253
370
    20
100
AcDbFaceRecord
 10
0.0
 20
0.0
 30
0.0
 70
   128
 71
   153
 72
    29
 73
    27
  0
VERTEX
  5
27A
330
13A
100
AcDbEntity
  8
ｴｸｽﾃﾘｱ商品
 62
   253
370
    20
100
AcDbFaceRecord
 10
0.0
 20
0.0
 30
0.0
 70
   128
 71
   159
 72
   153
 73
    27
  0
VERTEX
  5
27B
330
13A
100
AcDbEntity
  8
ｴｸｽﾃﾘｱ商品
 62
   253
370
    20
100
AcDbFaceRecord
 10
0.0
 20
0.0
 30
0.0
 70
   128
 71
   159
 72
    27
 73
    21
  0
VERTEX
  5
27C
330
13A
100
AcDbEntity
  8
ｴｸｽﾃﾘｱ商品
 62
   253
370
    20
100
AcDbFaceRecord
 10
0.0
 20
0.0
 30
0.0
 70
   128
 71
   161
 72
   159
 73
    21
  0
VERTEX
  5
27D
330
13A
100
AcDbEntity
  8
ｴｸｽﾃﾘｱ商品
 62
   253
370
    20
100
AcDbFaceRecord
 10
0.0
 20
0.0
 30
0.0
 70
   128
 71
   161
 72
    21
 73
    19
  0
VERTEX
  5
27E
330
13A
100
AcDbEntity
  8
ｴｸｽﾃﾘｱ商品
 62
   253
370
    20
100
AcDbFaceRecord
 10
0.0
 20
0.0
 30
0.0
 70
   128
 71
   163
 72
   161
 73
    19
  0
VERTEX
  5
27F
330
13A
100
AcDbEntity
  8
ｴｸｽﾃﾘｱ商品
 62
   253
370
    20
100
AcDbFaceRecord
 10
0.0
 20
0.0
 30
0.0
 70
   128
 71
   163
 72
    19
 73
    17
  0
VERTEX
  5
280
330
13A
100
AcDbEntity
  8
ｴｸｽﾃﾘｱ商品
 62
   253
370
    20
100
AcDbFaceRecord
 10
0.0
 20
0.0
 30
0.0
 70
   128
 71
   165
 72
   163
 73
    17
  0
VERTEX
  5
281
330
13A
100
AcDbEntity
  8
ｴｸｽﾃﾘｱ商品
 62
   253
370
    20
100
AcDbFaceRecord
 10
0.0
 20
0.0
 30
0.0
 70
   128
 71
   165
 72
    17
 73
    15
  0
VERTEX
  5
282
330
13A
100
AcDbEntity
  8
ｴｸｽﾃﾘｱ商品
 62
   253
370
    20
100
AcDbFaceRecord
 10
0.0
 20
0.0
 30
0.0
 70
   128
 71
   167
 72
   165
 73
    15
  0
VERTEX
  5
283
330
13A
100
AcDbEntity
  8
ｴｸｽﾃﾘｱ商品
 62
   253
370
    20
100
AcDbFaceRecord
 10
0.0
 20
0.0
 30
0.0
 70
   128
 71
   167
 72
    15
 73
    13
  0
VERTEX
  5
284
330
13A
100
AcDbEntity
  8
ｴｸｽﾃﾘｱ商品
 62
   253
370
    20
100
AcDbFaceRecord
 10
0.0
 20
0.0
 30
0.0
 70
   128
 71
   169
 72
   167
 73
    13
  0
VERTEX
  5
285
330
13A
100
AcDbEntity
  8
ｴｸｽﾃﾘｱ商品
 62
   253
370
    20
100
AcDbFaceRecord
 10
0.0
 20
0.0
 30
0.0
 70
   128
 71
   169
 72
    13
 73
    11
  0
VERTEX
  5
286
330
13A
100
AcDbEntity
  8
ｴｸｽﾃﾘｱ商品
 62
   253
370
    20
100
AcDbFaceRecord
 10
0.0
 20
0.0
 30
0.0
 70
   128
 71
   171
 72
   169
 73
    11
  0
VERTEX
  5
287
330
13A
100
AcDbEntity
  8
ｴｸｽﾃﾘｱ商品
 62
   253
370
    20
100
AcDbFaceRecord
 10
0.0
 20
0.0
 30
0.0
 70
   128
 71
   171
 72
    11
 73
     9
  0
VERTEX
  5
288
330
13A
100
AcDbEntity
  8
ｴｸｽﾃﾘｱ商品
 62
   253
370
    20
100
AcDbFaceRecord
 10
0.0
 20
0.0
 30
0.0
 70
   128
 71
   173
 72
   171
 73
     9
  0
VERTEX
  5
289
330
13A
100
AcDbEntity
  8
ｴｸｽﾃﾘｱ商品
 62
   253
370
    20
100
AcDbFaceRecord
 10
0.0
 20
0.0
 30
0.0
 70
   128
 71
   173
 72
     9
 73
     7
  0
VERTEX
  5
28A
330
13A
100
AcDbEntity
  8
ｴｸｽﾃﾘｱ商品
 62
   253
370
    20
100
AcDbFaceRecord
 10
0.0
 20
0.0
 30
0.0
 70
   128
 71
   175
 72
   173
 73
     7
  0
VERTEX
  5
28B
330
13A
100
AcDbEntity
  8
ｴｸｽﾃﾘｱ商品
 62
   253
370
    20
100
AcDbFaceRecord
 10
0.0
 20
0.0
 30
0.0
 70
   128
 71
   175
 72
     7
 73
     5
  0
VERTEX
  5
28C
330
13A
100
AcDbEntity
  8
ｴｸｽﾃﾘｱ商品
 62
   253
370
    20
100
AcDbFaceRecord
 10
0.0
 20
0.0
 30
0.0
 70
   128
 71
    92
 72
    94
 73
    96
  0
VERTEX
  5
28D
330
13A
100
AcDbEntity
  8
ｴｸｽﾃﾘｱ商品
 62
   253
370
    20
100
AcDbFaceRecord
 10
0.0
 20
0.0
 30
0.0
 70
   128
 71
    90
 72
    92
 73
    96
  0
VERTEX
  5
28E
330
13A
100
AcDbEntity
  8
ｴｸｽﾃﾘｱ商品
 62
   253
370
    20
100
AcDbFaceRecord
 10
0.0
 20
0.0
 30
0.0
 70
   128
 71
    90
 72
    96
 73
    98
  0
VERTEX
  5
28F
330
13A
100
AcDbEntity
  8
ｴｸｽﾃﾘｱ商品
 62
   253
370
    20
100
AcDbFaceRecord
 10
0.0
 20
0.0
 30
0.0
 70
   128
 71
    90
 72
    98
 73
   100
  0
VERTEX
  5
290
330
13A
100
AcDbEntity
  8
ｴｸｽﾃﾘｱ商品
 62
   253
370
    20
100
AcDbFaceRecord
 10
0.0
 20
0.0
 30
0.0
 70
   128
 71
    90
 72
   100
 73
   102
  0
VERTEX
  5
291
330
13A
100
AcDbEntity
  8
ｴｸｽﾃﾘｱ商品
 62
   253
370
    20
100
AcDbFaceRecord
 10
0.0
 20
0.0
 30
0.0
 70
   128
 71
    90
 72
   102
 73
   104
  0
VERTEX
  5
292
330
13A
100
AcDbEntity
  8
ｴｸｽﾃﾘｱ商品
 62
   253
370
    20
100
AcDbFaceRecord
 10
0.0
 20
0.0
 30
0.0
 70
   128
 71
    90
 72
   104
 73
   106
  0
VERTEX
  5
293
330
13A
100
AcDbEntity
  8
ｴｸｽﾃﾘｱ商品
 62
   253
370
    20
100
AcDbFaceRecord
 10
0.0
 20
0.0
 30
0.0
 70
   128
 71
    90
 72
   106
 73
   108
  0
VERTEX
  5
294
330
13A
100
AcDbEntity
  8
ｴｸｽﾃﾘｱ商品
 62
   253
370
    20
100
AcDbFaceRecord
 10
0.0
 20
0.0
 30
0.0
 70
   128
 71
    90
 72
   108
 73
   110
  0
VERTEX
  5
295
330
13A
100
AcDbEntity
  8
ｴｸｽﾃﾘｱ商品
 62
   253
370
    20
100
AcDbFaceRecord
 10
0.0
 20
0.0
 30
0.0
 70
   128
 71
    90
 72
   110
 73
   112
  0
VERTEX
  5
296
330
13A
100
AcDbEntity
  8
ｴｸｽﾃﾘｱ商品
 62
   253
370
    20
100
AcDbFaceRecord
 10
0.0
 20
0.0
 30
0.0
 70
   128
 71
    88
 72
    90
 73
   112
  0
VERTEX
  5
297
330
13A
100
AcDbEntity
  8
ｴｸｽﾃﾘｱ商品
 62
   253
370
    20
100
AcDbFaceRecord
 10
0.0
 20
0.0
 30
0.0
 70
   128
 71
    86
 72
    88
 73
   112
  0
VERTEX
  5
298
330
13A
100
AcDbEntity
  8
ｴｸｽﾃﾘｱ商品
 62
   253
370
    20
100
AcDbFaceRecord
 10
0.0
 20
0.0
 30
0.0
 70
   128
 71
    84
 72
    86
 73
   112
  0
VERTEX
  5
299
330
13A
100
AcDbEntity
  8
ｴｸｽﾃﾘｱ商品
 62
   253
370
    20
100
AcDbFaceRecord
 10
0.0
 20
0.0
 30
0.0
 70
   128
 71
    82
 72
    84
 73
   112
  0
VERTEX
  5
29A
330
13A
100
AcDbEntity
  8
ｴｸｽﾃﾘｱ商品
 62
   253
370
    20
100
AcDbFaceRecord
 10
0.0
 20
0.0
 30
0.0
 70
   128
 71
    80
 72
    82
 73
   112
  0
VERTEX
  5
29B
330
13A
100
AcDbEntity
  8
ｴｸｽﾃﾘｱ商品
 62
   253
370
    20
100
AcDbFaceRecord
 10
0.0
 20
0.0
 30
0.0
 70
   128
 71
    78
 72
    80
 73
   112
  0
VERTEX
  5
29C
330
13A
100
AcDbEntity
  8
ｴｸｽﾃﾘｱ商品
 62
   253
370
    20
100
AcDbFaceRecord
 10
0.0
 20
0.0
 30
0.0
 70
   128
 71
    76
 72
    78
 73
   112
  0
VERTEX
  5
29D
330
13A
100
AcDbEntity
  8
ｴｸｽﾃﾘｱ商品
 62
   253
370
    20
100
AcDbFaceRecord
 10
0.0
 20
0.0
 30
0.0
 70
   128
 71
    74
 72
    76
 73
   112
  0
VERTEX
  5
29E
330
13A
100
AcDbEntity
  8
ｴｸｽﾃﾘｱ商品
 62
   253
370
    20
100
AcDbFaceRecord
 10
0.0
 20
0.0
 30
0.0
 70
   128
 71
    72
 72
    74
 73
   112
  0
VERTEX
  5
29F
330
13A
100
AcDbEntity
  8
ｴｸｽﾃﾘｱ商品
 62
   253
370
    20
100
AcDbFaceRecord
 10
0.0
 20
0.0
 30
0.0
 70
   128
 71
    66
 72
    72
 73
   112
  0
VERTEX
  5
2A0
330
13A
100
AcDbEntity
  8
ｴｸｽﾃﾘｱ商品
 62
   253
370
    20
100
AcDbFaceRecord
 10
0.0
 20
0.0
 30
0.0
 70
   128
 71
    66
 72
   112
 73
   116
  0
VERTEX
  5
2A1
330
13A
100
AcDbEntity
  8
ｴｸｽﾃﾘｱ商品
 62
   253
370
    20
100
AcDbFaceRecord
 10
0.0
 20
0.0
 30
0.0
 70
   128
 71
    64
 72
    66
 73
   116
  0
VERTEX
  5
2A2
330
13A
100
AcDbEntity
  8
ｴｸｽﾃﾘｱ商品
 62
   253
370
    20
100
AcDbFaceRecord
 10
0.0
 20
0.0
 30
0.0
 70
   128
 71
    64
 72
   116
 73
   118
  0
VERTEX
  5
2A3
330
13A
100
AcDbEntity
  8
ｴｸｽﾃﾘｱ商品
 62
   253
370
    20
100
AcDbFaceRecord
 10
0.0
 20
0.0
 30
0.0
 70
   128
 71
    62
 72
    64
 73
   118
  0
VERTEX
  5
2A4
330
13A
100
AcDbEntity
  8
ｴｸｽﾃﾘｱ商品
 62
   253
370
    20
100
AcDbFaceRecord
 10
0.0
 20
0.0
 30
0.0
 70
   128
 71
    62
 72
   118
 73
   120
  0
VERTEX
  5
2A5
330
13A
100
AcDbEntity
  8
ｴｸｽﾃﾘｱ商品
 62
   253
370
    20
100
AcDbFaceRecord
 10
0.0
 20
0.0
 30
0.0
 70
   128
 71
    60
 72
    62
 73
   120
  0
VERTEX
  5
2A6
330
13A
100
AcDbEntity
  8
ｴｸｽﾃﾘｱ商品
 62
   253
370
    20
100
AcDbFaceRecord
 10
0.0
 20
0.0
 30
0.0
 70
   128
 71
    60
 72
   120
 73
   122
  0
VERTEX
  5
2A7
330
13A
100
AcDbEntity
  8
ｴｸｽﾃﾘｱ商品
 62
   253
370
    20
100
AcDbFaceRecord
 10
0.0
 20
0.0
 30
0.0
 70
   128
 71
    58
 72
    60
 73
   122
  0
VERTEX
  5
2A8
330
13A
100
AcDbEntity
  8
ｴｸｽﾃﾘｱ商品
 62
   253
370
    20
100
AcDbFaceRecord
 10
0.0
 20
0.0
 30
0.0
 70
   128
 71
    58
 72
   122
 73
   124
  0
VERTEX
  5
2A9
330
13A
100
AcDbEntity
  8
ｴｸｽﾃﾘｱ商品
 62
   253
370
    20
100
AcDbFaceRecord
 10
0.0
 20
0.0
 30
0.0
 70
   128
 71
    56
 72
    58
 73
   124
  0
VERTEX
  5
2AA
330
13A
100
AcDbEntity
  8
ｴｸｽﾃﾘｱ商品
 62
   253
370
    20
100
AcDbFaceRecord
 10
0.0
 20
0.0
 30
0.0
 70
   128
 71
    56
 72
   124
 73
   126
  0
VERTEX
  5
2AB
330
13A
100
AcDbEntity
  8
ｴｸｽﾃﾘｱ商品
 62
   253
370
    20
100
AcDbFaceRecord
 10
0.0
 20
0.0
 30
0.0
 70
   128
 71
    54
 72
    56
 73
   126
  0
VERTEX
  5
2AC
330
13A
100
AcDbEntity
  8
ｴｸｽﾃﾘｱ商品
 62
   253
370
    20
100
AcDbFaceRecord
 10
0.0
 20
0.0
 30
0.0
 70
   128
 71
    54
 72
   126
 73
   128
  0
VERTEX
  5
2AD
330
13A
100
AcDbEntity
  8
ｴｸｽﾃﾘｱ商品
 62
   253
370
    20
100
AcDbFaceRecord
 10
0.0
 20
0.0
 30
0.0
 70
   128
 71
    52
 72
    54
 73
   128
  0
VERTEX
  5
2AE
330
13A
100
AcDbEntity
  8
ｴｸｽﾃﾘｱ商品
 62
   253
370
    20
100
AcDbFaceRecord
 10
0.0
 20
0.0
 30
0.0
 70
   128
 71
    52
 72
   128
 73
   130
  0
VERTEX
  5
2AF
330
13A
100
AcDbEntity
  8
ｴｸｽﾃﾘｱ商品
 62
   253
370
    20
100
AcDbFaceRecord
 10
0.0
 20
0.0
 30
0.0
 70
   128
 71
    50
 72
    52
 73
   130
  0
VERTEX
  5
2B0
330
13A
100
AcDbEntity
  8
ｴｸｽﾃﾘｱ商品
 62
   253
370
    20
100
AcDbFaceRecord
 10
0.0
 20
0.0
 30
0.0
 70
   128
 71
    44
 72
    50
 73
   130
  0
VERTEX
  5
2B1
330
13A
100
AcDbEntity
  8
ｴｸｽﾃﾘｱ商品
 62
   253
370
    20
100
AcDbFaceRecord
 10
0.0
 20
0.0
 30
0.0
 70
   128
 71
    44
 72
   130
 73
   132
  0
VERTEX
  5
2B2
330
13A
100
AcDbEntity
  8
ｴｸｽﾃﾘｱ商品
 62
   253
370
    20
100
AcDbFaceRecord
 10
0.0
 20
0.0
 30
0.0
 70
   128
 71
    42
 72
    44
 73
   138
  0
VERTEX
  5
2B3
330
13A
100
AcDbEntity
  8
ｴｸｽﾃﾘｱ商品
 62
   253
370
    20
100
AcDbFaceRecord
 10
0.0
 20
0.0
 30
0.0
 70
   128
 71
    42
 72
   138
 73
   140
  0
VERTEX
  5
2B4
330
13A
100
AcDbEntity
  8
ｴｸｽﾃﾘｱ商品
 62
   253
370
    20
100
AcDbFaceRecord
 10
0.0
 20
0.0
 30
0.0
 70
   128
 71
    40
 72
    42
 73
   140
  0
VERTEX
  5
2B5
330
13A
100
AcDbEntity
  8
ｴｸｽﾃﾘｱ商品
 62
   253
370
    20
100
AcDbFaceRecord
 10
0.0
 20
0.0
 30
0.0
 70
   128
 71
    40
 72
   140
 73
   142
  0
VERTEX
  5
2B6
330
13A
100
AcDbEntity
  8
ｴｸｽﾃﾘｱ商品
 62
   253
370
    20
100
AcDbFaceRecord
 10
0.0
 20
0.0
 30
0.0
 70
   128
 71
    38
 72
    40
 73
   142
  0
VERTEX
  5
2B7
330
13A
100
AcDbEntity
  8
ｴｸｽﾃﾘｱ商品
 62
   253
370
    20
100
AcDbFaceRecord
 10
0.0
 20
0.0
 30
0.0
 70
   128
 71
    38
 72
   142
 73
   144
  0
VERTEX
  5
2B8
330
13A
100
AcDbEntity
  8
ｴｸｽﾃﾘｱ商品
 62
   253
370
    20
100
AcDbFaceRecord
 10
0.0
 20
0.0
 30
0.0
 70
   128
 71
    36
 72
    38
 73
   144
  0
VERTEX
  5
2B9
330
13A
100
AcDbEntity
  8
ｴｸｽﾃﾘｱ商品
 62
   253
370
    20
100
AcDbFaceRecord
 10
0.0
 20
0.0
 30
0.0
 70
   128
 71
    36
 72
   144
 73
   146
  0
VERTEX
  5
2BA
330
13A
100
AcDbEntity
  8
ｴｸｽﾃﾘｱ商品
 62
   253
370
    20
100
AcDbFaceRecord
 10
0.0
 20
0.0
 30
0.0
 70
   128
 71
    34
 72
    36
 73
   146
  0
VERTEX
  5
2BB
330
13A
100
AcDbEntity
  8
ｴｸｽﾃﾘｱ商品
 62
   253
370
    20
100
AcDbFaceRecord
 10
0.0
 20
0.0
 30
0.0
 70
   128
 71
    34
 72
   146
 73
   148
  0
VERTEX
  5
2BC
330
13A
100
AcDbEntity
  8
ｴｸｽﾃﾘｱ商品
 62
   253
370
    20
100
AcDbFaceRecord
 10
0.0
 20
0.0
 30
0.0
 70
   128
 71
    32
 72
    34
 73
   148
  0
VERTEX
  5
2BD
330
13A
100
AcDbEntity
  8
ｴｸｽﾃﾘｱ商品
 62
   253
370
    20
100
AcDbFaceRecord
 10
0.0
 20
0.0
 30
0.0
 70
   128
 71
    32
 72
   148
 73
   150
  0
VERTEX
  5
2BE
330
13A
100
AcDbEntity
  8
ｴｸｽﾃﾘｱ商品
 62
   253
370
    20
100
AcDbFaceRecord
 10
0.0
 20
0.0
 30
0.0
 70
   128
 71
    30
 72
    32
 73
   150
  0
VERTEX
  5
2BF
330
13A
100
AcDbEntity
  8
ｴｸｽﾃﾘｱ商品
 62
   253
370
    20
100
AcDbFaceRecord
 10
0.0
 20
0.0
 30
0.0
 70
   128
 71
    30
 72
   150
 73
   152
  0
VERTEX
  5
2C0
330
13A
100
AcDbEntity
  8
ｴｸｽﾃﾘｱ商品
 62
   253
370
    20
100
AcDbFaceRecord
 10
0.0
 20
0.0
 30
0.0
 70
   128
 71
    28
 72
    30
 73
   152
  0
VERTEX
  5
2C1
330
13A
100
AcDbEntity
  8
ｴｸｽﾃﾘｱ商品
 62
   253
370
    20
100
AcDbFaceRecord
 10
0.0
 20
0.0
 30
0.0
 70
   128
 71
    28
 72
   152
 73
   154
  0
VERTEX
  5
2C2
330
13A
100
AcDbEntity
  8
ｴｸｽﾃﾘｱ商品
 62
   253
370
    20
100
AcDbFaceRecord
 10
0.0
 20
0.0
 30
0.0
 70
   128
 71
    22
 72
    28
 73
   154
  0
VERTEX
  5
2C3
330
13A
100
AcDbEntity
  8
ｴｸｽﾃﾘｱ商品
 62
   253
370
    20
100
AcDbFaceRecord
 10
0.0
 20
0.0
 30
0.0
 70
   128
 71
    22
 72
   154
 73
   160
  0
VERTEX
  5
2C4
330
13A
100
AcDbEntity
  8
ｴｸｽﾃﾘｱ商品
 62
   253
370
    20
100
AcDbFaceRecord
 10
0.0
 20
0.0
 30
0.0
 70
   128
 71
    20
 72
    22
 73
   160
  0
VERTEX
  5
2C5
330
13A
100
AcDbEntity
  8
ｴｸｽﾃﾘｱ商品
 62
   253
370
    20
100
AcDbFaceRecord
 10
0.0
 20
0.0
 30
0.0
 70
   128
 71
    20
 72
   160
 73
   162
  0
VERTEX
  5
2C6
330
13A
100
AcDbEntity
  8
ｴｸｽﾃﾘｱ商品
 62
   253
370
    20
100
AcDbFaceRecord
 10
0.0
 20
0.0
 30
0.0
 70
   128
 71
    18
 72
    20
 73
   162
  0
VERTEX
  5
2C7
330
13A
100
AcDbEntity
  8
ｴｸｽﾃﾘｱ商品
 62
   253
370
    20
100
AcDbFaceRecord
 10
0.0
 20
0.0
 30
0.0
 70
   128
 71
    18
 72
   162
 73
   164
  0
VERTEX
  5
2C8
330
13A
100
AcDbEntity
  8
ｴｸｽﾃﾘｱ商品
 62
   253
370
    20
100
AcDbFaceRecord
 10
0.0
 20
0.0
 30
0.0
 70
   128
 71
    16
 72
    18
 73
   164
  0
VERTEX
  5
2C9
330
13A
100
AcDbEntity
  8
ｴｸｽﾃﾘｱ商品
 62
   253
370
    20
100
AcDbFaceRecord
 10
0.0
 20
0.0
 30
0.0
 70
   128
 71
    16
 72
   164
 73
   166
  0
VERTEX
  5
2CA
330
13A
100
AcDbEntity
  8
ｴｸｽﾃﾘｱ商品
 62
   253
370
    20
100
AcDbFaceRecord
 10
0.0
 20
0.0
 30
0.0
 70
   128
 71
    14
 72
    16
 73
   166
  0
VERTEX
  5
2CB
330
13A
100
AcDbEntity
  8
ｴｸｽﾃﾘｱ商品
 62
   253
370
    20
100
AcDbFaceRecord
 10
0.0
 20
0.0
 30
0.0
 70
   128
 71
    14
 72
   166
 73
   168
  0
VERTEX
  5
2CC
330
13A
100
AcDbEntity
  8
ｴｸｽﾃﾘｱ商品
 62
   253
370
    20
100
AcDbFaceRecord
 10
0.0
 20
0.0
 30
0.0
 70
   128
 71
    12
 72
    14
 73
   168
  0
VERTEX
  5
2CD
330
13A
100
AcDbEntity
  8
ｴｸｽﾃﾘｱ商品
 62
   253
370
    20
100
AcDbFaceRecord
 10
0.0
 20
0.0
 30
0.0
 70
   128
 71
    12
 72
   168
 73
   170
  0
VERTEX
  5
2CE
330
13A
100
AcDbEntity
  8
ｴｸｽﾃﾘｱ商品
 62
   253
370
    20
100
AcDbFaceRecord
 10
0.0
 20
0.0
 30
0.0
 70
   128
 71
    10
 72
    12
 73
   170
  0
VERTEX
  5
2CF
330
13A
100
AcDbEntity
  8
ｴｸｽﾃﾘｱ商品
 62
   253
370
    20
100
AcDbFaceRecord
 10
0.0
 20
0.0
 30
0.0
 70
   128
 71
    10
 72
   170
 73
   172
  0
VERTEX
  5
2D0
330
13A
100
AcDbEntity
  8
ｴｸｽﾃﾘｱ商品
 62
   253
370
    20
100
AcDbFaceRecord
 10
0.0
 20
0.0
 30
0.0
 70
   128
 71
     8
 72
    10
 73
   172
  0
VERTEX
  5
2D1
330
13A
100
AcDbEntity
  8
ｴｸｽﾃﾘｱ商品
 62
   253
370
    20
100
AcDbFaceRecord
 10
0.0
 20
0.0
 30
0.0
 70
   128
 71
     8
 72
   172
 73
   174
  0
VERTEX
  5
2D2
330
13A
100
AcDbEntity
  8
ｴｸｽﾃﾘｱ商品
 62
   253
370
    20
100
AcDbFaceRecord
 10
0.0
 20
0.0
 30
0.0
 70
   128
 71
     6
 72
     8
 73
   174
  0
VERTEX
  5
2D3
330
13A
100
AcDbEntity
  8
ｴｸｽﾃﾘｱ商品
 62
   253
370
    20
100
AcDbFaceRecord
 10
0.0
 20
0.0
 30
0.0
 70
   128
 71
     6
 72
   174
 73
   176
  0
SEQEND
  5
13B
330
13A
100
AcDbEntity
  8
ｴｸｽﾃﾘｱ商品
370
    20
  0
POLYLINE
  5
2D4
330
3C
100
AcDbEntity
  8
ｴｸｽﾃﾘｱ商品
 62
   253
370
    20
100
AcDbPolyFaceMesh
 66
     1
 10
0.0
 20
0.0
 30
0.0
 70
    64
 71
    16
 72
    18
  0
VERTEX
  5
2D6
330
2D4
100
AcDbEntity
  8
ｴｸｽﾃﾘｱ商品
 62
   253
370
    20
100
AcDbVertex
100
AcDbPolyFaceMeshVertex
 10
286.6180824131682
 20
1128.918479908237
 30
11.0
 70
   192
  0
VERTEX
  5
2D7
330
2D4
100
AcDbEntity
  8
ｴｸｽﾃﾘｱ商品
 62
   253
370
    20
100
AcDbVertex
100
AcDbPolyFaceMeshVertex
 10
268.1180824131682
 20
1128.918479908237
 30
11.0
 70
   192
  0
VERTEX
  5
2D8
330
2D4
100
AcDbEntity
  8
ｴｸｽﾃﾘｱ商品
 62
   253
370
    20
100
AcDbVertex
100
AcDbPolyFaceMeshVertex
 10
268.1180824131682
 20
1128.918479908237
 30
441.0
 70
   192
  0
VERTEX
  5
2D9
330
2D4
100
AcDbEntity
  8
ｴｸｽﾃﾘｱ商品
 62
   253
370
    20
100
AcDbVertex
100
AcDbPolyFaceMeshVertex
 10
286.6180824131682
 20
1128.918479908237
 30
441.0
 70
   192
  0
VERTEX
  5
2DA
330
2D4
100
AcDbEntity
  8
ｴｸｽﾃﾘｱ商品
 62
   253
370
    20
100
AcDbVertex
100
AcDbPolyFaceMeshVertex
 10
268.1180824131682
 20
1132.418479908237
 30
11.0
 70
   192
  0
VERTEX
  5
2DB
330
2D4
100
AcDbEntity
  8
ｴｸｽﾃﾘｱ商品
 62
   253
370
    20
100
AcDbVertex
100
AcDbPolyFaceMeshVertex
 10
268.1180824131682
 20
1132.418479908237
 30
441.0
 70
   192
  0
VERTEX
  5
2DC
330
2D4
100
AcDbEntity
  8
ｴｸｽﾃﾘｱ商品
 62
   253
370
    20
100
AcDbVertex
100
AcDbPolyFaceMeshVertex
 10
231.6180824131682
 20
1132.418479908237
 30
11.0
 70
   192
  0
VERTEX
  5
2DD
330
2D4
100
AcDbEntity
  8
ｴｸｽﾃﾘｱ商品
 62
   253
370
    20
100
AcDbVertex
100
AcDbPolyFaceMeshVertex
 10
231.6180824131682
 20
1132.418479908237
 30
441.0
 70
   192
  0
VERTEX
  5
2DE
330
2D4
100
AcDbEntity
  8
ｴｸｽﾃﾘｱ商品
 62
   253
370
    20
100
AcDbVertex
100
AcDbPolyFaceMeshVertex
 10
231.6180824131682
 20
1095.418479908237
 30
11.0
 70
   192
  0
VERTEX
  5
2DF
330
2D4
100
AcDbEntity
  8
ｴｸｽﾃﾘｱ商品
 62
   253
370
    20
100
AcDbVertex
100
AcDbPolyFaceMeshVertex
 10
231.6180824131682
 20
1095.418479908237
 30
441.0
 70
   192
  0
VERTEX
  5
2E0
330
2D4
100
AcDbEntity
  8
ｴｸｽﾃﾘｱ商品
 62
   253
370
    20
100
AcDbVertex
100
AcDbPolyFaceMeshVertex
 10
268.1180824131682
 20
1095.418479908237
 30
11.0
 70
   192
  0
VERTEX
  5
2E1
330
2D4
100
AcDbEntity
  8
ｴｸｽﾃﾘｱ商品
 62
   253
370
    20
100
AcDbVertex
100
AcDbPolyFaceMeshVertex
 10
268.1180824131682
 20
1095.418479908237
 30
441.0
 70
   192
  0
VERTEX
  5
2E2
330
2D4
100
AcDbEntity
  8
ｴｸｽﾃﾘｱ商品
 62
   253
370
    20
100
AcDbVertex
100
AcDbPolyFaceMeshVertex
 10
268.1180824131682
 20
1098.918479908237
 30
11.0
 70
   192
  0
VERTEX
  5
2E3
330
2D4
100
AcDbEntity
  8
ｴｸｽﾃﾘｱ商品
 62
   253
370
    20
100
AcDbVertex
100
AcDbPolyFaceMeshVertex
 10
268.1180824131682
 20
1098.918479908237
 30
441.0
 70
   192
  0
VERTEX
  5
2E4
330
2D4
100
AcDbEntity
  8
ｴｸｽﾃﾘｱ商品
 62
   253
370
    20
100
AcDbVertex
100
AcDbPolyFaceMeshVertex
 10
286.6180824131682
 20
1098.918479908237
 30
11.0
 70
   192
  0
VERTEX
  5
2E5
330
2D4
100
AcDbEntity
  8
ｴｸｽﾃﾘｱ商品
 62
   253
370
    20
100
AcDbVertex
100
AcDbPolyFaceMeshVertex
 10
286.6180824131682
 20
1098.918479908237
 30
441.0
 70
   192
  0
VERTEX
  5
2E6
330
2D4
100
AcDbEntity
  8
ｴｸｽﾃﾘｱ商品
 62
   253
370
    20
100
AcDbFaceRecord
 10
0.0
 20
0.0
 30
0.0
 70
   128
 71
     1
 72
     2
 73
     3
 74
     4
  0
VERTEX
  5
2E7
330
2D4
100
AcDbEntity
  8
ｴｸｽﾃﾘｱ商品
 62
   253
370
    20
100
AcDbFaceRecord
 10
0.0
 20
0.0
 30
0.0
 70
   128
 71
     2
 72
     5
 73
     6
 74
     3
  0
VERTEX
  5
2E8
330
2D4
100
AcDbEntity
  8
ｴｸｽﾃﾘｱ商品
 62
   253
370
    20
100
AcDbFaceRecord
 10
0.0
 20
0.0
 30
0.0
 70
   128
 71
     5
 72
     7
 73
     8
 74
     6
  0
VERTEX
  5
2E9
330
2D4
100
AcDbEntity
  8
ｴｸｽﾃﾘｱ商品
 62
   253
370
    20
100
AcDbFaceRecord
 10
0.0
 20
0.0
 30
0.0
 70
   128
 71
     7
 72
     9
 73
    10
 74
     8
  0
VERTEX
  5
2EA
330
2D4
100
AcDbEntity
  8
ｴｸｽﾃﾘｱ商品
 62
   253
370
    20
100
AcDbFaceRecord
 10
0.0
 20
0.0
 30
0.0
 70
   128
 71
     9
 72
    11
 73
    12
 74
    10
  0
VERTEX
  5
2EB
330
2D4
100
AcDbEntity
  8
ｴｸｽﾃﾘｱ商品
 62
   253
370
    20
100
AcDbFaceRecord
 10
0.0
 20
0.0
 30
0.0
 70
   128
 71
    11
 72
    13
 73
    14
 74
    12
  0
VERTEX
  5
2EC
330
2D4
100
AcDbEntity
  8
ｴｸｽﾃﾘｱ商品
 62
   253
370
    20
100
AcDbFaceRecord
 10
0.0
 20
0.0
 30
0.0
 70
   128
 71
    13
 72
    15
 73
    16
 74
    14
  0
VERTEX
  5
2ED
330
2D4
100
AcDbEntity
  8
ｴｸｽﾃﾘｱ商品
 62
   253
370
    20
100
AcDbFaceRecord
 10
0.0
 20
0.0
 30
0.0
 70
   128
 71
    15
 72
     1
 73
     4
 74
    16
  0
VERTEX
  5
2EE
330
2D4
100
AcDbEntity
  8
ｴｸｽﾃﾘｱ商品
 62
   253
370
    20
100
AcDbFaceRecord
 10
0.0
 20
0.0
 30
0.0
 70
   128
 71
    13
 72
    11
 73
     9
  0
VERTEX
  5
2EF
330
2D4
100
AcDbEntity
  8
ｴｸｽﾃﾘｱ商品
 62
   253
370
    20
100
AcDbFaceRecord
 10
0.0
 20
0.0
 30
0.0
 70
   128
 71
    13
 72
     9
 73
     7
  0
VERTEX
  5
2F0
330
2D4
100
AcDbEntity
  8
ｴｸｽﾃﾘｱ商品
 62
   253
370
    20
100
AcDbFaceRecord
 10
0.0
 20
0.0
 30
0.0
 70
   128
 71
    13
 72
     7
 73
     5
  0
VERTEX
  5
2F1
330
2D4
100
AcDbEntity
  8
ｴｸｽﾃﾘｱ商品
 62
   253
370
    20
100
AcDbFaceRecord
 10
0.0
 20
0.0
 30
0.0
 70
   128
 71
    15
 72
    13
 73
     2
  0
VERTEX
  5
2F2
330
2D4
100
AcDbEntity
  8
ｴｸｽﾃﾘｱ商品
 62
   253
370
    20
100
AcDbFaceRecord
 10
0.0
 20
0.0
 30
0.0
 70
   128
 71
    15
 72
     2
 73
     1
  0
VERTEX
  5
2F3
330
2D4
100
AcDbEntity
  8
ｴｸｽﾃﾘｱ商品
 62
   253
370
    20
100
AcDbFaceRecord
 10
0.0
 20
0.0
 30
0.0
 70
   128
 71
     3
 72
     6
 73
     8
  0
VERTEX
  5
2F4
330
2D4
100
AcDbEntity
  8
ｴｸｽﾃﾘｱ商品
 62
   253
370
    20
100
AcDbFaceRecord
 10
0.0
 20
0.0
 30
0.0
 70
   128
 71
     3
 72
     8
 73
    10
  0
VERTEX
  5
2F5
330
2D4
100
AcDbEntity
  8
ｴｸｽﾃﾘｱ商品
 62
   253
370
    20
100
AcDbFaceRecord
 10
0.0
 20
0.0
 30
0.0
 70
   128
 71
     3
 72
    10
 73
    12
  0
VERTEX
  5
2F6
330
2D4
100
AcDbEntity
  8
ｴｸｽﾃﾘｱ商品
 62
   253
370
    20
100
AcDbFaceRecord
 10
0.0
 20
0.0
 30
0.0
 70
   128
 71
     4
 72
     3
 73
    14
  0
VERTEX
  5
2F7
330
2D4
100
AcDbEntity
  8
ｴｸｽﾃﾘｱ商品
 62
   253
370
    20
100
AcDbFaceRecord
 10
0.0
 20
0.0
 30
0.0
 70
   128
 71
     4
 72
    14
 73
    16
  0
SEQEND
  5
2D5
330
2D4
100
AcDbEntity
  8
ｴｸｽﾃﾘｱ商品
370
    20
  0
POLYLINE
  5
2F8
330
3C
100
AcDbEntity
  8
ｴｸｽﾃﾘｱ商品
 62
   253
370
    20
100
AcDbPolyFaceMesh
 66
     1
 10
0.0
 20
0.0
 30
0.0
 70
    64
 71
    16
 72
    18
  0
VERTEX
  5
2FA
330
2F8
100
AcDbEntity
  8
ｴｸｽﾃﾘｱ商品
 62
   253
370
    20
100
AcDbVertex
100
AcDbPolyFaceMeshVertex
 10
286.6180824131683
 20
758.918479908237
 30
11.0
 70
   192
  0
VERTEX
  5
2FB
330
2F8
100
AcDbEntity
  8
ｴｸｽﾃﾘｱ商品
 62
   253
370
    20
100
AcDbVertex
100
AcDbPolyFaceMeshVertex
 10
268.1180824131683
 20
758.918479908237
 30
11.0
 70
   192
  0
VERTEX
  5
2FC
330
2F8
100
AcDbEntity
  8
ｴｸｽﾃﾘｱ商品
 62
   253
370
    20
100
AcDbVertex
100
AcDbPolyFaceMeshVertex
 10
268.1180824131683
 20
758.918479908237
 30
441.0
 70
   192
  0
VERTEX
  5
2FD
330
2F8
100
AcDbEntity
  8
ｴｸｽﾃﾘｱ商品
 62
   253
370
    20
100
AcDbVertex
100
AcDbPolyFaceMeshVertex
 10
286.6180824131683
 20
758.918479908237
 30
441.0
 70
   192
  0
VERTEX
  5
2FE
330
2F8
100
AcDbEntity
  8
ｴｸｽﾃﾘｱ商品
 62
   253
370
    20
100
AcDbVertex
100
AcDbPolyFaceMeshVertex
 10
268.1180824131683
 20
762.4184799082369
 30
11.0
 70
   192
  0
VERTEX
  5
2FF
330
2F8
100
AcDbEntity
  8
ｴｸｽﾃﾘｱ商品
 62
   253
370
    20
100
AcDbVertex
100
AcDbPolyFaceMeshVertex
 10
268.1180824131683
 20
762.4184799082369
 30
441.0
 70
   192
  0
VERTEX
  5
300
330
2F8
100
AcDbEntity
  8
ｴｸｽﾃﾘｱ商品
 62
   253
370
    20
100
AcDbVertex
100
AcDbPolyFaceMeshVertex
 10
231.6180824131683
 20
762.4184799082369
 30
11.0
 70
   192
  0
VERTEX
  5
301
330
2F8
100
AcDbEntity
  8
ｴｸｽﾃﾘｱ商品
 62
   253
370
    20
100
AcDbVertex
100
AcDbPolyFaceMeshVertex
 10
231.6180824131683
 20
762.4184799082369
 30
441.0
 70
   192
  0
VERTEX
  5
302
330
2F8
100
AcDbEntity
  8
ｴｸｽﾃﾘｱ商品
 62
   253
370
    20
100
AcDbVertex
100
AcDbPolyFaceMeshVertex
 10
231.6180824131683
 20
725.418479908237
 30
11.0
 70
   192
  0
VERTEX
  5
303
330
2F8
100
AcDbEntity
  8
ｴｸｽﾃﾘｱ商品
 62
   253
370
    20
100
AcDbVertex
100
AcDbPolyFaceMeshVertex
 10
231.6180824131683
 20
725.418479908237
 30
441.0
 70
   192
  0
VERTEX
  5
304
330
2F8
100
AcDbEntity
  8
ｴｸｽﾃﾘｱ商品
 62
   253
370
    20
100
AcDbVertex
100
AcDbPolyFaceMeshVertex
 10
268.1180824131683
 20
725.418479908237
 30
11.0
 70
   192
  0
VERTEX
  5
305
330
2F8
100
AcDbEntity
  8
ｴｸｽﾃﾘｱ商品
 62
   253
370
    20
100
AcDbVertex
100
AcDbPolyFaceMeshVertex
 10
268.1180824131683
 20
725.418479908237
 30
441.0
 70
   192
  0
VERTEX
  5
306
330
2F8
100
AcDbEntity
  8
ｴｸｽﾃﾘｱ商品
 62
   253
370
    20
100
AcDbVertex
100
AcDbPolyFaceMeshVertex
 10
268.1180824131683
 20
728.918479908237
 30
11.0
 70
   192
  0
VERTEX
  5
307
330
2F8
100
AcDbEntity
  8
ｴｸｽﾃﾘｱ商品
 62
   253
370
    20
100
AcDbVertex
100
AcDbPolyFaceMeshVertex
 10
268.1180824131683
 20
728.918479908237
 30
441.0
 70
   192
  0
VERTEX
  5
308
330
2F8
100
AcDbEntity
  8
ｴｸｽﾃﾘｱ商品
 62
   253
370
    20
100
AcDbVertex
100
AcDbPolyFaceMeshVertex
 10
286.6180824131683
 20
728.918479908237
 30
11.0
 70
   192
  0
VERTEX
  5
309
330
2F8
100
AcDbEntity
  8
ｴｸｽﾃﾘｱ商品
 62
   253
370
    20
100
AcDbVertex
100
AcDbPolyFaceMeshVertex
 10
286.6180824131683
 20
728.918479908237
 30
441.0
 70
   192
  0
VERTEX
  5
30A
330
2F8
100
AcDbEntity
  8
ｴｸｽﾃﾘｱ商品
 62
   253
370
    20
100
AcDbFaceRecord
 10
0.0
 20
0.0
 30
0.0
 70
   128
 71
     1
 72
     2
 73
     3
 74
     4
  0
VERTEX
  5
30B
330
2F8
100
AcDbEntity
  8
ｴｸｽﾃﾘｱ商品
 62
   253
370
    20
100
AcDbFaceRecord
 10
0.0
 20
0.0
 30
0.0
 70
   128
 71
     2
 72
     5
 73
     6
 74
     3
  0
VERTEX
  5
30C
330
2F8
100
AcDbEntity
  8
ｴｸｽﾃﾘｱ商品
 62
   253
370
    20
100
AcDbFaceRecord
 10
0.0
 20
0.0
 30
0.0
 70
   128
 71
     5
 72
     7
 73
     8
 74
     6
  0
VERTEX
  5
30D
330
2F8
100
AcDbEntity
  8
ｴｸｽﾃﾘｱ商品
 62
   253
370
    20
100
AcDbFaceRecord
 10
0.0
 20
0.0
 30
0.0
 70
   128
 71
     7
 72
     9
 73
    10
 74
     8
  0
VERTEX
  5
30E
330
2F8
100
AcDbEntity
  8
ｴｸｽﾃﾘｱ商品
 62
   253
370
    20
100
AcDbFaceRecord
 10
0.0
 20
0.0
 30
0.0
 70
   128
 71
     9
 72
    11
 73
    12
 74
    10
  0
VERTEX
  5
30F
330
2F8
100
AcDbEntity
  8
ｴｸｽﾃﾘｱ商品
 62
   253
370
    20
100
AcDbFaceRecord
 10
0.0
 20
0.0
 30
0.0
 70
   128
 71
    11
 72
    13
 73
    14
 74
    12
  0
VERTEX
  5
310
330
2F8
100
AcDbEntity
  8
ｴｸｽﾃﾘｱ商品
 62
   253
370
    20
100
AcDbFaceRecord
 10
0.0
 20
0.0
 30
0.0
 70
   128
 71
    13
 72
    15
 73
    16
 74
    14
  0
VERTEX
  5
311
330
2F8
100
AcDbEntity
  8
ｴｸｽﾃﾘｱ商品
 62
   253
370
    20
100
AcDbFaceRecord
 10
0.0
 20
0.0
 30
0.0
 70
   128
 71
    15
 72
     1
 73
     4
 74
    16
  0
VERTEX
  5
312
330
2F8
100
AcDbEntity
  8
ｴｸｽﾃﾘｱ商品
 62
   253
370
    20
100
AcDbFaceRecord
 10
0.0
 20
0.0
 30
0.0
 70
   128
 71
    13
 72
    11
 73
     9
  0
VERTEX
  5
313
330
2F8
100
AcDbEntity
  8
ｴｸｽﾃﾘｱ商品
 62
   253
370
    20
100
AcDbFaceRecord
 10
0.0
 20
0.0
 30
0.0
 70
   128
 71
    13
 72
     9
 73
     7
  0
VERTEX
  5
314
330
2F8
100
AcDbEntity
  8
ｴｸｽﾃﾘｱ商品
 62
   253
370
    20
100
AcDbFaceRecord
 10
0.0
 20
0.0
 30
0.0
 70
   128
 71
    13
 72
     7
 73
     5
  0
VERTEX
  5
315
330
2F8
100
AcDbEntity
  8
ｴｸｽﾃﾘｱ商品
 62
   253
370
    20
100
AcDbFaceRecord
 10
0.0
 20
0.0
 30
0.0
 70
   128
 71
    15
 72
    13
 73
     2
  0
VERTEX
  5
316
330
2F8
100
AcDbEntity
  8
ｴｸｽﾃﾘｱ商品
 62
   253
370
    20
100
AcDbFaceRecord
 10
0.0
 20
0.0
 30
0.0
 70
   128
 71
    15
 72
     2
 73
     1
  0
VERTEX
  5
317
330
2F8
100
AcDbEntity
  8
ｴｸｽﾃﾘｱ商品
 62
   253
370
    20
100
AcDbFaceRecord
 10
0.0
 20
0.0
 30
0.0
 70
   128
 71
     3
 72
     6
 73
     8
  0
VERTEX
  5
318
330
2F8
100
AcDbEntity
  8
ｴｸｽﾃﾘｱ商品
 62
   253
370
    20
100
AcDbFaceRecord
 10
0.0
 20
0.0
 30
0.0
 70
   128
 71
     3
 72
     8
 73
    10
  0
VERTEX
  5
319
330
2F8
100
AcDbEntity
  8
ｴｸｽﾃﾘｱ商品
 62
   253
370
    20
100
AcDbFaceRecord
 10
0.0
 20
0.0
 30
0.0
 70
   128
 71
     3
 72
    10
 73
    12
  0
VERTEX
  5
31A
330
2F8
100
AcDbEntity
  8
ｴｸｽﾃﾘｱ商品
 62
   253
370
    20
100
AcDbFaceRecord
 10
0.0
 20
0.0
 30
0.0
 70
   128
 71
     4
 72
     3
 73
    14
  0
VERTEX
  5
31B
330
2F8
100
AcDbEntity
  8
ｴｸｽﾃﾘｱ商品
 62
   253
370
    20
100
AcDbFaceRecord
 10
0.0
 20
0.0
 30
0.0
 70
   128
 71
     4
 72
    14
 73
    16
  0
SEQEND
  5
2F9
330
2F8
100
AcDbEntity
  8
ｴｸｽﾃﾘｱ商品
370
    20
  0
POLYLINE
  5
31C
330
3C
100
AcDbEntity
  8
ｴｸｽﾃﾘｱ商品
 62
   253
370
    20
100
AcDbPolyFaceMesh
 66
     1
 10
0.0
 20
0.0
 30
0.0
 70
    64
 71
    28
 72
    28
  0
VERTEX
  5
31E
330
31C
100
AcDbEntity
  8
ｴｸｽﾃﾘｱ商品
 62
   253
370
    20
100
AcDbVertex
100
AcDbPolyFaceMeshVertex
 10
261.6180824131682
 20
1393.918479908237
 30
21.0
 70
   192
  0
VERTEX
  5
31F
330
31C
100
AcDbEntity
  8
ｴｸｽﾃﾘｱ商品
 62
   253
370
    20
100
AcDbVertex
100
AcDbPolyFaceMeshVertex
 10
216.0130824131681
 20
1393.918479908237
 30
20.85000000000001
 70
   192
  0
VERTEX
  5
320
330
31C
100
AcDbEntity
  8
ｴｸｽﾃﾘｱ商品
 62
   253
370
    20
100
AcDbVertex
100
AcDbPolyFaceMeshVertex
 10
216.0130824131681
 20
498.313479908237
 30
20.85000000000001
 70
   192
  0
VERTEX
  5
321
330
31C
100
AcDbEntity
  8
ｴｸｽﾃﾘｱ商品
 62
   253
370
    20
100
AcDbVertex
100
AcDbPolyFaceMeshVertex
 10
261.6180824131682
 20
543.9184799082369
 30
21.0
 70
   192
  0
VERTEX
  5
322
330
31C
100
AcDbEntity
  8
ｴｸｽﾃﾘｱ商品
 62
   253
370
    20
100
AcDbVertex
100
AcDbPolyFaceMeshVertex
 10
198.9130824131682
 20
1393.918479908237
 30
15.37300000000001
 70
   192
  0
VERTEX
  5
323
330
31C
100
AcDbEntity
  8
ｴｸｽﾃﾘｱ商品
 62
   253
370
    20
100
AcDbVertex
100
AcDbPolyFaceMeshVertex
 10
198.9130824131682
 20
481.2134799082369
 30
15.37300000000001
 70
   192
  0
VERTEX
  5
324
330
31C
100
AcDbEntity
  8
ｴｸｽﾃﾘｱ商品
 62
   253
370
    20
100
AcDbVertex
100
AcDbPolyFaceMeshVertex
 10
182.6550824131681
 20
1393.918479908237
 30
7.753000000000006
 70
   192
  0
VERTEX
  5
325
330
31C
100
AcDbEntity
  8
ｴｸｽﾃﾘｱ商品
 62
   253
370
    20
100
AcDbVertex
100
AcDbPolyFaceMeshVertex
 10
182.6550824131681
 20
464.9554799082369
 30
7.753000000000006
 70
   192
  0
VERTEX
  5
326
330
31C
100
AcDbEntity
  8
ｴｸｽﾃﾘｱ商品
 62
   253
370
    20
100
AcDbVertex
100
AcDbPolyFaceMeshVertex
 10
181.8970824131682
 20
1393.918479908237
 30
7.018000000000007
 70
   192
  0
VERTEX
  5
327
330
31C
100
AcDbEntity
  8
ｴｸｽﾃﾘｱ商品
 62
   253
370
    20
100
AcDbVertex
100
AcDbPolyFaceMeshVertex
 10
181.8970824131682
 20
464.1974799082369
 30
7.018000000000007
 70
   192
  0
VERTEX
  5
328
330
31C
100
AcDbEntity
  8
ｴｸｽﾃﾘｱ商品
 62
   253
370
    20
100
AcDbVertex
100
AcDbPolyFaceMeshVertex
 10
181.6180824131682
 20
1393.918479908237
 30
6.000000000000007
 70
   192
  0
VERTEX
  5
329
330
31C
100
AcDbEntity
  8
ｴｸｽﾃﾘｱ商品
 62
   253
370
    20
100
AcDbVertex
100
AcDbPolyFaceMeshVertex
 10
181.6180824131682
 20
463.918479908237
 30
6.000000000000007
 70
   192
  0
VERTEX
  5
32A
330
31C
100
AcDbEntity
  8
ｴｸｽﾃﾘｱ商品
 62
   253
370
    20
100
AcDbVertex
100
AcDbPolyFaceMeshVertex
 10
181.6180824131682
 20
463.918479908237
 30
6.00000000000015
 70
   192
  0
VERTEX
  5
32B
330
31C
100
AcDbEntity
  8
ｴｸｽﾃﾘｱ商品
 62
   253
370
    20
100
AcDbVertex
100
AcDbPolyFaceMeshVertex
 10
181.6180824131682
 20
1393.918479908237
 30
-39.0
 70
   192
  0
VERTEX
  5
32C
330
31C
100
AcDbEntity
  8
ｴｸｽﾃﾘｱ商品
 62
   253
370
    20
100
AcDbVertex
100
AcDbPolyFaceMeshVertex
 10
181.6180824131682
 20
463.918479908237
 30
-39.0
 70
   192
  0
VERTEX
  5
32D
330
31C
100
AcDbEntity
  8
ｴｸｽﾃﾘｱ商品
 62
   253
370
    20
100
AcDbVertex
100
AcDbPolyFaceMeshVertex
 10
341.6180824131682
 20
1393.918479908237
 30
-39.00000000000001
 70
   192
  0
VERTEX
  5
32E
330
31C
100
AcDbEntity
  8
ｴｸｽﾃﾘｱ商品
 62
   253
370
    20
100
AcDbVertex
100
AcDbPolyFaceMeshVertex
 10
341.6180824131682
 20
623.9184799082369
 30
-39.00000000000001
 70
   192
  0
VERTEX
  5
32F
330
31C
100
AcDbEntity
  8
ｴｸｽﾃﾘｱ商品
 62
   253
370
    20
100
AcDbVertex
100
AcDbPolyFaceMeshVertex
 10
181.6180824131682
 20
463.918479908237
 30
-39.0
 70
   192
  0
VERTEX
  5
330
330
31C
100
AcDbEntity
  8
ｴｸｽﾃﾘｱ商品
 62
   253
370
    20
100
AcDbVertex
100
AcDbPolyFaceMeshVertex
 10
341.6180824131682
 20
1393.918479908237
 30
5.999999999999996
 70
   192
  0
VERTEX
  5
331
330
31C
100
AcDbEntity
  8
ｴｸｽﾃﾘｱ商品
 62
   253
370
    20
100
AcDbVertex
100
AcDbPolyFaceMeshVertex
 10
341.6180824131682
 20
623.9184799082369
 30
5.999999999999996
 70
   192
  0
VERTEX
  5
332
330
31C
100
AcDbEntity
  8
ｴｸｽﾃﾘｱ商品
 62
   253
370
    20
100
AcDbVertex
100
AcDbPolyFaceMeshVertex
 10
341.3390824131682
 20
1393.918479908237
 30
7.017999999999996
 70
   192
  0
VERTEX
  5
333
330
31C
100
AcDbEntity
  8
ｴｸｽﾃﾘｱ商品
 62
   253
370
    20
100
AcDbVertex
100
AcDbPolyFaceMeshVertex
 10
341.3390824131682
 20
623.639479908237
 30
7.017999999999996
 70
   192
  0
VERTEX
  5
334
330
31C
100
AcDbEntity
  8
ｴｸｽﾃﾘｱ商品
 62
   253
370
    20
100
AcDbVertex
100
AcDbPolyFaceMeshVertex
 10
340.5810824131682
 20
1393.918479908237
 30
7.752999999999996
 70
   192
  0
VERTEX
  5
335
330
31C
100
AcDbEntity
  8
ｴｸｽﾃﾘｱ商品
 62
   253
370
    20
100
AcDbVertex
100
AcDbPolyFaceMeshVertex
 10
340.5810824131682
 20
622.881479908237
 30
7.752999999999996
 70
   192
  0
VERTEX
  5
336
330
31C
100
AcDbEntity
  8
ｴｸｽﾃﾘｱ商品
 62
   253
370
    20
100
AcDbVertex
100
AcDbPolyFaceMeshVertex
 10
324.3230824131682
 20
1393.918479908237
 30
15.373
 70
   192
  0
VERTEX
  5
337
330
31C
100
AcDbEntity
  8
ｴｸｽﾃﾘｱ商品
 62
   253
370
    20
100
AcDbVertex
100
AcDbPolyFaceMeshVertex
 10
324.3230824131682
 20
606.623479908237
 30
15.373
 70
   192
  0
VERTEX
  5
338
330
31C
100
AcDbEntity
  8
ｴｸｽﾃﾘｱ商品
 62
   253
370
    20
100
AcDbVertex
100
AcDbPolyFaceMeshVertex
 10
306.6190824131682
 20
1393.918479908237
 30
20.962
 70
   192
  0
VERTEX
  5
339
330
31C
100
AcDbEntity
  8
ｴｸｽﾃﾘｱ商品
 62
   253
370
    20
100
AcDbVertex
100
AcDbPolyFaceMeshVertex
 10
306.6190824131682
 20
588.9194799082369
 30
20.962
 70
   192
  0
VERTEX
  5
33A
330
31C
100
AcDbEntity
  8
ｴｸｽﾃﾘｱ商品
 62
   253
370
    20
100
AcDbFaceRecord
 10
0.0
 20
0.0
 30
0.0
 70
   128
 71
     1
 72
     2
 73
     3
 74
     4
  0
VERTEX
  5
33B
330
31C
100
AcDbEntity
  8
ｴｸｽﾃﾘｱ商品
 62
   253
370
    20
100
AcDbFaceRecord
 10
0.0
 20
0.0
 30
0.0
 70
   128
 71
     2
 72
     5
 73
     6
 74
     3
  0
VERTEX
  5
33C
330
31C
100
AcDbEntity
  8
ｴｸｽﾃﾘｱ商品
 62
   253
370
    20
100
AcDbFaceRecord
 10
0.0
 20
0.0
 30
0.0
 70
   128
 71
     5
 72
     7
 73
     8
 74
     6
  0
VERTEX
  5
33D
330
31C
100
AcDbEntity
  8
ｴｸｽﾃﾘｱ商品
 62
   253
370
    20
100
AcDbFaceRecord
 10
0.0
 20
0.0
 30
0.0
 70
   128
 71
     7
 72
     9
 73
    10
 74
     8
  0
VERTEX
  5
33E
330
31C
100
AcDbEntity
  8
ｴｸｽﾃﾘｱ商品
 62
   253
370
    20
100
AcDbFaceRecord
 10
0.0
 20
0.0
 30
0.0
 70
   128
 71
     9
 72
    11
 73
    12
 74
    13
  0
VERTEX
  5
33F
330
31C
100
AcDbEntity
  8
ｴｸｽﾃﾘｱ商品
 62
   253
370
    20
100
AcDbFaceRecord
 10
0.0
 20
0.0
 30
0.0
 70
   128
 71
     9
 72
    13
 73
    10
  0
VERTEX
  5
340
330
31C
100
AcDbEntity
  8
ｴｸｽﾃﾘｱ商品
 62
   253
370
    20
100
AcDbFaceRecord
 10
0.0
 20
0.0
 30
0.0
 70
   128
 71
    11
 72
    14
 73
    15
 74
    12
  0
VERTEX
  5
341
330
31C
100
AcDbEntity
  8
ｴｸｽﾃﾘｱ商品
 62
   253
370
    20
100
AcDbFaceRecord
 10
0.0
 20
0.0
 30
0.0
 70
   128
 71
    14
 72
    16
 73
    17
 74
    18
  0
VERTEX
  5
342
330
31C
100
AcDbEntity
  8
ｴｸｽﾃﾘｱ商品
 62
   253
370
    20
100
AcDbFaceRecord
 10
0.0
 20
0.0
 30
0.0
 70
   128
 71
    14
 72
    18
 73
    15
  0
VERTEX
  5
343
330
31C
100
AcDbEntity
  8
ｴｸｽﾃﾘｱ商品
 62
   253
370
    20
100
AcDbFaceRecord
 10
0.0
 20
0.0
 30
0.0
 70
   128
 71
    16
 72
    19
 73
    20
 74
    17
  0
VERTEX
  5
344
330
31C
100
AcDbEntity
  8
ｴｸｽﾃﾘｱ商品
 62
   253
370
    20
100
AcDbFaceRecord
 10
0.0
 20
0.0
 30
0.0
 70
   128
 71
    19
 72
    21
 73
    22
 74
    20
  0
VERTEX
  5
345
330
31C
100
AcDbEntity
  8
ｴｸｽﾃﾘｱ商品
 62
   253
370
    20
100
AcDbFaceRecord
 10
0.0
 20
0.0
 30
0.0
 70
   128
 71
    21
 72
    23
 73
    24
 74
    22
  0
VERTEX
  5
346
330
31C
100
AcDbEntity
  8
ｴｸｽﾃﾘｱ商品
 62
   253
370
    20
100
AcDbFaceRecord
 10
0.0
 20
0.0
 30
0.0
 70
   128
 71
    23
 72
    25
 73
    26
 74
    24
  0
VERTEX
  5
347
330
31C
100
AcDbEntity
  8
ｴｸｽﾃﾘｱ商品
 62
   253
370
    20
100
AcDbFaceRecord
 10
0.0
 20
0.0
 30
0.0
 70
   128
 71
    25
 72
    27
 73
    28
 74
    26
  0
VERTEX
  5
348
330
31C
100
AcDbEntity
  8
ｴｸｽﾃﾘｱ商品
 62
   253
370
    20
100
AcDbFaceRecord
 10
0.0
 20
0.0
 30
0.0
 70
   128
 71
    27
 72
     1
 73
     4
 74
    28
  0
VERTEX
  5
349
330
31C
100
AcDbEntity
  8
ｴｸｽﾃﾘｱ商品
 62
   253
370
    20
100
AcDbFaceRecord
 10
0.0
 20
0.0
 30
0.0
 70
   128
 71
     1
 72
    27
 73
    25
 74
    23
  0
VERTEX
  5
34A
330
31C
100
AcDbEntity
  8
ｴｸｽﾃﾘｱ商品
 62
   253
370
    20
100
AcDbFaceRecord
 10
0.0
 20
0.0
 30
0.0
 70
   128
 71
     1
 72
    23
 73
    21
 74
    19
  0
VERTEX
  5
34B
330
31C
100
AcDbEntity
  8
ｴｸｽﾃﾘｱ商品
 62
   253
370
    20
100
AcDbFaceRecord
 10
0.0
 20
0.0
 30
0.0
 70
   128
 71
     1
 72
    19
 73
    16
 74
    14
  0
VERTEX
  5
34C
330
31C
100
AcDbEntity
  8
ｴｸｽﾃﾘｱ商品
 62
   253
370
    20
100
AcDbFaceRecord
 10
0.0
 20
0.0
 30
0.0
 70
   128
 71
     1
 72
    14
 73
    11
 74
     9
  0
VERTEX
  5
34D
330
31C
100
AcDbEntity
  8
ｴｸｽﾃﾘｱ商品
 62
   253
370
    20
100
AcDbFaceRecord
 10
0.0
 20
0.0
 30
0.0
 70
   128
 71
     1
 72
     9
 73
     7
 74
     5
  0
VERTEX
  5
34E
330
31C
100
AcDbEntity
  8
ｴｸｽﾃﾘｱ商品
 62
   253
370
    20
100
AcDbFaceRecord
 10
0.0
 20
0.0
 30
0.0
 70
   128
 71
     1
 72
     5
 73
     2
  0
VERTEX
  5
34F
330
31C
100
AcDbEntity
  8
ｴｸｽﾃﾘｱ商品
 62
   253
370
    20
100
AcDbFaceRecord
 10
0.0
 20
0.0
 30
0.0
 70
   128
 71
    13
 72
    12
 73
    15
 74
    18
  0
VERTEX
  5
350
330
31C
100
AcDbEntity
  8
ｴｸｽﾃﾘｱ商品
 62
   253
370
    20
100
AcDbFaceRecord
 10
0.0
 20
0.0
 30
0.0
 70
   128
 71
    13
 72
    18
 73
    17
 74
    20
  0
VERTEX
  5
351
330
31C
100
AcDbEntity
  8
ｴｸｽﾃﾘｱ商品
 62
   253
370
    20
100
AcDbFaceRecord
 10
0.0
 20
0.0
 30
0.0
 70
   128
 71
    13
 72
    20
 73
    22
 74
    24
  0
VERTEX
  5
352
330
31C
100
AcDbEntity
  8
ｴｸｽﾃﾘｱ商品
 62
   253
370
    20
100
AcDbFaceRecord
 10
0.0
 20
0.0
 30
0.0
 70
   128
 71
    13
 72
    24
 73
    26
 74
    28
  0
VERTEX
  5
353
330
31C
100
AcDbEntity
  8
ｴｸｽﾃﾘｱ商品
 62
   253
370
    20
100
AcDbFaceRecord
 10
0.0
 20
0.0
 30
0.0
 70
   128
 71
    13
 72
    28
 73
     4
 74
     3
  0
VERTEX
  5
354
330
31C
100
AcDbEntity
  8
ｴｸｽﾃﾘｱ商品
 62
   253
370
    20
100
AcDbFaceRecord
 10
0.0
 20
0.0
 30
0.0
 70
   128
 71
    13
 72
     3
 73
     6
 74
     8
  0
VERTEX
  5
355
330
31C
100
AcDbEntity
  8
ｴｸｽﾃﾘｱ商品
 62
   253
370
    20
100
AcDbFaceRecord
 10
0.0
 20
0.0
 30
0.0
 70
   128
 71
    13
 72
     8
 73
    10
  0
SEQEND
  5
31D
330
31C
100
AcDbEntity
  8
ｴｸｽﾃﾘｱ商品
370
    20
  0
POLYLINE
  5
356
330
3C
100
AcDbEntity
  8
ｴｸｽﾃﾘｱ商品
 62
   253
370
    20
100
AcDbPolyFaceMesh
 66
     1
 10
0.0
 20
0.0
 30
0.0
 70
    64
 71
   176
 72
   232
  0
VERTEX
  5
358
330
356
100
AcDbEntity
  8
ｴｸｽﾃﾘｱ商品
 62
   253
370
    20
100
AcDbVertex
100
AcDbPolyFaceMeshVertex
 10
230.6180824131682
 20
1393.918479908237
 30
441.0
 70
   192
  0
VERTEX
  5
359
330
356
100
AcDbEntity
  8
ｴｸｽﾃﾘｱ商品
 62
   253
370
    20
100
AcDbVertex
100
AcDbPolyFaceMeshVertex
 10
292.6180824131682
 20
1393.918479908237
 30
441.0
 70
   192
  0
VERTEX
  5
35A
330
356
100
AcDbEntity
  8
ｴｸｽﾃﾘｱ商品
 62
   253
370
    20
100
AcDbVertex
100
AcDbPolyFaceMeshVertex
 10
292.6180824131682
 20
574.9184799082369
 30
441.0
 70
   192
  0
VERTEX
  5
35B
330
356
100
AcDbEntity
  8
ｴｸｽﾃﾘｱ商品
 62
   253
370
    20
100
AcDbVertex
100
AcDbPolyFaceMeshVertex
 10
230.6180824131682
 20
512.9184799082369
 30
441.0
 70
   192
  0
VERTEX
  5
35C
330
356
100
AcDbEntity
  8
ｴｸｽﾃﾘｱ商品
 62
   253
370
    20
100
AcDbVertex
100
AcDbPolyFaceMeshVertex
 10
292.7050824131682
 20
1393.918479908237
 30
441.0
 70
   192
  0
VERTEX
  5
35D
330
356
100
AcDbEntity
  8
ｴｸｽﾃﾘｱ商品
 62
   253
370
    20
100
AcDbVertex
100
AcDbPolyFaceMeshVertex
 10
292.7050824131682
 20
575.0054799082369
 30
441.0
 70
   192
  0
VERTEX
  5
35E
330
356
100
AcDbEntity
  8
ｴｸｽﾃﾘｱ商品
 62
   253
370
    20
100
AcDbVertex
100
AcDbPolyFaceMeshVertex
 10
292.8780824131682
 20
1393.918479908237
 30
441.03
 70
   192
  0
VERTEX
  5
35F
330
356
100
AcDbEntity
  8
ｴｸｽﾃﾘｱ商品
 62
   253
370
    20
100
AcDbVertex
100
AcDbPolyFaceMeshVertex
 10
292.8780824131682
 20
575.178479908237
 30
441.03
 70
   192
  0
VERTEX
  5
360
330
356
100
AcDbEntity
  8
ｴｸｽﾃﾘｱ商品
 62
   253
370
    20
100
AcDbVertex
100
AcDbPolyFaceMeshVertex
 10
293.0420824131682
 20
1393.918479908237
 30
441.09
 70
   192
  0
VERTEX
  5
361
330
356
100
AcDbEntity
  8
ｴｸｽﾃﾘｱ商品
 62
   253
370
    20
100
AcDbVertex
100
AcDbPolyFaceMeshVertex
 10
293.0420824131682
 20
575.3424799082369
 30
441.09
 70
   192
  0
VERTEX
  5
362
330
356
100
AcDbEntity
  8
ｴｸｽﾃﾘｱ商品
 62
   253
370
    20
100
AcDbVertex
100
AcDbPolyFaceMeshVertex
 10
293.1940824131682
 20
1393.918479908237
 30
441.178
 70
   192
  0
VERTEX
  5
363
330
356
100
AcDbEntity
  8
ｴｸｽﾃﾘｱ商品
 62
   253
370
    20
100
AcDbVertex
100
AcDbPolyFaceMeshVertex
 10
293.1940824131682
 20
575.4944799082369
 30
441.178
 70
   192
  0
VERTEX
  5
364
330
356
100
AcDbEntity
  8
ｴｸｽﾃﾘｱ商品
 62
   253
370
    20
100
AcDbVertex
100
AcDbPolyFaceMeshVertex
 10
293.3280824131682
 20
1393.918479908237
 30
441.29
 70
   192
  0
VERTEX
  5
365
330
356
100
AcDbEntity
  8
ｴｸｽﾃﾘｱ商品
 62
   253
370
    20
100
AcDbVertex
100
AcDbPolyFaceMeshVertex
 10
293.3280824131682
 20
575.628479908237
 30
441.29
 70
   192
  0
VERTEX
  5
366
330
356
100
AcDbEntity
  8
ｴｸｽﾃﾘｱ商品
 62
   253
370
    20
100
AcDbVertex
100
AcDbPolyFaceMeshVertex
 10
293.4400824131682
 20
1393.918479908237
 30
441.424
 70
   192
  0
VERTEX
  5
367
330
356
100
AcDbEntity
  8
ｴｸｽﾃﾘｱ商品
 62
   253
370
    20
100
AcDbVertex
100
AcDbPolyFaceMeshVertex
 10
293.4400824131682
 20
575.7404799082369
 30
441.424
 70
   192
  0
VERTEX
  5
368
330
356
100
AcDbEntity
  8
ｴｸｽﾃﾘｱ商品
 62
   253
370
    20
100
AcDbVertex
100
AcDbPolyFaceMeshVertex
 10
293.5280824131682
 20
1393.918479908237
 30
441.576
 70
   192
  0
VERTEX
  5
369
330
356
100
AcDbEntity
  8
ｴｸｽﾃﾘｱ商品
 62
   253
370
    20
100
AcDbVertex
100
AcDbPolyFaceMeshVertex
 10
293.5280824131682
 20
575.8284799082369
 30
441.576
 70
   192
  0
VERTEX
  5
36A
330
356
100
AcDbEntity
  8
ｴｸｽﾃﾘｱ商品
 62
   253
370
    20
100
AcDbVertex
100
AcDbPolyFaceMeshVertex
 10
293.5880824131682
 20
1393.918479908237
 30
441.74
 70
   192
  0
VERTEX
  5
36B
330
356
100
AcDbEntity
  8
ｴｸｽﾃﾘｱ商品
 62
   253
370
    20
100
AcDbVertex
100
AcDbPolyFaceMeshVertex
 10
293.5880824131682
 20
575.888479908237
 30
441.74
 70
   192
  0
VERTEX
  5
36C
330
356
100
AcDbEntity
  8
ｴｸｽﾃﾘｱ商品
 62
   253
370
    20
100
AcDbVertex
100
AcDbPolyFaceMeshVertex
 10
293.6180824131682
 20
1393.918479908237
 30
441.913
 70
   192
  0
VERTEX
  5
36D
330
356
100
AcDbEntity
  8
ｴｸｽﾃﾘｱ商品
 62
   253
370
    20
100
AcDbVertex
100
AcDbPolyFaceMeshVertex
 10
293.6180824131682
 20
575.9184799082369
 30
441.913
 70
   192
  0
VERTEX
  5
36E
330
356
100
AcDbEntity
  8
ｴｸｽﾃﾘｱ商品
 62
   253
370
    20
100
AcDbVertex
100
AcDbPolyFaceMeshVertex
 10
293.6180824131682
 20
1393.918479908237
 30
442.0
 70
   192
  0
VERTEX
  5
36F
330
356
100
AcDbEntity
  8
ｴｸｽﾃﾘｱ商品
 62
   253
370
    20
100
AcDbVertex
100
AcDbPolyFaceMeshVertex
 10
293.6180824131682
 20
575.9184799082369
 30
442.0
 70
   192
  0
VERTEX
  5
370
330
356
100
AcDbEntity
  8
ｴｸｽﾃﾘｱ商品
 62
   253
370
    20
100
AcDbVertex
100
AcDbPolyFaceMeshVertex
 10
293.6180824131682
 20
1393.918479908237
 30
458.0
 70
   192
  0
VERTEX
  5
371
330
356
100
AcDbEntity
  8
ｴｸｽﾃﾘｱ商品
 62
   253
370
    20
100
AcDbVertex
100
AcDbPolyFaceMeshVertex
 10
293.6180824131682
 20
575.9184799082369
 30
458.0
 70
   192
  0
VERTEX
  5
372
330
356
100
AcDbEntity
  8
ｴｸｽﾃﾘｱ商品
 62
   253
370
    20
100
AcDbVertex
100
AcDbPolyFaceMeshVertex
 10
293.6180824131682
 20
1393.918479908237
 30
458.087
 70
   192
  0
VERTEX
  5
373
330
356
100
AcDbEntity
  8
ｴｸｽﾃﾘｱ商品
 62
   253
370
    20
100
AcDbVertex
100
AcDbPolyFaceMeshVertex
 10
293.6180824131682
 20
575.9184799082369
 30
458.087
 70
   192
  0
VERTEX
  5
374
330
356
100
AcDbEntity
  8
ｴｸｽﾃﾘｱ商品
 62
   253
370
    20
100
AcDbVertex
100
AcDbPolyFaceMeshVertex
 10
293.6480824131682
 20
1393.918479908237
 30
458.26
 70
   192
  0
VERTEX
  5
375
330
356
100
AcDbEntity
  8
ｴｸｽﾃﾘｱ商品
 62
   253
370
    20
100
AcDbVertex
100
AcDbPolyFaceMeshVertex
 10
293.6480824131682
 20
575.9484799082369
 30
458.26
 70
   192
  0
VERTEX
  5
376
330
356
100
AcDbEntity
  8
ｴｸｽﾃﾘｱ商品
 62
   253
370
    20
100
AcDbVertex
100
AcDbPolyFaceMeshVertex
 10
293.7080824131682
 20
1393.918479908237
 30
458.424
 70
   192
  0
VERTEX
  5
377
330
356
100
AcDbEntity
  8
ｴｸｽﾃﾘｱ商品
 62
   253
370
    20
100
AcDbVertex
100
AcDbPolyFaceMeshVertex
 10
293.7080824131682
 20
576.008479908237
 30
458.424
 70
   192
  0
VERTEX
  5
378
330
356
100
AcDbEntity
  8
ｴｸｽﾃﾘｱ商品
 62
   253
370
    20
100
AcDbVertex
100
AcDbPolyFaceMeshVertex
 10
293.7960824131682
 20
1393.918479908237
 30
458.576
 70
   192
  0
VERTEX
  5
379
330
356
100
AcDbEntity
  8
ｴｸｽﾃﾘｱ商品
 62
   253
370
    20
100
AcDbVertex
100
AcDbPolyFaceMeshVertex
 10
293.7960824131682
 20
576.096479908237
 30
458.576
 70
   192
  0
VERTEX
  5
37A
330
356
100
AcDbEntity
  8
ｴｸｽﾃﾘｱ商品
 62
   253
370
    20
100
AcDbVertex
100
AcDbPolyFaceMeshVertex
 10
293.9080824131682
 20
1393.918479908237
 30
458.71
 70
   192
  0
VERTEX
  5
37B
330
356
100
AcDbEntity
  8
ｴｸｽﾃﾘｱ商品
 62
   253
370
    20
100
AcDbVertex
100
AcDbPolyFaceMeshVertex
 10
293.9080824131682
 20
576.208479908237
 30
458.71
 70
   192
  0
VERTEX
  5
37C
330
356
100
AcDbEntity
  8
ｴｸｽﾃﾘｱ商品
 62
   253
370
    20
100
AcDbVertex
100
AcDbPolyFaceMeshVertex
 10
294.0420824131682
 20
1393.918479908237
 30
458.822
 70
   192
  0
VERTEX
  5
37D
330
356
100
AcDbEntity
  8
ｴｸｽﾃﾘｱ商品
 62
   253
370
    20
100
AcDbVertex
100
AcDbPolyFaceMeshVertex
 10
294.0420824131682
 20
576.3424799082369
 30
458.822
 70
   192
  0
VERTEX
  5
37E
330
356
100
AcDbEntity
  8
ｴｸｽﾃﾘｱ商品
 62
   253
370
    20
100
AcDbVertex
100
AcDbPolyFaceMeshVertex
 10
294.1940824131682
 20
1393.918479908237
 30
458.91
 70
   192
  0
VERTEX
  5
37F
330
356
100
AcDbEntity
  8
ｴｸｽﾃﾘｱ商品
 62
   253
370
    20
100
AcDbVertex
100
AcDbPolyFaceMeshVertex
 10
294.1940824131682
 20
576.4944799082369
 30
458.91
 70
   192
  0
VERTEX
  5
380
330
356
100
AcDbEntity
  8
ｴｸｽﾃﾘｱ商品
 62
   253
370
    20
100
AcDbVertex
100
AcDbPolyFaceMeshVertex
 10
294.3580824131682
 20
1393.918479908237
 30
458.97
 70
   192
  0
VERTEX
  5
381
330
356
100
AcDbEntity
  8
ｴｸｽﾃﾘｱ商品
 62
   253
370
    20
100
AcDbVertex
100
AcDbPolyFaceMeshVertex
 10
294.3580824131682
 20
576.6584799082369
 30
458.97
 70
   192
  0
VERTEX
  5
382
330
356
100
AcDbEntity
  8
ｴｸｽﾃﾘｱ商品
 62
   253
370
    20
100
AcDbVertex
100
AcDbPolyFaceMeshVertex
 10
294.5310824131682
 20
1393.918479908237
 30
459.0
 70
   192
  0
VERTEX
  5
383
330
356
100
AcDbEntity
  8
ｴｸｽﾃﾘｱ商品
 62
   253
370
    20
100
AcDbVertex
100
AcDbPolyFaceMeshVertex
 10
294.5310824131682
 20
576.831479908237
 30
459.0
 70
   192
  0
VERTEX
  5
384
330
356
100
AcDbEntity
  8
ｴｸｽﾃﾘｱ商品
 62
   253
370
    20
100
AcDbVertex
100
AcDbPolyFaceMeshVertex
 10
294.6180824131682
 20
1393.918479908237
 30
459.0
 70
   192
  0
VERTEX
  5
385
330
356
100
AcDbEntity
  8
ｴｸｽﾃﾘｱ商品
 62
   253
370
    20
100
AcDbVertex
100
AcDbPolyFaceMeshVertex
 10
294.6180824131682
 20
576.9184799082369
 30
459.0
 70
   192
  0
VERTEX
  5
386
330
356
100
AcDbEntity
  8
ｴｸｽﾃﾘｱ商品
 62
   253
370
    20
100
AcDbVertex
100
AcDbPolyFaceMeshVertex
 10
299.6180824131682
 20
1393.918479908237
 30
459.0
 70
   192
  0
VERTEX
  5
387
330
356
100
AcDbEntity
  8
ｴｸｽﾃﾘｱ商品
 62
   253
370
    20
100
AcDbVertex
100
AcDbPolyFaceMeshVertex
 10
299.6180824131682
 20
581.9184799082369
 30
459.0
 70
   192
  0
VERTEX
  5
388
330
356
100
AcDbEntity
  8
ｴｸｽﾃﾘｱ商品
 62
   253
370
    20
100
AcDbVertex
100
AcDbPolyFaceMeshVertex
 10
299.7930824131682
 20
1393.918479908237
 30
459.0
 70
   192
  0
VERTEX
  5
389
330
356
100
AcDbEntity
  8
ｴｸｽﾃﾘｱ商品
 62
   253
370
    20
100
AcDbVertex
100
AcDbPolyFaceMeshVertex
 10
299.7930824131682
 20
582.0934799082369
 30
459.0
 70
   192
  0
VERTEX
  5
38A
330
356
100
AcDbEntity
  8
ｴｸｽﾃﾘｱ商品
 62
   253
370
    20
100
AcDbVertex
100
AcDbPolyFaceMeshVertex
 10
300.1380824131682
 20
1393.918479908237
 30
459.061
 70
   192
  0
VERTEX
  5
38B
330
356
100
AcDbEntity
  8
ｴｸｽﾃﾘｱ商品
 62
   253
370
    20
100
AcDbVertex
100
AcDbPolyFaceMeshVertex
 10
300.1380824131682
 20
582.4384799082369
 30
459.061
 70
   192
  0
VERTEX
  5
38C
330
356
100
AcDbEntity
  8
ｴｸｽﾃﾘｱ商品
 62
   253
370
    20
100
AcDbVertex
100
AcDbPolyFaceMeshVertex
 10
300.4660824131682
 20
1393.918479908237
 30
459.18
 70
   192
  0
VERTEX
  5
38D
330
356
100
AcDbEntity
  8
ｴｸｽﾃﾘｱ商品
 62
   253
370
    20
100
AcDbVertex
100
AcDbPolyFaceMeshVertex
 10
300.4660824131682
 20
582.766479908237
 30
459.18
 70
   192
  0
VERTEX
  5
38E
330
356
100
AcDbEntity
  8
ｴｸｽﾃﾘｱ商品
 62
   253
370
    20
100
AcDbVertex
100
AcDbPolyFaceMeshVertex
 10
300.7700824131682
 20
1393.918479908237
 30
459.355
 70
   192
  0
VERTEX
  5
38F
330
356
100
AcDbEntity
  8
ｴｸｽﾃﾘｱ商品
 62
   253
370
    20
100
AcDbVertex
100
AcDbPolyFaceMeshVertex
 10
300.7700824131682
 20
583.0704799082368
 30
459.355
 70
   192
  0
VERTEX
  5
390
330
356
100
AcDbEntity
  8
ｴｸｽﾃﾘｱ商品
 62
   253
370
    20
100
AcDbVertex
100
AcDbPolyFaceMeshVertex
 10
301.0380824131682
 20
1393.918479908237
 30
459.58
 70
   192
  0
VERTEX
  5
391
330
356
100
AcDbEntity
  8
ｴｸｽﾃﾘｱ商品
 62
   253
370
    20
100
AcDbVertex
100
AcDbPolyFaceMeshVertex
 10
301.0380824131682
 20
583.338479908237
 30
459.58
 70
   192
  0
VERTEX
  5
392
330
356
100
AcDbEntity
  8
ｴｸｽﾃﾘｱ商品
 62
   253
370
    20
100
AcDbVertex
100
AcDbPolyFaceMeshVertex
 10
301.2630824131682
 20
1393.918479908237
 30
459.848
 70
   192
  0
VERTEX
  5
393
330
356
100
AcDbEntity
  8
ｴｸｽﾃﾘｱ商品
 62
   253
370
    20
100
AcDbVertex
100
AcDbPolyFaceMeshVertex
 10
301.2630824131682
 20
583.563479908237
 30
459.848
 70
   192
  0
VERTEX
  5
394
330
356
100
AcDbEntity
  8
ｴｸｽﾃﾘｱ商品
 62
   253
370
    20
100
AcDbVertex
100
AcDbPolyFaceMeshVertex
 10
301.4380824131682
 20
1393.918479908237
 30
460.152
 70
   192
  0
VERTEX
  5
395
330
356
100
AcDbEntity
  8
ｴｸｽﾃﾘｱ商品
 62
   253
370
    20
100
AcDbVertex
100
AcDbPolyFaceMeshVertex
 10
301.4380824131682
 20
583.738479908237
 30
460.152
 70
   192
  0
VERTEX
  5
396
330
356
100
AcDbEntity
  8
ｴｸｽﾃﾘｱ商品
 62
   253
370
    20
100
AcDbVertex
100
AcDbPolyFaceMeshVertex
 10
301.5570824131682
 20
1393.918479908237
 30
460.48
 70
   192
  0
VERTEX
  5
397
330
356
100
AcDbEntity
  8
ｴｸｽﾃﾘｱ商品
 62
   253
370
    20
100
AcDbVertex
100
AcDbPolyFaceMeshVertex
 10
301.5570824131682
 20
583.857479908237
 30
460.48
 70
   192
  0
VERTEX
  5
398
330
356
100
AcDbEntity
  8
ｴｸｽﾃﾘｱ商品
 62
   253
370
    20
100
AcDbVertex
100
AcDbPolyFaceMeshVertex
 10
301.6180824131682
 20
1393.918479908237
 30
460.825
 70
   192
  0
VERTEX
  5
399
330
356
100
AcDbEntity
  8
ｴｸｽﾃﾘｱ商品
 62
   253
370
    20
100
AcDbVertex
100
AcDbPolyFaceMeshVertex
 10
301.6180824131682
 20
583.918479908237
 30
460.825
 70
   192
  0
VERTEX
  5
39A
330
356
100
AcDbEntity
  8
ｴｸｽﾃﾘｱ商品
 62
   253
370
    20
100
AcDbVertex
100
AcDbPolyFaceMeshVertex
 10
301.6180824131682
 20
1393.918479908237
 30
461.0
 70
   192
  0
VERTEX
  5
39B
330
356
100
AcDbEntity
  8
ｴｸｽﾃﾘｱ商品
 62
   253
370
    20
100
AcDbVertex
100
AcDbPolyFaceMeshVertex
 10
301.6180824131682
 20
583.918479908237
 30
461.0
 70
   192
  0
VERTEX
  5
39C
330
356
100
AcDbEntity
  8
ｴｸｽﾃﾘｱ商品
 62
   253
370
    20
100
AcDbVertex
100
AcDbPolyFaceMeshVertex
 10
301.6180824131682
 20
1393.918479908237
 30
465.0
 70
   192
  0
VERTEX
  5
39D
330
356
100
AcDbEntity
  8
ｴｸｽﾃﾘｱ商品
 62
   253
370
    20
100
AcDbVertex
100
AcDbPolyFaceMeshVertex
 10
301.6180824131682
 20
583.918479908237
 30
465.0
 70
   192
  0
VERTEX
  5
39E
330
356
100
AcDbEntity
  8
ｴｸｽﾃﾘｱ商品
 62
   253
370
    20
100
AcDbVertex
100
AcDbPolyFaceMeshVertex
 10
301.6180824131682
 20
1393.918479908237
 30
465.175
 70
   192
  0
VERTEX
  5
39F
330
356
100
AcDbEntity
  8
ｴｸｽﾃﾘｱ商品
 62
   253
370
    20
100
AcDbVertex
100
AcDbPolyFaceMeshVertex
 10
301.6180824131682
 20
583.918479908237
 30
465.175
 70
   192
  0
VERTEX
  5
3A0
330
356
100
AcDbEntity
  8
ｴｸｽﾃﾘｱ商品
 62
   253
370
    20
100
AcDbVertex
100
AcDbPolyFaceMeshVertex
 10
301.5570824131682
 20
1393.918479908237
 30
465.52
 70
   192
  0
VERTEX
  5
3A1
330
356
100
AcDbEntity
  8
ｴｸｽﾃﾘｱ商品
 62
   253
370
    20
100
AcDbVertex
100
AcDbPolyFaceMeshVertex
 10
301.5570824131682
 20
583.857479908237
 30
465.52
 70
   192
  0
VERTEX
  5
3A2
330
356
100
AcDbEntity
  8
ｴｸｽﾃﾘｱ商品
 62
   253
370
    20
100
AcDbVertex
100
AcDbPolyFaceMeshVertex
 10
301.4380824131682
 20
1393.918479908237
 30
465.848
 70
   192
  0
VERTEX
  5
3A3
330
356
100
AcDbEntity
  8
ｴｸｽﾃﾘｱ商品
 62
   253
370
    20
100
AcDbVertex
100
AcDbPolyFaceMeshVertex
 10
301.4380824131682
 20
583.738479908237
 30
465.848
 70
   192
  0
VERTEX
  5
3A4
330
356
100
AcDbEntity
  8
ｴｸｽﾃﾘｱ商品
 62
   253
370
    20
100
AcDbVertex
100
AcDbPolyFaceMeshVertex
 10
301.2630824131682
 20
1393.918479908237
 30
466.152
 70
   192
  0
VERTEX
  5
3A5
330
356
100
AcDbEntity
  8
ｴｸｽﾃﾘｱ商品
 62
   253
370
    20
100
AcDbVertex
100
AcDbPolyFaceMeshVertex
 10
301.2630824131682
 20
583.563479908237
 30
466.152
 70
   192
  0
VERTEX
  5
3A6
330
356
100
AcDbEntity
  8
ｴｸｽﾃﾘｱ商品
 62
   253
370
    20
100
AcDbVertex
100
AcDbPolyFaceMeshVertex
 10
301.0380824131682
 20
1393.918479908237
 30
466.42
 70
   192
  0
VERTEX
  5
3A7
330
356
100
AcDbEntity
  8
ｴｸｽﾃﾘｱ商品
 62
   253
370
    20
100
AcDbVertex
100
AcDbPolyFaceMeshVertex
 10
301.0380824131682
 20
583.338479908237
 30
466.42
 70
   192
  0
VERTEX
  5
3A8
330
356
100
AcDbEntity
  8
ｴｸｽﾃﾘｱ商品
 62
   253
370
    20
100
AcDbVertex
100
AcDbPolyFaceMeshVertex
 10
300.7700824131682
 20
1393.918479908237
 30
466.645
 70
   192
  0
VERTEX
  5
3A9
330
356
100
AcDbEntity
  8
ｴｸｽﾃﾘｱ商品
 62
   253
370
    20
100
AcDbVertex
100
AcDbPolyFaceMeshVertex
 10
300.7700824131682
 20
583.0704799082368
 30
466.645
 70
   192
  0
VERTEX
  5
3AA
330
356
100
AcDbEntity
  8
ｴｸｽﾃﾘｱ商品
 62
   253
370
    20
100
AcDbVertex
100
AcDbPolyFaceMeshVertex
 10
300.4660824131682
 20
1393.918479908237
 30
466.82
 70
   192
  0
VERTEX
  5
3AB
330
356
100
AcDbEntity
  8
ｴｸｽﾃﾘｱ商品
 62
   253
370
    20
100
AcDbVertex
100
AcDbPolyFaceMeshVertex
 10
300.4660824131682
 20
582.766479908237
 30
466.82
 70
   192
  0
VERTEX
  5
3AC
330
356
100
AcDbEntity
  8
ｴｸｽﾃﾘｱ商品
 62
   253
370
    20
100
AcDbVertex
100
AcDbPolyFaceMeshVertex
 10
300.1380824131682
 20
1393.918479908237
 30
466.939
 70
   192
  0
VERTEX
  5
3AD
330
356
100
AcDbEntity
  8
ｴｸｽﾃﾘｱ商品
 62
   253
370
    20
100
AcDbVertex
100
AcDbPolyFaceMeshVertex
 10
300.1380824131682
 20
582.4384799082369
 30
466.939
 70
   192
  0
VERTEX
  5
3AE
330
356
100
AcDbEntity
  8
ｴｸｽﾃﾘｱ商品
 62
   253
370
    20
100
AcDbVertex
100
AcDbPolyFaceMeshVertex
 10
299.7990824131682
 20
1393.918479908237
 30
466.992
 70
   192
  0
VERTEX
  5
3AF
330
356
100
AcDbEntity
  8
ｴｸｽﾃﾘｱ商品
 62
   253
370
    20
100
AcDbVertex
100
AcDbPolyFaceMeshVertex
 10
299.7990824131682
 20
582.099479908237
 30
466.992
 70
   192
  0
VERTEX
  5
3B0
330
356
100
AcDbEntity
  8
ｴｸｽﾃﾘｱ商品
 62
   253
370
    20
100
AcDbVertex
100
AcDbPolyFaceMeshVertex
 10
249.2930824131682
 20
1393.918479908237
 30
471.586
 70
   192
  0
VERTEX
  5
3B1
330
356
100
AcDbEntity
  8
ｴｸｽﾃﾘｱ商品
 62
   253
370
    20
100
AcDbVertex
100
AcDbPolyFaceMeshVertex
 10
249.2930824131682
 20
531.5934799082369
 30
471.586
 70
   192
  0
VERTEX
  5
3B2
330
356
100
AcDbEntity
  8
ｴｸｽﾃﾘｱ商品
 62
   253
370
    20
100
AcDbVertex
100
AcDbPolyFaceMeshVertex
 10
223.6470824131682
 20
1393.918479908237
 30
471.0000000000001
 70
   192
  0
VERTEX
  5
3B3
330
356
100
AcDbEntity
  8
ｴｸｽﾃﾘｱ商品
 62
   253
370
    20
100
AcDbVertex
100
AcDbPolyFaceMeshVertex
 10
223.6470824131682
 20
505.947479908237
 30
471.0000000000001
 70
   192
  0
VERTEX
  5
3B4
330
356
100
AcDbEntity
  8
ｴｸｽﾃﾘｱ商品
 62
   253
370
    20
100
AcDbVertex
100
AcDbPolyFaceMeshVertex
 10
223.4720824131682
 20
1393.918479908237
 30
471.002
 70
   192
  0
VERTEX
  5
3B5
330
356
100
AcDbEntity
  8
ｴｸｽﾃﾘｱ商品
 62
   253
370
    20
100
AcDbVertex
100
AcDbPolyFaceMeshVertex
 10
223.4720824131682
 20
505.7724799082369
 30
471.002
 70
   192
  0
VERTEX
  5
3B6
330
356
100
AcDbEntity
  8
ｴｸｽﾃﾘｱ商品
 62
   253
370
    20
100
AcDbVertex
100
AcDbPolyFaceMeshVertex
 10
223.1260824131682
 20
1393.918479908237
 30
470.947
 70
   192
  0
VERTEX
  5
3B7
330
356
100
AcDbEntity
  8
ｴｸｽﾃﾘｱ商品
 62
   253
370
    20
100
AcDbVertex
100
AcDbPolyFaceMeshVertex
 10
223.1260824131682
 20
505.426479908237
 30
470.947
 70
   192
  0
VERTEX
  5
3B8
330
356
100
AcDbEntity
  8
ｴｸｽﾃﾘｱ商品
 62
   253
370
    20
100
AcDbVertex
100
AcDbPolyFaceMeshVertex
 10
222.7960824131682
 20
1393.918479908237
 30
470.8320000000001
 70
   192
  0
VERTEX
  5
3B9
330
356
100
AcDbEntity
  8
ｴｸｽﾃﾘｱ商品
 62
   253
370
    20
100
AcDbVertex
100
AcDbPolyFaceMeshVertex
 10
222.7960824131682
 20
505.0964799082369
 30
470.8320000000001
 70
   192
  0
VERTEX
  5
3BA
330
356
100
AcDbEntity
  8
ｴｸｽﾃﾘｱ商品
 62
   253
370
    20
100
AcDbVertex
100
AcDbPolyFaceMeshVertex
 10
222.4900824131682
 20
1393.918479908237
 30
470.6610000000001
 70
   192
  0
VERTEX
  5
3BB
330
356
100
AcDbEntity
  8
ｴｸｽﾃﾘｱ商品
 62
   253
370
    20
100
AcDbVertex
100
AcDbPolyFaceMeshVertex
 10
222.4900824131682
 20
504.790479908237
 30
470.6610000000001
 70
   192
  0
VERTEX
  5
3BC
330
356
100
AcDbEntity
  8
ｴｸｽﾃﾘｱ商品
 62
   253
370
    20
100
AcDbVertex
100
AcDbPolyFaceMeshVertex
 10
222.2190824131682
 20
1393.918479908237
 30
470.44
 70
   192
  0
VERTEX
  5
3BD
330
356
100
AcDbEntity
  8
ｴｸｽﾃﾘｱ商品
 62
   253
370
    20
100
AcDbVertex
100
AcDbPolyFaceMeshVertex
 10
222.2190824131682
 20
504.519479908237
 30
470.44
 70
   192
  0
VERTEX
  5
3BE
330
356
100
AcDbEntity
  8
ｴｸｽﾃﾘｱ商品
 62
   253
370
    20
100
AcDbVertex
100
AcDbPolyFaceMeshVertex
 10
221.9900824131682
 20
1393.918479908237
 30
470.175
 70
   192
  0
VERTEX
  5
3BF
330
356
100
AcDbEntity
  8
ｴｸｽﾃﾘｱ商品
 62
   253
370
    20
100
AcDbVertex
100
AcDbPolyFaceMeshVertex
 10
221.9900824131682
 20
504.2904799082369
 30
470.175
 70
   192
  0
VERTEX
  5
3C0
330
356
100
AcDbEntity
  8
ｴｸｽﾃﾘｱ商品
 62
   253
370
    20
100
AcDbVertex
100
AcDbPolyFaceMeshVertex
 10
221.8110824131682
 20
1393.918479908237
 30
469.8750000000001
 70
   192
  0
VERTEX
  5
3C1
330
356
100
AcDbEntity
  8
ｴｸｽﾃﾘｱ商品
 62
   253
370
    20
100
AcDbVertex
100
AcDbPolyFaceMeshVertex
 10
221.8110824131682
 20
504.111479908237
 30
469.8750000000001
 70
   192
  0
VERTEX
  5
3C2
330
356
100
AcDbEntity
  8
ｴｸｽﾃﾘｱ商品
 62
   253
370
    20
100
AcDbVertex
100
AcDbPolyFaceMeshVertex
 10
221.6860824131682
 20
1393.918479908237
 30
469.548
 70
   192
  0
VERTEX
  5
3C3
330
356
100
AcDbEntity
  8
ｴｸｽﾃﾘｱ商品
 62
   253
370
    20
100
AcDbVertex
100
AcDbPolyFaceMeshVertex
 10
221.6860824131682
 20
503.986479908237
 30
469.548
 70
   192
  0
VERTEX
  5
3C4
330
356
100
AcDbEntity
  8
ｴｸｽﾃﾘｱ商品
 62
   253
370
    20
100
AcDbVertex
100
AcDbPolyFaceMeshVertex
 10
221.6210824131682
 20
1393.918479908237
 30
469.204
 70
   192
  0
VERTEX
  5
3C5
330
356
100
AcDbEntity
  8
ｴｸｽﾃﾘｱ商品
 62
   253
370
    20
100
AcDbVertex
100
AcDbPolyFaceMeshVertex
 10
221.6210824131682
 20
503.921479908237
 30
469.204
 70
   192
  0
VERTEX
  5
3C6
330
356
100
AcDbEntity
  8
ｴｸｽﾃﾘｱ商品
 62
   253
370
    20
100
AcDbVertex
100
AcDbPolyFaceMeshVertex
 10
221.6180824131682
 20
1393.918479908237
 30
469.0
 70
   192
  0
VERTEX
  5
3C7
330
356
100
AcDbEntity
  8
ｴｸｽﾃﾘｱ商品
 62
   253
370
    20
100
AcDbVertex
100
AcDbPolyFaceMeshVertex
 10
221.6180824131682
 20
503.9184799082369
 30
469.0
 70
   192
  0
VERTEX
  5
3C8
330
356
100
AcDbEntity
  8
ｴｸｽﾃﾘｱ商品
 62
   253
370
    20
100
AcDbVertex
100
AcDbPolyFaceMeshVertex
 10
221.6180824131682
 20
1393.918479908237
 30
461.0
 70
   192
  0
VERTEX
  5
3C9
330
356
100
AcDbEntity
  8
ｴｸｽﾃﾘｱ商品
 62
   253
370
    20
100
AcDbVertex
100
AcDbPolyFaceMeshVertex
 10
221.6180824131682
 20
503.9184799082369
 30
461.0
 70
   192
  0
VERTEX
  5
3CA
330
356
100
AcDbEntity
  8
ｴｸｽﾃﾘｱ商品
 62
   253
370
    20
100
AcDbVertex
100
AcDbPolyFaceMeshVertex
 10
221.6180824131682
 20
1393.918479908237
 30
460.825
 70
   192
  0
VERTEX
  5
3CB
330
356
100
AcDbEntity
  8
ｴｸｽﾃﾘｱ商品
 62
   253
370
    20
100
AcDbVertex
100
AcDbPolyFaceMeshVertex
 10
221.6180824131682
 20
503.9184799082369
 30
460.825
 70
   192
  0
VERTEX
  5
3CC
330
356
100
AcDbEntity
  8
ｴｸｽﾃﾘｱ商品
 62
   253
370
    20
100
AcDbVertex
100
AcDbPolyFaceMeshVertex
 10
221.6790824131682
 20
1393.918479908237
 30
460.4800000000001
 70
   192
  0
VERTEX
  5
3CD
330
356
100
AcDbEntity
  8
ｴｸｽﾃﾘｱ商品
 62
   253
370
    20
100
AcDbVertex
100
AcDbPolyFaceMeshVertex
 10
221.6790824131682
 20
503.9794799082369
 30
460.4800000000001
 70
   192
  0
VERTEX
  5
3CE
330
356
100
AcDbEntity
  8
ｴｸｽﾃﾘｱ商品
 62
   253
370
    20
100
AcDbVertex
100
AcDbPolyFaceMeshVertex
 10
221.7980824131682
 20
1393.918479908237
 30
460.152
 70
   192
  0
VERTEX
  5
3CF
330
356
100
AcDbEntity
  8
ｴｸｽﾃﾘｱ商品
 62
   253
370
    20
100
AcDbVertex
100
AcDbPolyFaceMeshVertex
 10
221.7980824131682
 20
504.098479908237
 30
460.152
 70
   192
  0
VERTEX
  5
3D0
330
356
100
AcDbEntity
  8
ｴｸｽﾃﾘｱ商品
 62
   253
370
    20
100
AcDbVertex
100
AcDbPolyFaceMeshVertex
 10
221.9730824131682
 20
1393.918479908237
 30
459.848
 70
   192
  0
VERTEX
  5
3D1
330
356
100
AcDbEntity
  8
ｴｸｽﾃﾘｱ商品
 62
   253
370
    20
100
AcDbVertex
100
AcDbPolyFaceMeshVertex
 10
221.9730824131682
 20
504.2734799082369
 30
459.848
 70
   192
  0
VERTEX
  5
3D2
330
356
100
AcDbEntity
  8
ｴｸｽﾃﾘｱ商品
 62
   253
370
    20
100
AcDbVertex
100
AcDbPolyFaceMeshVertex
 10
222.1980824131682
 20
1393.918479908237
 30
459.58
 70
   192
  0
VERTEX
  5
3D3
330
356
100
AcDbEntity
  8
ｴｸｽﾃﾘｱ商品
 62
   253
370
    20
100
AcDbVertex
100
AcDbPolyFaceMeshVertex
 10
222.1980824131682
 20
504.4984799082369
 30
459.58
 70
   192
  0
VERTEX
  5
3D4
330
356
100
AcDbEntity
  8
ｴｸｽﾃﾘｱ商品
 62
   253
370
    20
100
AcDbVertex
100
AcDbPolyFaceMeshVertex
 10
222.4660824131682
 20
1393.918479908237
 30
459.355
 70
   192
  0
VERTEX
  5
3D5
330
356
100
AcDbEntity
  8
ｴｸｽﾃﾘｱ商品
 62
   253
370
    20
100
AcDbVertex
100
AcDbPolyFaceMeshVertex
 10
222.4660824131682
 20
504.766479908237
 30
459.355
 70
   192
  0
VERTEX
  5
3D6
330
356
100
AcDbEntity
  8
ｴｸｽﾃﾘｱ商品
 62
   253
370
    20
100
AcDbVertex
100
AcDbPolyFaceMeshVertex
 10
222.7700824131682
 20
1393.918479908237
 30
459.18
 70
   192
  0
VERTEX
  5
3D7
330
356
100
AcDbEntity
  8
ｴｸｽﾃﾘｱ商品
 62
   253
370
    20
100
AcDbVertex
100
AcDbPolyFaceMeshVertex
 10
222.7700824131682
 20
505.070479908237
 30
459.18
 70
   192
  0
VERTEX
  5
3D8
330
356
100
AcDbEntity
  8
ｴｸｽﾃﾘｱ商品
 62
   253
370
    20
100
AcDbVertex
100
AcDbPolyFaceMeshVertex
 10
223.0980824131682
 20
1393.918479908237
 30
459.061
 70
   192
  0
VERTEX
  5
3D9
330
356
100
AcDbEntity
  8
ｴｸｽﾃﾘｱ商品
 62
   253
370
    20
100
AcDbVertex
100
AcDbPolyFaceMeshVertex
 10
223.0980824131682
 20
505.3984799082369
 30
459.061
 70
   192
  0
VERTEX
  5
3DA
330
356
100
AcDbEntity
  8
ｴｸｽﾃﾘｱ商品
 62
   253
370
    20
100
AcDbVertex
100
AcDbPolyFaceMeshVertex
 10
223.4430824131682
 20
1393.918479908237
 30
459.0
 70
   192
  0
VERTEX
  5
3DB
330
356
100
AcDbEntity
  8
ｴｸｽﾃﾘｱ商品
 62
   253
370
    20
100
AcDbVertex
100
AcDbPolyFaceMeshVertex
 10
223.4430824131682
 20
505.743479908237
 30
459.0
 70
   192
  0
VERTEX
  5
3DC
330
356
100
AcDbEntity
  8
ｴｸｽﾃﾘｱ商品
 62
   253
370
    20
100
AcDbVertex
100
AcDbPolyFaceMeshVertex
 10
223.6180824131682
 20
1393.918479908237
 30
459.0
 70
   192
  0
VERTEX
  5
3DD
330
356
100
AcDbEntity
  8
ｴｸｽﾃﾘｱ商品
 62
   253
370
    20
100
AcDbVertex
100
AcDbPolyFaceMeshVertex
 10
223.6180824131682
 20
505.9184799082369
 30
459.0
 70
   192
  0
VERTEX
  5
3DE
330
356
100
AcDbEntity
  8
ｴｸｽﾃﾘｱ商品
 62
   253
370
    20
100
AcDbVertex
100
AcDbPolyFaceMeshVertex
 10
228.6180824131682
 20
1393.918479908237
 30
459.0
 70
   192
  0
VERTEX
  5
3DF
330
356
100
AcDbEntity
  8
ｴｸｽﾃﾘｱ商品
 62
   253
370
    20
100
AcDbVertex
100
AcDbPolyFaceMeshVertex
 10
228.6180824131682
 20
510.918479908237
 30
459.0
 70
   192
  0
VERTEX
  5
3E0
330
356
100
AcDbEntity
  8
ｴｸｽﾃﾘｱ商品
 62
   253
370
    20
100
AcDbVertex
100
AcDbPolyFaceMeshVertex
 10
228.7050824131682
 20
1393.918479908237
 30
459.0
 70
   192
  0
VERTEX
  5
3E1
330
356
100
AcDbEntity
  8
ｴｸｽﾃﾘｱ商品
 62
   253
370
    20
100
AcDbVertex
100
AcDbPolyFaceMeshVertex
 10
228.7050824131682
 20
511.005479908237
 30
459.0
 70
   192
  0
VERTEX
  5
3E2
330
356
100
AcDbEntity
  8
ｴｸｽﾃﾘｱ商品
 62
   253
370
    20
100
AcDbVertex
100
AcDbPolyFaceMeshVertex
 10
228.8780824131682
 20
1393.918479908237
 30
458.97
 70
   192
  0
VERTEX
  5
3E3
330
356
100
AcDbEntity
  8
ｴｸｽﾃﾘｱ商品
 62
   253
370
    20
100
AcDbVertex
100
AcDbPolyFaceMeshVertex
 10
228.8780824131682
 20
511.178479908237
 30
458.97
 70
   192
  0
VERTEX
  5
3E4
330
356
100
AcDbEntity
  8
ｴｸｽﾃﾘｱ商品
 62
   253
370
    20
100
AcDbVertex
100
AcDbPolyFaceMeshVertex
 10
229.0420824131682
 20
1393.918479908237
 30
458.91
 70
   192
  0
VERTEX
  5
3E5
330
356
100
AcDbEntity
  8
ｴｸｽﾃﾘｱ商品
 62
   253
370
    20
100
AcDbVertex
100
AcDbPolyFaceMeshVertex
 10
229.0420824131682
 20
511.342479908237
 30
458.91
 70
   192
  0
VERTEX
  5
3E6
330
356
100
AcDbEntity
  8
ｴｸｽﾃﾘｱ商品
 62
   253
370
    20
100
AcDbVertex
100
AcDbPolyFaceMeshVertex
 10
229.1940824131682
 20
1393.918479908237
 30
458.822
 70
   192
  0
VERTEX
  5
3E7
330
356
100
AcDbEntity
  8
ｴｸｽﾃﾘｱ商品
 62
   253
370
    20
100
AcDbVertex
100
AcDbPolyFaceMeshVertex
 10
229.1940824131682
 20
511.4944799082369
 30
458.822
 70
   192
  0
VERTEX
  5
3E8
330
356
100
AcDbEntity
  8
ｴｸｽﾃﾘｱ商品
 62
   253
370
    20
100
AcDbVertex
100
AcDbPolyFaceMeshVertex
 10
229.3280824131682
 20
1393.918479908237
 30
458.71
 70
   192
  0
VERTEX
  5
3E9
330
356
100
AcDbEntity
  8
ｴｸｽﾃﾘｱ商品
 62
   253
370
    20
100
AcDbVertex
100
AcDbPolyFaceMeshVertex
 10
229.3280824131682
 20
511.628479908237
 30
458.71
 70
   192
  0
VERTEX
  5
3EA
330
356
100
AcDbEntity
  8
ｴｸｽﾃﾘｱ商品
 62
   253
370
    20
100
AcDbVertex
100
AcDbPolyFaceMeshVertex
 10
229.4400824131682
 20
1393.918479908237
 30
458.576
 70
   192
  0
VERTEX
  5
3EB
330
356
100
AcDbEntity
  8
ｴｸｽﾃﾘｱ商品
 62
   253
370
    20
100
AcDbVertex
100
AcDbPolyFaceMeshVertex
 10
229.4400824131682
 20
511.7404799082369
 30
458.576
 70
   192
  0
VERTEX
  5
3EC
330
356
100
AcDbEntity
  8
ｴｸｽﾃﾘｱ商品
 62
   253
370
    20
100
AcDbVertex
100
AcDbPolyFaceMeshVertex
 10
229.5280824131682
 20
1393.918479908237
 30
458.424
 70
   192
  0
VERTEX
  5
3ED
330
356
100
AcDbEntity
  8
ｴｸｽﾃﾘｱ商品
 62
   253
370
    20
100
AcDbVertex
100
AcDbPolyFaceMeshVertex
 10
229.5280824131682
 20
511.828479908237
 30
458.424
 70
   192
  0
VERTEX
  5
3EE
330
356
100
AcDbEntity
  8
ｴｸｽﾃﾘｱ商品
 62
   253
370
    20
100
AcDbVertex
100
AcDbPolyFaceMeshVertex
 10
229.5880824131682
 20
1393.918479908237
 30
458.26
 70
   192
  0
VERTEX
  5
3EF
330
356
100
AcDbEntity
  8
ｴｸｽﾃﾘｱ商品
 62
   253
370
    20
100
AcDbVertex
100
AcDbPolyFaceMeshVertex
 10
229.5880824131682
 20
511.8884799082369
 30
458.26
 70
   192
  0
VERTEX
  5
3F0
330
356
100
AcDbEntity
  8
ｴｸｽﾃﾘｱ商品
 62
   253
370
    20
100
AcDbVertex
100
AcDbPolyFaceMeshVertex
 10
229.6180824131682
 20
1393.918479908237
 30
458.087
 70
   192
  0
VERTEX
  5
3F1
330
356
100
AcDbEntity
  8
ｴｸｽﾃﾘｱ商品
 62
   253
370
    20
100
AcDbVertex
100
AcDbPolyFaceMeshVertex
 10
229.6180824131682
 20
511.9184799082369
 30
458.087
 70
   192
  0
VERTEX
  5
3F2
330
356
100
AcDbEntity
  8
ｴｸｽﾃﾘｱ商品
 62
   253
370
    20
100
AcDbVertex
100
AcDbPolyFaceMeshVertex
 10
229.6180824131682
 20
1393.918479908237
 30
458.0
 70
   192
  0
VERTEX
  5
3F3
330
356
100
AcDbEntity
  8
ｴｸｽﾃﾘｱ商品
 62
   253
370
    20
100
AcDbVertex
100
AcDbPolyFaceMeshVertex
 10
229.6180824131682
 20
511.9184799082369
 30
458.0
 70
   192
  0
VERTEX
  5
3F4
330
356
100
AcDbEntity
  8
ｴｸｽﾃﾘｱ商品
 62
   253
370
    20
100
AcDbVertex
100
AcDbPolyFaceMeshVertex
 10
229.6180824131682
 20
1393.918479908237
 30
442.0
 70
   192
  0
VERTEX
  5
3F5
330
356
100
AcDbEntity
  8
ｴｸｽﾃﾘｱ商品
 62
   253
370
    20
100
AcDbVertex
100
AcDbPolyFaceMeshVertex
 10
229.6180824131682
 20
511.9184799082369
 30
442.0
 70
   192
  0
VERTEX
  5
3F6
330
356
100
AcDbEntity
  8
ｴｸｽﾃﾘｱ商品
 62
   253
370
    20
100
AcDbVertex
100
AcDbPolyFaceMeshVertex
 10
229.6180824131682
 20
1393.918479908237
 30
441.913
 70
   192
  0
VERTEX
  5
3F7
330
356
100
AcDbEntity
  8
ｴｸｽﾃﾘｱ商品
 62
   253
370
    20
100
AcDbVertex
100
AcDbPolyFaceMeshVertex
 10
229.6180824131682
 20
511.9184799082369
 30
441.913
 70
   192
  0
VERTEX
  5
3F8
330
356
100
AcDbEntity
  8
ｴｸｽﾃﾘｱ商品
 62
   253
370
    20
100
AcDbVertex
100
AcDbPolyFaceMeshVertex
 10
229.6480824131682
 20
1393.918479908237
 30
441.74
 70
   192
  0
VERTEX
  5
3F9
330
356
100
AcDbEntity
  8
ｴｸｽﾃﾘｱ商品
 62
   253
370
    20
100
AcDbVertex
100
AcDbPolyFaceMeshVertex
 10
229.6480824131682
 20
511.948479908237
 30
441.74
 70
   192
  0
VERTEX
  5
3FA
330
356
100
AcDbEntity
  8
ｴｸｽﾃﾘｱ商品
 62
   253
370
    20
100
AcDbVertex
100
AcDbPolyFaceMeshVertex
 10
229.7080824131682
 20
1393.918479908237
 30
441.576
 70
   192
  0
VERTEX
  5
3FB
330
356
100
AcDbEntity
  8
ｴｸｽﾃﾘｱ商品
 62
   253
370
    20
100
AcDbVertex
100
AcDbPolyFaceMeshVertex
 10
229.7080824131682
 20
512.008479908237
 30
441.576
 70
   192
  0
VERTEX
  5
3FC
330
356
100
AcDbEntity
  8
ｴｸｽﾃﾘｱ商品
 62
   253
370
    20
100
AcDbVertex
100
AcDbPolyFaceMeshVertex
 10
229.7960824131682
 20
1393.918479908237
 30
441.424
 70
   192
  0
VERTEX
  5
3FD
330
356
100
AcDbEntity
  8
ｴｸｽﾃﾘｱ商品
 62
   253
370
    20
100
AcDbVertex
100
AcDbPolyFaceMeshVertex
 10
229.7960824131682
 20
512.0964799082369
 30
441.424
 70
   192
  0
VERTEX
  5
3FE
330
356
100
AcDbEntity
  8
ｴｸｽﾃﾘｱ商品
 62
   253
370
    20
100
AcDbVertex
100
AcDbPolyFaceMeshVertex
 10
229.9080824131682
 20
1393.918479908237
 30
441.29
 70
   192
  0
VERTEX
  5
3FF
330
356
100
AcDbEntity
  8
ｴｸｽﾃﾘｱ商品
 62
   253
370
    20
100
AcDbVertex
100
AcDbPolyFaceMeshVertex
 10
229.9080824131682
 20
512.2084799082369
 30
441.29
 70
   192
  0
VERTEX
  5
400
330
356
100
AcDbEntity
  8
ｴｸｽﾃﾘｱ商品
 62
   253
370
    20
100
AcDbVertex
100
AcDbPolyFaceMeshVertex
 10
230.0420824131682
 20
1393.918479908237
 30
441.178
 70
   192
  0
VERTEX
  5
401
330
356
100
AcDbEntity
  8
ｴｸｽﾃﾘｱ商品
 62
   253
370
    20
100
AcDbVertex
100
AcDbPolyFaceMeshVertex
 10
230.0420824131682
 20
512.342479908237
 30
441.178
 70
   192
  0
VERTEX
  5
402
330
356
100
AcDbEntity
  8
ｴｸｽﾃﾘｱ商品
 62
   253
370
    20
100
AcDbVertex
100
AcDbPolyFaceMeshVertex
 10
230.1940824131682
 20
1393.918479908237
 30
441.09
 70
   192
  0
VERTEX
  5
403
330
356
100
AcDbEntity
  8
ｴｸｽﾃﾘｱ商品
 62
   253
370
    20
100
AcDbVertex
100
AcDbPolyFaceMeshVertex
 10
230.1940824131682
 20
512.4944799082369
 30
441.09
 70
   192
  0
VERTEX
  5
404
330
356
100
AcDbEntity
  8
ｴｸｽﾃﾘｱ商品
 62
   253
370
    20
100
AcDbVertex
100
AcDbPolyFaceMeshVertex
 10
230.3580824131682
 20
1393.918479908237
 30
441.03
 70
   192
  0
VERTEX
  5
405
330
356
100
AcDbEntity
  8
ｴｸｽﾃﾘｱ商品
 62
   253
370
    20
100
AcDbVertex
100
AcDbPolyFaceMeshVertex
 10
230.3580824131682
 20
512.658479908237
 30
441.03
 70
   192
  0
VERTEX
  5
406
330
356
100
AcDbEntity
  8
ｴｸｽﾃﾘｱ商品
 62
   253
370
    20
100
AcDbVertex
100
AcDbPolyFaceMeshVertex
 10
230.5310824131682
 20
1393.918479908237
 30
441.0
 70
   192
  0
VERTEX
  5
407
330
356
100
AcDbEntity
  8
ｴｸｽﾃﾘｱ商品
 62
   253
370
    20
100
AcDbVertex
100
AcDbPolyFaceMeshVertex
 10
230.5310824131682
 20
512.8314799082369
 30
441.0
 70
   192
  0
VERTEX
  5
408
330
356
100
AcDbEntity
  8
ｴｸｽﾃﾘｱ商品
 62
   253
370
    20
100
AcDbFaceRecord
 10
0.0
 20
0.0
 30
0.0
 70
   128
 71
     1
 72
     2
 73
     3
 74
     4
  0
VERTEX
  5
409
330
356
100
AcDbEntity
  8
ｴｸｽﾃﾘｱ商品
 62
   253
370
    20
100
AcDbFaceRecord
 10
0.0
 20
0.0
 30
0.0
 70
   128
 71
     2
 72
     5
 73
     6
 74
     3
  0
VERTEX
  5
40A
330
356
100
AcDbEntity
  8
ｴｸｽﾃﾘｱ商品
 62
   253
370
    20
100
AcDbFaceRecord
 10
0.0
 20
0.0
 30
0.0
 70
   128
 71
     5
 72
     7
 73
     8
 74
     6
  0
VERTEX
  5
40B
330
356
100
AcDbEntity
  8
ｴｸｽﾃﾘｱ商品
 62
   253
370
    20
100
AcDbFaceRecord
 10
0.0
 20
0.0
 30
0.0
 70
   128
 71
     7
 72
     9
 73
    10
 74
     8
  0
VERTEX
  5
40C
330
356
100
AcDbEntity
  8
ｴｸｽﾃﾘｱ商品
 62
   253
370
    20
100
AcDbFaceRecord
 10
0.0
 20
0.0
 30
0.0
 70
   128
 71
     9
 72
    11
 73
    12
 74
    10
  0
VERTEX
  5
40D
330
356
100
AcDbEntity
  8
ｴｸｽﾃﾘｱ商品
 62
   253
370
    20
100
AcDbFaceRecord
 10
0.0
 20
0.0
 30
0.0
 70
   128
 71
    11
 72
    13
 73
    14
 74
    12
  0
VERTEX
  5
40E
330
356
100
AcDbEntity
  8
ｴｸｽﾃﾘｱ商品
 62
   253
370
    20
100
AcDbFaceRecord
 10
0.0
 20
0.0
 30
0.0
 70
   128
 71
    13
 72
    15
 73
    16
 74
    14
  0
VERTEX
  5
40F
330
356
100
AcDbEntity
  8
ｴｸｽﾃﾘｱ商品
 62
   253
370
    20
100
AcDbFaceRecord
 10
0.0
 20
0.0
 30
0.0
 70
   128
 71
    15
 72
    17
 73
    18
 74
    16
  0
VERTEX
  5
410
330
356
100
AcDbEntity
  8
ｴｸｽﾃﾘｱ商品
 62
   253
370
    20
100
AcDbFaceRecord
 10
0.0
 20
0.0
 30
0.0
 70
   128
 71
    17
 72
    19
 73
    20
 74
    18
  0
VERTEX
  5
411
330
356
100
AcDbEntity
  8
ｴｸｽﾃﾘｱ商品
 62
   253
370
    20
100
AcDbFaceRecord
 10
0.0
 20
0.0
 30
0.0
 70
   128
 71
    19
 72
    21
 73
    22
 74
    20
  0
VERTEX
  5
412
330
356
100
AcDbEntity
  8
ｴｸｽﾃﾘｱ商品
 62
   253
370
    20
100
AcDbFaceRecord
 10
0.0
 20
0.0
 30
0.0
 70
   128
 71
    21
 72
    23
 73
    24
 74
    22
  0
VERTEX
  5
413
330
356
100
AcDbEntity
  8
ｴｸｽﾃﾘｱ商品
 62
   253
370
    20
100
AcDbFaceRecord
 10
0.0
 20
0.0
 30
0.0
 70
   128
 71
    23
 72
    25
 73
    26
 74
    24
  0
VERTEX
  5
414
330
356
100
AcDbEntity
  8
ｴｸｽﾃﾘｱ商品
 62
   253
370
    20
100
AcDbFaceRecord
 10
0.0
 20
0.0
 30
0.0
 70
   128
 71
    25
 72
    27
 73
    28
 74
    26
  0
VERTEX
  5
415
330
356
100
AcDbEntity
  8
ｴｸｽﾃﾘｱ商品
 62
   253
370
    20
100
AcDbFaceRecord
 10
0.0
 20
0.0
 30
0.0
 70
   128
 71
    27
 72
    29
 73
    30
 74
    28
  0
VERTEX
  5
416
330
356
100
AcDbEntity
  8
ｴｸｽﾃﾘｱ商品
 62
   253
370
    20
100
AcDbFaceRecord
 10
0.0
 20
0.0
 30
0.0
 70
   128
 71
    29
 72
    31
 73
    32
 74
    30
  0
VERTEX
  5
417
330
356
100
AcDbEntity
  8
ｴｸｽﾃﾘｱ商品
 62
   253
370
    20
100
AcDbFaceRecord
 10
0.0
 20
0.0
 30
0.0
 70
   128
 71
    31
 72
    33
 73
    34
 74
    32
  0
VERTEX
  5
418
330
356
100
AcDbEntity
  8
ｴｸｽﾃﾘｱ商品
 62
   253
370
    20
100
AcDbFaceRecord
 10
0.0
 20
0.0
 30
0.0
 70
   128
 71
    33
 72
    35
 73
    36
 74
    34
  0
VERTEX
  5
419
330
356
100
AcDbEntity
  8
ｴｸｽﾃﾘｱ商品
 62
   253
370
    20
100
AcDbFaceRecord
 10
0.0
 20
0.0
 30
0.0
 70
   128
 71
    35
 72
    37
 73
    38
 74
    36
  0
VERTEX
  5
41A
330
356
100
AcDbEntity
  8
ｴｸｽﾃﾘｱ商品
 62
   253
370
    20
100
AcDbFaceRecord
 10
0.0
 20
0.0
 30
0.0
 70
   128
 71
    37
 72
    39
 73
    40
 74
    38
  0
VERTEX
  5
41B
330
356
100
AcDbEntity
  8
ｴｸｽﾃﾘｱ商品
 62
   253
370
    20
100
AcDbFaceRecord
 10
0.0
 20
0.0
 30
0.0
 70
   128
 71
    39
 72
    41
 73
    42
 74
    40
  0
VERTEX
  5
41C
330
356
100
AcDbEntity
  8
ｴｸｽﾃﾘｱ商品
 62
   253
370
    20
100
AcDbFaceRecord
 10
0.0
 20
0.0
 30
0.0
 70
   128
 71
    41
 72
    43
 73
    44
 74
    42
  0
VERTEX
  5
41D
330
356
100
AcDbEntity
  8
ｴｸｽﾃﾘｱ商品
 62
   253
370
    20
100
AcDbFaceRecord
 10
0.0
 20
0.0
 30
0.0
 70
   128
 71
    43
 72
    45
 73
    46
 74
    44
  0
VERTEX
  5
41E
330
356
100
AcDbEntity
  8
ｴｸｽﾃﾘｱ商品
 62
   253
370
    20
100
AcDbFaceRecord
 10
0.0
 20
0.0
 30
0.0
 70
   128
 71
    45
 72
    47
 73
    48
 74
    46
  0
VERTEX
  5
41F
330
356
100
AcDbEntity
  8
ｴｸｽﾃﾘｱ商品
 62
   253
370
    20
100
AcDbFaceRecord
 10
0.0
 20
0.0
 30
0.0
 70
   128
 71
    47
 72
    49
 73
    50
 74
    48
  0
VERTEX
  5
420
330
356
100
AcDbEntity
  8
ｴｸｽﾃﾘｱ商品
 62
   253
370
    20
100
AcDbFaceRecord
 10
0.0
 20
0.0
 30
0.0
 70
   128
 71
    49
 72
    51
 73
    52
 74
    50
  0
VERTEX
  5
421
330
356
100
AcDbEntity
  8
ｴｸｽﾃﾘｱ商品
 62
   253
370
    20
100
AcDbFaceRecord
 10
0.0
 20
0.0
 30
0.0
 70
   128
 71
    51
 72
    53
 73
    54
 74
    52
  0
VERTEX
  5
422
330
356
100
AcDbEntity
  8
ｴｸｽﾃﾘｱ商品
 62
   253
370
    20
100
AcDbFaceRecord
 10
0.0
 20
0.0
 30
0.0
 70
   128
 71
    53
 72
    55
 73
    56
 74
    54
  0
VERTEX
  5
423
330
356
100
AcDbEntity
  8
ｴｸｽﾃﾘｱ商品
 62
   253
370
    20
100
AcDbFaceRecord
 10
0.0
 20
0.0
 30
0.0
 70
   128
 71
    55
 72
    57
 73
    58
 74
    56
  0
VERTEX
  5
424
330
356
100
AcDbEntity
  8
ｴｸｽﾃﾘｱ商品
 62
   253
370
    20
100
AcDbFaceRecord
 10
0.0
 20
0.0
 30
0.0
 70
   128
 71
    57
 72
    59
 73
    60
 74
    58
  0
VERTEX
  5
425
330
356
100
AcDbEntity
  8
ｴｸｽﾃﾘｱ商品
 62
   253
370
    20
100
AcDbFaceRecord
 10
0.0
 20
0.0
 30
0.0
 70
   128
 71
    59
 72
    61
 73
    62
 74
    60
  0
VERTEX
  5
426
330
356
100
AcDbEntity
  8
ｴｸｽﾃﾘｱ商品
 62
   253
370
    20
100
AcDbFaceRecord
 10
0.0
 20
0.0
 30
0.0
 70
   128
 71
    61
 72
    63
 73
    64
 74
    62
  0
VERTEX
  5
427
330
356
100
AcDbEntity
  8
ｴｸｽﾃﾘｱ商品
 62
   253
370
    20
100
AcDbFaceRecord
 10
0.0
 20
0.0
 30
0.0
 70
   128
 71
    63
 72
    65
 73
    66
 74
    64
  0
VERTEX
  5
428
330
356
100
AcDbEntity
  8
ｴｸｽﾃﾘｱ商品
 62
   253
370
    20
100
AcDbFaceRecord
 10
0.0
 20
0.0
 30
0.0
 70
   128
 71
    65
 72
    67
 73
    68
 74
    66
  0
VERTEX
  5
429
330
356
100
AcDbEntity
  8
ｴｸｽﾃﾘｱ商品
 62
   253
370
    20
100
AcDbFaceRecord
 10
0.0
 20
0.0
 30
0.0
 70
   128
 71
    67
 72
    69
 73
    70
 74
    68
  0
VERTEX
  5
42A
330
356
100
AcDbEntity
  8
ｴｸｽﾃﾘｱ商品
 62
   253
370
    20
100
AcDbFaceRecord
 10
0.0
 20
0.0
 30
0.0
 70
   128
 71
    69
 72
    71
 73
    72
 74
    70
  0
VERTEX
  5
42B
330
356
100
AcDbEntity
  8
ｴｸｽﾃﾘｱ商品
 62
   253
370
    20
100
AcDbFaceRecord
 10
0.0
 20
0.0
 30
0.0
 70
   128
 71
    71
 72
    73
 73
    74
 74
    72
  0
VERTEX
  5
42C
330
356
100
AcDbEntity
  8
ｴｸｽﾃﾘｱ商品
 62
   253
370
    20
100
AcDbFaceRecord
 10
0.0
 20
0.0
 30
0.0
 70
   128
 71
    73
 72
    75
 73
    76
 74
    74
  0
VERTEX
  5
42D
330
356
100
AcDbEntity
  8
ｴｸｽﾃﾘｱ商品
 62
   253
370
    20
100
AcDbFaceRecord
 10
0.0
 20
0.0
 30
0.0
 70
   128
 71
    75
 72
    77
 73
    78
 74
    76
  0
VERTEX
  5
42E
330
356
100
AcDbEntity
  8
ｴｸｽﾃﾘｱ商品
 62
   253
370
    20
100
AcDbFaceRecord
 10
0.0
 20
0.0
 30
0.0
 70
   128
 71
    77
 72
    79
 73
    80
 74
    78
  0
VERTEX
  5
42F
330
356
100
AcDbEntity
  8
ｴｸｽﾃﾘｱ商品
 62
   253
370
    20
100
AcDbFaceRecord
 10
0.0
 20
0.0
 30
0.0
 70
   128
 71
    79
 72
    81
 73
    82
 74
    80
  0
VERTEX
  5
430
330
356
100
AcDbEntity
  8
ｴｸｽﾃﾘｱ商品
 62
   253
370
    20
100
AcDbFaceRecord
 10
0.0
 20
0.0
 30
0.0
 70
   128
 71
    81
 72
    83
 73
    84
 74
    82
  0
VERTEX
  5
431
330
356
100
AcDbEntity
  8
ｴｸｽﾃﾘｱ商品
 62
   253
370
    20
100
AcDbFaceRecord
 10
0.0
 20
0.0
 30
0.0
 70
   128
 71
    83
 72
    85
 73
    86
 74
    84
  0
VERTEX
  5
432
330
356
100
AcDbEntity
  8
ｴｸｽﾃﾘｱ商品
 62
   253
370
    20
100
AcDbFaceRecord
 10
0.0
 20
0.0
 30
0.0
 70
   128
 71
    85
 72
    87
 73
    88
 74
    86
  0
VERTEX
  5
433
330
356
100
AcDbEntity
  8
ｴｸｽﾃﾘｱ商品
 62
   253
370
    20
100
AcDbFaceRecord
 10
0.0
 20
0.0
 30
0.0
 70
   128
 71
    87
 72
    89
 73
    90
 74
    88
  0
VERTEX
  5
434
330
356
100
AcDbEntity
  8
ｴｸｽﾃﾘｱ商品
 62
   253
370
    20
100
AcDbFaceRecord
 10
0.0
 20
0.0
 30
0.0
 70
   128
 71
    89
 72
    91
 73
    92
 74
    90
  0
VERTEX
  5
435
330
356
100
AcDbEntity
  8
ｴｸｽﾃﾘｱ商品
 62
   253
370
    20
100
AcDbFaceRecord
 10
0.0
 20
0.0
 30
0.0
 70
   128
 71
    91
 72
    93
 73
    94
 74
    92
  0
VERTEX
  5
436
330
356
100
AcDbEntity
  8
ｴｸｽﾃﾘｱ商品
 62
   253
370
    20
100
AcDbFaceRecord
 10
0.0
 20
0.0
 30
0.0
 70
   128
 71
    93
 72
    95
 73
    96
 74
    94
  0
VERTEX
  5
437
330
356
100
AcDbEntity
  8
ｴｸｽﾃﾘｱ商品
 62
   253
370
    20
100
AcDbFaceRecord
 10
0.0
 20
0.0
 30
0.0
 70
   128
 71
    95
 72
    97
 73
    98
 74
    96
  0
VERTEX
  5
438
330
356
100
AcDbEntity
  8
ｴｸｽﾃﾘｱ商品
 62
   253
370
    20
100
AcDbFaceRecord
 10
0.0
 20
0.0
 30
0.0
 70
   128
 71
    97
 72
    99
 73
   100
 74
    98
  0
VERTEX
  5
439
330
356
100
AcDbEntity
  8
ｴｸｽﾃﾘｱ商品
 62
   253
370
    20
100
AcDbFaceRecord
 10
0.0
 20
0.0
 30
0.0
 70
   128
 71
    99
 72
   101
 73
   102
 74
   100
  0
VERTEX
  5
43A
330
356
100
AcDbEntity
  8
ｴｸｽﾃﾘｱ商品
 62
   253
370
    20
100
AcDbFaceRecord
 10
0.0
 20
0.0
 30
0.0
 70
   128
 71
   101
 72
   103
 73
   104
 74
   102
  0
VERTEX
  5
43B
330
356
100
AcDbEntity
  8
ｴｸｽﾃﾘｱ商品
 62
   253
370
    20
100
AcDbFaceRecord
 10
0.0
 20
0.0
 30
0.0
 70
   128
 71
   103
 72
   105
 73
   106
 74
   104
  0
VERTEX
  5
43C
330
356
100
AcDbEntity
  8
ｴｸｽﾃﾘｱ商品
 62
   253
370
    20
100
AcDbFaceRecord
 10
0.0
 20
0.0
 30
0.0
 70
   128
 71
   105
 72
   107
 73
   108
 74
   106
  0
VERTEX
  5
43D
330
356
100
AcDbEntity
  8
ｴｸｽﾃﾘｱ商品
 62
   253
370
    20
100
AcDbFaceRecord
 10
0.0
 20
0.0
 30
0.0
 70
   128
 71
   107
 72
   109
 73
   110
 74
   108
  0
VERTEX
  5
43E
330
356
100
AcDbEntity
  8
ｴｸｽﾃﾘｱ商品
 62
   253
370
    20
100
AcDbFaceRecord
 10
0.0
 20
0.0
 30
0.0
 70
   128
 71
   109
 72
   111
 73
   112
 74
   110
  0
VERTEX
  5
43F
330
356
100
AcDbEntity
  8
ｴｸｽﾃﾘｱ商品
 62
   253
370
    20
100
AcDbFaceRecord
 10
0.0
 20
0.0
 30
0.0
 70
   128
 71
   111
 72
   113
 73
   114
 74
   112
  0
VERTEX
  5
440
330
356
100
AcDbEntity
  8
ｴｸｽﾃﾘｱ商品
 62
   253
370
    20
100
AcDbFaceRecord
 10
0.0
 20
0.0
 30
0.0
 70
   128
 71
   113
 72
   115
 73
   116
 74
   114
  0
VERTEX
  5
441
330
356
100
AcDbEntity
  8
ｴｸｽﾃﾘｱ商品
 62
   253
370
    20
100
AcDbFaceRecord
 10
0.0
 20
0.0
 30
0.0
 70
   128
 71
   115
 72
   117
 73
   118
 74
   116
  0
VERTEX
  5
442
330
356
100
AcDbEntity
  8
ｴｸｽﾃﾘｱ商品
 62
   253
370
    20
100
AcDbFaceRecord
 10
0.0
 20
0.0
 30
0.0
 70
   128
 71
   117
 72
   119
 73
   120
 74
   118
  0
VERTEX
  5
443
330
356
100
AcDbEntity
  8
ｴｸｽﾃﾘｱ商品
 62
   253
370
    20
100
AcDbFaceRecord
 10
0.0
 20
0.0
 30
0.0
 70
   128
 71
   119
 72
   121
 73
   122
 74
   120
  0
VERTEX
  5
444
330
356
100
AcDbEntity
  8
ｴｸｽﾃﾘｱ商品
 62
   253
370
    20
100
AcDbFaceRecord
 10
0.0
 20
0.0
 30
0.0
 70
   128
 71
   121
 72
   123
 73
   124
 74
   122
  0
VERTEX
  5
445
330
356
100
AcDbEntity
  8
ｴｸｽﾃﾘｱ商品
 62
   253
370
    20
100
AcDbFaceRecord
 10
0.0
 20
0.0
 30
0.0
 70
   128
 71
   123
 72
   125
 73
   126
 74
   124
  0
VERTEX
  5
446
330
356
100
AcDbEntity
  8
ｴｸｽﾃﾘｱ商品
 62
   253
370
    20
100
AcDbFaceRecord
 10
0.0
 20
0.0
 30
0.0
 70
   128
 71
   125
 72
   127
 73
   128
 74
   126
  0
VERTEX
  5
447
330
356
100
AcDbEntity
  8
ｴｸｽﾃﾘｱ商品
 62
   253
370
    20
100
AcDbFaceRecord
 10
0.0
 20
0.0
 30
0.0
 70
   128
 71
   127
 72
   129
 73
   130
 74
   128
  0
VERTEX
  5
448
330
356
100
AcDbEntity
  8
ｴｸｽﾃﾘｱ商品
 62
   253
370
    20
100
AcDbFaceRecord
 10
0.0
 20
0.0
 30
0.0
 70
   128
 71
   129
 72
   131
 73
   132
 74
   130
  0
VERTEX
  5
449
330
356
100
AcDbEntity
  8
ｴｸｽﾃﾘｱ商品
 62
   253
370
    20
100
AcDbFaceRecord
 10
0.0
 20
0.0
 30
0.0
 70
   128
 71
   131
 72
   133
 73
   134
 74
   132
  0
VERTEX
  5
44A
330
356
100
AcDbEntity
  8
ｴｸｽﾃﾘｱ商品
 62
   253
370
    20
100
AcDbFaceRecord
 10
0.0
 20
0.0
 30
0.0
 70
   128
 71
   133
 72
   135
 73
   136
 74
   134
  0
VERTEX
  5
44B
330
356
100
AcDbEntity
  8
ｴｸｽﾃﾘｱ商品
 62
   253
370
    20
100
AcDbFaceRecord
 10
0.0
 20
0.0
 30
0.0
 70
   128
 71
   135
 72
   137
 73
   138
 74
   136
  0
VERTEX
  5
44C
330
356
100
AcDbEntity
  8
ｴｸｽﾃﾘｱ商品
 62
   253
370
    20
100
AcDbFaceRecord
 10
0.0
 20
0.0
 30
0.0
 70
   128
 71
   137
 72
   139
 73
   140
 74
   138
  0
VERTEX
  5
44D
330
356
100
AcDbEntity
  8
ｴｸｽﾃﾘｱ商品
 62
   253
370
    20
100
AcDbFaceRecord
 10
0.0
 20
0.0
 30
0.0
 70
   128
 71
   139
 72
   141
 73
   142
 74
   140
  0
VERTEX
  5
44E
330
356
100
AcDbEntity
  8
ｴｸｽﾃﾘｱ商品
 62
   253
370
    20
100
AcDbFaceRecord
 10
0.0
 20
0.0
 30
0.0
 70
   128
 71
   141
 72
   143
 73
   144
 74
   142
  0
VERTEX
  5
44F
330
356
100
AcDbEntity
  8
ｴｸｽﾃﾘｱ商品
 62
   253
370
    20
100
AcDbFaceRecord
 10
0.0
 20
0.0
 30
0.0
 70
   128
 71
   143
 72
   145
 73
   146
 74
   144
  0
VERTEX
  5
450
330
356
100
AcDbEntity
  8
ｴｸｽﾃﾘｱ商品
 62
   253
370
    20
100
AcDbFaceRecord
 10
0.0
 20
0.0
 30
0.0
 70
   128
 71
   145
 72
   147
 73
   148
 74
   146
  0
VERTEX
  5
451
330
356
100
AcDbEntity
  8
ｴｸｽﾃﾘｱ商品
 62
   253
370
    20
100
AcDbFaceRecord
 10
0.0
 20
0.0
 30
0.0
 70
   128
 71
   147
 72
   149
 73
   150
 74
   148
  0
VERTEX
  5
452
330
356
100
AcDbEntity
  8
ｴｸｽﾃﾘｱ商品
 62
   253
370
    20
100
AcDbFaceRecord
 10
0.0
 20
0.0
 30
0.0
 70
   128
 71
   149
 72
   151
 73
   152
 74
   150
  0
VERTEX
  5
453
330
356
100
AcDbEntity
  8
ｴｸｽﾃﾘｱ商品
 62
   253
370
    20
100
AcDbFaceRecord
 10
0.0
 20
0.0
 30
0.0
 70
   128
 71
   151
 72
   153
 73
   154
 74
   152
  0
VERTEX
  5
454
330
356
100
AcDbEntity
  8
ｴｸｽﾃﾘｱ商品
 62
   253
370
    20
100
AcDbFaceRecord
 10
0.0
 20
0.0
 30
0.0
 70
   128
 71
   153
 72
   155
 73
   156
 74
   154
  0
VERTEX
  5
455
330
356
100
AcDbEntity
  8
ｴｸｽﾃﾘｱ商品
 62
   253
370
    20
100
AcDbFaceRecord
 10
0.0
 20
0.0
 30
0.0
 70
   128
 71
   155
 72
   157
 73
   158
 74
   156
  0
VERTEX
  5
456
330
356
100
AcDbEntity
  8
ｴｸｽﾃﾘｱ商品
 62
   253
370
    20
100
AcDbFaceRecord
 10
0.0
 20
0.0
 30
0.0
 70
   128
 71
   157
 72
   159
 73
   160
 74
   158
  0
VERTEX
  5
457
330
356
100
AcDbEntity
  8
ｴｸｽﾃﾘｱ商品
 62
   253
370
    20
100
AcDbFaceRecord
 10
0.0
 20
0.0
 30
0.0
 70
   128
 71
   159
 72
   161
 73
   162
 74
   160
  0
VERTEX
  5
458
330
356
100
AcDbEntity
  8
ｴｸｽﾃﾘｱ商品
 62
   253
370
    20
100
AcDbFaceRecord
 10
0.0
 20
0.0
 30
0.0
 70
   128
 71
   161
 72
   163
 73
   164
 74
   162
  0
VERTEX
  5
459
330
356
100
AcDbEntity
  8
ｴｸｽﾃﾘｱ商品
 62
   253
370
    20
100
AcDbFaceRecord
 10
0.0
 20
0.0
 30
0.0
 70
   128
 71
   163
 72
   165
 73
   166
 74
   164
  0
VERTEX
  5
45A
330
356
100
AcDbEntity
  8
ｴｸｽﾃﾘｱ商品
 62
   253
370
    20
100
AcDbFaceRecord
 10
0.0
 20
0.0
 30
0.0
 70
   128
 71
   165
 72
   167
 73
   168
 74
   166
  0
VERTEX
  5
45B
330
356
100
AcDbEntity
  8
ｴｸｽﾃﾘｱ商品
 62
   253
370
    20
100
AcDbFaceRecord
 10
0.0
 20
0.0
 30
0.0
 70
   128
 71
   167
 72
   169
 73
   170
 74
   168
  0
VERTEX
  5
45C
330
356
100
AcDbEntity
  8
ｴｸｽﾃﾘｱ商品
 62
   253
370
    20
100
AcDbFaceRecord
 10
0.0
 20
0.0
 30
0.0
 70
   128
 71
   169
 72
   171
 73
   172
 74
   170
  0
VERTEX
  5
45D
330
356
100
AcDbEntity
  8
ｴｸｽﾃﾘｱ商品
 62
   253
370
    20
100
AcDbFaceRecord
 10
0.0
 20
0.0
 30
0.0
 70
   128
 71
   171
 72
   173
 73
   174
 74
   172
  0
VERTEX
  5
45E
330
356
100
AcDbEntity
  8
ｴｸｽﾃﾘｱ商品
 62
   253
370
    20
100
AcDbFaceRecord
 10
0.0
 20
0.0
 30
0.0
 70
   128
 71
   173
 72
   175
 73
   176
 74
   174
  0
VERTEX
  5
45F
330
356
100
AcDbEntity
  8
ｴｸｽﾃﾘｱ商品
 62
   253
370
    20
100
AcDbFaceRecord
 10
0.0
 20
0.0
 30
0.0
 70
   128
 71
   175
 72
     1
 73
     4
 74
   176
  0
VERTEX
  5
460
330
356
100
AcDbEntity
  8
ｴｸｽﾃﾘｱ商品
 62
   253
370
    20
100
AcDbFaceRecord
 10
0.0
 20
0.0
 30
0.0
 70
   128
 71
    95
 72
    93
 73
    91
  0
VERTEX
  5
461
330
356
100
AcDbEntity
  8
ｴｸｽﾃﾘｱ商品
 62
   253
370
    20
100
AcDbFaceRecord
 10
0.0
 20
0.0
 30
0.0
 70
   128
 71
    95
 72
    91
 73
    89
  0
VERTEX
  5
462
330
356
100
AcDbEntity
  8
ｴｸｽﾃﾘｱ商品
 62
   253
370
    20
100
AcDbFaceRecord
 10
0.0
 20
0.0
 30
0.0
 70
   128
 71
    97
 72
    95
 73
    89
  0
VERTEX
  5
463
330
356
100
AcDbEntity
  8
ｴｸｽﾃﾘｱ商品
 62
   253
370
    20
100
AcDbFaceRecord
 10
0.0
 20
0.0
 30
0.0
 70
   128
 71
    99
 72
    97
 73
    89
  0
VERTEX
  5
464
330
356
100
AcDbEntity
  8
ｴｸｽﾃﾘｱ商品
 62
   253
370
    20
100
AcDbFaceRecord
 10
0.0
 20
0.0
 30
0.0
 70
   128
 71
   101
 72
    99
 73
    89
  0
VERTEX
  5
465
330
356
100
AcDbEntity
  8
ｴｸｽﾃﾘｱ商品
 62
   253
370
    20
100
AcDbFaceRecord
 10
0.0
 20
0.0
 30
0.0
 70
   128
 71
   103
 72
   101
 73
    89
  0
VERTEX
  5
466
330
356
100
AcDbEntity
  8
ｴｸｽﾃﾘｱ商品
 62
   253
370
    20
100
AcDbFaceRecord
 10
0.0
 20
0.0
 30
0.0
 70
   128
 71
   105
 72
   103
 73
    89
  0
VERTEX
  5
467
330
356
100
AcDbEntity
  8
ｴｸｽﾃﾘｱ商品
 62
   253
370
    20
100
AcDbFaceRecord
 10
0.0
 20
0.0
 30
0.0
 70
   128
 71
   107
 72
   105
 73
    89
  0
VERTEX
  5
468
330
356
100
AcDbEntity
  8
ｴｸｽﾃﾘｱ商品
 62
   253
370
    20
100
AcDbFaceRecord
 10
0.0
 20
0.0
 30
0.0
 70
   128
 71
   109
 72
   107
 73
    89
  0
VERTEX
  5
469
330
356
100
AcDbEntity
  8
ｴｸｽﾃﾘｱ商品
 62
   253
370
    20
100
AcDbFaceRecord
 10
0.0
 20
0.0
 30
0.0
 70
   128
 71
   111
 72
   109
 73
    89
  0
VERTEX
  5
46A
330
356
100
AcDbEntity
  8
ｴｸｽﾃﾘｱ商品
 62
   253
370
    20
100
AcDbFaceRecord
 10
0.0
 20
0.0
 30
0.0
 70
   128
 71
   111
 72
    89
 73
    87
  0
VERTEX
  5
46B
330
356
100
AcDbEntity
  8
ｴｸｽﾃﾘｱ商品
 62
   253
370
    20
100
AcDbFaceRecord
 10
0.0
 20
0.0
 30
0.0
 70
   128
 71
   111
 72
    87
 73
    85
  0
VERTEX
  5
46C
330
356
100
AcDbEntity
  8
ｴｸｽﾃﾘｱ商品
 62
   253
370
    20
100
AcDbFaceRecord
 10
0.0
 20
0.0
 30
0.0
 70
   128
 71
   111
 72
    85
 73
    83
  0
VERTEX
  5
46D
330
356
100
AcDbEntity
  8
ｴｸｽﾃﾘｱ商品
 62
   253
370
    20
100
AcDbFaceRecord
 10
0.0
 20
0.0
 30
0.0
 70
   128
 71
   111
 72
    83
 73
    81
  0
VERTEX
  5
46E
330
356
100
AcDbEntity
  8
ｴｸｽﾃﾘｱ商品
 62
   253
370
    20
100
AcDbFaceRecord
 10
0.0
 20
0.0
 30
0.0
 70
   128
 71
   111
 72
    81
 73
    79
  0
VERTEX
  5
46F
330
356
100
AcDbEntity
  8
ｴｸｽﾃﾘｱ商品
 62
   253
370
    20
100
AcDbFaceRecord
 10
0.0
 20
0.0
 30
0.0
 70
   128
 71
   111
 72
    79
 73
    77
  0
VERTEX
  5
470
330
356
100
AcDbEntity
  8
ｴｸｽﾃﾘｱ商品
 62
   253
370
    20
100
AcDbFaceRecord
 10
0.0
 20
0.0
 30
0.0
 70
   128
 71
   111
 72
    77
 73
    75
  0
VERTEX
  5
471
330
356
100
AcDbEntity
  8
ｴｸｽﾃﾘｱ商品
 62
   253
370
    20
100
AcDbFaceRecord
 10
0.0
 20
0.0
 30
0.0
 70
   128
 71
   111
 72
    75
 73
    73
  0
VERTEX
  5
472
330
356
100
AcDbEntity
  8
ｴｸｽﾃﾘｱ商品
 62
   253
370
    20
100
AcDbFaceRecord
 10
0.0
 20
0.0
 30
0.0
 70
   128
 71
   111
 72
    73
 73
    71
  0
VERTEX
  5
473
330
356
100
AcDbEntity
  8
ｴｸｽﾃﾘｱ商品
 62
   253
370
    20
100
AcDbFaceRecord
 10
0.0
 20
0.0
 30
0.0
 70
   128
 71
   115
 72
   111
 73
    71
  0
VERTEX
  5
474
330
356
100
AcDbEntity
  8
ｴｸｽﾃﾘｱ商品
 62
   253
370
    20
100
AcDbFaceRecord
 10
0.0
 20
0.0
 30
0.0
 70
   128
 71
   115
 72
    71
 73
    65
  0
VERTEX
  5
475
330
356
100
AcDbEntity
  8
ｴｸｽﾃﾘｱ商品
 62
   253
370
    20
100
AcDbFaceRecord
 10
0.0
 20
0.0
 30
0.0
 70
   128
 71
   117
 72
   115
 73
    65
  0
VERTEX
  5
476
330
356
100
AcDbEntity
  8
ｴｸｽﾃﾘｱ商品
 62
   253
370
    20
100
AcDbFaceRecord
 10
0.0
 20
0.0
 30
0.0
 70
   128
 71
   117
 72
    65
 73
    63
  0
VERTEX
  5
477
330
356
100
AcDbEntity
  8
ｴｸｽﾃﾘｱ商品
 62
   253
370
    20
100
AcDbFaceRecord
 10
0.0
 20
0.0
 30
0.0
 70
   128
 71
   119
 72
   117
 73
    63
  0
VERTEX
  5
478
330
356
100
AcDbEntity
  8
ｴｸｽﾃﾘｱ商品
 62
   253
370
    20
100
AcDbFaceRecord
 10
0.0
 20
0.0
 30
0.0
 70
   128
 71
   119
 72
    63
 73
    61
  0
VERTEX
  5
479
330
356
100
AcDbEntity
  8
ｴｸｽﾃﾘｱ商品
 62
   253
370
    20
100
AcDbFaceRecord
 10
0.0
 20
0.0
 30
0.0
 70
   128
 71
   121
 72
   119
 73
    61
  0
VERTEX
  5
47A
330
356
100
AcDbEntity
  8
ｴｸｽﾃﾘｱ商品
 62
   253
370
    20
100
AcDbFaceRecord
 10
0.0
 20
0.0
 30
0.0
 70
   128
 71
   121
 72
    61
 73
    59
  0
VERTEX
  5
47B
330
356
100
AcDbEntity
  8
ｴｸｽﾃﾘｱ商品
 62
   253
370
    20
100
AcDbFaceRecord
 10
0.0
 20
0.0
 30
0.0
 70
   128
 71
   123
 72
   121
 73
    59
  0
VERTEX
  5
47C
330
356
100
AcDbEntity
  8
ｴｸｽﾃﾘｱ商品
 62
   253
370
    20
100
AcDbFaceRecord
 10
0.0
 20
0.0
 30
0.0
 70
   128
 71
   123
 72
    59
 73
    57
  0
VERTEX
  5
47D
330
356
100
AcDbEntity
  8
ｴｸｽﾃﾘｱ商品
 62
   253
370
    20
100
AcDbFaceRecord
 10
0.0
 20
0.0
 30
0.0
 70
   128
 71
   125
 72
   123
 73
    57
  0
VERTEX
  5
47E
330
356
100
AcDbEntity
  8
ｴｸｽﾃﾘｱ商品
 62
   253
370
    20
100
AcDbFaceRecord
 10
0.0
 20
0.0
 30
0.0
 70
   128
 71
   125
 72
    57
 73
    55
  0
VERTEX
  5
47F
330
356
100
AcDbEntity
  8
ｴｸｽﾃﾘｱ商品
 62
   253
370
    20
100
AcDbFaceRecord
 10
0.0
 20
0.0
 30
0.0
 70
   128
 71
   127
 72
   125
 73
    55
  0
VERTEX
  5
480
330
356
100
AcDbEntity
  8
ｴｸｽﾃﾘｱ商品
 62
   253
370
    20
100
AcDbFaceRecord
 10
0.0
 20
0.0
 30
0.0
 70
   128
 71
   127
 72
    55
 73
    53
  0
VERTEX
  5
481
330
356
100
AcDbEntity
  8
ｴｸｽﾃﾘｱ商品
 62
   253
370
    20
100
AcDbFaceRecord
 10
0.0
 20
0.0
 30
0.0
 70
   128
 71
   129
 72
   127
 73
    53
  0
VERTEX
  5
482
330
356
100
AcDbEntity
  8
ｴｸｽﾃﾘｱ商品
 62
   253
370
    20
100
AcDbFaceRecord
 10
0.0
 20
0.0
 30
0.0
 70
   128
 71
   129
 72
    53
 73
    51
  0
VERTEX
  5
483
330
356
100
AcDbEntity
  8
ｴｸｽﾃﾘｱ商品
 62
   253
370
    20
100
AcDbFaceRecord
 10
0.0
 20
0.0
 30
0.0
 70
   128
 71
   131
 72
   129
 73
    51
  0
VERTEX
  5
484
330
356
100
AcDbEntity
  8
ｴｸｽﾃﾘｱ商品
 62
   253
370
    20
100
AcDbFaceRecord
 10
0.0
 20
0.0
 30
0.0
 70
   128
 71
   137
 72
   131
 73
    51
  0
VERTEX
  5
485
330
356
100
AcDbEntity
  8
ｴｸｽﾃﾘｱ商品
 62
   253
370
    20
100
AcDbFaceRecord
 10
0.0
 20
0.0
 30
0.0
 70
   128
 71
   137
 72
    51
 73
    49
  0
VERTEX
  5
486
330
356
100
AcDbEntity
  8
ｴｸｽﾃﾘｱ商品
 62
   253
370
    20
100
AcDbFaceRecord
 10
0.0
 20
0.0
 30
0.0
 70
   128
 71
   139
 72
   137
 73
    43
  0
VERTEX
  5
487
330
356
100
AcDbEntity
  8
ｴｸｽﾃﾘｱ商品
 62
   253
370
    20
100
AcDbFaceRecord
 10
0.0
 20
0.0
 30
0.0
 70
   128
 71
   139
 72
    43
 73
    41
  0
VERTEX
  5
488
330
356
100
AcDbEntity
  8
ｴｸｽﾃﾘｱ商品
 62
   253
370
    20
100
AcDbFaceRecord
 10
0.0
 20
0.0
 30
0.0
 70
   128
 71
   141
 72
   139
 73
    41
  0
VERTEX
  5
489
330
356
100
AcDbEntity
  8
ｴｸｽﾃﾘｱ商品
 62
   253
370
    20
100
AcDbFaceRecord
 10
0.0
 20
0.0
 30
0.0
 70
   128
 71
   141
 72
    41
 73
    39
  0
VERTEX
  5
48A
330
356
100
AcDbEntity
  8
ｴｸｽﾃﾘｱ商品
 62
   253
370
    20
100
AcDbFaceRecord
 10
0.0
 20
0.0
 30
0.0
 70
   128
 71
   143
 72
   141
 73
    39
  0
VERTEX
  5
48B
330
356
100
AcDbEntity
  8
ｴｸｽﾃﾘｱ商品
 62
   253
370
    20
100
AcDbFaceRecord
 10
0.0
 20
0.0
 30
0.0
 70
   128
 71
   143
 72
    39
 73
    37
  0
VERTEX
  5
48C
330
356
100
AcDbEntity
  8
ｴｸｽﾃﾘｱ商品
 62
   253
370
    20
100
AcDbFaceRecord
 10
0.0
 20
0.0
 30
0.0
 70
   128
 71
   145
 72
   143
 73
    37
  0
VERTEX
  5
48D
330
356
100
AcDbEntity
  8
ｴｸｽﾃﾘｱ商品
 62
   253
370
    20
100
AcDbFaceRecord
 10
0.0
 20
0.0
 30
0.0
 70
   128
 71
   145
 72
    37
 73
    35
  0
VERTEX
  5
48E
330
356
100
AcDbEntity
  8
ｴｸｽﾃﾘｱ商品
 62
   253
370
    20
100
AcDbFaceRecord
 10
0.0
 20
0.0
 30
0.0
 70
   128
 71
   147
 72
   145
 73
    35
  0
VERTEX
  5
48F
330
356
100
AcDbEntity
  8
ｴｸｽﾃﾘｱ商品
 62
   253
370
    20
100
AcDbFaceRecord
 10
0.0
 20
0.0
 30
0.0
 70
   128
 71
   147
 72
    35
 73
    33
  0
VERTEX
  5
490
330
356
100
AcDbEntity
  8
ｴｸｽﾃﾘｱ商品
 62
   253
370
    20
100
AcDbFaceRecord
 10
0.0
 20
0.0
 30
0.0
 70
   128
 71
   149
 72
   147
 73
    33
  0
VERTEX
  5
491
330
356
100
AcDbEntity
  8
ｴｸｽﾃﾘｱ商品
 62
   253
370
    20
100
AcDbFaceRecord
 10
0.0
 20
0.0
 30
0.0
 70
   128
 71
   149
 72
    33
 73
    31
  0
VERTEX
  5
492
330
356
100
AcDbEntity
  8
ｴｸｽﾃﾘｱ商品
 62
   253
370
    20
100
AcDbFaceRecord
 10
0.0
 20
0.0
 30
0.0
 70
   128
 71
   151
 72
   149
 73
    31
  0
VERTEX
  5
493
330
356
100
AcDbEntity
  8
ｴｸｽﾃﾘｱ商品
 62
   253
370
    20
100
AcDbFaceRecord
 10
0.0
 20
0.0
 30
0.0
 70
   128
 71
   151
 72
    31
 73
    29
  0
VERTEX
  5
494
330
356
100
AcDbEntity
  8
ｴｸｽﾃﾘｱ商品
 62
   253
370
    20
100
AcDbFaceRecord
 10
0.0
 20
0.0
 30
0.0
 70
   128
 71
   153
 72
   151
 73
    29
  0
VERTEX
  5
495
330
356
100
AcDbEntity
  8
ｴｸｽﾃﾘｱ商品
 62
   253
370
    20
100
AcDbFaceRecord
 10
0.0
 20
0.0
 30
0.0
 70
   128
 71
   153
 72
    29
 73
    27
  0
VERTEX
  5
496
330
356
100
AcDbEntity
  8
ｴｸｽﾃﾘｱ商品
 62
   253
370
    20
100
AcDbFaceRecord
 10
0.0
 20
0.0
 30
0.0
 70
   128
 71
   159
 72
   153
 73
    27
  0
VERTEX
  5
497
330
356
100
AcDbEntity
  8
ｴｸｽﾃﾘｱ商品
 62
   253
370
    20
100
AcDbFaceRecord
 10
0.0
 20
0.0
 30
0.0
 70
   128
 71
   159
 72
    27
 73
    21
  0
VERTEX
  5
498
330
356
100
AcDbEntity
  8
ｴｸｽﾃﾘｱ商品
 62
   253
370
    20
100
AcDbFaceRecord
 10
0.0
 20
0.0
 30
0.0
 70
   128
 71
   161
 72
   159
 73
    21
  0
VERTEX
  5
499
330
356
100
AcDbEntity
  8
ｴｸｽﾃﾘｱ商品
 62
   253
370
    20
100
AcDbFaceRecord
 10
0.0
 20
0.0
 30
0.0
 70
   128
 71
   161
 72
    21
 73
    19
  0
VERTEX
  5
49A
330
356
100
AcDbEntity
  8
ｴｸｽﾃﾘｱ商品
 62
   253
370
    20
100
AcDbFaceRecord
 10
0.0
 20
0.0
 30
0.0
 70
   128
 71
   163
 72
   161
 73
    19
  0
VERTEX
  5
49B
330
356
100
AcDbEntity
  8
ｴｸｽﾃﾘｱ商品
 62
   253
370
    20
100
AcDbFaceRecord
 10
0.0
 20
0.0
 30
0.0
 70
   128
 71
   163
 72
    19
 73
    17
  0
VERTEX
  5
49C
330
356
100
AcDbEntity
  8
ｴｸｽﾃﾘｱ商品
 62
   253
370
    20
100
AcDbFaceRecord
 10
0.0
 20
0.0
 30
0.0
 70
   128
 71
   165
 72
   163
 73
    17
  0
VERTEX
  5
49D
330
356
100
AcDbEntity
  8
ｴｸｽﾃﾘｱ商品
 62
   253
370
    20
100
AcDbFaceRecord
 10
0.0
 20
0.0
 30
0.0
 70
   128
 71
   165
 72
    17
 73
    15
  0
VERTEX
  5
49E
330
356
100
AcDbEntity
  8
ｴｸｽﾃﾘｱ商品
 62
   253
370
    20
100
AcDbFaceRecord
 10
0.0
 20
0.0
 30
0.0
 70
   128
 71
   167
 72
   165
 73
    15
  0
VERTEX
  5
49F
330
356
100
AcDbEntity
  8
ｴｸｽﾃﾘｱ商品
 62
   253
370
    20
100
AcDbFaceRecord
 10
0.0
 20
0.0
 30
0.0
 70
   128
 71
   167
 72
    15
 73
    13
  0
VERTEX
  5
4A0
330
356
100
AcDbEntity
  8
ｴｸｽﾃﾘｱ商品
 62
   253
370
    20
100
AcDbFaceRecord
 10
0.0
 20
0.0
 30
0.0
 70
   128
 71
   169
 72
   167
 73
    13
  0
VERTEX
  5
4A1
330
356
100
AcDbEntity
  8
ｴｸｽﾃﾘｱ商品
 62
   253
370
    20
100
AcDbFaceRecord
 10
0.0
 20
0.0
 30
0.0
 70
   128
 71
   169
 72
    13
 73
    11
  0
VERTEX
  5
4A2
330
356
100
AcDbEntity
  8
ｴｸｽﾃﾘｱ商品
 62
   253
370
    20
100
AcDbFaceRecord
 10
0.0
 20
0.0
 30
0.0
 70
   128
 71
   171
 72
   169
 73
    11
  0
VERTEX
  5
4A3
330
356
100
AcDbEntity
  8
ｴｸｽﾃﾘｱ商品
 62
   253
370
    20
100
AcDbFaceRecord
 10
0.0
 20
0.0
 30
0.0
 70
   128
 71
   171
 72
    11
 73
     9
  0
VERTEX
  5
4A4
330
356
100
AcDbEntity
  8
ｴｸｽﾃﾘｱ商品
 62
   253
370
    20
100
AcDbFaceRecord
 10
0.0
 20
0.0
 30
0.0
 70
   128
 71
   173
 72
   171
 73
     9
  0
VERTEX
  5
4A5
330
356
100
AcDbEntity
  8
ｴｸｽﾃﾘｱ商品
 62
   253
370
    20
100
AcDbFaceRecord
 10
0.0
 20
0.0
 30
0.0
 70
   128
 71
   173
 72
     9
 73
     7
  0
VERTEX
  5
4A6
330
356
100
AcDbEntity
  8
ｴｸｽﾃﾘｱ商品
 62
   253
370
    20
100
AcDbFaceRecord
 10
0.0
 20
0.0
 30
0.0
 70
   128
 71
   175
 72
   173
 73
     7
  0
VERTEX
  5
4A7
330
356
100
AcDbEntity
  8
ｴｸｽﾃﾘｱ商品
 62
   253
370
    20
100
AcDbFaceRecord
 10
0.0
 20
0.0
 30
0.0
 70
   128
 71
   175
 72
     7
 73
     5
  0
VERTEX
  5
4A8
330
356
100
AcDbEntity
  8
ｴｸｽﾃﾘｱ商品
 62
   253
370
    20
100
AcDbFaceRecord
 10
0.0
 20
0.0
 30
0.0
 70
   128
 71
    92
 72
    94
 73
    96
  0
VERTEX
  5
4A9
330
356
100
AcDbEntity
  8
ｴｸｽﾃﾘｱ商品
 62
   253
370
    20
100
AcDbFaceRecord
 10
0.0
 20
0.0
 30
0.0
 70
   128
 71
    90
 72
    92
 73
    96
  0
VERTEX
  5
4AA
330
356
100
AcDbEntity
  8
ｴｸｽﾃﾘｱ商品
 62
   253
370
    20
100
AcDbFaceRecord
 10
0.0
 20
0.0
 30
0.0
 70
   128
 71
    90
 72
    96
 73
    98
  0
VERTEX
  5
4AB
330
356
100
AcDbEntity
  8
ｴｸｽﾃﾘｱ商品
 62
   253
370
    20
100
AcDbFaceRecord
 10
0.0
 20
0.0
 30
0.0
 70
   128
 71
    90
 72
    98
 73
   100
  0
VERTEX
  5
4AC
330
356
100
AcDbEntity
  8
ｴｸｽﾃﾘｱ商品
 62
   253
370
    20
100
AcDbFaceRecord
 10
0.0
 20
0.0
 30
0.0
 70
   128
 71
    90
 72
   100
 73
   102
  0
VERTEX
  5
4AD
330
356
100
AcDbEntity
  8
ｴｸｽﾃﾘｱ商品
 62
   253
370
    20
100
AcDbFaceRecord
 10
0.0
 20
0.0
 30
0.0
 70
   128
 71
    90
 72
   102
 73
   104
  0
VERTEX
  5
4AE
330
356
100
AcDbEntity
  8
ｴｸｽﾃﾘｱ商品
 62
   253
370
    20
100
AcDbFaceRecord
 10
0.0
 20
0.0
 30
0.0
 70
   128
 71
    90
 72
   104
 73
   106
  0
VERTEX
  5
4AF
330
356
100
AcDbEntity
  8
ｴｸｽﾃﾘｱ商品
 62
   253
370
    20
100
AcDbFaceRecord
 10
0.0
 20
0.0
 30
0.0
 70
   128
 71
    90
 72
   106
 73
   108
  0
VERTEX
  5
4B0
330
356
100
AcDbEntity
  8
ｴｸｽﾃﾘｱ商品
 62
   253
370
    20
100
AcDbFaceRecord
 10
0.0
 20
0.0
 30
0.0
 70
   128
 71
    90
 72
   108
 73
   110
  0
VERTEX
  5
4B1
330
356
100
AcDbEntity
  8
ｴｸｽﾃﾘｱ商品
 62
   253
370
    20
100
AcDbFaceRecord
 10
0.0
 20
0.0
 30
0.0
 70
   128
 71
    90
 72
   110
 73
   112
  0
VERTEX
  5
4B2
330
356
100
AcDbEntity
  8
ｴｸｽﾃﾘｱ商品
 62
   253
370
    20
100
AcDbFaceRecord
 10
0.0
 20
0.0
 30
0.0
 70
   128
 71
    88
 72
    90
 73
   112
  0
VERTEX
  5
4B3
330
356
100
AcDbEntity
  8
ｴｸｽﾃﾘｱ商品
 62
   253
370
    20
100
AcDbFaceRecord
 10
0.0
 20
0.0
 30
0.0
 70
   128
 71
    86
 72
    88
 73
   112
  0
VERTEX
  5
4B4
330
356
100
AcDbEntity
  8
ｴｸｽﾃﾘｱ商品
 62
   253
370
    20
100
AcDbFaceRecord
 10
0.0
 20
0.0
 30
0.0
 70
   128
 71
    84
 72
    86
 73
   112
  0
VERTEX
  5
4B5
330
356
100
AcDbEntity
  8
ｴｸｽﾃﾘｱ商品
 62
   253
370
    20
100
AcDbFaceRecord
 10
0.0
 20
0.0
 30
0.0
 70
   128
 71
    82
 72
    84
 73
   112
  0
VERTEX
  5
4B6
330
356
100
AcDbEntity
  8
ｴｸｽﾃﾘｱ商品
 62
   253
370
    20
100
AcDbFaceRecord
 10
0.0
 20
0.0
 30
0.0
 70
   128
 71
    80
 72
    82
 73
   112
  0
VERTEX
  5
4B7
330
356
100
AcDbEntity
  8
ｴｸｽﾃﾘｱ商品
 62
   253
370
    20
100
AcDbFaceRecord
 10
0.0
 20
0.0
 30
0.0
 70
   128
 71
    78
 72
    80
 73
   112
  0
VERTEX
  5
4B8
330
356
100
AcDbEntity
  8
ｴｸｽﾃﾘｱ商品
 62
   253
370
    20
100
AcDbFaceRecord
 10
0.0
 20
0.0
 30
0.0
 70
   128
 71
    76
 72
    78
 73
   112
  0
VERTEX
  5
4B9
330
356
100
AcDbEntity
  8
ｴｸｽﾃﾘｱ商品
 62
   253
370
    20
100
AcDbFaceRecord
 10
0.0
 20
0.0
 30
0.0
 70
   128
 71
    74
 72
    76
 73
   112
  0
VERTEX
  5
4BA
330
356
100
AcDbEntity
  8
ｴｸｽﾃﾘｱ商品
 62
   253
370
    20
100
AcDbFaceRecord
 10
0.0
 20
0.0
 30
0.0
 70
   128
 71
    72
 72
    74
 73
   112
  0
VERTEX
  5
4BB
330
356
100
AcDbEntity
  8
ｴｸｽﾃﾘｱ商品
 62
   253
370
    20
100
AcDbFaceRecord
 10
0.0
 20
0.0
 30
0.0
 70
   128
 71
    66
 72
    72
 73
   112
  0
VERTEX
  5
4BC
330
356
100
AcDbEntity
  8
ｴｸｽﾃﾘｱ商品
 62
   253
370
    20
100
AcDbFaceRecord
 10
0.0
 20
0.0
 30
0.0
 70
   128
 71
    66
 72
   112
 73
   116
  0
VERTEX
  5
4BD
330
356
100
AcDbEntity
  8
ｴｸｽﾃﾘｱ商品
 62
   253
370
    20
100
AcDbFaceRecord
 10
0.0
 20
0.0
 30
0.0
 70
   128
 71
    64
 72
    66
 73
   116
  0
VERTEX
  5
4BE
330
356
100
AcDbEntity
  8
ｴｸｽﾃﾘｱ商品
 62
   253
370
    20
100
AcDbFaceRecord
 10
0.0
 20
0.0
 30
0.0
 70
   128
 71
    64
 72
   116
 73
   118
  0
VERTEX
  5
4BF
330
356
100
AcDbEntity
  8
ｴｸｽﾃﾘｱ商品
 62
   253
370
    20
100
AcDbFaceRecord
 10
0.0
 20
0.0
 30
0.0
 70
   128
 71
    62
 72
    64
 73
   118
  0
VERTEX
  5
4C0
330
356
100
AcDbEntity
  8
ｴｸｽﾃﾘｱ商品
 62
   253
370
    20
100
AcDbFaceRecord
 10
0.0
 20
0.0
 30
0.0
 70
   128
 71
    62
 72
   118
 73
   120
  0
VERTEX
  5
4C1
330
356
100
AcDbEntity
  8
ｴｸｽﾃﾘｱ商品
 62
   253
370
    20
100
AcDbFaceRecord
 10
0.0
 20
0.0
 30
0.0
 70
   128
 71
    60
 72
    62
 73
   120
  0
VERTEX
  5
4C2
330
356
100
AcDbEntity
  8
ｴｸｽﾃﾘｱ商品
 62
   253
370
    20
100
AcDbFaceRecord
 10
0.0
 20
0.0
 30
0.0
 70
   128
 71
    60
 72
   120
 73
   122
  0
VERTEX
  5
4C3
330
356
100
AcDbEntity
  8
ｴｸｽﾃﾘｱ商品
 62
   253
370
    20
100
AcDbFaceRecord
 10
0.0
 20
0.0
 30
0.0
 70
   128
 71
    58
 72
    60
 73
   122
  0
VERTEX
  5
4C4
330
356
100
AcDbEntity
  8
ｴｸｽﾃﾘｱ商品
 62
   253
370
    20
100
AcDbFaceRecord
 10
0.0
 20
0.0
 30
0.0
 70
   128
 71
    58
 72
   122
 73
   124
  0
VERTEX
  5
4C5
330
356
100
AcDbEntity
  8
ｴｸｽﾃﾘｱ商品
 62
   253
370
    20
100
AcDbFaceRecord
 10
0.0
 20
0.0
 30
0.0
 70
   128
 71
    56
 72
    58
 73
   124
  0
VERTEX
  5
4C6
330
356
100
AcDbEntity
  8
ｴｸｽﾃﾘｱ商品
 62
   253
370
    20
100
AcDbFaceRecord
 10
0.0
 20
0.0
 30
0.0
 70
   128
 71
    56
 72
   124
 73
   126
  0
VERTEX
  5
4C7
330
356
100
AcDbEntity
  8
ｴｸｽﾃﾘｱ商品
 62
   253
370
    20
100
AcDbFaceRecord
 10
0.0
 20
0.0
 30
0.0
 70
   128
 71
    54
 72
    56
 73
   126
  0
VERTEX
  5
4C8
330
356
100
AcDbEntity
  8
ｴｸｽﾃﾘｱ商品
 62
   253
370
    20
100
AcDbFaceRecord
 10
0.0
 20
0.0
 30
0.0
 70
   128
 71
    54
 72
   126
 73
   128
  0
VERTEX
  5
4C9
330
356
100
AcDbEntity
  8
ｴｸｽﾃﾘｱ商品
 62
   253
370
    20
100
AcDbFaceRecord
 10
0.0
 20
0.0
 30
0.0
 70
   128
 71
    52
 72
    54
 73
   128
  0
VERTEX
  5
4CA
330
356
100
AcDbEntity
  8
ｴｸｽﾃﾘｱ商品
 62
   253
370
    20
100
AcDbFaceRecord
 10
0.0
 20
0.0
 30
0.0
 70
   128
 71
    52
 72
   128
 73
   130
  0
VERTEX
  5
4CB
330
356
100
AcDbEntity
  8
ｴｸｽﾃﾘｱ商品
 62
   253
370
    20
100
AcDbFaceRecord
 10
0.0
 20
0.0
 30
0.0
 70
   128
 71
    50
 72
    52
 73
   130
  0
VERTEX
  5
4CC
330
356
100
AcDbEntity
  8
ｴｸｽﾃﾘｱ商品
 62
   253
370
    20
100
AcDbFaceRecord
 10
0.0
 20
0.0
 30
0.0
 70
   128
 71
    44
 72
    50
 73
   130
  0
VERTEX
  5
4CD
330
356
100
AcDbEntity
  8
ｴｸｽﾃﾘｱ商品
 62
   253
370
    20
100
AcDbFaceRecord
 10
0.0
 20
0.0
 30
0.0
 70
   128
 71
    44
 72
   130
 73
   132
  0
VERTEX
  5
4CE
330
356
100
AcDbEntity
  8
ｴｸｽﾃﾘｱ商品
 62
   253
370
    20
100
AcDbFaceRecord
 10
0.0
 20
0.0
 30
0.0
 70
   128
 71
    42
 72
    44
 73
   138
  0
VERTEX
  5
4CF
330
356
100
AcDbEntity
  8
ｴｸｽﾃﾘｱ商品
 62
   253
370
    20
100
AcDbFaceRecord
 10
0.0
 20
0.0
 30
0.0
 70
   128
 71
    42
 72
   138
 73
   140
  0
VERTEX
  5
4D0
330
356
100
AcDbEntity
  8
ｴｸｽﾃﾘｱ商品
 62
   253
370
    20
100
AcDbFaceRecord
 10
0.0
 20
0.0
 30
0.0
 70
   128
 71
    40
 72
    42
 73
   140
  0
VERTEX
  5
4D1
330
356
100
AcDbEntity
  8
ｴｸｽﾃﾘｱ商品
 62
   253
370
    20
100
AcDbFaceRecord
 10
0.0
 20
0.0
 30
0.0
 70
   128
 71
    40
 72
   140
 73
   142
  0
VERTEX
  5
4D2
330
356
100
AcDbEntity
  8
ｴｸｽﾃﾘｱ商品
 62
   253
370
    20
100
AcDbFaceRecord
 10
0.0
 20
0.0
 30
0.0
 70
   128
 71
    38
 72
    40
 73
   142
  0
VERTEX
  5
4D3
330
356
100
AcDbEntity
  8
ｴｸｽﾃﾘｱ商品
 62
   253
370
    20
100
AcDbFaceRecord
 10
0.0
 20
0.0
 30
0.0
 70
   128
 71
    38
 72
   142
 73
   144
  0
VERTEX
  5
4D4
330
356
100
AcDbEntity
  8
ｴｸｽﾃﾘｱ商品
 62
   253
370
    20
100
AcDbFaceRecord
 10
0.0
 20
0.0
 30
0.0
 70
   128
 71
    36
 72
    38
 73
   144
  0
VERTEX
  5
4D5
330
356
100
AcDbEntity
  8
ｴｸｽﾃﾘｱ商品
 62
   253
370
    20
100
AcDbFaceRecord
 10
0.0
 20
0.0
 30
0.0
 70
   128
 71
    36
 72
   144
 73
   146
  0
VERTEX
  5
4D6
330
356
100
AcDbEntity
  8
ｴｸｽﾃﾘｱ商品
 62
   253
370
    20
100
AcDbFaceRecord
 10
0.0
 20
0.0
 30
0.0
 70
   128
 71
    34
 72
    36
 73
   146
  0
VERTEX
  5
4D7
330
356
100
AcDbEntity
  8
ｴｸｽﾃﾘｱ商品
 62
   253
370
    20
100
AcDbFaceRecord
 10
0.0
 20
0.0
 30
0.0
 70
   128
 71
    34
 72
   146
 73
   148
  0
VERTEX
  5
4D8
330
356
100
AcDbEntity
  8
ｴｸｽﾃﾘｱ商品
 62
   253
370
    20
100
AcDbFaceRecord
 10
0.0
 20
0.0
 30
0.0
 70
   128
 71
    32
 72
    34
 73
   148
  0
VERTEX
  5
4D9
330
356
100
AcDbEntity
  8
ｴｸｽﾃﾘｱ商品
 62
   253
370
    20
100
AcDbFaceRecord
 10
0.0
 20
0.0
 30
0.0
 70
   128
 71
    32
 72
   148
 73
   150
  0
VERTEX
  5
4DA
330
356
100
AcDbEntity
  8
ｴｸｽﾃﾘｱ商品
 62
   253
370
    20
100
AcDbFaceRecord
 10
0.0
 20
0.0
 30
0.0
 70
   128
 71
    30
 72
    32
 73
   150
  0
VERTEX
  5
4DB
330
356
100
AcDbEntity
  8
ｴｸｽﾃﾘｱ商品
 62
   253
370
    20
100
AcDbFaceRecord
 10
0.0
 20
0.0
 30
0.0
 70
   128
 71
    30
 72
   150
 73
   152
  0
VERTEX
  5
4DC
330
356
100
AcDbEntity
  8
ｴｸｽﾃﾘｱ商品
 62
   253
370
    20
100
AcDbFaceRecord
 10
0.0
 20
0.0
 30
0.0
 70
   128
 71
    28
 72
    30
 73
   152
  0
VERTEX
  5
4DD
330
356
100
AcDbEntity
  8
ｴｸｽﾃﾘｱ商品
 62
   253
370
    20
100
AcDbFaceRecord
 10
0.0
 20
0.0
 30
0.0
 70
   128
 71
    28
 72
   152
 73
   154
  0
VERTEX
  5
4DE
330
356
100
AcDbEntity
  8
ｴｸｽﾃﾘｱ商品
 62
   253
370
    20
100
AcDbFaceRecord
 10
0.0
 20
0.0
 30
0.0
 70
   128
 71
    22
 72
    28
 73
   154
  0
VERTEX
  5
4DF
330
356
100
AcDbEntity
  8
ｴｸｽﾃﾘｱ商品
 62
   253
370
    20
100
AcDbFaceRecord
 10
0.0
 20
0.0
 30
0.0
 70
   128
 71
    22
 72
   154
 73
   160
  0
VERTEX
  5
4E0
330
356
100
AcDbEntity
  8
ｴｸｽﾃﾘｱ商品
 62
   253
370
    20
100
AcDbFaceRecord
 10
0.0
 20
0.0
 30
0.0
 70
   128
 71
    20
 72
    22
 73
   160
  0
VERTEX
  5
4E1
330
356
100
AcDbEntity
  8
ｴｸｽﾃﾘｱ商品
 62
   253
370
    20
100
AcDbFaceRecord
 10
0.0
 20
0.0
 30
0.0
 70
   128
 71
    20
 72
   160
 73
   162
  0
VERTEX
  5
4E2
330
356
100
AcDbEntity
  8
ｴｸｽﾃﾘｱ商品
 62
   253
370
    20
100
AcDbFaceRecord
 10
0.0
 20
0.0
 30
0.0
 70
   128
 71
    18
 72
    20
 73
   162
  0
VERTEX
  5
4E3
330
356
100
AcDbEntity
  8
ｴｸｽﾃﾘｱ商品
 62
   253
370
    20
100
AcDbFaceRecord
 10
0.0
 20
0.0
 30
0.0
 70
   128
 71
    18
 72
   162
 73
   164
  0
VERTEX
  5
4E4
330
356
100
AcDbEntity
  8
ｴｸｽﾃﾘｱ商品
 62
   253
370
    20
100
AcDbFaceRecord
 10
0.0
 20
0.0
 30
0.0
 70
   128
 71
    16
 72
    18
 73
   164
  0
VERTEX
  5
4E5
330
356
100
AcDbEntity
  8
ｴｸｽﾃﾘｱ商品
 62
   253
370
    20
100
AcDbFaceRecord
 10
0.0
 20
0.0
 30
0.0
 70
   128
 71
    16
 72
   164
 73
   166
  0
VERTEX
  5
4E6
330
356
100
AcDbEntity
  8
ｴｸｽﾃﾘｱ商品
 62
   253
370
    20
100
AcDbFaceRecord
 10
0.0
 20
0.0
 30
0.0
 70
   128
 71
    14
 72
    16
 73
   166
  0
VERTEX
  5
4E7
330
356
100
AcDbEntity
  8
ｴｸｽﾃﾘｱ商品
 62
   253
370
    20
100
AcDbFaceRecord
 10
0.0
 20
0.0
 30
0.0
 70
   128
 71
    14
 72
   166
 73
   168
  0
VERTEX
  5
4E8
330
356
100
AcDbEntity
  8
ｴｸｽﾃﾘｱ商品
 62
   253
370
    20
100
AcDbFaceRecord
 10
0.0
 20
0.0
 30
0.0
 70
   128
 71
    12
 72
    14
 73
   168
  0
VERTEX
  5
4E9
330
356
100
AcDbEntity
  8
ｴｸｽﾃﾘｱ商品
 62
   253
370
    20
100
AcDbFaceRecord
 10
0.0
 20
0.0
 30
0.0
 70
   128
 71
    12
 72
   168
 73
   170
  0
VERTEX
  5
4EA
330
356
100
AcDbEntity
  8
ｴｸｽﾃﾘｱ商品
 62
   253
370
    20
100
AcDbFaceRecord
 10
0.0
 20
0.0
 30
0.0
 70
   128
 71
    10
 72
    12
 73
   170
  0
VERTEX
  5
4EB
330
356
100
AcDbEntity
  8
ｴｸｽﾃﾘｱ商品
 62
   253
370
    20
100
AcDbFaceRecord
 10
0.0
 20
0.0
 30
0.0
 70
   128
 71
    10
 72
   170
 73
   172
  0
VERTEX
  5
4EC
330
356
100
AcDbEntity
  8
ｴｸｽﾃﾘｱ商品
 62
   253
370
    20
100
AcDbFaceRecord
 10
0.0
 20
0.0
 30
0.0
 70
   128
 71
     8
 72
    10
 73
   172
  0
VERTEX
  5
4ED
330
356
100
AcDbEntity
  8
ｴｸｽﾃﾘｱ商品
 62
   253
370
    20
100
AcDbFaceRecord
 10
0.0
 20
0.0
 30
0.0
 70
   128
 71
     8
 72
   172
 73
   174
  0
VERTEX
  5
4EE
330
356
100
AcDbEntity
  8
ｴｸｽﾃﾘｱ商品
 62
   253
370
    20
100
AcDbFaceRecord
 10
0.0
 20
0.0
 30
0.0
 70
   128
 71
     6
 72
     8
 73
   174
  0
VERTEX
  5
4EF
330
356
100
AcDbEntity
  8
ｴｸｽﾃﾘｱ商品
 62
   253
370
    20
100
AcDbFaceRecord
 10
0.0
 20
0.0
 30
0.0
 70
   128
 71
     6
 72
   174
 73
   176
  0
SEQEND
  5
357
330
356
100
AcDbEntity
  8
ｴｸｽﾃﾘｱ商品
370
    20
  0
POLYLINE
  5
4F0
330
3C
100
AcDbEntity
  8
ｴｸｽﾃﾘｱ商品
 62
   253
370
    20
100
AcDbPolyFaceMesh
 66
     1
 10
0.0
 20
0.0
 30
0.0
 70
    64
 71
    16
 72
    18
  0
VERTEX
  5
4F2
330
4F0
100
AcDbEntity
  8
ｴｸｽﾃﾘｱ商品
 62
   253
370
    20
100
AcDbVertex
100
AcDbPolyFaceMeshVertex
 10
3876.618082413168
 20
1128.918479908237
 30
11.0
 70
   192
  0
VERTEX
  5
4F3
330
4F0
100
AcDbEntity
  8
ｴｸｽﾃﾘｱ商品
 62
   253
370
    20
100
AcDbVertex
100
AcDbPolyFaceMeshVertex
 10
3876.618082413168
 20
1128.918479908237
 30
441.0
 70
   192
  0
VERTEX
  5
4F4
330
4F0
100
AcDbEntity
  8
ｴｸｽﾃﾘｱ商品
 62
   253
370
    20
100
AcDbVertex
100
AcDbPolyFaceMeshVertex
 10
3895.118082413168
 20
1128.918479908237
 30
441.0
 70
   192
  0
VERTEX
  5
4F5
330
4F0
100
AcDbEntity
  8
ｴｸｽﾃﾘｱ商品
 62
   253
370
    20
100
AcDbVertex
100
AcDbPolyFaceMeshVertex
 10
3895.118082413168
 20
1128.918479908237
 30
11.0
 70
   192
  0
VERTEX
  5
4F6
330
4F0
100
AcDbEntity
  8
ｴｸｽﾃﾘｱ商品
 62
   253
370
    20
100
AcDbVertex
100
AcDbPolyFaceMeshVertex
 10
3895.118082413168
 20
1132.418479908237
 30
441.0
 70
   192
  0
VERTEX
  5
4F7
330
4F0
100
AcDbEntity
  8
ｴｸｽﾃﾘｱ商品
 62
   253
370
    20
100
AcDbVertex
100
AcDbPolyFaceMeshVertex
 10
3895.118082413168
 20
1132.418479908237
 30
11.0
 70
   192
  0
VERTEX
  5
4F8
330
4F0
100
AcDbEntity
  8
ｴｸｽﾃﾘｱ商品
 62
   253
370
    20
100
AcDbVertex
100
AcDbPolyFaceMeshVertex
 10
3931.618082413168
 20
1132.418479908237
 30
441.0
 70
   192
  0
VERTEX
  5
4F9
330
4F0
100
AcDbEntity
  8
ｴｸｽﾃﾘｱ商品
 62
   253
370
    20
100
AcDbVertex
100
AcDbPolyFaceMeshVertex
 10
3931.618082413168
 20
1132.418479908237
 30
11.0
 70
   192
  0
VERTEX
  5
4FA
330
4F0
100
AcDbEntity
  8
ｴｸｽﾃﾘｱ商品
 62
   253
370
    20
100
AcDbVertex
100
AcDbPolyFaceMeshVertex
 10
3931.618082413168
 20
1095.418479908237
 30
441.0
 70
   192
  0
VERTEX
  5
4FB
330
4F0
100
AcDbEntity
  8
ｴｸｽﾃﾘｱ商品
 62
   253
370
    20
100
AcDbVertex
100
AcDbPolyFaceMeshVertex
 10
3931.618082413168
 20
1095.418479908237
 30
11.0
 70
   192
  0
VERTEX
  5
4FC
330
4F0
100
AcDbEntity
  8
ｴｸｽﾃﾘｱ商品
 62
   253
370
    20
100
AcDbVertex
100
AcDbPolyFaceMeshVertex
 10
3895.118082413168
 20
1095.418479908237
 30
441.0
 70
   192
  0
VERTEX
  5
4FD
330
4F0
100
AcDbEntity
  8
ｴｸｽﾃﾘｱ商品
 62
   253
370
    20
100
AcDbVertex
100
AcDbPolyFaceMeshVertex
 10
3895.118082413168
 20
1095.418479908237
 30
11.0
 70
   192
  0
VERTEX
  5
4FE
330
4F0
100
AcDbEntity
  8
ｴｸｽﾃﾘｱ商品
 62
   253
370
    20
100
AcDbVertex
100
AcDbPolyFaceMeshVertex
 10
3895.118082413168
 20
1098.918479908237
 30
441.0
 70
   192
  0
VERTEX
  5
4FF
330
4F0
100
AcDbEntity
  8
ｴｸｽﾃﾘｱ商品
 62
   253
370
    20
100
AcDbVertex
100
AcDbPolyFaceMeshVertex
 10
3895.118082413168
 20
1098.918479908237
 30
11.0
 70
   192
  0
VERTEX
  5
500
330
4F0
100
AcDbEntity
  8
ｴｸｽﾃﾘｱ商品
 62
   253
370
    20
100
AcDbVertex
100
AcDbPolyFaceMeshVertex
 10
3876.618082413168
 20
1098.918479908237
 30
441.0
 70
   192
  0
VERTEX
  5
501
330
4F0
100
AcDbEntity
  8
ｴｸｽﾃﾘｱ商品
 62
   253
370
    20
100
AcDbVertex
100
AcDbPolyFaceMeshVertex
 10
3876.618082413168
 20
1098.918479908237
 30
11.0
 70
   192
  0
VERTEX
  5
502
330
4F0
100
AcDbEntity
  8
ｴｸｽﾃﾘｱ商品
 62
   253
370
    20
100
AcDbFaceRecord
 10
0.0
 20
0.0
 30
0.0
 70
   128
 71
     1
 72
     2
 73
     3
 74
     4
  0
VERTEX
  5
503
330
4F0
100
AcDbEntity
  8
ｴｸｽﾃﾘｱ商品
 62
   253
370
    20
100
AcDbFaceRecord
 10
0.0
 20
0.0
 30
0.0
 70
   128
 71
     4
 72
     3
 73
     5
 74
     6
  0
VERTEX
  5
504
330
4F0
100
AcDbEntity
  8
ｴｸｽﾃﾘｱ商品
 62
   253
370
    20
100
AcDbFaceRecord
 10
0.0
 20
0.0
 30
0.0
 70
   128
 71
     6
 72
     5
 73
     7
 74
     8
  0
VERTEX
  5
505
330
4F0
100
AcDbEntity
  8
ｴｸｽﾃﾘｱ商品
 62
   253
370
    20
100
AcDbFaceRecord
 10
0.0
 20
0.0
 30
0.0
 70
   128
 71
     8
 72
     7
 73
     9
 74
    10
  0
VERTEX
  5
506
330
4F0
100
AcDbEntity
  8
ｴｸｽﾃﾘｱ商品
 62
   253
370
    20
100
AcDbFaceRecord
 10
0.0
 20
0.0
 30
0.0
 70
   128
 71
    10
 72
     9
 73
    11
 74
    12
  0
VERTEX
  5
507
330
4F0
100
AcDbEntity
  8
ｴｸｽﾃﾘｱ商品
 62
   253
370
    20
100
AcDbFaceRecord
 10
0.0
 20
0.0
 30
0.0
 70
   128
 71
    12
 72
    11
 73
    13
 74
    14
  0
VERTEX
  5
508
330
4F0
100
AcDbEntity
  8
ｴｸｽﾃﾘｱ商品
 62
   253
370
    20
100
AcDbFaceRecord
 10
0.0
 20
0.0
 30
0.0
 70
   128
 71
    14
 72
    13
 73
    15
 74
    16
  0
VERTEX
  5
509
330
4F0
100
AcDbEntity
  8
ｴｸｽﾃﾘｱ商品
 62
   253
370
    20
100
AcDbFaceRecord
 10
0.0
 20
0.0
 30
0.0
 70
   128
 71
    16
 72
    15
 73
     2
 74
     1
  0
VERTEX
  5
50A
330
4F0
100
AcDbEntity
  8
ｴｸｽﾃﾘｱ商品
 62
   253
370
    20
100
AcDbFaceRecord
 10
0.0
 20
0.0
 30
0.0
 70
   128
 71
    14
 72
    16
 73
     1
  0
VERTEX
  5
50B
330
4F0
100
AcDbEntity
  8
ｴｸｽﾃﾘｱ商品
 62
   253
370
    20
100
AcDbFaceRecord
 10
0.0
 20
0.0
 30
0.0
 70
   128
 71
    14
 72
     1
 73
     4
  0
VERTEX
  5
50C
330
4F0
100
AcDbEntity
  8
ｴｸｽﾃﾘｱ商品
 62
   253
370
    20
100
AcDbFaceRecord
 10
0.0
 20
0.0
 30
0.0
 70
   128
 71
    10
 72
    12
 73
     4
  0
VERTEX
  5
50D
330
4F0
100
AcDbEntity
  8
ｴｸｽﾃﾘｱ商品
 62
   253
370
    20
100
AcDbFaceRecord
 10
0.0
 20
0.0
 30
0.0
 70
   128
 71
    10
 72
     4
 73
     8
  0
VERTEX
  5
50E
330
4F0
100
AcDbEntity
  8
ｴｸｽﾃﾘｱ商品
 62
   253
370
    20
100
AcDbFaceRecord
 10
0.0
 20
0.0
 30
0.0
 70
   128
 71
     8
 72
     4
 73
     6
  0
VERTEX
  5
50F
330
4F0
100
AcDbEntity
  8
ｴｸｽﾃﾘｱ商品
 62
   253
370
    20
100
AcDbFaceRecord
 10
0.0
 20
0.0
 30
0.0
 70
   128
 71
     3
 72
     2
 73
    15
  0
VERTEX
  5
510
330
4F0
100
AcDbEntity
  8
ｴｸｽﾃﾘｱ商品
 62
   253
370
    20
100
AcDbFaceRecord
 10
0.0
 20
0.0
 30
0.0
 70
   128
 71
     3
 72
    15
 73
    13
  0
VERTEX
  5
511
330
4F0
100
AcDbEntity
  8
ｴｸｽﾃﾘｱ商品
 62
   253
370
    20
100
AcDbFaceRecord
 10
0.0
 20
0.0
 30
0.0
 70
   128
 71
     7
 72
     5
 73
    13
  0
VERTEX
  5
512
330
4F0
100
AcDbEntity
  8
ｴｸｽﾃﾘｱ商品
 62
   253
370
    20
100
AcDbFaceRecord
 10
0.0
 20
0.0
 30
0.0
 70
   128
 71
     7
 72
    13
 73
     9
  0
VERTEX
  5
513
330
4F0
100
AcDbEntity
  8
ｴｸｽﾃﾘｱ商品
 62
   253
370
    20
100
AcDbFaceRecord
 10
0.0
 20
0.0
 30
0.0
 70
   128
 71
     9
 72
    13
 73
    11
  0
SEQEND
  5
4F1
330
4F0
100
AcDbEntity
  8
ｴｸｽﾃﾘｱ商品
370
    20
  0
POLYLINE
  5
514
330
3C
100
AcDbEntity
  8
ｴｸｽﾃﾘｱ商品
 62
   253
370
    20
100
AcDbPolyFaceMesh
 66
     1
 10
0.0
 20
0.0
 30
0.0
 70
    64
 71
    16
 72
    18
  0
VERTEX
  5
516
330
514
100
AcDbEntity
  8
ｴｸｽﾃﾘｱ商品
 62
   253
370
    20
100
AcDbVertex
100
AcDbPolyFaceMeshVertex
 10
3876.618082413168
 20
758.918479908237
 30
11.0
 70
   192
  0
VERTEX
  5
517
330
514
100
AcDbEntity
  8
ｴｸｽﾃﾘｱ商品
 62
   253
370
    20
100
AcDbVertex
100
AcDbPolyFaceMeshVertex
 10
3876.618082413168
 20
758.918479908237
 30
441.0
 70
   192
  0
VERTEX
  5
518
330
514
100
AcDbEntity
  8
ｴｸｽﾃﾘｱ商品
 62
   253
370
    20
100
AcDbVertex
100
AcDbPolyFaceMeshVertex
 10
3895.118082413168
 20
758.918479908237
 30
441.0
 70
   192
  0
VERTEX
  5
519
330
514
100
AcDbEntity
  8
ｴｸｽﾃﾘｱ商品
 62
   253
370
    20
100
AcDbVertex
100
AcDbPolyFaceMeshVertex
 10
3895.118082413168
 20
758.918479908237
 30
11.0
 70
   192
  0
VERTEX
  5
51A
330
514
100
AcDbEntity
  8
ｴｸｽﾃﾘｱ商品
 62
   253
370
    20
100
AcDbVertex
100
AcDbPolyFaceMeshVertex
 10
3895.118082413168
 20
762.4184799082369
 30
441.0
 70
   192
  0
VERTEX
  5
51B
330
514
100
AcDbEntity
  8
ｴｸｽﾃﾘｱ商品
 62
   253
370
    20
100
AcDbVertex
100
AcDbPolyFaceMeshVertex
 10
3895.118082413168
 20
762.4184799082369
 30
11.0
 70
   192
  0
VERTEX
  5
51C
330
514
100
AcDbEntity
  8
ｴｸｽﾃﾘｱ商品
 62
   253
370
    20
100
AcDbVertex
100
AcDbPolyFaceMeshVertex
 10
3931.618082413168
 20
762.4184799082369
 30
441.0
 70
   192
  0
VERTEX
  5
51D
330
514
100
AcDbEntity
  8
ｴｸｽﾃﾘｱ商品
 62
   253
370
    20
100
AcDbVertex
100
AcDbPolyFaceMeshVertex
 10
3931.618082413168
 20
762.4184799082369
 30
11.0
 70
   192
  0
VERTEX
  5
51E
330
514
100
AcDbEntity
  8
ｴｸｽﾃﾘｱ商品
 62
   253
370
    20
100
AcDbVertex
100
AcDbPolyFaceMeshVertex
 10
3931.618082413168
 20
725.418479908237
 30
441.0
 70
   192
  0
VERTEX
  5
51F
330
514
100
AcDbEntity
  8
ｴｸｽﾃﾘｱ商品
 62
   253
370
    20
100
AcDbVertex
100
AcDbPolyFaceMeshVertex
 10
3931.618082413168
 20
725.418479908237
 30
11.0
 70
   192
  0
VERTEX
  5
520
330
514
100
AcDbEntity
  8
ｴｸｽﾃﾘｱ商品
 62
   253
370
    20
100
AcDbVertex
100
AcDbPolyFaceMeshVertex
 10
3895.118082413168
 20
725.418479908237
 30
441.0
 70
   192
  0
VERTEX
  5
521
330
514
100
AcDbEntity
  8
ｴｸｽﾃﾘｱ商品
 62
   253
370
    20
100
AcDbVertex
100
AcDbPolyFaceMeshVertex
 10
3895.118082413168
 20
725.418479908237
 30
11.0
 70
   192
  0
VERTEX
  5
522
330
514
100
AcDbEntity
  8
ｴｸｽﾃﾘｱ商品
 62
   253
370
    20
100
AcDbVertex
100
AcDbPolyFaceMeshVertex
 10
3895.118082413168
 20
728.918479908237
 30
441.0
 70
   192
  0
VERTEX
  5
523
330
514
100
AcDbEntity
  8
ｴｸｽﾃﾘｱ商品
 62
   253
370
    20
100
AcDbVertex
100
AcDbPolyFaceMeshVertex
 10
3895.118082413168
 20
728.918479908237
 30
11.0
 70
   192
  0
VERTEX
  5
524
330
514
100
AcDbEntity
  8
ｴｸｽﾃﾘｱ商品
 62
   253
370
    20
100
AcDbVertex
100
AcDbPolyFaceMeshVertex
 10
3876.618082413168
 20
728.918479908237
 30
441.0
 70
   192
  0
VERTEX
  5
525
330
514
100
AcDbEntity
  8
ｴｸｽﾃﾘｱ商品
 62
   253
370
    20
100
AcDbVertex
100
AcDbPolyFaceMeshVertex
 10
3876.618082413168
 20
728.918479908237
 30
11.0
 70
   192
  0
VERTEX
  5
526
330
514
100
AcDbEntity
  8
ｴｸｽﾃﾘｱ商品
 62
   253
370
    20
100
AcDbFaceRecord
 10
0.0
 20
0.0
 30
0.0
 70
   128
 71
     1
 72
     2
 73
     3
 74
     4
  0
VERTEX
  5
527
330
514
100
AcDbEntity
  8
ｴｸｽﾃﾘｱ商品
 62
   253
370
    20
100
AcDbFaceRecord
 10
0.0
 20
0.0
 30
0.0
 70
   128
 71
     4
 72
     3
 73
     5
 74
     6
  0
VERTEX
  5
528
330
514
100
AcDbEntity
  8
ｴｸｽﾃﾘｱ商品
 62
   253
370
    20
100
AcDbFaceRecord
 10
0.0
 20
0.0
 30
0.0
 70
   128
 71
     6
 72
     5
 73
     7
 74
     8
  0
VERTEX
  5
529
330
514
100
AcDbEntity
  8
ｴｸｽﾃﾘｱ商品
 62
   253
370
    20
100
AcDbFaceRecord
 10
0.0
 20
0.0
 30
0.0
 70
   128
 71
     8
 72
     7
 73
     9
 74
    10
  0
VERTEX
  5
52A
330
514
100
AcDbEntity
  8
ｴｸｽﾃﾘｱ商品
 62
   253
370
    20
100
AcDbFaceRecord
 10
0.0
 20
0.0
 30
0.0
 70
   128
 71
    10
 72
     9
 73
    11
 74
    12
  0
VERTEX
  5
52B
330
514
100
AcDbEntity
  8
ｴｸｽﾃﾘｱ商品
 62
   253
370
    20
100
AcDbFaceRecord
 10
0.0
 20
0.0
 30
0.0
 70
   128
 71
    12
 72
    11
 73
    13
 74
    14
  0
VERTEX
  5
52C
330
514
100
AcDbEntity
  8
ｴｸｽﾃﾘｱ商品
 62
   253
370
    20
100
AcDbFaceRecord
 10
0.0
 20
0.0
 30
0.0
 70
   128
 71
    14
 72
    13
 73
    15
 74
    16
  0
VERTEX
  5
52D
330
514
100
AcDbEntity
  8
ｴｸｽﾃﾘｱ商品
 62
   253
370
    20
100
AcDbFaceRecord
 10
0.0
 20
0.0
 30
0.0
 70
   128
 71
    16
 72
    15
 73
     2
 74
     1
  0
VERTEX
  5
52E
330
514
100
AcDbEntity
  8
ｴｸｽﾃﾘｱ商品
 62
   253
370
    20
100
AcDbFaceRecord
 10
0.0
 20
0.0
 30
0.0
 70
   128
 71
    14
 72
    16
 73
     1
  0
VERTEX
  5
52F
330
514
100
AcDbEntity
  8
ｴｸｽﾃﾘｱ商品
 62
   253
370
    20
100
AcDbFaceRecord
 10
0.0
 20
0.0
 30
0.0
 70
   128
 71
    14
 72
     1
 73
     4
  0
VERTEX
  5
530
330
514
100
AcDbEntity
  8
ｴｸｽﾃﾘｱ商品
 62
   253
370
    20
100
AcDbFaceRecord
 10
0.0
 20
0.0
 30
0.0
 70
   128
 71
    10
 72
    12
 73
     4
  0
VERTEX
  5
531
330
514
100
AcDbEntity
  8
ｴｸｽﾃﾘｱ商品
 62
   253
370
    20
100
AcDbFaceRecord
 10
0.0
 20
0.0
 30
0.0
 70
   128
 71
    10
 72
     4
 73
     8
  0
VERTEX
  5
532
330
514
100
AcDbEntity
  8
ｴｸｽﾃﾘｱ商品
 62
   253
370
    20
100
AcDbFaceRecord
 10
0.0
 20
0.0
 30
0.0
 70
   128
 71
     8
 72
     4
 73
     6
  0
VERTEX
  5
533
330
514
100
AcDbEntity
  8
ｴｸｽﾃﾘｱ商品
 62
   253
370
    20
100
AcDbFaceRecord
 10
0.0
 20
0.0
 30
0.0
 70
   128
 71
     3
 72
     2
 73
    15
  0
VERTEX
  5
534
330
514
100
AcDbEntity
  8
ｴｸｽﾃﾘｱ商品
 62
   253
370
    20
100
AcDbFaceRecord
 10
0.0
 20
0.0
 30
0.0
 70
   128
 71
     3
 72
    15
 73
    13
  0
VERTEX
  5
535
330
514
100
AcDbEntity
  8
ｴｸｽﾃﾘｱ商品
 62
   253
370
    20
100
AcDbFaceRecord
 10
0.0
 20
0.0
 30
0.0
 70
   128
 71
     7
 72
     5
 73
    13
  0
VERTEX
  5
536
330
514
100
AcDbEntity
  8
ｴｸｽﾃﾘｱ商品
 62
   253
370
    20
100
AcDbFaceRecord
 10
0.0
 20
0.0
 30
0.0
 70
   128
 71
     7
 72
    13
 73
     9
  0
VERTEX
  5
537
330
514
100
AcDbEntity
  8
ｴｸｽﾃﾘｱ商品
 62
   253
370
    20
100
AcDbFaceRecord
 10
0.0
 20
0.0
 30
0.0
 70
   128
 71
     9
 72
    13
 73
    11
  0
SEQEND
  5
515
330
514
100
AcDbEntity
  8
ｴｸｽﾃﾘｱ商品
370
    20
  0
POLYLINE
  5
538
330
3C
100
AcDbEntity
  8
ｴｸｽﾃﾘｱ商品
 62
   253
370
    20
100
AcDbPolyFaceMesh
 66
     1
 10
0.0
 20
0.0
 30
0.0
 70
    64
 71
    28
 72
    28
  0
VERTEX
  5
53A
330
538
100
AcDbEntity
  8
ｴｸｽﾃﾘｱ商品
 62
   253
370
    20
100
AcDbVertex
100
AcDbPolyFaceMeshVertex
 10
3901.618082413168
 20
1393.918479908237
 30
21.0
 70
   192
  0
VERTEX
  5
53B
330
538
100
AcDbEntity
  8
ｴｸｽﾃﾘｱ商品
 62
   253
370
    20
100
AcDbVertex
100
AcDbPolyFaceMeshVertex
 10
3901.618082413168
 20
543.9184799082367
 30
21.0
 70
   192
  0
VERTEX
  5
53C
330
538
100
AcDbEntity
  8
ｴｸｽﾃﾘｱ商品
 62
   253
370
    20
100
AcDbVertex
100
AcDbPolyFaceMeshVertex
 10
3947.223082413168
 20
498.3134799082364
 30
20.85000000000001
 70
   192
  0
VERTEX
  5
53D
330
538
100
AcDbEntity
  8
ｴｸｽﾃﾘｱ商品
 62
   253
370
    20
100
AcDbVertex
100
AcDbPolyFaceMeshVertex
 10
3947.223082413168
 20
1393.918479908237
 30
20.85000000000001
 70
   192
  0
VERTEX
  5
53E
330
538
100
AcDbEntity
  8
ｴｸｽﾃﾘｱ商品
 62
   253
370
    20
100
AcDbVertex
100
AcDbPolyFaceMeshVertex
 10
3964.323082413169
 20
481.2134799082361
 30
15.37300000000001
 70
   192
  0
VERTEX
  5
53F
330
538
100
AcDbEntity
  8
ｴｸｽﾃﾘｱ商品
 62
   253
370
    20
100
AcDbVertex
100
AcDbPolyFaceMeshVertex
 10
3964.323082413169
 20
1393.918479908237
 30
15.37300000000001
 70
   192
  0
VERTEX
  5
540
330
538
100
AcDbEntity
  8
ｴｸｽﾃﾘｱ商品
 62
   253
370
    20
100
AcDbVertex
100
AcDbPolyFaceMeshVertex
 10
3980.581082413168
 20
464.9554799082368
 30
7.753000000000006
 70
   192
  0
VERTEX
  5
541
330
538
100
AcDbEntity
  8
ｴｸｽﾃﾘｱ商品
 62
   253
370
    20
100
AcDbVertex
100
AcDbPolyFaceMeshVertex
 10
3980.581082413168
 20
1393.918479908237
 30
7.753000000000006
 70
   192
  0
VERTEX
  5
542
330
538
100
AcDbEntity
  8
ｴｸｽﾃﾘｱ商品
 62
   253
370
    20
100
AcDbVertex
100
AcDbPolyFaceMeshVertex
 10
3981.339082413168
 20
464.1974799082366
 30
7.018000000000007
 70
   192
  0
VERTEX
  5
543
330
538
100
AcDbEntity
  8
ｴｸｽﾃﾘｱ商品
 62
   253
370
    20
100
AcDbVertex
100
AcDbPolyFaceMeshVertex
 10
3981.339082413168
 20
1393.918479908237
 30
7.018000000000007
 70
   192
  0
VERTEX
  5
544
330
538
100
AcDbEntity
  8
ｴｸｽﾃﾘｱ商品
 62
   253
370
    20
100
AcDbVertex
100
AcDbPolyFaceMeshVertex
 10
3981.618082413168
 20
463.918479908237
 30
6.000000000002299
 70
   192
  0
VERTEX
  5
545
330
538
100
AcDbEntity
  8
ｴｸｽﾃﾘｱ商品
 62
   253
370
    20
100
AcDbVertex
100
AcDbPolyFaceMeshVertex
 10
3981.618082413168
 20
463.918479908237
 30
6.000000000000007
 70
   192
  0
VERTEX
  5
546
330
538
100
AcDbEntity
  8
ｴｸｽﾃﾘｱ商品
 62
   253
370
    20
100
AcDbVertex
100
AcDbPolyFaceMeshVertex
 10
3981.618082413168
 20
1393.918479908237
 30
6.000000000000007
 70
   192
  0
VERTEX
  5
547
330
538
100
AcDbEntity
  8
ｴｸｽﾃﾘｱ商品
 62
   253
370
    20
100
AcDbVertex
100
AcDbPolyFaceMeshVertex
 10
3981.618082413168
 20
463.918479908237
 30
-39.0
 70
   192
  0
VERTEX
  5
548
330
538
100
AcDbEntity
  8
ｴｸｽﾃﾘｱ商品
 62
   253
370
    20
100
AcDbVertex
100
AcDbPolyFaceMeshVertex
 10
3981.618082413168
 20
1393.918479908237
 30
-39.0
 70
   192
  0
VERTEX
  5
549
330
538
100
AcDbEntity
  8
ｴｸｽﾃﾘｱ商品
 62
   253
370
    20
100
AcDbVertex
100
AcDbPolyFaceMeshVertex
 10
3981.618082413168
 20
463.918479908237
 30
-39.0
 70
   192
  0
VERTEX
  5
54A
330
538
100
AcDbEntity
  8
ｴｸｽﾃﾘｱ商品
 62
   253
370
    20
100
AcDbVertex
100
AcDbPolyFaceMeshVertex
 10
3821.618082413168
 20
623.9184799082365
 30
-39.00000000000001
 70
   192
  0
VERTEX
  5
54B
330
538
100
AcDbEntity
  8
ｴｸｽﾃﾘｱ商品
 62
   253
370
    20
100
AcDbVertex
100
AcDbPolyFaceMeshVertex
 10
3821.618082413168
 20
1393.918479908237
 30
-39.00000000000001
 70
   192
  0
VERTEX
  5
54C
330
538
100
AcDbEntity
  8
ｴｸｽﾃﾘｱ商品
 62
   253
370
    20
100
AcDbVertex
100
AcDbPolyFaceMeshVertex
 10
3821.618082413168
 20
623.9184799082365
 30
5.999999999999996
 70
   192
  0
VERTEX
  5
54D
330
538
100
AcDbEntity
  8
ｴｸｽﾃﾘｱ商品
 62
   253
370
    20
100
AcDbVertex
100
AcDbPolyFaceMeshVertex
 10
3821.618082413168
 20
1393.918479908237
 30
5.999999999999996
 70
   192
  0
VERTEX
  5
54E
330
538
100
AcDbEntity
  8
ｴｸｽﾃﾘｱ商品
 62
   253
370
    20
100
AcDbVertex
100
AcDbPolyFaceMeshVertex
 10
3821.897082413168
 20
623.6394799082369
 30
7.017999999999996
 70
   192
  0
VERTEX
  5
54F
330
538
100
AcDbEntity
  8
ｴｸｽﾃﾘｱ商品
 62
   253
370
    20
100
AcDbVertex
100
AcDbPolyFaceMeshVertex
 10
3821.897082413168
 20
1393.918479908237
 30
7.017999999999996
 70
   192
  0
VERTEX
  5
550
330
538
100
AcDbEntity
  8
ｴｸｽﾃﾘｱ商品
 62
   253
370
    20
100
AcDbVertex
100
AcDbPolyFaceMeshVertex
 10
3822.655082413168
 20
622.8814799082367
 30
7.752999999999996
 70
   192
  0
VERTEX
  5
551
330
538
100
AcDbEntity
  8
ｴｸｽﾃﾘｱ商品
 62
   253
370
    20
100
AcDbVertex
100
AcDbPolyFaceMeshVertex
 10
3822.655082413168
 20
1393.918479908237
 30
7.752999999999996
 70
   192
  0
VERTEX
  5
552
330
538
100
AcDbEntity
  8
ｴｸｽﾃﾘｱ商品
 62
   253
370
    20
100
AcDbVertex
100
AcDbPolyFaceMeshVertex
 10
3838.913082413168
 20
606.6234799082366
 30
15.373
 70
   192
  0
VERTEX
  5
553
330
538
100
AcDbEntity
  8
ｴｸｽﾃﾘｱ商品
 62
   253
370
    20
100
AcDbVertex
100
AcDbPolyFaceMeshVertex
 10
3838.913082413168
 20
1393.918479908237
 30
15.373
 70
   192
  0
VERTEX
  5
554
330
538
100
AcDbEntity
  8
ｴｸｽﾃﾘｱ商品
 62
   253
370
    20
100
AcDbVertex
100
AcDbPolyFaceMeshVertex
 10
3856.617082413168
 20
588.9194799082367
 30
20.962
 70
   192
  0
VERTEX
  5
555
330
538
100
AcDbEntity
  8
ｴｸｽﾃﾘｱ商品
 62
   253
370
    20
100
AcDbVertex
100
AcDbPolyFaceMeshVertex
 10
3856.617082413168
 20
1393.918479908237
 30
20.962
 70
   192
  0
VERTEX
  5
556
330
538
100
AcDbEntity
  8
ｴｸｽﾃﾘｱ商品
 62
   253
370
    20
100
AcDbFaceRecord
 10
0.0
 20
0.0
 30
0.0
 70
   128
 71
     1
 72
     2
 73
     3
 74
     4
  0
VERTEX
  5
557
330
538
100
AcDbEntity
  8
ｴｸｽﾃﾘｱ商品
 62
   253
370
    20
100
AcDbFaceRecord
 10
0.0
 20
0.0
 30
0.0
 70
   128
 71
     4
 72
     3
 73
     5
 74
     6
  0
VERTEX
  5
558
330
538
100
AcDbEntity
  8
ｴｸｽﾃﾘｱ商品
 62
   253
370
    20
100
AcDbFaceRecord
 10
0.0
 20
0.0
 30
0.0
 70
   128
 71
     6
 72
     5
 73
     7
 74
     8
  0
VERTEX
  5
559
330
538
100
AcDbEntity
  8
ｴｸｽﾃﾘｱ商品
 62
   253
370
    20
100
AcDbFaceRecord
 10
0.0
 20
0.0
 30
0.0
 70
   128
 71
     8
 72
     7
 73
     9
 74
    10
  0
VERTEX
  5
55A
330
538
100
AcDbEntity
  8
ｴｸｽﾃﾘｱ商品
 62
   253
370
    20
100
AcDbFaceRecord
 10
0.0
 20
0.0
 30
0.0
 70
   128
 71
    10
 72
     9
 73
    11
 74
    12
  0
VERTEX
  5
55B
330
538
100
AcDbEntity
  8
ｴｸｽﾃﾘｱ商品
 62
   253
370
    20
100
AcDbFaceRecord
 10
0.0
 20
0.0
 30
0.0
 70
   128
 71
    10
 72
    12
 73
    13
  0
VERTEX
  5
55C
330
538
100
AcDbEntity
  8
ｴｸｽﾃﾘｱ商品
 62
   253
370
    20
100
AcDbFaceRecord
 10
0.0
 20
0.0
 30
0.0
 70
   128
 71
    13
 72
    12
 73
    14
 74
    15
  0
VERTEX
  5
55D
330
538
100
AcDbEntity
  8
ｴｸｽﾃﾘｱ商品
 62
   253
370
    20
100
AcDbFaceRecord
 10
0.0
 20
0.0
 30
0.0
 70
   128
 71
    15
 72
    14
 73
    16
 74
    17
  0
VERTEX
  5
55E
330
538
100
AcDbEntity
  8
ｴｸｽﾃﾘｱ商品
 62
   253
370
    20
100
AcDbFaceRecord
 10
0.0
 20
0.0
 30
0.0
 70
   128
 71
    15
 72
    17
 73
    18
  0
VERTEX
  5
55F
330
538
100
AcDbEntity
  8
ｴｸｽﾃﾘｱ商品
 62
   253
370
    20
100
AcDbFaceRecord
 10
0.0
 20
0.0
 30
0.0
 70
   128
 71
    18
 72
    17
 73
    19
 74
    20
  0
VERTEX
  5
560
330
538
100
AcDbEntity
  8
ｴｸｽﾃﾘｱ商品
 62
   253
370
    20
100
AcDbFaceRecord
 10
0.0
 20
0.0
 30
0.0
 70
   128
 71
    20
 72
    19
 73
    21
 74
    22
  0
VERTEX
  5
561
330
538
100
AcDbEntity
  8
ｴｸｽﾃﾘｱ商品
 62
   253
370
    20
100
AcDbFaceRecord
 10
0.0
 20
0.0
 30
0.0
 70
   128
 71
    22
 72
    21
 73
    23
 74
    24
  0
VERTEX
  5
562
330
538
100
AcDbEntity
  8
ｴｸｽﾃﾘｱ商品
 62
   253
370
    20
100
AcDbFaceRecord
 10
0.0
 20
0.0
 30
0.0
 70
   128
 71
    24
 72
    23
 73
    25
 74
    26
  0
VERTEX
  5
563
330
538
100
AcDbEntity
  8
ｴｸｽﾃﾘｱ商品
 62
   253
370
    20
100
AcDbFaceRecord
 10
0.0
 20
0.0
 30
0.0
 70
   128
 71
    26
 72
    25
 73
    27
 74
    28
  0
VERTEX
  5
564
330
538
100
AcDbEntity
  8
ｴｸｽﾃﾘｱ商品
 62
   253
370
    20
100
AcDbFaceRecord
 10
0.0
 20
0.0
 30
0.0
 70
   128
 71
    28
 72
    27
 73
     2
 74
     1
  0
VERTEX
  5
565
330
538
100
AcDbEntity
  8
ｴｸｽﾃﾘｱ商品
 62
   253
370
    20
100
AcDbFaceRecord
 10
0.0
 20
0.0
 30
0.0
 70
   128
 71
     1
 72
     4
 73
     6
 74
     8
  0
VERTEX
  5
566
330
538
100
AcDbEntity
  8
ｴｸｽﾃﾘｱ商品
 62
   253
370
    20
100
AcDbFaceRecord
 10
0.0
 20
0.0
 30
0.0
 70
   128
 71
     1
 72
     8
 73
    10
 74
    13
  0
VERTEX
  5
567
330
538
100
AcDbEntity
  8
ｴｸｽﾃﾘｱ商品
 62
   253
370
    20
100
AcDbFaceRecord
 10
0.0
 20
0.0
 30
0.0
 70
   128
 71
     1
 72
    13
 73
    15
 74
    18
  0
VERTEX
  5
568
330
538
100
AcDbEntity
  8
ｴｸｽﾃﾘｱ商品
 62
   253
370
    20
100
AcDbFaceRecord
 10
0.0
 20
0.0
 30
0.0
 70
   128
 71
     1
 72
    18
 73
    20
 74
    22
  0
VERTEX
  5
569
330
538
100
AcDbEntity
  8
ｴｸｽﾃﾘｱ商品
 62
   253
370
    20
100
AcDbFaceRecord
 10
0.0
 20
0.0
 30
0.0
 70
   128
 71
     1
 72
    22
 73
    24
 74
    26
  0
VERTEX
  5
56A
330
538
100
AcDbEntity
  8
ｴｸｽﾃﾘｱ商品
 62
   253
370
    20
100
AcDbFaceRecord
 10
0.0
 20
0.0
 30
0.0
 70
   128
 71
     1
 72
    26
 73
    28
  0
VERTEX
  5
56B
330
538
100
AcDbEntity
  8
ｴｸｽﾃﾘｱ商品
 62
   253
370
    20
100
AcDbFaceRecord
 10
0.0
 20
0.0
 30
0.0
 70
   128
 71
    16
 72
    14
 73
    12
 74
    11
  0
VERTEX
  5
56C
330
538
100
AcDbEntity
  8
ｴｸｽﾃﾘｱ商品
 62
   253
370
    20
100
AcDbFaceRecord
 10
0.0
 20
0.0
 30
0.0
 70
   128
 71
    11
 72
     9
 73
     7
 74
     5
  0
VERTEX
  5
56D
330
538
100
AcDbEntity
  8
ｴｸｽﾃﾘｱ商品
 62
   253
370
    20
100
AcDbFaceRecord
 10
0.0
 20
0.0
 30
0.0
 70
   128
 71
    11
 72
     5
 73
     3
 74
     2
  0
VERTEX
  5
56E
330
538
100
AcDbEntity
  8
ｴｸｽﾃﾘｱ商品
 62
   253
370
    20
100
AcDbFaceRecord
 10
0.0
 20
0.0
 30
0.0
 70
   128
 71
    11
 72
     2
 73
    27
 74
    25
  0
VERTEX
  5
56F
330
538
100
AcDbEntity
  8
ｴｸｽﾃﾘｱ商品
 62
   253
370
    20
100
AcDbFaceRecord
 10
0.0
 20
0.0
 30
0.0
 70
   128
 71
    11
 72
    25
 73
    23
 74
    21
  0
VERTEX
  5
570
330
538
100
AcDbEntity
  8
ｴｸｽﾃﾘｱ商品
 62
   253
370
    20
100
AcDbFaceRecord
 10
0.0
 20
0.0
 30
0.0
 70
   128
 71
    11
 72
    21
 73
    19
 74
    17
  0
VERTEX
  5
571
330
538
100
AcDbEntity
  8
ｴｸｽﾃﾘｱ商品
 62
   253
370
    20
100
AcDbFaceRecord
 10
0.0
 20
0.0
 30
0.0
 70
   128
 71
    11
 72
    17
 73
    16
  0
SEQEND
  5
539
330
538
100
AcDbEntity
  8
ｴｸｽﾃﾘｱ商品
370
    20
  0
POLYLINE
  5
572
330
3C
100
AcDbEntity
  8
ｴｸｽﾃﾘｱ商品
 62
   253
370
    20
100
AcDbPolyFaceMesh
 66
     1
 10
0.0
 20
0.0
 30
0.0
 70
    64
 71
   176
 72
   232
  0
VERTEX
  5
574
330
572
100
AcDbEntity
  8
ｴｸｽﾃﾘｱ商品
 62
   253
370
    20
100
AcDbVertex
100
AcDbPolyFaceMeshVertex
 10
3932.618082413168
 20
1393.918479908237
 30
441.0
 70
   192
  0
VERTEX
  5
575
330
572
100
AcDbEntity
  8
ｴｸｽﾃﾘｱ商品
 62
   253
370
    20
100
AcDbVertex
100
AcDbPolyFaceMeshVertex
 10
3932.618082413168
 20
512.9184799082366
 30
441.0
 70
   192
  0
VERTEX
  5
576
330
572
100
AcDbEntity
  8
ｴｸｽﾃﾘｱ商品
 62
   253
370
    20
100
AcDbVertex
100
AcDbPolyFaceMeshVertex
 10
3870.618082413168
 20
574.9184799082368
 30
441.0
 70
   192
  0
VERTEX
  5
577
330
572
100
AcDbEntity
  8
ｴｸｽﾃﾘｱ商品
 62
   253
370
    20
100
AcDbVertex
100
AcDbPolyFaceMeshVertex
 10
3870.618082413168
 20
1393.918479908237
 30
441.0
 70
   192
  0
VERTEX
  5
578
330
572
100
AcDbEntity
  8
ｴｸｽﾃﾘｱ商品
 62
   253
370
    20
100
AcDbVertex
100
AcDbPolyFaceMeshVertex
 10
3870.531082413168
 20
575.0054799082366
 30
441.0
 70
   192
  0
VERTEX
  5
579
330
572
100
AcDbEntity
  8
ｴｸｽﾃﾘｱ商品
 62
   253
370
    20
100
AcDbVertex
100
AcDbPolyFaceMeshVertex
 10
3870.531082413168
 20
1393.918479908237
 30
441.0
 70
   192
  0
VERTEX
  5
57A
330
572
100
AcDbEntity
  8
ｴｸｽﾃﾘｱ商品
 62
   253
370
    20
100
AcDbVertex
100
AcDbPolyFaceMeshVertex
 10
3870.358082413168
 20
575.1784799082368
 30
441.03
 70
   192
  0
VERTEX
  5
57B
330
572
100
AcDbEntity
  8
ｴｸｽﾃﾘｱ商品
 62
   253
370
    20
100
AcDbVertex
100
AcDbPolyFaceMeshVertex
 10
3870.358082413168
 20
1393.918479908237
 30
441.03
 70
   192
  0
VERTEX
  5
57C
330
572
100
AcDbEntity
  8
ｴｸｽﾃﾘｱ商品
 62
   253
370
    20
100
AcDbVertex
100
AcDbPolyFaceMeshVertex
 10
3870.194082413168
 20
575.3424799082364
 30
441.09
 70
   192
  0
VERTEX
  5
57D
330
572
100
AcDbEntity
  8
ｴｸｽﾃﾘｱ商品
 62
   253
370
    20
100
AcDbVertex
100
AcDbPolyFaceMeshVertex
 10
3870.194082413168
 20
1393.918479908237
 30
441.09
 70
   192
  0
VERTEX
  5
57E
330
572
100
AcDbEntity
  8
ｴｸｽﾃﾘｱ商品
 62
   253
370
    20
100
AcDbVertex
100
AcDbPolyFaceMeshVertex
 10
3870.042082413168
 20
575.4944799082365
 30
441.178
 70
   192
  0
VERTEX
  5
57F
330
572
100
AcDbEntity
  8
ｴｸｽﾃﾘｱ商品
 62
   253
370
    20
100
AcDbVertex
100
AcDbPolyFaceMeshVertex
 10
3870.042082413168
 20
1393.918479908237
 30
441.178
 70
   192
  0
VERTEX
  5
580
330
572
100
AcDbEntity
  8
ｴｸｽﾃﾘｱ商品
 62
   253
370
    20
100
AcDbVertex
100
AcDbPolyFaceMeshVertex
 10
3869.908082413168
 20
575.6284799082366
 30
441.29
 70
   192
  0
VERTEX
  5
581
330
572
100
AcDbEntity
  8
ｴｸｽﾃﾘｱ商品
 62
   253
370
    20
100
AcDbVertex
100
AcDbPolyFaceMeshVertex
 10
3869.908082413168
 20
1393.918479908237
 30
441.29
 70
   192
  0
VERTEX
  5
582
330
572
100
AcDbEntity
  8
ｴｸｽﾃﾘｱ商品
 62
   253
370
    20
100
AcDbVertex
100
AcDbPolyFaceMeshVertex
 10
3869.796082413168
 20
575.7404799082368
 30
441.424
 70
   192
  0
VERTEX
  5
583
330
572
100
AcDbEntity
  8
ｴｸｽﾃﾘｱ商品
 62
   253
370
    20
100
AcDbVertex
100
AcDbPolyFaceMeshVertex
 10
3869.796082413168
 20
1393.918479908237
 30
441.424
 70
   192
  0
VERTEX
  5
584
330
572
100
AcDbEntity
  8
ｴｸｽﾃﾘｱ商品
 62
   253
370
    20
100
AcDbVertex
100
AcDbPolyFaceMeshVertex
 10
3869.708082413169
 20
575.8284799082365
 30
441.576
 70
   192
  0
VERTEX
  5
585
330
572
100
AcDbEntity
  8
ｴｸｽﾃﾘｱ商品
 62
   253
370
    20
100
AcDbVertex
100
AcDbPolyFaceMeshVertex
 10
3869.708082413169
 20
1393.918479908237
 30
441.576
 70
   192
  0
VERTEX
  5
586
330
572
100
AcDbEntity
  8
ｴｸｽﾃﾘｱ商品
 62
   253
370
    20
100
AcDbVertex
100
AcDbPolyFaceMeshVertex
 10
3869.648082413169
 20
575.8884799082366
 30
441.74
 70
   192
  0
VERTEX
  5
587
330
572
100
AcDbEntity
  8
ｴｸｽﾃﾘｱ商品
 62
   253
370
    20
100
AcDbVertex
100
AcDbPolyFaceMeshVertex
 10
3869.648082413169
 20
1393.918479908237
 30
441.74
 70
   192
  0
VERTEX
  5
588
330
572
100
AcDbEntity
  8
ｴｸｽﾃﾘｱ商品
 62
   253
370
    20
100
AcDbVertex
100
AcDbPolyFaceMeshVertex
 10
3869.618082413168
 20
575.9184799082367
 30
441.913
 70
   192
  0
VERTEX
  5
589
330
572
100
AcDbEntity
  8
ｴｸｽﾃﾘｱ商品
 62
   253
370
    20
100
AcDbVertex
100
AcDbPolyFaceMeshVertex
 10
3869.618082413168
 20
1393.918479908237
 30
441.913
 70
   192
  0
VERTEX
  5
58A
330
572
100
AcDbEntity
  8
ｴｸｽﾃﾘｱ商品
 62
   253
370
    20
100
AcDbVertex
100
AcDbPolyFaceMeshVertex
 10
3869.618082413168
 20
575.9184799082367
 30
442.0
 70
   192
  0
VERTEX
  5
58B
330
572
100
AcDbEntity
  8
ｴｸｽﾃﾘｱ商品
 62
   253
370
    20
100
AcDbVertex
100
AcDbPolyFaceMeshVertex
 10
3869.618082413168
 20
1393.918479908237
 30
442.0
 70
   192
  0
VERTEX
  5
58C
330
572
100
AcDbEntity
  8
ｴｸｽﾃﾘｱ商品
 62
   253
370
    20
100
AcDbVertex
100
AcDbPolyFaceMeshVertex
 10
3869.618082413168
 20
575.9184799082367
 30
458.0
 70
   192
  0
VERTEX
  5
58D
330
572
100
AcDbEntity
  8
ｴｸｽﾃﾘｱ商品
 62
   253
370
    20
100
AcDbVertex
100
AcDbPolyFaceMeshVertex
 10
3869.618082413168
 20
1393.918479908237
 30
458.0
 70
   192
  0
VERTEX
  5
58E
330
572
100
AcDbEntity
  8
ｴｸｽﾃﾘｱ商品
 62
   253
370
    20
100
AcDbVertex
100
AcDbPolyFaceMeshVertex
 10
3869.618082413168
 20
575.9184799082367
 30
458.087
 70
   192
  0
VERTEX
  5
58F
330
572
100
AcDbEntity
  8
ｴｸｽﾃﾘｱ商品
 62
   253
370
    20
100
AcDbVertex
100
AcDbPolyFaceMeshVertex
 10
3869.618082413168
 20
1393.918479908237
 30
458.087
 70
   192
  0
VERTEX
  5
590
330
572
100
AcDbEntity
  8
ｴｸｽﾃﾘｱ商品
 62
   253
370
    20
100
AcDbVertex
100
AcDbPolyFaceMeshVertex
 10
3869.588082413168
 20
575.9484799082367
 30
458.26
 70
   192
  0
VERTEX
  5
591
330
572
100
AcDbEntity
  8
ｴｸｽﾃﾘｱ商品
 62
   253
370
    20
100
AcDbVertex
100
AcDbPolyFaceMeshVertex
 10
3869.588082413168
 20
1393.918479908237
 30
458.26
 70
   192
  0
VERTEX
  5
592
330
572
100
AcDbEntity
  8
ｴｸｽﾃﾘｱ商品
 62
   253
370
    20
100
AcDbVertex
100
AcDbPolyFaceMeshVertex
 10
3869.528082413168
 20
576.0084799082367
 30
458.424
 70
   192
  0
VERTEX
  5
593
330
572
100
AcDbEntity
  8
ｴｸｽﾃﾘｱ商品
 62
   253
370
    20
100
AcDbVertex
100
AcDbPolyFaceMeshVertex
 10
3869.528082413168
 20
1393.918479908237
 30
458.424
 70
   192
  0
VERTEX
  5
594
330
572
100
AcDbEntity
  8
ｴｸｽﾃﾘｱ商品
 62
   253
370
    20
100
AcDbVertex
100
AcDbPolyFaceMeshVertex
 10
3869.440082413168
 20
576.0964799082363
 30
458.576
 70
   192
  0
VERTEX
  5
595
330
572
100
AcDbEntity
  8
ｴｸｽﾃﾘｱ商品
 62
   253
370
    20
100
AcDbVertex
100
AcDbPolyFaceMeshVertex
 10
3869.440082413168
 20
1393.918479908237
 30
458.576
 70
   192
  0
VERTEX
  5
596
330
572
100
AcDbEntity
  8
ｴｸｽﾃﾘｱ商品
 62
   253
370
    20
100
AcDbVertex
100
AcDbPolyFaceMeshVertex
 10
3869.328082413168
 20
576.2084799082365
 30
458.71
 70
   192
  0
VERTEX
  5
597
330
572
100
AcDbEntity
  8
ｴｸｽﾃﾘｱ商品
 62
   253
370
    20
100
AcDbVertex
100
AcDbPolyFaceMeshVertex
 10
3869.328082413168
 20
1393.918479908237
 30
458.71
 70
   192
  0
VERTEX
  5
598
330
572
100
AcDbEntity
  8
ｴｸｽﾃﾘｱ商品
 62
   253
370
    20
100
AcDbVertex
100
AcDbPolyFaceMeshVertex
 10
3869.194082413168
 20
576.3424799082362
 30
458.822
 70
   192
  0
VERTEX
  5
599
330
572
100
AcDbEntity
  8
ｴｸｽﾃﾘｱ商品
 62
   253
370
    20
100
AcDbVertex
100
AcDbPolyFaceMeshVertex
 10
3869.194082413168
 20
1393.918479908237
 30
458.822
 70
   192
  0
VERTEX
  5
59A
330
572
100
AcDbEntity
  8
ｴｸｽﾃﾘｱ商品
 62
   253
370
    20
100
AcDbVertex
100
AcDbPolyFaceMeshVertex
 10
3869.042082413168
 20
576.4944799082367
 30
458.91
 70
   192
  0
VERTEX
  5
59B
330
572
100
AcDbEntity
  8
ｴｸｽﾃﾘｱ商品
 62
   253
370
    20
100
AcDbVertex
100
AcDbPolyFaceMeshVertex
 10
3869.042082413168
 20
1393.918479908237
 30
458.91
 70
   192
  0
VERTEX
  5
59C
330
572
100
AcDbEntity
  8
ｴｸｽﾃﾘｱ商品
 62
   253
370
    20
100
AcDbVertex
100
AcDbPolyFaceMeshVertex
 10
3868.878082413168
 20
576.6584799082364
 30
458.97
 70
   192
  0
VERTEX
  5
59D
330
572
100
AcDbEntity
  8
ｴｸｽﾃﾘｱ商品
 62
   253
370
    20
100
AcDbVertex
100
AcDbPolyFaceMeshVertex
 10
3868.878082413168
 20
1393.918479908237
 30
458.97
 70
   192
  0
VERTEX
  5
59E
330
572
100
AcDbEntity
  8
ｴｸｽﾃﾘｱ商品
 62
   253
370
    20
100
AcDbVertex
100
AcDbPolyFaceMeshVertex
 10
3868.705082413168
 20
576.8314799082366
 30
459.0
 70
   192
  0
VERTEX
  5
59F
330
572
100
AcDbEntity
  8
ｴｸｽﾃﾘｱ商品
 62
   253
370
    20
100
AcDbVertex
100
AcDbPolyFaceMeshVertex
 10
3868.705082413168
 20
1393.918479908237
 30
459.0
 70
   192
  0
VERTEX
  5
5A0
330
572
100
AcDbEntity
  8
ｴｸｽﾃﾘｱ商品
 62
   253
370
    20
100
AcDbVertex
100
AcDbPolyFaceMeshVertex
 10
3868.618082413168
 20
576.9184799082363
 30
459.0
 70
   192
  0
VERTEX
  5
5A1
330
572
100
AcDbEntity
  8
ｴｸｽﾃﾘｱ商品
 62
   253
370
    20
100
AcDbVertex
100
AcDbPolyFaceMeshVertex
 10
3868.618082413168
 20
1393.918479908237
 30
459.0
 70
   192
  0
VERTEX
  5
5A2
330
572
100
AcDbEntity
  8
ｴｸｽﾃﾘｱ商品
 62
   253
370
    20
100
AcDbVertex
100
AcDbPolyFaceMeshVertex
 10
3863.618082413168
 20
581.9184799082362
 30
459.0
 70
   192
  0
VERTEX
  5
5A3
330
572
100
AcDbEntity
  8
ｴｸｽﾃﾘｱ商品
 62
   253
370
    20
100
AcDbVertex
100
AcDbPolyFaceMeshVertex
 10
3863.618082413168
 20
1393.918479908237
 30
459.0
 70
   192
  0
VERTEX
  5
5A4
330
572
100
AcDbEntity
  8
ｴｸｽﾃﾘｱ商品
 62
   253
370
    20
100
AcDbVertex
100
AcDbPolyFaceMeshVertex
 10
3863.443082413169
 20
582.0934799082362
 30
459.0
 70
   192
  0
VERTEX
  5
5A5
330
572
100
AcDbEntity
  8
ｴｸｽﾃﾘｱ商品
 62
   253
370
    20
100
AcDbVertex
100
AcDbPolyFaceMeshVertex
 10
3863.443082413169
 20
1393.918479908237
 30
459.0
 70
   192
  0
VERTEX
  5
5A6
330
572
100
AcDbEntity
  8
ｴｸｽﾃﾘｱ商品
 62
   253
370
    20
100
AcDbVertex
100
AcDbPolyFaceMeshVertex
 10
3863.098082413168
 20
582.4384799082366
 30
459.061
 70
   192
  0
VERTEX
  5
5A7
330
572
100
AcDbEntity
  8
ｴｸｽﾃﾘｱ商品
 62
   253
370
    20
100
AcDbVertex
100
AcDbPolyFaceMeshVertex
 10
3863.098082413168
 20
1393.918479908237
 30
459.061
 70
   192
  0
VERTEX
  5
5A8
330
572
100
AcDbEntity
  8
ｴｸｽﾃﾘｱ商品
 62
   253
370
    20
100
AcDbVertex
100
AcDbPolyFaceMeshVertex
 10
3862.770082413168
 20
582.7664799082365
 30
459.18
 70
   192
  0
VERTEX
  5
5A9
330
572
100
AcDbEntity
  8
ｴｸｽﾃﾘｱ商品
 62
   253
370
    20
100
AcDbVertex
100
AcDbPolyFaceMeshVertex
 10
3862.770082413168
 20
1393.918479908237
 30
459.18
 70
   192
  0
VERTEX
  5
5AA
330
572
100
AcDbEntity
  8
ｴｸｽﾃﾘｱ商品
 62
   253
370
    20
100
AcDbVertex
100
AcDbPolyFaceMeshVertex
 10
3862.466082413168
 20
583.0704799082366
 30
459.355
 70
   192
  0
VERTEX
  5
5AB
330
572
100
AcDbEntity
  8
ｴｸｽﾃﾘｱ商品
 62
   253
370
    20
100
AcDbVertex
100
AcDbPolyFaceMeshVertex
 10
3862.466082413168
 20
1393.918479908237
 30
459.355
 70
   192
  0
VERTEX
  5
5AC
330
572
100
AcDbEntity
  8
ｴｸｽﾃﾘｱ商品
 62
   253
370
    20
100
AcDbVertex
100
AcDbPolyFaceMeshVertex
 10
3862.198082413168
 20
583.3384799082364
 30
459.58
 70
   192
  0
VERTEX
  5
5AD
330
572
100
AcDbEntity
  8
ｴｸｽﾃﾘｱ商品
 62
   253
370
    20
100
AcDbVertex
100
AcDbPolyFaceMeshVertex
 10
3862.198082413168
 20
1393.918479908237
 30
459.58
 70
   192
  0
VERTEX
  5
5AE
330
572
100
AcDbEntity
  8
ｴｸｽﾃﾘｱ商品
 62
   253
370
    20
100
AcDbVertex
100
AcDbPolyFaceMeshVertex
 10
3861.973082413168
 20
583.5634799082367
 30
459.848
 70
   192
  0
VERTEX
  5
5AF
330
572
100
AcDbEntity
  8
ｴｸｽﾃﾘｱ商品
 62
   253
370
    20
100
AcDbVertex
100
AcDbPolyFaceMeshVertex
 10
3861.973082413168
 20
1393.918479908237
 30
459.848
 70
   192
  0
VERTEX
  5
5B0
330
572
100
AcDbEntity
  8
ｴｸｽﾃﾘｱ商品
 62
   253
370
    20
100
AcDbVertex
100
AcDbPolyFaceMeshVertex
 10
3861.798082413168
 20
583.7384799082367
 30
460.152
 70
   192
  0
VERTEX
  5
5B1
330
572
100
AcDbEntity
  8
ｴｸｽﾃﾘｱ商品
 62
   253
370
    20
100
AcDbVertex
100
AcDbPolyFaceMeshVertex
 10
3861.798082413168
 20
1393.918479908237
 30
460.152
 70
   192
  0
VERTEX
  5
5B2
330
572
100
AcDbEntity
  8
ｴｸｽﾃﾘｱ商品
 62
   253
370
    20
100
AcDbVertex
100
AcDbPolyFaceMeshVertex
 10
3861.679082413169
 20
583.8574799082362
 30
460.48
 70
   192
  0
VERTEX
  5
5B3
330
572
100
AcDbEntity
  8
ｴｸｽﾃﾘｱ商品
 62
   253
370
    20
100
AcDbVertex
100
AcDbPolyFaceMeshVertex
 10
3861.679082413169
 20
1393.918479908237
 30
460.48
 70
   192
  0
VERTEX
  5
5B4
330
572
100
AcDbEntity
  8
ｴｸｽﾃﾘｱ商品
 62
   253
370
    20
100
AcDbVertex
100
AcDbPolyFaceMeshVertex
 10
3861.618082413168
 20
583.9184799082369
 30
460.825
 70
   192
  0
VERTEX
  5
5B5
330
572
100
AcDbEntity
  8
ｴｸｽﾃﾘｱ商品
 62
   253
370
    20
100
AcDbVertex
100
AcDbPolyFaceMeshVertex
 10
3861.618082413168
 20
1393.918479908237
 30
460.825
 70
   192
  0
VERTEX
  5
5B6
330
572
100
AcDbEntity
  8
ｴｸｽﾃﾘｱ商品
 62
   253
370
    20
100
AcDbVertex
100
AcDbPolyFaceMeshVertex
 10
3861.618082413168
 20
583.9184799082369
 30
461.0
 70
   192
  0
VERTEX
  5
5B7
330
572
100
AcDbEntity
  8
ｴｸｽﾃﾘｱ商品
 62
   253
370
    20
100
AcDbVertex
100
AcDbPolyFaceMeshVertex
 10
3861.618082413168
 20
1393.918479908237
 30
461.0
 70
   192
  0
VERTEX
  5
5B8
330
572
100
AcDbEntity
  8
ｴｸｽﾃﾘｱ商品
 62
   253
370
    20
100
AcDbVertex
100
AcDbPolyFaceMeshVertex
 10
3861.618082413168
 20
583.9184799082369
 30
465.0
 70
   192
  0
VERTEX
  5
5B9
330
572
100
AcDbEntity
  8
ｴｸｽﾃﾘｱ商品
 62
   253
370
    20
100
AcDbVertex
100
AcDbPolyFaceMeshVertex
 10
3861.618082413168
 20
1393.918479908237
 30
465.0
 70
   192
  0
VERTEX
  5
5BA
330
572
100
AcDbEntity
  8
ｴｸｽﾃﾘｱ商品
 62
   253
370
    20
100
AcDbVertex
100
AcDbPolyFaceMeshVertex
 10
3861.618082413168
 20
583.9184799082369
 30
465.175
 70
   192
  0
VERTEX
  5
5BB
330
572
100
AcDbEntity
  8
ｴｸｽﾃﾘｱ商品
 62
   253
370
    20
100
AcDbVertex
100
AcDbPolyFaceMeshVertex
 10
3861.618082413168
 20
1393.918479908237
 30
465.175
 70
   192
  0
VERTEX
  5
5BC
330
572
100
AcDbEntity
  8
ｴｸｽﾃﾘｱ商品
 62
   253
370
    20
100
AcDbVertex
100
AcDbPolyFaceMeshVertex
 10
3861.679082413169
 20
583.8574799082362
 30
465.52
 70
   192
  0
VERTEX
  5
5BD
330
572
100
AcDbEntity
  8
ｴｸｽﾃﾘｱ商品
 62
   253
370
    20
100
AcDbVertex
100
AcDbPolyFaceMeshVertex
 10
3861.679082413169
 20
1393.918479908237
 30
465.52
 70
   192
  0
VERTEX
  5
5BE
330
572
100
AcDbEntity
  8
ｴｸｽﾃﾘｱ商品
 62
   253
370
    20
100
AcDbVertex
100
AcDbPolyFaceMeshVertex
 10
3861.798082413168
 20
583.7384799082367
 30
465.848
 70
   192
  0
VERTEX
  5
5BF
330
572
100
AcDbEntity
  8
ｴｸｽﾃﾘｱ商品
 62
   253
370
    20
100
AcDbVertex
100
AcDbPolyFaceMeshVertex
 10
3861.798082413168
 20
1393.918479908237
 30
465.848
 70
   192
  0
VERTEX
  5
5C0
330
572
100
AcDbEntity
  8
ｴｸｽﾃﾘｱ商品
 62
   253
370
    20
100
AcDbVertex
100
AcDbPolyFaceMeshVertex
 10
3861.973082413168
 20
583.5634799082367
 30
466.152
 70
   192
  0
VERTEX
  5
5C1
330
572
100
AcDbEntity
  8
ｴｸｽﾃﾘｱ商品
 62
   253
370
    20
100
AcDbVertex
100
AcDbPolyFaceMeshVertex
 10
3861.973082413168
 20
1393.918479908237
 30
466.152
 70
   192
  0
VERTEX
  5
5C2
330
572
100
AcDbEntity
  8
ｴｸｽﾃﾘｱ商品
 62
   253
370
    20
100
AcDbVertex
100
AcDbPolyFaceMeshVertex
 10
3862.198082413168
 20
583.3384799082364
 30
466.42
 70
   192
  0
VERTEX
  5
5C3
330
572
100
AcDbEntity
  8
ｴｸｽﾃﾘｱ商品
 62
   253
370
    20
100
AcDbVertex
100
AcDbPolyFaceMeshVertex
 10
3862.198082413168
 20
1393.918479908237
 30
466.42
 70
   192
  0
VERTEX
  5
5C4
330
572
100
AcDbEntity
  8
ｴｸｽﾃﾘｱ商品
 62
   253
370
    20
100
AcDbVertex
100
AcDbPolyFaceMeshVertex
 10
3862.466082413168
 20
583.0704799082366
 30
466.645
 70
   192
  0
VERTEX
  5
5C5
330
572
100
AcDbEntity
  8
ｴｸｽﾃﾘｱ商品
 62
   253
370
    20
100
AcDbVertex
100
AcDbPolyFaceMeshVertex
 10
3862.466082413168
 20
1393.918479908237
 30
466.645
 70
   192
  0
VERTEX
  5
5C6
330
572
100
AcDbEntity
  8
ｴｸｽﾃﾘｱ商品
 62
   253
370
    20
100
AcDbVertex
100
AcDbPolyFaceMeshVertex
 10
3862.770082413168
 20
582.7664799082365
 30
466.82
 70
   192
  0
VERTEX
  5
5C7
330
572
100
AcDbEntity
  8
ｴｸｽﾃﾘｱ商品
 62
   253
370
    20
100
AcDbVertex
100
AcDbPolyFaceMeshVertex
 10
3862.770082413168
 20
1393.918479908237
 30
466.82
 70
   192
  0
VERTEX
  5
5C8
330
572
100
AcDbEntity
  8
ｴｸｽﾃﾘｱ商品
 62
   253
370
    20
100
AcDbVertex
100
AcDbPolyFaceMeshVertex
 10
3863.098082413168
 20
582.4384799082366
 30
466.939
 70
   192
  0
VERTEX
  5
5C9
330
572
100
AcDbEntity
  8
ｴｸｽﾃﾘｱ商品
 62
   253
370
    20
100
AcDbVertex
100
AcDbPolyFaceMeshVertex
 10
3863.098082413168
 20
1393.918479908237
 30
466.939
 70
   192
  0
VERTEX
  5
5CA
330
572
100
AcDbEntity
  8
ｴｸｽﾃﾘｱ商品
 62
   253
370
    20
100
AcDbVertex
100
AcDbPolyFaceMeshVertex
 10
3863.437082413168
 20
582.0994799082363
 30
466.992
 70
   192
  0
VERTEX
  5
5CB
330
572
100
AcDbEntity
  8
ｴｸｽﾃﾘｱ商品
 62
   253
370
    20
100
AcDbVertex
100
AcDbPolyFaceMeshVertex
 10
3863.437082413168
 20
1393.918479908237
 30
466.992
 70
   192
  0
VERTEX
  5
5CC
330
572
100
AcDbEntity
  8
ｴｸｽﾃﾘｱ商品
 62
   253
370
    20
100
AcDbVertex
100
AcDbPolyFaceMeshVertex
 10
3913.943082413169
 20
531.5934799082361
 30
471.586
 70
   192
  0
VERTEX
  5
5CD
330
572
100
AcDbEntity
  8
ｴｸｽﾃﾘｱ商品
 62
   253
370
    20
100
AcDbVertex
100
AcDbPolyFaceMeshVertex
 10
3913.943082413169
 20
1393.918479908237
 30
471.586
 70
   192
  0
VERTEX
  5
5CE
330
572
100
AcDbEntity
  8
ｴｸｽﾃﾘｱ商品
 62
   253
370
    20
100
AcDbVertex
100
AcDbPolyFaceMeshVertex
 10
3939.589082413168
 20
505.9474799082361
 30
471.0000000000001
 70
   192
  0
VERTEX
  5
5CF
330
572
100
AcDbEntity
  8
ｴｸｽﾃﾘｱ商品
 62
   253
370
    20
100
AcDbVertex
100
AcDbPolyFaceMeshVertex
 10
3939.589082413168
 20
1393.918479908237
 30
471.0000000000001
 70
   192
  0
VERTEX
  5
5D0
330
572
100
AcDbEntity
  8
ｴｸｽﾃﾘｱ商品
 62
   253
370
    20
100
AcDbVertex
100
AcDbPolyFaceMeshVertex
 10
3939.764082413168
 20
505.7724799082367
 30
471.002
 70
   192
  0
VERTEX
  5
5D1
330
572
100
AcDbEntity
  8
ｴｸｽﾃﾘｱ商品
 62
   253
370
    20
100
AcDbVertex
100
AcDbPolyFaceMeshVertex
 10
3939.764082413168
 20
1393.918479908237
 30
471.002
 70
   192
  0
VERTEX
  5
5D2
330
572
100
AcDbEntity
  8
ｴｸｽﾃﾘｱ商品
 62
   253
370
    20
100
AcDbVertex
100
AcDbPolyFaceMeshVertex
 10
3940.110082413169
 20
505.4264799082364
 30
470.947
 70
   192
  0
VERTEX
  5
5D3
330
572
100
AcDbEntity
  8
ｴｸｽﾃﾘｱ商品
 62
   253
370
    20
100
AcDbVertex
100
AcDbPolyFaceMeshVertex
 10
3940.110082413169
 20
1393.918479908237
 30
470.947
 70
   192
  0
VERTEX
  5
5D4
330
572
100
AcDbEntity
  8
ｴｸｽﾃﾘｱ商品
 62
   253
370
    20
100
AcDbVertex
100
AcDbPolyFaceMeshVertex
 10
3940.440082413169
 20
505.0964799082366
 30
470.8320000000001
 70
   192
  0
VERTEX
  5
5D5
330
572
100
AcDbEntity
  8
ｴｸｽﾃﾘｱ商品
 62
   253
370
    20
100
AcDbVertex
100
AcDbPolyFaceMeshVertex
 10
3940.440082413169
 20
1393.918479908237
 30
470.8320000000001
 70
   192
  0
VERTEX
  5
5D6
330
572
100
AcDbEntity
  8
ｴｸｽﾃﾘｱ商品
 62
   253
370
    20
100
AcDbVertex
100
AcDbPolyFaceMeshVertex
 10
3940.746082413168
 20
504.7904799082368
 30
470.6610000000001
 70
   192
  0
VERTEX
  5
5D7
330
572
100
AcDbEntity
  8
ｴｸｽﾃﾘｱ商品
 62
   253
370
    20
100
AcDbVertex
100
AcDbPolyFaceMeshVertex
 10
3940.746082413168
 20
1393.918479908237
 30
470.6610000000001
 70
   192
  0
VERTEX
  5
5D8
330
572
100
AcDbEntity
  8
ｴｸｽﾃﾘｱ商品
 62
   253
370
    20
100
AcDbVertex
100
AcDbPolyFaceMeshVertex
 10
3941.017082413168
 20
504.5194799082365
 30
470.44
 70
   192
  0
VERTEX
  5
5D9
330
572
100
AcDbEntity
  8
ｴｸｽﾃﾘｱ商品
 62
   253
370
    20
100
AcDbVertex
100
AcDbPolyFaceMeshVertex
 10
3941.017082413168
 20
1393.918479908237
 30
470.44
 70
   192
  0
VERTEX
  5
5DA
330
572
100
AcDbEntity
  8
ｴｸｽﾃﾘｱ商品
 62
   253
370
    20
100
AcDbVertex
100
AcDbPolyFaceMeshVertex
 10
3941.246082413168
 20
504.2904799082366
 30
470.175
 70
   192
  0
VERTEX
  5
5DB
330
572
100
AcDbEntity
  8
ｴｸｽﾃﾘｱ商品
 62
   253
370
    20
100
AcDbVertex
100
AcDbPolyFaceMeshVertex
 10
3941.246082413168
 20
1393.918479908237
 30
470.175
 70
   192
  0
VERTEX
  5
5DC
330
572
100
AcDbEntity
  8
ｴｸｽﾃﾘｱ商品
 62
   253
370
    20
100
AcDbVertex
100
AcDbPolyFaceMeshVertex
 10
3941.425082413169
 20
504.1114799082362
 30
469.8750000000001
 70
   192
  0
VERTEX
  5
5DD
330
572
100
AcDbEntity
  8
ｴｸｽﾃﾘｱ商品
 62
   253
370
    20
100
AcDbVertex
100
AcDbPolyFaceMeshVertex
 10
3941.425082413169
 20
1393.918479908237
 30
469.8750000000001
 70
   192
  0
VERTEX
  5
5DE
330
572
100
AcDbEntity
  8
ｴｸｽﾃﾘｱ商品
 62
   253
370
    20
100
AcDbVertex
100
AcDbPolyFaceMeshVertex
 10
3941.550082413168
 20
503.9864799082365
 30
469.548
 70
   192
  0
VERTEX
  5
5DF
330
572
100
AcDbEntity
  8
ｴｸｽﾃﾘｱ商品
 62
   253
370
    20
100
AcDbVertex
100
AcDbPolyFaceMeshVertex
 10
3941.550082413168
 20
1393.918479908237
 30
469.548
 70
   192
  0
VERTEX
  5
5E0
330
572
100
AcDbEntity
  8
ｴｸｽﾃﾘｱ商品
 62
   253
370
    20
100
AcDbVertex
100
AcDbPolyFaceMeshVertex
 10
3941.615082413168
 20
503.9214799082363
 30
469.204
 70
   192
  0
VERTEX
  5
5E1
330
572
100
AcDbEntity
  8
ｴｸｽﾃﾘｱ商品
 62
   253
370
    20
100
AcDbVertex
100
AcDbPolyFaceMeshVertex
 10
3941.615082413168
 20
1393.918479908237
 30
469.204
 70
   192
  0
VERTEX
  5
5E2
330
572
100
AcDbEntity
  8
ｴｸｽﾃﾘｱ商品
 62
   253
370
    20
100
AcDbVertex
100
AcDbPolyFaceMeshVertex
 10
3941.618082413168
 20
503.9184799082366
 30
469.0
 70
   192
  0
VERTEX
  5
5E3
330
572
100
AcDbEntity
  8
ｴｸｽﾃﾘｱ商品
 62
   253
370
    20
100
AcDbVertex
100
AcDbPolyFaceMeshVertex
 10
3941.618082413168
 20
1393.918479908237
 30
469.0
 70
   192
  0
VERTEX
  5
5E4
330
572
100
AcDbEntity
  8
ｴｸｽﾃﾘｱ商品
 62
   253
370
    20
100
AcDbVertex
100
AcDbPolyFaceMeshVertex
 10
3941.618082413168
 20
503.9184799082366
 30
461.0
 70
   192
  0
VERTEX
  5
5E5
330
572
100
AcDbEntity
  8
ｴｸｽﾃﾘｱ商品
 62
   253
370
    20
100
AcDbVertex
100
AcDbPolyFaceMeshVertex
 10
3941.618082413168
 20
1393.918479908237
 30
461.0
 70
   192
  0
VERTEX
  5
5E6
330
572
100
AcDbEntity
  8
ｴｸｽﾃﾘｱ商品
 62
   253
370
    20
100
AcDbVertex
100
AcDbPolyFaceMeshVertex
 10
3941.618082413168
 20
503.9184799082366
 30
460.825
 70
   192
  0
VERTEX
  5
5E7
330
572
100
AcDbEntity
  8
ｴｸｽﾃﾘｱ商品
 62
   253
370
    20
100
AcDbVertex
100
AcDbPolyFaceMeshVertex
 10
3941.618082413168
 20
1393.918479908237
 30
460.825
 70
   192
  0
VERTEX
  5
5E8
330
572
100
AcDbEntity
  8
ｴｸｽﾃﾘｱ商品
 62
   253
370
    20
100
AcDbVertex
100
AcDbPolyFaceMeshVertex
 10
3941.557082413168
 20
503.9794799082366
 30
460.4800000000001
 70
   192
  0
VERTEX
  5
5E9
330
572
100
AcDbEntity
  8
ｴｸｽﾃﾘｱ商品
 62
   253
370
    20
100
AcDbVertex
100
AcDbPolyFaceMeshVertex
 10
3941.557082413168
 20
1393.918479908237
 30
460.4800000000001
 70
   192
  0
VERTEX
  5
5EA
330
572
100
AcDbEntity
  8
ｴｸｽﾃﾘｱ商品
 62
   253
370
    20
100
AcDbVertex
100
AcDbPolyFaceMeshVertex
 10
3941.438082413169
 20
504.0984799082361
 30
460.152
 70
   192
  0
VERTEX
  5
5EB
330
572
100
AcDbEntity
  8
ｴｸｽﾃﾘｱ商品
 62
   253
370
    20
100
AcDbVertex
100
AcDbPolyFaceMeshVertex
 10
3941.438082413169
 20
1393.918479908237
 30
460.152
 70
   192
  0
VERTEX
  5
5EC
330
572
100
AcDbEntity
  8
ｴｸｽﾃﾘｱ商品
 62
   253
370
    20
100
AcDbVertex
100
AcDbPolyFaceMeshVertex
 10
3941.263082413168
 20
504.2734799082361
 30
459.848
 70
   192
  0
VERTEX
  5
5ED
330
572
100
AcDbEntity
  8
ｴｸｽﾃﾘｱ商品
 62
   253
370
    20
100
AcDbVertex
100
AcDbPolyFaceMeshVertex
 10
3941.263082413168
 20
1393.918479908237
 30
459.848
 70
   192
  0
VERTEX
  5
5EE
330
572
100
AcDbEntity
  8
ｴｸｽﾃﾘｱ商品
 62
   253
370
    20
100
AcDbVertex
100
AcDbPolyFaceMeshVertex
 10
3941.038082413168
 20
504.498479908237
 30
459.58
 70
   192
  0
VERTEX
  5
5EF
330
572
100
AcDbEntity
  8
ｴｸｽﾃﾘｱ商品
 62
   253
370
    20
100
AcDbVertex
100
AcDbPolyFaceMeshVertex
 10
3941.038082413168
 20
1393.918479908237
 30
459.58
 70
   192
  0
VERTEX
  5
5F0
330
572
100
AcDbEntity
  8
ｴｸｽﾃﾘｱ商品
 62
   253
370
    20
100
AcDbVertex
100
AcDbPolyFaceMeshVertex
 10
3940.770082413168
 20
504.7664799082362
 30
459.355
 70
   192
  0
VERTEX
  5
5F1
330
572
100
AcDbEntity
  8
ｴｸｽﾃﾘｱ商品
 62
   253
370
    20
100
AcDbVertex
100
AcDbPolyFaceMeshVertex
 10
3940.770082413168
 20
1393.918479908237
 30
459.355
 70
   192
  0
VERTEX
  5
5F2
330
572
100
AcDbEntity
  8
ｴｸｽﾃﾘｱ商品
 62
   253
370
    20
100
AcDbVertex
100
AcDbPolyFaceMeshVertex
 10
3940.466082413168
 20
505.0704799082363
 30
459.18
 70
   192
  0
VERTEX
  5
5F3
330
572
100
AcDbEntity
  8
ｴｸｽﾃﾘｱ商品
 62
   253
370
    20
100
AcDbVertex
100
AcDbPolyFaceMeshVertex
 10
3940.466082413168
 20
1393.918479908237
 30
459.18
 70
   192
  0
VERTEX
  5
5F4
330
572
100
AcDbEntity
  8
ｴｸｽﾃﾘｱ商品
 62
   253
370
    20
100
AcDbVertex
100
AcDbPolyFaceMeshVertex
 10
3940.138082413168
 20
505.3984799082361
 30
459.061
 70
   192
  0
VERTEX
  5
5F5
330
572
100
AcDbEntity
  8
ｴｸｽﾃﾘｱ商品
 62
   253
370
    20
100
AcDbVertex
100
AcDbPolyFaceMeshVertex
 10
3940.138082413168
 20
1393.918479908237
 30
459.061
 70
   192
  0
VERTEX
  5
5F6
330
572
100
AcDbEntity
  8
ｴｸｽﾃﾘｱ商品
 62
   253
370
    20
100
AcDbVertex
100
AcDbPolyFaceMeshVertex
 10
3939.793082413168
 20
505.7434799082366
 30
459.0
 70
   192
  0
VERTEX
  5
5F7
330
572
100
AcDbEntity
  8
ｴｸｽﾃﾘｱ商品
 62
   253
370
    20
100
AcDbVertex
100
AcDbPolyFaceMeshVertex
 10
3939.793082413168
 20
1393.918479908237
 30
459.0
 70
   192
  0
VERTEX
  5
5F8
330
572
100
AcDbEntity
  8
ｴｸｽﾃﾘｱ商品
 62
   253
370
    20
100
AcDbVertex
100
AcDbPolyFaceMeshVertex
 10
3939.618082413168
 20
505.9184799082366
 30
459.0
 70
   192
  0
VERTEX
  5
5F9
330
572
100
AcDbEntity
  8
ｴｸｽﾃﾘｱ商品
 62
   253
370
    20
100
AcDbVertex
100
AcDbPolyFaceMeshVertex
 10
3939.618082413168
 20
1393.918479908237
 30
459.0
 70
   192
  0
VERTEX
  5
5FA
330
572
100
AcDbEntity
  8
ｴｸｽﾃﾘｱ商品
 62
   253
370
    20
100
AcDbVertex
100
AcDbPolyFaceMeshVertex
 10
3934.618082413168
 20
510.9184799082365
 30
459.0
 70
   192
  0
VERTEX
  5
5FB
330
572
100
AcDbEntity
  8
ｴｸｽﾃﾘｱ商品
 62
   253
370
    20
100
AcDbVertex
100
AcDbPolyFaceMeshVertex
 10
3934.618082413168
 20
1393.918479908237
 30
459.0
 70
   192
  0
VERTEX
  5
5FC
330
572
100
AcDbEntity
  8
ｴｸｽﾃﾘｱ商品
 62
   253
370
    20
100
AcDbVertex
100
AcDbPolyFaceMeshVertex
 10
3934.531082413168
 20
511.0054799082362
 30
459.0
 70
   192
  0
VERTEX
  5
5FD
330
572
100
AcDbEntity
  8
ｴｸｽﾃﾘｱ商品
 62
   253
370
    20
100
AcDbVertex
100
AcDbPolyFaceMeshVertex
 10
3934.531082413168
 20
1393.918479908237
 30
459.0
 70
   192
  0
VERTEX
  5
5FE
330
572
100
AcDbEntity
  8
ｴｸｽﾃﾘｱ商品
 62
   253
370
    20
100
AcDbVertex
100
AcDbPolyFaceMeshVertex
 10
3934.358082413168
 20
511.1784799082364
 30
458.97
 70
   192
  0
VERTEX
  5
5FF
330
572
100
AcDbEntity
  8
ｴｸｽﾃﾘｱ商品
 62
   253
370
    20
100
AcDbVertex
100
AcDbPolyFaceMeshVertex
 10
3934.358082413168
 20
1393.918479908237
 30
458.97
 70
   192
  0
VERTEX
  5
600
330
572
100
AcDbEntity
  8
ｴｸｽﾃﾘｱ商品
 62
   253
370
    20
100
AcDbVertex
100
AcDbPolyFaceMeshVertex
 10
3934.194082413168
 20
511.3424799082367
 30
458.91
 70
   192
  0
VERTEX
  5
601
330
572
100
AcDbEntity
  8
ｴｸｽﾃﾘｱ商品
 62
   253
370
    20
100
AcDbVertex
100
AcDbPolyFaceMeshVertex
 10
3934.194082413168
 20
1393.918479908237
 30
458.91
 70
   192
  0
VERTEX
  5
602
330
572
100
AcDbEntity
  8
ｴｸｽﾃﾘｱ商品
 62
   253
370
    20
100
AcDbVertex
100
AcDbPolyFaceMeshVertex
 10
3934.042082413168
 20
511.4944799082366
 30
458.822
 70
   192
  0
VERTEX
  5
603
330
572
100
AcDbEntity
  8
ｴｸｽﾃﾘｱ商品
 62
   253
370
    20
100
AcDbVertex
100
AcDbPolyFaceMeshVertex
 10
3934.042082413168
 20
1393.918479908237
 30
458.822
 70
   192
  0
VERTEX
  5
604
330
572
100
AcDbEntity
  8
ｴｸｽﾃﾘｱ商品
 62
   253
370
    20
100
AcDbVertex
100
AcDbPolyFaceMeshVertex
 10
3933.908082413168
 20
511.6284799082362
 30
458.71
 70
   192
  0
VERTEX
  5
605
330
572
100
AcDbEntity
  8
ｴｸｽﾃﾘｱ商品
 62
   253
370
    20
100
AcDbVertex
100
AcDbPolyFaceMeshVertex
 10
3933.908082413168
 20
1393.918479908237
 30
458.71
 70
   192
  0
VERTEX
  5
606
330
572
100
AcDbEntity
  8
ｴｸｽﾃﾘｱ商品
 62
   253
370
    20
100
AcDbVertex
100
AcDbPolyFaceMeshVertex
 10
3933.796082413168
 20
511.7404799082365
 30
458.576
 70
   192
  0
VERTEX
  5
607
330
572
100
AcDbEntity
  8
ｴｸｽﾃﾘｱ商品
 62
   253
370
    20
100
AcDbVertex
100
AcDbPolyFaceMeshVertex
 10
3933.796082413168
 20
1393.918479908237
 30
458.576
 70
   192
  0
VERTEX
  5
608
330
572
100
AcDbEntity
  8
ｴｸｽﾃﾘｱ商品
 62
   253
370
    20
100
AcDbVertex
100
AcDbPolyFaceMeshVertex
 10
3933.708082413169
 20
511.8284799082361
 30
458.424
 70
   192
  0
VERTEX
  5
609
330
572
100
AcDbEntity
  8
ｴｸｽﾃﾘｱ商品
 62
   253
370
    20
100
AcDbVertex
100
AcDbPolyFaceMeshVertex
 10
3933.708082413169
 20
1393.918479908237
 30
458.424
 70
   192
  0
VERTEX
  5
60A
330
572
100
AcDbEntity
  8
ｴｸｽﾃﾘｱ商品
 62
   253
370
    20
100
AcDbVertex
100
AcDbPolyFaceMeshVertex
 10
3933.648082413169
 20
511.8884799082361
 30
458.26
 70
   192
  0
VERTEX
  5
60B
330
572
100
AcDbEntity
  8
ｴｸｽﾃﾘｱ商品
 62
   253
370
    20
100
AcDbVertex
100
AcDbPolyFaceMeshVertex
 10
3933.648082413169
 20
1393.918479908237
 30
458.26
 70
   192
  0
VERTEX
  5
60C
330
572
100
AcDbEntity
  8
ｴｸｽﾃﾘｱ商品
 62
   253
370
    20
100
AcDbVertex
100
AcDbPolyFaceMeshVertex
 10
3933.618082413168
 20
511.9184799082368
 30
458.087
 70
   192
  0
VERTEX
  5
60D
330
572
100
AcDbEntity
  8
ｴｸｽﾃﾘｱ商品
 62
   253
370
    20
100
AcDbVertex
100
AcDbPolyFaceMeshVertex
 10
3933.618082413168
 20
1393.918479908237
 30
458.087
 70
   192
  0
VERTEX
  5
60E
330
572
100
AcDbEntity
  8
ｴｸｽﾃﾘｱ商品
 62
   253
370
    20
100
AcDbVertex
100
AcDbPolyFaceMeshVertex
 10
3933.618082413168
 20
511.9184799082368
 30
458.0
 70
   192
  0
VERTEX
  5
60F
330
572
100
AcDbEntity
  8
ｴｸｽﾃﾘｱ商品
 62
   253
370
    20
100
AcDbVertex
100
AcDbPolyFaceMeshVertex
 10
3933.618082413168
 20
1393.918479908237
 30
458.0
 70
   192
  0
VERTEX
  5
610
330
572
100
AcDbEntity
  8
ｴｸｽﾃﾘｱ商品
 62
   253
370
    20
100
AcDbVertex
100
AcDbPolyFaceMeshVertex
 10
3933.618082413168
 20
511.9184799082368
 30
442.0
 70
   192
  0
VERTEX
  5
611
330
572
100
AcDbEntity
  8
ｴｸｽﾃﾘｱ商品
 62
   253
370
    20
100
AcDbVertex
100
AcDbPolyFaceMeshVertex
 10
3933.618082413168
 20
1393.918479908237
 30
442.0
 70
   192
  0
VERTEX
  5
612
330
572
100
AcDbEntity
  8
ｴｸｽﾃﾘｱ商品
 62
   253
370
    20
100
AcDbVertex
100
AcDbPolyFaceMeshVertex
 10
3933.618082413168
 20
511.9184799082368
 30
441.913
 70
   192
  0
VERTEX
  5
613
330
572
100
AcDbEntity
  8
ｴｸｽﾃﾘｱ商品
 62
   253
370
    20
100
AcDbVertex
100
AcDbPolyFaceMeshVertex
 10
3933.618082413168
 20
1393.918479908237
 30
441.913
 70
   192
  0
VERTEX
  5
614
330
572
100
AcDbEntity
  8
ｴｸｽﾃﾘｱ商品
 62
   253
370
    20
100
AcDbVertex
100
AcDbPolyFaceMeshVertex
 10
3933.588082413168
 20
511.9484799082369
 30
441.74
 70
   192
  0
VERTEX
  5
615
330
572
100
AcDbEntity
  8
ｴｸｽﾃﾘｱ商品
 62
   253
370
    20
100
AcDbVertex
100
AcDbPolyFaceMeshVertex
 10
3933.588082413168
 20
1393.918479908237
 30
441.74
 70
   192
  0
VERTEX
  5
616
330
572
100
AcDbEntity
  8
ｴｸｽﾃﾘｱ商品
 62
   253
370
    20
100
AcDbVertex
100
AcDbPolyFaceMeshVertex
 10
3933.528082413168
 20
512.008479908237
 30
441.576
 70
   192
  0
VERTEX
  5
617
330
572
100
AcDbEntity
  8
ｴｸｽﾃﾘｱ商品
 62
   253
370
    20
100
AcDbVertex
100
AcDbPolyFaceMeshVertex
 10
3933.528082413168
 20
1393.918479908237
 30
441.576
 70
   192
  0
VERTEX
  5
618
330
572
100
AcDbEntity
  8
ｴｸｽﾃﾘｱ商品
 62
   253
370
    20
100
AcDbVertex
100
AcDbPolyFaceMeshVertex
 10
3933.440082413169
 20
512.0964799082366
 30
441.424
 70
   192
  0
VERTEX
  5
619
330
572
100
AcDbEntity
  8
ｴｸｽﾃﾘｱ商品
 62
   253
370
    20
100
AcDbVertex
100
AcDbPolyFaceMeshVertex
 10
3933.440082413169
 20
1393.918479908237
 30
441.424
 70
   192
  0
VERTEX
  5
61A
330
572
100
AcDbEntity
  8
ｴｸｽﾃﾘｱ商品
 62
   253
370
    20
100
AcDbVertex
100
AcDbPolyFaceMeshVertex
 10
3933.328082413168
 20
512.2084799082367
 30
441.29
 70
   192
  0
VERTEX
  5
61B
330
572
100
AcDbEntity
  8
ｴｸｽﾃﾘｱ商品
 62
   253
370
    20
100
AcDbVertex
100
AcDbPolyFaceMeshVertex
 10
3933.328082413168
 20
1393.918479908237
 30
441.29
 70
   192
  0
VERTEX
  5
61C
330
572
100
AcDbEntity
  8
ｴｸｽﾃﾘｱ商品
 62
   253
370
    20
100
AcDbVertex
100
AcDbPolyFaceMeshVertex
 10
3933.194082413168
 20
512.342479908237
 30
441.178
 70
   192
  0
VERTEX
  5
61D
330
572
100
AcDbEntity
  8
ｴｸｽﾃﾘｱ商品
 62
   253
370
    20
100
AcDbVertex
100
AcDbPolyFaceMeshVertex
 10
3933.194082413168
 20
1393.918479908237
 30
441.178
 70
   192
  0
VERTEX
  5
61E
330
572
100
AcDbEntity
  8
ｴｸｽﾃﾘｱ商品
 62
   253
370
    20
100
AcDbVertex
100
AcDbPolyFaceMeshVertex
 10
3933.042082413168
 20
512.4944799082364
 30
441.09
 70
   192
  0
VERTEX
  5
61F
330
572
100
AcDbEntity
  8
ｴｸｽﾃﾘｱ商品
 62
   253
370
    20
100
AcDbVertex
100
AcDbPolyFaceMeshVertex
 10
3933.042082413168
 20
1393.918479908237
 30
441.09
 70
   192
  0
VERTEX
  5
620
330
572
100
AcDbEntity
  8
ｴｸｽﾃﾘｱ商品
 62
   253
370
    20
100
AcDbVertex
100
AcDbPolyFaceMeshVertex
 10
3932.878082413168
 20
512.6584799082367
 30
441.03
 70
   192
  0
VERTEX
  5
621
330
572
100
AcDbEntity
  8
ｴｸｽﾃﾘｱ商品
 62
   253
370
    20
100
AcDbVertex
100
AcDbPolyFaceMeshVertex
 10
3932.878082413168
 20
1393.918479908237
 30
441.03
 70
   192
  0
VERTEX
  5
622
330
572
100
AcDbEntity
  8
ｴｸｽﾃﾘｱ商品
 62
   253
370
    20
100
AcDbVertex
100
AcDbPolyFaceMeshVertex
 10
3932.705082413168
 20
512.8314799082368
 30
441.0
 70
   192
  0
VERTEX
  5
623
330
572
100
AcDbEntity
  8
ｴｸｽﾃﾘｱ商品
 62
   253
370
    20
100
AcDbVertex
100
AcDbPolyFaceMeshVertex
 10
3932.705082413168
 20
1393.918479908237
 30
441.0
 70
   192
  0
VERTEX
  5
624
330
572
100
AcDbEntity
  8
ｴｸｽﾃﾘｱ商品
 62
   253
370
    20
100
AcDbFaceRecord
 10
0.0
 20
0.0
 30
0.0
 70
   128
 71
     1
 72
     2
 73
     3
 74
     4
  0
VERTEX
  5
625
330
572
100
AcDbEntity
  8
ｴｸｽﾃﾘｱ商品
 62
   253
370
    20
100
AcDbFaceRecord
 10
0.0
 20
0.0
 30
0.0
 70
   128
 71
     4
 72
     3
 73
     5
 74
     6
  0
VERTEX
  5
626
330
572
100
AcDbEntity
  8
ｴｸｽﾃﾘｱ商品
 62
   253
370
    20
100
AcDbFaceRecord
 10
0.0
 20
0.0
 30
0.0
 70
   128
 71
     6
 72
     5
 73
     7
 74
     8
  0
VERTEX
  5
627
330
572
100
AcDbEntity
  8
ｴｸｽﾃﾘｱ商品
 62
   253
370
    20
100
AcDbFaceRecord
 10
0.0
 20
0.0
 30
0.0
 70
   128
 71
     8
 72
     7
 73
     9
 74
    10
  0
VERTEX
  5
628
330
572
100
AcDbEntity
  8
ｴｸｽﾃﾘｱ商品
 62
   253
370
    20
100
AcDbFaceRecord
 10
0.0
 20
0.0
 30
0.0
 70
   128
 71
    10
 72
     9
 73
    11
 74
    12
  0
VERTEX
  5
629
330
572
100
AcDbEntity
  8
ｴｸｽﾃﾘｱ商品
 62
   253
370
    20
100
AcDbFaceRecord
 10
0.0
 20
0.0
 30
0.0
 70
   128
 71
    12
 72
    11
 73
    13
 74
    14
  0
VERTEX
  5
62A
330
572
100
AcDbEntity
  8
ｴｸｽﾃﾘｱ商品
 62
   253
370
    20
100
AcDbFaceRecord
 10
0.0
 20
0.0
 30
0.0
 70
   128
 71
    14
 72
    13
 73
    15
 74
    16
  0
VERTEX
  5
62B
330
572
100
AcDbEntity
  8
ｴｸｽﾃﾘｱ商品
 62
   253
370
    20
100
AcDbFaceRecord
 10
0.0
 20
0.0
 30
0.0
 70
   128
 71
    16
 72
    15
 73
    17
 74
    18
  0
VERTEX
  5
62C
330
572
100
AcDbEntity
  8
ｴｸｽﾃﾘｱ商品
 62
   253
370
    20
100
AcDbFaceRecord
 10
0.0
 20
0.0
 30
0.0
 70
   128
 71
    18
 72
    17
 73
    19
 74
    20
  0
VERTEX
  5
62D
330
572
100
AcDbEntity
  8
ｴｸｽﾃﾘｱ商品
 62
   253
370
    20
100
AcDbFaceRecord
 10
0.0
 20
0.0
 30
0.0
 70
   128
 71
    20
 72
    19
 73
    21
 74
    22
  0
VERTEX
  5
62E
330
572
100
AcDbEntity
  8
ｴｸｽﾃﾘｱ商品
 62
   253
370
    20
100
AcDbFaceRecord
 10
0.0
 20
0.0
 30
0.0
 70
   128
 71
    22
 72
    21
 73
    23
 74
    24
  0
VERTEX
  5
62F
330
572
100
AcDbEntity
  8
ｴｸｽﾃﾘｱ商品
 62
   253
370
    20
100
AcDbFaceRecord
 10
0.0
 20
0.0
 30
0.0
 70
   128
 71
    24
 72
    23
 73
    25
 74
    26
  0
VERTEX
  5
630
330
572
100
AcDbEntity
  8
ｴｸｽﾃﾘｱ商品
 62
   253
370
    20
100
AcDbFaceRecord
 10
0.0
 20
0.0
 30
0.0
 70
   128
 71
    26
 72
    25
 73
    27
 74
    28
  0
VERTEX
  5
631
330
572
100
AcDbEntity
  8
ｴｸｽﾃﾘｱ商品
 62
   253
370
    20
100
AcDbFaceRecord
 10
0.0
 20
0.0
 30
0.0
 70
   128
 71
    28
 72
    27
 73
    29
 74
    30
  0
VERTEX
  5
632
330
572
100
AcDbEntity
  8
ｴｸｽﾃﾘｱ商品
 62
   253
370
    20
100
AcDbFaceRecord
 10
0.0
 20
0.0
 30
0.0
 70
   128
 71
    30
 72
    29
 73
    31
 74
    32
  0
VERTEX
  5
633
330
572
100
AcDbEntity
  8
ｴｸｽﾃﾘｱ商品
 62
   253
370
    20
100
AcDbFaceRecord
 10
0.0
 20
0.0
 30
0.0
 70
   128
 71
    32
 72
    31
 73
    33
 74
    34
  0
VERTEX
  5
634
330
572
100
AcDbEntity
  8
ｴｸｽﾃﾘｱ商品
 62
   253
370
    20
100
AcDbFaceRecord
 10
0.0
 20
0.0
 30
0.0
 70
   128
 71
    34
 72
    33
 73
    35
 74
    36
  0
VERTEX
  5
635
330
572
100
AcDbEntity
  8
ｴｸｽﾃﾘｱ商品
 62
   253
370
    20
100
AcDbFaceRecord
 10
0.0
 20
0.0
 30
0.0
 70
   128
 71
    36
 72
    35
 73
    37
 74
    38
  0
VERTEX
  5
636
330
572
100
AcDbEntity
  8
ｴｸｽﾃﾘｱ商品
 62
   253
370
    20
100
AcDbFaceRecord
 10
0.0
 20
0.0
 30
0.0
 70
   128
 71
    38
 72
    37
 73
    39
 74
    40
  0
VERTEX
  5
637
330
572
100
AcDbEntity
  8
ｴｸｽﾃﾘｱ商品
 62
   253
370
    20
100
AcDbFaceRecord
 10
0.0
 20
0.0
 30
0.0
 70
   128
 71
    40
 72
    39
 73
    41
 74
    42
  0
VERTEX
  5
638
330
572
100
AcDbEntity
  8
ｴｸｽﾃﾘｱ商品
 62
   253
370
    20
100
AcDbFaceRecord
 10
0.0
 20
0.0
 30
0.0
 70
   128
 71
    42
 72
    41
 73
    43
 74
    44
  0
VERTEX
  5
639
330
572
100
AcDbEntity
  8
ｴｸｽﾃﾘｱ商品
 62
   253
370
    20
100
AcDbFaceRecord
 10
0.0
 20
0.0
 30
0.0
 70
   128
 71
    44
 72
    43
 73
    45
 74
    46
  0
VERTEX
  5
63A
330
572
100
AcDbEntity
  8
ｴｸｽﾃﾘｱ商品
 62
   253
370
    20
100
AcDbFaceRecord
 10
0.0
 20
0.0
 30
0.0
 70
   128
 71
    46
 72
    45
 73
    47
 74
    48
  0
VERTEX
  5
63B
330
572
100
AcDbEntity
  8
ｴｸｽﾃﾘｱ商品
 62
   253
370
    20
100
AcDbFaceRecord
 10
0.0
 20
0.0
 30
0.0
 70
   128
 71
    48
 72
    47
 73
    49
 74
    50
  0
VERTEX
  5
63C
330
572
100
AcDbEntity
  8
ｴｸｽﾃﾘｱ商品
 62
   253
370
    20
100
AcDbFaceRecord
 10
0.0
 20
0.0
 30
0.0
 70
   128
 71
    50
 72
    49
 73
    51
 74
    52
  0
VERTEX
  5
63D
330
572
100
AcDbEntity
  8
ｴｸｽﾃﾘｱ商品
 62
   253
370
    20
100
AcDbFaceRecord
 10
0.0
 20
0.0
 30
0.0
 70
   128
 71
    52
 72
    51
 73
    53
 74
    54
  0
VERTEX
  5
63E
330
572
100
AcDbEntity
  8
ｴｸｽﾃﾘｱ商品
 62
   253
370
    20
100
AcDbFaceRecord
 10
0.0
 20
0.0
 30
0.0
 70
   128
 71
    54
 72
    53
 73
    55
 74
    56
  0
VERTEX
  5
63F
330
572
100
AcDbEntity
  8
ｴｸｽﾃﾘｱ商品
 62
   253
370
    20
100
AcDbFaceRecord
 10
0.0
 20
0.0
 30
0.0
 70
   128
 71
    56
 72
    55
 73
    57
 74
    58
  0
VERTEX
  5
640
330
572
100
AcDbEntity
  8
ｴｸｽﾃﾘｱ商品
 62
   253
370
    20
100
AcDbFaceRecord
 10
0.0
 20
0.0
 30
0.0
 70
   128
 71
    58
 72
    57
 73
    59
 74
    60
  0
VERTEX
  5
641
330
572
100
AcDbEntity
  8
ｴｸｽﾃﾘｱ商品
 62
   253
370
    20
100
AcDbFaceRecord
 10
0.0
 20
0.0
 30
0.0
 70
   128
 71
    60
 72
    59
 73
    61
 74
    62
  0
VERTEX
  5
642
330
572
100
AcDbEntity
  8
ｴｸｽﾃﾘｱ商品
 62
   253
370
    20
100
AcDbFaceRecord
 10
0.0
 20
0.0
 30
0.0
 70
   128
 71
    62
 72
    61
 73
    63
 74
    64
  0
VERTEX
  5
643
330
572
100
AcDbEntity
  8
ｴｸｽﾃﾘｱ商品
 62
   253
370
    20
100
AcDbFaceRecord
 10
0.0
 20
0.0
 30
0.0
 70
   128
 71
    64
 72
    63
 73
    65
 74
    66
  0
VERTEX
  5
644
330
572
100
AcDbEntity
  8
ｴｸｽﾃﾘｱ商品
 62
   253
370
    20
100
AcDbFaceRecord
 10
0.0
 20
0.0
 30
0.0
 70
   128
 71
    66
 72
    65
 73
    67
 74
    68
  0
VERTEX
  5
645
330
572
100
AcDbEntity
  8
ｴｸｽﾃﾘｱ商品
 62
   253
370
    20
100
AcDbFaceRecord
 10
0.0
 20
0.0
 30
0.0
 70
   128
 71
    68
 72
    67
 73
    69
 74
    70
  0
VERTEX
  5
646
330
572
100
AcDbEntity
  8
ｴｸｽﾃﾘｱ商品
 62
   253
370
    20
100
AcDbFaceRecord
 10
0.0
 20
0.0
 30
0.0
 70
   128
 71
    70
 72
    69
 73
    71
 74
    72
  0
VERTEX
  5
647
330
572
100
AcDbEntity
  8
ｴｸｽﾃﾘｱ商品
 62
   253
370
    20
100
AcDbFaceRecord
 10
0.0
 20
0.0
 30
0.0
 70
   128
 71
    72
 72
    71
 73
    73
 74
    74
  0
VERTEX
  5
648
330
572
100
AcDbEntity
  8
ｴｸｽﾃﾘｱ商品
 62
   253
370
    20
100
AcDbFaceRecord
 10
0.0
 20
0.0
 30
0.0
 70
   128
 71
    74
 72
    73
 73
    75
 74
    76
  0
VERTEX
  5
649
330
572
100
AcDbEntity
  8
ｴｸｽﾃﾘｱ商品
 62
   253
370
    20
100
AcDbFaceRecord
 10
0.0
 20
0.0
 30
0.0
 70
   128
 71
    76
 72
    75
 73
    77
 74
    78
  0
VERTEX
  5
64A
330
572
100
AcDbEntity
  8
ｴｸｽﾃﾘｱ商品
 62
   253
370
    20
100
AcDbFaceRecord
 10
0.0
 20
0.0
 30
0.0
 70
   128
 71
    78
 72
    77
 73
    79
 74
    80
  0
VERTEX
  5
64B
330
572
100
AcDbEntity
  8
ｴｸｽﾃﾘｱ商品
 62
   253
370
    20
100
AcDbFaceRecord
 10
0.0
 20
0.0
 30
0.0
 70
   128
 71
    80
 72
    79
 73
    81
 74
    82
  0
VERTEX
  5
64C
330
572
100
AcDbEntity
  8
ｴｸｽﾃﾘｱ商品
 62
   253
370
    20
100
AcDbFaceRecord
 10
0.0
 20
0.0
 30
0.0
 70
   128
 71
    82
 72
    81
 73
    83
 74
    84
  0
VERTEX
  5
64D
330
572
100
AcDbEntity
  8
ｴｸｽﾃﾘｱ商品
 62
   253
370
    20
100
AcDbFaceRecord
 10
0.0
 20
0.0
 30
0.0
 70
   128
 71
    84
 72
    83
 73
    85
 74
    86
  0
VERTEX
  5
64E
330
572
100
AcDbEntity
  8
ｴｸｽﾃﾘｱ商品
 62
   253
370
    20
100
AcDbFaceRecord
 10
0.0
 20
0.0
 30
0.0
 70
   128
 71
    86
 72
    85
 73
    87
 74
    88
  0
VERTEX
  5
64F
330
572
100
AcDbEntity
  8
ｴｸｽﾃﾘｱ商品
 62
   253
370
    20
100
AcDbFaceRecord
 10
0.0
 20
0.0
 30
0.0
 70
   128
 71
    88
 72
    87
 73
    89
 74
    90
  0
VERTEX
  5
650
330
572
100
AcDbEntity
  8
ｴｸｽﾃﾘｱ商品
 62
   253
370
    20
100
AcDbFaceRecord
 10
0.0
 20
0.0
 30
0.0
 70
   128
 71
    90
 72
    89
 73
    91
 74
    92
  0
VERTEX
  5
651
330
572
100
AcDbEntity
  8
ｴｸｽﾃﾘｱ商品
 62
   253
370
    20
100
AcDbFaceRecord
 10
0.0
 20
0.0
 30
0.0
 70
   128
 71
    92
 72
    91
 73
    93
 74
    94
  0
VERTEX
  5
652
330
572
100
AcDbEntity
  8
ｴｸｽﾃﾘｱ商品
 62
   253
370
    20
100
AcDbFaceRecord
 10
0.0
 20
0.0
 30
0.0
 70
   128
 71
    94
 72
    93
 73
    95
 74
    96
  0
VERTEX
  5
653
330
572
100
AcDbEntity
  8
ｴｸｽﾃﾘｱ商品
 62
   253
370
    20
100
AcDbFaceRecord
 10
0.0
 20
0.0
 30
0.0
 70
   128
 71
    96
 72
    95
 73
    97
 74
    98
  0
VERTEX
  5
654
330
572
100
AcDbEntity
  8
ｴｸｽﾃﾘｱ商品
 62
   253
370
    20
100
AcDbFaceRecord
 10
0.0
 20
0.0
 30
0.0
 70
   128
 71
    98
 72
    97
 73
    99
 74
   100
  0
VERTEX
  5
655
330
572
100
AcDbEntity
  8
ｴｸｽﾃﾘｱ商品
 62
   253
370
    20
100
AcDbFaceRecord
 10
0.0
 20
0.0
 30
0.0
 70
   128
 71
   100
 72
    99
 73
   101
 74
   102
  0
VERTEX
  5
656
330
572
100
AcDbEntity
  8
ｴｸｽﾃﾘｱ商品
 62
   253
370
    20
100
AcDbFaceRecord
 10
0.0
 20
0.0
 30
0.0
 70
   128
 71
   102
 72
   101
 73
   103
 74
   104
  0
VERTEX
  5
657
330
572
100
AcDbEntity
  8
ｴｸｽﾃﾘｱ商品
 62
   253
370
    20
100
AcDbFaceRecord
 10
0.0
 20
0.0
 30
0.0
 70
   128
 71
   104
 72
   103
 73
   105
 74
   106
  0
VERTEX
  5
658
330
572
100
AcDbEntity
  8
ｴｸｽﾃﾘｱ商品
 62
   253
370
    20
100
AcDbFaceRecord
 10
0.0
 20
0.0
 30
0.0
 70
   128
 71
   106
 72
   105
 73
   107
 74
   108
  0
VERTEX
  5
659
330
572
100
AcDbEntity
  8
ｴｸｽﾃﾘｱ商品
 62
   253
370
    20
100
AcDbFaceRecord
 10
0.0
 20
0.0
 30
0.0
 70
   128
 71
   108
 72
   107
 73
   109
 74
   110
  0
VERTEX
  5
65A
330
572
100
AcDbEntity
  8
ｴｸｽﾃﾘｱ商品
 62
   253
370
    20
100
AcDbFaceRecord
 10
0.0
 20
0.0
 30
0.0
 70
   128
 71
   110
 72
   109
 73
   111
 74
   112
  0
VERTEX
  5
65B
330
572
100
AcDbEntity
  8
ｴｸｽﾃﾘｱ商品
 62
   253
370
    20
100
AcDbFaceRecord
 10
0.0
 20
0.0
 30
0.0
 70
   128
 71
   112
 72
   111
 73
   113
 74
   114
  0
VERTEX
  5
65C
330
572
100
AcDbEntity
  8
ｴｸｽﾃﾘｱ商品
 62
   253
370
    20
100
AcDbFaceRecord
 10
0.0
 20
0.0
 30
0.0
 70
   128
 71
   114
 72
   113
 73
   115
 74
   116
  0
VERTEX
  5
65D
330
572
100
AcDbEntity
  8
ｴｸｽﾃﾘｱ商品
 62
   253
370
    20
100
AcDbFaceRecord
 10
0.0
 20
0.0
 30
0.0
 70
   128
 71
   116
 72
   115
 73
   117
 74
   118
  0
VERTEX
  5
65E
330
572
100
AcDbEntity
  8
ｴｸｽﾃﾘｱ商品
 62
   253
370
    20
100
AcDbFaceRecord
 10
0.0
 20
0.0
 30
0.0
 70
   128
 71
   118
 72
   117
 73
   119
 74
   120
  0
VERTEX
  5
65F
330
572
100
AcDbEntity
  8
ｴｸｽﾃﾘｱ商品
 62
   253
370
    20
100
AcDbFaceRecord
 10
0.0
 20
0.0
 30
0.0
 70
   128
 71
   120
 72
   119
 73
   121
 74
   122
  0
VERTEX
  5
660
330
572
100
AcDbEntity
  8
ｴｸｽﾃﾘｱ商品
 62
   253
370
    20
100
AcDbFaceRecord
 10
0.0
 20
0.0
 30
0.0
 70
   128
 71
   122
 72
   121
 73
   123
 74
   124
  0
VERTEX
  5
661
330
572
100
AcDbEntity
  8
ｴｸｽﾃﾘｱ商品
 62
   253
370
    20
100
AcDbFaceRecord
 10
0.0
 20
0.0
 30
0.0
 70
   128
 71
   124
 72
   123
 73
   125
 74
   126
  0
VERTEX
  5
662
330
572
100
AcDbEntity
  8
ｴｸｽﾃﾘｱ商品
 62
   253
370
    20
100
AcDbFaceRecord
 10
0.0
 20
0.0
 30
0.0
 70
   128
 71
   126
 72
   125
 73
   127
 74
   128
  0
VERTEX
  5
663
330
572
100
AcDbEntity
  8
ｴｸｽﾃﾘｱ商品
 62
   253
370
    20
100
AcDbFaceRecord
 10
0.0
 20
0.0
 30
0.0
 70
   128
 71
   128
 72
   127
 73
   129
 74
   130
  0
VERTEX
  5
664
330
572
100
AcDbEntity
  8
ｴｸｽﾃﾘｱ商品
 62
   253
370
    20
100
AcDbFaceRecord
 10
0.0
 20
0.0
 30
0.0
 70
   128
 71
   130
 72
   129
 73
   131
 74
   132
  0
VERTEX
  5
665
330
572
100
AcDbEntity
  8
ｴｸｽﾃﾘｱ商品
 62
   253
370
    20
100
AcDbFaceRecord
 10
0.0
 20
0.0
 30
0.0
 70
   128
 71
   132
 72
   131
 73
   133
 74
   134
  0
VERTEX
  5
666
330
572
100
AcDbEntity
  8
ｴｸｽﾃﾘｱ商品
 62
   253
370
    20
100
AcDbFaceRecord
 10
0.0
 20
0.0
 30
0.0
 70
   128
 71
   134
 72
   133
 73
   135
 74
   136
  0
VERTEX
  5
667
330
572
100
AcDbEntity
  8
ｴｸｽﾃﾘｱ商品
 62
   253
370
    20
100
AcDbFaceRecord
 10
0.0
 20
0.0
 30
0.0
 70
   128
 71
   136
 72
   135
 73
   137
 74
   138
  0
VERTEX
  5
668
330
572
100
AcDbEntity
  8
ｴｸｽﾃﾘｱ商品
 62
   253
370
    20
100
AcDbFaceRecord
 10
0.0
 20
0.0
 30
0.0
 70
   128
 71
   138
 72
   137
 73
   139
 74
   140
  0
VERTEX
  5
669
330
572
100
AcDbEntity
  8
ｴｸｽﾃﾘｱ商品
 62
   253
370
    20
100
AcDbFaceRecord
 10
0.0
 20
0.0
 30
0.0
 70
   128
 71
   140
 72
   139
 73
   141
 74
   142
  0
VERTEX
  5
66A
330
572
100
AcDbEntity
  8
ｴｸｽﾃﾘｱ商品
 62
   253
370
    20
100
AcDbFaceRecord
 10
0.0
 20
0.0
 30
0.0
 70
   128
 71
   142
 72
   141
 73
   143
 74
   144
  0
VERTEX
  5
66B
330
572
100
AcDbEntity
  8
ｴｸｽﾃﾘｱ商品
 62
   253
370
    20
100
AcDbFaceRecord
 10
0.0
 20
0.0
 30
0.0
 70
   128
 71
   144
 72
   143
 73
   145
 74
   146
  0
VERTEX
  5
66C
330
572
100
AcDbEntity
  8
ｴｸｽﾃﾘｱ商品
 62
   253
370
    20
100
AcDbFaceRecord
 10
0.0
 20
0.0
 30
0.0
 70
   128
 71
   146
 72
   145
 73
   147
 74
   148
  0
VERTEX
  5
66D
330
572
100
AcDbEntity
  8
ｴｸｽﾃﾘｱ商品
 62
   253
370
    20
100
AcDbFaceRecord
 10
0.0
 20
0.0
 30
0.0
 70
   128
 71
   148
 72
   147
 73
   149
 74
   150
  0
VERTEX
  5
66E
330
572
100
AcDbEntity
  8
ｴｸｽﾃﾘｱ商品
 62
   253
370
    20
100
AcDbFaceRecord
 10
0.0
 20
0.0
 30
0.0
 70
   128
 71
   150
 72
   149
 73
   151
 74
   152
  0
VERTEX
  5
66F
330
572
100
AcDbEntity
  8
ｴｸｽﾃﾘｱ商品
 62
   253
370
    20
100
AcDbFaceRecord
 10
0.0
 20
0.0
 30
0.0
 70
   128
 71
   152
 72
   151
 73
   153
 74
   154
  0
VERTEX
  5
670
330
572
100
AcDbEntity
  8
ｴｸｽﾃﾘｱ商品
 62
   253
370
    20
100
AcDbFaceRecord
 10
0.0
 20
0.0
 30
0.0
 70
   128
 71
   154
 72
   153
 73
   155
 74
   156
  0
VERTEX
  5
671
330
572
100
AcDbEntity
  8
ｴｸｽﾃﾘｱ商品
 62
   253
370
    20
100
AcDbFaceRecord
 10
0.0
 20
0.0
 30
0.0
 70
   128
 71
   156
 72
   155
 73
   157
 74
   158
  0
VERTEX
  5
672
330
572
100
AcDbEntity
  8
ｴｸｽﾃﾘｱ商品
 62
   253
370
    20
100
AcDbFaceRecord
 10
0.0
 20
0.0
 30
0.0
 70
   128
 71
   158
 72
   157
 73
   159
 74
   160
  0
VERTEX
  5
673
330
572
100
AcDbEntity
  8
ｴｸｽﾃﾘｱ商品
 62
   253
370
    20
100
AcDbFaceRecord
 10
0.0
 20
0.0
 30
0.0
 70
   128
 71
   160
 72
   159
 73
   161
 74
   162
  0
VERTEX
  5
674
330
572
100
AcDbEntity
  8
ｴｸｽﾃﾘｱ商品
 62
   253
370
    20
100
AcDbFaceRecord
 10
0.0
 20
0.0
 30
0.0
 70
   128
 71
   162
 72
   161
 73
   163
 74
   164
  0
VERTEX
  5
675
330
572
100
AcDbEntity
  8
ｴｸｽﾃﾘｱ商品
 62
   253
370
    20
100
AcDbFaceRecord
 10
0.0
 20
0.0
 30
0.0
 70
   128
 71
   164
 72
   163
 73
   165
 74
   166
  0
VERTEX
  5
676
330
572
100
AcDbEntity
  8
ｴｸｽﾃﾘｱ商品
 62
   253
370
    20
100
AcDbFaceRecord
 10
0.0
 20
0.0
 30
0.0
 70
   128
 71
   166
 72
   165
 73
   167
 74
   168
  0
VERTEX
  5
677
330
572
100
AcDbEntity
  8
ｴｸｽﾃﾘｱ商品
 62
   253
370
    20
100
AcDbFaceRecord
 10
0.0
 20
0.0
 30
0.0
 70
   128
 71
   168
 72
   167
 73
   169
 74
   170
  0
VERTEX
  5
678
330
572
100
AcDbEntity
  8
ｴｸｽﾃﾘｱ商品
 62
   253
370
    20
100
AcDbFaceRecord
 10
0.0
 20
0.0
 30
0.0
 70
   128
 71
   170
 72
   169
 73
   171
 74
   172
  0
VERTEX
  5
679
330
572
100
AcDbEntity
  8
ｴｸｽﾃﾘｱ商品
 62
   253
370
    20
100
AcDbFaceRecord
 10
0.0
 20
0.0
 30
0.0
 70
   128
 71
   172
 72
   171
 73
   173
 74
   174
  0
VERTEX
  5
67A
330
572
100
AcDbEntity
  8
ｴｸｽﾃﾘｱ商品
 62
   253
370
    20
100
AcDbFaceRecord
 10
0.0
 20
0.0
 30
0.0
 70
   128
 71
   174
 72
   173
 73
   175
 74
   176
  0
VERTEX
  5
67B
330
572
100
AcDbEntity
  8
ｴｸｽﾃﾘｱ商品
 62
   253
370
    20
100
AcDbFaceRecord
 10
0.0
 20
0.0
 30
0.0
 70
   128
 71
   176
 72
   175
 73
     2
 74
     1
  0
VERTEX
  5
67C
330
572
100
AcDbEntity
  8
ｴｸｽﾃﾘｱ商品
 62
   253
370
    20
100
AcDbFaceRecord
 10
0.0
 20
0.0
 30
0.0
 70
   128
 71
    92
 72
    94
 73
    96
  0
VERTEX
  5
67D
330
572
100
AcDbEntity
  8
ｴｸｽﾃﾘｱ商品
 62
   253
370
    20
100
AcDbFaceRecord
 10
0.0
 20
0.0
 30
0.0
 70
   128
 71
    90
 72
    92
 73
    96
  0
VERTEX
  5
67E
330
572
100
AcDbEntity
  8
ｴｸｽﾃﾘｱ商品
 62
   253
370
    20
100
AcDbFaceRecord
 10
0.0
 20
0.0
 30
0.0
 70
   128
 71
    90
 72
    96
 73
    98
  0
VERTEX
  5
67F
330
572
100
AcDbEntity
  8
ｴｸｽﾃﾘｱ商品
 62
   253
370
    20
100
AcDbFaceRecord
 10
0.0
 20
0.0
 30
0.0
 70
   128
 71
    90
 72
    98
 73
   100
  0
VERTEX
  5
680
330
572
100
AcDbEntity
  8
ｴｸｽﾃﾘｱ商品
 62
   253
370
    20
100
AcDbFaceRecord
 10
0.0
 20
0.0
 30
0.0
 70
   128
 71
    90
 72
   100
 73
   102
  0
VERTEX
  5
681
330
572
100
AcDbEntity
  8
ｴｸｽﾃﾘｱ商品
 62
   253
370
    20
100
AcDbFaceRecord
 10
0.0
 20
0.0
 30
0.0
 70
   128
 71
    90
 72
   102
 73
   104
  0
VERTEX
  5
682
330
572
100
AcDbEntity
  8
ｴｸｽﾃﾘｱ商品
 62
   253
370
    20
100
AcDbFaceRecord
 10
0.0
 20
0.0
 30
0.0
 70
   128
 71
    90
 72
   104
 73
   106
  0
VERTEX
  5
683
330
572
100
AcDbEntity
  8
ｴｸｽﾃﾘｱ商品
 62
   253
370
    20
100
AcDbFaceRecord
 10
0.0
 20
0.0
 30
0.0
 70
   128
 71
    90
 72
   106
 73
   108
  0
VERTEX
  5
684
330
572
100
AcDbEntity
  8
ｴｸｽﾃﾘｱ商品
 62
   253
370
    20
100
AcDbFaceRecord
 10
0.0
 20
0.0
 30
0.0
 70
   128
 71
    90
 72
   108
 73
   110
  0
VERTEX
  5
685
330
572
100
AcDbEntity
  8
ｴｸｽﾃﾘｱ商品
 62
   253
370
    20
100
AcDbFaceRecord
 10
0.0
 20
0.0
 30
0.0
 70
   128
 71
    90
 72
   110
 73
   112
  0
VERTEX
  5
686
330
572
100
AcDbEntity
  8
ｴｸｽﾃﾘｱ商品
 62
   253
370
    20
100
AcDbFaceRecord
 10
0.0
 20
0.0
 30
0.0
 70
   128
 71
    88
 72
    90
 73
   112
  0
VERTEX
  5
687
330
572
100
AcDbEntity
  8
ｴｸｽﾃﾘｱ商品
 62
   253
370
    20
100
AcDbFaceRecord
 10
0.0
 20
0.0
 30
0.0
 70
   128
 71
    86
 72
    88
 73
   112
  0
VERTEX
  5
688
330
572
100
AcDbEntity
  8
ｴｸｽﾃﾘｱ商品
 62
   253
370
    20
100
AcDbFaceRecord
 10
0.0
 20
0.0
 30
0.0
 70
   128
 71
    84
 72
    86
 73
   112
  0
VERTEX
  5
689
330
572
100
AcDbEntity
  8
ｴｸｽﾃﾘｱ商品
 62
   253
370
    20
100
AcDbFaceRecord
 10
0.0
 20
0.0
 30
0.0
 70
   128
 71
    82
 72
    84
 73
   112
  0
VERTEX
  5
68A
330
572
100
AcDbEntity
  8
ｴｸｽﾃﾘｱ商品
 62
   253
370
    20
100
AcDbFaceRecord
 10
0.0
 20
0.0
 30
0.0
 70
   128
 71
    80
 72
    82
 73
   112
  0
VERTEX
  5
68B
330
572
100
AcDbEntity
  8
ｴｸｽﾃﾘｱ商品
 62
   253
370
    20
100
AcDbFaceRecord
 10
0.0
 20
0.0
 30
0.0
 70
   128
 71
    78
 72
    80
 73
   112
  0
VERTEX
  5
68C
330
572
100
AcDbEntity
  8
ｴｸｽﾃﾘｱ商品
 62
   253
370
    20
100
AcDbFaceRecord
 10
0.0
 20
0.0
 30
0.0
 70
   128
 71
    76
 72
    78
 73
   112
  0
VERTEX
  5
68D
330
572
100
AcDbEntity
  8
ｴｸｽﾃﾘｱ商品
 62
   253
370
    20
100
AcDbFaceRecord
 10
0.0
 20
0.0
 30
0.0
 70
   128
 71
    74
 72
    76
 73
   112
  0
VERTEX
  5
68E
330
572
100
AcDbEntity
  8
ｴｸｽﾃﾘｱ商品
 62
   253
370
    20
100
AcDbFaceRecord
 10
0.0
 20
0.0
 30
0.0
 70
   128
 71
    72
 72
    74
 73
   112
  0
VERTEX
  5
68F
330
572
100
AcDbEntity
  8
ｴｸｽﾃﾘｱ商品
 62
   253
370
    20
100
AcDbFaceRecord
 10
0.0
 20
0.0
 30
0.0
 70
   128
 71
    66
 72
    72
 73
   112
  0
VERTEX
  5
690
330
572
100
AcDbEntity
  8
ｴｸｽﾃﾘｱ商品
 62
   253
370
    20
100
AcDbFaceRecord
 10
0.0
 20
0.0
 30
0.0
 70
   128
 71
    66
 72
   112
 73
   116
  0
VERTEX
  5
691
330
572
100
AcDbEntity
  8
ｴｸｽﾃﾘｱ商品
 62
   253
370
    20
100
AcDbFaceRecord
 10
0.0
 20
0.0
 30
0.0
 70
   128
 71
    64
 72
    66
 73
   116
  0
VERTEX
  5
692
330
572
100
AcDbEntity
  8
ｴｸｽﾃﾘｱ商品
 62
   253
370
    20
100
AcDbFaceRecord
 10
0.0
 20
0.0
 30
0.0
 70
   128
 71
    64
 72
   116
 73
   118
  0
VERTEX
  5
693
330
572
100
AcDbEntity
  8
ｴｸｽﾃﾘｱ商品
 62
   253
370
    20
100
AcDbFaceRecord
 10
0.0
 20
0.0
 30
0.0
 70
   128
 71
    62
 72
    64
 73
   118
  0
VERTEX
  5
694
330
572
100
AcDbEntity
  8
ｴｸｽﾃﾘｱ商品
 62
   253
370
    20
100
AcDbFaceRecord
 10
0.0
 20
0.0
 30
0.0
 70
   128
 71
    62
 72
   118
 73
   120
  0
VERTEX
  5
695
330
572
100
AcDbEntity
  8
ｴｸｽﾃﾘｱ商品
 62
   253
370
    20
100
AcDbFaceRecord
 10
0.0
 20
0.0
 30
0.0
 70
   128
 71
    60
 72
    62
 73
   120
  0
VERTEX
  5
696
330
572
100
AcDbEntity
  8
ｴｸｽﾃﾘｱ商品
 62
   253
370
    20
100
AcDbFaceRecord
 10
0.0
 20
0.0
 30
0.0
 70
   128
 71
    60
 72
   120
 73
   122
  0
VERTEX
  5
697
330
572
100
AcDbEntity
  8
ｴｸｽﾃﾘｱ商品
 62
   253
370
    20
100
AcDbFaceRecord
 10
0.0
 20
0.0
 30
0.0
 70
   128
 71
    58
 72
    60
 73
   122
  0
VERTEX
  5
698
330
572
100
AcDbEntity
  8
ｴｸｽﾃﾘｱ商品
 62
   253
370
    20
100
AcDbFaceRecord
 10
0.0
 20
0.0
 30
0.0
 70
   128
 71
    58
 72
   122
 73
   124
  0
VERTEX
  5
699
330
572
100
AcDbEntity
  8
ｴｸｽﾃﾘｱ商品
 62
   253
370
    20
100
AcDbFaceRecord
 10
0.0
 20
0.0
 30
0.0
 70
   128
 71
    56
 72
    58
 73
   124
  0
VERTEX
  5
69A
330
572
100
AcDbEntity
  8
ｴｸｽﾃﾘｱ商品
 62
   253
370
    20
100
AcDbFaceRecord
 10
0.0
 20
0.0
 30
0.0
 70
   128
 71
    56
 72
   124
 73
   126
  0
VERTEX
  5
69B
330
572
100
AcDbEntity
  8
ｴｸｽﾃﾘｱ商品
 62
   253
370
    20
100
AcDbFaceRecord
 10
0.0
 20
0.0
 30
0.0
 70
   128
 71
    54
 72
    56
 73
   126
  0
VERTEX
  5
69C
330
572
100
AcDbEntity
  8
ｴｸｽﾃﾘｱ商品
 62
   253
370
    20
100
AcDbFaceRecord
 10
0.0
 20
0.0
 30
0.0
 70
   128
 71
    54
 72
   126
 73
   128
  0
VERTEX
  5
69D
330
572
100
AcDbEntity
  8
ｴｸｽﾃﾘｱ商品
 62
   253
370
    20
100
AcDbFaceRecord
 10
0.0
 20
0.0
 30
0.0
 70
   128
 71
    52
 72
    54
 73
   128
  0
VERTEX
  5
69E
330
572
100
AcDbEntity
  8
ｴｸｽﾃﾘｱ商品
 62
   253
370
    20
100
AcDbFaceRecord
 10
0.0
 20
0.0
 30
0.0
 70
   128
 71
    52
 72
   128
 73
   130
  0
VERTEX
  5
69F
330
572
100
AcDbEntity
  8
ｴｸｽﾃﾘｱ商品
 62
   253
370
    20
100
AcDbFaceRecord
 10
0.0
 20
0.0
 30
0.0
 70
   128
 71
    50
 72
    52
 73
   130
  0
VERTEX
  5
6A0
330
572
100
AcDbEntity
  8
ｴｸｽﾃﾘｱ商品
 62
   253
370
    20
100
AcDbFaceRecord
 10
0.0
 20
0.0
 30
0.0
 70
   128
 71
    44
 72
    50
 73
   130
  0
VERTEX
  5
6A1
330
572
100
AcDbEntity
  8
ｴｸｽﾃﾘｱ商品
 62
   253
370
    20
100
AcDbFaceRecord
 10
0.0
 20
0.0
 30
0.0
 70
   128
 71
    44
 72
   130
 73
   132
  0
VERTEX
  5
6A2
330
572
100
AcDbEntity
  8
ｴｸｽﾃﾘｱ商品
 62
   253
370
    20
100
AcDbFaceRecord
 10
0.0
 20
0.0
 30
0.0
 70
   128
 71
    42
 72
    44
 73
   138
  0
VERTEX
  5
6A3
330
572
100
AcDbEntity
  8
ｴｸｽﾃﾘｱ商品
 62
   253
370
    20
100
AcDbFaceRecord
 10
0.0
 20
0.0
 30
0.0
 70
   128
 71
    42
 72
   138
 73
   140
  0
VERTEX
  5
6A4
330
572
100
AcDbEntity
  8
ｴｸｽﾃﾘｱ商品
 62
   253
370
    20
100
AcDbFaceRecord
 10
0.0
 20
0.0
 30
0.0
 70
   128
 71
    40
 72
    42
 73
   140
  0
VERTEX
  5
6A5
330
572
100
AcDbEntity
  8
ｴｸｽﾃﾘｱ商品
 62
   253
370
    20
100
AcDbFaceRecord
 10
0.0
 20
0.0
 30
0.0
 70
   128
 71
    40
 72
   140
 73
   142
  0
VERTEX
  5
6A6
330
572
100
AcDbEntity
  8
ｴｸｽﾃﾘｱ商品
 62
   253
370
    20
100
AcDbFaceRecord
 10
0.0
 20
0.0
 30
0.0
 70
   128
 71
    38
 72
    40
 73
   142
  0
VERTEX
  5
6A7
330
572
100
AcDbEntity
  8
ｴｸｽﾃﾘｱ商品
 62
   253
370
    20
100
AcDbFaceRecord
 10
0.0
 20
0.0
 30
0.0
 70
   128
 71
    38
 72
   142
 73
   144
  0
VERTEX
  5
6A8
330
572
100
AcDbEntity
  8
ｴｸｽﾃﾘｱ商品
 62
   253
370
    20
100
AcDbFaceRecord
 10
0.0
 20
0.0
 30
0.0
 70
   128
 71
    36
 72
    38
 73
   144
  0
VERTEX
  5
6A9
330
572
100
AcDbEntity
  8
ｴｸｽﾃﾘｱ商品
 62
   253
370
    20
100
AcDbFaceRecord
 10
0.0
 20
0.0
 30
0.0
 70
   128
 71
    36
 72
   144
 73
   146
  0
VERTEX
  5
6AA
330
572
100
AcDbEntity
  8
ｴｸｽﾃﾘｱ商品
 62
   253
370
    20
100
AcDbFaceRecord
 10
0.0
 20
0.0
 30
0.0
 70
   128
 71
    34
 72
    36
 73
   146
  0
VERTEX
  5
6AB
330
572
100
AcDbEntity
  8
ｴｸｽﾃﾘｱ商品
 62
   253
370
    20
100
AcDbFaceRecord
 10
0.0
 20
0.0
 30
0.0
 70
   128
 71
    34
 72
   146
 73
   148
  0
VERTEX
  5
6AC
330
572
100
AcDbEntity
  8
ｴｸｽﾃﾘｱ商品
 62
   253
370
    20
100
AcDbFaceRecord
 10
0.0
 20
0.0
 30
0.0
 70
   128
 71
    32
 72
    34
 73
   148
  0
VERTEX
  5
6AD
330
572
100
AcDbEntity
  8
ｴｸｽﾃﾘｱ商品
 62
   253
370
    20
100
AcDbFaceRecord
 10
0.0
 20
0.0
 30
0.0
 70
   128
 71
    32
 72
   148
 73
   150
  0
VERTEX
  5
6AE
330
572
100
AcDbEntity
  8
ｴｸｽﾃﾘｱ商品
 62
   253
370
    20
100
AcDbFaceRecord
 10
0.0
 20
0.0
 30
0.0
 70
   128
 71
    30
 72
    32
 73
   150
  0
VERTEX
  5
6AF
330
572
100
AcDbEntity
  8
ｴｸｽﾃﾘｱ商品
 62
   253
370
    20
100
AcDbFaceRecord
 10
0.0
 20
0.0
 30
0.0
 70
   128
 71
    30
 72
   150
 73
   152
  0
VERTEX
  5
6B0
330
572
100
AcDbEntity
  8
ｴｸｽﾃﾘｱ商品
 62
   253
370
    20
100
AcDbFaceRecord
 10
0.0
 20
0.0
 30
0.0
 70
   128
 71
    28
 72
    30
 73
   152
  0
VERTEX
  5
6B1
330
572
100
AcDbEntity
  8
ｴｸｽﾃﾘｱ商品
 62
   253
370
    20
100
AcDbFaceRecord
 10
0.0
 20
0.0
 30
0.0
 70
   128
 71
    28
 72
   152
 73
   154
  0
VERTEX
  5
6B2
330
572
100
AcDbEntity
  8
ｴｸｽﾃﾘｱ商品
 62
   253
370
    20
100
AcDbFaceRecord
 10
0.0
 20
0.0
 30
0.0
 70
   128
 71
    22
 72
    28
 73
   154
  0
VERTEX
  5
6B3
330
572
100
AcDbEntity
  8
ｴｸｽﾃﾘｱ商品
 62
   253
370
    20
100
AcDbFaceRecord
 10
0.0
 20
0.0
 30
0.0
 70
   128
 71
    22
 72
   154
 73
   160
  0
VERTEX
  5
6B4
330
572
100
AcDbEntity
  8
ｴｸｽﾃﾘｱ商品
 62
   253
370
    20
100
AcDbFaceRecord
 10
0.0
 20
0.0
 30
0.0
 70
   128
 71
    20
 72
    22
 73
   160
  0
VERTEX
  5
6B5
330
572
100
AcDbEntity
  8
ｴｸｽﾃﾘｱ商品
 62
   253
370
    20
100
AcDbFaceRecord
 10
0.0
 20
0.0
 30
0.0
 70
   128
 71
    20
 72
   160
 73
   162
  0
VERTEX
  5
6B6
330
572
100
AcDbEntity
  8
ｴｸｽﾃﾘｱ商品
 62
   253
370
    20
100
AcDbFaceRecord
 10
0.0
 20
0.0
 30
0.0
 70
   128
 71
    18
 72
    20
 73
   162
  0
VERTEX
  5
6B7
330
572
100
AcDbEntity
  8
ｴｸｽﾃﾘｱ商品
 62
   253
370
    20
100
AcDbFaceRecord
 10
0.0
 20
0.0
 30
0.0
 70
   128
 71
    18
 72
   162
 73
   164
  0
VERTEX
  5
6B8
330
572
100
AcDbEntity
  8
ｴｸｽﾃﾘｱ商品
 62
   253
370
    20
100
AcDbFaceRecord
 10
0.0
 20
0.0
 30
0.0
 70
   128
 71
    16
 72
    18
 73
   164
  0
VERTEX
  5
6B9
330
572
100
AcDbEntity
  8
ｴｸｽﾃﾘｱ商品
 62
   253
370
    20
100
AcDbFaceRecord
 10
0.0
 20
0.0
 30
0.0
 70
   128
 71
    16
 72
   164
 73
   166
  0
VERTEX
  5
6BA
330
572
100
AcDbEntity
  8
ｴｸｽﾃﾘｱ商品
 62
   253
370
    20
100
AcDbFaceRecord
 10
0.0
 20
0.0
 30
0.0
 70
   128
 71
    14
 72
    16
 73
   166
  0
VERTEX
  5
6BB
330
572
100
AcDbEntity
  8
ｴｸｽﾃﾘｱ商品
 62
   253
370
    20
100
AcDbFaceRecord
 10
0.0
 20
0.0
 30
0.0
 70
   128
 71
    14
 72
   166
 73
   168
  0
VERTEX
  5
6BC
330
572
100
AcDbEntity
  8
ｴｸｽﾃﾘｱ商品
 62
   253
370
    20
100
AcDbFaceRecord
 10
0.0
 20
0.0
 30
0.0
 70
   128
 71
    12
 72
    14
 73
   168
  0
VERTEX
  5
6BD
330
572
100
AcDbEntity
  8
ｴｸｽﾃﾘｱ商品
 62
   253
370
    20
100
AcDbFaceRecord
 10
0.0
 20
0.0
 30
0.0
 70
   128
 71
    12
 72
   168
 73
   170
  0
VERTEX
  5
6BE
330
572
100
AcDbEntity
  8
ｴｸｽﾃﾘｱ商品
 62
   253
370
    20
100
AcDbFaceRecord
 10
0.0
 20
0.0
 30
0.0
 70
   128
 71
    10
 72
    12
 73
   170
  0
VERTEX
  5
6BF
330
572
100
AcDbEntity
  8
ｴｸｽﾃﾘｱ商品
 62
   253
370
    20
100
AcDbFaceRecord
 10
0.0
 20
0.0
 30
0.0
 70
   128
 71
    10
 72
   170
 73
   172
  0
VERTEX
  5
6C0
330
572
100
AcDbEntity
  8
ｴｸｽﾃﾘｱ商品
 62
   253
370
    20
100
AcDbFaceRecord
 10
0.0
 20
0.0
 30
0.0
 70
   128
 71
     8
 72
    10
 73
   172
  0
VERTEX
  5
6C1
330
572
100
AcDbEntity
  8
ｴｸｽﾃﾘｱ商品
 62
   253
370
    20
100
AcDbFaceRecord
 10
0.0
 20
0.0
 30
0.0
 70
   128
 71
     8
 72
   172
 73
   174
  0
VERTEX
  5
6C2
330
572
100
AcDbEntity
  8
ｴｸｽﾃﾘｱ商品
 62
   253
370
    20
100
AcDbFaceRecord
 10
0.0
 20
0.0
 30
0.0
 70
   128
 71
     6
 72
     8
 73
   174
  0
VERTEX
  5
6C3
330
572
100
AcDbEntity
  8
ｴｸｽﾃﾘｱ商品
 62
   253
370
    20
100
AcDbFaceRecord
 10
0.0
 20
0.0
 30
0.0
 70
   128
 71
     6
 72
   174
 73
   176
  0
VERTEX
  5
6C4
330
572
100
AcDbEntity
  8
ｴｸｽﾃﾘｱ商品
 62
   253
370
    20
100
AcDbFaceRecord
 10
0.0
 20
0.0
 30
0.0
 70
   128
 71
    95
 72
    93
 73
    91
  0
VERTEX
  5
6C5
330
572
100
AcDbEntity
  8
ｴｸｽﾃﾘｱ商品
 62
   253
370
    20
100
AcDbFaceRecord
 10
0.0
 20
0.0
 30
0.0
 70
   128
 71
    95
 72
    91
 73
    89
  0
VERTEX
  5
6C6
330
572
100
AcDbEntity
  8
ｴｸｽﾃﾘｱ商品
 62
   253
370
    20
100
AcDbFaceRecord
 10
0.0
 20
0.0
 30
0.0
 70
   128
 71
    97
 72
    95
 73
    89
  0
VERTEX
  5
6C7
330
572
100
AcDbEntity
  8
ｴｸｽﾃﾘｱ商品
 62
   253
370
    20
100
AcDbFaceRecord
 10
0.0
 20
0.0
 30
0.0
 70
   128
 71
    99
 72
    97
 73
    89
  0
VERTEX
  5
6C8
330
572
100
AcDbEntity
  8
ｴｸｽﾃﾘｱ商品
 62
   253
370
    20
100
AcDbFaceRecord
 10
0.0
 20
0.0
 30
0.0
 70
   128
 71
   101
 72
    99
 73
    89
  0
VERTEX
  5
6C9
330
572
100
AcDbEntity
  8
ｴｸｽﾃﾘｱ商品
 62
   253
370
    20
100
AcDbFaceRecord
 10
0.0
 20
0.0
 30
0.0
 70
   128
 71
   103
 72
   101
 73
    89
  0
VERTEX
  5
6CA
330
572
100
AcDbEntity
  8
ｴｸｽﾃﾘｱ商品
 62
   253
370
    20
100
AcDbFaceRecord
 10
0.0
 20
0.0
 30
0.0
 70
   128
 71
   105
 72
   103
 73
    89
  0
VERTEX
  5
6CB
330
572
100
AcDbEntity
  8
ｴｸｽﾃﾘｱ商品
 62
   253
370
    20
100
AcDbFaceRecord
 10
0.0
 20
0.0
 30
0.0
 70
   128
 71
   107
 72
   105
 73
    89
  0
VERTEX
  5
6CC
330
572
100
AcDbEntity
  8
ｴｸｽﾃﾘｱ商品
 62
   253
370
    20
100
AcDbFaceRecord
 10
0.0
 20
0.0
 30
0.0
 70
   128
 71
   109
 72
   107
 73
    89
  0
VERTEX
  5
6CD
330
572
100
AcDbEntity
  8
ｴｸｽﾃﾘｱ商品
 62
   253
370
    20
100
AcDbFaceRecord
 10
0.0
 20
0.0
 30
0.0
 70
   128
 71
   111
 72
   109
 73
    89
  0
VERTEX
  5
6CE
330
572
100
AcDbEntity
  8
ｴｸｽﾃﾘｱ商品
 62
   253
370
    20
100
AcDbFaceRecord
 10
0.0
 20
0.0
 30
0.0
 70
   128
 71
   111
 72
    89
 73
    87
  0
VERTEX
  5
6CF
330
572
100
AcDbEntity
  8
ｴｸｽﾃﾘｱ商品
 62
   253
370
    20
100
AcDbFaceRecord
 10
0.0
 20
0.0
 30
0.0
 70
   128
 71
   111
 72
    87
 73
    85
  0
VERTEX
  5
6D0
330
572
100
AcDbEntity
  8
ｴｸｽﾃﾘｱ商品
 62
   253
370
    20
100
AcDbFaceRecord
 10
0.0
 20
0.0
 30
0.0
 70
   128
 71
   111
 72
    85
 73
    83
  0
VERTEX
  5
6D1
330
572
100
AcDbEntity
  8
ｴｸｽﾃﾘｱ商品
 62
   253
370
    20
100
AcDbFaceRecord
 10
0.0
 20
0.0
 30
0.0
 70
   128
 71
   111
 72
    83
 73
    81
  0
VERTEX
  5
6D2
330
572
100
AcDbEntity
  8
ｴｸｽﾃﾘｱ商品
 62
   253
370
    20
100
AcDbFaceRecord
 10
0.0
 20
0.0
 30
0.0
 70
   128
 71
   111
 72
    81
 73
    79
  0
VERTEX
  5
6D3
330
572
100
AcDbEntity
  8
ｴｸｽﾃﾘｱ商品
 62
   253
370
    20
100
AcDbFaceRecord
 10
0.0
 20
0.0
 30
0.0
 70
   128
 71
   111
 72
    79
 73
    77
  0
VERTEX
  5
6D4
330
572
100
AcDbEntity
  8
ｴｸｽﾃﾘｱ商品
 62
   253
370
    20
100
AcDbFaceRecord
 10
0.0
 20
0.0
 30
0.0
 70
   128
 71
   111
 72
    77
 73
    75
  0
VERTEX
  5
6D5
330
572
100
AcDbEntity
  8
ｴｸｽﾃﾘｱ商品
 62
   253
370
    20
100
AcDbFaceRecord
 10
0.0
 20
0.0
 30
0.0
 70
   128
 71
   111
 72
    75
 73
    73
  0
VERTEX
  5
6D6
330
572
100
AcDbEntity
  8
ｴｸｽﾃﾘｱ商品
 62
   253
370
    20
100
AcDbFaceRecord
 10
0.0
 20
0.0
 30
0.0
 70
   128
 71
   111
 72
    73
 73
    71
  0
VERTEX
  5
6D7
330
572
100
AcDbEntity
  8
ｴｸｽﾃﾘｱ商品
 62
   253
370
    20
100
AcDbFaceRecord
 10
0.0
 20
0.0
 30
0.0
 70
   128
 71
   115
 72
   111
 73
    71
  0
VERTEX
  5
6D8
330
572
100
AcDbEntity
  8
ｴｸｽﾃﾘｱ商品
 62
   253
370
    20
100
AcDbFaceRecord
 10
0.0
 20
0.0
 30
0.0
 70
   128
 71
   115
 72
    71
 73
    65
  0
VERTEX
  5
6D9
330
572
100
AcDbEntity
  8
ｴｸｽﾃﾘｱ商品
 62
   253
370
    20
100
AcDbFaceRecord
 10
0.0
 20
0.0
 30
0.0
 70
   128
 71
   117
 72
   115
 73
    65
  0
VERTEX
  5
6DA
330
572
100
AcDbEntity
  8
ｴｸｽﾃﾘｱ商品
 62
   253
370
    20
100
AcDbFaceRecord
 10
0.0
 20
0.0
 30
0.0
 70
   128
 71
   117
 72
    65
 73
    63
  0
VERTEX
  5
6DB
330
572
100
AcDbEntity
  8
ｴｸｽﾃﾘｱ商品
 62
   253
370
    20
100
AcDbFaceRecord
 10
0.0
 20
0.0
 30
0.0
 70
   128
 71
   119
 72
   117
 73
    63
  0
VERTEX
  5
6DC
330
572
100
AcDbEntity
  8
ｴｸｽﾃﾘｱ商品
 62
   253
370
    20
100
AcDbFaceRecord
 10
0.0
 20
0.0
 30
0.0
 70
   128
 71
   119
 72
    63
 73
    61
  0
VERTEX
  5
6DD
330
572
100
AcDbEntity
  8
ｴｸｽﾃﾘｱ商品
 62
   253
370
    20
100
AcDbFaceRecord
 10
0.0
 20
0.0
 30
0.0
 70
   128
 71
   121
 72
   119
 73
    61
  0
VERTEX
  5
6DE
330
572
100
AcDbEntity
  8
ｴｸｽﾃﾘｱ商品
 62
   253
370
    20
100
AcDbFaceRecord
 10
0.0
 20
0.0
 30
0.0
 70
   128
 71
   121
 72
    61
 73
    59
  0
VERTEX
  5
6DF
330
572
100
AcDbEntity
  8
ｴｸｽﾃﾘｱ商品
 62
   253
370
    20
100
AcDbFaceRecord
 10
0.0
 20
0.0
 30
0.0
 70
   128
 71
   123
 72
   121
 73
    59
  0
VERTEX
  5
6E0
330
572
100
AcDbEntity
  8
ｴｸｽﾃﾘｱ商品
 62
   253
370
    20
100
AcDbFaceRecord
 10
0.0
 20
0.0
 30
0.0
 70
   128
 71
   123
 72
    59
 73
    57
  0
VERTEX
  5
6E1
330
572
100
AcDbEntity
  8
ｴｸｽﾃﾘｱ商品
 62
   253
370
    20
100
AcDbFaceRecord
 10
0.0
 20
0.0
 30
0.0
 70
   128
 71
   125
 72
   123
 73
    57
  0
VERTEX
  5
6E2
330
572
100
AcDbEntity
  8
ｴｸｽﾃﾘｱ商品
 62
   253
370
    20
100
AcDbFaceRecord
 10
0.0
 20
0.0
 30
0.0
 70
   128
 71
   125
 72
    57
 73
    55
  0
VERTEX
  5
6E3
330
572
100
AcDbEntity
  8
ｴｸｽﾃﾘｱ商品
 62
   253
370
    20
100
AcDbFaceRecord
 10
0.0
 20
0.0
 30
0.0
 70
   128
 71
   127
 72
   125
 73
    55
  0
VERTEX
  5
6E4
330
572
100
AcDbEntity
  8
ｴｸｽﾃﾘｱ商品
 62
   253
370
    20
100
AcDbFaceRecord
 10
0.0
 20
0.0
 30
0.0
 70
   128
 71
   127
 72
    55
 73
    53
  0
VERTEX
  5
6E5
330
572
100
AcDbEntity
  8
ｴｸｽﾃﾘｱ商品
 62
   253
370
    20
100
AcDbFaceRecord
 10
0.0
 20
0.0
 30
0.0
 70
   128
 71
   129
 72
   127
 73
    53
  0
VERTEX
  5
6E6
330
572
100
AcDbEntity
  8
ｴｸｽﾃﾘｱ商品
 62
   253
370
    20
100
AcDbFaceRecord
 10
0.0
 20
0.0
 30
0.0
 70
   128
 71
   129
 72
    53
 73
    51
  0
VERTEX
  5
6E7
330
572
100
AcDbEntity
  8
ｴｸｽﾃﾘｱ商品
 62
   253
370
    20
100
AcDbFaceRecord
 10
0.0
 20
0.0
 30
0.0
 70
   128
 71
   131
 72
   129
 73
    51
  0
VERTEX
  5
6E8
330
572
100
AcDbEntity
  8
ｴｸｽﾃﾘｱ商品
 62
   253
370
    20
100
AcDbFaceRecord
 10
0.0
 20
0.0
 30
0.0
 70
   128
 71
   137
 72
   131
 73
    51
  0
VERTEX
  5
6E9
330
572
100
AcDbEntity
  8
ｴｸｽﾃﾘｱ商品
 62
   253
370
    20
100
AcDbFaceRecord
 10
0.0
 20
0.0
 30
0.0
 70
   128
 71
   137
 72
    51
 73
    49
  0
VERTEX
  5
6EA
330
572
100
AcDbEntity
  8
ｴｸｽﾃﾘｱ商品
 62
   253
370
    20
100
AcDbFaceRecord
 10
0.0
 20
0.0
 30
0.0
 70
   128
 71
   139
 72
   137
 73
    43
  0
VERTEX
  5
6EB
330
572
100
AcDbEntity
  8
ｴｸｽﾃﾘｱ商品
 62
   253
370
    20
100
AcDbFaceRecord
 10
0.0
 20
0.0
 30
0.0
 70
   128
 71
   139
 72
    43
 73
    41
  0
VERTEX
  5
6EC
330
572
100
AcDbEntity
  8
ｴｸｽﾃﾘｱ商品
 62
   253
370
    20
100
AcDbFaceRecord
 10
0.0
 20
0.0
 30
0.0
 70
   128
 71
   141
 72
   139
 73
    41
  0
VERTEX
  5
6ED
330
572
100
AcDbEntity
  8
ｴｸｽﾃﾘｱ商品
 62
   253
370
    20
100
AcDbFaceRecord
 10
0.0
 20
0.0
 30
0.0
 70
   128
 71
   141
 72
    41
 73
    39
  0
VERTEX
  5
6EE
330
572
100
AcDbEntity
  8
ｴｸｽﾃﾘｱ商品
 62
   253
370
    20
100
AcDbFaceRecord
 10
0.0
 20
0.0
 30
0.0
 70
   128
 71
   143
 72
   141
 73
    39
  0
VERTEX
  5
6EF
330
572
100
AcDbEntity
  8
ｴｸｽﾃﾘｱ商品
 62
   253
370
    20
100
AcDbFaceRecord
 10
0.0
 20
0.0
 30
0.0
 70
   128
 71
   143
 72
    39
 73
    37
  0
VERTEX
  5
6F0
330
572
100
AcDbEntity
  8
ｴｸｽﾃﾘｱ商品
 62
   253
370
    20
100
AcDbFaceRecord
 10
0.0
 20
0.0
 30
0.0
 70
   128
 71
   145
 72
   143
 73
    37
  0
VERTEX
  5
6F1
330
572
100
AcDbEntity
  8
ｴｸｽﾃﾘｱ商品
 62
   253
370
    20
100
AcDbFaceRecord
 10
0.0
 20
0.0
 30
0.0
 70
   128
 71
   145
 72
    37
 73
    35
  0
VERTEX
  5
6F2
330
572
100
AcDbEntity
  8
ｴｸｽﾃﾘｱ商品
 62
   253
370
    20
100
AcDbFaceRecord
 10
0.0
 20
0.0
 30
0.0
 70
   128
 71
   147
 72
   145
 73
    35
  0
VERTEX
  5
6F3
330
572
100
AcDbEntity
  8
ｴｸｽﾃﾘｱ商品
 62
   253
370
    20
100
AcDbFaceRecord
 10
0.0
 20
0.0
 30
0.0
 70
   128
 71
   147
 72
    35
 73
    33
  0
VERTEX
  5
6F4
330
572
100
AcDbEntity
  8
ｴｸｽﾃﾘｱ商品
 62
   253
370
    20
100
AcDbFaceRecord
 10
0.0
 20
0.0
 30
0.0
 70
   128
 71
   149
 72
   147
 73
    33
  0
VERTEX
  5
6F5
330
572
100
AcDbEntity
  8
ｴｸｽﾃﾘｱ商品
 62
   253
370
    20
100
AcDbFaceRecord
 10
0.0
 20
0.0
 30
0.0
 70
   128
 71
   149
 72
    33
 73
    31
  0
VERTEX
  5
6F6
330
572
100
AcDbEntity
  8
ｴｸｽﾃﾘｱ商品
 62
   253
370
    20
100
AcDbFaceRecord
 10
0.0
 20
0.0
 30
0.0
 70
   128
 71
   151
 72
   149
 73
    31
  0
VERTEX
  5
6F7
330
572
100
AcDbEntity
  8
ｴｸｽﾃﾘｱ商品
 62
   253
370
    20
100
AcDbFaceRecord
 10
0.0
 20
0.0
 30
0.0
 70
   128
 71
   151
 72
    31
 73
    29
  0
VERTEX
  5
6F8
330
572
100
AcDbEntity
  8
ｴｸｽﾃﾘｱ商品
 62
   253
370
    20
100
AcDbFaceRecord
 10
0.0
 20
0.0
 30
0.0
 70
   128
 71
   153
 72
   151
 73
    29
  0
VERTEX
  5
6F9
330
572
100
AcDbEntity
  8
ｴｸｽﾃﾘｱ商品
 62
   253
370
    20
100
AcDbFaceRecord
 10
0.0
 20
0.0
 30
0.0
 70
   128
 71
   153
 72
    29
 73
    27
  0
VERTEX
  5
6FA
330
572
100
AcDbEntity
  8
ｴｸｽﾃﾘｱ商品
 62
   253
370
    20
100
AcDbFaceRecord
 10
0.0
 20
0.0
 30
0.0
 70
   128
 71
   159
 72
   153
 73
    27
  0
VERTEX
  5
6FB
330
572
100
AcDbEntity
  8
ｴｸｽﾃﾘｱ商品
 62
   253
370
    20
100
AcDbFaceRecord
 10
0.0
 20
0.0
 30
0.0
 70
   128
 71
   159
 72
    27
 73
    21
  0
VERTEX
  5
6FC
330
572
100
AcDbEntity
  8
ｴｸｽﾃﾘｱ商品
 62
   253
370
    20
100
AcDbFaceRecord
 10
0.0
 20
0.0
 30
0.0
 70
   128
 71
   161
 72
   159
 73
    21
  0
VERTEX
  5
6FD
330
572
100
AcDbEntity
  8
ｴｸｽﾃﾘｱ商品
 62
   253
370
    20
100
AcDbFaceRecord
 10
0.0
 20
0.0
 30
0.0
 70
   128
 71
   161
 72
    21
 73
    19
  0
VERTEX
  5
6FE
330
572
100
AcDbEntity
  8
ｴｸｽﾃﾘｱ商品
 62
   253
370
    20
100
AcDbFaceRecord
 10
0.0
 20
0.0
 30
0.0
 70
   128
 71
   163
 72
   161
 73
    19
  0
VERTEX
  5
6FF
330
572
100
AcDbEntity
  8
ｴｸｽﾃﾘｱ商品
 62
   253
370
    20
100
AcDbFaceRecord
 10
0.0
 20
0.0
 30
0.0
 70
   128
 71
   163
 72
    19
 73
    17
  0
VERTEX
  5
700
330
572
100
AcDbEntity
  8
ｴｸｽﾃﾘｱ商品
 62
   253
370
    20
100
AcDbFaceRecord
 10
0.0
 20
0.0
 30
0.0
 70
   128
 71
   165
 72
   163
 73
    17
  0
VERTEX
  5
701
330
572
100
AcDbEntity
  8
ｴｸｽﾃﾘｱ商品
 62
   253
370
    20
100
AcDbFaceRecord
 10
0.0
 20
0.0
 30
0.0
 70
   128
 71
   165
 72
    17
 73
    15
  0
VERTEX
  5
702
330
572
100
AcDbEntity
  8
ｴｸｽﾃﾘｱ商品
 62
   253
370
    20
100
AcDbFaceRecord
 10
0.0
 20
0.0
 30
0.0
 70
   128
 71
   167
 72
   165
 73
    15
  0
VERTEX
  5
703
330
572
100
AcDbEntity
  8
ｴｸｽﾃﾘｱ商品
 62
   253
370
    20
100
AcDbFaceRecord
 10
0.0
 20
0.0
 30
0.0
 70
   128
 71
   167
 72
    15
 73
    13
  0
VERTEX
  5
704
330
572
100
AcDbEntity
  8
ｴｸｽﾃﾘｱ商品
 62
   253
370
    20
100
AcDbFaceRecord
 10
0.0
 20
0.0
 30
0.0
 70
   128
 71
   169
 72
   167
 73
    13
  0
VERTEX
  5
705
330
572
100
AcDbEntity
  8
ｴｸｽﾃﾘｱ商品
 62
   253
370
    20
100
AcDbFaceRecord
 10
0.0
 20
0.0
 30
0.0
 70
   128
 71
   169
 72
    13
 73
    11
  0
VERTEX
  5
706
330
572
100
AcDbEntity
  8
ｴｸｽﾃﾘｱ商品
 62
   253
370
    20
100
AcDbFaceRecord
 10
0.0
 20
0.0
 30
0.0
 70
   128
 71
   171
 72
   169
 73
    11
  0
VERTEX
  5
707
330
572
100
AcDbEntity
  8
ｴｸｽﾃﾘｱ商品
 62
   253
370
    20
100
AcDbFaceRecord
 10
0.0
 20
0.0
 30
0.0
 70
   128
 71
   171
 72
    11
 73
     9
  0
VERTEX
  5
708
330
572
100
AcDbEntity
  8
ｴｸｽﾃﾘｱ商品
 62
   253
370
    20
100
AcDbFaceRecord
 10
0.0
 20
0.0
 30
0.0
 70
   128
 71
   173
 72
   171
 73
     9
  0
VERTEX
  5
709
330
572
100
AcDbEntity
  8
ｴｸｽﾃﾘｱ商品
 62
   253
370
    20
100
AcDbFaceRecord
 10
0.0
 20
0.0
 30
0.0
 70
   128
 71
   173
 72
     9
 73
     7
  0
VERTEX
  5
70A
330
572
100
AcDbEntity
  8
ｴｸｽﾃﾘｱ商品
 62
   253
370
    20
100
AcDbFaceRecord
 10
0.0
 20
0.0
 30
0.0
 70
   128
 71
   175
 72
   173
 73
     7
  0
VERTEX
  5
70B
330
572
100
AcDbEntity
  8
ｴｸｽﾃﾘｱ商品
 62
   253
370
    20
100
AcDbFaceRecord
 10
0.0
 20
0.0
 30
0.0
 70
   128
 71
   175
 72
     7
 73
     5
  0
SEQEND
  5
573
330
572
100
AcDbEntity
  8
ｴｸｽﾃﾘｱ商品
370
    20
  0
POLYLINE
  5
70C
330
3C
100
AcDbEntity
  8
ｴｸｽﾃﾘｱ商品
 62
   253
370
    20
100
AcDbPolyFaceMesh
 66
     1
 10
0.0
 20
0.0
 30
0.0
 70
    64
 71
    48
 72
    36
  0
VERTEX
  5
70E
330
70C
100
AcDbEntity
  8
ｴｸｽﾃﾘｱ商品
 62
   253
370
    20
100
AcDbVertex
100
AcDbPolyFaceMeshVertex
 10
3956.618082413168
 20
488.918479908237
 30
267.0
 70
   192
  0
VERTEX
  5
70F
330
70C
100
AcDbEntity
  8
ｴｸｽﾃﾘｱ商品
 62
   253
370
    20
100
AcDbVertex
100
AcDbPolyFaceMeshVertex
 10
206.6180824131682
 20
488.918479908237
 30
267.0
 70
   192
  0
VERTEX
  5
710
330
70C
100
AcDbEntity
  8
ｴｸｽﾃﾘｱ商品
 62
   253
370
    20
100
AcDbVertex
100
AcDbPolyFaceMeshVertex
 10
206.6180824131682
 20
513.9184799082369
 30
267.0
 70
   192
  0
VERTEX
  5
711
330
70C
100
AcDbEntity
  8
ｴｸｽﾃﾘｱ商品
 62
   253
370
    20
100
AcDbVertex
100
AcDbPolyFaceMeshVertex
 10
3956.618082413168
 20
513.9184799082369
 30
267.0
 70
   192
  0
VERTEX
  5
712
330
70C
100
AcDbEntity
  8
ｴｸｽﾃﾘｱ商品
 62
   253
370
    20
100
AcDbVertex
100
AcDbPolyFaceMeshVertex
 10
206.6180824131682
 20
488.918479908237
 30
391.0
 70
   192
  0
VERTEX
  5
713
330
70C
100
AcDbEntity
  8
ｴｸｽﾃﾘｱ商品
 62
   253
370
    20
100
AcDbVertex
100
AcDbPolyFaceMeshVertex
 10
3956.618082413168
 20
488.918479908237
 30
391.0
 70
   192
  0
VERTEX
  5
714
330
70C
100
AcDbEntity
  8
ｴｸｽﾃﾘｱ商品
 62
   253
370
    20
100
AcDbVertex
100
AcDbPolyFaceMeshVertex
 10
3956.618082413168
 20
513.9184799082369
 30
391.0
 70
   192
  0
VERTEX
  5
715
330
70C
100
AcDbEntity
  8
ｴｸｽﾃﾘｱ商品
 62
   253
370
    20
100
AcDbVertex
100
AcDbPolyFaceMeshVertex
 10
206.6180824131682
 20
513.9184799082369
 30
391.0
 70
   192
  0
VERTEX
  5
716
330
70C
100
AcDbEntity
  8
ｴｸｽﾃﾘｱ商品
 62
   253
370
    20
100
AcDbVertex
100
AcDbPolyFaceMeshVertex
 10
3956.618082413168
 20
488.918479908237
 30
128.0
 70
   192
  0
VERTEX
  5
717
330
70C
100
AcDbEntity
  8
ｴｸｽﾃﾘｱ商品
 62
   253
370
    20
100
AcDbVertex
100
AcDbPolyFaceMeshVertex
 10
206.6180824131682
 20
488.918479908237
 30
128.0
 70
   192
  0
VERTEX
  5
718
330
70C
100
AcDbEntity
  8
ｴｸｽﾃﾘｱ商品
 62
   253
370
    20
100
AcDbVertex
100
AcDbPolyFaceMeshVertex
 10
206.6180824131682
 20
513.9184799082369
 30
128.0
 70
   192
  0
VERTEX
  5
719
330
70C
100
AcDbEntity
  8
ｴｸｽﾃﾘｱ商品
 62
   253
370
    20
100
AcDbVertex
100
AcDbPolyFaceMeshVertex
 10
3956.618082413168
 20
513.9184799082369
 30
128.0
 70
   192
  0
VERTEX
  5
71A
330
70C
100
AcDbEntity
  8
ｴｸｽﾃﾘｱ商品
 62
   253
370
    20
100
AcDbVertex
100
AcDbPolyFaceMeshVertex
 10
206.6180824131682
 20
488.918479908237
 30
252.0
 70
   192
  0
VERTEX
  5
71B
330
70C
100
AcDbEntity
  8
ｴｸｽﾃﾘｱ商品
 62
   253
370
    20
100
AcDbVertex
100
AcDbPolyFaceMeshVertex
 10
3956.618082413168
 20
488.918479908237
 30
252.0
 70
   192
  0
VERTEX
  5
71C
330
70C
100
AcDbEntity
  8
ｴｸｽﾃﾘｱ商品
 62
   253
370
    20
100
AcDbVertex
100
AcDbPolyFaceMeshVertex
 10
3956.618082413168
 20
513.9184799082369
 30
252.0
 70
   192
  0
VERTEX
  5
71D
330
70C
100
AcDbEntity
  8
ｴｸｽﾃﾘｱ商品
 62
   253
370
    20
100
AcDbVertex
100
AcDbPolyFaceMeshVertex
 10
206.6180824131682
 20
513.9184799082369
 30
252.0
 70
   192
  0
VERTEX
  5
71E
330
70C
100
AcDbEntity
  8
ｴｸｽﾃﾘｱ商品
 62
   253
370
    20
100
AcDbVertex
100
AcDbPolyFaceMeshVertex
 10
206.6180824131683
 20
521.9184799082369
 30
267.0
 70
   192
  0
VERTEX
  5
71F
330
70C
100
AcDbEntity
  8
ｴｸｽﾃﾘｱ商品
 62
   253
370
    20
100
AcDbVertex
100
AcDbPolyFaceMeshVertex
 10
206.6180824131682
 20
1393.918479908237
 30
267.0
 70
   192
  0
VERTEX
  5
720
330
70C
100
AcDbEntity
  8
ｴｸｽﾃﾘｱ商品
 62
   253
370
    20
100
AcDbVertex
100
AcDbPolyFaceMeshVertex
 10
231.6180824131682
 20
1393.918479908237
 30
267.0
 70
   192
  0
VERTEX
  5
721
330
70C
100
AcDbEntity
  8
ｴｸｽﾃﾘｱ商品
 62
   253
370
    20
100
AcDbVertex
100
AcDbPolyFaceMeshVertex
 10
231.6180824131683
 20
521.9184799082369
 30
267.0
 70
   192
  0
VERTEX
  5
722
330
70C
100
AcDbEntity
  8
ｴｸｽﾃﾘｱ商品
 62
   253
370
    20
100
AcDbVertex
100
AcDbPolyFaceMeshVertex
 10
206.6180824131682
 20
1393.918479908237
 30
391.0
 70
   192
  0
VERTEX
  5
723
330
70C
100
AcDbEntity
  8
ｴｸｽﾃﾘｱ商品
 62
   253
370
    20
100
AcDbVertex
100
AcDbPolyFaceMeshVertex
 10
206.6180824131683
 20
521.9184799082369
 30
391.0
 70
   192
  0
VERTEX
  5
724
330
70C
100
AcDbEntity
  8
ｴｸｽﾃﾘｱ商品
 62
   253
370
    20
100
AcDbVertex
100
AcDbPolyFaceMeshVertex
 10
231.6180824131683
 20
521.9184799082369
 30
391.0
 70
   192
  0
VERTEX
  5
725
330
70C
100
AcDbEntity
  8
ｴｸｽﾃﾘｱ商品
 62
   253
370
    20
100
AcDbVertex
100
AcDbPolyFaceMeshVertex
 10
231.6180824131682
 20
1393.918479908237
 30
391.0
 70
   192
  0
VERTEX
  5
726
330
70C
100
AcDbEntity
  8
ｴｸｽﾃﾘｱ商品
 62
   253
370
    20
100
AcDbVertex
100
AcDbPolyFaceMeshVertex
 10
206.6180824131683
 20
521.9184799082369
 30
128.0
 70
   192
  0
VERTEX
  5
727
330
70C
100
AcDbEntity
  8
ｴｸｽﾃﾘｱ商品
 62
   253
370
    20
100
AcDbVertex
100
AcDbPolyFaceMeshVertex
 10
206.6180824131682
 20
1393.918479908237
 30
128.0
 70
   192
  0
VERTEX
  5
728
330
70C
100
AcDbEntity
  8
ｴｸｽﾃﾘｱ商品
 62
   253
370
    20
100
AcDbVertex
100
AcDbPolyFaceMeshVertex
 10
231.6180824131682
 20
1393.918479908237
 30
128.0
 70
   192
  0
VERTEX
  5
729
330
70C
100
AcDbEntity
  8
ｴｸｽﾃﾘｱ商品
 62
   253
370
    20
100
AcDbVertex
100
AcDbPolyFaceMeshVertex
 10
231.6180824131683
 20
521.9184799082369
 30
128.0
 70
   192
  0
VERTEX
  5
72A
330
70C
100
AcDbEntity
  8
ｴｸｽﾃﾘｱ商品
 62
   253
370
    20
100
AcDbVertex
100
AcDbPolyFaceMeshVertex
 10
206.6180824131682
 20
1393.918479908237
 30
252.0
 70
   192
  0
VERTEX
  5
72B
330
70C
100
AcDbEntity
  8
ｴｸｽﾃﾘｱ商品
 62
   253
370
    20
100
AcDbVertex
100
AcDbPolyFaceMeshVertex
 10
206.6180824131683
 20
521.9184799082369
 30
252.0
 70
   192
  0
VERTEX
  5
72C
330
70C
100
AcDbEntity
  8
ｴｸｽﾃﾘｱ商品
 62
   253
370
    20
100
AcDbVertex
100
AcDbPolyFaceMeshVertex
 10
231.6180824131683
 20
521.9184799082369
 30
252.0
 70
   192
  0
VERTEX
  5
72D
330
70C
100
AcDbEntity
  8
ｴｸｽﾃﾘｱ商品
 62
   253
370
    20
100
AcDbVertex
100
AcDbPolyFaceMeshVertex
 10
231.6180824131682
 20
1393.918479908237
 30
252.0
 70
   192
  0
VERTEX
  5
72E
330
70C
100
AcDbEntity
  8
ｴｸｽﾃﾘｱ商品
 62
   253
370
    20
100
AcDbVertex
100
AcDbPolyFaceMeshVertex
 10
3956.618082413168
 20
521.9184799082369
 30
267.0
 70
   192
  0
VERTEX
  5
72F
330
70C
100
AcDbEntity
  8
ｴｸｽﾃﾘｱ商品
 62
   253
370
    20
100
AcDbVertex
100
AcDbPolyFaceMeshVertex
 10
3931.618082413168
 20
521.9184799082369
 30
267.0
 70
   192
  0
VERTEX
  5
730
330
70C
100
AcDbEntity
  8
ｴｸｽﾃﾘｱ商品
 62
   253
370
    20
100
AcDbVertex
100
AcDbPolyFaceMeshVertex
 10
3931.618082413168
 20
1393.918479908237
 30
267.0
 70
   192
  0
VERTEX
  5
731
330
70C
100
AcDbEntity
  8
ｴｸｽﾃﾘｱ商品
 62
   253
370
    20
100
AcDbVertex
100
AcDbPolyFaceMeshVertex
 10
3956.618082413168
 20
1393.918479908237
 30
267.0
 70
   192
  0
VERTEX
  5
732
330
70C
100
AcDbEntity
  8
ｴｸｽﾃﾘｱ商品
 62
   253
370
    20
100
AcDbVertex
100
AcDbPolyFaceMeshVertex
 10
3956.618082413168
 20
1393.918479908237
 30
391.0
 70
   192
  0
VERTEX
  5
733
330
70C
100
AcDbEntity
  8
ｴｸｽﾃﾘｱ商品
 62
   253
370
    20
100
AcDbVertex
100
AcDbPolyFaceMeshVertex
 10
3931.618082413168
 20
1393.918479908237
 30
391.0
 70
   192
  0
VERTEX
  5
734
330
70C
100
AcDbEntity
  8
ｴｸｽﾃﾘｱ商品
 62
   253
370
    20
100
AcDbVertex
100
AcDbPolyFaceMeshVertex
 10
3931.618082413168
 20
521.9184799082369
 30
391.0
 70
   192
  0
VERTEX
  5
735
330
70C
100
AcDbEntity
  8
ｴｸｽﾃﾘｱ商品
 62
   253
370
    20
100
AcDbVertex
100
AcDbPolyFaceMeshVertex
 10
3956.618082413168
 20
521.9184799082369
 30
391.0
 70
   192
  0
VERTEX
  5
736
330
70C
100
AcDbEntity
  8
ｴｸｽﾃﾘｱ商品
 62
   253
370
    20
100
AcDbVertex
100
AcDbPolyFaceMeshVertex
 10
3956.618082413168
 20
521.9184799082369
 30
128.0
 70
   192
  0
VERTEX
  5
737
330
70C
100
AcDbEntity
  8
ｴｸｽﾃﾘｱ商品
 62
   253
370
    20
100
AcDbVertex
100
AcDbPolyFaceMeshVertex
 10
3931.618082413168
 20
521.9184799082369
 30
128.0
 70
   192
  0
VERTEX
  5
738
330
70C
100
AcDbEntity
  8
ｴｸｽﾃﾘｱ商品
 62
   253
370
    20
100
AcDbVertex
100
AcDbPolyFaceMeshVertex
 10
3931.618082413168
 20
1393.918479908237
 30
128.0
 70
   192
  0
VERTEX
  5
739
330
70C
100
AcDbEntity
  8
ｴｸｽﾃﾘｱ商品
 62
   253
370
    20
100
AcDbVertex
100
AcDbPolyFaceMeshVertex
 10
3956.618082413168
 20
1393.918479908237
 30
128.0
 70
   192
  0
VERTEX
  5
73A
330
70C
100
AcDbEntity
  8
ｴｸｽﾃﾘｱ商品
 62
   253
370
    20
100
AcDbVertex
100
AcDbPolyFaceMeshVertex
 10
3956.618082413168
 20
1393.918479908237
 30
252.0
 70
   192
  0
VERTEX
  5
73B
330
70C
100
AcDbEntity
  8
ｴｸｽﾃﾘｱ商品
 62
   253
370
    20
100
AcDbVertex
100
AcDbPolyFaceMeshVertex
 10
3931.618082413168
 20
1393.918479908237
 30
252.0
 70
   192
  0
VERTEX
  5
73C
330
70C
100
AcDbEntity
  8
ｴｸｽﾃﾘｱ商品
 62
   253
370
    20
100
AcDbVertex
100
AcDbPolyFaceMeshVertex
 10
3931.618082413168
 20
521.9184799082369
 30
252.0
 70
   192
  0
VERTEX
  5
73D
330
70C
100
AcDbEntity
  8
ｴｸｽﾃﾘｱ商品
 62
   253
370
    20
100
AcDbVertex
100
AcDbPolyFaceMeshVertex
 10
3956.618082413168
 20
521.9184799082369
 30
252.0
 70
   192
  0
VERTEX
  5
73E
330
70C
100
AcDbEntity
  8
ｴｸｽﾃﾘｱ商品
 62
   253
370
    20
100
AcDbFaceRecord
 10
0.0
 20
0.0
 30
0.0
 70
   128
 71
     1
 72
     2
 73
     3
 74
     4
  0
VERTEX
  5
73F
330
70C
100
AcDbEntity
  8
ｴｸｽﾃﾘｱ商品
 62
   253
370
    20
100
AcDbFaceRecord
 10
0.0
 20
0.0
 30
0.0
 70
   128
 71
     5
 72
     6
 73
     7
 74
     8
  0
VERTEX
  5
740
330
70C
100
AcDbEntity
  8
ｴｸｽﾃﾘｱ商品
 62
   253
370
    20
100
AcDbFaceRecord
 10
0.0
 20
0.0
 30
0.0
 70
   128
 71
     2
 72
     1
 73
     6
 74
     5
  0
VERTEX
  5
741
330
70C
100
AcDbEntity
  8
ｴｸｽﾃﾘｱ商品
 62
   253
370
    20
100
AcDbFaceRecord
 10
0.0
 20
0.0
 30
0.0
 70
   128
 71
     1
 72
     4
 73
     7
 74
     6
  0
VERTEX
  5
742
330
70C
100
AcDbEntity
  8
ｴｸｽﾃﾘｱ商品
 62
   253
370
    20
100
AcDbFaceRecord
 10
0.0
 20
0.0
 30
0.0
 70
   128
 71
     4
 72
     3
 73
     8
 74
     7
  0
VERTEX
  5
743
330
70C
100
AcDbEntity
  8
ｴｸｽﾃﾘｱ商品
 62
   253
370
    20
100
AcDbFaceRecord
 10
0.0
 20
0.0
 30
0.0
 70
   128
 71
     3
 72
     2
 73
     5
 74
     8
  0
VERTEX
  5
744
330
70C
100
AcDbEntity
  8
ｴｸｽﾃﾘｱ商品
 62
   253
370
    20
100
AcDbFaceRecord
 10
0.0
 20
0.0
 30
0.0
 70
   128
 71
     9
 72
    10
 73
    11
 74
    12
  0
VERTEX
  5
745
330
70C
100
AcDbEntity
  8
ｴｸｽﾃﾘｱ商品
 62
   253
370
    20
100
AcDbFaceRecord
 10
0.0
 20
0.0
 30
0.0
 70
   128
 71
    13
 72
    14
 73
    15
 74
    16
  0
VERTEX
  5
746
330
70C
100
AcDbEntity
  8
ｴｸｽﾃﾘｱ商品
 62
   253
370
    20
100
AcDbFaceRecord
 10
0.0
 20
0.0
 30
0.0
 70
   128
 71
    10
 72
     9
 73
    14
 74
    13
  0
VERTEX
  5
747
330
70C
100
AcDbEntity
  8
ｴｸｽﾃﾘｱ商品
 62
   253
370
    20
100
AcDbFaceRecord
 10
0.0
 20
0.0
 30
0.0
 70
   128
 71
     9
 72
    12
 73
    15
 74
    14
  0
VERTEX
  5
748
330
70C
100
AcDbEntity
  8
ｴｸｽﾃﾘｱ商品
 62
   253
370
    20
100
AcDbFaceRecord
 10
0.0
 20
0.0
 30
0.0
 70
   128
 71
    12
 72
    11
 73
    16
 74
    15
  0
VERTEX
  5
749
330
70C
100
AcDbEntity
  8
ｴｸｽﾃﾘｱ商品
 62
   253
370
    20
100
AcDbFaceRecord
 10
0.0
 20
0.0
 30
0.0
 70
   128
 71
    11
 72
    10
 73
    13
 74
    16
  0
VERTEX
  5
74A
330
70C
100
AcDbEntity
  8
ｴｸｽﾃﾘｱ商品
 62
   253
370
    20
100
AcDbFaceRecord
 10
0.0
 20
0.0
 30
0.0
 70
   128
 71
    17
 72
    18
 73
    19
 74
    20
  0
VERTEX
  5
74B
330
70C
100
AcDbEntity
  8
ｴｸｽﾃﾘｱ商品
 62
   253
370
    20
100
AcDbFaceRecord
 10
0.0
 20
0.0
 30
0.0
 70
   128
 71
    21
 72
    22
 73
    23
 74
    24
  0
VERTEX
  5
74C
330
70C
100
AcDbEntity
  8
ｴｸｽﾃﾘｱ商品
 62
   253
370
    20
100
AcDbFaceRecord
 10
0.0
 20
0.0
 30
0.0
 70
   128
 71
    18
 72
    17
 73
    22
 74
    21
  0
VERTEX
  5
74D
330
70C
100
AcDbEntity
  8
ｴｸｽﾃﾘｱ商品
 62
   253
370
    20
100
AcDbFaceRecord
 10
0.0
 20
0.0
 30
0.0
 70
   128
 71
    17
 72
    20
 73
    23
 74
    22
  0
VERTEX
  5
74E
330
70C
100
AcDbEntity
  8
ｴｸｽﾃﾘｱ商品
 62
   253
370
    20
100
AcDbFaceRecord
 10
0.0
 20
0.0
 30
0.0
 70
   128
 71
    20
 72
    19
 73
    24
 74
    23
  0
VERTEX
  5
74F
330
70C
100
AcDbEntity
  8
ｴｸｽﾃﾘｱ商品
 62
   253
370
    20
100
AcDbFaceRecord
 10
0.0
 20
0.0
 30
0.0
 70
   128
 71
    19
 72
    18
 73
    21
 74
    24
  0
VERTEX
  5
750
330
70C
100
AcDbEntity
  8
ｴｸｽﾃﾘｱ商品
 62
   253
370
    20
100
AcDbFaceRecord
 10
0.0
 20
0.0
 30
0.0
 70
   128
 71
    25
 72
    26
 73
    27
 74
    28
  0
VERTEX
  5
751
330
70C
100
AcDbEntity
  8
ｴｸｽﾃﾘｱ商品
 62
   253
370
    20
100
AcDbFaceRecord
 10
0.0
 20
0.0
 30
0.0
 70
   128
 71
    29
 72
    30
 73
    31
 74
    32
  0
VERTEX
  5
752
330
70C
100
AcDbEntity
  8
ｴｸｽﾃﾘｱ商品
 62
   253
370
    20
100
AcDbFaceRecord
 10
0.0
 20
0.0
 30
0.0
 70
   128
 71
    26
 72
    25
 73
    30
 74
    29
  0
VERTEX
  5
753
330
70C
100
AcDbEntity
  8
ｴｸｽﾃﾘｱ商品
 62
   253
370
    20
100
AcDbFaceRecord
 10
0.0
 20
0.0
 30
0.0
 70
   128
 71
    25
 72
    28
 73
    31
 74
    30
  0
VERTEX
  5
754
330
70C
100
AcDbEntity
  8
ｴｸｽﾃﾘｱ商品
 62
   253
370
    20
100
AcDbFaceRecord
 10
0.0
 20
0.0
 30
0.0
 70
   128
 71
    28
 72
    27
 73
    32
 74
    31
  0
VERTEX
  5
755
330
70C
100
AcDbEntity
  8
ｴｸｽﾃﾘｱ商品
 62
   253
370
    20
100
AcDbFaceRecord
 10
0.0
 20
0.0
 30
0.0
 70
   128
 71
    27
 72
    26
 73
    29
 74
    32
  0
VERTEX
  5
756
330
70C
100
AcDbEntity
  8
ｴｸｽﾃﾘｱ商品
 62
   253
370
    20
100
AcDbFaceRecord
 10
0.0
 20
0.0
 30
0.0
 70
   128
 71
    33
 72
    34
 73
    35
 74
    36
  0
VERTEX
  5
757
330
70C
100
AcDbEntity
  8
ｴｸｽﾃﾘｱ商品
 62
   253
370
    20
100
AcDbFaceRecord
 10
0.0
 20
0.0
 30
0.0
 70
   128
 71
    37
 72
    38
 73
    39
 74
    40
  0
VERTEX
  5
758
330
70C
100
AcDbEntity
  8
ｴｸｽﾃﾘｱ商品
 62
   253
370
    20
100
AcDbFaceRecord
 10
0.0
 20
0.0
 30
0.0
 70
   128
 71
    36
 72
    37
 73
    40
 74
    33
  0
VERTEX
  5
759
330
70C
100
AcDbEntity
  8
ｴｸｽﾃﾘｱ商品
 62
   253
370
    20
100
AcDbFaceRecord
 10
0.0
 20
0.0
 30
0.0
 70
   128
 71
    33
 72
    40
 73
    39
 74
    34
  0
VERTEX
  5
75A
330
70C
100
AcDbEntity
  8
ｴｸｽﾃﾘｱ商品
 62
   253
370
    20
100
AcDbFaceRecord
 10
0.0
 20
0.0
 30
0.0
 70
   128
 71
    34
 72
    39
 73
    38
 74
    35
  0
VERTEX
  5
75B
330
70C
100
AcDbEntity
  8
ｴｸｽﾃﾘｱ商品
 62
   253
370
    20
100
AcDbFaceRecord
 10
0.0
 20
0.0
 30
0.0
 70
   128
 71
    35
 72
    38
 73
    37
 74
    36
  0
VERTEX
  5
75C
330
70C
100
AcDbEntity
  8
ｴｸｽﾃﾘｱ商品
 62
   253
370
    20
100
AcDbFaceRecord
 10
0.0
 20
0.0
 30
0.0
 70
   128
 71
    41
 72
    42
 73
    43
 74
    44
  0
VERTEX
  5
75D
330
70C
100
AcDbEntity
  8
ｴｸｽﾃﾘｱ商品
 62
   253
370
    20
100
AcDbFaceRecord
 10
0.0
 20
0.0
 30
0.0
 70
   128
 71
    45
 72
    46
 73
    47
 74
    48
  0
VERTEX
  5
75E
330
70C
100
AcDbEntity
  8
ｴｸｽﾃﾘｱ商品
 62
   253
370
    20
100
AcDbFaceRecord
 10
0.0
 20
0.0
 30
0.0
 70
   128
 71
    44
 72
    45
 73
    48
 74
    41
  0
VERTEX
  5
75F
330
70C
100
AcDbEntity
  8
ｴｸｽﾃﾘｱ商品
 62
   253
370
    20
100
AcDbFaceRecord
 10
0.0
 20
0.0
 30
0.0
 70
   128
 71
    41
 72
    48
 73
    47
 74
    42
  0
VERTEX
  5
760
330
70C
100
AcDbEntity
  8
ｴｸｽﾃﾘｱ商品
 62
   253
370
    20
100
AcDbFaceRecord
 10
0.0
 20
0.0
 30
0.0
 70
   128
 71
    42
 72
    47
 73
    46
 74
    43
  0
VERTEX
  5
761
330
70C
100
AcDbEntity
  8
ｴｸｽﾃﾘｱ商品
 62
   253
370
    20
100
AcDbFaceRecord
 10
0.0
 20
0.0
 30
0.0
 70
   128
 71
    43
 72
    46
 73
    45
 74
    44
  0
SEQEND
  5
70D
330
70C
100
AcDbEntity
  8
ｴｸｽﾃﾘｱ商品
370
    20
  0
ENDBLK
  5
3E
330
3C
100
AcDbEntity
  8
0
100
AcDbBlockEnd
  0
ENDSEC
  0
SECTION
  2
ENTITIES
  0
INSERT
  5
762
330
1F
100
AcDbEntity
  8
ｴｸｽﾃﾘｱ商品
  6
Continuous
370
     0
100
AcDbBlockReference
  2
オブジェクト_175
 10
261.6180824131682
 20
1393.918479908237
 30
0.0
  0
ENDSEC
  0
SECTION
  2
OBJECTS
  0
DICTIONARY
  5
C
330
0
100
AcDbDictionary
281
     1
  3
ACAD_GROUP
350
D
  3
ACAD_LAYOUT
350
1A
  3
ACAD_MLINESTYLE
350
17
  3
ACAD_PLOTSETTINGS
350
19
  3
ACAD_PLOTSTYLENAME
350
E
  3
ACAD_TABLESTYLE
350
765
  3
ACAD_VISUALSTYLE
350
2A
  3
WATERMARKS
350
763
  0
DICTIONARY
  5
D
102
{ACAD_REACTORS
330
C
102
}
330
C
100
AcDbDictionary
281
     1
  0
DICTIONARY
  5
1A
102
{ACAD_REACTORS
330
C
102
}
330
C
100
AcDbDictionary
281
     1
  3
Layout1
350
1E
  3
Layout2
350
26
  3
Model
350
22
  0
DICTIONARY
  5
17
102
{ACAD_REACTORS
330
C
102
}
330
C
100
AcDbDictionary
281
     1
  3
Standard
350
18
  0
DICTIONARY
  5
19
102
{ACAD_REACTORS
330
C
102
}
330
C
100
AcDbDictionary
281
     1
  0
ACDBDICTIONARYWDFLT
  5
E
102
{ACAD_REACTORS
330
C
102
}
330
C
100
AcDbDictionary
281
     1
  3
Normal
350
F
100
AcDbDictionaryWithDefault
340
F
  0
DICTIONARY
  5
765
102
{ACAD_REACTORS
330
C
102
}
330
C
100
AcDbDictionary
281
     1
  0
DICTIONARY
  5
2A
102
{ACAD_REACTORS
330
C
102
}
330
C
100
AcDbDictionary
281
     1
  3
2dWireframe
350
2F
  3
3D Hidden
350
31
  3
3dWireframe
350
30
  3
Basic
350
32
  3
Brighten
350
36
  3
ColorChange
350
3A
  3
Conceptual
350
34
  3
Dim
350
35
  3
Facepattern
350
39
  3
Flat
350
2B
  3
FlatWithEdges
350
2C
  3
Gouraud
350
2D
  3
GouraudWithEdges
350
2E
  3
Linepattern
350
38
  3
Realistic
350
33
  3
Thicken
350
37
  0
DICTIONARY
  5
763
102
{ACAD_REACTORS
330
C
102
}
330
C
100
AcDbDictionary
281
     1
  3
AC_WATERMARK
350
764
  0
LAYOUT
  5
1E
102
{ACAD_REACTORS
330
1A
102
}
330
1A
100
AcDbPlotSettings
  1

  2
none_device
  4

  6

 40
0.0
 41
0.0
 42
0.0
 43
0.0
 44
0.0
 45
0.0
 46
0.0
 47
0.0
 48
0.0
 49
0.0
140
0.0
141
0.0
142
1.0
143
1.0
 70
   688
 72
     0
 73
     0
 74
     5
  7

 75
    16
147
1.0
148
0.0
149
0.0
100
AcDbLayout
  1
Layout1
 70
     1
 71
     1
 10
0.0
 20
0.0
 11
12.0
 21
9.0
 12
0.0
 22
0.0
 32
0.0
 14
1.000000000000000E+20
 24
1.000000000000000E+20
 34
1.000000000000000E+20
 15
-1.000000000000000E+20
 25
-1.000000000000000E+20
 35
-1.000000000000000E+20
146
0.0
 13
0.0
 23
0.0
 33
0.0
 16
1.0
 26
0.0
 36
0.0
 17
0.0
 27
1.0
 37
0.0
 76
     0
330
1B
  0
LAYOUT
  5
26
102
{ACAD_REACTORS
330
1A
102
}
330
1A
100
AcDbPlotSettings
  1

  2
none_device
  4

  6

 40
0.0
 41
0.0
 42
0.0
 43
0.0
 44
0.0
 45
0.0
 46
0.0
 47
0.0
 48
0.0
 49
0.0
140
0.0
141
0.0
142
1.0
143
1.0
 70
   688
 72
     0
 73
     0
 74
     5
  7

 75
    16
147
1.0
148
0.0
149
0.0
100
AcDbLayout
  1
Layout2
 70
     1
 71
     2
 10
0.0
 20
0.0
 11
0.0
 21
0.0
 12
0.0
 22
0.0
 32
0.0
 14
0.0
 24
0.0
 34
0.0
 15
0.0
 25
0.0
 35
0.0
146
0.0
 13
0.0
 23
0.0
 33
0.0
 16
1.0
 26
0.0
 36
0.0
 17
0.0
 27
1.0
 37
0.0
 76
     0
330
23
  0
LAYOUT
  5
22
102
{ACAD_REACTORS
330
1A
102
}
330
1A
100
AcDbPlotSettings
  1

  2
none_device
  4

  6

 40
0.0
 41
0.0
 42
0.0
 43
0.0
 44
0.0
 45
0.0
 46
0.0
 47
0.0
 48
0.0
 49
0.0
140
0.0
141
0.0
142
1.0
143
1.0
 70
  1712
 72
     0
 73
     0
 74
     0
  7

 75
     0
147
1.0
148
0.0
149
0.0
100
AcDbLayout
  1
Model
 70
     1
 71
     0
 10
0.0
 20
0.0
 11
12.0
 21
9.0
 12
0.0
 22
0.0
 32
0.0
 14
1.000000000000000E+20
 24
1.000000000000000E+20
 34
1.000000000000000E+20
 15
-1.000000000000000E+20
 25
-1.000000000000000E+20
 35
-1.000000000000000E+20
146
0.0
 13
0.0
 23
0.0
 33
0.0
 16
1.0
 26
0.0
 36
0.0
 17
0.0
 27
1.0
 37
0.0
 76
     0
330
1F
331
29
  0
MLINESTYLE
  5
18
102
{ACAD_REACTORS
330
17
102
}
330
17
100
AcDbMlineStyle
  2
Standard
 70
     0
  3

 62
   256
 51
90.0
 52
90.0
 71
     2
 49
0.5
 62
   256
  6
BYLAYER
 49
-0.5
 62
   256
  6
BYLAYER
  0
ACDBPLACEHOLDER
  5
F
102
{ACAD_REACTORS
330
E
102
}
330
E
  0
VISUALSTYLE
  5
2F
102
{ACAD_REACTORS
330
2A
102
}
330
2A
100
AcDbVisualStyle
  2
2dWireframe
 70
     4
 71
     0
 72
     2
 73
     0
 90
        0
 40
-0.6
 41
-30.0
 62
     5
 63
     7
 74
     1
 91
        4
 64
     7
 65
   257
 75
     1
175
     1
 42
1.0
 92
        0
 66
   257
 43
1.0
 76
     1
 77
     6
 78
     2
 67
     7
 79
     5
170
     0
171
     0
290
     0
174
     0
 93
        1
 44
0.0
173
     0
291
     0
 45
0.0
1001
ACAD
1000
AcDbSavedByObjectVersion
1070
     0
  0
VISUALSTYLE
  5
31
102
{ACAD_REACTORS
330
2A
102
}
330
2A
100
AcDbVisualStyle
  2
3D Hidden
 70
     6
 71
     1
 72
     2
 73
     2
 90
        0
 40
-0.6
 41
-30.0
 62
     5
 63
     7
 74
     2
 91
        2
 64
     7
 65
   257
 75
     2
175
     1
 42
40.0
 92
        0
 66
   257
 43
1.0
 76
     1
 77
     6
 78
     2
 67
     7
 79
     3
170
     0
171
     0
290
     0
174
     0
 93
        1
 44
0.0
173
     0
291
     0
 45
0.0
1001
ACAD
1000
AcDbSavedByObjectVersion
1070
     0
  0
VISUALSTYLE
  5
30
102
{ACAD_REACTORS
330
2A
102
}
330
2A
100
AcDbVisualStyle
  2
3dWireframe
 70
     5
 71
     0
 72
     2
 73
     0
 90
        0
 40
-0.6
 41
-30.0
 62
     5
 63
     7
 74
     1
 91
        4
 64
     7
 65
   257
 75
     1
175
     1
 42
1.0
 92
        0
 66
   257
 43
1.0
 76
     1
 77
     6
 78
     2
 67
     7
 79
     5
170
     0
171
     0
290
     0
174
     0
 93
        1
 44
0.0
173
     0
291
     0
 45
0.0
1001
ACAD
1000
AcDbSavedByObjectVersion
1070
     0
  0
VISUALSTYLE
  5
32
102
{ACAD_REACTORS
330
2A
102
}
330
2A
100
AcDbVisualStyle
  2
Basic
 70
     7
 71
     1
 72
     0
 73
     1
 90
        0
 40
-0.6
 41
-30.0
 62
     5
 63
     7
 74
     0
 91
        4
 64
     7
 65
   257
 75
     1
175
     1
 42
1.0
 92
        8
 66
     7
 43
1.0
 76
     1
 77
     6
 78
     2
 67
     7
 79
     5
170
     0
171
     0
290
     0
174
     0
 93
        1
 44
0.0
173
     0
291
     1
 45
0.0
1001
ACAD
1000
AcDbSavedByObjectVersion
1070
     0
  0
VISUALSTYLE
  5
36
102
{ACAD_REACTORS
330
2A
102
}
330
2A
100
AcDbVisualStyle
  2
Brighten
 70
    12
 71
     2
 72
     2
 73
     0
 90
        0
 40
-0.6
 41
-30.0
 62
     5
 63
     7
 74
     1
 91
        4
 64
     7
 65
   257
 75
     1
175
     1
 42
1.0
 92
        8
 66
     7
 43
1.0
 76
     1
 77
     6
 78
     2
 67
     7
 79
     5
170
     0
171
     0
290
     0
174
     0
 93
        1
 44
50.0
173
     0
291
     1
 45
0.0
1001
ACAD
1000
AcDbSavedByObjectVersion
1070
     0
  0
VISUALSTYLE
  5
3A
102
{ACAD_REACTORS
330
2A
102
}
330
2A
100
AcDbVisualStyle
  2
ColorChange
 70
    16
 71
     2
 72
     2
 73
     3
 90
        0
 40
-0.6
 41
-30.0
 62
     5
 63
     8
 74
     1
 91
        4
 64
     7
 65
   257
 75
     1
175
     1
 42
1.0
 92
        8
 66
     8
 43
1.0
 76
     1
 77
     6
 78
     2
 67
     7
 79
     5
170
     0
171
     0
290
     0
174
     0
 93
        1
 44
0.0
173
     0
291
     1
 45
0.0
1001
ACAD
1000
AcDbSavedByObjectVersion
1070
     0
  0
VISUALSTYLE
  5
34
102
{ACAD_REACTORS
330
2A
102
}
330
2A
100
AcDbVisualStyle
  2
Conceptual
 70
     9
 71
     3
 72
     2
 73
     0
 90
        0
 40
-0.6
 41
-30.0
 62
     5
 63
     7
 74
     2
 91
        2
 64
     7
 65
   257
 75
     1
175
     1
 42
40.0
 92
        8
 66
     7
 43
1.0
 76
     1
 77
     6
 78
     2
 67
     7
 79
     3
170
     0
171
     0
290
     0
174
     0
 93
        1
 44
0.0
173
     0
291
     0
 45
0.0
1001
ACAD
1000
AcDbSavedByObjectVersion
1070
     0
  0
VISUALSTYLE
  5
35
102
{ACAD_REACTORS
330
2A
102
}
330
2A
100
AcDbVisualStyle
  2
Dim
 70
    11
 71
     2
 72
     2
 73
     0
 90
        0
 40
-0.6
 41
-30.0
 62
     5
 63
     7
 74
     1
 91
        4
 64
     7
 65
   257
 75
     1
175
     1
 42
1.0
 92
        8
 66
     7
 43
1.0
 76
     1
 77
     6
 78
     2
 67
     7
 79
     5
170
     0
171
     0
290
     0
174
     0
 93
        1
 44
-50.0
173
     0
291
     1
 45
0.0
1001
ACAD
1000
AcDbSavedByObjectVersion
1070
     0
  0
VISUALSTYLE
  5
39
102
{ACAD_REACTORS
330
2A
102
}
330
2A
100
AcDbVisualStyle
  2
Facepattern
 70
    15
 71
     2
 72
     2
 73
     0
 90
        0
 40
-0.6
 41
-30.0
 62
     5
 63
     7
 74
     1
 91
        4
 64
     7
 65
   257
 75
     1
175
     1
 42
1.0
 92
        8
 66
     7
 43
1.0
 76
     1
 77
     6
 78
     2
 67
     7
 79
     5
170
     0
171
     0
290
     0
174
     0
 93
        1
 44
0.0
173
     0
291
     1
 45
0.0
1001
ACAD
1000
AcDbSavedByObjectVersion
1070
     0
  0
VISUALSTYLE
  5
2B
102
{ACAD_REACTORS
330
2A
102
}
330
2A
100
AcDbVisualStyle
  2
Flat
 70
     0
 71
     2
 72
     1
 73
     1
 90
        2
 40
-0.6
 41
30.0
 62
     5
 63
     7
 74
     0
 91
        4
 64
     7
 65
   257
 75
     1
175
     1
 42
1.0
 92
        8
 66
     7
 43
1.0
 76
     1
 77
     6
 78
     2
 67
     7
 79
     5
170
     0
171
     0
290
     0
174
     0
 93
       13
 44
0.0
173
     0
291
     1
 45
0.0
1001
ACAD
1000
AcDbSavedByObjectVersion
1070
     0
  0
VISUALSTYLE
  5
2C
102
{ACAD_REACTORS
330
2A
102
}
330
2A
100
AcDbVisualStyle
  2
FlatWithEdges
 70
     1
 71
     2
 72
     1
 73
     1
 90
        2
 40
-0.6
 41
30.0
 62
     5
 63
     7
 74
     1
 91
        4
 64
     7
 65
   257
 75
     1
175
     1
 42
1.0
 92
        0
 66
   257
 43
1.0
 76
     1
 77
     6
 78
     2
 67
     7
 79
     5
170
     0
171
     0
290
     0
174
     0
 93
       13
 44
0.0
173
     0
291
     1
 45
0.0
1001
ACAD
1000
AcDbSavedByObjectVersion
1070
     0
  0
VISUALSTYLE
  5
2D
102
{ACAD_REACTORS
330
2A
102
}
330
2A
100
AcDbVisualStyle
  2
Gouraud
 70
     2
 71
     2
 72
     2
 73
     1
 90
        2
 40
-0.6
 41
30.0
 62
     5
 63
     7
 74
     0
 91
        4
 64
     7
 65
   257
 75
     1
175
     1
 42
1.0
 92
        0
 66
     7
 43
1.0
 76
     1
 77
     6
 78
     2
 67
     7
 79
     5
170
     0
171
     0
290
     0
174
     0
 93
       13
 44
0.0
173
     0
291
     1
 45
0.0
1001
ACAD
1000
AcDbSavedByObjectVersion
1070
     0
  0
VISUALSTYLE
  5
2E
102
{ACAD_REACTORS
330
2A
102
}
330
2A
100
AcDbVisualStyle
  2
GouraudWithEdges
 70
     3
 71
     2
 72
     2
 73
     1
 90
        2
 40
-0.6
 41
30.0
 62
     5
 63
     7
 74
     1
 91
        4
 64
     7
 65
   257
 75
     1
175
     1
 42
1.0
 92
        0
 66
   257
 43
1.0
 76
     1
 77
     6
 78
     2
 67
     7
 79
     5
170
     0
171
     0
290
     0
174
     0
 93
       13
 44
0.0
173
     0
291
     1
 45
0.0
1001
ACAD
1000
AcDbSavedByObjectVersion
1070
     0
  0
VISUALSTYLE
  5
38
102
{ACAD_REACTORS
330
2A
102
}
330
2A
100
AcDbVisualStyle
  2
Linepattern
 70
    14
 71
     2
 72
     2
 73
     0
 90
        0
 40
-0.6
 41
-30.0
 62
     5
 63
     7
 74
     1
 91
        4
 64
     7
 65
   257
 75
     7
175
     7
 42
1.0
 92
        8
 66
     7
 43
1.0
 76
     1
 77
     6
 78
     2
 67
     7
 79
     5
170
     0
171
     0
290
     0
174
     0
 93
        1
 44
0.0
173
     0
291
     1
 45
0.0
1001
ACAD
1000
AcDbSavedByObjectVersion
1070
     0
  0
VISUALSTYLE
  5
33
102
{ACAD_REACTORS
330
2A
102
}
330
2A
100
AcDbVisualStyle
  2
Realistic
 70
     8
 71
     2
 72
     2
 73
     0
 90
        0
 40
-0.6
 41
-30.0
 62
     5
 63
     7
 74
     1
 91
        0
 64
     7
 65
   257
 75
     1
175
     1
 42
1.0
 92
        8
 66
     8
 43
1.0
 76
     1
 77
     6
 78
     2
 67
     7
 79
     5
170
     0
171
     0
290
     0
174
     0
 93
       13
 44
0.0
173
     0
291
     0
 45
0.0
1001
ACAD
1000
AcDbSavedByObjectVersion
1070
     0
  0
VISUALSTYLE
  5
37
102
{ACAD_REACTORS
330
2A
102
}
330
2A
100
AcDbVisualStyle
  2
Thicken
 70
    13
 71
     2
 72
     2
 73
     0
 90
        0
 40
-0.6
 41
-30.0
 62
     5
 63
     7
 74
     1
 91
        4
 64
     7
 65
   257
 75
     1
175
     1
 42
1.0
 92
       12
 66
     7
 43
1.0
 76
     1
 77
     6
 78
     2
 67
     7
 79
     5
170
     0
171
     0
290
     0
174
     0
 93
        1
 44
0.0
173
     0
291
     1
 45
0.0
1001
ACAD
1000
AcDbSavedByObjectVersion
1070
     0
  0
XRECORD
  5
764
102
{ACAD_REACTORS
330
763
102
}
330
763
100
AcDbXrecord
280
     1
1000
・ｱ・ﾌDWG・t・@・C・・・ﾍRIKCAD21(TM)(R)・ﾅ・・・ｬ・ｳ・・・ﾜ・ｵ・ｽ・B
  0
ENDSEC
  0
EOF
