  0
SECTION
  2
HEADER
  9
$ACADVER
  1
AC1015
  9
$ACADMAINTVER
 70
     6
  9
$DWGCODEPAGE
  3
ANSI_932
  9
$INSBASE
 10
0.0
 20
0.0
 30
0.0
  9
$EXTMIN
 10
1.000000000000000E+20
 20
1.000000000000000E+20
 30
1.000000000000000E+20
  9
$EXTMAX
 10
-1.000000000000000E+20
 20
-1.000000000000000E+20
 30
-1.000000000000000E+20
  9
$LIMMIN
 10
0.0
 20
0.0
  9
$LIMMAX
 10
12.0
 20
9.0
  9
$ORTHOMODE
 70
     0
  9
$REGENMODE
 70
     1
  9
$FILLMODE
 70
     1
  9
$QTEXTMODE
 70
     0
  9
$MIRRTEXT
 70
     1
  9
$LTSCALE
 40
1.0
  9
$ATTMODE
 70
     1
  9
$TEXTSIZE
 40
0.2
  9
$TRACEWID
 40
0.05
  9
$TEXTSTYLE
  7
Standard
  9
$CLAYER
  8
0
  9
$CELTYPE
  6
ByLayer
  9
$CECOLOR
 62
   256
  9
$CELTSCALE
 40
1.0
  9
$DISPSILH
 70
     0
  9
$DIMSCALE
 40
1.0
  9
$DIMASZ
 40
0.18
  9
$DIMEXO
 40
0.0625
  9
$DIMDLI
 40
0.38
  9
$DIMRND
 40
0.0
  9
$DIMDLE
 40
0.0
  9
$DIMEXE
 40
0.18
  9
$DIMTP
 40
0.0
  9
$DIMTM
 40
0.0
  9
$DIMTXT
 40
0.18
  9
$DIMCEN
 40
0.09
  9
$DIMTSZ
 40
0.0
  9
$DIMTOL
 70
     0
  9
$DIMLIM
 70
     0
  9
$DIMTIH
 70
     1
  9
$DIMTOH
 70
     1
  9
$DIMSE1
 70
     0
  9
$DIMSE2
 70
     0
  9
$DIMTAD
 70
     0
  9
$DIMZIN
 70
     0
  9
$DIMBLK
  1

  9
$DIMASO
 70
     1
  9
$DIMSHO
 70
     1
  9
$DIMPOST
  1

  9
$DIMAPOST
  1

  9
$DIMALT
 70
     0
  9
$DIMALTD
 70
     2
  9
$DIMALTF
 40
25.4
  9
$DIMLFAC
 40
1.0
  9
$DIMTOFL
 70
     0
  9
$DIMTVP
 40
0.0
  9
$DIMTIX
 70
     0
  9
$DIMSOXD
 70
     0
  9
$DIMSAH
 70
     0
  9
$DIMBLK1
  1

  9
$DIMBLK2
  1

  9
$DIMSTYLE
  2
Standard
  9
$DIMCLRD
 70
     0
  9
$DIMCLRE
 70
     0
  9
$DIMCLRT
 70
     0
  9
$DIMTFAC
 40
1.0
  9
$DIMGAP
 40
0.09
  9
$DIMJUST
 70
     0
  9
$DIMSD1
 70
     0
  9
$DIMSD2
 70
     0
  9
$DIMTOLJ
 70
     1
  9
$DIMTZIN
 70
     0
  9
$DIMALTZ
 70
     0
  9
$DIMALTTZ
 70
     0
  9
$DIMUPT
 70
     0
  9
$DIMDEC
 70
     4
  9
$DIMTDEC
 70
     4
  9
$DIMALTU
 70
     2
  9
$DIMALTTD
 70
     2
  9
$DIMTXSTY
  7
Standard
  9
$DIMAUNIT
 70
     0
  9
$DIMADEC
 70
     0
  9
$DIMALTRND
 40
0.0
  9
$DIMAZIN
 70
     0
  9
$DIMDSEP
 70
    46
  9
$DIMATFIT
 70
     3
  9
$DIMFRAC
 70
     0
  9
$DIMLDRBLK
  1

  9
$DIMLUNIT
 70
     2
  9
$DIMLWD
 70
    -2
  9
$DIMLWE
 70
    -2
  9
$DIMTMOVE
 70
     0
  9
$LUNITS
 70
     2
  9
$LUPREC
 70
     4
  9
$SKETCHINC
 40
0.1
  9
$FILLETRAD
 40
0.5
  9
$AUNITS
 70
     0
  9
$AUPREC
 70
     0
  9
$MENU
  1
.
  9
$ELEVATION
 40
0.0
  9
$PELEVATION
 40
0.0
  9
$THICKNESS
 40
0.0
  9
$LIMCHECK
 70
     0
  9
$CHAMFERA
 40
0.5
  9
$CHAMFERB
 40
0.5
  9
$CHAMFERC
 40
1.0
  9
$CHAMFERD
 40
0.0
  9
$SKPOLY
 70
     0
  9
$TDCREATE
 40
2457920.695259201
  9
$TDUCREATE
 40
2457920.320259201
  9
$TDUPDATE
 40
2457920.695259213
  9
$TDUUPDATE
 40
2457920.320259213
  9
$TDINDWG
 40
0.0000000116
  9
$TDUSRTIMER
 40
0.0000000116
  9
$USRTIMER
 70
     1
  9
$ANGBASE
 50
0.0
  9
$ANGDIR
 70
     0
  9
$PDMODE
 70
     0
  9
$PDSIZE
 40
0.0
  9
$PLINEWID
 40
0.0
  9
$SPLFRAME
 70
     0
  9
$SPLINETYPE
 70
     6
  9
$SPLINESEGS
 70
     8
  9
$HANDSEED
  5
52C
  9
$SURFTAB1
 70
     6
  9
$SURFTAB2
 70
     6
  9
$SURFTYPE
 70
     6
  9
$SURFU
 70
     6
  9
$SURFV
 70
     6
  9
$UCSBASE
  2

  9
$UCSNAME
  2

  9
$UCSORG
 10
0.0
 20
0.0
 30
0.0
  9
$UCSXDIR
 10
1.0
 20
0.0
 30
0.0
  9
$UCSYDIR
 10
0.0
 20
1.0
 30
0.0
  9
$UCSORTHOREF
  2

  9
$UCSORTHOVIEW
 70
     0
  9
$UCSORGTOP
 10
0.0
 20
0.0
 30
0.0
  9
$UCSORGBOTTOM
 10
0.0
 20
0.0
 30
0.0
  9
$UCSORGLEFT
 10
0.0
 20
0.0
 30
0.0
  9
$UCSORGRIGHT
 10
0.0
 20
0.0
 30
0.0
  9
$UCSORGFRONT
 10
0.0
 20
0.0
 30
0.0
  9
$UCSORGBACK
 10
0.0
 20
0.0
 30
0.0
  9
$PUCSBASE
  2

  9
$PUCSNAME
  2

  9
$PUCSORG
 10
0.0
 20
0.0
 30
0.0
  9
$PUCSXDIR
 10
1.0
 20
0.0
 30
0.0
  9
$PUCSYDIR
 10
0.0
 20
1.0
 30
0.0
  9
$PUCSORTHOREF
  2

  9
$PUCSORTHOVIEW
 70
     0
  9
$PUCSORGTOP
 10
0.0
 20
0.0
 30
0.0
  9
$PUCSORGBOTTOM
 10
0.0
 20
0.0
 30
0.0
  9
$PUCSORGLEFT
 10
0.0
 20
0.0
 30
0.0
  9
$PUCSORGRIGHT
 10
0.0
 20
0.0
 30
0.0
  9
$PUCSORGFRONT
 10
0.0
 20
0.0
 30
0.0
  9
$PUCSORGBACK
 10
0.0
 20
0.0
 30
0.0
  9
$USERI1
 70
     0
  9
$USERI2
 70
     0
  9
$USERI3
 70
     0
  9
$USERI4
 70
     0
  9
$USERI5
 70
     0
  9
$USERR1
 40
0.0
  9
$USERR2
 40
0.0
  9
$USERR3
 40
0.0
  9
$USERR4
 40
0.0
  9
$USERR5
 40
0.0
  9
$WORLDVIEW
 70
     1
  9
$SHADEDGE
 70
     3
  9
$SHADEDIF
 70
    70
  9
$TILEMODE
 70
     1
  9
$MAXACTVP
 70
    64
  9
$PINSBASE
 10
0.0
 20
0.0
 30
0.0
  9
$PLIMCHECK
 70
     0
  9
$PEXTMIN
 10
1.000000000000000E+20
 20
1.000000000000000E+20
 30
1.000000000000000E+20
  9
$PEXTMAX
 10
-1.000000000000000E+20
 20
-1.000000000000000E+20
 30
-1.000000000000000E+20
  9
$PLIMMIN
 10
0.0
 20
0.0
  9
$PLIMMAX
 10
12.0
 20
9.0
  9
$UNITMODE
 70
     0
  9
$VISRETAIN
 70
     1
  9
$PLINEGEN
 70
     0
  9
$PSLTSCALE
 70
     1
  9
$TREEDEPTH
 70
  3020
  9
$CMLSTYLE
  2
Standard
  9
$CMLJUST
 70
     0
  9
$CMLSCALE
 40
1.0
  9
$PROXYGRAPHICS
 70
     1
  9
$MEASUREMENT
 70
     0
  9
$CELWEIGHT
370
    -1
  9
$ENDCAPS
280
     0
  9
$JOINSTYLE
280
     0
  9
$LWDISPLAY
290
     1
  9
$INSUNITS
 70
     0
  9
$HYPERLINKBASE
  1

  9
$STYLESHEET
  1

  9
$XEDIT
290
     1
  9
$CEPSNTYPE
380
     0
  9
$PSTYLEMODE
290
     1
  9
$FINGERPRINTGUID
  2
{8C47687D-1112-4D87-9CF6-594BC1B38561}
  9
$VERSIONGUID
  2
{FAEB1C32-E019-11D5-929B-00C0DF256EC4}
  9
$EXTNAMES
290
     1
  9
$PSVPSCALE
 40
0.0
  9
$OLESTARTUP
290
     0
  0
ENDSEC
  0
SECTION
  2
CLASSES
  0
CLASS
  1
ACDBDICTIONARYWDFLT
  2
AcDbDictionaryWithDefault
  3
ObjectDBX Classes
 90
        0
280
     0
281
     0
  0
CLASS
  1
VISUALSTYLE
  2
AcDbVisualStyle
  3
ObjectDBX Classes
 90
     4095
280
     0
281
     0
  0
CLASS
  1
ACDBPLACEHOLDER
  2
AcDbPlaceHolder
  3
ObjectDBX Classes
 90
        0
280
     0
281
     0
  0
CLASS
  1
LAYOUT
  2
AcDbLayout
  3
ObjectDBX Classes
 90
        0
280
     0
281
     0
  0
ENDSEC
  0
SECTION
  2
TABLES
  0
TABLE
  2
VPORT
  5
8
330
0
100
AcDbSymbolTable
 70
     1
  0
VPORT
  5
29
330
8
100
AcDbSymbolTableRecord
100
AcDbViewportTableRecord
  2
*Active
 70
     0
 10
0.0
 20
0.0
 11
1.0
 21
1.0
 12
10.42990654205607
 22
4.5
 13
0.0
 23
0.0
 14
0.5
 24
0.5
 15
0.5
 25
0.5
 16
0.0
 26
0.0
 36
1.0
 17
0.0
 27
0.0
 37
0.0
 40
9.0
 41
1.972972972850329
 42
50.0
 43
0.0
 44
0.0
 50
0.0
 51
0.0
 71
     0
 72
   100
 73
     1
 74
     3
 75
     0
 76
     0
 77
     0
 78
     0
281
     0
 65
     1
110
0.0
120
0.0
130
0.0
111
1.0
121
0.0
131
0.0
112
0.0
122
1.0
132
0.0
 79
     0
146
0.0
  0
ENDTAB
  0
TABLE
  2
LTYPE
  5
5
330
0
100
AcDbSymbolTable
 70
     1
  0
LTYPE
  5
14
330
5
100
AcDbSymbolTableRecord
100
AcDbLinetypeTableRecord
  2
ByBlock
 70
     0
  3

 72
    65
 73
     0
 40
0.0
  0
LTYPE
  5
15
330
5
100
AcDbSymbolTableRecord
100
AcDbLinetypeTableRecord
  2
ByLayer
 70
     0
  3

 72
    65
 73
     0
 40
0.0
  0
LTYPE
  5
16
330
5
100
AcDbSymbolTableRecord
100
AcDbLinetypeTableRecord
  2
Continuous
 70
     0
  3
Solid line
 72
    65
 73
     0
 40
0.0
  0
ENDTAB
  0
TABLE
  2
LAYER
  5
2
330
0
100
AcDbSymbolTable
 70
     2
  0
LAYER
  5
10
330
2
100
AcDbSymbolTableRecord
100
AcDbLayerTableRecord
  2
0
 70
     0
 62
     7
  6
Continuous
370
    -3
390
F
  0
LAYER
  5
3B
330
2
100
AcDbSymbolTableRecord
100
AcDbLayerTableRecord
  2
ｴｸｽﾃﾘｱ商品
 70
     0
 62
     7
  6
Continuous
370
    -3
390
F
  0
ENDTAB
  0
TABLE
  2
STYLE
  5
3
330
0
100
AcDbSymbolTable
 70
     1
  0
STYLE
  5
11
330
3
100
AcDbSymbolTableRecord
100
AcDbTextStyleTableRecord
  2
Standard
 70
     0
 40
0.0
 41
1.0
 50
0.0
 71
     0
 42
0.2
  3
txt
  4
EXTFONT.SHX
  0
ENDTAB
  0
TABLE
  2
VIEW
  5
6
330
0
100
AcDbSymbolTable
 70
     0
  0
ENDTAB
  0
TABLE
  2
UCS
  5
7
330
0
100
AcDbSymbolTable
 70
     0
  0
ENDTAB
  0
TABLE
  2
APPID
  5
9
330
0
100
AcDbSymbolTable
 70
     1
  0
APPID
  5
12
330
9
100
AcDbSymbolTableRecord
100
AcDbRegAppTableRecord
  2
ACAD
 70
     0
  0
ENDTAB
  0
TABLE
  2
DIMSTYLE
  5
A
330
0
100
AcDbSymbolTable
 70
     1
100
AcDbDimStyleTable
  0
DIMSTYLE
105
27
330
A
100
AcDbSymbolTableRecord
100
AcDbDimStyleTableRecord
  2
Standard
 70
     0
340
11
  0
ENDTAB
  0
TABLE
  2
BLOCK_RECORD
  5
1
330
0
100
AcDbSymbolTable
 70
     2
  0
BLOCK_RECORD
  5
1F
330
1
100
AcDbSymbolTableRecord
100
AcDbBlockTableRecord
  2
*Model_Space
340
22
  0
BLOCK_RECORD
  5
1B
330
1
100
AcDbSymbolTableRecord
100
AcDbBlockTableRecord
  2
*Paper_Space
340
1E
  0
BLOCK_RECORD
  5
23
330
1
100
AcDbSymbolTableRecord
100
AcDbBlockTableRecord
  2
*Paper_Space0
340
26
  0
BLOCK_RECORD
  5
3C
330
1
100
AcDbSymbolTableRecord
100
AcDbBlockTableRecord
  2
オブジェクト_187
340
0
102
{BLKREFS
331
528
102
}
  0
ENDTAB
  0
ENDSEC
  0
SECTION
  2
BLOCKS
  0
BLOCK
  5
20
330
1F
100
AcDbEntity
  8
0
100
AcDbBlockBegin
  2
*Model_Space
 70
     0
 71
     0
 10
0.0
 20
0.0
 30
0.0
  3
*Model_Space
  1

  0
ENDBLK
  5
21
330
1F
100
AcDbEntity
  8
0
100
AcDbBlockEnd
  0
BLOCK
  5
1C
330
1B
100
AcDbEntity
 67
     1
  8
0
100
AcDbBlockBegin
  2
*Paper_Space
 70
     0
 71
     0
 10
0.0
 20
0.0
 30
0.0
  3
*Paper_Space
  1

  0
ENDBLK
  5
1D
330
1B
100
AcDbEntity
 67
     1
  8
0
100
AcDbBlockEnd
  0
BLOCK
  5
24
330
23
100
AcDbEntity
  8
0
100
AcDbBlockBegin
  2
*Paper_Space0
 70
     0
 71
     0
 10
0.0
 20
0.0
 30
0.0
  3
*Paper_Space0
  1

  0
ENDBLK
  5
25
330
23
100
AcDbEntity
  8
0
100
AcDbBlockEnd
  0
BLOCK
  5
3D
330
3C
100
AcDbEntity
  8
0
100
AcDbBlockBegin
  2
オブジェクト_187
 70
     0
 71
     0
 10
167.2275780718539
 20
2306.36002187428
 30
0.0
  3
オブジェクト_187
  1

  0
POLYLINE
  5
3F
330
3C
100
AcDbEntity
  8
ｴｸｽﾃﾘｱ商品
 62
   253
370
    20
100
AcDbPolyFaceMesh
 66
     1
 10
0.0
 20
0.0
 30
0.0
 70
    64
 71
    16
 72
    20
  0
VERTEX
  5
41
330
3F
100
AcDbEntity
  8
ｴｸｽﾃﾘｱ商品
 62
   253
370
    20
100
AcDbVertex
100
AcDbPolyFaceMeshVertex
 10
352.2275780718539
 20
581.3600218742799
 30
11.0
 70
   192
  0
VERTEX
  5
42
330
3F
100
AcDbEntity
  8
ｴｸｽﾃﾘｱ商品
 62
   253
370
    20
100
AcDbVertex
100
AcDbPolyFaceMeshVertex
 10
352.2275780718539
 20
562.8600218742798
 30
11.0
 70
   192
  0
VERTEX
  5
43
330
3F
100
AcDbEntity
  8
ｴｸｽﾃﾘｱ商品
 62
   253
370
    20
100
AcDbVertex
100
AcDbPolyFaceMeshVertex
 10
352.2275780718539
 20
562.8600218742798
 30
441.0
 70
   192
  0
VERTEX
  5
44
330
3F
100
AcDbEntity
  8
ｴｸｽﾃﾘｱ商品
 62
   253
370
    20
100
AcDbVertex
100
AcDbPolyFaceMeshVertex
 10
352.2275780718539
 20
581.3600218742799
 30
441.0
 70
   192
  0
VERTEX
  5
45
330
3F
100
AcDbEntity
  8
ｴｸｽﾃﾘｱ商品
 62
   253
370
    20
100
AcDbVertex
100
AcDbPolyFaceMeshVertex
 10
348.7275780718539
 20
562.8600218742798
 30
11.0
 70
   192
  0
VERTEX
  5
46
330
3F
100
AcDbEntity
  8
ｴｸｽﾃﾘｱ商品
 62
   253
370
    20
100
AcDbVertex
100
AcDbPolyFaceMeshVertex
 10
348.7275780718539
 20
562.8600218742798
 30
441.0
 70
   192
  0
VERTEX
  5
47
330
3F
100
AcDbEntity
  8
ｴｸｽﾃﾘｱ商品
 62
   253
370
    20
100
AcDbVertex
100
AcDbPolyFaceMeshVertex
 10
348.7275780718539
 20
526.3600218742799
 30
11.0
 70
   192
  0
VERTEX
  5
48
330
3F
100
AcDbEntity
  8
ｴｸｽﾃﾘｱ商品
 62
   253
370
    20
100
AcDbVertex
100
AcDbPolyFaceMeshVertex
 10
348.7275780718539
 20
526.3600218742799
 30
441.0
 70
   192
  0
VERTEX
  5
49
330
3F
100
AcDbEntity
  8
ｴｸｽﾃﾘｱ商品
 62
   253
370
    20
100
AcDbVertex
100
AcDbPolyFaceMeshVertex
 10
385.727578071854
 20
526.3600218742799
 30
11.0
 70
   192
  0
VERTEX
  5
4A
330
3F
100
AcDbEntity
  8
ｴｸｽﾃﾘｱ商品
 62
   253
370
    20
100
AcDbVertex
100
AcDbPolyFaceMeshVertex
 10
385.727578071854
 20
526.3600218742799
 30
441.0
 70
   192
  0
VERTEX
  5
4B
330
3F
100
AcDbEntity
  8
ｴｸｽﾃﾘｱ商品
 62
   253
370
    20
100
AcDbVertex
100
AcDbPolyFaceMeshVertex
 10
385.727578071854
 20
562.8600218742798
 30
11.0
 70
   192
  0
VERTEX
  5
4C
330
3F
100
AcDbEntity
  8
ｴｸｽﾃﾘｱ商品
 62
   253
370
    20
100
AcDbVertex
100
AcDbPolyFaceMeshVertex
 10
385.727578071854
 20
562.8600218742798
 30
441.0
 70
   192
  0
VERTEX
  5
4D
330
3F
100
AcDbEntity
  8
ｴｸｽﾃﾘｱ商品
 62
   253
370
    20
100
AcDbVertex
100
AcDbPolyFaceMeshVertex
 10
382.227578071854
 20
562.8600218742798
 30
11.0
 70
   192
  0
VERTEX
  5
4E
330
3F
100
AcDbEntity
  8
ｴｸｽﾃﾘｱ商品
 62
   253
370
    20
100
AcDbVertex
100
AcDbPolyFaceMeshVertex
 10
382.227578071854
 20
562.8600218742798
 30
441.0
 70
   192
  0
VERTEX
  5
4F
330
3F
100
AcDbEntity
  8
ｴｸｽﾃﾘｱ商品
 62
   253
370
    20
100
AcDbVertex
100
AcDbPolyFaceMeshVertex
 10
382.227578071854
 20
581.3600218742799
 30
11.0
 70
   192
  0
VERTEX
  5
50
330
3F
100
AcDbEntity
  8
ｴｸｽﾃﾘｱ商品
 62
   253
370
    20
100
AcDbVertex
100
AcDbPolyFaceMeshVertex
 10
382.227578071854
 20
581.3600218742799
 30
441.0
 70
   192
  0
VERTEX
  5
51
330
3F
100
AcDbEntity
  8
ｴｸｽﾃﾘｱ商品
 62
   253
370
    20
100
AcDbFaceRecord
 10
0.0
 20
0.0
 30
0.0
 70
   128
 71
     1
 72
     2
 73
     3
 74
     4
  0
VERTEX
  5
52
330
3F
100
AcDbEntity
  8
ｴｸｽﾃﾘｱ商品
 62
   253
370
    20
100
AcDbFaceRecord
 10
0.0
 20
0.0
 30
0.0
 70
   128
 71
     2
 72
     5
 73
     6
 74
     3
  0
VERTEX
  5
53
330
3F
100
AcDbEntity
  8
ｴｸｽﾃﾘｱ商品
 62
   253
370
    20
100
AcDbFaceRecord
 10
0.0
 20
0.0
 30
0.0
 70
   128
 71
     5
 72
     7
 73
     8
 74
     6
  0
VERTEX
  5
54
330
3F
100
AcDbEntity
  8
ｴｸｽﾃﾘｱ商品
 62
   253
370
    20
100
AcDbFaceRecord
 10
0.0
 20
0.0
 30
0.0
 70
   128
 71
     7
 72
     9
 73
    10
 74
     8
  0
VERTEX
  5
55
330
3F
100
AcDbEntity
  8
ｴｸｽﾃﾘｱ商品
 62
   253
370
    20
100
AcDbFaceRecord
 10
0.0
 20
0.0
 30
0.0
 70
   128
 71
     9
 72
    11
 73
    12
 74
    10
  0
VERTEX
  5
56
330
3F
100
AcDbEntity
  8
ｴｸｽﾃﾘｱ商品
 62
   253
370
    20
100
AcDbFaceRecord
 10
0.0
 20
0.0
 30
0.0
 70
   128
 71
    11
 72
    13
 73
    14
 74
    12
  0
VERTEX
  5
57
330
3F
100
AcDbEntity
  8
ｴｸｽﾃﾘｱ商品
 62
   253
370
    20
100
AcDbFaceRecord
 10
0.0
 20
0.0
 30
0.0
 70
   128
 71
    13
 72
    15
 73
    16
 74
    14
  0
VERTEX
  5
58
330
3F
100
AcDbEntity
  8
ｴｸｽﾃﾘｱ商品
 62
   253
370
    20
100
AcDbFaceRecord
 10
0.0
 20
0.0
 30
0.0
 70
   128
 71
    15
 72
     1
 73
     4
 74
    16
  0
VERTEX
  5
59
330
3F
100
AcDbEntity
  8
ｴｸｽﾃﾘｱ商品
 62
   253
370
    20
100
AcDbFaceRecord
 10
0.0
 20
0.0
 30
0.0
 70
   128
 71
     7
 72
     5
 73
     2
  0
VERTEX
  5
5A
330
3F
100
AcDbEntity
  8
ｴｸｽﾃﾘｱ商品
 62
   253
370
    20
100
AcDbFaceRecord
 10
0.0
 20
0.0
 30
0.0
 70
   128
 71
     2
 72
     1
 73
    15
  0
VERTEX
  5
5B
330
3F
100
AcDbEntity
  8
ｴｸｽﾃﾘｱ商品
 62
   253
370
    20
100
AcDbFaceRecord
 10
0.0
 20
0.0
 30
0.0
 70
   128
 71
     2
 72
    15
 73
    13
  0
VERTEX
  5
5C
330
3F
100
AcDbEntity
  8
ｴｸｽﾃﾘｱ商品
 62
   253
370
    20
100
AcDbFaceRecord
 10
0.0
 20
0.0
 30
0.0
 70
   128
 71
     7
 72
     2
 73
    13
  0
VERTEX
  5
5D
330
3F
100
AcDbEntity
  8
ｴｸｽﾃﾘｱ商品
 62
   253
370
    20
100
AcDbFaceRecord
 10
0.0
 20
0.0
 30
0.0
 70
   128
 71
     9
 72
     7
 73
    13
  0
VERTEX
  5
5E
330
3F
100
AcDbEntity
  8
ｴｸｽﾃﾘｱ商品
 62
   253
370
    20
100
AcDbFaceRecord
 10
0.0
 20
0.0
 30
0.0
 70
   128
 71
     9
 72
    13
 73
    11
  0
VERTEX
  5
5F
330
3F
100
AcDbEntity
  8
ｴｸｽﾃﾘｱ商品
 62
   253
370
    20
100
AcDbFaceRecord
 10
0.0
 20
0.0
 30
0.0
 70
   128
 71
     3
 72
     6
 73
     8
  0
VERTEX
  5
60
330
3F
100
AcDbEntity
  8
ｴｸｽﾃﾘｱ商品
 62
   253
370
    20
100
AcDbFaceRecord
 10
0.0
 20
0.0
 30
0.0
 70
   128
 71
    16
 72
     4
 73
     3
  0
VERTEX
  5
61
330
3F
100
AcDbEntity
  8
ｴｸｽﾃﾘｱ商品
 62
   253
370
    20
100
AcDbFaceRecord
 10
0.0
 20
0.0
 30
0.0
 70
   128
 71
    14
 72
    16
 73
     3
  0
VERTEX
  5
62
330
3F
100
AcDbEntity
  8
ｴｸｽﾃﾘｱ商品
 62
   253
370
    20
100
AcDbFaceRecord
 10
0.0
 20
0.0
 30
0.0
 70
   128
 71
    14
 72
     3
 73
     8
  0
VERTEX
  5
63
330
3F
100
AcDbEntity
  8
ｴｸｽﾃﾘｱ商品
 62
   253
370
    20
100
AcDbFaceRecord
 10
0.0
 20
0.0
 30
0.0
 70
   128
 71
    12
 72
    14
 73
    10
  0
VERTEX
  5
64
330
3F
100
AcDbEntity
  8
ｴｸｽﾃﾘｱ商品
 62
   253
370
    20
100
AcDbFaceRecord
 10
0.0
 20
0.0
 30
0.0
 70
   128
 71
    10
 72
    14
 73
     8
  0
SEQEND
  5
40
330
3F
100
AcDbEntity
  8
ｴｸｽﾃﾘｱ商品
370
    20
  0
POLYLINE
  5
65
330
3C
100
AcDbEntity
  8
ｴｸｽﾃﾘｱ商品
 62
   253
370
    20
100
AcDbPolyFaceMesh
 66
     1
 10
0.0
 20
0.0
 30
0.0
 70
    64
 71
    16
 72
    20
  0
VERTEX
  5
67
330
65
100
AcDbEntity
  8
ｴｸｽﾃﾘｱ商品
 62
   253
370
    20
100
AcDbVertex
100
AcDbPolyFaceMeshVertex
 10
3592.227578071854
 20
581.3600218742799
 30
11.0
 70
   192
  0
VERTEX
  5
68
330
65
100
AcDbEntity
  8
ｴｸｽﾃﾘｱ商品
 62
   253
370
    20
100
AcDbVertex
100
AcDbPolyFaceMeshVertex
 10
3592.227578071854
 20
562.8600218742798
 30
11.0
 70
   192
  0
VERTEX
  5
69
330
65
100
AcDbEntity
  8
ｴｸｽﾃﾘｱ商品
 62
   253
370
    20
100
AcDbVertex
100
AcDbPolyFaceMeshVertex
 10
3592.227578071854
 20
562.8600218742798
 30
441.0
 70
   192
  0
VERTEX
  5
6A
330
65
100
AcDbEntity
  8
ｴｸｽﾃﾘｱ商品
 62
   253
370
    20
100
AcDbVertex
100
AcDbPolyFaceMeshVertex
 10
3592.227578071854
 20
581.3600218742799
 30
441.0
 70
   192
  0
VERTEX
  5
6B
330
65
100
AcDbEntity
  8
ｴｸｽﾃﾘｱ商品
 62
   253
370
    20
100
AcDbVertex
100
AcDbPolyFaceMeshVertex
 10
3588.727578071854
 20
562.8600218742798
 30
11.0
 70
   192
  0
VERTEX
  5
6C
330
65
100
AcDbEntity
  8
ｴｸｽﾃﾘｱ商品
 62
   253
370
    20
100
AcDbVertex
100
AcDbPolyFaceMeshVertex
 10
3588.727578071854
 20
562.8600218742798
 30
441.0
 70
   192
  0
VERTEX
  5
6D
330
65
100
AcDbEntity
  8
ｴｸｽﾃﾘｱ商品
 62
   253
370
    20
100
AcDbVertex
100
AcDbPolyFaceMeshVertex
 10
3588.727578071854
 20
526.3600218742799
 30
11.0
 70
   192
  0
VERTEX
  5
6E
330
65
100
AcDbEntity
  8
ｴｸｽﾃﾘｱ商品
 62
   253
370
    20
100
AcDbVertex
100
AcDbPolyFaceMeshVertex
 10
3588.727578071854
 20
526.3600218742799
 30
441.0
 70
   192
  0
VERTEX
  5
6F
330
65
100
AcDbEntity
  8
ｴｸｽﾃﾘｱ商品
 62
   253
370
    20
100
AcDbVertex
100
AcDbPolyFaceMeshVertex
 10
3625.727578071854
 20
526.3600218742799
 30
11.0
 70
   192
  0
VERTEX
  5
70
330
65
100
AcDbEntity
  8
ｴｸｽﾃﾘｱ商品
 62
   253
370
    20
100
AcDbVertex
100
AcDbPolyFaceMeshVertex
 10
3625.727578071854
 20
526.3600218742799
 30
441.0
 70
   192
  0
VERTEX
  5
71
330
65
100
AcDbEntity
  8
ｴｸｽﾃﾘｱ商品
 62
   253
370
    20
100
AcDbVertex
100
AcDbPolyFaceMeshVertex
 10
3625.727578071854
 20
562.8600218742798
 30
11.0
 70
   192
  0
VERTEX
  5
72
330
65
100
AcDbEntity
  8
ｴｸｽﾃﾘｱ商品
 62
   253
370
    20
100
AcDbVertex
100
AcDbPolyFaceMeshVertex
 10
3625.727578071854
 20
562.8600218742798
 30
441.0
 70
   192
  0
VERTEX
  5
73
330
65
100
AcDbEntity
  8
ｴｸｽﾃﾘｱ商品
 62
   253
370
    20
100
AcDbVertex
100
AcDbPolyFaceMeshVertex
 10
3622.227578071854
 20
562.8600218742798
 30
11.0
 70
   192
  0
VERTEX
  5
74
330
65
100
AcDbEntity
  8
ｴｸｽﾃﾘｱ商品
 62
   253
370
    20
100
AcDbVertex
100
AcDbPolyFaceMeshVertex
 10
3622.227578071854
 20
562.8600218742798
 30
441.0
 70
   192
  0
VERTEX
  5
75
330
65
100
AcDbEntity
  8
ｴｸｽﾃﾘｱ商品
 62
   253
370
    20
100
AcDbVertex
100
AcDbPolyFaceMeshVertex
 10
3622.227578071854
 20
581.3600218742799
 30
11.0
 70
   192
  0
VERTEX
  5
76
330
65
100
AcDbEntity
  8
ｴｸｽﾃﾘｱ商品
 62
   253
370
    20
100
AcDbVertex
100
AcDbPolyFaceMeshVertex
 10
3622.227578071854
 20
581.3600218742799
 30
441.0
 70
   192
  0
VERTEX
  5
77
330
65
100
AcDbEntity
  8
ｴｸｽﾃﾘｱ商品
 62
   253
370
    20
100
AcDbFaceRecord
 10
0.0
 20
0.0
 30
0.0
 70
   128
 71
     1
 72
     2
 73
     3
 74
     4
  0
VERTEX
  5
78
330
65
100
AcDbEntity
  8
ｴｸｽﾃﾘｱ商品
 62
   253
370
    20
100
AcDbFaceRecord
 10
0.0
 20
0.0
 30
0.0
 70
   128
 71
     2
 72
     5
 73
     6
 74
     3
  0
VERTEX
  5
79
330
65
100
AcDbEntity
  8
ｴｸｽﾃﾘｱ商品
 62
   253
370
    20
100
AcDbFaceRecord
 10
0.0
 20
0.0
 30
0.0
 70
   128
 71
     5
 72
     7
 73
     8
 74
     6
  0
VERTEX
  5
7A
330
65
100
AcDbEntity
  8
ｴｸｽﾃﾘｱ商品
 62
   253
370
    20
100
AcDbFaceRecord
 10
0.0
 20
0.0
 30
0.0
 70
   128
 71
     7
 72
     9
 73
    10
 74
     8
  0
VERTEX
  5
7B
330
65
100
AcDbEntity
  8
ｴｸｽﾃﾘｱ商品
 62
   253
370
    20
100
AcDbFaceRecord
 10
0.0
 20
0.0
 30
0.0
 70
   128
 71
     9
 72
    11
 73
    12
 74
    10
  0
VERTEX
  5
7C
330
65
100
AcDbEntity
  8
ｴｸｽﾃﾘｱ商品
 62
   253
370
    20
100
AcDbFaceRecord
 10
0.0
 20
0.0
 30
0.0
 70
   128
 71
    11
 72
    13
 73
    14
 74
    12
  0
VERTEX
  5
7D
330
65
100
AcDbEntity
  8
ｴｸｽﾃﾘｱ商品
 62
   253
370
    20
100
AcDbFaceRecord
 10
0.0
 20
0.0
 30
0.0
 70
   128
 71
    13
 72
    15
 73
    16
 74
    14
  0
VERTEX
  5
7E
330
65
100
AcDbEntity
  8
ｴｸｽﾃﾘｱ商品
 62
   253
370
    20
100
AcDbFaceRecord
 10
0.0
 20
0.0
 30
0.0
 70
   128
 71
    15
 72
     1
 73
     4
 74
    16
  0
VERTEX
  5
7F
330
65
100
AcDbEntity
  8
ｴｸｽﾃﾘｱ商品
 62
   253
370
    20
100
AcDbFaceRecord
 10
0.0
 20
0.0
 30
0.0
 70
   128
 71
     7
 72
     5
 73
     2
  0
VERTEX
  5
80
330
65
100
AcDbEntity
  8
ｴｸｽﾃﾘｱ商品
 62
   253
370
    20
100
AcDbFaceRecord
 10
0.0
 20
0.0
 30
0.0
 70
   128
 71
     2
 72
     1
 73
    15
  0
VERTEX
  5
81
330
65
100
AcDbEntity
  8
ｴｸｽﾃﾘｱ商品
 62
   253
370
    20
100
AcDbFaceRecord
 10
0.0
 20
0.0
 30
0.0
 70
   128
 71
     2
 72
    15
 73
    13
  0
VERTEX
  5
82
330
65
100
AcDbEntity
  8
ｴｸｽﾃﾘｱ商品
 62
   253
370
    20
100
AcDbFaceRecord
 10
0.0
 20
0.0
 30
0.0
 70
   128
 71
     7
 72
     2
 73
    13
  0
VERTEX
  5
83
330
65
100
AcDbEntity
  8
ｴｸｽﾃﾘｱ商品
 62
   253
370
    20
100
AcDbFaceRecord
 10
0.0
 20
0.0
 30
0.0
 70
   128
 71
     9
 72
     7
 73
    13
  0
VERTEX
  5
84
330
65
100
AcDbEntity
  8
ｴｸｽﾃﾘｱ商品
 62
   253
370
    20
100
AcDbFaceRecord
 10
0.0
 20
0.0
 30
0.0
 70
   128
 71
     9
 72
    13
 73
    11
  0
VERTEX
  5
85
330
65
100
AcDbEntity
  8
ｴｸｽﾃﾘｱ商品
 62
   253
370
    20
100
AcDbFaceRecord
 10
0.0
 20
0.0
 30
0.0
 70
   128
 71
     3
 72
     6
 73
     8
  0
VERTEX
  5
86
330
65
100
AcDbEntity
  8
ｴｸｽﾃﾘｱ商品
 62
   253
370
    20
100
AcDbFaceRecord
 10
0.0
 20
0.0
 30
0.0
 70
   128
 71
    16
 72
     4
 73
     3
  0
VERTEX
  5
87
330
65
100
AcDbEntity
  8
ｴｸｽﾃﾘｱ商品
 62
   253
370
    20
100
AcDbFaceRecord
 10
0.0
 20
0.0
 30
0.0
 70
   128
 71
    14
 72
    16
 73
     3
  0
VERTEX
  5
88
330
65
100
AcDbEntity
  8
ｴｸｽﾃﾘｱ商品
 62
   253
370
    20
100
AcDbFaceRecord
 10
0.0
 20
0.0
 30
0.0
 70
   128
 71
    14
 72
     3
 73
     8
  0
VERTEX
  5
89
330
65
100
AcDbEntity
  8
ｴｸｽﾃﾘｱ商品
 62
   253
370
    20
100
AcDbFaceRecord
 10
0.0
 20
0.0
 30
0.0
 70
   128
 71
    12
 72
    14
 73
    10
  0
VERTEX
  5
8A
330
65
100
AcDbEntity
  8
ｴｸｽﾃﾘｱ商品
 62
   253
370
    20
100
AcDbFaceRecord
 10
0.0
 20
0.0
 30
0.0
 70
   128
 71
    10
 72
    14
 73
     8
  0
SEQEND
  5
66
330
65
100
AcDbEntity
  8
ｴｸｽﾃﾘｱ商品
370
    20
  0
POLYLINE
  5
8B
330
3C
100
AcDbEntity
  8
ｴｸｽﾃﾘｱ商品
 62
   253
370
    20
100
AcDbPolyFaceMesh
 66
     1
 10
0.0
 20
0.0
 30
0.0
 70
    64
 71
    16
 72
    20
  0
VERTEX
  5
8D
330
8B
100
AcDbEntity
  8
ｴｸｽﾃﾘｱ商品
 62
   253
370
    20
100
AcDbVertex
100
AcDbPolyFaceMeshVertex
 10
1162.227578071854
 20
581.3600218742799
 30
11.0
 70
   192
  0
VERTEX
  5
8E
330
8B
100
AcDbEntity
  8
ｴｸｽﾃﾘｱ商品
 62
   253
370
    20
100
AcDbVertex
100
AcDbPolyFaceMeshVertex
 10
1162.227578071854
 20
562.8600218742798
 30
11.0
 70
   192
  0
VERTEX
  5
8F
330
8B
100
AcDbEntity
  8
ｴｸｽﾃﾘｱ商品
 62
   253
370
    20
100
AcDbVertex
100
AcDbPolyFaceMeshVertex
 10
1162.227578071854
 20
562.8600218742798
 30
441.0
 70
   192
  0
VERTEX
  5
90
330
8B
100
AcDbEntity
  8
ｴｸｽﾃﾘｱ商品
 62
   253
370
    20
100
AcDbVertex
100
AcDbPolyFaceMeshVertex
 10
1162.227578071854
 20
581.3600218742799
 30
441.0
 70
   192
  0
VERTEX
  5
91
330
8B
100
AcDbEntity
  8
ｴｸｽﾃﾘｱ商品
 62
   253
370
    20
100
AcDbVertex
100
AcDbPolyFaceMeshVertex
 10
1158.727578071854
 20
562.8600218742798
 30
11.0
 70
   192
  0
VERTEX
  5
92
330
8B
100
AcDbEntity
  8
ｴｸｽﾃﾘｱ商品
 62
   253
370
    20
100
AcDbVertex
100
AcDbPolyFaceMeshVertex
 10
1158.727578071854
 20
562.8600218742798
 30
441.0
 70
   192
  0
VERTEX
  5
93
330
8B
100
AcDbEntity
  8
ｴｸｽﾃﾘｱ商品
 62
   253
370
    20
100
AcDbVertex
100
AcDbPolyFaceMeshVertex
 10
1158.727578071854
 20
526.3600218742799
 30
11.0
 70
   192
  0
VERTEX
  5
94
330
8B
100
AcDbEntity
  8
ｴｸｽﾃﾘｱ商品
 62
   253
370
    20
100
AcDbVertex
100
AcDbPolyFaceMeshVertex
 10
1158.727578071854
 20
526.3600218742799
 30
441.0
 70
   192
  0
VERTEX
  5
95
330
8B
100
AcDbEntity
  8
ｴｸｽﾃﾘｱ商品
 62
   253
370
    20
100
AcDbVertex
100
AcDbPolyFaceMeshVertex
 10
1195.727578071854
 20
526.3600218742799
 30
11.0
 70
   192
  0
VERTEX
  5
96
330
8B
100
AcDbEntity
  8
ｴｸｽﾃﾘｱ商品
 62
   253
370
    20
100
AcDbVertex
100
AcDbPolyFaceMeshVertex
 10
1195.727578071854
 20
526.3600218742799
 30
441.0
 70
   192
  0
VERTEX
  5
97
330
8B
100
AcDbEntity
  8
ｴｸｽﾃﾘｱ商品
 62
   253
370
    20
100
AcDbVertex
100
AcDbPolyFaceMeshVertex
 10
1195.727578071854
 20
562.8600218742798
 30
11.0
 70
   192
  0
VERTEX
  5
98
330
8B
100
AcDbEntity
  8
ｴｸｽﾃﾘｱ商品
 62
   253
370
    20
100
AcDbVertex
100
AcDbPolyFaceMeshVertex
 10
1195.727578071854
 20
562.8600218742798
 30
441.0
 70
   192
  0
VERTEX
  5
99
330
8B
100
AcDbEntity
  8
ｴｸｽﾃﾘｱ商品
 62
   253
370
    20
100
AcDbVertex
100
AcDbPolyFaceMeshVertex
 10
1192.227578071854
 20
562.8600218742798
 30
11.0
 70
   192
  0
VERTEX
  5
9A
330
8B
100
AcDbEntity
  8
ｴｸｽﾃﾘｱ商品
 62
   253
370
    20
100
AcDbVertex
100
AcDbPolyFaceMeshVertex
 10
1192.227578071854
 20
562.8600218742798
 30
441.0
 70
   192
  0
VERTEX
  5
9B
330
8B
100
AcDbEntity
  8
ｴｸｽﾃﾘｱ商品
 62
   253
370
    20
100
AcDbVertex
100
AcDbPolyFaceMeshVertex
 10
1192.227578071854
 20
581.3600218742799
 30
11.0
 70
   192
  0
VERTEX
  5
9C
330
8B
100
AcDbEntity
  8
ｴｸｽﾃﾘｱ商品
 62
   253
370
    20
100
AcDbVertex
100
AcDbPolyFaceMeshVertex
 10
1192.227578071854
 20
581.3600218742799
 30
441.0
 70
   192
  0
VERTEX
  5
9D
330
8B
100
AcDbEntity
  8
ｴｸｽﾃﾘｱ商品
 62
   253
370
    20
100
AcDbFaceRecord
 10
0.0
 20
0.0
 30
0.0
 70
   128
 71
     1
 72
     2
 73
     3
 74
     4
  0
VERTEX
  5
9E
330
8B
100
AcDbEntity
  8
ｴｸｽﾃﾘｱ商品
 62
   253
370
    20
100
AcDbFaceRecord
 10
0.0
 20
0.0
 30
0.0
 70
   128
 71
     2
 72
     5
 73
     6
 74
     3
  0
VERTEX
  5
9F
330
8B
100
AcDbEntity
  8
ｴｸｽﾃﾘｱ商品
 62
   253
370
    20
100
AcDbFaceRecord
 10
0.0
 20
0.0
 30
0.0
 70
   128
 71
     5
 72
     7
 73
     8
 74
     6
  0
VERTEX
  5
A0
330
8B
100
AcDbEntity
  8
ｴｸｽﾃﾘｱ商品
 62
   253
370
    20
100
AcDbFaceRecord
 10
0.0
 20
0.0
 30
0.0
 70
   128
 71
     7
 72
     9
 73
    10
 74
     8
  0
VERTEX
  5
A1
330
8B
100
AcDbEntity
  8
ｴｸｽﾃﾘｱ商品
 62
   253
370
    20
100
AcDbFaceRecord
 10
0.0
 20
0.0
 30
0.0
 70
   128
 71
     9
 72
    11
 73
    12
 74
    10
  0
VERTEX
  5
A2
330
8B
100
AcDbEntity
  8
ｴｸｽﾃﾘｱ商品
 62
   253
370
    20
100
AcDbFaceRecord
 10
0.0
 20
0.0
 30
0.0
 70
   128
 71
    11
 72
    13
 73
    14
 74
    12
  0
VERTEX
  5
A3
330
8B
100
AcDbEntity
  8
ｴｸｽﾃﾘｱ商品
 62
   253
370
    20
100
AcDbFaceRecord
 10
0.0
 20
0.0
 30
0.0
 70
   128
 71
    13
 72
    15
 73
    16
 74
    14
  0
VERTEX
  5
A4
330
8B
100
AcDbEntity
  8
ｴｸｽﾃﾘｱ商品
 62
   253
370
    20
100
AcDbFaceRecord
 10
0.0
 20
0.0
 30
0.0
 70
   128
 71
    15
 72
     1
 73
     4
 74
    16
  0
VERTEX
  5
A5
330
8B
100
AcDbEntity
  8
ｴｸｽﾃﾘｱ商品
 62
   253
370
    20
100
AcDbFaceRecord
 10
0.0
 20
0.0
 30
0.0
 70
   128
 71
     7
 72
     5
 73
     2
  0
VERTEX
  5
A6
330
8B
100
AcDbEntity
  8
ｴｸｽﾃﾘｱ商品
 62
   253
370
    20
100
AcDbFaceRecord
 10
0.0
 20
0.0
 30
0.0
 70
   128
 71
     2
 72
     1
 73
    15
  0
VERTEX
  5
A7
330
8B
100
AcDbEntity
  8
ｴｸｽﾃﾘｱ商品
 62
   253
370
    20
100
AcDbFaceRecord
 10
0.0
 20
0.0
 30
0.0
 70
   128
 71
     2
 72
    15
 73
    13
  0
VERTEX
  5
A8
330
8B
100
AcDbEntity
  8
ｴｸｽﾃﾘｱ商品
 62
   253
370
    20
100
AcDbFaceRecord
 10
0.0
 20
0.0
 30
0.0
 70
   128
 71
     7
 72
     2
 73
    13
  0
VERTEX
  5
A9
330
8B
100
AcDbEntity
  8
ｴｸｽﾃﾘｱ商品
 62
   253
370
    20
100
AcDbFaceRecord
 10
0.0
 20
0.0
 30
0.0
 70
   128
 71
     9
 72
     7
 73
    13
  0
VERTEX
  5
AA
330
8B
100
AcDbEntity
  8
ｴｸｽﾃﾘｱ商品
 62
   253
370
    20
100
AcDbFaceRecord
 10
0.0
 20
0.0
 30
0.0
 70
   128
 71
     9
 72
    13
 73
    11
  0
VERTEX
  5
AB
330
8B
100
AcDbEntity
  8
ｴｸｽﾃﾘｱ商品
 62
   253
370
    20
100
AcDbFaceRecord
 10
0.0
 20
0.0
 30
0.0
 70
   128
 71
     3
 72
     6
 73
     8
  0
VERTEX
  5
AC
330
8B
100
AcDbEntity
  8
ｴｸｽﾃﾘｱ商品
 62
   253
370
    20
100
AcDbFaceRecord
 10
0.0
 20
0.0
 30
0.0
 70
   128
 71
    16
 72
     4
 73
     3
  0
VERTEX
  5
AD
330
8B
100
AcDbEntity
  8
ｴｸｽﾃﾘｱ商品
 62
   253
370
    20
100
AcDbFaceRecord
 10
0.0
 20
0.0
 30
0.0
 70
   128
 71
    14
 72
    16
 73
     3
  0
VERTEX
  5
AE
330
8B
100
AcDbEntity
  8
ｴｸｽﾃﾘｱ商品
 62
   253
370
    20
100
AcDbFaceRecord
 10
0.0
 20
0.0
 30
0.0
 70
   128
 71
    14
 72
     3
 73
     8
  0
VERTEX
  5
AF
330
8B
100
AcDbEntity
  8
ｴｸｽﾃﾘｱ商品
 62
   253
370
    20
100
AcDbFaceRecord
 10
0.0
 20
0.0
 30
0.0
 70
   128
 71
    12
 72
    14
 73
    10
  0
VERTEX
  5
B0
330
8B
100
AcDbEntity
  8
ｴｸｽﾃﾘｱ商品
 62
   253
370
    20
100
AcDbFaceRecord
 10
0.0
 20
0.0
 30
0.0
 70
   128
 71
    10
 72
    14
 73
     8
  0
SEQEND
  5
8C
330
8B
100
AcDbEntity
  8
ｴｸｽﾃﾘｱ商品
370
    20
  0
POLYLINE
  5
B1
330
3C
100
AcDbEntity
  8
ｴｸｽﾃﾘｱ商品
 62
   253
370
    20
100
AcDbPolyFaceMesh
 66
     1
 10
0.0
 20
0.0
 30
0.0
 70
    64
 71
    16
 72
    20
  0
VERTEX
  5
B3
330
B1
100
AcDbEntity
  8
ｴｸｽﾃﾘｱ商品
 62
   253
370
    20
100
AcDbVertex
100
AcDbPolyFaceMeshVertex
 10
1972.227578071854
 20
581.3600218742799
 30
11.0
 70
   192
  0
VERTEX
  5
B4
330
B1
100
AcDbEntity
  8
ｴｸｽﾃﾘｱ商品
 62
   253
370
    20
100
AcDbVertex
100
AcDbPolyFaceMeshVertex
 10
1972.227578071854
 20
562.8600218742798
 30
11.0
 70
   192
  0
VERTEX
  5
B5
330
B1
100
AcDbEntity
  8
ｴｸｽﾃﾘｱ商品
 62
   253
370
    20
100
AcDbVertex
100
AcDbPolyFaceMeshVertex
 10
1972.227578071854
 20
562.8600218742798
 30
441.0
 70
   192
  0
VERTEX
  5
B6
330
B1
100
AcDbEntity
  8
ｴｸｽﾃﾘｱ商品
 62
   253
370
    20
100
AcDbVertex
100
AcDbPolyFaceMeshVertex
 10
1972.227578071854
 20
581.3600218742799
 30
441.0
 70
   192
  0
VERTEX
  5
B7
330
B1
100
AcDbEntity
  8
ｴｸｽﾃﾘｱ商品
 62
   253
370
    20
100
AcDbVertex
100
AcDbPolyFaceMeshVertex
 10
1968.727578071854
 20
562.8600218742798
 30
11.0
 70
   192
  0
VERTEX
  5
B8
330
B1
100
AcDbEntity
  8
ｴｸｽﾃﾘｱ商品
 62
   253
370
    20
100
AcDbVertex
100
AcDbPolyFaceMeshVertex
 10
1968.727578071854
 20
562.8600218742798
 30
441.0
 70
   192
  0
VERTEX
  5
B9
330
B1
100
AcDbEntity
  8
ｴｸｽﾃﾘｱ商品
 62
   253
370
    20
100
AcDbVertex
100
AcDbPolyFaceMeshVertex
 10
1968.727578071854
 20
526.3600218742799
 30
11.0
 70
   192
  0
VERTEX
  5
BA
330
B1
100
AcDbEntity
  8
ｴｸｽﾃﾘｱ商品
 62
   253
370
    20
100
AcDbVertex
100
AcDbPolyFaceMeshVertex
 10
1968.727578071854
 20
526.3600218742799
 30
441.0
 70
   192
  0
VERTEX
  5
BB
330
B1
100
AcDbEntity
  8
ｴｸｽﾃﾘｱ商品
 62
   253
370
    20
100
AcDbVertex
100
AcDbPolyFaceMeshVertex
 10
2005.727578071854
 20
526.3600218742799
 30
11.0
 70
   192
  0
VERTEX
  5
BC
330
B1
100
AcDbEntity
  8
ｴｸｽﾃﾘｱ商品
 62
   253
370
    20
100
AcDbVertex
100
AcDbPolyFaceMeshVertex
 10
2005.727578071854
 20
526.3600218742799
 30
441.0
 70
   192
  0
VERTEX
  5
BD
330
B1
100
AcDbEntity
  8
ｴｸｽﾃﾘｱ商品
 62
   253
370
    20
100
AcDbVertex
100
AcDbPolyFaceMeshVertex
 10
2005.727578071854
 20
562.8600218742798
 30
11.0
 70
   192
  0
VERTEX
  5
BE
330
B1
100
AcDbEntity
  8
ｴｸｽﾃﾘｱ商品
 62
   253
370
    20
100
AcDbVertex
100
AcDbPolyFaceMeshVertex
 10
2005.727578071854
 20
562.8600218742798
 30
441.0
 70
   192
  0
VERTEX
  5
BF
330
B1
100
AcDbEntity
  8
ｴｸｽﾃﾘｱ商品
 62
   253
370
    20
100
AcDbVertex
100
AcDbPolyFaceMeshVertex
 10
2002.227578071854
 20
562.8600218742798
 30
11.0
 70
   192
  0
VERTEX
  5
C0
330
B1
100
AcDbEntity
  8
ｴｸｽﾃﾘｱ商品
 62
   253
370
    20
100
AcDbVertex
100
AcDbPolyFaceMeshVertex
 10
2002.227578071854
 20
562.8600218742798
 30
441.0
 70
   192
  0
VERTEX
  5
C1
330
B1
100
AcDbEntity
  8
ｴｸｽﾃﾘｱ商品
 62
   253
370
    20
100
AcDbVertex
100
AcDbPolyFaceMeshVertex
 10
2002.227578071854
 20
581.3600218742799
 30
11.0
 70
   192
  0
VERTEX
  5
C2
330
B1
100
AcDbEntity
  8
ｴｸｽﾃﾘｱ商品
 62
   253
370
    20
100
AcDbVertex
100
AcDbPolyFaceMeshVertex
 10
2002.227578071854
 20
581.3600218742799
 30
441.0
 70
   192
  0
VERTEX
  5
C3
330
B1
100
AcDbEntity
  8
ｴｸｽﾃﾘｱ商品
 62
   253
370
    20
100
AcDbFaceRecord
 10
0.0
 20
0.0
 30
0.0
 70
   128
 71
     1
 72
     2
 73
     3
 74
     4
  0
VERTEX
  5
C4
330
B1
100
AcDbEntity
  8
ｴｸｽﾃﾘｱ商品
 62
   253
370
    20
100
AcDbFaceRecord
 10
0.0
 20
0.0
 30
0.0
 70
   128
 71
     2
 72
     5
 73
     6
 74
     3
  0
VERTEX
  5
C5
330
B1
100
AcDbEntity
  8
ｴｸｽﾃﾘｱ商品
 62
   253
370
    20
100
AcDbFaceRecord
 10
0.0
 20
0.0
 30
0.0
 70
   128
 71
     5
 72
     7
 73
     8
 74
     6
  0
VERTEX
  5
C6
330
B1
100
AcDbEntity
  8
ｴｸｽﾃﾘｱ商品
 62
   253
370
    20
100
AcDbFaceRecord
 10
0.0
 20
0.0
 30
0.0
 70
   128
 71
     7
 72
     9
 73
    10
 74
     8
  0
VERTEX
  5
C7
330
B1
100
AcDbEntity
  8
ｴｸｽﾃﾘｱ商品
 62
   253
370
    20
100
AcDbFaceRecord
 10
0.0
 20
0.0
 30
0.0
 70
   128
 71
     9
 72
    11
 73
    12
 74
    10
  0
VERTEX
  5
C8
330
B1
100
AcDbEntity
  8
ｴｸｽﾃﾘｱ商品
 62
   253
370
    20
100
AcDbFaceRecord
 10
0.0
 20
0.0
 30
0.0
 70
   128
 71
    11
 72
    13
 73
    14
 74
    12
  0
VERTEX
  5
C9
330
B1
100
AcDbEntity
  8
ｴｸｽﾃﾘｱ商品
 62
   253
370
    20
100
AcDbFaceRecord
 10
0.0
 20
0.0
 30
0.0
 70
   128
 71
    13
 72
    15
 73
    16
 74
    14
  0
VERTEX
  5
CA
330
B1
100
AcDbEntity
  8
ｴｸｽﾃﾘｱ商品
 62
   253
370
    20
100
AcDbFaceRecord
 10
0.0
 20
0.0
 30
0.0
 70
   128
 71
    15
 72
     1
 73
     4
 74
    16
  0
VERTEX
  5
CB
330
B1
100
AcDbEntity
  8
ｴｸｽﾃﾘｱ商品
 62
   253
370
    20
100
AcDbFaceRecord
 10
0.0
 20
0.0
 30
0.0
 70
   128
 71
     7
 72
     5
 73
     2
  0
VERTEX
  5
CC
330
B1
100
AcDbEntity
  8
ｴｸｽﾃﾘｱ商品
 62
   253
370
    20
100
AcDbFaceRecord
 10
0.0
 20
0.0
 30
0.0
 70
   128
 71
     2
 72
     1
 73
    15
  0
VERTEX
  5
CD
330
B1
100
AcDbEntity
  8
ｴｸｽﾃﾘｱ商品
 62
   253
370
    20
100
AcDbFaceRecord
 10
0.0
 20
0.0
 30
0.0
 70
   128
 71
     2
 72
    15
 73
    13
  0
VERTEX
  5
CE
330
B1
100
AcDbEntity
  8
ｴｸｽﾃﾘｱ商品
 62
   253
370
    20
100
AcDbFaceRecord
 10
0.0
 20
0.0
 30
0.0
 70
   128
 71
     7
 72
     2
 73
    13
  0
VERTEX
  5
CF
330
B1
100
AcDbEntity
  8
ｴｸｽﾃﾘｱ商品
 62
   253
370
    20
100
AcDbFaceRecord
 10
0.0
 20
0.0
 30
0.0
 70
   128
 71
     9
 72
     7
 73
    13
  0
VERTEX
  5
D0
330
B1
100
AcDbEntity
  8
ｴｸｽﾃﾘｱ商品
 62
   253
370
    20
100
AcDbFaceRecord
 10
0.0
 20
0.0
 30
0.0
 70
   128
 71
     9
 72
    13
 73
    11
  0
VERTEX
  5
D1
330
B1
100
AcDbEntity
  8
ｴｸｽﾃﾘｱ商品
 62
   253
370
    20
100
AcDbFaceRecord
 10
0.0
 20
0.0
 30
0.0
 70
   128
 71
     3
 72
     6
 73
     8
  0
VERTEX
  5
D2
330
B1
100
AcDbEntity
  8
ｴｸｽﾃﾘｱ商品
 62
   253
370
    20
100
AcDbFaceRecord
 10
0.0
 20
0.0
 30
0.0
 70
   128
 71
    16
 72
     4
 73
     3
  0
VERTEX
  5
D3
330
B1
100
AcDbEntity
  8
ｴｸｽﾃﾘｱ商品
 62
   253
370
    20
100
AcDbFaceRecord
 10
0.0
 20
0.0
 30
0.0
 70
   128
 71
    14
 72
    16
 73
     3
  0
VERTEX
  5
D4
330
B1
100
AcDbEntity
  8
ｴｸｽﾃﾘｱ商品
 62
   253
370
    20
100
AcDbFaceRecord
 10
0.0
 20
0.0
 30
0.0
 70
   128
 71
    14
 72
     3
 73
     8
  0
VERTEX
  5
D5
330
B1
100
AcDbEntity
  8
ｴｸｽﾃﾘｱ商品
 62
   253
370
    20
100
AcDbFaceRecord
 10
0.0
 20
0.0
 30
0.0
 70
   128
 71
    12
 72
    14
 73
    10
  0
VERTEX
  5
D6
330
B1
100
AcDbEntity
  8
ｴｸｽﾃﾘｱ商品
 62
   253
370
    20
100
AcDbFaceRecord
 10
0.0
 20
0.0
 30
0.0
 70
   128
 71
    10
 72
    14
 73
     8
  0
SEQEND
  5
B2
330
B1
100
AcDbEntity
  8
ｴｸｽﾃﾘｱ商品
370
    20
  0
POLYLINE
  5
D7
330
3C
100
AcDbEntity
  8
ｴｸｽﾃﾘｱ商品
 62
   253
370
    20
100
AcDbPolyFaceMesh
 66
     1
 10
0.0
 20
0.0
 30
0.0
 70
    64
 71
    16
 72
    20
  0
VERTEX
  5
D9
330
D7
100
AcDbEntity
  8
ｴｸｽﾃﾘｱ商品
 62
   253
370
    20
100
AcDbVertex
100
AcDbPolyFaceMeshVertex
 10
2782.227578071854
 20
581.3600218742799
 30
11.0
 70
   192
  0
VERTEX
  5
DA
330
D7
100
AcDbEntity
  8
ｴｸｽﾃﾘｱ商品
 62
   253
370
    20
100
AcDbVertex
100
AcDbPolyFaceMeshVertex
 10
2782.227578071854
 20
562.8600218742798
 30
11.0
 70
   192
  0
VERTEX
  5
DB
330
D7
100
AcDbEntity
  8
ｴｸｽﾃﾘｱ商品
 62
   253
370
    20
100
AcDbVertex
100
AcDbPolyFaceMeshVertex
 10
2782.227578071854
 20
562.8600218742798
 30
441.0
 70
   192
  0
VERTEX
  5
DC
330
D7
100
AcDbEntity
  8
ｴｸｽﾃﾘｱ商品
 62
   253
370
    20
100
AcDbVertex
100
AcDbPolyFaceMeshVertex
 10
2782.227578071854
 20
581.3600218742799
 30
441.0
 70
   192
  0
VERTEX
  5
DD
330
D7
100
AcDbEntity
  8
ｴｸｽﾃﾘｱ商品
 62
   253
370
    20
100
AcDbVertex
100
AcDbPolyFaceMeshVertex
 10
2778.727578071854
 20
562.8600218742798
 30
11.0
 70
   192
  0
VERTEX
  5
DE
330
D7
100
AcDbEntity
  8
ｴｸｽﾃﾘｱ商品
 62
   253
370
    20
100
AcDbVertex
100
AcDbPolyFaceMeshVertex
 10
2778.727578071854
 20
562.8600218742798
 30
441.0
 70
   192
  0
VERTEX
  5
DF
330
D7
100
AcDbEntity
  8
ｴｸｽﾃﾘｱ商品
 62
   253
370
    20
100
AcDbVertex
100
AcDbPolyFaceMeshVertex
 10
2778.727578071854
 20
526.3600218742799
 30
11.0
 70
   192
  0
VERTEX
  5
E0
330
D7
100
AcDbEntity
  8
ｴｸｽﾃﾘｱ商品
 62
   253
370
    20
100
AcDbVertex
100
AcDbPolyFaceMeshVertex
 10
2778.727578071854
 20
526.3600218742799
 30
441.0
 70
   192
  0
VERTEX
  5
E1
330
D7
100
AcDbEntity
  8
ｴｸｽﾃﾘｱ商品
 62
   253
370
    20
100
AcDbVertex
100
AcDbPolyFaceMeshVertex
 10
2815.727578071854
 20
526.3600218742799
 30
11.0
 70
   192
  0
VERTEX
  5
E2
330
D7
100
AcDbEntity
  8
ｴｸｽﾃﾘｱ商品
 62
   253
370
    20
100
AcDbVertex
100
AcDbPolyFaceMeshVertex
 10
2815.727578071854
 20
526.3600218742799
 30
441.0
 70
   192
  0
VERTEX
  5
E3
330
D7
100
AcDbEntity
  8
ｴｸｽﾃﾘｱ商品
 62
   253
370
    20
100
AcDbVertex
100
AcDbPolyFaceMeshVertex
 10
2815.727578071854
 20
562.8600218742798
 30
11.0
 70
   192
  0
VERTEX
  5
E4
330
D7
100
AcDbEntity
  8
ｴｸｽﾃﾘｱ商品
 62
   253
370
    20
100
AcDbVertex
100
AcDbPolyFaceMeshVertex
 10
2815.727578071854
 20
562.8600218742798
 30
441.0
 70
   192
  0
VERTEX
  5
E5
330
D7
100
AcDbEntity
  8
ｴｸｽﾃﾘｱ商品
 62
   253
370
    20
100
AcDbVertex
100
AcDbPolyFaceMeshVertex
 10
2812.227578071854
 20
562.8600218742798
 30
11.0
 70
   192
  0
VERTEX
  5
E6
330
D7
100
AcDbEntity
  8
ｴｸｽﾃﾘｱ商品
 62
   253
370
    20
100
AcDbVertex
100
AcDbPolyFaceMeshVertex
 10
2812.227578071854
 20
562.8600218742798
 30
441.0
 70
   192
  0
VERTEX
  5
E7
330
D7
100
AcDbEntity
  8
ｴｸｽﾃﾘｱ商品
 62
   253
370
    20
100
AcDbVertex
100
AcDbPolyFaceMeshVertex
 10
2812.227578071854
 20
581.3600218742799
 30
11.0
 70
   192
  0
VERTEX
  5
E8
330
D7
100
AcDbEntity
  8
ｴｸｽﾃﾘｱ商品
 62
   253
370
    20
100
AcDbVertex
100
AcDbPolyFaceMeshVertex
 10
2812.227578071854
 20
581.3600218742799
 30
441.0
 70
   192
  0
VERTEX
  5
E9
330
D7
100
AcDbEntity
  8
ｴｸｽﾃﾘｱ商品
 62
   253
370
    20
100
AcDbFaceRecord
 10
0.0
 20
0.0
 30
0.0
 70
   128
 71
     1
 72
     2
 73
     3
 74
     4
  0
VERTEX
  5
EA
330
D7
100
AcDbEntity
  8
ｴｸｽﾃﾘｱ商品
 62
   253
370
    20
100
AcDbFaceRecord
 10
0.0
 20
0.0
 30
0.0
 70
   128
 71
     2
 72
     5
 73
     6
 74
     3
  0
VERTEX
  5
EB
330
D7
100
AcDbEntity
  8
ｴｸｽﾃﾘｱ商品
 62
   253
370
    20
100
AcDbFaceRecord
 10
0.0
 20
0.0
 30
0.0
 70
   128
 71
     5
 72
     7
 73
     8
 74
     6
  0
VERTEX
  5
EC
330
D7
100
AcDbEntity
  8
ｴｸｽﾃﾘｱ商品
 62
   253
370
    20
100
AcDbFaceRecord
 10
0.0
 20
0.0
 30
0.0
 70
   128
 71
     7
 72
     9
 73
    10
 74
     8
  0
VERTEX
  5
ED
330
D7
100
AcDbEntity
  8
ｴｸｽﾃﾘｱ商品
 62
   253
370
    20
100
AcDbFaceRecord
 10
0.0
 20
0.0
 30
0.0
 70
   128
 71
     9
 72
    11
 73
    12
 74
    10
  0
VERTEX
  5
EE
330
D7
100
AcDbEntity
  8
ｴｸｽﾃﾘｱ商品
 62
   253
370
    20
100
AcDbFaceRecord
 10
0.0
 20
0.0
 30
0.0
 70
   128
 71
    11
 72
    13
 73
    14
 74
    12
  0
VERTEX
  5
EF
330
D7
100
AcDbEntity
  8
ｴｸｽﾃﾘｱ商品
 62
   253
370
    20
100
AcDbFaceRecord
 10
0.0
 20
0.0
 30
0.0
 70
   128
 71
    13
 72
    15
 73
    16
 74
    14
  0
VERTEX
  5
F0
330
D7
100
AcDbEntity
  8
ｴｸｽﾃﾘｱ商品
 62
   253
370
    20
100
AcDbFaceRecord
 10
0.0
 20
0.0
 30
0.0
 70
   128
 71
    15
 72
     1
 73
     4
 74
    16
  0
VERTEX
  5
F1
330
D7
100
AcDbEntity
  8
ｴｸｽﾃﾘｱ商品
 62
   253
370
    20
100
AcDbFaceRecord
 10
0.0
 20
0.0
 30
0.0
 70
   128
 71
     7
 72
     5
 73
     2
  0
VERTEX
  5
F2
330
D7
100
AcDbEntity
  8
ｴｸｽﾃﾘｱ商品
 62
   253
370
    20
100
AcDbFaceRecord
 10
0.0
 20
0.0
 30
0.0
 70
   128
 71
     2
 72
     1
 73
    15
  0
VERTEX
  5
F3
330
D7
100
AcDbEntity
  8
ｴｸｽﾃﾘｱ商品
 62
   253
370
    20
100
AcDbFaceRecord
 10
0.0
 20
0.0
 30
0.0
 70
   128
 71
     2
 72
    15
 73
    13
  0
VERTEX
  5
F4
330
D7
100
AcDbEntity
  8
ｴｸｽﾃﾘｱ商品
 62
   253
370
    20
100
AcDbFaceRecord
 10
0.0
 20
0.0
 30
0.0
 70
   128
 71
     7
 72
     2
 73
    13
  0
VERTEX
  5
F5
330
D7
100
AcDbEntity
  8
ｴｸｽﾃﾘｱ商品
 62
   253
370
    20
100
AcDbFaceRecord
 10
0.0
 20
0.0
 30
0.0
 70
   128
 71
     9
 72
     7
 73
    13
  0
VERTEX
  5
F6
330
D7
100
AcDbEntity
  8
ｴｸｽﾃﾘｱ商品
 62
   253
370
    20
100
AcDbFaceRecord
 10
0.0
 20
0.0
 30
0.0
 70
   128
 71
     9
 72
    13
 73
    11
  0
VERTEX
  5
F7
330
D7
100
AcDbEntity
  8
ｴｸｽﾃﾘｱ商品
 62
   253
370
    20
100
AcDbFaceRecord
 10
0.0
 20
0.0
 30
0.0
 70
   128
 71
     3
 72
     6
 73
     8
  0
VERTEX
  5
F8
330
D7
100
AcDbEntity
  8
ｴｸｽﾃﾘｱ商品
 62
   253
370
    20
100
AcDbFaceRecord
 10
0.0
 20
0.0
 30
0.0
 70
   128
 71
    16
 72
     4
 73
     3
  0
VERTEX
  5
F9
330
D7
100
AcDbEntity
  8
ｴｸｽﾃﾘｱ商品
 62
   253
370
    20
100
AcDbFaceRecord
 10
0.0
 20
0.0
 30
0.0
 70
   128
 71
    14
 72
    16
 73
     3
  0
VERTEX
  5
FA
330
D7
100
AcDbEntity
  8
ｴｸｽﾃﾘｱ商品
 62
   253
370
    20
100
AcDbFaceRecord
 10
0.0
 20
0.0
 30
0.0
 70
   128
 71
    14
 72
     3
 73
     8
  0
VERTEX
  5
FB
330
D7
100
AcDbEntity
  8
ｴｸｽﾃﾘｱ商品
 62
   253
370
    20
100
AcDbFaceRecord
 10
0.0
 20
0.0
 30
0.0
 70
   128
 71
    12
 72
    14
 73
    10
  0
VERTEX
  5
FC
330
D7
100
AcDbEntity
  8
ｴｸｽﾃﾘｱ商品
 62
   253
370
    20
100
AcDbFaceRecord
 10
0.0
 20
0.0
 30
0.0
 70
   128
 71
    10
 72
    14
 73
     8
  0
SEQEND
  5
D8
330
D7
100
AcDbEntity
  8
ｴｸｽﾃﾘｱ商品
370
    20
  0
POLYLINE
  5
FD
330
3C
100
AcDbEntity
  8
ｴｸｽﾃﾘｱ商品
 62
   253
370
    20
100
AcDbPolyFaceMesh
 66
     1
 10
0.0
 20
0.0
 30
0.0
 70
    64
 71
    30
 72
    29
  0
VERTEX
  5
FF
330
FD
100
AcDbEntity
  8
ｴｸｽﾃﾘｱ商品
 62
   253
370
    20
100
AcDbVertex
100
AcDbPolyFaceMeshVertex
 10
121.622578071854
 20
510.7550218742799
 30
20.85000000000001
 70
   192
  0
VERTEX
  5
100
330
FD
100
AcDbEntity
  8
ｴｸｽﾃﾘｱ商品
 62
   253
370
    20
100
AcDbVertex
100
AcDbPolyFaceMeshVertex
 10
3852.832578071854
 20
510.7550218742797
 30
20.85000000000001
 70
   192
  0
VERTEX
  5
101
330
FD
100
AcDbEntity
  8
ｴｸｽﾃﾘｱ商品
 62
   253
370
    20
100
AcDbVertex
100
AcDbPolyFaceMeshVertex
 10
3807.227578071855
 20
556.3600218742797
 30
21.0
 70
   192
  0
VERTEX
  5
102
330
FD
100
AcDbEntity
  8
ｴｸｽﾃﾘｱ商品
 62
   253
370
    20
100
AcDbVertex
100
AcDbPolyFaceMeshVertex
 10
167.2275780718539
 20
556.3600218742799
 30
21.0
 70
   192
  0
VERTEX
  5
103
330
FD
100
AcDbEntity
  8
ｴｸｽﾃﾘｱ商品
 62
   253
370
    20
100
AcDbVertex
100
AcDbPolyFaceMeshVertex
 10
104.5225780718539
 20
493.6550218742799
 30
15.37300000000001
 70
   192
  0
VERTEX
  5
104
330
FD
100
AcDbEntity
  8
ｴｸｽﾃﾘｱ商品
 62
   253
370
    20
100
AcDbVertex
100
AcDbPolyFaceMeshVertex
 10
3869.932578071854
 20
493.6550218742796
 30
15.37300000000001
 70
   192
  0
VERTEX
  5
105
330
FD
100
AcDbEntity
  8
ｴｸｽﾃﾘｱ商品
 62
   253
370
    20
100
AcDbVertex
100
AcDbPolyFaceMeshVertex
 10
88.2645780718539
 20
477.3970218742799
 30
7.753000000000006
 70
   192
  0
VERTEX
  5
106
330
FD
100
AcDbEntity
  8
ｴｸｽﾃﾘｱ商品
 62
   253
370
    20
100
AcDbVertex
100
AcDbPolyFaceMeshVertex
 10
3886.190578071854
 20
477.3970218742796
 30
7.753000000000006
 70
   192
  0
VERTEX
  5
107
330
FD
100
AcDbEntity
  8
ｴｸｽﾃﾘｱ商品
 62
   253
370
    20
100
AcDbVertex
100
AcDbPolyFaceMeshVertex
 10
87.50657807185382
 20
476.6390218742799
 30
7.018000000000007
 70
   192
  0
VERTEX
  5
108
330
FD
100
AcDbEntity
  8
ｴｸｽﾃﾘｱ商品
 62
   253
370
    20
100
AcDbVertex
100
AcDbPolyFaceMeshVertex
 10
3886.948578071855
 20
476.6390218742796
 30
7.018000000000007
 70
   192
  0
VERTEX
  5
109
330
FD
100
AcDbEntity
  8
ｴｸｽﾃﾘｱ商品
 62
   253
370
    20
100
AcDbVertex
100
AcDbPolyFaceMeshVertex
 10
87.22757807185394
 20
476.3600218742799
 30
6.000000000000007
 70
   192
  0
VERTEX
  5
10A
330
FD
100
AcDbEntity
  8
ｴｸｽﾃﾘｱ商品
 62
   253
370
    20
100
AcDbVertex
100
AcDbPolyFaceMeshVertex
 10
87.22757807185394
 20
476.3600218742799
 30
6.000000000000007
 70
   192
  0
VERTEX
  5
10B
330
FD
100
AcDbEntity
  8
ｴｸｽﾃﾘｱ商品
 62
   253
370
    20
100
AcDbVertex
100
AcDbPolyFaceMeshVertex
 10
3887.227578071854
 20
476.3600218742797
 30
6.000000000000007
 70
   192
  0
VERTEX
  5
10C
330
FD
100
AcDbEntity
  8
ｴｸｽﾃﾘｱ商品
 62
   253
370
    20
100
AcDbVertex
100
AcDbPolyFaceMeshVertex
 10
3887.227578071854
 20
476.3600218742797
 30
6.000000000000007
 70
   192
  0
VERTEX
  5
10D
330
FD
100
AcDbEntity
  8
ｴｸｽﾃﾘｱ商品
 62
   253
370
    20
100
AcDbVertex
100
AcDbPolyFaceMeshVertex
 10
87.22757807185394
 20
476.3600218742799
 30
-39.0
 70
   192
  0
VERTEX
  5
10E
330
FD
100
AcDbEntity
  8
ｴｸｽﾃﾘｱ商品
 62
   253
370
    20
100
AcDbVertex
100
AcDbPolyFaceMeshVertex
 10
3887.227578071854
 20
476.3600218742797
 30
-39.0
 70
   192
  0
VERTEX
  5
10F
330
FD
100
AcDbEntity
  8
ｴｸｽﾃﾘｱ商品
 62
   253
370
    20
100
AcDbVertex
100
AcDbPolyFaceMeshVertex
 10
87.22757807185394
 20
476.3600218742799
 30
-39.0
 70
   192
  0
VERTEX
  5
110
330
FD
100
AcDbEntity
  8
ｴｸｽﾃﾘｱ商品
 62
   253
370
    20
100
AcDbVertex
100
AcDbPolyFaceMeshVertex
 10
247.227578071854
 20
636.3600218742799
 30
-39.00000000000001
 70
   192
  0
VERTEX
  5
111
330
FD
100
AcDbEntity
  8
ｴｸｽﾃﾘｱ商品
 62
   253
370
    20
100
AcDbVertex
100
AcDbPolyFaceMeshVertex
 10
3727.227578071855
 20
636.3600218742796
 30
-39.00000000000001
 70
   192
  0
VERTEX
  5
112
330
FD
100
AcDbEntity
  8
ｴｸｽﾃﾘｱ商品
 62
   253
370
    20
100
AcDbVertex
100
AcDbPolyFaceMeshVertex
 10
3887.227578071854
 20
476.3600218742797
 30
-39.0
 70
   192
  0
VERTEX
  5
113
330
FD
100
AcDbEntity
  8
ｴｸｽﾃﾘｱ商品
 62
   253
370
    20
100
AcDbVertex
100
AcDbPolyFaceMeshVertex
 10
247.227578071854
 20
636.3600218742799
 30
5.999999999999996
 70
   192
  0
VERTEX
  5
114
330
FD
100
AcDbEntity
  8
ｴｸｽﾃﾘｱ商品
 62
   253
370
    20
100
AcDbVertex
100
AcDbPolyFaceMeshVertex
 10
3727.227578071855
 20
636.3600218742796
 30
5.999999999999996
 70
   192
  0
VERTEX
  5
115
330
FD
100
AcDbEntity
  8
ｴｸｽﾃﾘｱ商品
 62
   253
370
    20
100
AcDbVertex
100
AcDbPolyFaceMeshVertex
 10
246.948578071854
 20
636.0810218742799
 30
7.017999999999996
 70
   192
  0
VERTEX
  5
116
330
FD
100
AcDbEntity
  8
ｴｸｽﾃﾘｱ商品
 62
   253
370
    20
100
AcDbVertex
100
AcDbPolyFaceMeshVertex
 10
3727.506578071854
 20
636.0810218742797
 30
7.017999999999996
 70
   192
  0
VERTEX
  5
117
330
FD
100
AcDbEntity
  8
ｴｸｽﾃﾘｱ商品
 62
   253
370
    20
100
AcDbVertex
100
AcDbPolyFaceMeshVertex
 10
246.1905780718539
 20
635.3230218742799
 30
7.752999999999996
 70
   192
  0
VERTEX
  5
118
330
FD
100
AcDbEntity
  8
ｴｸｽﾃﾘｱ商品
 62
   253
370
    20
100
AcDbVertex
100
AcDbPolyFaceMeshVertex
 10
3728.264578071854
 20
635.3230218742797
 30
7.752999999999996
 70
   192
  0
VERTEX
  5
119
330
FD
100
AcDbEntity
  8
ｴｸｽﾃﾘｱ商品
 62
   253
370
    20
100
AcDbVertex
100
AcDbPolyFaceMeshVertex
 10
229.9325780718539
 20
619.0650218742799
 30
15.373
 70
   192
  0
VERTEX
  5
11A
330
FD
100
AcDbEntity
  8
ｴｸｽﾃﾘｱ商品
 62
   253
370
    20
100
AcDbVertex
100
AcDbPolyFaceMeshVertex
 10
3744.522578071854
 20
619.0650218742798
 30
15.373
 70
   192
  0
VERTEX
  5
11B
330
FD
100
AcDbEntity
  8
ｴｸｽﾃﾘｱ商品
 62
   253
370
    20
100
AcDbVertex
100
AcDbPolyFaceMeshVertex
 10
212.2285780718541
 20
601.36102187428
 30
20.962
 70
   192
  0
VERTEX
  5
11C
330
FD
100
AcDbEntity
  8
ｴｸｽﾃﾘｱ商品
 62
   253
370
    20
100
AcDbVertex
100
AcDbPolyFaceMeshVertex
 10
3762.226578071854
 20
601.3610218742798
 30
20.962
 70
   192
  0
VERTEX
  5
11D
330
FD
100
AcDbEntity
  8
ｴｸｽﾃﾘｱ商品
 62
   253
370
    20
100
AcDbFaceRecord
 10
0.0
 20
0.0
 30
0.0
 70
   128
 71
     1
 72
     2
 73
     3
 74
     4
  0
VERTEX
  5
11E
330
FD
100
AcDbEntity
  8
ｴｸｽﾃﾘｱ商品
 62
   253
370
    20
100
AcDbFaceRecord
 10
0.0
 20
0.0
 30
0.0
 70
   128
 71
     5
 72
     6
 73
     2
 74
     1
  0
VERTEX
  5
11F
330
FD
100
AcDbEntity
  8
ｴｸｽﾃﾘｱ商品
 62
   253
370
    20
100
AcDbFaceRecord
 10
0.0
 20
0.0
 30
0.0
 70
   128
 71
     7
 72
     8
 73
     6
 74
     5
  0
VERTEX
  5
120
330
FD
100
AcDbEntity
  8
ｴｸｽﾃﾘｱ商品
 62
   253
370
    20
100
AcDbFaceRecord
 10
0.0
 20
0.0
 30
0.0
 70
   128
 71
     9
 72
    10
 73
     8
 74
     7
  0
VERTEX
  5
121
330
FD
100
AcDbEntity
  8
ｴｸｽﾃﾘｱ商品
 62
   253
370
    20
100
AcDbFaceRecord
 10
0.0
 20
0.0
 30
0.0
 70
   128
 71
    11
 72
    12
 73
    13
 74
    14
  0
VERTEX
  5
122
330
FD
100
AcDbEntity
  8
ｴｸｽﾃﾘｱ商品
 62
   253
370
    20
100
AcDbFaceRecord
 10
0.0
 20
0.0
 30
0.0
 70
   128
 71
    11
 72
    14
 73
    10
 74
     9
  0
VERTEX
  5
123
330
FD
100
AcDbEntity
  8
ｴｸｽﾃﾘｱ商品
 62
   253
370
    20
100
AcDbFaceRecord
 10
0.0
 20
0.0
 30
0.0
 70
   128
 71
    12
 72
    15
 73
    16
 74
    13
  0
VERTEX
  5
124
330
FD
100
AcDbEntity
  8
ｴｸｽﾃﾘｱ商品
 62
   253
370
    20
100
AcDbFaceRecord
 10
0.0
 20
0.0
 30
0.0
 70
   128
 71
    15
 72
    17
 73
    18
 74
    19
  0
VERTEX
  5
125
330
FD
100
AcDbEntity
  8
ｴｸｽﾃﾘｱ商品
 62
   253
370
    20
100
AcDbFaceRecord
 10
0.0
 20
0.0
 30
0.0
 70
   128
 71
    15
 72
    19
 73
    20
 74
    16
  0
VERTEX
  5
126
330
FD
100
AcDbEntity
  8
ｴｸｽﾃﾘｱ商品
 62
   253
370
    20
100
AcDbFaceRecord
 10
0.0
 20
0.0
 30
0.0
 70
   128
 71
    21
 72
    22
 73
    19
 74
    18
  0
VERTEX
  5
127
330
FD
100
AcDbEntity
  8
ｴｸｽﾃﾘｱ商品
 62
   253
370
    20
100
AcDbFaceRecord
 10
0.0
 20
0.0
 30
0.0
 70
   128
 71
    23
 72
    24
 73
    22
 74
    21
  0
VERTEX
  5
128
330
FD
100
AcDbEntity
  8
ｴｸｽﾃﾘｱ商品
 62
   253
370
    20
100
AcDbFaceRecord
 10
0.0
 20
0.0
 30
0.0
 70
   128
 71
    25
 72
    26
 73
    24
 74
    23
  0
VERTEX
  5
129
330
FD
100
AcDbEntity
  8
ｴｸｽﾃﾘｱ商品
 62
   253
370
    20
100
AcDbFaceRecord
 10
0.0
 20
0.0
 30
0.0
 70
   128
 71
    27
 72
    28
 73
    26
 74
    25
  0
VERTEX
  5
12A
330
FD
100
AcDbEntity
  8
ｴｸｽﾃﾘｱ商品
 62
   253
370
    20
100
AcDbFaceRecord
 10
0.0
 20
0.0
 30
0.0
 70
   128
 71
    29
 72
    30
 73
    28
 74
    27
  0
VERTEX
  5
12B
330
FD
100
AcDbEntity
  8
ｴｸｽﾃﾘｱ商品
 62
   253
370
    20
100
AcDbFaceRecord
 10
0.0
 20
0.0
 30
0.0
 70
   128
 71
     4
 72
     3
 73
    30
 74
    29
  0
VERTEX
  5
12C
330
FD
100
AcDbEntity
  8
ｴｸｽﾃﾘｱ商品
 62
   253
370
    20
100
AcDbFaceRecord
 10
0.0
 20
0.0
 30
0.0
 70
   128
 71
    17
 72
    15
 73
    12
 74
    11
  0
VERTEX
  5
12D
330
FD
100
AcDbEntity
  8
ｴｸｽﾃﾘｱ商品
 62
   253
370
    20
100
AcDbFaceRecord
 10
0.0
 20
0.0
 30
0.0
 70
   128
 71
    14
 72
    13
 73
    16
 74
    20
  0
VERTEX
  5
12E
330
FD
100
AcDbEntity
  8
ｴｸｽﾃﾘｱ商品
 62
   253
370
    20
100
AcDbFaceRecord
 10
0.0
 20
0.0
 30
0.0
 70
   128
 71
    11
 72
     9
 73
     7
 74
     5
  0
VERTEX
  5
12F
330
FD
100
AcDbEntity
  8
ｴｸｽﾃﾘｱ商品
 62
   253
370
    20
100
AcDbFaceRecord
 10
0.0
 20
0.0
 30
0.0
 70
   128
 71
    11
 72
     5
 73
     1
 74
     4
  0
VERTEX
  5
130
330
FD
100
AcDbEntity
  8
ｴｸｽﾃﾘｱ商品
 62
   253
370
    20
100
AcDbFaceRecord
 10
0.0
 20
0.0
 30
0.0
 70
   128
 71
    11
 72
     4
 73
    29
 74
    27
  0
VERTEX
  5
131
330
FD
100
AcDbEntity
  8
ｴｸｽﾃﾘｱ商品
 62
   253
370
    20
100
AcDbFaceRecord
 10
0.0
 20
0.0
 30
0.0
 70
   128
 71
    11
 72
    27
 73
    25
 74
    23
  0
VERTEX
  5
132
330
FD
100
AcDbEntity
  8
ｴｸｽﾃﾘｱ商品
 62
   253
370
    20
100
AcDbFaceRecord
 10
0.0
 20
0.0
 30
0.0
 70
   128
 71
    11
 72
    23
 73
    21
 74
    18
  0
VERTEX
  5
133
330
FD
100
AcDbEntity
  8
ｴｸｽﾃﾘｱ商品
 62
   253
370
    20
100
AcDbFaceRecord
 10
0.0
 20
0.0
 30
0.0
 70
   128
 71
    11
 72
    18
 73
    17
  0
VERTEX
  5
134
330
FD
100
AcDbEntity
  8
ｴｸｽﾃﾘｱ商品
 62
   253
370
    20
100
AcDbFaceRecord
 10
0.0
 20
0.0
 30
0.0
 70
   128
 71
    14
 72
    20
 73
    19
 74
    22
  0
VERTEX
  5
135
330
FD
100
AcDbEntity
  8
ｴｸｽﾃﾘｱ商品
 62
   253
370
    20
100
AcDbFaceRecord
 10
0.0
 20
0.0
 30
0.0
 70
   128
 71
    14
 72
    22
 73
    24
 74
    26
  0
VERTEX
  5
136
330
FD
100
AcDbEntity
  8
ｴｸｽﾃﾘｱ商品
 62
   253
370
    20
100
AcDbFaceRecord
 10
0.0
 20
0.0
 30
0.0
 70
   128
 71
    14
 72
    26
 73
    28
 74
    30
  0
VERTEX
  5
137
330
FD
100
AcDbEntity
  8
ｴｸｽﾃﾘｱ商品
 62
   253
370
    20
100
AcDbFaceRecord
 10
0.0
 20
0.0
 30
0.0
 70
   128
 71
    14
 72
    30
 73
     3
 74
     2
  0
VERTEX
  5
138
330
FD
100
AcDbEntity
  8
ｴｸｽﾃﾘｱ商品
 62
   253
370
    20
100
AcDbFaceRecord
 10
0.0
 20
0.0
 30
0.0
 70
   128
 71
    14
 72
     2
 73
     6
 74
     8
  0
VERTEX
  5
139
330
FD
100
AcDbEntity
  8
ｴｸｽﾃﾘｱ商品
 62
   253
370
    20
100
AcDbFaceRecord
 10
0.0
 20
0.0
 30
0.0
 70
   128
 71
    14
 72
     8
 73
    10
  0
SEQEND
  5
FE
330
FD
100
AcDbEntity
  8
ｴｸｽﾃﾘｱ商品
370
    20
  0
POLYLINE
  5
13A
330
3C
100
AcDbEntity
  8
ｴｸｽﾃﾘｱ商品
 62
    43
370
    20
100
AcDbPolyFaceMesh
 66
     1
 10
0.0
 20
0.0
 30
0.0
 70
    64
 71
    92
 72
    90
  0
VERTEX
  5
13C
330
13A
100
AcDbEntity
  8
ｴｸｽﾃﾘｱ商品
 62
    43
370
    20
100
AcDbVertex
100
AcDbPolyFaceMeshVertex
 10
198.227578071854
 20
587.3600218742799
 30
441.0
 70
   192
  0
VERTEX
  5
13D
330
13A
100
AcDbEntity
  8
ｴｸｽﾃﾘｱ商品
 62
    43
370
    20
100
AcDbVertex
100
AcDbPolyFaceMeshVertex
 10
3776.227578071854
 20
587.3600218742797
 30
441.0
 70
   192
  0
VERTEX
  5
13E
330
13A
100
AcDbEntity
  8
ｴｸｽﾃﾘｱ商品
 62
    43
370
    20
100
AcDbVertex
100
AcDbPolyFaceMeshVertex
 10
3886.227578071854
 20
477.3600218742797
 30
441.0
 70
   192
  0
VERTEX
  5
13F
330
13A
100
AcDbEntity
  8
ｴｸｽﾃﾘｱ商品
 62
    43
370
    20
100
AcDbVertex
100
AcDbPolyFaceMeshVertex
 10
88.22757807185397
 20
477.3600218742799
 30
441.0
 70
   192
  0
VERTEX
  5
140
330
13A
100
AcDbEntity
  8
ｴｸｽﾃﾘｱ商品
 62
    43
370
    20
100
AcDbVertex
100
AcDbPolyFaceMeshVertex
 10
198.3145780718538
 20
587.4470218742799
 30
441.0
 70
   192
  0
VERTEX
  5
141
330
13A
100
AcDbEntity
  8
ｴｸｽﾃﾘｱ商品
 62
    43
370
    20
100
AcDbVertex
100
AcDbPolyFaceMeshVertex
 10
3776.140578071855
 20
587.4470218742797
 30
441.0
 70
   192
  0
VERTEX
  5
142
330
13A
100
AcDbEntity
  8
ｴｸｽﾃﾘｱ商品
 62
    43
370
    20
100
AcDbVertex
100
AcDbPolyFaceMeshVertex
 10
198.4875780718538
 20
587.6200218742798
 30
441.03
 70
   192
  0
VERTEX
  5
143
330
13A
100
AcDbEntity
  8
ｴｸｽﾃﾘｱ商品
 62
    43
370
    20
100
AcDbVertex
100
AcDbPolyFaceMeshVertex
 10
3775.967578071854
 20
587.6200218742796
 30
441.03
 70
   192
  0
VERTEX
  5
144
330
13A
100
AcDbEntity
  8
ｴｸｽﾃﾘｱ商品
 62
    43
370
    20
100
AcDbVertex
100
AcDbPolyFaceMeshVertex
 10
198.651578071854
 20
587.7840218742799
 30
441.09
 70
   192
  0
VERTEX
  5
145
330
13A
100
AcDbEntity
  8
ｴｸｽﾃﾘｱ商品
 62
    43
370
    20
100
AcDbVertex
100
AcDbPolyFaceMeshVertex
 10
3775.803578071854
 20
587.7840218742797
 30
441.09
 70
   192
  0
VERTEX
  5
146
330
13A
100
AcDbEntity
  8
ｴｸｽﾃﾘｱ商品
 62
    43
370
    20
100
AcDbVertex
100
AcDbPolyFaceMeshVertex
 10
198.803578071854
 20
587.93602187428
 30
441.178
 70
   192
  0
VERTEX
  5
147
330
13A
100
AcDbEntity
  8
ｴｸｽﾃﾘｱ商品
 62
    43
370
    20
100
AcDbVertex
100
AcDbPolyFaceMeshVertex
 10
3775.651578071854
 20
587.9360218742797
 30
441.178
 70
   192
  0
VERTEX
  5
148
330
13A
100
AcDbEntity
  8
ｴｸｽﾃﾘｱ商品
 62
    43
370
    20
100
AcDbVertex
100
AcDbPolyFaceMeshVertex
 10
198.9375780718539
 20
588.07002187428
 30
441.29
 70
   192
  0
VERTEX
  5
149
330
13A
100
AcDbEntity
  8
ｴｸｽﾃﾘｱ商品
 62
    43
370
    20
100
AcDbVertex
100
AcDbPolyFaceMeshVertex
 10
3775.517578071855
 20
588.0700218742797
 30
441.29
 70
   192
  0
VERTEX
  5
14A
330
13A
100
AcDbEntity
  8
ｴｸｽﾃﾘｱ商品
 62
    43
370
    20
100
AcDbVertex
100
AcDbPolyFaceMeshVertex
 10
199.049578071854
 20
588.1820218742799
 30
441.424
 70
   192
  0
VERTEX
  5
14B
330
13A
100
AcDbEntity
  8
ｴｸｽﾃﾘｱ商品
 62
    43
370
    20
100
AcDbVertex
100
AcDbPolyFaceMeshVertex
 10
3775.405578071855
 20
588.1820218742797
 30
441.424
 70
   192
  0
VERTEX
  5
14C
330
13A
100
AcDbEntity
  8
ｴｸｽﾃﾘｱ商品
 62
    43
370
    20
100
AcDbVertex
100
AcDbPolyFaceMeshVertex
 10
199.1375780718539
 20
588.2700218742799
 30
441.576
 70
   192
  0
VERTEX
  5
14D
330
13A
100
AcDbEntity
  8
ｴｸｽﾃﾘｱ商品
 62
    43
370
    20
100
AcDbVertex
100
AcDbPolyFaceMeshVertex
 10
3775.317578071855
 20
588.2700218742797
 30
441.576
 70
   192
  0
VERTEX
  5
14E
330
13A
100
AcDbEntity
  8
ｴｸｽﾃﾘｱ商品
 62
    43
370
    20
100
AcDbVertex
100
AcDbPolyFaceMeshVertex
 10
199.1975780718539
 20
588.33002187428
 30
441.74
 70
   192
  0
VERTEX
  5
14F
330
13A
100
AcDbEntity
  8
ｴｸｽﾃﾘｱ商品
 62
    43
370
    20
100
AcDbVertex
100
AcDbPolyFaceMeshVertex
 10
3775.257578071855
 20
588.3300218742796
 30
441.74
 70
   192
  0
VERTEX
  5
150
330
13A
100
AcDbEntity
  8
ｴｸｽﾃﾘｱ商品
 62
    43
370
    20
100
AcDbVertex
100
AcDbPolyFaceMeshVertex
 10
199.227578071854
 20
588.3600218742799
 30
441.913
 70
   192
  0
VERTEX
  5
151
330
13A
100
AcDbEntity
  8
ｴｸｽﾃﾘｱ商品
 62
    43
370
    20
100
AcDbVertex
100
AcDbPolyFaceMeshVertex
 10
3775.227578071855
 20
588.3600218742797
 30
441.913
 70
   192
  0
VERTEX
  5
152
330
13A
100
AcDbEntity
  8
ｴｸｽﾃﾘｱ商品
 62
    43
370
    20
100
AcDbVertex
100
AcDbPolyFaceMeshVertex
 10
199.227578071854
 20
588.3600218742799
 30
442.0
 70
   192
  0
VERTEX
  5
153
330
13A
100
AcDbEntity
  8
ｴｸｽﾃﾘｱ商品
 62
    43
370
    20
100
AcDbVertex
100
AcDbPolyFaceMeshVertex
 10
3775.227578071855
 20
588.3600218742797
 30
442.0
 70
   192
  0
VERTEX
  5
154
330
13A
100
AcDbEntity
  8
ｴｸｽﾃﾘｱ商品
 62
    43
370
    20
100
AcDbVertex
100
AcDbPolyFaceMeshVertex
 10
199.227578071854
 20
588.3600218742799
 30
463.0
 70
   192
  0
VERTEX
  5
155
330
13A
100
AcDbEntity
  8
ｴｸｽﾃﾘｱ商品
 62
    43
370
    20
100
AcDbVertex
100
AcDbPolyFaceMeshVertex
 10
3775.227578071855
 20
588.3600218742797
 30
463.0
 70
   192
  0
VERTEX
  5
156
330
13A
100
AcDbEntity
  8
ｴｸｽﾃﾘｱ商品
 62
    43
370
    20
100
AcDbVertex
100
AcDbPolyFaceMeshVertex
 10
199.227578071854
 20
588.3600218742799
 30
463.175
 70
   192
  0
VERTEX
  5
157
330
13A
100
AcDbEntity
  8
ｴｸｽﾃﾘｱ商品
 62
    43
370
    20
100
AcDbVertex
100
AcDbPolyFaceMeshVertex
 10
3775.227578071855
 20
588.3600218742797
 30
463.175
 70
   192
  0
VERTEX
  5
158
330
13A
100
AcDbEntity
  8
ｴｸｽﾃﾘｱ商品
 62
    43
370
    20
100
AcDbVertex
100
AcDbPolyFaceMeshVertex
 10
199.166578071854
 20
588.29902187428
 30
463.52
 70
   192
  0
VERTEX
  5
159
330
13A
100
AcDbEntity
  8
ｴｸｽﾃﾘｱ商品
 62
    43
370
    20
100
AcDbVertex
100
AcDbPolyFaceMeshVertex
 10
3775.288578071855
 20
588.2990218742797
 30
463.52
 70
   192
  0
VERTEX
  5
15A
330
13A
100
AcDbEntity
  8
ｴｸｽﾃﾘｱ商品
 62
    43
370
    20
100
AcDbVertex
100
AcDbPolyFaceMeshVertex
 10
199.047578071854
 20
588.1800218742799
 30
463.848
 70
   192
  0
VERTEX
  5
15B
330
13A
100
AcDbEntity
  8
ｴｸｽﾃﾘｱ商品
 62
    43
370
    20
100
AcDbVertex
100
AcDbPolyFaceMeshVertex
 10
3775.407578071854
 20
588.1800218742796
 30
463.848
 70
   192
  0
VERTEX
  5
15C
330
13A
100
AcDbEntity
  8
ｴｸｽﾃﾘｱ商品
 62
    43
370
    20
100
AcDbVertex
100
AcDbPolyFaceMeshVertex
 10
198.8725780718539
 20
588.0050218742799
 30
464.152
 70
   192
  0
VERTEX
  5
15D
330
13A
100
AcDbEntity
  8
ｴｸｽﾃﾘｱ商品
 62
    43
370
    20
100
AcDbVertex
100
AcDbPolyFaceMeshVertex
 10
3775.582578071854
 20
588.0050218742797
 30
464.152
 70
   192
  0
VERTEX
  5
15E
330
13A
100
AcDbEntity
  8
ｴｸｽﾃﾘｱ商品
 62
    43
370
    20
100
AcDbVertex
100
AcDbPolyFaceMeshVertex
 10
198.647578071854
 20
587.7800218742799
 30
464.42
 70
   192
  0
VERTEX
  5
15F
330
13A
100
AcDbEntity
  8
ｴｸｽﾃﾘｱ商品
 62
    43
370
    20
100
AcDbVertex
100
AcDbPolyFaceMeshVertex
 10
3775.807578071854
 20
587.7800218742797
 30
464.42
 70
   192
  0
VERTEX
  5
160
330
13A
100
AcDbEntity
  8
ｴｸｽﾃﾘｱ商品
 62
    43
370
    20
100
AcDbVertex
100
AcDbPolyFaceMeshVertex
 10
198.3795780718539
 20
587.5120218742799
 30
464.645
 70
   192
  0
VERTEX
  5
161
330
13A
100
AcDbEntity
  8
ｴｸｽﾃﾘｱ商品
 62
    43
370
    20
100
AcDbVertex
100
AcDbPolyFaceMeshVertex
 10
3776.075578071855
 20
587.5120218742796
 30
464.645
 70
   192
  0
VERTEX
  5
162
330
13A
100
AcDbEntity
  8
ｴｸｽﾃﾘｱ商品
 62
    43
370
    20
100
AcDbVertex
100
AcDbPolyFaceMeshVertex
 10
198.075578071854
 20
587.2080218742799
 30
464.82
 70
   192
  0
VERTEX
  5
163
330
13A
100
AcDbEntity
  8
ｴｸｽﾃﾘｱ商品
 62
    43
370
    20
100
AcDbVertex
100
AcDbPolyFaceMeshVertex
 10
3776.379578071854
 20
587.2080218742797
 30
464.82
 70
   192
  0
VERTEX
  5
164
330
13A
100
AcDbEntity
  8
ｴｸｽﾃﾘｱ商品
 62
    43
370
    20
100
AcDbVertex
100
AcDbPolyFaceMeshVertex
 10
197.7475780718539
 20
586.8800218742799
 30
464.939
 70
   192
  0
VERTEX
  5
165
330
13A
100
AcDbEntity
  8
ｴｸｽﾃﾘｱ商品
 62
    43
370
    20
100
AcDbVertex
100
AcDbPolyFaceMeshVertex
 10
3776.707578071855
 20
586.8800218742797
 30
464.939
 70
   192
  0
VERTEX
  5
166
330
13A
100
AcDbEntity
  8
ｴｸｽﾃﾘｱ商品
 62
    43
370
    20
100
AcDbVertex
100
AcDbPolyFaceMeshVertex
 10
197.4465780718539
 20
586.5790218742799
 30
464.988
 70
   192
  0
VERTEX
  5
167
330
13A
100
AcDbEntity
  8
ｴｸｽﾃﾘｱ商品
 62
    43
370
    20
100
AcDbVertex
100
AcDbPolyFaceMeshVertex
 10
3777.008578071854
 20
586.5790218742796
 30
464.988
 70
   192
  0
VERTEX
  5
168
330
13A
100
AcDbEntity
  8
ｴｸｽﾃﾘｱ商品
 62
    43
370
    20
100
AcDbVertex
100
AcDbPolyFaceMeshVertex
 10
147.0375780718539
 20
536.1700218742799
 30
470.5410000000001
 70
   192
  0
VERTEX
  5
169
330
13A
100
AcDbEntity
  8
ｴｸｽﾃﾘｱ商品
 62
    43
370
    20
100
AcDbVertex
100
AcDbPolyFaceMeshVertex
 10
3827.417578071855
 20
536.1700218742797
 30
470.5410000000001
 70
   192
  0
VERTEX
  5
16A
330
13A
100
AcDbEntity
  8
ｴｸｽﾃﾘｱ商品
 62
    43
370
    20
100
AcDbVertex
100
AcDbPolyFaceMeshVertex
 10
89.23057807185391
 20
478.3630218742799
 30
471.0000000000001
 70
   192
  0
VERTEX
  5
16B
330
13A
100
AcDbEntity
  8
ｴｸｽﾃﾘｱ商品
 62
    43
370
    20
100
AcDbVertex
100
AcDbPolyFaceMeshVertex
 10
3885.224578071854
 20
478.3630218742796
 30
471.0000000000001
 70
   192
  0
VERTEX
  5
16C
330
13A
100
AcDbEntity
  8
ｴｸｽﾃﾘｱ商品
 62
    43
370
    20
100
AcDbVertex
100
AcDbPolyFaceMeshVertex
 10
89.05557807185392
 20
478.1880218742799
 30
471.0000000000001
 70
   192
  0
VERTEX
  5
16D
330
13A
100
AcDbEntity
  8
ｴｸｽﾃﾘｱ商品
 62
    43
370
    20
100
AcDbVertex
100
AcDbPolyFaceMeshVertex
 10
3885.399578071855
 20
478.1880218742797
 30
471.0000000000001
 70
   192
  0
VERTEX
  5
16E
330
13A
100
AcDbEntity
  8
ｴｸｽﾃﾘｱ商品
 62
    43
370
    20
100
AcDbVertex
100
AcDbPolyFaceMeshVertex
 10
88.71057807185397
 20
477.8430218742799
 30
470.94
 70
   192
  0
VERTEX
  5
16F
330
13A
100
AcDbEntity
  8
ｴｸｽﾃﾘｱ商品
 62
    43
370
    20
100
AcDbVertex
100
AcDbPolyFaceMeshVertex
 10
3885.744578071855
 20
477.8430218742797
 30
470.94
 70
   192
  0
VERTEX
  5
170
330
13A
100
AcDbEntity
  8
ｴｸｽﾃﾘｱ商品
 62
    43
370
    20
100
AcDbVertex
100
AcDbPolyFaceMeshVertex
 10
88.38157807185398
 20
477.5140218742799
 30
470.821
 70
   192
  0
VERTEX
  5
171
330
13A
100
AcDbEntity
  8
ｴｸｽﾃﾘｱ商品
 62
    43
370
    20
100
AcDbVertex
100
AcDbPolyFaceMeshVertex
 10
3886.073578071855
 20
477.5140218742796
 30
470.821
 70
   192
  0
VERTEX
  5
172
330
13A
100
AcDbEntity
  8
ｴｸｽﾃﾘｱ商品
 62
    43
370
    20
100
AcDbVertex
100
AcDbPolyFaceMeshVertex
 10
88.07857807185387
 20
477.2110218742799
 30
470.646
 70
   192
  0
VERTEX
  5
173
330
13A
100
AcDbEntity
  8
ｴｸｽﾃﾘｱ商品
 62
    43
370
    20
100
AcDbVertex
100
AcDbPolyFaceMeshVertex
 10
3886.376578071855
 20
477.2110218742797
 30
470.646
 70
   192
  0
VERTEX
  5
174
330
13A
100
AcDbEntity
  8
ｴｸｽﾃﾘｱ商品
 62
    43
370
    20
100
AcDbVertex
100
AcDbPolyFaceMeshVertex
 10
87.80957807185393
 20
476.9420218742799
 30
470.421
 70
   192
  0
VERTEX
  5
175
330
13A
100
AcDbEntity
  8
ｴｸｽﾃﾘｱ商品
 62
    43
370
    20
100
AcDbVertex
100
AcDbPolyFaceMeshVertex
 10
3886.645578071854
 20
476.9420218742797
 30
470.421
 70
   192
  0
VERTEX
  5
176
330
13A
100
AcDbEntity
  8
ｴｸｽﾃﾘｱ商品
 62
    43
370
    20
100
AcDbVertex
100
AcDbPolyFaceMeshVertex
 10
87.584578071854
 20
476.7170218742799
 30
470.154
 70
   192
  0
VERTEX
  5
177
330
13A
100
AcDbEntity
  8
ｴｸｽﾃﾘｱ商品
 62
    43
370
    20
100
AcDbVertex
100
AcDbPolyFaceMeshVertex
 10
3886.870578071855
 20
476.7170218742797
 30
470.154
 70
   192
  0
VERTEX
  5
178
330
13A
100
AcDbEntity
  8
ｴｸｽﾃﾘｱ商品
 62
    43
370
    20
100
AcDbVertex
100
AcDbPolyFaceMeshVertex
 10
87.40957807185399
 20
476.5420218742799
 30
469.851
 70
   192
  0
VERTEX
  5
179
330
13A
100
AcDbEntity
  8
ｴｸｽﾃﾘｱ商品
 62
    43
370
    20
100
AcDbVertex
100
AcDbPolyFaceMeshVertex
 10
3887.045578071854
 20
476.5420218742797
 30
469.851
 70
   192
  0
VERTEX
  5
17A
330
13A
100
AcDbEntity
  8
ｴｸｽﾃﾘｱ商品
 62
    43
370
    20
100
AcDbVertex
100
AcDbPolyFaceMeshVertex
 10
87.28857807185393
 20
476.4210218742799
 30
469.522
 70
   192
  0
VERTEX
  5
17B
330
13A
100
AcDbEntity
  8
ｴｸｽﾃﾘｱ商品
 62
    43
370
    20
100
AcDbVertex
100
AcDbPolyFaceMeshVertex
 10
3887.166578071854
 20
476.4210218742796
 30
469.522
 70
   192
  0
VERTEX
  5
17C
330
13A
100
AcDbEntity
  8
ｴｸｽﾃﾘｱ商品
 62
    43
370
    20
100
AcDbVertex
100
AcDbPolyFaceMeshVertex
 10
87.22757807185394
 20
476.3600218742799
 30
469.1780000000001
 70
   192
  0
VERTEX
  5
17D
330
13A
100
AcDbEntity
  8
ｴｸｽﾃﾘｱ商品
 62
    43
370
    20
100
AcDbVertex
100
AcDbPolyFaceMeshVertex
 10
87.22757807185394
 20
476.3600218742799
 30
469.1780000000001
 70
   192
  0
VERTEX
  5
17E
330
13A
100
AcDbEntity
  8
ｴｸｽﾃﾘｱ商品
 62
    43
370
    20
100
AcDbVertex
100
AcDbPolyFaceMeshVertex
 10
3887.227578071854
 20
476.3600218742797
 30
469.1780000000001
 70
   192
  0
VERTEX
  5
17F
330
13A
100
AcDbEntity
  8
ｴｸｽﾃﾘｱ商品
 62
    43
370
    20
100
AcDbVertex
100
AcDbPolyFaceMeshVertex
 10
3887.227578071854
 20
476.3600218742797
 30
469.1780000000001
 70
   192
  0
VERTEX
  5
180
330
13A
100
AcDbEntity
  8
ｴｸｽﾃﾘｱ商品
 62
    43
370
    20
100
AcDbVertex
100
AcDbPolyFaceMeshVertex
 10
87.22757807185394
 20
476.3600218742799
 30
469.0
 70
   192
  0
VERTEX
  5
181
330
13A
100
AcDbEntity
  8
ｴｸｽﾃﾘｱ商品
 62
    43
370
    20
100
AcDbVertex
100
AcDbPolyFaceMeshVertex
 10
3887.227578071854
 20
476.3600218742797
 30
469.0
 70
   192
  0
VERTEX
  5
182
330
13A
100
AcDbEntity
  8
ｴｸｽﾃﾘｱ商品
 62
    43
370
    20
100
AcDbVertex
100
AcDbPolyFaceMeshVertex
 10
87.22757807185394
 20
476.3600218742799
 30
442.0
 70
   192
  0
VERTEX
  5
183
330
13A
100
AcDbEntity
  8
ｴｸｽﾃﾘｱ商品
 62
    43
370
    20
100
AcDbVertex
100
AcDbPolyFaceMeshVertex
 10
3887.227578071854
 20
476.3600218742797
 30
442.0
 70
   192
  0
VERTEX
  5
184
330
13A
100
AcDbEntity
  8
ｴｸｽﾃﾘｱ商品
 62
    43
370
    20
100
AcDbVertex
100
AcDbPolyFaceMeshVertex
 10
87.22757807185394
 20
476.3600218742799
 30
441.913
 70
   192
  0
VERTEX
  5
185
330
13A
100
AcDbEntity
  8
ｴｸｽﾃﾘｱ商品
 62
    43
370
    20
100
AcDbVertex
100
AcDbPolyFaceMeshVertex
 10
3887.227578071854
 20
476.3600218742797
 30
441.913
 70
   192
  0
VERTEX
  5
186
330
13A
100
AcDbEntity
  8
ｴｸｽﾃﾘｱ商品
 62
    43
370
    20
100
AcDbVertex
100
AcDbPolyFaceMeshVertex
 10
87.22757807185394
 20
476.3600218742799
 30
441.913
 70
   192
  0
VERTEX
  5
187
330
13A
100
AcDbEntity
  8
ｴｸｽﾃﾘｱ商品
 62
    43
370
    20
100
AcDbVertex
100
AcDbPolyFaceMeshVertex
 10
87.25757807185397
 20
476.3900218742799
 30
441.74
 70
   192
  0
VERTEX
  5
188
330
13A
100
AcDbEntity
  8
ｴｸｽﾃﾘｱ商品
 62
    43
370
    20
100
AcDbVertex
100
AcDbPolyFaceMeshVertex
 10
3887.197578071854
 20
476.3900218742796
 30
441.74
 70
   192
  0
VERTEX
  5
189
330
13A
100
AcDbEntity
  8
ｴｸｽﾃﾘｱ商品
 62
    43
370
    20
100
AcDbVertex
100
AcDbPolyFaceMeshVertex
 10
3887.227578071854
 20
476.3600218742797
 30
441.913
 70
   192
  0
VERTEX
  5
18A
330
13A
100
AcDbEntity
  8
ｴｸｽﾃﾘｱ商品
 62
    43
370
    20
100
AcDbVertex
100
AcDbPolyFaceMeshVertex
 10
87.31757807185389
 20
476.4500218742799
 30
441.576
 70
   192
  0
VERTEX
  5
18B
330
13A
100
AcDbEntity
  8
ｴｸｽﾃﾘｱ商品
 62
    43
370
    20
100
AcDbVertex
100
AcDbPolyFaceMeshVertex
 10
3887.137578071855
 20
476.4500218742796
 30
441.576
 70
   192
  0
VERTEX
  5
18C
330
13A
100
AcDbEntity
  8
ｴｸｽﾃﾘｱ商品
 62
    43
370
    20
100
AcDbVertex
100
AcDbPolyFaceMeshVertex
 10
87.40557807185401
 20
476.5380218742799
 30
441.424
 70
   192
  0
VERTEX
  5
18D
330
13A
100
AcDbEntity
  8
ｴｸｽﾃﾘｱ商品
 62
    43
370
    20
100
AcDbVertex
100
AcDbPolyFaceMeshVertex
 10
3887.049578071855
 20
476.5380218742797
 30
441.424
 70
   192
  0
VERTEX
  5
18E
330
13A
100
AcDbEntity
  8
ｴｸｽﾃﾘｱ商品
 62
    43
370
    20
100
AcDbVertex
100
AcDbPolyFaceMeshVertex
 10
87.51757807185386
 20
476.6500218742799
 30
441.29
 70
   192
  0
VERTEX
  5
18F
330
13A
100
AcDbEntity
  8
ｴｸｽﾃﾘｱ商品
 62
    43
370
    20
100
AcDbVertex
100
AcDbPolyFaceMeshVertex
 10
3886.937578071854
 20
476.6500218742796
 30
441.29
 70
   192
  0
VERTEX
  5
190
330
13A
100
AcDbEntity
  8
ｴｸｽﾃﾘｱ商品
 62
    43
370
    20
100
AcDbVertex
100
AcDbPolyFaceMeshVertex
 10
87.65157807185395
 20
476.7840218742799
 30
441.178
 70
   192
  0
VERTEX
  5
191
330
13A
100
AcDbEntity
  8
ｴｸｽﾃﾘｱ商品
 62
    43
370
    20
100
AcDbVertex
100
AcDbPolyFaceMeshVertex
 10
3886.803578071854
 20
476.7840218742796
 30
441.178
 70
   192
  0
VERTEX
  5
192
330
13A
100
AcDbEntity
  8
ｴｸｽﾃﾘｱ商品
 62
    43
370
    20
100
AcDbVertex
100
AcDbPolyFaceMeshVertex
 10
87.80357807185396
 20
476.9360218742798
 30
441.09
 70
   192
  0
VERTEX
  5
193
330
13A
100
AcDbEntity
  8
ｴｸｽﾃﾘｱ商品
 62
    43
370
    20
100
AcDbVertex
100
AcDbPolyFaceMeshVertex
 10
3886.651578071855
 20
476.9360218742796
 30
441.09
 70
   192
  0
VERTEX
  5
194
330
13A
100
AcDbEntity
  8
ｴｸｽﾃﾘｱ商品
 62
    43
370
    20
100
AcDbVertex
100
AcDbPolyFaceMeshVertex
 10
87.96757807185394
 20
477.1000218742799
 30
441.03
 70
   192
  0
VERTEX
  5
195
330
13A
100
AcDbEntity
  8
ｴｸｽﾃﾘｱ商品
 62
    43
370
    20
100
AcDbVertex
100
AcDbPolyFaceMeshVertex
 10
3886.487578071854
 20
477.1000218742797
 30
441.03
 70
   192
  0
VERTEX
  5
196
330
13A
100
AcDbEntity
  8
ｴｸｽﾃﾘｱ商品
 62
    43
370
    20
100
AcDbVertex
100
AcDbPolyFaceMeshVertex
 10
88.14057807185394
 20
477.2730218742799
 30
441.0
 70
   192
  0
VERTEX
  5
197
330
13A
100
AcDbEntity
  8
ｴｸｽﾃﾘｱ商品
 62
    43
370
    20
100
AcDbVertex
100
AcDbPolyFaceMeshVertex
 10
3886.314578071854
 20
477.2730218742797
 30
441.0
 70
   192
  0
VERTEX
  5
198
330
13A
100
AcDbEntity
  8
ｴｸｽﾃﾘｱ商品
 62
    43
370
    20
100
AcDbFaceRecord
 10
0.0
 20
0.0
 30
0.0
 70
   128
 71
     1
 72
     2
 73
     3
 74
     4
  0
VERTEX
  5
199
330
13A
100
AcDbEntity
  8
ｴｸｽﾃﾘｱ商品
 62
    43
370
    20
100
AcDbFaceRecord
 10
0.0
 20
0.0
 30
0.0
 70
   128
 71
     5
 72
     6
 73
     2
 74
     1
  0
VERTEX
  5
19A
330
13A
100
AcDbEntity
  8
ｴｸｽﾃﾘｱ商品
 62
    43
370
    20
100
AcDbFaceRecord
 10
0.0
 20
0.0
 30
0.0
 70
   128
 71
     7
 72
     8
 73
     6
 74
     5
  0
VERTEX
  5
19B
330
13A
100
AcDbEntity
  8
ｴｸｽﾃﾘｱ商品
 62
    43
370
    20
100
AcDbFaceRecord
 10
0.0
 20
0.0
 30
0.0
 70
   128
 71
     9
 72
    10
 73
     8
 74
     7
  0
VERTEX
  5
19C
330
13A
100
AcDbEntity
  8
ｴｸｽﾃﾘｱ商品
 62
    43
370
    20
100
AcDbFaceRecord
 10
0.0
 20
0.0
 30
0.0
 70
   128
 71
    11
 72
    12
 73
    10
 74
     9
  0
VERTEX
  5
19D
330
13A
100
AcDbEntity
  8
ｴｸｽﾃﾘｱ商品
 62
    43
370
    20
100
AcDbFaceRecord
 10
0.0
 20
0.0
 30
0.0
 70
   128
 71
    13
 72
    14
 73
    12
 74
    11
  0
VERTEX
  5
19E
330
13A
100
AcDbEntity
  8
ｴｸｽﾃﾘｱ商品
 62
    43
370
    20
100
AcDbFaceRecord
 10
0.0
 20
0.0
 30
0.0
 70
   128
 71
    15
 72
    16
 73
    14
 74
    13
  0
VERTEX
  5
19F
330
13A
100
AcDbEntity
  8
ｴｸｽﾃﾘｱ商品
 62
    43
370
    20
100
AcDbFaceRecord
 10
0.0
 20
0.0
 30
0.0
 70
   128
 71
    17
 72
    18
 73
    16
 74
    15
  0
VERTEX
  5
1A0
330
13A
100
AcDbEntity
  8
ｴｸｽﾃﾘｱ商品
 62
    43
370
    20
100
AcDbFaceRecord
 10
0.0
 20
0.0
 30
0.0
 70
   128
 71
    19
 72
    20
 73
    18
 74
    17
  0
VERTEX
  5
1A1
330
13A
100
AcDbEntity
  8
ｴｸｽﾃﾘｱ商品
 62
    43
370
    20
100
AcDbFaceRecord
 10
0.0
 20
0.0
 30
0.0
 70
   128
 71
    21
 72
    22
 73
    20
 74
    19
  0
VERTEX
  5
1A2
330
13A
100
AcDbEntity
  8
ｴｸｽﾃﾘｱ商品
 62
    43
370
    20
100
AcDbFaceRecord
 10
0.0
 20
0.0
 30
0.0
 70
   128
 71
    23
 72
    24
 73
    22
 74
    21
  0
VERTEX
  5
1A3
330
13A
100
AcDbEntity
  8
ｴｸｽﾃﾘｱ商品
 62
    43
370
    20
100
AcDbFaceRecord
 10
0.0
 20
0.0
 30
0.0
 70
   128
 71
    25
 72
    26
 73
    24
 74
    23
  0
VERTEX
  5
1A4
330
13A
100
AcDbEntity
  8
ｴｸｽﾃﾘｱ商品
 62
    43
370
    20
100
AcDbFaceRecord
 10
0.0
 20
0.0
 30
0.0
 70
   128
 71
    27
 72
    28
 73
    26
 74
    25
  0
VERTEX
  5
1A5
330
13A
100
AcDbEntity
  8
ｴｸｽﾃﾘｱ商品
 62
    43
370
    20
100
AcDbFaceRecord
 10
0.0
 20
0.0
 30
0.0
 70
   128
 71
    29
 72
    30
 73
    28
 74
    27
  0
VERTEX
  5
1A6
330
13A
100
AcDbEntity
  8
ｴｸｽﾃﾘｱ商品
 62
    43
370
    20
100
AcDbFaceRecord
 10
0.0
 20
0.0
 30
0.0
 70
   128
 71
    31
 72
    32
 73
    30
 74
    29
  0
VERTEX
  5
1A7
330
13A
100
AcDbEntity
  8
ｴｸｽﾃﾘｱ商品
 62
    43
370
    20
100
AcDbFaceRecord
 10
0.0
 20
0.0
 30
0.0
 70
   128
 71
    33
 72
    34
 73
    32
 74
    31
  0
VERTEX
  5
1A8
330
13A
100
AcDbEntity
  8
ｴｸｽﾃﾘｱ商品
 62
    43
370
    20
100
AcDbFaceRecord
 10
0.0
 20
0.0
 30
0.0
 70
   128
 71
    35
 72
    36
 73
    34
 74
    33
  0
VERTEX
  5
1A9
330
13A
100
AcDbEntity
  8
ｴｸｽﾃﾘｱ商品
 62
    43
370
    20
100
AcDbFaceRecord
 10
0.0
 20
0.0
 30
0.0
 70
   128
 71
    37
 72
    38
 73
    36
 74
    35
  0
VERTEX
  5
1AA
330
13A
100
AcDbEntity
  8
ｴｸｽﾃﾘｱ商品
 62
    43
370
    20
100
AcDbFaceRecord
 10
0.0
 20
0.0
 30
0.0
 70
   128
 71
    39
 72
    40
 73
    38
 74
    37
  0
VERTEX
  5
1AB
330
13A
100
AcDbEntity
  8
ｴｸｽﾃﾘｱ商品
 62
    43
370
    20
100
AcDbFaceRecord
 10
0.0
 20
0.0
 30
0.0
 70
   128
 71
    41
 72
    42
 73
    40
 74
    39
  0
VERTEX
  5
1AC
330
13A
100
AcDbEntity
  8
ｴｸｽﾃﾘｱ商品
 62
    43
370
    20
100
AcDbFaceRecord
 10
0.0
 20
0.0
 30
0.0
 70
   128
 71
    43
 72
    44
 73
    42
 74
    41
  0
VERTEX
  5
1AD
330
13A
100
AcDbEntity
  8
ｴｸｽﾃﾘｱ商品
 62
    43
370
    20
100
AcDbFaceRecord
 10
0.0
 20
0.0
 30
0.0
 70
   128
 71
    45
 72
    46
 73
    44
 74
    43
  0
VERTEX
  5
1AE
330
13A
100
AcDbEntity
  8
ｴｸｽﾃﾘｱ商品
 62
    43
370
    20
100
AcDbFaceRecord
 10
0.0
 20
0.0
 30
0.0
 70
   128
 71
    47
 72
    48
 73
    46
 74
    45
  0
VERTEX
  5
1AF
330
13A
100
AcDbEntity
  8
ｴｸｽﾃﾘｱ商品
 62
    43
370
    20
100
AcDbFaceRecord
 10
0.0
 20
0.0
 30
0.0
 70
   128
 71
    49
 72
    50
 73
    48
 74
    47
  0
VERTEX
  5
1B0
330
13A
100
AcDbEntity
  8
ｴｸｽﾃﾘｱ商品
 62
    43
370
    20
100
AcDbFaceRecord
 10
0.0
 20
0.0
 30
0.0
 70
   128
 71
    51
 72
    52
 73
    50
 74
    49
  0
VERTEX
  5
1B1
330
13A
100
AcDbEntity
  8
ｴｸｽﾃﾘｱ商品
 62
    43
370
    20
100
AcDbFaceRecord
 10
0.0
 20
0.0
 30
0.0
 70
   128
 71
    53
 72
    54
 73
    52
 74
    51
  0
VERTEX
  5
1B2
330
13A
100
AcDbEntity
  8
ｴｸｽﾃﾘｱ商品
 62
    43
370
    20
100
AcDbFaceRecord
 10
0.0
 20
0.0
 30
0.0
 70
   128
 71
    55
 72
    56
 73
    54
 74
    53
  0
VERTEX
  5
1B3
330
13A
100
AcDbEntity
  8
ｴｸｽﾃﾘｱ商品
 62
    43
370
    20
100
AcDbFaceRecord
 10
0.0
 20
0.0
 30
0.0
 70
   128
 71
    57
 72
    58
 73
    56
 74
    55
  0
VERTEX
  5
1B4
330
13A
100
AcDbEntity
  8
ｴｸｽﾃﾘｱ商品
 62
    43
370
    20
100
AcDbFaceRecord
 10
0.0
 20
0.0
 30
0.0
 70
   128
 71
    59
 72
    60
 73
    58
 74
    57
  0
VERTEX
  5
1B5
330
13A
100
AcDbEntity
  8
ｴｸｽﾃﾘｱ商品
 62
    43
370
    20
100
AcDbFaceRecord
 10
0.0
 20
0.0
 30
0.0
 70
   128
 71
    61
 72
    62
 73
    60
 74
    59
  0
VERTEX
  5
1B6
330
13A
100
AcDbEntity
  8
ｴｸｽﾃﾘｱ商品
 62
    43
370
    20
100
AcDbFaceRecord
 10
0.0
 20
0.0
 30
0.0
 70
   128
 71
    63
 72
    64
 73
    62
 74
    61
  0
VERTEX
  5
1B7
330
13A
100
AcDbEntity
  8
ｴｸｽﾃﾘｱ商品
 62
    43
370
    20
100
AcDbFaceRecord
 10
0.0
 20
0.0
 30
0.0
 70
   128
 71
    65
 72
    66
 73
    67
 74
    68
  0
VERTEX
  5
1B8
330
13A
100
AcDbEntity
  8
ｴｸｽﾃﾘｱ商品
 62
    43
370
    20
100
AcDbFaceRecord
 10
0.0
 20
0.0
 30
0.0
 70
   128
 71
    65
 72
    68
 73
    64
 74
    63
  0
VERTEX
  5
1B9
330
13A
100
AcDbEntity
  8
ｴｸｽﾃﾘｱ商品
 62
    43
370
    20
100
AcDbFaceRecord
 10
0.0
 20
0.0
 30
0.0
 70
   128
 71
    66
 72
    69
 73
    70
 74
    67
  0
VERTEX
  5
1BA
330
13A
100
AcDbEntity
  8
ｴｸｽﾃﾘｱ商品
 62
    43
370
    20
100
AcDbFaceRecord
 10
0.0
 20
0.0
 30
0.0
 70
   128
 71
    69
 72
    71
 73
    72
 74
    70
  0
VERTEX
  5
1BB
330
13A
100
AcDbEntity
  8
ｴｸｽﾃﾘｱ商品
 62
    43
370
    20
100
AcDbFaceRecord
 10
0.0
 20
0.0
 30
0.0
 70
   128
 71
    71
 72
    73
 73
    74
 74
    72
  0
VERTEX
  5
1BC
330
13A
100
AcDbEntity
  8
ｴｸｽﾃﾘｱ商品
 62
    43
370
    20
100
AcDbFaceRecord
 10
0.0
 20
0.0
 30
0.0
 70
   128
 71
    73
 72
    75
 73
    76
 74
    77
  0
VERTEX
  5
1BD
330
13A
100
AcDbEntity
  8
ｴｸｽﾃﾘｱ商品
 62
    43
370
    20
100
AcDbFaceRecord
 10
0.0
 20
0.0
 30
0.0
 70
   128
 71
    73
 72
    77
 73
    78
 74
    74
  0
VERTEX
  5
1BE
330
13A
100
AcDbEntity
  8
ｴｸｽﾃﾘｱ商品
 62
    43
370
    20
100
AcDbFaceRecord
 10
0.0
 20
0.0
 30
0.0
 70
   128
 71
    79
 72
    80
 73
    77
 74
    76
  0
VERTEX
  5
1BF
330
13A
100
AcDbEntity
  8
ｴｸｽﾃﾘｱ商品
 62
    43
370
    20
100
AcDbFaceRecord
 10
0.0
 20
0.0
 30
0.0
 70
   128
 71
    81
 72
    82
 73
    80
 74
    79
  0
VERTEX
  5
1C0
330
13A
100
AcDbEntity
  8
ｴｸｽﾃﾘｱ商品
 62
    43
370
    20
100
AcDbFaceRecord
 10
0.0
 20
0.0
 30
0.0
 70
   128
 71
    83
 72
    84
 73
    82
 74
    81
  0
VERTEX
  5
1C1
330
13A
100
AcDbEntity
  8
ｴｸｽﾃﾘｱ商品
 62
    43
370
    20
100
AcDbFaceRecord
 10
0.0
 20
0.0
 30
0.0
 70
   128
 71
    85
 72
    86
 73
    84
 74
    83
  0
VERTEX
  5
1C2
330
13A
100
AcDbEntity
  8
ｴｸｽﾃﾘｱ商品
 62
    43
370
    20
100
AcDbFaceRecord
 10
0.0
 20
0.0
 30
0.0
 70
   128
 71
    87
 72
    88
 73
    86
 74
    85
  0
VERTEX
  5
1C3
330
13A
100
AcDbEntity
  8
ｴｸｽﾃﾘｱ商品
 62
    43
370
    20
100
AcDbFaceRecord
 10
0.0
 20
0.0
 30
0.0
 70
   128
 71
    89
 72
    90
 73
    88
 74
    87
  0
VERTEX
  5
1C4
330
13A
100
AcDbEntity
  8
ｴｸｽﾃﾘｱ商品
 62
    43
370
    20
100
AcDbFaceRecord
 10
0.0
 20
0.0
 30
0.0
 70
   128
 71
    91
 72
    92
 73
    90
 74
    89
  0
VERTEX
  5
1C5
330
13A
100
AcDbEntity
  8
ｴｸｽﾃﾘｱ商品
 62
    43
370
    20
100
AcDbFaceRecord
 10
0.0
 20
0.0
 30
0.0
 70
   128
 71
     4
 72
     3
 73
    92
 74
    91
  0
VERTEX
  5
1C6
330
13A
100
AcDbEntity
  8
ｴｸｽﾃﾘｱ商品
 62
    43
370
    20
100
AcDbFaceRecord
 10
0.0
 20
0.0
 30
0.0
 70
   128
 71
    75
 72
    73
 73
    71
 74
    69
  0
VERTEX
  5
1C7
330
13A
100
AcDbEntity
  8
ｴｸｽﾃﾘｱ商品
 62
    43
370
    20
100
AcDbFaceRecord
 10
0.0
 20
0.0
 30
0.0
 70
   128
 71
    75
 72
    69
 73
    66
 74
    65
  0
VERTEX
  5
1C8
330
13A
100
AcDbEntity
  8
ｴｸｽﾃﾘｱ商品
 62
    43
370
    20
100
AcDbFaceRecord
 10
0.0
 20
0.0
 30
0.0
 70
   128
 71
    68
 72
    67
 73
    70
 74
    72
  0
VERTEX
  5
1C9
330
13A
100
AcDbEntity
  8
ｴｸｽﾃﾘｱ商品
 62
    43
370
    20
100
AcDbFaceRecord
 10
0.0
 20
0.0
 30
0.0
 70
   128
 71
    68
 72
    72
 73
    74
 74
    78
  0
VERTEX
  5
1CA
330
13A
100
AcDbEntity
  8
ｴｸｽﾃﾘｱ商品
 62
    43
370
    20
100
AcDbFaceRecord
 10
0.0
 20
0.0
 30
0.0
 70
   128
 71
    65
 72
    63
 73
    61
 74
    59
  0
VERTEX
  5
1CB
330
13A
100
AcDbEntity
  8
ｴｸｽﾃﾘｱ商品
 62
    43
370
    20
100
AcDbFaceRecord
 10
0.0
 20
0.0
 30
0.0
 70
   128
 71
    65
 72
    59
 73
    57
 74
    55
  0
VERTEX
  5
1CC
330
13A
100
AcDbEntity
  8
ｴｸｽﾃﾘｱ商品
 62
    43
370
    20
100
AcDbFaceRecord
 10
0.0
 20
0.0
 30
0.0
 70
   128
 71
    65
 72
    55
 73
    53
 74
    51
  0
VERTEX
  5
1CD
330
13A
100
AcDbEntity
  8
ｴｸｽﾃﾘｱ商品
 62
    43
370
    20
100
AcDbFaceRecord
 10
0.0
 20
0.0
 30
0.0
 70
   128
 71
    65
 72
    51
 73
    49
 74
    47
  0
VERTEX
  5
1CE
330
13A
100
AcDbEntity
  8
ｴｸｽﾃﾘｱ商品
 62
    43
370
    20
100
AcDbFaceRecord
 10
0.0
 20
0.0
 30
0.0
 70
   128
 71
    65
 72
    47
 73
    45
 74
    43
  0
VERTEX
  5
1CF
330
13A
100
AcDbEntity
  8
ｴｸｽﾃﾘｱ商品
 62
    43
370
    20
100
AcDbFaceRecord
 10
0.0
 20
0.0
 30
0.0
 70
   128
 71
    65
 72
    43
 73
    41
 74
    39
  0
VERTEX
  5
1D0
330
13A
100
AcDbEntity
  8
ｴｸｽﾃﾘｱ商品
 62
    43
370
    20
100
AcDbFaceRecord
 10
0.0
 20
0.0
 30
0.0
 70
   128
 71
    65
 72
    39
 73
    37
 74
    35
  0
VERTEX
  5
1D1
330
13A
100
AcDbEntity
  8
ｴｸｽﾃﾘｱ商品
 62
    43
370
    20
100
AcDbFaceRecord
 10
0.0
 20
0.0
 30
0.0
 70
   128
 71
    65
 72
    35
 73
    33
 74
    31
  0
VERTEX
  5
1D2
330
13A
100
AcDbEntity
  8
ｴｸｽﾃﾘｱ商品
 62
    43
370
    20
100
AcDbFaceRecord
 10
0.0
 20
0.0
 30
0.0
 70
   128
 71
    65
 72
    31
 73
    29
 74
    27
  0
VERTEX
  5
1D3
330
13A
100
AcDbEntity
  8
ｴｸｽﾃﾘｱ商品
 62
    43
370
    20
100
AcDbFaceRecord
 10
0.0
 20
0.0
 30
0.0
 70
   128
 71
    65
 72
    27
 73
    25
 74
    23
  0
VERTEX
  5
1D4
330
13A
100
AcDbEntity
  8
ｴｸｽﾃﾘｱ商品
 62
    43
370
    20
100
AcDbFaceRecord
 10
0.0
 20
0.0
 30
0.0
 70
   128
 71
    65
 72
    23
 73
    21
 74
    19
  0
VERTEX
  5
1D5
330
13A
100
AcDbEntity
  8
ｴｸｽﾃﾘｱ商品
 62
    43
370
    20
100
AcDbFaceRecord
 10
0.0
 20
0.0
 30
0.0
 70
   128
 71
    65
 72
    19
 73
    17
 74
    15
  0
VERTEX
  5
1D6
330
13A
100
AcDbEntity
  8
ｴｸｽﾃﾘｱ商品
 62
    43
370
    20
100
AcDbFaceRecord
 10
0.0
 20
0.0
 30
0.0
 70
   128
 71
    65
 72
    15
 73
    13
 74
    11
  0
VERTEX
  5
1D7
330
13A
100
AcDbEntity
  8
ｴｸｽﾃﾘｱ商品
 62
    43
370
    20
100
AcDbFaceRecord
 10
0.0
 20
0.0
 30
0.0
 70
   128
 71
    65
 72
    11
 73
     9
 74
     7
  0
VERTEX
  5
1D8
330
13A
100
AcDbEntity
  8
ｴｸｽﾃﾘｱ商品
 62
    43
370
    20
100
AcDbFaceRecord
 10
0.0
 20
0.0
 30
0.0
 70
   128
 71
    65
 72
     7
 73
     5
 74
     1
  0
VERTEX
  5
1D9
330
13A
100
AcDbEntity
  8
ｴｸｽﾃﾘｱ商品
 62
    43
370
    20
100
AcDbFaceRecord
 10
0.0
 20
0.0
 30
0.0
 70
   128
 71
    65
 72
     1
 73
     4
 74
    91
  0
VERTEX
  5
1DA
330
13A
100
AcDbEntity
  8
ｴｸｽﾃﾘｱ商品
 62
    43
370
    20
100
AcDbFaceRecord
 10
0.0
 20
0.0
 30
0.0
 70
   128
 71
    65
 72
    91
 73
    89
 74
    87
  0
VERTEX
  5
1DB
330
13A
100
AcDbEntity
  8
ｴｸｽﾃﾘｱ商品
 62
    43
370
    20
100
AcDbFaceRecord
 10
0.0
 20
0.0
 30
0.0
 70
   128
 71
    65
 72
    87
 73
    85
 74
    83
  0
VERTEX
  5
1DC
330
13A
100
AcDbEntity
  8
ｴｸｽﾃﾘｱ商品
 62
    43
370
    20
100
AcDbFaceRecord
 10
0.0
 20
0.0
 30
0.0
 70
   128
 71
    65
 72
    83
 73
    81
 74
    79
  0
VERTEX
  5
1DD
330
13A
100
AcDbEntity
  8
ｴｸｽﾃﾘｱ商品
 62
    43
370
    20
100
AcDbFaceRecord
 10
0.0
 20
0.0
 30
0.0
 70
   128
 71
    65
 72
    79
 73
    76
 74
    75
  0
VERTEX
  5
1DE
330
13A
100
AcDbEntity
  8
ｴｸｽﾃﾘｱ商品
 62
    43
370
    20
100
AcDbFaceRecord
 10
0.0
 20
0.0
 30
0.0
 70
   128
 71
    68
 72
    78
 73
    77
 74
    80
  0
VERTEX
  5
1DF
330
13A
100
AcDbEntity
  8
ｴｸｽﾃﾘｱ商品
 62
    43
370
    20
100
AcDbFaceRecord
 10
0.0
 20
0.0
 30
0.0
 70
   128
 71
    68
 72
    80
 73
    82
 74
    84
  0
VERTEX
  5
1E0
330
13A
100
AcDbEntity
  8
ｴｸｽﾃﾘｱ商品
 62
    43
370
    20
100
AcDbFaceRecord
 10
0.0
 20
0.0
 30
0.0
 70
   128
 71
    68
 72
    84
 73
    86
 74
    88
  0
VERTEX
  5
1E1
330
13A
100
AcDbEntity
  8
ｴｸｽﾃﾘｱ商品
 62
    43
370
    20
100
AcDbFaceRecord
 10
0.0
 20
0.0
 30
0.0
 70
   128
 71
    68
 72
    88
 73
    90
 74
    92
  0
VERTEX
  5
1E2
330
13A
100
AcDbEntity
  8
ｴｸｽﾃﾘｱ商品
 62
    43
370
    20
100
AcDbFaceRecord
 10
0.0
 20
0.0
 30
0.0
 70
   128
 71
    68
 72
    92
 73
     3
 74
     2
  0
VERTEX
  5
1E3
330
13A
100
AcDbEntity
  8
ｴｸｽﾃﾘｱ商品
 62
    43
370
    20
100
AcDbFaceRecord
 10
0.0
 20
0.0
 30
0.0
 70
   128
 71
    68
 72
     2
 73
     6
 74
     8
  0
VERTEX
  5
1E4
330
13A
100
AcDbEntity
  8
ｴｸｽﾃﾘｱ商品
 62
    43
370
    20
100
AcDbFaceRecord
 10
0.0
 20
0.0
 30
0.0
 70
   128
 71
    68
 72
     8
 73
    10
 74
    12
  0
VERTEX
  5
1E5
330
13A
100
AcDbEntity
  8
ｴｸｽﾃﾘｱ商品
 62
    43
370
    20
100
AcDbFaceRecord
 10
0.0
 20
0.0
 30
0.0
 70
   128
 71
    68
 72
    12
 73
    14
 74
    16
  0
VERTEX
  5
1E6
330
13A
100
AcDbEntity
  8
ｴｸｽﾃﾘｱ商品
 62
    43
370
    20
100
AcDbFaceRecord
 10
0.0
 20
0.0
 30
0.0
 70
   128
 71
    68
 72
    16
 73
    18
 74
    20
  0
VERTEX
  5
1E7
330
13A
100
AcDbEntity
  8
ｴｸｽﾃﾘｱ商品
 62
    43
370
    20
100
AcDbFaceRecord
 10
0.0
 20
0.0
 30
0.0
 70
   128
 71
    68
 72
    20
 73
    22
 74
    24
  0
VERTEX
  5
1E8
330
13A
100
AcDbEntity
  8
ｴｸｽﾃﾘｱ商品
 62
    43
370
    20
100
AcDbFaceRecord
 10
0.0
 20
0.0
 30
0.0
 70
   128
 71
    68
 72
    24
 73
    26
 74
    28
  0
VERTEX
  5
1E9
330
13A
100
AcDbEntity
  8
ｴｸｽﾃﾘｱ商品
 62
    43
370
    20
100
AcDbFaceRecord
 10
0.0
 20
0.0
 30
0.0
 70
   128
 71
    68
 72
    28
 73
    30
 74
    32
  0
VERTEX
  5
1EA
330
13A
100
AcDbEntity
  8
ｴｸｽﾃﾘｱ商品
 62
    43
370
    20
100
AcDbFaceRecord
 10
0.0
 20
0.0
 30
0.0
 70
   128
 71
    68
 72
    32
 73
    34
 74
    36
  0
VERTEX
  5
1EB
330
13A
100
AcDbEntity
  8
ｴｸｽﾃﾘｱ商品
 62
    43
370
    20
100
AcDbFaceRecord
 10
0.0
 20
0.0
 30
0.0
 70
   128
 71
    68
 72
    36
 73
    38
 74
    40
  0
VERTEX
  5
1EC
330
13A
100
AcDbEntity
  8
ｴｸｽﾃﾘｱ商品
 62
    43
370
    20
100
AcDbFaceRecord
 10
0.0
 20
0.0
 30
0.0
 70
   128
 71
    68
 72
    40
 73
    42
 74
    44
  0
VERTEX
  5
1ED
330
13A
100
AcDbEntity
  8
ｴｸｽﾃﾘｱ商品
 62
    43
370
    20
100
AcDbFaceRecord
 10
0.0
 20
0.0
 30
0.0
 70
   128
 71
    68
 72
    44
 73
    46
 74
    48
  0
VERTEX
  5
1EE
330
13A
100
AcDbEntity
  8
ｴｸｽﾃﾘｱ商品
 62
    43
370
    20
100
AcDbFaceRecord
 10
0.0
 20
0.0
 30
0.0
 70
   128
 71
    68
 72
    48
 73
    50
 74
    52
  0
VERTEX
  5
1EF
330
13A
100
AcDbEntity
  8
ｴｸｽﾃﾘｱ商品
 62
    43
370
    20
100
AcDbFaceRecord
 10
0.0
 20
0.0
 30
0.0
 70
   128
 71
    68
 72
    52
 73
    54
 74
    56
  0
VERTEX
  5
1F0
330
13A
100
AcDbEntity
  8
ｴｸｽﾃﾘｱ商品
 62
    43
370
    20
100
AcDbFaceRecord
 10
0.0
 20
0.0
 30
0.0
 70
   128
 71
    68
 72
    56
 73
    58
 74
    60
  0
VERTEX
  5
1F1
330
13A
100
AcDbEntity
  8
ｴｸｽﾃﾘｱ商品
 62
    43
370
    20
100
AcDbFaceRecord
 10
0.0
 20
0.0
 30
0.0
 70
   128
 71
    68
 72
    60
 73
    62
 74
    64
  0
SEQEND
  5
13B
330
13A
100
AcDbEntity
  8
ｴｸｽﾃﾘｱ商品
370
    20
  0
POLYLINE
  5
1F2
330
3C
100
AcDbEntity
  8
ｴｸｽﾃﾘｱ商品
 62
   253
370
    20
100
AcDbPolyFaceMesh
 66
     1
 10
0.0
 20
0.0
 30
0.0
 70
    64
 71
    16
 72
    18
  0
VERTEX
  5
1F4
330
1F2
100
AcDbEntity
  8
ｴｸｽﾃﾘｱ商品
 62
   253
370
    20
100
AcDbVertex
100
AcDbPolyFaceMeshVertex
 10
192.227578071854
 20
2041.36002187428
 30
11.0
 70
   192
  0
VERTEX
  5
1F5
330
1F2
100
AcDbEntity
  8
ｴｸｽﾃﾘｱ商品
 62
   253
370
    20
100
AcDbVertex
100
AcDbPolyFaceMeshVertex
 10
173.727578071854
 20
2041.36002187428
 30
11.0
 70
   192
  0
VERTEX
  5
1F6
330
1F2
100
AcDbEntity
  8
ｴｸｽﾃﾘｱ商品
 62
   253
370
    20
100
AcDbVertex
100
AcDbPolyFaceMeshVertex
 10
173.727578071854
 20
2041.36002187428
 30
441.0
 70
   192
  0
VERTEX
  5
1F7
330
1F2
100
AcDbEntity
  8
ｴｸｽﾃﾘｱ商品
 62
   253
370
    20
100
AcDbVertex
100
AcDbPolyFaceMeshVertex
 10
192.227578071854
 20
2041.36002187428
 30
441.0
 70
   192
  0
VERTEX
  5
1F8
330
1F2
100
AcDbEntity
  8
ｴｸｽﾃﾘｱ商品
 62
   253
370
    20
100
AcDbVertex
100
AcDbPolyFaceMeshVertex
 10
173.727578071854
 20
2044.86002187428
 30
11.0
 70
   192
  0
VERTEX
  5
1F9
330
1F2
100
AcDbEntity
  8
ｴｸｽﾃﾘｱ商品
 62
   253
370
    20
100
AcDbVertex
100
AcDbPolyFaceMeshVertex
 10
173.727578071854
 20
2044.86002187428
 30
441.0
 70
   192
  0
VERTEX
  5
1FA
330
1F2
100
AcDbEntity
  8
ｴｸｽﾃﾘｱ商品
 62
   253
370
    20
100
AcDbVertex
100
AcDbPolyFaceMeshVertex
 10
137.227578071854
 20
2044.86002187428
 30
11.0
 70
   192
  0
VERTEX
  5
1FB
330
1F2
100
AcDbEntity
  8
ｴｸｽﾃﾘｱ商品
 62
   253
370
    20
100
AcDbVertex
100
AcDbPolyFaceMeshVertex
 10
137.227578071854
 20
2044.86002187428
 30
441.0
 70
   192
  0
VERTEX
  5
1FC
330
1F2
100
AcDbEntity
  8
ｴｸｽﾃﾘｱ商品
 62
   253
370
    20
100
AcDbVertex
100
AcDbPolyFaceMeshVertex
 10
137.227578071854
 20
2007.86002187428
 30
11.0
 70
   192
  0
VERTEX
  5
1FD
330
1F2
100
AcDbEntity
  8
ｴｸｽﾃﾘｱ商品
 62
   253
370
    20
100
AcDbVertex
100
AcDbPolyFaceMeshVertex
 10
137.227578071854
 20
2007.86002187428
 30
441.0
 70
   192
  0
VERTEX
  5
1FE
330
1F2
100
AcDbEntity
  8
ｴｸｽﾃﾘｱ商品
 62
   253
370
    20
100
AcDbVertex
100
AcDbPolyFaceMeshVertex
 10
173.727578071854
 20
2007.86002187428
 30
11.0
 70
   192
  0
VERTEX
  5
1FF
330
1F2
100
AcDbEntity
  8
ｴｸｽﾃﾘｱ商品
 62
   253
370
    20
100
AcDbVertex
100
AcDbPolyFaceMeshVertex
 10
173.727578071854
 20
2007.86002187428
 30
441.0
 70
   192
  0
VERTEX
  5
200
330
1F2
100
AcDbEntity
  8
ｴｸｽﾃﾘｱ商品
 62
   253
370
    20
100
AcDbVertex
100
AcDbPolyFaceMeshVertex
 10
173.727578071854
 20
2011.360021874279
 30
11.0
 70
   192
  0
VERTEX
  5
201
330
1F2
100
AcDbEntity
  8
ｴｸｽﾃﾘｱ商品
 62
   253
370
    20
100
AcDbVertex
100
AcDbPolyFaceMeshVertex
 10
173.727578071854
 20
2011.360021874279
 30
441.0
 70
   192
  0
VERTEX
  5
202
330
1F2
100
AcDbEntity
  8
ｴｸｽﾃﾘｱ商品
 62
   253
370
    20
100
AcDbVertex
100
AcDbPolyFaceMeshVertex
 10
192.227578071854
 20
2011.360021874279
 30
11.0
 70
   192
  0
VERTEX
  5
203
330
1F2
100
AcDbEntity
  8
ｴｸｽﾃﾘｱ商品
 62
   253
370
    20
100
AcDbVertex
100
AcDbPolyFaceMeshVertex
 10
192.227578071854
 20
2011.360021874279
 30
441.0
 70
   192
  0
VERTEX
  5
204
330
1F2
100
AcDbEntity
  8
ｴｸｽﾃﾘｱ商品
 62
   253
370
    20
100
AcDbFaceRecord
 10
0.0
 20
0.0
 30
0.0
 70
   128
 71
     1
 72
     2
 73
     3
 74
     4
  0
VERTEX
  5
205
330
1F2
100
AcDbEntity
  8
ｴｸｽﾃﾘｱ商品
 62
   253
370
    20
100
AcDbFaceRecord
 10
0.0
 20
0.0
 30
0.0
 70
   128
 71
     2
 72
     5
 73
     6
 74
     3
  0
VERTEX
  5
206
330
1F2
100
AcDbEntity
  8
ｴｸｽﾃﾘｱ商品
 62
   253
370
    20
100
AcDbFaceRecord
 10
0.0
 20
0.0
 30
0.0
 70
   128
 71
     5
 72
     7
 73
     8
 74
     6
  0
VERTEX
  5
207
330
1F2
100
AcDbEntity
  8
ｴｸｽﾃﾘｱ商品
 62
   253
370
    20
100
AcDbFaceRecord
 10
0.0
 20
0.0
 30
0.0
 70
   128
 71
     7
 72
     9
 73
    10
 74
     8
  0
VERTEX
  5
208
330
1F2
100
AcDbEntity
  8
ｴｸｽﾃﾘｱ商品
 62
   253
370
    20
100
AcDbFaceRecord
 10
0.0
 20
0.0
 30
0.0
 70
   128
 71
     9
 72
    11
 73
    12
 74
    10
  0
VERTEX
  5
209
330
1F2
100
AcDbEntity
  8
ｴｸｽﾃﾘｱ商品
 62
   253
370
    20
100
AcDbFaceRecord
 10
0.0
 20
0.0
 30
0.0
 70
   128
 71
    11
 72
    13
 73
    14
 74
    12
  0
VERTEX
  5
20A
330
1F2
100
AcDbEntity
  8
ｴｸｽﾃﾘｱ商品
 62
   253
370
    20
100
AcDbFaceRecord
 10
0.0
 20
0.0
 30
0.0
 70
   128
 71
    13
 72
    15
 73
    16
 74
    14
  0
VERTEX
  5
20B
330
1F2
100
AcDbEntity
  8
ｴｸｽﾃﾘｱ商品
 62
   253
370
    20
100
AcDbFaceRecord
 10
0.0
 20
0.0
 30
0.0
 70
   128
 71
    15
 72
     1
 73
     4
 74
    16
  0
VERTEX
  5
20C
330
1F2
100
AcDbEntity
  8
ｴｸｽﾃﾘｱ商品
 62
   253
370
    20
100
AcDbFaceRecord
 10
0.0
 20
0.0
 30
0.0
 70
   128
 71
    13
 72
    11
 73
     9
  0
VERTEX
  5
20D
330
1F2
100
AcDbEntity
  8
ｴｸｽﾃﾘｱ商品
 62
   253
370
    20
100
AcDbFaceRecord
 10
0.0
 20
0.0
 30
0.0
 70
   128
 71
    13
 72
     9
 73
     7
  0
VERTEX
  5
20E
330
1F2
100
AcDbEntity
  8
ｴｸｽﾃﾘｱ商品
 62
   253
370
    20
100
AcDbFaceRecord
 10
0.0
 20
0.0
 30
0.0
 70
   128
 71
    13
 72
     7
 73
     5
  0
VERTEX
  5
20F
330
1F2
100
AcDbEntity
  8
ｴｸｽﾃﾘｱ商品
 62
   253
370
    20
100
AcDbFaceRecord
 10
0.0
 20
0.0
 30
0.0
 70
   128
 71
    15
 72
    13
 73
     2
  0
VERTEX
  5
210
330
1F2
100
AcDbEntity
  8
ｴｸｽﾃﾘｱ商品
 62
   253
370
    20
100
AcDbFaceRecord
 10
0.0
 20
0.0
 30
0.0
 70
   128
 71
    15
 72
     2
 73
     1
  0
VERTEX
  5
211
330
1F2
100
AcDbEntity
  8
ｴｸｽﾃﾘｱ商品
 62
   253
370
    20
100
AcDbFaceRecord
 10
0.0
 20
0.0
 30
0.0
 70
   128
 71
     3
 72
     6
 73
     8
  0
VERTEX
  5
212
330
1F2
100
AcDbEntity
  8
ｴｸｽﾃﾘｱ商品
 62
   253
370
    20
100
AcDbFaceRecord
 10
0.0
 20
0.0
 30
0.0
 70
   128
 71
     3
 72
     8
 73
    10
  0
VERTEX
  5
213
330
1F2
100
AcDbEntity
  8
ｴｸｽﾃﾘｱ商品
 62
   253
370
    20
100
AcDbFaceRecord
 10
0.0
 20
0.0
 30
0.0
 70
   128
 71
     3
 72
    10
 73
    12
  0
VERTEX
  5
214
330
1F2
100
AcDbEntity
  8
ｴｸｽﾃﾘｱ商品
 62
   253
370
    20
100
AcDbFaceRecord
 10
0.0
 20
0.0
 30
0.0
 70
   128
 71
     4
 72
     3
 73
    14
  0
VERTEX
  5
215
330
1F2
100
AcDbEntity
  8
ｴｸｽﾃﾘｱ商品
 62
   253
370
    20
100
AcDbFaceRecord
 10
0.0
 20
0.0
 30
0.0
 70
   128
 71
     4
 72
    14
 73
    16
  0
SEQEND
  5
1F3
330
1F2
100
AcDbEntity
  8
ｴｸｽﾃﾘｱ商品
370
    20
  0
POLYLINE
  5
216
330
3C
100
AcDbEntity
  8
ｴｸｽﾃﾘｱ商品
 62
   253
370
    20
100
AcDbPolyFaceMesh
 66
     1
 10
0.0
 20
0.0
 30
0.0
 70
    64
 71
    16
 72
    18
  0
VERTEX
  5
218
330
216
100
AcDbEntity
  8
ｴｸｽﾃﾘｱ商品
 62
   253
370
    20
100
AcDbVertex
100
AcDbPolyFaceMeshVertex
 10
192.227578071854
 20
771.3600218742798
 30
11.0
 70
   192
  0
VERTEX
  5
219
330
216
100
AcDbEntity
  8
ｴｸｽﾃﾘｱ商品
 62
   253
370
    20
100
AcDbVertex
100
AcDbPolyFaceMeshVertex
 10
173.7275780718541
 20
771.3600218742798
 30
11.0
 70
   192
  0
VERTEX
  5
21A
330
216
100
AcDbEntity
  8
ｴｸｽﾃﾘｱ商品
 62
   253
370
    20
100
AcDbVertex
100
AcDbPolyFaceMeshVertex
 10
173.7275780718541
 20
771.3600218742798
 30
441.0
 70
   192
  0
VERTEX
  5
21B
330
216
100
AcDbEntity
  8
ｴｸｽﾃﾘｱ商品
 62
   253
370
    20
100
AcDbVertex
100
AcDbPolyFaceMeshVertex
 10
192.227578071854
 20
771.3600218742798
 30
441.0
 70
   192
  0
VERTEX
  5
21C
330
216
100
AcDbEntity
  8
ｴｸｽﾃﾘｱ商品
 62
   253
370
    20
100
AcDbVertex
100
AcDbPolyFaceMeshVertex
 10
173.7275780718541
 20
774.8600218742798
 30
11.0
 70
   192
  0
VERTEX
  5
21D
330
216
100
AcDbEntity
  8
ｴｸｽﾃﾘｱ商品
 62
   253
370
    20
100
AcDbVertex
100
AcDbPolyFaceMeshVertex
 10
173.7275780718541
 20
774.8600218742798
 30
441.0
 70
   192
  0
VERTEX
  5
21E
330
216
100
AcDbEntity
  8
ｴｸｽﾃﾘｱ商品
 62
   253
370
    20
100
AcDbVertex
100
AcDbPolyFaceMeshVertex
 10
137.227578071854
 20
774.8600218742798
 30
11.0
 70
   192
  0
VERTEX
  5
21F
330
216
100
AcDbEntity
  8
ｴｸｽﾃﾘｱ商品
 62
   253
370
    20
100
AcDbVertex
100
AcDbPolyFaceMeshVertex
 10
137.227578071854
 20
774.8600218742798
 30
441.0
 70
   192
  0
VERTEX
  5
220
330
216
100
AcDbEntity
  8
ｴｸｽﾃﾘｱ商品
 62
   253
370
    20
100
AcDbVertex
100
AcDbPolyFaceMeshVertex
 10
137.227578071854
 20
737.8600218742799
 30
11.0
 70
   192
  0
VERTEX
  5
221
330
216
100
AcDbEntity
  8
ｴｸｽﾃﾘｱ商品
 62
   253
370
    20
100
AcDbVertex
100
AcDbPolyFaceMeshVertex
 10
137.227578071854
 20
737.8600218742799
 30
441.0
 70
   192
  0
VERTEX
  5
222
330
216
100
AcDbEntity
  8
ｴｸｽﾃﾘｱ商品
 62
   253
370
    20
100
AcDbVertex
100
AcDbPolyFaceMeshVertex
 10
173.7275780718541
 20
737.8600218742799
 30
11.0
 70
   192
  0
VERTEX
  5
223
330
216
100
AcDbEntity
  8
ｴｸｽﾃﾘｱ商品
 62
   253
370
    20
100
AcDbVertex
100
AcDbPolyFaceMeshVertex
 10
173.7275780718541
 20
737.8600218742799
 30
441.0
 70
   192
  0
VERTEX
  5
224
330
216
100
AcDbEntity
  8
ｴｸｽﾃﾘｱ商品
 62
   253
370
    20
100
AcDbVertex
100
AcDbPolyFaceMeshVertex
 10
173.7275780718541
 20
741.3600218742798
 30
11.0
 70
   192
  0
VERTEX
  5
225
330
216
100
AcDbEntity
  8
ｴｸｽﾃﾘｱ商品
 62
   253
370
    20
100
AcDbVertex
100
AcDbPolyFaceMeshVertex
 10
173.7275780718541
 20
741.3600218742798
 30
441.0
 70
   192
  0
VERTEX
  5
226
330
216
100
AcDbEntity
  8
ｴｸｽﾃﾘｱ商品
 62
   253
370
    20
100
AcDbVertex
100
AcDbPolyFaceMeshVertex
 10
192.227578071854
 20
741.3600218742798
 30
11.0
 70
   192
  0
VERTEX
  5
227
330
216
100
AcDbEntity
  8
ｴｸｽﾃﾘｱ商品
 62
   253
370
    20
100
AcDbVertex
100
AcDbPolyFaceMeshVertex
 10
192.227578071854
 20
741.3600218742798
 30
441.0
 70
   192
  0
VERTEX
  5
228
330
216
100
AcDbEntity
  8
ｴｸｽﾃﾘｱ商品
 62
   253
370
    20
100
AcDbFaceRecord
 10
0.0
 20
0.0
 30
0.0
 70
   128
 71
     1
 72
     2
 73
     3
 74
     4
  0
VERTEX
  5
229
330
216
100
AcDbEntity
  8
ｴｸｽﾃﾘｱ商品
 62
   253
370
    20
100
AcDbFaceRecord
 10
0.0
 20
0.0
 30
0.0
 70
   128
 71
     2
 72
     5
 73
     6
 74
     3
  0
VERTEX
  5
22A
330
216
100
AcDbEntity
  8
ｴｸｽﾃﾘｱ商品
 62
   253
370
    20
100
AcDbFaceRecord
 10
0.0
 20
0.0
 30
0.0
 70
   128
 71
     5
 72
     7
 73
     8
 74
     6
  0
VERTEX
  5
22B
330
216
100
AcDbEntity
  8
ｴｸｽﾃﾘｱ商品
 62
   253
370
    20
100
AcDbFaceRecord
 10
0.0
 20
0.0
 30
0.0
 70
   128
 71
     7
 72
     9
 73
    10
 74
     8
  0
VERTEX
  5
22C
330
216
100
AcDbEntity
  8
ｴｸｽﾃﾘｱ商品
 62
   253
370
    20
100
AcDbFaceRecord
 10
0.0
 20
0.0
 30
0.0
 70
   128
 71
     9
 72
    11
 73
    12
 74
    10
  0
VERTEX
  5
22D
330
216
100
AcDbEntity
  8
ｴｸｽﾃﾘｱ商品
 62
   253
370
    20
100
AcDbFaceRecord
 10
0.0
 20
0.0
 30
0.0
 70
   128
 71
    11
 72
    13
 73
    14
 74
    12
  0
VERTEX
  5
22E
330
216
100
AcDbEntity
  8
ｴｸｽﾃﾘｱ商品
 62
   253
370
    20
100
AcDbFaceRecord
 10
0.0
 20
0.0
 30
0.0
 70
   128
 71
    13
 72
    15
 73
    16
 74
    14
  0
VERTEX
  5
22F
330
216
100
AcDbEntity
  8
ｴｸｽﾃﾘｱ商品
 62
   253
370
    20
100
AcDbFaceRecord
 10
0.0
 20
0.0
 30
0.0
 70
   128
 71
    15
 72
     1
 73
     4
 74
    16
  0
VERTEX
  5
230
330
216
100
AcDbEntity
  8
ｴｸｽﾃﾘｱ商品
 62
   253
370
    20
100
AcDbFaceRecord
 10
0.0
 20
0.0
 30
0.0
 70
   128
 71
    13
 72
    11
 73
     9
  0
VERTEX
  5
231
330
216
100
AcDbEntity
  8
ｴｸｽﾃﾘｱ商品
 62
   253
370
    20
100
AcDbFaceRecord
 10
0.0
 20
0.0
 30
0.0
 70
   128
 71
    13
 72
     9
 73
     7
  0
VERTEX
  5
232
330
216
100
AcDbEntity
  8
ｴｸｽﾃﾘｱ商品
 62
   253
370
    20
100
AcDbFaceRecord
 10
0.0
 20
0.0
 30
0.0
 70
   128
 71
    13
 72
     7
 73
     5
  0
VERTEX
  5
233
330
216
100
AcDbEntity
  8
ｴｸｽﾃﾘｱ商品
 62
   253
370
    20
100
AcDbFaceRecord
 10
0.0
 20
0.0
 30
0.0
 70
   128
 71
    15
 72
    13
 73
     2
  0
VERTEX
  5
234
330
216
100
AcDbEntity
  8
ｴｸｽﾃﾘｱ商品
 62
   253
370
    20
100
AcDbFaceRecord
 10
0.0
 20
0.0
 30
0.0
 70
   128
 71
    15
 72
     2
 73
     1
  0
VERTEX
  5
235
330
216
100
AcDbEntity
  8
ｴｸｽﾃﾘｱ商品
 62
   253
370
    20
100
AcDbFaceRecord
 10
0.0
 20
0.0
 30
0.0
 70
   128
 71
     3
 72
     6
 73
     8
  0
VERTEX
  5
236
330
216
100
AcDbEntity
  8
ｴｸｽﾃﾘｱ商品
 62
   253
370
    20
100
AcDbFaceRecord
 10
0.0
 20
0.0
 30
0.0
 70
   128
 71
     3
 72
     8
 73
    10
  0
VERTEX
  5
237
330
216
100
AcDbEntity
  8
ｴｸｽﾃﾘｱ商品
 62
   253
370
    20
100
AcDbFaceRecord
 10
0.0
 20
0.0
 30
0.0
 70
   128
 71
     3
 72
    10
 73
    12
  0
VERTEX
  5
238
330
216
100
AcDbEntity
  8
ｴｸｽﾃﾘｱ商品
 62
   253
370
    20
100
AcDbFaceRecord
 10
0.0
 20
0.0
 30
0.0
 70
   128
 71
     4
 72
     3
 73
    14
  0
VERTEX
  5
239
330
216
100
AcDbEntity
  8
ｴｸｽﾃﾘｱ商品
 62
   253
370
    20
100
AcDbFaceRecord
 10
0.0
 20
0.0
 30
0.0
 70
   128
 71
     4
 72
    14
 73
    16
  0
SEQEND
  5
217
330
216
100
AcDbEntity
  8
ｴｸｽﾃﾘｱ商品
370
    20
  0
POLYLINE
  5
23A
330
3C
100
AcDbEntity
  8
ｴｸｽﾃﾘｱ商品
 62
   253
370
    20
100
AcDbPolyFaceMesh
 66
     1
 10
0.0
 20
0.0
 30
0.0
 70
    64
 71
    16
 72
    18
  0
VERTEX
  5
23C
330
23A
100
AcDbEntity
  8
ｴｸｽﾃﾘｱ商品
 62
   253
370
    20
100
AcDbVertex
100
AcDbPolyFaceMeshVertex
 10
192.227578071854
 20
1406.36002187428
 30
11.0
 70
   192
  0
VERTEX
  5
23D
330
23A
100
AcDbEntity
  8
ｴｸｽﾃﾘｱ商品
 62
   253
370
    20
100
AcDbVertex
100
AcDbPolyFaceMeshVertex
 10
173.727578071854
 20
1406.36002187428
 30
11.0
 70
   192
  0
VERTEX
  5
23E
330
23A
100
AcDbEntity
  8
ｴｸｽﾃﾘｱ商品
 62
   253
370
    20
100
AcDbVertex
100
AcDbPolyFaceMeshVertex
 10
173.727578071854
 20
1406.36002187428
 30
441.0
 70
   192
  0
VERTEX
  5
23F
330
23A
100
AcDbEntity
  8
ｴｸｽﾃﾘｱ商品
 62
   253
370
    20
100
AcDbVertex
100
AcDbPolyFaceMeshVertex
 10
192.227578071854
 20
1406.36002187428
 30
441.0
 70
   192
  0
VERTEX
  5
240
330
23A
100
AcDbEntity
  8
ｴｸｽﾃﾘｱ商品
 62
   253
370
    20
100
AcDbVertex
100
AcDbPolyFaceMeshVertex
 10
173.727578071854
 20
1409.86002187428
 30
11.0
 70
   192
  0
VERTEX
  5
241
330
23A
100
AcDbEntity
  8
ｴｸｽﾃﾘｱ商品
 62
   253
370
    20
100
AcDbVertex
100
AcDbPolyFaceMeshVertex
 10
173.727578071854
 20
1409.86002187428
 30
441.0
 70
   192
  0
VERTEX
  5
242
330
23A
100
AcDbEntity
  8
ｴｸｽﾃﾘｱ商品
 62
   253
370
    20
100
AcDbVertex
100
AcDbPolyFaceMeshVertex
 10
137.227578071854
 20
1409.86002187428
 30
11.0
 70
   192
  0
VERTEX
  5
243
330
23A
100
AcDbEntity
  8
ｴｸｽﾃﾘｱ商品
 62
   253
370
    20
100
AcDbVertex
100
AcDbPolyFaceMeshVertex
 10
137.227578071854
 20
1409.86002187428
 30
441.0
 70
   192
  0
VERTEX
  5
244
330
23A
100
AcDbEntity
  8
ｴｸｽﾃﾘｱ商品
 62
   253
370
    20
100
AcDbVertex
100
AcDbPolyFaceMeshVertex
 10
137.227578071854
 20
1372.86002187428
 30
11.0
 70
   192
  0
VERTEX
  5
245
330
23A
100
AcDbEntity
  8
ｴｸｽﾃﾘｱ商品
 62
   253
370
    20
100
AcDbVertex
100
AcDbPolyFaceMeshVertex
 10
137.227578071854
 20
1372.86002187428
 30
441.0
 70
   192
  0
VERTEX
  5
246
330
23A
100
AcDbEntity
  8
ｴｸｽﾃﾘｱ商品
 62
   253
370
    20
100
AcDbVertex
100
AcDbPolyFaceMeshVertex
 10
173.727578071854
 20
1372.86002187428
 30
11.0
 70
   192
  0
VERTEX
  5
247
330
23A
100
AcDbEntity
  8
ｴｸｽﾃﾘｱ商品
 62
   253
370
    20
100
AcDbVertex
100
AcDbPolyFaceMeshVertex
 10
173.727578071854
 20
1372.86002187428
 30
441.0
 70
   192
  0
VERTEX
  5
248
330
23A
100
AcDbEntity
  8
ｴｸｽﾃﾘｱ商品
 62
   253
370
    20
100
AcDbVertex
100
AcDbPolyFaceMeshVertex
 10
173.727578071854
 20
1376.36002187428
 30
11.0
 70
   192
  0
VERTEX
  5
249
330
23A
100
AcDbEntity
  8
ｴｸｽﾃﾘｱ商品
 62
   253
370
    20
100
AcDbVertex
100
AcDbPolyFaceMeshVertex
 10
173.727578071854
 20
1376.36002187428
 30
441.0
 70
   192
  0
VERTEX
  5
24A
330
23A
100
AcDbEntity
  8
ｴｸｽﾃﾘｱ商品
 62
   253
370
    20
100
AcDbVertex
100
AcDbPolyFaceMeshVertex
 10
192.227578071854
 20
1376.36002187428
 30
11.0
 70
   192
  0
VERTEX
  5
24B
330
23A
100
AcDbEntity
  8
ｴｸｽﾃﾘｱ商品
 62
   253
370
    20
100
AcDbVertex
100
AcDbPolyFaceMeshVertex
 10
192.227578071854
 20
1376.36002187428
 30
441.0
 70
   192
  0
VERTEX
  5
24C
330
23A
100
AcDbEntity
  8
ｴｸｽﾃﾘｱ商品
 62
   253
370
    20
100
AcDbFaceRecord
 10
0.0
 20
0.0
 30
0.0
 70
   128
 71
     1
 72
     2
 73
     3
 74
     4
  0
VERTEX
  5
24D
330
23A
100
AcDbEntity
  8
ｴｸｽﾃﾘｱ商品
 62
   253
370
    20
100
AcDbFaceRecord
 10
0.0
 20
0.0
 30
0.0
 70
   128
 71
     2
 72
     5
 73
     6
 74
     3
  0
VERTEX
  5
24E
330
23A
100
AcDbEntity
  8
ｴｸｽﾃﾘｱ商品
 62
   253
370
    20
100
AcDbFaceRecord
 10
0.0
 20
0.0
 30
0.0
 70
   128
 71
     5
 72
     7
 73
     8
 74
     6
  0
VERTEX
  5
24F
330
23A
100
AcDbEntity
  8
ｴｸｽﾃﾘｱ商品
 62
   253
370
    20
100
AcDbFaceRecord
 10
0.0
 20
0.0
 30
0.0
 70
   128
 71
     7
 72
     9
 73
    10
 74
     8
  0
VERTEX
  5
250
330
23A
100
AcDbEntity
  8
ｴｸｽﾃﾘｱ商品
 62
   253
370
    20
100
AcDbFaceRecord
 10
0.0
 20
0.0
 30
0.0
 70
   128
 71
     9
 72
    11
 73
    12
 74
    10
  0
VERTEX
  5
251
330
23A
100
AcDbEntity
  8
ｴｸｽﾃﾘｱ商品
 62
   253
370
    20
100
AcDbFaceRecord
 10
0.0
 20
0.0
 30
0.0
 70
   128
 71
    11
 72
    13
 73
    14
 74
    12
  0
VERTEX
  5
252
330
23A
100
AcDbEntity
  8
ｴｸｽﾃﾘｱ商品
 62
   253
370
    20
100
AcDbFaceRecord
 10
0.0
 20
0.0
 30
0.0
 70
   128
 71
    13
 72
    15
 73
    16
 74
    14
  0
VERTEX
  5
253
330
23A
100
AcDbEntity
  8
ｴｸｽﾃﾘｱ商品
 62
   253
370
    20
100
AcDbFaceRecord
 10
0.0
 20
0.0
 30
0.0
 70
   128
 71
    15
 72
     1
 73
     4
 74
    16
  0
VERTEX
  5
254
330
23A
100
AcDbEntity
  8
ｴｸｽﾃﾘｱ商品
 62
   253
370
    20
100
AcDbFaceRecord
 10
0.0
 20
0.0
 30
0.0
 70
   128
 71
    13
 72
    11
 73
     9
  0
VERTEX
  5
255
330
23A
100
AcDbEntity
  8
ｴｸｽﾃﾘｱ商品
 62
   253
370
    20
100
AcDbFaceRecord
 10
0.0
 20
0.0
 30
0.0
 70
   128
 71
    13
 72
     9
 73
     7
  0
VERTEX
  5
256
330
23A
100
AcDbEntity
  8
ｴｸｽﾃﾘｱ商品
 62
   253
370
    20
100
AcDbFaceRecord
 10
0.0
 20
0.0
 30
0.0
 70
   128
 71
    13
 72
     7
 73
     5
  0
VERTEX
  5
257
330
23A
100
AcDbEntity
  8
ｴｸｽﾃﾘｱ商品
 62
   253
370
    20
100
AcDbFaceRecord
 10
0.0
 20
0.0
 30
0.0
 70
   128
 71
    15
 72
    13
 73
     2
  0
VERTEX
  5
258
330
23A
100
AcDbEntity
  8
ｴｸｽﾃﾘｱ商品
 62
   253
370
    20
100
AcDbFaceRecord
 10
0.0
 20
0.0
 30
0.0
 70
   128
 71
    15
 72
     2
 73
     1
  0
VERTEX
  5
259
330
23A
100
AcDbEntity
  8
ｴｸｽﾃﾘｱ商品
 62
   253
370
    20
100
AcDbFaceRecord
 10
0.0
 20
0.0
 30
0.0
 70
   128
 71
     3
 72
     6
 73
     8
  0
VERTEX
  5
25A
330
23A
100
AcDbEntity
  8
ｴｸｽﾃﾘｱ商品
 62
   253
370
    20
100
AcDbFaceRecord
 10
0.0
 20
0.0
 30
0.0
 70
   128
 71
     3
 72
     8
 73
    10
  0
VERTEX
  5
25B
330
23A
100
AcDbEntity
  8
ｴｸｽﾃﾘｱ商品
 62
   253
370
    20
100
AcDbFaceRecord
 10
0.0
 20
0.0
 30
0.0
 70
   128
 71
     3
 72
    10
 73
    12
  0
VERTEX
  5
25C
330
23A
100
AcDbEntity
  8
ｴｸｽﾃﾘｱ商品
 62
   253
370
    20
100
AcDbFaceRecord
 10
0.0
 20
0.0
 30
0.0
 70
   128
 71
     4
 72
     3
 73
    14
  0
VERTEX
  5
25D
330
23A
100
AcDbEntity
  8
ｴｸｽﾃﾘｱ商品
 62
   253
370
    20
100
AcDbFaceRecord
 10
0.0
 20
0.0
 30
0.0
 70
   128
 71
     4
 72
    14
 73
    16
  0
SEQEND
  5
23B
330
23A
100
AcDbEntity
  8
ｴｸｽﾃﾘｱ商品
370
    20
  0
POLYLINE
  5
25E
330
3C
100
AcDbEntity
  8
ｴｸｽﾃﾘｱ商品
 62
   253
370
    20
100
AcDbPolyFaceMesh
 66
     1
 10
0.0
 20
0.0
 30
0.0
 70
    64
 71
    28
 72
    28
  0
VERTEX
  5
260
330
25E
100
AcDbEntity
  8
ｴｸｽﾃﾘｱ商品
 62
   253
370
    20
100
AcDbVertex
100
AcDbPolyFaceMeshVertex
 10
167.2275780718539
 20
2306.36002187428
 30
21.0
 70
   192
  0
VERTEX
  5
261
330
25E
100
AcDbEntity
  8
ｴｸｽﾃﾘｱ商品
 62
   253
370
    20
100
AcDbVertex
100
AcDbPolyFaceMeshVertex
 10
121.6225780718539
 20
2306.36002187428
 30
20.85000000000001
 70
   192
  0
VERTEX
  5
262
330
25E
100
AcDbEntity
  8
ｴｸｽﾃﾘｱ商品
 62
   253
370
    20
100
AcDbVertex
100
AcDbPolyFaceMeshVertex
 10
121.6225780718539
 20
510.7550218742798
 30
20.85000000000001
 70
   192
  0
VERTEX
  5
263
330
25E
100
AcDbEntity
  8
ｴｸｽﾃﾘｱ商品
 62
   253
370
    20
100
AcDbVertex
100
AcDbPolyFaceMeshVertex
 10
167.2275780718539
 20
556.3600218742798
 30
21.0
 70
   192
  0
VERTEX
  5
264
330
25E
100
AcDbEntity
  8
ｴｸｽﾃﾘｱ商品
 62
   253
370
    20
100
AcDbVertex
100
AcDbPolyFaceMeshVertex
 10
104.5225780718539
 20
2306.36002187428
 30
15.37300000000001
 70
   192
  0
VERTEX
  5
265
330
25E
100
AcDbEntity
  8
ｴｸｽﾃﾘｱ商品
 62
   253
370
    20
100
AcDbVertex
100
AcDbPolyFaceMeshVertex
 10
104.5225780718539
 20
493.6550218742798
 30
15.37300000000001
 70
   192
  0
VERTEX
  5
266
330
25E
100
AcDbEntity
  8
ｴｸｽﾃﾘｱ商品
 62
   253
370
    20
100
AcDbVertex
100
AcDbPolyFaceMeshVertex
 10
88.2645780718539
 20
2306.36002187428
 30
7.753000000000006
 70
   192
  0
VERTEX
  5
267
330
25E
100
AcDbEntity
  8
ｴｸｽﾃﾘｱ商品
 62
   253
370
    20
100
AcDbVertex
100
AcDbPolyFaceMeshVertex
 10
88.2645780718539
 20
477.3970218742797
 30
7.753000000000006
 70
   192
  0
VERTEX
  5
268
330
25E
100
AcDbEntity
  8
ｴｸｽﾃﾘｱ商品
 62
   253
370
    20
100
AcDbVertex
100
AcDbPolyFaceMeshVertex
 10
87.5065780718539
 20
2306.36002187428
 30
7.018000000000007
 70
   192
  0
VERTEX
  5
269
330
25E
100
AcDbEntity
  8
ｴｸｽﾃﾘｱ商品
 62
   253
370
    20
100
AcDbVertex
100
AcDbPolyFaceMeshVertex
 10
87.5065780718539
 20
476.6390218742798
 30
7.018000000000007
 70
   192
  0
VERTEX
  5
26A
330
25E
100
AcDbEntity
  8
ｴｸｽﾃﾘｱ商品
 62
   253
370
    20
100
AcDbVertex
100
AcDbPolyFaceMeshVertex
 10
87.22757807185394
 20
2306.36002187428
 30
6.000000000000007
 70
   192
  0
VERTEX
  5
26B
330
25E
100
AcDbEntity
  8
ｴｸｽﾃﾘｱ商品
 62
   253
370
    20
100
AcDbVertex
100
AcDbPolyFaceMeshVertex
 10
87.22757807185394
 20
476.3600218742798
 30
6.000000000000007
 70
   192
  0
VERTEX
  5
26C
330
25E
100
AcDbEntity
  8
ｴｸｽﾃﾘｱ商品
 62
   253
370
    20
100
AcDbVertex
100
AcDbPolyFaceMeshVertex
 10
87.22757807185403
 20
476.3600218742798
 30
6.000000000000293
 70
   192
  0
VERTEX
  5
26D
330
25E
100
AcDbEntity
  8
ｴｸｽﾃﾘｱ商品
 62
   253
370
    20
100
AcDbVertex
100
AcDbPolyFaceMeshVertex
 10
87.22757807185394
 20
2306.36002187428
 30
-39.0
 70
   192
  0
VERTEX
  5
26E
330
25E
100
AcDbEntity
  8
ｴｸｽﾃﾘｱ商品
 62
   253
370
    20
100
AcDbVertex
100
AcDbPolyFaceMeshVertex
 10
87.22757807185394
 20
476.3600218742798
 30
-39.0
 70
   192
  0
VERTEX
  5
26F
330
25E
100
AcDbEntity
  8
ｴｸｽﾃﾘｱ商品
 62
   253
370
    20
100
AcDbVertex
100
AcDbPolyFaceMeshVertex
 10
247.227578071854
 20
2306.36002187428
 30
-39.00000000000001
 70
   192
  0
VERTEX
  5
270
330
25E
100
AcDbEntity
  8
ｴｸｽﾃﾘｱ商品
 62
   253
370
    20
100
AcDbVertex
100
AcDbPolyFaceMeshVertex
 10
247.227578071854
 20
636.3600218742797
 30
-39.00000000000001
 70
   192
  0
VERTEX
  5
271
330
25E
100
AcDbEntity
  8
ｴｸｽﾃﾘｱ商品
 62
   253
370
    20
100
AcDbVertex
100
AcDbPolyFaceMeshVertex
 10
87.22757807185403
 20
476.3600218742798
 30
-39.0
 70
   192
  0
VERTEX
  5
272
330
25E
100
AcDbEntity
  8
ｴｸｽﾃﾘｱ商品
 62
   253
370
    20
100
AcDbVertex
100
AcDbPolyFaceMeshVertex
 10
247.227578071854
 20
2306.36002187428
 30
5.999999999999996
 70
   192
  0
VERTEX
  5
273
330
25E
100
AcDbEntity
  8
ｴｸｽﾃﾘｱ商品
 62
   253
370
    20
100
AcDbVertex
100
AcDbPolyFaceMeshVertex
 10
247.227578071854
 20
636.3600218742797
 30
5.999999999999996
 70
   192
  0
VERTEX
  5
274
330
25E
100
AcDbEntity
  8
ｴｸｽﾃﾘｱ商品
 62
   253
370
    20
100
AcDbVertex
100
AcDbPolyFaceMeshVertex
 10
246.948578071854
 20
2306.36002187428
 30
7.017999999999996
 70
   192
  0
VERTEX
  5
275
330
25E
100
AcDbEntity
  8
ｴｸｽﾃﾘｱ商品
 62
   253
370
    20
100
AcDbVertex
100
AcDbPolyFaceMeshVertex
 10
246.948578071854
 20
636.0810218742798
 30
7.017999999999996
 70
   192
  0
VERTEX
  5
276
330
25E
100
AcDbEntity
  8
ｴｸｽﾃﾘｱ商品
 62
   253
370
    20
100
AcDbVertex
100
AcDbPolyFaceMeshVertex
 10
246.190578071854
 20
2306.36002187428
 30
7.752999999999996
 70
   192
  0
VERTEX
  5
277
330
25E
100
AcDbEntity
  8
ｴｸｽﾃﾘｱ商品
 62
   253
370
    20
100
AcDbVertex
100
AcDbPolyFaceMeshVertex
 10
246.190578071854
 20
635.3230218742798
 30
7.752999999999996
 70
   192
  0
VERTEX
  5
278
330
25E
100
AcDbEntity
  8
ｴｸｽﾃﾘｱ商品
 62
   253
370
    20
100
AcDbVertex
100
AcDbPolyFaceMeshVertex
 10
229.932578071854
 20
2306.36002187428
 30
15.373
 70
   192
  0
VERTEX
  5
279
330
25E
100
AcDbEntity
  8
ｴｸｽﾃﾘｱ商品
 62
   253
370
    20
100
AcDbVertex
100
AcDbPolyFaceMeshVertex
 10
229.932578071854
 20
619.0650218742799
 30
15.373
 70
   192
  0
VERTEX
  5
27A
330
25E
100
AcDbEntity
  8
ｴｸｽﾃﾘｱ商品
 62
   253
370
    20
100
AcDbVertex
100
AcDbPolyFaceMeshVertex
 10
212.228578071854
 20
2306.36002187428
 30
20.962
 70
   192
  0
VERTEX
  5
27B
330
25E
100
AcDbEntity
  8
ｴｸｽﾃﾘｱ商品
 62
   253
370
    20
100
AcDbVertex
100
AcDbPolyFaceMeshVertex
 10
212.228578071854
 20
601.3610218742799
 30
20.962
 70
   192
  0
VERTEX
  5
27C
330
25E
100
AcDbEntity
  8
ｴｸｽﾃﾘｱ商品
 62
   253
370
    20
100
AcDbFaceRecord
 10
0.0
 20
0.0
 30
0.0
 70
   128
 71
     1
 72
     2
 73
     3
 74
     4
  0
VERTEX
  5
27D
330
25E
100
AcDbEntity
  8
ｴｸｽﾃﾘｱ商品
 62
   253
370
    20
100
AcDbFaceRecord
 10
0.0
 20
0.0
 30
0.0
 70
   128
 71
     2
 72
     5
 73
     6
 74
     3
  0
VERTEX
  5
27E
330
25E
100
AcDbEntity
  8
ｴｸｽﾃﾘｱ商品
 62
   253
370
    20
100
AcDbFaceRecord
 10
0.0
 20
0.0
 30
0.0
 70
   128
 71
     5
 72
     7
 73
     8
 74
     6
  0
VERTEX
  5
27F
330
25E
100
AcDbEntity
  8
ｴｸｽﾃﾘｱ商品
 62
   253
370
    20
100
AcDbFaceRecord
 10
0.0
 20
0.0
 30
0.0
 70
   128
 71
     7
 72
     9
 73
    10
 74
     8
  0
VERTEX
  5
280
330
25E
100
AcDbEntity
  8
ｴｸｽﾃﾘｱ商品
 62
   253
370
    20
100
AcDbFaceRecord
 10
0.0
 20
0.0
 30
0.0
 70
   128
 71
     9
 72
    11
 73
    12
 74
    13
  0
VERTEX
  5
281
330
25E
100
AcDbEntity
  8
ｴｸｽﾃﾘｱ商品
 62
   253
370
    20
100
AcDbFaceRecord
 10
0.0
 20
0.0
 30
0.0
 70
   128
 71
     9
 72
    13
 73
    10
  0
VERTEX
  5
282
330
25E
100
AcDbEntity
  8
ｴｸｽﾃﾘｱ商品
 62
   253
370
    20
100
AcDbFaceRecord
 10
0.0
 20
0.0
 30
0.0
 70
   128
 71
    11
 72
    14
 73
    15
 74
    12
  0
VERTEX
  5
283
330
25E
100
AcDbEntity
  8
ｴｸｽﾃﾘｱ商品
 62
   253
370
    20
100
AcDbFaceRecord
 10
0.0
 20
0.0
 30
0.0
 70
   128
 71
    14
 72
    16
 73
    17
 74
    18
  0
VERTEX
  5
284
330
25E
100
AcDbEntity
  8
ｴｸｽﾃﾘｱ商品
 62
   253
370
    20
100
AcDbFaceRecord
 10
0.0
 20
0.0
 30
0.0
 70
   128
 71
    14
 72
    18
 73
    15
  0
VERTEX
  5
285
330
25E
100
AcDbEntity
  8
ｴｸｽﾃﾘｱ商品
 62
   253
370
    20
100
AcDbFaceRecord
 10
0.0
 20
0.0
 30
0.0
 70
   128
 71
    16
 72
    19
 73
    20
 74
    17
  0
VERTEX
  5
286
330
25E
100
AcDbEntity
  8
ｴｸｽﾃﾘｱ商品
 62
   253
370
    20
100
AcDbFaceRecord
 10
0.0
 20
0.0
 30
0.0
 70
   128
 71
    19
 72
    21
 73
    22
 74
    20
  0
VERTEX
  5
287
330
25E
100
AcDbEntity
  8
ｴｸｽﾃﾘｱ商品
 62
   253
370
    20
100
AcDbFaceRecord
 10
0.0
 20
0.0
 30
0.0
 70
   128
 71
    21
 72
    23
 73
    24
 74
    22
  0
VERTEX
  5
288
330
25E
100
AcDbEntity
  8
ｴｸｽﾃﾘｱ商品
 62
   253
370
    20
100
AcDbFaceRecord
 10
0.0
 20
0.0
 30
0.0
 70
   128
 71
    23
 72
    25
 73
    26
 74
    24
  0
VERTEX
  5
289
330
25E
100
AcDbEntity
  8
ｴｸｽﾃﾘｱ商品
 62
   253
370
    20
100
AcDbFaceRecord
 10
0.0
 20
0.0
 30
0.0
 70
   128
 71
    25
 72
    27
 73
    28
 74
    26
  0
VERTEX
  5
28A
330
25E
100
AcDbEntity
  8
ｴｸｽﾃﾘｱ商品
 62
   253
370
    20
100
AcDbFaceRecord
 10
0.0
 20
0.0
 30
0.0
 70
   128
 71
    27
 72
     1
 73
     4
 74
    28
  0
VERTEX
  5
28B
330
25E
100
AcDbEntity
  8
ｴｸｽﾃﾘｱ商品
 62
   253
370
    20
100
AcDbFaceRecord
 10
0.0
 20
0.0
 30
0.0
 70
   128
 71
     1
 72
    27
 73
    25
 74
    23
  0
VERTEX
  5
28C
330
25E
100
AcDbEntity
  8
ｴｸｽﾃﾘｱ商品
 62
   253
370
    20
100
AcDbFaceRecord
 10
0.0
 20
0.0
 30
0.0
 70
   128
 71
     1
 72
    23
 73
    21
 74
    19
  0
VERTEX
  5
28D
330
25E
100
AcDbEntity
  8
ｴｸｽﾃﾘｱ商品
 62
   253
370
    20
100
AcDbFaceRecord
 10
0.0
 20
0.0
 30
0.0
 70
   128
 71
     1
 72
    19
 73
    16
 74
    14
  0
VERTEX
  5
28E
330
25E
100
AcDbEntity
  8
ｴｸｽﾃﾘｱ商品
 62
   253
370
    20
100
AcDbFaceRecord
 10
0.0
 20
0.0
 30
0.0
 70
   128
 71
     1
 72
    14
 73
    11
 74
     9
  0
VERTEX
  5
28F
330
25E
100
AcDbEntity
  8
ｴｸｽﾃﾘｱ商品
 62
   253
370
    20
100
AcDbFaceRecord
 10
0.0
 20
0.0
 30
0.0
 70
   128
 71
     1
 72
     9
 73
     7
 74
     5
  0
VERTEX
  5
290
330
25E
100
AcDbEntity
  8
ｴｸｽﾃﾘｱ商品
 62
   253
370
    20
100
AcDbFaceRecord
 10
0.0
 20
0.0
 30
0.0
 70
   128
 71
     1
 72
     5
 73
     2
  0
VERTEX
  5
291
330
25E
100
AcDbEntity
  8
ｴｸｽﾃﾘｱ商品
 62
   253
370
    20
100
AcDbFaceRecord
 10
0.0
 20
0.0
 30
0.0
 70
   128
 71
    13
 72
    12
 73
    15
 74
    18
  0
VERTEX
  5
292
330
25E
100
AcDbEntity
  8
ｴｸｽﾃﾘｱ商品
 62
   253
370
    20
100
AcDbFaceRecord
 10
0.0
 20
0.0
 30
0.0
 70
   128
 71
    13
 72
    18
 73
    17
 74
    20
  0
VERTEX
  5
293
330
25E
100
AcDbEntity
  8
ｴｸｽﾃﾘｱ商品
 62
   253
370
    20
100
AcDbFaceRecord
 10
0.0
 20
0.0
 30
0.0
 70
   128
 71
    13
 72
    20
 73
    22
 74
    24
  0
VERTEX
  5
294
330
25E
100
AcDbEntity
  8
ｴｸｽﾃﾘｱ商品
 62
   253
370
    20
100
AcDbFaceRecord
 10
0.0
 20
0.0
 30
0.0
 70
   128
 71
    13
 72
    24
 73
    26
 74
    28
  0
VERTEX
  5
295
330
25E
100
AcDbEntity
  8
ｴｸｽﾃﾘｱ商品
 62
   253
370
    20
100
AcDbFaceRecord
 10
0.0
 20
0.0
 30
0.0
 70
   128
 71
    13
 72
    28
 73
     4
 74
     3
  0
VERTEX
  5
296
330
25E
100
AcDbEntity
  8
ｴｸｽﾃﾘｱ商品
 62
   253
370
    20
100
AcDbFaceRecord
 10
0.0
 20
0.0
 30
0.0
 70
   128
 71
    13
 72
     3
 73
     6
 74
     8
  0
VERTEX
  5
297
330
25E
100
AcDbEntity
  8
ｴｸｽﾃﾘｱ商品
 62
   253
370
    20
100
AcDbFaceRecord
 10
0.0
 20
0.0
 30
0.0
 70
   128
 71
    13
 72
     8
 73
    10
  0
SEQEND
  5
25F
330
25E
100
AcDbEntity
  8
ｴｸｽﾃﾘｱ商品
370
    20
  0
POLYLINE
  5
298
330
3C
100
AcDbEntity
  8
ｴｸｽﾃﾘｱ商品
 62
    43
370
    20
100
AcDbPolyFaceMesh
 66
     1
 10
0.0
 20
0.0
 30
0.0
 70
    64
 71
    90
 72
    89
  0
VERTEX
  5
29A
330
298
100
AcDbEntity
  8
ｴｸｽﾃﾘｱ商品
 62
    43
370
    20
100
AcDbVertex
100
AcDbPolyFaceMeshVertex
 10
88.22757807185394
 20
2306.36002187428
 30
441.0
 70
   192
  0
VERTEX
  5
29B
330
298
100
AcDbEntity
  8
ｴｸｽﾃﾘｱ商品
 62
    43
370
    20
100
AcDbVertex
100
AcDbPolyFaceMeshVertex
 10
198.2275780718539
 20
2306.36002187428
 30
441.0
 70
   192
  0
VERTEX
  5
29C
330
298
100
AcDbEntity
  8
ｴｸｽﾃﾘｱ商品
 62
    43
370
    20
100
AcDbVertex
100
AcDbPolyFaceMeshVertex
 10
198.2275780718539
 20
587.3600218742798
 30
441.0
 70
   192
  0
VERTEX
  5
29D
330
298
100
AcDbEntity
  8
ｴｸｽﾃﾘｱ商品
 62
    43
370
    20
100
AcDbVertex
100
AcDbPolyFaceMeshVertex
 10
88.22757807185394
 20
477.3600218742798
 30
441.0
 70
   192
  0
VERTEX
  5
29E
330
298
100
AcDbEntity
  8
ｴｸｽﾃﾘｱ商品
 62
    43
370
    20
100
AcDbVertex
100
AcDbPolyFaceMeshVertex
 10
198.314578071854
 20
2306.36002187428
 30
441.0
 70
   192
  0
VERTEX
  5
29F
330
298
100
AcDbEntity
  8
ｴｸｽﾃﾘｱ商品
 62
    43
370
    20
100
AcDbVertex
100
AcDbPolyFaceMeshVertex
 10
198.314578071854
 20
587.4470218742798
 30
441.0
 70
   192
  0
VERTEX
  5
2A0
330
298
100
AcDbEntity
  8
ｴｸｽﾃﾘｱ商品
 62
    43
370
    20
100
AcDbVertex
100
AcDbPolyFaceMeshVertex
 10
198.487578071854
 20
2306.36002187428
 30
441.03
 70
   192
  0
VERTEX
  5
2A1
330
298
100
AcDbEntity
  8
ｴｸｽﾃﾘｱ商品
 62
    43
370
    20
100
AcDbVertex
100
AcDbPolyFaceMeshVertex
 10
198.487578071854
 20
587.6200218742797
 30
441.03
 70
   192
  0
VERTEX
  5
2A2
330
298
100
AcDbEntity
  8
ｴｸｽﾃﾘｱ商品
 62
    43
370
    20
100
AcDbVertex
100
AcDbPolyFaceMeshVertex
 10
198.651578071854
 20
2306.36002187428
 30
441.09
 70
   192
  0
VERTEX
  5
2A3
330
298
100
AcDbEntity
  8
ｴｸｽﾃﾘｱ商品
 62
    43
370
    20
100
AcDbVertex
100
AcDbPolyFaceMeshVertex
 10
198.651578071854
 20
587.7840218742798
 30
441.09
 70
   192
  0
VERTEX
  5
2A4
330
298
100
AcDbEntity
  8
ｴｸｽﾃﾘｱ商品
 62
    43
370
    20
100
AcDbVertex
100
AcDbPolyFaceMeshVertex
 10
198.8035780718539
 20
2306.36002187428
 30
441.178
 70
   192
  0
VERTEX
  5
2A5
330
298
100
AcDbEntity
  8
ｴｸｽﾃﾘｱ商品
 62
    43
370
    20
100
AcDbVertex
100
AcDbPolyFaceMeshVertex
 10
198.8035780718539
 20
587.9360218742797
 30
441.178
 70
   192
  0
VERTEX
  5
2A6
330
298
100
AcDbEntity
  8
ｴｸｽﾃﾘｱ商品
 62
    43
370
    20
100
AcDbVertex
100
AcDbPolyFaceMeshVertex
 10
198.937578071854
 20
2306.36002187428
 30
441.29
 70
   192
  0
VERTEX
  5
2A7
330
298
100
AcDbEntity
  8
ｴｸｽﾃﾘｱ商品
 62
    43
370
    20
100
AcDbVertex
100
AcDbPolyFaceMeshVertex
 10
198.937578071854
 20
588.0700218742799
 30
441.29
 70
   192
  0
VERTEX
  5
2A8
330
298
100
AcDbEntity
  8
ｴｸｽﾃﾘｱ商品
 62
    43
370
    20
100
AcDbVertex
100
AcDbPolyFaceMeshVertex
 10
199.049578071854
 20
2306.36002187428
 30
441.424
 70
   192
  0
VERTEX
  5
2A9
330
298
100
AcDbEntity
  8
ｴｸｽﾃﾘｱ商品
 62
    43
370
    20
100
AcDbVertex
100
AcDbPolyFaceMeshVertex
 10
199.049578071854
 20
588.1820218742798
 30
441.424
 70
   192
  0
VERTEX
  5
2AA
330
298
100
AcDbEntity
  8
ｴｸｽﾃﾘｱ商品
 62
    43
370
    20
100
AcDbVertex
100
AcDbPolyFaceMeshVertex
 10
199.1375780718539
 20
2306.36002187428
 30
441.576
 70
   192
  0
VERTEX
  5
2AB
330
298
100
AcDbEntity
  8
ｴｸｽﾃﾘｱ商品
 62
    43
370
    20
100
AcDbVertex
100
AcDbPolyFaceMeshVertex
 10
199.1375780718539
 20
588.2700218742798
 30
441.576
 70
   192
  0
VERTEX
  5
2AC
330
298
100
AcDbEntity
  8
ｴｸｽﾃﾘｱ商品
 62
    43
370
    20
100
AcDbVertex
100
AcDbPolyFaceMeshVertex
 10
199.1975780718539
 20
2306.36002187428
 30
441.74
 70
   192
  0
VERTEX
  5
2AD
330
298
100
AcDbEntity
  8
ｴｸｽﾃﾘｱ商品
 62
    43
370
    20
100
AcDbVertex
100
AcDbPolyFaceMeshVertex
 10
199.1975780718539
 20
588.3300218742797
 30
441.74
 70
   192
  0
VERTEX
  5
2AE
330
298
100
AcDbEntity
  8
ｴｸｽﾃﾘｱ商品
 62
    43
370
    20
100
AcDbVertex
100
AcDbPolyFaceMeshVertex
 10
199.227578071854
 20
2306.36002187428
 30
441.913
 70
   192
  0
VERTEX
  5
2AF
330
298
100
AcDbEntity
  8
ｴｸｽﾃﾘｱ商品
 62
    43
370
    20
100
AcDbVertex
100
AcDbPolyFaceMeshVertex
 10
199.227578071854
 20
588.3600218742798
 30
441.913
 70
   192
  0
VERTEX
  5
2B0
330
298
100
AcDbEntity
  8
ｴｸｽﾃﾘｱ商品
 62
    43
370
    20
100
AcDbVertex
100
AcDbPolyFaceMeshVertex
 10
199.227578071854
 20
2306.36002187428
 30
442.0
 70
   192
  0
VERTEX
  5
2B1
330
298
100
AcDbEntity
  8
ｴｸｽﾃﾘｱ商品
 62
    43
370
    20
100
AcDbVertex
100
AcDbPolyFaceMeshVertex
 10
199.227578071854
 20
588.3600218742798
 30
442.0
 70
   192
  0
VERTEX
  5
2B2
330
298
100
AcDbEntity
  8
ｴｸｽﾃﾘｱ商品
 62
    43
370
    20
100
AcDbVertex
100
AcDbPolyFaceMeshVertex
 10
199.227578071854
 20
2306.36002187428
 30
463.0
 70
   192
  0
VERTEX
  5
2B3
330
298
100
AcDbEntity
  8
ｴｸｽﾃﾘｱ商品
 62
    43
370
    20
100
AcDbVertex
100
AcDbPolyFaceMeshVertex
 10
199.227578071854
 20
588.3600218742798
 30
463.0
 70
   192
  0
VERTEX
  5
2B4
330
298
100
AcDbEntity
  8
ｴｸｽﾃﾘｱ商品
 62
    43
370
    20
100
AcDbVertex
100
AcDbPolyFaceMeshVertex
 10
199.227578071854
 20
2306.36002187428
 30
463.175
 70
   192
  0
VERTEX
  5
2B5
330
298
100
AcDbEntity
  8
ｴｸｽﾃﾘｱ商品
 62
    43
370
    20
100
AcDbVertex
100
AcDbPolyFaceMeshVertex
 10
199.227578071854
 20
588.3600218742798
 30
463.175
 70
   192
  0
VERTEX
  5
2B6
330
298
100
AcDbEntity
  8
ｴｸｽﾃﾘｱ商品
 62
    43
370
    20
100
AcDbVertex
100
AcDbPolyFaceMeshVertex
 10
199.166578071854
 20
2306.36002187428
 30
463.52
 70
   192
  0
VERTEX
  5
2B7
330
298
100
AcDbEntity
  8
ｴｸｽﾃﾘｱ商品
 62
    43
370
    20
100
AcDbVertex
100
AcDbPolyFaceMeshVertex
 10
199.166578071854
 20
588.2990218742799
 30
463.52
 70
   192
  0
VERTEX
  5
2B8
330
298
100
AcDbEntity
  8
ｴｸｽﾃﾘｱ商品
 62
    43
370
    20
100
AcDbVertex
100
AcDbPolyFaceMeshVertex
 10
199.047578071854
 20
2306.36002187428
 30
463.848
 70
   192
  0
VERTEX
  5
2B9
330
298
100
AcDbEntity
  8
ｴｸｽﾃﾘｱ商品
 62
    43
370
    20
100
AcDbVertex
100
AcDbPolyFaceMeshVertex
 10
199.047578071854
 20
588.1800218742799
 30
463.848
 70
   192
  0
VERTEX
  5
2BA
330
298
100
AcDbEntity
  8
ｴｸｽﾃﾘｱ商品
 62
    43
370
    20
100
AcDbVertex
100
AcDbPolyFaceMeshVertex
 10
198.872578071854
 20
2306.36002187428
 30
464.152
 70
   192
  0
VERTEX
  5
2BB
330
298
100
AcDbEntity
  8
ｴｸｽﾃﾘｱ商品
 62
    43
370
    20
100
AcDbVertex
100
AcDbPolyFaceMeshVertex
 10
198.872578071854
 20
588.0050218742798
 30
464.152
 70
   192
  0
VERTEX
  5
2BC
330
298
100
AcDbEntity
  8
ｴｸｽﾃﾘｱ商品
 62
    43
370
    20
100
AcDbVertex
100
AcDbPolyFaceMeshVertex
 10
198.647578071854
 20
2306.36002187428
 30
464.42
 70
   192
  0
VERTEX
  5
2BD
330
298
100
AcDbEntity
  8
ｴｸｽﾃﾘｱ商品
 62
    43
370
    20
100
AcDbVertex
100
AcDbPolyFaceMeshVertex
 10
198.647578071854
 20
587.7800218742798
 30
464.42
 70
   192
  0
VERTEX
  5
2BE
330
298
100
AcDbEntity
  8
ｴｸｽﾃﾘｱ商品
 62
    43
370
    20
100
AcDbVertex
100
AcDbPolyFaceMeshVertex
 10
198.379578071854
 20
2306.36002187428
 30
464.645
 70
   192
  0
VERTEX
  5
2BF
330
298
100
AcDbEntity
  8
ｴｸｽﾃﾘｱ商品
 62
    43
370
    20
100
AcDbVertex
100
AcDbPolyFaceMeshVertex
 10
198.379578071854
 20
587.5120218742798
 30
464.645
 70
   192
  0
VERTEX
  5
2C0
330
298
100
AcDbEntity
  8
ｴｸｽﾃﾘｱ商品
 62
    43
370
    20
100
AcDbVertex
100
AcDbPolyFaceMeshVertex
 10
198.075578071854
 20
2306.36002187428
 30
464.82
 70
   192
  0
VERTEX
  5
2C1
330
298
100
AcDbEntity
  8
ｴｸｽﾃﾘｱ商品
 62
    43
370
    20
100
AcDbVertex
100
AcDbPolyFaceMeshVertex
 10
198.075578071854
 20
587.2080218742798
 30
464.82
 70
   192
  0
VERTEX
  5
2C2
330
298
100
AcDbEntity
  8
ｴｸｽﾃﾘｱ商品
 62
    43
370
    20
100
AcDbVertex
100
AcDbPolyFaceMeshVertex
 10
197.747578071854
 20
2306.36002187428
 30
464.939
 70
   192
  0
VERTEX
  5
2C3
330
298
100
AcDbEntity
  8
ｴｸｽﾃﾘｱ商品
 62
    43
370
    20
100
AcDbVertex
100
AcDbPolyFaceMeshVertex
 10
197.747578071854
 20
586.8800218742798
 30
464.939
 70
   192
  0
VERTEX
  5
2C4
330
298
100
AcDbEntity
  8
ｴｸｽﾃﾘｱ商品
 62
    43
370
    20
100
AcDbVertex
100
AcDbPolyFaceMeshVertex
 10
197.446578071854
 20
2306.36002187428
 30
464.988
 70
   192
  0
VERTEX
  5
2C5
330
298
100
AcDbEntity
  8
ｴｸｽﾃﾘｱ商品
 62
    43
370
    20
100
AcDbVertex
100
AcDbPolyFaceMeshVertex
 10
197.446578071854
 20
586.5790218742798
 30
464.988
 70
   192
  0
VERTEX
  5
2C6
330
298
100
AcDbEntity
  8
ｴｸｽﾃﾘｱ商品
 62
    43
370
    20
100
AcDbVertex
100
AcDbPolyFaceMeshVertex
 10
147.0375780718539
 20
2306.36002187428
 30
470.5410000000001
 70
   192
  0
VERTEX
  5
2C7
330
298
100
AcDbEntity
  8
ｴｸｽﾃﾘｱ商品
 62
    43
370
    20
100
AcDbVertex
100
AcDbPolyFaceMeshVertex
 10
147.0375780718539
 20
536.1700218742798
 30
470.5410000000001
 70
   192
  0
VERTEX
  5
2C8
330
298
100
AcDbEntity
  8
ｴｸｽﾃﾘｱ商品
 62
    43
370
    20
100
AcDbVertex
100
AcDbPolyFaceMeshVertex
 10
89.23057807185394
 20
2306.36002187428
 30
471.0000000000001
 70
   192
  0
VERTEX
  5
2C9
330
298
100
AcDbEntity
  8
ｴｸｽﾃﾘｱ商品
 62
    43
370
    20
100
AcDbVertex
100
AcDbPolyFaceMeshVertex
 10
89.23057807185394
 20
478.3630218742798
 30
471.0000000000001
 70
   192
  0
VERTEX
  5
2CA
330
298
100
AcDbEntity
  8
ｴｸｽﾃﾘｱ商品
 62
    43
370
    20
100
AcDbVertex
100
AcDbPolyFaceMeshVertex
 10
89.05557807185393
 20
2306.36002187428
 30
471.0000000000001
 70
   192
  0
VERTEX
  5
2CB
330
298
100
AcDbEntity
  8
ｴｸｽﾃﾘｱ商品
 62
    43
370
    20
100
AcDbVertex
100
AcDbPolyFaceMeshVertex
 10
89.05557807185393
 20
478.1880218742799
 30
471.0000000000001
 70
   192
  0
VERTEX
  5
2CC
330
298
100
AcDbEntity
  8
ｴｸｽﾃﾘｱ商品
 62
    43
370
    20
100
AcDbVertex
100
AcDbPolyFaceMeshVertex
 10
88.71057807185394
 20
2306.36002187428
 30
470.94
 70
   192
  0
VERTEX
  5
2CD
330
298
100
AcDbEntity
  8
ｴｸｽﾃﾘｱ商品
 62
    43
370
    20
100
AcDbVertex
100
AcDbPolyFaceMeshVertex
 10
88.71057807185394
 20
477.8430218742798
 30
470.94
 70
   192
  0
VERTEX
  5
2CE
330
298
100
AcDbEntity
  8
ｴｸｽﾃﾘｱ商品
 62
    43
370
    20
100
AcDbVertex
100
AcDbPolyFaceMeshVertex
 10
88.38157807185394
 20
2306.36002187428
 30
470.821
 70
   192
  0
VERTEX
  5
2CF
330
298
100
AcDbEntity
  8
ｴｸｽﾃﾘｱ商品
 62
    43
370
    20
100
AcDbVertex
100
AcDbPolyFaceMeshVertex
 10
88.38157807185394
 20
477.5140218742798
 30
470.821
 70
   192
  0
VERTEX
  5
2D0
330
298
100
AcDbEntity
  8
ｴｸｽﾃﾘｱ商品
 62
    43
370
    20
100
AcDbVertex
100
AcDbPolyFaceMeshVertex
 10
88.07857807185394
 20
2306.36002187428
 30
470.646
 70
   192
  0
VERTEX
  5
2D1
330
298
100
AcDbEntity
  8
ｴｸｽﾃﾘｱ商品
 62
    43
370
    20
100
AcDbVertex
100
AcDbPolyFaceMeshVertex
 10
88.07857807185394
 20
477.2110218742798
 30
470.646
 70
   192
  0
VERTEX
  5
2D2
330
298
100
AcDbEntity
  8
ｴｸｽﾃﾘｱ商品
 62
    43
370
    20
100
AcDbVertex
100
AcDbPolyFaceMeshVertex
 10
87.80957807185395
 20
2306.36002187428
 30
470.421
 70
   192
  0
VERTEX
  5
2D3
330
298
100
AcDbEntity
  8
ｴｸｽﾃﾘｱ商品
 62
    43
370
    20
100
AcDbVertex
100
AcDbPolyFaceMeshVertex
 10
87.80957807185395
 20
476.9420218742799
 30
470.421
 70
   192
  0
VERTEX
  5
2D4
330
298
100
AcDbEntity
  8
ｴｸｽﾃﾘｱ商品
 62
    43
370
    20
100
AcDbVertex
100
AcDbPolyFaceMeshVertex
 10
87.58457807185394
 20
2306.36002187428
 30
470.154
 70
   192
  0
VERTEX
  5
2D5
330
298
100
AcDbEntity
  8
ｴｸｽﾃﾘｱ商品
 62
    43
370
    20
100
AcDbVertex
100
AcDbPolyFaceMeshVertex
 10
87.58457807185394
 20
476.7170218742799
 30
470.154
 70
   192
  0
VERTEX
  5
2D6
330
298
100
AcDbEntity
  8
ｴｸｽﾃﾘｱ商品
 62
    43
370
    20
100
AcDbVertex
100
AcDbPolyFaceMeshVertex
 10
87.40957807185396
 20
2306.36002187428
 30
469.851
 70
   192
  0
VERTEX
  5
2D7
330
298
100
AcDbEntity
  8
ｴｸｽﾃﾘｱ商品
 62
    43
370
    20
100
AcDbVertex
100
AcDbPolyFaceMeshVertex
 10
87.40957807185396
 20
476.5420218742798
 30
469.851
 70
   192
  0
VERTEX
  5
2D8
330
298
100
AcDbEntity
  8
ｴｸｽﾃﾘｱ商品
 62
    43
370
    20
100
AcDbVertex
100
AcDbPolyFaceMeshVertex
 10
87.28857807185395
 20
2306.36002187428
 30
469.522
 70
   192
  0
VERTEX
  5
2D9
330
298
100
AcDbEntity
  8
ｴｸｽﾃﾘｱ商品
 62
    43
370
    20
100
AcDbVertex
100
AcDbPolyFaceMeshVertex
 10
87.28857807185395
 20
476.4210218742798
 30
469.522
 70
   192
  0
VERTEX
  5
2DA
330
298
100
AcDbEntity
  8
ｴｸｽﾃﾘｱ商品
 62
    43
370
    20
100
AcDbVertex
100
AcDbPolyFaceMeshVertex
 10
87.22757807185394
 20
2306.36002187428
 30
469.1780000000001
 70
   192
  0
VERTEX
  5
2DB
330
298
100
AcDbEntity
  8
ｴｸｽﾃﾘｱ商品
 62
    43
370
    20
100
AcDbVertex
100
AcDbPolyFaceMeshVertex
 10
87.22757807185394
 20
476.3600218742798
 30
469.1780000000001
 70
   192
  0
VERTEX
  5
2DC
330
298
100
AcDbEntity
  8
ｴｸｽﾃﾘｱ商品
 62
    43
370
    20
100
AcDbVertex
100
AcDbPolyFaceMeshVertex
 10
87.22757807185403
 20
476.3600218742798
 30
469.1780000000005
 70
   192
  0
VERTEX
  5
2DD
330
298
100
AcDbEntity
  8
ｴｸｽﾃﾘｱ商品
 62
    43
370
    20
100
AcDbVertex
100
AcDbPolyFaceMeshVertex
 10
87.22757807185394
 20
2306.36002187428
 30
469.0
 70
   192
  0
VERTEX
  5
2DE
330
298
100
AcDbEntity
  8
ｴｸｽﾃﾘｱ商品
 62
    43
370
    20
100
AcDbVertex
100
AcDbPolyFaceMeshVertex
 10
87.22757807185394
 20
476.3600218742798
 30
469.0
 70
   192
  0
VERTEX
  5
2DF
330
298
100
AcDbEntity
  8
ｴｸｽﾃﾘｱ商品
 62
    43
370
    20
100
AcDbVertex
100
AcDbPolyFaceMeshVertex
 10
87.22757807185394
 20
2306.36002187428
 30
442.0
 70
   192
  0
VERTEX
  5
2E0
330
298
100
AcDbEntity
  8
ｴｸｽﾃﾘｱ商品
 62
    43
370
    20
100
AcDbVertex
100
AcDbPolyFaceMeshVertex
 10
87.22757807185394
 20
476.3600218742798
 30
442.0
 70
   192
  0
VERTEX
  5
2E1
330
298
100
AcDbEntity
  8
ｴｸｽﾃﾘｱ商品
 62
    43
370
    20
100
AcDbVertex
100
AcDbPolyFaceMeshVertex
 10
87.22757807185394
 20
2306.36002187428
 30
441.913
 70
   192
  0
VERTEX
  5
2E2
330
298
100
AcDbEntity
  8
ｴｸｽﾃﾘｱ商品
 62
    43
370
    20
100
AcDbVertex
100
AcDbPolyFaceMeshVertex
 10
87.22757807185394
 20
476.3600218742798
 30
441.913
 70
   192
  0
VERTEX
  5
2E3
330
298
100
AcDbEntity
  8
ｴｸｽﾃﾘｱ商品
 62
    43
370
    20
100
AcDbVertex
100
AcDbPolyFaceMeshVertex
 10
87.25757807185394
 20
2306.36002187428
 30
441.74
 70
   192
  0
VERTEX
  5
2E4
330
298
100
AcDbEntity
  8
ｴｸｽﾃﾘｱ商品
 62
    43
370
    20
100
AcDbVertex
100
AcDbPolyFaceMeshVertex
 10
87.25757807185394
 20
476.3900218742798
 30
441.74
 70
   192
  0
VERTEX
  5
2E5
330
298
100
AcDbEntity
  8
ｴｸｽﾃﾘｱ商品
 62
    43
370
    20
100
AcDbVertex
100
AcDbPolyFaceMeshVertex
 10
87.22757807185403
 20
476.3600218742798
 30
441.9129999999996
 70
   192
  0
VERTEX
  5
2E6
330
298
100
AcDbEntity
  8
ｴｸｽﾃﾘｱ商品
 62
    43
370
    20
100
AcDbVertex
100
AcDbPolyFaceMeshVertex
 10
87.31757807185394
 20
2306.36002187428
 30
441.576
 70
   192
  0
VERTEX
  5
2E7
330
298
100
AcDbEntity
  8
ｴｸｽﾃﾘｱ商品
 62
    43
370
    20
100
AcDbVertex
100
AcDbPolyFaceMeshVertex
 10
87.31757807185394
 20
476.4500218742797
 30
441.576
 70
   192
  0
VERTEX
  5
2E8
330
298
100
AcDbEntity
  8
ｴｸｽﾃﾘｱ商品
 62
    43
370
    20
100
AcDbVertex
100
AcDbPolyFaceMeshVertex
 10
87.40557807185394
 20
2306.36002187428
 30
441.424
 70
   192
  0
VERTEX
  5
2E9
330
298
100
AcDbEntity
  8
ｴｸｽﾃﾘｱ商品
 62
    43
370
    20
100
AcDbVertex
100
AcDbPolyFaceMeshVertex
 10
87.40557807185394
 20
476.5380218742798
 30
441.424
 70
   192
  0
VERTEX
  5
2EA
330
298
100
AcDbEntity
  8
ｴｸｽﾃﾘｱ商品
 62
    43
370
    20
100
AcDbVertex
100
AcDbPolyFaceMeshVertex
 10
87.51757807185393
 20
2306.36002187428
 30
441.29
 70
   192
  0
VERTEX
  5
2EB
330
298
100
AcDbEntity
  8
ｴｸｽﾃﾘｱ商品
 62
    43
370
    20
100
AcDbVertex
100
AcDbPolyFaceMeshVertex
 10
87.51757807185393
 20
476.6500218742797
 30
441.29
 70
   192
  0
VERTEX
  5
2EC
330
298
100
AcDbEntity
  8
ｴｸｽﾃﾘｱ商品
 62
    43
370
    20
100
AcDbVertex
100
AcDbPolyFaceMeshVertex
 10
87.65157807185393
 20
2306.36002187428
 30
441.178
 70
   192
  0
VERTEX
  5
2ED
330
298
100
AcDbEntity
  8
ｴｸｽﾃﾘｱ商品
 62
    43
370
    20
100
AcDbVertex
100
AcDbPolyFaceMeshVertex
 10
87.65157807185393
 20
476.7840218742797
 30
441.178
 70
   192
  0
VERTEX
  5
2EE
330
298
100
AcDbEntity
  8
ｴｸｽﾃﾘｱ商品
 62
    43
370
    20
100
AcDbVertex
100
AcDbPolyFaceMeshVertex
 10
87.80357807185393
 20
2306.36002187428
 30
441.09
 70
   192
  0
VERTEX
  5
2EF
330
298
100
AcDbEntity
  8
ｴｸｽﾃﾘｱ商品
 62
    43
370
    20
100
AcDbVertex
100
AcDbPolyFaceMeshVertex
 10
87.80357807185393
 20
476.9360218742798
 30
441.09
 70
   192
  0
VERTEX
  5
2F0
330
298
100
AcDbEntity
  8
ｴｸｽﾃﾘｱ商品
 62
    43
370
    20
100
AcDbVertex
100
AcDbPolyFaceMeshVertex
 10
87.96757807185394
 20
2306.36002187428
 30
441.03
 70
   192
  0
VERTEX
  5
2F1
330
298
100
AcDbEntity
  8
ｴｸｽﾃﾘｱ商品
 62
    43
370
    20
100
AcDbVertex
100
AcDbPolyFaceMeshVertex
 10
87.96757807185394
 20
477.1000218742797
 30
441.03
 70
   192
  0
VERTEX
  5
2F2
330
298
100
AcDbEntity
  8
ｴｸｽﾃﾘｱ商品
 62
    43
370
    20
100
AcDbVertex
100
AcDbPolyFaceMeshVertex
 10
88.14057807185395
 20
2306.36002187428
 30
441.0
 70
   192
  0
VERTEX
  5
2F3
330
298
100
AcDbEntity
  8
ｴｸｽﾃﾘｱ商品
 62
    43
370
    20
100
AcDbVertex
100
AcDbPolyFaceMeshVertex
 10
88.14057807185395
 20
477.2730218742798
 30
441.0
 70
   192
  0
VERTEX
  5
2F4
330
298
100
AcDbEntity
  8
ｴｸｽﾃﾘｱ商品
 62
    43
370
    20
100
AcDbFaceRecord
 10
0.0
 20
0.0
 30
0.0
 70
   128
 71
     1
 72
     2
 73
     3
 74
     4
  0
VERTEX
  5
2F5
330
298
100
AcDbEntity
  8
ｴｸｽﾃﾘｱ商品
 62
    43
370
    20
100
AcDbFaceRecord
 10
0.0
 20
0.0
 30
0.0
 70
   128
 71
     2
 72
     5
 73
     6
 74
     3
  0
VERTEX
  5
2F6
330
298
100
AcDbEntity
  8
ｴｸｽﾃﾘｱ商品
 62
    43
370
    20
100
AcDbFaceRecord
 10
0.0
 20
0.0
 30
0.0
 70
   128
 71
     5
 72
     7
 73
     8
 74
     6
  0
VERTEX
  5
2F7
330
298
100
AcDbEntity
  8
ｴｸｽﾃﾘｱ商品
 62
    43
370
    20
100
AcDbFaceRecord
 10
0.0
 20
0.0
 30
0.0
 70
   128
 71
     7
 72
     9
 73
    10
 74
     8
  0
VERTEX
  5
2F8
330
298
100
AcDbEntity
  8
ｴｸｽﾃﾘｱ商品
 62
    43
370
    20
100
AcDbFaceRecord
 10
0.0
 20
0.0
 30
0.0
 70
   128
 71
     9
 72
    11
 73
    12
 74
    10
  0
VERTEX
  5
2F9
330
298
100
AcDbEntity
  8
ｴｸｽﾃﾘｱ商品
 62
    43
370
    20
100
AcDbFaceRecord
 10
0.0
 20
0.0
 30
0.0
 70
   128
 71
    11
 72
    13
 73
    14
 74
    12
  0
VERTEX
  5
2FA
330
298
100
AcDbEntity
  8
ｴｸｽﾃﾘｱ商品
 62
    43
370
    20
100
AcDbFaceRecord
 10
0.0
 20
0.0
 30
0.0
 70
   128
 71
    13
 72
    15
 73
    16
 74
    14
  0
VERTEX
  5
2FB
330
298
100
AcDbEntity
  8
ｴｸｽﾃﾘｱ商品
 62
    43
370
    20
100
AcDbFaceRecord
 10
0.0
 20
0.0
 30
0.0
 70
   128
 71
    15
 72
    17
 73
    18
 74
    16
  0
VERTEX
  5
2FC
330
298
100
AcDbEntity
  8
ｴｸｽﾃﾘｱ商品
 62
    43
370
    20
100
AcDbFaceRecord
 10
0.0
 20
0.0
 30
0.0
 70
   128
 71
    17
 72
    19
 73
    20
 74
    18
  0
VERTEX
  5
2FD
330
298
100
AcDbEntity
  8
ｴｸｽﾃﾘｱ商品
 62
    43
370
    20
100
AcDbFaceRecord
 10
0.0
 20
0.0
 30
0.0
 70
   128
 71
    19
 72
    21
 73
    22
 74
    20
  0
VERTEX
  5
2FE
330
298
100
AcDbEntity
  8
ｴｸｽﾃﾘｱ商品
 62
    43
370
    20
100
AcDbFaceRecord
 10
0.0
 20
0.0
 30
0.0
 70
   128
 71
    21
 72
    23
 73
    24
 74
    22
  0
VERTEX
  5
2FF
330
298
100
AcDbEntity
  8
ｴｸｽﾃﾘｱ商品
 62
    43
370
    20
100
AcDbFaceRecord
 10
0.0
 20
0.0
 30
0.0
 70
   128
 71
    23
 72
    25
 73
    26
 74
    24
  0
VERTEX
  5
300
330
298
100
AcDbEntity
  8
ｴｸｽﾃﾘｱ商品
 62
    43
370
    20
100
AcDbFaceRecord
 10
0.0
 20
0.0
 30
0.0
 70
   128
 71
    25
 72
    27
 73
    28
 74
    26
  0
VERTEX
  5
301
330
298
100
AcDbEntity
  8
ｴｸｽﾃﾘｱ商品
 62
    43
370
    20
100
AcDbFaceRecord
 10
0.0
 20
0.0
 30
0.0
 70
   128
 71
    27
 72
    29
 73
    30
 74
    28
  0
VERTEX
  5
302
330
298
100
AcDbEntity
  8
ｴｸｽﾃﾘｱ商品
 62
    43
370
    20
100
AcDbFaceRecord
 10
0.0
 20
0.0
 30
0.0
 70
   128
 71
    29
 72
    31
 73
    32
 74
    30
  0
VERTEX
  5
303
330
298
100
AcDbEntity
  8
ｴｸｽﾃﾘｱ商品
 62
    43
370
    20
100
AcDbFaceRecord
 10
0.0
 20
0.0
 30
0.0
 70
   128
 71
    31
 72
    33
 73
    34
 74
    32
  0
VERTEX
  5
304
330
298
100
AcDbEntity
  8
ｴｸｽﾃﾘｱ商品
 62
    43
370
    20
100
AcDbFaceRecord
 10
0.0
 20
0.0
 30
0.0
 70
   128
 71
    33
 72
    35
 73
    36
 74
    34
  0
VERTEX
  5
305
330
298
100
AcDbEntity
  8
ｴｸｽﾃﾘｱ商品
 62
    43
370
    20
100
AcDbFaceRecord
 10
0.0
 20
0.0
 30
0.0
 70
   128
 71
    35
 72
    37
 73
    38
 74
    36
  0
VERTEX
  5
306
330
298
100
AcDbEntity
  8
ｴｸｽﾃﾘｱ商品
 62
    43
370
    20
100
AcDbFaceRecord
 10
0.0
 20
0.0
 30
0.0
 70
   128
 71
    37
 72
    39
 73
    40
 74
    38
  0
VERTEX
  5
307
330
298
100
AcDbEntity
  8
ｴｸｽﾃﾘｱ商品
 62
    43
370
    20
100
AcDbFaceRecord
 10
0.0
 20
0.0
 30
0.0
 70
   128
 71
    39
 72
    41
 73
    42
 74
    40
  0
VERTEX
  5
308
330
298
100
AcDbEntity
  8
ｴｸｽﾃﾘｱ商品
 62
    43
370
    20
100
AcDbFaceRecord
 10
0.0
 20
0.0
 30
0.0
 70
   128
 71
    41
 72
    43
 73
    44
 74
    42
  0
VERTEX
  5
309
330
298
100
AcDbEntity
  8
ｴｸｽﾃﾘｱ商品
 62
    43
370
    20
100
AcDbFaceRecord
 10
0.0
 20
0.0
 30
0.0
 70
   128
 71
    43
 72
    45
 73
    46
 74
    44
  0
VERTEX
  5
30A
330
298
100
AcDbEntity
  8
ｴｸｽﾃﾘｱ商品
 62
    43
370
    20
100
AcDbFaceRecord
 10
0.0
 20
0.0
 30
0.0
 70
   128
 71
    45
 72
    47
 73
    48
 74
    46
  0
VERTEX
  5
30B
330
298
100
AcDbEntity
  8
ｴｸｽﾃﾘｱ商品
 62
    43
370
    20
100
AcDbFaceRecord
 10
0.0
 20
0.0
 30
0.0
 70
   128
 71
    47
 72
    49
 73
    50
 74
    48
  0
VERTEX
  5
30C
330
298
100
AcDbEntity
  8
ｴｸｽﾃﾘｱ商品
 62
    43
370
    20
100
AcDbFaceRecord
 10
0.0
 20
0.0
 30
0.0
 70
   128
 71
    49
 72
    51
 73
    52
 74
    50
  0
VERTEX
  5
30D
330
298
100
AcDbEntity
  8
ｴｸｽﾃﾘｱ商品
 62
    43
370
    20
100
AcDbFaceRecord
 10
0.0
 20
0.0
 30
0.0
 70
   128
 71
    51
 72
    53
 73
    54
 74
    52
  0
VERTEX
  5
30E
330
298
100
AcDbEntity
  8
ｴｸｽﾃﾘｱ商品
 62
    43
370
    20
100
AcDbFaceRecord
 10
0.0
 20
0.0
 30
0.0
 70
   128
 71
    53
 72
    55
 73
    56
 74
    54
  0
VERTEX
  5
30F
330
298
100
AcDbEntity
  8
ｴｸｽﾃﾘｱ商品
 62
    43
370
    20
100
AcDbFaceRecord
 10
0.0
 20
0.0
 30
0.0
 70
   128
 71
    55
 72
    57
 73
    58
 74
    56
  0
VERTEX
  5
310
330
298
100
AcDbEntity
  8
ｴｸｽﾃﾘｱ商品
 62
    43
370
    20
100
AcDbFaceRecord
 10
0.0
 20
0.0
 30
0.0
 70
   128
 71
    57
 72
    59
 73
    60
 74
    58
  0
VERTEX
  5
311
330
298
100
AcDbEntity
  8
ｴｸｽﾃﾘｱ商品
 62
    43
370
    20
100
AcDbFaceRecord
 10
0.0
 20
0.0
 30
0.0
 70
   128
 71
    59
 72
    61
 73
    62
 74
    60
  0
VERTEX
  5
312
330
298
100
AcDbEntity
  8
ｴｸｽﾃﾘｱ商品
 62
    43
370
    20
100
AcDbFaceRecord
 10
0.0
 20
0.0
 30
0.0
 70
   128
 71
    61
 72
    63
 73
    64
 74
    62
  0
VERTEX
  5
313
330
298
100
AcDbEntity
  8
ｴｸｽﾃﾘｱ商品
 62
    43
370
    20
100
AcDbFaceRecord
 10
0.0
 20
0.0
 30
0.0
 70
   128
 71
    63
 72
    65
 73
    66
 74
    67
  0
VERTEX
  5
314
330
298
100
AcDbEntity
  8
ｴｸｽﾃﾘｱ商品
 62
    43
370
    20
100
AcDbFaceRecord
 10
0.0
 20
0.0
 30
0.0
 70
   128
 71
    63
 72
    67
 73
    64
  0
VERTEX
  5
315
330
298
100
AcDbEntity
  8
ｴｸｽﾃﾘｱ商品
 62
    43
370
    20
100
AcDbFaceRecord
 10
0.0
 20
0.0
 30
0.0
 70
   128
 71
    65
 72
    68
 73
    69
 74
    66
  0
VERTEX
  5
316
330
298
100
AcDbEntity
  8
ｴｸｽﾃﾘｱ商品
 62
    43
370
    20
100
AcDbFaceRecord
 10
0.0
 20
0.0
 30
0.0
 70
   128
 71
    68
 72
    70
 73
    71
 74
    69
  0
VERTEX
  5
317
330
298
100
AcDbEntity
  8
ｴｸｽﾃﾘｱ商品
 62
    43
370
    20
100
AcDbFaceRecord
 10
0.0
 20
0.0
 30
0.0
 70
   128
 71
    70
 72
    72
 73
    73
 74
    71
  0
VERTEX
  5
318
330
298
100
AcDbEntity
  8
ｴｸｽﾃﾘｱ商品
 62
    43
370
    20
100
AcDbFaceRecord
 10
0.0
 20
0.0
 30
0.0
 70
   128
 71
    72
 72
    74
 73
    75
 74
    76
  0
VERTEX
  5
319
330
298
100
AcDbEntity
  8
ｴｸｽﾃﾘｱ商品
 62
    43
370
    20
100
AcDbFaceRecord
 10
0.0
 20
0.0
 30
0.0
 70
   128
 71
    72
 72
    76
 73
    73
  0
VERTEX
  5
31A
330
298
100
AcDbEntity
  8
ｴｸｽﾃﾘｱ商品
 62
    43
370
    20
100
AcDbFaceRecord
 10
0.0
 20
0.0
 30
0.0
 70
   128
 71
    74
 72
    77
 73
    78
 74
    75
  0
VERTEX
  5
31B
330
298
100
AcDbEntity
  8
ｴｸｽﾃﾘｱ商品
 62
    43
370
    20
100
AcDbFaceRecord
 10
0.0
 20
0.0
 30
0.0
 70
   128
 71
    77
 72
    79
 73
    80
 74
    78
  0
VERTEX
  5
31C
330
298
100
AcDbEntity
  8
ｴｸｽﾃﾘｱ商品
 62
    43
370
    20
100
AcDbFaceRecord
 10
0.0
 20
0.0
 30
0.0
 70
   128
 71
    79
 72
    81
 73
    82
 74
    80
  0
VERTEX
  5
31D
330
298
100
AcDbEntity
  8
ｴｸｽﾃﾘｱ商品
 62
    43
370
    20
100
AcDbFaceRecord
 10
0.0
 20
0.0
 30
0.0
 70
   128
 71
    81
 72
    83
 73
    84
 74
    82
  0
VERTEX
  5
31E
330
298
100
AcDbEntity
  8
ｴｸｽﾃﾘｱ商品
 62
    43
370
    20
100
AcDbFaceRecord
 10
0.0
 20
0.0
 30
0.0
 70
   128
 71
    83
 72
    85
 73
    86
 74
    84
  0
VERTEX
  5
31F
330
298
100
AcDbEntity
  8
ｴｸｽﾃﾘｱ商品
 62
    43
370
    20
100
AcDbFaceRecord
 10
0.0
 20
0.0
 30
0.0
 70
   128
 71
    85
 72
    87
 73
    88
 74
    86
  0
VERTEX
  5
320
330
298
100
AcDbEntity
  8
ｴｸｽﾃﾘｱ商品
 62
    43
370
    20
100
AcDbFaceRecord
 10
0.0
 20
0.0
 30
0.0
 70
   128
 71
    87
 72
    89
 73
    90
 74
    88
  0
VERTEX
  5
321
330
298
100
AcDbEntity
  8
ｴｸｽﾃﾘｱ商品
 62
    43
370
    20
100
AcDbFaceRecord
 10
0.0
 20
0.0
 30
0.0
 70
   128
 71
    89
 72
     1
 73
     4
 74
    90
  0
VERTEX
  5
322
330
298
100
AcDbEntity
  8
ｴｸｽﾃﾘｱ商品
 62
    43
370
    20
100
AcDbFaceRecord
 10
0.0
 20
0.0
 30
0.0
 70
   128
 71
     1
 72
    89
 73
    87
 74
    85
  0
VERTEX
  5
323
330
298
100
AcDbEntity
  8
ｴｸｽﾃﾘｱ商品
 62
    43
370
    20
100
AcDbFaceRecord
 10
0.0
 20
0.0
 30
0.0
 70
   128
 71
     1
 72
    85
 73
    83
 74
    81
  0
VERTEX
  5
324
330
298
100
AcDbEntity
  8
ｴｸｽﾃﾘｱ商品
 62
    43
370
    20
100
AcDbFaceRecord
 10
0.0
 20
0.0
 30
0.0
 70
   128
 71
     1
 72
    81
 73
    79
 74
    77
  0
VERTEX
  5
325
330
298
100
AcDbEntity
  8
ｴｸｽﾃﾘｱ商品
 62
    43
370
    20
100
AcDbFaceRecord
 10
0.0
 20
0.0
 30
0.0
 70
   128
 71
     1
 72
    77
 73
    74
 74
    72
  0
VERTEX
  5
326
330
298
100
AcDbEntity
  8
ｴｸｽﾃﾘｱ商品
 62
    43
370
    20
100
AcDbFaceRecord
 10
0.0
 20
0.0
 30
0.0
 70
   128
 71
     1
 72
    72
 73
    70
 74
    68
  0
VERTEX
  5
327
330
298
100
AcDbEntity
  8
ｴｸｽﾃﾘｱ商品
 62
    43
370
    20
100
AcDbFaceRecord
 10
0.0
 20
0.0
 30
0.0
 70
   128
 71
     1
 72
    68
 73
    65
 74
    63
  0
VERTEX
  5
328
330
298
100
AcDbEntity
  8
ｴｸｽﾃﾘｱ商品
 62
    43
370
    20
100
AcDbFaceRecord
 10
0.0
 20
0.0
 30
0.0
 70
   128
 71
     1
 72
    63
 73
    61
 74
    59
  0
VERTEX
  5
329
330
298
100
AcDbEntity
  8
ｴｸｽﾃﾘｱ商品
 62
    43
370
    20
100
AcDbFaceRecord
 10
0.0
 20
0.0
 30
0.0
 70
   128
 71
     1
 72
    59
 73
    57
 74
    55
  0
VERTEX
  5
32A
330
298
100
AcDbEntity
  8
ｴｸｽﾃﾘｱ商品
 62
    43
370
    20
100
AcDbFaceRecord
 10
0.0
 20
0.0
 30
0.0
 70
   128
 71
     1
 72
    55
 73
    53
 74
    51
  0
VERTEX
  5
32B
330
298
100
AcDbEntity
  8
ｴｸｽﾃﾘｱ商品
 62
    43
370
    20
100
AcDbFaceRecord
 10
0.0
 20
0.0
 30
0.0
 70
   128
 71
     1
 72
    51
 73
    49
 74
    47
  0
VERTEX
  5
32C
330
298
100
AcDbEntity
  8
ｴｸｽﾃﾘｱ商品
 62
    43
370
    20
100
AcDbFaceRecord
 10
0.0
 20
0.0
 30
0.0
 70
   128
 71
     1
 72
    47
 73
    45
 74
    43
  0
VERTEX
  5
32D
330
298
100
AcDbEntity
  8
ｴｸｽﾃﾘｱ商品
 62
    43
370
    20
100
AcDbFaceRecord
 10
0.0
 20
0.0
 30
0.0
 70
   128
 71
     1
 72
    43
 73
    41
 74
    39
  0
VERTEX
  5
32E
330
298
100
AcDbEntity
  8
ｴｸｽﾃﾘｱ商品
 62
    43
370
    20
100
AcDbFaceRecord
 10
0.0
 20
0.0
 30
0.0
 70
   128
 71
     1
 72
    39
 73
    37
 74
    35
  0
VERTEX
  5
32F
330
298
100
AcDbEntity
  8
ｴｸｽﾃﾘｱ商品
 62
    43
370
    20
100
AcDbFaceRecord
 10
0.0
 20
0.0
 30
0.0
 70
   128
 71
     1
 72
    35
 73
    33
 74
    31
  0
VERTEX
  5
330
330
298
100
AcDbEntity
  8
ｴｸｽﾃﾘｱ商品
 62
    43
370
    20
100
AcDbFaceRecord
 10
0.0
 20
0.0
 30
0.0
 70
   128
 71
     1
 72
    31
 73
    29
 74
    27
  0
VERTEX
  5
331
330
298
100
AcDbEntity
  8
ｴｸｽﾃﾘｱ商品
 62
    43
370
    20
100
AcDbFaceRecord
 10
0.0
 20
0.0
 30
0.0
 70
   128
 71
     1
 72
    27
 73
    25
 74
    23
  0
VERTEX
  5
332
330
298
100
AcDbEntity
  8
ｴｸｽﾃﾘｱ商品
 62
    43
370
    20
100
AcDbFaceRecord
 10
0.0
 20
0.0
 30
0.0
 70
   128
 71
     1
 72
    23
 73
    21
 74
    19
  0
VERTEX
  5
333
330
298
100
AcDbEntity
  8
ｴｸｽﾃﾘｱ商品
 62
    43
370
    20
100
AcDbFaceRecord
 10
0.0
 20
0.0
 30
0.0
 70
   128
 71
     1
 72
    19
 73
    17
 74
    15
  0
VERTEX
  5
334
330
298
100
AcDbEntity
  8
ｴｸｽﾃﾘｱ商品
 62
    43
370
    20
100
AcDbFaceRecord
 10
0.0
 20
0.0
 30
0.0
 70
   128
 71
     1
 72
    15
 73
    13
 74
    11
  0
VERTEX
  5
335
330
298
100
AcDbEntity
  8
ｴｸｽﾃﾘｱ商品
 62
    43
370
    20
100
AcDbFaceRecord
 10
0.0
 20
0.0
 30
0.0
 70
   128
 71
     1
 72
    11
 73
     9
 74
     7
  0
VERTEX
  5
336
330
298
100
AcDbEntity
  8
ｴｸｽﾃﾘｱ商品
 62
    43
370
    20
100
AcDbFaceRecord
 10
0.0
 20
0.0
 30
0.0
 70
   128
 71
     1
 72
     7
 73
     5
 74
     2
  0
VERTEX
  5
337
330
298
100
AcDbEntity
  8
ｴｸｽﾃﾘｱ商品
 62
    43
370
    20
100
AcDbFaceRecord
 10
0.0
 20
0.0
 30
0.0
 70
   128
 71
    67
 72
    66
 73
    69
 74
    71
  0
VERTEX
  5
338
330
298
100
AcDbEntity
  8
ｴｸｽﾃﾘｱ商品
 62
    43
370
    20
100
AcDbFaceRecord
 10
0.0
 20
0.0
 30
0.0
 70
   128
 71
    67
 72
    71
 73
    73
 74
    76
  0
VERTEX
  5
339
330
298
100
AcDbEntity
  8
ｴｸｽﾃﾘｱ商品
 62
    43
370
    20
100
AcDbFaceRecord
 10
0.0
 20
0.0
 30
0.0
 70
   128
 71
    67
 72
    76
 73
    75
 74
    78
  0
VERTEX
  5
33A
330
298
100
AcDbEntity
  8
ｴｸｽﾃﾘｱ商品
 62
    43
370
    20
100
AcDbFaceRecord
 10
0.0
 20
0.0
 30
0.0
 70
   128
 71
    67
 72
    78
 73
    80
 74
    82
  0
VERTEX
  5
33B
330
298
100
AcDbEntity
  8
ｴｸｽﾃﾘｱ商品
 62
    43
370
    20
100
AcDbFaceRecord
 10
0.0
 20
0.0
 30
0.0
 70
   128
 71
    67
 72
    82
 73
    84
 74
    86
  0
VERTEX
  5
33C
330
298
100
AcDbEntity
  8
ｴｸｽﾃﾘｱ商品
 62
    43
370
    20
100
AcDbFaceRecord
 10
0.0
 20
0.0
 30
0.0
 70
   128
 71
    67
 72
    86
 73
    88
 74
    90
  0
VERTEX
  5
33D
330
298
100
AcDbEntity
  8
ｴｸｽﾃﾘｱ商品
 62
    43
370
    20
100
AcDbFaceRecord
 10
0.0
 20
0.0
 30
0.0
 70
   128
 71
    67
 72
    90
 73
     4
 74
     3
  0
VERTEX
  5
33E
330
298
100
AcDbEntity
  8
ｴｸｽﾃﾘｱ商品
 62
    43
370
    20
100
AcDbFaceRecord
 10
0.0
 20
0.0
 30
0.0
 70
   128
 71
    67
 72
     3
 73
     6
 74
     8
  0
VERTEX
  5
33F
330
298
100
AcDbEntity
  8
ｴｸｽﾃﾘｱ商品
 62
    43
370
    20
100
AcDbFaceRecord
 10
0.0
 20
0.0
 30
0.0
 70
   128
 71
    67
 72
     8
 73
    10
 74
    12
  0
VERTEX
  5
340
330
298
100
AcDbEntity
  8
ｴｸｽﾃﾘｱ商品
 62
    43
370
    20
100
AcDbFaceRecord
 10
0.0
 20
0.0
 30
0.0
 70
   128
 71
    67
 72
    12
 73
    14
 74
    16
  0
VERTEX
  5
341
330
298
100
AcDbEntity
  8
ｴｸｽﾃﾘｱ商品
 62
    43
370
    20
100
AcDbFaceRecord
 10
0.0
 20
0.0
 30
0.0
 70
   128
 71
    67
 72
    16
 73
    18
 74
    20
  0
VERTEX
  5
342
330
298
100
AcDbEntity
  8
ｴｸｽﾃﾘｱ商品
 62
    43
370
    20
100
AcDbFaceRecord
 10
0.0
 20
0.0
 30
0.0
 70
   128
 71
    67
 72
    20
 73
    22
 74
    24
  0
VERTEX
  5
343
330
298
100
AcDbEntity
  8
ｴｸｽﾃﾘｱ商品
 62
    43
370
    20
100
AcDbFaceRecord
 10
0.0
 20
0.0
 30
0.0
 70
   128
 71
    67
 72
    24
 73
    26
 74
    28
  0
VERTEX
  5
344
330
298
100
AcDbEntity
  8
ｴｸｽﾃﾘｱ商品
 62
    43
370
    20
100
AcDbFaceRecord
 10
0.0
 20
0.0
 30
0.0
 70
   128
 71
    67
 72
    28
 73
    30
 74
    32
  0
VERTEX
  5
345
330
298
100
AcDbEntity
  8
ｴｸｽﾃﾘｱ商品
 62
    43
370
    20
100
AcDbFaceRecord
 10
0.0
 20
0.0
 30
0.0
 70
   128
 71
    67
 72
    32
 73
    34
 74
    36
  0
VERTEX
  5
346
330
298
100
AcDbEntity
  8
ｴｸｽﾃﾘｱ商品
 62
    43
370
    20
100
AcDbFaceRecord
 10
0.0
 20
0.0
 30
0.0
 70
   128
 71
    67
 72
    36
 73
    38
 74
    40
  0
VERTEX
  5
347
330
298
100
AcDbEntity
  8
ｴｸｽﾃﾘｱ商品
 62
    43
370
    20
100
AcDbFaceRecord
 10
0.0
 20
0.0
 30
0.0
 70
   128
 71
    67
 72
    40
 73
    42
 74
    44
  0
VERTEX
  5
348
330
298
100
AcDbEntity
  8
ｴｸｽﾃﾘｱ商品
 62
    43
370
    20
100
AcDbFaceRecord
 10
0.0
 20
0.0
 30
0.0
 70
   128
 71
    67
 72
    44
 73
    46
 74
    48
  0
VERTEX
  5
349
330
298
100
AcDbEntity
  8
ｴｸｽﾃﾘｱ商品
 62
    43
370
    20
100
AcDbFaceRecord
 10
0.0
 20
0.0
 30
0.0
 70
   128
 71
    67
 72
    48
 73
    50
 74
    52
  0
VERTEX
  5
34A
330
298
100
AcDbEntity
  8
ｴｸｽﾃﾘｱ商品
 62
    43
370
    20
100
AcDbFaceRecord
 10
0.0
 20
0.0
 30
0.0
 70
   128
 71
    67
 72
    52
 73
    54
 74
    56
  0
VERTEX
  5
34B
330
298
100
AcDbEntity
  8
ｴｸｽﾃﾘｱ商品
 62
    43
370
    20
100
AcDbFaceRecord
 10
0.0
 20
0.0
 30
0.0
 70
   128
 71
    67
 72
    56
 73
    58
 74
    60
  0
VERTEX
  5
34C
330
298
100
AcDbEntity
  8
ｴｸｽﾃﾘｱ商品
 62
    43
370
    20
100
AcDbFaceRecord
 10
0.0
 20
0.0
 30
0.0
 70
   128
 71
    67
 72
    60
 73
    62
 74
    64
  0
SEQEND
  5
299
330
298
100
AcDbEntity
  8
ｴｸｽﾃﾘｱ商品
370
    20
  0
POLYLINE
  5
34D
330
3C
100
AcDbEntity
  8
ｴｸｽﾃﾘｱ商品
 62
   253
370
    20
100
AcDbPolyFaceMesh
 66
     1
 10
0.0
 20
0.0
 30
0.0
 70
    64
 71
    16
 72
    18
  0
VERTEX
  5
34F
330
34D
100
AcDbEntity
  8
ｴｸｽﾃﾘｱ商品
 62
   253
370
    20
100
AcDbVertex
100
AcDbPolyFaceMeshVertex
 10
3782.227578071854
 20
2041.36002187428
 30
11.0
 70
   192
  0
VERTEX
  5
350
330
34D
100
AcDbEntity
  8
ｴｸｽﾃﾘｱ商品
 62
   253
370
    20
100
AcDbVertex
100
AcDbPolyFaceMeshVertex
 10
3782.227578071854
 20
2041.36002187428
 30
441.0
 70
   192
  0
VERTEX
  5
351
330
34D
100
AcDbEntity
  8
ｴｸｽﾃﾘｱ商品
 62
   253
370
    20
100
AcDbVertex
100
AcDbPolyFaceMeshVertex
 10
3800.727578071854
 20
2041.36002187428
 30
441.0
 70
   192
  0
VERTEX
  5
352
330
34D
100
AcDbEntity
  8
ｴｸｽﾃﾘｱ商品
 62
   253
370
    20
100
AcDbVertex
100
AcDbPolyFaceMeshVertex
 10
3800.727578071854
 20
2041.36002187428
 30
11.0
 70
   192
  0
VERTEX
  5
353
330
34D
100
AcDbEntity
  8
ｴｸｽﾃﾘｱ商品
 62
   253
370
    20
100
AcDbVertex
100
AcDbPolyFaceMeshVertex
 10
3800.727578071854
 20
2044.86002187428
 30
441.0
 70
   192
  0
VERTEX
  5
354
330
34D
100
AcDbEntity
  8
ｴｸｽﾃﾘｱ商品
 62
   253
370
    20
100
AcDbVertex
100
AcDbPolyFaceMeshVertex
 10
3800.727578071854
 20
2044.86002187428
 30
11.0
 70
   192
  0
VERTEX
  5
355
330
34D
100
AcDbEntity
  8
ｴｸｽﾃﾘｱ商品
 62
   253
370
    20
100
AcDbVertex
100
AcDbPolyFaceMeshVertex
 10
3837.227578071854
 20
2044.86002187428
 30
441.0
 70
   192
  0
VERTEX
  5
356
330
34D
100
AcDbEntity
  8
ｴｸｽﾃﾘｱ商品
 62
   253
370
    20
100
AcDbVertex
100
AcDbPolyFaceMeshVertex
 10
3837.227578071854
 20
2044.86002187428
 30
11.0
 70
   192
  0
VERTEX
  5
357
330
34D
100
AcDbEntity
  8
ｴｸｽﾃﾘｱ商品
 62
   253
370
    20
100
AcDbVertex
100
AcDbPolyFaceMeshVertex
 10
3837.227578071854
 20
2007.86002187428
 30
441.0
 70
   192
  0
VERTEX
  5
358
330
34D
100
AcDbEntity
  8
ｴｸｽﾃﾘｱ商品
 62
   253
370
    20
100
AcDbVertex
100
AcDbPolyFaceMeshVertex
 10
3837.227578071854
 20
2007.86002187428
 30
11.0
 70
   192
  0
VERTEX
  5
359
330
34D
100
AcDbEntity
  8
ｴｸｽﾃﾘｱ商品
 62
   253
370
    20
100
AcDbVertex
100
AcDbPolyFaceMeshVertex
 10
3800.727578071854
 20
2007.86002187428
 30
441.0
 70
   192
  0
VERTEX
  5
35A
330
34D
100
AcDbEntity
  8
ｴｸｽﾃﾘｱ商品
 62
   253
370
    20
100
AcDbVertex
100
AcDbPolyFaceMeshVertex
 10
3800.727578071854
 20
2007.86002187428
 30
11.0
 70
   192
  0
VERTEX
  5
35B
330
34D
100
AcDbEntity
  8
ｴｸｽﾃﾘｱ商品
 62
   253
370
    20
100
AcDbVertex
100
AcDbPolyFaceMeshVertex
 10
3800.727578071854
 20
2011.360021874279
 30
441.0
 70
   192
  0
VERTEX
  5
35C
330
34D
100
AcDbEntity
  8
ｴｸｽﾃﾘｱ商品
 62
   253
370
    20
100
AcDbVertex
100
AcDbPolyFaceMeshVertex
 10
3800.727578071854
 20
2011.360021874279
 30
11.0
 70
   192
  0
VERTEX
  5
35D
330
34D
100
AcDbEntity
  8
ｴｸｽﾃﾘｱ商品
 62
   253
370
    20
100
AcDbVertex
100
AcDbPolyFaceMeshVertex
 10
3782.227578071854
 20
2011.360021874279
 30
441.0
 70
   192
  0
VERTEX
  5
35E
330
34D
100
AcDbEntity
  8
ｴｸｽﾃﾘｱ商品
 62
   253
370
    20
100
AcDbVertex
100
AcDbPolyFaceMeshVertex
 10
3782.227578071854
 20
2011.360021874279
 30
11.0
 70
   192
  0
VERTEX
  5
35F
330
34D
100
AcDbEntity
  8
ｴｸｽﾃﾘｱ商品
 62
   253
370
    20
100
AcDbFaceRecord
 10
0.0
 20
0.0
 30
0.0
 70
   128
 71
     1
 72
     2
 73
     3
 74
     4
  0
VERTEX
  5
360
330
34D
100
AcDbEntity
  8
ｴｸｽﾃﾘｱ商品
 62
   253
370
    20
100
AcDbFaceRecord
 10
0.0
 20
0.0
 30
0.0
 70
   128
 71
     4
 72
     3
 73
     5
 74
     6
  0
VERTEX
  5
361
330
34D
100
AcDbEntity
  8
ｴｸｽﾃﾘｱ商品
 62
   253
370
    20
100
AcDbFaceRecord
 10
0.0
 20
0.0
 30
0.0
 70
   128
 71
     6
 72
     5
 73
     7
 74
     8
  0
VERTEX
  5
362
330
34D
100
AcDbEntity
  8
ｴｸｽﾃﾘｱ商品
 62
   253
370
    20
100
AcDbFaceRecord
 10
0.0
 20
0.0
 30
0.0
 70
   128
 71
     8
 72
     7
 73
     9
 74
    10
  0
VERTEX
  5
363
330
34D
100
AcDbEntity
  8
ｴｸｽﾃﾘｱ商品
 62
   253
370
    20
100
AcDbFaceRecord
 10
0.0
 20
0.0
 30
0.0
 70
   128
 71
    10
 72
     9
 73
    11
 74
    12
  0
VERTEX
  5
364
330
34D
100
AcDbEntity
  8
ｴｸｽﾃﾘｱ商品
 62
   253
370
    20
100
AcDbFaceRecord
 10
0.0
 20
0.0
 30
0.0
 70
   128
 71
    12
 72
    11
 73
    13
 74
    14
  0
VERTEX
  5
365
330
34D
100
AcDbEntity
  8
ｴｸｽﾃﾘｱ商品
 62
   253
370
    20
100
AcDbFaceRecord
 10
0.0
 20
0.0
 30
0.0
 70
   128
 71
    14
 72
    13
 73
    15
 74
    16
  0
VERTEX
  5
366
330
34D
100
AcDbEntity
  8
ｴｸｽﾃﾘｱ商品
 62
   253
370
    20
100
AcDbFaceRecord
 10
0.0
 20
0.0
 30
0.0
 70
   128
 71
    16
 72
    15
 73
     2
 74
     1
  0
VERTEX
  5
367
330
34D
100
AcDbEntity
  8
ｴｸｽﾃﾘｱ商品
 62
   253
370
    20
100
AcDbFaceRecord
 10
0.0
 20
0.0
 30
0.0
 70
   128
 71
    14
 72
    16
 73
     1
  0
VERTEX
  5
368
330
34D
100
AcDbEntity
  8
ｴｸｽﾃﾘｱ商品
 62
   253
370
    20
100
AcDbFaceRecord
 10
0.0
 20
0.0
 30
0.0
 70
   128
 71
    14
 72
     1
 73
     4
  0
VERTEX
  5
369
330
34D
100
AcDbEntity
  8
ｴｸｽﾃﾘｱ商品
 62
   253
370
    20
100
AcDbFaceRecord
 10
0.0
 20
0.0
 30
0.0
 70
   128
 71
    10
 72
    12
 73
     4
  0
VERTEX
  5
36A
330
34D
100
AcDbEntity
  8
ｴｸｽﾃﾘｱ商品
 62
   253
370
    20
100
AcDbFaceRecord
 10
0.0
 20
0.0
 30
0.0
 70
   128
 71
    10
 72
     4
 73
     8
  0
VERTEX
  5
36B
330
34D
100
AcDbEntity
  8
ｴｸｽﾃﾘｱ商品
 62
   253
370
    20
100
AcDbFaceRecord
 10
0.0
 20
0.0
 30
0.0
 70
   128
 71
     8
 72
     4
 73
     6
  0
VERTEX
  5
36C
330
34D
100
AcDbEntity
  8
ｴｸｽﾃﾘｱ商品
 62
   253
370
    20
100
AcDbFaceRecord
 10
0.0
 20
0.0
 30
0.0
 70
   128
 71
     3
 72
     2
 73
    15
  0
VERTEX
  5
36D
330
34D
100
AcDbEntity
  8
ｴｸｽﾃﾘｱ商品
 62
   253
370
    20
100
AcDbFaceRecord
 10
0.0
 20
0.0
 30
0.0
 70
   128
 71
     3
 72
    15
 73
    13
  0
VERTEX
  5
36E
330
34D
100
AcDbEntity
  8
ｴｸｽﾃﾘｱ商品
 62
   253
370
    20
100
AcDbFaceRecord
 10
0.0
 20
0.0
 30
0.0
 70
   128
 71
     7
 72
     5
 73
    13
  0
VERTEX
  5
36F
330
34D
100
AcDbEntity
  8
ｴｸｽﾃﾘｱ商品
 62
   253
370
    20
100
AcDbFaceRecord
 10
0.0
 20
0.0
 30
0.0
 70
   128
 71
     7
 72
    13
 73
     9
  0
VERTEX
  5
370
330
34D
100
AcDbEntity
  8
ｴｸｽﾃﾘｱ商品
 62
   253
370
    20
100
AcDbFaceRecord
 10
0.0
 20
0.0
 30
0.0
 70
   128
 71
     9
 72
    13
 73
    11
  0
SEQEND
  5
34E
330
34D
100
AcDbEntity
  8
ｴｸｽﾃﾘｱ商品
370
    20
  0
POLYLINE
  5
371
330
3C
100
AcDbEntity
  8
ｴｸｽﾃﾘｱ商品
 62
   253
370
    20
100
AcDbPolyFaceMesh
 66
     1
 10
0.0
 20
0.0
 30
0.0
 70
    64
 71
    16
 72
    18
  0
VERTEX
  5
373
330
371
100
AcDbEntity
  8
ｴｸｽﾃﾘｱ商品
 62
   253
370
    20
100
AcDbVertex
100
AcDbPolyFaceMeshVertex
 10
3782.227578071854
 20
771.3600218742798
 30
11.0
 70
   192
  0
VERTEX
  5
374
330
371
100
AcDbEntity
  8
ｴｸｽﾃﾘｱ商品
 62
   253
370
    20
100
AcDbVertex
100
AcDbPolyFaceMeshVertex
 10
3782.227578071854
 20
771.3600218742798
 30
441.0
 70
   192
  0
VERTEX
  5
375
330
371
100
AcDbEntity
  8
ｴｸｽﾃﾘｱ商品
 62
   253
370
    20
100
AcDbVertex
100
AcDbPolyFaceMeshVertex
 10
3800.727578071854
 20
771.3600218742798
 30
441.0
 70
   192
  0
VERTEX
  5
376
330
371
100
AcDbEntity
  8
ｴｸｽﾃﾘｱ商品
 62
   253
370
    20
100
AcDbVertex
100
AcDbPolyFaceMeshVertex
 10
3800.727578071854
 20
771.3600218742798
 30
11.0
 70
   192
  0
VERTEX
  5
377
330
371
100
AcDbEntity
  8
ｴｸｽﾃﾘｱ商品
 62
   253
370
    20
100
AcDbVertex
100
AcDbPolyFaceMeshVertex
 10
3800.727578071854
 20
774.8600218742798
 30
441.0
 70
   192
  0
VERTEX
  5
378
330
371
100
AcDbEntity
  8
ｴｸｽﾃﾘｱ商品
 62
   253
370
    20
100
AcDbVertex
100
AcDbPolyFaceMeshVertex
 10
3800.727578071854
 20
774.8600218742798
 30
11.0
 70
   192
  0
VERTEX
  5
379
330
371
100
AcDbEntity
  8
ｴｸｽﾃﾘｱ商品
 62
   253
370
    20
100
AcDbVertex
100
AcDbPolyFaceMeshVertex
 10
3837.227578071854
 20
774.8600218742798
 30
441.0
 70
   192
  0
VERTEX
  5
37A
330
371
100
AcDbEntity
  8
ｴｸｽﾃﾘｱ商品
 62
   253
370
    20
100
AcDbVertex
100
AcDbPolyFaceMeshVertex
 10
3837.227578071854
 20
774.8600218742798
 30
11.0
 70
   192
  0
VERTEX
  5
37B
330
371
100
AcDbEntity
  8
ｴｸｽﾃﾘｱ商品
 62
   253
370
    20
100
AcDbVertex
100
AcDbPolyFaceMeshVertex
 10
3837.227578071854
 20
737.8600218742799
 30
441.0
 70
   192
  0
VERTEX
  5
37C
330
371
100
AcDbEntity
  8
ｴｸｽﾃﾘｱ商品
 62
   253
370
    20
100
AcDbVertex
100
AcDbPolyFaceMeshVertex
 10
3837.227578071854
 20
737.8600218742799
 30
11.0
 70
   192
  0
VERTEX
  5
37D
330
371
100
AcDbEntity
  8
ｴｸｽﾃﾘｱ商品
 62
   253
370
    20
100
AcDbVertex
100
AcDbPolyFaceMeshVertex
 10
3800.727578071854
 20
737.8600218742799
 30
441.0
 70
   192
  0
VERTEX
  5
37E
330
371
100
AcDbEntity
  8
ｴｸｽﾃﾘｱ商品
 62
   253
370
    20
100
AcDbVertex
100
AcDbPolyFaceMeshVertex
 10
3800.727578071854
 20
737.8600218742799
 30
11.0
 70
   192
  0
VERTEX
  5
37F
330
371
100
AcDbEntity
  8
ｴｸｽﾃﾘｱ商品
 62
   253
370
    20
100
AcDbVertex
100
AcDbPolyFaceMeshVertex
 10
3800.727578071854
 20
741.3600218742798
 30
441.0
 70
   192
  0
VERTEX
  5
380
330
371
100
AcDbEntity
  8
ｴｸｽﾃﾘｱ商品
 62
   253
370
    20
100
AcDbVertex
100
AcDbPolyFaceMeshVertex
 10
3800.727578071854
 20
741.3600218742798
 30
11.0
 70
   192
  0
VERTEX
  5
381
330
371
100
AcDbEntity
  8
ｴｸｽﾃﾘｱ商品
 62
   253
370
    20
100
AcDbVertex
100
AcDbPolyFaceMeshVertex
 10
3782.227578071854
 20
741.3600218742798
 30
441.0
 70
   192
  0
VERTEX
  5
382
330
371
100
AcDbEntity
  8
ｴｸｽﾃﾘｱ商品
 62
   253
370
    20
100
AcDbVertex
100
AcDbPolyFaceMeshVertex
 10
3782.227578071854
 20
741.3600218742798
 30
11.0
 70
   192
  0
VERTEX
  5
383
330
371
100
AcDbEntity
  8
ｴｸｽﾃﾘｱ商品
 62
   253
370
    20
100
AcDbFaceRecord
 10
0.0
 20
0.0
 30
0.0
 70
   128
 71
     1
 72
     2
 73
     3
 74
     4
  0
VERTEX
  5
384
330
371
100
AcDbEntity
  8
ｴｸｽﾃﾘｱ商品
 62
   253
370
    20
100
AcDbFaceRecord
 10
0.0
 20
0.0
 30
0.0
 70
   128
 71
     4
 72
     3
 73
     5
 74
     6
  0
VERTEX
  5
385
330
371
100
AcDbEntity
  8
ｴｸｽﾃﾘｱ商品
 62
   253
370
    20
100
AcDbFaceRecord
 10
0.0
 20
0.0
 30
0.0
 70
   128
 71
     6
 72
     5
 73
     7
 74
     8
  0
VERTEX
  5
386
330
371
100
AcDbEntity
  8
ｴｸｽﾃﾘｱ商品
 62
   253
370
    20
100
AcDbFaceRecord
 10
0.0
 20
0.0
 30
0.0
 70
   128
 71
     8
 72
     7
 73
     9
 74
    10
  0
VERTEX
  5
387
330
371
100
AcDbEntity
  8
ｴｸｽﾃﾘｱ商品
 62
   253
370
    20
100
AcDbFaceRecord
 10
0.0
 20
0.0
 30
0.0
 70
   128
 71
    10
 72
     9
 73
    11
 74
    12
  0
VERTEX
  5
388
330
371
100
AcDbEntity
  8
ｴｸｽﾃﾘｱ商品
 62
   253
370
    20
100
AcDbFaceRecord
 10
0.0
 20
0.0
 30
0.0
 70
   128
 71
    12
 72
    11
 73
    13
 74
    14
  0
VERTEX
  5
389
330
371
100
AcDbEntity
  8
ｴｸｽﾃﾘｱ商品
 62
   253
370
    20
100
AcDbFaceRecord
 10
0.0
 20
0.0
 30
0.0
 70
   128
 71
    14
 72
    13
 73
    15
 74
    16
  0
VERTEX
  5
38A
330
371
100
AcDbEntity
  8
ｴｸｽﾃﾘｱ商品
 62
   253
370
    20
100
AcDbFaceRecord
 10
0.0
 20
0.0
 30
0.0
 70
   128
 71
    16
 72
    15
 73
     2
 74
     1
  0
VERTEX
  5
38B
330
371
100
AcDbEntity
  8
ｴｸｽﾃﾘｱ商品
 62
   253
370
    20
100
AcDbFaceRecord
 10
0.0
 20
0.0
 30
0.0
 70
   128
 71
    14
 72
    16
 73
     1
  0
VERTEX
  5
38C
330
371
100
AcDbEntity
  8
ｴｸｽﾃﾘｱ商品
 62
   253
370
    20
100
AcDbFaceRecord
 10
0.0
 20
0.0
 30
0.0
 70
   128
 71
    14
 72
     1
 73
     4
  0
VERTEX
  5
38D
330
371
100
AcDbEntity
  8
ｴｸｽﾃﾘｱ商品
 62
   253
370
    20
100
AcDbFaceRecord
 10
0.0
 20
0.0
 30
0.0
 70
   128
 71
    10
 72
    12
 73
     4
  0
VERTEX
  5
38E
330
371
100
AcDbEntity
  8
ｴｸｽﾃﾘｱ商品
 62
   253
370
    20
100
AcDbFaceRecord
 10
0.0
 20
0.0
 30
0.0
 70
   128
 71
    10
 72
     4
 73
     8
  0
VERTEX
  5
38F
330
371
100
AcDbEntity
  8
ｴｸｽﾃﾘｱ商品
 62
   253
370
    20
100
AcDbFaceRecord
 10
0.0
 20
0.0
 30
0.0
 70
   128
 71
     8
 72
     4
 73
     6
  0
VERTEX
  5
390
330
371
100
AcDbEntity
  8
ｴｸｽﾃﾘｱ商品
 62
   253
370
    20
100
AcDbFaceRecord
 10
0.0
 20
0.0
 30
0.0
 70
   128
 71
     3
 72
     2
 73
    15
  0
VERTEX
  5
391
330
371
100
AcDbEntity
  8
ｴｸｽﾃﾘｱ商品
 62
   253
370
    20
100
AcDbFaceRecord
 10
0.0
 20
0.0
 30
0.0
 70
   128
 71
     3
 72
    15
 73
    13
  0
VERTEX
  5
392
330
371
100
AcDbEntity
  8
ｴｸｽﾃﾘｱ商品
 62
   253
370
    20
100
AcDbFaceRecord
 10
0.0
 20
0.0
 30
0.0
 70
   128
 71
     7
 72
     5
 73
    13
  0
VERTEX
  5
393
330
371
100
AcDbEntity
  8
ｴｸｽﾃﾘｱ商品
 62
   253
370
    20
100
AcDbFaceRecord
 10
0.0
 20
0.0
 30
0.0
 70
   128
 71
     7
 72
    13
 73
     9
  0
VERTEX
  5
394
330
371
100
AcDbEntity
  8
ｴｸｽﾃﾘｱ商品
 62
   253
370
    20
100
AcDbFaceRecord
 10
0.0
 20
0.0
 30
0.0
 70
   128
 71
     9
 72
    13
 73
    11
  0
SEQEND
  5
372
330
371
100
AcDbEntity
  8
ｴｸｽﾃﾘｱ商品
370
    20
  0
POLYLINE
  5
395
330
3C
100
AcDbEntity
  8
ｴｸｽﾃﾘｱ商品
 62
   253
370
    20
100
AcDbPolyFaceMesh
 66
     1
 10
0.0
 20
0.0
 30
0.0
 70
    64
 71
    16
 72
    18
  0
VERTEX
  5
397
330
395
100
AcDbEntity
  8
ｴｸｽﾃﾘｱ商品
 62
   253
370
    20
100
AcDbVertex
100
AcDbPolyFaceMeshVertex
 10
3782.227578071854
 20
1406.36002187428
 30
11.0
 70
   192
  0
VERTEX
  5
398
330
395
100
AcDbEntity
  8
ｴｸｽﾃﾘｱ商品
 62
   253
370
    20
100
AcDbVertex
100
AcDbPolyFaceMeshVertex
 10
3782.227578071854
 20
1406.36002187428
 30
441.0
 70
   192
  0
VERTEX
  5
399
330
395
100
AcDbEntity
  8
ｴｸｽﾃﾘｱ商品
 62
   253
370
    20
100
AcDbVertex
100
AcDbPolyFaceMeshVertex
 10
3800.727578071854
 20
1406.36002187428
 30
441.0
 70
   192
  0
VERTEX
  5
39A
330
395
100
AcDbEntity
  8
ｴｸｽﾃﾘｱ商品
 62
   253
370
    20
100
AcDbVertex
100
AcDbPolyFaceMeshVertex
 10
3800.727578071854
 20
1406.36002187428
 30
11.0
 70
   192
  0
VERTEX
  5
39B
330
395
100
AcDbEntity
  8
ｴｸｽﾃﾘｱ商品
 62
   253
370
    20
100
AcDbVertex
100
AcDbPolyFaceMeshVertex
 10
3800.727578071854
 20
1409.86002187428
 30
441.0
 70
   192
  0
VERTEX
  5
39C
330
395
100
AcDbEntity
  8
ｴｸｽﾃﾘｱ商品
 62
   253
370
    20
100
AcDbVertex
100
AcDbPolyFaceMeshVertex
 10
3800.727578071854
 20
1409.86002187428
 30
11.0
 70
   192
  0
VERTEX
  5
39D
330
395
100
AcDbEntity
  8
ｴｸｽﾃﾘｱ商品
 62
   253
370
    20
100
AcDbVertex
100
AcDbPolyFaceMeshVertex
 10
3837.227578071854
 20
1409.86002187428
 30
441.0
 70
   192
  0
VERTEX
  5
39E
330
395
100
AcDbEntity
  8
ｴｸｽﾃﾘｱ商品
 62
   253
370
    20
100
AcDbVertex
100
AcDbPolyFaceMeshVertex
 10
3837.227578071854
 20
1409.86002187428
 30
11.0
 70
   192
  0
VERTEX
  5
39F
330
395
100
AcDbEntity
  8
ｴｸｽﾃﾘｱ商品
 62
   253
370
    20
100
AcDbVertex
100
AcDbPolyFaceMeshVertex
 10
3837.227578071854
 20
1372.86002187428
 30
441.0
 70
   192
  0
VERTEX
  5
3A0
330
395
100
AcDbEntity
  8
ｴｸｽﾃﾘｱ商品
 62
   253
370
    20
100
AcDbVertex
100
AcDbPolyFaceMeshVertex
 10
3837.227578071854
 20
1372.86002187428
 30
11.0
 70
   192
  0
VERTEX
  5
3A1
330
395
100
AcDbEntity
  8
ｴｸｽﾃﾘｱ商品
 62
   253
370
    20
100
AcDbVertex
100
AcDbPolyFaceMeshVertex
 10
3800.727578071854
 20
1372.86002187428
 30
441.0
 70
   192
  0
VERTEX
  5
3A2
330
395
100
AcDbEntity
  8
ｴｸｽﾃﾘｱ商品
 62
   253
370
    20
100
AcDbVertex
100
AcDbPolyFaceMeshVertex
 10
3800.727578071854
 20
1372.86002187428
 30
11.0
 70
   192
  0
VERTEX
  5
3A3
330
395
100
AcDbEntity
  8
ｴｸｽﾃﾘｱ商品
 62
   253
370
    20
100
AcDbVertex
100
AcDbPolyFaceMeshVertex
 10
3800.727578071854
 20
1376.36002187428
 30
441.0
 70
   192
  0
VERTEX
  5
3A4
330
395
100
AcDbEntity
  8
ｴｸｽﾃﾘｱ商品
 62
   253
370
    20
100
AcDbVertex
100
AcDbPolyFaceMeshVertex
 10
3800.727578071854
 20
1376.36002187428
 30
11.0
 70
   192
  0
VERTEX
  5
3A5
330
395
100
AcDbEntity
  8
ｴｸｽﾃﾘｱ商品
 62
   253
370
    20
100
AcDbVertex
100
AcDbPolyFaceMeshVertex
 10
3782.227578071854
 20
1376.36002187428
 30
441.0
 70
   192
  0
VERTEX
  5
3A6
330
395
100
AcDbEntity
  8
ｴｸｽﾃﾘｱ商品
 62
   253
370
    20
100
AcDbVertex
100
AcDbPolyFaceMeshVertex
 10
3782.227578071854
 20
1376.36002187428
 30
11.0
 70
   192
  0
VERTEX
  5
3A7
330
395
100
AcDbEntity
  8
ｴｸｽﾃﾘｱ商品
 62
   253
370
    20
100
AcDbFaceRecord
 10
0.0
 20
0.0
 30
0.0
 70
   128
 71
     1
 72
     2
 73
     3
 74
     4
  0
VERTEX
  5
3A8
330
395
100
AcDbEntity
  8
ｴｸｽﾃﾘｱ商品
 62
   253
370
    20
100
AcDbFaceRecord
 10
0.0
 20
0.0
 30
0.0
 70
   128
 71
     4
 72
     3
 73
     5
 74
     6
  0
VERTEX
  5
3A9
330
395
100
AcDbEntity
  8
ｴｸｽﾃﾘｱ商品
 62
   253
370
    20
100
AcDbFaceRecord
 10
0.0
 20
0.0
 30
0.0
 70
   128
 71
     6
 72
     5
 73
     7
 74
     8
  0
VERTEX
  5
3AA
330
395
100
AcDbEntity
  8
ｴｸｽﾃﾘｱ商品
 62
   253
370
    20
100
AcDbFaceRecord
 10
0.0
 20
0.0
 30
0.0
 70
   128
 71
     8
 72
     7
 73
     9
 74
    10
  0
VERTEX
  5
3AB
330
395
100
AcDbEntity
  8
ｴｸｽﾃﾘｱ商品
 62
   253
370
    20
100
AcDbFaceRecord
 10
0.0
 20
0.0
 30
0.0
 70
   128
 71
    10
 72
     9
 73
    11
 74
    12
  0
VERTEX
  5
3AC
330
395
100
AcDbEntity
  8
ｴｸｽﾃﾘｱ商品
 62
   253
370
    20
100
AcDbFaceRecord
 10
0.0
 20
0.0
 30
0.0
 70
   128
 71
    12
 72
    11
 73
    13
 74
    14
  0
VERTEX
  5
3AD
330
395
100
AcDbEntity
  8
ｴｸｽﾃﾘｱ商品
 62
   253
370
    20
100
AcDbFaceRecord
 10
0.0
 20
0.0
 30
0.0
 70
   128
 71
    14
 72
    13
 73
    15
 74
    16
  0
VERTEX
  5
3AE
330
395
100
AcDbEntity
  8
ｴｸｽﾃﾘｱ商品
 62
   253
370
    20
100
AcDbFaceRecord
 10
0.0
 20
0.0
 30
0.0
 70
   128
 71
    16
 72
    15
 73
     2
 74
     1
  0
VERTEX
  5
3AF
330
395
100
AcDbEntity
  8
ｴｸｽﾃﾘｱ商品
 62
   253
370
    20
100
AcDbFaceRecord
 10
0.0
 20
0.0
 30
0.0
 70
   128
 71
    14
 72
    16
 73
     1
  0
VERTEX
  5
3B0
330
395
100
AcDbEntity
  8
ｴｸｽﾃﾘｱ商品
 62
   253
370
    20
100
AcDbFaceRecord
 10
0.0
 20
0.0
 30
0.0
 70
   128
 71
    14
 72
     1
 73
     4
  0
VERTEX
  5
3B1
330
395
100
AcDbEntity
  8
ｴｸｽﾃﾘｱ商品
 62
   253
370
    20
100
AcDbFaceRecord
 10
0.0
 20
0.0
 30
0.0
 70
   128
 71
    10
 72
    12
 73
     4
  0
VERTEX
  5
3B2
330
395
100
AcDbEntity
  8
ｴｸｽﾃﾘｱ商品
 62
   253
370
    20
100
AcDbFaceRecord
 10
0.0
 20
0.0
 30
0.0
 70
   128
 71
    10
 72
     4
 73
     8
  0
VERTEX
  5
3B3
330
395
100
AcDbEntity
  8
ｴｸｽﾃﾘｱ商品
 62
   253
370
    20
100
AcDbFaceRecord
 10
0.0
 20
0.0
 30
0.0
 70
   128
 71
     8
 72
     4
 73
     6
  0
VERTEX
  5
3B4
330
395
100
AcDbEntity
  8
ｴｸｽﾃﾘｱ商品
 62
   253
370
    20
100
AcDbFaceRecord
 10
0.0
 20
0.0
 30
0.0
 70
   128
 71
     3
 72
     2
 73
    15
  0
VERTEX
  5
3B5
330
395
100
AcDbEntity
  8
ｴｸｽﾃﾘｱ商品
 62
   253
370
    20
100
AcDbFaceRecord
 10
0.0
 20
0.0
 30
0.0
 70
   128
 71
     3
 72
    15
 73
    13
  0
VERTEX
  5
3B6
330
395
100
AcDbEntity
  8
ｴｸｽﾃﾘｱ商品
 62
   253
370
    20
100
AcDbFaceRecord
 10
0.0
 20
0.0
 30
0.0
 70
   128
 71
     7
 72
     5
 73
    13
  0
VERTEX
  5
3B7
330
395
100
AcDbEntity
  8
ｴｸｽﾃﾘｱ商品
 62
   253
370
    20
100
AcDbFaceRecord
 10
0.0
 20
0.0
 30
0.0
 70
   128
 71
     7
 72
    13
 73
     9
  0
VERTEX
  5
3B8
330
395
100
AcDbEntity
  8
ｴｸｽﾃﾘｱ商品
 62
   253
370
    20
100
AcDbFaceRecord
 10
0.0
 20
0.0
 30
0.0
 70
   128
 71
     9
 72
    13
 73
    11
  0
SEQEND
  5
396
330
395
100
AcDbEntity
  8
ｴｸｽﾃﾘｱ商品
370
    20
  0
POLYLINE
  5
3B9
330
3C
100
AcDbEntity
  8
ｴｸｽﾃﾘｱ商品
 62
   253
370
    20
100
AcDbPolyFaceMesh
 66
     1
 10
0.0
 20
0.0
 30
0.0
 70
    64
 71
    28
 72
    28
  0
VERTEX
  5
3BB
330
3B9
100
AcDbEntity
  8
ｴｸｽﾃﾘｱ商品
 62
   253
370
    20
100
AcDbVertex
100
AcDbPolyFaceMeshVertex
 10
3807.227578071854
 20
2306.36002187428
 30
21.0
 70
   192
  0
VERTEX
  5
3BC
330
3B9
100
AcDbEntity
  8
ｴｸｽﾃﾘｱ商品
 62
   253
370
    20
100
AcDbVertex
100
AcDbPolyFaceMeshVertex
 10
3807.227578071854
 20
556.3600218742803
 30
21.0
 70
   192
  0
VERTEX
  5
3BD
330
3B9
100
AcDbEntity
  8
ｴｸｽﾃﾘｱ商品
 62
   253
370
    20
100
AcDbVertex
100
AcDbPolyFaceMeshVertex
 10
3852.832578071854
 20
510.7550218742804
 30
20.85000000000001
 70
   192
  0
VERTEX
  5
3BE
330
3B9
100
AcDbEntity
  8
ｴｸｽﾃﾘｱ商品
 62
   253
370
    20
100
AcDbVertex
100
AcDbPolyFaceMeshVertex
 10
3852.832578071854
 20
2306.36002187428
 30
20.85000000000001
 70
   192
  0
VERTEX
  5
3BF
330
3B9
100
AcDbEntity
  8
ｴｸｽﾃﾘｱ商品
 62
   253
370
    20
100
AcDbVertex
100
AcDbPolyFaceMeshVertex
 10
3869.932578071854
 20
493.6550218742803
 30
15.37300000000001
 70
   192
  0
VERTEX
  5
3C0
330
3B9
100
AcDbEntity
  8
ｴｸｽﾃﾘｱ商品
 62
   253
370
    20
100
AcDbVertex
100
AcDbPolyFaceMeshVertex
 10
3869.932578071854
 20
2306.36002187428
 30
15.37300000000001
 70
   192
  0
VERTEX
  5
3C1
330
3B9
100
AcDbEntity
  8
ｴｸｽﾃﾘｱ商品
 62
   253
370
    20
100
AcDbVertex
100
AcDbPolyFaceMeshVertex
 10
3886.190578071854
 20
477.3970218742803
 30
7.753000000000006
 70
   192
  0
VERTEX
  5
3C2
330
3B9
100
AcDbEntity
  8
ｴｸｽﾃﾘｱ商品
 62
   253
370
    20
100
AcDbVertex
100
AcDbPolyFaceMeshVertex
 10
3886.190578071854
 20
2306.36002187428
 30
7.753000000000006
 70
   192
  0
VERTEX
  5
3C3
330
3B9
100
AcDbEntity
  8
ｴｸｽﾃﾘｱ商品
 62
   253
370
    20
100
AcDbVertex
100
AcDbPolyFaceMeshVertex
 10
3886.948578071854
 20
476.63902187428
 30
7.018000000000007
 70
   192
  0
VERTEX
  5
3C4
330
3B9
100
AcDbEntity
  8
ｴｸｽﾃﾘｱ商品
 62
   253
370
    20
100
AcDbVertex
100
AcDbPolyFaceMeshVertex
 10
3886.948578071854
 20
2306.36002187428
 30
7.018000000000007
 70
   192
  0
VERTEX
  5
3C5
330
3B9
100
AcDbEntity
  8
ｴｸｽﾃﾘｱ商品
 62
   253
370
    20
100
AcDbVertex
100
AcDbPolyFaceMeshVertex
 10
3887.227578071854
 20
476.3600218742798
 30
6.000000000000007
 70
   192
  0
VERTEX
  5
3C6
330
3B9
100
AcDbEntity
  8
ｴｸｽﾃﾘｱ商品
 62
   253
370
    20
100
AcDbVertex
100
AcDbPolyFaceMeshVertex
 10
3887.227578071854
 20
476.3600218742798
 30
6.000000000000007
 70
   192
  0
VERTEX
  5
3C7
330
3B9
100
AcDbEntity
  8
ｴｸｽﾃﾘｱ商品
 62
   253
370
    20
100
AcDbVertex
100
AcDbPolyFaceMeshVertex
 10
3887.227578071854
 20
2306.36002187428
 30
6.000000000000007
 70
   192
  0
VERTEX
  5
3C8
330
3B9
100
AcDbEntity
  8
ｴｸｽﾃﾘｱ商品
 62
   253
370
    20
100
AcDbVertex
100
AcDbPolyFaceMeshVertex
 10
3887.227578071854
 20
476.3600218742798
 30
-39.0
 70
   192
  0
VERTEX
  5
3C9
330
3B9
100
AcDbEntity
  8
ｴｸｽﾃﾘｱ商品
 62
   253
370
    20
100
AcDbVertex
100
AcDbPolyFaceMeshVertex
 10
3887.227578071854
 20
2306.36002187428
 30
-39.0
 70
   192
  0
VERTEX
  5
3CA
330
3B9
100
AcDbEntity
  8
ｴｸｽﾃﾘｱ商品
 62
   253
370
    20
100
AcDbVertex
100
AcDbPolyFaceMeshVertex
 10
3887.227578071854
 20
476.3600218742798
 30
-39.0
 70
   192
  0
VERTEX
  5
3CB
330
3B9
100
AcDbEntity
  8
ｴｸｽﾃﾘｱ商品
 62
   253
370
    20
100
AcDbVertex
100
AcDbPolyFaceMeshVertex
 10
3727.227578071854
 20
636.3600218742806
 30
-39.00000000000001
 70
   192
  0
VERTEX
  5
3CC
330
3B9
100
AcDbEntity
  8
ｴｸｽﾃﾘｱ商品
 62
   253
370
    20
100
AcDbVertex
100
AcDbPolyFaceMeshVertex
 10
3727.227578071854
 20
2306.36002187428
 30
-39.00000000000001
 70
   192
  0
VERTEX
  5
3CD
330
3B9
100
AcDbEntity
  8
ｴｸｽﾃﾘｱ商品
 62
   253
370
    20
100
AcDbVertex
100
AcDbPolyFaceMeshVertex
 10
3727.227578071854
 20
636.3600218742806
 30
5.999999999999996
 70
   192
  0
VERTEX
  5
3CE
330
3B9
100
AcDbEntity
  8
ｴｸｽﾃﾘｱ商品
 62
   253
370
    20
100
AcDbVertex
100
AcDbPolyFaceMeshVertex
 10
3727.227578071854
 20
2306.36002187428
 30
5.999999999999996
 70
   192
  0
VERTEX
  5
3CF
330
3B9
100
AcDbEntity
  8
ｴｸｽﾃﾘｱ商品
 62
   253
370
    20
100
AcDbVertex
100
AcDbPolyFaceMeshVertex
 10
3727.506578071854
 20
636.0810218742803
 30
7.017999999999996
 70
   192
  0
VERTEX
  5
3D0
330
3B9
100
AcDbEntity
  8
ｴｸｽﾃﾘｱ商品
 62
   253
370
    20
100
AcDbVertex
100
AcDbPolyFaceMeshVertex
 10
3727.506578071854
 20
2306.36002187428
 30
7.017999999999996
 70
   192
  0
VERTEX
  5
3D1
330
3B9
100
AcDbEntity
  8
ｴｸｽﾃﾘｱ商品
 62
   253
370
    20
100
AcDbVertex
100
AcDbPolyFaceMeshVertex
 10
3728.264578071854
 20
635.32302187428
 30
7.752999999999996
 70
   192
  0
VERTEX
  5
3D2
330
3B9
100
AcDbEntity
  8
ｴｸｽﾃﾘｱ商品
 62
   253
370
    20
100
AcDbVertex
100
AcDbPolyFaceMeshVertex
 10
3728.264578071854
 20
2306.36002187428
 30
7.752999999999996
 70
   192
  0
VERTEX
  5
3D3
330
3B9
100
AcDbEntity
  8
ｴｸｽﾃﾘｱ商品
 62
   253
370
    20
100
AcDbVertex
100
AcDbPolyFaceMeshVertex
 10
3744.522578071854
 20
619.0650218742807
 30
15.373
 70
   192
  0
VERTEX
  5
3D4
330
3B9
100
AcDbEntity
  8
ｴｸｽﾃﾘｱ商品
 62
   253
370
    20
100
AcDbVertex
100
AcDbPolyFaceMeshVertex
 10
3744.522578071854
 20
2306.36002187428
 30
15.373
 70
   192
  0
VERTEX
  5
3D5
330
3B9
100
AcDbEntity
  8
ｴｸｽﾃﾘｱ商品
 62
   253
370
    20
100
AcDbVertex
100
AcDbPolyFaceMeshVertex
 10
3762.226578071854
 20
601.3610218742807
 30
20.962
 70
   192
  0
VERTEX
  5
3D6
330
3B9
100
AcDbEntity
  8
ｴｸｽﾃﾘｱ商品
 62
   253
370
    20
100
AcDbVertex
100
AcDbPolyFaceMeshVertex
 10
3762.226578071854
 20
2306.36002187428
 30
20.962
 70
   192
  0
VERTEX
  5
3D7
330
3B9
100
AcDbEntity
  8
ｴｸｽﾃﾘｱ商品
 62
   253
370
    20
100
AcDbFaceRecord
 10
0.0
 20
0.0
 30
0.0
 70
   128
 71
     1
 72
     2
 73
     3
 74
     4
  0
VERTEX
  5
3D8
330
3B9
100
AcDbEntity
  8
ｴｸｽﾃﾘｱ商品
 62
   253
370
    20
100
AcDbFaceRecord
 10
0.0
 20
0.0
 30
0.0
 70
   128
 71
     4
 72
     3
 73
     5
 74
     6
  0
VERTEX
  5
3D9
330
3B9
100
AcDbEntity
  8
ｴｸｽﾃﾘｱ商品
 62
   253
370
    20
100
AcDbFaceRecord
 10
0.0
 20
0.0
 30
0.0
 70
   128
 71
     6
 72
     5
 73
     7
 74
     8
  0
VERTEX
  5
3DA
330
3B9
100
AcDbEntity
  8
ｴｸｽﾃﾘｱ商品
 62
   253
370
    20
100
AcDbFaceRecord
 10
0.0
 20
0.0
 30
0.0
 70
   128
 71
     8
 72
     7
 73
     9
 74
    10
  0
VERTEX
  5
3DB
330
3B9
100
AcDbEntity
  8
ｴｸｽﾃﾘｱ商品
 62
   253
370
    20
100
AcDbFaceRecord
 10
0.0
 20
0.0
 30
0.0
 70
   128
 71
    10
 72
     9
 73
    11
 74
    12
  0
VERTEX
  5
3DC
330
3B9
100
AcDbEntity
  8
ｴｸｽﾃﾘｱ商品
 62
   253
370
    20
100
AcDbFaceRecord
 10
0.0
 20
0.0
 30
0.0
 70
   128
 71
    10
 72
    12
 73
    13
  0
VERTEX
  5
3DD
330
3B9
100
AcDbEntity
  8
ｴｸｽﾃﾘｱ商品
 62
   253
370
    20
100
AcDbFaceRecord
 10
0.0
 20
0.0
 30
0.0
 70
   128
 71
    13
 72
    12
 73
    14
 74
    15
  0
VERTEX
  5
3DE
330
3B9
100
AcDbEntity
  8
ｴｸｽﾃﾘｱ商品
 62
   253
370
    20
100
AcDbFaceRecord
 10
0.0
 20
0.0
 30
0.0
 70
   128
 71
    15
 72
    14
 73
    16
 74
    17
  0
VERTEX
  5
3DF
330
3B9
100
AcDbEntity
  8
ｴｸｽﾃﾘｱ商品
 62
   253
370
    20
100
AcDbFaceRecord
 10
0.0
 20
0.0
 30
0.0
 70
   128
 71
    15
 72
    17
 73
    18
  0
VERTEX
  5
3E0
330
3B9
100
AcDbEntity
  8
ｴｸｽﾃﾘｱ商品
 62
   253
370
    20
100
AcDbFaceRecord
 10
0.0
 20
0.0
 30
0.0
 70
   128
 71
    18
 72
    17
 73
    19
 74
    20
  0
VERTEX
  5
3E1
330
3B9
100
AcDbEntity
  8
ｴｸｽﾃﾘｱ商品
 62
   253
370
    20
100
AcDbFaceRecord
 10
0.0
 20
0.0
 30
0.0
 70
   128
 71
    20
 72
    19
 73
    21
 74
    22
  0
VERTEX
  5
3E2
330
3B9
100
AcDbEntity
  8
ｴｸｽﾃﾘｱ商品
 62
   253
370
    20
100
AcDbFaceRecord
 10
0.0
 20
0.0
 30
0.0
 70
   128
 71
    22
 72
    21
 73
    23
 74
    24
  0
VERTEX
  5
3E3
330
3B9
100
AcDbEntity
  8
ｴｸｽﾃﾘｱ商品
 62
   253
370
    20
100
AcDbFaceRecord
 10
0.0
 20
0.0
 30
0.0
 70
   128
 71
    24
 72
    23
 73
    25
 74
    26
  0
VERTEX
  5
3E4
330
3B9
100
AcDbEntity
  8
ｴｸｽﾃﾘｱ商品
 62
   253
370
    20
100
AcDbFaceRecord
 10
0.0
 20
0.0
 30
0.0
 70
   128
 71
    26
 72
    25
 73
    27
 74
    28
  0
VERTEX
  5
3E5
330
3B9
100
AcDbEntity
  8
ｴｸｽﾃﾘｱ商品
 62
   253
370
    20
100
AcDbFaceRecord
 10
0.0
 20
0.0
 30
0.0
 70
   128
 71
    28
 72
    27
 73
     2
 74
     1
  0
VERTEX
  5
3E6
330
3B9
100
AcDbEntity
  8
ｴｸｽﾃﾘｱ商品
 62
   253
370
    20
100
AcDbFaceRecord
 10
0.0
 20
0.0
 30
0.0
 70
   128
 71
     1
 72
     4
 73
     6
 74
     8
  0
VERTEX
  5
3E7
330
3B9
100
AcDbEntity
  8
ｴｸｽﾃﾘｱ商品
 62
   253
370
    20
100
AcDbFaceRecord
 10
0.0
 20
0.0
 30
0.0
 70
   128
 71
     1
 72
     8
 73
    10
 74
    13
  0
VERTEX
  5
3E8
330
3B9
100
AcDbEntity
  8
ｴｸｽﾃﾘｱ商品
 62
   253
370
    20
100
AcDbFaceRecord
 10
0.0
 20
0.0
 30
0.0
 70
   128
 71
     1
 72
    13
 73
    15
 74
    18
  0
VERTEX
  5
3E9
330
3B9
100
AcDbEntity
  8
ｴｸｽﾃﾘｱ商品
 62
   253
370
    20
100
AcDbFaceRecord
 10
0.0
 20
0.0
 30
0.0
 70
   128
 71
     1
 72
    18
 73
    20
 74
    22
  0
VERTEX
  5
3EA
330
3B9
100
AcDbEntity
  8
ｴｸｽﾃﾘｱ商品
 62
   253
370
    20
100
AcDbFaceRecord
 10
0.0
 20
0.0
 30
0.0
 70
   128
 71
     1
 72
    22
 73
    24
 74
    26
  0
VERTEX
  5
3EB
330
3B9
100
AcDbEntity
  8
ｴｸｽﾃﾘｱ商品
 62
   253
370
    20
100
AcDbFaceRecord
 10
0.0
 20
0.0
 30
0.0
 70
   128
 71
     1
 72
    26
 73
    28
  0
VERTEX
  5
3EC
330
3B9
100
AcDbEntity
  8
ｴｸｽﾃﾘｱ商品
 62
   253
370
    20
100
AcDbFaceRecord
 10
0.0
 20
0.0
 30
0.0
 70
   128
 71
    16
 72
    14
 73
    12
 74
    11
  0
VERTEX
  5
3ED
330
3B9
100
AcDbEntity
  8
ｴｸｽﾃﾘｱ商品
 62
   253
370
    20
100
AcDbFaceRecord
 10
0.0
 20
0.0
 30
0.0
 70
   128
 71
    11
 72
     9
 73
     7
 74
     5
  0
VERTEX
  5
3EE
330
3B9
100
AcDbEntity
  8
ｴｸｽﾃﾘｱ商品
 62
   253
370
    20
100
AcDbFaceRecord
 10
0.0
 20
0.0
 30
0.0
 70
   128
 71
    11
 72
     5
 73
     3
 74
     2
  0
VERTEX
  5
3EF
330
3B9
100
AcDbEntity
  8
ｴｸｽﾃﾘｱ商品
 62
   253
370
    20
100
AcDbFaceRecord
 10
0.0
 20
0.0
 30
0.0
 70
   128
 71
    11
 72
     2
 73
    27
 74
    25
  0
VERTEX
  5
3F0
330
3B9
100
AcDbEntity
  8
ｴｸｽﾃﾘｱ商品
 62
   253
370
    20
100
AcDbFaceRecord
 10
0.0
 20
0.0
 30
0.0
 70
   128
 71
    11
 72
    25
 73
    23
 74
    21
  0
VERTEX
  5
3F1
330
3B9
100
AcDbEntity
  8
ｴｸｽﾃﾘｱ商品
 62
   253
370
    20
100
AcDbFaceRecord
 10
0.0
 20
0.0
 30
0.0
 70
   128
 71
    11
 72
    21
 73
    19
 74
    17
  0
VERTEX
  5
3F2
330
3B9
100
AcDbEntity
  8
ｴｸｽﾃﾘｱ商品
 62
   253
370
    20
100
AcDbFaceRecord
 10
0.0
 20
0.0
 30
0.0
 70
   128
 71
    11
 72
    17
 73
    16
  0
SEQEND
  5
3BA
330
3B9
100
AcDbEntity
  8
ｴｸｽﾃﾘｱ商品
370
    20
  0
POLYLINE
  5
3F3
330
3C
100
AcDbEntity
  8
ｴｸｽﾃﾘｱ商品
 62
    43
370
    20
100
AcDbPolyFaceMesh
 66
     1
 10
0.0
 20
0.0
 30
0.0
 70
    64
 71
    90
 72
    89
  0
VERTEX
  5
3F5
330
3F3
100
AcDbEntity
  8
ｴｸｽﾃﾘｱ商品
 62
    43
370
    20
100
AcDbVertex
100
AcDbPolyFaceMeshVertex
 10
3886.227578071854
 20
2306.36002187428
 30
441.0
 70
   192
  0
VERTEX
  5
3F6
330
3F3
100
AcDbEntity
  8
ｴｸｽﾃﾘｱ商品
 62
    43
370
    20
100
AcDbVertex
100
AcDbPolyFaceMeshVertex
 10
3886.227578071854
 20
477.3600218742802
 30
441.0
 70
   192
  0
VERTEX
  5
3F7
330
3F3
100
AcDbEntity
  8
ｴｸｽﾃﾘｱ商品
 62
    43
370
    20
100
AcDbVertex
100
AcDbPolyFaceMeshVertex
 10
3776.227578071854
 20
587.3600218742804
 30
441.0
 70
   192
  0
VERTEX
  5
3F8
330
3F3
100
AcDbEntity
  8
ｴｸｽﾃﾘｱ商品
 62
    43
370
    20
100
AcDbVertex
100
AcDbPolyFaceMeshVertex
 10
3776.227578071854
 20
2306.36002187428
 30
441.0
 70
   192
  0
VERTEX
  5
3F9
330
3F3
100
AcDbEntity
  8
ｴｸｽﾃﾘｱ商品
 62
    43
370
    20
100
AcDbVertex
100
AcDbPolyFaceMeshVertex
 10
3776.140578071854
 20
587.4470218742802
 30
441.0
 70
   192
  0
VERTEX
  5
3FA
330
3F3
100
AcDbEntity
  8
ｴｸｽﾃﾘｱ商品
 62
    43
370
    20
100
AcDbVertex
100
AcDbPolyFaceMeshVertex
 10
3776.140578071854
 20
2306.36002187428
 30
441.0
 70
   192
  0
VERTEX
  5
3FB
330
3F3
100
AcDbEntity
  8
ｴｸｽﾃﾘｱ商品
 62
    43
370
    20
100
AcDbVertex
100
AcDbPolyFaceMeshVertex
 10
3775.967578071854
 20
587.6200218742802
 30
441.03
 70
   192
  0
VERTEX
  5
3FC
330
3F3
100
AcDbEntity
  8
ｴｸｽﾃﾘｱ商品
 62
    43
370
    20
100
AcDbVertex
100
AcDbPolyFaceMeshVertex
 10
3775.967578071854
 20
2306.36002187428
 30
441.03
 70
   192
  0
VERTEX
  5
3FD
330
3F3
100
AcDbEntity
  8
ｴｸｽﾃﾘｱ商品
 62
    43
370
    20
100
AcDbVertex
100
AcDbPolyFaceMeshVertex
 10
3775.803578071854
 20
587.7840218742805
 30
441.09
 70
   192
  0
VERTEX
  5
3FE
330
3F3
100
AcDbEntity
  8
ｴｸｽﾃﾘｱ商品
 62
    43
370
    20
100
AcDbVertex
100
AcDbPolyFaceMeshVertex
 10
3775.803578071854
 20
2306.36002187428
 30
441.09
 70
   192
  0
VERTEX
  5
3FF
330
3F3
100
AcDbEntity
  8
ｴｸｽﾃﾘｱ商品
 62
    43
370
    20
100
AcDbVertex
100
AcDbPolyFaceMeshVertex
 10
3775.651578071854
 20
587.9360218742805
 30
441.178
 70
   192
  0
VERTEX
  5
400
330
3F3
100
AcDbEntity
  8
ｴｸｽﾃﾘｱ商品
 62
    43
370
    20
100
AcDbVertex
100
AcDbPolyFaceMeshVertex
 10
3775.651578071854
 20
2306.36002187428
 30
441.178
 70
   192
  0
VERTEX
  5
401
330
3F3
100
AcDbEntity
  8
ｴｸｽﾃﾘｱ商品
 62
    43
370
    20
100
AcDbVertex
100
AcDbPolyFaceMeshVertex
 10
3775.517578071854
 20
588.0700218742802
 30
441.29
 70
   192
  0
VERTEX
  5
402
330
3F3
100
AcDbEntity
  8
ｴｸｽﾃﾘｱ商品
 62
    43
370
    20
100
AcDbVertex
100
AcDbPolyFaceMeshVertex
 10
3775.517578071854
 20
2306.36002187428
 30
441.29
 70
   192
  0
VERTEX
  5
403
330
3F3
100
AcDbEntity
  8
ｴｸｽﾃﾘｱ商品
 62
    43
370
    20
100
AcDbVertex
100
AcDbPolyFaceMeshVertex
 10
3775.405578071854
 20
588.1820218742804
 30
441.424
 70
   192
  0
VERTEX
  5
404
330
3F3
100
AcDbEntity
  8
ｴｸｽﾃﾘｱ商品
 62
    43
370
    20
100
AcDbVertex
100
AcDbPolyFaceMeshVertex
 10
3775.405578071854
 20
2306.36002187428
 30
441.424
 70
   192
  0
VERTEX
  5
405
330
3F3
100
AcDbEntity
  8
ｴｸｽﾃﾘｱ商品
 62
    43
370
    20
100
AcDbVertex
100
AcDbPolyFaceMeshVertex
 10
3775.317578071854
 20
588.2700218742806
 30
441.576
 70
   192
  0
VERTEX
  5
406
330
3F3
100
AcDbEntity
  8
ｴｸｽﾃﾘｱ商品
 62
    43
370
    20
100
AcDbVertex
100
AcDbPolyFaceMeshVertex
 10
3775.317578071854
 20
2306.36002187428
 30
441.576
 70
   192
  0
VERTEX
  5
407
330
3F3
100
AcDbEntity
  8
ｴｸｽﾃﾘｱ商品
 62
    43
370
    20
100
AcDbVertex
100
AcDbPolyFaceMeshVertex
 10
3775.257578071854
 20
588.33002187428
 30
441.74
 70
   192
  0
VERTEX
  5
408
330
3F3
100
AcDbEntity
  8
ｴｸｽﾃﾘｱ商品
 62
    43
370
    20
100
AcDbVertex
100
AcDbPolyFaceMeshVertex
 10
3775.257578071854
 20
2306.36002187428
 30
441.74
 70
   192
  0
VERTEX
  5
409
330
3F3
100
AcDbEntity
  8
ｴｸｽﾃﾘｱ商品
 62
    43
370
    20
100
AcDbVertex
100
AcDbPolyFaceMeshVertex
 10
3775.227578071854
 20
588.3600218742807
 30
441.913
 70
   192
  0
VERTEX
  5
40A
330
3F3
100
AcDbEntity
  8
ｴｸｽﾃﾘｱ商品
 62
    43
370
    20
100
AcDbVertex
100
AcDbPolyFaceMeshVertex
 10
3775.227578071854
 20
2306.36002187428
 30
441.913
 70
   192
  0
VERTEX
  5
40B
330
3F3
100
AcDbEntity
  8
ｴｸｽﾃﾘｱ商品
 62
    43
370
    20
100
AcDbVertex
100
AcDbPolyFaceMeshVertex
 10
3775.227578071854
 20
588.3600218742807
 30
442.0
 70
   192
  0
VERTEX
  5
40C
330
3F3
100
AcDbEntity
  8
ｴｸｽﾃﾘｱ商品
 62
    43
370
    20
100
AcDbVertex
100
AcDbPolyFaceMeshVertex
 10
3775.227578071854
 20
2306.36002187428
 30
442.0
 70
   192
  0
VERTEX
  5
40D
330
3F3
100
AcDbEntity
  8
ｴｸｽﾃﾘｱ商品
 62
    43
370
    20
100
AcDbVertex
100
AcDbPolyFaceMeshVertex
 10
3775.227578071854
 20
588.3600218742807
 30
463.0
 70
   192
  0
VERTEX
  5
40E
330
3F3
100
AcDbEntity
  8
ｴｸｽﾃﾘｱ商品
 62
    43
370
    20
100
AcDbVertex
100
AcDbPolyFaceMeshVertex
 10
3775.227578071854
 20
2306.36002187428
 30
463.0
 70
   192
  0
VERTEX
  5
40F
330
3F3
100
AcDbEntity
  8
ｴｸｽﾃﾘｱ商品
 62
    43
370
    20
100
AcDbVertex
100
AcDbPolyFaceMeshVertex
 10
3775.227578071854
 20
588.3600218742807
 30
463.175
 70
   192
  0
VERTEX
  5
410
330
3F3
100
AcDbEntity
  8
ｴｸｽﾃﾘｱ商品
 62
    43
370
    20
100
AcDbVertex
100
AcDbPolyFaceMeshVertex
 10
3775.227578071854
 20
2306.36002187428
 30
463.175
 70
   192
  0
VERTEX
  5
411
330
3F3
100
AcDbEntity
  8
ｴｸｽﾃﾘｱ商品
 62
    43
370
    20
100
AcDbVertex
100
AcDbPolyFaceMeshVertex
 10
3775.288578071854
 20
588.29902187428
 30
463.52
 70
   192
  0
VERTEX
  5
412
330
3F3
100
AcDbEntity
  8
ｴｸｽﾃﾘｱ商品
 62
    43
370
    20
100
AcDbVertex
100
AcDbPolyFaceMeshVertex
 10
3775.288578071854
 20
2306.36002187428
 30
463.52
 70
   192
  0
VERTEX
  5
413
330
3F3
100
AcDbEntity
  8
ｴｸｽﾃﾘｱ商品
 62
    43
370
    20
100
AcDbVertex
100
AcDbPolyFaceMeshVertex
 10
3775.407578071854
 20
588.1800218742806
 30
463.848
 70
   192
  0
VERTEX
  5
414
330
3F3
100
AcDbEntity
  8
ｴｸｽﾃﾘｱ商品
 62
    43
370
    20
100
AcDbVertex
100
AcDbPolyFaceMeshVertex
 10
3775.407578071854
 20
2306.36002187428
 30
463.848
 70
   192
  0
VERTEX
  5
415
330
3F3
100
AcDbEntity
  8
ｴｸｽﾃﾘｱ商品
 62
    43
370
    20
100
AcDbVertex
100
AcDbPolyFaceMeshVertex
 10
3775.582578071854
 20
588.0050218742805
 30
464.152
 70
   192
  0
VERTEX
  5
416
330
3F3
100
AcDbEntity
  8
ｴｸｽﾃﾘｱ商品
 62
    43
370
    20
100
AcDbVertex
100
AcDbPolyFaceMeshVertex
 10
3775.582578071854
 20
2306.36002187428
 30
464.152
 70
   192
  0
VERTEX
  5
417
330
3F3
100
AcDbEntity
  8
ｴｸｽﾃﾘｱ商品
 62
    43
370
    20
100
AcDbVertex
100
AcDbPolyFaceMeshVertex
 10
3775.807578071854
 20
587.7800218742808
 30
464.42
 70
   192
  0
VERTEX
  5
418
330
3F3
100
AcDbEntity
  8
ｴｸｽﾃﾘｱ商品
 62
    43
370
    20
100
AcDbVertex
100
AcDbPolyFaceMeshVertex
 10
3775.807578071854
 20
2306.36002187428
 30
464.42
 70
   192
  0
VERTEX
  5
419
330
3F3
100
AcDbEntity
  8
ｴｸｽﾃﾘｱ商品
 62
    43
370
    20
100
AcDbVertex
100
AcDbPolyFaceMeshVertex
 10
3776.075578071854
 20
587.5120218742804
 30
464.645
 70
   192
  0
VERTEX
  5
41A
330
3F3
100
AcDbEntity
  8
ｴｸｽﾃﾘｱ商品
 62
    43
370
    20
100
AcDbVertex
100
AcDbPolyFaceMeshVertex
 10
3776.075578071854
 20
2306.36002187428
 30
464.645
 70
   192
  0
VERTEX
  5
41B
330
3F3
100
AcDbEntity
  8
ｴｸｽﾃﾘｱ商品
 62
    43
370
    20
100
AcDbVertex
100
AcDbPolyFaceMeshVertex
 10
3776.379578071854
 20
587.2080218742803
 30
464.82
 70
   192
  0
VERTEX
  5
41C
330
3F3
100
AcDbEntity
  8
ｴｸｽﾃﾘｱ商品
 62
    43
370
    20
100
AcDbVertex
100
AcDbPolyFaceMeshVertex
 10
3776.379578071854
 20
2306.36002187428
 30
464.82
 70
   192
  0
VERTEX
  5
41D
330
3F3
100
AcDbEntity
  8
ｴｸｽﾃﾘｱ商品
 62
    43
370
    20
100
AcDbVertex
100
AcDbPolyFaceMeshVertex
 10
3776.707578071854
 20
586.8800218742805
 30
464.939
 70
   192
  0
VERTEX
  5
41E
330
3F3
100
AcDbEntity
  8
ｴｸｽﾃﾘｱ商品
 62
    43
370
    20
100
AcDbVertex
100
AcDbPolyFaceMeshVertex
 10
3776.707578071854
 20
2306.36002187428
 30
464.939
 70
   192
  0
VERTEX
  5
41F
330
3F3
100
AcDbEntity
  8
ｴｸｽﾃﾘｱ商品
 62
    43
370
    20
100
AcDbVertex
100
AcDbPolyFaceMeshVertex
 10
3777.008578071854
 20
586.5790218742808
 30
464.988
 70
   192
  0
VERTEX
  5
420
330
3F3
100
AcDbEntity
  8
ｴｸｽﾃﾘｱ商品
 62
    43
370
    20
100
AcDbVertex
100
AcDbPolyFaceMeshVertex
 10
3777.008578071854
 20
2306.36002187428
 30
464.988
 70
   192
  0
VERTEX
  5
421
330
3F3
100
AcDbEntity
  8
ｴｸｽﾃﾘｱ商品
 62
    43
370
    20
100
AcDbVertex
100
AcDbPolyFaceMeshVertex
 10
3827.417578071854
 20
536.1700218742808
 30
470.5410000000001
 70
   192
  0
VERTEX
  5
422
330
3F3
100
AcDbEntity
  8
ｴｸｽﾃﾘｱ商品
 62
    43
370
    20
100
AcDbVertex
100
AcDbPolyFaceMeshVertex
 10
3827.417578071854
 20
2306.36002187428
 30
470.5410000000001
 70
   192
  0
VERTEX
  5
423
330
3F3
100
AcDbEntity
  8
ｴｸｽﾃﾘｱ商品
 62
    43
370
    20
100
AcDbVertex
100
AcDbPolyFaceMeshVertex
 10
3885.224578071854
 20
478.3630218742803
 30
471.0000000000001
 70
   192
  0
VERTEX
  5
424
330
3F3
100
AcDbEntity
  8
ｴｸｽﾃﾘｱ商品
 62
    43
370
    20
100
AcDbVertex
100
AcDbPolyFaceMeshVertex
 10
3885.224578071854
 20
2306.36002187428
 30
471.0000000000001
 70
   192
  0
VERTEX
  5
425
330
3F3
100
AcDbEntity
  8
ｴｸｽﾃﾘｱ商品
 62
    43
370
    20
100
AcDbVertex
100
AcDbPolyFaceMeshVertex
 10
3885.399578071854
 20
478.1880218742803
 30
471.0000000000001
 70
   192
  0
VERTEX
  5
426
330
3F3
100
AcDbEntity
  8
ｴｸｽﾃﾘｱ商品
 62
    43
370
    20
100
AcDbVertex
100
AcDbPolyFaceMeshVertex
 10
3885.399578071854
 20
2306.36002187428
 30
471.0000000000001
 70
   192
  0
VERTEX
  5
427
330
3F3
100
AcDbEntity
  8
ｴｸｽﾃﾘｱ商品
 62
    43
370
    20
100
AcDbVertex
100
AcDbPolyFaceMeshVertex
 10
3885.744578071854
 20
477.8430218742805
 30
470.94
 70
   192
  0
VERTEX
  5
428
330
3F3
100
AcDbEntity
  8
ｴｸｽﾃﾘｱ商品
 62
    43
370
    20
100
AcDbVertex
100
AcDbPolyFaceMeshVertex
 10
3885.744578071854
 20
2306.36002187428
 30
470.94
 70
   192
  0
VERTEX
  5
429
330
3F3
100
AcDbEntity
  8
ｴｸｽﾃﾘｱ商品
 62
    43
370
    20
100
AcDbVertex
100
AcDbPolyFaceMeshVertex
 10
3886.073578071854
 20
477.5140218742807
 30
470.821
 70
   192
  0
VERTEX
  5
42A
330
3F3
100
AcDbEntity
  8
ｴｸｽﾃﾘｱ商品
 62
    43
370
    20
100
AcDbVertex
100
AcDbPolyFaceMeshVertex
 10
3886.073578071854
 20
2306.36002187428
 30
470.821
 70
   192
  0
VERTEX
  5
42B
330
3F3
100
AcDbEntity
  8
ｴｸｽﾃﾘｱ商品
 62
    43
370
    20
100
AcDbVertex
100
AcDbPolyFaceMeshVertex
 10
3886.376578071854
 20
477.2110218742806
 30
470.646
 70
   192
  0
VERTEX
  5
42C
330
3F3
100
AcDbEntity
  8
ｴｸｽﾃﾘｱ商品
 62
    43
370
    20
100
AcDbVertex
100
AcDbPolyFaceMeshVertex
 10
3886.376578071854
 20
2306.36002187428
 30
470.646
 70
   192
  0
VERTEX
  5
42D
330
3F3
100
AcDbEntity
  8
ｴｸｽﾃﾘｱ商品
 62
    43
370
    20
100
AcDbVertex
100
AcDbPolyFaceMeshVertex
 10
3886.645578071854
 20
476.9420218742802
 30
470.421
 70
   192
  0
VERTEX
  5
42E
330
3F3
100
AcDbEntity
  8
ｴｸｽﾃﾘｱ商品
 62
    43
370
    20
100
AcDbVertex
100
AcDbPolyFaceMeshVertex
 10
3886.645578071854
 20
2306.36002187428
 30
470.421
 70
   192
  0
VERTEX
  5
42F
330
3F3
100
AcDbEntity
  8
ｴｸｽﾃﾘｱ商品
 62
    43
370
    20
100
AcDbVertex
100
AcDbPolyFaceMeshVertex
 10
3886.870578071854
 20
476.7170218742805
 30
470.154
 70
   192
  0
VERTEX
  5
430
330
3F3
100
AcDbEntity
  8
ｴｸｽﾃﾘｱ商品
 62
    43
370
    20
100
AcDbVertex
100
AcDbPolyFaceMeshVertex
 10
3886.870578071854
 20
2306.36002187428
 30
470.154
 70
   192
  0
VERTEX
  5
431
330
3F3
100
AcDbEntity
  8
ｴｸｽﾃﾘｱ商品
 62
    43
370
    20
100
AcDbVertex
100
AcDbPolyFaceMeshVertex
 10
3887.045578071854
 20
476.5420218742805
 30
469.851
 70
   192
  0
VERTEX
  5
432
330
3F3
100
AcDbEntity
  8
ｴｸｽﾃﾘｱ商品
 62
    43
370
    20
100
AcDbVertex
100
AcDbPolyFaceMeshVertex
 10
3887.045578071854
 20
2306.36002187428
 30
469.851
 70
   192
  0
VERTEX
  5
433
330
3F3
100
AcDbEntity
  8
ｴｸｽﾃﾘｱ商品
 62
    43
370
    20
100
AcDbVertex
100
AcDbPolyFaceMeshVertex
 10
3887.166578071854
 20
476.4210218742805
 30
469.522
 70
   192
  0
VERTEX
  5
434
330
3F3
100
AcDbEntity
  8
ｴｸｽﾃﾘｱ商品
 62
    43
370
    20
100
AcDbVertex
100
AcDbPolyFaceMeshVertex
 10
3887.166578071854
 20
2306.36002187428
 30
469.522
 70
   192
  0
VERTEX
  5
435
330
3F3
100
AcDbEntity
  8
ｴｸｽﾃﾘｱ商品
 62
    43
370
    20
100
AcDbVertex
100
AcDbPolyFaceMeshVertex
 10
3887.227578071854
 20
476.3600218742798
 30
469.1780000000001
 70
   192
  0
VERTEX
  5
436
330
3F3
100
AcDbEntity
  8
ｴｸｽﾃﾘｱ商品
 62
    43
370
    20
100
AcDbVertex
100
AcDbPolyFaceMeshVertex
 10
3887.227578071854
 20
476.3600218742798
 30
469.1780000000001
 70
   192
  0
VERTEX
  5
437
330
3F3
100
AcDbEntity
  8
ｴｸｽﾃﾘｱ商品
 62
    43
370
    20
100
AcDbVertex
100
AcDbPolyFaceMeshVertex
 10
3887.227578071854
 20
2306.36002187428
 30
469.1780000000001
 70
   192
  0
VERTEX
  5
438
330
3F3
100
AcDbEntity
  8
ｴｸｽﾃﾘｱ商品
 62
    43
370
    20
100
AcDbVertex
100
AcDbPolyFaceMeshVertex
 10
3887.227578071854
 20
476.3600218742798
 30
469.0
 70
   192
  0
VERTEX
  5
439
330
3F3
100
AcDbEntity
  8
ｴｸｽﾃﾘｱ商品
 62
    43
370
    20
100
AcDbVertex
100
AcDbPolyFaceMeshVertex
 10
3887.227578071854
 20
2306.36002187428
 30
469.0
 70
   192
  0
VERTEX
  5
43A
330
3F3
100
AcDbEntity
  8
ｴｸｽﾃﾘｱ商品
 62
    43
370
    20
100
AcDbVertex
100
AcDbPolyFaceMeshVertex
 10
3887.227578071854
 20
476.3600218742798
 30
442.0
 70
   192
  0
VERTEX
  5
43B
330
3F3
100
AcDbEntity
  8
ｴｸｽﾃﾘｱ商品
 62
    43
370
    20
100
AcDbVertex
100
AcDbPolyFaceMeshVertex
 10
3887.227578071854
 20
2306.36002187428
 30
442.0
 70
   192
  0
VERTEX
  5
43C
330
3F3
100
AcDbEntity
  8
ｴｸｽﾃﾘｱ商品
 62
    43
370
    20
100
AcDbVertex
100
AcDbPolyFaceMeshVertex
 10
3887.227578071854
 20
476.3600218742798
 30
441.913
 70
   192
  0
VERTEX
  5
43D
330
3F3
100
AcDbEntity
  8
ｴｸｽﾃﾘｱ商品
 62
    43
370
    20
100
AcDbVertex
100
AcDbPolyFaceMeshVertex
 10
3887.227578071854
 20
2306.36002187428
 30
441.913
 70
   192
  0
VERTEX
  5
43E
330
3F3
100
AcDbEntity
  8
ｴｸｽﾃﾘｱ商品
 62
    43
370
    20
100
AcDbVertex
100
AcDbPolyFaceMeshVertex
 10
3887.227578071854
 20
476.3600218742798
 30
441.913
 70
   192
  0
VERTEX
  5
43F
330
3F3
100
AcDbEntity
  8
ｴｸｽﾃﾘｱ商品
 62
    43
370
    20
100
AcDbVertex
100
AcDbPolyFaceMeshVertex
 10
3887.197578071854
 20
476.3900218742805
 30
441.74
 70
   192
  0
VERTEX
  5
440
330
3F3
100
AcDbEntity
  8
ｴｸｽﾃﾘｱ商品
 62
    43
370
    20
100
AcDbVertex
100
AcDbPolyFaceMeshVertex
 10
3887.197578071854
 20
2306.36002187428
 30
441.74
 70
   192
  0
VERTEX
  5
441
330
3F3
100
AcDbEntity
  8
ｴｸｽﾃﾘｱ商品
 62
    43
370
    20
100
AcDbVertex
100
AcDbPolyFaceMeshVertex
 10
3887.137578071854
 20
476.4500218742806
 30
441.576
 70
   192
  0
VERTEX
  5
442
330
3F3
100
AcDbEntity
  8
ｴｸｽﾃﾘｱ商品
 62
    43
370
    20
100
AcDbVertex
100
AcDbPolyFaceMeshVertex
 10
3887.137578071854
 20
2306.36002187428
 30
441.576
 70
   192
  0
VERTEX
  5
443
330
3F3
100
AcDbEntity
  8
ｴｸｽﾃﾘｱ商品
 62
    43
370
    20
100
AcDbVertex
100
AcDbPolyFaceMeshVertex
 10
3887.049578071854
 20
476.5380218742802
 30
441.424
 70
   192
  0
VERTEX
  5
444
330
3F3
100
AcDbEntity
  8
ｴｸｽﾃﾘｱ商品
 62
    43
370
    20
100
AcDbVertex
100
AcDbPolyFaceMeshVertex
 10
3887.049578071854
 20
2306.36002187428
 30
441.424
 70
   192
  0
VERTEX
  5
445
330
3F3
100
AcDbEntity
  8
ｴｸｽﾃﾘｱ商品
 62
    43
370
    20
100
AcDbVertex
100
AcDbPolyFaceMeshVertex
 10
3886.937578071854
 20
476.6500218742804
 30
441.29
 70
   192
  0
VERTEX
  5
446
330
3F3
100
AcDbEntity
  8
ｴｸｽﾃﾘｱ商品
 62
    43
370
    20
100
AcDbVertex
100
AcDbPolyFaceMeshVertex
 10
3886.937578071854
 20
2306.36002187428
 30
441.29
 70
   192
  0
VERTEX
  5
447
330
3F3
100
AcDbEntity
  8
ｴｸｽﾃﾘｱ商品
 62
    43
370
    20
100
AcDbVertex
100
AcDbPolyFaceMeshVertex
 10
3886.803578071854
 20
476.7840218742807
 30
441.178
 70
   192
  0
VERTEX
  5
448
330
3F3
100
AcDbEntity
  8
ｴｸｽﾃﾘｱ商品
 62
    43
370
    20
100
AcDbVertex
100
AcDbPolyFaceMeshVertex
 10
3886.803578071854
 20
2306.36002187428
 30
441.178
 70
   192
  0
VERTEX
  5
449
330
3F3
100
AcDbEntity
  8
ｴｸｽﾃﾘｱ商品
 62
    43
370
    20
100
AcDbVertex
100
AcDbPolyFaceMeshVertex
 10
3886.651578071854
 20
476.9360218742806
 30
441.09
 70
   192
  0
VERTEX
  5
44A
330
3F3
100
AcDbEntity
  8
ｴｸｽﾃﾘｱ商品
 62
    43
370
    20
100
AcDbVertex
100
AcDbPolyFaceMeshVertex
 10
3886.651578071854
 20
2306.36002187428
 30
441.09
 70
   192
  0
VERTEX
  5
44B
330
3F3
100
AcDbEntity
  8
ｴｸｽﾃﾘｱ商品
 62
    43
370
    20
100
AcDbVertex
100
AcDbPolyFaceMeshVertex
 10
3886.487578071854
 20
477.1000218742803
 30
441.03
 70
   192
  0
VERTEX
  5
44C
330
3F3
100
AcDbEntity
  8
ｴｸｽﾃﾘｱ商品
 62
    43
370
    20
100
AcDbVertex
100
AcDbPolyFaceMeshVertex
 10
3886.487578071854
 20
2306.36002187428
 30
441.03
 70
   192
  0
VERTEX
  5
44D
330
3F3
100
AcDbEntity
  8
ｴｸｽﾃﾘｱ商品
 62
    43
370
    20
100
AcDbVertex
100
AcDbPolyFaceMeshVertex
 10
3886.314578071854
 20
477.2730218742805
 30
441.0
 70
   192
  0
VERTEX
  5
44E
330
3F3
100
AcDbEntity
  8
ｴｸｽﾃﾘｱ商品
 62
    43
370
    20
100
AcDbVertex
100
AcDbPolyFaceMeshVertex
 10
3886.314578071854
 20
2306.36002187428
 30
441.0
 70
   192
  0
VERTEX
  5
44F
330
3F3
100
AcDbEntity
  8
ｴｸｽﾃﾘｱ商品
 62
    43
370
    20
100
AcDbFaceRecord
 10
0.0
 20
0.0
 30
0.0
 70
   128
 71
     1
 72
     2
 73
     3
 74
     4
  0
VERTEX
  5
450
330
3F3
100
AcDbEntity
  8
ｴｸｽﾃﾘｱ商品
 62
    43
370
    20
100
AcDbFaceRecord
 10
0.0
 20
0.0
 30
0.0
 70
   128
 71
     4
 72
     3
 73
     5
 74
     6
  0
VERTEX
  5
451
330
3F3
100
AcDbEntity
  8
ｴｸｽﾃﾘｱ商品
 62
    43
370
    20
100
AcDbFaceRecord
 10
0.0
 20
0.0
 30
0.0
 70
   128
 71
     6
 72
     5
 73
     7
 74
     8
  0
VERTEX
  5
452
330
3F3
100
AcDbEntity
  8
ｴｸｽﾃﾘｱ商品
 62
    43
370
    20
100
AcDbFaceRecord
 10
0.0
 20
0.0
 30
0.0
 70
   128
 71
     8
 72
     7
 73
     9
 74
    10
  0
VERTEX
  5
453
330
3F3
100
AcDbEntity
  8
ｴｸｽﾃﾘｱ商品
 62
    43
370
    20
100
AcDbFaceRecord
 10
0.0
 20
0.0
 30
0.0
 70
   128
 71
    10
 72
     9
 73
    11
 74
    12
  0
VERTEX
  5
454
330
3F3
100
AcDbEntity
  8
ｴｸｽﾃﾘｱ商品
 62
    43
370
    20
100
AcDbFaceRecord
 10
0.0
 20
0.0
 30
0.0
 70
   128
 71
    12
 72
    11
 73
    13
 74
    14
  0
VERTEX
  5
455
330
3F3
100
AcDbEntity
  8
ｴｸｽﾃﾘｱ商品
 62
    43
370
    20
100
AcDbFaceRecord
 10
0.0
 20
0.0
 30
0.0
 70
   128
 71
    14
 72
    13
 73
    15
 74
    16
  0
VERTEX
  5
456
330
3F3
100
AcDbEntity
  8
ｴｸｽﾃﾘｱ商品
 62
    43
370
    20
100
AcDbFaceRecord
 10
0.0
 20
0.0
 30
0.0
 70
   128
 71
    16
 72
    15
 73
    17
 74
    18
  0
VERTEX
  5
457
330
3F3
100
AcDbEntity
  8
ｴｸｽﾃﾘｱ商品
 62
    43
370
    20
100
AcDbFaceRecord
 10
0.0
 20
0.0
 30
0.0
 70
   128
 71
    18
 72
    17
 73
    19
 74
    20
  0
VERTEX
  5
458
330
3F3
100
AcDbEntity
  8
ｴｸｽﾃﾘｱ商品
 62
    43
370
    20
100
AcDbFaceRecord
 10
0.0
 20
0.0
 30
0.0
 70
   128
 71
    20
 72
    19
 73
    21
 74
    22
  0
VERTEX
  5
459
330
3F3
100
AcDbEntity
  8
ｴｸｽﾃﾘｱ商品
 62
    43
370
    20
100
AcDbFaceRecord
 10
0.0
 20
0.0
 30
0.0
 70
   128
 71
    22
 72
    21
 73
    23
 74
    24
  0
VERTEX
  5
45A
330
3F3
100
AcDbEntity
  8
ｴｸｽﾃﾘｱ商品
 62
    43
370
    20
100
AcDbFaceRecord
 10
0.0
 20
0.0
 30
0.0
 70
   128
 71
    24
 72
    23
 73
    25
 74
    26
  0
VERTEX
  5
45B
330
3F3
100
AcDbEntity
  8
ｴｸｽﾃﾘｱ商品
 62
    43
370
    20
100
AcDbFaceRecord
 10
0.0
 20
0.0
 30
0.0
 70
   128
 71
    26
 72
    25
 73
    27
 74
    28
  0
VERTEX
  5
45C
330
3F3
100
AcDbEntity
  8
ｴｸｽﾃﾘｱ商品
 62
    43
370
    20
100
AcDbFaceRecord
 10
0.0
 20
0.0
 30
0.0
 70
   128
 71
    28
 72
    27
 73
    29
 74
    30
  0
VERTEX
  5
45D
330
3F3
100
AcDbEntity
  8
ｴｸｽﾃﾘｱ商品
 62
    43
370
    20
100
AcDbFaceRecord
 10
0.0
 20
0.0
 30
0.0
 70
   128
 71
    30
 72
    29
 73
    31
 74
    32
  0
VERTEX
  5
45E
330
3F3
100
AcDbEntity
  8
ｴｸｽﾃﾘｱ商品
 62
    43
370
    20
100
AcDbFaceRecord
 10
0.0
 20
0.0
 30
0.0
 70
   128
 71
    32
 72
    31
 73
    33
 74
    34
  0
VERTEX
  5
45F
330
3F3
100
AcDbEntity
  8
ｴｸｽﾃﾘｱ商品
 62
    43
370
    20
100
AcDbFaceRecord
 10
0.0
 20
0.0
 30
0.0
 70
   128
 71
    34
 72
    33
 73
    35
 74
    36
  0
VERTEX
  5
460
330
3F3
100
AcDbEntity
  8
ｴｸｽﾃﾘｱ商品
 62
    43
370
    20
100
AcDbFaceRecord
 10
0.0
 20
0.0
 30
0.0
 70
   128
 71
    36
 72
    35
 73
    37
 74
    38
  0
VERTEX
  5
461
330
3F3
100
AcDbEntity
  8
ｴｸｽﾃﾘｱ商品
 62
    43
370
    20
100
AcDbFaceRecord
 10
0.0
 20
0.0
 30
0.0
 70
   128
 71
    38
 72
    37
 73
    39
 74
    40
  0
VERTEX
  5
462
330
3F3
100
AcDbEntity
  8
ｴｸｽﾃﾘｱ商品
 62
    43
370
    20
100
AcDbFaceRecord
 10
0.0
 20
0.0
 30
0.0
 70
   128
 71
    40
 72
    39
 73
    41
 74
    42
  0
VERTEX
  5
463
330
3F3
100
AcDbEntity
  8
ｴｸｽﾃﾘｱ商品
 62
    43
370
    20
100
AcDbFaceRecord
 10
0.0
 20
0.0
 30
0.0
 70
   128
 71
    42
 72
    41
 73
    43
 74
    44
  0
VERTEX
  5
464
330
3F3
100
AcDbEntity
  8
ｴｸｽﾃﾘｱ商品
 62
    43
370
    20
100
AcDbFaceRecord
 10
0.0
 20
0.0
 30
0.0
 70
   128
 71
    44
 72
    43
 73
    45
 74
    46
  0
VERTEX
  5
465
330
3F3
100
AcDbEntity
  8
ｴｸｽﾃﾘｱ商品
 62
    43
370
    20
100
AcDbFaceRecord
 10
0.0
 20
0.0
 30
0.0
 70
   128
 71
    46
 72
    45
 73
    47
 74
    48
  0
VERTEX
  5
466
330
3F3
100
AcDbEntity
  8
ｴｸｽﾃﾘｱ商品
 62
    43
370
    20
100
AcDbFaceRecord
 10
0.0
 20
0.0
 30
0.0
 70
   128
 71
    48
 72
    47
 73
    49
 74
    50
  0
VERTEX
  5
467
330
3F3
100
AcDbEntity
  8
ｴｸｽﾃﾘｱ商品
 62
    43
370
    20
100
AcDbFaceRecord
 10
0.0
 20
0.0
 30
0.0
 70
   128
 71
    50
 72
    49
 73
    51
 74
    52
  0
VERTEX
  5
468
330
3F3
100
AcDbEntity
  8
ｴｸｽﾃﾘｱ商品
 62
    43
370
    20
100
AcDbFaceRecord
 10
0.0
 20
0.0
 30
0.0
 70
   128
 71
    52
 72
    51
 73
    53
 74
    54
  0
VERTEX
  5
469
330
3F3
100
AcDbEntity
  8
ｴｸｽﾃﾘｱ商品
 62
    43
370
    20
100
AcDbFaceRecord
 10
0.0
 20
0.0
 30
0.0
 70
   128
 71
    54
 72
    53
 73
    55
 74
    56
  0
VERTEX
  5
46A
330
3F3
100
AcDbEntity
  8
ｴｸｽﾃﾘｱ商品
 62
    43
370
    20
100
AcDbFaceRecord
 10
0.0
 20
0.0
 30
0.0
 70
   128
 71
    56
 72
    55
 73
    57
 74
    58
  0
VERTEX
  5
46B
330
3F3
100
AcDbEntity
  8
ｴｸｽﾃﾘｱ商品
 62
    43
370
    20
100
AcDbFaceRecord
 10
0.0
 20
0.0
 30
0.0
 70
   128
 71
    58
 72
    57
 73
    59
 74
    60
  0
VERTEX
  5
46C
330
3F3
100
AcDbEntity
  8
ｴｸｽﾃﾘｱ商品
 62
    43
370
    20
100
AcDbFaceRecord
 10
0.0
 20
0.0
 30
0.0
 70
   128
 71
    60
 72
    59
 73
    61
 74
    62
  0
VERTEX
  5
46D
330
3F3
100
AcDbEntity
  8
ｴｸｽﾃﾘｱ商品
 62
    43
370
    20
100
AcDbFaceRecord
 10
0.0
 20
0.0
 30
0.0
 70
   128
 71
    62
 72
    61
 73
    63
 74
    64
  0
VERTEX
  5
46E
330
3F3
100
AcDbEntity
  8
ｴｸｽﾃﾘｱ商品
 62
    43
370
    20
100
AcDbFaceRecord
 10
0.0
 20
0.0
 30
0.0
 70
   128
 71
    64
 72
    63
 73
    65
 74
    66
  0
VERTEX
  5
46F
330
3F3
100
AcDbEntity
  8
ｴｸｽﾃﾘｱ商品
 62
    43
370
    20
100
AcDbFaceRecord
 10
0.0
 20
0.0
 30
0.0
 70
   128
 71
    64
 72
    66
 73
    67
  0
VERTEX
  5
470
330
3F3
100
AcDbEntity
  8
ｴｸｽﾃﾘｱ商品
 62
    43
370
    20
100
AcDbFaceRecord
 10
0.0
 20
0.0
 30
0.0
 70
   128
 71
    67
 72
    66
 73
    68
 74
    69
  0
VERTEX
  5
471
330
3F3
100
AcDbEntity
  8
ｴｸｽﾃﾘｱ商品
 62
    43
370
    20
100
AcDbFaceRecord
 10
0.0
 20
0.0
 30
0.0
 70
   128
 71
    69
 72
    68
 73
    70
 74
    71
  0
VERTEX
  5
472
330
3F3
100
AcDbEntity
  8
ｴｸｽﾃﾘｱ商品
 62
    43
370
    20
100
AcDbFaceRecord
 10
0.0
 20
0.0
 30
0.0
 70
   128
 71
    71
 72
    70
 73
    72
 74
    73
  0
VERTEX
  5
473
330
3F3
100
AcDbEntity
  8
ｴｸｽﾃﾘｱ商品
 62
    43
370
    20
100
AcDbFaceRecord
 10
0.0
 20
0.0
 30
0.0
 70
   128
 71
    73
 72
    72
 73
    74
 74
    75
  0
VERTEX
  5
474
330
3F3
100
AcDbEntity
  8
ｴｸｽﾃﾘｱ商品
 62
    43
370
    20
100
AcDbFaceRecord
 10
0.0
 20
0.0
 30
0.0
 70
   128
 71
    73
 72
    75
 73
    76
  0
VERTEX
  5
475
330
3F3
100
AcDbEntity
  8
ｴｸｽﾃﾘｱ商品
 62
    43
370
    20
100
AcDbFaceRecord
 10
0.0
 20
0.0
 30
0.0
 70
   128
 71
    76
 72
    75
 73
    77
 74
    78
  0
VERTEX
  5
476
330
3F3
100
AcDbEntity
  8
ｴｸｽﾃﾘｱ商品
 62
    43
370
    20
100
AcDbFaceRecord
 10
0.0
 20
0.0
 30
0.0
 70
   128
 71
    78
 72
    77
 73
    79
 74
    80
  0
VERTEX
  5
477
330
3F3
100
AcDbEntity
  8
ｴｸｽﾃﾘｱ商品
 62
    43
370
    20
100
AcDbFaceRecord
 10
0.0
 20
0.0
 30
0.0
 70
   128
 71
    80
 72
    79
 73
    81
 74
    82
  0
VERTEX
  5
478
330
3F3
100
AcDbEntity
  8
ｴｸｽﾃﾘｱ商品
 62
    43
370
    20
100
AcDbFaceRecord
 10
0.0
 20
0.0
 30
0.0
 70
   128
 71
    82
 72
    81
 73
    83
 74
    84
  0
VERTEX
  5
479
330
3F3
100
AcDbEntity
  8
ｴｸｽﾃﾘｱ商品
 62
    43
370
    20
100
AcDbFaceRecord
 10
0.0
 20
0.0
 30
0.0
 70
   128
 71
    84
 72
    83
 73
    85
 74
    86
  0
VERTEX
  5
47A
330
3F3
100
AcDbEntity
  8
ｴｸｽﾃﾘｱ商品
 62
    43
370
    20
100
AcDbFaceRecord
 10
0.0
 20
0.0
 30
0.0
 70
   128
 71
    86
 72
    85
 73
    87
 74
    88
  0
VERTEX
  5
47B
330
3F3
100
AcDbEntity
  8
ｴｸｽﾃﾘｱ商品
 62
    43
370
    20
100
AcDbFaceRecord
 10
0.0
 20
0.0
 30
0.0
 70
   128
 71
    88
 72
    87
 73
    89
 74
    90
  0
VERTEX
  5
47C
330
3F3
100
AcDbEntity
  8
ｴｸｽﾃﾘｱ商品
 62
    43
370
    20
100
AcDbFaceRecord
 10
0.0
 20
0.0
 30
0.0
 70
   128
 71
    90
 72
    89
 73
     2
 74
     1
  0
VERTEX
  5
47D
330
3F3
100
AcDbEntity
  8
ｴｸｽﾃﾘｱ商品
 62
    43
370
    20
100
AcDbFaceRecord
 10
0.0
 20
0.0
 30
0.0
 70
   128
 71
     1
 72
     4
 73
     6
 74
     8
  0
VERTEX
  5
47E
330
3F3
100
AcDbEntity
  8
ｴｸｽﾃﾘｱ商品
 62
    43
370
    20
100
AcDbFaceRecord
 10
0.0
 20
0.0
 30
0.0
 70
   128
 71
     1
 72
     8
 73
    10
 74
    12
  0
VERTEX
  5
47F
330
3F3
100
AcDbEntity
  8
ｴｸｽﾃﾘｱ商品
 62
    43
370
    20
100
AcDbFaceRecord
 10
0.0
 20
0.0
 30
0.0
 70
   128
 71
     1
 72
    12
 73
    14
 74
    16
  0
VERTEX
  5
480
330
3F3
100
AcDbEntity
  8
ｴｸｽﾃﾘｱ商品
 62
    43
370
    20
100
AcDbFaceRecord
 10
0.0
 20
0.0
 30
0.0
 70
   128
 71
     1
 72
    16
 73
    18
 74
    20
  0
VERTEX
  5
481
330
3F3
100
AcDbEntity
  8
ｴｸｽﾃﾘｱ商品
 62
    43
370
    20
100
AcDbFaceRecord
 10
0.0
 20
0.0
 30
0.0
 70
   128
 71
     1
 72
    20
 73
    22
 74
    24
  0
VERTEX
  5
482
330
3F3
100
AcDbEntity
  8
ｴｸｽﾃﾘｱ商品
 62
    43
370
    20
100
AcDbFaceRecord
 10
0.0
 20
0.0
 30
0.0
 70
   128
 71
     1
 72
    24
 73
    26
 74
    28
  0
VERTEX
  5
483
330
3F3
100
AcDbEntity
  8
ｴｸｽﾃﾘｱ商品
 62
    43
370
    20
100
AcDbFaceRecord
 10
0.0
 20
0.0
 30
0.0
 70
   128
 71
     1
 72
    28
 73
    30
 74
    32
  0
VERTEX
  5
484
330
3F3
100
AcDbEntity
  8
ｴｸｽﾃﾘｱ商品
 62
    43
370
    20
100
AcDbFaceRecord
 10
0.0
 20
0.0
 30
0.0
 70
   128
 71
     1
 72
    32
 73
    34
 74
    36
  0
VERTEX
  5
485
330
3F3
100
AcDbEntity
  8
ｴｸｽﾃﾘｱ商品
 62
    43
370
    20
100
AcDbFaceRecord
 10
0.0
 20
0.0
 30
0.0
 70
   128
 71
     1
 72
    36
 73
    38
 74
    40
  0
VERTEX
  5
486
330
3F3
100
AcDbEntity
  8
ｴｸｽﾃﾘｱ商品
 62
    43
370
    20
100
AcDbFaceRecord
 10
0.0
 20
0.0
 30
0.0
 70
   128
 71
     1
 72
    40
 73
    42
 74
    44
  0
VERTEX
  5
487
330
3F3
100
AcDbEntity
  8
ｴｸｽﾃﾘｱ商品
 62
    43
370
    20
100
AcDbFaceRecord
 10
0.0
 20
0.0
 30
0.0
 70
   128
 71
     1
 72
    44
 73
    46
 74
    48
  0
VERTEX
  5
488
330
3F3
100
AcDbEntity
  8
ｴｸｽﾃﾘｱ商品
 62
    43
370
    20
100
AcDbFaceRecord
 10
0.0
 20
0.0
 30
0.0
 70
   128
 71
     1
 72
    48
 73
    50
 74
    52
  0
VERTEX
  5
489
330
3F3
100
AcDbEntity
  8
ｴｸｽﾃﾘｱ商品
 62
    43
370
    20
100
AcDbFaceRecord
 10
0.0
 20
0.0
 30
0.0
 70
   128
 71
     1
 72
    52
 73
    54
 74
    56
  0
VERTEX
  5
48A
330
3F3
100
AcDbEntity
  8
ｴｸｽﾃﾘｱ商品
 62
    43
370
    20
100
AcDbFaceRecord
 10
0.0
 20
0.0
 30
0.0
 70
   128
 71
     1
 72
    56
 73
    58
 74
    60
  0
VERTEX
  5
48B
330
3F3
100
AcDbEntity
  8
ｴｸｽﾃﾘｱ商品
 62
    43
370
    20
100
AcDbFaceRecord
 10
0.0
 20
0.0
 30
0.0
 70
   128
 71
     1
 72
    60
 73
    62
 74
    64
  0
VERTEX
  5
48C
330
3F3
100
AcDbEntity
  8
ｴｸｽﾃﾘｱ商品
 62
    43
370
    20
100
AcDbFaceRecord
 10
0.0
 20
0.0
 30
0.0
 70
   128
 71
     1
 72
    64
 73
    67
 74
    69
  0
VERTEX
  5
48D
330
3F3
100
AcDbEntity
  8
ｴｸｽﾃﾘｱ商品
 62
    43
370
    20
100
AcDbFaceRecord
 10
0.0
 20
0.0
 30
0.0
 70
   128
 71
     1
 72
    69
 73
    71
 74
    73
  0
VERTEX
  5
48E
330
3F3
100
AcDbEntity
  8
ｴｸｽﾃﾘｱ商品
 62
    43
370
    20
100
AcDbFaceRecord
 10
0.0
 20
0.0
 30
0.0
 70
   128
 71
     1
 72
    73
 73
    76
 74
    78
  0
VERTEX
  5
48F
330
3F3
100
AcDbEntity
  8
ｴｸｽﾃﾘｱ商品
 62
    43
370
    20
100
AcDbFaceRecord
 10
0.0
 20
0.0
 30
0.0
 70
   128
 71
     1
 72
    78
 73
    80
 74
    82
  0
VERTEX
  5
490
330
3F3
100
AcDbEntity
  8
ｴｸｽﾃﾘｱ商品
 62
    43
370
    20
100
AcDbFaceRecord
 10
0.0
 20
0.0
 30
0.0
 70
   128
 71
     1
 72
    82
 73
    84
 74
    86
  0
VERTEX
  5
491
330
3F3
100
AcDbEntity
  8
ｴｸｽﾃﾘｱ商品
 62
    43
370
    20
100
AcDbFaceRecord
 10
0.0
 20
0.0
 30
0.0
 70
   128
 71
     1
 72
    86
 73
    88
 74
    90
  0
VERTEX
  5
492
330
3F3
100
AcDbEntity
  8
ｴｸｽﾃﾘｱ商品
 62
    43
370
    20
100
AcDbFaceRecord
 10
0.0
 20
0.0
 30
0.0
 70
   128
 71
    74
 72
    72
 73
    70
 74
    68
  0
VERTEX
  5
493
330
3F3
100
AcDbEntity
  8
ｴｸｽﾃﾘｱ商品
 62
    43
370
    20
100
AcDbFaceRecord
 10
0.0
 20
0.0
 30
0.0
 70
   128
 71
    74
 72
    68
 73
    66
 74
    65
  0
VERTEX
  5
494
330
3F3
100
AcDbEntity
  8
ｴｸｽﾃﾘｱ商品
 62
    43
370
    20
100
AcDbFaceRecord
 10
0.0
 20
0.0
 30
0.0
 70
   128
 71
    65
 72
    63
 73
    61
 74
    59
  0
VERTEX
  5
495
330
3F3
100
AcDbEntity
  8
ｴｸｽﾃﾘｱ商品
 62
    43
370
    20
100
AcDbFaceRecord
 10
0.0
 20
0.0
 30
0.0
 70
   128
 71
    65
 72
    59
 73
    57
 74
    55
  0
VERTEX
  5
496
330
3F3
100
AcDbEntity
  8
ｴｸｽﾃﾘｱ商品
 62
    43
370
    20
100
AcDbFaceRecord
 10
0.0
 20
0.0
 30
0.0
 70
   128
 71
    65
 72
    55
 73
    53
 74
    51
  0
VERTEX
  5
497
330
3F3
100
AcDbEntity
  8
ｴｸｽﾃﾘｱ商品
 62
    43
370
    20
100
AcDbFaceRecord
 10
0.0
 20
0.0
 30
0.0
 70
   128
 71
    65
 72
    51
 73
    49
 74
    47
  0
VERTEX
  5
498
330
3F3
100
AcDbEntity
  8
ｴｸｽﾃﾘｱ商品
 62
    43
370
    20
100
AcDbFaceRecord
 10
0.0
 20
0.0
 30
0.0
 70
   128
 71
    65
 72
    47
 73
    45
 74
    43
  0
VERTEX
  5
499
330
3F3
100
AcDbEntity
  8
ｴｸｽﾃﾘｱ商品
 62
    43
370
    20
100
AcDbFaceRecord
 10
0.0
 20
0.0
 30
0.0
 70
   128
 71
    65
 72
    43
 73
    41
 74
    39
  0
VERTEX
  5
49A
330
3F3
100
AcDbEntity
  8
ｴｸｽﾃﾘｱ商品
 62
    43
370
    20
100
AcDbFaceRecord
 10
0.0
 20
0.0
 30
0.0
 70
   128
 71
    65
 72
    39
 73
    37
 74
    35
  0
VERTEX
  5
49B
330
3F3
100
AcDbEntity
  8
ｴｸｽﾃﾘｱ商品
 62
    43
370
    20
100
AcDbFaceRecord
 10
0.0
 20
0.0
 30
0.0
 70
   128
 71
    65
 72
    35
 73
    33
 74
    31
  0
VERTEX
  5
49C
330
3F3
100
AcDbEntity
  8
ｴｸｽﾃﾘｱ商品
 62
    43
370
    20
100
AcDbFaceRecord
 10
0.0
 20
0.0
 30
0.0
 70
   128
 71
    65
 72
    31
 73
    29
 74
    27
  0
VERTEX
  5
49D
330
3F3
100
AcDbEntity
  8
ｴｸｽﾃﾘｱ商品
 62
    43
370
    20
100
AcDbFaceRecord
 10
0.0
 20
0.0
 30
0.0
 70
   128
 71
    65
 72
    27
 73
    25
 74
    23
  0
VERTEX
  5
49E
330
3F3
100
AcDbEntity
  8
ｴｸｽﾃﾘｱ商品
 62
    43
370
    20
100
AcDbFaceRecord
 10
0.0
 20
0.0
 30
0.0
 70
   128
 71
    65
 72
    23
 73
    21
 74
    19
  0
VERTEX
  5
49F
330
3F3
100
AcDbEntity
  8
ｴｸｽﾃﾘｱ商品
 62
    43
370
    20
100
AcDbFaceRecord
 10
0.0
 20
0.0
 30
0.0
 70
   128
 71
    65
 72
    19
 73
    17
 74
    15
  0
VERTEX
  5
4A0
330
3F3
100
AcDbEntity
  8
ｴｸｽﾃﾘｱ商品
 62
    43
370
    20
100
AcDbFaceRecord
 10
0.0
 20
0.0
 30
0.0
 70
   128
 71
    65
 72
    15
 73
    13
 74
    11
  0
VERTEX
  5
4A1
330
3F3
100
AcDbEntity
  8
ｴｸｽﾃﾘｱ商品
 62
    43
370
    20
100
AcDbFaceRecord
 10
0.0
 20
0.0
 30
0.0
 70
   128
 71
    65
 72
    11
 73
     9
 74
     7
  0
VERTEX
  5
4A2
330
3F3
100
AcDbEntity
  8
ｴｸｽﾃﾘｱ商品
 62
    43
370
    20
100
AcDbFaceRecord
 10
0.0
 20
0.0
 30
0.0
 70
   128
 71
    65
 72
     7
 73
     5
 74
     3
  0
VERTEX
  5
4A3
330
3F3
100
AcDbEntity
  8
ｴｸｽﾃﾘｱ商品
 62
    43
370
    20
100
AcDbFaceRecord
 10
0.0
 20
0.0
 30
0.0
 70
   128
 71
    65
 72
     3
 73
     2
 74
    89
  0
VERTEX
  5
4A4
330
3F3
100
AcDbEntity
  8
ｴｸｽﾃﾘｱ商品
 62
    43
370
    20
100
AcDbFaceRecord
 10
0.0
 20
0.0
 30
0.0
 70
   128
 71
    65
 72
    89
 73
    87
 74
    85
  0
VERTEX
  5
4A5
330
3F3
100
AcDbEntity
  8
ｴｸｽﾃﾘｱ商品
 62
    43
370
    20
100
AcDbFaceRecord
 10
0.0
 20
0.0
 30
0.0
 70
   128
 71
    65
 72
    85
 73
    83
 74
    81
  0
VERTEX
  5
4A6
330
3F3
100
AcDbEntity
  8
ｴｸｽﾃﾘｱ商品
 62
    43
370
    20
100
AcDbFaceRecord
 10
0.0
 20
0.0
 30
0.0
 70
   128
 71
    65
 72
    81
 73
    79
 74
    77
  0
VERTEX
  5
4A7
330
3F3
100
AcDbEntity
  8
ｴｸｽﾃﾘｱ商品
 62
    43
370
    20
100
AcDbFaceRecord
 10
0.0
 20
0.0
 30
0.0
 70
   128
 71
    65
 72
    77
 73
    75
 74
    74
  0
SEQEND
  5
3F4
330
3F3
100
AcDbEntity
  8
ｴｸｽﾃﾘｱ商品
370
    20
  0
POLYLINE
  5
4A8
330
3C
100
AcDbEntity
  8
ｴｸｽﾃﾘｱ商品
 62
    43
370
    20
100
AcDbPolyFaceMesh
 66
     1
 10
0.0
 20
0.0
 30
0.0
 70
    64
 71
    72
 72
    54
  0
VERTEX
  5
4AA
330
4A8
100
AcDbEntity
  8
ｴｸｽﾃﾘｱ商品
 62
    43
370
    20
100
AcDbVertex
100
AcDbPolyFaceMeshVertex
 10
3887.227578071854
 20
501.3600218742799
 30
267.0
 70
   192
  0
VERTEX
  5
4AB
330
4A8
100
AcDbEntity
  8
ｴｸｽﾃﾘｱ商品
 62
    43
370
    20
100
AcDbVertex
100
AcDbPolyFaceMeshVertex
 10
87.22757807185394
 20
501.3600218742799
 30
267.0
 70
   192
  0
VERTEX
  5
4AC
330
4A8
100
AcDbEntity
  8
ｴｸｽﾃﾘｱ商品
 62
    43
370
    20
100
AcDbVertex
100
AcDbPolyFaceMeshVertex
 10
87.22757807185394
 20
526.3600218742799
 30
267.0
 70
   192
  0
VERTEX
  5
4AD
330
4A8
100
AcDbEntity
  8
ｴｸｽﾃﾘｱ商品
 62
    43
370
    20
100
AcDbVertex
100
AcDbPolyFaceMeshVertex
 10
3887.227578071854
 20
526.3600218742799
 30
267.0
 70
   192
  0
VERTEX
  5
4AE
330
4A8
100
AcDbEntity
  8
ｴｸｽﾃﾘｱ商品
 62
    43
370
    20
100
AcDbVertex
100
AcDbPolyFaceMeshVertex
 10
87.22757807185394
 20
501.3600218742799
 30
391.0
 70
   192
  0
VERTEX
  5
4AF
330
4A8
100
AcDbEntity
  8
ｴｸｽﾃﾘｱ商品
 62
    43
370
    20
100
AcDbVertex
100
AcDbPolyFaceMeshVertex
 10
3887.227578071854
 20
501.3600218742799
 30
391.0
 70
   192
  0
VERTEX
  5
4B0
330
4A8
100
AcDbEntity
  8
ｴｸｽﾃﾘｱ商品
 62
    43
370
    20
100
AcDbVertex
100
AcDbPolyFaceMeshVertex
 10
3887.227578071854
 20
526.3600218742799
 30
391.0
 70
   192
  0
VERTEX
  5
4B1
330
4A8
100
AcDbEntity
  8
ｴｸｽﾃﾘｱ商品
 62
    43
370
    20
100
AcDbVertex
100
AcDbPolyFaceMeshVertex
 10
87.22757807185394
 20
526.3600218742799
 30
391.0
 70
   192
  0
VERTEX
  5
4B2
330
4A8
100
AcDbEntity
  8
ｴｸｽﾃﾘｱ商品
 62
    43
370
    20
100
AcDbVertex
100
AcDbPolyFaceMeshVertex
 10
3887.227578071854
 20
501.3600218742799
 30
82.99999999999997
 70
   192
  0
VERTEX
  5
4B3
330
4A8
100
AcDbEntity
  8
ｴｸｽﾃﾘｱ商品
 62
    43
370
    20
100
AcDbVertex
100
AcDbPolyFaceMeshVertex
 10
87.22757807185394
 20
501.3600218742799
 30
82.99999999999997
 70
   192
  0
VERTEX
  5
4B4
330
4A8
100
AcDbEntity
  8
ｴｸｽﾃﾘｱ商品
 62
    43
370
    20
100
AcDbVertex
100
AcDbPolyFaceMeshVertex
 10
87.22757807185394
 20
526.3600218742799
 30
82.99999999999997
 70
   192
  0
VERTEX
  5
4B5
330
4A8
100
AcDbEntity
  8
ｴｸｽﾃﾘｱ商品
 62
    43
370
    20
100
AcDbVertex
100
AcDbPolyFaceMeshVertex
 10
3887.227578071854
 20
526.3600218742799
 30
82.99999999999997
 70
   192
  0
VERTEX
  5
4B6
330
4A8
100
AcDbEntity
  8
ｴｸｽﾃﾘｱ商品
 62
    43
370
    20
100
AcDbVertex
100
AcDbPolyFaceMeshVertex
 10
87.22757807185394
 20
501.3600218742799
 30
207.0
 70
   192
  0
VERTEX
  5
4B7
330
4A8
100
AcDbEntity
  8
ｴｸｽﾃﾘｱ商品
 62
    43
370
    20
100
AcDbVertex
100
AcDbPolyFaceMeshVertex
 10
3887.227578071854
 20
501.3600218742799
 30
207.0
 70
   192
  0
VERTEX
  5
4B8
330
4A8
100
AcDbEntity
  8
ｴｸｽﾃﾘｱ商品
 62
    43
370
    20
100
AcDbVertex
100
AcDbPolyFaceMeshVertex
 10
3887.227578071854
 20
526.3600218742799
 30
207.0
 70
   192
  0
VERTEX
  5
4B9
330
4A8
100
AcDbEntity
  8
ｴｸｽﾃﾘｱ商品
 62
    43
370
    20
100
AcDbVertex
100
AcDbPolyFaceMeshVertex
 10
87.22757807185394
 20
526.3600218742799
 30
207.0
 70
   192
  0
VERTEX
  5
4BA
330
4A8
100
AcDbEntity
  8
ｴｸｽﾃﾘｱ商品
 62
    43
370
    20
100
AcDbVertex
100
AcDbPolyFaceMeshVertex
 10
3887.227578071854
 20
476.3600218742799
 30
222.0
 70
   192
  0
VERTEX
  5
4BB
330
4A8
100
AcDbEntity
  8
ｴｸｽﾃﾘｱ商品
 62
    43
370
    20
100
AcDbVertex
100
AcDbPolyFaceMeshVertex
 10
87.22757807185394
 20
476.3600218742799
 30
222.0
 70
   192
  0
VERTEX
  5
4BC
330
4A8
100
AcDbEntity
  8
ｴｸｽﾃﾘｱ商品
 62
    43
370
    20
100
AcDbVertex
100
AcDbPolyFaceMeshVertex
 10
87.22757807185394
 20
526.3600218742799
 30
222.0
 70
   192
  0
VERTEX
  5
4BD
330
4A8
100
AcDbEntity
  8
ｴｸｽﾃﾘｱ商品
 62
    43
370
    20
100
AcDbVertex
100
AcDbPolyFaceMeshVertex
 10
3887.227578071854
 20
526.3600218742799
 30
222.0
 70
   192
  0
VERTEX
  5
4BE
330
4A8
100
AcDbEntity
  8
ｴｸｽﾃﾘｱ商品
 62
    43
370
    20
100
AcDbVertex
100
AcDbPolyFaceMeshVertex
 10
87.22757807185394
 20
476.3600218742799
 30
252.0
 70
   192
  0
VERTEX
  5
4BF
330
4A8
100
AcDbEntity
  8
ｴｸｽﾃﾘｱ商品
 62
    43
370
    20
100
AcDbVertex
100
AcDbPolyFaceMeshVertex
 10
3887.227578071854
 20
476.3600218742799
 30
252.0
 70
   192
  0
VERTEX
  5
4C0
330
4A8
100
AcDbEntity
  8
ｴｸｽﾃﾘｱ商品
 62
    43
370
    20
100
AcDbVertex
100
AcDbPolyFaceMeshVertex
 10
3887.227578071854
 20
526.3600218742799
 30
252.0
 70
   192
  0
VERTEX
  5
4C1
330
4A8
100
AcDbEntity
  8
ｴｸｽﾃﾘｱ商品
 62
    43
370
    20
100
AcDbVertex
100
AcDbPolyFaceMeshVertex
 10
87.22757807185394
 20
526.3600218742799
 30
252.0
 70
   192
  0
VERTEX
  5
4C2
330
4A8
100
AcDbEntity
  8
ｴｸｽﾃﾘｱ商品
 62
    43
370
    20
100
AcDbVertex
100
AcDbPolyFaceMeshVertex
 10
112.2275780718541
 20
534.3600218742799
 30
267.0
 70
   192
  0
VERTEX
  5
4C3
330
4A8
100
AcDbEntity
  8
ｴｸｽﾃﾘｱ商品
 62
    43
370
    20
100
AcDbVertex
100
AcDbPolyFaceMeshVertex
 10
112.2275780718539
 20
2306.36002187428
 30
267.0
 70
   192
  0
VERTEX
  5
4C4
330
4A8
100
AcDbEntity
  8
ｴｸｽﾃﾘｱ商品
 62
    43
370
    20
100
AcDbVertex
100
AcDbPolyFaceMeshVertex
 10
137.227578071854
 20
2306.36002187428
 30
267.0
 70
   192
  0
VERTEX
  5
4C5
330
4A8
100
AcDbEntity
  8
ｴｸｽﾃﾘｱ商品
 62
    43
370
    20
100
AcDbVertex
100
AcDbPolyFaceMeshVertex
 10
137.2275780718541
 20
534.3600218742799
 30
267.0
 70
   192
  0
VERTEX
  5
4C6
330
4A8
100
AcDbEntity
  8
ｴｸｽﾃﾘｱ商品
 62
    43
370
    20
100
AcDbVertex
100
AcDbPolyFaceMeshVertex
 10
112.2275780718539
 20
2306.36002187428
 30
391.0
 70
   192
  0
VERTEX
  5
4C7
330
4A8
100
AcDbEntity
  8
ｴｸｽﾃﾘｱ商品
 62
    43
370
    20
100
AcDbVertex
100
AcDbPolyFaceMeshVertex
 10
112.2275780718541
 20
534.3600218742799
 30
391.0
 70
   192
  0
VERTEX
  5
4C8
330
4A8
100
AcDbEntity
  8
ｴｸｽﾃﾘｱ商品
 62
    43
370
    20
100
AcDbVertex
100
AcDbPolyFaceMeshVertex
 10
137.2275780718541
 20
534.3600218742799
 30
391.0
 70
   192
  0
VERTEX
  5
4C9
330
4A8
100
AcDbEntity
  8
ｴｸｽﾃﾘｱ商品
 62
    43
370
    20
100
AcDbVertex
100
AcDbPolyFaceMeshVertex
 10
137.227578071854
 20
2306.36002187428
 30
391.0
 70
   192
  0
VERTEX
  5
4CA
330
4A8
100
AcDbEntity
  8
ｴｸｽﾃﾘｱ商品
 62
    43
370
    20
100
AcDbVertex
100
AcDbPolyFaceMeshVertex
 10
112.2275780718541
 20
534.3600218742799
 30
82.99999999999997
 70
   192
  0
VERTEX
  5
4CB
330
4A8
100
AcDbEntity
  8
ｴｸｽﾃﾘｱ商品
 62
    43
370
    20
100
AcDbVertex
100
AcDbPolyFaceMeshVertex
 10
112.2275780718539
 20
2306.36002187428
 30
82.99999999999997
 70
   192
  0
VERTEX
  5
4CC
330
4A8
100
AcDbEntity
  8
ｴｸｽﾃﾘｱ商品
 62
    43
370
    20
100
AcDbVertex
100
AcDbPolyFaceMeshVertex
 10
137.227578071854
 20
2306.36002187428
 30
82.99999999999997
 70
   192
  0
VERTEX
  5
4CD
330
4A8
100
AcDbEntity
  8
ｴｸｽﾃﾘｱ商品
 62
    43
370
    20
100
AcDbVertex
100
AcDbPolyFaceMeshVertex
 10
137.2275780718541
 20
534.3600218742799
 30
82.99999999999997
 70
   192
  0
VERTEX
  5
4CE
330
4A8
100
AcDbEntity
  8
ｴｸｽﾃﾘｱ商品
 62
    43
370
    20
100
AcDbVertex
100
AcDbPolyFaceMeshVertex
 10
112.2275780718539
 20
2306.36002187428
 30
207.0
 70
   192
  0
VERTEX
  5
4CF
330
4A8
100
AcDbEntity
  8
ｴｸｽﾃﾘｱ商品
 62
    43
370
    20
100
AcDbVertex
100
AcDbPolyFaceMeshVertex
 10
112.2275780718541
 20
534.3600218742799
 30
207.0
 70
   192
  0
VERTEX
  5
4D0
330
4A8
100
AcDbEntity
  8
ｴｸｽﾃﾘｱ商品
 62
    43
370
    20
100
AcDbVertex
100
AcDbPolyFaceMeshVertex
 10
137.2275780718541
 20
534.3600218742799
 30
207.0
 70
   192
  0
VERTEX
  5
4D1
330
4A8
100
AcDbEntity
  8
ｴｸｽﾃﾘｱ商品
 62
    43
370
    20
100
AcDbVertex
100
AcDbPolyFaceMeshVertex
 10
137.227578071854
 20
2306.36002187428
 30
207.0
 70
   192
  0
VERTEX
  5
4D2
330
4A8
100
AcDbEntity
  8
ｴｸｽﾃﾘｱ商品
 62
    43
370
    20
100
AcDbVertex
100
AcDbPolyFaceMeshVertex
 10
87.22757807185405
 20
534.3600218742799
 30
222.0
 70
   192
  0
VERTEX
  5
4D3
330
4A8
100
AcDbEntity
  8
ｴｸｽﾃﾘｱ商品
 62
    43
370
    20
100
AcDbVertex
100
AcDbPolyFaceMeshVertex
 10
87.22757807185394
 20
2306.36002187428
 30
222.0
 70
   192
  0
VERTEX
  5
4D4
330
4A8
100
AcDbEntity
  8
ｴｸｽﾃﾘｱ商品
 62
    43
370
    20
100
AcDbVertex
100
AcDbPolyFaceMeshVertex
 10
137.227578071854
 20
2306.36002187428
 30
222.0
 70
   192
  0
VERTEX
  5
4D5
330
4A8
100
AcDbEntity
  8
ｴｸｽﾃﾘｱ商品
 62
    43
370
    20
100
AcDbVertex
100
AcDbPolyFaceMeshVertex
 10
137.2275780718541
 20
534.3600218742799
 30
222.0
 70
   192
  0
VERTEX
  5
4D6
330
4A8
100
AcDbEntity
  8
ｴｸｽﾃﾘｱ商品
 62
    43
370
    20
100
AcDbVertex
100
AcDbPolyFaceMeshVertex
 10
87.22757807185394
 20
2306.36002187428
 30
252.0
 70
   192
  0
VERTEX
  5
4D7
330
4A8
100
AcDbEntity
  8
ｴｸｽﾃﾘｱ商品
 62
    43
370
    20
100
AcDbVertex
100
AcDbPolyFaceMeshVertex
 10
87.22757807185405
 20
534.3600218742799
 30
252.0
 70
   192
  0
VERTEX
  5
4D8
330
4A8
100
AcDbEntity
  8
ｴｸｽﾃﾘｱ商品
 62
    43
370
    20
100
AcDbVertex
100
AcDbPolyFaceMeshVertex
 10
137.2275780718541
 20
534.3600218742799
 30
252.0
 70
   192
  0
VERTEX
  5
4D9
330
4A8
100
AcDbEntity
  8
ｴｸｽﾃﾘｱ商品
 62
    43
370
    20
100
AcDbVertex
100
AcDbPolyFaceMeshVertex
 10
137.227578071854
 20
2306.36002187428
 30
252.0
 70
   192
  0
VERTEX
  5
4DA
330
4A8
100
AcDbEntity
  8
ｴｸｽﾃﾘｱ商品
 62
    43
370
    20
100
AcDbVertex
100
AcDbPolyFaceMeshVertex
 10
3862.227578071854
 20
534.3600218742799
 30
267.0
 70
   192
  0
VERTEX
  5
4DB
330
4A8
100
AcDbEntity
  8
ｴｸｽﾃﾘｱ商品
 62
    43
370
    20
100
AcDbVertex
100
AcDbPolyFaceMeshVertex
 10
3837.227578071854
 20
534.3600218742799
 30
267.0
 70
   192
  0
VERTEX
  5
4DC
330
4A8
100
AcDbEntity
  8
ｴｸｽﾃﾘｱ商品
 62
    43
370
    20
100
AcDbVertex
100
AcDbPolyFaceMeshVertex
 10
3837.227578071854
 20
2306.36002187428
 30
267.0
 70
   192
  0
VERTEX
  5
4DD
330
4A8
100
AcDbEntity
  8
ｴｸｽﾃﾘｱ商品
 62
    43
370
    20
100
AcDbVertex
100
AcDbPolyFaceMeshVertex
 10
3862.227578071854
 20
2306.36002187428
 30
267.0
 70
   192
  0
VERTEX
  5
4DE
330
4A8
100
AcDbEntity
  8
ｴｸｽﾃﾘｱ商品
 62
    43
370
    20
100
AcDbVertex
100
AcDbPolyFaceMeshVertex
 10
3862.227578071854
 20
2306.36002187428
 30
391.0
 70
   192
  0
VERTEX
  5
4DF
330
4A8
100
AcDbEntity
  8
ｴｸｽﾃﾘｱ商品
 62
    43
370
    20
100
AcDbVertex
100
AcDbPolyFaceMeshVertex
 10
3837.227578071854
 20
2306.36002187428
 30
391.0
 70
   192
  0
VERTEX
  5
4E0
330
4A8
100
AcDbEntity
  8
ｴｸｽﾃﾘｱ商品
 62
    43
370
    20
100
AcDbVertex
100
AcDbPolyFaceMeshVertex
 10
3837.227578071854
 20
534.3600218742799
 30
391.0
 70
   192
  0
VERTEX
  5
4E1
330
4A8
100
AcDbEntity
  8
ｴｸｽﾃﾘｱ商品
 62
    43
370
    20
100
AcDbVertex
100
AcDbPolyFaceMeshVertex
 10
3862.227578071854
 20
534.3600218742799
 30
391.0
 70
   192
  0
VERTEX
  5
4E2
330
4A8
100
AcDbEntity
  8
ｴｸｽﾃﾘｱ商品
 62
    43
370
    20
100
AcDbVertex
100
AcDbPolyFaceMeshVertex
 10
3862.227578071854
 20
534.3600218742799
 30
82.99999999999997
 70
   192
  0
VERTEX
  5
4E3
330
4A8
100
AcDbEntity
  8
ｴｸｽﾃﾘｱ商品
 62
    43
370
    20
100
AcDbVertex
100
AcDbPolyFaceMeshVertex
 10
3837.227578071854
 20
534.3600218742799
 30
82.99999999999997
 70
   192
  0
VERTEX
  5
4E4
330
4A8
100
AcDbEntity
  8
ｴｸｽﾃﾘｱ商品
 62
    43
370
    20
100
AcDbVertex
100
AcDbPolyFaceMeshVertex
 10
3837.227578071854
 20
2306.36002187428
 30
82.99999999999997
 70
   192
  0
VERTEX
  5
4E5
330
4A8
100
AcDbEntity
  8
ｴｸｽﾃﾘｱ商品
 62
    43
370
    20
100
AcDbVertex
100
AcDbPolyFaceMeshVertex
 10
3862.227578071854
 20
2306.36002187428
 30
82.99999999999997
 70
   192
  0
VERTEX
  5
4E6
330
4A8
100
AcDbEntity
  8
ｴｸｽﾃﾘｱ商品
 62
    43
370
    20
100
AcDbVertex
100
AcDbPolyFaceMeshVertex
 10
3862.227578071854
 20
2306.36002187428
 30
207.0
 70
   192
  0
VERTEX
  5
4E7
330
4A8
100
AcDbEntity
  8
ｴｸｽﾃﾘｱ商品
 62
    43
370
    20
100
AcDbVertex
100
AcDbPolyFaceMeshVertex
 10
3837.227578071854
 20
2306.36002187428
 30
207.0
 70
   192
  0
VERTEX
  5
4E8
330
4A8
100
AcDbEntity
  8
ｴｸｽﾃﾘｱ商品
 62
    43
370
    20
100
AcDbVertex
100
AcDbPolyFaceMeshVertex
 10
3837.227578071854
 20
534.3600218742799
 30
207.0
 70
   192
  0
VERTEX
  5
4E9
330
4A8
100
AcDbEntity
  8
ｴｸｽﾃﾘｱ商品
 62
    43
370
    20
100
AcDbVertex
100
AcDbPolyFaceMeshVertex
 10
3862.227578071854
 20
534.3600218742799
 30
207.0
 70
   192
  0
VERTEX
  5
4EA
330
4A8
100
AcDbEntity
  8
ｴｸｽﾃﾘｱ商品
 62
    43
370
    20
100
AcDbVertex
100
AcDbPolyFaceMeshVertex
 10
3887.227578071854
 20
534.3600218742799
 30
222.0
 70
   192
  0
VERTEX
  5
4EB
330
4A8
100
AcDbEntity
  8
ｴｸｽﾃﾘｱ商品
 62
    43
370
    20
100
AcDbVertex
100
AcDbPolyFaceMeshVertex
 10
3837.227578071853
 20
534.3600218742799
 30
222.0
 70
   192
  0
VERTEX
  5
4EC
330
4A8
100
AcDbEntity
  8
ｴｸｽﾃﾘｱ商品
 62
    43
370
    20
100
AcDbVertex
100
AcDbPolyFaceMeshVertex
 10
3837.227578071854
 20
2306.36002187428
 30
222.0
 70
   192
  0
VERTEX
  5
4ED
330
4A8
100
AcDbEntity
  8
ｴｸｽﾃﾘｱ商品
 62
    43
370
    20
100
AcDbVertex
100
AcDbPolyFaceMeshVertex
 10
3887.227578071854
 20
2306.36002187428
 30
222.0
 70
   192
  0
VERTEX
  5
4EE
330
4A8
100
AcDbEntity
  8
ｴｸｽﾃﾘｱ商品
 62
    43
370
    20
100
AcDbVertex
100
AcDbPolyFaceMeshVertex
 10
3887.227578071854
 20
2306.36002187428
 30
252.0
 70
   192
  0
VERTEX
  5
4EF
330
4A8
100
AcDbEntity
  8
ｴｸｽﾃﾘｱ商品
 62
    43
370
    20
100
AcDbVertex
100
AcDbPolyFaceMeshVertex
 10
3837.227578071854
 20
2306.36002187428
 30
252.0
 70
   192
  0
VERTEX
  5
4F0
330
4A8
100
AcDbEntity
  8
ｴｸｽﾃﾘｱ商品
 62
    43
370
    20
100
AcDbVertex
100
AcDbPolyFaceMeshVertex
 10
3837.227578071853
 20
534.3600218742799
 30
252.0
 70
   192
  0
VERTEX
  5
4F1
330
4A8
100
AcDbEntity
  8
ｴｸｽﾃﾘｱ商品
 62
    43
370
    20
100
AcDbVertex
100
AcDbPolyFaceMeshVertex
 10
3887.227578071854
 20
534.3600218742799
 30
252.0
 70
   192
  0
VERTEX
  5
4F2
330
4A8
100
AcDbEntity
  8
ｴｸｽﾃﾘｱ商品
 62
    43
370
    20
100
AcDbFaceRecord
 10
0.0
 20
0.0
 30
0.0
 70
   128
 71
     1
 72
     2
 73
     3
 74
     4
  0
VERTEX
  5
4F3
330
4A8
100
AcDbEntity
  8
ｴｸｽﾃﾘｱ商品
 62
    43
370
    20
100
AcDbFaceRecord
 10
0.0
 20
0.0
 30
0.0
 70
   128
 71
     5
 72
     6
 73
     7
 74
     8
  0
VERTEX
  5
4F4
330
4A8
100
AcDbEntity
  8
ｴｸｽﾃﾘｱ商品
 62
    43
370
    20
100
AcDbFaceRecord
 10
0.0
 20
0.0
 30
0.0
 70
   128
 71
     2
 72
     1
 73
     6
 74
     5
  0
VERTEX
  5
4F5
330
4A8
100
AcDbEntity
  8
ｴｸｽﾃﾘｱ商品
 62
    43
370
    20
100
AcDbFaceRecord
 10
0.0
 20
0.0
 30
0.0
 70
   128
 71
     1
 72
     4
 73
     7
 74
     6
  0
VERTEX
  5
4F6
330
4A8
100
AcDbEntity
  8
ｴｸｽﾃﾘｱ商品
 62
    43
370
    20
100
AcDbFaceRecord
 10
0.0
 20
0.0
 30
0.0
 70
   128
 71
     4
 72
     3
 73
     8
 74
     7
  0
VERTEX
  5
4F7
330
4A8
100
AcDbEntity
  8
ｴｸｽﾃﾘｱ商品
 62
    43
370
    20
100
AcDbFaceRecord
 10
0.0
 20
0.0
 30
0.0
 70
   128
 71
     3
 72
     2
 73
     5
 74
     8
  0
VERTEX
  5
4F8
330
4A8
100
AcDbEntity
  8
ｴｸｽﾃﾘｱ商品
 62
    43
370
    20
100
AcDbFaceRecord
 10
0.0
 20
0.0
 30
0.0
 70
   128
 71
     9
 72
    10
 73
    11
 74
    12
  0
VERTEX
  5
4F9
330
4A8
100
AcDbEntity
  8
ｴｸｽﾃﾘｱ商品
 62
    43
370
    20
100
AcDbFaceRecord
 10
0.0
 20
0.0
 30
0.0
 70
   128
 71
    13
 72
    14
 73
    15
 74
    16
  0
VERTEX
  5
4FA
330
4A8
100
AcDbEntity
  8
ｴｸｽﾃﾘｱ商品
 62
    43
370
    20
100
AcDbFaceRecord
 10
0.0
 20
0.0
 30
0.0
 70
   128
 71
    10
 72
     9
 73
    14
 74
    13
  0
VERTEX
  5
4FB
330
4A8
100
AcDbEntity
  8
ｴｸｽﾃﾘｱ商品
 62
    43
370
    20
100
AcDbFaceRecord
 10
0.0
 20
0.0
 30
0.0
 70
   128
 71
     9
 72
    12
 73
    15
 74
    14
  0
VERTEX
  5
4FC
330
4A8
100
AcDbEntity
  8
ｴｸｽﾃﾘｱ商品
 62
    43
370
    20
100
AcDbFaceRecord
 10
0.0
 20
0.0
 30
0.0
 70
   128
 71
    12
 72
    11
 73
    16
 74
    15
  0
VERTEX
  5
4FD
330
4A8
100
AcDbEntity
  8
ｴｸｽﾃﾘｱ商品
 62
    43
370
    20
100
AcDbFaceRecord
 10
0.0
 20
0.0
 30
0.0
 70
   128
 71
    11
 72
    10
 73
    13
 74
    16
  0
VERTEX
  5
4FE
330
4A8
100
AcDbEntity
  8
ｴｸｽﾃﾘｱ商品
 62
   250
370
    20
100
AcDbFaceRecord
 10
0.0
 20
0.0
 30
0.0
 70
   128
 71
    17
 72
    18
 73
    19
 74
    20
  0
VERTEX
  5
4FF
330
4A8
100
AcDbEntity
  8
ｴｸｽﾃﾘｱ商品
 62
   250
370
    20
100
AcDbFaceRecord
 10
0.0
 20
0.0
 30
0.0
 70
   128
 71
    21
 72
    22
 73
    23
 74
    24
  0
VERTEX
  5
500
330
4A8
100
AcDbEntity
  8
ｴｸｽﾃﾘｱ商品
 62
   250
370
    20
100
AcDbFaceRecord
 10
0.0
 20
0.0
 30
0.0
 70
   128
 71
    18
 72
    17
 73
    22
 74
    21
  0
VERTEX
  5
501
330
4A8
100
AcDbEntity
  8
ｴｸｽﾃﾘｱ商品
 62
   250
370
    20
100
AcDbFaceRecord
 10
0.0
 20
0.0
 30
0.0
 70
   128
 71
    17
 72
    20
 73
    23
 74
    22
  0
VERTEX
  5
502
330
4A8
100
AcDbEntity
  8
ｴｸｽﾃﾘｱ商品
 62
   250
370
    20
100
AcDbFaceRecord
 10
0.0
 20
0.0
 30
0.0
 70
   128
 71
    20
 72
    19
 73
    24
 74
    23
  0
VERTEX
  5
503
330
4A8
100
AcDbEntity
  8
ｴｸｽﾃﾘｱ商品
 62
   250
370
    20
100
AcDbFaceRecord
 10
0.0
 20
0.0
 30
0.0
 70
   128
 71
    19
 72
    18
 73
    21
 74
    24
  0
VERTEX
  5
504
330
4A8
100
AcDbEntity
  8
ｴｸｽﾃﾘｱ商品
 62
    43
370
    20
100
AcDbFaceRecord
 10
0.0
 20
0.0
 30
0.0
 70
   128
 71
    25
 72
    26
 73
    27
 74
    28
  0
VERTEX
  5
505
330
4A8
100
AcDbEntity
  8
ｴｸｽﾃﾘｱ商品
 62
    43
370
    20
100
AcDbFaceRecord
 10
0.0
 20
0.0
 30
0.0
 70
   128
 71
    29
 72
    30
 73
    31
 74
    32
  0
VERTEX
  5
506
330
4A8
100
AcDbEntity
  8
ｴｸｽﾃﾘｱ商品
 62
    43
370
    20
100
AcDbFaceRecord
 10
0.0
 20
0.0
 30
0.0
 70
   128
 71
    26
 72
    25
 73
    30
 74
    29
  0
VERTEX
  5
507
330
4A8
100
AcDbEntity
  8
ｴｸｽﾃﾘｱ商品
 62
    43
370
    20
100
AcDbFaceRecord
 10
0.0
 20
0.0
 30
0.0
 70
   128
 71
    25
 72
    28
 73
    31
 74
    30
  0
VERTEX
  5
508
330
4A8
100
AcDbEntity
  8
ｴｸｽﾃﾘｱ商品
 62
    43
370
    20
100
AcDbFaceRecord
 10
0.0
 20
0.0
 30
0.0
 70
   128
 71
    28
 72
    27
 73
    32
 74
    31
  0
VERTEX
  5
509
330
4A8
100
AcDbEntity
  8
ｴｸｽﾃﾘｱ商品
 62
    43
370
    20
100
AcDbFaceRecord
 10
0.0
 20
0.0
 30
0.0
 70
   128
 71
    27
 72
    26
 73
    29
 74
    32
  0
VERTEX
  5
50A
330
4A8
100
AcDbEntity
  8
ｴｸｽﾃﾘｱ商品
 62
    43
370
    20
100
AcDbFaceRecord
 10
0.0
 20
0.0
 30
0.0
 70
   128
 71
    33
 72
    34
 73
    35
 74
    36
  0
VERTEX
  5
50B
330
4A8
100
AcDbEntity
  8
ｴｸｽﾃﾘｱ商品
 62
    43
370
    20
100
AcDbFaceRecord
 10
0.0
 20
0.0
 30
0.0
 70
   128
 71
    37
 72
    38
 73
    39
 74
    40
  0
VERTEX
  5
50C
330
4A8
100
AcDbEntity
  8
ｴｸｽﾃﾘｱ商品
 62
    43
370
    20
100
AcDbFaceRecord
 10
0.0
 20
0.0
 30
0.0
 70
   128
 71
    34
 72
    33
 73
    38
 74
    37
  0
VERTEX
  5
50D
330
4A8
100
AcDbEntity
  8
ｴｸｽﾃﾘｱ商品
 62
    43
370
    20
100
AcDbFaceRecord
 10
0.0
 20
0.0
 30
0.0
 70
   128
 71
    33
 72
    36
 73
    39
 74
    38
  0
VERTEX
  5
50E
330
4A8
100
AcDbEntity
  8
ｴｸｽﾃﾘｱ商品
 62
    43
370
    20
100
AcDbFaceRecord
 10
0.0
 20
0.0
 30
0.0
 70
   128
 71
    36
 72
    35
 73
    40
 74
    39
  0
VERTEX
  5
50F
330
4A8
100
AcDbEntity
  8
ｴｸｽﾃﾘｱ商品
 62
    43
370
    20
100
AcDbFaceRecord
 10
0.0
 20
0.0
 30
0.0
 70
   128
 71
    35
 72
    34
 73
    37
 74
    40
  0
VERTEX
  5
510
330
4A8
100
AcDbEntity
  8
ｴｸｽﾃﾘｱ商品
 62
   250
370
    20
100
AcDbFaceRecord
 10
0.0
 20
0.0
 30
0.0
 70
   128
 71
    41
 72
    42
 73
    43
 74
    44
  0
VERTEX
  5
511
330
4A8
100
AcDbEntity
  8
ｴｸｽﾃﾘｱ商品
 62
   250
370
    20
100
AcDbFaceRecord
 10
0.0
 20
0.0
 30
0.0
 70
   128
 71
    45
 72
    46
 73
    47
 74
    48
  0
VERTEX
  5
512
330
4A8
100
AcDbEntity
  8
ｴｸｽﾃﾘｱ商品
 62
   250
370
    20
100
AcDbFaceRecord
 10
0.0
 20
0.0
 30
0.0
 70
   128
 71
    42
 72
    41
 73
    46
 74
    45
  0
VERTEX
  5
513
330
4A8
100
AcDbEntity
  8
ｴｸｽﾃﾘｱ商品
 62
   250
370
    20
100
AcDbFaceRecord
 10
0.0
 20
0.0
 30
0.0
 70
   128
 71
    41
 72
    44
 73
    47
 74
    46
  0
VERTEX
  5
514
330
4A8
100
AcDbEntity
  8
ｴｸｽﾃﾘｱ商品
 62
   250
370
    20
100
AcDbFaceRecord
 10
0.0
 20
0.0
 30
0.0
 70
   128
 71
    44
 72
    43
 73
    48
 74
    47
  0
VERTEX
  5
515
330
4A8
100
AcDbEntity
  8
ｴｸｽﾃﾘｱ商品
 62
   250
370
    20
100
AcDbFaceRecord
 10
0.0
 20
0.0
 30
0.0
 70
   128
 71
    43
 72
    42
 73
    45
 74
    48
  0
VERTEX
  5
516
330
4A8
100
AcDbEntity
  8
ｴｸｽﾃﾘｱ商品
 62
    43
370
    20
100
AcDbFaceRecord
 10
0.0
 20
0.0
 30
0.0
 70
   128
 71
    49
 72
    50
 73
    51
 74
    52
  0
VERTEX
  5
517
330
4A8
100
AcDbEntity
  8
ｴｸｽﾃﾘｱ商品
 62
    43
370
    20
100
AcDbFaceRecord
 10
0.0
 20
0.0
 30
0.0
 70
   128
 71
    53
 72
    54
 73
    55
 74
    56
  0
VERTEX
  5
518
330
4A8
100
AcDbEntity
  8
ｴｸｽﾃﾘｱ商品
 62
    43
370
    20
100
AcDbFaceRecord
 10
0.0
 20
0.0
 30
0.0
 70
   128
 71
    52
 72
    53
 73
    56
 74
    49
  0
VERTEX
  5
519
330
4A8
100
AcDbEntity
  8
ｴｸｽﾃﾘｱ商品
 62
    43
370
    20
100
AcDbFaceRecord
 10
0.0
 20
0.0
 30
0.0
 70
   128
 71
    49
 72
    56
 73
    55
 74
    50
  0
VERTEX
  5
51A
330
4A8
100
AcDbEntity
  8
ｴｸｽﾃﾘｱ商品
 62
    43
370
    20
100
AcDbFaceRecord
 10
0.0
 20
0.0
 30
0.0
 70
   128
 71
    50
 72
    55
 73
    54
 74
    51
  0
VERTEX
  5
51B
330
4A8
100
AcDbEntity
  8
ｴｸｽﾃﾘｱ商品
 62
    43
370
    20
100
AcDbFaceRecord
 10
0.0
 20
0.0
 30
0.0
 70
   128
 71
    51
 72
    54
 73
    53
 74
    52
  0
VERTEX
  5
51C
330
4A8
100
AcDbEntity
  8
ｴｸｽﾃﾘｱ商品
 62
    43
370
    20
100
AcDbFaceRecord
 10
0.0
 20
0.0
 30
0.0
 70
   128
 71
    57
 72
    58
 73
    59
 74
    60
  0
VERTEX
  5
51D
330
4A8
100
AcDbEntity
  8
ｴｸｽﾃﾘｱ商品
 62
    43
370
    20
100
AcDbFaceRecord
 10
0.0
 20
0.0
 30
0.0
 70
   128
 71
    61
 72
    62
 73
    63
 74
    64
  0
VERTEX
  5
51E
330
4A8
100
AcDbEntity
  8
ｴｸｽﾃﾘｱ商品
 62
    43
370
    20
100
AcDbFaceRecord
 10
0.0
 20
0.0
 30
0.0
 70
   128
 71
    60
 72
    61
 73
    64
 74
    57
  0
VERTEX
  5
51F
330
4A8
100
AcDbEntity
  8
ｴｸｽﾃﾘｱ商品
 62
    43
370
    20
100
AcDbFaceRecord
 10
0.0
 20
0.0
 30
0.0
 70
   128
 71
    57
 72
    64
 73
    63
 74
    58
  0
VERTEX
  5
520
330
4A8
100
AcDbEntity
  8
ｴｸｽﾃﾘｱ商品
 62
    43
370
    20
100
AcDbFaceRecord
 10
0.0
 20
0.0
 30
0.0
 70
   128
 71
    58
 72
    63
 73
    62
 74
    59
  0
VERTEX
  5
521
330
4A8
100
AcDbEntity
  8
ｴｸｽﾃﾘｱ商品
 62
    43
370
    20
100
AcDbFaceRecord
 10
0.0
 20
0.0
 30
0.0
 70
   128
 71
    59
 72
    62
 73
    61
 74
    60
  0
VERTEX
  5
522
330
4A8
100
AcDbEntity
  8
ｴｸｽﾃﾘｱ商品
 62
   250
370
    20
100
AcDbFaceRecord
 10
0.0
 20
0.0
 30
0.0
 70
   128
 71
    65
 72
    66
 73
    67
 74
    68
  0
VERTEX
  5
523
330
4A8
100
AcDbEntity
  8
ｴｸｽﾃﾘｱ商品
 62
   250
370
    20
100
AcDbFaceRecord
 10
0.0
 20
0.0
 30
0.0
 70
   128
 71
    69
 72
    70
 73
    71
 74
    72
  0
VERTEX
  5
524
330
4A8
100
AcDbEntity
  8
ｴｸｽﾃﾘｱ商品
 62
   250
370
    20
100
AcDbFaceRecord
 10
0.0
 20
0.0
 30
0.0
 70
   128
 71
    68
 72
    69
 73
    72
 74
    65
  0
VERTEX
  5
525
330
4A8
100
AcDbEntity
  8
ｴｸｽﾃﾘｱ商品
 62
   250
370
    20
100
AcDbFaceRecord
 10
0.0
 20
0.0
 30
0.0
 70
   128
 71
    65
 72
    72
 73
    71
 74
    66
  0
VERTEX
  5
526
330
4A8
100
AcDbEntity
  8
ｴｸｽﾃﾘｱ商品
 62
   250
370
    20
100
AcDbFaceRecord
 10
0.0
 20
0.0
 30
0.0
 70
   128
 71
    66
 72
    71
 73
    70
 74
    67
  0
VERTEX
  5
527
330
4A8
100
AcDbEntity
  8
ｴｸｽﾃﾘｱ商品
 62
   250
370
    20
100
AcDbFaceRecord
 10
0.0
 20
0.0
 30
0.0
 70
   128
 71
    67
 72
    70
 73
    69
 74
    68
  0
SEQEND
  5
4A9
330
4A8
100
AcDbEntity
  8
ｴｸｽﾃﾘｱ商品
370
    20
  0
ENDBLK
  5
3E
330
3C
100
AcDbEntity
  8
0
100
AcDbBlockEnd
  0
ENDSEC
  0
SECTION
  2
ENTITIES
  0
INSERT
  5
528
330
1F
100
AcDbEntity
  8
ｴｸｽﾃﾘｱ商品
  6
Continuous
 62
   250
370
    20
100
AcDbBlockReference
  2
オブジェクト_187
 10
167.2275780718539
 20
2306.36002187428
 30
0.0
  0
ENDSEC
  0
SECTION
  2
OBJECTS
  0
DICTIONARY
  5
C
330
0
100
AcDbDictionary
281
     1
  3
ACAD_GROUP
350
D
  3
ACAD_LAYOUT
350
1A
  3
ACAD_MLINESTYLE
350
17
  3
ACAD_PLOTSETTINGS
350
19
  3
ACAD_PLOTSTYLENAME
350
E
  3
ACAD_TABLESTYLE
350
52B
  3
ACAD_VISUALSTYLE
350
2A
  3
WATERMARKS
350
529
  0
DICTIONARY
  5
D
102
{ACAD_REACTORS
330
C
102
}
330
C
100
AcDbDictionary
281
     1
  0
DICTIONARY
  5
1A
102
{ACAD_REACTORS
330
C
102
}
330
C
100
AcDbDictionary
281
     1
  3
Layout1
350
1E
  3
Layout2
350
26
  3
Model
350
22
  0
DICTIONARY
  5
17
102
{ACAD_REACTORS
330
C
102
}
330
C
100
AcDbDictionary
281
     1
  3
Standard
350
18
  0
DICTIONARY
  5
19
102
{ACAD_REACTORS
330
C
102
}
330
C
100
AcDbDictionary
281
     1
  0
ACDBDICTIONARYWDFLT
  5
E
102
{ACAD_REACTORS
330
C
102
}
330
C
100
AcDbDictionary
281
     1
  3
Normal
350
F
100
AcDbDictionaryWithDefault
340
F
  0
DICTIONARY
  5
52B
102
{ACAD_REACTORS
330
C
102
}
330
C
100
AcDbDictionary
281
     1
  0
DICTIONARY
  5
2A
102
{ACAD_REACTORS
330
C
102
}
330
C
100
AcDbDictionary
281
     1
  3
2dWireframe
350
2F
  3
3D Hidden
350
31
  3
3dWireframe
350
30
  3
Basic
350
32
  3
Brighten
350
36
  3
ColorChange
350
3A
  3
Conceptual
350
34
  3
Dim
350
35
  3
Facepattern
350
39
  3
Flat
350
2B
  3
FlatWithEdges
350
2C
  3
Gouraud
350
2D
  3
GouraudWithEdges
350
2E
  3
Linepattern
350
38
  3
Realistic
350
33
  3
Thicken
350
37
  0
DICTIONARY
  5
529
102
{ACAD_REACTORS
330
C
102
}
330
C
100
AcDbDictionary
281
     1
  3
AC_WATERMARK
350
52A
  0
LAYOUT
  5
1E
102
{ACAD_REACTORS
330
1A
102
}
330
1A
100
AcDbPlotSettings
  1

  2
none_device
  4

  6

 40
0.0
 41
0.0
 42
0.0
 43
0.0
 44
0.0
 45
0.0
 46
0.0
 47
0.0
 48
0.0
 49
0.0
140
0.0
141
0.0
142
1.0
143
1.0
 70
   688
 72
     0
 73
     0
 74
     5
  7

 75
    16
147
1.0
148
0.0
149
0.0
100
AcDbLayout
  1
Layout1
 70
     1
 71
     1
 10
0.0
 20
0.0
 11
12.0
 21
9.0
 12
0.0
 22
0.0
 32
0.0
 14
1.000000000000000E+20
 24
1.000000000000000E+20
 34
1.000000000000000E+20
 15
-1.000000000000000E+20
 25
-1.000000000000000E+20
 35
-1.000000000000000E+20
146
0.0
 13
0.0
 23
0.0
 33
0.0
 16
1.0
 26
0.0
 36
0.0
 17
0.0
 27
1.0
 37
0.0
 76
     0
330
1B
  0
LAYOUT
  5
26
102
{ACAD_REACTORS
330
1A
102
}
330
1A
100
AcDbPlotSettings
  1

  2
none_device
  4

  6

 40
0.0
 41
0.0
 42
0.0
 43
0.0
 44
0.0
 45
0.0
 46
0.0
 47
0.0
 48
0.0
 49
0.0
140
0.0
141
0.0
142
1.0
143
1.0
 70
   688
 72
     0
 73
     0
 74
     5
  7

 75
    16
147
1.0
148
0.0
149
0.0
100
AcDbLayout
  1
Layout2
 70
     1
 71
     2
 10
0.0
 20
0.0
 11
0.0
 21
0.0
 12
0.0
 22
0.0
 32
0.0
 14
0.0
 24
0.0
 34
0.0
 15
0.0
 25
0.0
 35
0.0
146
0.0
 13
0.0
 23
0.0
 33
0.0
 16
1.0
 26
0.0
 36
0.0
 17
0.0
 27
1.0
 37
0.0
 76
     0
330
23
  0
LAYOUT
  5
22
102
{ACAD_REACTORS
330
1A
102
}
330
1A
100
AcDbPlotSettings
  1

  2
none_device
  4

  6

 40
0.0
 41
0.0
 42
0.0
 43
0.0
 44
0.0
 45
0.0
 46
0.0
 47
0.0
 48
0.0
 49
0.0
140
0.0
141
0.0
142
1.0
143
1.0
 70
  1712
 72
     0
 73
     0
 74
     0
  7

 75
     0
147
1.0
148
0.0
149
0.0
100
AcDbLayout
  1
Model
 70
     1
 71
     0
 10
0.0
 20
0.0
 11
12.0
 21
9.0
 12
0.0
 22
0.0
 32
0.0
 14
1.000000000000000E+20
 24
1.000000000000000E+20
 34
1.000000000000000E+20
 15
-1.000000000000000E+20
 25
-1.000000000000000E+20
 35
-1.000000000000000E+20
146
0.0
 13
0.0
 23
0.0
 33
0.0
 16
1.0
 26
0.0
 36
0.0
 17
0.0
 27
1.0
 37
0.0
 76
     0
330
1F
331
29
  0
MLINESTYLE
  5
18
102
{ACAD_REACTORS
330
17
102
}
330
17
100
AcDbMlineStyle
  2
Standard
 70
     0
  3

 62
   256
 51
90.0
 52
90.0
 71
     2
 49
0.5
 62
   256
  6
BYLAYER
 49
-0.5
 62
   256
  6
BYLAYER
  0
ACDBPLACEHOLDER
  5
F
102
{ACAD_REACTORS
330
E
102
}
330
E
  0
VISUALSTYLE
  5
2F
102
{ACAD_REACTORS
330
2A
102
}
330
2A
100
AcDbVisualStyle
  2
2dWireframe
 70
     4
 71
     0
 72
     2
 73
     0
 90
        0
 40
-0.6
 41
-30.0
 62
     5
 63
     7
 74
     1
 91
        4
 64
     7
 65
   257
 75
     1
175
     1
 42
1.0
 92
        0
 66
   257
 43
1.0
 76
     1
 77
     6
 78
     2
 67
     7
 79
     5
170
     0
171
     0
290
     0
174
     0
 93
        1
 44
0.0
173
     0
291
     0
 45
0.0
1001
ACAD
1000
AcDbSavedByObjectVersion
1070
     0
  0
VISUALSTYLE
  5
31
102
{ACAD_REACTORS
330
2A
102
}
330
2A
100
AcDbVisualStyle
  2
3D Hidden
 70
     6
 71
     1
 72
     2
 73
     2
 90
        0
 40
-0.6
 41
-30.0
 62
     5
 63
     7
 74
     2
 91
        2
 64
     7
 65
   257
 75
     2
175
     1
 42
40.0
 92
        0
 66
   257
 43
1.0
 76
     1
 77
     6
 78
     2
 67
     7
 79
     3
170
     0
171
     0
290
     0
174
     0
 93
        1
 44
0.0
173
     0
291
     0
 45
0.0
1001
ACAD
1000
AcDbSavedByObjectVersion
1070
     0
  0
VISUALSTYLE
  5
30
102
{ACAD_REACTORS
330
2A
102
}
330
2A
100
AcDbVisualStyle
  2
3dWireframe
 70
     5
 71
     0
 72
     2
 73
     0
 90
        0
 40
-0.6
 41
-30.0
 62
     5
 63
     7
 74
     1
 91
        4
 64
     7
 65
   257
 75
     1
175
     1
 42
1.0
 92
        0
 66
   257
 43
1.0
 76
     1
 77
     6
 78
     2
 67
     7
 79
     5
170
     0
171
     0
290
     0
174
     0
 93
        1
 44
0.0
173
     0
291
     0
 45
0.0
1001
ACAD
1000
AcDbSavedByObjectVersion
1070
     0
  0
VISUALSTYLE
  5
32
102
{ACAD_REACTORS
330
2A
102
}
330
2A
100
AcDbVisualStyle
  2
Basic
 70
     7
 71
     1
 72
     0
 73
     1
 90
        0
 40
-0.6
 41
-30.0
 62
     5
 63
     7
 74
     0
 91
        4
 64
     7
 65
   257
 75
     1
175
     1
 42
1.0
 92
        8
 66
     7
 43
1.0
 76
     1
 77
     6
 78
     2
 67
     7
 79
     5
170
     0
171
     0
290
     0
174
     0
 93
        1
 44
0.0
173
     0
291
     1
 45
0.0
1001
ACAD
1000
AcDbSavedByObjectVersion
1070
     0
  0
VISUALSTYLE
  5
36
102
{ACAD_REACTORS
330
2A
102
}
330
2A
100
AcDbVisualStyle
  2
Brighten
 70
    12
 71
     2
 72
     2
 73
     0
 90
        0
 40
-0.6
 41
-30.0
 62
     5
 63
     7
 74
     1
 91
        4
 64
     7
 65
   257
 75
     1
175
     1
 42
1.0
 92
        8
 66
     7
 43
1.0
 76
     1
 77
     6
 78
     2
 67
     7
 79
     5
170
     0
171
     0
290
     0
174
     0
 93
        1
 44
50.0
173
     0
291
     1
 45
0.0
1001
ACAD
1000
AcDbSavedByObjectVersion
1070
     0
  0
VISUALSTYLE
  5
3A
102
{ACAD_REACTORS
330
2A
102
}
330
2A
100
AcDbVisualStyle
  2
ColorChange
 70
    16
 71
     2
 72
     2
 73
     3
 90
        0
 40
-0.6
 41
-30.0
 62
     5
 63
     8
 74
     1
 91
        4
 64
     7
 65
   257
 75
     1
175
     1
 42
1.0
 92
        8
 66
     8
 43
1.0
 76
     1
 77
     6
 78
     2
 67
     7
 79
     5
170
     0
171
     0
290
     0
174
     0
 93
        1
 44
0.0
173
     0
291
     1
 45
0.0
1001
ACAD
1000
AcDbSavedByObjectVersion
1070
     0
  0
VISUALSTYLE
  5
34
102
{ACAD_REACTORS
330
2A
102
}
330
2A
100
AcDbVisualStyle
  2
Conceptual
 70
     9
 71
     3
 72
     2
 73
     0
 90
        0
 40
-0.6
 41
-30.0
 62
     5
 63
     7
 74
     2
 91
        2
 64
     7
 65
   257
 75
     1
175
     1
 42
40.0
 92
        8
 66
     7
 43
1.0
 76
     1
 77
     6
 78
     2
 67
     7
 79
     3
170
     0
171
     0
290
     0
174
     0
 93
        1
 44
0.0
173
     0
291
     0
 45
0.0
1001
ACAD
1000
AcDbSavedByObjectVersion
1070
     0
  0
VISUALSTYLE
  5
35
102
{ACAD_REACTORS
330
2A
102
}
330
2A
100
AcDbVisualStyle
  2
Dim
 70
    11
 71
     2
 72
     2
 73
     0
 90
        0
 40
-0.6
 41
-30.0
 62
     5
 63
     7
 74
     1
 91
        4
 64
     7
 65
   257
 75
     1
175
     1
 42
1.0
 92
        8
 66
     7
 43
1.0
 76
     1
 77
     6
 78
     2
 67
     7
 79
     5
170
     0
171
     0
290
     0
174
     0
 93
        1
 44
-50.0
173
     0
291
     1
 45
0.0
1001
ACAD
1000
AcDbSavedByObjectVersion
1070
     0
  0
VISUALSTYLE
  5
39
102
{ACAD_REACTORS
330
2A
102
}
330
2A
100
AcDbVisualStyle
  2
Facepattern
 70
    15
 71
     2
 72
     2
 73
     0
 90
        0
 40
-0.6
 41
-30.0
 62
     5
 63
     7
 74
     1
 91
        4
 64
     7
 65
   257
 75
     1
175
     1
 42
1.0
 92
        8
 66
     7
 43
1.0
 76
     1
 77
     6
 78
     2
 67
     7
 79
     5
170
     0
171
     0
290
     0
174
     0
 93
        1
 44
0.0
173
     0
291
     1
 45
0.0
1001
ACAD
1000
AcDbSavedByObjectVersion
1070
     0
  0
VISUALSTYLE
  5
2B
102
{ACAD_REACTORS
330
2A
102
}
330
2A
100
AcDbVisualStyle
  2
Flat
 70
     0
 71
     2
 72
     1
 73
     1
 90
        2
 40
-0.6
 41
30.0
 62
     5
 63
     7
 74
     0
 91
        4
 64
     7
 65
   257
 75
     1
175
     1
 42
1.0
 92
        8
 66
     7
 43
1.0
 76
     1
 77
     6
 78
     2
 67
     7
 79
     5
170
     0
171
     0
290
     0
174
     0
 93
       13
 44
0.0
173
     0
291
     1
 45
0.0
1001
ACAD
1000
AcDbSavedByObjectVersion
1070
     0
  0
VISUALSTYLE
  5
2C
102
{ACAD_REACTORS
330
2A
102
}
330
2A
100
AcDbVisualStyle
  2
FlatWithEdges
 70
     1
 71
     2
 72
     1
 73
     1
 90
        2
 40
-0.6
 41
30.0
 62
     5
 63
     7
 74
     1
 91
        4
 64
     7
 65
   257
 75
     1
175
     1
 42
1.0
 92
        0
 66
   257
 43
1.0
 76
     1
 77
     6
 78
     2
 67
     7
 79
     5
170
     0
171
     0
290
     0
174
     0
 93
       13
 44
0.0
173
     0
291
     1
 45
0.0
1001
ACAD
1000
AcDbSavedByObjectVersion
1070
     0
  0
VISUALSTYLE
  5
2D
102
{ACAD_REACTORS
330
2A
102
}
330
2A
100
AcDbVisualStyle
  2
Gouraud
 70
     2
 71
     2
 72
     2
 73
     1
 90
        2
 40
-0.6
 41
30.0
 62
     5
 63
     7
 74
     0
 91
        4
 64
     7
 65
   257
 75
     1
175
     1
 42
1.0
 92
        0
 66
     7
 43
1.0
 76
     1
 77
     6
 78
     2
 67
     7
 79
     5
170
     0
171
     0
290
     0
174
     0
 93
       13
 44
0.0
173
     0
291
     1
 45
0.0
1001
ACAD
1000
AcDbSavedByObjectVersion
1070
     0
  0
VISUALSTYLE
  5
2E
102
{ACAD_REACTORS
330
2A
102
}
330
2A
100
AcDbVisualStyle
  2
GouraudWithEdges
 70
     3
 71
     2
 72
     2
 73
     1
 90
        2
 40
-0.6
 41
30.0
 62
     5
 63
     7
 74
     1
 91
        4
 64
     7
 65
   257
 75
     1
175
     1
 42
1.0
 92
        0
 66
   257
 43
1.0
 76
     1
 77
     6
 78
     2
 67
     7
 79
     5
170
     0
171
     0
290
     0
174
     0
 93
       13
 44
0.0
173
     0
291
     1
 45
0.0
1001
ACAD
1000
AcDbSavedByObjectVersion
1070
     0
  0
VISUALSTYLE
  5
38
102
{ACAD_REACTORS
330
2A
102
}
330
2A
100
AcDbVisualStyle
  2
Linepattern
 70
    14
 71
     2
 72
     2
 73
     0
 90
        0
 40
-0.6
 41
-30.0
 62
     5
 63
     7
 74
     1
 91
        4
 64
     7
 65
   257
 75
     7
175
     7
 42
1.0
 92
        8
 66
     7
 43
1.0
 76
     1
 77
     6
 78
     2
 67
     7
 79
     5
170
     0
171
     0
290
     0
174
     0
 93
        1
 44
0.0
173
     0
291
     1
 45
0.0
1001
ACAD
1000
AcDbSavedByObjectVersion
1070
     0
  0
VISUALSTYLE
  5
33
102
{ACAD_REACTORS
330
2A
102
}
330
2A
100
AcDbVisualStyle
  2
Realistic
 70
     8
 71
     2
 72
     2
 73
     0
 90
        0
 40
-0.6
 41
-30.0
 62
     5
 63
     7
 74
     1
 91
        0
 64
     7
 65
   257
 75
     1
175
     1
 42
1.0
 92
        8
 66
     8
 43
1.0
 76
     1
 77
     6
 78
     2
 67
     7
 79
     5
170
     0
171
     0
290
     0
174
     0
 93
       13
 44
0.0
173
     0
291
     0
 45
0.0
1001
ACAD
1000
AcDbSavedByObjectVersion
1070
     0
  0
VISUALSTYLE
  5
37
102
{ACAD_REACTORS
330
2A
102
}
330
2A
100
AcDbVisualStyle
  2
Thicken
 70
    13
 71
     2
 72
     2
 73
     0
 90
        0
 40
-0.6
 41
-30.0
 62
     5
 63
     7
 74
     1
 91
        4
 64
     7
 65
   257
 75
     1
175
     1
 42
1.0
 92
       12
 66
     7
 43
1.0
 76
     1
 77
     6
 78
     2
 67
     7
 79
     5
170
     0
171
     0
290
     0
174
     0
 93
        1
 44
0.0
173
     0
291
     1
 45
0.0
1001
ACAD
1000
AcDbSavedByObjectVersion
1070
     0
  0
XRECORD
  5
52A
102
{ACAD_REACTORS
330
529
102
}
330
529
100
AcDbXrecord
280
     1
1000
・ｱ・ﾌDWG・t・@・C・・・ﾍRIKCAD21(TM)(R)・ﾅ・・・ｬ・ｳ・・・ﾜ・ｵ・ｽ・B
  0
ENDSEC
  0
EOF
