  0
SECTION
  2
HEADER
  9
$ACADVER
  1
AC1024
  9
$ACADMAINTVER
 70
   226
  9
$DWGCODEPAGE
  3
ANSI_932
  9
$LASTSAVEDBY
  1
0533013
  9
$INSBASE
 10
0.0
 20
0.0
 30
0.0
  9
$EXTMIN
 10
0.0
 20
0.0
 30
0.0
  9
$EXTMAX
 10
841.0
 20
594.0000000000001
 30
0.0
  9
$LIMMIN
 10
0.0
 20
0.0
  9
$LIMMAX
 10
841.0
 20
594.0
  9
$ORTHOMODE
 70
     1
  9
$REGENMODE
 70
     1
  9
$FILLMODE
 70
     1
  9
$QTEXTMODE
 70
     0
  9
$MIRRTEXT
 70
     0
  9
$LTSCALE
 40
1.0
  9
$ATTMODE
 70
     1
  9
$TEXTSIZE
 40
4.5
  9
$TRACEWID
 40
1.0
  9
$TEXTSTYLE
  7
text-b
  9
$CLAYER
  8
0
  9
$CELTYPE
  6
ByLayer
  9
$CECOLOR
 62
   256
  9
$CELTSCALE
 40
1.0
  9
$DISPSILH
 70
     1
  9
$DIMSCALE
 40
1.0
  9
$DIMASZ
 40
1.7
  9
$DIMEXO
 40
1.0
  9
$DIMDLI
 40
10.0
  9
$DIMRND
 40
0.0
  9
$DIMDLE
 40
0.0
  9
$DIMEXE
 40
1.0
  9
$DIMTP
 40
0.0
  9
$DIMTM
 40
0.0
  9
$DIMTXT
 40
4.5
  9
$DIMCEN
 40
0.0
  9
$DIMTSZ
 40
0.0
  9
$DIMTOL
 70
     0
  9
$DIMLIM
 70
     0
  9
$DIMTIH
 70
     0
  9
$DIMTOH
 70
     0
  9
$DIMSE1
 70
     0
  9
$DIMSE2
 70
     0
  9
$DIMTAD
 70
     1
  9
$DIMZIN
 70
     8
  9
$DIMBLK
  1
Dot
  9
$DIMASO
 70
     1
  9
$DIMSHO
 70
     1
  9
$DIMPOST
  1

  9
$DIMAPOST
  1

  9
$DIMALT
 70
     0
  9
$DIMALTD
 70
     3
  9
$DIMALTF
 40
0.03937007874016
  9
$DIMLFAC
 40
1.0
  9
$DIMTOFL
 70
     1
  9
$DIMTVP
 40
0.0
  9
$DIMTIX
 70
     0
  9
$DIMSOXD
 70
     0
  9
$DIMSAH
 70
     0
  9
$DIMBLK1
  1

  9
$DIMBLK2
  1

  9
$DIMSTYLE
  2
DOT-DET-b
  9
$DIMCLRD
 70
   256
  9
$DIMCLRE
 70
   256
  9
$DIMCLRT
 70
   256
  9
$DIMTFAC
 40
0.45
  9
$DIMGAP
 40
1.0
  9
$DIMJUST
 70
     0
  9
$DIMSD1
 70
     0
  9
$DIMSD2
 70
     0
  9
$DIMTOLJ
 70
     0
  9
$DIMTZIN
 70
     8
  9
$DIMALTZ
 70
     0
  9
$DIMALTTZ
 70
     0
  9
$DIMUPT
 70
     0
  9
$DIMDEC
 70
     2
  9
$DIMTDEC
 70
     2
  9
$DIMALTU
 70
     2
  9
$DIMALTTD
 70
     3
  9
$DIMTXSTY
  7
text-b
  9
$DIMAUNIT
 70
     0
  9
$DIMADEC
 70
     0
  9
$DIMALTRND
 40
0.0
  9
$DIMAZIN
 70
     0
  9
$DIMDSEP
 70
    46
  9
$DIMATFIT
 70
     3
  9
$DIMFRAC
 70
     0
  9
$DIMLDRBLK
  1
Open30
  9
$DIMLUNIT
 70
     2
  9
$DIMLWD
 70
    -1
  9
$DIMLWE
 70
    -1
  9
$DIMTMOVE
 70
     0
  9
$DIMFXL
 40
0.0
  9
$DIMFXLON
 70
     0
  9
$DIMJOGANG
 40
1.570796326794896
  9
$DIMTFILL
 70
     0
  9
$DIMTFILLCLR
 70
     0
  9
$DIMARCSYM
 70
     0
  9
$DIMLTYPE
  6

  9
$DIMLTEX1
  6

  9
$DIMLTEX2
  6

  9
$DIMTXTDIRECTION
 70
     0
  9
$LUNITS
 70
     2
  9
$LUPREC
 70
     8
  9
$SKETCHINC
 40
1.0
  9
$FILLETRAD
 40
2.5
  9
$AUNITS
 70
     0
  9
$AUPREC
 70
     8
  9
$MENU
  1
.
  9
$ELEVATION
 40
0.0
  9
$PELEVATION
 40
0.0
  9
$THICKNESS
 40
0.0
  9
$LIMCHECK
 70
     0
  9
$CHAMFERA
 40
2.5
  9
$CHAMFERB
 40
2.5
  9
$CHAMFERC
 40
0.0
  9
$CHAMFERD
 40
0.0
  9
$SKPOLY
 70
     0
  9
$TDCREATE
 40
2459032.428611111
  9
$TDUCREATE
 40
2459032.053611111
  9
$TDUPDATE
 40
2460283.555069444
  9
$TDUUPDATE
 40
2460283.180069444
  9
$TDINDWG
 40
0.0880439815
  9
$TDUSRTIMER
 40
0.0880439815
  9
$USRTIMER
 70
     1
  9
$ANGBASE
 50
0.0
  9
$ANGDIR
 70
     0
  9
$PDMODE
 70
     0
  9
$PDSIZE
 40
0.0
  9
$PLINEWID
 40
0.0
  9
$SPLFRAME
 70
     0
  9
$SPLINETYPE
 70
     6
  9
$SPLINESEGS
 70
     8
  9
$HANDSEED
  5
999E
  9
$SURFTAB1
 70
     6
  9
$SURFTAB2
 70
     6
  9
$SURFTYPE
 70
     6
  9
$SURFU
 70
     6
  9
$SURFV
 70
     6
  9
$UCSBASE
  2

  9
$UCSNAME
  2

  9
$UCSORG
 10
0.0
 20
0.0
 30
0.0
  9
$UCSXDIR
 10
1.0
 20
0.0
 30
0.0
  9
$UCSYDIR
 10
0.0
 20
1.0
 30
0.0
  9
$UCSORTHOREF
  2

  9
$UCSORTHOVIEW
 70
     0
  9
$UCSORGTOP
 10
0.0
 20
0.0
 30
0.0
  9
$UCSORGBOTTOM
 10
0.0
 20
0.0
 30
0.0
  9
$UCSORGLEFT
 10
0.0
 20
0.0
 30
0.0
  9
$UCSORGRIGHT
 10
0.0
 20
0.0
 30
0.0
  9
$UCSORGFRONT
 10
0.0
 20
0.0
 30
0.0
  9
$UCSORGBACK
 10
0.0
 20
0.0
 30
0.0
  9
$PUCSBASE
  2

  9
$PUCSNAME
  2

  9
$PUCSORG
 10
0.0
 20
0.0
 30
0.0
  9
$PUCSXDIR
 10
1.0
 20
0.0
 30
0.0
  9
$PUCSYDIR
 10
0.0
 20
1.0
 30
0.0
  9
$PUCSORTHOREF
  2

  9
$PUCSORTHOVIEW
 70
     0
  9
$PUCSORGTOP
 10
0.0
 20
0.0
 30
0.0
  9
$PUCSORGBOTTOM
 10
0.0
 20
0.0
 30
0.0
  9
$PUCSORGLEFT
 10
0.0
 20
0.0
 30
0.0
  9
$PUCSORGRIGHT
 10
0.0
 20
0.0
 30
0.0
  9
$PUCSORGFRONT
 10
0.0
 20
0.0
 30
0.0
  9
$PUCSORGBACK
 10
0.0
 20
0.0
 30
0.0
  9
$USERI1
 70
     0
  9
$USERI2
 70
     0
  9
$USERI3
 70
     0
  9
$USERI4
 70
     0
  9
$USERI5
 70
     0
  9
$USERR1
 40
0.0
  9
$USERR2
 40
0.0
  9
$USERR3
 40
0.0
  9
$USERR4
 40
0.0
  9
$USERR5
 40
0.0
  9
$WORLDVIEW
 70
     1
  9
$SHADEDGE
 70
     3
  9
$SHADEDIF
 70
    70
  9
$TILEMODE
 70
     1
  9
$MAXACTVP
 70
    64
  9
$PINSBASE
 10
0.0
 20
0.0
 30
0.0
  9
$PLIMCHECK
 70
     0
  9
$PEXTMIN
 10
1.000000000000000E+20
 20
1.000000000000000E+20
 30
1.000000000000000E+20
  9
$PEXTMAX
 10
-1.000000000000000E+20
 20
-1.000000000000000E+20
 30
-1.000000000000000E+20
  9
$PLIMMIN
 10
-6.350006103515625
 20
-6.349999904632567
  9
$PLIMMAX
 10
273.0499877929688
 20
209.5499939918518
  9
$UNITMODE
 70
     0
  9
$VISRETAIN
 70
     1
  9
$PLINEGEN
 70
     0
  9
$PSLTSCALE
 70
     1
  9
$TREEDEPTH
 70
  3020
  9
$CMLSTYLE
  2
Standard
  9
$CMLJUST
 70
     0
  9
$CMLSCALE
 40
20.0
  9
$PROXYGRAPHICS
 70
     1
  9
$MEASUREMENT
 70
     1
  9
$CELWEIGHT
370
    -1
  9
$ENDCAPS
280
     0
  9
$JOINSTYLE
280
     0
  9
$LWDISPLAY
290
     0
  9
$INSUNITS
 70
     4
  9
$HYPERLINKBASE
  1

  9
$STYLESHEET
  1

  9
$XEDIT
290
     1
  9
$CEPSNTYPE
380
     0
  9
$PSTYLEMODE
290
     1
  9
$FINGERPRINTGUID
  2
{2662EC34-EBCC-644A-920F-BAD9A3F5D440}
  9
$VERSIONGUID
  2
{16D40E74-3A38-024C-8CD8-581816DB0E6C}
  9
$EXTNAMES
290
     1
  9
$PSVPSCALE
 40
0.0
  9
$OLESTARTUP
290
     0
  9
$SORTENTS
280
   127
  9
$INDEXCTL
280
     0
  9
$HIDETEXT
280
     1
  9
$XCLIPFRAME
280
     2
  9
$HALOGAP
280
     0
  9
$OBSCOLOR
 70
   257
  9
$OBSLTYPE
280
     0
  9
$INTERSECTIONDISPLAY
280
     0
  9
$INTERSECTIONCOLOR
 70
   257
  9
$DIMASSOC
280
     1
  9
$PROJECTNAME
  1

  9
$CAMERADISPLAY
290
     0
  9
$LENSLENGTH
 40
50.0
  9
$CAMERAHEIGHT
 40
0.0
  9
$STEPSPERSEC
 40
2.0
  9
$STEPSIZE
 40
6.0
  9
$3DDWFPREC
 40
2.0
  9
$PSOLWIDTH
 40
0.25
  9
$PSOLHEIGHT
 40
4.0
  9
$LOFTANG1
 40
1.570795999999999
  9
$LOFTANG2
 40
1.570795999999999
  9
$LOFTMAG1
 40
0.0
  9
$LOFTMAG2
 40
0.0
  9
$LOFTPARAM
 70
     7
  9
$LOFTNORMALS
280
     1
  9
$LATITUDE
 40
37.795
  9
$LONGITUDE
 40
-122.394
  9
$NORTHDIRECTION
 40
0.0
  9
$TIMEZONE
 70
 -8000
  9
$LIGHTGLYPHDISPLAY
280
     1
  9
$TILEMODELIGHTSYNCH
280
     1
  9
$CMATERIAL
347
27E4
  9
$SOLIDHIST
280
     0
  9
$SHOWHIST
280
     1
  9
$DWFFRAME
280
     2
  9
$DGNFRAME
280
     0
  9
$REALWORLDSCALE
290
     1
  9
$INTERFERECOLOR
 62
     1
  9
$INTERFEREOBJVS
345
2806
  9
$INTERFEREVPVS
346
2877
  9
$CSHADOW
280
     0
  9
$SHADOWPLANELOCATION
 40
0.0
  0
ENDSEC
  0
SECTION
  2
CLASSES
  0
CLASS
  1
ACDBDICTIONARYWDFLT
  2
AcDbDictionaryWithDefault
  3
ObjectDBX Classes
 90
        0
 91
        1
280
     0
281
     0
  0
CLASS
  1
AMGSETTINGSOBJ
  2
AmgSettingsObj
  3
"AcadM|Product Description: AutoCAD Mechanical 2000|Company: Autodesk"
 90
        0
 91
        0
280
     0
281
     0
  0
CLASS
  1
AMGOBJPROPCFG
  2
AmgObjPropCfg
  3
"AmgLay|Product Description: AutoCAD Mechanical 2000|Company: Autodesk"
 90
        1
 91
        0
280
     0
281
     0
  0
CLASS
  1
ACME_DOCUMENT
  2
AcMeDbDoc
  3
AcMeServices
 90
        0
 91
        0
280
     0
281
     0
  0
CLASS
  1
ACMESCOPE
  2
AcMeScope
  3
AcMeServices
 90
        0
 91
        0
280
     0
281
     0
  0
CLASS
  1
ACMECOMMANDHISTORY
  2
AcMeCommandHistory
  3
AcMeServices
 90
        0
 91
        0
280
     0
281
     0
  0
CLASS
  1
ACIMSYSVARMAN
  2
AcImSysVarManager
  3
AcMeServices
 90
        0
 91
        0
280
     0
281
     0
  0
CLASS
  1
ACIMINTSYSVAR
  2
AcImIntSysVar
  3
AcMeServices
 90
        0
 91
        0
280
     0
281
     0
  0
CLASS
  1
ACMEDRAWINGMAN
  2
AcMeDrawingMan
  3
AcMeServices
 90
        0
 91
        0
280
     0
281
     0
  0
CLASS
  1
ACMEVIEW
  2
AcMeView
  3
AcMeServices
 90
        0
 91
        0
280
     0
281
     0
  0
CLASS
  1
ACDBENTITYCACHE
  2
AcMeEntityCache
  3
AcMeServices
 90
        0
 91
        0
280
     0
281
     0
  0
CLASS
  1
GSMANAGER
  2
AcMeGSManager
  3
AcMeServices
 90
        0
 91
        0
280
     0
281
     0
  0
CLASS
  1
AMDTINTERNALREACTOR
  2
AmdtInternalReactor
  3
AcMeServices
 90
        0
 91
        0
280
     0
281
     0
  0
CLASS
  1
ACMESTATEMGR
  2
AcMeStateMgr
  3
AcMeServices
 90
        0
 91
        0
280
     0
281
     0
  0
CLASS
  1
ACGREFMASTER
  2
AcGrefMaster
  3
AcAttribServices
 90
        0
 91
        0
280
     0
281
     0
  0
CLASS
  1
AM_DRAWING_MGR
  2
AcDmDwgMgr
  3
AcMechDwgViewMgmt
 90
        0
 91
        0
280
     0
281
     0
  0
CLASS
  1
AM_DWG_DOCUMENT
  2
AcDmDwgDocument
  3
AcMechDwgViewMgmt
 90
        0
 91
        0
280
     0
281
     0
  0
CLASS
  1
AM_DWG_SHEET
  2
AcDmSheet
  3
AcMechDwgViewMgmt
 90
        0
 91
        0
280
     0
281
     0
  0
CLASS
  1
AM_VIEWDIMPARMAP
  2
AcDmViewDimParMap
  3
AcMechDwgViewMgmt
 90
        0
 91
        0
280
     0
281
     0
  0
CLASS
  1
ACIMREALSYSVAR
  2
AcImRealSysVar
  3
AcMeServices
 90
        0
 91
        0
280
     0
281
     0
  0
CLASS
  1
AM_DWGMGR_NAME
  2
AcDmDwgMgrName
  3
AcMechDwgViewMgmt
 90
        0
 91
        0
280
     0
281
     0
  0
CLASS
  1
ACME_DATABASE
  2
AcMeDbDatabase
  3
AcMeServices
 90
        0
 91
        0
280
     0
281
     0
  0
CLASS
  1
ACRFINSADJUSTERMGR
  2
AcRfInsAdjusterMgr
  3
AcMeServices
 90
        0
 91
        0
280
     0
281
     0
  0
CLASS
  1
ACGREFACADMASTER
  2
AcGrefacadMaster
  3
AcGrefServices
 90
        0
 91
        0
280
     0
281
     0
  0
CLASS
  1
AMDTMENUSTATEMGR
  2
AmdtMenuStateMgr
  3
McadcomServices
 90
        0
 91
        0
280
     0
281
     0
  0
CLASS
  1
AMDTMCOMMENUSTATE
  2
AmdtMcomMenuState
  3
McadcomServices
 90
        0
 91
        0
280
     0
281
     0
  0
CLASS
  1
AMIMASTER
  2
AmiMaster
  3
AmiServices
 90
        0
 91
        0
280
     0
281
     0
  0
CLASS
  1
MAPIAMMOUDLE
  2
MApiAmModule
  3
MApiAmServices
 90
        0
 91
        0
280
     0
281
     0
  0
CLASS
  1
AMDTADMENUSTATE
  2
AmdtAdMenuState
  3
DesignerServices
 90
        0
 91
        0
280
     0
281
     0
  0
CLASS
  1
ADAPPL
  2
AcAdAppl
  3
DesignerServices
 90
        0
 91
        0
280
     0
281
     0
  0
CLASS
  1
DEPMGR
  2
AcAdDepMgr
  3
DesignerServices
 90
        0
 91
        0
280
     0
281
     0
  0
CLASS
  1
PARAMMGR
  2
AcAdParamMgr
  3
DesignerServices
 90
        0
 91
        0
280
     0
281
     0
  0
CLASS
  1
PARAMSCOPE
  2
AcAdParamScope
  3
DesignerServices
 90
        0
 91
        0
280
     0
281
     0
  0
CLASS
  1
NAMEDAPPL
  2
AcAdNamedAppl
  3
DesignerServices
 90
        0
 91
        0
280
     0
281
     0
  0
CLASS
  1
AMDTDMMENUSTATE
  2
AmdtDmMenuState
  3
AcMechDwgViewMgmt
 90
        0
 91
        0
280
     0
281
     0
  0
CLASS
  1
AMDTAMMENUSTATE
  2
AmdtAmMenuState
  3
DesignerAssemblies
 90
        0
 91
        0
280
     0
281
     0
  0
CLASS
  1
ACIMSTRSYSVAR
  2
AcImStrSysVar
  3
AcMeServices
 90
        0
 91
        0
280
     0
281
     0
  0
CLASS
  1
ACAMPROJECT
  2
AcAmProject
  3
DesignerAssemblies
 90
        0
 91
        0
280
     0
281
     0
  0
CLASS
  1
ACAMGRCOMPDEF
  2
AcAmGrCompDef
  3
DesignerAssemblies
 90
        0
 91
        0
280
     0
281
     0
  0
CLASS
  1
ACCMCONTEXT
  2
AcCmContext
  3
DesignerAssemblies
 90
        0
 91
        0
280
     0
281
     0
  0
CLASS
  1
ACAMCOMPDEF
  2
AcAmCompDef
  3
DesignerAssemblies
 90
        0
 91
        0
280
     0
281
     0
  0
CLASS
  1
ACAMCOMPDEFMGR
  2
AcAmCompDefMgr
  3
DesignerAssemblies
 90
        0
 91
        0
280
     0
281
     0
  0
CLASS
  1
AMCONTEXTMGR
  2
AcAmContextMgr
  3
DesignerAssemblies
 90
        0
 91
        0
280
     0
281
     0
  0
CLASS
  1
ACAMCONTEXTMODELER
  2
AcAmContextModeler
  3
DesignerAssemblies
 90
        0
 91
        0
280
     0
281
     0
  0
CLASS
  1
ACMDATADICTIONARY
  2
AcmDataDictionary
  3
"AcmSymBB|Product Description: AutoCAD Mechanical 2004 DX|Company: Autodesk"
 90
        0
 91
        0
280
     0
281
     0
  0
CLASS
  1
ACMSTANDARDJIS
  2
AcmStandardJIS
  3
"Amdt_StdImp|Product Description: AutoCAD Mechanical 2004 DX|Company: Autodesk"
 90
        0
 91
        0
280
     0
281
     0
  0
CLASS
  1
ACMSURFSTANDARDJIS
  2
AcmSurfTextStdJIS
  3
"Amdt_StdImp|Product Description: AutoCAD Mechanical 2004 DX|Company: Autodesk"
 90
        0
 91
        0
280
     0
281
     0
  0
CLASS
  1
ACMFCFSTANDARDJIS
  2
AcmFCFStdJIS
  3
"Amdt_StdImp|Product Description: AutoCAD Mechanical 2004 DX|Company: Autodesk"
 90
        0
 91
        0
280
     0
281
     0
  0
CLASS
  1
ACMWELDSTANDARDJIS
  2
AcmWeldingStdJIS
  3
"Amdt_StdImp|Product Description: AutoCAD Mechanical 2004 DX|Company: Autodesk"
 90
        0
 91
        0
280
     0
281
     0
  0
CLASS
  1
ACMIDSTANDARDJIS
  2
AcmIdStdJIS
  3
"Amdt_StdImp|Product Description: AutoCAD Mechanical 2004 DX|Company: Autodesk"
 90
        0
 91
        0
280
     0
281
     0
  0
CLASS
  1
ACMDATUMSTANDARDJIS
  2
AcmDatumStdJIS
  3
"Amdt_StdImp|Product Description: AutoCAD Mechanical 2004 DX|Company: Autodesk"
 90
        0
 91
        0
280
     0
281
     0
  0
CLASS
  1
ACMBOMSTANDARDJIS
  2
AcmBOMStdJIS
  3
"Amdt_StdImp|Product Description: AutoCAD Mechanical 2004 DX|Company: Autodesk"
 90
        0
 91
        0
280
     0
281
     0
  0
CLASS
  1
ACMDETAILSTANDARDJIS
  2
AmdtDetailSymStdJIS
  3
"Amdt_StdImp|Product Description: AutoCAD Mechanical 2004 DX|Company: Autodesk"
 90
        0
 91
        0
280
     0
281
     0
  0
CLASS
  1
ACMSECTIONSTANDARDJIS
  2
AmdtSectionSymStdJIS
  3
"Amdt_StdImp|Product Description: AutoCAD Mechanical 2004 DX|Company: Autodesk"
 90
        0
 91
        0
280
     0
281
     0
  0
CLASS
  1
ACMCENTERLINESTANDARDJIS
  2
AmdtCenterLineStdJIS
  3
"Amdt_StdImp|Product Description: AutoCAD Mechanical 2004 DX|Company: Autodesk"
 90
        0
 91
        0
280
     0
281
     0
  0
CLASS
  1
ACMTHREADLINESTANDARDJIS
  2
AmdtThreadLineStdJIS
  3
"Amdt_StdImp|Product Description: AutoCAD Mechanical 2004 DX|Company: Autodesk"
 90
        0
 91
        0
280
     0
281
     0
  0
CLASS
  1
ACAMGLAYSTD
  2
AcAmgLayStd
  3
"AcAmgLayStd|Product Description: AutoCAD Mechanical 2000|Company: Autodesk"
 90
        0
 91
        0
280
     0
281
     0
  0
CLASS
  1
ACAMGDIMSTD
  2
AcAmgDimStd
  3
"AcAmgDimStd|Product Description: AutoCAD Mechanical 2000|Company: Autodesk"
 90
        0
 91
        0
280
     0
281
     0
  0
CLASS
  1
ACAMGTITLESTD
  2
AcAmgTitleStd
  3
"TITLEAPP"
 90
        0
 91
        0
280
     0
281
     0
  0
CLASS
  1
ACMNOTESTANDARDJIS
  2
AmdtNoteStdJIS
  3
"Amdt_StdImp|Product Description: AutoCAD Mechanical 2004 DX|Company: Autodesk"
 90
        0
 91
        0
280
     0
281
     0
  0
CLASS
  1
AMDTNOTETEMPLATEDB
  2
AmdtNoteTemplateDB
  3
AMDT_STDIMP_MODULE_NAME
 90
        0
 91
        0
280
     0
281
     0
  0
CLASS
  1
ACAMGHOLECHARTSTDJIS
  2
AcAmgHoleChartStdJIS
  3
ACMSYMBB_MODULE_NAME
 90
        0
 91
        0
280
     0
281
     0
  0
CLASS
  1
CATALOGSTATE
  2
AcAmCatalogState
  3
DesignerAssemblies
 90
        0
 91
        0
280
     0
281
     0
  0
CLASS
  1
ACAMGRCOMPDEFSET
  2
AcAmGrCompDefSet
  3
DesignerAssemblies
 90
        0
 91
        0
280
     0
281
     0
  0
CLASS
  1
AMDTBROWSERDBTAB
  2
AmdtBrowserDbTab
  3
McadcomServices
 90
        0
 91
        0
280
     0
281
     0
  0
CLASS
  1
CBROWSERAPPOBJECT
  2
CBrowserAppObject
  3
McadcomServices
 90
        0
 91
        0
280
     0
281
     0
  0
CLASS
  1
DM_PLACEHOLDER
  2
AcDmSelsetPlaceholder
  3
AcMechDwgViewMgmt
 90
        0
 91
        0
280
     0
281
     0
  0
CLASS
  1
LAYER_INDEX
  2
AcDbLayerIndex
  3
ObjectDBX Classes
 90
        0
 91
        0
280
     0
281
     0
  0
CLASS
  1
IDBUFFER
  2
AcDbIdBuffer
  3
ObjectDBX Classes
 90
        0
 91
        0
280
     0
281
     0
  0
CLASS
  1
ACMSTANDARDISO
  2
AcmStandardISO
  3
"Amdt_StdImp|Product Description: AutoCAD Mechanical 2004 DX|Company: Autodesk"
 90
        0
 91
        0
280
     0
281
     0
  0
CLASS
  1
AMDTEDGESTANDARDISO
  2
AmdtEdgeStdISO
  3
"Amdt_StdImp|Product Description: AutoCAD Mechanical 2004 DX|Company: Autodesk"
 90
        0
 91
        0
280
     0
281
     0
  0
CLASS
  1
ACMSURFSTANDARDISO
  2
AcmSurfTextStdISO
  3
"Amdt_StdImp|Product Description: AutoCAD Mechanical 2004 DX|Company: Autodesk"
 90
        0
 91
        0
280
     0
281
     0
  0
CLASS
  1
ACMFCFSTANDARDISO
  2
AcmFCFStdISO
  3
"Amdt_StdImp|Product Description: AutoCAD Mechanical 2004 DX|Company: Autodesk"
 90
        0
 91
        0
280
     0
281
     0
  0
CLASS
  1
ACMWELDSTANDARDISO
  2
AcmWeldingStdISO
  3
"Amdt_StdImp|Product Description: AutoCAD Mechanical 2004 DX|Company: Autodesk"
 90
        0
 91
        0
280
     0
281
     0
  0
CLASS
  1
ACMIDSTANDARDISO
  2
AcmIdStdISO
  3
"Amdt_StdImp|Product Description: AutoCAD Mechanical 2004 DX|Company: Autodesk"
 90
        0
 91
        0
280
     0
281
     0
  0
CLASS
  1
ACMDATUMSTANDARDISO
  2
AcmDatumStdISO
  3
"Amdt_StdImp|Product Description: AutoCAD Mechanical 2004 DX|Company: Autodesk"
 90
        0
 91
        0
280
     0
281
     0
  0
CLASS
  1
ACMBOMSTANDARDISO
  2
AcmBOMStdISO
  3
"Amdt_StdImp|Product Description: AutoCAD Mechanical 2004 DX|Company: Autodesk"
 90
        0
 91
        0
280
     0
281
     0
  0
CLASS
  1
ACMDETAILSTANDARDISO
  2
AmdtDetailSymStdISO
  3
"Amdt_StdImp|Product Description: AutoCAD Mechanical 2004 DX|Company: Autodesk"
 90
        0
 91
        0
280
     0
281
     0
  0
CLASS
  1
ACMSECTIONSTANDARDISO
  2
AmdtSectionSymStdISO
  3
"Amdt_StdImp|Product Description: AutoCAD Mechanical 2004 DX|Company: Autodesk"
 90
        0
 91
        0
280
     0
281
     0
  0
CLASS
  1
ACMCENTERLINESTANDARDISO
  2
AmdtCenterLineStdISO
  3
"Amdt_StdImp|Product Description: AutoCAD Mechanical 2004 DX|Company: Autodesk"
 90
        0
 91
        0
280
     0
281
     0
  0
CLASS
  1
ACMTHREADLINESTANDARDISO
  2
AmdtThreadLineStdISO
  3
"Amdt_StdImp|Product Description: AutoCAD Mechanical 2004 DX|Company: Autodesk"
 90
        0
 91
        0
280
     0
281
     0
  0
CLASS
  1
ACMNOTESTANDARDISO
  2
AmdtNoteStdISO
  3
"Amdt_StdImp|Product Description: AutoCAD Mechanical 2004 DX|Company: Autodesk"
 90
        0
 91
        0
280
     0
281
     0
  0
CLASS
  1
ACAMGHOLECHARTSTDISO
  2
AcAmgHoleChartStdISO
  3
ACMSYMBB_MODULE_NAME
 90
        0
 91
        0
280
     0
281
     0
  0
CLASS
  1
ACMSTANDARDANSI
  2
AcmStandardANSI
  3
"Amdt_StdImp|Product Description: AutoCAD Mechanical 2004 DX|Company: Autodesk"
 90
        0
 91
        0
280
     0
281
     0
  0
CLASS
  1
ACMSURFSTANDARDANSI
  2
AcmSurfTextStdANSI
  3
"Amdt_StdImp|Product Description: AutoCAD Mechanical 2004 DX|Company: Autodesk"
 90
        0
 91
        0
280
     0
281
     0
  0
CLASS
  1
ACMFCFSTANDARDANSI
  2
AcmFCFStdANSI
  3
"Amdt_StdImp|Product Description: AutoCAD Mechanical 2004 DX|Company: Autodesk"
 90
        0
 91
        0
280
     0
281
     0
  0
CLASS
  1
ACMWELDSTANDARDANSI
  2
AcmWeldingStdANSI
  3
"Amdt_StdImp|Product Description: AutoCAD Mechanical 2004 DX|Company: Autodesk"
 90
        0
 91
        0
280
     0
281
     0
  0
CLASS
  1
ACMIDSTANDARDANSI
  2
AcmIdStdANSI
  3
"Amdt_StdImp|Product Description: AutoCAD Mechanical 2004 DX|Company: Autodesk"
 90
        0
 91
        0
280
     0
281
     0
  0
CLASS
  1
ACMDATUMSTANDARDANSI
  2
AcmDatumStdANSI
  3
"Amdt_StdImp|Product Description: AutoCAD Mechanical 2004 DX|Company: Autodesk"
 90
        0
 91
        0
280
     0
281
     0
  0
CLASS
  1
ACMBOMSTANDARDANSI
  2
AcmBOMStdANSI
  3
"Amdt_StdImp|Product Description: AutoCAD Mechanical 2004 DX|Company: Autodesk"
 90
        0
 91
        0
280
     0
281
     0
  0
CLASS
  1
ACMDETAILSTANDARDANSI
  2
AmdtDetailSymStdANSI
  3
"Amdt_StdImp|Product Description: AutoCAD Mechanical 2004 DX|Company: Autodesk"
 90
        0
 91
        0
280
     0
281
     0
  0
CLASS
  1
ACMSECTIONSTANDARDANSI
  2
AmdtSectionSymStdANSI
  3
"Amdt_StdImp|Product Description: AutoCAD Mechanical 2004 DX|Company: Autodesk"
 90
        0
 91
        0
280
     0
281
     0
  0
CLASS
  1
ACMCENTERLINESTANDARDANSI
  2
AmdtCenterLineStdANSI
  3
"Amdt_StdImp|Product Description: AutoCAD Mechanical 2004 DX|Company: Autodesk"
 90
        0
 91
        0
280
     0
281
     0
  0
CLASS
  1
ACMTHREADLINESTANDARDANSI
  2
AmdtThreadLineStdANSI
  3
"Amdt_StdImp|Product Description: AutoCAD Mechanical 2004 DX|Company: Autodesk"
 90
        0
 91
        0
280
     0
281
     0
  0
CLASS
  1
ACMNOTESTANDARDANSI
  2
AmdtNoteStdANSI
  3
"Amdt_StdImp|Product Description: AutoCAD Mechanical 2004 DX|Company: Autodesk"
 90
        0
 91
        0
280
     0
281
     0
  0
CLASS
  1
ACAMGHOLECHARTSTDANSI
  2
AcAmgHoleChartStdANSI
  3
ACMSYMBB_MODULE_NAME
 90
        0
 91
        0
280
     0
281
     0
  0
CLASS
  1
ACAMGFILTERDAT
  2
AcAmgFilterDat
  3
"AcadM|Product Description: AutoCAD Mechanical 2000|Company: Autodesk"
 90
        0
 91
        0
280
     0
281
     0
  0
CLASS
  1
DICTIONARYVAR
  2
AcDbDictionaryVar
  3
ObjectDBX Classes
 90
        0
 91
       14
280
     0
281
     0
  0
CLASS
  1
TABLESTYLE
  2
AcDbTableStyle
  3
ObjectDBX Classes
 90
     4095
 91
        2
280
     0
281
     0
  0
CLASS
  1
ACAD_TABLE
  2
AcDbTable
  3
ObjectDBX Classes
 90
     1025
 91
        0
280
     0
281
     1
  0
CLASS
  1
AMDTNOTE
  2
AmdtNote
  3
"AcmSymBB|Product Description: AutoCAD Mechanical 2004 DX|Company: Autodesk"
 90
     1023
 91
        0
280
     0
281
     1
  0
CLASS
  1
AMDTFORMULAUPDATEDISPATCHER
  2
AmdtFormulaUpdateDispatcher
  3
AcMeServices
 90
        0
 91
        0
280
     0
281
     0
  0
CLASS
  1
SORTENTSTABLE
  2
AcDbSortentsTable
  3
ObjectDBX Classes
 90
        0
 91
        1
280
     0
281
     0
  0
CLASS
  1
IMAGEDEF
  2
AcDbRasterImageDef
  3
ISM
 90
        0
 91
        0
280
     0
281
     0
  0
CLASS
  1
MATERIAL
  2
AcDbMaterial
  3
ObjectDBX Classes
 90
     1153
 91
        3
280
     0
281
     0
  0
CLASS
  1
VISUALSTYLE
  2
AcDbVisualStyle
  3
ObjectDBX Classes
 90
     4095
 91
       26
280
     0
281
     0
  0
CLASS
  1
SCALE
  2
AcDbScale
  3
ObjectDBX Classes
 90
     1153
 91
       17
280
     0
281
     0
  0
CLASS
  1
MLEADERSTYLE
  2
AcDbMLeaderStyle
  3
ACDB_MLEADERSTYLE_CLASS
 90
     4095
 91
        1
280
     0
281
     0
  0
CLASS
  1
EXACXREFPANELOBJECT
  2
ExAcXREFPanelObject
  3
EXAC_ESW
 90
     1025
 91
        0
280
     0
281
     0
  0
CLASS
  1
NPOCOLLECTION
  2
AcDbImpNonPersistentObjectsCollection
  3
ObjectDBX Classes
 90
     1153
 91
        0
280
     0
281
     0
  0
CLASS
  1
CELLSTYLEMAP
  2
AcDbCellStyleMap
  3
ObjectDBX Classes
 90
     1152
 91
        2
280
     0
281
     0
  0
CLASS
  1
ACDBSECTIONVIEWSTYLE
  2
AcDbSectionViewStyle
  3
ObjectDBX Classes
 90
     1025
 91
        2
280
     0
281
     0
  0
CLASS
  1
ACDBDETAILVIEWSTYLE
  2
AcDbDetailViewStyle
  3
ObjectDBX Classes
 90
     1025
 91
        2
280
     0
281
     0
  0
CLASS
  1
RAPIDRTRENDERSETTINGS
  2
AcDbRapidRTRenderSettings
  3
ObjectDBX Classes
 90
     1024
 91
        7
280
     0
281
     0
  0
CLASS
  1
MENTALRAYRENDERSETTINGS
  2
AcDbMentalRayRenderSettings
  3
SCENEOE
 90
     1024
 91
        1
280
     0
281
     0
  0
CLASS
  1
DIMASSOC
  2
AcDbDimAssoc
  3
"AcDbDimAssoc|Product Desc:     AcDim ARX App For Dimension|Company:          Autodesk, Inc.|WEB Address:      www.autodesk.com"
 90
        0
 91
        0
280
     0
281
     0
  0
ENDSEC
  0
SECTION
  2
TABLES
  0
TABLE
  2
VPORT
  5
8
102
{ACAD_XDICTIONARY
360
2863
102
}
330
0
100
AcDbSymbolTable
 70
     1
  0
VPORT
  5
27CF
330
8
100
AcDbSymbolTableRecord
100
AcDbViewportTableRecord
  2
*Active
 70
     0
 10
0.0
 20
0.0
 11
1.0
 21
1.0
 12
420.4982134758974
 22
296.9933455803662
 13
0.0
 23
0.0
 14
2.5
 24
2.5
 15
10.0
 25
10.0
 16
0.0
 26
0.0
 36
1.0
 17
0.0
 27
0.0
 37
0.0
 40
599.2803624237656
 41
1.945588235294117
 42
50.0
 43
0.0
 44
0.0
 50
0.0
 51
0.0
 71
     0
 72
  8000
 73
     1
 74
     3
 75
     0
 76
     0
 77
     0
 78
     0
281
     0
 65
     1
110
0.0
120
0.0
130
0.0
111
1.0
121
0.0
131
0.0
112
0.0
122
1.0
132
0.0
 79
     0
146
0.0
348
2802
 60
     3
 61
     5
292
     1
282
     1
141
0.0
142
0.0
 63
   250
421
  3355443
1001
ACAD_NAV_VCDISPLAY
1070
     1
  0
ENDTAB
  0
TABLE
  2
LTYPE
  5
5
330
0
100
AcDbSymbolTable
 70
     3
  0
LTYPE
  5
14
330
5
100
AcDbSymbolTableRecord
100
AcDbLinetypeTableRecord
  2
ByBlock
 70
     0
  3

 72
    65
 73
     0
 40
0.0
  0
LTYPE
  5
15
330
5
100
AcDbSymbolTableRecord
100
AcDbLinetypeTableRecord
  2
ByLayer
 70
     0
  3

 72
    65
 73
     0
 40
0.0
  0
LTYPE
  5
16
330
5
100
AcDbSymbolTableRecord
100
AcDbLinetypeTableRecord
  2
Continuous
 70
     0
  3
Solid line
 72
    65
 73
     0
 40
0.0
  0
LTYPE
  5
1C6
330
5
100
AcDbSymbolTableRecord
100
AcDbLinetypeTableRecord
  2
YCENTER_1
 70
     0
  3
中心線尺度1--- － --- － ---
 72
    65
 73
     4
 40
13.0
 49
10.0
 74
     0
 49
-1.0
 74
     0
 49
1.0
 74
     0
 49
-1.0
 74
     0
  0
LTYPE
  5
1C9
330
5
100
AcDbSymbolTableRecord
100
AcDbLinetypeTableRecord
  2
YHIDDEN_1
 70
     0
  3
破線尺度1－ － － － － － －
 72
    65
 73
     2
 40
4.0
 49
3.0
 74
     0
 49
-1.0
 74
     0
  0
ENDTAB
  0
TABLE
  2
LAYER
  5
2
102
{ACAD_XDICTIONARY
360
EE
102
}
330
0
100
AcDbSymbolTable
 70
     7
  0
LAYER
  5
10
102
{ACAD_XDICTIONARY
360
2838
102
}
330
2
100
AcDbSymbolTableRecord
100
AcDbLayerTableRecord
  2
0
 70
     0
 62
     7
  6
Continuous
370
    -3
390
F
347
27F4
1001
AcAecLayerStandard
1000

1000
システム画層
  0
LAYER
  5
7045
330
2
100
AcDbSymbolTableRecord
100
AcDbLayerTableRecord
  2
TABLE1
 70
     0
 62
   255
  6
Continuous
370
    13
390
F
347
27F4
1001
AcAecLayerStandard
1000

1000
表
  0
LAYER
  5
94EC
330
2
100
AcDbSymbolTableRecord
100
AcDbLayerTableRecord
  2
USER1
 70
     0
 62
     3
  6
Continuous
370
    13
390
F
347
27F4
1001
AcAecLayerStandard
1000

1000
書き込み文字
  0
LAYER
  5
94EF
330
2
100
AcDbSymbolTableRecord
100
AcDbLayerTableRecord
  2
YKK_12
 70
     0
 62
     2
  6
Continuous
370
    13
390
F
347
27F4
1001
AcAecLayerStandard
1000

1000
見えがかり線
  0
LAYER
  5
94F0
330
2
100
AcDbSymbolTableRecord
100
AcDbLayerTableRecord
  2
YKK_13
 70
     0
 62
     4
  6
Continuous
370
    30
390
F
347
27F4
1001
AcAecLayerStandard
1000

1000
部品
  0
LAYER
  5
94F2
330
2
100
AcDbSymbolTableRecord
100
AcDbLayerTableRecord
  2
YKK_D
 70
     0
 62
     6
  6
Continuous
370
    13
390
F
347
27F4
1001
AcAecLayerStandard
1000

1000
寸法線・寸法数字
  0
LAYER
  5
94F4
330
2
100
AcDbSymbolTableRecord
100
AcDbLayerTableRecord
  2
YKK_ZWAK
 70
     0
 62
     7
  6
Continuous
370
    30
390
F
347
27F4
1001
AcAecLayerStandard
1000

1000
図面枠
  0
ENDTAB
  0
TABLE
  2
STYLE
  5
3
330
0
100
AcDbSymbolTable
 70
     2
  0
STYLE
  5
11
330
3
100
AcDbSymbolTableRecord
100
AcDbTextStyleTableRecord
  2
STANDARD
 70
     0
 40
0.0
 41
1.0
 50
0.0
 71
     0
 42
4.0
  3
txt.shx
  4
EXTFONT.SHX
1001
ACAD
1000
HGPGothicM
1071
      256
  0
STYLE
  5
DA
330
3
100
AcDbSymbolTableRecord
100
AcDbTextStyleTableRecord
  2
text-b
 70
     0
 40
0.0
 41
0.8
 50
0.0
 71
     0
 42
4.5
  3
extslim2.shx
  4
extfont2.shx
  0
ENDTAB
  0
TABLE
  2
VIEW
  5
6
330
0
100
AcDbSymbolTable
 70
     0
  0
ENDTAB
  0
TABLE
  2
UCS
  5
7
330
0
100
AcDbSymbolTable
 70
     0
  0
ENDTAB
  0
TABLE
  2
APPID
  5
9
330
0
100
AcDbSymbolTable
 70
    67
  0
APPID
  5
12
330
9
100
AcDbSymbolTableRecord
100
AcDbRegAppTableRecord
  2
ACAD
 70
     0
  0
APPID
  5
2F
330
9
100
AcDbSymbolTableRecord
100
AcDbRegAppTableRecord
  2
MCAD_NO_VIS
 70
     0
  0
APPID
  5
30
330
9
100
AcDbSymbolTableRecord
100
AcDbRegAppTableRecord
  2
ACAD_TEMP_GRAPHIC
 70
     0
  0
APPID
  5
31
330
9
100
AcDbSymbolTableRecord
100
AcDbRegAppTableRecord
  2
ACATTRIBSERVICES
 70
     0
  0
APPID
  5
32
330
9
100
AcDbSymbolTableRecord
100
AcDbRegAppTableRecord
  2
AD_DRAW
 70
     0
  0
APPID
  5
33
330
9
100
AcDbSymbolTableRecord
100
AcDbRegAppTableRecord
  2
DESIGNERASSEMBLIES
 70
     0
  0
APPID
  5
34
330
9
100
AcDbSymbolTableRecord
100
AcDbRegAppTableRecord
  2
ACADM_DIM_EDIT
 70
     0
  0
APPID
  5
35
330
9
100
AcDbSymbolTableRecord
100
AcDbRegAppTableRecord
  2
AMDT_DM_ADJ
 70
     0
  0
APPID
  5
36
330
9
100
AcDbSymbolTableRecord
100
AcDbRegAppTableRecord
  2
CONTENTBLOCKICON
 70
     0
  0
APPID
  5
37
330
9
100
AcDbSymbolTableRecord
100
AcDbRegAppTableRecord
  2
GENIUS_GENREC_14
 70
     0
  0
APPID
  5
38
330
9
100
AcDbSymbolTableRecord
100
AcDbRegAppTableRecord
  2
GENIUS_GENOBJ-N-REC_13
 70
     0
  0
APPID
  5
39
330
9
100
AcDbSymbolTableRecord
100
AcDbRegAppTableRecord
  2
GENIUS_GENODEF_13
 70
     0
  0
APPID
  5
3A
330
9
100
AcDbSymbolTableRecord
100
AcDbRegAppTableRecord
  2
GENIUS_GENBLLY_14
 70
     0
  0
APPID
  5
452
330
9
100
AcDbSymbolTableRecord
100
AcDbRegAppTableRecord
  2
GENIUS_GENSCREG_15
 70
     0
  0
APPID
  5
453
330
9
100
AcDbSymbolTableRecord
100
AcDbRegAppTableRecord
  2
GENIUS_GENOBJ-N-SDF_13
 70
     0
  0
APPID
  5
4C8
330
9
100
AcDbSymbolTableRecord
100
AcDbRegAppTableRecord
  2
ACAD_DSTYLE_DIMTEXT_FILL
 70
     0
  0
APPID
  5
4C9
330
9
100
AcDbSymbolTableRecord
100
AcDbRegAppTableRecord
  2
ACAD_DSTYLE_DIMEXT_LENGTH
 70
     0
  0
APPID
  5
4CA
330
9
100
AcDbSymbolTableRecord
100
AcDbRegAppTableRecord
  2
ACAD_DSTYLE_DIMEXT_ENABLED
 70
     0
  0
APPID
  5
4CB
330
9
100
AcDbSymbolTableRecord
100
AcDbRegAppTableRecord
  2
ACAD_DSTYLE_DIM_LINETYPE
 70
     0
  0
APPID
  5
4CC
330
9
100
AcDbSymbolTableRecord
100
AcDbRegAppTableRecord
  2
ACAD_DSTYLE_DIM_EXT1_LINETYPE
 70
     0
  0
APPID
  5
4CD
330
9
100
AcDbSymbolTableRecord
100
AcDbRegAppTableRecord
  2
ACAD_DSTYLE_DIM_EXT2_LINETYPE
 70
     0
  0
APPID
  5
4CE
330
9
100
AcDbSymbolTableRecord
100
AcDbRegAppTableRecord
  2
AcAecLayerStandard
 70
     0
  0
APPID
  5
5F7
330
9
100
AcDbSymbolTableRecord
100
AcDbRegAppTableRecord
  2
ACAD_DSTYLE_DIMJOGGED_JOGANGLE_SYMBOL
 70
     0
  0
APPID
  5
6B3
330
9
100
AcDbSymbolTableRecord
100
AcDbRegAppTableRecord
  2
DCO15
 70
     0
  0
APPID
  5
6B4
330
9
100
AcDbSymbolTableRecord
100
AcDbRegAppTableRecord
  2
SHAPE_COLUM
 70
     0
  0
APPID
  5
6B5
330
9
100
AcDbSymbolTableRecord
100
AcDbRegAppTableRecord
  2
GENIUS_GENOLIS_13
 70
     0
  0
APPID
  5
6B6
330
9
100
AcDbSymbolTableRecord
100
AcDbRegAppTableRecord
  2
GENIUS_GENOENT_13
 70
     0
  0
APPID
  5
6B7
330
9
100
AcDbSymbolTableRecord
100
AcDbRegAppTableRecord
  2
GENIUS_GENOBJ-N-TIT_13
 70
     0
  0
APPID
  5
6B8
330
9
100
AcDbSymbolTableRecord
100
AcDbRegAppTableRecord
  2
GENIUS_GENTITLE_13
 70
     0
  0
APPID
  5
6B9
330
9
100
AcDbSymbolTableRecord
100
AcDbRegAppTableRecord
  2
GENIUS_GENOREF_13
 70
     0
  0
APPID
  5
6BA
330
9
100
AcDbSymbolTableRecord
100
AcDbRegAppTableRecord
  2
GENIUS_GENOBJ-N-CEN_13
 70
     0
  0
APPID
  5
6BB
330
9
100
AcDbSymbolTableRecord
100
AcDbRegAppTableRecord
  2
YACAD
 70
     0
  0
APPID
  5
6BC
330
9
100
AcDbSymbolTableRecord
100
AcDbRegAppTableRecord
  2
GENIUS_GENOBJ-N-ZOO_13
 70
     0
  0
APPID
  5
6BD
330
9
100
AcDbSymbolTableRecord
100
AcDbRegAppTableRecord
  2
GENIUS_GENZOO_17
 70
     0
  0
APPID
  5
6BE
330
9
100
AcDbSymbolTableRecord
100
AcDbRegAppTableRecord
  2
YALIB
 70
     0
  0
APPID
  5
6BF
330
9
100
AcDbSymbolTableRecord
100
AcDbRegAppTableRecord
  2
CONTENTBLOCKDESCRIPTION
 70
     0
  0
APPID
  5
6C0
330
9
100
AcDbSymbolTableRecord
100
AcDbRegAppTableRecord
  2
ACAD_DIMASSOC_DIMLFAC
 70
     0
  0
APPID
  5
6C1
330
9
100
AcDbSymbolTableRecord
100
AcDbRegAppTableRecord
  2
ACAD_DIMASSOC_CALC_DIMLFAC
 70
     0
  0
APPID
  5
6C2
330
9
100
AcDbSymbolTableRecord
100
AcDbRegAppTableRecord
  2
ACAD_DIMASSOC_OVERRIDDEN_DIMLFAC
 70
     0
  0
APPID
  5
6C3
330
9
100
AcDbSymbolTableRecord
100
AcDbRegAppTableRecord
  2
SAMPLEDATA
 70
     0
  0
APPID
  5
6C4
330
9
100
AcDbSymbolTableRecord
100
AcDbRegAppTableRecord
  2
ACAD_DSTYLE_DIMARC_LENGTH_SYMBOL
 70
     0
  0
APPID
  5
6C5
330
9
100
AcDbSymbolTableRecord
100
AcDbRegAppTableRecord
  2
ACAD_PSEXT
 70
     0
  0
APPID
  5
6C6
330
9
100
AcDbSymbolTableRecord
100
AcDbRegAppTableRecord
  2
GENIUS_GENDIMSH_14
 70
     0
  0
APPID
  5
6C7
330
9
100
AcDbSymbolTableRecord
100
AcDbRegAppTableRecord
  2
ACAUTHENVIRON
 70
     0
  0
APPID
  5
6C8
330
9
100
AcDbSymbolTableRecord
100
AcDbRegAppTableRecord
  2
AcDbDynamicBlockTrueName
 70
     0
  0
APPID
  5
6C9
330
9
100
AcDbSymbolTableRecord
100
AcDbRegAppTableRecord
  2
AcDbDynamicBlockGUID
 70
     0
  0
APPID
  5
6CA
330
9
100
AcDbSymbolTableRecord
100
AcDbRegAppTableRecord
  2
ACDBBLOCKREPETAG
 70
     0
  0
APPID
  5
2076
330
9
100
AcDbSymbolTableRecord
100
AcDbRegAppTableRecord
  2
GENIUS_GENCEN_19
 70
     0
  0
APPID
  5
225A
330
9
100
AcDbSymbolTableRecord
100
AcDbRegAppTableRecord
  2
GENIUS_GENOBJ-N-FIL_13
 70
     0
  0
APPID
  5
225B
330
9
100
AcDbSymbolTableRecord
100
AcDbRegAppTableRecord
  2
GENIUS_GENOBJ-N-HTC_13
 70
     0
  0
APPID
  5
225C
330
9
100
AcDbSymbolTableRecord
100
AcDbRegAppTableRecord
  2
GENIUS_GENHATCH_13
 70
     0
  0
APPID
  5
2821
330
9
100
AcDbSymbolTableRecord
100
AcDbRegAppTableRecord
  2
ACAD_MLEADERVER
 70
     0
  0
APPID
  5
2837
330
9
100
AcDbSymbolTableRecord
100
AcDbRegAppTableRecord
  2
YKK_AP_LOCKLAYER
 70
     0
  0
APPID
  5
2898
330
9
100
AcDbSymbolTableRecord
100
AcDbRegAppTableRecord
  2
ACAD_NAV_VCDISPLAY
 70
     0
  0
APPID
  5
28F6
330
9
100
AcDbSymbolTableRecord
100
AcDbRegAppTableRecord
  2
ACAD_DSTYLE_DIMJAG
 70
     0
  0
APPID
  5
28F7
330
9
100
AcDbSymbolTableRecord
100
AcDbRegAppTableRecord
  2
ACAD_DSTYLE_DIMTALN
 70
     0
  0
APPID
  5
2BF6
330
9
100
AcDbSymbolTableRecord
100
AcDbRegAppTableRecord
  2
YGROUP_INFOMATION
 70
     0
  0
APPID
  5
2BF7
330
9
100
AcDbSymbolTableRecord
100
AcDbRegAppTableRecord
  2
ACAD_DSTYLE_DIMBREAK
 70
     0
  0
APPID
  5
2BF8
330
9
100
AcDbSymbolTableRecord
100
AcDbRegAppTableRecord
  2
ACAD_DSTYLE_DIMRADIAL_EXTENSION
 70
     0
  0
APPID
  5
5394
330
9
100
AcDbSymbolTableRecord
100
AcDbRegAppTableRecord
  2
YGROUPINFO
 70
     0
  0
APPID
  5
5396
330
9
100
AcDbSymbolTableRecord
100
AcDbRegAppTableRecord
  2
ACAD_EXEMPT_FROM_CAD_STANDARDS
 70
     0
  0
APPID
  5
6BDC
330
9
100
AcDbSymbolTableRecord
100
AcDbRegAppTableRecord
  2
AcadAnnoPO
 70
     0
  0
APPID
  5
6BEC
330
9
100
AcDbSymbolTableRecord
100
AcDbRegAppTableRecord
  2
AcadAnnotative
 70
     0
  0
APPID
  5
6BED
330
9
100
AcDbSymbolTableRecord
100
AcDbRegAppTableRecord
  2
AcCmTransparency
 70
     0
  0
APPID
  5
6BEE
330
9
100
AcDbSymbolTableRecord
100
AcDbRegAppTableRecord
  2
YOBJCUT11201092027
 70
     0
  0
APPID
  5
6BEF
330
9
100
AcDbSymbolTableRecord
100
AcDbRegAppTableRecord
  2
YOBJCUT11201092052
 70
     0
  0
APPID
  5
91CD
330
9
100
AcDbSymbolTableRecord
100
AcDbRegAppTableRecord
  2
AcDbAttr
 70
     0
  0
ENDTAB
  0
TABLE
  2
DIMSTYLE
  5
A
330
0
100
AcDbSymbolTable
 70
     1
100
AcDbDimStyleTable
 71
     1
340
2072
  0
DIMSTYLE
105
2072
330
A
100
AcDbSymbolTableRecord
100
AcDbDimStyleTableRecord
  2
DOT-DET-b
 70
     0
 41
1.7
 42
1.0
 43
10.0
 44
1.0
 73
     0
 74
     0
 77
     1
 78
     8
140
4.5
141
0.0
143
0.03937007874016
146
0.45
147
1.0
171
     3
172
     1
176
   256
177
   256
178
   256
271
     2
272
     2
274
     3
283
     0
284
     8
340
DA
341
B7
342
2018
371
    -1
372
    -1
  0
ENDTAB
  0
TABLE
  2
BLOCK_RECORD
  5
1
330
0
100
AcDbSymbolTable
 70
     4
  0
BLOCK_RECORD
  5
21
102
{ACAD_XDICTIONARY
360
F0
102
}
330
1
100
AcDbSymbolTableRecord
100
AcDbBlockTableRecord
  2
*Model_Space
340
24
 70
     0
280
     1
281
     0
  0
BLOCK_RECORD
  5
1D
330
1
100
AcDbSymbolTableRecord
100
AcDbBlockTableRecord
  2
*Paper_Space
340
20
 70
     0
280
     1
281
     0
  0
BLOCK_RECORD
  5
B7
330
1
100
AcDbSymbolTableRecord
100
AcDbBlockTableRecord
  2
_Open30
340
0
 70
     0
280
     1
281
     0
  0
BLOCK_RECORD
  5
2018
330
1
100
AcDbSymbolTableRecord
100
AcDbBlockTableRecord
  2
_Dot
340
0
 70
     0
280
     1
281
     0
  0
BLOCK_RECORD
  5
21DA
102
{ACAD_XDICTIONARY
360
21DD
102
}
330
1
100
AcDbSymbolTableRecord
100
AcDbBlockTableRecord
  2
*Paper_Space2
340
21D9
 70
     0
280
     1
281
     0
  0
BLOCK_RECORD
  5
21F4
102
{ACAD_XDICTIONARY
360
21F7
102
}
330
1
100
AcDbSymbolTableRecord
100
AcDbBlockTableRecord
  2
*Paper_Space3
340
21F3
 70
     0
280
     1
281
     0
  0
ENDTAB
  0
ENDSEC
  0
SECTION
  2
BLOCKS
  0
BLOCK
  5
22
330
21
100
AcDbEntity
  8
0
100
AcDbBlockBegin
  2
*Model_Space
 70
     0
 10
0.0
 20
0.0
 30
0.0
  3
*Model_Space
  1

  0
ENDBLK
  5
23
330
21
100
AcDbEntity
  8
0
100
AcDbBlockEnd
  0
BLOCK
  5
1E
330
1D
100
AcDbEntity
 67
     1
  8
0
100
AcDbBlockBegin
  2
*Paper_Space
 70
     0
 10
0.0
 20
0.0
 30
0.0
  3
*Paper_Space
  1

  0
ENDBLK
  5
1F
330
1D
100
AcDbEntity
 67
     1
  8
0
100
AcDbBlockEnd
  0
BLOCK
  5
443
330
B7
100
AcDbEntity
  8
0
100
AcDbBlockBegin
  2
_Open30
 70
     0
 10
0.0
 20
0.0
 30
0.0
  3
_Open30
  1

  0
LINE
  5
444
330
B7
100
AcDbEntity
  8
0
  6
ByBlock
 62
     0
370
    -2
100
AcDbLine
 10
-1.0
 20
0.26794919
 30
0.0
 11
0.0
 21
0.0
 31
0.0
  0
LINE
  5
445
330
B7
100
AcDbEntity
  8
0
  6
ByBlock
 62
     0
370
    -2
100
AcDbLine
 10
0.0
 20
0.0
 30
0.0
 11
-1.0
 21
-0.26794919
 31
0.0
  0
LINE
  5
446
330
B7
100
AcDbEntity
  8
0
  6
ByBlock
 62
     0
370
    -2
100
AcDbLine
 10
0.0
 20
0.0
 30
0.0
 11
-1.0
 21
0.0
 31
0.0
  0
ENDBLK
  5
447
330
B7
100
AcDbEntity
  8
0
100
AcDbBlockEnd
  0
BLOCK
  5
2019
330
2018
100
AcDbEntity
  8
0
100
AcDbBlockBegin
  2
_Dot
 70
     0
 10
0.0
 20
0.0
 30
0.0
  3
_Dot
  1

  0
LWPOLYLINE
  5
201A
330
2018
100
AcDbEntity
  8
0
  6
ByBlock
 62
     0
100
AcDbPolyline
 90
        2
 70
     1
 43
0.5
 10
-0.25
 20
0.0
 42
1.0
 10
0.25
 20
0.0
 42
1.0
  0
LINE
  5
201B
330
2018
100
AcDbEntity
  8
0
  6
ByBlock
 62
     0
370
    -2
100
AcDbLine
 10
-0.5
 20
0.0
 30
0.0
 11
-1.0
 21
0.0
 31
0.0
  0
ENDBLK
  5
201C
330
2018
100
AcDbEntity
  8
0
100
AcDbBlockEnd
  0
BLOCK
  5
21EC
330
21DA
100
AcDbEntity
 67
     1
  8
0
100
AcDbBlockBegin
  2
*Paper_Space2
 70
     0
 10
0.0
 20
0.0
 30
0.0
  3
*Paper_Space2
  1

  0
VIEWPORT
  5
21DB
330
21DA
100
AcDbEntity
 67
     1
  8
0
100
AcDbViewport
 10
204.1860470098521
 20
142.5461100482574
 30
0.0
 40
611.4567108482441
 41
314.2956031741976
 68
     0
 69
     0
 12
204.1860470098521
 22
142.5461100482574
 13
0.0
 23
0.0
 14
10.0
 24
10.0
 15
10.0
 25
10.0
 16
0.0
 26
0.0
 36
1.0
 17
0.0
 27
0.0
 37
0.0
 42
50.0
 43
0.0
 44
0.0
 45
314.2956031741976
 50
0.0
 51
0.0
 72
   100
 90
    32800
  1

281
     0
 71
     1
 74
     0
110
0.0
120
0.0
130
0.0
111
1.0
121
0.0
131
0.0
112
0.0
122
1.0
132
0.0
 79
     0
146
0.0
170
     0
 61
     5
348
2802
292
     1
282
     1
141
0.0
142
0.0
 63
   250
421
  3355443
1001
GENIUS_GENODEF_13
1002
{
1000
HIER
1070
     0
1002
}
1002
{
1000
MANEDIT
1070
     0
1002
}
1002
{
1000
NOSEL
1070
     0
1002
}
1002
{
1000
BEHIND
1070
     0
1002
}
1002
{
1000
OTHER
1070
     0
1002
}
1002
{
1000
REACTOR
1002
}
1001
GENIUS_GENOBJ-N-SDF_13
1002
{
1000
OWNER
1000
GEN
1002
}
1001
GENIUS_GENSCREG_15
1000
PF
1040
1.0
1000
DF
1040
1.0
1000
MIN
1011
-17.94592326775012
1021
-33.7355825286902
1031
0.0
1000
MAX
1011
426.4461993795793
1021
318.6962015394939
1031
0.0
1000
FLAGS
1070
     2
  0
ENDBLK
  5
21ED
330
21DA
100
AcDbEntity
 67
     1
  8
0
100
AcDbBlockEnd
  0
BLOCK
  5
2206
330
21F4
100
AcDbEntity
 67
     1
  8
0
100
AcDbBlockBegin
  2
*Paper_Space3
 70
     0
 10
0.0
 20
0.0
 30
0.0
  3
*Paper_Space3
  1

  0
VIEWPORT
  5
21F5
330
21F4
100
AcDbEntity
 67
     1
  8
0
100
AcDbViewport
 10
142.5770188494306
 20
99.11510704350453
 30
0.0
 40
432.2263097370406
 41
222.1691680153564
 68
     0
 69
     0
 12
142.5770188494306
 22
99.11510704350453
 13
0.0
 23
0.0
 14
10.0
 24
10.0
 15
10.0
 25
10.0
 16
0.0
 26
0.0
 36
1.0
 17
0.0
 27
0.0
 37
0.0
 42
50.0
 43
0.0
 44
0.0
 45
222.1691680153564
 50
0.0
 51
0.0
 72
   100
 90
    32800
  1

281
     0
 71
     1
 74
     0
110
0.0
120
0.0
130
0.0
111
1.0
121
0.0
131
0.0
112
0.0
122
1.0
132
0.0
 79
     0
146
0.0
170
     0
 61
     5
348
2802
292
     1
282
     1
141
0.0
142
0.0
 63
   250
421
  3355443
1001
GENIUS_GENOBJ-N-SDF_13
1002
{
1000
OWNER
1000
GEN
1002
}
1001
GENIUS_GENODEF_13
1002
{
1000
HIER
1070
     0
1002
}
1002
{
1000
MANEDIT
1070
     0
1002
}
1002
{
1000
NOSEL
1070
     0
1002
}
1002
{
1000
BEHIND
1070
     0
1002
}
1002
{
1000
OTHER
1070
     0
1002
}
1002
{
1000
REACTOR
1002
}
1001
GENIUS_GENSCREG_15
1000
PF
1040
1.0
1000
DF
1040
1.0
1000
MIN
1011
-73.54613586954029
1021
-11.96839315538148
1031
0.0
1000
MAX
1011
358.6745349673585
1021
210.1978764020957
1031
0.0
1000
FLAGS
1070
     2
  0
ENDBLK
  5
2207
330
21F4
100
AcDbEntity
 67
     1
  8
0
100
AcDbBlockEnd
  0
ENDSEC
  0
SECTION
  2
ENTITIES
  0
LINE
  5
7A6E
330
21
100
AcDbEntity
  8
TABLE1
100
AcDbLine
 10
30.00198075583521
 20
562.0
 30
0.0
 11
469.0019807558352
 21
562.0
 31
0.0
  0
LINE
  5
7A6F
330
21
100
AcDbEntity
  8
TABLE1
100
AcDbLine
 10
30.00198075583521
 20
550.0
 30
0.0
 11
469.0019807558352
 21
550.0
 31
0.0
  0
LINE
  5
7A70
330
21
100
AcDbEntity
  8
TABLE1
100
AcDbLine
 10
30.00198075583521
 20
538.0
 30
0.0
 11
469.0019807558352
 21
538.0
 31
0.0
  0
LINE
  5
7A71
330
21
100
AcDbEntity
  8
TABLE1
100
AcDbLine
 10
30.00198075583521
 20
297.0
 30
0.0
 11
469.0019807558352
 21
297.0000000000001
 31
0.0
  0
LINE
  5
7A72
330
21
100
AcDbEntity
  8
TABLE1
100
AcDbLine
 10
30.00198075583521
 20
285.0
 30
0.0
 11
469.0019807558352
 21
285.0000000000001
 31
0.0
  0
LINE
  5
7A73
330
21
100
AcDbEntity
  8
TABLE1
100
AcDbLine
 10
30.00198075583521
 20
261.0
 30
0.0
 11
469.0019807558352
 21
261.0
 31
0.0
  0
LINE
  5
7A74
330
21
100
AcDbEntity
  8
TABLE1
100
AcDbLine
 10
30.00198075583521
 20
249.0
 30
0.0
 11
469.0019807558352
 21
249.0
 31
0.0
  0
LINE
  5
7A75
330
21
100
AcDbEntity
  8
TABLE1
100
AcDbLine
 10
109.0019807558352
 20
249.0
 30
0.0
 11
109.0019807558352
 21
201.0
 31
0.0
  0
LINE
  5
7A76
330
21
100
AcDbEntity
  8
TABLE1
100
AcDbLine
 10
469.0019807558352
 20
574.0
 30
0.0
 11
469.0019807558352
 21
201.0
 31
0.0
  0
LINE
  5
7A82
102
{ACAD_REACTORS
330
7D2E
102
}
330
21
100
AcDbEntity
  8
USER1
100
AcDbLine
 10
147.7543662238746
 20
529.2264956645863
 30
0.0
 11
159.7543662238746
 21
529.2264956645863
 31
0.0
  0
LINE
  5
7A83
102
{ACAD_REACTORS
330
7D2E
102
}
330
21
100
AcDbEntity
  8
USER1
100
AcDbLine
 10
147.7543662238746
 20
529.2264956645863
 30
0.0
 11
147.7543662238746
 21
517.2264956645862
 31
0.0
  0
LINE
  5
7A84
102
{ACAD_REACTORS
330
7D2E
102
}
330
21
100
AcDbEntity
  8
USER1
100
AcDbLine
 10
159.7543662238746
 20
529.2264956645863
 30
0.0
 11
156.7543662238746
 21
527.4944448570172
 31
0.0
  0
LINE
  5
7A85
102
{ACAD_REACTORS
330
7D2E
102
}
330
21
100
AcDbEntity
  8
USER1
100
AcDbLine
 10
159.7543662238746
 20
529.2264956645863
 30
0.0
 11
156.7543662238746
 21
530.9585464721551
 31
0.0
  0
LINE
  5
7A86
102
{ACAD_REACTORS
330
7D2E
102
}
330
21
100
AcDbEntity
  8
USER1
100
AcDbLine
 10
147.7543662238746
 20
517.2264956645863
 30
0.0
 11
146.0223154163056
 21
520.2264956645863
 31
0.0
  0
LINE
  5
7A87
102
{ACAD_REACTORS
330
7D2E
102
}
330
21
100
AcDbEntity
  8
USER1
100
AcDbLine
 10
147.7543662238746
 20
517.2264956645863
 30
0.0
 11
149.4864170314434
 21
520.2264956645863
 31
0.0
  0
LINE
  5
7A92
330
21
100
AcDbEntity
  8
TABLE1
100
AcDbLine
 10
30.00198075583521
 20
273.0
 30
0.0
 11
469.0019807558352
 21
273.0
 31
0.0
  0
LINE
  5
7AE0
330
21
100
AcDbEntity
  8
TABLE1
100
AcDbLine
 10
109.0019807558352
 20
237.0
 30
0.0
 11
469.0019807558352
 21
237.0000000000002
 31
0.0
  0
LINE
  5
7AE4
330
21
100
AcDbEntity
  8
TABLE1
100
AcDbLine
 10
30.00198075583521
 20
225.0
 30
0.0
 11
469.0019807558352
 21
225.0
 31
0.0
  0
LINE
  5
7AE7
330
21
100
AcDbEntity
  8
TABLE1
100
AcDbLine
 10
109.0019807558352
 20
213.0
 30
0.0
 11
469.0019807558352
 21
213.0
 31
0.0
  0
LINE
  5
7AEB
330
21
100
AcDbEntity
  8
TABLE1
100
AcDbLine
 10
30.00198075583521
 20
201.0
 30
0.0
 11
469.0019807558352
 21
200.9999999999999
 31
0.0
  0
LINE
  5
7AEE
330
21
100
AcDbEntity
  8
TABLE1
100
AcDbLine
 10
139.0019807558352
 20
574.0
 30
0.0
 11
139.0019807558352
 21
201.0
 31
0.0
  0
LINE
  5
7E36
102
{ACAD_REACTORS
330
7FBC
330
7FBD
102
}
330
21
100
AcDbEntity
  8
YKK_13
100
AcDbLine
 10
175.202448961351
 20
506.6956625041417
 30
0.0
 11
290.202448961351
 21
506.6956625041417
 31
0.0
1001
GENIUS_GENREC_14
1002
{
1000
PYDIR
1011
175.202448961351
1021
424.1956625041416
1031
0.0
1002
}
1002
{
1000
PXDIR
1011
290.202448961351
1021
506.6956625041417
1031
0.0
1002
}
1002
{
1000
PORI
1011
175.202448961351
1021
506.6956625041417
1031
0.0
1002
}
1002
{
1000
PINS
1011
175.202448961351
1021
506.6956625041417
1031
0.0
1002
}
1002
{
1000
HVAL
1000
-69
1002
}
1002
{
1000
H
1070
     2
1002
}
1002
{
1000
WVAL
1000
70
1002
}
1002
{
1000
W
1070
     2
1002
}
1002
{
1000
C
1070
     1
1002
}
1001
GENIUS_GENODEF_13
1002
{
1000
HIER
1070
     0
1002
}
1002
{
1000
MANEDIT
1070
     0
1002
}
1002
{
1000
NOSEL
1070
     0
1002
}
1002
{
1000
BEHIND
1070
     0
1002
}
1002
{
1000
OTHER
1070
     0
1002
}
1002
{
1000
REACTOR
1002
}
1001
GENIUS_GENOBJ-N-REC_13
1002
{
1000
OWNER
1000
GEN
1002
}
  0
LINE
  5
7E37
102
{ACAD_REACTORS
330
7FBC
330
7FBD
102
}
330
21
100
AcDbEntity
  8
YKK_13
100
AcDbLine
 10
290.202448961351
 20
506.6956625041417
 30
0.0
 11
290.202448961351
 21
391.6956625041419
 31
0.0
1001
GENIUS_GENREC_14
1002
{
1000
PYDIR
1011
197.702448961351
1021
391.6956625041419
1031
0.0
1002
}
1002
{
1000
PXDIR
1011
290.202448961351
1021
506.6956625041417
1031
0.0
1002
}
1002
{
1000
PORI
1011
197.702448961351
1021
506.6956625041417
1031
0.0
1002
}
1002
{
1000
PINS
1011
197.702448961351
1021
506.6956625041417
1031
0.0
1002
}
1002
{
1000
HVAL
1000
-69
1002
}
1002
{
1000
H
1070
     2
1002
}
1002
{
1000
WVAL
1000
70
1002
}
1002
{
1000
W
1070
     2
1002
}
1002
{
1000
C
1070
     1
1002
}
1001
GENIUS_GENODEF_13
1002
{
1000
HIER
1070
     0
1002
}
1002
{
1000
MANEDIT
1070
     0
1002
}
1002
{
1000
NOSEL
1070
     0
1002
}
1002
{
1000
BEHIND
1070
     0
1002
}
1002
{
1000
OTHER
1070
     0
1002
}
1002
{
1000
REACTOR
1002
}
1001
GENIUS_GENOBJ-N-REC_13
1002
{
1000
OWNER
1000
GEN
1002
}
  0
LINE
  5
7E38
102
{ACAD_REACTORS
330
7FBC
330
7FBD
102
}
330
21
100
AcDbEntity
  8
YKK_13
100
AcDbLine
 10
290.202448961351
 20
391.6956625041419
 30
0.0
 11
175.202448961351
 21
391.6956625041419
 31
0.0
1001
GENIUS_GENREC_14
1002
{
1000
PYDIR
1011
175.202448961351
1021
391.6956625041419
1031
0.0
1002
}
1002
{
1000
PXDIR
1011
290.202448961351
1021
494.1956625041417
1031
0.0
1002
}
1002
{
1000
PORI
1011
175.202448961351
1021
494.1956625041417
1031
0.0
1002
}
1002
{
1000
PINS
1011
175.202448961351
1021
494.1956625041417
1031
0.0
1002
}
1002
{
1000
HVAL
1000
-69
1002
}
1002
{
1000
H
1070
     2
1002
}
1002
{
1000
WVAL
1000
70
1002
}
1002
{
1000
W
1070
     2
1002
}
1002
{
1000
C
1070
     1
1002
}
1001
GENIUS_GENODEF_13
1002
{
1000
HIER
1070
     0
1002
}
1002
{
1000
MANEDIT
1070
     0
1002
}
1002
{
1000
NOSEL
1070
     0
1002
}
1002
{
1000
BEHIND
1070
     0
1002
}
1002
{
1000
OTHER
1070
     0
1002
}
1002
{
1000
REACTOR
1002
}
1001
GENIUS_GENOBJ-N-REC_13
1002
{
1000
OWNER
1000
GEN
1002
}
  0
LINE
  5
7E39
102
{ACAD_REACTORS
330
7FBC
330
7FBD
102
}
330
21
100
AcDbEntity
  8
YKK_13
100
AcDbLine
 10
175.202448961351
 20
391.6956625041419
 30
0.0
 11
175.202448961351
 21
506.6956625041417
 31
0.0
1001
GENIUS_GENREC_14
1002
{
1000
PYDIR
1011
175.202448961351
1021
391.6956625041419
1031
0.0
1002
}
1002
{
1000
PXDIR
1011
267.702448961351
1021
506.6956625041417
1031
0.0
1002
}
1002
{
1000
PORI
1011
175.202448961351
1021
506.6956625041417
1031
0.0
1002
}
1002
{
1000
PINS
1011
175.202448961351
1021
506.6956625041417
1031
0.0
1002
}
1002
{
1000
HVAL
1000
-69
1002
}
1002
{
1000
H
1070
     2
1002
}
1002
{
1000
WVAL
1000
70
1002
}
1002
{
1000
W
1070
     2
1002
}
1002
{
1000
C
1070
     1
1002
}
1001
GENIUS_GENODEF_13
1002
{
1000
HIER
1070
     0
1002
}
1002
{
1000
MANEDIT
1070
     0
1002
}
1002
{
1000
NOSEL
1070
     0
1002
}
1002
{
1000
BEHIND
1070
     0
1002
}
1002
{
1000
OTHER
1070
     0
1002
}
1002
{
1000
REACTOR
1002
}
1001
GENIUS_GENOBJ-N-REC_13
1002
{
1000
OWNER
1000
GEN
1002
}
  0
LINE
  5
7E3A
102
{ACAD_REACTORS
330
7FBD
330
7FBE
330
7FBF
102
}
330
21
100
AcDbEntity
  8
YKK_12
  6
YCENTER_1
100
AcDbLine
 10
172.202448961351
 20
449.1956625041416
 30
0.0
 11
208.952448961351
 21
449.1956625041407
 31
0.0
1001
GENIUS_GENOBJ-N-CEN_13
1002
{
1000
OWNER
1000
GEN
1002
}
1001
GENIUS_GENODEF_13
1002
{
1000
HIER
1070
     0
1002
}
1002
{
1000
MANEDIT
1070
     0
1002
}
1002
{
1000
NOSEL
1070
     0
1002
}
1002
{
1000
BEHIND
1070
     0
1002
}
1002
{
1000
OTHER
1070
     0
1002
}
1002
{
1000
REACTOR
1002
}
1001
GENIUS_GENCEN_19
1002
{
1040
2.793999999999998
1002
}
  0
LINE
  5
7E3B
102
{ACAD_REACTORS
330
7FBC
330
7FBD
330
7FC0
330
7FC1
102
}
330
21
100
AcDbEntity
  8
YKK_13
  6
YHIDDEN_1
100
AcDbLine
 10
180.202448961351
 20
506.6956625041417
 30
0.0
 11
180.202448961351
 21
391.6956625041419
 31
0.0
  0
LINE
  5
7E3C
102
{ACAD_REACTORS
330
7FBC
330
7FBD
330
7FC0
330
7FC1
102
}
330
21
100
AcDbEntity
  8
YKK_13
  6
YHIDDEN_1
100
AcDbLine
 10
285.202448961351
 20
506.6956625041417
 30
0.0
 11
285.202448961351
 21
391.6956625041419
 31
0.0
  0
LINE
  5
7E3D
102
{ACAD_REACTORS
330
7FC2
330
7FC3
330
7FC4
102
}
330
21
100
AcDbEntity
  8
YKK_13
100
AcDbLine
 10
324.702448961351
 20
378.7814489417688
 30
0.0
 11
439.702448961351
 21
378.7814489417688
 31
0.0
  0
LINE
  5
7E3E
102
{ACAD_REACTORS
330
7FC2
330
7FC3
330
7FC4
102
}
330
21
100
AcDbEntity
  8
YKK_13
  6
YHIDDEN_1
100
AcDbLine
 10
324.702448961351
 20
373.7814489417687
 30
0.0
 11
439.702448961351
 21
373.7814489417687
 31
0.0
  0
LINE
  5
7E3F
102
{ACAD_REACTORS
330
7FC2
330
7FC3
330
7FC4
102
}
330
21
100
AcDbEntity
  8
YKK_13
100
AcDbLine
 10
324.702448961351
 20
378.7814489417688
 30
0.0
 11
324.702448961351
 21
333.7814489417687
 31
0.0
  0
LINE
  5
7E40
102
{ACAD_REACTORS
330
7FC2
330
7FC3
330
7FC4
102
}
330
21
100
AcDbEntity
  8
YKK_13
100
AcDbLine
 10
439.702448961351
 20
378.7814489417688
 30
0.0
 11
439.702448961351
 21
333.7814489417687
 31
0.0
  0
LINE
  5
7E41
102
{ACAD_REACTORS
330
7FC3
330
7FC5
102
}
330
21
100
AcDbEntity
  8
YKK_12
  6
YCENTER_1
100
AcDbLine
 10
382.2024489613511
 20
381.7814489417687
 30
0.0
 11
382.2024489613511
 21
330.7814489417688
 31
0.0
1001
GENIUS_GENOBJ-N-CEN_13
1002
{
1000
OWNER
1000
GEN
1002
}
1001
GENIUS_GENODEF_13
1002
{
1000
HIER
1070
     0
1002
}
1002
{
1000
MANEDIT
1070
     0
1002
}
1002
{
1000
NOSEL
1070
     0
1002
}
1002
{
1000
BEHIND
1070
     0
1002
}
1002
{
1000
OTHER
1070
     0
1002
}
1002
{
1000
REACTOR
1002
}
1001
GENIUS_GENCEN_19
1002
{
1040
2.793999999999998
1002
}
  0
CIRCLE
  5
7E42
102
{ACAD_REACTORS
330
7FC2
330
7FC3
330
7FC4
102
}
330
21
100
AcDbEntity
  8
YKK_13
100
AcDbCircle
 10
362.202448961351
 20
348.7814489417687
 30
0.0
 40
2.5
  0
CIRCLE
  5
7E43
102
{ACAD_REACTORS
330
7FC2
330
7FC3
330
7FC4
102
}
330
21
100
AcDbEntity
  8
YKK_13
100
AcDbCircle
 10
402.202448961351
 20
348.7814489417687
 30
0.0
 40
2.5
  0
LINE
  5
7E44
102
{ACAD_REACTORS
330
7FC6
330
7FC7
330
7FC8
102
}
330
21
100
AcDbEntity
  8
YKK_12
  6
YCENTER_1
100
AcDbLine
 10
232.702448961351
 20
381.7814489417687
 30
0.0
 11
232.702448961351
 21
333.6956625041419
 31
0.0
1001
GENIUS_GENODEF_13
1002
{
1000
HIER
1070
     0
1002
}
1002
{
1000
MANEDIT
1070
     0
1002
}
1002
{
1000
NOSEL
1070
     0
1002
}
1002
{
1000
BEHIND
1070
     0
1002
}
1002
{
1000
OTHER
1070
     0
1002
}
1002
{
1000
REACTOR
1002
}
1001
GENIUS_GENOBJ-N-CEN_13
1002
{
1000
OWNER
1000
GEN
1002
}
1001
GENIUS_GENCEN_19
1002
{
1040
2.793999999999998
1002
}
  0
CIRCLE
  5
7E45
102
{ACAD_REACTORS
330
7FC2
330
7FC3
102
}
330
21
100
AcDbEntity
  8
YKK_13
100
AcDbCircle
 10
362.202448961351
 20
348.7814489417687
 30
0.0
 40
2.25
  0
CIRCLE
  5
7E46
102
{ACAD_REACTORS
330
7FC2
330
7FC3
102
}
330
21
100
AcDbEntity
  8
YKK_13
100
AcDbCircle
 10
402.202448961351
 20
348.7814489417687
 30
0.0
 40
2.25
  0
LINE
  5
7E47
102
{ACAD_REACTORS
330
7FC8
330
7FC9
330
7FCA
102
}
330
21
100
AcDbEntity
  8
YKK_13
  6
YHIDDEN_1
100
AcDbLine
 10
285.202448961351
 20
351.2814489417688
 30
0.0
 11
290.202448961351
 21
351.2814489417688
 31
0.0
  0
LINE
  5
7E48
102
{ACAD_REACTORS
330
7FC8
330
7FC9
330
7FCA
102
}
330
21
100
AcDbEntity
  8
YKK_13
  6
YHIDDEN_1
100
AcDbLine
 10
285.202448961351
 20
346.2814489417687
 30
0.0
 11
290.202448961351
 21
346.2814489417687
 31
0.0
  0
LINE
  5
7E49
102
{ACAD_REACTORS
330
7FC8
330
7FC9
330
7FCA
102
}
330
21
100
AcDbEntity
  8
YKK_13
  6
YHIDDEN_1
100
AcDbLine
 10
180.202448961351
 20
351.2814489417688
 30
0.0
 11
175.202448961351
 21
351.2814489417688
 31
0.0
  0
LINE
  5
7E4A
102
{ACAD_REACTORS
330
7FC8
330
7FC9
330
7FCA
102
}
330
21
100
AcDbEntity
  8
YKK_13
  6
YHIDDEN_1
100
AcDbLine
 10
180.202448961351
 20
346.2814489417687
 30
0.0
 11
175.202448961351
 21
346.2814489417687
 31
0.0
  0
LINE
  5
7E4B
102
{ACAD_REACTORS
330
7FC2
330
7FC3
102
}
330
21
100
AcDbEntity
  8
YKK_13
  6
YHIDDEN_1
100
AcDbLine
 10
364.952448961351
 20
378.7814489417688
 30
0.0
 11
364.952448961351
 21
373.7814489417687
 31
0.0
  0
LINE
  5
7E4C
102
{ACAD_REACTORS
330
7FC2
330
7FC3
102
}
330
21
100
AcDbEntity
  8
YKK_13
  6
YHIDDEN_1
100
AcDbLine
 10
359.452448961351
 20
378.7814489417688
 30
0.0
 11
359.452448961351
 21
373.7814489417687
 31
0.0
  0
LINE
  5
7E4D
102
{ACAD_REACTORS
330
7FC2
330
7FC3
102
}
330
21
100
AcDbEntity
  8
YKK_13
  6
YHIDDEN_1
100
AcDbLine
 10
404.952448961351
 20
378.7814489417688
 30
0.0
 11
404.952448961351
 21
373.7814489417687
 31
0.0
  0
LINE
  5
7E4E
102
{ACAD_REACTORS
330
7FC2
330
7FC3
102
}
330
21
100
AcDbEntity
  8
YKK_13
  6
YHIDDEN_1
100
AcDbLine
 10
399.452448961351
 20
378.7814489417688
 30
0.0
 11
399.452448961351
 21
373.7814489417687
 31
0.0
  0
LINE
  5
7E4F
102
{ACAD_REACTORS
330
7FC8
330
7FC9
330
7FCA
102
}
330
21
100
AcDbEntity
  8
YKK_13
  6
YHIDDEN_1
100
AcDbLine
 10
215.452448961351
 20
378.7814489417688
 30
0.0
 11
215.452448961351
 21
373.7814489417687
 31
0.0
  0
LINE
  5
7E50
102
{ACAD_REACTORS
330
7FC8
330
7FC9
330
7FCA
102
}
330
21
100
AcDbEntity
  8
YKK_13
  6
YHIDDEN_1
100
AcDbLine
 10
209.952448961351
 20
378.7814489417688
 30
0.0
 11
209.952448961351
 21
373.7814489417687
 31
0.0
  0
LINE
  5
7E51
102
{ACAD_REACTORS
330
7FC8
330
7FC9
330
7FCA
102
}
330
21
100
AcDbEntity
  8
YKK_13
  6
YHIDDEN_1
100
AcDbLine
 10
255.452448961351
 20
378.7814489417688
 30
0.0
 11
255.452448961351
 21
373.7814489417687
 31
0.0
  0
LINE
  5
7E52
102
{ACAD_REACTORS
330
7FC8
330
7FC9
330
7FCA
102
}
330
21
100
AcDbEntity
  8
YKK_13
  6
YHIDDEN_1
100
AcDbLine
 10
249.952448961351
 20
378.7814489417688
 30
0.0
 11
249.952448961351
 21
373.7814489417687
 31
0.0
  0
LINE
  5
7E53
102
{ACAD_REACTORS
330
7FC7
330
7FC8
102
}
330
21
100
AcDbEntity
  8
YKK_12
  6
YCENTER_1
 48
0.5
100
AcDbLine
 10
174.202448961351
 20
348.7814489417687
 30
0.0
 11
181.202448961351
 21
348.7814489417687
 31
0.0
  0
LINE
  5
7E54
102
{ACAD_REACTORS
330
7FC7
330
7FC8
102
}
330
21
100
AcDbEntity
  8
YKK_12
  6
YCENTER_1
 48
0.5
100
AcDbLine
 10
284.202448961351
 20
348.7814489417687
 30
0.0
 11
291.202448961351
 21
348.7814489417687
 31
0.0
  0
LINE
  5
7E55
102
{ACAD_REACTORS
330
7FC7
330
7FC8
102
}
330
21
100
AcDbEntity
  8
YKK_12
  6
YCENTER_1
 48
0.5
100
AcDbLine
 10
212.702448961351
 20
379.7814489417687
 30
0.0
 11
212.702448961351
 21
372.7814489417688
 31
0.0
  0
LINE
  5
7E56
102
{ACAD_REACTORS
330
7FC7
330
7FC8
102
}
330
21
100
AcDbEntity
  8
YKK_12
  6
YCENTER_1
 48
0.5
100
AcDbLine
 10
252.702448961351
 20
379.7814489417687
 30
0.0
 11
252.702448961351
 21
372.7814489417688
 31
0.0
  0
LINE
  5
7E57
102
{ACAD_REACTORS
330
7FC3
330
7FC5
102
}
330
21
100
AcDbEntity
  8
YKK_12
  6
YCENTER_1
 48
0.5
100
AcDbLine
 10
362.202448961351
 20
379.7814489417687
 30
0.0
 11
362.202448961351
 21
372.7814489417688
 31
0.0
  0
LINE
  5
7E58
102
{ACAD_REACTORS
330
7FC3
330
7FC5
102
}
330
21
100
AcDbEntity
  8
YKK_12
  6
YCENTER_1
 48
0.5
100
AcDbLine
 10
402.202448961351
 20
379.7814489417687
 30
0.0
 11
402.202448961351
 21
372.7814489417688
 31
0.0
  0
LINE
  5
7E59
102
{ACAD_REACTORS
330
7FBC
330
7FBD
330
7FC1
102
}
330
21
100
AcDbEntity
  8
YKK_13
  6
YHIDDEN_1
100
AcDbLine
 10
285.202448961351
 20
431.6956625041417
 30
0.0
 11
290.202448961351
 21
431.6956625041417
 31
0.0
  0
LINE
  5
7E5A
102
{ACAD_REACTORS
330
7FBC
330
7FBD
330
7FC1
102
}
330
21
100
AcDbEntity
  8
YKK_13
  6
YHIDDEN_1
100
AcDbLine
 10
285.202448961351
 20
426.6956625041417
 30
0.0
 11
290.202448961351
 21
426.6956625041417
 31
0.0
  0
LINE
  5
7E5B
102
{ACAD_REACTORS
330
7FBD
330
7FBF
102
}
330
21
100
AcDbEntity
  8
YKK_12
  6
YCENTER_1
 48
0.5
100
AcDbLine
 10
284.202448961351
 20
429.1956625041416
 30
0.0
 11
291.202448961351
 21
429.1956625041416
 31
0.0
  0
LINE
  5
7E5C
102
{ACAD_REACTORS
330
7FBC
330
7FBD
330
7FC1
102
}
330
21
100
AcDbEntity
  8
YKK_13
  6
YHIDDEN_1
100
AcDbLine
 10
285.202448961351
 20
466.6956625041418
 30
0.0
 11
290.202448961351
 21
466.6956625041418
 31
0.0
  0
LINE
  5
7E5D
102
{ACAD_REACTORS
330
7FBC
330
7FBD
330
7FC1
102
}
330
21
100
AcDbEntity
  8
YKK_13
  6
YHIDDEN_1
100
AcDbLine
 10
285.202448961351
 20
471.6956625041418
 30
0.0
 11
290.202448961351
 21
471.6956625041418
 31
0.0
  0
LINE
  5
7E5E
102
{ACAD_REACTORS
330
7FBD
330
7FBF
102
}
330
21
100
AcDbEntity
  8
YKK_12
  6
YCENTER_1
 48
0.5
100
AcDbLine
 10
284.202448961351
 20
469.1956625041418
 30
0.0
 11
291.202448961351
 21
469.1956625041418
 31
0.0
  0
LINE
  5
7E5F
102
{ACAD_REACTORS
330
7FBC
330
7FBD
330
7FC1
102
}
330
21
100
AcDbEntity
  8
YKK_13
  6
YHIDDEN_1
100
AcDbLine
 10
180.2024489613508
 20
431.6956625041417
 30
0.0
 11
175.2024489613507
 21
431.6956625041417
 31
0.0
  0
LINE
  5
7E60
102
{ACAD_REACTORS
330
7FBC
330
7FBD
330
7FC1
102
}
330
21
100
AcDbEntity
  8
YKK_13
  6
YHIDDEN_1
100
AcDbLine
 10
180.2024489613508
 20
426.6956625041417
 30
0.0
 11
175.2024489613507
 21
426.6956625041417
 31
0.0
  0
LINE
  5
7E61
102
{ACAD_REACTORS
330
7FBD
330
7FBF
102
}
330
21
100
AcDbEntity
  8
YKK_12
  6
YCENTER_1
 48
0.5
100
AcDbLine
 10
181.2024489613509
 20
429.1956625041416
 30
0.0
 11
174.2024489613509
 21
429.1956625041416
 31
0.0
  0
LINE
  5
7E62
102
{ACAD_REACTORS
330
7FBC
330
7FBD
330
7FC1
102
}
330
21
100
AcDbEntity
  8
YKK_13
  6
YHIDDEN_1
100
AcDbLine
 10
180.2024489613508
 20
466.6956625041418
 30
0.0
 11
175.2024489613507
 21
466.6956625041418
 31
0.0
  0
LINE
  5
7E63
102
{ACAD_REACTORS
330
7FBC
330
7FBD
330
7FC1
102
}
330
21
100
AcDbEntity
  8
YKK_13
  6
YHIDDEN_1
100
AcDbLine
 10
180.2024489613508
 20
471.6956625041418
 30
0.0
 11
175.2024489613507
 21
471.6956625041418
 31
0.0
  0
LINE
  5
7E64
102
{ACAD_REACTORS
330
7FBD
330
7FBF
102
}
330
21
100
AcDbEntity
  8
YKK_12
  6
YCENTER_1
 48
0.5
100
AcDbLine
 10
181.2024489613509
 20
469.1956625041418
 30
0.0
 11
174.2024489613509
 21
469.1956625041418
 31
0.0
  0
LINE
  5
7E6B
102
{ACAD_REACTORS
330
7FC2
330
7FC3
102
}
330
21
100
AcDbEntity
  8
YKK_13
100
AcDbLine
 10
324.702448961351
 20
333.7814489417687
 30
0.0
 11
439.702448961351
 21
333.7814489417687
 31
0.0
  0
LINE
  5
7E6C
102
{ACAD_REACTORS
330
7FC2
330
7FC3
102
}
330
21
100
AcDbEntity
  8
YKK_13
100
AcDbLine
 10
324.702448961351
 20
337.2814489417688
 30
0.0
 11
439.702448961351
 21
337.2814489417688
 31
0.0
  0
LINE
  5
7E6D
102
{ACAD_REACTORS
330
7FC2
330
7FC3
102
}
330
21
100
AcDbEntity
  8
YKK_13
100
AcDbLine
 10
324.702448961351
 20
349.0814489417688
 30
0.0
 11
359.7205142321528
 21
349.0814489417688
 31
0.0
  0
LINE
  5
7E6E
102
{ACAD_REACTORS
330
7FC2
330
7FC3
102
}
330
21
100
AcDbEntity
  8
YKK_13
100
AcDbLine
 10
364.6843836905492
 20
349.0814489417688
 30
0.0
 11
399.7205142321528
 21
349.0814489417687
 31
0.0
  0
LINE
  5
7E6F
102
{ACAD_REACTORS
330
7FC2
330
7FC3
102
}
330
21
100
AcDbEntity
  8
YKK_13
100
AcDbLine
 10
404.6843836905491
 20
349.0814489417687
 30
0.0
 11
439.702448961351
 21
349.0814489417688
 31
0.0
  0
LINE
  5
7E70
102
{ACAD_REACTORS
330
7FC2
330
7FC3
102
}
330
21
100
AcDbEntity
  8
YKK_13
100
AcDbLine
 10
324.702448961351
 20
348.4814489417688
 30
0.0
 11
359.7205142321528
 21
348.4814489417688
 31
0.0
  0
LINE
  5
7E71
102
{ACAD_REACTORS
330
7FC2
330
7FC3
102
}
330
21
100
AcDbEntity
  8
YKK_13
100
AcDbLine
 10
364.6843836905492
 20
348.4814489417688
 30
0.0
 11
399.7205142321528
 21
348.4814489417688
 31
0.0
  0
LINE
  5
7E72
102
{ACAD_REACTORS
330
7FC2
330
7FC3
102
}
330
21
100
AcDbEntity
  8
YKK_13
100
AcDbLine
 10
404.6843836905491
 20
348.4814489417688
 30
0.0
 11
439.702448961351
 21
348.4814489417688
 31
0.0
  0
LINE
  5
7E73
102
{ACAD_REACTORS
330
7FC3
330
7FC5
102
}
330
21
100
AcDbEntity
  8
YKK_12
  6
YCENTER_1
100
AcDbLine
 10
365.702448961351
 20
348.7814489417687
 30
0.0
 11
358.702448961351
 21
348.7814489417687
 31
0.0
  0
LINE
  5
7E74
102
{ACAD_REACTORS
330
7FC3
330
7FC5
102
}
330
21
100
AcDbEntity
  8
YKK_12
  6
YCENTER_1
100
AcDbLine
 10
362.202448961351
 20
352.2814489417688
 30
0.0
 11
362.202448961351
 21
345.2814489417688
 31
0.0
  0
LINE
  5
7E75
102
{ACAD_REACTORS
330
7FC3
330
7FC5
102
}
330
21
100
AcDbEntity
  8
YKK_12
  6
YCENTER_1
100
AcDbLine
 10
405.7024489613509
 20
348.7814489417687
 30
0.0
 11
398.702448961351
 21
348.7814489417687
 31
0.0
  0
LINE
  5
7E76
102
{ACAD_REACTORS
330
7FC3
330
7FC5
102
}
330
21
100
AcDbEntity
  8
YKK_12
  6
YCENTER_1
100
AcDbLine
 10
402.202448961351
 20
352.2814489417688
 30
0.0
 11
402.202448961351
 21
345.2814489417688
 31
0.0
  0
LINE
  5
7E77
102
{ACAD_REACTORS
330
7FBD
330
7FBF
330
7FCB
102
}
330
21
100
AcDbEntity
  8
YKK_12
  6
YCENTER_1
100
AcDbLine
 10
232.702448961351
 20
388.6956625041419
 30
0.0
 11
232.702448961351
 21
426.4456625041416
 31
0.0
1001
GENIUS_GENOBJ-N-CEN_13
1002
{
1000
OWNER
1000
GEN
1002
}
1001
GENIUS_GENODEF_13
1002
{
1000
HIER
1070
     0
1002
}
1002
{
1000
MANEDIT
1070
     0
1002
}
1002
{
1000
NOSEL
1070
     0
1002
}
1002
{
1000
BEHIND
1070
     0
1002
}
1002
{
1000
OTHER
1070
     0
1002
}
1002
{
1000
REACTOR
1002
}
1001
GENIUS_GENCEN_19
1002
{
1040
2.793999999999998
1002
}
  0
LINE
  5
7E78
102
{ACAD_REACTORS
330
7FBC
330
7FBD
102
}
330
21
100
AcDbEntity
  8
YKK_13
  6
YCENTER_1
100
AcDbLine
 10
233.002448961351
 20
391.6956625041419
 30
0.0
 11
233.002448961351
 21
426.4620751175743
 31
0.0
1001
GENIUS_GENOBJ-N-CEN_13
1002
{
1000
OWNER
1000
GEN
1002
}
1001
GENIUS_GENODEF_13
1002
{
1000
HIER
1070
     0
1002
}
1002
{
1000
MANEDIT
1070
     0
1002
}
1002
{
1000
NOSEL
1070
     0
1002
}
1002
{
1000
BEHIND
1070
     0
1002
}
1002
{
1000
OTHER
1070
     0
1002
}
1002
{
1000
REACTOR
1002
}
1001
GENIUS_GENCEN_19
1002
{
1040
2.793999999999998
1002
}
  0
LINE
  5
7E79
102
{ACAD_REACTORS
330
7FBC
330
7FBD
102
}
330
21
100
AcDbEntity
  8
YKK_13
  6
YCENTER_1
100
AcDbLine
 10
232.402448961351
 20
391.6956625041419
 30
0.0
 11
232.402448961351
 21
426.4620751175743
 31
0.0
1001
GENIUS_GENOBJ-N-CEN_13
1002
{
1000
OWNER
1000
GEN
1002
}
1001
GENIUS_GENODEF_13
1002
{
1000
HIER
1070
     0
1002
}
1002
{
1000
MANEDIT
1070
     0
1002
}
1002
{
1000
NOSEL
1070
     0
1002
}
1002
{
1000
BEHIND
1070
     0
1002
}
1002
{
1000
OTHER
1070
     0
1002
}
1002
{
1000
REACTOR
1002
}
1001
GENIUS_GENCEN_19
1002
{
1040
2.793999999999998
1002
}
  0
CIRCLE
  5
7E7A
102
{ACAD_REACTORS
330
7FBC
330
7FBD
102
}
330
21
100
AcDbEntity
  8
YKK_13
100
AcDbCircle
 10
232.702448961351
 20
469.1956625041418
 30
0.0
 40
2.75
  0
CIRCLE
  5
7E7B
102
{ACAD_REACTORS
330
7FBC
330
7FBD
102
}
330
21
100
AcDbEntity
  8
YKK_13
100
AcDbCircle
 10
232.702448961351
 20
429.1956625041416
 30
0.0
 40
2.75
  0
CIRCLE
  5
7E7C
102
{ACAD_REACTORS
330
7FBC
330
7FBD
102
}
330
21
100
AcDbEntity
  8
YKK_13
100
AcDbCircle
 10
212.702448961351
 20
449.1956625041407
 30
0.0
 40
2.75
  0
LINE
  5
7E7D
102
{ACAD_REACTORS
330
7FBD
330
7FBF
102
}
330
21
100
AcDbEntity
  8
YKK_12
  6
YCENTER_1
100
AcDbLine
 10
236.452448961351
 20
469.1956625041418
 30
0.0
 11
228.952448961351
 21
469.1956625041418
 31
0.0
  0
LINE
  5
7E7E
102
{ACAD_REACTORS
330
7FBD
330
7FBF
102
}
330
21
100
AcDbEntity
  8
YKK_12
  6
YCENTER_1
100
AcDbLine
 10
232.702448961351
 20
472.9456625041418
 30
0.0
 11
232.702448961351
 21
465.4456625041418
 31
0.0
  0
LINE
  5
7E7F
102
{ACAD_REACTORS
330
7FBD
330
7FBF
102
}
330
21
100
AcDbEntity
  8
YKK_12
  6
YCENTER_1
100
AcDbLine
 10
236.452448961351
 20
429.1956625041416
 30
0.0
 11
228.952448961351
 21
429.1956625041416
 31
0.0
  0
LINE
  5
7E80
102
{ACAD_REACTORS
330
7FBD
330
7FBF
102
}
330
21
100
AcDbEntity
  8
YKK_12
  6
YCENTER_1
100
AcDbLine
 10
232.702448961351
 20
432.9456625041417
 30
0.0
 11
232.702448961351
 21
425.4456625041417
 31
0.0
  0
LINE
  5
7E81
102
{ACAD_REACTORS
330
7FBC
330
7FBD
102
}
330
21
100
AcDbEntity
  8
YKK_13
100
AcDbLine
 10
212.402448961351
 20
506.6956625041417
 30
0.0
 11
212.402448961351
 21
451.9292498907081
 31
0.0
  0
LINE
  5
7E82
102
{ACAD_REACTORS
330
7FBC
330
7FBD
102
}
330
21
100
AcDbEntity
  8
YKK_13
100
AcDbLine
 10
212.402448961351
 20
446.4620751175734
 30
0.0
 11
212.402448961351
 21
391.6956625041419
 31
0.0
  0
LINE
  5
7E83
102
{ACAD_REACTORS
330
7FBC
330
7FBD
102
}
330
21
100
AcDbEntity
  8
YKK_13
100
AcDbLine
 10
213.0024489613509
 20
506.6956625041417
 30
0.0
 11
213.0024489613509
 21
451.9292498907081
 31
0.0
  0
LINE
  5
7E84
102
{ACAD_REACTORS
330
7FBC
330
7FBD
102
}
330
21
100
AcDbEntity
  8
YKK_13
100
AcDbLine
 10
213.0024489613509
 20
446.4620751175734
 30
0.0
 11
213.0024489613509
 21
391.6956625041419
 31
0.0
  0
LINE
  5
7E85
102
{ACAD_REACTORS
330
7FBD
330
7FBF
102
}
330
21
100
AcDbEntity
  8
YKK_12
  6
YCENTER_1
100
AcDbLine
 10
216.452448961351
 20
449.1956625041407
 30
0.0
 11
249.952448961351
 21
449.1956625041416
 31
0.0
  0
LINE
  5
7E86
102
{ACAD_REACTORS
330
7FBD
330
7FBF
102
}
330
21
100
AcDbEntity
  8
YKK_12
  6
YCENTER_1
100
AcDbLine
 10
255.452448961351
 20
449.1956625041416
 30
0.0
 11
293.202448961351
 21
449.1956625041416
 31
0.0
  0
LINE
  5
7E87
102
{ACAD_REACTORS
330
7FBD
330
7FBF
102
}
330
21
100
AcDbEntity
  8
YKK_12
  6
YCENTER_1
100
AcDbLine
 10
232.702448961351
 20
431.9456625041417
 30
0.0
 11
232.702448961351
 21
465.4456625041418
 31
0.0
  0
LINE
  5
7E88
102
{ACAD_REACTORS
330
7FBC
330
7FBD
102
}
330
21
100
AcDbEntity
  8
YKK_13
100
AcDbLine
 10
233.002448961351
 20
431.9292498907091
 30
0.0
 11
233.002448961351
 21
466.4620751175744
 31
0.0
  0
LINE
  5
7E89
102
{ACAD_REACTORS
330
7FBC
330
7FBD
102
}
330
21
100
AcDbEntity
  8
YKK_13
100
AcDbLine
 10
232.402448961351
 20
431.9292498907091
 30
0.0
 11
232.402448961351
 21
466.4620751175744
 31
0.0
  0
LINE
  5
7E8A
102
{ACAD_REACTORS
330
7FBD
330
7FBF
102
}
330
21
100
AcDbEntity
  8
YKK_12
  6
YCENTER_1
100
AcDbLine
 10
232.702448961351
 20
471.9456625041418
 30
0.0
 11
232.702448961351
 21
509.6956625041417
 31
0.0
  0
LINE
  5
7E8B
102
{ACAD_REACTORS
330
7FBC
330
7FBD
102
}
330
21
100
AcDbEntity
  8
YKK_13
100
AcDbLine
 10
233.002448961351
 20
471.9292498907091
 30
0.0
 11
233.002448961351
 21
506.6956625041417
 31
0.0
  0
LINE
  5
7E8C
102
{ACAD_REACTORS
330
7FBC
330
7FBD
102
}
330
21
100
AcDbEntity
  8
YKK_13
100
AcDbLine
 10
232.402448961351
 20
471.9292498907091
 30
0.0
 11
232.402448961351
 21
506.6956625041417
 31
0.0
  0
LINE
  5
7E8E
102
{ACAD_REACTORS
330
7FBD
330
7FBF
102
}
330
21
100
AcDbEntity
  8
YKK_12
  6
YCENTER_1
100
AcDbLine
 10
216.452448961351
 20
449.1956625041407
 30
0.0
 11
208.952448961351
 21
449.1956625041407
 31
0.0
  0
LINE
  5
7E8F
102
{ACAD_REACTORS
330
7FBD
330
7FBF
102
}
330
21
100
AcDbEntity
  8
YKK_12
  6
YCENTER_1
100
AcDbLine
 10
212.702448961351
 20
452.9456625041407
 30
0.0
 11
212.702448961351
 21
445.4456625041407
 31
0.0
  0
LINE
  5
7E90
102
{ACAD_REACTORS
330
7FBC
330
7FBD
102
}
330
21
100
AcDbEntity
  8
YKK_13
100
AcDbLine
 10
253.0024489613509
 20
506.6956625041417
 30
0.0
 11
253.0024489613509
 21
451.9292498907081
 31
0.0
  0
LINE
  5
7E91
102
{ACAD_REACTORS
330
7FBC
330
7FBD
102
}
330
21
100
AcDbEntity
  8
YKK_13
100
AcDbLine
 10
253.0024489613509
 20
446.4620751175734
 30
0.0
 11
253.0024489613509
 21
391.6956625041419
 31
0.0
  0
LINE
  5
7E92
102
{ACAD_REACTORS
330
7FBC
330
7FBD
102
}
330
21
100
AcDbEntity
  8
YKK_13
100
AcDbLine
 10
252.402448961351
 20
506.6956625041417
 30
0.0
 11
252.402448961351
 21
451.9292498907081
 31
0.0
  0
LINE
  5
7E93
102
{ACAD_REACTORS
330
7FBC
330
7FBD
102
}
330
21
100
AcDbEntity
  8
YKK_13
100
AcDbLine
 10
252.402448961351
 20
446.4620751175734
 30
0.0
 11
252.402448961351
 21
391.6956625041419
 31
0.0
  0
LINE
  5
7E94
102
{ACAD_REACTORS
330
7FBD
330
7FBF
102
}
330
21
100
AcDbEntity
  8
YKK_12
  6
YCENTER_1
100
AcDbLine
 10
248.952448961351
 20
449.1956625041407
 30
0.0
 11
256.452448961351
 21
449.1956625041407
 31
0.0
  0
LINE
  5
7E95
102
{ACAD_REACTORS
330
7FBD
330
7FBF
102
}
330
21
100
AcDbEntity
  8
YKK_12
  6
YCENTER_1
100
AcDbLine
 10
252.702448961351
 20
452.9456625041407
 30
0.0
 11
252.702448961351
 21
445.4456625041407
 31
0.0
  0
CIRCLE
  5
7E96
102
{ACAD_REACTORS
330
7FBC
330
7FBD
102
}
330
21
100
AcDbEntity
  8
YKK_13
100
AcDbCircle
 10
252.702448961351
 20
449.1956625041407
 30
0.0
 40
2.75
  0
LINE
  5
7E99
102
{ACAD_REACTORS
330
7FC8
330
7FCA
330
7FCC
330
7FCD
102
}
330
21
100
AcDbEntity
  8
YKK_13
  6
YHIDDEN_1
100
AcDbLine
 10
235.452448961351
 20
378.7814489417688
 30
0.0
 11
235.452448961351
 21
373.7814489417687
 31
0.0
  0
LINE
  5
7E9A
102
{ACAD_REACTORS
330
7FC8
330
7FCA
330
7FCC
330
7FCD
102
}
330
21
100
AcDbEntity
  8
YKK_13
  6
YHIDDEN_1
100
AcDbLine
 10
229.952448961351
 20
378.7814489417688
 30
0.0
 11
229.952448961351
 21
373.7814489417687
 31
0.0
  0
LINE
  5
7E9B
102
{ACAD_REACTORS
330
7FCE
330
7FCF
102
}
330
21
100
AcDbEntity
  8
YKK_13
  6
YHIDDEN_1
100
AcDbLine
 10
384.952448961351
 20
378.7814489417688
 30
0.0
 11
384.952448961351
 21
373.7814489417689
 31
0.0
  0
LINE
  5
7E9C
102
{ACAD_REACTORS
330
7FCE
330
7FCF
102
}
330
21
100
AcDbEntity
  8
YKK_13
  6
YHIDDEN_1
100
AcDbLine
 10
379.452448961351
 20
378.7814489417688
 30
0.0
 11
379.452448961351
 21
373.7814489417689
 31
0.0
  0
TEXT
  5
9615
330
21
100
AcDbEntity
  8
TABLE1
100
AcDbText
 10
77.88864742250186
 20
564.0
 30
0.0
 40
8.0
  1
品名
 41
0.8
  7
text-b
100
AcDbText
  0
TEXT
  5
9616
330
21
100
AcDbEntity
  8
TABLE1
100
AcDbText
 10
77.67531408916855
 20
552.0
 30
0.0
 40
8.0
  1
種類
 41
0.8
  7
text-b
100
AcDbText
  0
TEXT
  5
9617
330
21
100
AcDbEntity
  8
TABLE1
100
AcDbText
 10
77.67531408916855
 20
540.0
 30
0.0
 40
8.0
  1
型番
 41
0.8
  7
text-b
100
AcDbText
  0
TEXT
  5
9618
330
21
100
AcDbEntity
  8
TABLE1
100
AcDbText
 10
74.04864742250187
 20
413.4999999999998
 30
0.0
 40
8.0
  1
寸法図
 41
0.8
  7
text-b
100
AcDbText
  0
TEXT
  5
9619
330
21
100
AcDbEntity
  8
TABLE1
100
AcDbText
 10
69.99531408916855
 20
287.0
 30
0.0
 40
8.0
  1
外形寸法
 41
0.8
  7
text-b
100
AcDbText
  0
TEXT
  5
961A
330
21
100
AcDbEntity
  8
TABLE1
100
AcDbText
 10
77.67531408916855
 20
263.0
 30
0.0
 40
8.0
  1
材質
 41
0.8
  7
text-b
100
AcDbText
  0
TEXT
  5
961B
330
21
100
AcDbEntity
  8
TABLE1
100
AcDbText
 10
273.7086474225019
 20
564.0
 30
0.0
 40
8.0
  1
Ｃ型ジョイント材
 41
0.8
  7
text-b
100
AcDbText
  0
TEXT
  5
961C
330
21
100
AcDbEntity
  8
TABLE1
100
AcDbText
 10
262.6153140891686
 20
552.0
 30
0.0
 40
8.0
  1
120角用　ジョイント材
 41
0.8
  7
text-b
100
AcDbText
  0
TEXT
  5
961D
330
21
100
AcDbEntity
  8
TABLE1
100
AcDbText
 10
283.9486474225019
 20
540.0
 30
0.0
 40
8.0
  1
6K-18204
 41
0.8
  7
text-b
100
AcDbText
  0
TEXT
  5
961E
330
21
100
AcDbEntity
  8
TABLE1
100
AcDbText
 10
273.7086474225019
 20
287.0
 30
0.0
 40
8.0
  1
115×115×H45
 41
0.8
  7
text-b
100
AcDbText
  0
TEXT
  5
961F
330
21
100
AcDbEntity
  8
TABLE1
100
AcDbText
 10
289.0686474225019
 20
263.0
 30
0.0
 40
8.0
  1
A6063S
 41
0.8
  7
text-b
100
AcDbText
  0
TEXT
  5
9620
330
21
100
AcDbEntity
  8
TABLE1
100
AcDbText
 10
291.4153140891685
 20
251.0
 30
0.0
 40
8.0
  1
2.594
 41
0.8
  7
text-b
100
AcDbText
  0
TEXT
  5
9621
330
21
100
AcDbEntity
  8
USER1
100
AcDbText
 10
145.7797312742001
 20
508.8470620292136
 30
0.0
 40
7.0
  1
X
 41
0.8
  7
text-b
100
AcDbText
  0
TEXT
  5
9622
330
21
100
AcDbEntity
  8
USER1
100
AcDbText
 10
161.4936570357937
 20
525.3916152452866
 30
0.0
 40
7.0
  1
Y
 41
0.8
  7
text-b
100
AcDbText
  0
TEXT
  5
9623
330
21
100
AcDbEntity
  8
TABLE1
100
AcDbText
 10
62.31531408916854
 20
275.0
 30
0.0
 40
8.0
  1
ユニット記号
 41
0.8
  7
text-b
100
AcDbText
  0
TEXT
  5
9624
330
21
100
AcDbEntity
  8
TABLE1
100
AcDbText
 10
278.8286474225019
 20
275.0
 30
0.0
 40
8.0
  1
AHY-BC12-2
 41
0.8
  7
text-b
100
AcDbText
  0
TEXT
  5
9625
330
21
100
AcDbEntity
  8
USER1
100
AcDbText
 10
482.8815230892256
 20
204.774024392951
 30
0.0
 40
8.0
  1
※材質はJIS H 4100による
 41
0.8
  7
text-b
100
AcDbText
  0
LINE
  5
9626
330
21
100
AcDbEntity
  8
YKK_12
100
AcDbLine
 10
479.001980755835
 20
215.7718570235478
 30
0.0
 11
590.8163077279008
 21
215.7718570235478
 31
0.0
  0
LINE
  5
9627
330
21
100
AcDbEntity
  8
YKK_12
100
AcDbLine
 10
590.8163077279008
 20
215.7718570235478
 30
0.0
 11
590.8163077279008
 21
200.9999999999999
 31
0.0
  0
LINE
  5
9628
330
21
100
AcDbEntity
  8
YKK_12
100
AcDbLine
 10
590.8163077279008
 20
200.9999999999999
 30
0.0
 11
479.001980755835
 21
200.9999999999999
 31
0.0
  0
LINE
  5
9629
330
21
100
AcDbEntity
  8
YKK_12
100
AcDbLine
 10
479.001980755835
 20
200.9999999999999
 30
0.0
 11
479.001980755835
 21
215.7718570235478
 31
0.0
  0
TEXT
  5
962A
330
21
100
AcDbEntity
  8
TABLE1
100
AcDbText
 10
60.60864742250188
 20
251.0
 30
0.0
 40
8.0
  1
単重（㎏/m）
 41
0.8
  7
text-b
100
AcDbText
  0
TEXT
  5
962B
330
21
100
AcDbEntity
  8
USER1
100
AcDbText
 10
445.3850439817361
 20
302.1555355090236
 30
0.0
 40
8.0
  1
t=5
 41
0.8
  7
text-b
100
AcDbText
  0
TEXT
  5
962C
330
21
100
AcDbEntity
  8
TABLE1
100
AcDbText
 10
291.4153140891685
 20
239.0000000000001
 30
0.0
 40
8.0
  1
16.04
 41
0.8
  7
text-b
100
AcDbText
  0
TEXT
  5
962D
330
21
100
AcDbEntity
  8
TABLE1
100
AcDbText
 10
35.79531408916855
 20
239.6666666666667
 30
0.0
 40
8.0
  1
断面二次モーメント
 41
0.8
  7
text-b
100
AcDbText
  0
TEXT
  5
962E
330
21
100
AcDbEntity
  8
TABLE1
100
AcDbText
 10
58.40864742250187
 20
226.3333333333334
 30
0.0
 40
8.0
  1
(cm
 41
0.8
  7
text-b
100
AcDbText
  0
TEXT
  5
962F
330
21
100
AcDbEntity
  8
TABLE1
100
AcDbText
 10
73.76864742250186
 20
230.3333333333334
 30
0.0
 40
4.0
  1
4
 41
0.8
  7
text-b
100
AcDbText
  0
TEXT
  5
9630
330
21
100
AcDbEntity
  8
TABLE1
100
AcDbText
 10
76.32864742250186
 20
226.3333333333334
 30
0.0
 40
8.0
  1
)
 41
0.8
  7
text-b
100
AcDbText
  0
TEXT
  5
9631
330
21
100
AcDbEntity
  8
TABLE1
100
AcDbText
 10
288.8553140891687
 20
227.0000000000001
 30
0.0
 40
8.0
  1
180.17
 41
0.8
  7
text-b
100
AcDbText
  0
TEXT
  5
9632
330
21
100
AcDbEntity
  8
TABLE1
100
AcDbText
 10
293.9753140891686
 20
215.0
 30
0.0
 40
8.0
  1
4.76
 41
0.8
  7
text-b
100
AcDbText
  0
TEXT
  5
9633
330
21
100
AcDbEntity
  8
TABLE1
100
AcDbText
 10
54.99531408916853
 20
215.6666666666667
 30
0.0
 40
8.0
  1
断面係数
 41
0.8
  7
text-b
100
AcDbText
  0
TEXT
  5
9634
330
21
100
AcDbEntity
  8
TABLE1
100
AcDbText
 10
55.84864742250187
 20
202.3333333333333
 30
0.0
 40
8.0
  1
（cm
 41
0.8
  7
text-b
100
AcDbText
  0
TEXT
  5
9635
330
21
100
AcDbEntity
  8
TABLE1
100
AcDbText
 10
74.19531408916853
 20
206.3333333333333
 30
0.0
 40
4.0
  1
3
 41
0.8
  7
text-b
100
AcDbText
  0
TEXT
  5
9636
330
21
100
AcDbEntity
  8
TABLE1
100
AcDbText
 10
76.75531408916853
 20
202.3333333333333
 30
0.0
 40
8.0
  1
）
 41
0.8
  7
text-b
100
AcDbText
  0
TEXT
  5
9637
330
21
100
AcDbEntity
  8
TABLE1
100
AcDbText
 10
291.4153140891685
 20
203.0
 30
0.0
 40
8.0
  1
31.33
 41
0.8
  7
text-b
100
AcDbText
  0
TEXT
  5
9638
330
21
100
AcDbEntity
  8
TABLE1
100
AcDbText
 10
119.3086474225019
 20
239.0000000000001
 30
0.0
 40
8.0
  1
Ix
 41
0.8
  7
text-b
100
AcDbText
  0
TEXT
  5
9639
330
21
100
AcDbEntity
  8
TABLE1
100
AcDbText
 10
119.3086474225019
 20
227.0
 30
0.0
 40
8.0
  1
Iy
 41
0.8
  7
text-b
100
AcDbText
  0
TEXT
  5
963A
330
21
100
AcDbEntity
  8
TABLE1
100
AcDbText
 10
119.3086474225019
 20
215.0000000000002
 30
0.0
 40
8.0
  1
Zx
 41
0.8
  7
text-b
100
AcDbText
  0
TEXT
  5
963B
330
21
100
AcDbEntity
  8
TABLE1
100
AcDbText
 10
119.3086474225019
 20
203.0000000000001
 30
0.0
 40
8.0
  1
Zy
 41
0.8
  7
text-b
100
AcDbText
  0
LINE
  5
963C
330
21
100
AcDbEntity
  8
YKK_D
100
AcDbLine
 10
175.202448961351
 20
336.6956625041419
 30
0.0
 11
175.202448961351
 21
322.786578964275
 31
0.0
  0
LINE
  5
963D
330
21
100
AcDbEntity
  8
YKK_D
100
AcDbLine
 10
290.202448961351
 20
336.6956625041419
 30
0.0
 11
290.202448961351
 21
322.786578964275
 31
0.0
  0
LINE
  5
963E
330
21
100
AcDbEntity
  8
YKK_D
100
AcDbLine
 10
176.902448961351
 20
323.786578964275
 30
0.0
 11
288.502448961351
 21
323.786578964275
 31
0.0
  0
LINE
  5
9642
330
21
100
AcDbEntity
  8
YKK_D
100
AcDbLine
 10
324.702448961351
 20
332.7814489417688
 30
0.0
 11
324.702448961351
 21
312.7814489417688
 31
0.0
  0
LINE
  5
9643
330
21
100
AcDbEntity
  8
YKK_D
100
AcDbLine
 10
439.702448961351
 20
332.7814489417688
 30
0.0
 11
439.702448961351
 21
312.7814489417688
 31
0.0
  0
LINE
  5
9644
330
21
100
AcDbEntity
  8
YKK_D
100
AcDbLine
 10
326.402448961351
 20
313.7814489417688
 30
0.0
 11
438.002448961351
 21
313.7814489417688
 31
0.0
  0
LINE
  5
9648
330
21
100
AcDbEntity
  8
YKK_D
100
AcDbLine
 10
440.7024489613511
 20
378.7814489417689
 30
0.0
 11
450.7024489613593
 21
378.7814489417689
 31
0.0
  0
LINE
  5
9649
330
21
100
AcDbEntity
  8
YKK_D
100
AcDbLine
 10
406.702448961351
 20
348.7814489417689
 30
0.0
 11
450.7024489613593
 21
348.7814489417689
 31
0.0
  0
LINE
  5
964A
330
21
100
AcDbEntity
  8
YKK_D
100
AcDbLine
 10
449.7024489613592
 20
377.0814489417689
 30
0.0
 11
449.7024489613592
 21
350.4814489417689
 31
0.0
  0
LINE
  5
964E
330
21
100
AcDbEntity
  8
YKK_D
100
AcDbLine
 10
362.202448961351
 20
344.2814489417687
 30
0.0
 11
362.202448961351
 21
322.7814489417688
 31
0.0
  0
LINE
  5
964F
330
21
100
AcDbEntity
  8
YKK_D
100
AcDbLine
 10
402.202448961351
 20
344.2814489417687
 30
0.0
 11
402.202448961351
 21
322.7814489417688
 31
0.0
  0
LINE
  5
9650
330
21
100
AcDbEntity
  8
YKK_D
100
AcDbLine
 10
363.902448961351
 20
323.7814489417687
 30
0.0
 11
400.502448961351
 21
323.7814489417687
 31
0.0
  0
LINE
  5
9654
330
21
100
AcDbEntity
  8
YKK_D
100
AcDbLine
 10
427.9538281966813
 20
323.7814489417686
 30
0.0
 11
414.2738281966811
 21
323.7814489417686
 31
0.0
  0
LINE
  5
9655
330
21
100
AcDbEntity
  8
YKK_D
100
AcDbLine
 10
414.2738281966811
 20
323.7814489417686
 30
0.0
 11
404.0286911778356
 21
344.9992750474682
 31
0.0
  0
LINE
  5
9658
330
21
100
AcDbEntity
  8
YKK_D
100
AcDbLine
 10
290.2024489613511
 20
378.781448941769
 30
0.0
 11
304.2024489613569
 21
378.781448941769
 31
0.0
  0
LINE
  5
9659
330
21
100
AcDbEntity
  8
YKK_D
100
AcDbLine
 10
287.2024489613512
 20
333.781448941769
 30
0.0
 11
304.2024489613569
 21
333.781448941769
 31
0.0
  0
LINE
  5
965A
330
21
100
AcDbEntity
  8
YKK_D
100
AcDbLine
 10
303.2024489613569
 20
377.081448941769
 30
0.0
 11
303.2024489613569
 21
335.481448941769
 31
0.0
  0
LINE
  5
965E
330
21
100
AcDbEntity
  8
YKK_D
100
AcDbLine
 10
237.4524489613511
 20
469.1956625041418
 30
0.0
 11
304.2024489613571
 21
469.1956625041418
 31
0.0
  0
LINE
  5
965F
330
21
100
AcDbEntity
  8
YKK_D
100
AcDbLine
 10
237.4524489613511
 20
429.195662504142
 30
0.0
 11
304.2024489613571
 21
429.195662504142
 31
0.0
  0
LINE
  5
9660
330
21
100
AcDbEntity
  8
YKK_D
100
AcDbLine
 10
303.2024489613572
 20
467.4956625041422
 30
0.0
 11
303.2024489613572
 21
430.8956625041418
 31
0.0
  0
LINE
  5
9664
330
21
100
AcDbEntity
  8
YKK_D
100
AcDbLine
 10
212.702448961351
 20
453.9456625041407
 30
0.0
 11
212.702448961351
 21
517.6956625041416
 31
0.0
  0
LINE
  5
9665
330
21
100
AcDbEntity
  8
YKK_D
100
AcDbLine
 10
252.702448961351
 20
453.9456625041407
 30
0.0
 11
252.702448961351
 21
517.6956625041416
 31
0.0
  0
LINE
  5
9666
330
21
100
AcDbEntity
  8
YKK_D
100
AcDbLine
 10
214.402448961351
 20
516.6956625041416
 30
0.0
 11
251.002448961351
 21
516.6956625041416
 31
0.0
  0
LINE
  5
966A
330
21
100
AcDbEntity
  8
YKK_D
100
AcDbLine
 10
291.2071148907381
 20
516.6956625041406
 30
0.0
 11
270.5271148907353
 21
516.6956625041408
 31
0.0
  0
LINE
  5
966B
330
21
100
AcDbEntity
  8
YKK_D
100
AcDbLine
 10
270.5271148907353
 20
516.6956625041408
 30
0.0
 11
235.4744996841377
 21
472.6767880103968
 31
0.0
  0
ARC
  5
966E
330
21
100
AcDbEntity
  8
YKK_13
  6
ByBlock
100
AcDbCircle
 10
232.2441913918555
 20
378.5814489417687
 30
0.0
 40
0.2000000000000455
100
AcDbArc
 50
23.57817847821118
 51
90.00000000000813
  0
ARC
  5
966F
330
21
100
AcDbEntity
  8
YKK_13
  6
ByBlock
100
AcDbCircle
 10
232.702448961351
 20
378.7814489417688
 30
0.0
 40
0.2999999999999536
100
AcDbArc
 50
203.5781784782066
 51
336.4218215217933
  0
ARC
  5
9670
330
21
100
AcDbEntity
  8
YKK_13
  6
ByBlock
100
AcDbCircle
 10
233.1607065308465
 20
378.5814489417687
 30
0.0
 40
0.2000000000000277
100
AcDbArc
 50
89.99999999999186
 51
156.4218215217888
  0
LINE
  5
9671
330
21
100
AcDbEntity
  8
YKK_13
  6
ByBlock
100
AcDbLine
 10
233.1607065308466
 20
378.7814489417688
 30
0.0
 11
252.2441913918554
 21
378.7814489417688
 31
0.0
  0
ARC
  5
9672
330
21
100
AcDbEntity
  8
YKK_13
  6
ByBlock
100
AcDbCircle
 10
252.2441913918555
 20
378.5814489417687
 30
0.0
 40
0.2000000000000455
100
AcDbArc
 50
23.57817847821118
 51
90.00000000000813
  0
ARC
  5
9673
330
21
100
AcDbEntity
  8
YKK_13
  6
ByBlock
100
AcDbCircle
 10
252.702448961351
 20
378.7814489417688
 30
0.0
 40
0.2999999999999536
100
AcDbArc
 50
203.5781784782066
 51
336.4218215217933
  0
ARC
  5
9674
330
21
100
AcDbEntity
  8
YKK_13
  6
ByBlock
100
AcDbCircle
 10
253.1607065308465
 20
378.5814489417687
 30
0.0
 40
0.2000000000000277
100
AcDbArc
 50
89.99999999999186
 51
156.4218215217888
  0
LINE
  5
9675
330
21
100
AcDbEntity
  8
YKK_13
  6
ByBlock
100
AcDbLine
 10
253.1607065308466
 20
378.7814489417688
 30
0.0
 11
289.202448961351
 21
378.7814489417688
 31
0.0
  0
ARC
  5
9676
330
21
100
AcDbEntity
  8
YKK_13
  6
ByBlock
100
AcDbCircle
 10
289.202448961351
 20
377.7814489417687
 30
0.0
 40
1.0
100
AcDbArc
 50
0.0
 51
90.0
  0
LINE
  5
9677
330
21
100
AcDbEntity
  8
YKK_13
  6
ByBlock
100
AcDbLine
 10
290.202448961351
 20
377.7814489417687
 30
0.0
 11
290.202448961351
 21
349.2397065112642
 31
0.0
  0
ARC
  5
9678
330
21
100
AcDbEntity
  8
YKK_13
  6
ByBlock
100
AcDbCircle
 10
290.002448961351
 20
349.2397065112643
 30
0.0
 40
0.1999999999999886
100
AcDbArc
 50
293.5781784781995
 51
359.9999999999837
  0
ARC
  5
9679
330
21
100
AcDbEntity
  8
YKK_13
  6
ByBlock
100
AcDbCircle
 10
290.202448961351
 20
348.7814489417687
 30
0.0
 40
0.3000000000000578
100
AcDbArc
 50
113.5781784781979
 51
246.421821521802
  0
ARC
  5
967A
330
21
100
AcDbEntity
  8
YKK_13
  6
ByBlock
100
AcDbCircle
 10
290.002448961351
 20
348.323191372273
 30
0.0
 40
0.1999999999999789
100
AcDbArc
 50
0.0000000000162844
 51
66.42182152180051
  0
LINE
  5
967B
330
21
100
AcDbEntity
  8
YKK_13
  6
ByBlock
100
AcDbLine
 10
290.202448961351
 20
348.3231913722731
 30
0.0
 11
290.202448961351
 21
337.6956625041418
 31
0.0
  0
ARC
  5
967C
330
21
100
AcDbEntity
  8
YKK_13
  6
ByBlock
100
AcDbCircle
 10
289.202448961351
 20
337.6956625041418
 30
0.0
 40
1.0
100
AcDbArc
 50
315.0
 51
0.0
  0
LINE
  5
967D
330
21
100
AcDbEntity
  8
YKK_13
  6
ByBlock
100
AcDbLine
 10
289.9095557425376
 20
336.9885557229552
 30
0.0
 11
286.9953421801646
 21
334.0743421605822
 31
0.0
  0
ARC
  5
967E
330
21
100
AcDbEntity
  8
YKK_13
  6
ByBlock
100
AcDbCircle
 10
286.288235398978
 20
334.7814489417689
 30
0.0
 40
1.000000000000127
100
AcDbArc
 50
269.9999999999968
 51
314.9999999999977
  0
LINE
  5
967F
330
21
100
AcDbEntity
  8
YKK_13
  6
ByBlock
100
AcDbLine
 10
286.2882353989779
 20
333.7814489417687
 30
0.0
 11
286.202448961351
 21
333.7814489417687
 31
0.0
  0
ARC
  5
9680
330
21
100
AcDbEntity
  8
YKK_13
  6
ByBlock
100
AcDbCircle
 10
286.202448961351
 20
334.7814489417688
 30
0.0
 40
1.0
100
AcDbArc
 50
180.0
 51
270.0
  0
LINE
  5
9681
330
21
100
AcDbEntity
  8
YKK_13
  6
ByBlock
100
AcDbLine
 10
285.202448961351
 20
334.7814489417688
 30
0.0
 11
285.202448961351
 21
373.4814489417687
 31
0.0
  0
ARC
  5
9682
330
21
100
AcDbEntity
  8
YKK_13
  6
ByBlock
100
AcDbCircle
 10
284.902448961351
 20
373.4814489417687
 30
0.0
 40
0.3000000000000114
100
AcDbArc
 50
359.9999999999891
 51
89.99999999998914
  0
LINE
  5
9683
330
21
100
AcDbEntity
  8
YKK_13
  6
ByBlock
100
AcDbLine
 10
284.902448961351
 20
373.7814489417687
 30
0.0
 11
253.1607065308466
 21
373.7814489417687
 31
0.0
  0
ARC
  5
9684
330
21
100
AcDbEntity
  8
YKK_13
  6
ByBlock
100
AcDbCircle
 10
253.1607065308465
 20
373.9814489417688
 30
0.0
 40
0.1999999999999886
100
AcDbArc
 50
203.5781784782359
 51
270.0000000000326
  0
ARC
  5
9685
330
21
100
AcDbEntity
  8
YKK_13
  6
ByBlock
100
AcDbCircle
 10
252.702448961351
 20
373.7814489417687
 30
0.0
 40
0.2999999999999536
100
AcDbArc
 50
23.57817847820664
 51
156.4218215217933
  0
ARC
  5
9686
330
21
100
AcDbEntity
  8
YKK_13
  6
ByBlock
100
AcDbCircle
 10
252.2441913918555
 20
373.9814489417688
 30
0.0
 40
0.1999999999999722
100
AcDbArc
 50
269.9999999999674
 51
336.4218215217641
  0
LINE
  5
9687
330
21
100
AcDbEntity
  8
YKK_13
  6
ByBlock
100
AcDbLine
 10
252.2441913918554
 20
373.7814489417687
 30
0.0
 11
233.1607065308466
 21
373.7814489417687
 31
0.0
  0
ARC
  5
9688
330
21
100
AcDbEntity
  8
YKK_13
  6
ByBlock
100
AcDbCircle
 10
233.1607065308464
 20
373.9814489417688
 30
0.0
 40
0.1999999999999886
100
AcDbArc
 50
203.5781784782359
 51
270.0000000000326
  0
ARC
  5
9689
330
21
100
AcDbEntity
  8
YKK_13
  6
ByBlock
100
AcDbCircle
 10
232.702448961351
 20
373.7814489417687
 30
0.0
 40
0.2999999999999536
100
AcDbArc
 50
23.57817847820664
 51
156.4218215217933
  0
ARC
  5
968A
330
21
100
AcDbEntity
  8
YKK_13
  6
ByBlock
100
AcDbCircle
 10
232.2441913918555
 20
373.9814489417688
 30
0.0
 40
0.1999999999999722
100
AcDbArc
 50
269.9999999999674
 51
336.4218215217641
  0
LINE
  5
968B
330
21
100
AcDbEntity
  8
YKK_13
  6
ByBlock
100
AcDbLine
 10
232.2441913918554
 20
373.7814489417687
 30
0.0
 11
213.1607065308465
 21
373.7814489417687
 31
0.0
  0
ARC
  5
968C
330
21
100
AcDbEntity
  8
YKK_13
  6
ByBlock
100
AcDbCircle
 10
213.1607065308465
 20
373.9814489417688
 30
0.0
 40
0.2000000000000455
100
AcDbArc
 50
203.5781784782112
 51
270.0000000000081
  0
ARC
  5
968D
330
21
100
AcDbEntity
  8
YKK_13
  6
ByBlock
100
AcDbCircle
 10
212.702448961351
 20
373.7814489417687
 30
0.0
 40
0.2999999999999536
100
AcDbArc
 50
23.57817847820664
 51
156.4218215217933
  0
ARC
  5
968E
330
21
100
AcDbEntity
  8
YKK_13
  6
ByBlock
100
AcDbCircle
 10
212.2441913918554
 20
373.9814489417688
 30
0.0
 40
0.2000000000000277
100
AcDbArc
 50
269.9999999999919
 51
336.4218215217888
  0
LINE
  5
968F
330
21
100
AcDbEntity
  8
YKK_13
  6
ByBlock
100
AcDbLine
 10
212.2441913918554
 20
373.7814489417687
 30
0.0
 11
180.5024488148581
 21
373.7814489417687
 31
0.0
  0
ARC
  5
9690
330
21
100
AcDbEntity
  8
YKK_13
  6
ByBlock
100
AcDbCircle
 10
180.5024488148581
 20
373.4814489417687
 30
0.0
 40
0.3000000000000114
100
AcDbArc
 50
89.99999999999458
 51
179.9999999999891
  0
LINE
  5
9691
330
21
100
AcDbEntity
  8
YKK_13
  6
ByBlock
100
AcDbLine
 10
180.2024488148581
 20
373.4814489417688
 30
0.0
 11
180.2024488148582
 21
334.7814489417688
 31
0.0
  0
ARC
  5
9692
330
21
100
AcDbEntity
  8
YKK_13
  6
ByBlock
100
AcDbCircle
 10
179.2024488148582
 20
334.7814489417688
 30
0.0
 40
1.0
100
AcDbArc
 50
270.0
 51
0.0
  0
LINE
  5
9693
330
21
100
AcDbEntity
  8
YKK_13
  6
ByBlock
100
AcDbLine
 10
179.2024488148582
 20
333.7814489417687
 30
0.0
 11
179.1166623772311
 21
333.7814489417687
 31
0.0
  0
ARC
  5
9694
330
21
100
AcDbEntity
  8
YKK_13
  6
ByBlock
100
AcDbCircle
 10
179.1166623772311
 20
334.7814489417688
 30
0.0
 40
1.0
100
AcDbArc
 50
225.0
 51
270.0
  0
LINE
  5
9695
330
21
100
AcDbEntity
  8
YKK_13
  6
ByBlock
100
AcDbLine
 10
178.4095555960447
 20
334.0743421605822
 30
0.0
 11
175.4953420336715
 21
336.9885557229552
 31
0.0
  0
ARC
  5
9696
330
21
100
AcDbEntity
  8
YKK_13
  6
ByBlock
100
AcDbCircle
 10
176.2024488148582
 20
337.6956625041416
 30
0.0
 40
0.9999999999999275
100
AcDbArc
 50
179.9999999999902
 51
224.9999999999908
  0
LINE
  5
9697
330
21
100
AcDbEntity
  8
YKK_13
  6
ByBlock
100
AcDbLine
 10
175.2024488148582
 20
337.6956625041418
 30
0.0
 11
175.2024488148582
 21
348.3231913722731
 31
0.0
  0
ARC
  5
9698
330
21
100
AcDbEntity
  8
YKK_13
  6
ByBlock
100
AcDbCircle
 10
175.4024488148581
 20
348.3231913722732
 30
0.0
 40
0.1999999999999602
100
AcDbArc
 50
113.5781784782284
 51
180.0000000000325
  0
ARC
  5
9699
330
21
100
AcDbEntity
  8
YKK_13
  6
ByBlock
100
AcDbCircle
 10
175.2024488148581
 20
348.7814489417687
 30
0.0
 40
0.3000000000000057
100
AcDbArc
 50
293.5781784782023
 51
66.42182152179771
  0
ARC
  5
969A
330
21
100
AcDbEntity
  8
YKK_13
  6
ByBlock
100
AcDbCircle
 10
175.4024488148581
 20
349.2397065112641
 30
0.0
 40
0.1999999999998747
100
AcDbArc
 50
179.9999999999837
 51
246.4218215217874
  0
LINE
  5
969B
330
21
100
AcDbEntity
  8
YKK_13
  6
ByBlock
100
AcDbLine
 10
175.2024488148582
 20
349.2397065112642
 30
0.0
 11
175.2024488148581
 21
377.7814489417687
 31
0.0
  0
ARC
  5
969C
330
21
100
AcDbEntity
  8
YKK_13
  6
ByBlock
100
AcDbCircle
 10
176.2024488148581
 20
377.7814489417687
 30
0.0
 40
1.0
100
AcDbArc
 50
90.0
 51
180.0
  0
LINE
  5
969D
330
21
100
AcDbEntity
  8
YKK_13
  6
ByBlock
100
AcDbLine
 10
176.2024488148581
 20
378.7814489417688
 30
0.0
 11
212.2441913918554
 21
378.7814489417688
 31
0.0
  0
ARC
  5
969E
330
21
100
AcDbEntity
  8
YKK_13
  6
ByBlock
100
AcDbCircle
 10
212.2441913918554
 20
378.5814489417687
 30
0.0
 40
0.2000000000000455
100
AcDbArc
 50
23.57817847821118
 51
90.00000000000813
  0
ARC
  5
969F
330
21
100
AcDbEntity
  8
YKK_13
  6
ByBlock
100
AcDbCircle
 10
212.702448961351
 20
378.7814489417688
 30
0.0
 40
0.2999999999999536
100
AcDbArc
 50
203.5781784782066
 51
336.4218215217933
  0
ARC
  5
96A0
330
21
100
AcDbEntity
  8
YKK_13
  6
ByBlock
100
AcDbCircle
 10
213.1607065308465
 20
378.5814489417687
 30
0.0
 40
0.2000000000000277
100
AcDbArc
 50
89.99999999999186
 51
156.4218215217888
  0
LINE
  5
96A1
330
21
100
AcDbEntity
  8
YKK_13
  6
ByBlock
100
AcDbLine
 10
213.1607065308465
 20
378.7814489417688
 30
0.0
 11
232.2441913918554
 21
378.7814489417688
 31
0.0
  0
LINE
  5
96A2
330
21
100
AcDbEntity
  8
YKK_D
100
AcDbLine
 10
291.2024489613511
 20
506.6956625041418
 30
0.0
 11
316.9446758114833
 21
506.6956625041418
 31
0.0
  0
LINE
  5
96A3
330
21
100
AcDbEntity
  8
YKK_D
100
AcDbLine
 10
291.2024489613511
 20
391.695662504142
 30
0.0
 11
316.9446758114833
 21
391.695662504142
 31
0.0
  0
LINE
  5
96A4
330
21
100
AcDbEntity
  8
YKK_D
100
AcDbLine
 10
315.9446758114833
 20
504.995662504142
 30
0.0
 11
315.9446758114833
 21
393.395662504142
 31
0.0
  0
LINE
  5
96A8
330
21
100
AcDbEntity
  8
YKK_ZWAK
100
AcDbLine
 10
810.0019807558352
 20
44.5
 30
0.0
 11
30.00198075583521
 21
44.5
 31
0.0
1001
ACDBBLOCKREPETAG
1070
     1
1071
        0
1005
0
  0
LINE
  5
96A9
330
21
100
AcDbEntity
  8
YKK_ZWAK
100
AcDbLine
 10
810.0019807558352
 20
574.5
 30
0.0
 11
30.00198075583521
 21
574.5
 31
0.0
1001
ACDBBLOCKREPETAG
1070
     1
1071
        1
1005
0
  0
LINE
  5
96AA
330
21
100
AcDbEntity
  8
YKK_ZWAK
100
AcDbLine
 10
420.0019807558351
 20
7.5
 30
0.0
 11
550.0019807558352
 21
7.5
 31
0.0
1001
ACDBBLOCKREPETAG
1070
     1
1071
        2
1005
0
  0
LINE
  5
96AB
330
21
100
AcDbEntity
  8
YKK_ZWAK
100
AcDbLine
 10
420.0019807558351
 20
25.0
 30
0.0
 11
550.0019807558352
 21
25.0
 31
0.0
1001
ACDBBLOCKREPETAG
1070
     1
1071
        3
1005
0
  0
LINE
  5
96AC
330
21
100
AcDbEntity
  8
YKK_ZWAK
100
AcDbLine
 10
550.0019807558352
 20
42.5
 30
0.0
 11
420.0019807558351
 21
42.5
 31
0.0
1001
ACDBBLOCKREPETAG
1070
     1
1071
        4
1005
0
  0
LINE
  5
96AD
330
21
100
AcDbEntity
  8
YKK_ZWAK
100
AcDbLine
 10
30.00198075583521
 20
44.5
 30
0.0
 11
30.00198075583521
 21
574.5
 31
0.0
1001
ACDBBLOCKREPETAG
1070
     1
1071
        5
1005
0
  0
LINE
  5
96AE
330
21
100
AcDbEntity
  8
YKK_ZWAK
100
AcDbLine
 10
30.00198075583521
 20
7.5
 30
0.0
 11
290.0019807558352
 21
7.5
 31
0.0
1001
ACDBBLOCKREPETAG
1070
     1
1071
        6
1005
0
  0
LINE
  5
96AF
330
21
100
AcDbEntity
  8
YKK_ZWAK
100
AcDbLine
 10
290.0019807558352
 20
42.5
 30
0.0
 11
30.00198075583521
 21
42.5
 31
0.0
1001
ACDBBLOCKREPETAG
1070
     1
1071
        7
1005
0
  0
LINE
  5
96B0
330
21
100
AcDbEntity
  8
YKK_ZWAK
100
AcDbLine
 10
34.25198075583522
 20
14.5
 30
0.0
 11
285.0019807558352
 21
14.5
 31
0.0
1001
ACDBBLOCKREPETAG
1070
     1
1071
        8
1005
0
  0
LINE
  5
96B1
330
21
100
AcDbEntity
  8
YKK_ZWAK
100
AcDbLine
 10
34.25198075583522
 20
21.5
 30
0.0
 11
285.0019807558352
 21
21.5
 31
0.0
1001
ACDBBLOCKREPETAG
1070
     1
1071
        9
1005
0
  0
LINE
  5
96B2
330
21
100
AcDbEntity
  8
YKK_ZWAK
100
AcDbLine
 10
34.25198075583522
 20
28.5
 30
0.0
 11
285.0019807558352
 21
28.5
 31
0.0
1001
ACDBBLOCKREPETAG
1070
     1
1071
       10
1005
0
  0
LINE
  5
96B3
330
21
100
AcDbEntity
  8
YKK_ZWAK
100
AcDbLine
 10
34.25198075583522
 20
35.5
 30
0.0
 11
285.0019807558352
 21
35.5
 31
0.0
1001
ACDBBLOCKREPETAG
1070
     1
1071
       11
1005
0
  0
LINE
  5
96B4
330
21
100
AcDbEntity
  8
YKK_ZWAK
100
AcDbLine
 10
30.00198075583521
 20
7.5
 30
0.0
 11
30.00198075583521
 21
42.5
 31
0.0
1001
ACDBBLOCKREPETAG
1070
     1
1071
       12
1005
0
  0
TEXT
  5
96B5
330
21
100
AcDbEntity
  8
YKK_ZWAK
100
AcDbText
 10
34.36899618750337
 20
37.0
 30
0.0
 40
3.0
  1
変  更  記  事
 41
0.7999999999999972
  7
text-b
100
AcDbText
1001
ACDBBLOCKREPETAG
1070
     1
1071
       13
1005
0
  0
LINE
  5
96B6
330
21
100
AcDbEntity
  8
YKK_ZWAK
100
AcDbLine
 10
290.0019807558352
 20
42.5
 30
0.0
 11
290.0019807558352
 21
7.5
 31
0.0
1001
ACDBBLOCKREPETAG
1070
     1
1071
       14
1005
0
  0
LINE
  5
96B7
330
21
100
AcDbEntity
  8
YKK_ZWAK
100
AcDbLine
 10
420.0019807558351
 20
44.5
 30
0.0
 11
420.0019807558351
 21
7.5
 31
0.0
1001
ACDBBLOCKREPETAG
1070
     1
1071
       15
1005
0
  0
LINE
  5
96B8
330
21
100
AcDbEntity
  8
YKK_ZWAK
100
AcDbLine
 10
290.0019807558352
 20
7.5
 30
0.0
 11
420.0019807558351
 21
7.5
 31
0.0
1001
ACDBBLOCKREPETAG
1070
     1
1071
       16
1005
0
  0
TEXT
  5
96B9
330
21
100
AcDbEntity
  8
YKK_ZWAK
100
AcDbText
 10
413.1333333333333
 20
12.41666666666667
 30
0.0
 40
4.999999999999998
  1
殿
 41
0.8000000000000117
  7
text-b
 72
     4
 11
415.0
 21
14.75
 31
0.0
100
AcDbText
1001
ACDBBLOCKREPETAG
1070
     1
1071
       17
1005
0
  0
POINT
  5
96BA
330
21
100
AcDbEntity
  8
YKK_ZWAK
100
AcDbPoint
 10
420.0019807558351
 20
7.5
 30
0.0
1001
ACDBBLOCKREPETAG
1070
     1
1071
       18
1005
0
  0
LINE
  5
96BB
330
21
100
AcDbEntity
  8
YKK_ZWAK
100
AcDbLine
 10
290.7519807558352
 20
25.0
 30
0.0
 11
420.0019807558351
 21
25.0
 31
0.0
1001
ACDBBLOCKREPETAG
1070
     1
1071
       19
1005
0
  0
LINE
  5
96BC
330
21
100
AcDbEntity
  8
YKK_ZWAK
100
AcDbLine
 10
420.0019807558351
 20
42.5
 30
0.0
 11
290.0019807558352
 21
42.5
 31
0.0
1001
ACDBBLOCKREPETAG
1070
     1
1071
       20
1005
0
  0
TEXT
  5
96BD
330
21
100
AcDbEntity
  8
YKK_ZWAK
100
AcDbText
 10
293.6686474225019
 20
38.5
 30
0.0
 40
3.0
  1
設計監理
 41
0.8000000000000111
  7
text-b
100
AcDbText
1001
ACDBBLOCKREPETAG
1070
     1
1071
       21
1005
0
  0
TEXT
  5
96BE
330
21
100
AcDbEntity
  8
YKK_ZWAK
100
AcDbText
 10
293.6686474225019
 20
21.0
 30
0.0
 40
3.0
  1
施　　工
 41
0.8000000000000111
  7
text-b
100
AcDbText
1001
ACDBBLOCKREPETAG
1070
     1
1071
       22
1005
0
  0
TEXT
  5
96BF
330
21
100
AcDbEntity
  8
YKK_ZWAK
100
AcDbText
 10
413.1333333333333
 20
30.41666666666666
 30
0.0
 40
5.000000000000001
  1
殿
 41
0.8000000000000108
  7
text-b
 72
     4
 11
415.0
 21
32.75
 31
0.0
100
AcDbText
1001
ACDBBLOCKREPETAG
1070
     1
1071
       23
1005
0
  0
LINE
  5
96C0
330
21
100
AcDbEntity
  8
YKK_ZWAK
100
AcDbLine
 10
25.00198075583521
 20
309.5
 30
0.0
 11
30.00198075583519
 21
309.5
 31
0.0
1001
ACDBBLOCKREPETAG
1070
     1
1071
       24
1005
0
  0
LINE
  5
96C1
330
21
100
AcDbEntity
  8
YKK_ZWAK
100
AcDbLine
 10
420.0019807558351
 20
579.4999999999999
 30
0.0
 11
420.0019807558351
 21
574.5
 31
0.0
1001
ACDBBLOCKREPETAG
1070
     1
1071
       25
1005
0
  0
LINE
  5
96C2
330
21
100
AcDbEntity
  8
YKK_ZWAK
100
AcDbLine
 10
810.0019807558352
 20
574.5
 30
0.0
 11
810.0019807558354
 21
44.5
 31
0.0
1001
ACDBBLOCKREPETAG
1070
     1
1071
       26
1005
0
  0
LINE
  5
96C3
330
21
100
AcDbEntity
  8
YKK_ZWAK
100
AcDbLine
 10
639.0019807558352
 20
7.5
 30
0.0
 11
742.2519807558352
 21
7.5
 31
0.0
1001
ACDBBLOCKREPETAG
1070
     1
1071
       27
1005
0
  0
LINE
  5
96C4
330
21
100
AcDbEntity
  8
YKK_ZWAK
100
AcDbLine
 10
742.2519807558352
 20
42.5
 30
0.0
 11
639.0019807558352
 21
42.5
 31
0.0
1001
ACDBBLOCKREPETAG
1070
     1
1071
       28
1005
0
  0
LINE
  5
96C5
330
21
100
AcDbEntity
  8
YKK_ZWAK
100
AcDbLine
 10
639.0019807558352
 20
17.5
 30
0.0
 11
742.2519807558352
 21
17.5
 31
0.0
1001
ACDBBLOCKREPETAG
1070
     1
1071
       29
1005
0
  0
LINE
  5
96C6
330
21
100
AcDbEntity
  8
YKK_ZWAK
100
AcDbLine
 10
550.0019807558352
 20
7.5
 30
0.0
 11
619.0019807558352
 21
7.5
 31
0.0
1001
ACDBBLOCKREPETAG
1070
     1
1071
       30
1005
0
  0
LINE
  5
96C7
330
21
100
AcDbEntity
  8
YKK_ZWAK
100
AcDbLine
 10
619.0019807558352
 20
36.0
 30
0.0
 11
550.0019807558351
 21
36.0
 31
0.0
1001
ACDBBLOCKREPETAG
1070
     1
1071
       31
1005
0
  0
LINE
  5
96C8
330
21
100
AcDbEntity
  8
YKK_ZWAK
100
AcDbLine
 10
619.0019807558352
 20
42.5
 30
0.0
 11
550.0019807558352
 21
42.5
 31
0.0
1001
ACDBBLOCKREPETAG
1070
     1
1071
       32
1005
0
  0
LINE
  5
96C9
330
21
100
AcDbEntity
  8
YKK_ZWAK
100
AcDbLine
 10
550.0019807558352
 20
42.5
 30
0.0
 11
550.0019807558352
 21
7.5
 31
0.0
1001
ACDBBLOCKREPETAG
1070
     1
1071
       33
1005
0
  0
TEXT
  5
96CA
330
21
100
AcDbEntity
  8
YKK_ZWAK
100
AcDbText
 10
422.6269807558352
 20
38.5
 30
0.0
 40
3.0
  1
工 事 名
 41
0.8000000000000111
  7
text-b
100
AcDbText
1001
ACDBBLOCKREPETAG
1070
     1
1071
       34
1005
0
  0
TEXT
  5
96CB
330
21
100
AcDbEntity
  8
YKK_ZWAK
100
AcDbText
 10
422.6269807558352
 20
21.0
 30
0.0
 40
3.0
  1
図面内容
 41
0.8000000000000111
  7
text-b
100
AcDbText
1001
ACDBBLOCKREPETAG
1070
     1
1071
       35
1005
0
  0
TEXT
  5
96CC
330
21
100
AcDbEntity
  8
YKK_ZWAK
100
AcDbText
 10
537.7333333333336
 20
30.2535
 30
0.0
 40
5.0
  1
工事
 41
0.7999999999999547
  7
text-b
 72
     4
 11
542.0
 21
32.7535
 31
0.0
100
AcDbText
1001
ACDBBLOCKREPETAG
1070
     1
1071
       36
1005
0
  0
LINE
  5
96CD
330
21
100
AcDbEntity
  8
YKK_ZWAK
100
AcDbLine
 10
639.0019807558352
 20
42.5
 30
0.0
 11
639.0019807558352
 21
7.5
 31
0.0
1001
ACDBBLOCKREPETAG
1070
     1
1071
       37
1005
0
  0
LINE
  5
96CE
330
21
100
AcDbEntity
  8
YKK_ZWAK
100
AcDbLine
 10
619.0019807558352
 20
42.5
 30
0.0
 11
619.0019807558352
 21
7.5
 31
0.0
1001
ACDBBLOCKREPETAG
1070
     1
1071
       38
1005
0
  0
LINE
  5
96CF
330
21
100
AcDbEntity
  8
YKK_ZWAK
100
AcDbLine
 10
626.5671752674123
 20
9.401154682397418
 30
0.0
 11
636.1891946217728
 21
19.02317403675805
 31
0.0
1001
ACDBBLOCKREPETAG
1070
     1
1071
       39
1005
0
  0
LINE
  5
96D0
330
21
100
AcDbEntity
  8
YKK_ZWAK
100
AcDbLine
 10
596.0019807558352
 20
42.5
 30
0.0
 11
596.0019807558352
 21
7.5
 31
0.0
1001
ACDBBLOCKREPETAG
1070
     1
1071
       40
1005
0
  0
LINE
  5
96D1
330
21
100
AcDbEntity
  8
YKK_ZWAK
100
AcDbLine
 10
573.0019807558352
 20
42.5
 30
0.0
 11
573.0019807558352
 21
7.5
 31
0.0
1001
ACDBBLOCKREPETAG
1070
     1
1071
       41
1005
0
  0
TEXT
  5
96D2
330
21
100
AcDbEntity
  8
YKK_ZWAK
100
AcDbText
 10
582.0
 20
8.56482458114624
 30
0.0
 40
3.535000085830688
  1
． ．
 41
0.7999999999999547
  7
text-b
100
AcDbText
1001
ACDBBLOCKREPETAG
1070
     1
1071
       42
1005
0
  0
TEXT
  5
96D3
330
21
100
AcDbEntity
  8
YKK_ZWAK
100
AcDbText
 10
559.0
 20
8.56482458114624
 30
0.0
 40
3.535000085830688
  1
． ．
 41
0.7999999999999547
  7
text-b
100
AcDbText
1001
ACDBBLOCKREPETAG
1070
     1
1071
       43
1005
0
  0
TEXT
  5
96D4
330
21
100
AcDbEntity
  8
YKK_ZWAK
100
AcDbText
 10
605.0
 20
8.56482458114624
 30
0.0
 40
3.535000085830688
  1
． ．
 41
0.7999999999999547
  7
text-b
100
AcDbText
1001
ACDBBLOCKREPETAG
1070
     1
1071
       44
1005
0
  0
LINE
  5
96D5
330
21
100
AcDbEntity
  8
YKK_ZWAK
100
AcDbLine
 10
619.0019807558352
 20
7.5
 30
0.0
 11
639.0019807558352
 21
7.5
 31
0.0
1001
ACDBBLOCKREPETAG
1070
     1
1071
       45
1005
0
  0
LINE
  5
96D6
330
21
100
AcDbEntity
  8
YKK_ZWAK
100
AcDbLine
 10
644.0019807558352
 20
9.0
 30
0.0
 11
644.0019807558352
 21
7.5
 31
0.0
1001
ACDBBLOCKREPETAG
1070
     1
1071
       46
1005
0
  0
LINE
  5
96D7
330
21
100
AcDbEntity
  8
YKK_ZWAK
100
AcDbLine
 10
649.0019807558352
 20
9.0
 30
0.0
 11
649.0019807558352
 21
7.5
 31
0.0
1001
ACDBBLOCKREPETAG
1070
     1
1071
       47
1005
0
  0
LINE
  5
96D8
330
21
100
AcDbEntity
  8
YKK_ZWAK
100
AcDbLine
 10
654.0019807558352
 20
9.0
 30
0.0
 11
654.0019807558352
 21
7.5
 31
0.0
1001
ACDBBLOCKREPETAG
1070
     1
1071
       48
1005
0
  0
LINE
  5
96D9
330
21
100
AcDbEntity
  8
YKK_ZWAK
100
AcDbLine
 10
659.0019807558352
 20
9.0
 30
0.0
 11
659.0019807558352
 21
7.5
 31
0.0
1001
ACDBBLOCKREPETAG
1070
     1
1071
       49
1005
0
  0
LINE
  5
96DA
330
21
100
AcDbEntity
  8
YKK_ZWAK
100
AcDbLine
 10
664.0019807558352
 20
9.0
 30
0.0
 11
664.0019807558352
 21
7.5
 31
0.0
1001
ACDBBLOCKREPETAG
1070
     1
1071
       50
1005
0
  0
LINE
  5
96DB
330
21
100
AcDbEntity
  8
YKK_ZWAK
100
AcDbLine
 10
669.0019807558352
 20
9.0
 30
0.0
 11
669.0019807558352
 21
7.5
 31
0.0
1001
ACDBBLOCKREPETAG
1070
     1
1071
       51
1005
0
  0
LINE
  5
96DC
330
21
100
AcDbEntity
  8
YKK_ZWAK
100
AcDbLine
 10
674.0019807558352
 20
9.0
 30
0.0
 11
674.0019807558352
 21
7.5
 31
0.0
1001
ACDBBLOCKREPETAG
1070
     1
1071
       52
1005
0
  0
LINE
  5
96DD
330
21
100
AcDbEntity
  8
YKK_ZWAK
100
AcDbLine
 10
679.0019807558352
 20
9.0
 30
0.0
 11
679.0019807558352
 21
7.5
 31
0.0
1001
ACDBBLOCKREPETAG
1070
     1
1071
       53
1005
0
  0
TEXT
  5
96DE
330
21
100
AcDbEntity
  8
YKK_ZWAK
100
AcDbText
 10
577.2219807558355
 20
37.75000000000001
 30
0.0
 40
3.0
  1
担     当
 41
0.7999999999999547
  7
text-b
 72
     4
 11
584.5019807558352
 21
39.25000000000001
 31
0.0
100
AcDbText
1001
ACDBBLOCKREPETAG
1070
     1
1071
       54
1005
0
  0
TEXT
  5
96DF
330
21
100
AcDbEntity
  8
YKK_ZWAK
100
AcDbText
 10
554.1419807558356
 20
37.75000000000001
 30
0.0
 40
3.0
  1
照     査
 41
0.7999999999999547
  7
text-b
 72
     4
 11
561.5019807558352
 21
39.25000000000001
 31
0.0
100
AcDbText
1001
ACDBBLOCKREPETAG
1070
     1
1071
       55
1005
0
  0
TEXT
  5
96E0
330
21
100
AcDbEntity
  8
YKK_ZWAK
100
AcDbText
 10
600.2219807558356
 20
37.75
 30
0.0
 40
3.0
  1
作     図
 41
0.7999999999999547
  7
text-b
 72
     4
 11
607.5019807558352
 21
39.25
 31
0.0
100
AcDbText
1001
ACDBBLOCKREPETAG
1070
     1
1071
       56
1005
0
  0
TEXT
  5
96E1
330
21
100
AcDbEntity
  8
YKK_ZWAK
100
AcDbText
 10
644.413814665668
 20
37.75
 30
0.0
 40
3.0
  1
御承認印
 41
0.7999999999999547
  7
text-b
 72
     4
 11
649.8538146656677
 21
39.25
 31
0.0
100
AcDbText
1001
ACDBBLOCKREPETAG
1070
     1
1071
       57
1005
0
  0
TEXT
  5
96E2
330
21
100
AcDbEntity
  8
YKK_ZWAK
100
AcDbText
 10
621.6419807558357
 20
37.75
 30
0.0
 40
3.0
  1
尺     度
 41
0.7999999999999547
  7
text-b
 72
     4
 11
629.0019807558352
 21
39.25
 31
0.0
100
AcDbText
1001
ACDBBLOCKREPETAG
1070
     1
1071
       58
1005
0
  0
LINE
  5
96E3
330
21
100
AcDbEntity
  8
YKK_ZWAK
100
AcDbLine
 10
619.0019807558352
 20
36.0
 30
0.0
 11
639.0019807558352
 21
36.0
 31
0.0
1001
ACDBBLOCKREPETAG
1070
     1
1071
       59
1005
0
  0
LINE
  5
96E4
330
21
100
AcDbEntity
  8
YKK_ZWAK
100
AcDbLine
 10
621.2104568374504
 20
25.17087960543256
 30
0.0
 11
631.0037283715415
 21
34.96415113952344
 31
0.0
1001
ACDBBLOCKREPETAG
1070
     1
1071
       60
1005
0
  0
LINE
  5
96E5
330
21
100
AcDbEntity
  8
YKK_ZWAK
100
AcDbLine
 10
639.0019807558352
 20
42.5
 30
0.0
 11
619.0019807558352
 21
42.5
 31
0.0
1001
ACDBBLOCKREPETAG
1070
     1
1071
       61
1005
0
  0
CIRCLE
  5
96E6
330
21
100
AcDbEntity
  8
YKK_ZWAK
100
AcDbCircle
 10
820.5019807558352
 20
112.0
 30
0.0
 40
7.5
1001
ACDBBLOCKREPETAG
1070
     1
1071
       62
1005
0
  0
LINE
  5
96E7
330
21
100
AcDbEntity
  8
YKK_ZWAK
100
AcDbLine
 10
813.0019807558351
 20
52.0
 30
0.0
 11
828.0019807558351
 21
52.0
 31
0.0
1001
ACDBBLOCKREPETAG
1070
     1
1071
       63
1005
0
  0
CIRCLE
  5
96E8
330
21
100
AcDbEntity
  8
YKK_ZWAK
100
AcDbCircle
 10
820.5019807558352
 20
52.0
 30
0.0
 40
7.5
1001
ACDBBLOCKREPETAG
1070
     1
1071
       64
1005
0
  0
LINE
  5
96E9
330
21
100
AcDbEntity
  8
YKK_ZWAK
100
AcDbLine
 10
813.0019807558351
 20
72.0
 30
0.0
 11
828.0019807558351
 21
72.0
 31
0.0
1001
ACDBBLOCKREPETAG
1070
     1
1071
       65
1005
0
  0
CIRCLE
  5
96EA
330
21
100
AcDbEntity
  8
YKK_ZWAK
100
AcDbCircle
 10
820.5019807558352
 20
72.0
 30
0.0
 40
7.5
1001
ACDBBLOCKREPETAG
1070
     1
1071
       66
1005
0
  0
LINE
  5
96EB
330
21
100
AcDbEntity
  8
YKK_ZWAK
100
AcDbLine
 10
813.0019807558351
 20
92.0
 30
0.0
 11
828.0019807558351
 21
92.0
 31
0.0
1001
ACDBBLOCKREPETAG
1070
     1
1071
       67
1005
0
  0
CIRCLE
  5
96EC
330
21
100
AcDbEntity
  8
YKK_ZWAK
100
AcDbCircle
 10
820.5019807558352
 20
92.0
 30
0.0
 40
7.5
1001
ACDBBLOCKREPETAG
1070
     1
1071
       68
1005
0
  0
TEXT
  5
96ED
330
21
100
AcDbEntity
  8
YKK_ZWAK
100
AcDbText
 10
702.4906891260823
 20
18.67853966796437
 30
0.0
 40
3.0
  1
年        月        日
 41
0.7999999999999547
  7
text-b
100
AcDbText
1001
ACDBBLOCKREPETAG
1070
     1
1071
       69
1005
0
  0
LINE
  5
96EE
330
21
100
AcDbEntity
  8
YKK_ZWAK
100
AcDbLine
 10
742.2519807558352
 20
42.5
 30
0.0
 11
742.2519807558352
 21
7.5
 31
0.0
1001
ACDBBLOCKREPETAG
1070
     1
1071
       72
1005
0
  0
LINE
  5
96EF
330
21
100
AcDbEntity
  8
YKK_ZWAK
100
AcDbLine
 10
773.0019807558352
 20
42.5
 30
0.0
 11
773.0019807558352
 21
7.5
 31
0.0
1001
ACDBBLOCKREPETAG
1070
     1
1071
       74
1005
0
  0
LINE
  5
96F0
330
21
100
AcDbEntity
  8
YKK_ZWAK
100
AcDbLine
 10
773.0019807558352
 20
18.0
 30
0.0
 11
742.2519807558352
 21
18.0
 31
0.0
1001
ACDBBLOCKREPETAG
1070
     1
1071
       76
1005
0
  0
LINE
  5
96F1
330
21
100
AcDbEntity
  8
YKK_ZWAK
100
AcDbLine
 10
742.2519807558352
 20
7.5
 30
0.0
 11
773.0019807558352
 21
7.5
 31
0.0
1001
ACDBBLOCKREPETAG
1070
     1
1071
       77
1005
0
  0
LINE
  5
96F2
330
21
100
AcDbEntity
  8
YKK_ZWAK
100
AcDbLine
 10
684.0019807558352
 20
9.0
 30
0.0
 11
684.0019807558352
 21
7.5
 31
0.0
1001
ACDBBLOCKREPETAG
1070
     1
1071
       78
1005
0
  0
LINE
  5
96F3
330
21
100
AcDbEntity
  8
YKK_ZWAK
100
AcDbLine
 10
689.0019807558352
 20
9.0
 30
0.0
 11
689.0019807558352
 21
7.5
 31
0.0
1001
ACDBBLOCKREPETAG
1070
     1
1071
       79
1005
0
  0
LINE
  5
96F4
330
21
100
AcDbEntity
  8
YKK_ZWAK
100
AcDbLine
 10
694.0019807558352
 20
9.0
 30
0.0
 11
694.0019807558352
 21
7.5
 31
0.0
1001
ACDBBLOCKREPETAG
1070
     1
1071
       80
1005
0
  0
LINE
  5
96F5
330
21
100
AcDbEntity
  8
YKK_ZWAK
100
AcDbLine
 10
699.0019807558352
 20
9.0
 30
0.0
 11
699.0019807558352
 21
7.5
 31
0.0
1001
ACDBBLOCKREPETAG
1070
     1
1071
       81
1005
0
  0
LINE
  5
96F6
330
21
100
AcDbEntity
  8
YKK_ZWAK
100
AcDbLine
 10
704.0019807558352
 20
9.0
 30
0.0
 11
704.0019807558352
 21
7.5
 31
0.0
1001
ACDBBLOCKREPETAG
1070
     1
1071
       82
1005
0
  0
LINE
  5
96F7
330
21
100
AcDbEntity
  8
YKK_ZWAK
100
AcDbLine
 10
709.0019807558352
 20
9.0
 30
0.0
 11
709.0019807558352
 21
7.5
 31
0.0
1001
ACDBBLOCKREPETAG
1070
     1
1071
       83
1005
0
  0
LINE
  5
96F8
330
21
100
AcDbEntity
  8
YKK_ZWAK
100
AcDbLine
 10
714.0019807558352
 20
9.0
 30
0.0
 11
714.0019807558352
 21
7.5
 31
0.0
1001
ACDBBLOCKREPETAG
1070
     1
1071
       84
1005
0
  0
LINE
  5
96F9
330
21
100
AcDbEntity
  8
YKK_ZWAK
100
AcDbLine
 10
719.0019807558352
 20
9.0
 30
0.0
 11
719.0019807558352
 21
7.5
 31
0.0
1001
ACDBBLOCKREPETAG
1070
     1
1071
       85
1005
0
  0
LINE
  5
96FA
330
21
100
AcDbEntity
  8
YKK_ZWAK
100
AcDbLine
 10
724.0019807558352
 20
9.0
 30
0.0
 11
724.0019807558352
 21
7.5
 31
0.0
1001
ACDBBLOCKREPETAG
1070
     1
1071
       86
1005
0
  0
LINE
  5
96FB
330
21
100
AcDbEntity
  8
YKK_ZWAK
100
AcDbLine
 10
729.0019807558352
 20
9.0
 30
0.0
 11
729.0019807558352
 21
7.5
 31
0.0
1001
ACDBBLOCKREPETAG
1070
     1
1071
       87
1005
0
  0
LINE
  5
96FC
330
21
100
AcDbEntity
  8
YKK_ZWAK
100
AcDbLine
 10
734.0019807558352
 20
9.0
 30
0.0
 11
734.0019807558352
 21
7.5
 31
0.0
1001
ACDBBLOCKREPETAG
1070
     1
1071
       88
1005
0
  0
LINE
  5
96FD
330
21
100
AcDbEntity
  8
YKK_ZWAK
100
AcDbLine
 10
739.0019807558352
 20
9.0
 30
0.0
 11
739.0019807558352
 21
7.5
 31
0.0
1001
ACDBBLOCKREPETAG
1070
     1
1071
       89
1005
0
  0
LINE
  5
96FE
330
21
100
AcDbEntity
  8
YKK_ZWAK
100
AcDbLine
 10
742.2519807558352
 20
35.5
 30
0.0
 11
773.0019807558352
 21
35.5
 31
0.0
1001
ACDBBLOCKREPETAG
1070
     1
1071
       91
1005
0
  0
LINE
  5
96FF
330
21
100
AcDbEntity
  8
YKK_ZWAK
100
AcDbLine
 10
773.0019807558352
 20
42.5
 30
0.0
 11
742.2519807558352
 21
42.5
 31
0.0
1001
ACDBBLOCKREPETAG
1070
     1
1071
       92
1005
0
  0
LINE
  5
9700
330
21
100
AcDbEntity
  8
YKK_ZWAK
100
AcDbLine
 10
742.2519807558352
 20
25.0
 30
0.0
 11
773.0019807558352
 21
25.0
 31
0.0
1001
ACDBBLOCKREPETAG
1070
     1
1071
       93
1005
0
  0
TEXT
  5
9701
330
21
100
AcDbEntity
  8
YKK_ZWAK
100
AcDbText
 10
751.2803140891689
 20
19.75
 30
0.0
 40
3.5
  1
通し図番
 41
0.7999999999999547
  7
text-b
 72
     4
 11
757.6269807558352
 21
21.5
 31
0.0
100
AcDbText
1001
ACDBBLOCKREPETAG
1070
     1
1071
       94
1005
0
  0
TEXT
  5
9702
330
21
100
AcDbEntity
  8
YKK_ZWAK
100
AcDbText
 10
751.8403140891689
 20
37.25
 30
0.0
 40
3.5
  1
図　 番
 41
0.7999999999999547
  7
text-b
 72
     4
 11
757.6269807558352
 21
39.0
 31
0.0
100
AcDbText
1001
ACDBBLOCKREPETAG
1070
     1
1071
       97
1005
0
  0
CIRCLE
  5
9703
330
21
100
AcDbEntity
  8
YKK_ZWAK
100
AcDbCircle
 10
820.5019807558352
 20
192.0
 30
0.0
 40
7.5
1001
ACDBBLOCKREPETAG
1070
     1
1071
      106
1005
0
  0
CIRCLE
  5
9704
330
21
100
AcDbEntity
  8
YKK_ZWAK
100
AcDbCircle
 10
820.5019807558352
 20
152.0
 30
0.0
 40
7.5
1001
ACDBBLOCKREPETAG
1070
     1
1071
      107
1005
0
  0
CIRCLE
  5
9705
330
21
100
AcDbEntity
  8
YKK_ZWAK
100
AcDbCircle
 10
820.5019807558352
 20
132.0
 30
0.0
 40
7.5
1001
ACDBBLOCKREPETAG
1070
     1
1071
      108
1005
0
  0
LINE
  5
9706
330
21
100
AcDbEntity
  8
YKK_ZWAK
100
AcDbLine
 10
813.0019807558351
 20
112.0
 30
0.0
 11
828.0019807558351
 21
112.0
 31
0.0
1001
ACDBBLOCKREPETAG
1070
     1
1071
      109
1005
0
  0
LINE
  5
9707
330
21
100
AcDbEntity
  8
YKK_ZWAK
100
AcDbLine
 10
813.0019807558351
 20
152.0
 30
0.0
 11
828.0019807558351
 21
152.0
 31
0.0
1001
ACDBBLOCKREPETAG
1070
     1
1071
      110
1005
0
  0
LINE
  5
9708
330
21
100
AcDbEntity
  8
YKK_ZWAK
100
AcDbLine
 10
813.0019807558351
 20
132.0
 30
0.0
 11
828.0019807558351
 21
132.0
 31
0.0
1001
ACDBBLOCKREPETAG
1070
     1
1071
      111
1005
0
  0
CIRCLE
  5
9709
330
21
100
AcDbEntity
  8
YKK_ZWAK
100
AcDbCircle
 10
820.5019807558352
 20
172.0
 30
0.0
 40
7.5
1001
ACDBBLOCKREPETAG
1070
     1
1071
      112
1005
0
  0
LINE
  5
970A
330
21
100
AcDbEntity
  8
YKK_ZWAK
100
AcDbLine
 10
813.0019807558351
 20
172.0
 30
0.0
 11
828.0019807558351
 21
172.0
 31
0.0
1001
ACDBBLOCKREPETAG
1070
     1
1071
      113
1005
0
  0
LINE
  5
970B
330
21
100
AcDbEntity
  8
YKK_ZWAK
100
AcDbLine
 10
813.0019807558351
 20
192.0
 30
0.0
 11
828.0019807558351
 21
192.0
 31
0.0
1001
ACDBBLOCKREPETAG
1070
     1
1071
      114
1005
0
  0
CIRCLE
  5
970C
330
21
100
AcDbEntity
  8
YKK_ZWAK
100
AcDbCircle
 10
820.5019807558352
 20
212.0
 30
0.0
 40
7.5
1001
ACDBBLOCKREPETAG
1070
     1
1071
      115
1005
0
  0
LINE
  5
970D
330
21
100
AcDbEntity
  8
YKK_ZWAK
100
AcDbLine
 10
813.0019807558351
 20
212.0
 30
0.0
 11
828.0019807558351
 21
212.0
 31
0.0
1001
ACDBBLOCKREPETAG
1070
     1
1071
      116
1005
0
  0
LINE
  5
970E
330
21
100
AcDbEntity
  8
YKK_ZWAK
100
AcDbLine
 10
813.0019807558351
 20
232.0
 30
0.0
 11
828.0019807558351
 21
232.0
 31
0.0
1001
ACDBBLOCKREPETAG
1070
     1
1071
      117
1005
0
  0
CIRCLE
  5
970F
330
21
100
AcDbEntity
  8
YKK_ZWAK
100
AcDbCircle
 10
820.5019807558352
 20
232.0
 30
0.0
 40
7.5
1001
ACDBBLOCKREPETAG
1070
     1
1071
      118
1005
0
  0
LINE
  5
9710
330
21
100
AcDbEntity
  8
YKK_ZWAK
100
AcDbLine
 10
810.0019807558354
 20
309.5
 30
0.0
 11
815.0019807558352
 21
309.5
 31
0.0
1001
ACDBBLOCKREPETAG
1070
     1
1071
      119
1005
0
  0
TEXT
  5
9715
330
21
100
AcDbEntity
  8
USER1
100
AcDbText
 10
423.4060495806196
 20
12.42015323276609
 30
0.0
 40
5.0
  1
エクステリア共通 汎用形材 C型ジョイント材04
 41
0.8
  7
text-b
100
AcDbText
  0
LINE
  5
9716
330
21
100
AcDbEntity
  8
YKK_D
  6
ByBlock
370
    -2
100
AcDbLine
 10
176.902448961351
 20
323.331065341275
 30
0.0
 11
175.202448961351
 21
323.786578964275
 31
0.0
  0
LINE
  5
9717
330
21
100
AcDbEntity
  8
YKK_D
  6
ByBlock
370
    -2
100
AcDbLine
 10
175.202448961351
 20
323.786578964275
 30
0.0
 11
176.902448961351
 21
324.242092587275
 31
0.0
  0
LINE
  5
9718
330
21
100
AcDbEntity
  8
YKK_D
  6
ByBlock
370
    -2
100
AcDbLine
 10
175.202448961351
 20
323.786578964275
 30
0.0
 11
176.902448961351
 21
323.786578964275
 31
0.0
  0
LINE
  5
9719
330
21
100
AcDbEntity
  8
YKK_D
  6
ByBlock
370
    -2
100
AcDbLine
 10
288.502448961351
 20
324.242092587275
 30
0.0
 11
290.202448961351
 21
323.786578964275
 31
0.0
  0
LINE
  5
971A
330
21
100
AcDbEntity
  8
YKK_D
  6
ByBlock
370
    -2
100
AcDbLine
 10
290.202448961351
 20
323.786578964275
 30
0.0
 11
288.502448961351
 21
323.331065341275
 31
0.0
  0
LINE
  5
971B
330
21
100
AcDbEntity
  8
YKK_D
  6
ByBlock
370
    -2
100
AcDbLine
 10
290.202448961351
 20
323.786578964275
 30
0.0
 11
288.502448961351
 21
323.786578964275
 31
0.0
  0
TEXT
  5
971C
330
21
100
AcDbEntity
  8
YKK_D
100
AcDbText
 10
228.622448961351
 20
324.786578964275
 30
0.0
 40
4.5
  1
115
 41
0.8
  7
text-b
100
AcDbText
  0
LINE
  5
971D
330
21
100
AcDbEntity
  8
YKK_D
  6
ByBlock
370
    -2
100
AcDbLine
 10
326.402448961351
 20
313.3259353187688
 30
0.0
 11
324.702448961351
 21
313.7814489417688
 31
0.0
  0
LINE
  5
971E
330
21
100
AcDbEntity
  8
YKK_D
  6
ByBlock
370
    -2
100
AcDbLine
 10
324.702448961351
 20
313.7814489417688
 30
0.0
 11
326.402448961351
 21
314.2369625647688
 31
0.0
  0
LINE
  5
971F
330
21
100
AcDbEntity
  8
YKK_D
  6
ByBlock
370
    -2
100
AcDbLine
 10
324.702448961351
 20
313.7814489417688
 30
0.0
 11
326.402448961351
 21
313.7814489417688
 31
0.0
  0
LINE
  5
9720
330
21
100
AcDbEntity
  8
YKK_D
  6
ByBlock
370
    -2
100
AcDbLine
 10
438.002448961351
 20
314.2369625647688
 30
0.0
 11
439.702448961351
 21
313.7814489417688
 31
0.0
  0
LINE
  5
9721
330
21
100
AcDbEntity
  8
YKK_D
  6
ByBlock
370
    -2
100
AcDbLine
 10
439.702448961351
 20
313.7814489417688
 30
0.0
 11
438.002448961351
 21
313.3259353187688
 31
0.0
  0
LINE
  5
9722
330
21
100
AcDbEntity
  8
YKK_D
  6
ByBlock
370
    -2
100
AcDbLine
 10
439.702448961351
 20
313.7814489417688
 30
0.0
 11
438.002448961351
 21
313.7814489417688
 31
0.0
  0
TEXT
  5
9723
330
21
100
AcDbEntity
  8
YKK_D
100
AcDbText
 10
378.122448961351
 20
314.7814489417688
 30
0.0
 40
4.5
  1
115
 41
0.8
  7
text-b
100
AcDbText
  0
LINE
  5
9724
330
21
100
AcDbEntity
  8
YKK_D
  6
ByBlock
370
    -2
100
AcDbLine
 10
449.2469353383594
 20
377.0814489417689
 30
0.0
 11
449.7024489613592
 21
378.7814489417689
 31
0.0
  0
LINE
  5
9725
330
21
100
AcDbEntity
  8
YKK_D
  6
ByBlock
370
    -2
100
AcDbLine
 10
449.7024489613592
 20
378.7814489417689
 30
0.0
 11
450.1579625843594
 21
377.0814489417689
 31
0.0
  0
LINE
  5
9726
330
21
100
AcDbEntity
  8
YKK_D
  6
ByBlock
370
    -2
100
AcDbLine
 10
449.7024489613592
 20
378.7814489417689
 30
0.0
 11
449.7024489613592
 21
377.0814489417689
 31
0.0
  0
LINE
  5
9727
330
21
100
AcDbEntity
  8
YKK_D
  6
ByBlock
370
    -2
100
AcDbLine
 10
450.1579625843594
 20
350.4814489417689
 30
0.0
 11
449.7024489613592
 21
348.7814489417689
 31
0.0
  0
LINE
  5
9728
330
21
100
AcDbEntity
  8
YKK_D
  6
ByBlock
370
    -2
100
AcDbLine
 10
449.7024489613592
 20
348.7814489417689
 30
0.0
 11
449.2469353383594
 21
350.4814489417689
 31
0.0
  0
LINE
  5
9729
330
21
100
AcDbEntity
  8
YKK_D
  6
ByBlock
370
    -2
100
AcDbLine
 10
449.7024489613592
 20
348.7814489417689
 30
0.0
 11
449.7024489613592
 21
350.4814489417689
 31
0.0
  0
TEXT
  5
972A
330
21
100
AcDbEntity
  8
YKK_D
100
AcDbText
 10
448.7024489613594
 20
361.1414489417687
 30
0.0
 40
4.5
  1
30
 50
90.0
 41
0.8
  7
text-b
100
AcDbText
  0
LINE
  5
972B
330
21
100
AcDbEntity
  8
YKK_D
  6
ByBlock
370
    -2
100
AcDbLine
 10
363.902448961351
 20
323.3259353187687
 30
0.0
 11
362.202448961351
 21
323.7814489417687
 31
0.0
  0
LINE
  5
972C
330
21
100
AcDbEntity
  8
YKK_D
  6
ByBlock
370
    -2
100
AcDbLine
 10
362.202448961351
 20
323.7814489417687
 30
0.0
 11
363.902448961351
 21
324.2369625647687
 31
0.0
  0
LINE
  5
972D
330
21
100
AcDbEntity
  8
YKK_D
  6
ByBlock
370
    -2
100
AcDbLine
 10
362.202448961351
 20
323.7814489417687
 30
0.0
 11
363.902448961351
 21
323.7814489417687
 31
0.0
  0
LINE
  5
972E
330
21
100
AcDbEntity
  8
YKK_D
  6
ByBlock
370
    -2
100
AcDbLine
 10
400.502448961351
 20
324.2369625647687
 30
0.0
 11
402.202448961351
 21
323.7814489417687
 31
0.0
  0
LINE
  5
972F
330
21
100
AcDbEntity
  8
YKK_D
  6
ByBlock
370
    -2
100
AcDbLine
 10
402.202448961351
 20
323.7814489417687
 30
0.0
 11
400.502448961351
 21
323.3259353187687
 31
0.0
  0
LINE
  5
9730
330
21
100
AcDbEntity
  8
YKK_D
  6
ByBlock
370
    -2
100
AcDbLine
 10
402.202448961351
 20
323.7814489417687
 30
0.0
 11
400.502448961351
 21
323.7814489417687
 31
0.0
  0
TEXT
  5
9731
330
21
100
AcDbEntity
  8
YKK_D
100
AcDbText
 10
379.562448961351
 20
324.7814489417688
 30
0.0
 40
4.5
  1
40
 41
0.8
  7
text-b
100
AcDbText
  0
TEXT
  5
9732
330
21
100
AcDbEntity
  8
YKK_D
100
AcDbText
 10
416.9138281966811
 20
324.5814489417687
 30
0.0
 40
4.5
  1
4-M5
 41
0.8
  7
text-b
100
AcDbText
  0
LINE
  5
9733
330
21
100
AcDbEntity
  8
YKK_D
  6
ByBlock
370
    -2
100
AcDbLine
 10
403.6184931460714
 20
344.8012088073478
 30
0.0
 11
403.2894978997354
 21
346.5301549570664
 31
0.0
  0
LINE
  5
9734
330
21
100
AcDbEntity
  8
YKK_D
  6
ByBlock
370
    -2
100
AcDbLine
 10
403.2894978997354
 20
346.5301549570664
 30
0.0
 11
404.4388892095995
 21
345.1973412875886
 31
0.0
  0
LINE
  5
9735
330
21
100
AcDbEntity
  8
YKK_D
  6
ByBlock
370
    -2
100
AcDbLine
 10
403.2894978997354
 20
346.5301549570664
 30
0.0
 11
404.0286911778356
 21
344.9992750474682
 31
0.0
  0
LINE
  5
9736
330
21
100
AcDbEntity
  8
YKK_D
  6
ByBlock
370
    -2
100
AcDbLine
 10
302.7469353383569
 20
377.081448941769
 30
0.0
 11
303.2024489613569
 21
378.781448941769
 31
0.0
  0
LINE
  5
9737
330
21
100
AcDbEntity
  8
YKK_D
  6
ByBlock
370
    -2
100
AcDbLine
 10
303.2024489613569
 20
378.781448941769
 30
0.0
 11
303.6579625843569
 21
377.081448941769
 31
0.0
  0
LINE
  5
9738
330
21
100
AcDbEntity
  8
YKK_D
  6
ByBlock
370
    -2
100
AcDbLine
 10
303.2024489613569
 20
378.781448941769
 30
0.0
 11
303.2024489613569
 21
377.081448941769
 31
0.0
  0
LINE
  5
9739
330
21
100
AcDbEntity
  8
YKK_D
  6
ByBlock
370
    -2
100
AcDbLine
 10
303.6579625843569
 20
335.481448941769
 30
0.0
 11
303.2024489613569
 21
333.781448941769
 31
0.0
  0
LINE
  5
973A
330
21
100
AcDbEntity
  8
YKK_D
  6
ByBlock
370
    -2
100
AcDbLine
 10
303.2024489613569
 20
333.781448941769
 30
0.0
 11
302.7469353383569
 21
335.481448941769
 31
0.0
  0
LINE
  5
973B
330
21
100
AcDbEntity
  8
YKK_D
  6
ByBlock
370
    -2
100
AcDbLine
 10
303.2024489613569
 20
333.781448941769
 30
0.0
 11
303.2024489613569
 21
335.481448941769
 31
0.0
  0
TEXT
  5
973C
330
21
100
AcDbEntity
  8
YKK_D
100
AcDbText
 10
302.2024489613569
 20
353.6414489417689
 30
0.0
 40
4.5
  1
45
 50
90.0
 41
0.8
  7
text-b
100
AcDbText
  0
LINE
  5
973D
330
21
100
AcDbEntity
  8
YKK_D
  6
ByBlock
370
    -2
100
AcDbLine
 10
302.7469353383572
 20
467.4956625041422
 30
0.0
 11
303.2024489613572
 21
469.1956625041418
 31
0.0
  0
LINE
  5
973E
330
21
100
AcDbEntity
  8
YKK_D
  6
ByBlock
370
    -2
100
AcDbLine
 10
303.2024489613572
 20
469.1956625041418
 30
0.0
 11
303.6579625843572
 21
467.4956625041422
 31
0.0
  0
LINE
  5
973F
330
21
100
AcDbEntity
  8
YKK_D
  6
ByBlock
370
    -2
100
AcDbLine
 10
303.2024489613572
 20
469.1956625041418
 30
0.0
 11
303.2024489613572
 21
467.4956625041422
 31
0.0
  0
LINE
  5
9740
330
21
100
AcDbEntity
  8
YKK_D
  6
ByBlock
370
    -2
100
AcDbLine
 10
303.6579625843572
 20
430.8956625041418
 30
0.0
 11
303.2024489613572
 21
429.195662504142
 31
0.0
  0
LINE
  5
9741
330
21
100
AcDbEntity
  8
YKK_D
  6
ByBlock
370
    -2
100
AcDbLine
 10
303.2024489613572
 20
429.195662504142
 30
0.0
 11
302.7469353383572
 21
430.8956625041418
 31
0.0
  0
LINE
  5
9742
330
21
100
AcDbEntity
  8
YKK_D
  6
ByBlock
370
    -2
100
AcDbLine
 10
303.2024489613572
 20
429.195662504142
 30
0.0
 11
303.2024489613572
 21
430.8956625041418
 31
0.0
  0
TEXT
  5
9743
330
21
100
AcDbEntity
  8
YKK_D
100
AcDbText
 10
302.2024489613572
 20
446.5556625041418
 30
0.0
 40
4.5
  1
40
 50
90.0
 41
0.8
  7
text-b
100
AcDbText
  0
LINE
  5
9744
330
21
100
AcDbEntity
  8
YKK_D
  6
ByBlock
370
    -2
100
AcDbLine
 10
214.402448961351
 20
516.2401488811418
 30
0.0
 11
212.702448961351
 21
516.6956625041416
 31
0.0
  0
LINE
  5
9745
330
21
100
AcDbEntity
  8
YKK_D
  6
ByBlock
370
    -2
100
AcDbLine
 10
212.702448961351
 20
516.6956625041416
 30
0.0
 11
214.402448961351
 21
517.1511761271417
 31
0.0
  0
LINE
  5
9746
330
21
100
AcDbEntity
  8
YKK_D
  6
ByBlock
370
    -2
100
AcDbLine
 10
212.702448961351
 20
516.6956625041416
 30
0.0
 11
214.402448961351
 21
516.6956625041416
 31
0.0
  0
LINE
  5
9747
330
21
100
AcDbEntity
  8
YKK_D
  6
ByBlock
370
    -2
100
AcDbLine
 10
251.002448961351
 20
517.1511761271417
 30
0.0
 11
252.702448961351
 21
516.6956625041416
 31
0.0
  0
LINE
  5
9748
330
21
100
AcDbEntity
  8
YKK_D
  6
ByBlock
370
    -2
100
AcDbLine
 10
252.702448961351
 20
516.6956625041416
 30
0.0
 11
251.002448961351
 21
516.2401488811418
 31
0.0
  0
LINE
  5
9749
330
21
100
AcDbEntity
  8
YKK_D
  6
ByBlock
370
    -2
100
AcDbLine
 10
252.702448961351
 20
516.6956625041416
 30
0.0
 11
251.002448961351
 21
516.6956625041416
 31
0.0
  0
TEXT
  5
974A
330
21
100
AcDbEntity
  8
YKK_D
100
AcDbText
 10
230.062448961351
 20
517.6956625041416
 30
0.0
 40
4.5
  1
40
 41
0.8
  7
text-b
100
AcDbText
  0
TEXT
  5
974B
330
21
100
AcDbEntity
  8
YKK_D
100
AcDbText
 10
274.1671148907382
 20
517.4956625041409
 30
0.0
 40
4.5
  1
4-∅5.5
 41
0.8
  7
text-b
100
AcDbText
  0
LINE
  5
974C
330
21
100
AcDbEntity
  8
YKK_D
  6
ByBlock
370
    -2
100
AcDbLine
 10
235.8308367833448
 20
472.3930336580648
 30
0.0
 11
234.4155140147585
 21
471.3469198394678
 31
0.0
  0
LINE
  5
974D
330
21
100
AcDbEntity
  8
YKK_D
  6
ByBlock
370
    -2
100
AcDbLine
 10
234.4155140147585
 20
471.3469198394678
 30
0.0
 11
235.1181625849304
 21
472.9605423627285
 31
0.0
  0
LINE
  5
974E
330
21
100
AcDbEntity
  8
YKK_D
  6
ByBlock
370
    -2
100
AcDbLine
 10
234.4155140147585
 20
471.3469198394678
 30
0.0
 11
235.4744996841376
 21
472.6767880103968
 31
0.0
  0
LINE
  5
974F
330
21
100
AcDbEntity
  8
YKK_D
  6
ByBlock
370
    -2
100
AcDbLine
 10
315.4891621884833
 20
504.995662504142
 30
0.0
 11
315.9446758114833
 21
506.6956625041418
 31
0.0
  0
LINE
  5
9750
330
21
100
AcDbEntity
  8
YKK_D
  6
ByBlock
370
    -2
100
AcDbLine
 10
315.9446758114833
 20
506.6956625041418
 30
0.0
 11
316.4001894344833
 21
504.995662504142
 31
0.0
  0
LINE
  5
9751
330
21
100
AcDbEntity
  8
YKK_D
  6
ByBlock
370
    -2
100
AcDbLine
 10
315.9446758114833
 20
506.6956625041418
 30
0.0
 11
315.9446758114833
 21
504.995662504142
 31
0.0
  0
LINE
  5
9752
330
21
100
AcDbEntity
  8
YKK_D
  6
ByBlock
370
    -2
100
AcDbLine
 10
316.4001894344833
 20
393.395662504142
 30
0.0
 11
315.9446758114833
 21
391.695662504142
 31
0.0
  0
LINE
  5
9753
330
21
100
AcDbEntity
  8
YKK_D
  6
ByBlock
370
    -2
100
AcDbLine
 10
315.9446758114833
 20
391.695662504142
 30
0.0
 11
315.4891621884833
 21
393.395662504142
 31
0.0
  0
LINE
  5
9754
330
21
100
AcDbEntity
  8
YKK_D
  6
ByBlock
370
    -2
100
AcDbLine
 10
315.9446758114833
 20
391.695662504142
 30
0.0
 11
315.9446758114833
 21
393.395662504142
 31
0.0
  0
TEXT
  5
9755
330
21
100
AcDbEntity
  8
YKK_D
100
AcDbText
 10
314.9446758114834
 20
445.1156625041418
 30
0.0
 40
4.5
  1
115
 50
90.0
 41
0.8
  7
text-b
100
AcDbText
  0
LINE
  5
9756
330
21
100
AcDbEntity
  8
YKK_ZWAK
100
AcDbLine
 10
0.0
 20
0.0
 30
0.0
 11
841.0
 21
0.0
 31
0.0
  0
LINE
  5
9757
330
21
100
AcDbEntity
  8
YKK_ZWAK
100
AcDbLine
 10
841.0
 20
0.0
 30
0.0
 11
841.0
 21
594.0
 31
0.0
  0
LINE
  5
9758
330
21
100
AcDbEntity
  8
YKK_ZWAK
100
AcDbLine
 10
841.0
 20
594.0
 30
0.0
 11
0.0
 21
594.0000000000001
 31
0.0
  0
LINE
  5
9759
330
21
100
AcDbEntity
  8
YKK_ZWAK
100
AcDbLine
 10
0.0
 20
594.0000000000001
 30
0.0
 11
0.0
 21
0.0
 31
0.0
  0
TEXT
  5
975A
330
21
100
AcDbEntity
  8
YKK_ZWAK
100
AcDbText
 10
811.0019807558352
 20
7.5
 30
0.0
 40
4.5
  1
施工-A１
 41
0.8
  7
text-b
100
AcDbText
  0
LWPOLYLINE
  5
975B
330
21
100
AcDbEntity
  8
YKK_ZWAK
  6
ByBlock
370
    -2
100
AcDbPolyline
 90
        8
 70
     1
 43
0.0
 10
807.1673513357556
 20
8.602025527985469
 42
-0.2010974043379156
 10
806.053757677763
 20
9.066277468716224
 42
-0.2013724321324656
 10
805.5904401286257
 20
10.18338138274432
 42
-0.2003690060463346
 10
806.0537574138475
 20
11.2997907086071
 42
-0.2001962315093685
 10
807.1673513857918
 20
11.76122746294354
 42
-0.1992934801777829
 10
808.2853898532109
 20
11.29979067905895
 42
-0.1992059581228088
 10
808.7487074523629
 20
10.18338137561337
 42
-0.4132862458215515
 10
807.1673511708285
 20
8.602025669991093
  0
LWPOLYLINE
  5
975C
330
21
100
AcDbEntity
  8
YKK_ZWAK
  6
ByBlock
370
    -2
100
AcDbPolyline
 90
        8
 70
     1
 43
0.0
 10
808.416434667558
 20
11.42802017152738
 42
0.1995970972806858
 10
807.1673513040465
 20
11.94515490975192
 42
0.4133553441987413
 10
805.4060451921657
 20
10.18338161866211
 42
0.2001979443820198
 10
805.9227126193251
 20
8.936178922002671
 42
0.1990897109272768
 10
807.1673512338801
 20
8.419739286252351
 42
0.1986844442601123
 10
808.4164345673535
 20
8.936179154653345
 42
0.200316005725648
 10
808.9309934862622
 20
10.18338141524376
 42
0.2004703921328915
 10
808.4164347772397
 20
11.42802023384955
  0
LWPOLYLINE
  5
975D
330
21
100
AcDbEntity
  8
YKK_ZWAK
  6
ByBlock
370
    -2
100
AcDbPolyline
 90
       52
 70
     1
 43
0.0
 10
807.6465793659279
 20
10.97779665720306
 42
-0.1965184448751553
 10
807.7359671127938
 20
10.74030408526596
 10
807.7220407717986
 20
10.63316013750323
 10
807.6836987703458
 20
10.54869905901551
 10
807.6261348266237
 20
10.48434290954457
 10
807.5546129000876
 20
10.43751065090582
 10
807.4743290281357
 20
10.40558728388593
 10
807.3904452871365
 20
10.38595780927157
 10
807.3082256365459
 20
10.37610911093566
 10
807.2328661137616
 20
10.3733922286361
 10
807.0344318228073
 20
10.3733922286361
 10
807.1345828965753
 20
10.20304370845339
 10
807.7893175697408
 20
9.078458202606061
 10
808.0513948285632
 20
9.078458202606061
 10
807.4200593042018
 20
10.16093203281014
 10
807.4791514942173
 20
10.17268254875575
 10
807.5355268019333
 20
10.18759144037461
 10
807.589015422206
 20
10.20562474663797
 10
807.6395154719492
 20
10.22678246754583
 10
807.6867892239617
 20
10.25106460309818
 10
807.7307687561857
 20
10.27847115329504
 10
807.7712503024491
 20
10.30893419607893
 10
807.8080300965796
 20
10.34248769247852
 42
0.2001816900370092
 10
807.9606052008887
 20
10.74030432209456
 10
807.9581718046593
 20
10.79888995777667
 10
807.9508362224505
 20
10.85536714857887
 10
807.9387460962175
 20
10.90956895045519
 10
807.9218674649315
 20
10.96122367517566
 10
807.9003361727071
 20
11.01019547862531
 10
807.8741182585165
 20
11.05621267257419
 10
807.8433495664741
 20
11.09917337393605
 10
807.8080300965796
 20
11.13880589448096
 10
807.7617412144007
 20
11.17972893411816
 10
807.7103242168817
 20
11.21538801429994
 10
807.6540507922517
 20
11.24578313502632
 10
807.5931586677127
 20
11.27077845218231
 10
807.5278516094369
 20
11.29034000473917
 10
807.4583673446257
 20
11.30436590961068
 10
807.3849436004799
 20
11.31285616679682
 10
807.3077501821437
 20
11.31570889321137
 10
806.5498419036513
 20
11.31570889321137
 10
806.5498419036513
 20
9.085929628929868
 10
806.7789090425334
 20
9.085929628929868
 10
806.7789090425334
 20
11.08827188370906
 10
807.3077501821437
 20
11.08827188370906
 10
807.3623595163647
 20
11.0864719491856
 10
807.4137425528551
 20
11.0811400676727
 10
807.4617634475002
 20
11.07231020019912
 10
807.5062863561841
 20
11.06005026882233
 10
807.5471754347926
 20
11.04442819559983
 10
807.5842948392105
 20
11.02547794156036
 10
807.6174747642937
 20
11.00323346773269
  0
LWPOLYLINE
  5
975E
330
21
100
AcDbEntity
  8
YKK_ZWAK
  6
ByBlock
370
    -2
100
AcDbPolyline
 90
      102
 70
     1
 43
0.0
 10
783.1456090462436
 20
28.38430126161981
 42
-0.0180942879063277
 10
784.8675984997542
 20
28.37201367087767
 42
-0.024721181581454
 10
786.5568053653203
 20
28.21705214603078
 42
-0.0366161642978948
 10
788.1075079931755
 20
27.88363079384281
 42
-0.0581115096325855
 10
789.4139838776046
 20
27.33596473189223
 42
-0.0337497950622461
 10
789.9598139437622
 20
26.96834419712964
 42
-0.0375211763668324
 10
790.4119761575286
 20
26.55903843075102
 42
-0.0393566523854136
 10
790.7769093576289
 20
26.108290273283
 42
-0.0386002362161858
 10
791.0610526543615
 20
25.61634225594556
 42
-0.0354232381635762
 10
791.2708448194006
 20
25.08343737866387
 10
791.4127321716264
 20
24.50980628767366
 10
791.493117926665
 20
23.89572296591456
 10
791.5184868151372
 20
23.24139582509315
 10
791.5184868151372
 20
8.5
 10
779.4552237558145
 20
8.500000000000012
 42
-0.0288918040959043
 10
778.3839288891887
 20
8.556243352534471
 42
-0.0439148256206971
 10
777.4425119279202
 20
8.744014353130548
 42
-0.0601774642462495
 10
776.6322493009468
 20
9.091862233838817
 42
-0.0699030293254474
 10
775.954429514229
 20
9.628338197772812
 42
-0.0657969275874251
 10
775.4103422705892
 20
10.38199365069224
 42
-0.0519690664885366
 10
775.0012774769364
 20
11.38138023170113
 42
-0.037389254081128
 10
774.7285239032617
 20
12.65504877510365
 42
-0.0261026920733818
 10
774.5933714272632
 20
14.23155083185956
 42
-0.034557490484889
 10
774.6281979974416
 20
15.57433225488833
 42
-0.0418775417324693
 10
774.8301315114923
 20
16.6934235683248
 42
-0.0482592614009314
 10
775.1747735504324
 20
17.61118449233701
 42
-0.051361368507389
 10
775.6377259523689
 20
18.34997542958769
 42
-0.0495295333776397
 10
776.1945891670127
 20
18.93215482306046
 42
-0.0433268324194203
 10
776.8209645683383
 20
19.38008363020898
 42
-0.0348912343847105
 10
777.4924532228294
 20
19.71612018911719
 42
-0.0260863881558032
 10
778.1846571661681
 20
19.9626251553893
 42
-0.0293575308065985
 10
779.3912206904054
 20
20.24640176713203
 42
-0.0223981620624572
 10
780.6150062221684
 20
20.4042775176296
 42
-0.0175298338817346
 10
781.801120129992
 20
20.46248636533444
 42
-0.014178891883078
 10
782.8946701035107
 20
20.44726362589897
 10
783.8407472417108
 20
20.38483181430208
 10
784.5844937712167
 20
20.30145748873418
 10
785.0710194690114
 20
20.22334712262169
 10
785.245375390586
 20
20.17671863015543
 10
785.245375390586
 20
16.35274075454684
 10
784.6922181543945
 20
16.41111976295873
 10
784.0855722979304
 20
16.44396007775472
 10
783.4646288483651
 20
16.45666150250519
 10
782.8686467549268
 20
16.45475968489549
 10
782.3368170447866
 20
16.44375631158225
 10
781.9083647061455
 20
16.4290851471646
 10
781.6225147272026
 20
16.41624787829916
 10
781.5185260571865
 20
16.41078015267128
 10
781.0862021612686
 20
16.33178679981145
 10
780.7134119487393
 20
16.20806677209502
 10
780.4002233416572
 20
16.03877104380339
 10
780.1466703010504
 20
15.82311851127544
 10
779.9526849048612
 20
15.5602941098213
 10
779.818335075148
 20
15.24955069680859
 10
779.7435868508812
 20
14.89003924651869
 10
779.7285081541184
 20
14.48097865529048
 10
779.7762233995046
 20
14.03113086854007
 10
779.8717897343919
 20
13.65925760378714
 10
780.0092639787497
 20
13.35826100602411
 10
780.1827029525481
 20
13.12104322024337
 10
780.3860615926708
 20
12.94050639143729
 10
780.6133967190866
 20
12.80948474254078
 10
780.8587311907373
 20
12.72094834060372
 10
781.1160539055348
 20
12.66773140856099
 10
786.4262343210628
 20
12.66773140856099
 10
786.4262343210628
 20
22.49262306333312
 10
786.4277625673565
 20
22.6874235242119
 10
786.4176082197618
 20
22.87784301238265
 10
786.3926808246634
 20
23.06133445068949
 10
786.3499238894737
 20
23.23538472300535
 10
786.2862469605777
 20
23.39754863526063
 10
786.1985595843594
 20
23.54527911029947
 10
786.0837373461743
 20
23.67613095405225
 10
785.9387577144636
 20
23.78755708936314
 10
785.627335080876
 20
23.90981679284355
 10
785.1293984774232
 20
24.01339793051447
 10
784.4941234737275
 20
24.08981024518972
 10
783.7707196004396
 20
24.13059744071193
 10
783.0083624271817
 20
24.12733718195247
 10
782.2562614846019
 20
24.07160713378229
 42
0.0278510171638468
 10
781.5636122212077
 20
23.9549175350046
 42
0.0451842178209498
 10
780.9795856942372
 20
23.7688441302813
 10
780.7472710943978
 20
23.63799271877211
 10
780.565885239873
 20
23.47820607852895
 10
780.4287845668315
 20
23.29165814763509
 10
780.3292108305522
 20
23.08048847090142
 10
780.2605416304309
 20
22.84690451519635
 10
780.2160866438043
 20
22.59307978635952
 10
780.1890876259522
 20
22.32111986817309
 10
780.1729221762697
 20
22.03326618853421
 10
775.1744360825592
 20
22.02110814024367
 10
775.1890053638907
 20
22.70474364887162
 10
775.216785485404
 20
23.47280627495847
 42
-0.0225565707222758
 10
775.30036534755
 20
24.28723229076879
 42
-0.0353400380862284
 10
775.4822792226621
 20
25.10995599147055
 42
-0.0492317925525791
 10
775.8050770399233
 20
25.90290550496423
 42
-0.0615201336222398
 10
776.3113068101564
 20
26.62801141735521
 42
-0.0665503349233684
 10
777.0435167195442
 20
27.2472041942817
 42
-0.0613986076075888
 10
778.044255208549
 20
27.72241435762549
 42
-0.0280346944577528
 10
778.8401593253532
 20
27.92297109097582
 42
-0.0153550189529216
 10
780.0261677272514
 20
28.12399444643061
 42
-0.0133333084937711
 10
781.4965579441851
 20
28.28969972843245
 42
-0.0145431579434434
  0
LWPOLYLINE
  5
975F
330
21
100
AcDbEntity
  8
YKK_ZWAK
  6
ByBlock
370
    -2
100
AcDbPolyline
 90
       48
 70
     1
 43
0.0
 10
809.5451776784255
 20
17.75404800017163
 42
-0.0353121700799632
 10
809.2244631848291
 20
16.68709595071259
 42
-0.0584774722804379
 10
808.8069813540451
 20
15.87035443424084
 42
-0.0288820706933246
 10
808.3948259180072
 20
15.34315350143336
 42
-0.0309550164657821
 10
807.9562920186845
 20
14.90283448885021
 10
807.4949773336122
 20
14.54428201287033
 10
807.0144287768766
 20
14.26240547429049
 10
806.5182921079475
 20
14.0520508622467
 10
806.0100992738139
 20
13.90812402242726
 10
805.4934841045517
 20
13.82553080052049
 10
804.9719785471504
 20
13.79910912015723
 10
799.8359502870242
 20
13.79910912015723
 10
799.8359502870242
 20
17.83371329603956
 10
802.7321468183604
 20
17.83371329603956
 10
803.2661500343397
 20
17.84115076133462
 10
803.7356612567332
 20
17.88662457882358
 10
804.1386088627874
 20
18.00480895885457
 42
0.0882671288460553
 10
804.4729539303485
 20
18.23037206126133
 42
0.083745158605346
 10
804.7365958853612
 20
18.59801468287928
 42
0.0582862445597222
 10
804.9274748738
 20
19.14241928709194
 42
0.0360435238119385
 10
805.0435203350772
 20
19.89827214831759
 42
0.0220734031753504
 10
805.0826621932722
 20
20.90025820514528
 10
805.0764087105397
 20
21.53682387034625
 10
805.0460475508423
 20
22.11022187966937
 10
804.9742199750472
 20
22.61376205286495
 10
804.8436737805532
 20
23.04072010624175
 42
0.0731117326214678
 10
804.6369837738147
 20
23.38445796909659
 42
0.0872511803861705
 10
804.3368515616434
 20
23.63826189824891
 42
0.0774473946688399
 10
803.9259293582814
 20
23.79544870578084
 42
0.0554369345174518
 10
803.3868783754716
 20
23.8493307637541
 10
798.6193983153371
 20
23.84933220064949
 10
798.6193983153371
 20
8.5
 10
793.6230178054086
 20
8.5
 10
793.6230178054086
 20
27.92085201477716
 10
805.2352444419785
 20
27.92085201477715
 42
-0.0403107082291994
 10
806.0899829733996
 20
27.82118043374991
 42
-0.0421968599351876
 10
806.8229670063171
 20
27.60910088632102
 42
-0.0418847103820418
 10
807.4421845997921
 20
27.30964830213665
 42
-0.0395540362689687
 10
807.9556315869087
 20
26.94787255880377
 42
-0.0359405218764401
 10
808.3713044558317
 20
26.54882191427113
 10
808.6971977511696
 20
26.13755839540037
 10
808.9413096257855
 20
25.73909364514047
 10
809.1116241849396
 20
25.3784954419305
 42
-0.0447197629795074
 10
809.4936691564825
 20
24.32217259504052
 42
-0.0307122268322105
 10
809.7440356379816
 20
23.0840799567281
 42
-0.0238664630145888
 10
809.868553473432
 20
21.7362268716175
 42
-0.0211327548680144
 10
809.873038752551
 20
20.35060766400068
 42
-0.0215073458566774
 10
809.7633084150555
 20
18.99921691523944
 42
-0.0254174505855289
  0
LWPOLYLINE
  5
9760
330
21
100
AcDbEntity
  8
YKK_ZWAK
  6
ByBlock
370
    -2
100
AcDbPolyline
 90
       29
 70
     1
 43
0.0
 10
794.9767044111661
 20
36.97883144081155
 42
-0.0517260100804869
 10
795.4894719449986
 20
36.92665661172066
 42
-0.0524994454876206
 10
795.9505932772798
 20
36.77869647552048
 10
796.3549108796785
 20
36.54776410295685
 10
796.6972720104522
 20
36.24663166107885
 10
796.9725261484268
 20
35.8881390416513
 10
797.1755451782621
 20
35.48505559148214
 10
797.3010991015304
 20
35.05025254046554
 10
797.3441277249498
 20
34.5964992354095
 10
797.3441277249498
 20
29.57817990091226
 10
794.0410441082256
 20
29.57817990091226
 10
794.0410441082252
 20
33.85903549622141
 42
0.432687496610367
 10
793.5546922375817
 20
34.33909192597341
 10
790.3769547559464
 20
34.33910859855448
 10
790.3769547559464
 20
29.59033794920282
 10
786.9914137614297
 20
29.59033794920282
 10
786.9914137614297
 20
42.20000000000001
 10
790.3769547559464
 20
42.20000000000001
 10
790.3769547559464
 20
37.041523499874
 10
793.7069015464077
 20
42.20000000000001
 10
797.6838738565106
 20
42.20000000000001
 10
794.1159281766072
 20
36.97883144081155
 10
794.2423990476518
 20
36.97883144081155
 10
794.3819449147634
 20
36.97883144081155
 10
794.5252604560652
 20
36.97883144081155
 10
794.6632101548257
 20
36.97883144081155
 10
794.7865226501972
 20
36.97883144081155
 10
794.8860284644188
 20
36.97883144081155
 10
794.952490197672
 20
36.97883144081155
  0
LWPOLYLINE
  5
9761
330
21
100
AcDbEntity
  8
YKK_ZWAK
  6
ByBlock
370
    -2
100
AcDbPolyline
 90
        9
 70
     1
 43
0.0
 10
774.1019807558353
 20
42.20000000000001
 10
777.7831185445441
 20
42.20000000000001
 10
780.5471387520062
 20
36.99003858029724
 10
783.303891299317
 20
42.20000000000001
 10
786.9876440872392
 20
42.20000000000001
 10
782.2671629748316
 20
33.80099609809695
 10
782.2671629748316
 20
29.58660223604091
 10
778.9097077510874
 20
29.58660223604091
 10
778.9097077510874
 20
33.91425612896006
  0
LWPOLYLINE
  5
9762
330
21
100
AcDbEntity
  8
YKK_ZWAK
  6
ByBlock
370
    -2
100
AcDbPolyline
 90
       29
 70
     1
 43
0.0
 10
806.6731543990226
 20
36.97883144081155
 42
-0.051662923521697
 10
807.1862169607912
 20
36.9266565840508
 42
-0.052337619024468
 10
807.6481727887273
 20
36.77869696292811
 10
808.0536702174892
 20
36.54776410295685
 10
808.3974237504415
 20
36.24663166107885
 10
808.6740363295657
 20
35.8881390416513
 10
808.8782439954067
 20
35.48505559148214
 10
809.0046809054227
 20
35.05025254046554
 10
809.0479812170721
 20
34.5964992354095
 10
809.0479812170721
 20
29.58660223604091
 10
805.7373922129952
 20
29.58660223604091
 10
805.7373922129951
 20
33.85903549622138
 42
0.4355136938325048
 10
805.2511465458222
 20
34.33909197143235
 10
802.0769706518203
 20
34.33910859855448
 10
802.0769706518203
 20
29.58660223604091
 10
798.6895957617519
 20
29.58660223604091
 10
798.6895957617519
 20
42.20000000000001
 10
802.0769706518203
 20
42.20000000000001
 10
802.0769706518203
 20
37.041523499874
 10
805.4032496511776
 20
42.20000000000001
 10
809.3802559223091
 20
42.20000000000001
 10
805.812276281377
 20
36.97883144081155
 10
805.9401055935715
 20
36.97883144081155
 10
806.0802627592003
 20
36.97883144081155
 10
806.2236801835886
 20
36.97883144081155
 10
806.3613581941188
 20
36.97883144081155
 10
806.4841612740591
 20
36.97883144081155
 10
806.5831237118207
 20
36.97883144081155
 10
806.6491439517003
 20
36.97883144081155
  0
VIEWPORT
  5
345
330
1D
100
AcDbEntity
 67
     1
  8
0
100
AcDbViewport
 10
153.9281158338337
 20
111.1805146653293
 30
0.0
 40
389.5000951304971
 41
247.5832287859199
 68
     1
 69
     1
 12
153.9281158338337
 22
111.1805146653293
 13
0.0
 23
0.0
 14
10.0
 24
10.0
 15
10.0
 25
10.0
 16
0.0
 26
0.0
 36
1.0
 17
0.0
 27
0.0
 37
0.0
 42
50.0
 43
0.0
 44
0.0
 45
247.5832287859199
 50
0.0
 51
0.0
 72
  2000
 90
    32800
  1

281
     0
 71
     1
 74
     0
110
0.0
120
0.0
130
0.0
111
1.0
121
0.0
131
0.0
112
0.0
122
1.0
132
0.0
 79
     0
146
0.0
170
     0
 61
     5
348
2802
292
     1
282
     1
141
0.0
142
0.0
 63
   250
421
  3355443
1001
GENIUS_GENOBJ-N-SDF_13
1002
{
1000
OWNER
1000
GEN
1002
}
1001
GENIUS_GENODEF_13
1002
{
1000
HIER
1070
     0
1002
}
1002
{
1000
MANEDIT
1070
     0
1002
}
1002
{
1000
NOSEL
1070
     0
1002
}
1002
{
1000
BEHIND
1070
     0
1002
}
1002
{
1000
OTHER
1070
     0
1002
}
1002
{
1000
REACTOR
1002
}
1001
GENIUS_GENSCREG_15
1000
PF
1040
1.0
1000
DF
1040
1.0
1000
MIN
1011
-40.82193173141479
1021
-12.61109972763063
1031
0.0
1000
MAX
1011
307.5219134208678
1021
234.9721290582893
1031
0.0
1000
FLAGS
1070
     2
  0
ENDSEC
  0
SECTION
  2
OBJECTS
  0
DICTIONARY
  5
C
330
0
100
AcDbDictionary
281
     1
  3
ACAD_CIP_PREVIOUS_PRODUCT_INFO
350
2897
  3
ACAD_COLOR
350
1C
  3
ACAD_DETAILVIEWSTYLE
350
2883
  3
ACAD_GROUP
350
D
  3
ACAD_IMAGE_DICT
350
2278
  3
ACAD_LAYOUT
350
1A
  3
ACAD_MATERIAL
350
1B
  3
ACAD_MLEADERSTYLE
350
281F
  3
ACAD_MLINESTYLE
350
17
  3
ACAD_PLOTSETTINGS
350
19
  3
ACAD_PLOTSTYLENAME
350
E
  3
ACAD_RENDER_ACTIVE_RAPIDRT_SETTINGS
350
28A0
  3
ACAD_RENDER_ACTIVE_SETTINGS
350
2980
  3
ACAD_SCALELIST
350
280D
  3
ACAD_SECTIONVIEWSTYLE
350
2881
  3
ACAD_TABLESTYLE
350
49E
  3
ACAD_VISUALSTYLE
350
27FC
  3
ACDB_RECOMPOSE_DATA
350
995F
  3
AcDbVariableDictionary
350
3C1
  3
AcmDictionary
350
98
  3
AEC_PROPERTY_SET_DEFS
350
62B2
  3
AMG
350
2C
  3
AMGSNAPSETTINGS
350
4C1
  3
YACAD
350
1EA3
  0
DICTIONARY
  5
2863
330
8
100
AcDbDictionary
280
     1
281
     1
  0
DICTIONARY
  5
EE
330
2
100
AcDbDictionary
280
     1
281
     1
  3
ACAD_LAYERFILTERS
360
6D5
  3
ACAD_LAYERSTATES
360
D52
  3
ACLYDICTIONARY
360
6D4
  3
AMLAYER_GROUPCOLORS
360
EF
  0
DICTIONARY
  5
2838
330
10
100
AcDbDictionary
280
     1
281
     1
  3
ADSK_XREC_LAYER_RECONCILED
360
42C9
  0
DICTIONARY
  5
F0
330
21
100
AcDbDictionary
280
     1
281
     1
  3
ACAD_SORTENTS
360
B45
  0
DICTIONARY
  5
21DD
330
21DA
100
AcDbDictionary
280
     1
281
     1
  0
DICTIONARY
  5
21F7
330
21F4
100
AcDbDictionary
280
     1
281
     1
  0
XRECORD
  5
2897
102
{ACAD_REACTORS
330
C
102
}
330
C
100
AcDbXrecord
280
     1
300
ACD
300
2022
300
87545ACD_2022_0F
  0
DICTIONARY
  5
1C
102
{ACAD_REACTORS
330
C
102
}
330
C
100
AcDbDictionary
281
     1
  0
DICTIONARY
  5
2883
102
{ACAD_REACTORS
330
C
102
}
330
C
100
AcDbDictionary
281
     1
  3
Imperial24
350
6BF4
  3
Metric50
350
2884
  0
DICTIONARY
  5
D
102
{ACAD_REACTORS
330
C
102
}
330
C
100
AcDbDictionary
281
     1
  3
*A1
350
7FBC
  3
*A10
350
7FC3
  3
*A11
350
7FC8
  3
*A12
350
7FCD
  3
*A13
350
7FC9
  3
*A14
350
7D2E
  3
*A15
350
7FCA
  3
*A16
350
7FCF
  3
*A17
350
7FBE
  3
*A18
350
7FCE
  3
*A19
350
7FC5
  3
*A2
350
7FBF
  3
*A20
350
7FBD
  3
*A21
350
7FC4
  3
*A3
350
7FCC
  3
*A4
350
7FC1
  3
*A5
350
7FCB
  3
*A6
350
7FC0
  3
*A7
350
7FC7
  3
*A8
350
7FC2
  3
*A9
350
7FC6
  0
DICTIONARY
  5
2278
102
{ACAD_REACTORS
330
C
102
}
330
C
100
AcDbDictionary
281
     1
  0
DICTIONARY
  5
1A
102
{ACAD_REACTORS
330
C
102
}
330
C
100
AcDbDictionary
281
     1
  3
A3print
350
21D9
  3
A4print
350
21F3
  3
Model
350
24
  3
レイアウト1
350
20
  0
DICTIONARY
  5
1B
102
{ACAD_REACTORS
330
C
102
}
330
C
100
AcDbDictionary
281
     1
  3
ByBlock
350
27EC
  3
ByLayer
350
27E4
  3
Global
350
27F4
  0
DICTIONARY
  5
281F
102
{ACAD_REACTORS
330
C
102
}
330
C
100
AcDbDictionary
281
     1
  3
Standard
350
2820
  0
DICTIONARY
  5
17
102
{ACAD_REACTORS
330
C
102
}
330
C
100
AcDbDictionary
281
     1
  3
Standard
350
18
  0
DICTIONARY
  5
19
102
{ACAD_REACTORS
330
C
102
}
330
C
100
AcDbDictionary
281
     1
  0
ACDBDICTIONARYWDFLT
  5
E
102
{ACAD_REACTORS
330
C
102
}
330
C
100
AcDbDictionary
281
     1
  3
Normal
350
F
100
AcDbDictionaryWithDefault
340
F
  0
RAPIDRTRENDERSETTINGS
  5
28A0
102
{ACAD_REACTORS
330
C
102
}
330
C
100
AcDbRenderSettings
 90
        2
  1
中
290
     1
290
     0
290
     1
290
     1
  1

  1
5 レンダリング レベルを適用
 90
        0
100
AcDbRapidRTRenderSettings
 90
        3
 70
     0
 90
        5
 90
        1
 70
     1
 70
     2
 40
3.0
 40
3.0
290
     1
  0
MENTALRAYRENDERSETTINGS
  5
2980
102
{ACAD_XDICTIONARY
360
2981
102
}
102
{ACAD_REACTORS
330
C
102
}
330
C
100
AcDbRenderSettings
 90
        2
  1
中間
290
     1
290
     1
290
     1
290
     1
  1

  1

 90
        0
100
AcDbMentalRayRenderSettings
 90
        2
 90
        0
 90
        1
 70
     2
 40
3.0
 40
3.0
 40
0.0500000007450581
 40
0.0500000007450581
 40
0.0500000007450581
 40
0.0500000007450581
 70
     0
290
     0
290
     1
 90
        5
 90
        5
 90
        5
290
     0
 90
      500
290
     0
 40
1.0
 90
    10000
 90
        5
 90
        5
 90
        5
290
     0
 90
      200
290
     0
290
     0
290
     0
 40
1.0
 40
1.0
 40
1500.0
 70
     0
 70
     0
 40
10.0
 70
     0
 70
     0
290
     0
  1

 90
       32
 70
     0
 90
     1048
290
     0
 40
1.0
  0
DICTIONARY
  5
280D
102
{ACAD_REACTORS
330
C
102
}
330
C
100
AcDbDictionary
281
     1
  3
A0
350
280E
  3
A1
350
280F
  3
A2
350
2810
  3
A3
350
2811
  3
A4
350
2812
  3
A5
350
2813
  3
A6
350
2814
  3
A7
350
2815
  3
A8
350
2816
  3
A9
350
2817
  3
B0
350
2818
  3
B1
350
2819
  3
B2
350
281A
  3
B3
350
281B
  3
B4
350
281C
  3
B5
350
281D
  3
B6
350
281E
  0
DICTIONARY
  5
2881
102
{ACAD_REACTORS
330
C
102
}
330
C
100
AcDbDictionary
281
     1
  3
Imperial24
350
6BF3
  3
Metric50
350
2882
  0
DICTIONARY
  5
49E
102
{ACAD_REACTORS
330
C
102
}
330
C
100
AcDbDictionary
281
     1
  3
Standard
350
49F
  3
YKKAP_table
350
A66
  0
DICTIONARY
  5
27FC
102
{ACAD_REACTORS
330
C
102
}
330
C
100
AcDbDictionary
281
     1
  3
2dWireframe
350
2802
  3
3D Hidden
350
2804
  3
3dWireframe
350
2803
  3
Basic
350
2801
  3
Brighten
350
2808
  3
ColorChange
350
280C
  3
Conceptual
350
2805
  3
Dim
350
2807
  3
EdgeColorOff
350
2880
  3
Facepattern
350
280B
  3
Flat
350
27FD
  3
FlatWithEdges
350
27FE
  3
Gouraud
350
27FF
  3
GouraudWithEdges
350
2800
  3
Hidden
350
2878
  3
JitterOff
350
287E
  3
Linepattern
350
280A
  3
OverhangOff
350
287F
  3
Realistic
350
2806
  3
Shaded
350
287D
  3
Shaded with edges
350
287C
  3
Shades of Gray
350
2879
  3
Sketchy
350
287A
  3
Thicken
350
2809
  3
Wireframe
350
2877
  3
X-Ray
350
287B
  0
XRECORD
  5
995F
102
{ACAD_REACTORS
330
C
102
}
330
C
100
AcDbXrecord
280
     1
 90
        1
330
49F
330
A66
  0
DICTIONARY
  5
3C1
102
{ACAD_REACTORS
330
C
102
}
330
C
100
AcDbDictionary
281
     1
  3
CANNOSCALE
350
2875
  3
CMLEADERSTYLE
350
2874
  3
CTABLESTYLE
350
544
  3
CVIEWDETAILSTYLE
350
2983
  3
CVIEWSECTIONSTYLE
350
2984
  3
DIMASSOC
350
3C4
  3
HIDETEXT
350
3C3
  3
INDEXCTL
350
3C2
  3
LAYEREVAL
350
2987
  3
LAYERNOTIFY
350
2988
  3
LIGHTINGUNITS
350
2986
  3
MSLTSCALE
350
2985
  3
PROJECTNAME
350
3C5
  3
SORTENTS
350
954B
  0
DICTIONARY
  5
98
102
{ACAD_REACTORS
330
C
102
}
330
C
100
AcDbDictionary
281
     1
  3
AcmStdDictionary
350
9B
  3
AMDTSECTSYM_ARROWCOLOR
350
275
  0
DICTIONARY
  5
62B2
102
{ACAD_REACTORS
330
C
102
}
330
C
100
AcDbDictionary
281
     1
  0
DICTIONARY
  5
2C
102
{ACAD_REACTORS
330
C
102
}
330
C
100
AcDbDictionary
281
     1
  0
DICTIONARY
  5
4C1
102
{ACAD_REACTORS
330
C
102
}
330
C
100
AcDbDictionary
281
     1
  0
DICTIONARY
  5
1EA3
102
{ACAD_REACTORS
330
C
102
}
330
C
100
AcDbDictionary
281
     1
  3
Y-BASE
350
1EA4
  3
Y-S9
350
3EFA
  0
DICTIONARY
  5
6D5
102
{ACAD_REACTORS
330
EE
102
}
330
EE
100
AcDbDictionary
281
     1
  0
DICTIONARY
  5
D52
102
{ACAD_REACTORS
330
EE
102
}
330
EE
100
AcDbDictionary
281
     1
  3
ALL
350
6BF0
  3
EXP_SURF & FRAME
350
6BF1
  3
SHAPE & FRAME
350
6BF2
  0
DICTIONARY
  5
6D4
102
{ACAD_REACTORS
330
EE
102
}
330
EE
100
AcDbDictionary
281
     1
1001
ACAD
1000
<All
  0
DICTIONARY
  5
EF
102
{ACAD_REACTORS
330
EE
102
}
330
EE
100
AcDbDictionary
280
     1
281
     1
  0
XRECORD
  5
42C9
102
{ACAD_REACTORS
330
2838
102
}
330
2838
100
AcDbXrecord
280
     1
290
     1
  0
SORTENTSTABLE
  5
B45
102
{ACAD_REACTORS
330
F0
102
}
330
F0
100
AcDbSortentsTable
330
21
  0
ACDBDETAILVIEWSTYLE
  5
6BF4
102
{ACAD_XDICTIONARY
360
999C
102
}
102
{ACAD_REACTORS
330
2883
102
}
330
2883
100
AcDbModelDocViewStyle
 70
     0
  3
Imperial24
290
     0
100
AcDbDetailViewStyle
 70
     0
 71
     0
 90
        3
 71
     1
340
11
 62
   256
 40
0.24
340
0
 62
   256
 40
0.24
300

 40
0.36
280
     3
 71
     2
340
16
 90
       25
 62
   256
 71
     3
340
11
 62
   256
 40
0.24
 90
        1
 40
0.75
 90
        1
300
%<\AcVar ViewType \f "%tc1">% %<\AcVar ViewDetailId>%\PSCALE %<\AcVar ViewScale \f "%sn">%
 71
     4
340
16
 90
       25
 62
   256
340
16
 90
       25
 62
   256
280
     0
  0
ACDBDETAILVIEWSTYLE
  5
2884
102
{ACAD_XDICTIONARY
360
9998
102
}
102
{ACAD_REACTORS
330
2883
102
}
330
2883
100
AcDbModelDocViewStyle
 70
     0
  3
Metric50
290
     0
100
AcDbDetailViewStyle
 70
     0
 71
     0
 90
        3
 71
     1
340
11
 62
   256
 40
5.0
340
0
 62
   256
 40
5.0
300

 40
0.0
280
     1
 71
     2
340
16
 90
       25
 62
   256
 71
     3
340
11
 62
   256
 40
5.0
 90
        0
 40
15.0
 90
        1
300
%<\AcVar ViewDetailId>% (%<\AcVar ViewScale \f "%sn">%)
 71
     4
340
16
 90
       25
 62
   256
340
16
 90
       25
 62
   256
280
     0
  0
GROUP
  5
7FBC
102
{ACAD_REACTORS
330
D
102
}
330
D
100
AcDbGroup
300

 70
     1
 71
     1
340
7E36
340
7E37
340
7E38
340
7E39
340
7E3B
340
7E3C
340
7E59
340
7E5A
340
7E5C
340
7E5D
340
7E5F
340
7E60
340
7E62
340
7E63
340
7E78
340
7E79
340
7E7A
340
7E7B
340
7E7C
340
7E81
340
7E82
340
7E83
340
7E84
340
7E88
340
7E89
340
7E8B
340
7E8C
340
7E90
340
7E91
340
7E92
340
7E93
340
7E96
  0
GROUP
  5
7FC3
102
{ACAD_REACTORS
330
D
102
}
330
D
100
AcDbGroup
300

 70
     1
 71
     1
340
7E3D
340
7E3E
340
7E3F
340
7E40
340
7E41
340
7E42
340
7E43
340
7E45
340
7E46
340
7E4B
340
7E4C
340
7E4D
340
7E4E
340
7E57
340
7E58
340
7E6B
340
7E6C
340
7E6D
340
7E6E
340
7E6F
340
7E70
340
7E71
340
7E72
340
7E73
340
7E74
340
7E75
340
7E76
  0
GROUP
  5
7FC8
102
{ACAD_REACTORS
330
D
102
}
330
D
100
AcDbGroup
300

 70
     1
 71
     1
340
7E44
340
7E47
340
7E48
340
7E49
340
7E4A
340
7E4F
340
7E50
340
7E51
340
7E52
340
7E53
340
7E54
340
7E55
340
7E56
340
7E99
340
7E9A
  0
GROUP
  5
7FCD
102
{ACAD_REACTORS
330
D
102
}
330
D
100
AcDbGroup
300

 70
     1
 71
     1
340
7E99
340
7E9A
  0
GROUP
  5
7FC9
102
{ACAD_REACTORS
330
D
102
}
330
D
100
AcDbGroup
300

 70
     1
 71
     1
340
7E47
340
7E48
340
7E49
340
7E4A
340
7E4F
340
7E50
340
7E51
340
7E52
  0
GROUP
  5
7D2E
102
{ACAD_REACTORS
330
D
102
}
330
D
100
AcDbGroup
300

 70
     1
 71
     1
340
7A82
340
7A83
340
7A84
340
7A85
340
7A86
340
7A87
  0
GROUP
  5
7FCA
102
{ACAD_REACTORS
330
D
102
}
330
D
100
AcDbGroup
300

 70
     1
 71
     1
340
7E47
340
7E48
340
7E49
340
7E4A
340
7E4F
340
7E50
340
7E51
340
7E52
340
7E99
340
7E9A
  0
GROUP
  5
7FCF
102
{ACAD_REACTORS
330
D
102
}
330
D
100
AcDbGroup
300

 70
     1
 71
     1
340
7E9B
340
7E9C
  0
GROUP
  5
7FBE
102
{ACAD_REACTORS
330
D
102
}
330
D
100
AcDbGroup
300

 70
     1
 71
     1
340
7E3A
  0
GROUP
  5
7FCE
102
{ACAD_REACTORS
330
D
102
}
330
D
100
AcDbGroup
300

 70
     1
 71
     1
340
7E9B
340
7E9C
  0
GROUP
  5
7FC5
102
{ACAD_REACTORS
330
D
102
}
330
D
100
AcDbGroup
300

 70
     1
 71
     1
340
7E41
340
7E57
340
7E58
340
7E73
340
7E74
340
7E75
340
7E76
  0
GROUP
  5
7FBF
102
{ACAD_REACTORS
330
D
102
}
330
D
100
AcDbGroup
300

 70
     1
 71
     1
340
7E3A
340
7E5B
340
7E5E
340
7E61
340
7E64
340
7E77
340
7E7D
340
7E7E
340
7E7F
340
7E80
340
7E85
340
7E86
340
7E87
340
7E8A
340
7E8E
340
7E8F
340
7E94
340
7E95
  0
GROUP
  5
7FBD
102
{ACAD_REACTORS
330
D
102
}
330
D
100
AcDbGroup
300

 70
     1
 71
     1
340
7E36
340
7E37
340
7E38
340
7E39
340
7E3A
340
7E3B
340
7E3C
340
7E59
340
7E5A
340
7E5B
340
7E5C
340
7E5D
340
7E5E
340
7E5F
340
7E60
340
7E61
340
7E62
340
7E63
340
7E64
340
7E77
340
7E78
340
7E79
340
7E7A
340
7E7B
340
7E7C
340
7E7D
340
7E7E
340
7E7F
340
7E80
340
7E81
340
7E82
340
7E83
340
7E84
340
7E85
340
7E86
340
7E87
340
7E88
340
7E89
340
7E8A
340
7E8B
340
7E8C
340
7E8E
340
7E8F
340
7E90
340
7E91
340
7E92
340
7E93
340
7E94
340
7E95
340
7E96
  0
GROUP
  5
7FC4
102
{ACAD_REACTORS
330
D
102
}
330
D
100
AcDbGroup
300

 70
     1
 71
     1
340
7E3D
340
7E3E
340
7E3F
340
7E40
340
7E42
340
7E43
  0
GROUP
  5
7FCC
102
{ACAD_REACTORS
330
D
102
}
330
D
100
AcDbGroup
300

 70
     1
 71
     1
340
7E99
340
7E9A
  0
GROUP
  5
7FC1
102
{ACAD_REACTORS
330
D
102
}
330
D
100
AcDbGroup
300

 70
     1
 71
     1
340
7E3B
340
7E3C
340
7E59
340
7E5A
340
7E5C
340
7E5D
340
7E5F
340
7E60
340
7E62
340
7E63
  0
GROUP
  5
7FCB
102
{ACAD_REACTORS
330
D
102
}
330
D
100
AcDbGroup
300

 70
     1
 71
     1
340
7E77
  0
GROUP
  5
7FC0
102
{ACAD_REACTORS
330
D
102
}
330
D
100
AcDbGroup
300

 70
     1
 71
     1
340
7E3B
340
7E3C
  0
GROUP
  5
7FC7
102
{ACAD_REACTORS
330
D
102
}
330
D
100
AcDbGroup
300

 70
     1
 71
     1
340
7E44
340
7E53
340
7E54
340
7E55
340
7E56
  0
GROUP
  5
7FC2
102
{ACAD_REACTORS
330
D
102
}
330
D
100
AcDbGroup
300

 70
     1
 71
     1
340
7E3D
340
7E3E
340
7E3F
340
7E40
340
7E42
340
7E43
340
7E45
340
7E46
340
7E4B
340
7E4C
340
7E4D
340
7E4E
340
7E6B
340
7E6C
340
7E6D
340
7E6E
340
7E6F
340
7E70
340
7E71
340
7E72
  0
GROUP
  5
7FC6
102
{ACAD_REACTORS
330
D
102
}
330
D
100
AcDbGroup
300

 70
     1
 71
     1
340
7E44
  0
LAYOUT
  5
21D9
102
{ACAD_REACTORS
330
1A
102
}
330
1A
100
AcDbPlotSettings
  1

  2
Default Windows System Printer.pc3
  4
A3
  6

 40
5.873749732971191
 41
5.873747825622557
 42
5.873748779296875
 43
5.873748779296875
 44
419.9466552734373
 45
296.9259948730469
 46
0.0
 47
0.11
 48
38.710905
 49
25.649351
140
253.710675
141
176.981149
142
1.0
143
1.000470799554799
 70
   692
 72
     1
 73
     0
 74
     1
  7
YKKAP_STA-A3.ctb
 75
     0
147
0.9995294219931166
 76
     1
 77
     2
 78
   300
148
0.0096208843073612
149
0.0002187299285104
100
AcDbLayout
  1
A3print
 70
     1
 71
     2
 10
-5.886135976037838
 20
-5.986783701363403
 11
414.2582299957418
 21
291.0790037978781
 12
0.0
 22
0.0
 32
0.0
 14
-0.0096208843073612
 24
-0.0002187299285104
 34
-0.0000000000000058
 15
408.3817158581346
 25
285.0967938270745
 35
0.0000000000000104
146
0.0
 13
0.0
 23
0.0
 33
0.0
 16
1.0
 26
0.0
 36
0.0
 17
0.0
 27
1.0
 37
0.0
 76
     0
330
21DA
331
21DB
  0
LAYOUT
  5
21F3
102
{ACAD_REACTORS
330
1A
102
}
330
1A
100
AcDbPlotSettings
  1

  2
Default Windows System Printer.pc3
  4
A4
  6

 40
5.916083335876462
 41
5.873747825622557
 42
5.873748779296875
 43
5.873748779296875
 44
296.9683227539062
 45
209.9733276367186
 46
0.0
 47
0.0
 48
38.710905
 49
25.649351
140
253.710675
141
176.981149
142
1.0
143
1.000078268000633
 70
   692
 72
     1
 73
     0
 74
     1
  7
YKKAP_STA-A4.ctb
 75
     0
147
0.9999217381247664
 76
     1
 77
     2
 78
   300
148
0.0022177100685051
149
0.0055663190040487
100
AcDbLayout
  1
A4print
 70
     1
 71
     3
 10
-5.918764085959253
 20
-5.879773871125146
 11
291.0728017848206
 21
204.1099879581342
 12
0.0
 22
0.0
 32
0.0
 14
-0.0022177100685051
 24
-0.0055663190040487
 34
-0.0000000000000058
 15
285.1985932789505
 25
198.2350505435466
 35
0.0000000000000104
146
0.0
 13
0.0
 23
0.0
 33
0.0
 16
1.0
 26
0.0
 36
0.0
 17
0.0
 27
1.0
 37
0.0
 76
     0
330
21F4
331
21F5
  0
LAYOUT
  5
24
102
{ACAD_XDICTIONARY
360
42EE
102
}
102
{ACAD_REACTORS
330
1A
102
}
330
1A
100
AcDbPlotSettings
  1

  2
Default Windows System Printer.pc3
  4
A4
  6

 40
5.873749732971191
 41
5.873747825622557
 42
5.873748779296875
 43
5.873748779296875
 44
296.9259948730469
 45
209.9733276367186
 46
2.429569673056561
 47
0.0
 48
0.0
 49
0.0
140
0.0
141
0.0
142
1.0
143
1.498291107945235
 70
 11956
 72
     1
 73
     0
 74
     2
  7
YKKAP_STA-A4.ctb
 75
     0
147
0.6674270405111088
 76
     0
 77
     2
 78
   300
148
0.0
149
0.0
100
AcDbLayout
  1
Model
 70
     1
 71
     0
 10
0.0
 20
0.0
 11
12.0
 21
9.0
 12
0.0
 22
0.0
 32
0.0
 14
0.0
 24
0.0
 34
0.0
 15
0.0
 25
0.0
 35
0.0
146
0.0
 13
0.0
 23
0.0
 33
0.0
 16
1.0
 26
0.0
 36
0.0
 17
0.0
 27
1.0
 37
0.0
 76
     0
330
21
331
27CF
1001
ACAD_PSEXT
1000
Default Windows System Printer.pc3
1000
Canon LASER SHOT LBP-1820
1000
IP_172.21.5.190
1000

1070
     0
  0
LAYOUT
  5
20
102
{ACAD_REACTORS
330
1A
102
}
330
1A
100
AcDbPlotSettings
  1

  2
none_device
  4
Letter_(8.50_x_11.00_Inches)
  6

 40
6.349999904632567
 41
6.349999904632567
 42
6.350006103515625
 43
6.350006103515625
 44
215.8999938964844
 45
279.3999938964844
 46
0.0
 47
0.0
 48
0.0
 49
0.0
140
0.0
141
0.0
142
1.0
143
1.0
 70
   688
 72
     1
 73
     1
 74
     5
  7
YKKAP_STA-A4.ctb
 75
    16
147
1.0
 76
     0
 77
     2
 78
   300
148
0.0
149
0.0
100
AcDbLayout
  1
レイアウト1
 70
     1
 71
     1
 10
-6.350006103515625
 20
-6.349999904632567
 11
273.0499877929688
 21
209.5499939918518
 12
0.0
 22
0.0
 32
0.0
 14
1.000000000000000E+20
 24
1.000000000000000E+20
 34
1.000000000000000E+20
 15
-1.000000000000000E+20
 25
-1.000000000000000E+20
 35
-1.000000000000000E+20
146
0.0
 13
0.0
 23
0.0
 33
0.0
 16
1.0
 26
0.0
 36
0.0
 17
0.0
 27
1.0
 37
0.0
 76
     0
330
1D
331
345
  0
MATERIAL
  5
27EC
102
{ACAD_XDICTIONARY
360
27ED
102
}
102
{ACAD_REACTORS
330
1B
102
}
330
1B
100
AcDbMaterial
  1
ByBlock
 72
     0
 43
0.0008202099737533
 43
0.0
 43
0.0
 43
0.0
 43
0.0
 43
0.0008202099737533
 43
0.0
 43
0.0
 43
0.0
 43
0.0
 43
1.0
 43
0.0
 43
0.0
 43
0.0
 43
0.0
 43
1.0
 77
     0
 47
0.0008202099737533
 47
0.0
 47
0.0
 47
0.0
 47
0.0
 47
0.0008202099737533
 47
0.0
 47
0.0
 47
0.0
 47
0.0
 47
1.0
 47
0.0
 47
0.0
 47
0.0
 47
0.0
 47
1.0
171
     0
 49
0.0008202099737533
 49
0.0
 49
0.0
 49
0.0
 49
0.0
 49
0.0008202099737533
 49
0.0
 49
0.0
 49
0.0
 49
0.0
 49
1.0
 49
0.0
 49
0.0
 49
0.0
 49
0.0
 49
1.0
175
     0
142
0.0008202099737533
142
0.0
142
0.0
142
0.0
142
0.0
142
0.0008202099737533
142
0.0
142
0.0
142
0.0
142
0.0
142
1.0
142
0.0
142
0.0
142
0.0
142
0.0
142
1.0
179
     0
144
0.0008202099737533
144
0.0
144
0.0
144
0.0
144
0.0
144
0.0008202099737533
144
0.0
144
0.0
144
0.0
144
0.0
144
1.0
144
0.0
144
0.0
144
0.0
144
0.0
144
1.0
147
0.0008202099737533
147
0.0
147
0.0
147
0.0
147
0.0
147
0.0008202099737533
147
0.0
147
0.0
147
0.0
147
0.0
147
1.0
147
0.0
147
0.0
147
0.0
147
0.0
147
1.0
  0
MATERIAL
  5
27E4
102
{ACAD_XDICTIONARY
360
27E5
102
}
102
{ACAD_REACTORS
330
1B
102
}
330
1B
100
AcDbMaterial
  1
ByLayer
 72
     0
 43
0.0008202099737533
 43
0.0
 43
0.0
 43
0.0
 43
0.0
 43
0.0008202099737533
 43
0.0
 43
0.0
 43
0.0
 43
0.0
 43
1.0
 43
0.0
 43
0.0
 43
0.0
 43
0.0
 43
1.0
 77
     0
 47
0.0008202099737533
 47
0.0
 47
0.0
 47
0.0
 47
0.0
 47
0.0008202099737533
 47
0.0
 47
0.0
 47
0.0
 47
0.0
 47
1.0
 47
0.0
 47
0.0
 47
0.0
 47
0.0
 47
1.0
171
     0
 49
0.0008202099737533
 49
0.0
 49
0.0
 49
0.0
 49
0.0
 49
0.0008202099737533
 49
0.0
 49
0.0
 49
0.0
 49
0.0
 49
1.0
 49
0.0
 49
0.0
 49
0.0
 49
0.0
 49
1.0
175
     0
142
0.0008202099737533
142
0.0
142
0.0
142
0.0
142
0.0
142
0.0008202099737533
142
0.0
142
0.0
142
0.0
142
0.0
142
1.0
142
0.0
142
0.0
142
0.0
142
0.0
142
1.0
179
     0
144
0.0008202099737533
144
0.0
144
0.0
144
0.0
144
0.0
144
0.0008202099737533
144
0.0
144
0.0
144
0.0
144
0.0
144
1.0
144
0.0
144
0.0
144
0.0
144
0.0
144
1.0
147
0.0008202099737533
147
0.0
147
0.0
147
0.0
147
0.0
147
0.0008202099737533
147
0.0
147
0.0
147
0.0
147
0.0
147
1.0
147
0.0
147
0.0
147
0.0
147
0.0
147
1.0
  0
MATERIAL
  5
27F4
102
{ACAD_XDICTIONARY
360
27F5
102
}
102
{ACAD_REACTORS
330
1B
102
}
330
1B
100
AcDbMaterial
  1
Global
 72
     0
 43
0.0008202099737533
 43
0.0
 43
0.0
 43
0.0
 43
0.0
 43
0.0008202099737533
 43
0.0
 43
0.0
 43
0.0
 43
0.0
 43
1.0
 43
0.0
 43
0.0
 43
0.0
 43
0.0
 43
1.0
 77
     0
 47
0.0008202099737533
 47
0.0
 47
0.0
 47
0.0
 47
0.0
 47
0.0008202099737533
 47
0.0
 47
0.0
 47
0.0
 47
0.0
 47
1.0
 47
0.0
 47
0.0
 47
0.0
 47
0.0
 47
1.0
171
     0
 49
0.0008202099737533
 49
0.0
 49
0.0
 49
0.0
 49
0.0
 49
0.0008202099737533
 49
0.0
 49
0.0
 49
0.0
 49
0.0
 49
1.0
 49
0.0
 49
0.0
 49
0.0
 49
0.0
 49
1.0
175
     0
142
0.0008202099737533
142
0.0
142
0.0
142
0.0
142
0.0
142
0.0008202099737533
142
0.0
142
0.0
142
0.0
142
0.0
142
1.0
142
0.0
142
0.0
142
0.0
142
0.0
142
1.0
179
     0
144
0.0008202099737533
144
0.0
144
0.0
144
0.0
144
0.0
144
0.0008202099737533
144
0.0
144
0.0
144
0.0
144
0.0
144
1.0
144
0.0
144
0.0
144
0.0
144
0.0
144
1.0
147
0.0008202099737533
147
0.0
147
0.0
147
0.0
147
0.0
147
0.0008202099737533
147
0.0
147
0.0
147
0.0
147
0.0
147
1.0
147
0.0
147
0.0
147
0.0
147
0.0
147
1.0
  0
MLEADERSTYLE
  5
2820
102
{ACAD_XDICTIONARY
360
9980
102
}
102
{ACAD_REACTORS
330
281F
102
}
330
281F
100
AcDbMLeaderStyle
179
     2
170
     2
171
     1
172
     0
 90
        2
 40
0.0
 41
0.0
173
     1
 91
-1056964608
340
14
 92
       -2
290
     1
 42
2.0
291
     1
 43
0.36
  3
Standard
 44
4.0
300

342
11
174
     1
178
     6
175
     1
176
     0
 93
-1056964608
 45
4.0
292
     0
297
     0
 46
4.0
 94
-1056964608
 47
1.0
 49
1.0
140
1.0
293
     1
141
0.0
294
     1
177
     0
142
1.0
295
     0
296
     0
143
0.125
271
     0
272
     9
273
     9
1001
ACAD_MLEADERVER
1070
     2
  0
MLINESTYLE
  5
18
102
{ACAD_REACTORS
330
17
102
}
330
17
100
AcDbMlineStyle
  2
STANDARD
 70
     0
  3

 62
   256
 51
90.0
 52
90.0
 71
     2
 49
0.5
 62
   256
  6
BYLAYER
 49
-0.5
 62
   256
  6
BYLAYER
  0
ACDBPLACEHOLDER
  5
F
102
{ACAD_REACTORS
330
E
102
}
330
E
  0
DICTIONARY
  5
2981
330
2980
100
AcDbDictionary
280
     1
281
     1
  3
ADSK_XREC_MENTALRAYSETTINGSINFO
360
2982
  0
SCALE
  5
280E
102
{ACAD_REACTORS
330
280D
102
}
330
280D
100
AcDbScale
 70
     0
300
1:1
140
1.0
141
1.0
290
     1
  0
SCALE
  5
280F
102
{ACAD_REACTORS
330
280D
102
}
330
280D
100
AcDbScale
 70
     0
300
1:2
140
1.0
141
2.0
290
     0
  0
SCALE
  5
2810
102
{ACAD_REACTORS
330
280D
102
}
330
280D
100
AcDbScale
 70
     0
300
1:4
140
1.0
141
4.0
290
     0
  0
SCALE
  5
2811
102
{ACAD_REACTORS
330
280D
102
}
330
280D
100
AcDbScale
 70
     0
300
1:5
140
1.0
141
5.0
290
     0
  0
SCALE
  5
2812
102
{ACAD_REACTORS
330
280D
102
}
330
280D
100
AcDbScale
 70
     0
300
1:8
140
1.0
141
8.0
290
     0
  0
SCALE
  5
2813
102
{ACAD_REACTORS
330
280D
102
}
330
280D
100
AcDbScale
 70
     0
300
1:10
140
1.0
141
10.0
290
     0
  0
SCALE
  5
2814
102
{ACAD_REACTORS
330
280D
102
}
330
280D
100
AcDbScale
 70
     0
300
1:16
140
1.0
141
16.0
290
     0
  0
SCALE
  5
2815
102
{ACAD_REACTORS
330
280D
102
}
330
280D
100
AcDbScale
 70
     0
300
1:20
140
1.0
141
20.0
290
     0
  0
SCALE
  5
2816
102
{ACAD_REACTORS
330
280D
102
}
330
280D
100
AcDbScale
 70
     0
300
1:30
140
1.0
141
30.0
290
     0
  0
SCALE
  5
2817
102
{ACAD_REACTORS
330
280D
102
}
330
280D
100
AcDbScale
 70
     0
300
1:40
140
1.0
141
40.0
290
     0
  0
SCALE
  5
2818
102
{ACAD_REACTORS
330
280D
102
}
330
280D
100
AcDbScale
 70
     0
300
1:50
140
1.0
141
50.0
290
     0
  0
SCALE
  5
2819
102
{ACAD_REACTORS
330
280D
102
}
330
280D
100
AcDbScale
 70
     0
300
1:100
140
1.0
141
100.0
290
     0
  0
SCALE
  5
281A
102
{ACAD_REACTORS
330
280D
102
}
330
280D
100
AcDbScale
 70
     0
300
2:1
140
2.0
141
1.0
290
     0
  0
SCALE
  5
281B
102
{ACAD_REACTORS
330
280D
102
}
330
280D
100
AcDbScale
 70
     0
300
4:1
140
4.0
141
1.0
290
     0
  0
SCALE
  5
281C
102
{ACAD_REACTORS
330
280D
102
}
330
280D
100
AcDbScale
 70
     0
300
8:1
140
8.0
141
1.0
290
     0
  0
SCALE
  5
281D
102
{ACAD_REACTORS
330
280D
102
}
330
280D
100
AcDbScale
 70
     0
300
10:1
140
10.0
141
1.0
290
     0
  0
SCALE
  5
281E
102
{ACAD_REACTORS
330
280D
102
}
330
280D
100
AcDbScale
 70
     0
300
100:1
140
100.0
141
1.0
290
     0
  0
ACDBSECTIONVIEWSTYLE
  5
6BF3
102
{ACAD_XDICTIONARY
360
999A
102
}
102
{ACAD_REACTORS
330
2881
102
}
330
2881
100
AcDbModelDocViewStyle
 70
     0
  3
Imperial24
290
     0
100
AcDbSectionViewStyle
 70
     0
 71
     0
 90
       78
 71
     1
340
11
 62
   256
 40
0.24
340
0
340
0
 62
   256
 40
0.24
300
I, O, Q, S, X, Z
 40
0.48
 90
        3
 40
0.18
 90
        1
 71
     2
340
16
 90
       25
 62
   256
340
16
 90
       50
 62
   256
 40
0.24
 40
0.0
 40
0.24
 71
     3
340
11
 62
   256
 40
0.24
 90
        1
 40
0.75
 90
        1
300
%<\AcVar ViewType \f "%tc1">% %<\AcVar ViewSectionStartId>%-%<\AcVar ViewSectionEndId>%\PSCALE %<\AcVar ViewScale \f "%sn">%
 71
     4
 62
   256
 62
   257
300
ANSI31
 40
1.0
 90
        0
290
     0
290
     0
 90
        6
 40
0.0
 40
1.570796326794896
 40
0.2617993877991494
 40
1.308996938995747
 40
-0.2617993877991494
 40
1.832595714594044
  0
ACDBSECTIONVIEWSTYLE
  5
2882
102
{ACAD_XDICTIONARY
360
9996
102
}
102
{ACAD_REACTORS
330
2881
102
}
330
2881
100
AcDbModelDocViewStyle
 70
     0
  3
Metric50
290
     0
100
AcDbSectionViewStyle
 70
     0
 71
     0
 90
      102
 71
     1
340
11
 62
   256
 40
5.0
340
0
340
0
 62
   256
 40
5.0
300
I, O, Q, S, X, Z
 40
10.0
 90
        0
 40
2.5
 90
        0
 71
     2
340
16
 90
       25
 62
   256
340
16
 90
       50
 62
   256
 40
5.0
 40
2.5
 40
5.0
 71
     3
340
11
 62
   256
 40
5.0
 90
        0
 40
15.0
 90
        1
300
%<\AcVar ViewSectionStartId>%-%<\AcVar ViewSectionEndId>% (%<\AcVar ViewScale \f "%sn">%)
 71
     4
 62
   256
 62
   257
300
ANSI31
 40
1.0
 90
        0
290
     0
290
     0
 90
        6
 40
0.0
 40
1.570796326794896
 40
0.2617993877991494
 40
1.308996938995747
 40
-0.2617993877991494
 40
1.832595714594044
  0
TABLESTYLE
  5
49F
102
{ACAD_XDICTIONARY
360
285E
102
}
102
{ACAD_REACTORS
330
49E
102
}
330
49E
100
AcDbTableStyle
280
     0
  3
Standard
 70
     0
 71
     0
 40
1.5
 41
1.5
280
     0
281
     0
  7
STANDARD
140
4.5
170
     2
 62
     0
 63
     7
283
     0
 90
        4
 91
        0
  1

274
    -2
284
     1
 64
     0
275
    -2
285
     1
 65
     0
276
    -2
286
     1
 66
     0
277
    -2
287
     1
 67
     0
278
    -2
288
     1
 68
     0
279
    -2
289
     1
 69
     0
  7
STANDARD
140
6.0
170
     5
 62
     0
 63
     7
283
     0
 90
        4
 91
        0
  1

274
    -2
284
     1
 64
     0
275
    -2
285
     1
 65
     0
276
    -2
286
     1
 66
     0
277
    -2
287
     1
 67
     0
278
    -2
288
     1
 68
     0
279
    -2
289
     1
 69
     0
  7
STANDARD
140
4.5
170
     5
 62
     0
 63
     7
283
     0
 90
        4
 91
        0
  1

274
    -2
284
     1
 64
     0
275
    -2
285
     1
 65
     0
276
    -2
286
     1
 66
     0
277
    -2
287
     1
 67
     0
278
    -2
288
     1
 68
     0
279
    -2
289
     1
 69
     0
  0
TABLESTYLE
  5
A66
102
{ACAD_XDICTIONARY
360
2860
102
}
102
{ACAD_REACTORS
330
49E
102
}
330
49E
100
AcDbTableStyle
280
     0
  3
Standard
 70
     0
 71
     0
 40
0.5
 41
0.0
280
     0
281
     0
  7
text-b
140
4.0
170
     5
 62
     0
 63
     7
283
     0
 90
        4
 91
        0
  1

274
    -2
284
     1
 64
     0
275
    -2
285
     1
 65
     0
276
    -2
286
     1
 66
     0
277
    -2
287
     1
 67
     0
278
    -2
288
     1
 68
     0
279
    -2
289
     1
 69
     0
  7
STANDARD
140
6.0
170
     5
 62
     0
 63
     7
283
     0
 90
        4
 91
        0
  1

274
    -2
284
     1
 64
     0
275
    -2
285
     1
 65
     0
276
    -2
286
     1
 66
     0
277
    -2
287
     1
 67
     0
278
    -2
288
     1
 68
     0
279
    -2
289
     1
 69
     0
  7
text-b
140
4.0
170
     5
 62
     0
 63
     7
283
     0
 90
        4
 91
        0
  1

274
    -2
284
     1
 64
     0
275
    -2
285
     1
 65
     0
276
    -2
286
     1
 66
     0
277
    -2
287
     1
 67
     0
278
    -2
288
     1
 68
     0
279
    -2
289
     1
 69
     0
  0
VISUALSTYLE
  5
2802
102
{ACAD_XDICTIONARY
360
996A
102
}
102
{ACAD_REACTORS
330
27FC
102
}
330
27FC
100
AcDbVisualStyle
  2

 70
     4
177
     2
291
     0
 71
     0
176
     1
 72
     2
176
     1
 73
     0
176
     1
 90
        0
176
     1
 40
0.6
176
     1
 41
30.0
176
     1
 63
     7
176
     1
 74
     1
176
     1
 91
        4
176
     1
 64
     7
176
     1
 65
   257
176
     1
 75
     1
176
     1
175
     1
176
     1
 42
1.0
176
     1
 92
        0
176
     1
 66
   257
176
     1
 43
1.0
176
     1
 76
     1
176
     1
 77
     6
176
     1
 78
     2
176
     1
 67
     7
176
     1
 79
     5
176
     1
170
     0
176
     1
171
     0
176
     1
290
     0
176
     1
 93
        1
176
     1
 44
0.0
176
     1
173
     0
176
     1
1001
ACAD
1000
AcDbSavedByObjectVersion
1070
     0
  0
VISUALSTYLE
  5
2804
102
{ACAD_XDICTIONARY
360
996E
102
}
102
{ACAD_REACTORS
330
27FC
102
}
330
27FC
100
AcDbVisualStyle
  2

 70
     6
177
     2
291
     0
 71
     1
176
     1
 72
     2
176
     1
 73
     2
176
     1
 90
        0
176
     1
 40
0.6
176
     1
 41
30.0
176
     1
 63
     7
176
     1
 74
     2
176
     1
 91
        2
176
     1
 64
     7
176
     1
 65
   257
176
     1
 75
     2
176
     1
175
     1
176
     1
 42
40.0
176
     1
 92
        0
176
     1
 66
   257
176
     1
 43
1.0
176
     1
 76
     1
176
     1
 77
     6
176
     1
 78
     2
176
     1
 67
     7
176
     1
 79
     3
176
     1
170
     0
176
     1
171
     0
176
     1
290
     0
176
     1
 93
        1
176
     1
 44
0.0
176
     1
173
     0
176
     1
1001
ACAD
1000
AcDbSavedByObjectVersion
1070
     0
  0
VISUALSTYLE
  5
2803
102
{ACAD_XDICTIONARY
360
996C
102
}
102
{ACAD_REACTORS
330
27FC
102
}
330
27FC
100
AcDbVisualStyle
  2

 70
     5
177
     2
291
     0
 71
     0
176
     1
 72
     2
176
     1
 73
     0
176
     1
 90
        0
176
     1
 40
0.6
176
     1
 41
30.0
176
     1
 63
     7
176
     1
 74
     1
176
     1
 91
        4
176
     1
 64
     7
176
     1
 65
   257
176
     1
 75
     1
176
     1
175
     1
176
     1
 42
1.0
176
     1
 92
        0
176
     1
 66
   257
176
     1
 43
1.0
176
     1
 76
     1
176
     1
 77
     6
176
     1
 78
     2
176
     1
 67
     7
176
     1
 79
     5
176
     1
170
     0
176
     1
171
     0
176
     1
290
     0
176
     1
 93
        1
176
     1
 44
0.0
176
     1
173
     0
176
     1
1001
ACAD
1000
AcDbSavedByObjectVersion
1070
     0
  0
VISUALSTYLE
  5
2801
102
{ACAD_XDICTIONARY
360
9968
102
}
102
{ACAD_REACTORS
330
27FC
102
}
330
27FC
100
AcDbVisualStyle
  2

 70
     7
177
     2
291
     1
 71
     1
176
     1
 72
     0
176
     1
 73
     1
176
     1
 90
        0
176
     1
 40
0.6
176
     1
 41
30.0
176
     1
 63
     7
176
     1
 74
     0
176
     1
 91
        4
176
     1
 64
     7
176
     1
 65
   257
176
     1
 75
     1
176
     1
175
     1
176
     1
 42
1.0
176
     1
 92
        8
176
     1
 66
     7
176
     1
 43
1.0
176
     1
 76
     1
176
     1
 77
     6
176
     1
 78
     2
176
     1
 67
     7
176
     1
 79
     5
176
     1
170
     0
176
     1
171
     0
176
     1
290
     0
176
     1
 93
        1
176
     1
 44
0.0
176
     1
173
     0
176
     1
1001
ACAD
1000
AcDbSavedByObjectVersion
1070
     0
  0
VISUALSTYLE
  5
2808
102
{ACAD_XDICTIONARY
360
9976
102
}
102
{ACAD_REACTORS
330
27FC
102
}
330
27FC
100
AcDbVisualStyle
  2

 70
    12
177
     2
291
     1
 71
     2
176
     1
 72
     2
176
     1
 73
     0
176
     1
 90
        0
176
     1
 40
0.6
176
     1
 41
30.0
176
     1
 63
     7
176
     1
 74
     1
176
     1
 91
        4
176
     1
 64
     7
176
     1
 65
   257
176
     1
 75
     1
176
     1
175
     1
176
     1
 42
1.0
176
     1
 92
        8
176
     1
 66
     7
176
     1
 43
1.0
176
     1
 76
     1
176
     1
 77
     6
176
     1
 78
     2
176
     1
 67
     7
176
     1
 79
     5
176
     1
170
     0
176
     1
171
     0
176
     1
290
     0
176
     1
 93
        1
176
     1
 44
50.0
176
     1
173
     0
176
     1
1001
ACAD
1000
AcDbSavedByObjectVersion
1070
     0
  0
VISUALSTYLE
  5
280C
102
{ACAD_XDICTIONARY
360
997E
102
}
102
{ACAD_REACTORS
330
27FC
102
}
330
27FC
100
AcDbVisualStyle
  2

 70
    16
177
     2
291
     1
 71
     2
176
     1
 72
     2
176
     1
 73
     3
176
     1
 90
        0
176
     1
 40
0.6
176
     1
 41
30.0
176
     1
 63
     8
176
     1
 74
     1
176
     1
 91
        4
176
     1
 64
     7
176
     1
 65
   257
176
     1
 75
     1
176
     1
175
     1
176
     1
 42
1.0
176
     1
 92
        8
176
     1
 66
     8
176
     1
 43
1.0
176
     1
 76
     1
176
     1
 77
     6
176
     1
 78
     2
176
     1
 67
     7
176
     1
 79
     5
176
     1
170
     0
176
     1
171
     0
176
     1
290
     0
176
     1
 93
        1
176
     1
 44
0.0
176
     1
173
     0
176
     1
1001
ACAD
1000
AcDbSavedByObjectVersion
1070
     0
  0
VISUALSTYLE
  5
2805
102
{ACAD_XDICTIONARY
360
9970
102
}
102
{ACAD_REACTORS
330
27FC
102
}
330
27FC
100
AcDbVisualStyle
  2

 70
     9
177
     2
291
     0
 71
     3
176
     1
 72
     2
176
     1
 73
     0
176
     1
 90
        0
176
     1
 40
0.6
176
     1
 41
30.0
176
     1
 63
     7
176
     1
 74
     2
176
     1
 91
        2
176
     1
 64
     7
176
     1
 65
   257
176
     1
 75
     1
176
     1
175
     1
176
     1
 42
40.0
176
     1
 92
        8
176
     1
 66
     7
176
     1
 43
1.0
176
     1
 76
     1
176
     1
 77
     6
176
     1
 78
     2
176
     1
 67
     7
176
     1
 79
     3
176
     1
170
     0
176
     1
171
     0
176
     1
290
     0
176
     1
 93
        1
176
     1
 44
0.0
176
     1
173
     0
176
     1
1001
ACAD
1000
AcDbSavedByObjectVersion
1070
     0
  0
VISUALSTYLE
  5
2807
102
{ACAD_XDICTIONARY
360
9974
102
}
102
{ACAD_REACTORS
330
27FC
102
}
330
27FC
100
AcDbVisualStyle
  2

 70
    11
177
     2
291
     1
 71
     2
176
     1
 72
     2
176
     1
 73
     0
176
     1
 90
        0
176
     1
 40
0.6
176
     1
 41
30.0
176
     1
 63
     7
176
     1
 74
     1
176
     1
 91
        4
176
     1
 64
     7
176
     1
 65
   257
176
     1
 75
     1
176
     1
175
     1
176
     1
 42
1.0
176
     1
 92
        8
176
     1
 66
     7
176
     1
 43
1.0
176
     1
 76
     1
176
     1
 77
     6
176
     1
 78
     2
176
     1
 67
     7
176
     1
 79
     5
176
     1
170
     0
176
     1
171
     0
176
     1
290
     0
176
     1
 93
        1
176
     1
 44
-50.0
176
     1
173
     0
176
     1
1001
ACAD
1000
AcDbSavedByObjectVersion
1070
     0
  0
VISUALSTYLE
  5
2880
102
{ACAD_XDICTIONARY
360
9994
102
}
102
{ACAD_REACTORS
330
27FC
102
}
330
27FC
100
AcDbVisualStyle
  2

 70
    22
177
     2
291
     1
 71
     2
176
     0
 72
     2
176
     0
 73
     0
176
     0
 90
        0
176
     0
 40
0.6
176
     0
 41
30.0
176
     0
 63
     7
176
     0
 74
     1
176
     0
 91
        4
176
     0
 64
     7
176
     0
 65
   257
176
     0
 75
     1
176
     0
175
     1
176
     0
 42
1.0
176
     0
 92
        8
176
     2
 66
     7
176
     0
 43
1.0
176
     0
 76
     1
176
     0
 77
     6
176
     0
 78
     2
176
     0
 67
     7
176
     0
 79
     5
176
     0
170
     0
176
     0
171
     0
176
     0
290
     0
176
     0
 93
        1
176
     0
 44
0.0
176
     0
173
     0
176
     0
1001
ACAD
1000
AcDbSavedByObjectVersion
1070
     0
  0
VISUALSTYLE
  5
280B
102
{ACAD_XDICTIONARY
360
997C
102
}
102
{ACAD_REACTORS
330
27FC
102
}
330
27FC
100
AcDbVisualStyle
  2

 70
    15
177
     2
291
     1
 71
     2
176
     1
 72
     2
176
     1
 73
     0
176
     1
 90
        0
176
     1
 40
0.6
176
     1
 41
30.0
176
     1
 63
     7
176
     1
 74
     1
176
     1
 91
        4
176
     1
 64
     7
176
     1
 65
   257
176
     1
 75
     1
176
     1
175
     1
176
     1
 42
1.0
176
     1
 92
        8
176
     1
 66
     7
176
     1
 43
1.0
176
     1
 76
     1
176
     1
 77
     6
176
     1
 78
     2
176
     1
 67
     7
176
     1
 79
     5
176
     1
170
     0
176
     1
171
     0
176
     1
290
     0
176
     1
 93
        1
176
     1
 44
0.0
176
     1
173
     0
176
     1
1001
ACAD
1000
AcDbSavedByObjectVersion
1070
     0
  0
VISUALSTYLE
  5
27FD
102
{ACAD_XDICTIONARY
360
9960
102
}
102
{ACAD_REACTORS
330
27FC
102
}
330
27FC
100
AcDbVisualStyle
  2

 70
     0
177
     2
291
     1
 71
     2
176
     1
 72
     1
176
     1
 73
     1
176
     1
 90
        2
176
     1
 40
0.6
176
     1
 41
30.0
176
     1
 63
     7
176
     1
 74
     0
176
     1
 91
        4
176
     1
 64
     7
176
     1
 65
   257
176
     1
 75
     1
176
     1
175
     1
176
     1
 42
1.0
176
     1
 92
        8
176
     1
 66
     7
176
     1
 43
1.0
176
     1
 76
     1
176
     1
 77
     6
176
     1
 78
     2
176
     1
 67
     7
176
     1
 79
     5
176
     1
170
     0
176
     1
171
     0
176
     1
290
     0
176
     1
 93
       13
176
     1
 44
0.0
176
     1
173
     0
176
     1
1001
ACAD
1000
AcDbSavedByObjectVersion
1070
     0
  0
VISUALSTYLE
  5
27FE
102
{ACAD_XDICTIONARY
360
9962
102
}
102
{ACAD_REACTORS
330
27FC
102
}
330
27FC
100
AcDbVisualStyle
  2

 70
     1
177
     2
291
     1
 71
     2
176
     1
 72
     1
176
     1
 73
     1
176
     1
 90
        2
176
     1
 40
0.6
176
     1
 41
30.0
176
     1
 63
     7
176
     1
 74
     1
176
     1
 91
        4
176
     1
 64
     7
176
     1
 65
   257
176
     1
 75
     1
176
     1
175
     1
176
     1
 42
1.0
176
     1
 92
        0
176
     1
 66
   257
176
     1
 43
1.0
176
     1
 76
     1
176
     1
 77
     6
176
     1
 78
     2
176
     1
 67
     7
176
     1
 79
     5
176
     1
170
     0
176
     1
171
     0
176
     1
290
     0
176
     1
 93
       13
176
     1
 44
0.0
176
     1
173
     0
176
     1
1001
ACAD
1000
AcDbSavedByObjectVersion
1070
     0
  0
VISUALSTYLE
  5
27FF
102
{ACAD_XDICTIONARY
360
9964
102
}
102
{ACAD_REACTORS
330
27FC
102
}
330
27FC
100
AcDbVisualStyle
  2

 70
     2
177
     2
291
     1
 71
     2
176
     1
 72
     2
176
     1
 73
     1
176
     1
 90
        2
176
     1
 40
0.6
176
     1
 41
30.0
176
     1
 63
     7
176
     1
 74
     0
176
     1
 91
        4
176
     1
 64
     7
176
     1
 65
   257
176
     1
 75
     1
176
     1
175
     1
176
     1
 42
1.0
176
     1
 92
        0
176
     1
 66
     7
176
     1
 43
1.0
176
     1
 76
     1
176
     1
 77
     6
176
     1
 78
     2
176
     1
 67
     7
176
     1
 79
     5
176
     1
170
     0
176
     1
171
     0
176
     1
290
     0
176
     1
 93
       13
176
     1
 44
0.0
176
     1
173
     0
176
     1
1001
ACAD
1000
AcDbSavedByObjectVersion
1070
     0
  0
VISUALSTYLE
  5
2800
102
{ACAD_XDICTIONARY
360
9966
102
}
102
{ACAD_REACTORS
330
27FC
102
}
330
27FC
100
AcDbVisualStyle
  2

 70
     3
177
     2
291
     1
 71
     2
176
     1
 72
     2
176
     1
 73
     1
176
     1
 90
        2
176
     1
 40
0.6
176
     1
 41
30.0
176
     1
 63
     7
176
     1
 74
     1
176
     1
 91
        4
176
     1
 64
     7
176
     1
 65
   257
176
     1
 75
     1
176
     1
175
     1
176
     1
 42
1.0
176
     1
 92
        0
176
     1
 66
   257
176
     1
 43
1.0
176
     1
 76
     1
176
     1
 77
     6
176
     1
 78
     2
176
     1
 67
     7
176
     1
 79
     5
176
     1
170
     0
176
     1
171
     0
176
     1
290
     0
176
     1
 93
       13
176
     1
 44
0.0
176
     1
173
     0
176
     1
1001
ACAD
1000
AcDbSavedByObjectVersion
1070
     0
  0
VISUALSTYLE
  5
2878
102
{ACAD_XDICTIONARY
360
9984
102
}
102
{ACAD_REACTORS
330
27FC
102
}
330
27FC
100
AcDbVisualStyle
  2

 70
     6
177
     2
291
     0
 71
     1
176
     1
 72
     2
176
     1
 73
     2
176
     1
 90
        0
176
     1
 40
0.6
176
     1
 41
30.0
176
     1
 63
     7
176
     1
 74
     2
176
     1
 91
        2
176
     1
 64
     7
176
     1
 65
   257
176
     1
 75
     2
176
     1
175
     1
176
     1
 42
40.0
176
     1
 92
        0
176
     1
 66
   257
176
     1
 43
1.0
176
     1
 76
     1
176
     1
 77
     6
176
     1
 78
     2
176
     1
 67
     7
176
     1
 79
     3
176
     1
170
     0
176
     1
171
     0
176
     1
290
     0
176
     1
 93
        1
176
     1
 44
0.0
176
     1
173
     0
176
     1
1001
ACAD
1000
AcDbSavedByObjectVersion
1070
     0
  0
VISUALSTYLE
  5
287E
102
{ACAD_XDICTIONARY
360
9990
102
}
102
{ACAD_REACTORS
330
27FC
102
}
330
27FC
100
AcDbVisualStyle
  2

 70
    20
177
     2
291
     1
 71
     2
176
     0
 72
     2
176
     0
 73
     0
176
     0
 90
        0
176
     0
 40
0.6
176
     0
 41
30.0
176
     0
 63
     7
176
     0
 74
     1
176
     0
 91
        4
176
     0
 64
     7
176
     0
 65
   257
176
     0
 75
     1
176
     0
175
     1
176
     0
 42
1.0
176
     0
 92
       10
176
     2
 66
     7
176
     0
 43
1.0
176
     0
 76
     1
176
     0
 77
     6
176
     0
 78
     2
176
     0
 67
     7
176
     0
 79
     5
176
     0
170
     0
176
     0
171
     0
176
     0
290
     0
176
     0
 93
        1
176
     0
 44
0.0
176
     0
173
     0
176
     0
1001
ACAD
1000
AcDbSavedByObjectVersion
1070
     0
  0
VISUALSTYLE
  5
280A
102
{ACAD_XDICTIONARY
360
997A
102
}
102
{ACAD_REACTORS
330
27FC
102
}
330
27FC
100
AcDbVisualStyle
  2

 70
    14
177
     2
291
     1
 71
     2
176
     1
 72
     2
176
     1
 73
     0
176
     1
 90
        0
176
     1
 40
0.6
176
     1
 41
30.0
176
     1
 63
     7
176
     1
 74
     1
176
     1
 91
        4
176
     1
 64
     7
176
     1
 65
   257
176
     1
 75
     7
176
     1
175
     7
176
     1
 42
1.0
176
     1
 92
        8
176
     1
 66
     7
176
     1
 43
1.0
176
     1
 76
     1
176
     1
 77
     6
176
     1
 78
     2
176
     1
 67
     7
176
     1
 79
     5
176
     1
170
     0
176
     1
171
     0
176
     1
290
     0
176
     1
 93
        1
176
     1
 44
0.0
176
     1
173
     0
176
     1
1001
ACAD
1000
AcDbSavedByObjectVersion
1070
     0
  0
VISUALSTYLE
  5
287F
102
{ACAD_XDICTIONARY
360
9992
102
}
102
{ACAD_REACTORS
330
27FC
102
}
330
27FC
100
AcDbVisualStyle
  2

 70
    21
177
     2
291
     1
 71
     2
176
     0
 72
     2
176
     0
 73
     0
176
     0
 90
        0
176
     0
 40
0.6
176
     0
 41
30.0
176
     0
 63
     7
176
     0
 74
     1
176
     0
 91
        4
176
     0
 64
     7
176
     0
 65
   257
176
     0
 75
     1
176
     0
175
     1
176
     0
 42
1.0
176
     0
 92
        9
176
     2
 66
     7
176
     0
 43
1.0
176
     0
 76
     1
176
     0
 77
     6
176
     0
 78
     2
176
     0
 67
     7
176
     0
 79
     5
176
     0
170
     0
176
     0
171
     0
176
     0
290
     0
176
     0
 93
        1
176
     0
 44
0.0
176
     0
173
     0
176
     0
1001
ACAD
1000
AcDbSavedByObjectVersion
1070
     0
  0
VISUALSTYLE
  5
2806
102
{ACAD_XDICTIONARY
360
9972
102
}
102
{ACAD_REACTORS
330
27FC
102
}
330
27FC
100
AcDbVisualStyle
  2

 70
     8
177
     2
291
     0
 71
     2
176
     1
 72
     2
176
     1
 73
     0
176
     1
 90
        0
176
     1
 40
0.6
176
     1
 41
30.0
176
     1
 63
     7
176
     1
 74
     1
176
     1
 91
        0
176
     1
 64
     7
176
     1
 65
   257
176
     1
 75
     1
176
     1
175
     1
176
     1
 42
1.0
176
     1
 92
        8
176
     1
 66
     8
176
     1
 43
1.0
176
     1
 76
     1
176
     1
 77
     6
176
     1
 78
     2
176
     1
 67
     7
176
     1
 79
     5
176
     1
170
     0
176
     1
171
     0
176
     1
290
     0
176
     1
 93
       13
176
     1
 44
0.0
176
     1
173
     0
176
     1
1001
ACAD
1000
AcDbSavedByObjectVersion
1070
     0
  0
VISUALSTYLE
  5
287D
102
{ACAD_XDICTIONARY
360
998E
102
}
102
{ACAD_REACTORS
330
27FC
102
}
330
27FC
100
AcDbVisualStyle
  2

 70
    27
177
     2
291
     0
 71
     2
176
     1
 72
     2
176
     1
 73
     1
176
     1
 90
        2
176
     1
 40
0.6
176
     1
 41
30.0
176
     1
 63
     7
176
     1
 74
     0
176
     1
 91
        4
176
     1
 64
     7
176
     1
 65
   257
176
     1
 75
     1
176
     1
175
     1
176
     1
 42
1.0
176
     1
 92
        8
176
     1
 66
   257
176
     1
 43
1.0
176
     1
 76
     1
176
     1
 77
     6
176
     1
 78
     2
176
     1
 67
     8
176
     1
 79
     3
176
     1
170
     0
176
     1
171
     0
176
     1
290
     0
176
     1
 93
        5
176
     1
 44
0.0
176
     1
173
     0
176
     1
1001
ACAD
1000
AcDbSavedByObjectVersion
1070
     0
  0
VISUALSTYLE
  5
287C
102
{ACAD_XDICTIONARY
360
998C
102
}
102
{ACAD_REACTORS
330
27FC
102
}
330
27FC
100
AcDbVisualStyle
  2

 70
    26
177
     2
291
     0
 71
     2
176
     1
 72
     2
176
     1
 73
     1
176
     1
 90
        2
176
     1
 40
0.6
176
     1
 41
30.0
176
     1
 63
     7
176
     1
 74
     1
176
     1
 91
        2
176
     1
 64
     7
176
     1
 65
   257
176
     1
 75
     2
176
     1
175
     1
176
     1
 42
1.0
176
     1
 92
        8
176
     1
 66
   257
176
     1
 43
1.0
176
     1
 76
     1
176
     1
 77
     6
176
     1
 78
     2
176
     1
 67
     7
176
     1
 79
     3
176
     1
170
     0
176
     1
171
     0
176
     1
290
     0
176
     1
 93
        5
176
     1
 44
0.0
176
     1
173
     0
176
     1
1001
ACAD
1000
AcDbSavedByObjectVersion
1070
     0
  0
VISUALSTYLE
  5
2879
102
{ACAD_XDICTIONARY
360
9986
102
}
102
{ACAD_REACTORS
330
27FC
102
}
330
27FC
100
AcDbVisualStyle
  2

 70
    23
177
     2
291
     0
 71
     2
176
     1
 72
     2
176
     1
 73
     3
176
     1
 90
        0
176
     1
 40
0.6
176
     1
 41
30.0
176
     1
 63
     7
176
     1
 74
     2
176
     1
 91
        2
176
     1
 64
     7
176
     1
 65
     7
176
     1
 75
     1
176
     1
175
     1
176
     1
 42
40.0
176
     1
 92
        8
176
     1
 66
     7
176
     1
 43
1.0
176
     1
 76
     1
176
     1
 77
     6
176
     1
 78
     2
176
     1
 67
     7
176
     1
 79
     3
176
     1
170
     0
176
     1
171
     0
176
     1
290
     0
176
     1
 93
        1
176
     1
 44
0.0
176
     1
173
     0
176
     1
1001
ACAD
1000
AcDbSavedByObjectVersion
1070
     0
  0
VISUALSTYLE
  5
287A
102
{ACAD_XDICTIONARY
360
9988
102
}
102
{ACAD_REACTORS
330
27FC
102
}
330
27FC
100
AcDbVisualStyle
  2

 70
    24
177
     2
291
     0
 71
     1
176
     1
 72
     2
176
     1
 73
     2
176
     1
 90
        0
176
     1
 40
0.6
176
     1
 41
30.0
176
     1
 63
     7
176
     1
 74
     2
176
     1
 91
        2
176
     1
 64
     7
176
     1
 65
     7
176
     1
 75
     1
176
     1
175
     1
176
     1
 42
40.0
176
     1
 92
       11
176
     1
 66
     7
176
     1
 43
1.0
176
     1
 76
     1
176
     1
 77
     6
176
     1
 78
     2
176
     1
 67
     7
176
     1
 79
     6
176
     1
170
     0
176
     1
171
     0
176
     1
290
     0
176
     1
 93
        1
176
     1
 44
0.0
176
     1
173
     0
176
     1
1001
ACAD
1000
AcDbSavedByObjectVersion
1070
     0
  0
VISUALSTYLE
  5
2809
102
{ACAD_XDICTIONARY
360
9978
102
}
102
{ACAD_REACTORS
330
27FC
102
}
330
27FC
100
AcDbVisualStyle
  2

 70
    13
177
     2
291
     1
 71
     2
176
     1
 72
     2
176
     1
 73
     0
176
     1
 90
        0
176
     1
 40
0.6
176
     1
 41
30.0
176
     1
 63
     7
176
     1
 74
     1
176
     1
 91
        4
176
     1
 64
     7
176
     1
 65
   257
176
     1
 75
     1
176
     1
175
     1
176
     1
 42
1.0
176
     1
 92
       12
176
     1
 66
     7
176
     1
 43
1.0
176
     1
 76
     1
176
     1
 77
     6
176
     1
 78
     2
176
     1
 67
     7
176
     1
 79
     5
176
     1
170
     0
176
     1
171
     0
176
     1
290
     0
176
     1
 93
        1
176
     1
 44
0.0
176
     1
173
     0
176
     1
1001
ACAD
1000
AcDbSavedByObjectVersion
1070
     0
  0
VISUALSTYLE
  5
2877
102
{ACAD_XDICTIONARY
360
9982
102
}
102
{ACAD_REACTORS
330
27FC
102
}
330
27FC
100
AcDbVisualStyle
  2

 70
     5
177
     2
291
     0
 71
     0
176
     1
 72
     2
176
     1
 73
     0
176
     1
 90
        0
176
     1
 40
0.6
176
     1
 41
30.0
176
     1
 63
     7
176
     1
 74
     1
176
     1
 91
        4
176
     1
 64
     7
176
     1
 65
   257
176
     1
 75
     1
176
     1
175
     1
176
     1
 42
1.0
176
     1
 92
        0
176
     1
 66
   257
176
     1
 43
1.0
176
     1
 76
     1
176
     1
 77
     6
176
     1
 78
     2
176
     1
 67
     7
176
     1
 79
     3
176
     1
170
     0
176
     1
171
     0
176
     1
290
     0
176
     1
 93
        1
176
     1
 44
0.0
176
     1
173
     0
176
     1
1001
ACAD
1000
AcDbSavedByObjectVersion
1070
     0
  0
VISUALSTYLE
  5
287B
102
{ACAD_XDICTIONARY
360
998A
102
}
102
{ACAD_REACTORS
330
27FC
102
}
330
27FC
100
AcDbVisualStyle
  2

 70
    25
177
     2
291
     0
 71
     2
176
     1
 72
     2
176
     1
 73
     1
176
     1
 90
        1
176
     1
 40
0.5
176
     1
 41
30.0
176
     1
 63
     7
176
     1
 74
     1
176
     1
 91
        0
176
     1
 64
     7
176
     1
 65
   257
176
     1
 75
     1
176
     1
175
     1
176
     1
 42
1.0
176
     1
 92
        8
176
     1
 66
     7
176
     1
 43
1.0
176
     1
 76
     1
176
     1
 77
     6
176
     1
 78
     2
176
     1
 67
     7
176
     1
 79
     3
176
     1
170
     0
176
     1
171
     0
176
     1
290
     0
176
     1
 93
       13
176
     1
 44
0.0
176
     1
173
     0
176
     1
1001
ACAD
1000
AcDbSavedByObjectVersion
1070
     0
  0
DICTIONARYVAR
  5
2875
102
{ACAD_REACTORS
330
3C1
102
}
330
3C1
100
DictionaryVariables
280
     0
  1
1:1
  0
DICTIONARYVAR
  5
2874
102
{ACAD_REACTORS
330
3C1
102
}
330
3C1
100
DictionaryVariables
280
     0
  1
STANDARD
  0
DICTIONARYVAR
  5
544
102
{ACAD_REACTORS
330
3C1
102
}
330
3C1
100
DictionaryVariables
280
     0
  1
YKKAP_table
  0
DICTIONARYVAR
  5
2983
102
{ACAD_REACTORS
330
3C1
102
}
330
3C1
100
DictionaryVariables
280
     0
  1
Metric50
  0
DICTIONARYVAR
  5
2984
102
{ACAD_REACTORS
330
3C1
102
}
330
3C1
100
DictionaryVariables
280
     0
  1
Metric50
  0
DICTIONARYVAR
  5
3C4
102
{ACAD_REACTORS
330
3C1
102
}
330
3C1
100
DictionaryVariables
280
     0
  1
1
  0
DICTIONARYVAR
  5
3C3
102
{ACAD_REACTORS
330
3C1
102
}
330
3C1
100
DictionaryVariables
280
     0
  1
1
  0
DICTIONARYVAR
  5
3C2
102
{ACAD_REACTORS
330
3C1
102
}
330
3C1
100
DictionaryVariables
280
     0
  1
0
  0
DICTIONARYVAR
  5
2987
102
{ACAD_REACTORS
330
3C1
102
}
330
3C1
100
DictionaryVariables
280
     0
  1
1
  0
DICTIONARYVAR
  5
2988
102
{ACAD_REACTORS
330
3C1
102
}
330
3C1
100
DictionaryVariables
280
     0
  1
15
  0
DICTIONARYVAR
  5
2986
102
{ACAD_REACTORS
330
3C1
102
}
330
3C1
100
DictionaryVariables
280
     0
  1
0
  0
DICTIONARYVAR
  5
2985
102
{ACAD_REACTORS
330
3C1
102
}
330
3C1
100
DictionaryVariables
280
     0
  1
0
  0
DICTIONARYVAR
  5
3C5
102
{ACAD_REACTORS
330
3C1
102
}
330
3C1
100
DictionaryVariables
280
     0
  1

  0
DICTIONARYVAR
  5
954B
102
{ACAD_REACTORS
330
3C1
102
}
330
3C1
100
DictionaryVariables
280
     0
  1
127
  0
DICTIONARY
  5
9B
102
{ACAD_REACTORS
330
98
102
}
330
98
100
AcDbDictionary
281
     1
  0
XRECORD
  5
275
102
{ACAD_REACTORS
330
98
102
}
330
98
100
AcDbXrecord
280
     1
 90
-1023410169
  0
DICTIONARY
  5
1EA4
102
{ACAD_REACTORS
330
1EA3
102
}
330
1EA3
100
AcDbDictionary
281
     1
  3
IBOM_FLG
350
3F05
  3
YB-CATALOGEXPLODE
350
9764
  3
YB-DEFORM
350
94E7
  3
YB-KUBUN
350
3F06
  3
YB-ZMNCODE
350
1EA5
  3
YB-ZSYU
350
1EA6
  0
DICTIONARY
  5
3EFA
102
{ACAD_REACTORS
330
1EA3
102
}
330
1EA3
100
AcDbDictionary
281
     1
  3
S9-001
350
3EFB
  3
S9-002
350
3EFC
  3
S9-003
350
3EFD
  3
S9-004
350
3EFE
  3
S9-005
350
3EFF
  3
S9-006
350
3F00
  3
S9-007
350
3F01
  3
S9-008
350
3F02
  3
S9-009
350
3F03
  3
S9-010
350
3F04
  0
XRECORD
  5
6BF0
102
{ACAD_REACTORS
330
D52
102
}
330
D52
100
AcDbXrecord
280
     1
 91
        3
330
0
 90
        8
 62
     7
370
    -3
331
16
  1
Color_7
330
0
 90
        8
 62
     7
370
    -3
331
16
  1
Color_7
330
0
 90
        8
 62
     2
370
    -3
331
16
  1
Color_2
330
0
 90
       12
 62
   102
370
    -3
331
16
  1
Color_102
330
0
 90
        8
 62
     6
370
    -3
331
16
  1
Color_6
330
0
 90
        0
 62
     7
370
    -3
331
16
  1
Color_7
330
10
 90
        8
 62
     7
370
    -3
331
16
  1
Color_7
  0
XRECORD
  5
6BF1
102
{ACAD_REACTORS
330
D52
102
}
330
D52
100
AcDbXrecord
280
     1
 91
        3
330
0
 90
        9
 62
     7
370
    -3
331
16
  1
Color_7
330
0
 90
        9
 62
     7
370
    -3
331
16
  1
Color_7
330
0
 90
        9
 62
     2
370
    -3
331
16
  1
Color_2
330
0
 90
       12
 62
   102
370
    -3
331
16
  1
Color_102
330
0
 90
        9
 62
     6
370
    -3
331
16
  1
Color_6
330
0
 90
        1
 62
     7
370
    -3
331
16
  1
Color_7
330
10
 90
        9
 62
     7
370
    -3
331
16
  1
Color_7
  0
XRECORD
  5
6BF2
102
{ACAD_REACTORS
330
D52
102
}
330
D52
100
AcDbXrecord
280
     1
 91
        3
330
0
 90
        9
 62
     7
370
    -3
331
16
  1
Color_7
330
0
 90
        8
 62
     7
370
    -3
331
16
  1
Color_7
330
0
 90
        9
 62
     2
370
    -3
331
16
  1
Color_2
330
0
 90
       12
 62
   102
370
    -3
331
16
  1
Color_102
330
0
 90
        9
 62
     6
370
    -3
331
16
  1
Color_6
330
0
 90
        1
 62
     7
370
    -3
331
16
  1
Color_7
330
10
 90
        9
 62
     7
370
    -3
331
16
  1
Color_7
  0
DICTIONARY
  5
999C
330
6BF4
100
AcDbDictionary
280
     1
281
     1
  3
ACAD_XREC_ROUNDTRIP
360
999D
  0
DICTIONARY
  5
9998
330
2884
100
AcDbDictionary
280
     1
281
     1
  3
ACAD_XREC_ROUNDTRIP
360
9999
  0
DICTIONARY
  5
42EE
330
24
100
AcDbDictionary
280
     1
281
     1
  3
ADSK_XREC_LAYOUTTHUMBNAIL
360
42EF
  0
DICTIONARY
  5
27ED
330
27EC
100
AcDbDictionary
280
     1
281
     1
  3
ACAD_XREC_ROUNDTRIP
360
97ED
  3
BUMPTILE
360
27EF
  3
DIFFUSETILE
360
27EE
  3
OPACITYTILE
360
27F2
  3
REFLECTIONTILE
360
27F1
  3
REFRACTIONTILE
360
27F3
  3
SPECULARTILE
360
27F0
  0
DICTIONARY
  5
27E5
330
27E4
100
AcDbDictionary
280
     1
281
     1
  3
ACAD_XREC_ROUNDTRIP
360
97EC
  3
BUMPTILE
360
27E7
  3
DIFFUSETILE
360
27E6
  3
OPACITYTILE
360
27EA
  3
REFLECTIONTILE
360
27E9
  3
REFRACTIONTILE
360
27EB
  3
SPECULARTILE
360
27E8
  0
DICTIONARY
  5
27F5
330
27F4
100
AcDbDictionary
280
     1
281
     1
  3
ACAD_XREC_ROUNDTRIP
360
97EE
  3
BUMPTILE
360
27F7
  3
DIFFUSETILE
360
27F6
  3
OPACITYTILE
360
27FA
  3
REFLECTIONTILE
360
27F9
  3
REFRACTIONTILE
360
27FB
  3
SPECULARTILE
360
27F8
  0
DICTIONARY
  5
9980
330
2820
100
AcDbDictionary
280
     1
281
     1
  3
ACAD_XREC_ROUNDTRIP
360
9981
  0
XRECORD
  5
2982
102
{ACAD_REACTORS
330
2981
102
}
330
2981
100
AcDbXrecord
280
     1
 70
     2
 71
     3
 72
     0
  0
DICTIONARY
  5
999A
330
6BF3
100
AcDbDictionary
280
     1
281
     1
  3
ACAD_XREC_ROUNDTRIP
360
999B
  0
DICTIONARY
  5
9996
330
2882
100
AcDbDictionary
280
     1
281
     1
  3
ACAD_XREC_ROUNDTRIP
360
9997
  0
DICTIONARY
  5
285E
330
49F
100
AcDbDictionary
280
     1
281
     1
  3
ACAD_ROUNDTRIP_2008_TABLESTYLE_CELLSTYLEMAP
360
995D
  0
DICTIONARY
  5
2860
330
A66
100
AcDbDictionary
280
     1
281
     1
  3
ACAD_ROUNDTRIP_2008_TABLESTYLE_CELLSTYLEMAP
360
995E
  0
DICTIONARY
  5
996A
330
2802
100
AcDbDictionary
280
     1
281
     1
  3
ACAD_XREC_ROUNDTRIP
360
996B
  0
DICTIONARY
  5
996E
330
2804
100
AcDbDictionary
280
     1
281
     1
  3
ACAD_XREC_ROUNDTRIP
360
996F
  0
DICTIONARY
  5
996C
330
2803
100
AcDbDictionary
280
     1
281
     1
  3
ACAD_XREC_ROUNDTRIP
360
996D
  0
DICTIONARY
  5
9968
330
2801
100
AcDbDictionary
280
     1
281
     1
  3
ACAD_XREC_ROUNDTRIP
360
9969
  0
DICTIONARY
  5
9976
330
2808
100
AcDbDictionary
280
     1
281
     1
  3
ACAD_XREC_ROUNDTRIP
360
9977
  0
DICTIONARY
  5
997E
330
280C
100
AcDbDictionary
280
     1
281
     1
  3
ACAD_XREC_ROUNDTRIP
360
997F
  0
DICTIONARY
  5
9970
330
2805
100
AcDbDictionary
280
     1
281
     1
  3
ACAD_XREC_ROUNDTRIP
360
9971
  0
DICTIONARY
  5
9974
330
2807
100
AcDbDictionary
280
     1
281
     1
  3
ACAD_XREC_ROUNDTRIP
360
9975
  0
DICTIONARY
  5
9994
330
2880
100
AcDbDictionary
280
     1
281
     1
  3
ACAD_XREC_ROUNDTRIP
360
9995
  0
DICTIONARY
  5
997C
330
280B
100
AcDbDictionary
280
     1
281
     1
  3
ACAD_XREC_ROUNDTRIP
360
997D
  0
DICTIONARY
  5
9960
330
27FD
100
AcDbDictionary
280
     1
281
     1
  3
ACAD_XREC_ROUNDTRIP
360
9961
  0
DICTIONARY
  5
9962
330
27FE
100
AcDbDictionary
280
     1
281
     1
  3
ACAD_XREC_ROUNDTRIP
360
9963
  0
DICTIONARY
  5
9964
330
27FF
100
AcDbDictionary
280
     1
281
     1
  3
ACAD_XREC_ROUNDTRIP
360
9965
  0
DICTIONARY
  5
9966
330
2800
100
AcDbDictionary
280
     1
281
     1
  3
ACAD_XREC_ROUNDTRIP
360
9967
  0
DICTIONARY
  5
9984
330
2878
100
AcDbDictionary
280
     1
281
     1
  3
ACAD_XREC_ROUNDTRIP
360
9985
  0
DICTIONARY
  5
9990
330
287E
100
AcDbDictionary
280
     1
281
     1
  3
ACAD_XREC_ROUNDTRIP
360
9991
  0
DICTIONARY
  5
997A
330
280A
100
AcDbDictionary
280
     1
281
     1
  3
ACAD_XREC_ROUNDTRIP
360
997B
  0
DICTIONARY
  5
9992
330
287F
100
AcDbDictionary
280
     1
281
     1
  3
ACAD_XREC_ROUNDTRIP
360
9993
  0
DICTIONARY
  5
9972
330
2806
100
AcDbDictionary
280
     1
281
     1
  3
ACAD_XREC_ROUNDTRIP
360
9973
  0
DICTIONARY
  5
998E
330
287D
100
AcDbDictionary
280
     1
281
     1
  3
ACAD_XREC_ROUNDTRIP
360
998F
  0
DICTIONARY
  5
998C
330
287C
100
AcDbDictionary
280
     1
281
     1
  3
ACAD_XREC_ROUNDTRIP
360
998D
  0
DICTIONARY
  5
9986
330
2879
100
AcDbDictionary
280
     1
281
     1
  3
ACAD_XREC_ROUNDTRIP
360
9987
  0
DICTIONARY
  5
9988
330
287A
100
AcDbDictionary
280
     1
281
     1
  3
ACAD_XREC_ROUNDTRIP
360
9989
  0
DICTIONARY
  5
9978
330
2809
100
AcDbDictionary
280
     1
281
     1
  3
ACAD_XREC_ROUNDTRIP
360
9979
  0
DICTIONARY
  5
9982
330
2877
100
AcDbDictionary
280
     1
281
     1
  3
ACAD_XREC_ROUNDTRIP
360
9983
  0
DICTIONARY
  5
998A
330
287B
100
AcDbDictionary
280
     1
281
     1
  3
ACAD_XREC_ROUNDTRIP
360
998B
  0
DICTIONARY
  5
3F05
102
{ACAD_REACTORS
330
1EA4
102
}
330
1EA4
100
AcDbDictionary
281
     1
1001
YACAD
1000

  0
DICTIONARY
  5
9764
102
{ACAD_REACTORS
330
1EA4
102
}
330
1EA4
100
AcDbDictionary
281
     1
1001
YACAD
1000
1
  0
DICTIONARY
  5
94E7
102
{ACAD_REACTORS
330
1EA4
102
}
330
1EA4
100
AcDbDictionary
281
     1
1001
YACAD
1000
1
  0
DICTIONARY
  5
3F06
102
{ACAD_REACTORS
330
1EA4
102
}
330
1EA4
100
AcDbDictionary
281
     1
1001
YACAD
1000
GP
  0
DICTIONARY
  5
1EA5
102
{ACAD_REACTORS
330
1EA4
102
}
330
1EA4
100
AcDbDictionary
281
     1
1001
YACAD
1000
I3
  0
DICTIONARY
  5
1EA6
102
{ACAD_REACTORS
330
1EA4
102
}
330
1EA4
100
AcDbDictionary
281
     1
1001
YACAD
1000
IC
  0
DICTIONARY
  5
3EFB
102
{ACAD_REACTORS
330
3EFA
102
}
330
3EFA
100
AcDbDictionary
281
     1
1001
YACAD
1000
AHY
  0
DICTIONARY
  5
3EFC
102
{ACAD_REACTORS
330
3EFA
102
}
330
3EFA
100
AcDbDictionary
281
     1
1001
YACAD
1000

  0
DICTIONARY
  5
3EFD
102
{ACAD_REACTORS
330
3EFA
102
}
330
3EFA
100
AcDbDictionary
281
     1
1001
YACAD
1000

  0
DICTIONARY
  5
3EFE
102
{ACAD_REACTORS
330
3EFA
102
}
330
3EFA
100
AcDbDictionary
281
     1
1001
YACAD
1000

  0
DICTIONARY
  5
3EFF
102
{ACAD_REACTORS
330
3EFA
102
}
330
3EFA
100
AcDbDictionary
281
     1
1001
YACAD
1000

  0
DICTIONARY
  5
3F00
102
{ACAD_REACTORS
330
3EFA
102
}
330
3EFA
100
AcDbDictionary
281
     1
1001
YACAD
1000

  0
DICTIONARY
  5
3F01
102
{ACAD_REACTORS
330
3EFA
102
}
330
3EFA
100
AcDbDictionary
281
     1
1001
YACAD
1000

  0
DICTIONARY
  5
3F02
102
{ACAD_REACTORS
330
3EFA
102
}
330
3EFA
100
AcDbDictionary
281
     1
1001
YACAD
1000

  0
DICTIONARY
  5
3F03
102
{ACAD_REACTORS
330
3EFA
102
}
330
3EFA
100
AcDbDictionary
281
     1
1001
YACAD
1000

  0
DICTIONARY
  5
3F04
102
{ACAD_REACTORS
330
3EFA
102
}
330
3EFA
100
AcDbDictionary
281
     1
1001
YACAD
1000

  0
XRECORD
  5
999D
102
{ACAD_REACTORS
330
999C
102
}
330
999C
100
AcDbXrecord
280
     1
102
DISPLAYNAME
  1
Imperial24
102
FLAGS
 90
        0
  0
XRECORD
  5
9999
102
{ACAD_REACTORS
330
9998
102
}
330
9998
100
AcDbXrecord
280
     1
102
DISPLAYNAME
  1
Metric50
102
FLAGS
 90
        0
  0
XRECORD
  5
42EF
102
{ACAD_REACTORS
330
42EE
102
}
330
42EE
100
AcDbXrecord
280
     1
310
2800000000010000830000000100080000000000008300000100000001000000000100000000000000000000FFFFFF00000000FF000000FF000000FF000000FF000000FF000000FF000000FF000000FF000000FF330000FF660000FF990000FFCC0000FFFF0000FF003300FF333300FF663300FF993300FFCC3300FFFF3300
310
FF006600FF336600FF666600FF996600FFCC6600FFFF6600FF009900FF339900FF669900FF999900FFCC9900FFFF9900FF00CC00FF33CC00FF66CC00FF99CC00FFCCCC00FFFFCC00FF00FF00FF33FF00FF66FF00FF99FF00FFCCFF00FFFFFF00FF000033FF330033FF660033FF990033FFCC0033FFFF0033FF003333FF3333
310
33FF663333FF993333FFCC3333FFFF3333FF006633FF336633FF666633FF996633FFCC6633FFFF6633FF009933FF339933FF669933FF999933FFCC9933FFFF9933FF00CC33FF33CC33FF66CC33FF99CC33FFCCCC33FFFFCC33FF00FF33FF33FF33FF66FF33FF99FF33FFCCFF33FFFFFF33FF000066FF330066FF660066FF99
310
0066FFCC0066FFFF0066FF003366FF333366FF663366FF993366FFCC3366FFFF3366FF006666FF336666FF666666FF996666FFCC6666FFFF6666FF009966FF339966FF669966FF999966FFCC9966FFFF9966FF00CC66FF33CC66FF66CC66FF99CC66FFCCCC66FFFFCC66FF00FF66FF33FF66FF66FF66FF99FF66FFCCFF66FF
310
FFFF66FF000099FF330099FF660099FF990099FFCC0099FFFF0099FF003399FF333399FF663399FF993399FFCC3399FFFF3399FF006699FF336699FF666699FF996699FFCC6699FFFF6699FF009999FF339999FF669999FF999999FFCC9999FFFF9999FF00CC99FF33CC99FF66CC99FF99CC99FFCCCC99FFFFCC99FF00FF99
310
FF33FF99FF66FF99FF99FF99FFCCFF99FFFFFF99FF0000CCFF3300CCFF6600CCFF9900CCFFCC00CCFFFF00CCFF0033CCFF3333CCFF6633CCFF9933CCFFCC33CCFFFF33CCFF0066CCFF3366CCFF6666CCFF9966CCFFCC66CCFFFF66CCFF0099CCFF3399CCFF6699CCFF9999CCFFCC99CCFFFF99CCFF00CCCCFF33CCCCFF66CC
310
CCFF99CCCCFFCCCCCCFFFFCCCCFF00FFCCFF33FFCCFF66FFCCFF99FFCCFFCCFFCCFFFFFFCCFF0000FFFF3300FFFF6600FFFF9900FFFFCC00FFFFFF00FFFF0033FFFF3333FFFF6633FFFF9933FFFFCC33FFFFFF33FFFF0066FFFF3366FFFF6666FFFF9966FFFFCC66FFFFFF66FFFF0099FFFF3399FFFF6699FFFF9999FFFFCC
310
99FFFFFF99FFFF00CCFFFF33CCFFFF66CCFFFF99CCFFFFCCCCFFFFFFCCFFFF00FFFFFF33FFFFFF66FFFFFF99FFFFFFCCFFFFFFFFFFFFFF000000FF0D0D0DFF1A1A1AFF282828FF353535FF434343FF505050FF5D5D5DFF6B6B6BFF787878FF868686FF939393FFA1A1A1FFAEAEAEFFBBBBBBFFC9C9C9FFD6D6D6FFE4E4E4FF
310
F1F1F1FFFFFFFFFF000000FF000000FF000000FF000000FF000000FF000000FF000000FF000000FF000000FF000000FF00000000000000000000000000000000000000000000000000000000000000000000000000000000000000000000000000000000000000000000000000000000000000000000000000000000000000
310
00000000000000000000000000000000000000000000000000000000000000000000000000000000000000000000000000000000000000000000000000000000000000000000000000000000000000000000000000000000000000000000000000000000000000000000000000000000000000000000000000000000000000
310
0000000000000000000000000000000000000000000000000000000000000000000000000000000000000000000000000000000000000000000000000000000000000000000000000000000000000000000000000000F5F5F5F5F5F5F5F5F5F5F5F5F5F5F5F5F5F5F5F5F5F5F5F5F5F5F5F5F5F5F5F5F5F5F5F5F5F5F5F5F5
310
F5F5F5F5F5F5F5F5F5F5F5F5F5F5F5F5F5F5F5F5F5F5F5F5F5F5F5F5F5F5F5F5F5F5F5F5F5F5F5F5F5F5F5F5F5F5F5F5F5F5F5F5F5F5F5F5F5F5F5F5F5F5F5F5F5F5F5F5F5F5F5F5F5F5F5F5F5F5F5F5F5F5F5F5F5F5F5F5F5F5F5F5F5F5F5F5F5F5F5F5F5F5F5F5F5F5F5F5F5F5F5F5F5F5F5F5F5F5F5F5F5F5F5F5F5F5F5
310
F5F5F5F5F5F5F5F5F5F5F5F5F5F5F5F5000000000000000000000000000000000000000000000000000000000000000000000000000000000000000000000000000000000000000000000000000000000000000000000000F50000000000F5F5F5F5F5F5F5F5F5F5F5F5F5F5F5F5F5F5F5F5F5F5F5F5F5F5F5F5F5F5F5F5F5
310
F5F5F5F5F5F5F5F5F5F5F5F5F5F5F5F5F5F5F5F5F5F5F5F5F5F5F5F5F5F5F5F5F5F5F5F5F5F5F5F5F5F5F5F5F5F5F5F5F5F5F5F5F5F5F5F5F5F5F5F5F5F5F5F5F5F5F5F5F528F5F5F5F5F5F5F5F5F5F5F5F5F5F5F5F5F5F5F5F5F5F5F5F5F5F5F5F5F5F5F5F5F5F5F5F5F5F5F5F5F5F5F5F5F5F5F5F5F5F5F5F5F5F5F5F5F5
310
F5F5F5F5F5F5F5F5F500F5F5F5F5F5F500F5000000000000000000000000000000000000000000000000000000000000000000000000000000000000000000000000000000000000000000000000000000000000000000000000F50000000000F5000000000000000000000000000000000000000000000000000000000000
310
0000000000000000000000000000000000000000000000000000F50000000000000000000000000000000000000000000000000000F5F500280028002828282828282828282828282828282828282800000000F500F5F500F500F5F500F500F5F500F500F500F5F5F500F5F5F5F5F5F5F5F5F5F500F5F5F5F5F5F5F5F5F500
310
0000000000F5F5F5F5F5F5F5F5F5F5F5F50000F5000000000000000000000000000000000000000000000000000000000000000000000000000000000000000000000000000000000000000000000000000000000000000000000000F50000000000F5F5F5F5F5F5F5F5F5F5F5F5F5F5F5F5F5F5F5F5F5F5F5F5F5F5F5F5F5
310
F5F5F5F5F5F5F5F5F5F5F5F5F5F5F5F5F5F5F5F5F5F5F5F5F5F5F5F5F50000000000000000000000000000000000000000000000000000F5F528282828282828282828282828282828282828282828282800000000F500000000F500000000F500000000F50000F5F5F5F5F5F5F5F5F5F5F5F5F5F5F5F5F5F5F5F5F5F5F5F5
310
F5F5F5F5F5F5F5F5F5F5F5F5F5F5F5F50000000000F5000000000000000000000000000000000000000000000000000000000000000000000000000000000000000000000000000000000000000000000000000000000000000000000000F50000000000F5F5F5F5F5F5F5F5F5F5F5F5F5F5F5F5F5F5F5F5F5F5F5F5F5F5F5
310
F5F5F5F5F5F5F5F5F5F5F5F5F5F5F5F5F5F5F5F5F5F5F5F5F5F5F5F5F5F5F5F500F5000000000000000000000000000000000000000000000000F5F528F528002800000000000000000000280000280000000000000000F500000000F500000000F500000000F5000000F500000000000000000000000000F5F50000F5F500
310
00F5F500F5F5F5F500F5F5F5F5F5F5F5F5F50000000000F5000000000000000000000000000000000000000000000000000000000000000000000000000000000000000000000000000000000000000000000000000000000000000000000000F50000000000F5000000000000000000000000000000000000000000000000
310
0000000000000000000000000000000000000000000000000000000000000000F5F5F5F5F5F5F5F5F5F5F5F5F5F5F5F5F5F5F5F5F5F5F5F5F5F5F5F5F5F5F5F5F5F5F5F5F5F5F5F5F5F5F5F5F5F5F5F5F5F5F5F5F5F5F5F5F5F500000000F500000000F500000000F5000000F5000000000000000000000000000000000000
310
00000000F5F5F5F5F5F5F5F5F5F5F5F5F5F5F5F50000000000F5000000000000000000000000000000000000000000000000000000000000000000000000000000000000000000000000000000000000000000000000000000000000000000000000F50000000000F5F5F5F5F5F5F5F5F5F5F5F5F5F5F5F5F5F5F5F5F5F5F5
310
F5F5F5F5F5F5F5F5F5F5F5F5F5F5F5F5F5F5F5F5F5F5F5F5F5F5F5F5F5F5F5F5F5F5F50000000000000000000000000000000000000000000000000000F5F500000000000000000000000000000000000000000000000000F5F5F5F500000000F500000000F500000000F5F5F500F500000000000000000000000000000000
310
000000000000F5000000000000F5F5F5F5F5F5F5F5000000000000F5000000000000000000000000000000000000000000000000000000000000000000000000000000000000000000000000000000000000000000000000000000000000000000000000F50000000000F5F5F5F5F5F5F5F5F5F5F5F5F5F5F5F5F5F5F5F5F5
310
F5F5F5F5F5F5F5F5F5F5F5F5F5F5F5F5F5F5F5F5F5F5F5F5F5F5F5F5F5F5F5F5F5F5F5F5F50000000000000000000000000000000000000000000000000000F5F500000000000000000000000000000000000000000000000000F5F5F5F5F5F5F5F5F5F5F5F5F5F5F5F5F5F5F5F5F5F5F50000000000000000000000000000
310
0000000000000000F5F5F5F5F5F5F5F5F5F5F5F5F5F5F5F50000000000F5000000000000000000000000000000000000000000000000000000000000000000000000000000000000000000000000000000000000000000000000000000000000000000000000F50000000000F5F5F5F5F5F5F5000000000000000000000000
310
0000000000000000000000000000000000000000000000000000000000000000000000000000F5F5F5F5000000000000000000000000000000000000000000000000F5F5F5F5F5000000000000000000000000000000000000000000000000F5F500F5F5F5F50000F5F5F50000F5F5F500F5F5F5F5F5F50000000000000000
310
00000000000000000000F500F500F50000F5F5F5F5F5F5F5F5000000000000F5000000000000000000000000000000000000000000000000000000000000000000000000000000000000000000000000000000000000000000000000000000000000000000000000F50000000000F5F5F5F5F5F5F5F5F5F5F5F5F5F5F5F5F5
310
F5F5F5F5F5F5F5F5F5F5F5F5F5F5F5F5F5F5F5F5F5F5F5F5F5F5F5F5F5F5F5F5F5F5F5F5F5F5F5F5F5F5F5F5F5F5F5F5F5F5F5F5F5F5F5F5F5F5F5F5F5F5F5F5F5F5F5F5F5F5F5F5F5F5F5F5F5F5F5F5F5F5F5F5F5F5F5F5F5F5F5F5F5F5F5F5F5F5F5F5F5F5F5F5F5F5F5F5F5F5F5F5F5F5F5F5F5F5F5F5F5F5F5F5F5F5F5
310
F5F5F5F5F5F5F5F5F5F5F5F5F5F5F5F5F5F5F5F5F5F5F5F5F5F5F5F50000000000F5000000000000000000000000000000000000000000000000000000000000000000000000000000000000000000000000000000000000000000000000000000000000000000000000F50000000000F50000000000000000000000000000
310
00000000000000000000000000000000000000000000000000000000000000000000000000000000000000000000000000000000000000000000000000000000000000000000000000000000000000000000000000000000000000000000000000000000000000000000000000000000000000000000000000000000000000
310
0000000000000000000000000000000000000000000000000000000000F500F5F50000F5000000000000000000000000000000000000000000000000000000000000000000000000000000000000000000000000000000000000000000000000000000000000000000000000F50000000000F5000000000000000000000000
310
00000000000000000000000000000000000000000000000000000000000000000000000000000000000000000000000000000000000000000000000000000000000000000000000000000000000000000000000000000000000000000000000000000000000000000000000000000000000000000000000000000000000000
310
00000000000000000000000000000000000000000000000000000000000000F5F5F5F5F500F5000000000000000000000000000000000000000000000000000000000000000000000000000000000000000000000000000000000000000000000000000000000000000000000000F50000000000F500000000000000000000
310
00000000000000000000000000000000000000000000000000000000000000000000000000000000000000000000000000000000000000000000000000000000000000000000000000000000000000000000000000000000000000000000000000000000000000000000000000000000000000000000000000000000000000
310
000000000000000000000000000000000000000000000000000000000000000000F500F5F50000F5000000000000000000000000000000000000000000000000000000000000000000000000000000000000000000000000000000000000000000000000000000000000000000000000F50000000000F50000000000000000
310
00000000000000000000000000000000000000000000000000000000000000000000000000000000000000000000000000000000000000000000000000000000000000000000000000000000000000000000000000000000000000000000000000000000000000000000000000000000000000000000000000000000000000
310
0000000000000000000000000000000000000000000000000000000000000000000000F50000000000F5000000000000000000000000000000000000000000000000000000000000000000000000000000000000000000000000000000000000000000000000000000000000000000000000F50000000000F5000000000000
310
00000000000000000000000000000000000000000000000000000000000000000000000000000000000000000000000000000000000000000000000000000000000000000000000000000000000000000000000000000000000000000000000000000000000000000000000000000000000000000000000000000000000000
310
00000000000000000000000000000000000000000000000000000000000000000000000000F500F5F50000F5000000000000000000000000000000000000000000000000000000000000000000000000000000000000000000000000000000000000000000000000000000000000000000000000F50000000000F500000000
310
00000000000000000000000000000000000000000000000000000000000000000000000000000000000000000000000000000000000000000000000000000000000000000000000000000000000000000000000000000000000000000000000000000000000000000000000000000000000000000000000000000000000000
310
000000000000000000000000000000000000000000000000000000000000000000000000000000F5F5F5F5F500F5000000000000000000000000000000000000000000000000000000000000000000000000000000000000000000000000000000000000000000000000000000000000000000000000F50000000000F50000
310
00000000000000000000000000000000000000000000000000000000000000000000000000000000000000000000000000000000000000000000000000000000000000000000000000000000000000000000000000000000000000000000000000000000000000000000000000000000000000000000000000000000000000
310
0000000000000000000000000000000000000000000000000000000000000000000000000000000000F500F5F50000F5000000000000000000000000000000000000000000000000000000000000000000000000000000000000000000000000000000000000000000000000000000000000000000000000F50000000000F5
310
00000000000000000000000000000000000000000000000000000000000000000000000000000000000000000000000000000000000000000000000000000000000000000000000000000000000000000000000000000000000000000000000000000000000000000000000000000000000000000000000000000000000000
310
00000000000000000000000000000000000000000000000000000000000000000000000000000000000000F50000000000F5000000000000000000000000000000000000000000000000000000000000000000000000000000000000000000000000000000000000000000000000000000000000000000000000F500000000
310
00F50000000000000000000000000000000000000000000000000000000000000000000000000000000000000000000000000000000000000000000000000000000000000000000000000000000000000000000000000000000000000000000000000000000000000000000000000000000000000000000000000000000000
310
000000000000000000000000000000000000000000000000000000000000000000000000000000000000000000F50000000000F5000000000000000000000000000000000000000000000000000000000000000000000000000000000000000000000000000000000000000000000000000000000000000000000000F50000
310
000000F5000000000000000000000000000000000000000000000000000000000000000000000000000000000000000000000000000000000000000000000000000000000000000000000000000000000000000000000000000000000000000000000000000000000000000000000000000000000000000000000000000000
310
0000000000000000000000000000000000000000000000000000000000000000000000000000000000000000000000F500F5F50000F5000000000000000000000000000000000000000000000000000000000000000000000000000000000000000000000000000000000000000000000000000000000000000000000000F5
310
0000000000F500000000000000000000000000000000000000000000000000000000000000000000000000000000000000000000000000000000000000000000000000000000000000000000000000000000000000000000000000000000000000000000000000000000000000000000000000000000000000000000000000
310
00000000000000000000000000000000000000000000000000000000000000000000000000000000000000000000000000F5F5F5F5F500F50000000000000000000000000000000000000000000000000000000000000000000000000000000000000000000000000000000000000000000000000000000000000000000000
310
00F50000000000F50000000000000000000000000000000000000000000000000000000000000000000000000000000000000000000000000000000000000000000000000000000000000000000000000000000000000000000000000000000000000000000000000000000000000000000000000000000000000000000000
310
000000000000000000000000000000000000000000000000000000000000000000000000000000000000000000000000000000F500F5F50000F5000000000000000000000000000000000000000000000000000000000000000000000000000000000000000000000000000000000000000000000000000000000000000000
310
000000F50000000000F5000000000000000000000000000000000000000000000000000000000000000000000000000000000000000000000000000000000000000000000000000000000000000000000000000000000000000000000000000000000000000000000000000000000000000000000000000000000000000000
310
0000000000000000000000000000000000000000000000000000000000000000000000000000000000000000000000000000000000F50000000000F500000000000000000000000000000000000000000000000000000000000000000000000000000000000000000000000000000000000000000000000000000000000000
310
0000000000F50000000000F500000000000000000000000000000000000000000000000000000000000000000000000000000000000000000000000000000000000000000000000000000000000000000000000000000000000000000000000000000000000000000000000000000000000000000000000000000000000000
310
00000000000000000000000000000000000000000000000000000000000000000000000000000000000000000000000000000000000000F500F5F50000F50000000000000000000000000000000000000000000000000000000000000000000000000000000000000000000000000000000000000000000000000000000000
310
00000000000000F50000000000F50000000000000000000000000000000000000000000000000000000000000000000000000000000000000000000000000000000000000000000000000000000000000000000000000000000000000000000000000000000000000000000000000000000000000000000000000000000000
310
000000000000000000000000000000000000000000000000000000000000000000000000000000000000000000000000000000000000000000F5F5F5F5F500F5000000000000000000000000000000000000000000000000000000000000000000000000000000000000000000000000000000000000000000000000000000
310
000000000000000000F50000000000F5000000000000000000000000000000000000000000000000000000000000000000000000000000000000000000000000000000000000000000000000000000000000000000000000000000000000000000000000000000000000000000000000000000000000000000000000000000
310
0000000000000000000000000000000000000000000000000000000000000000000000000000000000000000000000000000000000000000000000F500F5F50000F500000000000000000000000000000000000000000000000000000000000000000000000000000000000000000000000000000000000000000000000000
310
0000000000000000000000F50000000000F500000000000000000000000000000000000000000000000000000000000000000000000000000000000000000000000000000000000000000000000000000000000000000000000000000000000000000000000000000000000000000000000000000000000000000000000000
310
00000000000000000000000000000000000000000000000000000000000000000000000000000000000000000000000000000000000000000000000000F50000000000F50000000000000000000000000000000000000000000000000000000000000000000000000000000000000000000000000000000000000000000000
310
00000000000000000000000000F50000000000F50000000000000000000000000000000000000000000000000000000000000000000000000000000000000000000000000000000000000000000000000000000000000000000000000000000000000000000000000000000000000000000000000000000000000000000000
310
000000000000000000000000000000000000000000000000000000000000000000000000000000000000000000000000000000000000000000000000000000F500F5F50000F5000000000000000000000000000000000000000000000000000000000000000000000000000000000000000000000000000000000000000000
310
000000000000000000000000000000F50000000000F5000000000000000000000000000000000000000000000000000000000000000000000000000000000000000000000000000000000000000000000000000000000000000000000000000000000000000000000000000000000000000000000000000000000000000000
310
0000000000000000000000000000000000000000000000000000000000000000000000000000000000000000000000000000000000000000000000000000000000F5F5F5F5F500F500000000000000000000000000000000000000000000000000000000000000000000000000000000000000000000000000000000000000
310
0000000000000000000000000000000000F50000000000F500000000000000000000000000000000000000000000000000000000000000000000000000000000000000000000000000000000000000000000000000000000000000000000000000000000000000000000000000000000000000000000000000000000000000
310
00000000000000000000000000000000000000000000000000000000000000000000000000000000000000000000000000000000000000000000000000000000000000F500F5F50000F50000000000000000000000000000000000000000000000000000000000000000000000000000000000000000000000000000000000
310
00000000000000000000000000000000000000F50000000000F50000000000000000000000000000000000000000000000000000000000000000000000000000000000000000000000000000000000000000000000000000000000000000000000000000000000000000000000000000000000000000000000000000000000
310
000000000000000000000000000000000000000000000000000000000000000000000000000000000000000000000000000000000000000000000000000000000000000000F50000000000F5000000000000000000000000000000000000000000000000000000000000000000000000000000000000000000000000000000
310
000000000000000000000000000000000000000000F50000000000F5000000000000000000000000000000000000000000000000000000000000000000000000000000000000000000000000000000000000000000000000000000000000000000000000000000000000000000000000000000000000000000000000000000
310
0000000000000000000000000000000000000000000000000000000000000000000000000000000000000000000000000000000000000000000000000000000000000000000000F50000000000F500000000000000000000000000000000000000000000000000000000000000000000000000000000000000000000000000
310
0000000000000000000000000000000000000000000000F50000000000F500000000000000000000000000000000000000000000000000000000000000000000000000000000000000000000000000000000000000000000000000000000000000000000000000000000000000000000000000000000000000000000000000
310
00000000000000000000000000000000000000000000000000000000000000000000000000000000000000000000000000000000000000000000000000000000000000000000000000F500F5F50000F50000000000000000000000000000000000000000000000000000000000000000000000000000000000000000000000
310
00000000000000000000000000000000000000000000000000F50000000000F50000000000000000000000000000000000000000000000000000000000000000000000000000000000000000000000000000000000000000000000000000000000000000000000000000000000000000000000000000000000000000000000
310
000000000000000000000000000000000000000000000000000000000000000000000000000000000000000000000000000000000000000000000000000000000000000000000000000000F5F5F5F5F500F5000000000000000000000000000000000000000000000000000000000000000000000000000000000000000000
310
000000000000000000000000000000000000000000000000000000F50000000000F5000000000000000000000000000000000000000000000000000000000000000000000000000000000000000000000000000000000000000000000000000000000000000000000000000000000000000000000000000000000000000000
310
0000000000000000000000000000000000000000000000000000000000000000000000000000000000000000000000000000000000000000000000000000000000000000000000000000000000F500F5F50000F500000000000000000000000000000000000000000000000000000000000000000000000000000000000000
310
0000000000000000000000000000000000000000000000000000000000F50000000000F500000000000000000000000000000000000000000000000000000000000000000000000000000000000000000000000000000000000000000000000000000000000000000000000000000000000000000000000000000000000000
310
00000000000000000000000000000000000000000000000000000000000000000000000000000000000000000000000000000000000000000000000000000000000000000000000000000000000000F50000000000F50000000000000000000000000000000000000000000000000000000000000000000000000000000000
310
00000000000000000000000000000000000000000000000000000000000000F50000000000F50000000000000000000000000000000000000000000000000000000000000000000000000000000000000000000000000000000000000000000000000000000000000000000000000000000000000000000000000000000000
310
000000000000000000000000000000000000000000000000000000000000000000000000000000000000000000000000000000000000000000000000000000000000000000000000000000000000000000F500F5F50000F5000000000000000000000000000000000000000000000000000000000000000000000000000000
310
000000000000000000000000000000000000000000000000000000000000000000F50000000000F5000000000000000000000000000000000000000000000000000000000000000000000000000000000000000000000000000000000000000000000000000000000000000000000000000000000000000000000000000000
310
0000000000000000000000000000000000000000000000000000000000000000000000000000000000000000000000000000000000000000000000000000000000000000000000000000000000000000000000F5F5F5F5F500F500000000000000000000000000000000000000000000000000000000000000000000000000
310
0000000000000000000000000000000000000000000000000000000000000000000000F50000000000F500000000000000000000000000000000000000000000000000000000000000000000000000000000000000000000000000000000000000000000000000000000000000000000000000000000000000000000000000
310
00000000000000000000000000000000000000000000000000000000000000000000000000000000000000000000000000000000000000000000000000000000000000000000000000000000000000000000000000F500F5F50000F50000000000000000000000000000000000000000000000000000000000000000000000
310
00000000000000000000000000000000000000000000000000000000000000000000000000F50000000000F50000000000000000000000000000000000000000000000000000000000000000000000000000000000000000000000000000000000000000000000000000000000000000000000000000000000000000000000
310
000000000000000000000000000000000000000000000000000000000000000000000000000000000000000000000000000000000000000000000000000000000000000000000000000000000000000000000000000000F50000000000F5000000000000000000000000000000000000000000000000000000000000000000
310
000000000000000000000000000000000000000000000000000000000000000000000000000000F50000000000F5000000000000000000000000000000000000000000000000000000000000000000000000000000000000000000000000000000000000000000000000000000000000000000000000000000000000000000
310
0000000000000000000000000000000000000000000000000000000000000000000000000000000000000000000000000000000000000000000000000000000000000000000000000000000000000000000000000000000000F500F5F50000F500000000000000000000000000000000000000000000000000000000000000
310
0000000000000000000000000000000000000000000000000000000000000000000000000000000000F50000000000F500000000000000000000000000000000000000000000000000000000000000000000000000000000000000000000000000000000000000000000000000000000000000000000000000000000000000
310
00000000000000000000000000000000000000000000000000000000000000000000000000000000000000000000000000000000000000000000000000000000000000000000000000000000000000000000000000000000000000F5F5F5F5F500F50000000000000000000000000000000000000000000000000000000000
310
00000000000000000000000000000000000000000000000000000000000000000000000000000000000000F50000000000F50000000000000000000000000000000000000000000000000000000000000000000000000000000000000000000000000000000000000000000000000000000000000000000000000000000000
310
000000000000000000000000000000000000000000000000000000000000000000000000000000000000000000000000000000000000000000000000000000000000000000000000000000000000000000000000000000000000000000F500F5F50000F5000000000000000000000000000000000000000000000000000000
310
000000000000000000000000000000000000000000000000000000000000000000000000000000000000000000F50000000000F5F5F5F5F5F5F5F5F5F5F5F5F5F5F5F5F5F5F5F5F5F5F5F5F5F5F5F5F5F5F5F5F5F5F5F5F5F5F5F5F5F5F5F5F5F5F5F5F5F5F5F5F5F5F5F5F5F5F5F5F5F5F5F5F5F5F5F5F5F5F5F5F5F5F5F5
310
F5F5F5F5F5F5F5F5F5F5F5F5F5F5F5F5F5F5F5F5F500DCDCDCDCDCDCDCDCDCDCDCDCDCDCDCDCDCDCDCDCDCDCDCDCDCDC0000000000000000000000000000000000000000000000000000000000000000000000000000000000000000000000F50000000000F500000000000000000000000000000000000000000000000000
310
0000000000000000000000000000000000000000000000000000000000000000000000000000000000000000000000F50000000000F50000000000F500F5F5F5F50000000000F50000F5F50000F50000000000000000000000000000000000000000000000000000000000000000F5F5F5F5F5F5F500000000000000000000
310
00000000000000000000000000000000000000000000F500DC282828282828282828282828280028282828282828282828DC0000000000000000000000000000000000000000000000000000000000000000000000000000000000000000000000F50000000000F50000000000000000000000000000000000000000000000
310
00000000000000000000000000000000000000000000000000000000000000000000000000000000000000000000000000F50000000000F5000000000000F5F5F5F5000000000000F50000F5F5F500F50000000000000000000000000000000000000000000000000000000000000000F5F5F500F5F5F50000000000000000
310
000000000000000000000000000000000000000000000000F500DC282828282828282828282828280028282828282828282828DC0000000000000000000000000000000000000000000000000000000000000000000000000000000000000000000000F500F5F50000F5000000000000000000000000000000000000000000
310
000000000000000000000000000000000000000000000000000000000000000000000000000000000000000000000000000000F50000000000F50000000000F5F5F5F5F5F5F500000000F5F5F5F5F5F5F5F5F5F5F5F5F5F5F5F5F5F5F5F5F5F5F5F5F5F5F5F5F5F5F5F5F5F5F5F5F5F5F5F5F5F5F5F5F5F5F5F5F5F5F5F5F5
310
F5F5F5F5F5F5F5F5F5F5F5F5F5F5F5F5F5F5F5F5F5F5F5F5F5F5F500DCDCDCDCDCDCDCDCDCDCDCDCDCDCDCDCDCDCDCDCDCDCDCDCDCDC0000000000000000000000000000000000000000000000000000000000000000000000000000000000000000000000F5F5F5F5F500F500000000000000000000000000000000000000
310
0000000000000000000000000000000000000000000000000000000000000000000000000000000000000000000000000000000000F50000000000F50000000000F5F5F5F5F5F5F500000000F50000F5F5F500F5000000000000000000000000000000000000000000000000000000000000000000F5F500F5F50000000000
310
00000000000000000000000000000000000000000000000000000000F50000000000000000000000000000000000000000000000000000000000000000000000000000000000000000000000000000000000000000000000000000000000000000000000000000F500F5F50000F50000000000000000000000000000000000
310
00000000000000000000000000000000000000000000000000000000000000000000000000000000000000000000000000000000000000F50000000000F5F5F5F5F5F5F5F5F5F5F5F5F5F5F5F5F5F5F5F5F5F5F5F5F5F5F5F5F5F5F5F5F5F5F5F5F5F5F5F5F5F5F5F5F5F5F5F5F5F5F5F5F5F5F5F5F5F5F5F5F5F5F5F5F5F5
310
F5F5F5F5F5F5F5F5F5F5F5F5F5F5F5F5F5F5F5F5F5F5F5F5F5F5F5F5F5F5F50000000000000000000000000000000000000000000000000000000000000000000000000000000000000000000000000000000000000000000000000000000000000000000000000000F50000000000F5000000000000000000000000000000
310
000000000000000000000000000000000000000000000000000000000000000000000000000000000000000000000000000000000000000000F50000000000F5000000000000F5F5F5F5000000000000F50000F5F50000F50000000000000000000000000000000000000000000000000000000000000000F5F5F5F500F5F5
310
0000000000000000000000000000000000000000000000000000000000000000F50000000000000000000000000000000000000000000000000000000000000000000000000000000000000000000000000000000000000000000000000000000000000000000000000000F500F5F50000F500000000000000000000000000
310
0000000000000000000000000000000000000000000000000000000000000000000000000000000000000000000000000000000000000000000000F50000000000F50000000000F500F5F5F5F50000000000F50000F5F5F500F50000000000000000000000000000000000000000000000000000000000000000F5F5F5F500
310
F5F50000000000000000000000000000000000000000000000000000000000000000F50000000000000000000000000000000000000000000000000000000000000000000000000000000000000000000000000000000000000000000000000000000000000000000000000000F5F5F5F5F500F50000000000000000000000
310
00000000000000000000000000000000000000000000000000000000000000000000000000000000000000000000000000000000000000000000000000F50000000000F5000000000000F50000F5000000000000F5F5F5F5F5F5F5F5F5F5F5F5F5F5F5F5F5F5F5F5F5F5F5F5F5F5F5F5F5F5F5F5F5F5F5F5F5F5F5F5F5F5F5
310
F5F5F5F5F5F5F5F5F5F5F5F5F5F5F5F5F5F5F5F5F5F5F5F5F5F5F5F5F5F5F5F5F5F5F5F5F50000000000000000000000000000000000000000000000000000000000000000000000000000000000000000000000000000000000000000000000000000000000000000000000000000F500F5F50000F5000000000000000000
310
000000000000000000000000000000000000000000000000000000000000000000000000000000000000000000000000000000000000000000000000000000F50000000000F5F5F5F5F5F5F5F5F5F5F5F5F5F5F5F5F5F50000F5F5F500F5000000000000000000000000000000000000000000000000000000000000000000
310
F5F5F5F5F5F50000000000000000000000000000000000000000000000000000000000000000F50000000000000000000000000000000000000000000000000000000000000000000000000000000000000000000000000000000000000000000000000000000000000000000000000000F50000000000F500000000000000
310
0000000000000000000000000000000000000000000000000000000000000000000000000000000000000000000000000000000000000000000000000000000000F50000000000F5F5F5F5F5F5F5F5F5F5F5F5F5F5F5F500F50000F5F5F500F500000000000000000000000000000000000000000000000000000000000000
310
0000F5F500F5F5F50000000000000000000000000000000000000000000000000000000000000000F50000000000000000000000000000000000000000000000000000000000000000000000000000000000000000000000000000000000000000000000000000000000000000000000000000F50000000000F50000000000
310
00000000000000000000000000000000000000000000000000000000000000000000000000000000000000000000000000000000000000000000000000000000000000F50000000000F5F5F5F5F5F5F5F5F5F5F5F5F5F5F5F5F5F5F5F5F5F5F5F5F5F5F5F5F5F5F5F5F5F5F5F5F5F5F5F5F5F5F5F5F5F5F5F5F5F5F5F5F5F5
310
F5F5F5F5F5F5F5F5F5F5F5F5F5F5F5F5F5F5F5F5F5F5F5F5F5F5F5F5F5F5F5F5F5F5F5F5F5F5F5F5F5F5F50000000000000000000000000000000000000000000000000000000000000000000000000000000000000000000000000000000000000000000000000000000000000000000000000000F50000000000F5000000
310
000000000000000000000000000000000000000000000000000000000000000000000000000000000000000000000000000000000000000000000000000000000000000000F50000000000F5000000000000F5F5F5F5F5F5F5F5F5F5F5000000000000F5000000000000000000000000000000000000000000000000000000
310
0000000000F5F500F5F5F5F50000000000000000000000000000000000000000000000000000000000000000F50000000000000000000000000000000000000000000000000000000000000000000000000000000000000000000000000000000000000000000000000000000000000000000000000000F50000000000F500
310
0000000000000000000000000000000000000000000000000000000000000000000000000000000000000000000000000000000000000000000000000000000000000000000000F50000000000F5F5F5F5F5F5F5F5F5F5F5F5F5F5F5F5F5F5F5F5F5F5F5F5F5F5F5F5F5F5F5F5F5F5F5F5F5F5F5F5F5F5F5F5F5F5F5F5F5F5
310
F5F5F5F5F5F5F5F5F5F5F5F5F5F5F5F5F5F5F5F5F5F5F5F5F5F5F5F5F5F5F5F5F5F5F5F5F5F5F5F5F5F5F5F5F5F5F50000000000000000000000000000000000000000000000000000000000000000000000000000000000000000000000000000000000000000000000000000000000000000000000000000F50000000000
310
F5000000000000000000000000000000000000000000000000000000000000000000000000000000000000000000000000000000000000000000000000000000000000000000000000F50000000000F500000000000000000000F5F5F5F5000000000000000000F50000000000000000000000000000000000000000000000
310
000000000000000000F5F5F5F5F5F5F50000000000000000000000000000000000000000000000000000000000000000F50000000000000000000000000000000000000000000000000000000000000000000000000000000000000000000000000000000000000000000000000000000000000000000000000000F5000000
310
0000F5000000000000000000000000000000000000000000000000000000000000000000000000000000000000000000000000000000000000000000000000000000000000000000000000F50000000000F500000000000000000000F5F5F5F5000000000000000000F5000000000000000000000000000000000000000000
310
0000000000000000000000F5F5F5F5F5F5F50000000000000000000000000000000000000000000000000000000000000000F50000000000000000000000000000000000000000000000000000000000000000000000000000000000000000000000000000000000000000000000000000000000000000000000000000F500
310
00000000F5000000000000000000000000000000000000000000000000000000000000000000000000000000000000000000000000000000000000000000000000000000000000000000000000F50000000000F5F5F5F5F5F5F5F5F5F5F5F5F5F5F5F5F5F5F5F5F5F5F5F5F5F5F5F5F5F5F5F5F5F5F5F5F5F5F5F5F5F5F5F5
310
F5F5F5F5F5F5F5F5F5F5F5F5F5F5F5F5F5F5F5F5F5F5F5F5F5F5F5F5F5F5F5F5F5F5F5F5F5F5F5F5F5F5F5F5F5F5F5F5F5F5F5F5F50000000000000000000000000000000000000000000000000000000000000000000000000000000000000000000000000000000000000000000000000000000000000000000000000000
310
F50000000000F5000000000000000000000000000000000000000000000000000000000000000000000000000000000000000000000000000000000000000000000000000000000000000000000000F50000000000F5000000000000F5F5F5F5F5F5F5F5F5F5F5000000000000F50000000000000000000000000000000000
310
00000000000000000000000000F5F5F5F5F5F5F5F5F5F5F5000000000000000000000000000000000000000000000000000000000000F5000000000000000000000000000000000000000000000000000000000000000000000000000000000000000000000000000000000000000000000000000000000000000000000000
310
0000F50000000000F5000000000000000000000000000000000000000000000000000000000000000000000000000000000000000000000000000000000000000000000000000000000000000000000000F50000000000F5F5F5F5F5F5F5F5F5F5F5F5F5F5F5F5F5F5F5F5F5F5F5F5F5F5F5F5F5F5F5F5F5F5F5F5F5F5F5F5
310
F5F5F5F5F5F5F5F5F5F5F5F5F5F5F5F5F5F5F5F5F5F5F5F5F5F5F5F5F5F5F5F5F5F5F5F5F5F5F5F5F5F5F5F5F5F5F5F5F5F5F5F5F5F5F5F5F500000000000000000000000000000000000000000000000000000000000000000000000000000000000000000000000000000000000000000000000000000000000000000000
310
00000000F50000000000F5000000000000000000000000000000000000000000000000000000000000000000000000000000000000000000000000000000000000000000000000000000000000000000000000F50000000000F50000000000000000F5F5F5F5F5F5F50000000000000000F500000000000000000000000000
310
00000000000000000000000000000000F5F5F5F5F5F5F5F5F5F5F5F5F5F500000000000000000000000000000000000000000000000000000000F50000000000000000000000000000000000000000000000000000000000000000000000000000000000000000000000000000000000000000000000000000000000000000
310
000000000000F50000000000F5000000000000000000000000000000000000000000000000000000000000000000000000000000000000000000000000000000000000000000000000000000000000000000000000F50000000000F50000000000000000F5F5F5F5F5F5F50000000000000000F50000000000000000000000
310
000000000000000000000000000000000000F5F5F5F5F5F5F5F5F5F5F5F5F5F500000000000000000000000000000000000000000000000000000000F5000000000000000000000000000000000000000000000000000000000000000000000000000000000000000000000000000000000000000000000000000000000000
310
0000000000000000F50000000000F5000000000000000000000000000000000000000000000000000000000000000000000000000000000000000000000000000000000000000000000000000000000000000000000000F50000000000F5F5F5F5F5F5F5F5F5F5F5F5F5F5F5F5F5F5F5F5F5F5F5F5F5F5F5F5F5F5F5F5F5F5
310
F5F5F5F5F5F5F5F5F5F5F5F5F5F5F5F5F5F5F5F5F5F5F5F5F5F5F5F5F5F5F5F5F5F5F5F5F5F5F5F5F5F5F5F5F5F5F5F5F5F5F5F5F5F5F5F5F5F5F5F5F5F5F500000000000000000000000000000000000000000000000000000000000000000000000000000000000000000000000000000000000000000000000000000000
310
00000000000000000000F50000000000F5000000000000000000000000000000000000000000000000000000000000000000000000000000000000000000000000000000000000000000000000000000000000000000000000F50000000000F50000000000000000000000000000000000000000000000F500000000000000
310
00000000000000000000000000000000000000000000000000000000000000000000000000000000000000000000000000000000000000000000002828282800F50000000000000000000000000000000000000000000000000000000000000000000000000000000000000000000000000000000000000000000000000000
310
000000000000000000000000F50000000000F5000000000000000000000000000000000000000000000000000000000000000000000000000000000000000000000000000000000000000000000000000000000000000000000000F50000000000F50000000000000000000000000000000000000000000000F50000000000
310
000000000000000000000000000000000000000000000000000000000000000000000000000000000000000000000000000000000000000000000000002828282800F5000000000000000000000000000000000000000000000000000000000000000000000000000000000000000000000000000000000000000000000000
310
0000000000000000000000000000F50000000000F5000000000000000000000000000000000000000000000000000000000000000000000000000000000000000000000000000000000000000000000000000000000000000000000000F500000000F5F50000000000000000000000000000000000000000000000F5000000
310
00000000000000000000000000000000000000000000000000000000000000000000000000C3000000000000000000000000000000000000000000000000C32800282800F500000000000000000000000000000000000000000000000000000000000000000000000000000000000000000000000000000000000000000000
310
00000000000000000000000000000000F5F500000000F5000000000000000000000000000000000000000000000000000000000000000000000000000000000000000000000000000000000000000000000000000000000000000000000000F50000000000F50000000000000000000000000000000000000000000000F500
310
000000000000000000000000000000000000000000000000000000000000000000000000000000C3C3C3C3C3C3C3C3C3C3C3C3C3C3C3C3C3C3C3C3C3C3C3C3C3C30000000000F50000000000000000000000000000000000000000000000000000000000000000000000000000000000000000000000000000000000000000
310
000000000000000000000000000000000000F50000000000F5000000000000000000000000000000000000000000000000000000000000000000000000000000000000000000000000000000000000000000000000000000000000000000000000F50000000000F50000000000000000000000000000000000000000000000
310
F500000000000000000000000000000000000000000000000000000000000000000000000000000000C300000000000000000000C3C3C30000000000000000000000C30000000000F5000000000000000000000000000000000000000000000000000000000000000000000000000000000000000000000000000000000000
310
0000000000000000000000000000000000000000F50000000000F5000000000000000000000000000000000000000000000000000000000000000000000000000000000000000000000000000000000000000000000000000000000000000000000000F50000000000F5000000000000000000000000000000000000000000
310
0000F500000000000000C3C3C3C3C3C3C3C3C3C3C3C3C3C3C3C3C3C3C3C3C3C3C3C3C3C300000000000000C300000000000000C3C3C3C3C3C3C3C3C30000C3C3C3C30000C30000000000F500000000000000000000000000000000000000000000000000000000000000000000000000000000000000000000000000000000
310
00000000000000000000000000000000000000000000F50000000000F5000000000000000000000000000000000000000000000000000000000000000000000000000000000000000000000000000000000000000000000000000000000000000000000000F50000000000F500000000000000000000000000000000000000
310
00000000F500000000000000C30000000000000000000000C3C30000000000000000000000C300000000000000C300000000000000C3000000C3C30000C30000C3C3C3C30000C30000000000F50000000000000000000000000000000000000000000000000000000000000000000000000000000000000000000000000000
310
000000000000000000000000000000000000000000000000F50000000000F5000000000000000000000000000000000000000000000000000000000000000000000000000000000000000000000000000000000000000000000000000000000000000000000000F50000000000F50000000000000000000000000000000000
310
000000000000F500000000000000C32D00000000000000000000DC00000000000000000000002DC3C3C3C300000000C32D2D2D2D2D2D2DC32D2D2D2D2D2D2DC32DC32D2D2D2D2D2DC30000000000F5000000000000000000000000000000000000000000000000000000000000000000000000000000000000000000000000
310
0000000000000000000000000000000000000000000000000000F50000000000F5000000000000000000000000000000000000000000000000000000000000000000000000000000000000000000000000000000000000000000000000000000000000000000000000F50000000000F5000000000000000000000000000000
310
0000000000000000F5000000000000002D2D00000000000000000000DC00000000000000000000002D2D0000C3000000002D2D2D2D2D2D2D2DC32D2D2D2D2D2D2DC32DC32D2D2D2D2D2D2D0000000000F500000000000000000000000000000000000000000000000000000000000000000000000000000000000000000000
310
00000000000000000000000000000000000000000000000000000000F50000000000F5000000000000000000000000000000000000000000000000000000000000000000000000000000000000000000000000000000000000000000000000000000000000000000000000F50000000000F500000000000000000000000000
310
00000000000000000000F5000000000000002D2D00000000000000000000DC00000000000000000000002D2D0000C3000000002D00000000000000C3000000DC000000C3C3000000000000002D0000000000F50000000000000000000000000000000000000000000000000000000000000000000000000000000000000000
310
000000000000000000000000000000000000000000000000000000000000F50000000000F5000000000000000000000000000000000000000000000000000000000000000000000000000000000000000000000000000000000000000000000000000000000000000000000000F50000000000F50000000000000000000000
310
000000000000000000000000F5000000000000002D2D00000000000000000000DC00000000000000000000002D2D0000C3000000002D2D2D2D2D2D2DDCDCDC2D2D2D2D2D2DDCC3C3C3C3C3C3C3C3C3C3C3000000F5000000000000000000000000000000000000000000000000000000000000000000000000000000000000
310
0000000000000000000000000000000000000000000000000000000000000000F50000000000F5000000000000000000000000000000000000000000000000000000000000000000000000000000000000000000000000000000000000000000000000000000000000000000000000F50000000000F5000000000000000000
310
0000000000000000000000000000F5000000000000002D2D00000000000000000000DC00000000000000000000002D2D00C3C3000000002D00000000000000DC000000DC000000DC00000000000000002D00C3000000F500000000000000000000000000000000000000000000000000000000000000000000000000000000
310
00000000000000000000000000000000000000000000000000000000000000000000F50000000000F5000000000000000000000000000000000000000000000000000000000000000000000000000000000000000000000000000000000000000000000000000000000000000000000000F50000000000F500000000000000
310
00000000000000000000000000000000F5000000000000002D2D00000000000000000000DC00000000000000000000002D2D00C3C3000000002D0000000000000000000000DC0000000000000000000000002D00C3000000F50000000000000000000000000000000000000000000000000000000000000000000000000000
310
000000000000000000000000000000000000000000000000000000000000000000000000F50000000000F5000000000000000000000000000000000000000000000000000000000000000000000000000000000000000000000000000000000000000000000000000000000000000000000000F50000000000F50000000000
310
000000000000000000000000000000000000F5000000000000002D2D00000000000000000000DC00000000000000000000002D2D0000C3000000002D0000000000000000000000DC0000000000000000000000002DC3C3000000F5000000000000000000000000000000000000000000000000000000000000000000000000
310
0000000000000000000000000000000000000000000000000000000000000000000000000000F50000000000F5000000000000000000000000000000000000000000000000000000000000000000000000000000000000000000000000000000000000000000000000000000000000000000000000F50000000000F5000000
310
0000000000000000000000000000000000000000F5000000000000002D2D00000000000000000000DC00000000000000000000002D2D0000C3000000002D0000000000000000000000DC0000000000000000000000002DC3C3000000F500000000000000000000000000000000000000000000000000000000000000000000
310
00000000000000000000000000000000000000000000000000000000000000000000000000000000F50000000000F5000000000000000000000000000000000000000000000000000000000000000000000000000000000000000000000000000000000000000000000000000000000000000000000000F50000000000F500
310
00000000000000000000000000000000000000000000F5000000000000002D2D000000000000DC000000DC00000000DC0000000000002D2D0000C3000000002D00000000000000DC000000DC000000DC00000000000000002D00C3000000F50000000000000000000000000000000000000000000000000000000000000000
310
000000000000000000000000000000000000000000000000000000000000000000000000000000000000F50000000000F5000000000000000000000000000000000000000000000000000000000000000000000000000000000000000000000000000000000000000000000000000000000000000000000000F50000000000
310
F50000000000000000000000000000000000000000000000F5000000000000002D2D2D2D2D2D2D2D2D2D2D2D2D2D2D2D2D2D2D2D2D2D2D2D2D2D0000C3000000002D2D2D2D2D2D2D2DDC2D2D2D2D2D2D2DDC2D2D2D2D2D2D2D2D2D00C3000000F5000000000000000000000000000000000000000000000000000000000000
310
0000000000000000000000000000000000000000000000000000000000000000000000000000000000000000F50000000000F5000000000000000000000000000000000000000000000000000000000000000000000000000000000000000000000000000000000000000000000000000000000000000000000000F5000000
310
0000F50000000000000000000000000000000000000000000000F5000000000000002D2D2D2D2D2D2D2D2D2D2D2D2D2D2D2D2D2D2D2D2D2D2D2D2D2DC3C3C3000000002D2D2D2D2D2D2D2DDC2D2D2D2D2D2D2DDC2D2D2D2D2D2D2D2DC3C3C3000000F500000000000000000000000000000000000000000000000000000000
310
00000000000000000000000000000000000000000000000000000000000000000000000000000000000000000000F50000000000F5000000000000000000000000000000000000000000000000000000000000000000000000000000000000000000000000000000000000000000000000000000000000000000000000F500
310
00000000F50000000000000000000000000000000000000000000000F50000000000000000000000000000000000000000000000000000000000000000000000000000000000000000000000000000000000000000000000000000000000000000000000F50000000000000000000000000000000000000000000000000000
310
000000000000000000000000000000000000000000000000000000000000000000000000000000000000000000000000F50000000000F5000000000000000000000000000000000000000000000000000000000000000000000000000000000000000000000000000000000000000000000000000000000000000000000000
310
F50000000000F50000000000000000000000000000000000000000000000F500000000000000000000000000000000000000DC000000000000000000000000000000000000000000000000000000000000000000000000000000000000000000000000000000F5000000000000000000000000000000000000000000000000
310
0000000000000000000000000000000000000000000000000000000000000000000000000000000000000000000000000000F50000000000F500000000000000000000000000000000000000000000000000000000000000000000000000000000000000000000000000000000000000000000000000000000000000000000
310
0000F50000000000F50000000000000000000000000000000000000000000000F5000000000000002D2D2D2D2D2D2D2D2D2D2D2D2D2D2D2D2D2D2D2D2D2D2D2D2DC3C3C3C3C3C3C30000000000000000000000000000000000000000000000000000000000000000F500000000000000000000000000000000000000000000
310
00000000000000000000000000000000000000000000000000000000000000000000000000000000000000000000000000000000F50000000000F50000000000000000000000000000000000000000000000000000000000000000000000000000000000000000000000000000000000000000000000000000000000000000
310
00000000F50000000000F50000000000000000000000000000000000000000000000F5000000000000002D2D0000000000002D0000002D000000002D0000000000002D2D0000000000C30000000000000000000000000000000000000000000000000000000000000000F50000000000000000000000000000000000000000
310
000000000000000000000000000000000000000000000000000000000000000000000000000000000000000000000000000000000000F50000000000F5000000000000000000000000000000000000000000000000000000000000000000000000000000000000000000000000000000000000000000000000000000000000
310
000000000000F50000000000F50000000000000000000000000000000000000000000000F5000000000000002D2D0000000000002D0000002D000000002D0000000000002D2D0000000000C30000000000000000000000000000000000000000000000000000000000000000F5000000000000000000000000000000000000
310
0000000000000000000000000000000000000000000000000000000000000000000000000000000000000000000000000000000000000000F50000000000F500000000000000000000000000000000000000000000000000000000000000000000000000000000000000000000000000000000000000000000000000000000
310
0000000000000000F50000000000F50000000000000000000000000000000000000000000000F5000000000000002D2D0000000000002D0000002D000000002D0000000000002D2D0000000000C30000000000000000000000000000000000000000000000000000000000000000F500000000000000000000000000000000
310
00000000000000000000000000000000000000000000000000000000000000000000000000000000000000000000000000000000000000000000F50000000000F50000000000000000000000000000000000000000000000000000000000000000000000000000000000000000000000000000000000000000000000000000
310
00000000000000000000F50000000000F5000000000000000000F5F5F5F5F5000000000000000000F5000000000000002D2D0000000000002D0000002D000000002D0000000000002D2D0000000000C30000000000000000000000000000000000000000000000000000000000000000F50000000000000000000000000000
310
000000000000000000000000000000000000000000000000000000000000000000000000000000000000000000000000000000000000000000000000F50000000000F5000000000000000000000000000000000000000000000000000000000000000000000000000000000000000000000000000000000000000000000000
310
000000000000000000000000F50000000000F5000000000000000000F5F5F5F5F5000000000000000000F5000000000000002D2D0000000000002D0000002D000000002D0000000000002D2D0000000000C30000000000000000000000000000000000000000000000000000000000000000F5000000000000000000000000
310
0000000000000000000000000000000000000000000000000000000000000000000000000000000000000000000000000000000000000000000000000000F50000000000F500000000000000000000000000000000000000000000000000000000000000000000000000000000000000000000000000000000000000000000
310
0000000000000000000000000000F50000000000F5000000000000000000F5F5F5F5F5000000000000000000F5000000000000002D2D0000000000002D0000002D000000002D0000000000002D2D0000000000C30000000000000000000000000000000000000000000000000000000000000000F500000000000000000000
310
00000000000000000000000000000000000000000000000000000000000000000000000000000000000000000000000000000000000000000000000000000000F50000000000F50000000000000000000000000000000000000000000000000000000000000000000000000000000000000000000000000000000000000000
310
00000000000000000000000000000000F50000000000F50000000000000000000000000000000000000000000000F5000000000000002D2D0000000000002D000000DC000000002D0000000000002D2D0000000000C30000000000000000000000000000000000000000000000000000000000000000F50000000000000000
310
000000000000000000000000000000000000000000000000000000000000000000000000000000000000000000000000000000000000000000000000000000000000F50000000000F5000000000000000000000000000000000000000000000000000000000000000000000000000000000000000000000000000000000000
310
000000000000000000000000000000000000F50000000000F50000000000000000000000000000000000000000000000F500000000000000DCDC0000000000002D00002D2DC3C3C3C3C3C3C3C3C3C3C3C3C3C3C3C30000C30000000000000000000000000000000000000000000000000000000000000000F5000000000000
310
0000000000000000000000000000000000000000000000000000000000000000000000000000000000000000000000000000000000000000000000000000000000000000F50000000000F500000000000000000000000000000000000000000000000000000000000000000000000000000000000000000000000000000000
310
0000000000000000000000000000000000000000F50000000000F50000000000000000000000000000000000000000000000F5000000000000002D2D0000000000002D0000002D000000002D0000000000002D2D0000C30000C30000000000000000000000000000000000000000000000000000000000000000F500000000
310
00000000000000000000000000000000000000000000000000000000000000000000000000000000000000000000000000000000000000000000000000000000000000000000F50000000000F50000000000000000000000000000000000000000000000000000000000000000000000000000000000000000000000000000
310
00000000000000000000000000000000000000000000F50000000000F50000000000000000000000000000000000000000000000F5000000000000002D2D0000000000002D0000002D000000002D0000000000002D2D0000C30000C30000000000000000000000000000000000000000000000000000000000000000F50000
310
000000000000000000000000000000000000000000000000000000000000000000000000000000000000000000000000000000000000000000000000000000000000000000000000F50000000000F5000000000000000000000000000000000000000000000000000000000000000000000000000000000000000000000000
310
000000000000000000000000000000000000000000000000F50000000000F50000000000000000000000000000000000000000000000F5000000000000002D2D000000000000DC0000002D000000002D0000000000002D2D00C3C3C3C3C30000000000000000000000000000000000000000000000000000000000000000F5
310
0000000000000000000000000000000000000000000000000000000000000000000000000000000000000000000000000000000000000000000000000000000000000000000000000000F50000000000F500000000000000000000000000000000000000000000000000000000000000000000000000000000000000000000
310
0000000000000000000000000000000000000000000000000000F50000000000F50000000000000000000000000000000000000000000000F5000000000000DCDC2DDCDCDCDCDCDCDCDCDCDC2DDCDCDC2DDC2DDCDCDCDCDCDCDC00C3C3C3C3C300000000000000000000000000000000000000000000000000000000000000
310
00F50000000000000000000000000000000000000000000000000000000000000000000000000000000000000000000000000000000000000000000000000000000000000000000000000000F50000000000F50000000000000000000000000000000000000000000000000000000000000000000000000000000000000000
310
00000000000000000000000000000000000000000000000000000000F50000000000F50000000000000000000000000000000000000000000000F5000000000000002D2D000000000000C30000002D00000000C30000000000002D2D00C3C3C3C3C30000000000000000000000000000000000000000000000000000000000
310
000000F50000000000000000000000000000000000000000000000000000000000000000000000000000000000000000000000000000000000000000000000000000000000000000000000000000F50000000000F5000000000000000000000000000000000000000000000000000000000000000000000000000000000000
310
000000000000000000000000000000000000000000000000000000000000F50000000000F50000000000000000000000000000000000000000000000F5000000000000002D2D000000000000C30000002D00000000C30000000000002D2D0000C30000C3000000000000000000000000000000000000000000000000000000
310
0000000000F50000000000000000000000000000000000000000000000000000000000000000000000000000000000000000000000000000000000000000000000000000000000000000000000000000F50000000000F500000000000000000000000000000000000000000000000000000000000000000000000000000000
310
0000000000000000000000000000000000000000000000000000000000000000F50000000000F50000000000000000000000000000000000000000000000F5000000000000002D2D000000000000C30000002D00000000C30000000000002D2D0000C30000C300000000000000000000000000000000000000000000000000
310
00000000000000F50000000000000000000000000000000000000000000000000000000000000000000000000000000000000000000000000000000000000000000000000000000000000000000000000000F50000000000F50000000000000000000000000000000000000000000000000000000000000000000000000000
310
00000000000000000000000000000000000000000000000000000000000000000000F50000000000F50000000000000000000000000000000000000000000000F500000000000000DCDC000000000000C300002D2DC3C3C3C3C3C3C3C3C3C3C3C3C3C3C3C30000C30000000000000000000000000000000000000000000000
310
000000000000000000F50000000000000000000000000000000000000000000000000000000000000000000000000000000000000000000000000000000000000000000000000000000000000000000000000000F50000000000F5000000000000000000000000000000000000000000000000000000000000000000000000
310
000000000000000000000000000000000000000000000000000000000000000000000000F50000000000F50000000000000000000000000000000000000000000000F5000000000000002D2D000000000000C30000002DC3000000C30000000000002D2D0000000000C3000000000000000000000000000000000000000000
310
0000000000000000000000F50000000000000000000000000000000000000000000000000000000000000000000000000000000000000000000000000000000000000000000000000000000000000000000000000000F50000000000F500000000000000000000000000000000000000000000000000000000000000000000
310
0000000000000000000000000000000000000000000000000000000000000000000000000000F50000000000F50000000000000000000000000000000000000000000000F5000000000000002D2D000000000000C30000002D00C30000C30000000000002D2D0000000000C300000000000000000000000000000000000000
310
00000000000000000000000000F50000000000000000000000000000000000000000000000000000000000000000000000000000000000000000000000000000000000000000000000000000000000000000000000000000F50000000000F50000000000000000000000000000000000000000000000000000000000000000
310
00000000000000000000000000000000000000000000000000000000000000000000000000000000F50000000000F50000000000000000000000000000000000000000000000F5000000000000002D2D000000000000C30000002D0000C300C30000000000002D2D0000000000C30000000000000000000000000000000000
310
000000000000000000000000000000F50000000000000000000000000000000000000000000000000000000000000000000000000000000000000000000000000000000000000000000000000000000000000000000000000000F50000000000F5000000000000000000000000000000000000000000000000000000000000
310
000000000000000000000000000000000000000000000000000000000000000000000000000000000000F50000000000F50000000000000000000000000000000000000000000000F5000000000000002D2D000000000000C30000002D0000C300C30000000000002D2D0000000000C3000000000000000000000000000000
310
0000000000000000000000000000000000F50000000000000000000000000000000000000000000000000000000000000000000000000000000000000000000000000000000000000000000000000000000000000000000000000000F50000000000F500000000000000000000000000000000000000000000000000000000
310
0000000000000000000000000000000000000000000000000000000000000000000000000000000000000000F50000000000F50000000000000000000000000000000000000000000000F5000000000000002D2D000000000000C30000002D000000C3C30000000000002D2D0000000000C300000000000000000000000000
310
00000000000000000000000000000000000000F50000000000000000000000000000000000000000000000000000000000000000000000000000000000000000000000000000000000000000000000000000000000000000000000000000F50000000000F50000000000000000000000000000000000000000000000000000
310
00000000000000000000000000000000000000000000000000000000000000000000000000000000000000000000F50000000000F50000000000000000000000000000000000000000000000F5000000000000002D2D000000000000C30000002D00000000C30000000000002D2D0000000000C30000000000000000000000
310
000000000000000000000000000000000000000000F50000000000000000000000000000000000000000000000000000000000000000000000000000000000000000000000000000000000000000000000000000000000000000000000000000F50000000000F5000000000000000000000000000000000000000000000000
310
000000000000000000000000000000000000000000000000000000000000000000000000000000000000000000000000F50000000000F50000000000000000000000000000000000000000000000F5000000000000002D2D000000000000C30000002D00000000C3C300000000002D2D0000000000C3000000000000000000
310
0000000000000000000000000000000000000000000000F50000000000000000000000000000000000000000000000000000000000000000000000000000000000000000000000000000000000000000000000000000000000000000000000000000F50000000000F500000000000000000000000000000000000000000000
310
0000000000000000000000000000000000000000000000000000000000000000000000000000000000000000000000000000F50000000000F50000000000000000000000000000000000000000000000F5000000000000002D2D2D2D2D2D2D2DC32D2D2D2D2D2D2D2DC32DC32D2D2D2D2DC3C3C3C3C3C3C300000000000000
310
00000000000000000000000000000000000000000000000000F50000000000000000000000000000000000000000000000000000000000000000000000000000000000000000000000000000000000000000000000000000000000000000000000000000F50000000000F50000000000000000000000000000000000000000
310
00000000000000000000000000000000000000000000000000000000000000000000000000000000000000000000000000000000F50000000000F50000000000000000000000000000000000000000000000F5282800000000000000000000000000C30000000000000000C300C30000000000000000000000000000000000
310
000000000000000000000000000000000000000000000000000000F50000000000000000000000000000000000000000000000000000000000000000000000000000000000000000000000000000000000000000000000000000000000000000000000000000F50000000000F5000000000000000000000000000000000000
310
000000000000000000000000000000000000000000000000000000000000000000000000000000000000000000000000000000000000F50000000000F50000000000000000000000000000000000000000000000F5282800000000000000000000000000C30000000000000000C30000C30000000000000000000000000000
310
0000000000000000000000000000000000000000000000000000000000F50000000000000000000000000000000000000000000000000000000000000000000000000000000000000000000000000000000000000000000000000000000000000000000000000000F50000000000F500000000000000000000000000000000
310
0000000000000000000000000000000000000000000000000000000000000000000000000000000000000000000000000000000000000000F50000000000F50000000000000000000000000000000000000000000000F5282800000000000000000000000000C3C3C3C3C3C3C3C3C3C3000000C3C3C3C3C300000000000000
310
00000000000000000000000000000000000000000000000000000000000000F50000000000000000000000000000000000000000000000000000000000000000000000000000000000000000000000000000000000000000000000000000000000000000000000000000F50000000000F50000000000000000000000000000
310
00000000000000000000000000000000000000000000000000000000000000000000000000000000000000000000000000000000000000000000F50000000000F50000000000000000000000000000000000000000000000F500280000000000000000000000000000000000C3C30000000000000000C3C3C3C30000000000
310
000000000000000000000000000000000000000000000000000000000000000000F50000000000000000000000000000000000000000000000000000000000000000000000000000000000000000000000000000000000000000000000000000000000000000000000000000F50000000000F5000000000000000000000000
310
000000000000000000000000000000000000000000000000000000000000000000000000000000000000000000000000000000000000000000000000F50000000000F50000000000000000000000000000000000000000000000F5002828282800000000000000000000000000000000000000000000000000000000000000
310
0000000000000000000000000000000000000000000000000000000000000000000000F50000000000000000000000000000000000000000000000000000000000000000000000000000000000000000000000000000000000000000000000000000000000000000000000000000F50000000000F500000000000000000000
310
0000000000000000000000000000000000000000000000000000000000000000000000000000000000000000000000000000000000000000000000000000F50000000000F50000000000000000000000000000000000000000000000F500000028282800000000000000000000000000000000000000000000000000000000
310
00000000000000000000000000000000000000000000000000000000000000000000000000F50000000000000000000000000000000000000000000000000000000000000000000000000000000000000000000000000000000000000000000000000000000000000000000000000000F50000000000F50000000000000000
310
00000000000000000000000000000000000000000000000000000000000000000000000000000000000000000000000000000000000000000000000000000000F50000000000F5F5F5F5F5F5F5F5F5F5F5F5F5F5F5F5F5F5F5F5F5F5F5F5F5F5F5F5F5F5F5F5F5F5F5F5F5F5F5F5F5F5F5F5F5F5F5F5F5F5F5F5F5F5F5F5F5
310
F5F5F5F5F5F5F5F5F5F5F5F5F5F5F5F5F5F5F5F5F5F5F5F5F5F5F5F5F5F5F5F5F5F5F5F5F5F5F5F50000000000000000000000000000000000000000000000000000000000000000000000000000000000000000000000000000000000000000000000000000000000000000000000000000F50000000000F5000000000000
310
000000000000000000000000000000000000000000000000000000000000000000000000000000000000000000000000000000000000000000000000000000000000F50000000000F500000000000000000000F5F5F5F5000000000000000000F5000000000000000000000000000000000000000000000000000000000000
310
00F5F5F5F5F5F5F5F5F500000000000000000000000000000000000000000000000000000000000000F50000000000000000000000000000000000000000000000000000000000000000000000000000000000000000000000000000000000000000000000000000000000000000000000000000F50000000000F500000000
310
0000000000000000000000000000000000000000000000000000000000000000000000000000000000000000000000000000000000000000000000000000000000000000F50000000000F500000000000000000000F5F5F5F5000000000000000000F500000000000000000000000000000000000000000000000000000000
310
000000F5F5F5F5F5F5F5F5F500000000000000000000000000000000000000000000000000000000000000F50000000000000000000000000000000000000000000000000000000000000000000000000000000000000000000000000000000000000000000000000000000000000000000000000000F50000000000F50000
310
00000000000000000000000000000000000000000000000000000000000000000000000000000000000000000000000000000000000000000000000000000000000000000000F50000000000F5F5F5F5F5F5F5F5F5F5F5F5F5F5F5F5F5F5F5F5F5F5F5F5F5F5F5F5F5F5F5F5F5F5F5F5F5F5F5F5F5F5F5F5F5F5F5F5F5F5F5
310
F5F5F5F5F5F5F5F5F5F5F5F5F5F5F5F5F5F5F5F5F5F5F5F5F5F5F5F5F5F5F5F5F5F5F5F5F5F5F5F5F5F5F5F5F5F50000000000000000000000000000000000000000000000000000000000000000000000000000000000000000000000000000000000000000000000000000000000000000000000000000F50000000000F5
310
000000000000000000000000000000000000000000000000000000000000000000000000000000000000000000000000000000000000000000000000000000000000000000000000F50000000000F500000000000000000000F5F5F500000000000000000000F5000000000000000000000000000000000000000000000000
310
0000F5F5F5F5F5F5F500F5F5F5F5F5F5F5F500F5F50000000000000000000000000000000000000000000000000000F50000000000000000000000000000000000000000000000000000000000000000000000000000000000000000000000000000000000000000000000000000000000000000000000000000F500000000
310
00F5000000000000000000000000000000000000000000000000000000000000000000000000000000000000000000000000000000000000000000000000000000000000000000000000F50000000000F5F5F5F5F5F5F5F5F5F5F5F5F5F5F5F5F5F5F5F5F5F5F5F5F5F5F5F5F5F5F5F5F5F5F5F5F5F5F5F5F5F5F5F5F5F5F5
310
F5F5F5F5F5F5F5F5F5F5F5F5F5F5F5F5F5F5F5F5F5F5F5F5F5F5F5F5F5F5F5F5F5F5F5F5F5F5F5F5F5F5F5F5F5F5F5F5F5F50000000000000000000000000000000000000000000000000000000000000000000000000000000000000000000000000000000000000000000000000000000000000000000000000000F50000
310
000000F5000000000000000000000000000000000000000000000000000000000000000000000000000000000000000000000000000000000000000000000000000000000000000000000000F50000000000F500000000000000000000F5F5F500000000000000000000F50000000000000000000000000000000000000000
310
000000000000000000F5F5F5F5F5F500F50000F5F5F50000000000000000000000000000000000000000000000000000000000F50000000000000000000000000000000000000000000000000000000000000000000000000000000000000000000000000000000000000000000000000000000000000000000000000000F5
310
0000000000F5000000000000000000000000000000000000000000000000000000000000000000000000000000000000000000000000000000000000000000000000000000000000000000000000F50000000000F500000000000000000000F5F5F500000000000000000000F5000000000000000000000000000000000000
310
0000000000000000000000F5F5F5F5F5F5F5F5F5F5F5F5F50000000000000000000000000000000000000000000000000000000000F500000000000000000000000000000000000000000000000000000000000000000000000000000000000000000000000000000000000000000000000000000000000000000000000000
310
00F50000000000F5000000000000000000000000000000000000000000000000000000000000000000000000000000000000000000000000000000000000000000000000000000000000000000000000F50000000000F5F5F5F5F5F5F5F5F5F5F5F5F5F5F5F5F5F5F5F5F5F5F5F5F5F5F5F5F5F5F5F5F5F5F5F5F5F5F5F5F5
310
F5F5F5F5F5F5F5F5F5F5F5F5F5F5F5F5F5F5F5F5F5F5F5F5F5F5F5F5F5F5F5F5F5F5F5F5F5F5F5F5F5F5F5F5F5F5F5F5F5F5F5F5F5F5F5F5F5F5F5F5F5F5F5F5F5F5F5F5F5F5F5F5F5F5F5F5F5F5F5F5F5F5F5F5F5F5F5F5F5F5F5F5F5F5F5F5F5F5F5F5F5F5F5F5F5F5F5F5F5F5F5F5F5F5F5F5F5F5F5F5F5F5F5F5F5F5F5
310
F5F5F5F50000000000F5000000000000000000000000000000000000000000000000000000000000000000000000000000000000000000000000000000000000000000000000000000000000000000000000F50000000000000000000000000000000000000000000000000000000000000000000000000000000000000000
310
00000000000000000000000000000000000000000000000000000000000000000000000000000000000000000000F50000000000000000000000000000000000000000000000000000000000000000000000000000000000000000000000000000000000000000000000000000000000000000000000000000000000000000
310
0000000000000000000000F5000000000000000000000000000000000000000000000000000000000000000000000000000000000000000000000000000000000000000000000000000000000000000000000000F5000000000000000000000000000000000000000000000000000000000000000000000000000000000000
310
00000000000000000000000000000000000000000000000000000000000000000000000000000000000000000000000000000000000000000000000000000000000000000000000000000000000000000000000000000000000000000000000000000000000000000000000000000000000000000000000000000000000000
310
00000000000000000000000000F5000000000000000000000000000000000000000000000000000000000000000000000000000000000000000000000000000000000000000000000000000000000000000000000000F500000000000000000000000000000000000000000000000000000000000000000000000000000000
310
00000000000000000000000000000000000000000000000000000000000000000000000000000000000000000000000000000000000000000000000000000000000000000000000000000000000000000000000000000000000000000000000000000000000000000000000000000000000000000000000000000000000000
310
000000000000000000000000000000F5000000000000000000000000000000000000000000000000000000000000000000000000000000000000000000000000000000000000000000000000000000000000000000000000F5F5F5F5F5F5F5F5F5F5F5F5F5F5F5F5F5F5F5F5F5F5F5F5F5F5F5F5F5F5F5F5F5F5F5F5F5F5F5
310
F5F5F5F5F5F5F5F5F5F5F5F5F5F5F5F5F5F5F5F5F5F5F5F5F5F5F5F5F5F5F5F5F5F5F5F5F5F5F5F5F5F5F5F5F5F5F5F5F5F5F5F5F5F5F5F5F5F5F5F5F5F5F5F5F5F5F5F5F5F5F5F5F5F5F5F5F5F5F5F5F5F5F5F5F5F5F5F5F5F5F5F5F5F5F5F5F5F5F5F5F5F5F5F5F5F5F5F5F5F5F5F5F5F5F5F5F5F5F5F5F5F5F5F5F5F5F5
310
F5F5F5F5F5F5F5F5F5F5F5F5F5F5F5F5F5F500000000000000000000000000000000000000000000000000000000000000000000000000000000000000000000000000000000000000000000000000000000000000000000000000000000000000000000000000000000000000000000000000000000000000000000000000
310
00000000000000000000000000000000000000000000000000000000000000000000000000000000000000000000000000000000000000000000000000000000000000000000000000000000000000000000000000000000000000000000000000000000000000000000000000000000000000000000000000000000000000
310
0000000000000000000000000000000000000000000000000000000000000000000000000000000000000000000000000000000000000000
  0
XRECORD
  5
97ED
102
{ACAD_REACTORS
330
27ED
102
}
330
27ED
100
AcDbXrecord
280
     1
102
MATERIAL
148
0.0
149
0.0
149
0.0
 93
        0
 94
      127
282
     0
 72
     0
 77
     0
171
     0
175
     0
179
     0
273
     0
  0
XRECORD
  5
27EF
102
{ACAD_REACTORS
330
27ED
102
}
330
27ED
100
AcDbXrecord
280
     1
270
     1
271
     1
  0
XRECORD
  5
27EE
102
{ACAD_REACTORS
330
27ED
102
}
330
27ED
100
AcDbXrecord
280
     1
270
     1
271
     1
  0
XRECORD
  5
27F2
102
{ACAD_REACTORS
330
27ED
102
}
330
27ED
100
AcDbXrecord
280
     1
270
     1
271
     1
  0
XRECORD
  5
27F1
102
{ACAD_REACTORS
330
27ED
102
}
330
27ED
100
AcDbXrecord
280
     1
270
     1
271
     1
  0
XRECORD
  5
27F3
102
{ACAD_REACTORS
330
27ED
102
}
330
27ED
100
AcDbXrecord
280
     1
270
     1
271
     1
  0
XRECORD
  5
27F0
102
{ACAD_REACTORS
330
27ED
102
}
330
27ED
100
AcDbXrecord
280
     1
270
     1
271
     1
  0
XRECORD
  5
97EC
102
{ACAD_REACTORS
330
27E5
102
}
330
27E5
100
AcDbXrecord
280
     1
102
MATERIAL
148
0.0
149
0.0
149
0.0
 93
        0
 94
      127
282
     0
 72
     0
 77
     0
171
     0
175
     0
179
     0
273
     0
  0
XRECORD
  5
27E7
102
{ACAD_REACTORS
330
27E5
102
}
330
27E5
100
AcDbXrecord
280
     1
270
     1
271
     1
  0
XRECORD
  5
27E6
102
{ACAD_REACTORS
330
27E5
102
}
330
27E5
100
AcDbXrecord
280
     1
270
     1
271
     1
  0
XRECORD
  5
27EA
102
{ACAD_REACTORS
330
27E5
102
}
330
27E5
100
AcDbXrecord
280
     1
270
     1
271
     1
  0
XRECORD
  5
27E9
102
{ACAD_REACTORS
330
27E5
102
}
330
27E5
100
AcDbXrecord
280
     1
270
     1
271
     1
  0
XRECORD
  5
27EB
102
{ACAD_REACTORS
330
27E5
102
}
330
27E5
100
AcDbXrecord
280
     1
270
     1
271
     1
  0
XRECORD
  5
27E8
102
{ACAD_REACTORS
330
27E5
102
}
330
27E5
100
AcDbXrecord
280
     1
270
     1
271
     1
  0
XRECORD
  5
97EE
102
{ACAD_REACTORS
330
27F5
102
}
330
27F5
100
AcDbXrecord
280
     1
102
MATERIAL
148
0.0
149
0.0
149
0.0
 93
        0
 94
      127
282
     0
 72
     0
 77
     0
171
     0
175
     0
179
     0
273
     0
  0
XRECORD
  5
27F7
102
{ACAD_REACTORS
330
27F5
102
}
330
27F5
100
AcDbXrecord
280
     1
270
     1
271
     1
  0
XRECORD
  5
27F6
102
{ACAD_REACTORS
330
27F5
102
}
330
27F5
100
AcDbXrecord
280
     1
270
     1
271
     1
  0
XRECORD
  5
27FA
102
{ACAD_REACTORS
330
27F5
102
}
330
27F5
100
AcDbXrecord
280
     1
270
     1
271
     1
  0
XRECORD
  5
27F9
102
{ACAD_REACTORS
330
27F5
102
}
330
27F5
100
AcDbXrecord
280
     1
270
     1
271
     1
  0
XRECORD
  5
27FB
102
{ACAD_REACTORS
330
27F5
102
}
330
27F5
100
AcDbXrecord
280
     1
270
     1
271
     1
  0
XRECORD
  5
27F8
102
{ACAD_REACTORS
330
27F5
102
}
330
27F5
100
AcDbXrecord
280
     1
270
     1
271
     1
  0
XRECORD
  5
9981
102
{ACAD_REACTORS
330
9980
102
}
330
9980
100
AcDbXrecord
280
     1
102
ACAD_ROUNDTRIP_2012_MLEADER_STYLE
298
     1
  0
XRECORD
  5
999B
102
{ACAD_REACTORS
330
999A
102
}
330
999A
100
AcDbXrecord
280
     1
102
DISPLAYNAME
  1
Imperial24
102
FLAGS
 90
        0
  0
XRECORD
  5
9997
102
{ACAD_REACTORS
330
9996
102
}
330
9996
100
AcDbXrecord
280
     1
102
DISPLAYNAME
  1
Metric50
102
FLAGS
 90
        0
  0
CELLSTYLEMAP
  5
995D
102
{ACAD_REACTORS
330
285E
102
}
330
285E
100
AcDbCellStyleMap
 90
        3
300
CELLSTYLE
  1
TABLEFORMAT_BEGIN
 90
        5
170
     1
 91
        0
 92
    32768
 62
   257
 93
        1
300
CONTENTFORMAT
  1
CONTENTFORMAT_BEGIN
 90
        0
 91
        0
 92
        4
 93
        0
300

 40
0.0
140
1.0
 94
        5
 62
     0
340
11
144
6.0
309
CONTENTFORMAT_END
171
     1
301
MARGIN
  1
CELLMARGIN_BEGIN
 40
1.5
 40
1.5
 40
1.5
 40
1.5
 40
0.18
 40
0.18
309
CELLMARGIN_END
 94
        6
 95
        1
302
GRIDFORMAT
  1
GRIDFORMAT_BEGIN
 90
        0
 91
        1
 62
     0
 92
       -2
340
0
 93
        0
 40
0.045
309
GRIDFORMAT_END
 95
        2
302
GRIDFORMAT
  1
GRIDFORMAT_BEGIN
 90
        0
 91
        1
 62
     0
 92
       -2
340
0
 93
        0
 40
0.045
309
GRIDFORMAT_END
 95
        4
302
GRIDFORMAT
  1
GRIDFORMAT_BEGIN
 90
        0
 91
        1
 62
     0
 92
       -2
340
0
 93
        0
 40
0.045
309
GRIDFORMAT_END
 95
        8
302
GRIDFORMAT
  1
GRIDFORMAT_BEGIN
 90
        0
 91
        1
 62
     0
 92
       -2
340
0
 93
        0
 40
0.045
309
GRIDFORMAT_END
 95
       16
302
GRIDFORMAT
  1
GRIDFORMAT_BEGIN
 90
        0
 91
        1
 62
     0
 92
       -2
340
0
 93
        0
 40
0.045
309
GRIDFORMAT_END
 95
       32
302
GRIDFORMAT
  1
GRIDFORMAT_BEGIN
 90
        0
 91
        1
 62
     0
 92
       -2
340
0
 93
        0
 40
0.045
309
GRIDFORMAT_END
309
TABLEFORMAT_END
  1
CELLSTYLE_BEGIN
 90
        1
 91
        1
300
_TITLE
309
CELLSTYLE_END
300
CELLSTYLE
  1
TABLEFORMAT_BEGIN
 90
        5
170
     1
 91
        0
 92
        0
 62
   257
 93
        1
300
CONTENTFORMAT
  1
CONTENTFORMAT_BEGIN
 90
        0
 91
        0
 92
        4
 93
        0
300

 40
0.0
140
1.0
 94
        5
 62
     0
340
11
144
4.5
309
CONTENTFORMAT_END
171
     1
301
MARGIN
  1
CELLMARGIN_BEGIN
 40
1.5
 40
1.5
 40
1.5
 40
1.5
 40
0.18
 40
0.18
309
CELLMARGIN_END
 94
        6
 95
        1
302
GRIDFORMAT
  1
GRIDFORMAT_BEGIN
 90
        0
 91
        1
 62
     0
 92
       -2
340
0
 93
        0
 40
0.045
309
GRIDFORMAT_END
 95
        2
302
GRIDFORMAT
  1
GRIDFORMAT_BEGIN
 90
        0
 91
        1
 62
     0
 92
       -2
340
0
 93
        0
 40
0.045
309
GRIDFORMAT_END
 95
        4
302
GRIDFORMAT
  1
GRIDFORMAT_BEGIN
 90
        0
 91
        1
 62
     0
 92
       -2
340
0
 93
        0
 40
0.045
309
GRIDFORMAT_END
 95
        8
302
GRIDFORMAT
  1
GRIDFORMAT_BEGIN
 90
        0
 91
        1
 62
     0
 92
       -2
340
0
 93
        0
 40
0.045
309
GRIDFORMAT_END
 95
       16
302
GRIDFORMAT
  1
GRIDFORMAT_BEGIN
 90
        0
 91
        1
 62
     0
 92
       -2
340
0
 93
        0
 40
0.045
309
GRIDFORMAT_END
 95
       32
302
GRIDFORMAT
  1
GRIDFORMAT_BEGIN
 90
        0
 91
        1
 62
     0
 92
       -2
340
0
 93
        0
 40
0.045
309
GRIDFORMAT_END
309
TABLEFORMAT_END
  1
CELLSTYLE_BEGIN
 90
        2
 91
        1
300
_HEADER
309
CELLSTYLE_END
300
CELLSTYLE
  1
TABLEFORMAT_BEGIN
 90
        5
170
     1
 91
        0
 92
        0
 62
   257
 93
        1
300
CONTENTFORMAT
  1
CONTENTFORMAT_BEGIN
 90
        0
 91
        0
 92
        4
 93
        0
300

 40
0.0
140
1.0
 94
        2
 62
     0
340
11
144
4.5
309
CONTENTFORMAT_END
171
     1
301
MARGIN
  1
CELLMARGIN_BEGIN
 40
1.5
 40
1.5
 40
1.5
 40
1.5
 40
0.18
 40
0.18
309
CELLMARGIN_END
 94
        6
 95
        1
302
GRIDFORMAT
  1
GRIDFORMAT_BEGIN
 90
        0
 91
        1
 62
     0
 92
       -2
340
0
 93
        0
 40
0.045
309
GRIDFORMAT_END
 95
        2
302
GRIDFORMAT
  1
GRIDFORMAT_BEGIN
 90
        0
 91
        1
 62
     0
 92
       -2
340
0
 93
        0
 40
0.045
309
GRIDFORMAT_END
 95
        4
302
GRIDFORMAT
  1
GRIDFORMAT_BEGIN
 90
        0
 91
        1
 62
     0
 92
       -2
340
0
 93
        0
 40
0.045
309
GRIDFORMAT_END
 95
        8
302
GRIDFORMAT
  1
GRIDFORMAT_BEGIN
 90
        0
 91
        1
 62
     0
 92
       -2
340
0
 93
        0
 40
0.045
309
GRIDFORMAT_END
 95
       16
302
GRIDFORMAT
  1
GRIDFORMAT_BEGIN
 90
        0
 91
        1
 62
     0
 92
       -2
340
0
 93
        0
 40
0.045
309
GRIDFORMAT_END
 95
       32
302
GRIDFORMAT
  1
GRIDFORMAT_BEGIN
 90
        0
 91
        1
 62
     0
 92
       -2
340
0
 93
        0
 40
0.045
309
GRIDFORMAT_END
309
TABLEFORMAT_END
  1
CELLSTYLE_BEGIN
 90
        3
 91
        2
300
_DATA
309
CELLSTYLE_END
  0
CELLSTYLEMAP
  5
995E
102
{ACAD_REACTORS
330
2860
102
}
330
2860
100
AcDbCellStyleMap
 90
        3
300
CELLSTYLE
  1
TABLEFORMAT_BEGIN
 90
        5
170
     1
 91
        0
 92
    32768
 62
   257
 93
        1
300
CONTENTFORMAT
  1
CONTENTFORMAT_BEGIN
 90
        0
 91
        0
 92
        4
 93
        0
300

 40
0.0
140
1.0
 94
        5
 62
     0
340
11
144
6.0
309
CONTENTFORMAT_END
171
     1
301
MARGIN
  1
CELLMARGIN_BEGIN
 40
0.0
 40
0.5
 40
0.0
 40
0.5
 40
0.18
 40
0.18
309
CELLMARGIN_END
 94
        6
 95
        1
302
GRIDFORMAT
  1
GRIDFORMAT_BEGIN
 90
        0
 91
        1
 62
     0
 92
       -2
340
0
 93
        0
 40
0.045
309
GRIDFORMAT_END
 95
        2
302
GRIDFORMAT
  1
GRIDFORMAT_BEGIN
 90
        0
 91
        1
 62
     0
 92
       -2
340
0
 93
        0
 40
0.045
309
GRIDFORMAT_END
 95
        4
302
GRIDFORMAT
  1
GRIDFORMAT_BEGIN
 90
        0
 91
        1
 62
     0
 92
       -2
340
0
 93
        0
 40
0.045
309
GRIDFORMAT_END
 95
        8
302
GRIDFORMAT
  1
GRIDFORMAT_BEGIN
 90
        0
 91
        1
 62
     0
 92
       -2
340
0
 93
        0
 40
0.045
309
GRIDFORMAT_END
 95
       16
302
GRIDFORMAT
  1
GRIDFORMAT_BEGIN
 90
        0
 91
        1
 62
     0
 92
       -2
340
0
 93
        0
 40
0.045
309
GRIDFORMAT_END
 95
       32
302
GRIDFORMAT
  1
GRIDFORMAT_BEGIN
 90
        0
 91
        1
 62
     0
 92
       -2
340
0
 93
        0
 40
0.045
309
GRIDFORMAT_END
309
TABLEFORMAT_END
  1
CELLSTYLE_BEGIN
 90
        1
 91
        1
300
_TITLE
309
CELLSTYLE_END
300
CELLSTYLE
  1
TABLEFORMAT_BEGIN
 90
        5
170
     1
 91
        0
 92
        0
 62
   257
 93
        1
300
CONTENTFORMAT
  1
CONTENTFORMAT_BEGIN
 90
        0
 91
        0
 92
        4
 93
        0
300

 40
0.0
140
1.0
 94
        5
 62
     0
340
DA
144
4.0
309
CONTENTFORMAT_END
171
     1
301
MARGIN
  1
CELLMARGIN_BEGIN
 40
0.0
 40
0.5
 40
0.0
 40
0.5
 40
0.18
 40
0.18
309
CELLMARGIN_END
 94
        6
 95
        1
302
GRIDFORMAT
  1
GRIDFORMAT_BEGIN
 90
        0
 91
        1
 62
     0
 92
       -2
340
0
 93
        0
 40
0.045
309
GRIDFORMAT_END
 95
        2
302
GRIDFORMAT
  1
GRIDFORMAT_BEGIN
 90
        0
 91
        1
 62
     0
 92
       -2
340
0
 93
        0
 40
0.045
309
GRIDFORMAT_END
 95
        4
302
GRIDFORMAT
  1
GRIDFORMAT_BEGIN
 90
        0
 91
        1
 62
     0
 92
       -2
340
0
 93
        0
 40
0.045
309
GRIDFORMAT_END
 95
        8
302
GRIDFORMAT
  1
GRIDFORMAT_BEGIN
 90
        0
 91
        1
 62
     0
 92
       -2
340
0
 93
        0
 40
0.045
309
GRIDFORMAT_END
 95
       16
302
GRIDFORMAT
  1
GRIDFORMAT_BEGIN
 90
        0
 91
        1
 62
     0
 92
       -2
340
0
 93
        0
 40
0.045
309
GRIDFORMAT_END
 95
       32
302
GRIDFORMAT
  1
GRIDFORMAT_BEGIN
 90
        0
 91
        1
 62
     0
 92
       -2
340
0
 93
        0
 40
0.045
309
GRIDFORMAT_END
309
TABLEFORMAT_END
  1
CELLSTYLE_BEGIN
 90
        2
 91
        1
300
_HEADER
309
CELLSTYLE_END
300
CELLSTYLE
  1
TABLEFORMAT_BEGIN
 90
        5
170
     1
 91
        0
 92
        0
 62
   257
 93
        1
300
CONTENTFORMAT
  1
CONTENTFORMAT_BEGIN
 90
        0
 91
        0
 92
        4
 93
        0
300

 40
0.0
140
1.0
 94
        5
 62
     0
340
DA
144
4.0
309
CONTENTFORMAT_END
171
     1
301
MARGIN
  1
CELLMARGIN_BEGIN
 40
0.0
 40
0.5
 40
0.0
 40
0.5
 40
0.18
 40
0.18
309
CELLMARGIN_END
 94
        6
 95
        1
302
GRIDFORMAT
  1
GRIDFORMAT_BEGIN
 90
        0
 91
        1
 62
     0
 92
       -2
340
0
 93
        0
 40
0.045
309
GRIDFORMAT_END
 95
        2
302
GRIDFORMAT
  1
GRIDFORMAT_BEGIN
 90
        0
 91
        1
 62
     0
 92
       -2
340
0
 93
        0
 40
0.045
309
GRIDFORMAT_END
 95
        4
302
GRIDFORMAT
  1
GRIDFORMAT_BEGIN
 90
        0
 91
        1
 62
     0
 92
       -2
340
0
 93
        0
 40
0.045
309
GRIDFORMAT_END
 95
        8
302
GRIDFORMAT
  1
GRIDFORMAT_BEGIN
 90
        0
 91
        1
 62
     0
 92
       -2
340
0
 93
        0
 40
0.045
309
GRIDFORMAT_END
 95
       16
302
GRIDFORMAT
  1
GRIDFORMAT_BEGIN
 90
        0
 91
        1
 62
     0
 92
       -2
340
0
 93
        0
 40
0.045
309
GRIDFORMAT_END
 95
       32
302
GRIDFORMAT
  1
GRIDFORMAT_BEGIN
 90
        0
 91
        1
 62
     0
 92
       -2
340
0
 93
        0
 40
0.045
309
GRIDFORMAT_END
309
TABLEFORMAT_END
  1
CELLSTYLE_BEGIN
 90
        3
 91
        2
300
_DATA
309
CELLSTYLE_END
  0
XRECORD
  5
996B
102
{ACAD_REACTORS
330
996A
102
}
330
996A
100
AcDbXrecord
280
     1
102
RTVSPost2010Prop28
280
     1
102
RTVSPost2010PropOp28
 70
     1
102
RTVSPost2010Prop29
280
     1
102
RTVSPost2010PropOp29
 70
     1
102
RTVSPost2010Prop30
280
     0
102
RTVSPost2010PropOp30
 70
     1
102
RTVSPost2010Prop31
280
     0
102
RTVSPost2010PropOp31
 70
     1
102
RTVSPost2010Prop32
280
     0
102
RTVSPost2010PropOp32
 70
     1
102
RTVSPost2010Prop33
280
     0
102
RTVSPost2010PropOp33
 70
     1
102
RTVSPost2010Prop34
280
     0
102
RTVSPost2010PropOp34
 70
     1
102
RTVSPost2010Prop35
280
     0
102
RTVSPost2010PropOp35
 70
     1
102
RTVSPost2010Prop36
280
     0
102
RTVSPost2010PropOp36
 70
     1
102
RTVSPost2010Prop37
 90
       50
102
RTVSPost2010PropOp37
 70
     1
102
RTVSPost2010Prop38
140
0.0
102
RTVSPost2010PropOp38
 70
     1
102
RTVSPost2010Prop39
140
1.0
102
RTVSPost2010PropOp39
 70
     1
102
RTVSPost2010Prop40
 90
        0
102
RTVSPost2010PropOp40
 70
     1
102
RTVSPost2010Prop41ColorIndex
 90
       18
102
RTVSPost2010Prop41ColorRGB
 90
        0
102
RTVSPost2010PropOp41
 70
     1
102
RTVSPost2010Prop42
 90
       50
102
RTVSPost2010PropOp42
 70
     1
102
RTVSPost2010Prop43
 90
        3
102
RTVSPost2010PropOp43
 70
     1
102
RTVSPost2010Prop44ColorIndex
 90
        5
102
RTVSPost2010Prop44ColorRGB
 90
      255
102
RTVSPost2010PropOp44
 70
     1
102
RTVSPost2010Prop45
280
     0
102
RTVSPost2010PropOp45
 70
     1
102
RTVSPost2010Prop46
 90
       50
102
RTVSPost2010PropOp46
 70
     1
102
RTVSPost2010Prop47
 90
       50
102
RTVSPost2010PropOp47
 70
     1
102
RTVSPost2010Prop48
 90
       50
102
RTVSPost2010PropOp48
 70
     1
102
RTVSPost2010Prop49
280
     0
102
RTVSPost2010PropOp49
 70
     1
102
RTVSPost2010Prop50
 90
       50
102
RTVSPost2010PropOp50
 70
     1
102
RTVSPost2010Prop51ColorIndex
 90
      256
102
RTVSPost2010Prop51ColorRGB
 90
-16777216
102
RTVSPost2010PropOp51
 70
     0
102
RTVSPost2010Prop52
140
1.0
102
RTVSPost2010PropOp52
 70
     0
102
RTVSPost2010Prop53
 90
        2
102
RTVSPost2010PropOp53
 70
     1
102
RTVSPost2010Prop54
  1
strokes_ogs.tif
102
RTVSPost2010PropOp54
 70
     1
102
RTVSPost2010Prop55
280
     0
102
RTVSPost2010PropOp55
 70
     1
102
RTVSPost2010Prop56
140
1.0
102
RTVSPost2010PropOp56
 70
     1
102
RTVSPost2010Prop57
140
1.0
102
RTVSPost2010PropOp57
 70
     1
  0
XRECORD
  5
996F
102
{ACAD_REACTORS
330
996E
102
}
330
996E
100
AcDbXrecord
280
     1
102
RTVSPost2010Prop28
280
     0
102
RTVSPost2010PropOp28
 70
     1
102
RTVSPost2010Prop29
280
     1
102
RTVSPost2010PropOp29
 70
     1
102
RTVSPost2010Prop30
280
     1
102
RTVSPost2010PropOp30
 70
     1
102
RTVSPost2010Prop31
280
     0
102
RTVSPost2010PropOp31
 70
     1
102
RTVSPost2010Prop32
280
     0
102
RTVSPost2010PropOp32
 70
     1
102
RTVSPost2010Prop33
280
     0
102
RTVSPost2010PropOp33
 70
     1
102
RTVSPost2010Prop34
280
     0
102
RTVSPost2010PropOp34
 70
     1
102
RTVSPost2010Prop35
280
     0
102
RTVSPost2010PropOp35
 70
     1
102
RTVSPost2010Prop36
280
     0
102
RTVSPost2010PropOp36
 70
     1
102
RTVSPost2010Prop37
 90
       50
102
RTVSPost2010PropOp37
 70
     1
102
RTVSPost2010Prop38
140
0.0
102
RTVSPost2010PropOp38
 70
     1
102
RTVSPost2010Prop39
140
1.0
102
RTVSPost2010PropOp39
 70
     1
102
RTVSPost2010Prop40
 90
        0
102
RTVSPost2010PropOp40
 70
     1
102
RTVSPost2010Prop41ColorIndex
 90
       18
102
RTVSPost2010Prop41ColorRGB
 90
        0
102
RTVSPost2010PropOp41
 70
     1
102
RTVSPost2010Prop42
 90
       50
102
RTVSPost2010PropOp42
 70
     1
102
RTVSPost2010Prop43
 90
        3
102
RTVSPost2010PropOp43
 70
     1
102
RTVSPost2010Prop44ColorIndex
 90
        5
102
RTVSPost2010Prop44ColorRGB
 90
      255
102
RTVSPost2010PropOp44
 70
     1
102
RTVSPost2010Prop45
280
     0
102
RTVSPost2010PropOp45
 70
     1
102
RTVSPost2010Prop46
 90
       50
102
RTVSPost2010PropOp46
 70
     1
102
RTVSPost2010Prop47
 90
       50
102
RTVSPost2010PropOp47
 70
     1
102
RTVSPost2010Prop48
 90
       50
102
RTVSPost2010PropOp48
 70
     1
102
RTVSPost2010Prop49
280
     0
102
RTVSPost2010PropOp49
 70
     1
102
RTVSPost2010Prop50
 90
       50
102
RTVSPost2010PropOp50
 70
     1
102
RTVSPost2010Prop51ColorIndex
 90
      256
102
RTVSPost2010Prop51ColorRGB
 90
-16777216
102
RTVSPost2010PropOp51
 70
     0
102
RTVSPost2010Prop52
140
1.0
102
RTVSPost2010PropOp52
 70
     0
102
RTVSPost2010Prop53
 90
        2
102
RTVSPost2010PropOp53
 70
     1
102
RTVSPost2010Prop54
  1
strokes_ogs.tif
102
RTVSPost2010PropOp54
 70
     1
102
RTVSPost2010Prop55
280
     0
102
RTVSPost2010PropOp55
 70
     1
102
RTVSPost2010Prop56
140
1.0
102
RTVSPost2010PropOp56
 70
     1
102
RTVSPost2010Prop57
140
1.0
102
RTVSPost2010PropOp57
 70
     1
  0
XRECORD
  5
996D
102
{ACAD_REACTORS
330
996C
102
}
330
996C
100
AcDbXrecord
280
     1
102
RTVSPost2010Prop28
280
     0
102
RTVSPost2010PropOp28
 70
     1
102
RTVSPost2010Prop29
280
     1
102
RTVSPost2010PropOp29
 70
     1
102
RTVSPost2010Prop30
280
     1
102
RTVSPost2010PropOp30
 70
     1
102
RTVSPost2010Prop31
280
     0
102
RTVSPost2010PropOp31
 70
     1
102
RTVSPost2010Prop32
280
     0
102
RTVSPost2010PropOp32
 70
     1
102
RTVSPost2010Prop33
280
     0
102
RTVSPost2010PropOp33
 70
     1
102
RTVSPost2010Prop34
280
     0
102
RTVSPost2010PropOp34
 70
     1
102
RTVSPost2010Prop35
280
     0
102
RTVSPost2010PropOp35
 70
     1
102
RTVSPost2010Prop36
280
     0
102
RTVSPost2010PropOp36
 70
     1
102
RTVSPost2010Prop37
 90
       50
102
RTVSPost2010PropOp37
 70
     1
102
RTVSPost2010Prop38
140
0.0
102
RTVSPost2010PropOp38
 70
     1
102
RTVSPost2010Prop39
140
1.0
102
RTVSPost2010PropOp39
 70
     1
102
RTVSPost2010Prop40
 90
        0
102
RTVSPost2010PropOp40
 70
     1
102
RTVSPost2010Prop41ColorIndex
 90
       18
102
RTVSPost2010Prop41ColorRGB
 90
        0
102
RTVSPost2010PropOp41
 70
     1
102
RTVSPost2010Prop42
 90
       50
102
RTVSPost2010PropOp42
 70
     1
102
RTVSPost2010Prop43
 90
        3
102
RTVSPost2010PropOp43
 70
     1
102
RTVSPost2010Prop44ColorIndex
 90
        5
102
RTVSPost2010Prop44ColorRGB
 90
      255
102
RTVSPost2010PropOp44
 70
     1
102
RTVSPost2010Prop45
280
     0
102
RTVSPost2010PropOp45
 70
     1
102
RTVSPost2010Prop46
 90
       50
102
RTVSPost2010PropOp46
 70
     1
102
RTVSPost2010Prop47
 90
       50
102
RTVSPost2010PropOp47
 70
     1
102
RTVSPost2010Prop48
 90
       50
102
RTVSPost2010PropOp48
 70
     1
102
RTVSPost2010Prop49
280
     0
102
RTVSPost2010PropOp49
 70
     1
102
RTVSPost2010Prop50
 90
       50
102
RTVSPost2010PropOp50
 70
     1
102
RTVSPost2010Prop51ColorIndex
 90
      256
102
RTVSPost2010Prop51ColorRGB
 90
-16777216
102
RTVSPost2010PropOp51
 70
     0
102
RTVSPost2010Prop52
140
1.0
102
RTVSPost2010PropOp52
 70
     0
102
RTVSPost2010Prop53
 90
        2
102
RTVSPost2010PropOp53
 70
     1
102
RTVSPost2010Prop54
  1
strokes_ogs.tif
102
RTVSPost2010PropOp54
 70
     1
102
RTVSPost2010Prop55
280
     0
102
RTVSPost2010PropOp55
 70
     1
102
RTVSPost2010Prop56
140
1.0
102
RTVSPost2010PropOp56
 70
     1
102
RTVSPost2010Prop57
140
1.0
102
RTVSPost2010PropOp57
 70
     1
  0
XRECORD
  5
9969
102
{ACAD_REACTORS
330
9968
102
}
330
9968
100
AcDbXrecord
280
     1
102
RTVSPost2010Prop28
280
     0
102
RTVSPost2010PropOp28
 70
     1
102
RTVSPost2010Prop29
280
     1
102
RTVSPost2010PropOp29
 70
     1
102
RTVSPost2010Prop30
280
     1
102
RTVSPost2010PropOp30
 70
     1
102
RTVSPost2010Prop31
280
     0
102
RTVSPost2010PropOp31
 70
     1
102
RTVSPost2010Prop32
280
     0
102
RTVSPost2010PropOp32
 70
     1
102
RTVSPost2010Prop33
280
     0
102
RTVSPost2010PropOp33
 70
     1
102
RTVSPost2010Prop34
280
     0
102
RTVSPost2010PropOp34
 70
     1
102
RTVSPost2010Prop35
280
     0
102
RTVSPost2010PropOp35
 70
     1
102
RTVSPost2010Prop36
280
     0
102
RTVSPost2010PropOp36
 70
     1
102
RTVSPost2010Prop37
 90
       50
102
RTVSPost2010PropOp37
 70
     1
102
RTVSPost2010Prop38
140
0.0
102
RTVSPost2010PropOp38
 70
     1
102
RTVSPost2010Prop39
140
1.0
102
RTVSPost2010PropOp39
 70
     1
102
RTVSPost2010Prop40
 90
        0
102
RTVSPost2010PropOp40
 70
     1
102
RTVSPost2010Prop41ColorIndex
 90
       18
102
RTVSPost2010Prop41ColorRGB
 90
        0
102
RTVSPost2010PropOp41
 70
     1
102
RTVSPost2010Prop42
 90
       50
102
RTVSPost2010PropOp42
 70
     1
102
RTVSPost2010Prop43
 90
        3
102
RTVSPost2010PropOp43
 70
     1
102
RTVSPost2010Prop44ColorIndex
 90
        5
102
RTVSPost2010Prop44ColorRGB
 90
      255
102
RTVSPost2010PropOp44
 70
     1
102
RTVSPost2010Prop45
280
     0
102
RTVSPost2010PropOp45
 70
     1
102
RTVSPost2010Prop46
 90
       50
102
RTVSPost2010PropOp46
 70
     1
102
RTVSPost2010Prop47
 90
       50
102
RTVSPost2010PropOp47
 70
     1
102
RTVSPost2010Prop48
 90
       50
102
RTVSPost2010PropOp48
 70
     1
102
RTVSPost2010Prop49
280
     0
102
RTVSPost2010PropOp49
 70
     1
102
RTVSPost2010Prop50
 90
       50
102
RTVSPost2010PropOp50
 70
     1
102
RTVSPost2010Prop51ColorIndex
 90
      256
102
RTVSPost2010Prop51ColorRGB
 90
-16777216
102
RTVSPost2010PropOp51
 70
     0
102
RTVSPost2010Prop52
140
1.0
102
RTVSPost2010PropOp52
 70
     0
102
RTVSPost2010Prop53
 90
        2
102
RTVSPost2010PropOp53
 70
     1
102
RTVSPost2010Prop54
  1
strokes_ogs.tif
102
RTVSPost2010PropOp54
 70
     1
102
RTVSPost2010Prop55
280
     0
102
RTVSPost2010PropOp55
 70
     1
102
RTVSPost2010Prop56
140
1.0
102
RTVSPost2010PropOp56
 70
     1
102
RTVSPost2010Prop57
140
1.0
102
RTVSPost2010PropOp57
 70
     1
  0
XRECORD
  5
9977
102
{ACAD_REACTORS
330
9976
102
}
330
9976
100
AcDbXrecord
280
     1
102
RTVSPost2010Prop28
280
     0
102
RTVSPost2010PropOp28
 70
     1
102
RTVSPost2010Prop29
280
     1
102
RTVSPost2010PropOp29
 70
     1
102
RTVSPost2010Prop30
280
     1
102
RTVSPost2010PropOp30
 70
     1
102
RTVSPost2010Prop31
280
     0
102
RTVSPost2010PropOp31
 70
     1
102
RTVSPost2010Prop32
280
     0
102
RTVSPost2010PropOp32
 70
     1
102
RTVSPost2010Prop33
280
     0
102
RTVSPost2010PropOp33
 70
     1
102
RTVSPost2010Prop34
280
     0
102
RTVSPost2010PropOp34
 70
     1
102
RTVSPost2010Prop35
280
     0
102
RTVSPost2010PropOp35
 70
     1
102
RTVSPost2010Prop36
280
     0
102
RTVSPost2010PropOp36
 70
     1
102
RTVSPost2010Prop37
 90
       50
102
RTVSPost2010PropOp37
 70
     1
102
RTVSPost2010Prop38
140
0.0
102
RTVSPost2010PropOp38
 70
     1
102
RTVSPost2010Prop39
140
1.0
102
RTVSPost2010PropOp39
 70
     1
102
RTVSPost2010Prop40
 90
        0
102
RTVSPost2010PropOp40
 70
     1
102
RTVSPost2010Prop41ColorIndex
 90
       18
102
RTVSPost2010Prop41ColorRGB
 90
        0
102
RTVSPost2010PropOp41
 70
     1
102
RTVSPost2010Prop42
 90
       50
102
RTVSPost2010PropOp42
 70
     1
102
RTVSPost2010Prop43
 90
        3
102
RTVSPost2010PropOp43
 70
     1
102
RTVSPost2010Prop44ColorIndex
 90
        5
102
RTVSPost2010Prop44ColorRGB
 90
      255
102
RTVSPost2010PropOp44
 70
     1
102
RTVSPost2010Prop45
280
     0
102
RTVSPost2010PropOp45
 70
     1
102
RTVSPost2010Prop46
 90
       50
102
RTVSPost2010PropOp46
 70
     1
102
RTVSPost2010Prop47
 90
       50
102
RTVSPost2010PropOp47
 70
     1
102
RTVSPost2010Prop48
 90
       50
102
RTVSPost2010PropOp48
 70
     1
102
RTVSPost2010Prop49
280
     0
102
RTVSPost2010PropOp49
 70
     1
102
RTVSPost2010Prop50
 90
       50
102
RTVSPost2010PropOp50
 70
     1
102
RTVSPost2010Prop51ColorIndex
 90
      256
102
RTVSPost2010Prop51ColorRGB
 90
-16777216
102
RTVSPost2010PropOp51
 70
     0
102
RTVSPost2010Prop52
140
1.0
102
RTVSPost2010PropOp52
 70
     0
102
RTVSPost2010Prop53
 90
        2
102
RTVSPost2010PropOp53
 70
     1
102
RTVSPost2010Prop54
  1
strokes_ogs.tif
102
RTVSPost2010PropOp54
 70
     1
102
RTVSPost2010Prop55
280
     0
102
RTVSPost2010PropOp55
 70
     1
102
RTVSPost2010Prop56
140
1.0
102
RTVSPost2010PropOp56
 70
     1
102
RTVSPost2010Prop57
140
1.0
102
RTVSPost2010PropOp57
 70
     1
  0
XRECORD
  5
997F
102
{ACAD_REACTORS
330
997E
102
}
330
997E
100
AcDbXrecord
280
     1
102
RTVSPost2010Prop28
280
     0
102
RTVSPost2010PropOp28
 70
     1
102
RTVSPost2010Prop29
280
     1
102
RTVSPost2010PropOp29
 70
     1
102
RTVSPost2010Prop30
280
     1
102
RTVSPost2010PropOp30
 70
     1
102
RTVSPost2010Prop31
280
     0
102
RTVSPost2010PropOp31
 70
     1
102
RTVSPost2010Prop32
280
     0
102
RTVSPost2010PropOp32
 70
     1
102
RTVSPost2010Prop33
280
     0
102
RTVSPost2010PropOp33
 70
     1
102
RTVSPost2010Prop34
280
     0
102
RTVSPost2010PropOp34
 70
     1
102
RTVSPost2010Prop35
280
     0
102
RTVSPost2010PropOp35
 70
     1
102
RTVSPost2010Prop36
280
     0
102
RTVSPost2010PropOp36
 70
     1
102
RTVSPost2010Prop37
 90
       50
102
RTVSPost2010PropOp37
 70
     1
102
RTVSPost2010Prop38
140
0.0
102
RTVSPost2010PropOp38
 70
     1
102
RTVSPost2010Prop39
140
1.0
102
RTVSPost2010PropOp39
 70
     1
102
RTVSPost2010Prop40
 90
        0
102
RTVSPost2010PropOp40
 70
     1
102
RTVSPost2010Prop41ColorIndex
 90
       18
102
RTVSPost2010Prop41ColorRGB
 90
        0
102
RTVSPost2010PropOp41
 70
     1
102
RTVSPost2010Prop42
 90
       50
102
RTVSPost2010PropOp42
 70
     1
102
RTVSPost2010Prop43
 90
        3
102
RTVSPost2010PropOp43
 70
     1
102
RTVSPost2010Prop44ColorIndex
 90
        5
102
RTVSPost2010Prop44ColorRGB
 90
      255
102
RTVSPost2010PropOp44
 70
     1
102
RTVSPost2010Prop45
280
     0
102
RTVSPost2010PropOp45
 70
     1
102
RTVSPost2010Prop46
 90
       50
102
RTVSPost2010PropOp46
 70
     1
102
RTVSPost2010Prop47
 90
       50
102
RTVSPost2010PropOp47
 70
     1
102
RTVSPost2010Prop48
 90
       50
102
RTVSPost2010PropOp48
 70
     1
102
RTVSPost2010Prop49
280
     0
102
RTVSPost2010PropOp49
 70
     1
102
RTVSPost2010Prop50
 90
       50
102
RTVSPost2010PropOp50
 70
     1
102
RTVSPost2010Prop51ColorIndex
 90
      256
102
RTVSPost2010Prop51ColorRGB
 90
-16777216
102
RTVSPost2010PropOp51
 70
     0
102
RTVSPost2010Prop52
140
1.0
102
RTVSPost2010PropOp52
 70
     0
102
RTVSPost2010Prop53
 90
        2
102
RTVSPost2010PropOp53
 70
     1
102
RTVSPost2010Prop54
  1
strokes_ogs.tif
102
RTVSPost2010PropOp54
 70
     1
102
RTVSPost2010Prop55
280
     0
102
RTVSPost2010PropOp55
 70
     1
102
RTVSPost2010Prop56
140
1.0
102
RTVSPost2010PropOp56
 70
     1
102
RTVSPost2010Prop57
140
1.0
102
RTVSPost2010PropOp57
 70
     1
  0
XRECORD
  5
9971
102
{ACAD_REACTORS
330
9970
102
}
330
9970
100
AcDbXrecord
280
     1
102
RTVSPost2010Prop28
280
     0
102
RTVSPost2010PropOp28
 70
     1
102
RTVSPost2010Prop29
280
     1
102
RTVSPost2010PropOp29
 70
     1
102
RTVSPost2010Prop30
280
     1
102
RTVSPost2010PropOp30
 70
     1
102
RTVSPost2010Prop31
280
     0
102
RTVSPost2010PropOp31
 70
     1
102
RTVSPost2010Prop32
280
     0
102
RTVSPost2010PropOp32
 70
     1
102
RTVSPost2010Prop33
280
     0
102
RTVSPost2010PropOp33
 70
     1
102
RTVSPost2010Prop34
280
     0
102
RTVSPost2010PropOp34
 70
     1
102
RTVSPost2010Prop35
280
     0
102
RTVSPost2010PropOp35
 70
     1
102
RTVSPost2010Prop36
280
     0
102
RTVSPost2010PropOp36
 70
     1
102
RTVSPost2010Prop37
 90
       50
102
RTVSPost2010PropOp37
 70
     1
102
RTVSPost2010Prop38
140
0.0
102
RTVSPost2010PropOp38
 70
     1
102
RTVSPost2010Prop39
140
1.0
102
RTVSPost2010PropOp39
 70
     1
102
RTVSPost2010Prop40
 90
        0
102
RTVSPost2010PropOp40
 70
     1
102
RTVSPost2010Prop41ColorIndex
 90
       18
102
RTVSPost2010Prop41ColorRGB
 90
        0
102
RTVSPost2010PropOp41
 70
     1
102
RTVSPost2010Prop42
 90
       50
102
RTVSPost2010PropOp42
 70
     1
102
RTVSPost2010Prop43
 90
        3
102
RTVSPost2010PropOp43
 70
     1
102
RTVSPost2010Prop44ColorIndex
 90
        5
102
RTVSPost2010Prop44ColorRGB
 90
      255
102
RTVSPost2010PropOp44
 70
     1
102
RTVSPost2010Prop45
280
     0
102
RTVSPost2010PropOp45
 70
     1
102
RTVSPost2010Prop46
 90
       50
102
RTVSPost2010PropOp46
 70
     1
102
RTVSPost2010Prop47
 90
       50
102
RTVSPost2010PropOp47
 70
     1
102
RTVSPost2010Prop48
 90
       50
102
RTVSPost2010PropOp48
 70
     1
102
RTVSPost2010Prop49
280
     0
102
RTVSPost2010PropOp49
 70
     1
102
RTVSPost2010Prop50
 90
       50
102
RTVSPost2010PropOp50
 70
     1
102
RTVSPost2010Prop51ColorIndex
 90
      256
102
RTVSPost2010Prop51ColorRGB
 90
-16777216
102
RTVSPost2010PropOp51
 70
     0
102
RTVSPost2010Prop52
140
1.0
102
RTVSPost2010PropOp52
 70
     0
102
RTVSPost2010Prop53
 90
        2
102
RTVSPost2010PropOp53
 70
     1
102
RTVSPost2010Prop54
  1
strokes_ogs.tif
102
RTVSPost2010PropOp54
 70
     1
102
RTVSPost2010Prop55
280
     0
102
RTVSPost2010PropOp55
 70
     1
102
RTVSPost2010Prop56
140
1.0
102
RTVSPost2010PropOp56
 70
     1
102
RTVSPost2010Prop57
140
1.0
102
RTVSPost2010PropOp57
 70
     1
  0
XRECORD
  5
9975
102
{ACAD_REACTORS
330
9974
102
}
330
9974
100
AcDbXrecord
280
     1
102
RTVSPost2010Prop28
280
     0
102
RTVSPost2010PropOp28
 70
     1
102
RTVSPost2010Prop29
280
     1
102
RTVSPost2010PropOp29
 70
     1
102
RTVSPost2010Prop30
280
     1
102
RTVSPost2010PropOp30
 70
     1
102
RTVSPost2010Prop31
280
     0
102
RTVSPost2010PropOp31
 70
     1
102
RTVSPost2010Prop32
280
     0
102
RTVSPost2010PropOp32
 70
     1
102
RTVSPost2010Prop33
280
     0
102
RTVSPost2010PropOp33
 70
     1
102
RTVSPost2010Prop34
280
     0
102
RTVSPost2010PropOp34
 70
     1
102
RTVSPost2010Prop35
280
     0
102
RTVSPost2010PropOp35
 70
     1
102
RTVSPost2010Prop36
280
     0
102
RTVSPost2010PropOp36
 70
     1
102
RTVSPost2010Prop37
 90
       50
102
RTVSPost2010PropOp37
 70
     1
102
RTVSPost2010Prop38
140
0.0
102
RTVSPost2010PropOp38
 70
     1
102
RTVSPost2010Prop39
140
1.0
102
RTVSPost2010PropOp39
 70
     1
102
RTVSPost2010Prop40
 90
        0
102
RTVSPost2010PropOp40
 70
     1
102
RTVSPost2010Prop41ColorIndex
 90
       18
102
RTVSPost2010Prop41ColorRGB
 90
        0
102
RTVSPost2010PropOp41
 70
     1
102
RTVSPost2010Prop42
 90
       50
102
RTVSPost2010PropOp42
 70
     1
102
RTVSPost2010Prop43
 90
        3
102
RTVSPost2010PropOp43
 70
     1
102
RTVSPost2010Prop44ColorIndex
 90
        5
102
RTVSPost2010Prop44ColorRGB
 90
      255
102
RTVSPost2010PropOp44
 70
     1
102
RTVSPost2010Prop45
280
     0
102
RTVSPost2010PropOp45
 70
     1
102
RTVSPost2010Prop46
 90
       50
102
RTVSPost2010PropOp46
 70
     1
102
RTVSPost2010Prop47
 90
       50
102
RTVSPost2010PropOp47
 70
     1
102
RTVSPost2010Prop48
 90
       50
102
RTVSPost2010PropOp48
 70
     1
102
RTVSPost2010Prop49
280
     0
102
RTVSPost2010PropOp49
 70
     1
102
RTVSPost2010Prop50
 90
       50
102
RTVSPost2010PropOp50
 70
     1
102
RTVSPost2010Prop51ColorIndex
 90
      256
102
RTVSPost2010Prop51ColorRGB
 90
-16777216
102
RTVSPost2010PropOp51
 70
     0
102
RTVSPost2010Prop52
140
1.0
102
RTVSPost2010PropOp52
 70
     0
102
RTVSPost2010Prop53
 90
        2
102
RTVSPost2010PropOp53
 70
     1
102
RTVSPost2010Prop54
  1
strokes_ogs.tif
102
RTVSPost2010PropOp54
 70
     1
102
RTVSPost2010Prop55
280
     0
102
RTVSPost2010PropOp55
 70
     1
102
RTVSPost2010Prop56
140
1.0
102
RTVSPost2010PropOp56
 70
     1
102
RTVSPost2010Prop57
140
1.0
102
RTVSPost2010PropOp57
 70
     1
  0
XRECORD
  5
9995
102
{ACAD_REACTORS
330
9994
102
}
330
9994
100
AcDbXrecord
280
     1
102
RTVSPost2010Prop28
280
     0
102
RTVSPost2010PropOp28
 70
     0
102
RTVSPost2010Prop29
280
     1
102
RTVSPost2010PropOp29
 70
     0
102
RTVSPost2010Prop30
280
     1
102
RTVSPost2010PropOp30
 70
     0
102
RTVSPost2010Prop31
280
     0
102
RTVSPost2010PropOp31
 70
     0
102
RTVSPost2010Prop32
280
     0
102
RTVSPost2010PropOp32
 70
     0
102
RTVSPost2010Prop33
280
     0
102
RTVSPost2010PropOp33
 70
     0
102
RTVSPost2010Prop34
280
     0
102
RTVSPost2010PropOp34
 70
     0
102
RTVSPost2010Prop35
280
     0
102
RTVSPost2010PropOp35
 70
     0
102
RTVSPost2010Prop36
280
     0
102
RTVSPost2010PropOp36
 70
     0
102
RTVSPost2010Prop37
 90
       50
102
RTVSPost2010PropOp37
 70
     0
102
RTVSPost2010Prop38
140
0.0
102
RTVSPost2010PropOp38
 70
     0
102
RTVSPost2010Prop39
140
1.0
102
RTVSPost2010PropOp39
 70
     0
102
RTVSPost2010Prop40
 90
        0
102
RTVSPost2010PropOp40
 70
     0
102
RTVSPost2010Prop41ColorIndex
 90
       18
102
RTVSPost2010Prop41ColorRGB
 90
        0
102
RTVSPost2010PropOp41
 70
     0
102
RTVSPost2010Prop42
 90
       50
102
RTVSPost2010PropOp42
 70
     0
102
RTVSPost2010Prop43
 90
        3
102
RTVSPost2010PropOp43
 70
     0
102
RTVSPost2010Prop44ColorIndex
 90
        5
102
RTVSPost2010Prop44ColorRGB
 90
      255
102
RTVSPost2010PropOp44
 70
     0
102
RTVSPost2010Prop45
280
     0
102
RTVSPost2010PropOp45
 70
     0
102
RTVSPost2010Prop46
 90
       50
102
RTVSPost2010PropOp46
 70
     0
102
RTVSPost2010Prop47
 90
       50
102
RTVSPost2010PropOp47
 70
     0
102
RTVSPost2010Prop48
 90
       50
102
RTVSPost2010PropOp48
 70
     0
102
RTVSPost2010Prop49
280
     0
102
RTVSPost2010PropOp49
 70
     0
102
RTVSPost2010Prop50
 90
       50
102
RTVSPost2010PropOp50
 70
     0
102
RTVSPost2010Prop51ColorIndex
 90
      256
102
RTVSPost2010Prop51ColorRGB
 90
-16777216
102
RTVSPost2010PropOp51
 70
     0
102
RTVSPost2010Prop52
140
1.0
102
RTVSPost2010PropOp52
 70
     0
102
RTVSPost2010Prop53
 90
        2
102
RTVSPost2010PropOp53
 70
     0
102
RTVSPost2010Prop54
  1
strokes_ogs.tif
102
RTVSPost2010PropOp54
 70
     0
102
RTVSPost2010Prop55
280
     0
102
RTVSPost2010PropOp55
 70
     0
102
RTVSPost2010Prop56
140
1.0
102
RTVSPost2010PropOp56
 70
     0
102
RTVSPost2010Prop57
140
1.0
102
RTVSPost2010PropOp57
 70
     0
  0
XRECORD
  5
997D
102
{ACAD_REACTORS
330
997C
102
}
330
997C
100
AcDbXrecord
280
     1
102
RTVSPost2010Prop28
280
     0
102
RTVSPost2010PropOp28
 70
     1
102
RTVSPost2010Prop29
280
     1
102
RTVSPost2010PropOp29
 70
     1
102
RTVSPost2010Prop30
280
     1
102
RTVSPost2010PropOp30
 70
     1
102
RTVSPost2010Prop31
280
     0
102
RTVSPost2010PropOp31
 70
     1
102
RTVSPost2010Prop32
280
     0
102
RTVSPost2010PropOp32
 70
     1
102
RTVSPost2010Prop33
280
     0
102
RTVSPost2010PropOp33
 70
     1
102
RTVSPost2010Prop34
280
     0
102
RTVSPost2010PropOp34
 70
     1
102
RTVSPost2010Prop35
280
     0
102
RTVSPost2010PropOp35
 70
     1
102
RTVSPost2010Prop36
280
     0
102
RTVSPost2010PropOp36
 70
     1
102
RTVSPost2010Prop37
 90
       50
102
RTVSPost2010PropOp37
 70
     1
102
RTVSPost2010Prop38
140
0.0
102
RTVSPost2010PropOp38
 70
     1
102
RTVSPost2010Prop39
140
1.0
102
RTVSPost2010PropOp39
 70
     1
102
RTVSPost2010Prop40
 90
        0
102
RTVSPost2010PropOp40
 70
     1
102
RTVSPost2010Prop41ColorIndex
 90
       18
102
RTVSPost2010Prop41ColorRGB
 90
        0
102
RTVSPost2010PropOp41
 70
     1
102
RTVSPost2010Prop42
 90
       50
102
RTVSPost2010PropOp42
 70
     1
102
RTVSPost2010Prop43
 90
        3
102
RTVSPost2010PropOp43
 70
     1
102
RTVSPost2010Prop44ColorIndex
 90
        5
102
RTVSPost2010Prop44ColorRGB
 90
      255
102
RTVSPost2010PropOp44
 70
     1
102
RTVSPost2010Prop45
280
     0
102
RTVSPost2010PropOp45
 70
     1
102
RTVSPost2010Prop46
 90
       50
102
RTVSPost2010PropOp46
 70
     1
102
RTVSPost2010Prop47
 90
       50
102
RTVSPost2010PropOp47
 70
     1
102
RTVSPost2010Prop48
 90
       50
102
RTVSPost2010PropOp48
 70
     1
102
RTVSPost2010Prop49
280
     0
102
RTVSPost2010PropOp49
 70
     1
102
RTVSPost2010Prop50
 90
       50
102
RTVSPost2010PropOp50
 70
     1
102
RTVSPost2010Prop51ColorIndex
 90
      256
102
RTVSPost2010Prop51ColorRGB
 90
-16777216
102
RTVSPost2010PropOp51
 70
     0
102
RTVSPost2010Prop52
140
1.0
102
RTVSPost2010PropOp52
 70
     0
102
RTVSPost2010Prop53
 90
        2
102
RTVSPost2010PropOp53
 70
     1
102
RTVSPost2010Prop54
  1
strokes_ogs.tif
102
RTVSPost2010PropOp54
 70
     1
102
RTVSPost2010Prop55
280
     0
102
RTVSPost2010PropOp55
 70
     1
102
RTVSPost2010Prop56
140
1.0
102
RTVSPost2010PropOp56
 70
     1
102
RTVSPost2010Prop57
140
1.0
102
RTVSPost2010PropOp57
 70
     1
  0
XRECORD
  5
9961
102
{ACAD_REACTORS
330
9960
102
}
330
9960
100
AcDbXrecord
280
     1
102
RTVSPost2010Prop28
280
     0
102
RTVSPost2010PropOp28
 70
     1
102
RTVSPost2010Prop29
280
     1
102
RTVSPost2010PropOp29
 70
     1
102
RTVSPost2010Prop30
280
     1
102
RTVSPost2010PropOp30
 70
     1
102
RTVSPost2010Prop31
280
     0
102
RTVSPost2010PropOp31
 70
     1
102
RTVSPost2010Prop32
280
     0
102
RTVSPost2010PropOp32
 70
     1
102
RTVSPost2010Prop33
280
     0
102
RTVSPost2010PropOp33
 70
     1
102
RTVSPost2010Prop34
280
     0
102
RTVSPost2010PropOp34
 70
     1
102
RTVSPost2010Prop35
280
     0
102
RTVSPost2010PropOp35
 70
     1
102
RTVSPost2010Prop36
280
     0
102
RTVSPost2010PropOp36
 70
     1
102
RTVSPost2010Prop37
 90
       50
102
RTVSPost2010PropOp37
 70
     1
102
RTVSPost2010Prop38
140
0.0
102
RTVSPost2010PropOp38
 70
     1
102
RTVSPost2010Prop39
140
1.0
102
RTVSPost2010PropOp39
 70
     1
102
RTVSPost2010Prop40
 90
        0
102
RTVSPost2010PropOp40
 70
     1
102
RTVSPost2010Prop41ColorIndex
 90
       18
102
RTVSPost2010Prop41ColorRGB
 90
        0
102
RTVSPost2010PropOp41
 70
     1
102
RTVSPost2010Prop42
 90
       50
102
RTVSPost2010PropOp42
 70
     1
102
RTVSPost2010Prop43
 90
        3
102
RTVSPost2010PropOp43
 70
     1
102
RTVSPost2010Prop44ColorIndex
 90
        5
102
RTVSPost2010Prop44ColorRGB
 90
      255
102
RTVSPost2010PropOp44
 70
     1
102
RTVSPost2010Prop45
280
     0
102
RTVSPost2010PropOp45
 70
     1
102
RTVSPost2010Prop46
 90
       50
102
RTVSPost2010PropOp46
 70
     1
102
RTVSPost2010Prop47
 90
       50
102
RTVSPost2010PropOp47
 70
     1
102
RTVSPost2010Prop48
 90
       50
102
RTVSPost2010PropOp48
 70
     1
102
RTVSPost2010Prop49
280
     0
102
RTVSPost2010PropOp49
 70
     1
102
RTVSPost2010Prop50
 90
       50
102
RTVSPost2010PropOp50
 70
     1
102
RTVSPost2010Prop51ColorIndex
 90
      256
102
RTVSPost2010Prop51ColorRGB
 90
-16777216
102
RTVSPost2010PropOp51
 70
     0
102
RTVSPost2010Prop52
140
1.0
102
RTVSPost2010PropOp52
 70
     0
102
RTVSPost2010Prop53
 90
        2
102
RTVSPost2010PropOp53
 70
     1
102
RTVSPost2010Prop54
  1
strokes_ogs.tif
102
RTVSPost2010PropOp54
 70
     1
102
RTVSPost2010Prop55
280
     0
102
RTVSPost2010PropOp55
 70
     1
102
RTVSPost2010Prop56
140
1.0
102
RTVSPost2010PropOp56
 70
     1
102
RTVSPost2010Prop57
140
1.0
102
RTVSPost2010PropOp57
 70
     1
  0
XRECORD
  5
9963
102
{ACAD_REACTORS
330
9962
102
}
330
9962
100
AcDbXrecord
280
     1
102
RTVSPost2010Prop28
280
     0
102
RTVSPost2010PropOp28
 70
     1
102
RTVSPost2010Prop29
280
     1
102
RTVSPost2010PropOp29
 70
     1
102
RTVSPost2010Prop30
280
     1
102
RTVSPost2010PropOp30
 70
     1
102
RTVSPost2010Prop31
280
     0
102
RTVSPost2010PropOp31
 70
     1
102
RTVSPost2010Prop32
280
     0
102
RTVSPost2010PropOp32
 70
     1
102
RTVSPost2010Prop33
280
     0
102
RTVSPost2010PropOp33
 70
     1
102
RTVSPost2010Prop34
280
     0
102
RTVSPost2010PropOp34
 70
     1
102
RTVSPost2010Prop35
280
     0
102
RTVSPost2010PropOp35
 70
     1
102
RTVSPost2010Prop36
280
     0
102
RTVSPost2010PropOp36
 70
     1
102
RTVSPost2010Prop37
 90
       50
102
RTVSPost2010PropOp37
 70
     1
102
RTVSPost2010Prop38
140
0.0
102
RTVSPost2010PropOp38
 70
     1
102
RTVSPost2010Prop39
140
1.0
102
RTVSPost2010PropOp39
 70
     1
102
RTVSPost2010Prop40
 90
        0
102
RTVSPost2010PropOp40
 70
     1
102
RTVSPost2010Prop41ColorIndex
 90
       18
102
RTVSPost2010Prop41ColorRGB
 90
        0
102
RTVSPost2010PropOp41
 70
     1
102
RTVSPost2010Prop42
 90
       50
102
RTVSPost2010PropOp42
 70
     1
102
RTVSPost2010Prop43
 90
        3
102
RTVSPost2010PropOp43
 70
     1
102
RTVSPost2010Prop44ColorIndex
 90
        5
102
RTVSPost2010Prop44ColorRGB
 90
      255
102
RTVSPost2010PropOp44
 70
     1
102
RTVSPost2010Prop45
280
     0
102
RTVSPost2010PropOp45
 70
     1
102
RTVSPost2010Prop46
 90
       50
102
RTVSPost2010PropOp46
 70
     1
102
RTVSPost2010Prop47
 90
       50
102
RTVSPost2010PropOp47
 70
     1
102
RTVSPost2010Prop48
 90
       50
102
RTVSPost2010PropOp48
 70
     1
102
RTVSPost2010Prop49
280
     0
102
RTVSPost2010PropOp49
 70
     1
102
RTVSPost2010Prop50
 90
       50
102
RTVSPost2010PropOp50
 70
     1
102
RTVSPost2010Prop51ColorIndex
 90
      256
102
RTVSPost2010Prop51ColorRGB
 90
-16777216
102
RTVSPost2010PropOp51
 70
     0
102
RTVSPost2010Prop52
140
1.0
102
RTVSPost2010PropOp52
 70
     0
102
RTVSPost2010Prop53
 90
        2
102
RTVSPost2010PropOp53
 70
     1
102
RTVSPost2010Prop54
  1
strokes_ogs.tif
102
RTVSPost2010PropOp54
 70
     1
102
RTVSPost2010Prop55
280
     0
102
RTVSPost2010PropOp55
 70
     1
102
RTVSPost2010Prop56
140
1.0
102
RTVSPost2010PropOp56
 70
     1
102
RTVSPost2010Prop57
140
1.0
102
RTVSPost2010PropOp57
 70
     1
  0
XRECORD
  5
9965
102
{ACAD_REACTORS
330
9964
102
}
330
9964
100
AcDbXrecord
280
     1
102
RTVSPost2010Prop28
280
     0
102
RTVSPost2010PropOp28
 70
     1
102
RTVSPost2010Prop29
280
     1
102
RTVSPost2010PropOp29
 70
     1
102
RTVSPost2010Prop30
280
     1
102
RTVSPost2010PropOp30
 70
     1
102
RTVSPost2010Prop31
280
     0
102
RTVSPost2010PropOp31
 70
     1
102
RTVSPost2010Prop32
280
     0
102
RTVSPost2010PropOp32
 70
     1
102
RTVSPost2010Prop33
280
     0
102
RTVSPost2010PropOp33
 70
     1
102
RTVSPost2010Prop34
280
     0
102
RTVSPost2010PropOp34
 70
     1
102
RTVSPost2010Prop35
280
     0
102
RTVSPost2010PropOp35
 70
     1
102
RTVSPost2010Prop36
280
     0
102
RTVSPost2010PropOp36
 70
     1
102
RTVSPost2010Prop37
 90
       50
102
RTVSPost2010PropOp37
 70
     1
102
RTVSPost2010Prop38
140
0.0
102
RTVSPost2010PropOp38
 70
     1
102
RTVSPost2010Prop39
140
1.0
102
RTVSPost2010PropOp39
 70
     1
102
RTVSPost2010Prop40
 90
        0
102
RTVSPost2010PropOp40
 70
     1
102
RTVSPost2010Prop41ColorIndex
 90
       18
102
RTVSPost2010Prop41ColorRGB
 90
        0
102
RTVSPost2010PropOp41
 70
     1
102
RTVSPost2010Prop42
 90
       50
102
RTVSPost2010PropOp42
 70
     1
102
RTVSPost2010Prop43
 90
        3
102
RTVSPost2010PropOp43
 70
     1
102
RTVSPost2010Prop44ColorIndex
 90
        5
102
RTVSPost2010Prop44ColorRGB
 90
      255
102
RTVSPost2010PropOp44
 70
     1
102
RTVSPost2010Prop45
280
     0
102
RTVSPost2010PropOp45
 70
     1
102
RTVSPost2010Prop46
 90
       50
102
RTVSPost2010PropOp46
 70
     1
102
RTVSPost2010Prop47
 90
       50
102
RTVSPost2010PropOp47
 70
     1
102
RTVSPost2010Prop48
 90
       50
102
RTVSPost2010PropOp48
 70
     1
102
RTVSPost2010Prop49
280
     0
102
RTVSPost2010PropOp49
 70
     1
102
RTVSPost2010Prop50
 90
       50
102
RTVSPost2010PropOp50
 70
     1
102
RTVSPost2010Prop51ColorIndex
 90
      256
102
RTVSPost2010Prop51ColorRGB
 90
-16777216
102
RTVSPost2010PropOp51
 70
     0
102
RTVSPost2010Prop52
140
1.0
102
RTVSPost2010PropOp52
 70
     0
102
RTVSPost2010Prop53
 90
        2
102
RTVSPost2010PropOp53
 70
     1
102
RTVSPost2010Prop54
  1
strokes_ogs.tif
102
RTVSPost2010PropOp54
 70
     1
102
RTVSPost2010Prop55
280
     0
102
RTVSPost2010PropOp55
 70
     1
102
RTVSPost2010Prop56
140
1.0
102
RTVSPost2010PropOp56
 70
     1
102
RTVSPost2010Prop57
140
1.0
102
RTVSPost2010PropOp57
 70
     1
  0
XRECORD
  5
9967
102
{ACAD_REACTORS
330
9966
102
}
330
9966
100
AcDbXrecord
280
     1
102
RTVSPost2010Prop28
280
     0
102
RTVSPost2010PropOp28
 70
     1
102
RTVSPost2010Prop29
280
     1
102
RTVSPost2010PropOp29
 70
     1
102
RTVSPost2010Prop30
280
     1
102
RTVSPost2010PropOp30
 70
     1
102
RTVSPost2010Prop31
280
     0
102
RTVSPost2010PropOp31
 70
     1
102
RTVSPost2010Prop32
280
     0
102
RTVSPost2010PropOp32
 70
     1
102
RTVSPost2010Prop33
280
     0
102
RTVSPost2010PropOp33
 70
     1
102
RTVSPost2010Prop34
280
     0
102
RTVSPost2010PropOp34
 70
     1
102
RTVSPost2010Prop35
280
     0
102
RTVSPost2010PropOp35
 70
     1
102
RTVSPost2010Prop36
280
     0
102
RTVSPost2010PropOp36
 70
     1
102
RTVSPost2010Prop37
 90
       50
102
RTVSPost2010PropOp37
 70
     1
102
RTVSPost2010Prop38
140
0.0
102
RTVSPost2010PropOp38
 70
     1
102
RTVSPost2010Prop39
140
1.0
102
RTVSPost2010PropOp39
 70
     1
102
RTVSPost2010Prop40
 90
        0
102
RTVSPost2010PropOp40
 70
     1
102
RTVSPost2010Prop41ColorIndex
 90
       18
102
RTVSPost2010Prop41ColorRGB
 90
        0
102
RTVSPost2010PropOp41
 70
     1
102
RTVSPost2010Prop42
 90
       50
102
RTVSPost2010PropOp42
 70
     1
102
RTVSPost2010Prop43
 90
        3
102
RTVSPost2010PropOp43
 70
     1
102
RTVSPost2010Prop44ColorIndex
 90
        5
102
RTVSPost2010Prop44ColorRGB
 90
      255
102
RTVSPost2010PropOp44
 70
     1
102
RTVSPost2010Prop45
280
     0
102
RTVSPost2010PropOp45
 70
     1
102
RTVSPost2010Prop46
 90
       50
102
RTVSPost2010PropOp46
 70
     1
102
RTVSPost2010Prop47
 90
       50
102
RTVSPost2010PropOp47
 70
     1
102
RTVSPost2010Prop48
 90
       50
102
RTVSPost2010PropOp48
 70
     1
102
RTVSPost2010Prop49
280
     0
102
RTVSPost2010PropOp49
 70
     1
102
RTVSPost2010Prop50
 90
       50
102
RTVSPost2010PropOp50
 70
     1
102
RTVSPost2010Prop51ColorIndex
 90
      256
102
RTVSPost2010Prop51ColorRGB
 90
-16777216
102
RTVSPost2010PropOp51
 70
     0
102
RTVSPost2010Prop52
140
1.0
102
RTVSPost2010PropOp52
 70
     0
102
RTVSPost2010Prop53
 90
        2
102
RTVSPost2010PropOp53
 70
     1
102
RTVSPost2010Prop54
  1
strokes_ogs.tif
102
RTVSPost2010PropOp54
 70
     1
102
RTVSPost2010Prop55
280
     0
102
RTVSPost2010PropOp55
 70
     1
102
RTVSPost2010Prop56
140
1.0
102
RTVSPost2010PropOp56
 70
     1
102
RTVSPost2010Prop57
140
1.0
102
RTVSPost2010PropOp57
 70
     1
  0
XRECORD
  5
9985
102
{ACAD_REACTORS
330
9984
102
}
330
9984
100
AcDbXrecord
280
     1
102
RTVSPost2010Prop28
280
     0
102
RTVSPost2010PropOp28
 70
     1
102
RTVSPost2010Prop29
280
     1
102
RTVSPost2010PropOp29
 70
     1
102
RTVSPost2010Prop30
280
     1
102
RTVSPost2010PropOp30
 70
     1
102
RTVSPost2010Prop31
280
     0
102
RTVSPost2010PropOp31
 70
     1
102
RTVSPost2010Prop32
280
     0
102
RTVSPost2010PropOp32
 70
     1
102
RTVSPost2010Prop33
280
     0
102
RTVSPost2010PropOp33
 70
     1
102
RTVSPost2010Prop34
280
     0
102
RTVSPost2010PropOp34
 70
     1
102
RTVSPost2010Prop35
280
     0
102
RTVSPost2010PropOp35
 70
     1
102
RTVSPost2010Prop36
280
     0
102
RTVSPost2010PropOp36
 70
     1
102
RTVSPost2010Prop37
 90
       50
102
RTVSPost2010PropOp37
 70
     1
102
RTVSPost2010Prop38
140
0.0
102
RTVSPost2010PropOp38
 70
     1
102
RTVSPost2010Prop39
140
1.0
102
RTVSPost2010PropOp39
 70
     1
102
RTVSPost2010Prop40
 90
        0
102
RTVSPost2010PropOp40
 70
     1
102
RTVSPost2010Prop41ColorIndex
 90
       18
102
RTVSPost2010Prop41ColorRGB
 90
        0
102
RTVSPost2010PropOp41
 70
     1
102
RTVSPost2010Prop42
 90
       50
102
RTVSPost2010PropOp42
 70
     1
102
RTVSPost2010Prop43
 90
        3
102
RTVSPost2010PropOp43
 70
     1
102
RTVSPost2010Prop44ColorIndex
 90
        5
102
RTVSPost2010Prop44ColorRGB
 90
      255
102
RTVSPost2010PropOp44
 70
     1
102
RTVSPost2010Prop45
280
     0
102
RTVSPost2010PropOp45
 70
     1
102
RTVSPost2010Prop46
 90
       50
102
RTVSPost2010PropOp46
 70
     1
102
RTVSPost2010Prop47
 90
       50
102
RTVSPost2010PropOp47
 70
     1
102
RTVSPost2010Prop48
 90
       50
102
RTVSPost2010PropOp48
 70
     1
102
RTVSPost2010Prop49
280
     0
102
RTVSPost2010PropOp49
 70
     1
102
RTVSPost2010Prop50
 90
       50
102
RTVSPost2010PropOp50
 70
     1
102
RTVSPost2010Prop51ColorIndex
 90
      256
102
RTVSPost2010Prop51ColorRGB
 90
-16777216
102
RTVSPost2010PropOp51
 70
     0
102
RTVSPost2010Prop52
140
1.0
102
RTVSPost2010PropOp52
 70
     0
102
RTVSPost2010Prop53
 90
        2
102
RTVSPost2010PropOp53
 70
     1
102
RTVSPost2010Prop54
  1
strokes_ogs.tif
102
RTVSPost2010PropOp54
 70
     1
102
RTVSPost2010Prop55
280
     0
102
RTVSPost2010PropOp55
 70
     1
102
RTVSPost2010Prop56
140
1.0
102
RTVSPost2010PropOp56
 70
     1
102
RTVSPost2010Prop57
140
1.0
102
RTVSPost2010PropOp57
 70
     1
  0
XRECORD
  5
9991
102
{ACAD_REACTORS
330
9990
102
}
330
9990
100
AcDbXrecord
280
     1
102
RTVSPost2010Prop28
280
     0
102
RTVSPost2010PropOp28
 70
     0
102
RTVSPost2010Prop29
280
     1
102
RTVSPost2010PropOp29
 70
     0
102
RTVSPost2010Prop30
280
     1
102
RTVSPost2010PropOp30
 70
     0
102
RTVSPost2010Prop31
280
     0
102
RTVSPost2010PropOp31
 70
     0
102
RTVSPost2010Prop32
280
     0
102
RTVSPost2010PropOp32
 70
     0
102
RTVSPost2010Prop33
280
     0
102
RTVSPost2010PropOp33
 70
     0
102
RTVSPost2010Prop34
280
     0
102
RTVSPost2010PropOp34
 70
     0
102
RTVSPost2010Prop35
280
     0
102
RTVSPost2010PropOp35
 70
     0
102
RTVSPost2010Prop36
280
     0
102
RTVSPost2010PropOp36
 70
     0
102
RTVSPost2010Prop37
 90
       50
102
RTVSPost2010PropOp37
 70
     0
102
RTVSPost2010Prop38
140
0.0
102
RTVSPost2010PropOp38
 70
     0
102
RTVSPost2010Prop39
140
1.0
102
RTVSPost2010PropOp39
 70
     0
102
RTVSPost2010Prop40
 90
        0
102
RTVSPost2010PropOp40
 70
     0
102
RTVSPost2010Prop41ColorIndex
 90
       18
102
RTVSPost2010Prop41ColorRGB
 90
        0
102
RTVSPost2010PropOp41
 70
     0
102
RTVSPost2010Prop42
 90
       50
102
RTVSPost2010PropOp42
 70
     0
102
RTVSPost2010Prop43
 90
        3
102
RTVSPost2010PropOp43
 70
     0
102
RTVSPost2010Prop44ColorIndex
 90
        5
102
RTVSPost2010Prop44ColorRGB
 90
      255
102
RTVSPost2010PropOp44
 70
     0
102
RTVSPost2010Prop45
280
     0
102
RTVSPost2010PropOp45
 70
     0
102
RTVSPost2010Prop46
 90
       50
102
RTVSPost2010PropOp46
 70
     0
102
RTVSPost2010Prop47
 90
       50
102
RTVSPost2010PropOp47
 70
     0
102
RTVSPost2010Prop48
 90
       50
102
RTVSPost2010PropOp48
 70
     0
102
RTVSPost2010Prop49
280
     0
102
RTVSPost2010PropOp49
 70
     0
102
RTVSPost2010Prop50
 90
       50
102
RTVSPost2010PropOp50
 70
     0
102
RTVSPost2010Prop51ColorIndex
 90
      256
102
RTVSPost2010Prop51ColorRGB
 90
-16777216
102
RTVSPost2010PropOp51
 70
     0
102
RTVSPost2010Prop52
140
1.0
102
RTVSPost2010PropOp52
 70
     0
102
RTVSPost2010Prop53
 90
        2
102
RTVSPost2010PropOp53
 70
     0
102
RTVSPost2010Prop54
  1
strokes_ogs.tif
102
RTVSPost2010PropOp54
 70
     0
102
RTVSPost2010Prop55
280
     0
102
RTVSPost2010PropOp55
 70
     0
102
RTVSPost2010Prop56
140
1.0
102
RTVSPost2010PropOp56
 70
     0
102
RTVSPost2010Prop57
140
1.0
102
RTVSPost2010PropOp57
 70
     0
  0
XRECORD
  5
997B
102
{ACAD_REACTORS
330
997A
102
}
330
997A
100
AcDbXrecord
280
     1
102
RTVSPost2010Prop28
280
     0
102
RTVSPost2010PropOp28
 70
     1
102
RTVSPost2010Prop29
280
     1
102
RTVSPost2010PropOp29
 70
     1
102
RTVSPost2010Prop30
280
     1
102
RTVSPost2010PropOp30
 70
     1
102
RTVSPost2010Prop31
280
     0
102
RTVSPost2010PropOp31
 70
     1
102
RTVSPost2010Prop32
280
     0
102
RTVSPost2010PropOp32
 70
     1
102
RTVSPost2010Prop33
280
     0
102
RTVSPost2010PropOp33
 70
     1
102
RTVSPost2010Prop34
280
     0
102
RTVSPost2010PropOp34
 70
     1
102
RTVSPost2010Prop35
280
     0
102
RTVSPost2010PropOp35
 70
     1
102
RTVSPost2010Prop36
280
     0
102
RTVSPost2010PropOp36
 70
     1
102
RTVSPost2010Prop37
 90
       50
102
RTVSPost2010PropOp37
 70
     1
102
RTVSPost2010Prop38
140
0.0
102
RTVSPost2010PropOp38
 70
     1
102
RTVSPost2010Prop39
140
1.0
102
RTVSPost2010PropOp39
 70
     1
102
RTVSPost2010Prop40
 90
        0
102
RTVSPost2010PropOp40
 70
     1
102
RTVSPost2010Prop41ColorIndex
 90
       18
102
RTVSPost2010Prop41ColorRGB
 90
        0
102
RTVSPost2010PropOp41
 70
     1
102
RTVSPost2010Prop42
 90
       50
102
RTVSPost2010PropOp42
 70
     1
102
RTVSPost2010Prop43
 90
        3
102
RTVSPost2010PropOp43
 70
     1
102
RTVSPost2010Prop44ColorIndex
 90
        5
102
RTVSPost2010Prop44ColorRGB
 90
      255
102
RTVSPost2010PropOp44
 70
     1
102
RTVSPost2010Prop45
280
     0
102
RTVSPost2010PropOp45
 70
     1
102
RTVSPost2010Prop46
 90
       50
102
RTVSPost2010PropOp46
 70
     1
102
RTVSPost2010Prop47
 90
       50
102
RTVSPost2010PropOp47
 70
     1
102
RTVSPost2010Prop48
 90
       50
102
RTVSPost2010PropOp48
 70
     1
102
RTVSPost2010Prop49
280
     0
102
RTVSPost2010PropOp49
 70
     1
102
RTVSPost2010Prop50
 90
       50
102
RTVSPost2010PropOp50
 70
     1
102
RTVSPost2010Prop51ColorIndex
 90
      256
102
RTVSPost2010Prop51ColorRGB
 90
-16777216
102
RTVSPost2010PropOp51
 70
     0
102
RTVSPost2010Prop52
140
1.0
102
RTVSPost2010PropOp52
 70
     0
102
RTVSPost2010Prop53
 90
        2
102
RTVSPost2010PropOp53
 70
     1
102
RTVSPost2010Prop54
  1
strokes_ogs.tif
102
RTVSPost2010PropOp54
 70
     1
102
RTVSPost2010Prop55
280
     0
102
RTVSPost2010PropOp55
 70
     1
102
RTVSPost2010Prop56
140
1.0
102
RTVSPost2010PropOp56
 70
     1
102
RTVSPost2010Prop57
140
1.0
102
RTVSPost2010PropOp57
 70
     1
  0
XRECORD
  5
9993
102
{ACAD_REACTORS
330
9992
102
}
330
9992
100
AcDbXrecord
280
     1
102
RTVSPost2010Prop28
280
     0
102
RTVSPost2010PropOp28
 70
     0
102
RTVSPost2010Prop29
280
     1
102
RTVSPost2010PropOp29
 70
     0
102
RTVSPost2010Prop30
280
     1
102
RTVSPost2010PropOp30
 70
     0
102
RTVSPost2010Prop31
280
     0
102
RTVSPost2010PropOp31
 70
     0
102
RTVSPost2010Prop32
280
     0
102
RTVSPost2010PropOp32
 70
     0
102
RTVSPost2010Prop33
280
     0
102
RTVSPost2010PropOp33
 70
     0
102
RTVSPost2010Prop34
280
     0
102
RTVSPost2010PropOp34
 70
     0
102
RTVSPost2010Prop35
280
     0
102
RTVSPost2010PropOp35
 70
     0
102
RTVSPost2010Prop36
280
     0
102
RTVSPost2010PropOp36
 70
     0
102
RTVSPost2010Prop37
 90
       50
102
RTVSPost2010PropOp37
 70
     0
102
RTVSPost2010Prop38
140
0.0
102
RTVSPost2010PropOp38
 70
     0
102
RTVSPost2010Prop39
140
1.0
102
RTVSPost2010PropOp39
 70
     0
102
RTVSPost2010Prop40
 90
        0
102
RTVSPost2010PropOp40
 70
     0
102
RTVSPost2010Prop41ColorIndex
 90
       18
102
RTVSPost2010Prop41ColorRGB
 90
        0
102
RTVSPost2010PropOp41
 70
     0
102
RTVSPost2010Prop42
 90
       50
102
RTVSPost2010PropOp42
 70
     0
102
RTVSPost2010Prop43
 90
        3
102
RTVSPost2010PropOp43
 70
     0
102
RTVSPost2010Prop44ColorIndex
 90
        5
102
RTVSPost2010Prop44ColorRGB
 90
      255
102
RTVSPost2010PropOp44
 70
     0
102
RTVSPost2010Prop45
280
     0
102
RTVSPost2010PropOp45
 70
     0
102
RTVSPost2010Prop46
 90
       50
102
RTVSPost2010PropOp46
 70
     0
102
RTVSPost2010Prop47
 90
       50
102
RTVSPost2010PropOp47
 70
     0
102
RTVSPost2010Prop48
 90
       50
102
RTVSPost2010PropOp48
 70
     0
102
RTVSPost2010Prop49
280
     0
102
RTVSPost2010PropOp49
 70
     0
102
RTVSPost2010Prop50
 90
       50
102
RTVSPost2010PropOp50
 70
     0
102
RTVSPost2010Prop51ColorIndex
 90
      256
102
RTVSPost2010Prop51ColorRGB
 90
-16777216
102
RTVSPost2010PropOp51
 70
     0
102
RTVSPost2010Prop52
140
1.0
102
RTVSPost2010PropOp52
 70
     0
102
RTVSPost2010Prop53
 90
        2
102
RTVSPost2010PropOp53
 70
     0
102
RTVSPost2010Prop54
  1
strokes_ogs.tif
102
RTVSPost2010PropOp54
 70
     0
102
RTVSPost2010Prop55
280
     0
102
RTVSPost2010PropOp55
 70
     0
102
RTVSPost2010Prop56
140
1.0
102
RTVSPost2010PropOp56
 70
     0
102
RTVSPost2010Prop57
140
1.0
102
RTVSPost2010PropOp57
 70
     0
  0
XRECORD
  5
9973
102
{ACAD_REACTORS
330
9972
102
}
330
9972
100
AcDbXrecord
280
     1
102
RTVSPost2010Prop28
280
     0
102
RTVSPost2010PropOp28
 70
     1
102
RTVSPost2010Prop29
280
     1
102
RTVSPost2010PropOp29
 70
     1
102
RTVSPost2010Prop30
280
     1
102
RTVSPost2010PropOp30
 70
     1
102
RTVSPost2010Prop31
280
     0
102
RTVSPost2010PropOp31
 70
     1
102
RTVSPost2010Prop32
280
     0
102
RTVSPost2010PropOp32
 70
     1
102
RTVSPost2010Prop33
280
     0
102
RTVSPost2010PropOp33
 70
     1
102
RTVSPost2010Prop34
280
     0
102
RTVSPost2010PropOp34
 70
     1
102
RTVSPost2010Prop35
280
     0
102
RTVSPost2010PropOp35
 70
     1
102
RTVSPost2010Prop36
280
     0
102
RTVSPost2010PropOp36
 70
     1
102
RTVSPost2010Prop37
 90
       50
102
RTVSPost2010PropOp37
 70
     1
102
RTVSPost2010Prop38
140
0.0
102
RTVSPost2010PropOp38
 70
     1
102
RTVSPost2010Prop39
140
1.0
102
RTVSPost2010PropOp39
 70
     1
102
RTVSPost2010Prop40
 90
        0
102
RTVSPost2010PropOp40
 70
     1
102
RTVSPost2010Prop41ColorIndex
 90
       18
102
RTVSPost2010Prop41ColorRGB
 90
        0
102
RTVSPost2010PropOp41
 70
     1
102
RTVSPost2010Prop42
 90
       50
102
RTVSPost2010PropOp42
 70
     1
102
RTVSPost2010Prop43
 90
        3
102
RTVSPost2010PropOp43
 70
     1
102
RTVSPost2010Prop44ColorIndex
 90
        5
102
RTVSPost2010Prop44ColorRGB
 90
      255
102
RTVSPost2010PropOp44
 70
     1
102
RTVSPost2010Prop45
280
     0
102
RTVSPost2010PropOp45
 70
     1
102
RTVSPost2010Prop46
 90
       50
102
RTVSPost2010PropOp46
 70
     1
102
RTVSPost2010Prop47
 90
       50
102
RTVSPost2010PropOp47
 70
     1
102
RTVSPost2010Prop48
 90
       50
102
RTVSPost2010PropOp48
 70
     1
102
RTVSPost2010Prop49
280
     0
102
RTVSPost2010PropOp49
 70
     1
102
RTVSPost2010Prop50
 90
       50
102
RTVSPost2010PropOp50
 70
     1
102
RTVSPost2010Prop51ColorIndex
 90
      256
102
RTVSPost2010Prop51ColorRGB
 90
-16777216
102
RTVSPost2010PropOp51
 70
     0
102
RTVSPost2010Prop52
140
1.0
102
RTVSPost2010PropOp52
 70
     0
102
RTVSPost2010Prop53
 90
        2
102
RTVSPost2010PropOp53
 70
     1
102
RTVSPost2010Prop54
  1
strokes_ogs.tif
102
RTVSPost2010PropOp54
 70
     1
102
RTVSPost2010Prop55
280
     0
102
RTVSPost2010PropOp55
 70
     1
102
RTVSPost2010Prop56
140
1.0
102
RTVSPost2010PropOp56
 70
     1
102
RTVSPost2010Prop57
140
1.0
102
RTVSPost2010PropOp57
 70
     1
  0
XRECORD
  5
998F
102
{ACAD_REACTORS
330
998E
102
}
330
998E
100
AcDbXrecord
280
     1
102
RTVSPost2010Prop28
280
     0
102
RTVSPost2010PropOp28
 70
     1
102
RTVSPost2010Prop29
280
     1
102
RTVSPost2010PropOp29
 70
     1
102
RTVSPost2010Prop30
280
     1
102
RTVSPost2010PropOp30
 70
     1
102
RTVSPost2010Prop31
280
     0
102
RTVSPost2010PropOp31
 70
     1
102
RTVSPost2010Prop32
280
     0
102
RTVSPost2010PropOp32
 70
     1
102
RTVSPost2010Prop33
280
     0
102
RTVSPost2010PropOp33
 70
     1
102
RTVSPost2010Prop34
280
     0
102
RTVSPost2010PropOp34
 70
     1
102
RTVSPost2010Prop35
280
     0
102
RTVSPost2010PropOp35
 70
     1
102
RTVSPost2010Prop36
280
     0
102
RTVSPost2010PropOp36
 70
     1
102
RTVSPost2010Prop37
 90
       50
102
RTVSPost2010PropOp37
 70
     1
102
RTVSPost2010Prop38
140
0.0
102
RTVSPost2010PropOp38
 70
     1
102
RTVSPost2010Prop39
140
1.0
102
RTVSPost2010PropOp39
 70
     1
102
RTVSPost2010Prop40
 90
        0
102
RTVSPost2010PropOp40
 70
     1
102
RTVSPost2010Prop41ColorIndex
 90
       18
102
RTVSPost2010Prop41ColorRGB
 90
        0
102
RTVSPost2010PropOp41
 70
     1
102
RTVSPost2010Prop42
 90
       50
102
RTVSPost2010PropOp42
 70
     1
102
RTVSPost2010Prop43
 90
        3
102
RTVSPost2010PropOp43
 70
     1
102
RTVSPost2010Prop44ColorIndex
 90
        5
102
RTVSPost2010Prop44ColorRGB
 90
      255
102
RTVSPost2010PropOp44
 70
     1
102
RTVSPost2010Prop45
280
     0
102
RTVSPost2010PropOp45
 70
     1
102
RTVSPost2010Prop46
 90
       50
102
RTVSPost2010PropOp46
 70
     1
102
RTVSPost2010Prop47
 90
       50
102
RTVSPost2010PropOp47
 70
     1
102
RTVSPost2010Prop48
 90
       50
102
RTVSPost2010PropOp48
 70
     1
102
RTVSPost2010Prop49
280
     0
102
RTVSPost2010PropOp49
 70
     1
102
RTVSPost2010Prop50
 90
       50
102
RTVSPost2010PropOp50
 70
     1
102
RTVSPost2010Prop51ColorIndex
 90
      256
102
RTVSPost2010Prop51ColorRGB
 90
-16777216
102
RTVSPost2010PropOp51
 70
     0
102
RTVSPost2010Prop52
140
1.0
102
RTVSPost2010PropOp52
 70
     0
102
RTVSPost2010Prop53
 90
        2
102
RTVSPost2010PropOp53
 70
     1
102
RTVSPost2010Prop54
  1
strokes_ogs.tif
102
RTVSPost2010PropOp54
 70
     1
102
RTVSPost2010Prop55
280
     0
102
RTVSPost2010PropOp55
 70
     1
102
RTVSPost2010Prop56
140
1.0
102
RTVSPost2010PropOp56
 70
     1
102
RTVSPost2010Prop57
140
1.0
102
RTVSPost2010PropOp57
 70
     1
  0
XRECORD
  5
998D
102
{ACAD_REACTORS
330
998C
102
}
330
998C
100
AcDbXrecord
280
     1
102
RTVSPost2010Prop28
280
     0
102
RTVSPost2010PropOp28
 70
     1
102
RTVSPost2010Prop29
280
     1
102
RTVSPost2010PropOp29
 70
     1
102
RTVSPost2010Prop30
280
     1
102
RTVSPost2010PropOp30
 70
     1
102
RTVSPost2010Prop31
280
     0
102
RTVSPost2010PropOp31
 70
     1
102
RTVSPost2010Prop32
280
     0
102
RTVSPost2010PropOp32
 70
     1
102
RTVSPost2010Prop33
280
     0
102
RTVSPost2010PropOp33
 70
     1
102
RTVSPost2010Prop34
280
     0
102
RTVSPost2010PropOp34
 70
     1
102
RTVSPost2010Prop35
280
     0
102
RTVSPost2010PropOp35
 70
     1
102
RTVSPost2010Prop36
280
     0
102
RTVSPost2010PropOp36
 70
     1
102
RTVSPost2010Prop37
 90
       50
102
RTVSPost2010PropOp37
 70
     1
102
RTVSPost2010Prop38
140
0.0
102
RTVSPost2010PropOp38
 70
     1
102
RTVSPost2010Prop39
140
1.0
102
RTVSPost2010PropOp39
 70
     1
102
RTVSPost2010Prop40
 90
        0
102
RTVSPost2010PropOp40
 70
     1
102
RTVSPost2010Prop41ColorIndex
 90
       18
102
RTVSPost2010Prop41ColorRGB
 90
        0
102
RTVSPost2010PropOp41
 70
     1
102
RTVSPost2010Prop42
 90
       50
102
RTVSPost2010PropOp42
 70
     1
102
RTVSPost2010Prop43
 90
        3
102
RTVSPost2010PropOp43
 70
     1
102
RTVSPost2010Prop44ColorIndex
 90
        5
102
RTVSPost2010Prop44ColorRGB
 90
      255
102
RTVSPost2010PropOp44
 70
     1
102
RTVSPost2010Prop45
280
     0
102
RTVSPost2010PropOp45
 70
     1
102
RTVSPost2010Prop46
 90
       50
102
RTVSPost2010PropOp46
 70
     1
102
RTVSPost2010Prop47
 90
       50
102
RTVSPost2010PropOp47
 70
     1
102
RTVSPost2010Prop48
 90
       50
102
RTVSPost2010PropOp48
 70
     1
102
RTVSPost2010Prop49
280
     0
102
RTVSPost2010PropOp49
 70
     1
102
RTVSPost2010Prop50
 90
       50
102
RTVSPost2010PropOp50
 70
     1
102
RTVSPost2010Prop51ColorIndex
 90
      256
102
RTVSPost2010Prop51ColorRGB
 90
-16777216
102
RTVSPost2010PropOp51
 70
     0
102
RTVSPost2010Prop52
140
1.0
102
RTVSPost2010PropOp52
 70
     0
102
RTVSPost2010Prop53
 90
        2
102
RTVSPost2010PropOp53
 70
     1
102
RTVSPost2010Prop54
  1
strokes_ogs.tif
102
RTVSPost2010PropOp54
 70
     1
102
RTVSPost2010Prop55
280
     0
102
RTVSPost2010PropOp55
 70
     1
102
RTVSPost2010Prop56
140
1.0
102
RTVSPost2010PropOp56
 70
     1
102
RTVSPost2010Prop57
140
1.0
102
RTVSPost2010PropOp57
 70
     1
  0
XRECORD
  5
9987
102
{ACAD_REACTORS
330
9986
102
}
330
9986
100
AcDbXrecord
280
     1
102
RTVSPost2010Prop28
280
     0
102
RTVSPost2010PropOp28
 70
     1
102
RTVSPost2010Prop29
280
     1
102
RTVSPost2010PropOp29
 70
     1
102
RTVSPost2010Prop30
280
     1
102
RTVSPost2010PropOp30
 70
     1
102
RTVSPost2010Prop31
280
     0
102
RTVSPost2010PropOp31
 70
     1
102
RTVSPost2010Prop32
280
     0
102
RTVSPost2010PropOp32
 70
     1
102
RTVSPost2010Prop33
280
     0
102
RTVSPost2010PropOp33
 70
     1
102
RTVSPost2010Prop34
280
     0
102
RTVSPost2010PropOp34
 70
     1
102
RTVSPost2010Prop35
280
     0
102
RTVSPost2010PropOp35
 70
     1
102
RTVSPost2010Prop36
280
     0
102
RTVSPost2010PropOp36
 70
     1
102
RTVSPost2010Prop37
 90
       50
102
RTVSPost2010PropOp37
 70
     1
102
RTVSPost2010Prop38
140
0.0
102
RTVSPost2010PropOp38
 70
     1
102
RTVSPost2010Prop39
140
1.0
102
RTVSPost2010PropOp39
 70
     1
102
RTVSPost2010Prop40
 90
        0
102
RTVSPost2010PropOp40
 70
     1
102
RTVSPost2010Prop41ColorIndex
 90
       18
102
RTVSPost2010Prop41ColorRGB
 90
        0
102
RTVSPost2010PropOp41
 70
     1
102
RTVSPost2010Prop42
 90
       50
102
RTVSPost2010PropOp42
 70
     1
102
RTVSPost2010Prop43
 90
        3
102
RTVSPost2010PropOp43
 70
     1
102
RTVSPost2010Prop44ColorIndex
 90
        5
102
RTVSPost2010Prop44ColorRGB
 90
      255
102
RTVSPost2010PropOp44
 70
     1
102
RTVSPost2010Prop45
280
     0
102
RTVSPost2010PropOp45
 70
     1
102
RTVSPost2010Prop46
 90
       50
102
RTVSPost2010PropOp46
 70
     1
102
RTVSPost2010Prop47
 90
       50
102
RTVSPost2010PropOp47
 70
     1
102
RTVSPost2010Prop48
 90
       50
102
RTVSPost2010PropOp48
 70
     1
102
RTVSPost2010Prop49
280
     0
102
RTVSPost2010PropOp49
 70
     1
102
RTVSPost2010Prop50
 90
       50
102
RTVSPost2010PropOp50
 70
     1
102
RTVSPost2010Prop51ColorIndex
 90
      256
102
RTVSPost2010Prop51ColorRGB
 90
-16777216
102
RTVSPost2010PropOp51
 70
     0
102
RTVSPost2010Prop52
140
1.0
102
RTVSPost2010PropOp52
 70
     0
102
RTVSPost2010Prop53
 90
        2
102
RTVSPost2010PropOp53
 70
     1
102
RTVSPost2010Prop54
  1
strokes_ogs.tif
102
RTVSPost2010PropOp54
 70
     1
102
RTVSPost2010Prop55
280
     0
102
RTVSPost2010PropOp55
 70
     1
102
RTVSPost2010Prop56
140
1.0
102
RTVSPost2010PropOp56
 70
     1
102
RTVSPost2010Prop57
140
1.0
102
RTVSPost2010PropOp57
 70
     1
  0
XRECORD
  5
9989
102
{ACAD_REACTORS
330
9988
102
}
330
9988
100
AcDbXrecord
280
     1
102
RTVSPost2010Prop28
280
     0
102
RTVSPost2010PropOp28
 70
     1
102
RTVSPost2010Prop29
280
     1
102
RTVSPost2010PropOp29
 70
     1
102
RTVSPost2010Prop30
280
     1
102
RTVSPost2010PropOp30
 70
     1
102
RTVSPost2010Prop31
280
     0
102
RTVSPost2010PropOp31
 70
     1
102
RTVSPost2010Prop32
280
     0
102
RTVSPost2010PropOp32
 70
     1
102
RTVSPost2010Prop33
280
     0
102
RTVSPost2010PropOp33
 70
     1
102
RTVSPost2010Prop34
280
     0
102
RTVSPost2010PropOp34
 70
     1
102
RTVSPost2010Prop35
280
     0
102
RTVSPost2010PropOp35
 70
     1
102
RTVSPost2010Prop36
280
     0
102
RTVSPost2010PropOp36
 70
     1
102
RTVSPost2010Prop37
 90
       50
102
RTVSPost2010PropOp37
 70
     1
102
RTVSPost2010Prop38
140
0.0
102
RTVSPost2010PropOp38
 70
     1
102
RTVSPost2010Prop39
140
1.0
102
RTVSPost2010PropOp39
 70
     1
102
RTVSPost2010Prop40
 90
        0
102
RTVSPost2010PropOp40
 70
     1
102
RTVSPost2010Prop41ColorIndex
 90
       18
102
RTVSPost2010Prop41ColorRGB
 90
        0
102
RTVSPost2010PropOp41
 70
     1
102
RTVSPost2010Prop42
 90
       50
102
RTVSPost2010PropOp42
 70
     1
102
RTVSPost2010Prop43
 90
        3
102
RTVSPost2010PropOp43
 70
     1
102
RTVSPost2010Prop44ColorIndex
 90
        5
102
RTVSPost2010Prop44ColorRGB
 90
      255
102
RTVSPost2010PropOp44
 70
     1
102
RTVSPost2010Prop45
280
     0
102
RTVSPost2010PropOp45
 70
     1
102
RTVSPost2010Prop46
 90
       50
102
RTVSPost2010PropOp46
 70
     1
102
RTVSPost2010Prop47
 90
       50
102
RTVSPost2010PropOp47
 70
     1
102
RTVSPost2010Prop48
 90
       50
102
RTVSPost2010PropOp48
 70
     1
102
RTVSPost2010Prop49
280
     0
102
RTVSPost2010PropOp49
 70
     1
102
RTVSPost2010Prop50
 90
       50
102
RTVSPost2010PropOp50
 70
     1
102
RTVSPost2010Prop51ColorIndex
 90
      256
102
RTVSPost2010Prop51ColorRGB
 90
-16777216
102
RTVSPost2010PropOp51
 70
     0
102
RTVSPost2010Prop52
140
1.0
102
RTVSPost2010PropOp52
 70
     0
102
RTVSPost2010Prop53
 90
        2
102
RTVSPost2010PropOp53
 70
     1
102
RTVSPost2010Prop54
  1
strokes_ogs.tif
102
RTVSPost2010PropOp54
 70
     1
102
RTVSPost2010Prop55
280
     0
102
RTVSPost2010PropOp55
 70
     1
102
RTVSPost2010Prop56
140
1.0
102
RTVSPost2010PropOp56
 70
     1
102
RTVSPost2010Prop57
140
1.0
102
RTVSPost2010PropOp57
 70
     1
  0
XRECORD
  5
9979
102
{ACAD_REACTORS
330
9978
102
}
330
9978
100
AcDbXrecord
280
     1
102
RTVSPost2010Prop28
280
     0
102
RTVSPost2010PropOp28
 70
     1
102
RTVSPost2010Prop29
280
     1
102
RTVSPost2010PropOp29
 70
     1
102
RTVSPost2010Prop30
280
     1
102
RTVSPost2010PropOp30
 70
     1
102
RTVSPost2010Prop31
280
     0
102
RTVSPost2010PropOp31
 70
     1
102
RTVSPost2010Prop32
280
     0
102
RTVSPost2010PropOp32
 70
     1
102
RTVSPost2010Prop33
280
     0
102
RTVSPost2010PropOp33
 70
     1
102
RTVSPost2010Prop34
280
     0
102
RTVSPost2010PropOp34
 70
     1
102
RTVSPost2010Prop35
280
     0
102
RTVSPost2010PropOp35
 70
     1
102
RTVSPost2010Prop36
280
     0
102
RTVSPost2010PropOp36
 70
     1
102
RTVSPost2010Prop37
 90
       50
102
RTVSPost2010PropOp37
 70
     1
102
RTVSPost2010Prop38
140
0.0
102
RTVSPost2010PropOp38
 70
     1
102
RTVSPost2010Prop39
140
1.0
102
RTVSPost2010PropOp39
 70
     1
102
RTVSPost2010Prop40
 90
        0
102
RTVSPost2010PropOp40
 70
     1
102
RTVSPost2010Prop41ColorIndex
 90
       18
102
RTVSPost2010Prop41ColorRGB
 90
        0
102
RTVSPost2010PropOp41
 70
     1
102
RTVSPost2010Prop42
 90
       50
102
RTVSPost2010PropOp42
 70
     1
102
RTVSPost2010Prop43
 90
        3
102
RTVSPost2010PropOp43
 70
     1
102
RTVSPost2010Prop44ColorIndex
 90
        5
102
RTVSPost2010Prop44ColorRGB
 90
      255
102
RTVSPost2010PropOp44
 70
     1
102
RTVSPost2010Prop45
280
     0
102
RTVSPost2010PropOp45
 70
     1
102
RTVSPost2010Prop46
 90
       50
102
RTVSPost2010PropOp46
 70
     1
102
RTVSPost2010Prop47
 90
       50
102
RTVSPost2010PropOp47
 70
     1
102
RTVSPost2010Prop48
 90
       50
102
RTVSPost2010PropOp48
 70
     1
102
RTVSPost2010Prop49
280
     0
102
RTVSPost2010PropOp49
 70
     1
102
RTVSPost2010Prop50
 90
       50
102
RTVSPost2010PropOp50
 70
     1
102
RTVSPost2010Prop51ColorIndex
 90
      256
102
RTVSPost2010Prop51ColorRGB
 90
-16777216
102
RTVSPost2010PropOp51
 70
     0
102
RTVSPost2010Prop52
140
1.0
102
RTVSPost2010PropOp52
 70
     0
102
RTVSPost2010Prop53
 90
        2
102
RTVSPost2010PropOp53
 70
     1
102
RTVSPost2010Prop54
  1
strokes_ogs.tif
102
RTVSPost2010PropOp54
 70
     1
102
RTVSPost2010Prop55
280
     0
102
RTVSPost2010PropOp55
 70
     1
102
RTVSPost2010Prop56
140
1.0
102
RTVSPost2010PropOp56
 70
     1
102
RTVSPost2010Prop57
140
1.0
102
RTVSPost2010PropOp57
 70
     1
  0
XRECORD
  5
9983
102
{ACAD_REACTORS
330
9982
102
}
330
9982
100
AcDbXrecord
280
     1
102
RTVSPost2010Prop28
280
     0
102
RTVSPost2010PropOp28
 70
     1
102
RTVSPost2010Prop29
280
     1
102
RTVSPost2010PropOp29
 70
     1
102
RTVSPost2010Prop30
280
     1
102
RTVSPost2010PropOp30
 70
     1
102
RTVSPost2010Prop31
280
     0
102
RTVSPost2010PropOp31
 70
     1
102
RTVSPost2010Prop32
280
     0
102
RTVSPost2010PropOp32
 70
     1
102
RTVSPost2010Prop33
280
     0
102
RTVSPost2010PropOp33
 70
     1
102
RTVSPost2010Prop34
280
     0
102
RTVSPost2010PropOp34
 70
     1
102
RTVSPost2010Prop35
280
     0
102
RTVSPost2010PropOp35
 70
     1
102
RTVSPost2010Prop36
280
     0
102
RTVSPost2010PropOp36
 70
     1
102
RTVSPost2010Prop37
 90
       50
102
RTVSPost2010PropOp37
 70
     1
102
RTVSPost2010Prop38
140
0.0
102
RTVSPost2010PropOp38
 70
     1
102
RTVSPost2010Prop39
140
1.0
102
RTVSPost2010PropOp39
 70
     1
102
RTVSPost2010Prop40
 90
        0
102
RTVSPost2010PropOp40
 70
     1
102
RTVSPost2010Prop41ColorIndex
 90
       18
102
RTVSPost2010Prop41ColorRGB
 90
        0
102
RTVSPost2010PropOp41
 70
     1
102
RTVSPost2010Prop42
 90
       50
102
RTVSPost2010PropOp42
 70
     1
102
RTVSPost2010Prop43
 90
        3
102
RTVSPost2010PropOp43
 70
     1
102
RTVSPost2010Prop44ColorIndex
 90
        5
102
RTVSPost2010Prop44ColorRGB
 90
      255
102
RTVSPost2010PropOp44
 70
     1
102
RTVSPost2010Prop45
280
     0
102
RTVSPost2010PropOp45
 70
     1
102
RTVSPost2010Prop46
 90
       50
102
RTVSPost2010PropOp46
 70
     1
102
RTVSPost2010Prop47
 90
       50
102
RTVSPost2010PropOp47
 70
     1
102
RTVSPost2010Prop48
 90
       50
102
RTVSPost2010PropOp48
 70
     1
102
RTVSPost2010Prop49
280
     0
102
RTVSPost2010PropOp49
 70
     1
102
RTVSPost2010Prop50
 90
       50
102
RTVSPost2010PropOp50
 70
     1
102
RTVSPost2010Prop51ColorIndex
 90
      256
102
RTVSPost2010Prop51ColorRGB
 90
-16777216
102
RTVSPost2010PropOp51
 70
     0
102
RTVSPost2010Prop52
140
1.0
102
RTVSPost2010PropOp52
 70
     0
102
RTVSPost2010Prop53
 90
        2
102
RTVSPost2010PropOp53
 70
     1
102
RTVSPost2010Prop54
  1
strokes_ogs.tif
102
RTVSPost2010PropOp54
 70
     1
102
RTVSPost2010Prop55
280
     0
102
RTVSPost2010PropOp55
 70
     1
102
RTVSPost2010Prop56
140
1.0
102
RTVSPost2010PropOp56
 70
     1
102
RTVSPost2010Prop57
140
1.0
102
RTVSPost2010PropOp57
 70
     1
  0
XRECORD
  5
998B
102
{ACAD_REACTORS
330
998A
102
}
330
998A
100
AcDbXrecord
280
     1
102
RTVSPost2010Prop28
280
     0
102
RTVSPost2010PropOp28
 70
     1
102
RTVSPost2010Prop29
280
     1
102
RTVSPost2010PropOp29
 70
     1
102
RTVSPost2010Prop30
280
     1
102
RTVSPost2010PropOp30
 70
     1
102
RTVSPost2010Prop31
280
     0
102
RTVSPost2010PropOp31
 70
     1
102
RTVSPost2010Prop32
280
     0
102
RTVSPost2010PropOp32
 70
     1
102
RTVSPost2010Prop33
280
     0
102
RTVSPost2010PropOp33
 70
     1
102
RTVSPost2010Prop34
280
     0
102
RTVSPost2010PropOp34
 70
     1
102
RTVSPost2010Prop35
280
     0
102
RTVSPost2010PropOp35
 70
     1
102
RTVSPost2010Prop36
280
     0
102
RTVSPost2010PropOp36
 70
     1
102
RTVSPost2010Prop37
 90
       50
102
RTVSPost2010PropOp37
 70
     1
102
RTVSPost2010Prop38
140
0.0
102
RTVSPost2010PropOp38
 70
     1
102
RTVSPost2010Prop39
140
1.0
102
RTVSPost2010PropOp39
 70
     1
102
RTVSPost2010Prop40
 90
        0
102
RTVSPost2010PropOp40
 70
     1
102
RTVSPost2010Prop41ColorIndex
 90
       18
102
RTVSPost2010Prop41ColorRGB
 90
        0
102
RTVSPost2010PropOp41
 70
     1
102
RTVSPost2010Prop42
 90
       50
102
RTVSPost2010PropOp42
 70
     1
102
RTVSPost2010Prop43
 90
        3
102
RTVSPost2010PropOp43
 70
     1
102
RTVSPost2010Prop44ColorIndex
 90
        5
102
RTVSPost2010Prop44ColorRGB
 90
      255
102
RTVSPost2010PropOp44
 70
     1
102
RTVSPost2010Prop45
280
     0
102
RTVSPost2010PropOp45
 70
     1
102
RTVSPost2010Prop46
 90
       50
102
RTVSPost2010PropOp46
 70
     1
102
RTVSPost2010Prop47
 90
       50
102
RTVSPost2010PropOp47
 70
     1
102
RTVSPost2010Prop48
 90
       50
102
RTVSPost2010PropOp48
 70
     1
102
RTVSPost2010Prop49
280
     0
102
RTVSPost2010PropOp49
 70
     1
102
RTVSPost2010Prop50
 90
       50
102
RTVSPost2010PropOp50
 70
     1
102
RTVSPost2010Prop51ColorIndex
 90
      256
102
RTVSPost2010Prop51ColorRGB
 90
-16777216
102
RTVSPost2010PropOp51
 70
     0
102
RTVSPost2010Prop52
140
1.0
102
RTVSPost2010PropOp52
 70
     0
102
RTVSPost2010Prop53
 90
        2
102
RTVSPost2010PropOp53
 70
     1
102
RTVSPost2010Prop54
  1
strokes_ogs.tif
102
RTVSPost2010PropOp54
 70
     1
102
RTVSPost2010Prop55
280
     0
102
RTVSPost2010PropOp55
 70
     1
102
RTVSPost2010Prop56
140
1.0
102
RTVSPost2010PropOp56
 70
     1
102
RTVSPost2010Prop57
140
1.0
102
RTVSPost2010PropOp57
 70
     1
  0
ENDSEC
  0
EOF
