  0
SECTION
  2
HEADER
  9
$ACADVER
  1
AC1018
  9
$ACADMAINTVER
 70
   104
  9
$DWGCODEPAGE
  3
ANSI_932
  9
$INSBASE
 10
0.0
 20
0.0
 30
0.0
  9
$EXTMIN
 10
-0.41890594
 20
-0.30465887
 30
0.0
  9
$EXTMAX
 10
27500.41989845
 20
20000.30538069
 30
0.0
  9
$LIMMIN
 10
0.0
 20
0.0
  9
$LIMMAX
 10
420.0
 20
330.0
  9
$ORTHOMODE
 70
     1
  9
$REGENMODE
 70
     1
  9
$FILLMODE
 70
     1
  9
$QTEXTMODE
 70
     0
  9
$MIRRTEXT
 70
     0
  9
$LTSCALE
 40
1.0
  9
$ATTMODE
 70
     1
  9
$TEXTSIZE
 40
0.2
  9
$TRACEWID
 40
0.05
  9
$TEXTSTYLE
  7
STANDARD
  9
$CLAYER
  8
0
  9
$CELTYPE
  6
BYLAYER
  9
$CECOLOR
 62
   256
  9
$CELTSCALE
 40
1.0
  9
$DISPSILH
 70
     1
  9
$DIMSCALE
 40
1.0
  9
$DIMASZ
 40
0.18
  9
$DIMEXO
 40
0.0625
  9
$DIMDLI
 40
0.38
  9
$DIMRND
 40
0.0
  9
$DIMDLE
 40
0.0
  9
$DIMEXE
 40
0.18
  9
$DIMTP
 40
0.0
  9
$DIMTM
 40
0.0
  9
$DIMTXT
 40
0.18
  9
$DIMCEN
 40
0.09
  9
$DIMTSZ
 40
0.0
  9
$DIMTOL
 70
     0
  9
$DIMLIM
 70
     0
  9
$DIMTIH
 70
     1
  9
$DIMTOH
 70
     1
  9
$DIMSE1
 70
     0
  9
$DIMSE2
 70
     0
  9
$DIMTAD
 70
     0
  9
$DIMZIN
 70
     0
  9
$DIMBLK
  1

  9
$DIMASO
 70
     1
  9
$DIMSHO
 70
     0
  9
$DIMPOST
  1

  9
$DIMAPOST
  1

  9
$DIMALT
 70
     0
  9
$DIMALTD
 70
     2
  9
$DIMALTF
 40
25.4
  9
$DIMLFAC
 40
1.0
  9
$DIMTOFL
 70
     0
  9
$DIMTVP
 40
0.0
  9
$DIMTIX
 70
     0
  9
$DIMSOXD
 70
     0
  9
$DIMSAH
 70
     0
  9
$DIMBLK1
  1

  9
$DIMBLK2
  1

  9
$DIMSTYLE
  2
STANDARD
  9
$DIMCLRD
 70
     0
  9
$DIMCLRE
 70
     0
  9
$DIMCLRT
 70
     0
  9
$DIMTFAC
 40
1.0
  9
$DIMGAP
 40
0.09
  9
$DIMJUST
 70
     0
  9
$DIMSD1
 70
     0
  9
$DIMSD2
 70
     0
  9
$DIMTOLJ
 70
     1
  9
$DIMTZIN
 70
     0
  9
$DIMALTZ
 70
     0
  9
$DIMALTTZ
 70
     0
  9
$DIMUPT
 70
     0
  9
$DIMDEC
 70
     4
  9
$DIMTDEC
 70
     4
  9
$DIMALTU
 70
     2
  9
$DIMALTTD
 70
     2
  9
$DIMTXSTY
  7
STANDARD
  9
$DIMAUNIT
 70
     0
  9
$DIMADEC
 70
     0
  9
$DIMALTRND
 40
0.0
  9
$DIMAZIN
 70
     0
  9
$DIMDSEP
 70
    46
  9
$DIMATFIT
 70
     3
  9
$DIMFRAC
 70
     0
  9
$DIMLDRBLK
  1

  9
$DIMLUNIT
 70
     2
  9
$DIMLWD
 70
    -2
  9
$DIMLWE
 70
    -2
  9
$DIMTMOVE
 70
     2
  9
$LUNITS
 70
     2
  9
$LUPREC
 70
     4
  9
$SKETCHINC
 40
0.1
  9
$FILLETRAD
 40
1.0
  9
$AUNITS
 70
     0
  9
$AUPREC
 70
     0
  9
$MENU
  1
c:\acadwin\support\acad
  9
$ELEVATION
 40
0.0
  9
$PELEVATION
 40
0.0
  9
$THICKNESS
 40
0.0
  9
$LIMCHECK
 70
     0
  9
$CHAMFERA
 40
0.0
  9
$CHAMFERB
 40
0.0
  9
$CHAMFERC
 40
0.0
  9
$CHAMFERD
 40
0.0
  9
$SKPOLY
 70
     0
  9
$TDCREATE
 40
2452992.740202361
  9
$TDUCREATE
 40
2452992.365202362
  9
$TDUPDATE
 40
2457162.514270695
  9
$TDUUPDATE
 40
2457162.139270694
  9
$TDINDWG
 40
0.0046916435
  9
$TDUSRTIMER
 40
0.0046916435
  9
$USRTIMER
 70
     1
  9
$ANGBASE
 50
0.0
  9
$ANGDIR
 70
     0
  9
$PDMODE
 70
     0
  9
$PDSIZE
 40
0.0
  9
$PLINEWID
 40
0.0
  9
$SPLFRAME
 70
     0
  9
$SPLINETYPE
 70
     6
  9
$SPLINESEGS
 70
     8
  9
$HANDSEED
  5
88E
  9
$SURFTAB1
 70
     6
  9
$SURFTAB2
 70
     6
  9
$SURFTYPE
 70
     6
  9
$SURFU
 70
     6
  9
$SURFV
 70
     6
  9
$UCSBASE
  2

  9
$UCSNAME
  2

  9
$UCSORG
 10
0.0
 20
0.0
 30
0.0
  9
$UCSXDIR
 10
1.0
 20
0.0
 30
0.0
  9
$UCSYDIR
 10
0.0
 20
1.0
 30
0.0
  9
$UCSORTHOREF
  2

  9
$UCSORTHOVIEW
 70
     0
  9
$UCSORGTOP
 10
0.0
 20
0.0
 30
0.0
  9
$UCSORGBOTTOM
 10
0.0
 20
0.0
 30
0.0
  9
$UCSORGLEFT
 10
0.0
 20
0.0
 30
0.0
  9
$UCSORGRIGHT
 10
0.0
 20
0.0
 30
0.0
  9
$UCSORGFRONT
 10
0.0
 20
0.0
 30
0.0
  9
$UCSORGBACK
 10
0.0
 20
0.0
 30
0.0
  9
$PUCSBASE
  2

  9
$PUCSNAME
  2

  9
$PUCSORG
 10
0.0
 20
0.0
 30
0.0
  9
$PUCSXDIR
 10
1.0
 20
0.0
 30
0.0
  9
$PUCSYDIR
 10
0.0
 20
1.0
 30
0.0
  9
$PUCSORTHOREF
  2

  9
$PUCSORTHOVIEW
 70
     0
  9
$PUCSORGTOP
 10
0.0
 20
0.0
 30
0.0
  9
$PUCSORGBOTTOM
 10
0.0
 20
0.0
 30
0.0
  9
$PUCSORGLEFT
 10
0.0
 20
0.0
 30
0.0
  9
$PUCSORGRIGHT
 10
0.0
 20
0.0
 30
0.0
  9
$PUCSORGFRONT
 10
0.0
 20
0.0
 30
0.0
  9
$PUCSORGBACK
 10
0.0
 20
0.0
 30
0.0
  9
$USERI1
 70
     0
  9
$USERI2
 70
     0
  9
$USERI3
 70
     0
  9
$USERI4
 70
     0
  9
$USERI5
 70
     0
  9
$USERR1
 40
0.0
  9
$USERR2
 40
0.0
  9
$USERR3
 40
0.0
  9
$USERR4
 40
0.0
  9
$USERR5
 40
0.0
  9
$WORLDVIEW
 70
     1
  9
$SHADEDGE
 70
     3
  9
$SHADEDIF
 70
    70
  9
$TILEMODE
 70
     1
  9
$MAXACTVP
 70
    16
  9
$PINSBASE
 10
0.0
 20
0.0
 30
0.0
  9
$PLIMCHECK
 70
     0
  9
$PEXTMIN
 10
1.00000000E+20
 20
1.00000000E+20
 30
1.00000000E+20
  9
$PEXTMAX
 10
-1.00000000E+20
 20
-1.00000000E+20
 30
-1.00000000E+20
  9
$PLIMMIN
 10
0.0
 20
0.0
  9
$PLIMMAX
 10
12.0
 20
9.0
  9
$UNITMODE
 70
     0
  9
$VISRETAIN
 70
     0
  9
$PLINEGEN
 70
     0
  9
$PSLTSCALE
 70
     0
  9
$TREEDEPTH
 70
  3020
  9
$CMLSTYLE
  2
STANDARD
  9
$CMLJUST
 70
     0
  9
$CMLSCALE
 40
1.0
  9
$PROXYGRAPHICS
 70
     1
  9
$MEASUREMENT
 70
     1
  9
$CELWEIGHT
370
    -1
  9
$ENDCAPS
280
     0
  9
$JOINSTYLE
280
     0
  9
$LWDISPLAY
290
     0
  9
$INSUNITS
 70
     0
  9
$HYPERLINKBASE
  1

  9
$STYLESHEET
  1

  9
$XEDIT
290
     1
  9
$CEPSNTYPE
380
     0
  9
$PSTYLEMODE
290
     1
  9
$FINGERPRINTGUID
  2
{441DB81E-AF98-4E2E-BBA6-9D0698E4E7F4}
  9
$VERSIONGUID
  2
{C1BB0661-A2DF-4EA4-BF61-CE9C9FE7B235}
  9
$EXTNAMES
290
     1
  9
$PSVPSCALE
 40
0.0
  9
$OLESTARTUP
290
     0
  9
$SORTENTS
280
   127
  9
$INDEXCTL
280
     0
  9
$HIDETEXT
280
     0
  9
$XCLIPFRAME
290
     0
  9
$HALOGAP
280
     0
  9
$OBSCOLOR
 70
   257
  9
$OBSLTYPE
280
     0
  9
$INTERSECTIONDISPLAY
280
     0
  9
$INTERSECTIONCOLOR
 70
   257
  9
$DIMASSOC
280
     1
  9
$PROJECTNAME
  1

  0
ENDSEC
  0
SECTION
  2
CLASSES
  0
CLASS
  1
DICTIONARYVAR
  2
AcDbDictionaryVar
  3
ObjectDBX Classes
 90
        0
 91
        8
280
     0
281
     0
  0
CLASS
  1
ACDBDICTIONARYWDFLT
  2
AcDbDictionaryWithDefault
  3
ObjectDBX Classes
 90
        0
 91
        1
280
     0
281
     0
  0
CLASS
  1
MATERIAL
  2
AcDbMaterial
  3
ObjectDBX Classes
 90
     1153
 91
        3
280
     0
281
     0
  0
CLASS
  1
VISUALSTYLE
  2
AcDbVisualStyle
  3
ObjectDBX Classes
 90
     4095
 91
       24
280
     0
281
     0
  0
CLASS
  1
TABLESTYLE
  2
AcDbTableStyle
  3
ObjectDBX Classes
 90
     4095
 91
        1
280
     0
281
     0
  0
CLASS
  1
SCALE
  2
AcDbScale
  3
ObjectDBX Classes
 90
     1153
 91
       17
280
     0
281
     0
  0
CLASS
  1
MLEADERSTYLE
  2
AcDbMLeaderStyle
  3
ACDB_MLEADERSTYLE_CLASS
 90
     4095
 91
        1
280
     0
281
     0
  0
CLASS
  1
ACDBSECTIONVIEWSTYLE
  2
AcDbSectionViewStyle
  3
ObjectDBX Classes
 90
     1025
 91
        1
280
     0
281
     0
  0
CLASS
  1
ACDBDETAILVIEWSTYLE
  2
AcDbDetailViewStyle
  3
ObjectDBX Classes
 90
     1025
 91
        1
280
     0
281
     0
  0
CLASS
  1
CELLSTYLEMAP
  2
AcDbCellStyleMap
  3
ObjectDBX Classes
 90
     1152
 91
        2
280
     0
281
     0
  0
ENDSEC
  0
SECTION
  2
TABLES
  0
TABLE
  2
VPORT
  5
2C3
330
0
100
AcDbSymbolTable
 70
     1
  0
VPORT
  5
7A9
330
2C3
100
AcDbSymbolTableRecord
100
AcDbViewportTableRecord
  2
*ACTIVE
 70
     0
 10
0.0
 20
0.0
 11
1.0
 21
1.0
 12
13750.00049625
 22
10000.00036091
 13
0.0
 23
0.0
 14
1.0
 24
1.0
 15
10.0
 25
10.0
 16
0.0
 26
0.0
 36
1.0
 17
0.0
 27
0.0
 37
0.0
 40
20183.26401252
 41
1.91768293
 42
50.0
 43
0.0
 44
0.0
 50
0.0
 51
0.0
 71
     0
 72
   100
 73
     1
 74
     0
 75
     0
 76
     0
 77
     0
 78
     0
281
     0
 65
     1
110
0.0
120
0.0
130
0.0
111
1.0
121
0.0
131
0.0
112
0.0
122
1.0
132
0.0
 79
     0
146
0.0
1001
ACAD_NAV_VCDISPLAY
1070
     1
  0
ENDTAB
  0
TABLE
  2
LTYPE
  5
2C0
330
0
100
AcDbSymbolTable
 70
     2
  0
LTYPE
  5
2CC
330
2C0
100
AcDbSymbolTableRecord
100
AcDbLinetypeTableRecord
  2
BYBLOCK
 70
     0
  3

 72
    65
 73
     0
 40
0.0
  0
LTYPE
  5
2CD
330
2C0
100
AcDbSymbolTableRecord
100
AcDbLinetypeTableRecord
  2
BYLAYER
 70
     0
  3

 72
    65
 73
     0
 40
0.0
  0
LTYPE
  5
2CE
330
2C0
100
AcDbSymbolTableRecord
100
AcDbLinetypeTableRecord
  2
CONTINUOUS
 70
     0
  3
Solid line
 72
    65
 73
     0
 40
0.0
  0
LTYPE
  5
311
330
2C0
100
AcDbSymbolTableRecord
100
AcDbLinetypeTableRecord
  2
YCENTER_1
 70
     0
  3
中心線尺度1--- － --- － ---
 72
    65
 73
     4
 40
13.0
 49
10.0
 74
     0
 49
-1.0
 74
     0
 49
1.0
 74
     0
 49
-1.0
 74
     0
  0
ENDTAB
  0
TABLE
  2
LAYER
  5
2BD
330
0
100
AcDbSymbolTable
 70
    11
  0
LAYER
  5
2C9
330
2BD
100
AcDbSymbolTableRecord
100
AcDbLayerTableRecord
  2
0
 70
     0
 62
     7
  6
CONTINUOUS
370
    -3
390
7AC
  0
LAYER
  5
2DA
330
2BD
100
AcDbSymbolTableRecord
100
AcDbLayerTableRecord
  2
YKK_IN
 70
     0
 62
     1
  6
CONTINUOUS
370
    -3
390
7AC
  0
LAYER
  5
2DB
330
2BD
100
AcDbSymbolTableRecord
100
AcDbLayerTableRecord
  2
YKK_F1
 70
     0
 62
     7
  6
CONTINUOUS
370
    -3
390
7AC
  0
LAYER
  5
2DC
330
2BD
100
AcDbSymbolTableRecord
100
AcDbLayerTableRecord
  2
YKK_N1
 70
     0
 62
     2
  6
CONTINUOUS
370
    -3
390
7AC
  0
LAYER
  5
2DD
330
2BD
100
AcDbSymbolTableRecord
100
AcDbLayerTableRecord
  2
YKK_Z1
 70
     0
 62
     7
  6
CONTINUOUS
370
    -3
390
7AC
  0
LAYER
  5
2DE
330
2BD
100
AcDbSymbolTableRecord
100
AcDbLayerTableRecord
  2
YKK_A1
 70
     0
 62
     4
  6
CONTINUOUS
370
    -3
390
7AC
  0
LAYER
  5
2DF
330
2BD
100
AcDbSymbolTableRecord
100
AcDbLayerTableRecord
  2
YKK_A2
 70
     0
 62
     3
  6
CONTINUOUS
370
    -3
390
7AC
  0
LAYER
  5
2E0
330
2BD
100
AcDbSymbolTableRecord
100
AcDbLayerTableRecord
  2
YKK_B1
 70
     0
 62
     4
  6
CONTINUOUS
370
    -3
390
7AC
  0
LAYER
  5
2E1
330
2BD
100
AcDbSymbolTableRecord
100
AcDbLayerTableRecord
  2
YKK_C1
 70
     0
 62
     4
  6
CONTINUOUS
370
    -3
390
7AC
  0
LAYER
  5
2E2
330
2BD
100
AcDbSymbolTableRecord
100
AcDbLayerTableRecord
  2
YKK_B2
 70
     0
 62
     5
  6
CONTINUOUS
370
    -3
390
7AC
  0
LAYER
  5
2E3
330
2BD
100
AcDbSymbolTableRecord
100
AcDbLayerTableRecord
  2
YKK_C2
 70
     0
 62
     5
  6
CONTINUOUS
370
    -3
390
7AC
  0
ENDTAB
  0
TABLE
  2
STYLE
  5
2BE
330
0
100
AcDbSymbolTable
 70
     2
  0
STYLE
  5
2CA
330
2BE
100
AcDbSymbolTableRecord
100
AcDbTextStyleTableRecord
  2
STANDARD
 70
     0
 40
0.0
 41
1.0
 50
0.0
 71
     0
 42
0.2
  3
txt.shx
  4
bigfont.shx
  0
STYLE
  5
315
330
2BE
100
AcDbSymbolTableRecord
100
AcDbTextStyleTableRecord
  2
TEXT-B
 70
     0
 40
0.0
 41
0.8
 50
0.0
 71
     0
 42
6.0
  3
extslim2.shx
  4
extfont2.shx
  0
ENDTAB
  0
TABLE
  2
VIEW
  5
2C1
330
0
100
AcDbSymbolTable
 70
     0
  0
ENDTAB
  0
TABLE
  2
UCS
  5
2C2
330
0
100
AcDbSymbolTable
 70
     0
  0
ENDTAB
  0
TABLE
  2
APPID
  5
2C4
330
0
100
AcDbSymbolTable
 70
    10
  0
APPID
  5
2CB
330
2C4
100
AcDbSymbolTableRecord
100
AcDbRegAppTableRecord
  2
ACAD
 70
     0
  0
APPID
  5
317
330
2C4
100
AcDbSymbolTableRecord
100
AcDbRegAppTableRecord
  2
ACAD_DSTYLE_DIMEXT_LENGTH
 70
     0
  0
APPID
  5
318
330
2C4
100
AcDbSymbolTableRecord
100
AcDbRegAppTableRecord
  2
ACAD_DSTYLE_DIMEXT_ENABLED
 70
     0
  0
APPID
  5
319
330
2C4
100
AcDbSymbolTableRecord
100
AcDbRegAppTableRecord
  2
ACAECLAYERSTANDARD
 70
     0
  0
APPID
  5
31A
330
2C4
100
AcDbSymbolTableRecord
100
AcDbRegAppTableRecord
  2
ACAD_DSTYLE_DIMJOGGED_JOGA
 70
     0
  0
APPID
  5
31B
330
2C4
100
AcDbSymbolTableRecord
100
AcDbRegAppTableRecord
  2
ACAD_DSTYLE_DIMARC_LENGTH_
 70
     0
  0
APPID
  5
839
330
2C4
100
AcDbSymbolTableRecord
100
AcDbRegAppTableRecord
  2
ACAD_MLEADERVER
 70
     0
  0
APPID
  5
84E
330
2C4
100
AcDbSymbolTableRecord
100
AcDbRegAppTableRecord
  2
ACAD_PSEXT
 70
     0
  0
APPID
  5
84F
330
2C4
100
AcDbSymbolTableRecord
100
AcDbRegAppTableRecord
  2
ACAD_NAV_VCDISPLAY
 70
     0
  0
APPID
  5
850
330
2C4
100
AcDbSymbolTableRecord
100
AcDbRegAppTableRecord
  2
YKK_AP_LOCKLAYER
 70
     0
  0
ENDTAB
  0
TABLE
  2
DIMSTYLE
  5
2C5
330
0
100
AcDbSymbolTable
 70
     1
100
AcDbDimStyleTable
 71
     0
  0
DIMSTYLE
105
2D9
330
2C5
100
AcDbSymbolTableRecord
100
AcDbDimStyleTableRecord
  2
STANDARD
 70
     0
279
     2
340
2CA
  0
ENDTAB
  0
TABLE
  2
BLOCK_RECORD
  5
2BC
330
0
100
AcDbSymbolTable
 70
     3
  0
BLOCK_RECORD
  5
2D2
330
2BC
100
AcDbSymbolTableRecord
100
AcDbBlockTableRecord
  2
*MODEL_SPACE
340
800
  0
BLOCK_RECORD
  5
2CF
330
2BC
100
AcDbSymbolTableRecord
100
AcDbBlockTableRecord
  2
*PAPER_SPACE
340
801
  0
BLOCK_RECORD
  5
2FD
330
2BC
100
AcDbSymbolTableRecord
100
AcDbBlockTableRecord
  2
_OPEN30
340
0
102
{BLKREFS
331
708
331
713
331
725
331
731
331
73F
331
743
331
75B
331
75F
331
774
331
77C
331
786
331
78A
102
}
  0
BLOCK_RECORD
  5
303
330
2BC
100
AcDbSymbolTableRecord
100
AcDbBlockTableRecord
  2
SYS_SANKAKU
340
0
102
{BLKREFS
331
752
331
753
331
705
331
706
102
}
  0
BLOCK_RECORD
  5
30A
330
2BC
100
AcDbSymbolTableRecord
100
AcDbBlockTableRecord
  2
_DOTSMALL
340
0
102
{BLKREFS
331
710
331
711
331
71B
331
71C
331
722
331
723
331
72B
331
72C
331
736
331
737
331
73C
331
73D
331
749
331
758
331
759
331
768
331
769
331
76F
331
770
331
779
331
77A
331
783
331
784
331
790
331
6FE
331
6FF
102
}
  0
ENDTAB
  0
ENDSEC
  0
SECTION
  2
BLOCKS
  0
BLOCK
  5
2E6
330
2D2
100
AcDbEntity
  8
0
100
AcDbBlockBegin
  2
*MODEL_SPACE
 70
     0
 10
0.0
 20
0.0
 30
0.0
  3
*MODEL_SPACE
  1

  0
ENDBLK
  5
2E7
330
2D2
100
AcDbEntity
  8
0
100
AcDbBlockEnd
  0
BLOCK
  5
2E4
330
2CF
100
AcDbEntity
 67
     1
  8
0
100
AcDbBlockBegin
  2
*PAPER_SPACE
 70
     0
 10
0.0
 20
0.0
 30
0.0
  3
*PAPER_SPACE
  1

  0
ENDBLK
  5
2E5
330
2CF
100
AcDbEntity
 67
     1
  8
0
100
AcDbBlockEnd
  0
BLOCK
  5
301
330
2FD
100
AcDbEntity
  8
0
100
AcDbBlockBegin
  2
_OPEN30
 70
     0
 10
0.0
 20
0.0
 30
0.0
  3
_OPEN30
  1

  0
LINE
  5
2FE
330
2FD
100
AcDbEntity
  8
0
  6
ByBlock
 62
     0
100
AcDbLine
 10
-1.0
 20
0.26794919
 30
0.0
 11
0.0
 21
0.0
 31
0.0
  0
LINE
  5
2FF
330
2FD
100
AcDbEntity
  8
0
  6
ByBlock
 62
     0
100
AcDbLine
 10
0.0
 20
0.0
 30
0.0
 11
-1.0
 21
-0.26794919
 31
0.0
  0
LINE
  5
300
330
2FD
100
AcDbEntity
  8
0
  6
ByBlock
 62
     0
100
AcDbLine
 10
0.0
 20
0.0
 30
0.0
 11
-1.0
 21
0.0
 31
0.0
  0
ENDBLK
  5
302
330
2FD
100
AcDbEntity
  8
0
100
AcDbBlockEnd
  0
BLOCK
  5
308
330
303
100
AcDbEntity
  8
0
100
AcDbBlockBegin
  2
SYS_SANKAKU
 70
     0
 10
0.0
 20
0.0
 30
0.0
  3
SYS_SANKAKU
  1

  0
LINE
  5
304
330
303
100
AcDbEntity
  8
0
 62
     0
100
AcDbLine
 10
0.0
 20
0.0
 30
0.0
 11
-0.8660254
 21
0.5
 31
0.0
  0
LINE
  5
305
330
303
100
AcDbEntity
  8
0
 62
     0
100
AcDbLine
 10
0.0
 20
0.0
 30
0.0
 11
-0.8660254
 21
-0.5
 31
0.0
  0
LINE
  5
306
330
303
100
AcDbEntity
  8
0
 62
     0
100
AcDbLine
 10
-0.8660254
 20
0.5
 30
0.0
 11
-0.8660254
 21
-0.5
 31
0.0
  0
LINE
  5
307
330
303
100
AcDbEntity
  8
0
 62
     0
100
AcDbLine
 10
0.0
 20
0.0
 30
0.0
 11
-1.73205081
 21
0.0
 31
0.0
  0
ENDBLK
  5
309
330
303
100
AcDbEntity
  8
0
100
AcDbBlockEnd
  0
BLOCK
  5
30F
330
30A
100
AcDbEntity
  8
0
100
AcDbBlockBegin
  2
_DOTSMALL
 70
     0
 10
0.0
 20
0.0
 30
0.0
  3
_DOTSMALL
  1

  0
POLYLINE
  5
30B
330
30A
100
AcDbEntity
  8
0
  6
ByBlock
 62
     0
100
AcDb2dPolyline
 66
     1
 10
0.0
 20
0.0
 30
0.0
 70
     1
 40
0.5
 41
0.5
  0
VERTEX
  5
30C
330
30B
100
AcDbEntity
  8
0
  6
ByBlock
 62
     0
100
AcDbVertex
100
AcDb2dVertex
 10
-0.0625
 20
0.0
 30
0.0
 42
1.0
  0
VERTEX
  5
30D
330
30B
100
AcDbEntity
  8
0
  6
ByBlock
 62
     0
100
AcDbVertex
100
AcDb2dVertex
 10
0.0625
 20
0.0
 30
0.0
 42
1.0
  0
SEQEND
  5
30E
330
30B
100
AcDbEntity
  8
0
  6
ByBlock
 62
     0
  0
ENDBLK
  5
310
330
30A
100
AcDbEntity
  8
0
100
AcDbBlockEnd
  0
ENDSEC
  0
SECTION
  2
ENTITIES
  0
LINE
  5
35
330
2D2
100
AcDbEntity
  8
YKK_F1
 62
     7
100
AcDbLine
 10
0.0
 20
18600.0
 30
0.0
 11
27000.0
 21
18600.0
 31
0.0
  0
LINE
  5
37
330
2D2
100
AcDbEntity
  8
YKK_F1
 62
     7
100
AcDbLine
 10
0.0
 20
19050.0
 30
0.0
 11
27000.0
 21
19050.0
 31
0.0
  0
LINE
  5
38
330
2D2
100
AcDbEntity
  8
YKK_F1
 62
     7
100
AcDbLine
 10
0.0
 20
19500.0
 30
0.0
 11
27000.0
 21
19500.0
 31
0.0
  0
LINE
  5
39
330
2D2
100
AcDbEntity
  8
YKK_F1
 62
     7
100
AcDbLine
 10
0.0
 20
0.0
 30
0.0
 11
27500.0
 21
0.0
 31
0.0
  0
LINE
  5
3A
330
2D2
100
AcDbEntity
  8
YKK_F1
 62
     7
100
AcDbLine
 10
0.0
 20
20000.0
 30
0.0
 11
27500.0
 21
20000.0
 31
0.0
  0
LINE
  5
3B
330
2D2
100
AcDbEntity
  8
YKK_F1
 62
     7
100
AcDbLine
 10
0.0
 20
11700.0
 30
0.0
 11
27000.0
 21
11700.0
 31
0.0
  0
LINE
  5
3C
330
2D2
100
AcDbEntity
  8
YKK_F1
 62
     7
100
AcDbLine
 10
0.0
 20
11250.0
 30
0.0
 11
27000.0
 21
11250.0
 31
0.0
  0
LINE
  5
3D
330
2D2
100
AcDbEntity
  8
YKK_F1
 62
     7
100
AcDbLine
 10
0.0
 20
10800.0
 30
0.0
 11
27000.0
 21
10800.0
 31
0.0
  0
LINE
  5
3E
330
2D2
100
AcDbEntity
  8
YKK_F1
 62
     7
100
AcDbLine
 10
0.0
 20
6900.0
 30
0.0
 11
27000.0
 21
6900.0
 31
0.0
  0
LINE
  5
3F
330
2D2
100
AcDbEntity
  8
YKK_F1
 62
     7
100
AcDbLine
 10
0.0
 20
7350.0
 30
0.0
 11
27000.0
 21
7350.0
 31
0.0
  0
LINE
  5
40
330
2D2
100
AcDbEntity
  8
YKK_F1
 62
     7
100
AcDbLine
 10
0.0
 20
7800.0
 30
0.0
 11
27000.0
 21
7800.0
 31
0.0
  0
LINE
  5
41
330
2D2
100
AcDbEntity
  8
YKK_F1
 62
     7
100
AcDbLine
 10
0.0
 20
3900.0
 30
0.0
 11
27000.0
 21
3900.0
 31
0.0
  0
LINE
  5
42
330
2D2
100
AcDbEntity
  8
YKK_F1
 62
     7
100
AcDbLine
 10
0.0
 20
3450.0
 30
0.0
 11
27000.0
 21
3450.0
 31
0.0
  0
LINE
  5
43
330
2D2
100
AcDbEntity
  8
YKK_F1
 62
     7
100
AcDbLine
 10
0.0
 20
3000.0
 30
0.0
 11
27000.0
 21
3000.0
 31
0.0
  0
LINE
  5
44
330
2D2
100
AcDbEntity
  8
YKK_F1
 62
     7
100
AcDbLine
 10
4500.0
 20
0.0
 30
0.0
 11
4500.0
 21
11700.0
 31
0.0
  0
LINE
  5
45
330
2D2
100
AcDbEntity
  8
YKK_F1
 62
     7
100
AcDbLine
 10
13500.0
 20
0.0
 30
0.0
 11
13500.0
 21
11700.0
 31
0.0
  0
LINE
  5
46
330
2D2
100
AcDbEntity
  8
YKK_F1
 62
     7
100
AcDbLine
 10
0.0
 20
0.0
 30
0.0
 11
0.0
 21
20000.0
 31
0.0
  0
LINE
  5
47
330
2D2
100
AcDbEntity
  8
YKK_F1
 62
     7
100
AcDbLine
 10
9000.0
 20
0.0
 30
0.0
 11
9000.0
 21
19500.0
 31
0.0
  0
POINT
  5
48
330
2D2
100
AcDbEntity
  8
YKK_IN
100
AcDbPoint
 10
0.0
 20
0.0
 30
0.0
  0
POINT
  5
4A
330
2D2
100
AcDbEntity
  8
YKK_F1
100
AcDbPoint
 10
0.0
 20
0.0
 30
0.0
  0
POINT
  5
4B
330
2D2
100
AcDbEntity
  8
YKK_N1
100
AcDbPoint
 10
0.0
 20
0.0
 30
0.0
  0
POINT
  5
4C
330
2D2
100
AcDbEntity
  8
YKK_Z1
100
AcDbPoint
 10
0.0
 20
0.0
 30
0.0
  0
POINT
  5
4D
330
2D2
100
AcDbEntity
  8
YKK_A1
100
AcDbPoint
 10
0.0
 20
0.0
 30
0.0
  0
POINT
  5
4E
330
2D2
100
AcDbEntity
  8
YKK_A2
100
AcDbPoint
 10
0.0
 20
0.0
 30
0.0
  0
POINT
  5
50
330
2D2
100
AcDbEntity
  8
YKK_B1
100
AcDbPoint
 10
0.0
 20
0.0
 30
0.0
  0
POINT
  5
52
330
2D2
100
AcDbEntity
  8
YKK_C1
100
AcDbPoint
 10
0.0
 20
0.0
 30
0.0
  0
POINT
  5
54
330
2D2
100
AcDbEntity
  8
YKK_B2
100
AcDbPoint
 10
0.0
 20
0.0
 30
0.0
  0
POINT
  5
56
330
2D2
100
AcDbEntity
  8
YKK_C2
100
AcDbPoint
 10
0.0
 20
0.0
 30
0.0
  0
TEXT
  5
6B
330
2D2
100
AcDbEntity
  8
0
100
AcDbText
 10
500.0
 20
19625.0
 30
0.0
 40
250.0
  1
ＲＥＷＯＯＤ０２　ガーデン倶楽部　リウッドシリーズ　リウッドフェンス
100
AcDbText
  0
TEXT
  5
12E
330
2D2
100
AcDbEntity
  8
0
100
AcDbText
 10
100.0
 20
19187.5
 30
0.0
 40
175.0
  1
リウッドフェンス1型　RNT-21
100
AcDbText
  0
TEXT
  5
223
330
2D2
100
AcDbEntity
  8
0
100
AcDbText
 10
9100.0
 20
19187.5
 30
0.0
 40
175.0
  1
リウッドフェンス2型　RNT-22
100
AcDbText
  0
LINE
  5
224
330
2D2
100
AcDbEntity
  8
YKK_F1
 62
     7
100
AcDbLine
 10
27000.0
 20
0.0
 30
0.0
 11
27000.0
 21
19500.0
 31
0.0
  0
LINE
  5
225
330
2D2
100
AcDbEntity
  8
YKK_F1
 62
     7
100
AcDbLine
 10
27500.0
 20
0.0
 30
0.0
 11
27500.0
 21
20000.0
 31
0.0
  0
LINE
  5
226
330
2D2
100
AcDbEntity
  8
YKK_F1
 62
     7
100
AcDbLine
 10
22500.0
 20
0.0
 30
0.0
 11
22500.0
 21
19500.0
 31
0.0
  0
LINE
  5
227
330
2D2
100
AcDbEntity
  8
YKK_F1
 62
     7
100
AcDbLine
 10
18000.0
 20
0.0
 30
0.0
 11
18000.0
 21
19500.0
 31
0.0
  0
LINE
  5
228
330
2D2
100
AcDbEntity
  8
YKK_F1
 62
     7
100
AcDbLine
 10
18000.0
 20
14700.0
 30
0.0
 11
27000.0
 21
14700.0
 31
0.0
  0
LINE
  5
229
330
2D2
100
AcDbEntity
  8
YKK_F1
 62
     7
100
AcDbLine
 10
18000.0
 20
15150.0
 30
0.0
 11
27000.0
 21
15150.0
 31
0.0
  0
LINE
  5
22A
330
2D2
100
AcDbEntity
  8
YKK_F1
 62
     7
100
AcDbLine
 10
18000.0
 20
15600.0
 30
0.0
 11
27000.0
 21
15600.0
 31
0.0
  0
LINE
  5
55B
330
2D2
100
AcDbEntity
  8
YKK_A1
  6
Continuous
 48
0.5
100
AcDbLine
 10
13030.41998762
 20
14736.73493774
 30
0.0
 11
13030.41998762
 21
15526.73489036
 31
0.0
  0
LINE
  5
55C
330
2D2
100
AcDbEntity
  8
YKK_A1
  6
Continuous
 48
0.5
100
AcDbLine
 10
13105.41998315
 20
14736.73493774
 30
0.0
 11
13030.41998762
 21
14736.73493774
 31
0.0
  0
LINE
  5
55D
330
2D2
100
AcDbEntity
  8
YKK_A1
  6
YCENTER_1
 48
2.0
100
AcDbLine
 10
13067.91998539
 20
14541.73494847
 30
0.0
 11
13067.91998539
 21
14571.73494847
 31
0.0
  0
LINE
  5
55E
330
2D2
100
AcDbEntity
  8
YKK_A1
  6
Continuous
 48
0.5
100
AcDbLine
 10
13105.41998315
 20
15526.73489036
 30
0.0
 11
13105.41998315
 21
14736.73493774
 31
0.0
  0
LINE
  5
55F
330
2D2
100
AcDbEntity
  8
YKK_A1
  6
Continuous
 48
0.5
100
AcDbLine
 10
13087.91998419
 20
14736.73493774
 30
0.0
 11
13087.91998419
 21
14706.73493953
 31
0.0
  0
LINE
  5
560
330
2D2
100
AcDbEntity
  8
YKK_A1
  6
Continuous
 48
0.5
100
AcDbLine
 10
13047.91998658
 20
14736.73493774
 30
0.0
 11
13047.91998658
 21
14706.73493953
 31
0.0
  0
LINE
  5
561
330
2D2
100
AcDbEntity
  8
YKK_A1
  6
Continuous
 48
0.5
100
AcDbLine
 10
13087.91998419
 20
14556.73494847
 30
0.0
 11
13047.91998658
 21
14556.73494847
 31
0.0
  0
LINE
  5
562
330
2D2
100
AcDbEntity
  8
YKK_A1
  6
Continuous
 48
0.5
100
AcDbLine
 10
13087.91998419
 20
14706.73493953
 30
0.0
 11
13087.91998419
 21
14556.73494847
 31
0.0
  0
LINE
  5
563
330
2D2
100
AcDbEntity
  8
YKK_A1
  6
Continuous
 48
0.5
100
AcDbLine
 10
13047.91998658
 20
14706.73493953
 30
0.0
 11
13047.91998658
 21
14556.73494847
 31
0.0
  0
LINE
  5
564
330
2D2
100
AcDbEntity
  8
YKK_A1
  6
Continuous
 48
0.5
100
AcDbLine
 10
14305.41991163
 20
14736.73493774
 30
0.0
 11
14305.41991163
 21
15526.73489036
 31
0.0
  0
LINE
  5
565
330
2D2
100
AcDbEntity
  8
YKK_A1
  6
Continuous
 48
0.5
100
AcDbLine
 10
14230.4199161
 20
14736.73493774
 30
0.0
 11
14305.41991163
 21
14736.73493774
 31
0.0
  0
LINE
  5
566
330
2D2
100
AcDbEntity
  8
YKK_A1
  6
YCENTER_1
 48
2.0
100
AcDbLine
 10
14267.91991386
 20
14541.73494847
 30
0.0
 11
14267.91991386
 21
14571.73494847
 31
0.0
  0
LINE
  5
567
330
2D2
100
AcDbEntity
  8
YKK_A1
  6
Continuous
 48
0.5
100
AcDbLine
 10
14230.4199161
 20
15526.73489036
 30
0.0
 11
14230.4199161
 21
14736.73493774
 31
0.0
  0
LINE
  5
568
330
2D2
100
AcDbEntity
  8
YKK_A1
  6
Continuous
 48
0.5
100
AcDbLine
 10
14287.91991267
 20
14736.73493774
 30
0.0
 11
14287.91991267
 21
14706.73493953
 31
0.0
  0
LINE
  5
569
330
2D2
100
AcDbEntity
  8
YKK_A1
  6
Continuous
 48
0.5
100
AcDbLine
 10
14247.91991505
 20
14736.73493774
 30
0.0
 11
14247.91991505
 21
14706.73493953
 31
0.0
  0
LINE
  5
56A
330
2D2
100
AcDbEntity
  8
YKK_A1
  6
Continuous
 48
0.5
100
AcDbLine
 10
14287.91991267
 20
14556.73494847
 30
0.0
 11
14247.91991505
 21
14556.73494847
 31
0.0
  0
LINE
  5
56B
330
2D2
100
AcDbEntity
  8
YKK_A1
  6
Continuous
 48
0.5
100
AcDbLine
 10
14287.91991267
 20
14706.73493953
 30
0.0
 11
14287.91991267
 21
14556.73494847
 31
0.0
  0
LINE
  5
56C
330
2D2
100
AcDbEntity
  8
YKK_A1
  6
Continuous
 48
0.5
100
AcDbLine
 10
14247.91991505
 20
14706.73493953
 30
0.0
 11
14247.91991505
 21
14556.73494847
 31
0.0
  0
LINE
  5
56D
330
2D2
100
AcDbEntity
  8
YKK_A1
  6
Continuous
 48
0.5
100
AcDbLine
 10
14230.4199161
 20
15506.73489185
 30
0.0
 11
13105.41998315
 21
15506.73489185
 31
0.0
  0
LINE
  5
56E
330
2D2
100
AcDbEntity
  8
YKK_A1
  6
Continuous
 48
0.5
100
AcDbLine
 10
12630.41998762
 20
15451.73489513
 30
0.0
 11
13030.41998762
 21
15451.73489513
 31
0.0
  0
LINE
  5
56F
330
2D2
100
AcDbEntity
  8
YKK_A1
  6
Continuous
 48
0.5
100
AcDbLine
 10
14230.4199161
 20
14861.73493029
 30
0.0
 11
13105.41998315
 21
14861.73493029
 31
0.0
  0
LINE
  5
570
330
2D2
100
AcDbEntity
  8
YKK_A1
  6
Continuous
 48
0.5
100
AcDbLine
 10
13105.41998315
 20
14806.73493357
 30
0.0
 11
14230.4199161
 21
14806.73493357
 31
0.0
  0
LINE
  5
571
330
2D2
100
AcDbEntity
  8
YKK_A1
  6
Continuous
 48
0.5
100
AcDbLine
 10
12630.41998762
 20
14861.73493029
 30
0.0
 11
13030.41998762
 21
14861.73493029
 31
0.0
  0
LINE
  5
572
330
2D2
100
AcDbEntity
  8
YKK_A1
  6
Continuous
 48
0.5
100
AcDbLine
 10
13030.41998762
 20
14806.73493357
 30
0.0
 11
12630.41998762
 21
14806.73493357
 31
0.0
  0
LINE
  5
573
330
2D2
100
AcDbEntity
  8
YKK_A1
  6
Continuous
 48
0.5
100
AcDbLine
 10
13030.41998762
 20
15506.73489185
 30
0.0
 11
12630.41998762
 21
15506.73489185
 31
0.0
  0
LINE
  5
574
330
2D2
100
AcDbEntity
  8
YKK_A1
  6
Continuous
 48
0.5
100
AcDbLine
 10
13105.41998315
 20
15451.73489513
 30
0.0
 11
14230.4199161
 21
15451.73489513
 31
0.0
  0
LINE
  5
575
330
2D2
100
AcDbEntity
  8
YKK_A1
  6
Continuous
 48
0.5
100
AcDbLine
 10
13736.64577555
 20
15451.73489513
 30
0.0
 11
13696.20421919
 21
15411.29333876
 31
0.0
  0
LINE
  5
576
330
2D2
100
AcDbEntity
  8
YKK_A1
  6
Continuous
 48
0.5
100
AcDbLine
 10
13680.07723642
 20
15451.73489513
 30
0.0
 11
13667.91994962
 21
15439.57760833
 31
0.0
  0
LINE
  5
577
330
2D2
100
AcDbEntity
  8
YKK_A1
  6
Continuous
 48
0.5
100
AcDbLine
 10
13906.35139292
 20
15451.73489513
 30
0.0
 11
13865.90983656
 21
15411.29333876
 31
0.0
  0
LINE
  5
578
330
2D2
100
AcDbEntity
  8
YKK_A1
  6
Continuous
 48
0.5
100
AcDbLine
 10
13849.78285379
 20
15451.73489513
 30
0.0
 11
13837.62556699
 21
15439.57760833
 31
0.0
  0
LINE
  5
579
330
2D2
100
AcDbEntity
  8
YKK_A1
  6
Continuous
 48
0.5
100
AcDbLine
 10
14076.05701029
 20
15451.73489513
 30
0.0
 11
14035.61545392
 21
15411.29333876
 31
0.0
  0
LINE
  5
57A
330
2D2
100
AcDbEntity
  8
YKK_A1
  6
Continuous
 48
0.5
100
AcDbLine
 10
14019.48847116
 20
15451.73489513
 30
0.0
 11
14007.33118436
 21
15439.57760833
 31
0.0
  0
LINE
  5
57B
330
2D2
100
AcDbEntity
  8
YKK_A1
  6
Continuous
 48
0.5
100
AcDbLine
 10
14230.4199161
 20
15436.39218357
 30
0.0
 11
14205.32107129
 21
15411.29333876
 31
0.0
  0
LINE
  5
57C
330
2D2
100
AcDbEntity
  8
YKK_A1
  6
Continuous
 48
0.5
100
AcDbLine
 10
14189.19408853
 20
15451.73489513
 30
0.0
 11
14177.03680173
 21
15439.57760833
 31
0.0
  0
LINE
  5
57D
330
2D2
100
AcDbEntity
  8
YKK_A1
  6
Continuous
 48
0.5
100
AcDbLine
 10
14230.4199161
 20
15266.6865662
 30
0.0
 11
14205.32107129
 21
15241.5877214
 31
0.0
  0
LINE
  5
57E
330
2D2
100
AcDbEntity
  8
YKK_A1
  6
Continuous
 48
0.5
100
AcDbLine
 10
14230.4199161
 20
15323.25510532
 30
0.0
 11
14177.03680173
 21
15269.87199096
 31
0.0
  0
LINE
  5
57F
330
2D2
100
AcDbEntity
  8
YKK_A1
  6
Continuous
 48
0.5
100
AcDbLine
 10
14230.4199161
 20
14927.27533146
 30
0.0
 11
14205.32107129
 21
14902.17648666
 31
0.0
  0
LINE
  5
580
330
2D2
100
AcDbEntity
  8
YKK_A1
  6
Continuous
 48
0.5
100
AcDbLine
 10
14230.4199161
 20
14983.84387058
 30
0.0
 11
14177.03680173
 21
14930.46075622
 31
0.0
  0
LINE
  5
581
330
2D2
100
AcDbEntity
  8
YKK_A1
  6
Continuous
 48
0.5
100
AcDbLine
 10
14092.18399305
 20
15298.15626052
 30
0.0
 11
14035.61545392
 21
15241.5877214
 31
0.0
  0
LINE
  5
582
330
2D2
100
AcDbEntity
  8
YKK_A1
  6
Continuous
 48
0.5
100
AcDbLine
 10
14063.89972349
 20
15326.44053008
 30
0.0
 11
14007.33118436
 21
15269.87199096
 31
0.0
  0
LINE
  5
583
330
2D2
100
AcDbEntity
  8
YKK_A1
  6
Continuous
 48
0.5
100
AcDbLine
 10
14007.33118436
 20
15383.0090692
 30
0.0
 11
13950.76264524
 21
15326.44053008
 31
0.0
  0
LINE
  5
584
330
2D2
100
AcDbEntity
  8
YKK_A1
  6
Continuous
 48
0.5
100
AcDbLine
 10
13979.0469148
 20
15411.29333876
 30
0.0
 11
13922.47837568
 21
15354.72479964
 31
0.0
  0
LINE
  5
585
330
2D2
100
AcDbEntity
  8
YKK_A1
  6
Continuous
 48
0.5
100
AcDbLine
 10
14092.18399305
 20
15128.45064315
 30
0.0
 11
14035.61545392
 21
15071.88210403
 31
0.0
  0
LINE
  5
586
330
2D2
100
AcDbEntity
  8
YKK_A1
  6
Continuous
 48
0.5
100
AcDbLine
 10
14063.89972349
 20
15156.73491271
 30
0.0
 11
14007.33118436
 21
15100.16637359
 31
0.0
  0
LINE
  5
587
330
2D2
100
AcDbEntity
  8
YKK_A1
  6
Continuous
 48
0.5
100
AcDbLine
 10
14007.33118436
 20
15213.30345183
 30
0.0
 11
13950.76264524
 21
15156.73491271
 31
0.0
  0
LINE
  5
588
330
2D2
100
AcDbEntity
  8
YKK_A1
  6
Continuous
 48
0.5
100
AcDbLine
 10
13979.0469148
 20
15241.5877214
 30
0.0
 11
13922.47837568
 21
15185.01918227
 31
0.0
  0
LINE
  5
589
330
2D2
100
AcDbEntity
  8
YKK_A1
  6
Continuous
 48
0.5
100
AcDbLine
 10
13922.47837568
 20
15298.15626052
 30
0.0
 11
13865.90983656
 21
15241.5877214
 31
0.0
  0
LINE
  5
58A
330
2D2
100
AcDbEntity
  8
YKK_A1
  6
Continuous
 48
0.5
100
AcDbLine
 10
13894.19410612
 20
15326.44053008
 30
0.0
 11
13837.62556699
 21
15269.87199096
 31
0.0
  0
LINE
  5
58B
330
2D2
100
AcDbEntity
  8
YKK_A1
  6
Continuous
 48
0.5
100
AcDbLine
 10
13837.62556699
 20
15383.0090692
 30
0.0
 11
13781.05702787
 21
15326.44053008
 31
0.0
  0
LINE
  5
58C
330
2D2
100
AcDbEntity
  8
YKK_A1
  6
Continuous
 48
0.5
100
AcDbLine
 10
13809.34129743
 20
15411.29333876
 30
0.0
 11
13752.77275831
 21
15354.72479964
 31
0.0
  0
LINE
  5
58D
330
2D2
100
AcDbEntity
  8
YKK_A1
  6
Continuous
 48
0.5
100
AcDbLine
 10
14230.4199161
 20
15096.98094883
 30
0.0
 11
14205.32107129
 21
15071.88210403
 31
0.0
  0
LINE
  5
58E
330
2D2
100
AcDbEntity
  8
YKK_A1
  6
Continuous
 48
0.5
100
AcDbLine
 10
14230.4199161
 20
15153.54948795
 30
0.0
 11
14177.03680173
 21
15100.16637359
 31
0.0
  0
LINE
  5
58F
330
2D2
100
AcDbEntity
  8
YKK_A1
  6
Continuous
 48
0.5
100
AcDbLine
 10
14007.33118436
 20
15043.59783446
 30
0.0
 11
13950.76264524
 21
14987.02929534
 31
0.0
  0
LINE
  5
590
330
2D2
100
AcDbEntity
  8
YKK_A1
  6
Continuous
 48
0.5
100
AcDbLine
 10
13979.0469148
 20
15071.88210403
 30
0.0
 11
13922.47837568
 21
15015.3135649
 31
0.0
  0
LINE
  5
591
330
2D2
100
AcDbEntity
  8
YKK_A1
  6
Continuous
 48
0.5
100
AcDbLine
 10
13922.47837568
 20
15128.45064315
 30
0.0
 11
13865.90983656
 21
15071.88210403
 31
0.0
  0
LINE
  5
592
330
2D2
100
AcDbEntity
  8
YKK_A1
  6
Continuous
 48
0.5
100
AcDbLine
 10
13894.19410612
 20
15156.73491271
 30
0.0
 11
13837.62556699
 21
15100.16637359
 31
0.0
  0
LINE
  5
593
330
2D2
100
AcDbEntity
  8
YKK_A1
  6
Continuous
 48
0.5
100
AcDbLine
 10
13837.62556699
 20
15213.30345183
 30
0.0
 11
13781.05702787
 21
15156.73491271
 31
0.0
  0
LINE
  5
594
330
2D2
100
AcDbEntity
  8
YKK_A1
  6
Continuous
 48
0.5
100
AcDbLine
 10
13809.34129743
 20
15241.5877214
 30
0.0
 11
13752.77275831
 21
15185.01918227
 31
0.0
  0
LINE
  5
595
330
2D2
100
AcDbEntity
  8
YKK_A1
  6
Continuous
 48
0.5
100
AcDbLine
 10
13752.77275831
 20
15298.15626052
 30
0.0
 11
13696.20421919
 21
15241.5877214
 31
0.0
  0
LINE
  5
596
330
2D2
100
AcDbEntity
  8
YKK_A1
  6
Continuous
 48
0.5
100
AcDbLine
 10
13724.48848875
 20
15326.44053008
 30
0.0
 11
13667.91994962
 21
15269.87199096
 31
0.0
  0
LINE
  5
597
330
2D2
100
AcDbEntity
  8
YKK_A1
  6
Continuous
 48
0.5
100
AcDbLine
 10
13667.91994962
 20
15383.0090692
 30
0.0
 11
13611.3514105
 21
15326.44053008
 31
0.0
  0
LINE
  5
598
330
2D2
100
AcDbEntity
  8
YKK_A1
  6
Continuous
 48
0.5
100
AcDbLine
 10
13639.63568006
 20
15411.29333876
 30
0.0
 11
13583.06714094
 21
15354.72479964
 31
0.0
  0
LINE
  5
599
330
2D2
100
AcDbEntity
  8
YKK_A1
  6
Continuous
 48
0.5
100
AcDbLine
 10
14007.33118436
 20
14873.89221709
 30
0.0
 11
13995.17389756
 21
14861.73493029
 31
0.0
  0
LINE
  5
59A
330
2D2
100
AcDbEntity
  8
YKK_A1
  6
Continuous
 48
0.5
100
AcDbLine
 10
13979.0469148
 20
14902.17648666
 30
0.0
 11
13938.60535844
 21
14861.73493029
 31
0.0
  0
LINE
  5
59B
330
2D2
100
AcDbEntity
  8
YKK_A1
  6
Continuous
 48
0.5
100
AcDbLine
 10
13922.47837568
 20
14958.74502578
 30
0.0
 11
13865.90983656
 21
14902.17648666
 31
0.0
  0
LINE
  5
59C
330
2D2
100
AcDbEntity
  8
YKK_A1
  6
Continuous
 48
0.5
100
AcDbLine
 10
13894.19410612
 20
14987.02929534
 30
0.0
 11
13837.62556699
 21
14930.46075622
 31
0.0
  0
LINE
  5
59D
330
2D2
100
AcDbEntity
  8
YKK_A1
  6
Continuous
 48
0.5
100
AcDbLine
 10
13837.62556699
 20
15043.59783446
 30
0.0
 11
13781.05702787
 21
14987.02929534
 31
0.0
  0
LINE
  5
59E
330
2D2
100
AcDbEntity
  8
YKK_A1
  6
Continuous
 48
0.5
100
AcDbLine
 10
13809.34129743
 20
15071.88210403
 30
0.0
 11
13752.77275831
 21
15015.3135649
 31
0.0
  0
LINE
  5
59F
330
2D2
100
AcDbEntity
  8
YKK_A1
  6
Continuous
 48
0.5
100
AcDbLine
 10
13752.77275831
 20
15128.45064315
 30
0.0
 11
13696.20421919
 21
15071.88210403
 31
0.0
  0
LINE
  5
5A0
330
2D2
100
AcDbEntity
  8
YKK_A1
  6
Continuous
 48
0.5
100
AcDbLine
 10
13724.48848875
 20
15156.73491271
 30
0.0
 11
13667.91994962
 21
15100.16637359
 31
0.0
  0
LINE
  5
5A1
330
2D2
100
AcDbEntity
  8
YKK_A1
  6
Continuous
 48
0.5
100
AcDbLine
 10
13667.91994962
 20
15213.30345183
 30
0.0
 11
13611.3514105
 21
15156.73491271
 31
0.0
  0
LINE
  5
5A2
330
2D2
100
AcDbEntity
  8
YKK_A1
  6
Continuous
 48
0.5
100
AcDbLine
 10
13639.63568006
 20
15241.5877214
 30
0.0
 11
13583.06714094
 21
15185.01918227
 31
0.0
  0
LINE
  5
5A3
330
2D2
100
AcDbEntity
  8
YKK_A1
  6
Continuous
 48
0.5
100
AcDbLine
 10
13583.06714094
 20
15298.15626052
 30
0.0
 11
13526.49860182
 21
15241.5877214
 31
0.0
  0
LINE
  5
5A4
330
2D2
100
AcDbEntity
  8
YKK_A1
  6
Continuous
 48
0.5
100
AcDbLine
 10
13554.78287138
 20
15326.44053008
 30
0.0
 11
13498.21433225
 21
15269.87199096
 31
0.0
  0
LINE
  5
5A5
330
2D2
100
AcDbEntity
  8
YKK_A1
  6
Continuous
 48
0.5
100
AcDbLine
 10
13526.49860182
 20
15411.29333876
 30
0.0
 11
13566.94015818
 21
15451.73489513
 31
0.0
  0
LINE
  5
5A6
330
2D2
100
AcDbEntity
  8
YKK_A1
  6
Continuous
 48
0.5
100
AcDbLine
 10
13498.21433225
 20
15439.57760833
 30
0.0
 11
13510.37161906
 21
15451.73489513
 31
0.0
  0
LINE
  5
5A7
330
2D2
100
AcDbEntity
  8
YKK_A1
  6
Continuous
 48
0.5
100
AcDbLine
 10
13328.50871488
 20
15439.57760833
 30
0.0
 11
13340.66600169
 21
15451.73489513
 31
0.0
  0
LINE
  5
5A8
330
2D2
100
AcDbEntity
  8
YKK_A1
  6
Continuous
 48
0.5
100
AcDbLine
 10
13356.79298445
 20
15411.29333876
 30
0.0
 11
13397.23454081
 21
15451.73489513
 31
0.0
  0
LINE
  5
5A9
330
2D2
100
AcDbEntity
  8
YKK_A1
  6
Continuous
 48
0.5
100
AcDbLine
 10
13413.36152357
 20
15354.72479964
 30
0.0
 11
13469.93006269
 21
15411.29333876
 31
0.0
  0
LINE
  5
5AA
330
2D2
100
AcDbEntity
  8
YKK_A1
  6
Continuous
 48
0.5
100
AcDbLine
 10
13441.64579313
 20
15326.44053008
 30
0.0
 11
13498.21433225
 21
15383.0090692
 31
0.0
  0
LINE
  5
5AB
330
2D2
100
AcDbEntity
  8
YKK_A1
  6
Continuous
 48
0.5
100
AcDbLine
 10
13469.93006269
 20
15241.5877214
 30
0.0
 11
13413.36152357
 21
15185.01918227
 31
0.0
  0
LINE
  5
5AC
330
2D2
100
AcDbEntity
  8
YKK_A1
  6
Continuous
 48
0.5
100
AcDbLine
 10
13498.21433225
 20
15213.30345183
 30
0.0
 11
13441.64579313
 21
15156.73491271
 31
0.0
  0
LINE
  5
5AD
330
2D2
100
AcDbEntity
  8
YKK_A1
  6
Continuous
 48
0.5
100
AcDbLine
 10
13554.78287138
 20
15156.73491271
 30
0.0
 11
13498.21433225
 21
15100.16637359
 31
0.0
  0
LINE
  5
5AE
330
2D2
100
AcDbEntity
  8
YKK_A1
  6
Continuous
 48
0.5
100
AcDbLine
 10
13583.06714094
 20
15128.45064315
 30
0.0
 11
13526.49860182
 21
15071.88210403
 31
0.0
  0
LINE
  5
5AF
330
2D2
100
AcDbEntity
  8
YKK_A1
  6
Continuous
 48
0.5
100
AcDbLine
 10
13639.63568006
 20
15071.88210403
 30
0.0
 11
13583.06714094
 21
15015.3135649
 31
0.0
  0
LINE
  5
5B0
330
2D2
100
AcDbEntity
  8
YKK_A1
  6
Continuous
 48
0.5
100
AcDbLine
 10
13667.91994962
 20
15043.59783446
 30
0.0
 11
13611.3514105
 21
14987.02929534
 31
0.0
  0
LINE
  5
5B1
330
2D2
100
AcDbEntity
  8
YKK_A1
  6
Continuous
 48
0.5
100
AcDbLine
 10
13724.48848875
 20
14987.02929534
 30
0.0
 11
13667.91994962
 21
14930.46075622
 31
0.0
  0
LINE
  5
5B2
330
2D2
100
AcDbEntity
  8
YKK_A1
  6
Continuous
 48
0.5
100
AcDbLine
 10
13752.77275831
 20
14958.74502578
 30
0.0
 11
13696.20421919
 21
14902.17648666
 31
0.0
  0
LINE
  5
5B3
330
2D2
100
AcDbEntity
  8
YKK_A1
  6
Continuous
 48
0.5
100
AcDbLine
 10
13809.34129743
 20
14902.17648666
 30
0.0
 11
13768.89974107
 21
14861.73493029
 31
0.0
  0
LINE
  5
5B4
330
2D2
100
AcDbEntity
  8
YKK_A1
  6
Continuous
 48
0.5
100
AcDbLine
 10
13837.62556699
 20
14873.89221709
 30
0.0
 11
13825.46828019
 21
14861.73493029
 31
0.0
  0
LINE
  5
5B5
330
2D2
100
AcDbEntity
  8
YKK_A1
  6
Continuous
 48
0.5
100
AcDbLine
 10
13667.91994962
 20
14873.89221709
 30
0.0
 11
13655.76266282
 21
14861.73493029
 31
0.0
  0
LINE
  5
5B6
330
2D2
100
AcDbEntity
  8
YKK_A1
  6
Continuous
 48
0.5
100
AcDbLine
 10
13639.63568006
 20
14902.17648666
 30
0.0
 11
13599.1941237
 21
14861.73493029
 31
0.0
  0
LINE
  5
5B7
330
2D2
100
AcDbEntity
  8
YKK_A1
  6
Continuous
 48
0.5
100
AcDbLine
 10
13583.06714094
 20
14958.74502578
 30
0.0
 11
13526.49860182
 21
14902.17648666
 31
0.0
  0
LINE
  5
5B8
330
2D2
100
AcDbEntity
  8
YKK_A1
  6
Continuous
 48
0.5
100
AcDbLine
 10
13554.78287138
 20
14987.02929534
 30
0.0
 11
13498.21433225
 21
14930.46075622
 31
0.0
  0
LINE
  5
5B9
330
2D2
100
AcDbEntity
  8
YKK_A1
  6
Continuous
 48
0.5
100
AcDbLine
 10
13498.21433225
 20
15043.59783446
 30
0.0
 11
13441.64579313
 21
14987.02929534
 31
0.0
  0
LINE
  5
5BA
330
2D2
100
AcDbEntity
  8
YKK_A1
  6
Continuous
 48
0.5
100
AcDbLine
 10
13469.93006269
 20
15071.88210403
 30
0.0
 11
13413.36152357
 21
15015.3135649
 31
0.0
  0
LINE
  5
5BB
330
2D2
100
AcDbEntity
  8
YKK_A1
  6
Continuous
 48
0.5
100
AcDbLine
 10
13413.36152357
 20
15128.45064315
 30
0.0
 11
13356.79298445
 21
15071.88210403
 31
0.0
  0
LINE
  5
5BC
330
2D2
100
AcDbEntity
  8
YKK_A1
  6
Continuous
 48
0.5
100
AcDbLine
 10
13385.07725401
 20
15156.73491271
 30
0.0
 11
13328.50871488
 21
15100.16637359
 31
0.0
  0
LINE
  5
5BD
330
2D2
100
AcDbEntity
  8
YKK_A1
  6
Continuous
 48
0.5
100
AcDbLine
 10
13356.79298445
 20
15241.5877214
 30
0.0
 11
13413.36152357
 21
15298.15626052
 31
0.0
  0
LINE
  5
5BE
330
2D2
100
AcDbEntity
  8
YKK_A1
  6
Continuous
 48
0.5
100
AcDbLine
 10
13328.50871488
 20
15269.87199096
 30
0.0
 11
13385.07725401
 21
15326.44053008
 31
0.0
  0
LINE
  5
5BF
330
2D2
100
AcDbEntity
  8
YKK_A1
  6
Continuous
 48
0.5
100
AcDbLine
 10
13271.94017576
 20
15326.44053008
 30
0.0
 11
13328.50871488
 21
15383.0090692
 31
0.0
  0
LINE
  5
5C0
330
2D2
100
AcDbEntity
  8
YKK_A1
  6
Continuous
 48
0.5
100
AcDbLine
 10
13243.6559062
 20
15354.72479964
 30
0.0
 11
13300.22444532
 21
15411.29333876
 31
0.0
  0
LINE
  5
5C1
330
2D2
100
AcDbEntity
  8
YKK_A1
  6
Continuous
 48
0.5
100
AcDbLine
 10
13187.08736708
 20
15411.29333876
 30
0.0
 11
13227.52892344
 21
15451.73489513
 31
0.0
  0
LINE
  5
5C2
330
2D2
100
AcDbEntity
  8
YKK_A1
  6
Continuous
 48
0.5
100
AcDbLine
 10
13158.80309752
 20
15439.57760833
 30
0.0
 11
13170.96038432
 21
15451.73489513
 31
0.0
  0
LINE
  5
5C3
330
2D2
100
AcDbEntity
  8
YKK_A1
  6
Continuous
 48
0.5
100
AcDbLine
 10
13105.41998315
 20
15386.19449396
 30
0.0
 11
13130.51882795
 21
15411.29333876
 31
0.0
  0
LINE
  5
5C4
330
2D2
100
AcDbEntity
  8
YKK_A1
  6
Continuous
 48
0.5
100
AcDbLine
 10
13105.41998315
 20
15329.62595484
 30
0.0
 11
13158.80309752
 21
15383.0090692
 31
0.0
  0
LINE
  5
5C5
330
2D2
100
AcDbEntity
  8
YKK_A1
  6
Continuous
 48
0.5
100
AcDbLine
 10
13158.80309752
 20
15269.87199096
 30
0.0
 11
13215.37163664
 21
15326.44053008
 31
0.0
  0
LINE
  5
5C6
330
2D2
100
AcDbEntity
  8
YKK_A1
  6
Continuous
 48
0.5
100
AcDbLine
 10
13187.08736708
 20
15241.5877214
 30
0.0
 11
13243.6559062
 21
15298.15626052
 31
0.0
  0
LINE
  5
5C7
330
2D2
100
AcDbEntity
  8
YKK_A1
  6
Continuous
 48
0.5
100
AcDbLine
 10
13243.6559062
 20
15185.01918227
 30
0.0
 11
13300.22444532
 21
15241.5877214
 31
0.0
  0
LINE
  5
5C8
330
2D2
100
AcDbEntity
  8
YKK_A1
  6
Continuous
 48
0.5
100
AcDbLine
 10
13271.94017576
 20
15156.73491271
 30
0.0
 11
13328.50871488
 21
15213.30345183
 31
0.0
  0
LINE
  5
5C9
330
2D2
100
AcDbEntity
  8
YKK_A1
  6
Continuous
 48
0.5
100
AcDbLine
 10
13300.22444532
 20
15071.88210403
 30
0.0
 11
13243.6559062
 21
15015.3135649
 31
0.0
  0
LINE
  5
5CA
330
2D2
100
AcDbEntity
  8
YKK_A1
  6
Continuous
 48
0.5
100
AcDbLine
 10
13328.50871488
 20
15043.59783446
 30
0.0
 11
13271.94017576
 21
14987.02929534
 31
0.0
  0
LINE
  5
5CB
330
2D2
100
AcDbEntity
  8
YKK_A1
  6
Continuous
 48
0.5
100
AcDbLine
 10
13385.07725401
 20
14987.02929534
 30
0.0
 11
13328.50871488
 21
14930.46075622
 31
0.0
  0
LINE
  5
5CC
330
2D2
100
AcDbEntity
  8
YKK_A1
  6
Continuous
 48
0.5
100
AcDbLine
 10
13413.36152357
 20
14958.74502578
 30
0.0
 11
13356.79298445
 21
14902.17648666
 31
0.0
  0
LINE
  5
5CD
330
2D2
100
AcDbEntity
  8
YKK_A1
  6
Continuous
 48
0.5
100
AcDbLine
 10
13469.93006269
 20
14902.17648666
 30
0.0
 11
13429.48850633
 21
14861.73493029
 31
0.0
  0
LINE
  5
5CE
330
2D2
100
AcDbEntity
  8
YKK_A1
  6
Continuous
 48
0.5
100
AcDbLine
 10
13498.21433225
 20
14873.89221709
 30
0.0
 11
13486.05704545
 21
14861.73493029
 31
0.0
  0
LINE
  5
5CF
330
2D2
100
AcDbEntity
  8
YKK_A1
  6
Continuous
 48
0.5
100
AcDbLine
 10
13328.50871488
 20
14873.89221709
 30
0.0
 11
13316.35142808
 21
14861.73493029
 31
0.0
  0
LINE
  5
5D0
330
2D2
100
AcDbEntity
  8
YKK_A1
  6
Continuous
 48
0.5
100
AcDbLine
 10
13300.22444532
 20
14902.17648666
 30
0.0
 11
13259.78288896
 21
14861.73493029
 31
0.0
  0
LINE
  5
5D1
330
2D2
100
AcDbEntity
  8
YKK_A1
  6
Continuous
 48
0.5
100
AcDbLine
 10
13243.6559062
 20
14958.74502578
 30
0.0
 11
13187.08736708
 21
14902.17648666
 31
0.0
  0
LINE
  5
5D2
330
2D2
100
AcDbEntity
  8
YKK_A1
  6
Continuous
 48
0.5
100
AcDbLine
 10
13215.37163664
 20
14987.02929534
 30
0.0
 11
13158.80309752
 21
14930.46075622
 31
0.0
  0
LINE
  5
5D3
330
2D2
100
AcDbEntity
  8
YKK_A1
  6
Continuous
 48
0.5
100
AcDbLine
 10
13187.08736708
 20
15071.88210403
 30
0.0
 11
13243.6559062
 21
15128.45064315
 31
0.0
  0
LINE
  5
5D4
330
2D2
100
AcDbEntity
  8
YKK_A1
  6
Continuous
 48
0.5
100
AcDbLine
 10
13158.80309752
 20
15100.16637359
 30
0.0
 11
13215.37163664
 21
15156.73491271
 31
0.0
  0
LINE
  5
5D5
330
2D2
100
AcDbEntity
  8
YKK_A1
  6
Continuous
 48
0.5
100
AcDbLine
 10
13105.41998315
 20
15159.92033747
 30
0.0
 11
13158.80309752
 21
15213.30345183
 31
0.0
  0
LINE
  5
5D6
330
2D2
100
AcDbEntity
  8
YKK_A1
  6
Continuous
 48
0.5
100
AcDbLine
 10
13105.41998315
 20
15216.48887659
 30
0.0
 11
13130.51882795
 21
15241.5877214
 31
0.0
  0
LINE
  5
5D7
330
2D2
100
AcDbEntity
  8
YKK_A1
  6
Continuous
 48
0.5
100
AcDbLine
 10
13105.41998315
 20
15046.78325922
 30
0.0
 11
13130.51882795
 21
15071.88210403
 31
0.0
  0
LINE
  5
5D8
330
2D2
100
AcDbEntity
  8
YKK_A1
  6
Continuous
 48
0.5
100
AcDbLine
 10
13105.41998315
 20
14990.2147201
 30
0.0
 11
13158.80309752
 21
15043.59783446
 31
0.0
  0
LINE
  5
5D9
330
2D2
100
AcDbEntity
  8
YKK_A1
  6
Continuous
 48
0.5
100
AcDbLine
 10
13130.51882795
 20
14902.17648666
 30
0.0
 11
13105.41998315
 21
14877.07764185
 31
0.0
  0
LINE
  5
5DA
330
2D2
100
AcDbEntity
  8
YKK_A1
  6
Continuous
 48
0.5
100
AcDbLine
 10
13158.80309752
 20
14873.89221709
 30
0.0
 11
13146.64581071
 21
14861.73493029
 31
0.0
  0
LINE
  5
5DB
330
2D2
100
AcDbEntity
  8
YKK_A1
  6
Continuous
 48
0.5
100
AcDbLine
 10
14148.75253217
 20
15411.29333876
 30
0.0
 11
14092.18399305
 21
15354.72479964
 31
0.0
  0
LINE
  5
5DC
330
2D2
100
AcDbEntity
  8
YKK_A1
  6
Continuous
 48
0.5
100
AcDbLine
 10
14177.03680173
 20
15383.0090692
 30
0.0
 11
14120.46826261
 21
15326.44053008
 31
0.0
  0
LINE
  5
5DD
330
2D2
100
AcDbEntity
  8
YKK_A1
  6
Continuous
 48
0.5
100
AcDbLine
 10
14148.75253217
 20
15241.5877214
 30
0.0
 11
14092.18399305
 21
15185.01918227
 31
0.0
  0
LINE
  5
5DE
330
2D2
100
AcDbEntity
  8
YKK_A1
  6
Continuous
 48
0.5
100
AcDbLine
 10
14177.03680173
 20
15213.30345183
 30
0.0
 11
14120.46826261
 21
15156.73491271
 31
0.0
  0
LINE
  5
5DF
330
2D2
100
AcDbEntity
  8
YKK_A1
  6
Continuous
 48
0.5
100
AcDbLine
 10
14148.75253217
 20
15071.88210403
 30
0.0
 11
14092.18399305
 21
15015.3135649
 31
0.0
  0
LINE
  5
5E0
330
2D2
100
AcDbEntity
  8
YKK_A1
  6
Continuous
 48
0.5
100
AcDbLine
 10
14177.03680173
 20
15043.59783446
 30
0.0
 11
14120.46826261
 21
14987.02929534
 31
0.0
  0
LINE
  5
5E1
330
2D2
100
AcDbEntity
  8
YKK_A1
  6
Continuous
 48
0.5
100
AcDbLine
 10
14063.89972349
 20
14987.02929534
 30
0.0
 11
14007.33118436
 21
14930.46075622
 31
0.0
  0
LINE
  5
5E2
330
2D2
100
AcDbEntity
  8
YKK_A1
  6
Continuous
 48
0.5
100
AcDbLine
 10
14092.18399305
 20
14958.74502578
 30
0.0
 11
14035.61545392
 21
14902.17648666
 31
0.0
  0
LINE
  5
5E3
330
2D2
100
AcDbEntity
  8
YKK_A1
  6
Continuous
 48
0.5
100
AcDbLine
 10
14148.75253217
 20
14902.17648666
 30
0.0
 11
14108.31097581
 21
14861.73493029
 31
0.0
  0
LINE
  5
5E4
330
2D2
100
AcDbEntity
  8
YKK_A1
  6
Continuous
 48
0.5
100
AcDbLine
 10
14177.03680173
 20
14873.89221709
 30
0.0
 11
14164.87951493
 21
14861.73493029
 31
0.0
  0
LINE
  5
5E5
330
2D2
100
AcDbEntity
  8
YKK_A1
  6
Continuous
 48
0.5
100
AcDbLine
 10
14230.4199161
 20
15216.48887659
 30
0.0
 11
13995.17389756
 21
15451.73489513
 31
0.0
  0
LINE
  5
5E6
330
2D2
100
AcDbEntity
  8
YKK_A1
  6
Continuous
 48
0.5
100
AcDbLine
 10
14230.4199161
 20
15159.92033747
 30
0.0
 11
13938.60535844
 21
15451.73489513
 31
0.0
  0
LINE
  5
5E7
330
2D2
100
AcDbEntity
  8
YKK_A1
  6
Continuous
 48
0.5
100
AcDbLine
 10
14230.4199161
 20
15046.78325922
 30
0.0
 11
13825.46828019
 21
15451.73489513
 31
0.0
  0
LINE
  5
5E8
330
2D2
100
AcDbEntity
  8
YKK_A1
  6
Continuous
 48
0.5
100
AcDbLine
 10
14230.4199161
 20
14990.2147201
 30
0.0
 11
13768.89974107
 21
15451.73489513
 31
0.0
  0
LINE
  5
5E9
330
2D2
100
AcDbEntity
  8
YKK_A1
  6
Continuous
 48
0.5
100
AcDbLine
 10
14230.4199161
 20
14877.07764185
 30
0.0
 11
13655.76266282
 21
15451.73489513
 31
0.0
  0
LINE
  5
5EA
330
2D2
100
AcDbEntity
  8
YKK_A1
  6
Continuous
 48
0.5
100
AcDbLine
 10
14189.19408853
 20
14861.73493029
 30
0.0
 11
13599.1941237
 21
15451.73489513
 31
0.0
  0
LINE
  5
5EB
330
2D2
100
AcDbEntity
  8
YKK_A1
  6
Continuous
 48
0.5
100
AcDbLine
 10
13429.48850633
 20
15451.73489513
 30
0.0
 11
14019.48847116
 21
14861.73493029
 31
0.0
  0
LINE
  5
5EC
330
2D2
100
AcDbEntity
  8
YKK_A1
  6
Continuous
 48
0.5
100
AcDbLine
 10
13486.05704545
 20
15451.73489513
 30
0.0
 11
14076.05701029
 21
14861.73493029
 31
0.0
  0
LINE
  5
5ED
330
2D2
100
AcDbEntity
  8
YKK_A1
  6
Continuous
 48
0.5
100
AcDbLine
 10
13259.78288896
 20
15451.73489513
 30
0.0
 11
13849.78285379
 21
14861.73493029
 31
0.0
  0
LINE
  5
5EE
330
2D2
100
AcDbEntity
  8
YKK_A1
  6
Continuous
 48
0.5
100
AcDbLine
 10
13316.35142808
 20
15451.73489513
 30
0.0
 11
13906.35139292
 21
14861.73493029
 31
0.0
  0
LINE
  5
5EF
330
2D2
100
AcDbEntity
  8
YKK_A1
  6
Continuous
 48
0.5
100
AcDbLine
 10
13105.41998315
 20
15436.39218357
 30
0.0
 11
13680.07723642
 21
14861.73493029
 31
0.0
  0
LINE
  5
5F0
330
2D2
100
AcDbEntity
  8
YKK_A1
  6
Continuous
 48
0.5
100
AcDbLine
 10
13146.64581071
 20
15451.73489513
 30
0.0
 11
13736.64577555
 21
14861.73493029
 31
0.0
  0
LINE
  5
5F1
330
2D2
100
AcDbEntity
  8
YKK_A1
  6
Continuous
 48
0.5
100
AcDbLine
 10
13105.41998315
 20
15266.6865662
 30
0.0
 11
13510.37161906
 21
14861.73493029
 31
0.0
  0
LINE
  5
5F2
330
2D2
100
AcDbEntity
  8
YKK_A1
  6
Continuous
 48
0.5
100
AcDbLine
 10
13105.41998315
 20
15323.25510532
 30
0.0
 11
13566.94015818
 21
14861.73493029
 31
0.0
  0
LINE
  5
5F3
330
2D2
100
AcDbEntity
  8
YKK_A1
  6
Continuous
 48
0.5
100
AcDbLine
 10
13105.41998315
 20
15096.98094883
 30
0.0
 11
13340.66600169
 21
14861.73493029
 31
0.0
  0
LINE
  5
5F4
330
2D2
100
AcDbEntity
  8
YKK_A1
  6
Continuous
 48
0.5
100
AcDbLine
 10
13105.41998315
 20
15153.54948795
 30
0.0
 11
13397.23454081
 21
14861.73493029
 31
0.0
  0
LINE
  5
5F5
330
2D2
100
AcDbEntity
  8
YKK_A1
  6
Continuous
 48
0.5
100
AcDbLine
 10
13105.41998315
 20
14927.27533146
 30
0.0
 11
13170.96038432
 21
14861.73493029
 31
0.0
  0
LINE
  5
5F6
330
2D2
100
AcDbEntity
  8
YKK_A1
  6
Continuous
 48
0.5
100
AcDbLine
 10
13105.41998315
 20
14983.84387058
 30
0.0
 11
13227.52892344
 21
14861.73493029
 31
0.0
  0
LINE
  5
5F7
330
2D2
100
AcDbEntity
  8
YKK_A1
  6
Continuous
 48
0.5
100
AcDbLine
 10
14230.4199161
 20
15329.62595484
 30
0.0
 11
14108.31097581
 21
15451.73489513
 31
0.0
  0
LINE
  5
5F8
330
2D2
100
AcDbEntity
  8
YKK_A1
  6
Continuous
 48
0.5
100
AcDbLine
 10
14230.4199161
 20
15386.19449396
 30
0.0
 11
14164.87951493
 21
15451.73489513
 31
0.0
  0
LINE
  5
5F9
330
2D2
100
AcDbEntity
  8
YKK_A1
  6
Continuous
 48
0.5
100
AcDbLine
 10
13030.41998762
 20
15216.48887659
 30
0.0
 11
12795.17396909
 21
15451.73489513
 31
0.0
  0
LINE
  5
5FA
330
2D2
100
AcDbEntity
  8
YKK_A1
  6
Continuous
 48
0.5
100
AcDbLine
 10
13030.41998762
 20
15159.92033747
 30
0.0
 11
12738.60542996
 21
15451.73489513
 31
0.0
  0
LINE
  5
5FB
330
2D2
100
AcDbEntity
  8
YKK_A1
  6
Continuous
 48
0.5
100
AcDbLine
 10
13030.41998762
 20
15046.78325922
 30
0.0
 11
12630.41998762
 21
15446.78325922
 31
0.0
  0
LINE
  5
5FC
330
2D2
100
AcDbEntity
  8
YKK_A1
  6
Continuous
 48
0.5
100
AcDbLine
 10
13030.41998762
 20
14990.2147201
 30
0.0
 11
12630.41998762
 21
15390.2147201
 31
0.0
  0
LINE
  5
5FD
330
2D2
100
AcDbEntity
  8
YKK_A1
  6
Continuous
 48
0.5
100
AcDbLine
 10
13030.41998762
 20
14877.07764185
 30
0.0
 11
12630.41998762
 21
15277.07764185
 31
0.0
  0
LINE
  5
5FE
330
2D2
100
AcDbEntity
  8
YKK_A1
  6
Continuous
 48
0.5
100
AcDbLine
 10
12989.19416006
 20
14861.73493029
 30
0.0
 11
12630.41998762
 21
15220.50910273
 31
0.0
  0
LINE
  5
5FF
330
2D2
100
AcDbEntity
  8
YKK_A1
  6
Continuous
 48
0.5
100
AcDbLine
 10
12630.41998762
 20
15050.80348536
 30
0.0
 11
12819.48854269
 21
14861.73493029
 31
0.0
  0
LINE
  5
600
330
2D2
100
AcDbEntity
  8
YKK_A1
  6
Continuous
 48
0.5
100
AcDbLine
 10
12630.41998762
 20
15107.37202448
 30
0.0
 11
12876.05708181
 21
14861.73493029
 31
0.0
  0
LINE
  5
601
330
2D2
100
AcDbEntity
  8
YKK_A1
  6
Continuous
 48
0.5
100
AcDbLine
 10
12630.41998762
 20
14881.09786799
 30
0.0
 11
12649.78292532
 21
14861.73493029
 31
0.0
  0
LINE
  5
602
330
2D2
100
AcDbEntity
  8
YKK_A1
  6
Continuous
 48
0.5
100
AcDbLine
 10
12630.41998762
 20
14937.66640712
 30
0.0
 11
12706.35146444
 21
14861.73493029
 31
0.0
  0
LINE
  5
603
330
2D2
100
AcDbEntity
  8
YKK_A1
  6
Continuous
 48
0.5
100
AcDbLine
 10
13030.41998762
 20
15329.62595484
 30
0.0
 11
12908.31104733
 21
15451.73489513
 31
0.0
  0
LINE
  5
604
330
2D2
100
AcDbEntity
  8
YKK_A1
  6
Continuous
 48
0.5
100
AcDbLine
 10
13030.41998762
 20
15386.19449396
 30
0.0
 11
12964.87958646
 21
15451.73489513
 31
0.0
  0
LINE
  5
605
330
2D2
100
AcDbEntity
  8
YKK_A1
  6
Continuous
 48
0.5
100
AcDbLine
 10
12706.35146444
 20
15451.73489513
 30
0.0
 11
12665.90990808
 21
15411.29333876
 31
0.0
  0
LINE
  5
606
330
2D2
100
AcDbEntity
  8
YKK_A1
  6
Continuous
 48
0.5
100
AcDbLine
 10
12649.78292532
 20
15451.73489513
 30
0.0
 11
12637.62563852
 21
15439.57760833
 31
0.0
  0
LINE
  5
607
330
2D2
100
AcDbEntity
  8
YKK_A1
  6
Continuous
 48
0.5
100
AcDbLine
 10
12876.05708181
 20
15451.73489513
 30
0.0
 11
12835.61552545
 21
15411.29333876
 31
0.0
  0
LINE
  5
608
330
2D2
100
AcDbEntity
  8
YKK_A1
  6
Continuous
 48
0.5
100
AcDbLine
 10
12819.48854269
 20
15451.73489513
 30
0.0
 11
12807.33125589
 21
15439.57760833
 31
0.0
  0
LINE
  5
609
330
2D2
100
AcDbEntity
  8
YKK_A1
  6
Continuous
 48
0.5
100
AcDbLine
 10
13030.41998762
 20
15436.39218357
 30
0.0
 11
13005.32114282
 21
15411.29333876
 31
0.0
  0
LINE
  5
60A
330
2D2
100
AcDbEntity
  8
YKK_A1
  6
Continuous
 48
0.5
100
AcDbLine
 10
12989.19416006
 20
15451.73489513
 30
0.0
 11
12977.03687326
 21
15439.57760833
 31
0.0
  0
LINE
  5
60B
330
2D2
100
AcDbEntity
  8
YKK_A1
  6
Continuous
 48
0.5
100
AcDbLine
 10
13030.41998762
 20
15266.6865662
 30
0.0
 11
13005.32114282
 21
15241.5877214
 31
0.0
  0
LINE
  5
60C
330
2D2
100
AcDbEntity
  8
YKK_A1
  6
Continuous
 48
0.5
100
AcDbLine
 10
13030.41998762
 20
15323.25510532
 30
0.0
 11
12977.03687326
 21
15269.87199096
 31
0.0
  0
LINE
  5
60D
330
2D2
100
AcDbEntity
  8
YKK_A1
  6
Continuous
 48
0.5
100
AcDbLine
 10
13030.41998762
 20
14927.27533146
 30
0.0
 11
13005.32114282
 21
14902.17648666
 31
0.0
  0
LINE
  5
60E
330
2D2
100
AcDbEntity
  8
YKK_A1
  6
Continuous
 48
0.5
100
AcDbLine
 10
13030.41998762
 20
14983.84387058
 30
0.0
 11
12977.03687326
 21
14930.46075622
 31
0.0
  0
LINE
  5
60F
330
2D2
100
AcDbEntity
  8
YKK_A1
  6
Continuous
 48
0.5
100
AcDbLine
 10
12892.18406457
 20
15298.15626052
 30
0.0
 11
12835.61552545
 21
15241.5877214
 31
0.0
  0
LINE
  5
610
330
2D2
100
AcDbEntity
  8
YKK_A1
  6
Continuous
 48
0.5
100
AcDbLine
 10
12863.89979501
 20
15326.44053008
 30
0.0
 11
12807.33125589
 21
15269.87199096
 31
0.0
  0
LINE
  5
611
330
2D2
100
AcDbEntity
  8
YKK_A1
  6
Continuous
 48
0.5
100
AcDbLine
 10
12807.33125589
 20
15383.0090692
 30
0.0
 11
12750.76271677
 21
15326.44053008
 31
0.0
  0
LINE
  5
612
330
2D2
100
AcDbEntity
  8
YKK_A1
  6
Continuous
 48
0.5
100
AcDbLine
 10
12779.04698633
 20
15411.29333876
 30
0.0
 11
12722.4784472
 21
15354.72479964
 31
0.0
  0
LINE
  5
613
330
2D2
100
AcDbEntity
  8
YKK_A1
  6
Continuous
 48
0.5
100
AcDbLine
 10
12892.18406457
 20
15128.45064315
 30
0.0
 11
12835.61552545
 21
15071.88210403
 31
0.0
  0
LINE
  5
614
330
2D2
100
AcDbEntity
  8
YKK_A1
  6
Continuous
 48
0.5
100
AcDbLine
 10
12863.89979501
 20
15156.73491271
 30
0.0
 11
12807.33125589
 21
15100.16637359
 31
0.0
  0
LINE
  5
615
330
2D2
100
AcDbEntity
  8
YKK_A1
  6
Continuous
 48
0.5
100
AcDbLine
 10
12807.33125589
 20
15213.30345183
 30
0.0
 11
12750.76271677
 21
15156.73491271
 31
0.0
  0
LINE
  5
616
330
2D2
100
AcDbEntity
  8
YKK_A1
  6
Continuous
 48
0.5
100
AcDbLine
 10
12779.04698633
 20
15241.5877214
 30
0.0
 11
12722.4784472
 21
15185.01918227
 31
0.0
  0
LINE
  5
617
330
2D2
100
AcDbEntity
  8
YKK_A1
  6
Continuous
 48
0.5
100
AcDbLine
 10
12722.4784472
 20
15298.15626052
 30
0.0
 11
12665.90990808
 21
15241.5877214
 31
0.0
  0
LINE
  5
618
330
2D2
100
AcDbEntity
  8
YKK_A1
  6
Continuous
 48
0.5
100
AcDbLine
 10
12694.19417764
 20
15326.44053008
 30
0.0
 11
12637.62563852
 21
15269.87199096
 31
0.0
  0
LINE
  5
619
330
2D2
100
AcDbEntity
  8
YKK_A1
  6
Continuous
 48
0.5
100
AcDbLine
 10
12637.62563852
 20
15383.0090692
 30
0.0
 11
12630.41998762
 21
15375.80341831
 31
0.0
  0
LINE
  5
61A
330
2D2
100
AcDbEntity
  8
YKK_A1
  6
Continuous
 48
0.5
100
AcDbLine
 10
13030.41998762
 20
15096.98094883
 30
0.0
 11
13005.32114282
 21
15071.88210403
 31
0.0
  0
LINE
  5
61B
330
2D2
100
AcDbEntity
  8
YKK_A1
  6
Continuous
 48
0.5
100
AcDbLine
 10
13030.41998762
 20
15153.54948795
 30
0.0
 11
12977.03687326
 21
15100.16637359
 31
0.0
  0
LINE
  5
61C
330
2D2
100
AcDbEntity
  8
YKK_A1
  6
Continuous
 48
0.5
100
AcDbLine
 10
12807.33125589
 20
15043.59783446
 30
0.0
 11
12750.76271677
 21
14987.02929534
 31
0.0
  0
LINE
  5
61D
330
2D2
100
AcDbEntity
  8
YKK_A1
  6
Continuous
 48
0.5
100
AcDbLine
 10
12779.04698633
 20
15071.88210403
 30
0.0
 11
12722.4784472
 21
15015.3135649
 31
0.0
  0
LINE
  5
61E
330
2D2
100
AcDbEntity
  8
YKK_A1
  6
Continuous
 48
0.5
100
AcDbLine
 10
12722.4784472
 20
15128.45064315
 30
0.0
 11
12665.90990808
 21
15071.88210403
 31
0.0
  0
LINE
  5
61F
330
2D2
100
AcDbEntity
  8
YKK_A1
  6
Continuous
 48
0.5
100
AcDbLine
 10
12694.19417764
 20
15156.73491271
 30
0.0
 11
12637.62563852
 21
15100.16637359
 31
0.0
  0
LINE
  5
620
330
2D2
100
AcDbEntity
  8
YKK_A1
  6
Continuous
 48
0.5
100
AcDbLine
 10
12637.62563852
 20
15213.30345183
 30
0.0
 11
12630.41998762
 21
15206.09780094
 31
0.0
  0
LINE
  5
621
330
2D2
100
AcDbEntity
  8
YKK_A1
  6
Continuous
 48
0.5
100
AcDbLine
 10
12807.33125589
 20
14873.89221709
 30
0.0
 11
12795.17396909
 21
14861.73493029
 31
0.0
  0
LINE
  5
622
330
2D2
100
AcDbEntity
  8
YKK_A1
  6
Continuous
 48
0.5
100
AcDbLine
 10
12779.04698633
 20
14902.17648666
 30
0.0
 11
12738.60542996
 21
14861.73493029
 31
0.0
  0
LINE
  5
623
330
2D2
100
AcDbEntity
  8
YKK_A1
  6
Continuous
 48
0.5
100
AcDbLine
 10
12722.4784472
 20
14958.74502578
 30
0.0
 11
12665.90990808
 21
14902.17648666
 31
0.0
  0
LINE
  5
624
330
2D2
100
AcDbEntity
  8
YKK_A1
  6
Continuous
 48
0.5
100
AcDbLine
 10
12694.19417764
 20
14987.02929534
 30
0.0
 11
12637.62563852
 21
14930.46075622
 31
0.0
  0
LINE
  5
625
330
2D2
100
AcDbEntity
  8
YKK_A1
  6
Continuous
 48
0.5
100
AcDbLine
 10
12637.62563852
 20
15043.59783446
 30
0.0
 11
12630.41998762
 21
15036.39218357
 31
0.0
  0
LINE
  5
626
330
2D2
100
AcDbEntity
  8
YKK_A1
  6
Continuous
 48
0.5
100
AcDbLine
 10
12637.62563852
 20
14873.89221709
 30
0.0
 11
12630.41998762
 21
14866.6865662
 31
0.0
  0
LINE
  5
627
330
2D2
100
AcDbEntity
  8
YKK_A1
  6
Continuous
 48
0.5
100
AcDbLine
 10
12948.7526037
 20
15411.29333876
 30
0.0
 11
12892.18406457
 21
15354.72479964
 31
0.0
  0
LINE
  5
628
330
2D2
100
AcDbEntity
  8
YKK_A1
  6
Continuous
 48
0.5
100
AcDbLine
 10
12977.03687326
 20
15383.0090692
 30
0.0
 11
12920.46833414
 21
15326.44053008
 31
0.0
  0
LINE
  5
629
330
2D2
100
AcDbEntity
  8
YKK_A1
  6
Continuous
 48
0.5
100
AcDbLine
 10
12948.7526037
 20
15241.5877214
 30
0.0
 11
12892.18406457
 21
15185.01918227
 31
0.0
  0
LINE
  5
62A
330
2D2
100
AcDbEntity
  8
YKK_A1
  6
Continuous
 48
0.5
100
AcDbLine
 10
12977.03687326
 20
15213.30345183
 30
0.0
 11
12920.46833414
 21
15156.73491271
 31
0.0
  0
LINE
  5
62B
330
2D2
100
AcDbEntity
  8
YKK_A1
  6
Continuous
 48
0.5
100
AcDbLine
 10
12948.7526037
 20
15071.88210403
 30
0.0
 11
12892.18406457
 21
15015.3135649
 31
0.0
  0
LINE
  5
62C
330
2D2
100
AcDbEntity
  8
YKK_A1
  6
Continuous
 48
0.5
100
AcDbLine
 10
12977.03687326
 20
15043.59783446
 30
0.0
 11
12920.46833414
 21
14987.02929534
 31
0.0
  0
LINE
  5
62D
330
2D2
100
AcDbEntity
  8
YKK_A1
  6
Continuous
 48
0.5
100
AcDbLine
 10
12863.89979501
 20
14987.02929534
 30
0.0
 11
12807.33125589
 21
14930.46075622
 31
0.0
  0
LINE
  5
62E
330
2D2
100
AcDbEntity
  8
YKK_A1
  6
Continuous
 48
0.5
100
AcDbLine
 10
12892.18406457
 20
14958.74502578
 30
0.0
 11
12835.61552545
 21
14902.17648666
 31
0.0
  0
LINE
  5
62F
330
2D2
100
AcDbEntity
  8
YKK_A1
  6
Continuous
 48
0.5
100
AcDbLine
 10
12948.7526037
 20
14902.17648666
 30
0.0
 11
12908.31104733
 21
14861.73493029
 31
0.0
  0
LINE
  5
630
330
2D2
100
AcDbEntity
  8
YKK_A1
  6
Continuous
 48
0.5
100
AcDbLine
 10
12977.03687326
 20
14873.89221709
 30
0.0
 11
12964.87958646
 21
14861.73493029
 31
0.0
  0
LINE
  5
631
330
2D2
100
AcDbEntity
  8
YKK_Z1
  6
Continuous
 48
0.5
100
AcDbLine
 10
14605.41991163
 20
14706.73493953
 30
0.0
 11
14287.91991267
 21
14706.73493953
 31
0.0
  0
LINE
  5
632
330
2D2
100
AcDbEntity
  8
YKK_Z1
  6
Continuous
 48
0.5
100
AcDbLine
 10
14247.91991505
 20
14706.73493953
 30
0.0
 11
13087.91998419
 21
14706.73493953
 31
0.0
  0
LINE
  5
633
330
2D2
100
AcDbEntity
  8
YKK_Z1
  6
Continuous
 48
0.5
100
AcDbLine
 10
13047.91998658
 20
14706.73493953
 30
0.0
 11
12530.41998762
 21
14706.73493953
 31
0.0
  0
LINE
  5
634
330
2D2
100
AcDbEntity
  8
YKK_A1
  6
Continuous
 48
0.5
100
AcDbLine
 10
14305.20890818
 20
15531.73488999
 30
0.0
 11
14230.63092066
 21
15531.73488999
 31
0.0
  0
ARC
  5
635
330
2D2
100
AcDbEntity
  8
YKK_A1
  6
Continuous
 48
0.5
100
AcDbCircle
 10
14230.63092066
 20
15530.73489006
 30
0.0
 40
0.9999999254941949
100
AcDbArc
 50
90.0
 51
177.0
  0
ARC
  5
636
330
2D2
100
AcDbEntity
  8
YKK_A1
  6
Continuous
 48
0.5
100
AcDbCircle
 10
14305.20890818
 20
15530.73489006
 30
0.0
 40
0.9999999254941949
100
AcDbArc
 50
3.0
 51
90.0
  0
LINE
  5
637
330
2D2
100
AcDbEntity
  8
YKK_A1
  6
Continuous
 48
0.5
100
AcDbLine
 10
14306.41991155
 20
15526.73489036
 30
0.0
 11
14306.20753764
 21
15530.78722601
 31
0.0
  0
LINE
  5
638
330
2D2
100
AcDbEntity
  8
YKK_A1
  6
Continuous
 48
0.5
100
AcDbLine
 10
14306.41991155
 20
15526.73489036
 30
0.0
 11
14229.41991729
 21
15526.73489036
 31
0.0
  0
LINE
  5
639
330
2D2
100
AcDbEntity
  8
YKK_A1
  6
Continuous
 48
0.5
100
AcDbLine
 10
14229.41991729
 20
15526.73489036
 30
0.0
 11
14229.6322912
 21
15530.78722601
 31
0.0
  0
LINE
  5
63A
330
2D2
100
AcDbEntity
  8
YKK_A1
  6
Continuous
 48
0.5
100
AcDbLine
 10
13105.2089797
 20
15531.73488999
 30
0.0
 11
13030.63099219
 21
15531.73488999
 31
0.0
  0
ARC
  5
63B
330
2D2
100
AcDbEntity
  8
YKK_A1
  6
Continuous
 48
0.5
100
AcDbCircle
 10
13030.63099219
 20
15530.73489006
 30
0.0
 40
0.9999999254941949
100
AcDbArc
 50
90.0
 51
177.0
  0
ARC
  5
63C
330
2D2
100
AcDbEntity
  8
YKK_A1
  6
Continuous
 48
0.5
100
AcDbCircle
 10
13105.2089797
 20
15530.73489006
 30
0.0
 40
0.9999999254941949
100
AcDbArc
 50
3.0
 51
90.0
  0
LINE
  5
63D
330
2D2
100
AcDbEntity
  8
YKK_A1
  6
Continuous
 48
0.5
100
AcDbLine
 10
13106.41998308
 20
15526.73489036
 30
0.0
 11
13106.20760916
 21
15530.78722601
 31
0.0
  0
LINE
  5
63E
330
2D2
100
AcDbEntity
  8
YKK_A1
  6
Continuous
 48
0.5
100
AcDbLine
 10
13106.41998308
 20
15526.73489036
 30
0.0
 11
13029.41998881
 21
15526.73489036
 31
0.0
  0
LINE
  5
63F
330
2D2
100
AcDbEntity
  8
YKK_A1
  6
Continuous
 48
0.5
100
AcDbLine
 10
13029.41998881
 20
15526.73489036
 30
0.0
 11
13029.63236273
 21
15530.78722601
 31
0.0
  0
LINE
  5
640
330
2D2
100
AcDbEntity
  8
YKK_A1
  6
Continuous
 48
0.5
100
AcDbLine
 10
4030.41998762
 20
14736.73493774
 30
0.0
 11
4030.41998762
 21
15526.73489036
 31
0.0
  0
LINE
  5
641
330
2D2
100
AcDbEntity
  8
YKK_A1
  6
Continuous
 48
0.5
100
AcDbLine
 10
4105.41998315
 20
14736.73493774
 30
0.0
 11
4030.41998762
 21
14736.73493774
 31
0.0
  0
LINE
  5
642
330
2D2
100
AcDbEntity
  8
YKK_A1
  6
YCENTER_1
 48
2.0
100
AcDbLine
 10
4067.91998539
 20
14541.73494847
 30
0.0
 11
4067.91998539
 21
14571.73494847
 31
0.0
  0
LINE
  5
643
330
2D2
100
AcDbEntity
  8
YKK_A1
  6
Continuous
 48
0.5
100
AcDbLine
 10
4105.41998315
 20
15526.73489036
 30
0.0
 11
4105.41998315
 21
14736.73493774
 31
0.0
  0
LINE
  5
644
330
2D2
100
AcDbEntity
  8
YKK_A1
  6
Continuous
 48
0.5
100
AcDbLine
 10
4087.91998419
 20
14736.73493774
 30
0.0
 11
4087.91998419
 21
14706.73493953
 31
0.0
  0
LINE
  5
645
330
2D2
100
AcDbEntity
  8
YKK_A1
  6
Continuous
 48
0.5
100
AcDbLine
 10
4047.91998658
 20
14736.73493774
 30
0.0
 11
4047.91998658
 21
14706.73493953
 31
0.0
  0
LINE
  5
646
330
2D2
100
AcDbEntity
  8
YKK_A1
  6
Continuous
 48
0.5
100
AcDbLine
 10
4087.91998419
 20
14556.73494847
 30
0.0
 11
4047.91998658
 21
14556.73494847
 31
0.0
  0
LINE
  5
647
330
2D2
100
AcDbEntity
  8
YKK_A1
  6
Continuous
 48
0.5
100
AcDbLine
 10
4087.91998419
 20
14706.73493953
 30
0.0
 11
4087.91998419
 21
14556.73494847
 31
0.0
  0
LINE
  5
648
330
2D2
100
AcDbEntity
  8
YKK_A1
  6
Continuous
 48
0.5
100
AcDbLine
 10
4047.91998658
 20
14706.73493953
 30
0.0
 11
4047.91998658
 21
14556.73494847
 31
0.0
  0
LINE
  5
649
330
2D2
100
AcDbEntity
  8
YKK_A1
  6
Continuous
 48
0.5
100
AcDbLine
 10
5305.41991163
 20
14736.73493774
 30
0.0
 11
5305.41991163
 21
15526.73489036
 31
0.0
  0
LINE
  5
64A
330
2D2
100
AcDbEntity
  8
YKK_A1
  6
Continuous
 48
0.5
100
AcDbLine
 10
5230.4199161
 20
14736.73493774
 30
0.0
 11
5305.41991163
 21
14736.73493774
 31
0.0
  0
LINE
  5
64B
330
2D2
100
AcDbEntity
  8
YKK_A1
  6
YCENTER_1
 48
2.0
100
AcDbLine
 10
5267.91991386
 20
14541.73494847
 30
0.0
 11
5267.91991386
 21
14571.73494847
 31
0.0
  0
LINE
  5
64C
330
2D2
100
AcDbEntity
  8
YKK_A1
  6
Continuous
 48
0.5
100
AcDbLine
 10
5230.4199161
 20
15526.73489036
 30
0.0
 11
5230.4199161
 21
14736.73493774
 31
0.0
  0
LINE
  5
64D
330
2D2
100
AcDbEntity
  8
YKK_A1
  6
Continuous
 48
0.5
100
AcDbLine
 10
5287.91991267
 20
14736.73493774
 30
0.0
 11
5287.91991267
 21
14706.73493953
 31
0.0
  0
LINE
  5
64E
330
2D2
100
AcDbEntity
  8
YKK_A1
  6
Continuous
 48
0.5
100
AcDbLine
 10
5247.91991505
 20
14736.73493774
 30
0.0
 11
5247.91991505
 21
14706.73493953
 31
0.0
  0
LINE
  5
64F
330
2D2
100
AcDbEntity
  8
YKK_A1
  6
Continuous
 48
0.5
100
AcDbLine
 10
5287.91991267
 20
14556.73494847
 30
0.0
 11
5247.91991505
 21
14556.73494847
 31
0.0
  0
LINE
  5
650
330
2D2
100
AcDbEntity
  8
YKK_A1
  6
Continuous
 48
0.5
100
AcDbLine
 10
5287.91991267
 20
14706.73493953
 30
0.0
 11
5287.91991267
 21
14556.73494847
 31
0.0
  0
LINE
  5
651
330
2D2
100
AcDbEntity
  8
YKK_A1
  6
Continuous
 48
0.5
100
AcDbLine
 10
5247.91991505
 20
14706.73493953
 30
0.0
 11
5247.91991505
 21
14556.73494847
 31
0.0
  0
LINE
  5
652
330
2D2
100
AcDbEntity
  8
YKK_A1
  6
Continuous
 48
0.5
100
AcDbLine
 10
5230.4199161
 20
15506.73489185
 30
0.0
 11
4105.41998315
 21
15506.73489185
 31
0.0
  0
LINE
  5
653
330
2D2
100
AcDbEntity
  8
YKK_A1
  6
Continuous
 48
0.5
100
AcDbLine
 10
3630.41998762
 20
15451.73489513
 30
0.0
 11
4030.41998762
 21
15451.73489513
 31
0.0
  0
LINE
  5
654
330
2D2
100
AcDbEntity
  8
YKK_A1
  6
Continuous
 48
0.5
100
AcDbLine
 10
5230.4199161
 20
14861.73493029
 30
0.0
 11
4105.41998315
 21
14861.73493029
 31
0.0
  0
LINE
  5
655
330
2D2
100
AcDbEntity
  8
YKK_A1
  6
Continuous
 48
0.5
100
AcDbLine
 10
4105.41998315
 20
14806.73493357
 30
0.0
 11
5230.4199161
 21
14806.73493357
 31
0.0
  0
LINE
  5
656
330
2D2
100
AcDbEntity
  8
YKK_A1
  6
Continuous
 48
0.5
100
AcDbLine
 10
3630.41998762
 20
14861.73493029
 30
0.0
 11
4030.41998762
 21
14861.73493029
 31
0.0
  0
LINE
  5
657
330
2D2
100
AcDbEntity
  8
YKK_A1
  6
Continuous
 48
0.5
100
AcDbLine
 10
4030.41998762
 20
14806.73493357
 30
0.0
 11
3630.41998762
 21
14806.73493357
 31
0.0
  0
LINE
  5
658
330
2D2
100
AcDbEntity
  8
YKK_A1
  6
Continuous
 48
0.5
100
AcDbLine
 10
4030.41998762
 20
15506.73489185
 30
0.0
 11
3630.41998762
 21
15506.73489185
 31
0.0
  0
LINE
  5
659
330
2D2
100
AcDbEntity
  8
YKK_A1
  6
Continuous
 48
0.5
100
AcDbLine
 10
4105.41998315
 20
15451.73489513
 30
0.0
 11
5230.4199161
 21
15451.73489513
 31
0.0
  0
LINE
  5
65A
330
2D2
100
AcDbEntity
  8
YKK_Z1
  6
Continuous
 48
0.5
100
AcDbLine
 10
5605.41991163
 20
14706.73493953
 30
0.0
 11
5287.91991267
 21
14706.73493953
 31
0.0
  0
LINE
  5
65B
330
2D2
100
AcDbEntity
  8
YKK_Z1
  6
Continuous
 48
0.5
100
AcDbLine
 10
5247.91991505
 20
14706.73493953
 30
0.0
 11
4087.91998419
 21
14706.73493953
 31
0.0
  0
LINE
  5
65C
330
2D2
100
AcDbEntity
  8
YKK_Z1
  6
Continuous
 48
0.5
100
AcDbLine
 10
4047.91998658
 20
14706.73493953
 30
0.0
 11
3530.41998762
 21
14706.73493953
 31
0.0
  0
LINE
  5
65D
330
2D2
100
AcDbEntity
  8
YKK_A1
  6
Continuous
 48
0.5
100
AcDbLine
 10
5305.20890818
 20
15531.73488999
 30
0.0
 11
5230.63092066
 21
15531.73488999
 31
0.0
  0
ARC
  5
65E
330
2D2
100
AcDbEntity
  8
YKK_A1
  6
Continuous
 48
0.5
100
AcDbCircle
 10
5230.63092066
 20
15530.73489006
 30
0.0
 40
0.9999999254941949
100
AcDbArc
 50
90.0
 51
177.0
  0
ARC
  5
65F
330
2D2
100
AcDbEntity
  8
YKK_A1
  6
Continuous
 48
0.5
100
AcDbCircle
 10
5305.20890818
 20
15530.73489006
 30
0.0
 40
0.9999999254941949
100
AcDbArc
 50
3.0
 51
90.0
  0
LINE
  5
660
330
2D2
100
AcDbEntity
  8
YKK_A1
  6
Continuous
 48
0.5
100
AcDbLine
 10
5306.41991155
 20
15526.73489036
 30
0.0
 11
5306.20753764
 21
15530.78722601
 31
0.0
  0
LINE
  5
661
330
2D2
100
AcDbEntity
  8
YKK_A1
  6
Continuous
 48
0.5
100
AcDbLine
 10
5306.41991155
 20
15526.73489036
 30
0.0
 11
5229.41991729
 21
15526.73489036
 31
0.0
  0
LINE
  5
662
330
2D2
100
AcDbEntity
  8
YKK_A1
  6
Continuous
 48
0.5
100
AcDbLine
 10
5229.41991729
 20
15526.73489036
 30
0.0
 11
5229.6322912
 21
15530.78722601
 31
0.0
  0
LINE
  5
663
330
2D2
100
AcDbEntity
  8
YKK_A1
  6
Continuous
 48
0.5
100
AcDbLine
 10
4105.2089797
 20
15531.73488999
 30
0.0
 11
4030.63099219
 21
15531.73488999
 31
0.0
  0
ARC
  5
664
330
2D2
100
AcDbEntity
  8
YKK_A1
  6
Continuous
 48
0.5
100
AcDbCircle
 10
4030.63099219
 20
15530.73489006
 30
0.0
 40
0.9999999254941949
100
AcDbArc
 50
90.0
 51
177.0
  0
ARC
  5
665
330
2D2
100
AcDbEntity
  8
YKK_A1
  6
Continuous
 48
0.5
100
AcDbCircle
 10
4105.2089797
 20
15530.73489006
 30
0.0
 40
0.9999999254941949
100
AcDbArc
 50
3.0
 51
90.0
  0
LINE
  5
666
330
2D2
100
AcDbEntity
  8
YKK_A1
  6
Continuous
 48
0.5
100
AcDbLine
 10
4106.41998308
 20
15526.73489036
 30
0.0
 11
4106.20760916
 21
15530.78722601
 31
0.0
  0
LINE
  5
667
330
2D2
100
AcDbEntity
  8
YKK_A1
  6
Continuous
 48
0.5
100
AcDbLine
 10
4106.41998308
 20
15526.73489036
 30
0.0
 11
4029.41998881
 21
15526.73489036
 31
0.0
  0
LINE
  5
668
330
2D2
100
AcDbEntity
  8
YKK_A1
  6
Continuous
 48
0.5
100
AcDbLine
 10
4029.41998881
 20
15526.73489036
 30
0.0
 11
4029.63236273
 21
15530.78722601
 31
0.0
  0
LINE
  5
669
330
2D2
100
AcDbEntity
  8
YKK_A1
  6
Continuous
 48
0.5
100
AcDbLine
 10
4586.4199065
 20
14896.73493082
 30
0.0
 11
4586.4199065
 21
14968.73493189
 31
0.0
  0
LINE
  5
66A
330
2D2
100
AcDbEntity
  8
YKK_A1
  6
Continuous
 48
0.5
100
AcDbLine
 10
4626.4199071
 20
14896.73493082
 30
0.0
 11
4626.4199071
 21
14968.73493189
 31
0.0
  0
LINE
  5
66B
330
2D2
100
AcDbEntity
  8
YKK_A1
  6
Continuous
 48
0.5
100
AcDbLine
 10
4503.41990526
 20
14896.73493082
 30
0.0
 11
4503.41990526
 21
14968.73493189
 31
0.0
  0
LINE
  5
66C
330
2D2
100
AcDbEntity
  8
YKK_A1
  6
Continuous
 48
0.5
100
AcDbLine
 10
4380.41990343
 20
14896.73493082
 30
0.0
 11
4380.41990343
 21
14968.73493189
 31
0.0
  0
LINE
  5
66D
330
2D2
100
AcDbEntity
  8
YKK_A1
  6
Continuous
 48
0.5
100
AcDbLine
 10
4257.4199016
 20
14896.73493082
 30
0.0
 11
4257.4199016
 21
14968.73493189
 31
0.0
  0
LINE
  5
66E
330
2D2
100
AcDbEntity
  8
YKK_A1
  6
Continuous
 48
0.5
100
AcDbLine
 10
4135.41989978
 20
14896.73493082
 30
0.0
 11
4135.41989978
 21
14968.73493189
 31
0.0
  0
LINE
  5
66F
330
2D2
100
AcDbEntity
  8
YKK_A1
  6
Continuous
 48
0.5
100
AcDbLine
 10
4749.41990893
 20
14896.73493082
 30
0.0
 11
4749.41990893
 21
14968.73493189
 31
0.0
  0
LINE
  5
670
330
2D2
100
AcDbEntity
  8
YKK_A1
  6
Continuous
 48
0.5
100
AcDbLine
 10
4872.41991076
 20
14896.73493082
 30
0.0
 11
4872.41991076
 21
14968.73493189
 31
0.0
  0
LINE
  5
671
330
2D2
100
AcDbEntity
  8
YKK_A1
  6
Continuous
 48
0.5
100
AcDbLine
 10
4995.41991259
 20
14896.73493082
 30
0.0
 11
4995.41991259
 21
14968.73493189
 31
0.0
  0
LINE
  5
672
330
2D2
100
AcDbEntity
  8
YKK_A1
  6
Continuous
 48
0.5
100
AcDbLine
 10
4463.41990467
 20
14896.73493082
 30
0.0
 11
4463.41990467
 21
14968.73493189
 31
0.0
  0
LINE
  5
673
330
2D2
100
AcDbEntity
  8
YKK_A1
  6
Continuous
 48
0.5
100
AcDbLine
 10
4340.41990283
 20
14896.73493082
 30
0.0
 11
4340.41990283
 21
14968.73493189
 31
0.0
  0
LINE
  5
674
330
2D2
100
AcDbEntity
  8
YKK_A1
  6
Continuous
 48
0.5
100
AcDbLine
 10
4217.419901
 20
14896.73493082
 30
0.0
 11
4217.419901
 21
14968.73493189
 31
0.0
  0
LINE
  5
675
330
2D2
100
AcDbEntity
  8
YKK_A1
  6
Continuous
 48
0.5
100
AcDbLine
 10
4709.41990833
 20
14896.73493082
 30
0.0
 11
4709.41990833
 21
14968.73493189
 31
0.0
  0
LINE
  5
676
330
2D2
100
AcDbEntity
  8
YKK_A1
  6
Continuous
 48
0.5
100
AcDbLine
 10
4832.41991017
 20
14896.73493082
 30
0.0
 11
4832.41991017
 21
14968.73493189
 31
0.0
  0
LINE
  5
677
330
2D2
100
AcDbEntity
  8
YKK_A1
  6
Continuous
 48
0.5
100
AcDbLine
 10
4955.419912
 20
14896.73493082
 30
0.0
 11
4955.419912
 21
14968.73493189
 31
0.0
  0
LINE
  5
678
330
2D2
100
AcDbEntity
  8
YKK_A1
  6
Continuous
 48
0.5
100
AcDbLine
 10
5200.41991565
 20
14896.73493082
 30
0.0
 11
5200.41991565
 21
14968.73493189
 31
0.0
  0
LINE
  5
679
330
2D2
100
AcDbEntity
  8
YKK_A1
  6
Continuous
 48
0.5
100
AcDbLine
 10
4135.41989978
 20
15344.73493749
 30
0.0
 11
4135.41989978
 21
15416.73493856
 31
0.0
  0
LINE
  5
67A
330
2D2
100
AcDbEntity
  8
YKK_A1
  6
Continuous
 48
0.5
100
AcDbLine
 10
4217.419901
 20
15344.73493749
 30
0.0
 11
4217.419901
 21
15416.73493856
 31
0.0
  0
LINE
  5
67B
330
2D2
100
AcDbEntity
  8
YKK_A1
  6
Continuous
 48
0.5
100
AcDbLine
 10
4257.4199016
 20
15344.73493749
 30
0.0
 11
4257.4199016
 21
15416.73493856
 31
0.0
  0
LINE
  5
67C
330
2D2
100
AcDbEntity
  8
YKK_A1
  6
Continuous
 48
0.5
100
AcDbLine
 10
4340.41990283
 20
15344.73493749
 30
0.0
 11
4340.41990283
 21
15416.73493856
 31
0.0
  0
LINE
  5
67D
330
2D2
100
AcDbEntity
  8
YKK_A1
  6
Continuous
 48
0.5
100
AcDbLine
 10
4380.41990343
 20
15344.73493749
 30
0.0
 11
4380.41990343
 21
15416.73493856
 31
0.0
  0
LINE
  5
67E
330
2D2
100
AcDbEntity
  8
YKK_A1
  6
Continuous
 48
0.5
100
AcDbLine
 10
4463.41990467
 20
15344.73493749
 30
0.0
 11
4463.41990467
 21
15416.73493856
 31
0.0
  0
LINE
  5
67F
330
2D2
100
AcDbEntity
  8
YKK_A1
  6
Continuous
 48
0.5
100
AcDbLine
 10
4503.41990526
 20
15344.73493749
 30
0.0
 11
4503.41990526
 21
15416.73493856
 31
0.0
  0
LINE
  5
680
330
2D2
100
AcDbEntity
  8
YKK_A1
  6
Continuous
 48
0.5
100
AcDbLine
 10
4586.4199065
 20
15344.73493749
 30
0.0
 11
4586.4199065
 21
15416.73493856
 31
0.0
  0
LINE
  5
681
330
2D2
100
AcDbEntity
  8
YKK_A1
  6
Continuous
 48
0.5
100
AcDbLine
 10
4626.4199071
 20
15344.73493749
 30
0.0
 11
4626.4199071
 21
15416.73493856
 31
0.0
  0
LINE
  5
682
330
2D2
100
AcDbEntity
  8
YKK_A1
  6
Continuous
 48
0.5
100
AcDbLine
 10
4709.41990833
 20
15344.73493749
 30
0.0
 11
4709.41990833
 21
15416.73493856
 31
0.0
  0
LINE
  5
683
330
2D2
100
AcDbEntity
  8
YKK_A1
  6
Continuous
 48
0.5
100
AcDbLine
 10
4749.41990893
 20
15344.73493749
 30
0.0
 11
4749.41990893
 21
15416.73493856
 31
0.0
  0
LINE
  5
684
330
2D2
100
AcDbEntity
  8
YKK_A1
  6
Continuous
 48
0.5
100
AcDbLine
 10
4832.41991017
 20
15344.73493749
 30
0.0
 11
4832.41991017
 21
15416.73493856
 31
0.0
  0
LINE
  5
685
330
2D2
100
AcDbEntity
  8
YKK_A1
  6
Continuous
 48
0.5
100
AcDbLine
 10
4872.41991076
 20
15344.73493749
 30
0.0
 11
4872.41991076
 21
15416.73493856
 31
0.0
  0
LINE
  5
686
330
2D2
100
AcDbEntity
  8
YKK_A1
  6
Continuous
 48
0.5
100
AcDbLine
 10
4955.419912
 20
15344.73493749
 30
0.0
 11
4955.419912
 21
15416.73493856
 31
0.0
  0
LINE
  5
687
330
2D2
100
AcDbEntity
  8
YKK_A1
  6
Continuous
 48
0.5
100
AcDbLine
 10
4995.41991259
 20
15344.73493749
 30
0.0
 11
4995.41991259
 21
15416.73493856
 31
0.0
  0
LINE
  5
688
330
2D2
100
AcDbEntity
  8
YKK_A1
  6
Continuous
 48
0.5
100
AcDbLine
 10
5200.41991565
 20
15344.73493749
 30
0.0
 11
5200.41991565
 21
15416.73493856
 31
0.0
  0
LINE
  5
689
330
2D2
100
AcDbEntity
  8
YKK_A1
  6
Continuous
 48
0.5
100
AcDbLine
 10
4340.41990283
 20
15232.73493582
 30
0.0
 11
4340.41990283
 21
15304.7349369
 31
0.0
  0
LINE
  5
68A
330
2D2
100
AcDbEntity
  8
YKK_A1
  6
Continuous
 48
0.5
100
AcDbLine
 10
4217.419901
 20
15232.73493582
 30
0.0
 11
4217.419901
 21
15304.7349369
 31
0.0
  0
LINE
  5
68B
330
2D2
100
AcDbEntity
  8
YKK_A1
  6
Continuous
 48
0.5
100
AcDbLine
 10
4995.41991259
 20
15232.73493582
 30
0.0
 11
4995.41991259
 21
15304.7349369
 31
0.0
  0
LINE
  5
68C
330
2D2
100
AcDbEntity
  8
YKK_A1
  6
Continuous
 48
0.5
100
AcDbLine
 10
4832.41991017
 20
15232.73493582
 30
0.0
 11
4832.41991017
 21
15304.7349369
 31
0.0
  0
LINE
  5
68D
330
2D2
100
AcDbEntity
  8
YKK_A1
  6
Continuous
 48
0.5
100
AcDbLine
 10
4955.419912
 20
15232.73493582
 30
0.0
 11
4955.419912
 21
15304.7349369
 31
0.0
  0
LINE
  5
68E
330
2D2
100
AcDbEntity
  8
YKK_A1
  6
Continuous
 48
0.5
100
AcDbLine
 10
4463.41990467
 20
15232.73493582
 30
0.0
 11
4463.41990467
 21
15304.7349369
 31
0.0
  0
LINE
  5
68F
330
2D2
100
AcDbEntity
  8
YKK_A1
  6
Continuous
 48
0.5
100
AcDbLine
 10
4709.41990833
 20
15232.73493582
 30
0.0
 11
4709.41990833
 21
15304.7349369
 31
0.0
  0
LINE
  5
690
330
2D2
100
AcDbEntity
  8
YKK_A1
  6
Continuous
 48
0.5
100
AcDbLine
 10
4503.41990526
 20
15232.73493582
 30
0.0
 11
4503.41990526
 21
15304.7349369
 31
0.0
  0
LINE
  5
691
330
2D2
100
AcDbEntity
  8
YKK_A1
  6
Continuous
 48
0.5
100
AcDbLine
 10
4380.41990343
 20
15232.73493582
 30
0.0
 11
4380.41990343
 21
15304.7349369
 31
0.0
  0
LINE
  5
692
330
2D2
100
AcDbEntity
  8
YKK_A1
  6
Continuous
 48
0.5
100
AcDbLine
 10
4586.4199065
 20
15232.73493582
 30
0.0
 11
4586.4199065
 21
15304.7349369
 31
0.0
  0
LINE
  5
693
330
2D2
100
AcDbEntity
  8
YKK_A1
  6
Continuous
 48
0.5
100
AcDbLine
 10
4749.41990893
 20
15232.73493582
 30
0.0
 11
4749.41990893
 21
15304.7349369
 31
0.0
  0
LINE
  5
694
330
2D2
100
AcDbEntity
  8
YKK_A1
  6
Continuous
 48
0.5
100
AcDbLine
 10
4872.41991076
 20
15232.73493582
 30
0.0
 11
4872.41991076
 21
15304.7349369
 31
0.0
  0
LINE
  5
695
330
2D2
100
AcDbEntity
  8
YKK_A1
  6
Continuous
 48
0.5
100
AcDbLine
 10
4626.4199071
 20
15232.73493582
 30
0.0
 11
4626.4199071
 21
15304.7349369
 31
0.0
  0
LINE
  5
696
330
2D2
100
AcDbEntity
  8
YKK_A1
  6
Continuous
 48
0.5
100
AcDbLine
 10
4257.4199016
 20
15232.73493582
 30
0.0
 11
4257.4199016
 21
15304.7349369
 31
0.0
  0
LINE
  5
697
330
2D2
100
AcDbEntity
  8
YKK_A1
  6
Continuous
 48
0.5
100
AcDbLine
 10
4340.41990283
 20
15120.73493415
 30
0.0
 11
4340.41990283
 21
15192.73493523
 31
0.0
  0
LINE
  5
698
330
2D2
100
AcDbEntity
  8
YKK_A1
  6
Continuous
 48
0.5
100
AcDbLine
 10
4217.419901
 20
15120.73493415
 30
0.0
 11
4217.419901
 21
15192.73493523
 31
0.0
  0
LINE
  5
699
330
2D2
100
AcDbEntity
  8
YKK_A1
  6
Continuous
 48
0.5
100
AcDbLine
 10
4995.41991259
 20
15120.73493415
 30
0.0
 11
4995.41991259
 21
15192.73493523
 31
0.0
  0
LINE
  5
69A
330
2D2
100
AcDbEntity
  8
YKK_A1
  6
Continuous
 48
0.5
100
AcDbLine
 10
4832.41991017
 20
15120.73493415
 30
0.0
 11
4832.41991017
 21
15192.73493523
 31
0.0
  0
LINE
  5
69B
330
2D2
100
AcDbEntity
  8
YKK_A1
  6
Continuous
 48
0.5
100
AcDbLine
 10
4955.419912
 20
15120.73493415
 30
0.0
 11
4955.419912
 21
15192.73493523
 31
0.0
  0
LINE
  5
69C
330
2D2
100
AcDbEntity
  8
YKK_A1
  6
Continuous
 48
0.5
100
AcDbLine
 10
4463.41990467
 20
15120.73493415
 30
0.0
 11
4463.41990467
 21
15192.73493523
 31
0.0
  0
LINE
  5
69D
330
2D2
100
AcDbEntity
  8
YKK_A1
  6
Continuous
 48
0.5
100
AcDbLine
 10
4709.41990833
 20
15120.73493415
 30
0.0
 11
4709.41990833
 21
15192.73493523
 31
0.0
  0
LINE
  5
69E
330
2D2
100
AcDbEntity
  8
YKK_A1
  6
Continuous
 48
0.5
100
AcDbLine
 10
4503.41990526
 20
15120.73493415
 30
0.0
 11
4503.41990526
 21
15192.73493523
 31
0.0
  0
LINE
  5
69F
330
2D2
100
AcDbEntity
  8
YKK_A1
  6
Continuous
 48
0.5
100
AcDbLine
 10
4380.41990343
 20
15120.73493415
 30
0.0
 11
4380.41990343
 21
15192.73493523
 31
0.0
  0
LINE
  5
6A0
330
2D2
100
AcDbEntity
  8
YKK_A1
  6
Continuous
 48
0.5
100
AcDbLine
 10
4586.4199065
 20
15120.73493415
 30
0.0
 11
4586.4199065
 21
15192.73493523
 31
0.0
  0
LINE
  5
6A1
330
2D2
100
AcDbEntity
  8
YKK_A1
  6
Continuous
 48
0.5
100
AcDbLine
 10
4749.41990893
 20
15120.73493415
 30
0.0
 11
4749.41990893
 21
15192.73493523
 31
0.0
  0
LINE
  5
6A2
330
2D2
100
AcDbEntity
  8
YKK_A1
  6
Continuous
 48
0.5
100
AcDbLine
 10
4872.41991076
 20
15120.73493415
 30
0.0
 11
4872.41991076
 21
15192.73493523
 31
0.0
  0
LINE
  5
6A3
330
2D2
100
AcDbEntity
  8
YKK_A1
  6
Continuous
 48
0.5
100
AcDbLine
 10
4626.4199071
 20
15120.73493415
 30
0.0
 11
4626.4199071
 21
15192.73493523
 31
0.0
  0
LINE
  5
6A4
330
2D2
100
AcDbEntity
  8
YKK_A1
  6
Continuous
 48
0.5
100
AcDbLine
 10
4257.4199016
 20
15120.73493415
 30
0.0
 11
4257.4199016
 21
15192.73493523
 31
0.0
  0
LINE
  5
6A5
330
2D2
100
AcDbEntity
  8
YKK_A1
  6
Continuous
 48
0.5
100
AcDbLine
 10
5200.41991565
 20
15232.73493582
 30
0.0
 11
5200.41991565
 21
15304.7349369
 31
0.0
  0
LINE
  5
6A6
330
2D2
100
AcDbEntity
  8
YKK_A1
  6
Continuous
 48
0.5
100
AcDbLine
 10
4135.41989978
 20
15232.73493582
 30
0.0
 11
4135.41989978
 21
15304.7349369
 31
0.0
  0
LINE
  5
6A7
330
2D2
100
AcDbEntity
  8
YKK_A1
  6
Continuous
 48
0.5
100
AcDbLine
 10
4135.41989978
 20
15120.73493415
 30
0.0
 11
4135.41989978
 21
15192.73493523
 31
0.0
  0
LINE
  5
6A8
330
2D2
100
AcDbEntity
  8
YKK_A1
  6
Continuous
 48
0.5
100
AcDbLine
 10
5200.41991565
 20
15120.73493415
 30
0.0
 11
5200.41991565
 21
15192.73493523
 31
0.0
  0
LINE
  5
6A9
330
2D2
100
AcDbEntity
  8
YKK_A1
  6
Continuous
 48
0.5
100
AcDbLine
 10
4135.41989978
 20
15008.73493248
 30
0.0
 11
4135.41989978
 21
15080.73493356
 31
0.0
  0
LINE
  5
6AA
330
2D2
100
AcDbEntity
  8
YKK_A1
  6
Continuous
 48
0.5
100
AcDbLine
 10
4217.419901
 20
15008.73493248
 30
0.0
 11
4217.419901
 21
15080.73493356
 31
0.0
  0
LINE
  5
6AB
330
2D2
100
AcDbEntity
  8
YKK_A1
  6
Continuous
 48
0.5
100
AcDbLine
 10
4257.4199016
 20
15008.73493248
 30
0.0
 11
4257.4199016
 21
15080.73493356
 31
0.0
  0
LINE
  5
6AC
330
2D2
100
AcDbEntity
  8
YKK_A1
  6
Continuous
 48
0.5
100
AcDbLine
 10
4340.41990283
 20
15008.73493248
 30
0.0
 11
4340.41990283
 21
15080.73493356
 31
0.0
  0
LINE
  5
6AD
330
2D2
100
AcDbEntity
  8
YKK_A1
  6
Continuous
 48
0.5
100
AcDbLine
 10
4380.41990343
 20
15008.73493248
 30
0.0
 11
4380.41990343
 21
15080.73493356
 31
0.0
  0
LINE
  5
6AE
330
2D2
100
AcDbEntity
  8
YKK_A1
  6
Continuous
 48
0.5
100
AcDbLine
 10
4463.41990467
 20
15008.73493248
 30
0.0
 11
4463.41990467
 21
15080.73493356
 31
0.0
  0
LINE
  5
6AF
330
2D2
100
AcDbEntity
  8
YKK_A1
  6
Continuous
 48
0.5
100
AcDbLine
 10
4503.41990526
 20
15008.73493248
 30
0.0
 11
4503.41990526
 21
15080.73493356
 31
0.0
  0
LINE
  5
6B0
330
2D2
100
AcDbEntity
  8
YKK_A1
  6
Continuous
 48
0.5
100
AcDbLine
 10
4586.4199065
 20
15008.73493248
 30
0.0
 11
4586.4199065
 21
15080.73493356
 31
0.0
  0
LINE
  5
6B1
330
2D2
100
AcDbEntity
  8
YKK_A1
  6
Continuous
 48
0.5
100
AcDbLine
 10
4626.4199071
 20
15008.73493248
 30
0.0
 11
4626.4199071
 21
15080.73493356
 31
0.0
  0
LINE
  5
6B2
330
2D2
100
AcDbEntity
  8
YKK_A1
  6
Continuous
 48
0.5
100
AcDbLine
 10
4709.41990833
 20
15008.73493248
 30
0.0
 11
4709.41990833
 21
15080.73493356
 31
0.0
  0
LINE
  5
6B3
330
2D2
100
AcDbEntity
  8
YKK_A1
  6
Continuous
 48
0.5
100
AcDbLine
 10
4749.41990893
 20
15008.73493248
 30
0.0
 11
4749.41990893
 21
15080.73493356
 31
0.0
  0
LINE
  5
6B4
330
2D2
100
AcDbEntity
  8
YKK_A1
  6
Continuous
 48
0.5
100
AcDbLine
 10
4832.41991017
 20
15008.73493248
 30
0.0
 11
4832.41991017
 21
15080.73493356
 31
0.0
  0
LINE
  5
6B5
330
2D2
100
AcDbEntity
  8
YKK_A1
  6
Continuous
 48
0.5
100
AcDbLine
 10
4872.41991076
 20
15008.73493248
 30
0.0
 11
4872.41991076
 21
15080.73493356
 31
0.0
  0
LINE
  5
6B6
330
2D2
100
AcDbEntity
  8
YKK_A1
  6
Continuous
 48
0.5
100
AcDbLine
 10
4955.419912
 20
15008.73493248
 30
0.0
 11
4955.419912
 21
15080.73493356
 31
0.0
  0
LINE
  5
6B7
330
2D2
100
AcDbEntity
  8
YKK_A1
  6
Continuous
 48
0.5
100
AcDbLine
 10
4995.41991259
 20
15008.73493248
 30
0.0
 11
4995.41991259
 21
15080.73493356
 31
0.0
  0
LINE
  5
6B8
330
2D2
100
AcDbEntity
  8
YKK_A1
  6
Continuous
 48
0.5
100
AcDbLine
 10
5200.41991565
 20
15008.73493248
 30
0.0
 11
5200.41991565
 21
15080.73493356
 31
0.0
  0
LINE
  5
6B9
330
2D2
100
AcDbEntity
  8
YKK_A1
  6
Continuous
 48
0.5
100
AcDbLine
 10
5078.41991383
 20
15344.73493749
 30
0.0
 11
5078.41991383
 21
15416.73493856
 31
0.0
  0
LINE
  5
6BA
330
2D2
100
AcDbEntity
  8
YKK_A1
  6
Continuous
 48
0.5
100
AcDbLine
 10
5118.41991443
 20
15344.73493749
 30
0.0
 11
5118.41991443
 21
15416.73493856
 31
0.0
  0
LINE
  5
6BB
330
2D2
100
AcDbEntity
  8
YKK_A1
  6
Continuous
 48
0.5
100
AcDbLine
 10
5078.41991383
 20
15232.73493582
 30
0.0
 11
5078.41991383
 21
15304.7349369
 31
0.0
  0
LINE
  5
6BC
330
2D2
100
AcDbEntity
  8
YKK_A1
  6
Continuous
 48
0.5
100
AcDbLine
 10
5118.41991443
 20
15232.73493582
 30
0.0
 11
5118.41991443
 21
15304.7349369
 31
0.0
  0
LINE
  5
6BD
330
2D2
100
AcDbEntity
  8
YKK_A1
  6
Continuous
 48
0.5
100
AcDbLine
 10
5078.41991383
 20
15120.73493415
 30
0.0
 11
5078.41991383
 21
15192.73493523
 31
0.0
  0
LINE
  5
6BE
330
2D2
100
AcDbEntity
  8
YKK_A1
  6
Continuous
 48
0.5
100
AcDbLine
 10
5118.41991443
 20
15120.73493415
 30
0.0
 11
5118.41991443
 21
15192.73493523
 31
0.0
  0
LINE
  5
6BF
330
2D2
100
AcDbEntity
  8
YKK_A1
  6
Continuous
 48
0.5
100
AcDbLine
 10
5078.41991383
 20
15008.73493248
 30
0.0
 11
5078.41991383
 21
15080.73493356
 31
0.0
  0
LINE
  5
6C0
330
2D2
100
AcDbEntity
  8
YKK_A1
  6
Continuous
 48
0.5
100
AcDbLine
 10
5118.41991443
 20
15008.73493248
 30
0.0
 11
5118.41991443
 21
15080.73493356
 31
0.0
  0
LINE
  5
6C1
330
2D2
100
AcDbEntity
  8
YKK_A1
  6
Continuous
 48
0.5
100
AcDbLine
 10
5078.41991383
 20
14896.73493082
 30
0.0
 11
5078.41991383
 21
14968.73493189
 31
0.0
  0
LINE
  5
6C2
330
2D2
100
AcDbEntity
  8
YKK_A1
  6
Continuous
 48
0.5
100
AcDbLine
 10
5118.41991443
 20
14896.73493082
 30
0.0
 11
5118.41991443
 21
14968.73493189
 31
0.0
  0
LINE
  5
6C3
330
2D2
100
AcDbEntity
  8
YKK_A1
  6
Continuous
 48
0.5
100
AcDbLine
 10
5230.4199161
 20
15232.73493582
 30
0.0
 11
4105.41989933
 21
15232.73493582
 31
0.0
  0
LINE
  5
6C4
330
2D2
100
AcDbEntity
  8
YKK_A1
  6
Continuous
 48
0.5
100
AcDbLine
 10
5230.4199161
 20
15192.73493523
 30
0.0
 11
4105.41989933
 21
15192.73493523
 31
0.0
  0
LINE
  5
6C5
330
2D2
100
AcDbEntity
  8
YKK_A1
  6
Continuous
 48
0.5
100
AcDbLine
 10
5230.4199161
 20
15344.73493749
 30
0.0
 11
4105.41989933
 21
15344.73493749
 31
0.0
  0
LINE
  5
6C6
330
2D2
100
AcDbEntity
  8
YKK_A1
  6
Continuous
 48
0.5
100
AcDbLine
 10
5230.4199161
 20
15120.73493415
 30
0.0
 11
4105.41989933
 21
15120.73493415
 31
0.0
  0
LINE
  5
6C7
330
2D2
100
AcDbEntity
  8
YKK_A1
  6
Continuous
 48
0.5
100
AcDbLine
 10
5230.4199161
 20
15008.73493248
 30
0.0
 11
4105.41989933
 21
15008.73493248
 31
0.0
  0
LINE
  5
6C8
330
2D2
100
AcDbEntity
  8
YKK_A1
  6
Continuous
 48
0.5
100
AcDbLine
 10
5230.4199161
 20
14896.73493082
 30
0.0
 11
4105.41989933
 21
14896.73493082
 31
0.0
  0
LINE
  5
6C9
330
2D2
100
AcDbEntity
  8
YKK_A1
  6
Continuous
 48
0.5
100
AcDbLine
 10
5230.4199161
 20
15416.73493856
 30
0.0
 11
4105.41989933
 21
15416.73493856
 31
0.0
  0
LINE
  5
6CA
330
2D2
100
AcDbEntity
  8
YKK_A1
  6
Continuous
 48
0.5
100
AcDbLine
 10
5230.4199161
 20
15304.7349369
 30
0.0
 11
4105.41989933
 21
15304.7349369
 31
0.0
  0
LINE
  5
6CB
330
2D2
100
AcDbEntity
  8
YKK_A1
  6
Continuous
 48
0.5
100
AcDbLine
 10
5230.4199161
 20
15080.73493356
 30
0.0
 11
4105.41989933
 21
15080.73493356
 31
0.0
  0
LINE
  5
6CC
330
2D2
100
AcDbEntity
  8
YKK_A1
  6
Continuous
 48
0.5
100
AcDbLine
 10
5230.4199161
 20
14968.73493189
 30
0.0
 11
4105.41989933
 21
14968.73493189
 31
0.0
  0
LINE
  5
6CD
330
2D2
100
AcDbEntity
  8
YKK_A1
  6
Continuous
 48
0.5
100
AcDbLine
 10
3672.41998229
 20
14896.73493082
 30
0.0
 11
3672.41998229
 21
14968.73493189
 31
0.0
  0
LINE
  5
6CE
330
2D2
100
AcDbEntity
  8
YKK_A1
  6
Continuous
 48
0.5
100
AcDbLine
 10
3795.41998412
 20
14896.73493082
 30
0.0
 11
3795.41998412
 21
14968.73493189
 31
0.0
  0
LINE
  5
6CF
330
2D2
100
AcDbEntity
  8
YKK_A1
  6
Continuous
 48
0.5
100
AcDbLine
 10
3632.41998169
 20
14896.73493082
 30
0.0
 11
3632.41998169
 21
14968.73493189
 31
0.0
  0
LINE
  5
6D0
330
2D2
100
AcDbEntity
  8
YKK_A1
  6
Continuous
 48
0.5
100
AcDbLine
 10
3755.41998352
 20
14896.73493082
 30
0.0
 11
3755.41998352
 21
14968.73493189
 31
0.0
  0
LINE
  5
6D1
330
2D2
100
AcDbEntity
  8
YKK_A1
  6
Continuous
 48
0.5
100
AcDbLine
 10
4000.41998717
 20
14896.73493082
 30
0.0
 11
4000.41998717
 21
14968.73493189
 31
0.0
  0
LINE
  5
6D2
330
2D2
100
AcDbEntity
  8
YKK_A1
  6
Continuous
 48
0.5
100
AcDbLine
 10
3632.41998169
 20
15344.73493749
 30
0.0
 11
3632.41998169
 21
15416.73493856
 31
0.0
  0
LINE
  5
6D3
330
2D2
100
AcDbEntity
  8
YKK_A1
  6
Continuous
 48
0.5
100
AcDbLine
 10
3672.41998229
 20
15344.73493749
 30
0.0
 11
3672.41998229
 21
15416.73493856
 31
0.0
  0
LINE
  5
6D4
330
2D2
100
AcDbEntity
  8
YKK_A1
  6
Continuous
 48
0.5
100
AcDbLine
 10
3755.41998352
 20
15344.73493749
 30
0.0
 11
3755.41998352
 21
15416.73493856
 31
0.0
  0
LINE
  5
6D5
330
2D2
100
AcDbEntity
  8
YKK_A1
  6
Continuous
 48
0.5
100
AcDbLine
 10
3795.41998412
 20
15344.73493749
 30
0.0
 11
3795.41998412
 21
15416.73493856
 31
0.0
  0
LINE
  5
6D6
330
2D2
100
AcDbEntity
  8
YKK_A1
  6
Continuous
 48
0.5
100
AcDbLine
 10
4000.41998717
 20
15344.73493749
 30
0.0
 11
4000.41998717
 21
15416.73493856
 31
0.0
  0
LINE
  5
6D7
330
2D2
100
AcDbEntity
  8
YKK_A1
  6
Continuous
 48
0.5
100
AcDbLine
 10
3795.41998412
 20
15232.73493582
 30
0.0
 11
3795.41998412
 21
15304.7349369
 31
0.0
  0
LINE
  5
6D8
330
2D2
100
AcDbEntity
  8
YKK_A1
  6
Continuous
 48
0.5
100
AcDbLine
 10
3632.41998169
 20
15232.73493582
 30
0.0
 11
3632.41998169
 21
15304.7349369
 31
0.0
  0
LINE
  5
6D9
330
2D2
100
AcDbEntity
  8
YKK_A1
  6
Continuous
 48
0.5
100
AcDbLine
 10
3755.41998352
 20
15232.73493582
 30
0.0
 11
3755.41998352
 21
15304.7349369
 31
0.0
  0
LINE
  5
6DA
330
2D2
100
AcDbEntity
  8
YKK_A1
  6
Continuous
 48
0.5
100
AcDbLine
 10
3672.41998229
 20
15232.73493582
 30
0.0
 11
3672.41998229
 21
15304.7349369
 31
0.0
  0
LINE
  5
6DB
330
2D2
100
AcDbEntity
  8
YKK_A1
  6
Continuous
 48
0.5
100
AcDbLine
 10
3795.41998412
 20
15120.73493415
 30
0.0
 11
3795.41998412
 21
15192.73493523
 31
0.0
  0
LINE
  5
6DC
330
2D2
100
AcDbEntity
  8
YKK_A1
  6
Continuous
 48
0.5
100
AcDbLine
 10
3632.41998169
 20
15120.73493415
 30
0.0
 11
3632.41998169
 21
15192.73493523
 31
0.0
  0
LINE
  5
6DD
330
2D2
100
AcDbEntity
  8
YKK_A1
  6
Continuous
 48
0.5
100
AcDbLine
 10
3755.41998352
 20
15120.73493415
 30
0.0
 11
3755.41998352
 21
15192.73493523
 31
0.0
  0
LINE
  5
6DE
330
2D2
100
AcDbEntity
  8
YKK_A1
  6
Continuous
 48
0.5
100
AcDbLine
 10
3672.41998229
 20
15120.73493415
 30
0.0
 11
3672.41998229
 21
15192.73493523
 31
0.0
  0
LINE
  5
6DF
330
2D2
100
AcDbEntity
  8
YKK_A1
  6
Continuous
 48
0.5
100
AcDbLine
 10
4000.41998717
 20
15232.73493582
 30
0.0
 11
4000.41998717
 21
15304.7349369
 31
0.0
  0
LINE
  5
6E0
330
2D2
100
AcDbEntity
  8
YKK_A1
  6
Continuous
 48
0.5
100
AcDbLine
 10
4000.41998717
 20
15120.73493415
 30
0.0
 11
4000.41998717
 21
15192.73493523
 31
0.0
  0
LINE
  5
6E1
330
2D2
100
AcDbEntity
  8
YKK_A1
  6
Continuous
 48
0.5
100
AcDbLine
 10
3632.41998169
 20
15008.73493248
 30
0.0
 11
3632.41998169
 21
15080.73493356
 31
0.0
  0
LINE
  5
6E2
330
2D2
100
AcDbEntity
  8
YKK_A1
  6
Continuous
 48
0.5
100
AcDbLine
 10
3672.41998229
 20
15008.73493248
 30
0.0
 11
3672.41998229
 21
15080.73493356
 31
0.0
  0
LINE
  5
6E3
330
2D2
100
AcDbEntity
  8
YKK_A1
  6
Continuous
 48
0.5
100
AcDbLine
 10
3755.41998352
 20
15008.73493248
 30
0.0
 11
3755.41998352
 21
15080.73493356
 31
0.0
  0
LINE
  5
6E4
330
2D2
100
AcDbEntity
  8
YKK_A1
  6
Continuous
 48
0.5
100
AcDbLine
 10
3795.41998412
 20
15008.73493248
 30
0.0
 11
3795.41998412
 21
15080.73493356
 31
0.0
  0
LINE
  5
6E5
330
2D2
100
AcDbEntity
  8
YKK_A1
  6
Continuous
 48
0.5
100
AcDbLine
 10
4000.41998717
 20
15008.73493248
 30
0.0
 11
4000.41998717
 21
15080.73493356
 31
0.0
  0
LINE
  5
6E6
330
2D2
100
AcDbEntity
  8
YKK_A1
  6
Continuous
 48
0.5
100
AcDbLine
 10
3878.41998536
 20
15344.73493749
 30
0.0
 11
3878.41998536
 21
15416.73493856
 31
0.0
  0
LINE
  5
6E7
330
2D2
100
AcDbEntity
  8
YKK_A1
  6
Continuous
 48
0.5
100
AcDbLine
 10
3918.41998595
 20
15344.73493749
 30
0.0
 11
3918.41998595
 21
15416.73493856
 31
0.0
  0
LINE
  5
6E8
330
2D2
100
AcDbEntity
  8
YKK_A1
  6
Continuous
 48
0.5
100
AcDbLine
 10
3878.41998536
 20
15232.73493582
 30
0.0
 11
3878.41998536
 21
15304.7349369
 31
0.0
  0
LINE
  5
6E9
330
2D2
100
AcDbEntity
  8
YKK_A1
  6
Continuous
 48
0.5
100
AcDbLine
 10
3918.41998595
 20
15232.73493582
 30
0.0
 11
3918.41998595
 21
15304.7349369
 31
0.0
  0
LINE
  5
6EA
330
2D2
100
AcDbEntity
  8
YKK_A1
  6
Continuous
 48
0.5
100
AcDbLine
 10
3878.41998536
 20
15120.73493415
 30
0.0
 11
3878.41998536
 21
15192.73493523
 31
0.0
  0
LINE
  5
6EB
330
2D2
100
AcDbEntity
  8
YKK_A1
  6
Continuous
 48
0.5
100
AcDbLine
 10
3918.41998595
 20
15120.73493415
 30
0.0
 11
3918.41998595
 21
15192.73493523
 31
0.0
  0
LINE
  5
6EC
330
2D2
100
AcDbEntity
  8
YKK_A1
  6
Continuous
 48
0.5
100
AcDbLine
 10
3878.41998536
 20
15008.73493248
 30
0.0
 11
3878.41998536
 21
15080.73493356
 31
0.0
  0
LINE
  5
6ED
330
2D2
100
AcDbEntity
  8
YKK_A1
  6
Continuous
 48
0.5
100
AcDbLine
 10
3918.41998595
 20
15008.73493248
 30
0.0
 11
3918.41998595
 21
15080.73493356
 31
0.0
  0
LINE
  5
6EE
330
2D2
100
AcDbEntity
  8
YKK_A1
  6
Continuous
 48
0.5
100
AcDbLine
 10
3878.41998536
 20
14896.73493082
 30
0.0
 11
3878.41998536
 21
14968.73493189
 31
0.0
  0
LINE
  5
6EF
330
2D2
100
AcDbEntity
  8
YKK_A1
  6
Continuous
 48
0.5
100
AcDbLine
 10
3918.41998595
 20
14896.73493082
 30
0.0
 11
3918.41998595
 21
14968.73493189
 31
0.0
  0
LINE
  5
6F0
330
2D2
100
AcDbEntity
  8
YKK_A1
  6
Continuous
 48
0.5
100
AcDbLine
 10
4030.41998762
 20
15232.73493582
 30
0.0
 11
3630.41998762
 21
15232.73493582
 31
0.0
  0
LINE
  5
6F1
330
2D2
100
AcDbEntity
  8
YKK_A1
  6
Continuous
 48
0.5
100
AcDbLine
 10
4030.41998762
 20
15192.73493523
 30
0.0
 11
3630.41998762
 21
15192.73493523
 31
0.0
  0
LINE
  5
6F2
330
2D2
100
AcDbEntity
  8
YKK_A1
  6
Continuous
 48
0.5
100
AcDbLine
 10
4030.41998762
 20
15344.73493749
 30
0.0
 11
3630.41998762
 21
15344.73493749
 31
0.0
  0
LINE
  5
6F3
330
2D2
100
AcDbEntity
  8
YKK_A1
  6
Continuous
 48
0.5
100
AcDbLine
 10
4030.41998762
 20
15120.73493415
 30
0.0
 11
3630.41998762
 21
15120.73493415
 31
0.0
  0
LINE
  5
6F4
330
2D2
100
AcDbEntity
  8
YKK_A1
  6
Continuous
 48
0.5
100
AcDbLine
 10
4030.41998762
 20
15008.73493248
 30
0.0
 11
3630.41998762
 21
15008.73493248
 31
0.0
  0
LINE
  5
6F5
330
2D2
100
AcDbEntity
  8
YKK_A1
  6
Continuous
 48
0.5
100
AcDbLine
 10
4030.41998762
 20
14896.73493082
 30
0.0
 11
3630.41998762
 21
14896.73493082
 31
0.0
  0
LINE
  5
6F6
330
2D2
100
AcDbEntity
  8
YKK_A1
  6
Continuous
 48
0.5
100
AcDbLine
 10
4030.41998762
 20
15416.73493856
 30
0.0
 11
3630.41998762
 21
15416.73493856
 31
0.0
  0
LINE
  5
6F7
330
2D2
100
AcDbEntity
  8
YKK_A1
  6
Continuous
 48
0.5
100
AcDbLine
 10
4030.41998762
 20
15304.7349369
 30
0.0
 11
3630.41998762
 21
15304.7349369
 31
0.0
  0
LINE
  5
6F8
330
2D2
100
AcDbEntity
  8
YKK_A1
  6
Continuous
 48
0.5
100
AcDbLine
 10
4030.41998762
 20
15080.73493356
 30
0.0
 11
3630.41998762
 21
15080.73493356
 31
0.0
  0
LINE
  5
6F9
330
2D2
100
AcDbEntity
  8
YKK_A1
  6
Continuous
 48
0.5
100
AcDbLine
 10
4030.41998762
 20
14968.73493189
 30
0.0
 11
3630.41998762
 21
14968.73493189
 31
0.0
  0
LINE
  5
6FA
330
2D2
100
AcDbEntity
  8
YKK_N1
100
AcDbLine
 10
3602.41998169
 20
15324.73493719
 30
0.0
 11
3531.41998169
 21
15324.73493719
 31
0.0
  0
LINE
  5
6FB
330
2D2
100
AcDbEntity
  8
YKK_N1
100
AcDbLine
 10
3602.41998169
 20
15212.73493552
 30
0.0
 11
3531.41998169
 21
15212.73493552
 31
0.0
  0
LINE
  5
6FC
330
2D2
100
AcDbEntity
  8
YKK_N1
100
AcDbLine
 10
3532.41998169
 20
15324.73493719
 30
0.0
 11
3532.41998169
 21
15212.73493552
 31
0.0
  0
LINE
  5
6FD
330
2D2
100
AcDbEntity
  8
YKK_N1
100
AcDbLine
 10
3532.41998169
 20
15212.73493552
 30
0.0
 11
3532.41998169
 21
14965.73493552
 31
0.0
  0
INSERT
  5
6FE
330
2D2
100
AcDbEntity
  8
YKK_N1
100
AcDbBlockReference
  2
_DOTSMALL
 10
3532.41998169
 20
15324.73493719
 30
0.0
 41
17.0
 42
17.0
 43
17.0
 50
90.0
  0
INSERT
  5
6FF
330
2D2
100
AcDbEntity
  8
YKK_N1
100
AcDbBlockReference
  2
_DOTSMALL
 10
3532.41998169
 20
15212.73493552
 30
0.0
 41
17.0
 42
17.0
 43
17.0
 50
270.0
  0
MTEXT
  5
700
330
2D2
100
AcDbEntity
  8
YKK_N1
100
AcDbMText
 10
3497.41998169
 20
15080.73493552
 30
0.0
 40
50.0
 41
0.0
 71
     5
 72
     5
  1
Ｐ＝112
 11
0.0
 21
1.0
 31
0.0
 73
     1
 44
1.0
  0
MTEXT
  5
701
330
2D2
100
AcDbEntity
  8
YKK_N1
100
AcDbMText
 10
3567.41998169
 20
15080.73493552
 30
0.0
 40
50.0
 41
0.0
 71
     5
 72
     5
  1
(127)
 11
0.0
 21
1.0
 31
0.0
 73
     1
 44
1.0
  0
LINE
  5
702
330
2D2
100
AcDbEntity
  8
YKK_N1
100
AcDbLine
 10
5335.41991163
 20
15506.73489185
 30
0.0
 11
5506.41991163
 21
15506.73489185
 31
0.0
  0
LINE
  5
703
330
2D2
100
AcDbEntity
  8
YKK_N1
100
AcDbLine
 10
5335.41991163
 20
14706.73493953
 30
0.0
 11
5506.41991163
 21
14706.73493953
 31
0.0
  0
LINE
  5
704
330
2D2
100
AcDbEntity
  8
YKK_N1
100
AcDbLine
 10
5505.41991163
 20
15436.73489185
 30
0.0
 11
5505.41991163
 21
14776.73493953
 31
0.0
  0
INSERT
  5
705
330
2D2
100
AcDbEntity
  8
YKK_N1
100
AcDbBlockReference
  2
SYS_SANKAKU
 10
5505.41991163
 20
15506.73489185
 30
0.0
 41
70.0
 42
70.0
 43
70.0
 50
90.0
  0
INSERT
  5
706
330
2D2
100
AcDbEntity
  8
YKK_N1
100
AcDbBlockReference
  2
SYS_SANKAKU
 10
5505.41991163
 20
14706.73493953
 30
0.0
 41
70.0
 42
70.0
 43
70.0
 50
270.0
  0
MTEXT
  5
707
330
2D2
100
AcDbEntity
  8
YKK_N1
100
AcDbMText
 10
5470.41991163
 20
15106.73491569
 30
0.0
 40
50.0
 41
0.0
 71
     5
 72
     5
  1
Ｈ＝800(1000)
 11
0.0
 21
1.0
 31
0.0
 73
     1
 44
1.0
  0
INSERT
  5
708
330
2D2
100
AcDbEntity
  8
YKK_N1
100
AcDbBlockReference
  2
_OPEN30
 10
4047.91998658
 20
14631.734944
 30
0.0
 41
17.0
 42
17.0
 43
17.0
 50
41.60547032
1001
ACAD
1000
DSTYLE
1002
{
1070
     5
1000
OPEN30
1070
    77
1070
     1
1070
   147
1040
10.0
1070
   341
1005
2FD
1002
}
1000
LEANOF
1010
-17.79433855
1020
77.98782214
1030
0.0
  0
LWPOLYLINE
  5
709
330
2D2
100
AcDbEntity
  8
YKK_N1
100
AcDbPolyline
 90
        3
 70
     0
 43
0.0
 10
4035.2084967
 20
14620.44698471
 10
3863.39942161
 20
14467.87841367
 10
3607.06608828
 20
14467.87841367
1001
ACAD
1000
DSTYLE
1002
{
1070
     5
1000
OPEN30
1070
    77
1070
     1
1070
   147
1040
10.0
1070
   341
1005
2FD
1002
}
1000
LEANOF
1010
-17.79433855
1020
77.98782214
1030
0.0
  0
TEXT
  5
70A
330
2D2
100
AcDbEntity
  8
YKK_N1
100
AcDbText
 10
3662.19376017
 20
14483.22392486
 30
0.0
 40
50.0
  1
柱埋込部
 41
0.8
  7
TEXT-B
100
AcDbText
1001
ACAD
1000
MTEXTBEGIN
1070
    73
1070
     1
1070
    44
1040
1.0
1070
    74
1070
     0
1000
MTEXTEND
  0
TEXT
  5
70B
330
2D2
100
AcDbEntity
  8
YKK_N1
100
AcDbText
 10
3624.86042683
 20
14399.89059153
 30
0.0
 40
50.0
  1
４０\U+00D7４０
 41
0.8
  7
TEXT-B
100
AcDbText
1001
ACAD
1000
MTEXTBEGIN
1070
    73
1070
     1
1070
    44
1040
1.0
1070
    74
1070
     0
1000
MTEXTEND
  0
TEXT
  5
70C
330
2D2
100
AcDbEntity
  8
YKK_Z1
100
AcDbText
 10
3543.44355307
 20
14718.45630143
 30
0.0
 40
50.0
  1
Ｇ．Ｌ
 41
0.8
  7
TEXT-B
100
AcDbText
1001
ACAD
1000
MTEXTBEGIN
1070
    73
1070
     1
1070
    44
1040
1.0
1070
    74
1070
     0
1000
MTEXTEND
  0
LINE
  5
70D
330
2D2
100
AcDbEntity
  8
YKK_N1
100
AcDbLine
 10
4067.91998539
 20
14526.73494847
 30
0.0
 11
4067.91998539
 21
14390.73320915
 31
0.0
  0
LINE
  5
70E
330
2D2
100
AcDbEntity
  8
YKK_N1
100
AcDbLine
 10
5267.91991386
 20
14526.73494847
 30
0.0
 11
5267.91991386
 21
14390.73320915
 31
0.0
  0
LINE
  5
70F
330
2D2
100
AcDbEntity
  8
YKK_N1
100
AcDbLine
 10
4067.91998539
 20
14391.73320915
 30
0.0
 11
5267.91991386
 21
14391.73320915
 31
0.0
  0
INSERT
  5
710
330
2D2
100
AcDbEntity
  8
YKK_N1
100
AcDbBlockReference
  2
_DOTSMALL
 10
4067.91998539
 20
14391.73320915
 30
0.0
 41
17.0
 42
17.0
 43
17.0
 50
180.0
  0
INSERT
  5
711
330
2D2
100
AcDbEntity
  8
YKK_N1
100
AcDbBlockReference
  2
_DOTSMALL
 10
5267.91991386
 20
14391.73320915
 30
0.0
 41
17.0
 42
17.0
 43
17.0
  0
MTEXT
  5
712
330
2D2
100
AcDbEntity
  8
YKK_N1
100
AcDbMText
 10
4667.91994962
 20
14426.73320915
 30
0.0
 40
50.0
 41
0.0
 71
     5
 72
     5
  1
柱芯々：1200
 73
     1
 44
1.0
  0
INSERT
  5
713
330
2D2
100
AcDbEntity
  8
YKK_N1
100
AcDbBlockReference
  2
_OPEN30
 10
4580.67004414
 20
14821.01466018
 30
0.0
 41
17.0
 42
17.0
 43
17.0
 50
60.27815013
1001
ACAD
1000
DSTYLE
1002
{
1070
     5
1000
OPEN30
1070
    77
1070
     1
1070
   147
1040
10.0
1070
   341
1005
2FD
1002
}
1000
LEANOF
1010
-19.43771393
1020
78.80752768
1030
0.0
  0
LWPOLYLINE
  5
714
330
2D2
100
AcDbEntity
  8
YKK_N1
100
AcDbPolyline
 90
        3
 70
     0
 43
0.0
 10
4572.24161606
 20
14806.25113756
 10
4440.18163706
 20
14574.93036589
 10
4183.84830372
 20
14574.93036589
1001
ACAD
1000
DSTYLE
1002
{
1070
     5
1000
OPEN30
1070
    77
1070
     1
1070
   147
1040
10.0
1070
   341
1005
2FD
1002
}
1000
LEANOF
1010
-19.43771393
1020
78.80752768
1030
0.0
  0
TEXT
  5
715
330
2D2
100
AcDbEntity
  8
YKK_N1
100
AcDbText
 10
4288.61935099
 20
14589.45617154
 30
0.0
 40
50.0
  1
下胴縁
 41
0.8
  7
TEXT-B
100
AcDbText
1001
ACAD
1000
MTEXTBEGIN
1070
    73
1070
     1
1070
    44
1040
1.0
1070
    74
1070
     0
1000
MTEXTEND
  0
TEXT
  5
716
330
2D2
100
AcDbEntity
  8
YKK_N1
100
AcDbText
 10
4203.28601765
 20
14506.12283821
 30
0.0
 40
50.0
  1
５５\U+00D7７０
 41
0.8
  7
TEXT-B
100
AcDbText
1001
ACAD
1000
MTEXTBEGIN
1070
    73
1070
     1
1070
    44
1040
1.0
1070
    74
1070
     0
1000
MTEXTEND
  0
LINE
  5
717
330
2D2
100
AcDbEntity
  8
YKK_N1
100
AcDbLine
 10
5335.41991163
 20
14706.73493953
 30
0.0
 11
5406.41991163
 21
14706.73493953
 31
0.0
  0
LINE
  5
718
330
2D2
100
AcDbEntity
  8
YKK_N1
100
AcDbLine
 10
5335.41991163
 20
14806.73493357
 30
0.0
 11
5406.41991163
 21
14806.73493357
 31
0.0
  0
LINE
  5
719
330
2D2
100
AcDbEntity
  8
YKK_N1
100
AcDbLine
 10
5405.41991163
 20
14706.73493953
 30
0.0
 11
5405.41991163
 21
14806.73493357
 31
0.0
  0
LINE
  5
71A
330
2D2
100
AcDbEntity
  8
YKK_N1
100
AcDbLine
 10
5405.41991163
 20
14806.73493357
 30
0.0
 11
5405.41991163
 21
14943.73493357
 31
0.0
  0
INSERT
  5
71B
330
2D2
100
AcDbEntity
  8
YKK_N1
100
AcDbBlockReference
  2
_DOTSMALL
 10
5405.41991163
 20
14706.73493953
 30
0.0
 41
17.0
 42
17.0
 43
17.0
 50
270.0
  0
INSERT
  5
71C
330
2D2
100
AcDbEntity
  8
YKK_N1
100
AcDbBlockReference
  2
_DOTSMALL
 10
5405.41991163
 20
14806.73493357
 30
0.0
 41
17.0
 42
17.0
 43
17.0
 50
90.0
  0
MTEXT
  5
71D
330
2D2
100
AcDbEntity
  8
YKK_N1
100
AcDbMText
 10
5370.41991163
 20
14883.73493357
 30
0.0
 40
50.0
 41
0.0
 71
     5
 72
     5
  1
100
 11
0.0
 21
1.0
 31
0.0
 73
     1
 44
1.0
  0
LINE
  5
71E
330
2D2
100
AcDbEntity
  8
YKK_N1
100
AcDbLine
 10
5335.41991163
 20
14706.73493953
 30
0.0
 11
5406.41991163
 21
14706.73493953
 31
0.0
  0
LINE
  5
71F
330
2D2
100
AcDbEntity
  8
YKK_N1
100
AcDbLine
 10
5335.41991163
 20
14556.73494847
 30
0.0
 11
5406.41991163
 21
14556.73494847
 31
0.0
  0
LINE
  5
720
330
2D2
100
AcDbEntity
  8
YKK_N1
100
AcDbLine
 10
5405.41991163
 20
14706.73493953
 30
0.0
 11
5405.41991163
 21
14556.73494847
 31
0.0
  0
LINE
  5
721
330
2D2
100
AcDbEntity
  8
YKK_N1
100
AcDbLine
 10
5405.41991163
 20
14556.73494847
 30
0.0
 11
5405.41991163
 21
14411.40161514
 31
0.0
  0
INSERT
  5
722
330
2D2
100
AcDbEntity
  8
YKK_N1
100
AcDbBlockReference
  2
_DOTSMALL
 10
5405.41991163
 20
14706.73493953
 30
0.0
 41
17.0
 42
17.0
 43
17.0
 50
90.0
  0
INSERT
  5
723
330
2D2
100
AcDbEntity
  8
YKK_N1
100
AcDbBlockReference
  2
_DOTSMALL
 10
5405.41991163
 20
14556.73494847
 30
0.0
 41
17.0
 42
17.0
 43
17.0
 50
270.0
  0
MTEXT
  5
724
330
2D2
100
AcDbEntity
  8
YKK_N1
100
AcDbMText
 10
5370.41991163
 20
14475.56828181
 30
0.0
 40
50.0
 41
0.0
 71
     5
 72
     5
  1
150
 11
0.0
 21
1.0
 31
0.0
 73
     1
 44
1.0
  0
INSERT
  5
725
330
2D2
100
AcDbEntity
  8
YKK_N1
100
AcDbBlockReference
  2
_OPEN30
 10
4059.13419447
 20
15492.15499819
 30
0.0
 41
17.0
 42
17.0
 43
17.0
 50
294.22682935
1001
ACAD
1000
DSTYLE
1002
{
1070
     5
1000
OPEN30
1070
    77
1070
     1
1070
   147
1040
10.0
1070
   341
1005
2FD
1002
}
1000
LEANOF
1010
-10.0
1020
72.04407887
1030
0.0
  0
LWPOLYLINE
  5
726
330
2D2
100
AcDbEntity
  8
YKK_N1
100
AcDbPolyline
 90
        3
 70
     0
 43
0.0
 10
4052.15824279
 20
15507.6577753
 10
3901.68232109
 20
15842.06299802
 10
3645.34898775
 20
15842.06299802
1001
ACAD
1000
DSTYLE
1002
{
1070
     5
1000
OPEN30
1070
    77
1070
     1
1070
   147
1040
10.0
1070
   341
1005
2FD
1002
}
1000
LEANOF
1010
-10.0
1020
72.04407887
1030
0.0
  0
LINE
  5
727
330
2D2
100
AcDbEntity
  8
YKK_N1
100
AcDbLine
 10
3602.41998169
 20
15324.73493719
 30
0.0
 11
3531.41998169
 21
15324.73493719
 31
0.0
  0
LINE
  5
728
330
2D2
100
AcDbEntity
  8
YKK_N1
100
AcDbLine
 10
3602.41998169
 20
15436.73493886
 30
0.0
 11
3531.41998169
 21
15436.73493886
 31
0.0
  0
LINE
  5
729
330
2D2
100
AcDbEntity
  8
YKK_N1
100
AcDbLine
 10
3532.41998169
 20
15324.73493719
 30
0.0
 11
3532.41998169
 21
15436.73493886
 31
0.0
  0
LINE
  5
72A
330
2D2
100
AcDbEntity
  8
YKK_N1
100
AcDbLine
 10
3532.41998169
 20
15436.73493886
 30
0.0
 11
3532.41998169
 21
15657.0682722
 31
0.0
  0
INSERT
  5
72B
330
2D2
100
AcDbEntity
  8
YKK_N1
100
AcDbBlockReference
  2
_DOTSMALL
 10
3532.41998169
 20
15324.73493719
 30
0.0
 41
17.0
 42
17.0
 43
17.0
 50
270.0
  0
INSERT
  5
72C
330
2D2
100
AcDbEntity
  8
YKK_N1
100
AcDbBlockReference
  2
_DOTSMALL
 10
3532.41998169
 20
15436.73493886
 30
0.0
 41
17.0
 42
17.0
 43
17.0
 50
90.0
  0
MTEXT
  5
72D
330
2D2
100
AcDbEntity
  8
YKK_N1
100
AcDbMText
 10
3497.41998169
 20
15555.40160553
 30
0.0
 40
50.0
 41
0.0
 71
     5
 72
     5
  1
112
 11
0.0
 21
1.0
 31
0.0
 73
     1
 44
1.0
  0
MTEXT
  5
72E
330
2D2
100
AcDbEntity
  8
YKK_N1
100
AcDbMText
 10
3567.41998169
 20
15555.40160553
 30
0.0
 40
50.0
 41
0.0
 71
     5
 72
     5
  1
(126)
 11
0.0
 21
1.0
 31
0.0
 73
     1
 44
1.0
  0
TEXT
  5
72F
330
2D2
100
AcDbEntity
  8
YKK_N1
100
AcDbText
 10
3791.34898775
 20
15863.35225248
 30
0.0
 40
50.0
  1
中柱
 41
0.8
  7
TEXT-B
100
AcDbText
1001
ACAD
1000
MTEXTBEGIN
1070
    73
1070
     1
1070
    44
1040
1.0
1070
    74
1070
     0
1000
MTEXTEND
  0
TEXT
  5
730
330
2D2
100
AcDbEntity
  8
YKK_N1
100
AcDbText
 10
3655.34898775
 20
15780.01891915
 30
0.0
 40
50.0
  1
７５\U+00D7７５
 41
0.8
  7
TEXT-B
100
AcDbText
1001
ACAD
1000
MTEXTBEGIN
1070
    73
1070
     1
1070
    44
1040
1.0
1070
    74
1070
     0
1000
MTEXTEND
  0
INSERT
  5
731
330
2D2
100
AcDbEntity
  8
YKK_N1
100
AcDbBlockReference
  2
_OPEN30
 10
4877.25783962
 20
15480.82844843
 30
0.0
 41
17.0
 42
17.0
 43
17.0
 50
239.37601314
1001
ACAD
1000
DSTYLE
1002
{
1070
     5
1000
OPEN30
1070
    77
1070
     1
1070
   147
1040
10.0
1070
   341
1005
2FD
1002
}
1000
LEANOF
1010
13.49429813
1020
75.29818456
1030
0.0
  0
LWPOLYLINE
  5
732
330
2D2
100
AcDbEntity
  8
YKK_N1
100
AcDbPolyline
 90
        3
 70
     0
 43
0.0
 10
4885.91766886
 20
15495.45743874
 10
5085.50777448
 20
15832.6236387
 10
5341.84110781
 20
15832.6236387
1001
ACAD
1000
DSTYLE
1002
{
1070
     5
1000
OPEN30
1070
    77
1070
     1
1070
   147
1040
10.0
1070
   341
1005
2FD
1002
}
1000
LEANOF
1010
13.49429813
1020
75.29818456
1030
0.0
  0
LINE
  5
733
330
2D2
100
AcDbEntity
  8
YKK_N1
100
AcDbLine
 10
4483.41990497
 20
15536.73489185
 30
0.0
 11
4483.41990497
 21
15632.73488999
 31
0.0
  0
LINE
  5
734
330
2D2
100
AcDbEntity
  8
YKK_N1
100
AcDbLine
 10
4606.4199068
 20
15536.73489185
 30
0.0
 11
4606.4199068
 21
15632.73488999
 31
0.0
  0
LINE
  5
735
330
2D2
100
AcDbEntity
  8
YKK_N1
100
AcDbLine
 10
4483.41990497
 20
15631.73488999
 30
0.0
 11
4606.4199068
 21
15631.73488999
 31
0.0
  0
INSERT
  5
736
330
2D2
100
AcDbEntity
  8
YKK_N1
100
AcDbBlockReference
  2
_DOTSMALL
 10
4483.41990497
 20
15631.73488999
 30
0.0
 41
17.0
 42
17.0
 43
17.0
 50
180.0
  0
INSERT
  5
737
330
2D2
100
AcDbEntity
  8
YKK_N1
100
AcDbBlockReference
  2
_DOTSMALL
 10
4606.4199068
 20
15631.73488999
 30
0.0
 41
17.0
 42
17.0
 43
17.0
  0
MTEXT
  5
738
330
2D2
100
AcDbEntity
  8
YKK_N1
100
AcDbMText
 10
4544.91990588
 20
15666.73488999
 30
0.0
 40
50.0
 41
0.0
 71
     5
 72
     5
  1
Ｐ＝123
 73
     1
 44
1.0
  0
LINE
  5
739
330
2D2
100
AcDbEntity
  8
YKK_N1
100
AcDbLine
 10
4115.41989948
 20
15536.73489185
 30
0.0
 11
4115.41989948
 21
15632.73488999
 31
0.0
  0
LINE
  5
73A
330
2D2
100
AcDbEntity
  8
YKK_N1
100
AcDbLine
 10
4237.4199013
 20
15536.73489185
 30
0.0
 11
4237.4199013
 21
15632.73488999
 31
0.0
  0
LINE
  5
73B
330
2D2
100
AcDbEntity
  8
YKK_N1
100
AcDbLine
 10
4115.41989948
 20
15631.73488999
 30
0.0
 11
4237.4199013
 21
15631.73488999
 31
0.0
  0
INSERT
  5
73C
330
2D2
100
AcDbEntity
  8
YKK_N1
100
AcDbBlockReference
  2
_DOTSMALL
 10
4115.41989948
 20
15631.73488999
 30
0.0
 41
17.0
 42
17.0
 43
17.0
 50
180.0
  0
INSERT
  5
73D
330
2D2
100
AcDbEntity
  8
YKK_N1
100
AcDbBlockReference
  2
_DOTSMALL
 10
4237.4199013
 20
15631.73488999
 30
0.0
 41
17.0
 42
17.0
 43
17.0
  0
MTEXT
  5
73E
330
2D2
100
AcDbEntity
  8
YKK_N1
100
AcDbMText
 10
4167.91990039
 20
15666.73488999
 30
0.0
 40
50.0
 41
0.0
 71
     5
 72
     5
  1
122
 73
     1
 44
1.0
  0
INSERT
  5
73F
330
2D2
100
AcDbEntity
  8
YKK_N1
100
AcDbBlockReference
  2
_OPEN30
 10
4340.41990283
 20
15344.73493749
 30
0.0
 41
17.0
 42
17.0
 43
17.0
 50
260.10006408
1001
ACAD
1000
DSTYLE
1002
{
1070
     5
1000
OPEN30
1070
    77
1070
     1
1070
   147
1040
10.0
1070
   341
1005
2FD
1002
}
1000
LEANOF
1010
22.42333195
1020
76.84700636
1030
0.0
  0
LWPOLYLINE
  5
740
330
2D2
100
AcDbEntity
  8
YKK_N1
100
AcDbPolyline
 90
        3
 70
     0
 43
0.0
 10
4343.34267881
 20
15361.4817993
 10
4424.95728966
 20
15829.11552208
 10
4681.29062299
 20
15829.11552208
1001
ACAD
1000
DSTYLE
1002
{
1070
     5
1000
OPEN30
1070
    77
1070
     1
1070
   147
1040
10.0
1070
   341
1005
2FD
1002
}
1000
LEANOF
1010
22.42333195
1020
76.84700636
1030
0.0
  0
TEXT
  5
741
330
2D2
100
AcDbEntity
  8
YKK_N1
100
AcDbText
 10
4429.53395771
 20
15845.60184905
 30
0.0
 40
50.0
  1
井桁格子
 41
0.8
  7
TEXT-B
100
AcDbText
1001
ACAD
1000
MTEXTBEGIN
1070
    73
1070
     1
1070
    44
1040
1.0
1070
    74
1070
     0
1000
MTEXTEND
  0
TEXT
  5
742
330
2D2
100
AcDbEntity
  8
YKK_N1
100
AcDbText
 10
4429.53395771
 20
15762.26851572
 30
0.0
 40
50.0
  1
４０\U+00D7１０
 41
0.8
  7
TEXT-B
100
AcDbText
1001
ACAD
1000
MTEXTBEGIN
1070
    73
1070
     1
1070
    44
1040
1.0
1070
    74
1070
     0
1000
MTEXTEND
  0
INSERT
  5
743
330
2D2
100
AcDbEntity
  8
YKK_N1
100
AcDbBlockReference
  2
_OPEN30
 10
5265.75882821
 20
15495.22128582
 30
0.0
 41
17.0
 42
17.0
 43
17.0
 50
243.46575963
1001
ACAD
1000
DSTYLE
1002
{
1070
     5
1000
OPEN30
1070
    77
1070
     1
1070
   147
1040
10.0
1070
   341
1005
2FD
1002
}
1000
LEANOF
1010
11.48923667
1020
74.99966719
1030
0.0
  0
LWPOLYLINE
  5
744
330
2D2
100
AcDbEntity
  8
YKK_N1
100
AcDbPolyline
 90
        3
 70
     0
 43
0.0
 10
5273.3532816
 20
15510.43063418
 10
5436.31756413
 20
15836.79784127
 10
5692.65089746
 20
15836.79784127
1001
ACAD
1000
DSTYLE
1002
{
1070
     5
1000
OPEN30
1070
    77
1070
     1
1070
   147
1040
10.0
1070
   341
1005
2FD
1002
}
1000
LEANOF
1010
11.48923667
1020
74.99966719
1030
0.0
  0
LINE
  5
745
330
2D2
100
AcDbEntity
  8
YKK_N1
100
AcDbLine
 10
5335.41991163
 20
15506.73489185
 30
0.0
 11
5506.41991163
 21
15506.73489185
 31
0.0
  0
LINE
  5
746
330
2D2
100
AcDbEntity
  8
YKK_N1
100
AcDbLine
 10
5335.41991163
 20
15531.73488999
 30
0.0
 11
5506.41991163
 21
15531.73488999
 31
0.0
  0
LINE
  5
747
330
2D2
100
AcDbEntity
  8
YKK_N1
100
AcDbLine
 10
5505.41991163
 20
15506.73489185
 30
0.0
 11
5505.41991163
 21
15531.73488999
 31
0.0
  0
LINE
  5
748
330
2D2
100
AcDbEntity
  8
YKK_N1
100
AcDbLine
 10
5505.41991163
 20
15531.73488999
 30
0.0
 11
5505.41991163
 21
15669.06822332
 31
0.0
  0
INSERT
  5
749
330
2D2
100
AcDbEntity
  8
YKK_N1
100
AcDbBlockReference
  2
_DOTSMALL
 10
5505.41991163
 20
15531.73488999
 30
0.0
 41
17.0
 42
17.0
 43
17.0
 50
90.0
  0
MTEXT
  5
74A
330
2D2
100
AcDbEntity
  8
YKK_N1
100
AcDbMText
 10
5470.41991163
 20
15617.40155665
 30
0.0
 40
50.0
 41
0.0
 71
     5
 72
     5
  1
25
 11
0.0
 21
1.0
 31
0.0
 73
     1
 44
1.0
  0
TEXT
  5
74B
330
2D2
100
AcDbEntity
  8
YKK_N1
100
AcDbText
 10
5099.01347635
 20
15850.65878747
 30
0.0
 40
50.0
  1
上胴縁
 41
0.8
  7
TEXT-B
100
AcDbText
1001
ACAD
1000
MTEXTBEGIN
1070
    73
1070
     1
1070
    44
1040
1.0
1070
    74
1070
     0
1000
MTEXTEND
  0
TEXT
  5
74C
330
2D2
100
AcDbEntity
  8
YKK_N1
100
AcDbText
 10
5099.01347635
 20
15767.32545414
 30
0.0
 40
50.0
  1
５５\U+00D7７０
 41
0.8
  7
TEXT-B
100
AcDbText
1001
ACAD
1000
MTEXTBEGIN
1070
    73
1070
     1
1070
    44
1040
1.0
1070
    74
1070
     0
1000
MTEXTEND
  0
TEXT
  5
74D
330
2D2
100
AcDbEntity
  8
YKK_N1
100
AcDbText
 10
5451.82832746
 20
15855.13150742
 30
0.0
 40
50.0
  1
端柱
 41
0.8
  7
TEXT-B
100
AcDbText
1001
ACAD
1000
MTEXTBEGIN
1070
    73
1070
     1
1070
    44
1040
1.0
1070
    74
1070
     0
1000
MTEXTEND
  0
TEXT
  5
74E
330
2D2
100
AcDbEntity
  8
YKK_N1
100
AcDbText
 10
5451.82832746
 20
15771.79817409
 30
0.0
 40
50.0
  1
７５\U+00D7７５
 41
0.8
  7
TEXT-B
100
AcDbText
1001
ACAD
1000
MTEXTBEGIN
1070
    73
1070
     1
1070
    44
1040
1.0
1070
    74
1070
     0
1000
MTEXTEND
  0
LINE
  5
74F
330
2D2
100
AcDbEntity
  8
YKK_N1
100
AcDbLine
 10
14335.41991163
 20
15506.73489185
 30
0.0
 11
14506.41991163
 21
15506.73489185
 31
0.0
  0
LINE
  5
750
330
2D2
100
AcDbEntity
  8
YKK_N1
100
AcDbLine
 10
14335.41991163
 20
14706.73493953
 30
0.0
 11
14506.41991163
 21
14706.73493953
 31
0.0
  0
LINE
  5
751
330
2D2
100
AcDbEntity
  8
YKK_N1
100
AcDbLine
 10
14505.41991163
 20
15436.73489185
 30
0.0
 11
14505.41991163
 21
14776.73493953
 31
0.0
  0
INSERT
  5
752
330
2D2
100
AcDbEntity
  8
YKK_N1
100
AcDbBlockReference
  2
SYS_SANKAKU
 10
14505.41991163
 20
15506.73489185
 30
0.0
 41
70.0
 42
70.0
 43
70.0
 50
90.0
  0
INSERT
  5
753
330
2D2
100
AcDbEntity
  8
YKK_N1
100
AcDbBlockReference
  2
SYS_SANKAKU
 10
14505.41991163
 20
14706.73493953
 30
0.0
 41
70.0
 42
70.0
 43
70.0
 50
270.0
  0
MTEXT
  5
754
330
2D2
100
AcDbEntity
  8
YKK_N1
100
AcDbMText
 10
14470.41991163
 20
15106.73491569
 30
0.0
 40
50.0
 41
0.0
 71
     5
 72
     5
  1
Ｈ＝800(1000)
 11
0.0
 21
1.0
 31
0.0
 73
     1
 44
1.0
  0
LINE
  5
755
330
2D2
100
AcDbEntity
  8
YKK_N1
100
AcDbLine
 10
13067.91998539
 20
14526.73494847
 30
0.0
 11
13067.91998539
 21
14390.73320915
 31
0.0
  0
LINE
  5
756
330
2D2
100
AcDbEntity
  8
YKK_N1
100
AcDbLine
 10
14267.91991386
 20
14526.73494847
 30
0.0
 11
14267.91991386
 21
14390.73320915
 31
0.0
  0
LINE
  5
757
330
2D2
100
AcDbEntity
  8
YKK_N1
100
AcDbLine
 10
13067.91998539
 20
14391.73320915
 30
0.0
 11
14267.91991386
 21
14391.73320915
 31
0.0
  0
INSERT
  5
758
330
2D2
100
AcDbEntity
  8
YKK_N1
100
AcDbBlockReference
  2
_DOTSMALL
 10
13067.91998539
 20
14391.73320915
 30
0.0
 41
17.0
 42
17.0
 43
17.0
 50
180.0
  0
INSERT
  5
759
330
2D2
100
AcDbEntity
  8
YKK_N1
100
AcDbBlockReference
  2
_DOTSMALL
 10
14267.91991386
 20
14391.73320915
 30
0.0
 41
17.0
 42
17.0
 43
17.0
  0
MTEXT
  5
75A
330
2D2
100
AcDbEntity
  8
YKK_N1
100
AcDbMText
 10
13667.91994962
 20
14426.73320915
 30
0.0
 40
50.0
 41
0.0
 71
     5
 72
     5
  1
柱芯々：1200
 73
     1
 44
1.0
  0
INSERT
  5
75B
330
2D2
100
AcDbEntity
  8
YKK_N1
100
AcDbBlockReference
  2
_OPEN30
 10
13580.67004414
 20
14821.01466018
 30
0.0
 41
17.0
 42
17.0
 43
17.0
 50
60.27815013
1001
ACAD
1000
DSTYLE
1002
{
1070
     5
1000
OPEN30
1070
    77
1070
     1
1070
   147
1040
10.0
1070
   341
1005
2FD
1002
}
1000
LEANOF
1010
-19.43771393
1020
78.80752768
1030
0.0
  0
LWPOLYLINE
  5
75C
330
2D2
100
AcDbEntity
  8
YKK_N1
100
AcDbPolyline
 90
        3
 70
     0
 43
0.0
 10
13572.24161606
 20
14806.25113756
 10
13440.18163706
 20
14574.93036589
 10
13183.84830372
 20
14574.93036589
1001
ACAD
1000
DSTYLE
1002
{
1070
     5
1000
OPEN30
1070
    77
1070
     1
1070
   147
1040
10.0
1070
   341
1005
2FD
1002
}
1000
LEANOF
1010
-19.43771393
1020
78.80752768
1030
0.0
  0
TEXT
  5
75D
330
2D2
100
AcDbEntity
  8
YKK_N1
100
AcDbText
 10
12662.19376017
 20
14483.22392486
 30
0.0
 40
50.0
  1
柱埋込部
 41
0.8
  7
TEXT-B
100
AcDbText
1001
ACAD
1000
MTEXTBEGIN
1070
    73
1070
     1
1070
    44
1040
1.0
1070
    74
1070
     0
1000
MTEXTEND
  0
TEXT
  5
75E
330
2D2
100
AcDbEntity
  8
YKK_N1
100
AcDbText
 10
12624.86042683
 20
14399.89059153
 30
0.0
 40
50.0
  1
４０\U+00D7４０
 41
0.8
  7
TEXT-B
100
AcDbText
1001
ACAD
1000
MTEXTBEGIN
1070
    73
1070
     1
1070
    44
1040
1.0
1070
    74
1070
     0
1000
MTEXTEND
  0
INSERT
  5
75F
330
2D2
100
AcDbEntity
  8
YKK_N1
100
AcDbBlockReference
  2
_OPEN30
 10
13047.91998658
 20
14631.734944
 30
0.0
 41
17.0
 42
17.0
 43
17.0
 50
41.60547032
1001
ACAD
1000
DSTYLE
1002
{
1070
     5
1000
OPEN30
1070
    77
1070
     1
1070
   147
1040
10.0
1070
   341
1005
2FD
1002
}
1000
LEANOF
1010
-17.79433855
1020
77.98782214
1030
0.0
  0
LWPOLYLINE
  5
760
330
2D2
100
AcDbEntity
  8
YKK_N1
100
AcDbPolyline
 90
        3
 70
     0
 43
0.0
 10
13035.2084967
 20
14620.44698471
 10
12863.39942161
 20
14467.87841367
 10
12607.06608828
 20
14467.87841367
1001
ACAD
1000
DSTYLE
1002
{
1070
     5
1000
OPEN30
1070
    77
1070
     1
1070
   147
1040
10.0
1070
   341
1005
2FD
1002
}
1000
LEANOF
1010
-17.79433855
1020
77.98782214
1030
0.0
  0
TEXT
  5
761
330
2D2
100
AcDbEntity
  8
YKK_Z1
100
AcDbText
 10
12543.44355307
 20
14718.45630143
 30
0.0
 40
50.0
  1
Ｇ．Ｌ
 41
0.8
  7
TEXT-B
100
AcDbText
1001
ACAD
1000
MTEXTBEGIN
1070
    73
1070
     1
1070
    44
1040
1.0
1070
    74
1070
     0
1000
MTEXTEND
  0
TEXT
  5
762
330
2D2
100
AcDbEntity
  8
YKK_N1
100
AcDbText
 10
13288.61935099
 20
14589.45617154
 30
0.0
 40
50.0
  1
下胴縁
 41
0.8
  7
TEXT-B
100
AcDbText
1001
ACAD
1000
MTEXTBEGIN
1070
    73
1070
     1
1070
    44
1040
1.0
1070
    74
1070
     0
1000
MTEXTEND
  0
TEXT
  5
763
330
2D2
100
AcDbEntity
  8
YKK_N1
100
AcDbText
 10
13203.28601765
 20
14506.12283821
 30
0.0
 40
50.0
  1
５５\U+00D7７０
 41
0.8
  7
TEXT-B
100
AcDbText
1001
ACAD
1000
MTEXTBEGIN
1070
    73
1070
     1
1070
    44
1040
1.0
1070
    74
1070
     0
1000
MTEXTEND
  0
LINE
  5
764
330
2D2
100
AcDbEntity
  8
YKK_N1
100
AcDbLine
 10
14335.41991163
 20
14706.73493953
 30
0.0
 11
14406.41991163
 21
14706.73493953
 31
0.0
  0
LINE
  5
765
330
2D2
100
AcDbEntity
  8
YKK_N1
100
AcDbLine
 10
14335.41991163
 20
14556.73494847
 30
0.0
 11
14406.41991163
 21
14556.73494847
 31
0.0
  0
LINE
  5
766
330
2D2
100
AcDbEntity
  8
YKK_N1
100
AcDbLine
 10
14405.41991163
 20
14706.73493953
 30
0.0
 11
14405.41991163
 21
14556.73494847
 31
0.0
  0
LINE
  5
767
330
2D2
100
AcDbEntity
  8
YKK_N1
100
AcDbLine
 10
14405.41991163
 20
14556.73494847
 30
0.0
 11
14405.41991163
 21
14411.40161514
 31
0.0
  0
INSERT
  5
768
330
2D2
100
AcDbEntity
  8
YKK_N1
100
AcDbBlockReference
  2
_DOTSMALL
 10
14405.41991163
 20
14706.73493953
 30
0.0
 41
17.0
 42
17.0
 43
17.0
 50
90.0
  0
INSERT
  5
769
330
2D2
100
AcDbEntity
  8
YKK_N1
100
AcDbBlockReference
  2
_DOTSMALL
 10
14405.41991163
 20
14556.73494847
 30
0.0
 41
17.0
 42
17.0
 43
17.0
 50
270.0
  0
MTEXT
  5
76A
330
2D2
100
AcDbEntity
  8
YKK_N1
100
AcDbMText
 10
14370.41991163
 20
14475.56828181
 30
0.0
 40
50.0
 41
0.0
 71
     5
 72
     5
  1
150
 11
0.0
 21
1.0
 31
0.0
 73
     1
 44
1.0
  0
LINE
  5
76B
330
2D2
100
AcDbEntity
  8
YKK_N1
100
AcDbLine
 10
14335.41991163
 20
14706.73493953
 30
0.0
 11
14406.41991163
 21
14706.73493953
 31
0.0
  0
LINE
  5
76C
330
2D2
100
AcDbEntity
  8
YKK_N1
100
AcDbLine
 10
14335.41991163
 20
14806.73493357
 30
0.0
 11
14406.41991163
 21
14806.73493357
 31
0.0
  0
LINE
  5
76D
330
2D2
100
AcDbEntity
  8
YKK_N1
100
AcDbLine
 10
14405.41991163
 20
14706.73493953
 30
0.0
 11
14405.41991163
 21
14806.73493357
 31
0.0
  0
LINE
  5
76E
330
2D2
100
AcDbEntity
  8
YKK_N1
100
AcDbLine
 10
14405.41991163
 20
14806.73493357
 30
0.0
 11
14405.41991163
 21
14943.73493357
 31
0.0
  0
INSERT
  5
76F
330
2D2
100
AcDbEntity
  8
YKK_N1
100
AcDbBlockReference
  2
_DOTSMALL
 10
14405.41991163
 20
14706.73493953
 30
0.0
 41
17.0
 42
17.0
 43
17.0
 50
270.0
  0
INSERT
  5
770
330
2D2
100
AcDbEntity
  8
YKK_N1
100
AcDbBlockReference
  2
_DOTSMALL
 10
14405.41991163
 20
14806.73493357
 30
0.0
 41
17.0
 42
17.0
 43
17.0
 50
90.0
  0
MTEXT
  5
771
330
2D2
100
AcDbEntity
  8
YKK_N1
100
AcDbMText
 10
14370.41991163
 20
14883.73493357
 30
0.0
 40
50.0
 41
0.0
 71
     5
 72
     5
  1
100
 11
0.0
 21
1.0
 31
0.0
 73
     1
 44
1.0
  0
TEXT
  5
772
330
2D2
100
AcDbEntity
  8
YKK_N1
100
AcDbText
 10
14099.01347635
 20
15850.65878747
 30
0.0
 40
50.0
  1
上胴縁
 41
0.8
  7
TEXT-B
100
AcDbText
1001
ACAD
1000
MTEXTBEGIN
1070
    73
1070
     1
1070
    44
1040
1.0
1070
    74
1070
     0
1000
MTEXTEND
  0
TEXT
  5
773
330
2D2
100
AcDbEntity
  8
YKK_N1
100
AcDbText
 10
14099.01347635
 20
15767.32545414
 30
0.0
 40
50.0
  1
５５\U+00D7７０
 41
0.8
  7
TEXT-B
100
AcDbText
1001
ACAD
1000
MTEXTBEGIN
1070
    73
1070
     1
1070
    44
1040
1.0
1070
    74
1070
     0
1000
MTEXTEND
  0
INSERT
  5
774
330
2D2
100
AcDbEntity
  8
YKK_N1
100
AcDbBlockReference
  2
_OPEN30
 10
13877.25783962
 20
15480.82844843
 30
0.0
 41
17.0
 42
17.0
 43
17.0
 50
239.37601314
1001
ACAD
1000
DSTYLE
1002
{
1070
     5
1000
OPEN30
1070
    77
1070
     1
1070
   147
1040
10.0
1070
   341
1005
2FD
1002
}
1000
LEANOF
1010
13.49429813
1020
75.29818456
1030
0.0
  0
LWPOLYLINE
  5
775
330
2D2
100
AcDbEntity
  8
YKK_N1
100
AcDbPolyline
 90
        3
 70
     0
 43
0.0
 10
13885.91766886
 20
15495.45743874
 10
14085.50777448
 20
15832.6236387
 10
14341.84110781
 20
15832.6236387
1001
ACAD
1000
DSTYLE
1002
{
1070
     5
1000
OPEN30
1070
    77
1070
     1
1070
   147
1040
10.0
1070
   341
1005
2FD
1002
}
1000
LEANOF
1010
13.49429813
1020
75.29818456
1030
0.0
  0
LINE
  5
776
330
2D2
100
AcDbEntity
  8
YKK_N1
100
AcDbLine
 10
13373.06567239
 20
15536.44199863
 30
0.0
 11
13218.51954266
 21
15690.98812836
 31
0.0
  0
LINE
  5
777
330
2D2
100
AcDbEntity
  8
YKK_N1
100
AcDbLine
 10
13203.36005502
 20
15536.44199863
 30
0.0
 11
13133.66673397
 21
15606.13531968
 31
0.0
  0
LINE
  5
778
330
2D2
100
AcDbEntity
  8
YKK_N1
100
AcDbLine
 10
13219.22664944
 20
15690.28102158
 30
0.0
 11
13134.37384076
 21
15605.42821289
 31
0.0
  0
INSERT
  5
779
330
2D2
100
AcDbEntity
  8
YKK_N1
100
AcDbBlockReference
  2
_DOTSMALL
 10
13219.22664944
 20
15690.28102158
 30
0.0
 41
17.0
 42
17.0
 43
17.0
 50
45.0
  0
INSERT
  5
77A
330
2D2
100
AcDbEntity
  8
YKK_N1
100
AcDbBlockReference
  2
_DOTSMALL
 10
13134.37384076
 20
15605.42821289
 30
0.0
 41
17.0
 42
17.0
 43
17.0
 50
225.0
  0
MTEXT
  5
77B
330
2D2
100
AcDbEntity
  8
YKK_N1
100
AcDbMText
 10
13146.54241585
 20
15667.09426267
 30
0.0
 40
50.0
 41
0.0
 71
     5
 72
     5
  1
120
 11
0.70710678
 21
0.70710678
 31
0.0
 73
     1
 44
1.0
  0
INSERT
  5
77C
330
2D2
100
AcDbEntity
  8
YKK_N1
100
AcDbBlockReference
  2
_OPEN30
 10
13059.13419447
 20
15492.15499819
 30
0.0
 41
17.0
 42
17.0
 43
17.0
 50
294.22682935
1001
ACAD
1000
DSTYLE
1002
{
1070
     5
1000
OPEN30
1070
    77
1070
     1
1070
   147
1040
10.0
1070
   341
1005
2FD
1002
}
1000
LEANOF
1010
-10.0
1020
72.04407887
1030
0.0
  0
LWPOLYLINE
  5
77D
330
2D2
100
AcDbEntity
  8
YKK_N1
100
AcDbPolyline
 90
        3
 70
     0
 43
0.0
 10
13052.15824279
 20
15507.6577753
 10
12901.68232109
 20
15842.06299802
 10
12645.34898775
 20
15842.06299802
1001
ACAD
1000
DSTYLE
1002
{
1070
     5
1000
OPEN30
1070
    77
1070
     1
1070
   147
1040
10.0
1070
   341
1005
2FD
1002
}
1000
LEANOF
1010
-10.0
1020
72.04407887
1030
0.0
  0
TEXT
  5
77E
330
2D2
100
AcDbEntity
  8
YKK_N1
100
AcDbText
 10
12791.34898775
 20
15863.35225248
 30
0.0
 40
50.0
  1
中柱
 41
0.8
  7
TEXT-B
100
AcDbText
1001
ACAD
1000
MTEXTBEGIN
1070
    73
1070
     1
1070
    44
1040
1.0
1070
    74
1070
     0
1000
MTEXTEND
  0
TEXT
  5
77F
330
2D2
100
AcDbEntity
  8
YKK_N1
100
AcDbText
 10
12655.34898775
 20
15780.01891915
 30
0.0
 40
50.0
  1
７５\U+00D7７５
 41
0.8
  7
TEXT-B
100
AcDbText
1001
ACAD
1000
MTEXTBEGIN
1070
    73
1070
     1
1070
    44
1040
1.0
1070
    74
1070
     0
1000
MTEXTEND
  0
LINE
  5
780
330
2D2
100
AcDbEntity
  8
YKK_N1
100
AcDbLine
 10
13623.36299212
 20
15536.44199863
 30
0.0
 11
13774.49159039
 21
15687.5705969
 31
0.0
  0
LINE
  5
781
330
2D2
100
AcDbEntity
  8
YKK_N1
100
AcDbLine
 10
13793.06860949
 20
15536.44199863
 30
0.0
 11
13859.34439908
 21
15602.71778822
 31
0.0
  0
LINE
  5
782
330
2D2
100
AcDbEntity
  8
YKK_N1
100
AcDbLine
 10
13773.78448361
 20
15686.86349012
 30
0.0
 11
13858.6372923
 21
15602.01068144
 31
0.0
  0
INSERT
  5
783
330
2D2
100
AcDbEntity
  8
YKK_N1
100
AcDbBlockReference
  2
_DOTSMALL
 10
13773.78448361
 20
15686.86349012
 30
0.0
 41
17.0
 42
17.0
 43
17.0
 50
135.0
  0
INSERT
  5
784
330
2D2
100
AcDbEntity
  8
YKK_N1
100
AcDbBlockReference
  2
_DOTSMALL
 10
13858.6372923
 20
15602.01068144
 30
0.0
 41
17.0
 42
17.0
 43
17.0
 50
315.0
  0
MTEXT
  5
785
330
2D2
100
AcDbEntity
  8
YKK_N1
100
AcDbMText
 10
13847.33536251
 20
15662.81008591
 30
0.0
 40
50.0
 41
0.0
 71
     5
 72
     5
  1
120
 11
0.70710678
 21
-0.70710678
 31
0.0
 73
     1
 44
1.0
  0
INSERT
  5
786
330
2D2
100
AcDbEntity
  8
YKK_N1
100
AcDbBlockReference
  2
_OPEN30
 10
13469.93006269
 20
15411.29333876
 30
0.0
 41
17.0
 42
17.0
 43
17.0
 50
240.31841114
1001
ACAD
1000
DSTYLE
1002
{
1070
     5
1000
OPEN30
1070
    77
1070
     1
1070
   147
1040
10.0
1070
   341
1005
2FD
1002
}
1000
LEANOF
1010
22.42333195
1020
76.84700636
1030
0.0
  0
LWPOLYLINE
  5
787
330
2D2
100
AcDbEntity
  8
YKK_N1
100
AcDbPolyline
 90
        3
 70
     0
 43
0.0
 10
13478.34811455
 20
15426.06278029
 10
13708.07371912
 20
15829.11552208
 10
13969.74038579
 20
15829.11552208
1001
ACAD
1000
DSTYLE
1002
{
1070
     5
1000
OPEN30
1070
    77
1070
     1
1070
   147
1040
10.0
1070
   341
1005
2FD
1002
}
1000
LEANOF
1010
22.42333195
1020
76.84700636
1030
0.0
  0
TEXT
  5
788
330
2D2
100
AcDbEntity
  8
YKK_N1
100
AcDbText
 10
13712.65038717
 20
15845.60184905
 30
0.0
 40
50.0
  1
ラチス格子
 41
0.8
  7
TEXT-B
100
AcDbText
1001
ACAD
1000
MTEXTBEGIN
1070
    73
1070
     1
1070
    44
1040
1.0
1070
    74
1070
     0
1000
MTEXTEND
  0
TEXT
  5
789
330
2D2
100
AcDbEntity
  8
YKK_N1
100
AcDbText
 10
13712.65038717
 20
15762.26851572
 30
0.0
 40
50.0
  1
４０\U+00D7１０
 41
0.8
  7
TEXT-B
100
AcDbText
1001
ACAD
1000
MTEXTBEGIN
1070
    73
1070
     1
1070
    44
1040
1.0
1070
    74
1070
     0
1000
MTEXTEND
  0
INSERT
  5
78A
330
2D2
100
AcDbEntity
  8
YKK_N1
100
AcDbBlockReference
  2
_OPEN30
 10
14265.75882821
 20
15495.22128582
 30
0.0
 41
17.0
 42
17.0
 43
17.0
 50
243.46575963
1001
ACAD
1000
DSTYLE
1002
{
1070
     5
1000
OPEN30
1070
    77
1070
     1
1070
   147
1040
10.0
1070
   341
1005
2FD
1002
}
1000
LEANOF
1010
11.48923667
1020
74.99966719
1030
0.0
  0
LWPOLYLINE
  5
78B
330
2D2
100
AcDbEntity
  8
YKK_N1
100
AcDbPolyline
 90
        3
 70
     0
 43
0.0
 10
14273.3532816
 20
15510.43063418
 10
14436.31756413
 20
15836.79784127
 10
14692.65089746
 20
15836.79784127
1001
ACAD
1000
DSTYLE
1002
{
1070
     5
1000
OPEN30
1070
    77
1070
     1
1070
   147
1040
10.0
1070
   341
1005
2FD
1002
}
1000
LEANOF
1010
11.48923667
1020
74.99966719
1030
0.0
  0
LINE
  5
78C
330
2D2
100
AcDbEntity
  8
YKK_N1
100
AcDbLine
 10
14335.41991163
 20
15506.73489185
 30
0.0
 11
14506.41991163
 21
15506.73489185
 31
0.0
  0
LINE
  5
78D
330
2D2
100
AcDbEntity
  8
YKK_N1
100
AcDbLine
 10
14335.41991163
 20
15531.73488999
 30
0.0
 11
14506.41991163
 21
15531.73488999
 31
0.0
  0
LINE
  5
78E
330
2D2
100
AcDbEntity
  8
YKK_N1
100
AcDbLine
 10
14505.41991163
 20
15506.73489185
 30
0.0
 11
14505.41991163
 21
15531.73488999
 31
0.0
  0
LINE
  5
78F
330
2D2
100
AcDbEntity
  8
YKK_N1
100
AcDbLine
 10
14505.41991163
 20
15531.73488999
 30
0.0
 11
14505.41991163
 21
15669.06822332
 31
0.0
  0
INSERT
  5
790
330
2D2
100
AcDbEntity
  8
YKK_N1
100
AcDbBlockReference
  2
_DOTSMALL
 10
14505.41991163
 20
15531.73488999
 30
0.0
 41
17.0
 42
17.0
 43
17.0
 50
90.0
  0
MTEXT
  5
791
330
2D2
100
AcDbEntity
  8
YKK_N1
100
AcDbMText
 10
14470.41991163
 20
15617.40155665
 30
0.0
 40
50.0
 41
0.0
 71
     5
 72
     5
  1
25
 11
0.0
 21
1.0
 31
0.0
 73
     1
 44
1.0
  0
TEXT
  5
792
330
2D2
100
AcDbEntity
  8
YKK_N1
100
AcDbText
 10
14451.82832746
 20
15855.13150742
 30
0.0
 40
50.0
  1
端柱
 41
0.8
  7
TEXT-B
100
AcDbText
1001
ACAD
1000
MTEXTBEGIN
1070
    73
1070
     1
1070
    44
1040
1.0
1070
    74
1070
     0
1000
MTEXTEND
  0
TEXT
  5
793
330
2D2
100
AcDbEntity
  8
YKK_N1
100
AcDbText
 10
14451.82832746
 20
15771.79817409
 30
0.0
 40
50.0
  1
７５\U+00D7７５
 41
0.8
  7
TEXT-B
100
AcDbText
1001
ACAD
1000
MTEXTBEGIN
1070
    73
1070
     1
1070
    44
1040
1.0
1070
    74
1070
     0
1000
MTEXTEND
  0
ENDSEC
  0
SECTION
  2
OBJECTS
  0
DICTIONARY
  5
2C7
330
0
100
AcDbDictionary
281
     1
  3
ACAD_CIP_PREVIOUS_PRODUCT_INFO
350
84D
  3
ACAD_COLOR
350
7DF
  3
ACAD_DETAILVIEWSTYLE
350
7F8
  3
ACAD_GROUP
350
2C8
  3
ACAD_LAYOUT
350
7FF
  3
ACAD_MATERIAL
350
7AD
  3
ACAD_MLEADERSTYLE
350
7F4
  3
ACAD_MLINESTYLE
350
2D5
  3
ACAD_PLOTSETTINGS
350
7FE
  3
ACAD_PLOTSTYLENAME
350
7AB
  3
ACAD_SCALELIST
350
7E2
  3
ACAD_SECTIONVIEWSTYLE
350
7F6
  3
ACAD_TABLESTYLE
350
7E0
  3
ACAD_VISUALSTYLE
350
7C6
  3
ACDB_RECOMPOSE_DATA
350
853
  3
ACDBVARIABLEDICTIONARY
350
2E8
  0
XRECORD
  5
84D
102
{ACAD_REACTORS
330
2C7
102
}
330
2C7
100
AcDbXrecord
280
     1
300
ACD
300
2014
300
86063ACD_2014_0F
  0
DICTIONARY
  5
7DF
102
{ACAD_REACTORS
330
2C7
102
}
330
2C7
100
AcDbDictionary
281
     1
  0
DICTIONARY
  5
7F8
102
{ACAD_REACTORS
330
2C7
102
}
330
2C7
100
AcDbDictionary
281
     1
  3
Imperial24
350
7F9
  0
DICTIONARY
  5
2C8
102
{ACAD_REACTORS
330
2C7
102
}
330
2C7
100
AcDbDictionary
281
     1
  0
DICTIONARY
  5
7FF
102
{ACAD_REACTORS
330
2C7
102
}
330
2C7
100
AcDbDictionary
281
     1
  3
Model
350
800
  3
レイアウト1
350
801
  0
DICTIONARY
  5
7AD
102
{ACAD_REACTORS
330
2C7
102
}
330
2C7
100
AcDbDictionary
281
     1
  3
ByBlock
350
7B6
  3
ByLayer
350
7AE
  3
Global
350
7BE
  0
DICTIONARY
  5
7F4
102
{ACAD_REACTORS
330
2C7
102
}
330
2C7
100
AcDbDictionary
281
     1
  3
Standard
350
7F5
  0
DICTIONARY
  5
2D5
102
{ACAD_REACTORS
330
2C7
102
}
330
2C7
100
AcDbDictionary
281
     1
  3
STANDARD
350
2D6
  0
DICTIONARY
  5
7FE
102
{ACAD_REACTORS
330
2C7
102
}
330
2C7
100
AcDbDictionary
281
     1
  0
ACDBDICTIONARYWDFLT
  5
7AB
102
{ACAD_REACTORS
330
2C7
102
}
330
2C7
100
AcDbDictionary
281
     1
  3
Normal
350
7AC
100
AcDbDictionaryWithDefault
340
7AC
  0
DICTIONARY
  5
7E2
102
{ACAD_REACTORS
330
2C7
102
}
330
2C7
100
AcDbDictionary
281
     1
  3
A0
350
7E3
  3
A1
350
7E4
  3
A2
350
7E5
  3
A3
350
7E6
  3
A4
350
7E7
  3
A5
350
7E8
  3
A6
350
7E9
  3
A7
350
7EA
  3
A8
350
7EB
  3
A9
350
7EC
  3
B0
350
7ED
  3
B1
350
7EE
  3
B2
350
7EF
  3
B3
350
7F0
  3
B4
350
7F1
  3
B5
350
7F2
  3
B6
350
7F3
  0
DICTIONARY
  5
7F6
102
{ACAD_REACTORS
330
2C7
102
}
330
2C7
100
AcDbDictionary
281
     1
  3
Imperial24
350
7F7
  0
DICTIONARY
  5
7E0
102
{ACAD_REACTORS
330
2C7
102
}
330
2C7
100
AcDbDictionary
281
     1
  3
Standard
350
7E1
  0
DICTIONARY
  5
7C6
102
{ACAD_REACTORS
330
2C7
102
}
330
2C7
100
AcDbDictionary
281
     1
  3
2dWireframe
350
7CC
  3
Basic
350
7CB
  3
Brighten
350
7D2
  3
ColorChange
350
7D6
  3
Conceptual
350
7CF
  3
Dim
350
7D1
  3
EdgeColorOff
350
7DE
  3
Facepattern
350
7D5
  3
Flat
350
7C7
  3
FlatWithEdges
350
7C8
  3
Gouraud
350
7C9
  3
GouraudWithEdges
350
7CA
  3
Hidden
350
7CE
  3
JitterOff
350
7DC
  3
Linepattern
350
7D4
  3
OverhangOff
350
7DD
  3
Realistic
350
7D0
  3
Shaded
350
7DB
  3
Shaded with edges
350
7DA
  3
Shades of Gray
350
7D7
  3
Sketchy
350
7D8
  3
Thicken
350
7D3
  3
Wireframe
350
7CD
  3
X-Ray
350
7D9
  0
XRECORD
  5
853
102
{ACAD_REACTORS
330
2C7
102
}
330
2C7
100
AcDbXrecord
280
     1
 90
        1
330
7E1
  0
DICTIONARY
  5
2E8
102
{ACAD_REACTORS
330
2C7
102
}
330
2C7
100
AcDbDictionary
281
     1
  3
CANNOSCALE
350
844
  3
CMLEADERSTYLE
350
841
  3
CTABLESTYLE
350
840
  3
CVIEWDETAILSTYLE
350
842
  3
CVIEWSECTIONSTYLE
350
843
  3
DIMADEC
350
2E9
  3
XCLIPFRAME
350
851
  0
ACDBDETAILVIEWSTYLE
  5
7F9
102
{ACAD_XDICTIONARY
360
88C
102
}
102
{ACAD_REACTORS
330
7F8
102
}
330
7F8
100
AcDbModelDocViewStyle
 70
     0
  3
Imperial24
290
     0
100
AcDbDetailViewStyle
 70
     0
 71
     0
 90
        3
 71
     1
340
2CA
 62
   256
 40
0.24
340
0
 62
   256
 40
0.24
300

 40
0.36
280
     3
 71
     2
340
2CE
 90
       25
 62
   256
 71
     3
340
2CA
 62
   256
 40
0.24
 90
        1
 40
0.75
 90
        1
300
%<\AcVar ViewType \f "%tc1">% %<\AcVar ViewDetailId>%\PSCALE %<\AcVar ViewScale \f "%sn">%
 71
     4
340
2CE
 90
       25
 62
   256
340
2CE
 90
       25
 62
   256
280
     0
  0
LAYOUT
  5
800
102
{ACAD_REACTORS
330
7FF
102
}
330
7FF
100
AcDbPlotSettings
  1

  2
C:\ACAD-I\support\plotters\Default Windows System Printer.pc3
  4
A4
  6

 40
4.90008307
 41
4.90005732
 42
4.90008545
 43
4.90008545
 44
210.01567078
 45
297.01065063
 46
0.0
 47
0.0
 48
0.0
 49
0.0
140
0.0
141
0.0
142
1.0
143
3417.70219254
 70
 11952
 72
     0
 73
     1
 74
     0
  7
monochrome.ctb
 75
     0
147
0.00029259
 76
     0
 77
     2
 78
   300
148
14815.90302744
149
1933.85071929
100
AcDbLayout
  1
Model
 70
     1
 71
     0
 10
0.0
 20
0.0
 11
12.0
 21
9.0
 12
0.0
 22
0.0
 32
0.0
 14
0.0
 24
0.0
 34
0.0
 15
0.0
 25
0.0
 35
0.0
146
0.0
 13
0.0
 23
0.0
 33
0.0
 16
1.0
 26
0.0
 36
0.0
 17
0.0
 27
1.0
 37
0.0
 76
     0
330
2D2
1001
ACAD_PSEXT
1000
C:\ACAD-I\support\plotters\Default Windows System Printer.pc3
1000
FX ApeosPort-IV C4475
1000
IP_10.230.204.203
1000

1070
     0
  0
LAYOUT
  5
801
102
{ACAD_REACTORS
330
7FF
102
}
330
7FF
100
AcDbPlotSettings
  1

  2
C:\ACAD-I\support\plotters\Default Windows System Printer.pc3
  4
A4
  6

 40
4.90008307
 41
4.90005732
 42
4.90008545
 43
4.90008545
 44
210.01567078
 45
297.01065063
 46
0.0
 47
0.0
 48
0.0
 49
0.0
140
0.0
141
0.0
142
1.0
143
1.0
 70
 15024
 72
     0
 73
     1
 74
     5
  7
monochrome.ctb
 75
    16
147
1.0
 76
     0
 77
     2
 78
   300
148
0.0
149
0.0
100
AcDbLayout
  1
レイアウト1
 70
     0
 71
     1
 10
0.0
 20
0.0
 11
12.0
 21
9.0
 12
0.0
 22
0.0
 32
0.0
 14
1.00000000E+20
 24
1.00000000E+20
 34
1.00000000E+20
 15
-1.00000000E+20
 25
-1.00000000E+20
 35
-1.00000000E+20
146
0.0
 13
0.0
 23
0.0
 33
0.0
 16
1.0
 26
0.0
 36
0.0
 17
0.0
 27
1.0
 37
0.0
 76
     0
330
2CF
1001
ACAD_PSEXT
1000
C:\ACAD-I\support\plotters\Default Windows System Printer.pc3
1000
FX ApeosPort-IV C4475
1000
IP_10.230.204.203
1000

1070
     0
  0
MATERIAL
  5
7B6
102
{ACAD_XDICTIONARY
360
7B7
102
}
102
{ACAD_REACTORS
330
7AD
102
}
330
7AD
100
AcDbMaterial
  1
ByBlock
 72
     0
 43
0.02083333
 43
0.0
 43
0.0
 43
0.0
 43
0.0
 43
0.02083333
 43
0.0
 43
0.0
 43
0.0
 43
0.0
 43
1.0
 43
0.0
 43
0.0
 43
0.0
 43
0.0
 43
1.0
 77
     0
 47
0.02083333
 47
0.0
 47
0.0
 47
0.0
 47
0.0
 47
0.02083333
 47
0.0
 47
0.0
 47
0.0
 47
0.0
 47
1.0
 47
0.0
 47
0.0
 47
0.0
 47
0.0
 47
1.0
171
     0
 49
0.02083333
 49
0.0
 49
0.0
 49
0.0
 49
0.0
 49
0.02083333
 49
0.0
 49
0.0
 49
0.0
 49
0.0
 49
1.0
 49
0.0
 49
0.0
 49
0.0
 49
0.0
 49
1.0
175
     0
142
0.02083333
142
0.0
142
0.0
142
0.0
142
0.0
142
0.02083333
142
0.0
142
0.0
142
0.0
142
0.0
142
1.0
142
0.0
142
0.0
142
0.0
142
0.0
142
1.0
179
     0
144
0.02083333
144
0.0
144
0.0
144
0.0
144
0.0
144
0.02083333
144
0.0
144
0.0
144
0.0
144
0.0
144
1.0
144
0.0
144
0.0
144
0.0
144
0.0
144
1.0
147
0.02083333
147
0.0
147
0.0
147
0.0
147
0.0
147
0.02083333
147
0.0
147
0.0
147
0.0
147
0.0
147
1.0
147
0.0
147
0.0
147
0.0
147
0.0
147
1.0
  0
MATERIAL
  5
7AE
102
{ACAD_XDICTIONARY
360
7AF
102
}
102
{ACAD_REACTORS
330
7AD
102
}
330
7AD
100
AcDbMaterial
  1
ByLayer
 72
     0
 43
0.02083333
 43
0.0
 43
0.0
 43
0.0
 43
0.0
 43
0.02083333
 43
0.0
 43
0.0
 43
0.0
 43
0.0
 43
1.0
 43
0.0
 43
0.0
 43
0.0
 43
0.0
 43
1.0
 77
     0
 47
0.02083333
 47
0.0
 47
0.0
 47
0.0
 47
0.0
 47
0.02083333
 47
0.0
 47
0.0
 47
0.0
 47
0.0
 47
1.0
 47
0.0
 47
0.0
 47
0.0
 47
0.0
 47
1.0
171
     0
 49
0.02083333
 49
0.0
 49
0.0
 49
0.0
 49
0.0
 49
0.02083333
 49
0.0
 49
0.0
 49
0.0
 49
0.0
 49
1.0
 49
0.0
 49
0.0
 49
0.0
 49
0.0
 49
1.0
175
     0
142
0.02083333
142
0.0
142
0.0
142
0.0
142
0.0
142
0.02083333
142
0.0
142
0.0
142
0.0
142
0.0
142
1.0
142
0.0
142
0.0
142
0.0
142
0.0
142
1.0
179
     0
144
0.02083333
144
0.0
144
0.0
144
0.0
144
0.0
144
0.02083333
144
0.0
144
0.0
144
0.0
144
0.0
144
1.0
144
0.0
144
0.0
144
0.0
144
0.0
144
1.0
147
0.02083333
147
0.0
147
0.0
147
0.0
147
0.0
147
0.02083333
147
0.0
147
0.0
147
0.0
147
0.0
147
1.0
147
0.0
147
0.0
147
0.0
147
0.0
147
1.0
  0
MATERIAL
  5
7BE
102
{ACAD_XDICTIONARY
360
7BF
102
}
102
{ACAD_REACTORS
330
7AD
102
}
330
7AD
100
AcDbMaterial
  1
Global
 72
     0
 43
0.02083333
 43
0.0
 43
0.0
 43
0.0
 43
0.0
 43
0.02083333
 43
0.0
 43
0.0
 43
0.0
 43
0.0
 43
1.0
 43
0.0
 43
0.0
 43
0.0
 43
0.0
 43
1.0
 77
     0
 47
0.02083333
 47
0.0
 47
0.0
 47
0.0
 47
0.0
 47
0.02083333
 47
0.0
 47
0.0
 47
0.0
 47
0.0
 47
1.0
 47
0.0
 47
0.0
 47
0.0
 47
0.0
 47
1.0
171
     0
 49
0.02083333
 49
0.0
 49
0.0
 49
0.0
 49
0.0
 49
0.02083333
 49
0.0
 49
0.0
 49
0.0
 49
0.0
 49
1.0
 49
0.0
 49
0.0
 49
0.0
 49
0.0
 49
1.0
175
     0
142
0.02083333
142
0.0
142
0.0
142
0.0
142
0.0
142
0.02083333
142
0.0
142
0.0
142
0.0
142
0.0
142
1.0
142
0.0
142
0.0
142
0.0
142
0.0
142
1.0
179
     0
144
0.02083333
144
0.0
144
0.0
144
0.0
144
0.0
144
0.02083333
144
0.0
144
0.0
144
0.0
144
0.0
144
1.0
144
0.0
144
0.0
144
0.0
144
0.0
144
1.0
147
0.02083333
147
0.0
147
0.0
147
0.0
147
0.0
147
0.02083333
147
0.0
147
0.0
147
0.0
147
0.0
147
1.0
147
0.0
147
0.0
147
0.0
147
0.0
147
1.0
  0
MLEADERSTYLE
  5
7F5
102
{ACAD_XDICTIONARY
360
888
102
}
102
{ACAD_REACTORS
330
7F4
102
}
330
7F4
100
AcDbMLeaderStyle
170
     2
171
     1
172
     0
 90
        2
 40
0.0
 41
0.0
173
     1
 91
-1056964608
340
2CC
 92
       -2
290
     1
 42
0.09
291
     1
 43
0.36
  3
Standard
 44
0.18
300

342
2CA
174
     1
178
     6
175
     1
176
     0
 93
-1056964608
 45
0.18
292
     0
297
     0
 46
0.18
 94
-1056964608
 47
1.0
 49
1.0
140
1.0
293
     1
141
0.0
294
     1
177
     0
142
1.0
295
     0
296
     0
143
0.125
1001
ACAD_MLEADERVER
1070
     2
  0
MLINESTYLE
  5
2D6
102
{ACAD_REACTORS
330
2D5
102
}
330
2D5
100
AcDbMlineStyle
  2
STANDARD
 70
     0
  3

 62
   256
 51
90.0
 52
90.0
 71
     2
 49
0.5
 62
   256
  6
BYLAYER
 49
-0.5
 62
   256
  6
BYLAYER
  0
ACDBPLACEHOLDER
  5
7AC
102
{ACAD_REACTORS
330
7AB
102
}
330
7AB
  0
SCALE
  5
7E3
102
{ACAD_REACTORS
330
7E2
102
}
330
7E2
100
AcDbScale
 70
     0
300
1:1
140
1.0
141
1.0
290
     1
  0
SCALE
  5
7E4
102
{ACAD_REACTORS
330
7E2
102
}
330
7E2
100
AcDbScale
 70
     0
300
1/128" = 1'-0"
140
0.0078125
141
12.0
290
     0
  0
SCALE
  5
7E5
102
{ACAD_REACTORS
330
7E2
102
}
330
7E2
100
AcDbScale
 70
     0
300
1/64" = 1'-0"
140
0.015625
141
12.0
290
     0
  0
SCALE
  5
7E6
102
{ACAD_REACTORS
330
7E2
102
}
330
7E2
100
AcDbScale
 70
     0
300
1/32" = 1'-0"
140
0.03125
141
12.0
290
     0
  0
SCALE
  5
7E7
102
{ACAD_REACTORS
330
7E2
102
}
330
7E2
100
AcDbScale
 70
     0
300
1/16" = 1'-0"
140
0.0625
141
12.0
290
     0
  0
SCALE
  5
7E8
102
{ACAD_REACTORS
330
7E2
102
}
330
7E2
100
AcDbScale
 70
     0
300
3/32" = 1'-0"
140
0.09375
141
12.0
290
     0
  0
SCALE
  5
7E9
102
{ACAD_REACTORS
330
7E2
102
}
330
7E2
100
AcDbScale
 70
     0
300
1/8" = 1'-0"
140
0.125
141
12.0
290
     0
  0
SCALE
  5
7EA
102
{ACAD_REACTORS
330
7E2
102
}
330
7E2
100
AcDbScale
 70
     0
300
3/16" = 1'-0"
140
0.1875
141
12.0
290
     0
  0
SCALE
  5
7EB
102
{ACAD_REACTORS
330
7E2
102
}
330
7E2
100
AcDbScale
 70
     0
300
1/4" = 1'-0"
140
0.25
141
12.0
290
     0
  0
SCALE
  5
7EC
102
{ACAD_REACTORS
330
7E2
102
}
330
7E2
100
AcDbScale
 70
     0
300
3/8" = 1'-0"
140
0.375
141
12.0
290
     0
  0
SCALE
  5
7ED
102
{ACAD_REACTORS
330
7E2
102
}
330
7E2
100
AcDbScale
 70
     0
300
1/2" = 1'-0"
140
0.5
141
12.0
290
     0
  0
SCALE
  5
7EE
102
{ACAD_REACTORS
330
7E2
102
}
330
7E2
100
AcDbScale
 70
     0
300
3/4" = 1'-0"
140
0.75
141
12.0
290
     0
  0
SCALE
  5
7EF
102
{ACAD_REACTORS
330
7E2
102
}
330
7E2
100
AcDbScale
 70
     0
300
1" = 1'-0"
140
1.0
141
12.0
290
     0
  0
SCALE
  5
7F0
102
{ACAD_REACTORS
330
7E2
102
}
330
7E2
100
AcDbScale
 70
     0
300
1-1/2" = 1'-0"
140
1.5
141
12.0
290
     0
  0
SCALE
  5
7F1
102
{ACAD_REACTORS
330
7E2
102
}
330
7E2
100
AcDbScale
 70
     0
300
3" = 1'-0"
140
3.0
141
12.0
290
     0
  0
SCALE
  5
7F2
102
{ACAD_REACTORS
330
7E2
102
}
330
7E2
100
AcDbScale
 70
     0
300
6" = 1'-0"
140
6.0
141
12.0
290
     0
  0
SCALE
  5
7F3
102
{ACAD_REACTORS
330
7E2
102
}
330
7E2
100
AcDbScale
 70
     0
300
1'-0" = 1'-0"
140
12.0
141
12.0
290
     0
  0
ACDBSECTIONVIEWSTYLE
  5
7F7
102
{ACAD_XDICTIONARY
360
88A
102
}
102
{ACAD_REACTORS
330
7F6
102
}
330
7F6
100
AcDbModelDocViewStyle
 70
     0
  3
Imperial24
290
     0
100
AcDbSectionViewStyle
 70
     0
 71
     0
 90
      102
 71
     1
340
2CA
 62
   256
 40
5.0
340
0
340
0
 62
   256
 40
5.0
300
I, O, Q, S, X, Z
 40
10.0
 90
        0
 40
2.5
 90
        0
 71
     2
340
2CE
 90
       25
 62
   256
340
2CE
 90
       50
 62
   256
 40
5.0
 40
2.5
 40
5.0
 71
     3
340
2CA
 62
   256
 40
5.0
 90
        0
 40
15.0
 90
        1
300
%<\AcVar ViewSectionStartId>%-%<\AcVar ViewSectionEndId>% (%<\AcVar ViewScale \f "%sn">%)
 71
     4
 62
   256
 62
   257
300
ANSI31
 40
1.0
 90
        0
290
     0
290
     0
 90
        6
 40
0.0
 40
1.57079633
 40
0.26179939
 40
1.30899694
 40
-0.26179939
 40
1.83259571
  0
TABLESTYLE
  5
7E1
102
{ACAD_XDICTIONARY
360
802
102
}
102
{ACAD_REACTORS
330
7E0
102
}
330
7E0
100
AcDbTableStyle
  3
Standard
 70
     0
 71
     0
 40
0.06
 41
0.06
280
     0
281
     0
  7
STANDARD
140
0.18
170
     2
 62
     0
 63
     7
283
     0
274
    -2
284
     1
 64
     0
275
    -2
285
     1
 65
     0
276
    -2
286
     1
 66
     0
277
    -2
287
     1
 67
     0
278
    -2
288
     1
 68
     0
279
    -2
289
     1
 69
     0
  7
STANDARD
140
0.25
170
     5
 62
     0
 63
     7
283
     0
274
    -2
284
     1
 64
     0
275
    -2
285
     1
 65
     0
276
    -2
286
     1
 66
     0
277
    -2
287
     1
 67
     0
278
    -2
288
     1
 68
     0
279
    -2
289
     1
 69
     0
  7
STANDARD
140
0.18
170
     5
 62
     0
 63
     7
283
     0
274
    -2
284
     1
 64
     0
275
    -2
285
     1
 65
     0
276
    -2
286
     1
 66
     0
277
    -2
287
     1
 67
     0
278
    -2
288
     1
 68
     0
279
    -2
289
     1
 69
     0
  0
VISUALSTYLE
  5
7CC
102
{ACAD_XDICTIONARY
360
861
102
}
102
{ACAD_REACTORS
330
7C6
102
}
330
7C6
100
AcDbVisualStyle
  2
2dWireframe
 70
     4
 71
     0
 72
     2
 73
     0
 90
        0
 40
-0.6
 41
-30.0
 62
     5
 63
     7
421
 16777215
 74
     1
 91
        4
 64
     7
 65
   257
 75
     1
175
     1
 42
1.0
 92
        0
 66
   257
 43
1.0
 76
     1
 77
     6
 78
     2
 67
     7
 79
     5
170
     0
171
     0
290
     0
174
     0
 93
        1
 44
0.0
173
     0
291
     0
 45
0.0
1001
ACAD
1000
AcDbSavedByObjectVersion
1070
     0
  0
VISUALSTYLE
  5
7CB
102
{ACAD_XDICTIONARY
360
85F
102
}
102
{ACAD_REACTORS
330
7C6
102
}
330
7C6
100
AcDbVisualStyle
  2
Basic
 70
     7
 71
     1
 72
     0
 73
     1
 90
        0
 40
-0.6
 41
-30.0
 62
     5
 63
     7
421
 16777215
 74
     0
 91
        4
 64
     7
 65
   257
 75
     1
175
     1
 42
1.0
 92
        8
 66
     7
 43
1.0
 76
     1
 77
     6
 78
     2
 67
     7
 79
     5
170
     0
171
     0
290
     0
174
     0
 93
        1
 44
0.0
173
     0
291
     1
 45
0.0
1001
ACAD
1000
AcDbSavedByObjectVersion
1070
     0
  0
VISUALSTYLE
  5
7D2
102
{ACAD_XDICTIONARY
360
86D
102
}
102
{ACAD_REACTORS
330
7C6
102
}
330
7C6
100
AcDbVisualStyle
  2
Brighten
 70
    12
 71
     2
 72
     2
 73
     0
 90
        0
 40
-0.6
 41
-30.0
 62
     5
 63
     7
421
 16777215
 74
     1
 91
        4
 64
     7
 65
   257
 75
     1
175
     1
 42
1.0
 92
        8
 66
     7
 43
1.0
 76
     1
 77
     6
 78
     2
 67
     7
 79
     5
170
     0
171
     0
290
     0
174
     0
 93
        1
 44
50.0
173
     0
291
     1
 45
0.0
1001
ACAD
1000
AcDbSavedByObjectVersion
1070
     0
  0
VISUALSTYLE
  5
7D6
102
{ACAD_XDICTIONARY
360
875
102
}
102
{ACAD_REACTORS
330
7C6
102
}
330
7C6
100
AcDbVisualStyle
  2
ColorChange
 70
    16
 71
     2
 72
     2
 73
     3
 90
        0
 40
-0.6
 41
-30.0
 62
     5
 63
     8
421
  8421504
 74
     1
 91
        4
 64
     7
 65
   257
 75
     1
175
     1
 42
1.0
 92
        8
 66
     8
424
  8421504
 43
1.0
 76
     1
 77
     6
 78
     2
 67
     7
 79
     5
170
     0
171
     0
290
     0
174
     0
 93
        1
 44
0.0
173
     0
291
     1
 45
0.0
1001
ACAD
1000
AcDbSavedByObjectVersion
1070
     0
  0
VISUALSTYLE
  5
7CF
102
{ACAD_XDICTIONARY
360
867
102
}
102
{ACAD_REACTORS
330
7C6
102
}
330
7C6
100
AcDbVisualStyle
  2
Conceptual
 70
     9
 71
     3
 72
     2
 73
     0
 90
        0
 40
-0.6
 41
-30.0
 62
     5
 63
     7
421
 16777215
 74
     2
 91
        2
 64
     7
 65
   257
 75
     1
175
     1
 42
179.0
 92
        8
 66
     7
 43
1.0
 76
     1
 77
     6
 78
     2
 67
     7
 79
     3
170
     0
171
     0
290
     0
174
     0
 93
        1
 44
0.0
173
     0
291
     0
 45
0.0
1001
ACAD
1000
AcDbSavedByObjectVersion
1070
     0
  0
VISUALSTYLE
  5
7D1
102
{ACAD_XDICTIONARY
360
86B
102
}
102
{ACAD_REACTORS
330
7C6
102
}
330
7C6
100
AcDbVisualStyle
  2
Dim
 70
    11
 71
     2
 72
     2
 73
     0
 90
        0
 40
-0.6
 41
-30.0
 62
     5
 63
     7
421
 16777215
 74
     1
 91
        4
 64
     7
 65
   257
 75
     1
175
     1
 42
1.0
 92
        8
 66
     7
 43
1.0
 76
     1
 77
     6
 78
     2
 67
     7
 79
     5
170
     0
171
     0
290
     0
174
     0
 93
        1
 44
-50.0
173
     0
291
     1
 45
0.0
1001
ACAD
1000
AcDbSavedByObjectVersion
1070
     0
  0
VISUALSTYLE
  5
7DE
102
{ACAD_XDICTIONARY
360
885
102
}
102
{ACAD_REACTORS
330
7C6
102
}
330
7C6
100
AcDbVisualStyle
  2
EdgeColorOff
 70
    22
 71
     2
 72
     2
 73
     0
 90
        0
 40
-0.6
 41
-30.0
 62
     5
 63
     7
421
 16777215
 74
     1
 91
        4
 64
     7
 65
   257
 75
     1
175
     1
 42
1.0
 92
        8
 66
     7
 43
1.0
 76
     1
 77
     6
 78
     2
 67
     7
 79
     5
170
     0
171
     0
290
     0
174
     0
 93
        1
 44
0.0
173
     0
291
     1
 45
0.0
1001
ACAD
1000
AcDbSavedByObjectVersion
1070
     0
  0
VISUALSTYLE
  5
7D5
102
{ACAD_XDICTIONARY
360
873
102
}
102
{ACAD_REACTORS
330
7C6
102
}
330
7C6
100
AcDbVisualStyle
  2
Facepattern
 70
    15
 71
     2
 72
     2
 73
     0
 90
        0
 40
-0.6
 41
-30.0
 62
     5
 63
     7
421
 16777215
 74
     1
 91
        4
 64
     7
 65
   257
 75
     1
175
     1
 42
1.0
 92
        8
 66
     7
 43
1.0
 76
     1
 77
     6
 78
     2
 67
     7
 79
     5
170
     0
171
     0
290
     0
174
     0
 93
        1
 44
0.0
173
     0
291
     1
 45
0.0
1001
ACAD
1000
AcDbSavedByObjectVersion
1070
     0
  0
VISUALSTYLE
  5
7C7
102
{ACAD_XDICTIONARY
360
857
102
}
102
{ACAD_REACTORS
330
7C6
102
}
330
7C6
100
AcDbVisualStyle
  2
Flat
 70
     0
 71
     2
 72
     1
 73
     1
 90
        2
 40
-0.6
 41
30.0
 62
     5
 63
     7
421
 16777215
 74
     0
 91
        0
 64
     7
 65
   257
 75
     1
175
     1
 42
1.0
 92
        8
 66
     7
 43
1.0
 76
     1
 77
     6
 78
     2
 67
     7
 79
     5
170
     0
171
     0
290
     0
174
     0
 93
       13
 44
0.0
173
     0
291
     1
 45
0.0
1001
ACAD
1000
AcDbSavedByObjectVersion
1070
     0
  0
VISUALSTYLE
  5
7C8
102
{ACAD_XDICTIONARY
360
859
102
}
102
{ACAD_REACTORS
330
7C6
102
}
330
7C6
100
AcDbVisualStyle
  2
FlatWithEdges
 70
     1
 71
     2
 72
     1
 73
     1
 90
        2
 40
-0.6
 41
30.0
 62
     5
 63
     7
421
 16777215
 74
     1
 91
        0
 64
     7
 65
   257
 75
     1
175
     1
 42
1.0
 92
        0
 66
   257
 43
1.0
 76
     1
 77
     6
 78
     2
 67
     7
 79
     5
170
     0
171
     0
290
     0
174
     0
 93
       13
 44
0.0
173
     0
291
     1
 45
0.0
1001
ACAD
1000
AcDbSavedByObjectVersion
1070
     0
  0
VISUALSTYLE
  5
7C9
102
{ACAD_XDICTIONARY
360
85B
102
}
102
{ACAD_REACTORS
330
7C6
102
}
330
7C6
100
AcDbVisualStyle
  2
Gouraud
 70
     2
 71
     2
 72
     2
 73
     1
 90
        2
 40
-0.6
 41
30.0
 62
     5
 63
     7
421
 16777215
 74
     0
 91
        0
 64
     7
 65
   257
 75
     1
175
     1
 42
1.0
 92
        0
 66
     7
 43
1.0
 76
     1
 77
     6
 78
     2
 67
     7
 79
     5
170
     0
171
     0
290
     0
174
     0
 93
       13
 44
0.0
173
     0
291
     1
 45
0.0
1001
ACAD
1000
AcDbSavedByObjectVersion
1070
     0
  0
VISUALSTYLE
  5
7CA
102
{ACAD_XDICTIONARY
360
85D
102
}
102
{ACAD_REACTORS
330
7C6
102
}
330
7C6
100
AcDbVisualStyle
  2
GouraudWithEdges
 70
     3
 71
     2
 72
     2
 73
     1
 90
        2
 40
-0.6
 41
30.0
 62
     5
 63
     7
421
 16777215
 74
     1
 91
        0
 64
     7
 65
   257
 75
     1
175
     1
 42
1.0
 92
        0
 66
   257
 43
1.0
 76
     1
 77
     6
 78
     2
 67
     7
 79
     5
170
     0
171
     0
290
     0
174
     0
 93
       13
 44
0.0
173
     0
291
     1
 45
0.0
1001
ACAD
1000
AcDbSavedByObjectVersion
1070
     0
  0
VISUALSTYLE
  5
7CE
102
{ACAD_XDICTIONARY
360
865
102
}
102
{ACAD_REACTORS
330
7C6
102
}
330
7C6
100
AcDbVisualStyle
  2
Hidden
 70
     6
 71
     1
 72
     2
 73
     2
 90
        0
 40
-0.6
 41
-30.0
 62
     5
 63
     7
421
 16777215
 74
     2
 91
        2
 64
     7
 65
   257
 75
     2
175
     1
 42
40.0
 92
        0
 66
   257
 43
1.0
 76
     1
 77
     6
 78
     2
 67
     7
 79
     3
170
     0
171
     0
290
     0
174
     0
 93
        1
 44
0.0
173
     0
291
     0
 45
0.0
1001
ACAD
1000
AcDbSavedByObjectVersion
1070
     0
  0
VISUALSTYLE
  5
7DC
102
{ACAD_XDICTIONARY
360
881
102
}
102
{ACAD_REACTORS
330
7C6
102
}
330
7C6
100
AcDbVisualStyle
  2
JitterOff
 70
    20
 71
     2
 72
     2
 73
     0
 90
        0
 40
-0.6
 41
-30.0
 62
     5
 63
     7
421
 16777215
 74
     1
 91
        4
 64
     7
 65
   257
 75
     1
175
     1
 42
1.0
 92
       10
 66
     7
 43
1.0
 76
     1
 77
     6
 78
     2
 67
     7
 79
     5
170
     0
171
     0
290
     0
174
     0
 93
        1
 44
0.0
173
     0
291
     1
 45
0.0
1001
ACAD
1000
AcDbSavedByObjectVersion
1070
     0
  0
VISUALSTYLE
  5
7D4
102
{ACAD_XDICTIONARY
360
871
102
}
102
{ACAD_REACTORS
330
7C6
102
}
330
7C6
100
AcDbVisualStyle
  2
Linepattern
 70
    14
 71
     2
 72
     2
 73
     0
 90
        0
 40
-0.6
 41
-30.0
 62
     5
 63
     7
421
 16777215
 74
     1
 91
        4
 64
     7
 65
   257
 75
     7
175
     7
 42
1.0
 92
        8
 66
     7
 43
1.0
 76
     1
 77
     6
 78
     2
 67
     7
 79
     5
170
     0
171
     0
290
     0
174
     0
 93
        1
 44
0.0
173
     0
291
     1
 45
0.0
1001
ACAD
1000
AcDbSavedByObjectVersion
1070
     0
  0
VISUALSTYLE
  5
7DD
102
{ACAD_XDICTIONARY
360
883
102
}
102
{ACAD_REACTORS
330
7C6
102
}
330
7C6
100
AcDbVisualStyle
  2
OverhangOff
 70
    21
 71
     2
 72
     2
 73
     0
 90
        0
 40
-0.6
 41
-30.0
 62
     5
 63
     7
421
 16777215
 74
     1
 91
        4
 64
     7
 65
   257
 75
     1
175
     1
 42
1.0
 92
        9
 66
     7
 43
1.0
 76
     1
 77
     6
 78
     2
 67
     7
 79
     5
170
     0
171
     0
290
     0
174
     0
 93
        1
 44
0.0
173
     0
291
     1
 45
0.0
1001
ACAD
1000
AcDbSavedByObjectVersion
1070
     0
  0
VISUALSTYLE
  5
7D0
102
{ACAD_XDICTIONARY
360
869
102
}
102
{ACAD_REACTORS
330
7C6
102
}
330
7C6
100
AcDbVisualStyle
  2
Realistic
 70
     8
 71
     2
 72
     2
 73
     0
 90
        2
 40
-0.6
 41
30.0
 62
     5
 63
     7
421
 16777215
 74
     0
 91
        0
 64
     7
 65
   257
 75
     1
175
     1
 42
1.0
 92
        8
 66
   257
 43
1.0
 76
     1
 77
     6
 78
     2
 67
     7
 79
     3
170
     0
171
     0
290
     0
174
     0
 93
       13
 44
0.0
173
     0
291
     0
 45
0.0
1001
ACAD
1000
AcDbSavedByObjectVersion
1070
     0
  0
VISUALSTYLE
  5
7DB
102
{ACAD_XDICTIONARY
360
87F
102
}
102
{ACAD_REACTORS
330
7C6
102
}
330
7C6
100
AcDbVisualStyle
  2
Shaded
 70
    27
 71
     2
 72
     2
 73
     1
 90
        2
 40
-0.6
 41
30.0
 62
     5
 63
     7
421
 16777215
 74
     0
 91
        4
 64
     7
 65
   257
 75
     1
175
     1
 42
1.0
 92
        8
 66
   257
 43
1.0
 76
     1
 77
     6
 78
     2
 67
     8
425
  7895160
 79
     3
170
     0
171
     0
290
     0
174
     0
 93
        5
 44
0.0
173
     0
291
     0
 45
0.0
1001
ACAD
1000
AcDbSavedByObjectVersion
1070
     0
  0
VISUALSTYLE
  5
7DA
102
{ACAD_XDICTIONARY
360
87D
102
}
102
{ACAD_REACTORS
330
7C6
102
}
330
7C6
100
AcDbVisualStyle
  2
Shaded with edges
 70
    26
 71
     2
 72
     2
 73
     1
 90
        2
 40
-0.6
 41
30.0
 62
     5
 63
     7
421
 16777215
 74
     1
 91
       10
 64
     7
 65
   257
 75
     2
175
     1
 42
1.0
 92
        8
 66
   257
 43
1.0
 76
     1
 77
     6
 78
     2
 67
     7
 79
     3
170
     0
171
     0
290
     0
174
     0
 93
        5
 44
0.0
173
     0
291
     0
 45
0.0
1001
ACAD
1000
AcDbSavedByObjectVersion
1070
     0
  0
VISUALSTYLE
  5
7D7
102
{ACAD_XDICTIONARY
360
877
102
}
102
{ACAD_REACTORS
330
7C6
102
}
330
7C6
100
AcDbVisualStyle
  2
Shades of Gray
 70
    23
 71
     2
 72
     2
 73
     3
 90
        0
 40
-0.6
 41
-30.0
 62
     5
 63
     7
421
 16777215
 74
     2
 91
        2
 64
     7
 65
     7
 75
     1
175
     1
 42
40.0
 92
        8
 66
     7
 43
1.0
 76
     1
 77
     6
 78
     2
 67
     7
 79
     3
170
     0
171
     0
290
     0
174
     0
 93
        1
 44
0.0
173
     0
291
     0
 45
0.0
1001
ACAD
1000
AcDbSavedByObjectVersion
1070
     0
  0
VISUALSTYLE
  5
7D8
102
{ACAD_XDICTIONARY
360
879
102
}
102
{ACAD_REACTORS
330
7C6
102
}
330
7C6
100
AcDbVisualStyle
  2
Sketchy
 70
    24
 71
     1
 72
     2
 73
     2
 90
        0
 40
-0.6
 41
-30.0
 62
     5
 63
     7
421
 16777215
 74
     2
 91
        2
 64
     7
 65
     7
 75
     1
175
     1
 42
40.0
 92
       11
 66
     7
 43
1.0
 76
     1
 77
     6
 78
     2
 67
     7
 79
     6
170
     0
171
     0
290
     0
174
     0
 93
        1
 44
0.0
173
     0
291
     0
 45
0.0
1001
ACAD
1000
AcDbSavedByObjectVersion
1070
     0
  0
VISUALSTYLE
  5
7D3
102
{ACAD_XDICTIONARY
360
86F
102
}
102
{ACAD_REACTORS
330
7C6
102
}
330
7C6
100
AcDbVisualStyle
  2
Thicken
 70
    13
 71
     2
 72
     2
 73
     0
 90
        0
 40
-0.6
 41
-30.0
 62
     5
 63
     7
421
 16777215
 74
     1
 91
        4
 64
     7
 65
   257
 75
     1
175
     1
 42
1.0
 92
       12
 66
     7
 43
1.0
 76
     1
 77
     6
 78
     2
 67
     7
 79
     5
170
     0
171
     0
290
     0
174
     0
 93
        1
 44
0.0
173
     0
291
     1
 45
0.0
1001
ACAD
1000
AcDbSavedByObjectVersion
1070
     0
  0
VISUALSTYLE
  5
7CD
102
{ACAD_XDICTIONARY
360
863
102
}
102
{ACAD_REACTORS
330
7C6
102
}
330
7C6
100
AcDbVisualStyle
  2
Wireframe
 70
     5
 71
     0
 72
     2
 73
     0
 90
        0
 40
-0.6
 41
-30.0
 62
     5
 63
     7
421
 16777215
 74
     1
 91
        4
 64
     7
 65
   257
 75
     1
175
     1
 42
1.0
 92
        0
 66
   257
 43
1.0
 76
     1
 77
     6
 78
     2
 67
     7
 79
     3
170
     0
171
     0
290
     0
174
     0
 93
        1
 44
0.0
173
     0
291
     0
 45
0.0
1001
ACAD
1000
AcDbSavedByObjectVersion
1070
     0
  0
VISUALSTYLE
  5
7D9
102
{ACAD_XDICTIONARY
360
87B
102
}
102
{ACAD_REACTORS
330
7C6
102
}
330
7C6
100
AcDbVisualStyle
  2
X-Ray
 70
    25
 71
     2
 72
     2
 73
     1
 90
        1
 40
0.5
 41
-30.0
 62
     5
 63
     7
421
 16777215
 74
     1
 91
        0
 64
     7
 65
   257
 75
     1
175
     1
 42
1.0
 92
        8
 66
     7
 43
1.0
 76
     1
 77
     6
 78
     2
 67
     7
 79
     3
170
     0
171
     0
290
     0
174
     0
 93
       13
 44
0.0
173
     0
291
     0
 45
0.0
1001
ACAD
1000
AcDbSavedByObjectVersion
1070
     0
  0
DICTIONARYVAR
  5
844
102
{ACAD_REACTORS
330
2E8
102
}
330
2E8
100
DictionaryVariables
280
     0
  1
1:1
  0
DICTIONARYVAR
  5
841
102
{ACAD_REACTORS
330
2E8
102
}
330
2E8
100
DictionaryVariables
280
     0
  1
STANDARD
  0
DICTIONARYVAR
  5
840
102
{ACAD_REACTORS
330
2E8
102
}
330
2E8
100
DictionaryVariables
280
     0
  1
STANDARD
  0
DICTIONARYVAR
  5
842
102
{ACAD_REACTORS
330
2E8
102
}
330
2E8
100
DictionaryVariables
280
     0
  1
Imperial24
  0
DICTIONARYVAR
  5
843
102
{ACAD_REACTORS
330
2E8
102
}
330
2E8
100
DictionaryVariables
280
     0
  1
Imperial24
  0
DICTIONARYVAR
  5
2E9
102
{ACAD_REACTORS
330
2E8
102
}
330
2E8
100
DictionaryVariables
280
     0
  1
0
  0
DICTIONARYVAR
  5
851
102
{ACAD_REACTORS
330
2E8
102
}
330
2E8
100
DictionaryVariables
280
     0
  1
2
  0
DICTIONARY
  5
88C
330
7F9
100
AcDbDictionary
280
     1
281
     1
  3
ACAD_XREC_ROUNDTRIP
360
88D
  0
DICTIONARY
  5
7B7
330
7B6
100
AcDbDictionary
280
     1
281
     1
  3
ACAD_XREC_ROUNDTRIP
360
855
  3
BUMPTILE
360
7B9
  3
DIFFUSETILE
360
7B8
  3
OPACITYTILE
360
7BC
  3
REFLECTIONTILE
360
7BB
  3
REFRACTIONTILE
360
7BD
  3
SPECULARTILE
360
7BA
  0
DICTIONARY
  5
7AF
330
7AE
100
AcDbDictionary
280
     1
281
     1
  3
ACAD_XREC_ROUNDTRIP
360
854
  3
BUMPTILE
360
7B1
  3
DIFFUSETILE
360
7B0
  3
OPACITYTILE
360
7B4
  3
REFLECTIONTILE
360
7B3
  3
REFRACTIONTILE
360
7B5
  3
SPECULARTILE
360
7B2
  0
DICTIONARY
  5
7BF
330
7BE
100
AcDbDictionary
280
     1
281
     1
  3
ACAD_XREC_ROUNDTRIP
360
856
  3
BUMPTILE
360
7C1
  3
DIFFUSETILE
360
7C0
  3
OPACITYTILE
360
7C4
  3
REFLECTIONTILE
360
7C3
  3
REFRACTIONTILE
360
7C5
  3
SPECULARTILE
360
7C2
  0
DICTIONARY
  5
888
330
7F5
100
AcDbDictionary
280
     1
281
     1
  3
ACAD_XREC_ROUNDTRIP
360
889
  0
DICTIONARY
  5
88A
330
7F7
100
AcDbDictionary
280
     1
281
     1
  3
ACAD_XREC_ROUNDTRIP
360
88B
  0
DICTIONARY
  5
802
330
7E1
100
AcDbDictionary
280
     1
281
     1
  3
ACAD_ROUNDTRIP_2008_TABLESTYLE_CELLSTYLEMAP
360
852
  3
ACAD_XREC_ROUNDTRIP
360
887
  0
DICTIONARY
  5
861
330
7CC
100
AcDbDictionary
280
     1
281
     1
  3
ACAD_XREC_ROUNDTRIP
360
862
  0
DICTIONARY
  5
85F
330
7CB
100
AcDbDictionary
280
     1
281
     1
  3
ACAD_XREC_ROUNDTRIP
360
860
  0
DICTIONARY
  5
86D
330
7D2
100
AcDbDictionary
280
     1
281
     1
  3
ACAD_XREC_ROUNDTRIP
360
86E
  0
DICTIONARY
  5
875
330
7D6
100
AcDbDictionary
280
     1
281
     1
  3
ACAD_XREC_ROUNDTRIP
360
876
  0
DICTIONARY
  5
867
330
7CF
100
AcDbDictionary
280
     1
281
     1
  3
ACAD_XREC_ROUNDTRIP
360
868
  0
DICTIONARY
  5
86B
330
7D1
100
AcDbDictionary
280
     1
281
     1
  3
ACAD_XREC_ROUNDTRIP
360
86C
  0
DICTIONARY
  5
885
330
7DE
100
AcDbDictionary
280
     1
281
     1
  3
ACAD_XREC_ROUNDTRIP
360
886
  0
DICTIONARY
  5
873
330
7D5
100
AcDbDictionary
280
     1
281
     1
  3
ACAD_XREC_ROUNDTRIP
360
874
  0
DICTIONARY
  5
857
330
7C7
100
AcDbDictionary
280
     1
281
     1
  3
ACAD_XREC_ROUNDTRIP
360
858
  0
DICTIONARY
  5
859
330
7C8
100
AcDbDictionary
280
     1
281
     1
  3
ACAD_XREC_ROUNDTRIP
360
85A
  0
DICTIONARY
  5
85B
330
7C9
100
AcDbDictionary
280
     1
281
     1
  3
ACAD_XREC_ROUNDTRIP
360
85C
  0
DICTIONARY
  5
85D
330
7CA
100
AcDbDictionary
280
     1
281
     1
  3
ACAD_XREC_ROUNDTRIP
360
85E
  0
DICTIONARY
  5
865
330
7CE
100
AcDbDictionary
280
     1
281
     1
  3
ACAD_XREC_ROUNDTRIP
360
866
  0
DICTIONARY
  5
881
330
7DC
100
AcDbDictionary
280
     1
281
     1
  3
ACAD_XREC_ROUNDTRIP
360
882
  0
DICTIONARY
  5
871
330
7D4
100
AcDbDictionary
280
     1
281
     1
  3
ACAD_XREC_ROUNDTRIP
360
872
  0
DICTIONARY
  5
883
330
7DD
100
AcDbDictionary
280
     1
281
     1
  3
ACAD_XREC_ROUNDTRIP
360
884
  0
DICTIONARY
  5
869
330
7D0
100
AcDbDictionary
280
     1
281
     1
  3
ACAD_XREC_ROUNDTRIP
360
86A
  0
DICTIONARY
  5
87F
330
7DB
100
AcDbDictionary
280
     1
281
     1
  3
ACAD_XREC_ROUNDTRIP
360
880
  0
DICTIONARY
  5
87D
330
7DA
100
AcDbDictionary
280
     1
281
     1
  3
ACAD_XREC_ROUNDTRIP
360
87E
  0
DICTIONARY
  5
877
330
7D7
100
AcDbDictionary
280
     1
281
     1
  3
ACAD_XREC_ROUNDTRIP
360
878
  0
DICTIONARY
  5
879
330
7D8
100
AcDbDictionary
280
     1
281
     1
  3
ACAD_XREC_ROUNDTRIP
360
87A
  0
DICTIONARY
  5
86F
330
7D3
100
AcDbDictionary
280
     1
281
     1
  3
ACAD_XREC_ROUNDTRIP
360
870
  0
DICTIONARY
  5
863
330
7CD
100
AcDbDictionary
280
     1
281
     1
  3
ACAD_XREC_ROUNDTRIP
360
864
  0
DICTIONARY
  5
87B
330
7D9
100
AcDbDictionary
280
     1
281
     1
  3
ACAD_XREC_ROUNDTRIP
360
87C
  0
XRECORD
  5
88D
102
{ACAD_REACTORS
330
88C
102
}
330
88C
100
AcDbXrecord
280
     1
102
DISPLAYNAME
  1
Imperial24
102
FLAGS
 90
        0
  0
XRECORD
  5
855
102
{ACAD_REACTORS
330
7B7
102
}
330
7B7
100
AcDbXrecord
280
     1
102
MATERIAL
148
0.0
149
0.0
149
0.0
 93
        0
 94
      127
282
     0
 72
     0
 77
     0
171
     0
175
     0
179
     0
273
     0
  0
XRECORD
  5
7B9
102
{ACAD_REACTORS
330
7B7
102
}
330
7B7
100
AcDbXrecord
280
     1
270
     1
271
     1
  0
XRECORD
  5
7B8
102
{ACAD_REACTORS
330
7B7
102
}
330
7B7
100
AcDbXrecord
280
     1
270
     1
271
     1
  0
XRECORD
  5
7BC
102
{ACAD_REACTORS
330
7B7
102
}
330
7B7
100
AcDbXrecord
280
     1
270
     1
271
     1
  0
XRECORD
  5
7BB
102
{ACAD_REACTORS
330
7B7
102
}
330
7B7
100
AcDbXrecord
280
     1
270
     1
271
     1
  0
XRECORD
  5
7BD
102
{ACAD_REACTORS
330
7B7
102
}
330
7B7
100
AcDbXrecord
280
     1
270
     1
271
     1
  0
XRECORD
  5
7BA
102
{ACAD_REACTORS
330
7B7
102
}
330
7B7
100
AcDbXrecord
280
     1
270
     1
271
     1
  0
XRECORD
  5
854
102
{ACAD_REACTORS
330
7AF
102
}
330
7AF
100
AcDbXrecord
280
     1
102
MATERIAL
148
0.0
149
0.0
149
0.0
 93
        0
 94
      127
282
     0
 72
     0
 77
     0
171
     0
175
     0
179
     0
273
     0
  0
XRECORD
  5
7B1
102
{ACAD_REACTORS
330
7AF
102
}
330
7AF
100
AcDbXrecord
280
     1
270
     1
271
     1
  0
XRECORD
  5
7B0
102
{ACAD_REACTORS
330
7AF
102
}
330
7AF
100
AcDbXrecord
280
     1
270
     1
271
     1
  0
XRECORD
  5
7B4
102
{ACAD_REACTORS
330
7AF
102
}
330
7AF
100
AcDbXrecord
280
     1
270
     1
271
     1
  0
XRECORD
  5
7B3
102
{ACAD_REACTORS
330
7AF
102
}
330
7AF
100
AcDbXrecord
280
     1
270
     1
271
     1
  0
XRECORD
  5
7B5
102
{ACAD_REACTORS
330
7AF
102
}
330
7AF
100
AcDbXrecord
280
     1
270
     1
271
     1
  0
XRECORD
  5
7B2
102
{ACAD_REACTORS
330
7AF
102
}
330
7AF
100
AcDbXrecord
280
     1
270
     1
271
     1
  0
XRECORD
  5
856
102
{ACAD_REACTORS
330
7BF
102
}
330
7BF
100
AcDbXrecord
280
     1
102
MATERIAL
148
0.0
149
0.0
149
0.0
 93
        0
 94
      127
282
     0
 72
     0
 77
     0
171
     0
175
     0
179
     0
273
     0
  0
XRECORD
  5
7C1
102
{ACAD_REACTORS
330
7BF
102
}
330
7BF
100
AcDbXrecord
280
     1
270
     1
271
     1
  0
XRECORD
  5
7C0
102
{ACAD_REACTORS
330
7BF
102
}
330
7BF
100
AcDbXrecord
280
     1
270
     1
271
     1
  0
XRECORD
  5
7C4
102
{ACAD_REACTORS
330
7BF
102
}
330
7BF
100
AcDbXrecord
280
     1
270
     1
271
     1
  0
XRECORD
  5
7C3
102
{ACAD_REACTORS
330
7BF
102
}
330
7BF
100
AcDbXrecord
280
     1
270
     1
271
     1
  0
XRECORD
  5
7C5
102
{ACAD_REACTORS
330
7BF
102
}
330
7BF
100
AcDbXrecord
280
     1
270
     1
271
     1
  0
XRECORD
  5
7C2
102
{ACAD_REACTORS
330
7BF
102
}
330
7BF
100
AcDbXrecord
280
     1
270
     1
271
     1
  0
XRECORD
  5
889
102
{ACAD_REACTORS
330
888
102
}
330
888
100
AcDbXrecord
280
     1
102
ACAD_ROUNDTRIP_2012_MLEADER_STYLE
298
     1
  0
XRECORD
  5
88B
102
{ACAD_REACTORS
330
88A
102
}
330
88A
100
AcDbXrecord
280
     1
102
DISPLAYNAME
  1
Imperial24
102
FLAGS
 90
        0
  0
CELLSTYLEMAP
  5
852
102
{ACAD_REACTORS
330
802
102
}
330
802
100
AcDbCellStyleMap
 90
        3
300
CELLSTYLE
  1
TABLEFORMAT_BEGIN
 90
        5
170
     1
 91
        0
 92
    32768
 62
   257
 93
        1
300
CONTENTFORMAT
  1
CONTENTFORMAT_BEGIN
 90
        0
 91
        0
 92
      512
 93
        0
300

 40
0.0
140
1.0
 94
        5
 62
     0
340
2CA
144
0.25
309
CONTENTFORMAT_END
171
     0
 94
        0
309
TABLEFORMAT_END
  1
CELLSTYLE_BEGIN
 90
        1
 91
        1
300
_TITLE
309
CELLSTYLE_END
300
CELLSTYLE
  1
TABLEFORMAT_BEGIN
 90
        5
170
     1
 91
        0
 92
        0
 62
   257
 93
        1
300
CONTENTFORMAT
  1
CONTENTFORMAT_BEGIN
 90
        0
 91
        0
 92
      512
 93
        0
300

 40
0.0
140
1.0
 94
        5
 62
     0
340
2CA
144
0.18
309
CONTENTFORMAT_END
171
     0
 94
        0
309
TABLEFORMAT_END
  1
CELLSTYLE_BEGIN
 90
        2
 91
        1
300
_HEADER
309
CELLSTYLE_END
300
CELLSTYLE
  1
TABLEFORMAT_BEGIN
 90
        5
170
     1
 91
        0
 92
        0
 62
   257
 93
        1
300
CONTENTFORMAT
  1
CONTENTFORMAT_BEGIN
 90
        0
 91
        0
 92
      512
 93
        0
300

 40
0.0
140
1.0
 94
        2
 62
     0
340
2CA
144
0.18
309
CONTENTFORMAT_END
171
     0
 94
        0
309
TABLEFORMAT_END
  1
CELLSTYLE_BEGIN
 90
        3
 91
        2
300
_DATA
309
CELLSTYLE_END
  0
XRECORD
  5
887
102
{ACAD_REACTORS
330
802
102
}
330
802
100
AcDbXrecord
280
     1
102
ACAD_ROUNDTRIP_PRE2007_TABLESTYLE
 90
      512
 91
        0
  1

 92
      512
 93
        0
  2

 94
      512
 95
        0
  3

  0
XRECORD
  5
862
102
{ACAD_REACTORS
330
861
102
}
330
861
100
AcDbXrecord
280
     1
102
RTVSPost2010Prop28
280
     1
102
RTVSPost2010PropOp28
 70
     1
102
RTVSPost2010Prop29
280
     1
102
RTVSPost2010PropOp29
 70
     1
102
RTVSPost2010Prop30
280
     0
102
RTVSPost2010PropOp30
 70
     1
102
RTVSPost2010Prop31
280
     0
102
RTVSPost2010PropOp31
 70
     1
102
RTVSPost2010Prop32
280
     0
102
RTVSPost2010PropOp32
 70
     1
102
RTVSPost2010Prop33
280
     0
102
RTVSPost2010PropOp33
 70
     1
102
RTVSPost2010Prop34
280
     0
102
RTVSPost2010PropOp34
 70
     1
102
RTVSPost2010Prop35
280
     0
102
RTVSPost2010PropOp35
 70
     1
102
RTVSPost2010Prop36
280
     0
102
RTVSPost2010PropOp36
 70
     1
102
RTVSPost2010Prop37
 90
       50
102
RTVSPost2010PropOp37
 70
     1
102
RTVSPost2010Prop38
140
0.0
102
RTVSPost2010PropOp38
 70
     1
102
RTVSPost2010Prop39
140
1.0
102
RTVSPost2010PropOp39
 70
     1
102
RTVSPost2010Prop40
 90
        0
102
RTVSPost2010PropOp40
 70
     1
102
RTVSPost2010Prop41ColorIndex
 90
       18
102
RTVSPost2010Prop41ColorRGB
 90
        0
102
RTVSPost2010PropOp41
 70
     1
102
RTVSPost2010Prop42
 90
       50
102
RTVSPost2010PropOp42
 70
     1
102
RTVSPost2010Prop43
 90
        3
102
RTVSPost2010PropOp43
 70
     1
102
RTVSPost2010Prop44ColorIndex
 90
        5
102
RTVSPost2010Prop44ColorRGB
 90
      255
102
RTVSPost2010PropOp44
 70
     1
102
RTVSPost2010Prop45
280
     0
102
RTVSPost2010PropOp45
 70
     1
102
RTVSPost2010Prop46
 90
       50
102
RTVSPost2010PropOp46
 70
     1
102
RTVSPost2010Prop47
 90
       50
102
RTVSPost2010PropOp47
 70
     1
102
RTVSPost2010Prop48
 90
       50
102
RTVSPost2010PropOp48
 70
     1
102
RTVSPost2010Prop49
280
     0
102
RTVSPost2010PropOp49
 70
     1
102
RTVSPost2010Prop50
 90
       50
102
RTVSPost2010PropOp50
 70
     1
102
RTVSPost2010Prop51ColorIndex
 90
      256
102
RTVSPost2010Prop51ColorRGB
 90
-16777216
102
RTVSPost2010PropOp51
 70
     0
102
RTVSPost2010Prop52
140
1.0
102
RTVSPost2010PropOp52
 70
     0
102
RTVSPost2010Prop53
 90
        2
102
RTVSPost2010PropOp53
 70
     1
102
RTVSPost2010Prop54
  1
strokes_ogs.tif
102
RTVSPost2010PropOp54
 70
     1
102
RTVSPost2010Prop55
280
     0
102
RTVSPost2010PropOp55
 70
     1
102
RTVSPost2010Prop56
140
1.0
102
RTVSPost2010PropOp56
 70
     1
102
RTVSPost2010Prop57
140
1.0
102
RTVSPost2010PropOp57
 70
     1
102
RTVSPropertyOp0
 70
     1
102
RTVSPropertyOp1
 70
     1
102
RTVSPropertyOp2
 70
     1
102
RTVSPropertyOp3
 70
     1
102
RTVSPropertyOp4
 70
     1
102
RTVSPropertyOp5
 70
     1
102
RTVSPropertyOp6
 70
     1
102
RTVSPropertyOp7
 70
     1
102
RTVSPropertyOp8
 70
     1
102
RTVSPropertyOp9
 70
     1
102
RTVSPropertyOp10
 70
     1
102
RTVSPropertyOp11
 70
     1
102
RTVSPropertyOp12
 70
     1
102
RTVSPropertyOp13
 70
     1
102
RTVSPropertyOp14
 70
     1
102
RTVSPropertyOp15
 70
     1
102
RTVSPropertyOp16
 70
     1
102
RTVSPropertyOp17
 70
     1
102
RTVSPropertyOp18
 70
     1
102
RTVSPropertyOp19
 70
     1
102
RTVSPropertyOp20
 70
     1
102
RTVSPropertyOp21
 70
     1
102
RTVSPropertyOp22
 70
     1
102
RTVSPropertyOp23
 70
     1
102
RTVSPropertyOp24
 70
     1
102
RTVSPropertyOp25
 70
     1
102
RTVSPropertyOp26
 70
     1
102
RTVSPropertyOp27
 70
     1
102
RTVSPropertyOp28
 70
     1
102
RTVSPropertyOp29
 70
     1
102
RTVSPropertyOp30
 70
     1
102
RTVSPropertyOp31
 70
     1
102
RTVSPropertyOp32
 70
     1
102
RTVSPropertyOp33
 70
     1
102
RTVSPropertyOp34
 70
     1
102
RTVSPropertyOp35
 70
     1
102
RTVSPropertyOp36
 70
     1
102
RTVSPropertyOp37
 70
     1
102
RTVSPropertyOp38
 70
     1
102
RTVSPropertyOp39
 70
     1
102
RTVSPropertyOp40
 70
     1
102
RTVSPropertyOp41
 70
     1
102
RTVSPropertyOp42
 70
     1
102
RTVSPropertyOp43
 70
     1
102
RTVSPropertyOp44
 70
     1
102
RTVSPropertyOp45
 70
     1
102
RTVSPropertyOp46
 70
     1
102
RTVSPropertyOp47
 70
     1
102
RTVSPropertyOp48
 70
     1
102
RTVSPropertyOp49
 70
     1
102
RTVSPropertyOp50
 70
     1
102
RTVSPropertyOp51
 70
     0
102
RTVSPropertyOp52
 70
     0
102
RTVSPropertyOp53
 70
     1
102
RTVSPropertyOp54
 70
     1
102
RTVSPropertyOp55
 70
     1
102
RTVSPropertyOp56
 70
     1
102
RTVSPropertyOp57
 70
     1
102
RTVSPropertyOp58
 70
     1
102
RTVSPropertyOp59
 70
     1
102
RTVSPropertyOp60
 70
     1
102
RTVSPropertyOp61
 70
     1
102
RTVSPropertyOp62
 70
     1
  0
XRECORD
  5
860
102
{ACAD_REACTORS
330
85F
102
}
330
85F
100
AcDbXrecord
280
     1
102
RTVSPost2010Prop28
280
     0
102
RTVSPost2010PropOp28
 70
     1
102
RTVSPost2010Prop29
280
     1
102
RTVSPost2010PropOp29
 70
     1
102
RTVSPost2010Prop30
280
     1
102
RTVSPost2010PropOp30
 70
     1
102
RTVSPost2010Prop31
280
     0
102
RTVSPost2010PropOp31
 70
     1
102
RTVSPost2010Prop32
280
     0
102
RTVSPost2010PropOp32
 70
     1
102
RTVSPost2010Prop33
280
     0
102
RTVSPost2010PropOp33
 70
     1
102
RTVSPost2010Prop34
280
     0
102
RTVSPost2010PropOp34
 70
     1
102
RTVSPost2010Prop35
280
     0
102
RTVSPost2010PropOp35
 70
     1
102
RTVSPost2010Prop36
280
     0
102
RTVSPost2010PropOp36
 70
     1
102
RTVSPost2010Prop37
 90
       50
102
RTVSPost2010PropOp37
 70
     1
102
RTVSPost2010Prop38
140
0.0
102
RTVSPost2010PropOp38
 70
     1
102
RTVSPost2010Prop39
140
1.0
102
RTVSPost2010PropOp39
 70
     1
102
RTVSPost2010Prop40
 90
        0
102
RTVSPost2010PropOp40
 70
     1
102
RTVSPost2010Prop41ColorIndex
 90
       18
102
RTVSPost2010Prop41ColorRGB
 90
        0
102
RTVSPost2010PropOp41
 70
     1
102
RTVSPost2010Prop42
 90
       50
102
RTVSPost2010PropOp42
 70
     1
102
RTVSPost2010Prop43
 90
        3
102
RTVSPost2010PropOp43
 70
     1
102
RTVSPost2010Prop44ColorIndex
 90
        5
102
RTVSPost2010Prop44ColorRGB
 90
      255
102
RTVSPost2010PropOp44
 70
     1
102
RTVSPost2010Prop45
280
     0
102
RTVSPost2010PropOp45
 70
     1
102
RTVSPost2010Prop46
 90
       50
102
RTVSPost2010PropOp46
 70
     1
102
RTVSPost2010Prop47
 90
       50
102
RTVSPost2010PropOp47
 70
     1
102
RTVSPost2010Prop48
 90
       50
102
RTVSPost2010PropOp48
 70
     1
102
RTVSPost2010Prop49
280
     0
102
RTVSPost2010PropOp49
 70
     1
102
RTVSPost2010Prop50
 90
       50
102
RTVSPost2010PropOp50
 70
     1
102
RTVSPost2010Prop51ColorIndex
 90
      256
102
RTVSPost2010Prop51ColorRGB
 90
-16777216
102
RTVSPost2010PropOp51
 70
     0
102
RTVSPost2010Prop52
140
1.0
102
RTVSPost2010PropOp52
 70
     0
102
RTVSPost2010Prop53
 90
        2
102
RTVSPost2010PropOp53
 70
     1
102
RTVSPost2010Prop54
  1
strokes_ogs.tif
102
RTVSPost2010PropOp54
 70
     1
102
RTVSPost2010Prop55
280
     0
102
RTVSPost2010PropOp55
 70
     1
102
RTVSPost2010Prop56
140
1.0
102
RTVSPost2010PropOp56
 70
     1
102
RTVSPost2010Prop57
140
1.0
102
RTVSPost2010PropOp57
 70
     1
102
RTVSPropertyOp0
 70
     1
102
RTVSPropertyOp1
 70
     1
102
RTVSPropertyOp2
 70
     1
102
RTVSPropertyOp3
 70
     1
102
RTVSPropertyOp4
 70
     1
102
RTVSPropertyOp5
 70
     1
102
RTVSPropertyOp6
 70
     1
102
RTVSPropertyOp7
 70
     1
102
RTVSPropertyOp8
 70
     1
102
RTVSPropertyOp9
 70
     1
102
RTVSPropertyOp10
 70
     1
102
RTVSPropertyOp11
 70
     1
102
RTVSPropertyOp12
 70
     1
102
RTVSPropertyOp13
 70
     1
102
RTVSPropertyOp14
 70
     1
102
RTVSPropertyOp15
 70
     1
102
RTVSPropertyOp16
 70
     1
102
RTVSPropertyOp17
 70
     1
102
RTVSPropertyOp18
 70
     1
102
RTVSPropertyOp19
 70
     1
102
RTVSPropertyOp20
 70
     1
102
RTVSPropertyOp21
 70
     1
102
RTVSPropertyOp22
 70
     1
102
RTVSPropertyOp23
 70
     1
102
RTVSPropertyOp24
 70
     1
102
RTVSPropertyOp25
 70
     1
102
RTVSPropertyOp26
 70
     1
102
RTVSPropertyOp27
 70
     1
102
RTVSPropertyOp28
 70
     1
102
RTVSPropertyOp29
 70
     1
102
RTVSPropertyOp30
 70
     1
102
RTVSPropertyOp31
 70
     1
102
RTVSPropertyOp32
 70
     1
102
RTVSPropertyOp33
 70
     1
102
RTVSPropertyOp34
 70
     1
102
RTVSPropertyOp35
 70
     1
102
RTVSPropertyOp36
 70
     1
102
RTVSPropertyOp37
 70
     1
102
RTVSPropertyOp38
 70
     1
102
RTVSPropertyOp39
 70
     1
102
RTVSPropertyOp40
 70
     1
102
RTVSPropertyOp41
 70
     1
102
RTVSPropertyOp42
 70
     1
102
RTVSPropertyOp43
 70
     1
102
RTVSPropertyOp44
 70
     1
102
RTVSPropertyOp45
 70
     1
102
RTVSPropertyOp46
 70
     1
102
RTVSPropertyOp47
 70
     1
102
RTVSPropertyOp48
 70
     1
102
RTVSPropertyOp49
 70
     1
102
RTVSPropertyOp50
 70
     1
102
RTVSPropertyOp51
 70
     0
102
RTVSPropertyOp52
 70
     0
102
RTVSPropertyOp53
 70
     1
102
RTVSPropertyOp54
 70
     1
102
RTVSPropertyOp55
 70
     1
102
RTVSPropertyOp56
 70
     1
102
RTVSPropertyOp57
 70
     1
102
RTVSPropertyOp58
 70
     1
102
RTVSPropertyOp59
 70
     1
102
RTVSPropertyOp60
 70
     1
102
RTVSPropertyOp61
 70
     1
102
RTVSPropertyOp62
 70
     1
  0
XRECORD
  5
86E
102
{ACAD_REACTORS
330
86D
102
}
330
86D
100
AcDbXrecord
280
     1
102
RTVSPost2010Prop28
280
     0
102
RTVSPost2010PropOp28
 70
     1
102
RTVSPost2010Prop29
280
     1
102
RTVSPost2010PropOp29
 70
     1
102
RTVSPost2010Prop30
280
     1
102
RTVSPost2010PropOp30
 70
     1
102
RTVSPost2010Prop31
280
     0
102
RTVSPost2010PropOp31
 70
     1
102
RTVSPost2010Prop32
280
     0
102
RTVSPost2010PropOp32
 70
     1
102
RTVSPost2010Prop33
280
     0
102
RTVSPost2010PropOp33
 70
     1
102
RTVSPost2010Prop34
280
     0
102
RTVSPost2010PropOp34
 70
     1
102
RTVSPost2010Prop35
280
     0
102
RTVSPost2010PropOp35
 70
     1
102
RTVSPost2010Prop36
280
     0
102
RTVSPost2010PropOp36
 70
     1
102
RTVSPost2010Prop37
 90
       50
102
RTVSPost2010PropOp37
 70
     1
102
RTVSPost2010Prop38
140
0.0
102
RTVSPost2010PropOp38
 70
     1
102
RTVSPost2010Prop39
140
1.0
102
RTVSPost2010PropOp39
 70
     1
102
RTVSPost2010Prop40
 90
        0
102
RTVSPost2010PropOp40
 70
     1
102
RTVSPost2010Prop41ColorIndex
 90
       18
102
RTVSPost2010Prop41ColorRGB
 90
        0
102
RTVSPost2010PropOp41
 70
     1
102
RTVSPost2010Prop42
 90
       50
102
RTVSPost2010PropOp42
 70
     1
102
RTVSPost2010Prop43
 90
        3
102
RTVSPost2010PropOp43
 70
     1
102
RTVSPost2010Prop44ColorIndex
 90
        5
102
RTVSPost2010Prop44ColorRGB
 90
      255
102
RTVSPost2010PropOp44
 70
     1
102
RTVSPost2010Prop45
280
     0
102
RTVSPost2010PropOp45
 70
     1
102
RTVSPost2010Prop46
 90
       50
102
RTVSPost2010PropOp46
 70
     1
102
RTVSPost2010Prop47
 90
       50
102
RTVSPost2010PropOp47
 70
     1
102
RTVSPost2010Prop48
 90
       50
102
RTVSPost2010PropOp48
 70
     1
102
RTVSPost2010Prop49
280
     0
102
RTVSPost2010PropOp49
 70
     1
102
RTVSPost2010Prop50
 90
       50
102
RTVSPost2010PropOp50
 70
     1
102
RTVSPost2010Prop51ColorIndex
 90
      256
102
RTVSPost2010Prop51ColorRGB
 90
-16777216
102
RTVSPost2010PropOp51
 70
     0
102
RTVSPost2010Prop52
140
1.0
102
RTVSPost2010PropOp52
 70
     0
102
RTVSPost2010Prop53
 90
        2
102
RTVSPost2010PropOp53
 70
     1
102
RTVSPost2010Prop54
  1
strokes_ogs.tif
102
RTVSPost2010PropOp54
 70
     1
102
RTVSPost2010Prop55
280
     0
102
RTVSPost2010PropOp55
 70
     1
102
RTVSPost2010Prop56
140
1.0
102
RTVSPost2010PropOp56
 70
     1
102
RTVSPost2010Prop57
140
1.0
102
RTVSPost2010PropOp57
 70
     1
102
RTVSPropertyOp0
 70
     1
102
RTVSPropertyOp1
 70
     1
102
RTVSPropertyOp2
 70
     1
102
RTVSPropertyOp3
 70
     1
102
RTVSPropertyOp4
 70
     1
102
RTVSPropertyOp5
 70
     1
102
RTVSPropertyOp6
 70
     1
102
RTVSPropertyOp7
 70
     1
102
RTVSPropertyOp8
 70
     1
102
RTVSPropertyOp9
 70
     1
102
RTVSPropertyOp10
 70
     1
102
RTVSPropertyOp11
 70
     1
102
RTVSPropertyOp12
 70
     1
102
RTVSPropertyOp13
 70
     1
102
RTVSPropertyOp14
 70
     1
102
RTVSPropertyOp15
 70
     1
102
RTVSPropertyOp16
 70
     1
102
RTVSPropertyOp17
 70
     1
102
RTVSPropertyOp18
 70
     1
102
RTVSPropertyOp19
 70
     1
102
RTVSPropertyOp20
 70
     1
102
RTVSPropertyOp21
 70
     1
102
RTVSPropertyOp22
 70
     1
102
RTVSPropertyOp23
 70
     1
102
RTVSPropertyOp24
 70
     1
102
RTVSPropertyOp25
 70
     1
102
RTVSPropertyOp26
 70
     1
102
RTVSPropertyOp27
 70
     1
102
RTVSPropertyOp28
 70
     1
102
RTVSPropertyOp29
 70
     1
102
RTVSPropertyOp30
 70
     1
102
RTVSPropertyOp31
 70
     1
102
RTVSPropertyOp32
 70
     1
102
RTVSPropertyOp33
 70
     1
102
RTVSPropertyOp34
 70
     1
102
RTVSPropertyOp35
 70
     1
102
RTVSPropertyOp36
 70
     1
102
RTVSPropertyOp37
 70
     1
102
RTVSPropertyOp38
 70
     1
102
RTVSPropertyOp39
 70
     1
102
RTVSPropertyOp40
 70
     1
102
RTVSPropertyOp41
 70
     1
102
RTVSPropertyOp42
 70
     1
102
RTVSPropertyOp43
 70
     1
102
RTVSPropertyOp44
 70
     1
102
RTVSPropertyOp45
 70
     1
102
RTVSPropertyOp46
 70
     1
102
RTVSPropertyOp47
 70
     1
102
RTVSPropertyOp48
 70
     1
102
RTVSPropertyOp49
 70
     1
102
RTVSPropertyOp50
 70
     1
102
RTVSPropertyOp51
 70
     0
102
RTVSPropertyOp52
 70
     0
102
RTVSPropertyOp53
 70
     1
102
RTVSPropertyOp54
 70
     1
102
RTVSPropertyOp55
 70
     1
102
RTVSPropertyOp56
 70
     1
102
RTVSPropertyOp57
 70
     1
102
RTVSPropertyOp58
 70
     1
102
RTVSPropertyOp59
 70
     1
102
RTVSPropertyOp60
 70
     1
102
RTVSPropertyOp61
 70
     1
102
RTVSPropertyOp62
 70
     1
  0
XRECORD
  5
876
102
{ACAD_REACTORS
330
875
102
}
330
875
100
AcDbXrecord
280
     1
102
RTVSPost2010Prop28
280
     0
102
RTVSPost2010PropOp28
 70
     1
102
RTVSPost2010Prop29
280
     1
102
RTVSPost2010PropOp29
 70
     1
102
RTVSPost2010Prop30
280
     1
102
RTVSPost2010PropOp30
 70
     1
102
RTVSPost2010Prop31
280
     0
102
RTVSPost2010PropOp31
 70
     1
102
RTVSPost2010Prop32
280
     0
102
RTVSPost2010PropOp32
 70
     1
102
RTVSPost2010Prop33
280
     0
102
RTVSPost2010PropOp33
 70
     1
102
RTVSPost2010Prop34
280
     0
102
RTVSPost2010PropOp34
 70
     1
102
RTVSPost2010Prop35
280
     0
102
RTVSPost2010PropOp35
 70
     1
102
RTVSPost2010Prop36
280
     0
102
RTVSPost2010PropOp36
 70
     1
102
RTVSPost2010Prop37
 90
       50
102
RTVSPost2010PropOp37
 70
     1
102
RTVSPost2010Prop38
140
0.0
102
RTVSPost2010PropOp38
 70
     1
102
RTVSPost2010Prop39
140
1.0
102
RTVSPost2010PropOp39
 70
     1
102
RTVSPost2010Prop40
 90
        0
102
RTVSPost2010PropOp40
 70
     1
102
RTVSPost2010Prop41ColorIndex
 90
       18
102
RTVSPost2010Prop41ColorRGB
 90
        0
102
RTVSPost2010PropOp41
 70
     1
102
RTVSPost2010Prop42
 90
       50
102
RTVSPost2010PropOp42
 70
     1
102
RTVSPost2010Prop43
 90
        3
102
RTVSPost2010PropOp43
 70
     1
102
RTVSPost2010Prop44ColorIndex
 90
        5
102
RTVSPost2010Prop44ColorRGB
 90
      255
102
RTVSPost2010PropOp44
 70
     1
102
RTVSPost2010Prop45
280
     0
102
RTVSPost2010PropOp45
 70
     1
102
RTVSPost2010Prop46
 90
       50
102
RTVSPost2010PropOp46
 70
     1
102
RTVSPost2010Prop47
 90
       50
102
RTVSPost2010PropOp47
 70
     1
102
RTVSPost2010Prop48
 90
       50
102
RTVSPost2010PropOp48
 70
     1
102
RTVSPost2010Prop49
280
     0
102
RTVSPost2010PropOp49
 70
     1
102
RTVSPost2010Prop50
 90
       50
102
RTVSPost2010PropOp50
 70
     1
102
RTVSPost2010Prop51ColorIndex
 90
      256
102
RTVSPost2010Prop51ColorRGB
 90
-16777216
102
RTVSPost2010PropOp51
 70
     0
102
RTVSPost2010Prop52
140
1.0
102
RTVSPost2010PropOp52
 70
     0
102
RTVSPost2010Prop53
 90
        2
102
RTVSPost2010PropOp53
 70
     1
102
RTVSPost2010Prop54
  1
strokes_ogs.tif
102
RTVSPost2010PropOp54
 70
     1
102
RTVSPost2010Prop55
280
     0
102
RTVSPost2010PropOp55
 70
     1
102
RTVSPost2010Prop56
140
1.0
102
RTVSPost2010PropOp56
 70
     1
102
RTVSPost2010Prop57
140
1.0
102
RTVSPost2010PropOp57
 70
     1
102
RTVSPropertyOp0
 70
     1
102
RTVSPropertyOp1
 70
     1
102
RTVSPropertyOp2
 70
     1
102
RTVSPropertyOp3
 70
     1
102
RTVSPropertyOp4
 70
     1
102
RTVSPropertyOp5
 70
     1
102
RTVSPropertyOp6
 70
     1
102
RTVSPropertyOp7
 70
     1
102
RTVSPropertyOp8
 70
     1
102
RTVSPropertyOp9
 70
     1
102
RTVSPropertyOp10
 70
     1
102
RTVSPropertyOp11
 70
     1
102
RTVSPropertyOp12
 70
     1
102
RTVSPropertyOp13
 70
     1
102
RTVSPropertyOp14
 70
     1
102
RTVSPropertyOp15
 70
     1
102
RTVSPropertyOp16
 70
     1
102
RTVSPropertyOp17
 70
     1
102
RTVSPropertyOp18
 70
     1
102
RTVSPropertyOp19
 70
     1
102
RTVSPropertyOp20
 70
     1
102
RTVSPropertyOp21
 70
     1
102
RTVSPropertyOp22
 70
     1
102
RTVSPropertyOp23
 70
     1
102
RTVSPropertyOp24
 70
     1
102
RTVSPropertyOp25
 70
     1
102
RTVSPropertyOp26
 70
     1
102
RTVSPropertyOp27
 70
     1
102
RTVSPropertyOp28
 70
     1
102
RTVSPropertyOp29
 70
     1
102
RTVSPropertyOp30
 70
     1
102
RTVSPropertyOp31
 70
     1
102
RTVSPropertyOp32
 70
     1
102
RTVSPropertyOp33
 70
     1
102
RTVSPropertyOp34
 70
     1
102
RTVSPropertyOp35
 70
     1
102
RTVSPropertyOp36
 70
     1
102
RTVSPropertyOp37
 70
     1
102
RTVSPropertyOp38
 70
     1
102
RTVSPropertyOp39
 70
     1
102
RTVSPropertyOp40
 70
     1
102
RTVSPropertyOp41
 70
     1
102
RTVSPropertyOp42
 70
     1
102
RTVSPropertyOp43
 70
     1
102
RTVSPropertyOp44
 70
     1
102
RTVSPropertyOp45
 70
     1
102
RTVSPropertyOp46
 70
     1
102
RTVSPropertyOp47
 70
     1
102
RTVSPropertyOp48
 70
     1
102
RTVSPropertyOp49
 70
     1
102
RTVSPropertyOp50
 70
     1
102
RTVSPropertyOp51
 70
     0
102
RTVSPropertyOp52
 70
     0
102
RTVSPropertyOp53
 70
     1
102
RTVSPropertyOp54
 70
     1
102
RTVSPropertyOp55
 70
     1
102
RTVSPropertyOp56
 70
     1
102
RTVSPropertyOp57
 70
     1
102
RTVSPropertyOp58
 70
     1
102
RTVSPropertyOp59
 70
     1
102
RTVSPropertyOp60
 70
     1
102
RTVSPropertyOp61
 70
     1
102
RTVSPropertyOp62
 70
     1
  0
XRECORD
  5
868
102
{ACAD_REACTORS
330
867
102
}
330
867
100
AcDbXrecord
280
     1
102
RTVSPost2010Prop28
280
     0
102
RTVSPost2010PropOp28
 70
     1
102
RTVSPost2010Prop29
280
     1
102
RTVSPost2010PropOp29
 70
     1
102
RTVSPost2010Prop30
280
     1
102
RTVSPost2010PropOp30
 70
     1
102
RTVSPost2010Prop31
280
     0
102
RTVSPost2010PropOp31
 70
     1
102
RTVSPost2010Prop32
280
     0
102
RTVSPost2010PropOp32
 70
     1
102
RTVSPost2010Prop33
280
     0
102
RTVSPost2010PropOp33
 70
     1
102
RTVSPost2010Prop34
280
     0
102
RTVSPost2010PropOp34
 70
     1
102
RTVSPost2010Prop35
280
     0
102
RTVSPost2010PropOp35
 70
     1
102
RTVSPost2010Prop36
280
     0
102
RTVSPost2010PropOp36
 70
     1
102
RTVSPost2010Prop37
 90
       50
102
RTVSPost2010PropOp37
 70
     1
102
RTVSPost2010Prop38
140
0.0
102
RTVSPost2010PropOp38
 70
     1
102
RTVSPost2010Prop39
140
1.0
102
RTVSPost2010PropOp39
 70
     1
102
RTVSPost2010Prop40
 90
        0
102
RTVSPost2010PropOp40
 70
     1
102
RTVSPost2010Prop41ColorIndex
 90
       18
102
RTVSPost2010Prop41ColorRGB
 90
        0
102
RTVSPost2010PropOp41
 70
     1
102
RTVSPost2010Prop42
 90
       50
102
RTVSPost2010PropOp42
 70
     1
102
RTVSPost2010Prop43
 90
        3
102
RTVSPost2010PropOp43
 70
     1
102
RTVSPost2010Prop44ColorIndex
 90
        5
102
RTVSPost2010Prop44ColorRGB
 90
      255
102
RTVSPost2010PropOp44
 70
     1
102
RTVSPost2010Prop45
280
     0
102
RTVSPost2010PropOp45
 70
     1
102
RTVSPost2010Prop46
 90
       50
102
RTVSPost2010PropOp46
 70
     1
102
RTVSPost2010Prop47
 90
       50
102
RTVSPost2010PropOp47
 70
     1
102
RTVSPost2010Prop48
 90
       50
102
RTVSPost2010PropOp48
 70
     1
102
RTVSPost2010Prop49
280
     0
102
RTVSPost2010PropOp49
 70
     1
102
RTVSPost2010Prop50
 90
       50
102
RTVSPost2010PropOp50
 70
     1
102
RTVSPost2010Prop51ColorIndex
 90
      256
102
RTVSPost2010Prop51ColorRGB
 90
-16777216
102
RTVSPost2010PropOp51
 70
     0
102
RTVSPost2010Prop52
140
1.0
102
RTVSPost2010PropOp52
 70
     0
102
RTVSPost2010Prop53
 90
        2
102
RTVSPost2010PropOp53
 70
     1
102
RTVSPost2010Prop54
  1
strokes_ogs.tif
102
RTVSPost2010PropOp54
 70
     1
102
RTVSPost2010Prop55
280
     0
102
RTVSPost2010PropOp55
 70
     1
102
RTVSPost2010Prop56
140
1.0
102
RTVSPost2010PropOp56
 70
     1
102
RTVSPost2010Prop57
140
1.0
102
RTVSPost2010PropOp57
 70
     1
102
RTVSPropertyOp0
 70
     1
102
RTVSPropertyOp1
 70
     1
102
RTVSPropertyOp2
 70
     1
102
RTVSPropertyOp3
 70
     1
102
RTVSPropertyOp4
 70
     1
102
RTVSPropertyOp5
 70
     1
102
RTVSPropertyOp6
 70
     1
102
RTVSPropertyOp7
 70
     1
102
RTVSPropertyOp8
 70
     1
102
RTVSPropertyOp9
 70
     1
102
RTVSPropertyOp10
 70
     1
102
RTVSPropertyOp11
 70
     1
102
RTVSPropertyOp12
 70
     1
102
RTVSPropertyOp13
 70
     1
102
RTVSPropertyOp14
 70
     1
102
RTVSPropertyOp15
 70
     1
102
RTVSPropertyOp16
 70
     1
102
RTVSPropertyOp17
 70
     1
102
RTVSPropertyOp18
 70
     1
102
RTVSPropertyOp19
 70
     1
102
RTVSPropertyOp20
 70
     1
102
RTVSPropertyOp21
 70
     1
102
RTVSPropertyOp22
 70
     1
102
RTVSPropertyOp23
 70
     1
102
RTVSPropertyOp24
 70
     1
102
RTVSPropertyOp25
 70
     1
102
RTVSPropertyOp26
 70
     1
102
RTVSPropertyOp27
 70
     1
102
RTVSPropertyOp28
 70
     1
102
RTVSPropertyOp29
 70
     1
102
RTVSPropertyOp30
 70
     1
102
RTVSPropertyOp31
 70
     1
102
RTVSPropertyOp32
 70
     1
102
RTVSPropertyOp33
 70
     1
102
RTVSPropertyOp34
 70
     1
102
RTVSPropertyOp35
 70
     1
102
RTVSPropertyOp36
 70
     1
102
RTVSPropertyOp37
 70
     1
102
RTVSPropertyOp38
 70
     1
102
RTVSPropertyOp39
 70
     1
102
RTVSPropertyOp40
 70
     1
102
RTVSPropertyOp41
 70
     1
102
RTVSPropertyOp42
 70
     1
102
RTVSPropertyOp43
 70
     1
102
RTVSPropertyOp44
 70
     1
102
RTVSPropertyOp45
 70
     1
102
RTVSPropertyOp46
 70
     1
102
RTVSPropertyOp47
 70
     1
102
RTVSPropertyOp48
 70
     1
102
RTVSPropertyOp49
 70
     1
102
RTVSPropertyOp50
 70
     1
102
RTVSPropertyOp51
 70
     0
102
RTVSPropertyOp52
 70
     0
102
RTVSPropertyOp53
 70
     1
102
RTVSPropertyOp54
 70
     1
102
RTVSPropertyOp55
 70
     1
102
RTVSPropertyOp56
 70
     1
102
RTVSPropertyOp57
 70
     1
102
RTVSPropertyOp58
 70
     1
102
RTVSPropertyOp59
 70
     1
102
RTVSPropertyOp60
 70
     1
102
RTVSPropertyOp61
 70
     1
102
RTVSPropertyOp62
 70
     1
  0
XRECORD
  5
86C
102
{ACAD_REACTORS
330
86B
102
}
330
86B
100
AcDbXrecord
280
     1
102
RTVSPost2010Prop28
280
     0
102
RTVSPost2010PropOp28
 70
     1
102
RTVSPost2010Prop29
280
     1
102
RTVSPost2010PropOp29
 70
     1
102
RTVSPost2010Prop30
280
     1
102
RTVSPost2010PropOp30
 70
     1
102
RTVSPost2010Prop31
280
     0
102
RTVSPost2010PropOp31
 70
     1
102
RTVSPost2010Prop32
280
     0
102
RTVSPost2010PropOp32
 70
     1
102
RTVSPost2010Prop33
280
     0
102
RTVSPost2010PropOp33
 70
     1
102
RTVSPost2010Prop34
280
     0
102
RTVSPost2010PropOp34
 70
     1
102
RTVSPost2010Prop35
280
     0
102
RTVSPost2010PropOp35
 70
     1
102
RTVSPost2010Prop36
280
     0
102
RTVSPost2010PropOp36
 70
     1
102
RTVSPost2010Prop37
 90
       50
102
RTVSPost2010PropOp37
 70
     1
102
RTVSPost2010Prop38
140
0.0
102
RTVSPost2010PropOp38
 70
     1
102
RTVSPost2010Prop39
140
1.0
102
RTVSPost2010PropOp39
 70
     1
102
RTVSPost2010Prop40
 90
        0
102
RTVSPost2010PropOp40
 70
     1
102
RTVSPost2010Prop41ColorIndex
 90
       18
102
RTVSPost2010Prop41ColorRGB
 90
        0
102
RTVSPost2010PropOp41
 70
     1
102
RTVSPost2010Prop42
 90
       50
102
RTVSPost2010PropOp42
 70
     1
102
RTVSPost2010Prop43
 90
        3
102
RTVSPost2010PropOp43
 70
     1
102
RTVSPost2010Prop44ColorIndex
 90
        5
102
RTVSPost2010Prop44ColorRGB
 90
      255
102
RTVSPost2010PropOp44
 70
     1
102
RTVSPost2010Prop45
280
     0
102
RTVSPost2010PropOp45
 70
     1
102
RTVSPost2010Prop46
 90
       50
102
RTVSPost2010PropOp46
 70
     1
102
RTVSPost2010Prop47
 90
       50
102
RTVSPost2010PropOp47
 70
     1
102
RTVSPost2010Prop48
 90
       50
102
RTVSPost2010PropOp48
 70
     1
102
RTVSPost2010Prop49
280
     0
102
RTVSPost2010PropOp49
 70
     1
102
RTVSPost2010Prop50
 90
       50
102
RTVSPost2010PropOp50
 70
     1
102
RTVSPost2010Prop51ColorIndex
 90
      256
102
RTVSPost2010Prop51ColorRGB
 90
-16777216
102
RTVSPost2010PropOp51
 70
     0
102
RTVSPost2010Prop52
140
1.0
102
RTVSPost2010PropOp52
 70
     0
102
RTVSPost2010Prop53
 90
        2
102
RTVSPost2010PropOp53
 70
     1
102
RTVSPost2010Prop54
  1
strokes_ogs.tif
102
RTVSPost2010PropOp54
 70
     1
102
RTVSPost2010Prop55
280
     0
102
RTVSPost2010PropOp55
 70
     1
102
RTVSPost2010Prop56
140
1.0
102
RTVSPost2010PropOp56
 70
     1
102
RTVSPost2010Prop57
140
1.0
102
RTVSPost2010PropOp57
 70
     1
102
RTVSPropertyOp0
 70
     1
102
RTVSPropertyOp1
 70
     1
102
RTVSPropertyOp2
 70
     1
102
RTVSPropertyOp3
 70
     1
102
RTVSPropertyOp4
 70
     1
102
RTVSPropertyOp5
 70
     1
102
RTVSPropertyOp6
 70
     1
102
RTVSPropertyOp7
 70
     1
102
RTVSPropertyOp8
 70
     1
102
RTVSPropertyOp9
 70
     1
102
RTVSPropertyOp10
 70
     1
102
RTVSPropertyOp11
 70
     1
102
RTVSPropertyOp12
 70
     1
102
RTVSPropertyOp13
 70
     1
102
RTVSPropertyOp14
 70
     1
102
RTVSPropertyOp15
 70
     1
102
RTVSPropertyOp16
 70
     1
102
RTVSPropertyOp17
 70
     1
102
RTVSPropertyOp18
 70
     1
102
RTVSPropertyOp19
 70
     1
102
RTVSPropertyOp20
 70
     1
102
RTVSPropertyOp21
 70
     1
102
RTVSPropertyOp22
 70
     1
102
RTVSPropertyOp23
 70
     1
102
RTVSPropertyOp24
 70
     1
102
RTVSPropertyOp25
 70
     1
102
RTVSPropertyOp26
 70
     1
102
RTVSPropertyOp27
 70
     1
102
RTVSPropertyOp28
 70
     1
102
RTVSPropertyOp29
 70
     1
102
RTVSPropertyOp30
 70
     1
102
RTVSPropertyOp31
 70
     1
102
RTVSPropertyOp32
 70
     1
102
RTVSPropertyOp33
 70
     1
102
RTVSPropertyOp34
 70
     1
102
RTVSPropertyOp35
 70
     1
102
RTVSPropertyOp36
 70
     1
102
RTVSPropertyOp37
 70
     1
102
RTVSPropertyOp38
 70
     1
102
RTVSPropertyOp39
 70
     1
102
RTVSPropertyOp40
 70
     1
102
RTVSPropertyOp41
 70
     1
102
RTVSPropertyOp42
 70
     1
102
RTVSPropertyOp43
 70
     1
102
RTVSPropertyOp44
 70
     1
102
RTVSPropertyOp45
 70
     1
102
RTVSPropertyOp46
 70
     1
102
RTVSPropertyOp47
 70
     1
102
RTVSPropertyOp48
 70
     1
102
RTVSPropertyOp49
 70
     1
102
RTVSPropertyOp50
 70
     1
102
RTVSPropertyOp51
 70
     0
102
RTVSPropertyOp52
 70
     0
102
RTVSPropertyOp53
 70
     1
102
RTVSPropertyOp54
 70
     1
102
RTVSPropertyOp55
 70
     1
102
RTVSPropertyOp56
 70
     1
102
RTVSPropertyOp57
 70
     1
102
RTVSPropertyOp58
 70
     1
102
RTVSPropertyOp59
 70
     1
102
RTVSPropertyOp60
 70
     1
102
RTVSPropertyOp61
 70
     1
102
RTVSPropertyOp62
 70
     1
  0
XRECORD
  5
886
102
{ACAD_REACTORS
330
885
102
}
330
885
100
AcDbXrecord
280
     1
102
RTVSPost2010Prop28
280
     0
102
RTVSPost2010PropOp28
 70
     0
102
RTVSPost2010Prop29
280
     1
102
RTVSPost2010PropOp29
 70
     0
102
RTVSPost2010Prop30
280
     1
102
RTVSPost2010PropOp30
 70
     0
102
RTVSPost2010Prop31
280
     0
102
RTVSPost2010PropOp31
 70
     0
102
RTVSPost2010Prop32
280
     0
102
RTVSPost2010PropOp32
 70
     0
102
RTVSPost2010Prop33
280
     0
102
RTVSPost2010PropOp33
 70
     0
102
RTVSPost2010Prop34
280
     0
102
RTVSPost2010PropOp34
 70
     0
102
RTVSPost2010Prop35
280
     0
102
RTVSPost2010PropOp35
 70
     0
102
RTVSPost2010Prop36
280
     0
102
RTVSPost2010PropOp36
 70
     0
102
RTVSPost2010Prop37
 90
       50
102
RTVSPost2010PropOp37
 70
     0
102
RTVSPost2010Prop38
140
0.0
102
RTVSPost2010PropOp38
 70
     0
102
RTVSPost2010Prop39
140
1.0
102
RTVSPost2010PropOp39
 70
     0
102
RTVSPost2010Prop40
 90
        0
102
RTVSPost2010PropOp40
 70
     0
102
RTVSPost2010Prop41ColorIndex
 90
       18
102
RTVSPost2010Prop41ColorRGB
 90
        0
102
RTVSPost2010PropOp41
 70
     0
102
RTVSPost2010Prop42
 90
       50
102
RTVSPost2010PropOp42
 70
     0
102
RTVSPost2010Prop43
 90
        3
102
RTVSPost2010PropOp43
 70
     0
102
RTVSPost2010Prop44ColorIndex
 90
        5
102
RTVSPost2010Prop44ColorRGB
 90
      255
102
RTVSPost2010PropOp44
 70
     0
102
RTVSPost2010Prop45
280
     0
102
RTVSPost2010PropOp45
 70
     0
102
RTVSPost2010Prop46
 90
       50
102
RTVSPost2010PropOp46
 70
     0
102
RTVSPost2010Prop47
 90
       50
102
RTVSPost2010PropOp47
 70
     0
102
RTVSPost2010Prop48
 90
       50
102
RTVSPost2010PropOp48
 70
     0
102
RTVSPost2010Prop49
280
     0
102
RTVSPost2010PropOp49
 70
     0
102
RTVSPost2010Prop50
 90
       50
102
RTVSPost2010PropOp50
 70
     0
102
RTVSPost2010Prop51ColorIndex
 90
      256
102
RTVSPost2010Prop51ColorRGB
 90
-16777216
102
RTVSPost2010PropOp51
 70
     0
102
RTVSPost2010Prop52
140
1.0
102
RTVSPost2010PropOp52
 70
     0
102
RTVSPost2010Prop53
 90
        2
102
RTVSPost2010PropOp53
 70
     0
102
RTVSPost2010Prop54
  1
strokes_ogs.tif
102
RTVSPost2010PropOp54
 70
     0
102
RTVSPost2010Prop55
280
     0
102
RTVSPost2010PropOp55
 70
     0
102
RTVSPost2010Prop56
140
1.0
102
RTVSPost2010PropOp56
 70
     0
102
RTVSPost2010Prop57
140
1.0
102
RTVSPost2010PropOp57
 70
     0
102
RTVSPropertyOp0
 70
     0
102
RTVSPropertyOp1
 70
     0
102
RTVSPropertyOp2
 70
     0
102
RTVSPropertyOp3
 70
     0
102
RTVSPropertyOp4
 70
     0
102
RTVSPropertyOp5
 70
     0
102
RTVSPropertyOp6
 70
     0
102
RTVSPropertyOp7
 70
     0
102
RTVSPropertyOp8
 70
     0
102
RTVSPropertyOp9
 70
     0
102
RTVSPropertyOp10
 70
     0
102
RTVSPropertyOp11
 70
     0
102
RTVSPropertyOp12
 70
     0
102
RTVSPropertyOp13
 70
     0
102
RTVSPropertyOp14
 70
     2
102
RTVSPropertyOp15
 70
     0
102
RTVSPropertyOp16
 70
     0
102
RTVSPropertyOp17
 70
     0
102
RTVSPropertyOp18
 70
     0
102
RTVSPropertyOp19
 70
     0
102
RTVSPropertyOp20
 70
     0
102
RTVSPropertyOp21
 70
     0
102
RTVSPropertyOp22
 70
     0
102
RTVSPropertyOp23
 70
     0
102
RTVSPropertyOp24
 70
     0
102
RTVSPropertyOp25
 70
     0
102
RTVSPropertyOp26
 70
     0
102
RTVSPropertyOp27
 70
     0
102
RTVSPropertyOp28
 70
     0
102
RTVSPropertyOp29
 70
     0
102
RTVSPropertyOp30
 70
     0
102
RTVSPropertyOp31
 70
     0
102
RTVSPropertyOp32
 70
     0
102
RTVSPropertyOp33
 70
     0
102
RTVSPropertyOp34
 70
     0
102
RTVSPropertyOp35
 70
     0
102
RTVSPropertyOp36
 70
     0
102
RTVSPropertyOp37
 70
     0
102
RTVSPropertyOp38
 70
     0
102
RTVSPropertyOp39
 70
     0
102
RTVSPropertyOp40
 70
     0
102
RTVSPropertyOp41
 70
     0
102
RTVSPropertyOp42
 70
     0
102
RTVSPropertyOp43
 70
     0
102
RTVSPropertyOp44
 70
     0
102
RTVSPropertyOp45
 70
     0
102
RTVSPropertyOp46
 70
     0
102
RTVSPropertyOp47
 70
     0
102
RTVSPropertyOp48
 70
     0
102
RTVSPropertyOp49
 70
     0
102
RTVSPropertyOp50
 70
     0
102
RTVSPropertyOp51
 70
     0
102
RTVSPropertyOp52
 70
     0
102
RTVSPropertyOp53
 70
     0
102
RTVSPropertyOp54
 70
     0
102
RTVSPropertyOp55
 70
     0
102
RTVSPropertyOp56
 70
     0
102
RTVSPropertyOp57
 70
     0
102
RTVSPropertyOp58
 70
     0
102
RTVSPropertyOp59
 70
     0
102
RTVSPropertyOp60
 70
     0
102
RTVSPropertyOp61
 70
     0
102
RTVSPropertyOp62
 70
     0
  0
XRECORD
  5
874
102
{ACAD_REACTORS
330
873
102
}
330
873
100
AcDbXrecord
280
     1
102
RTVSPost2010Prop28
280
     0
102
RTVSPost2010PropOp28
 70
     1
102
RTVSPost2010Prop29
280
     1
102
RTVSPost2010PropOp29
 70
     1
102
RTVSPost2010Prop30
280
     1
102
RTVSPost2010PropOp30
 70
     1
102
RTVSPost2010Prop31
280
     0
102
RTVSPost2010PropOp31
 70
     1
102
RTVSPost2010Prop32
280
     0
102
RTVSPost2010PropOp32
 70
     1
102
RTVSPost2010Prop33
280
     0
102
RTVSPost2010PropOp33
 70
     1
102
RTVSPost2010Prop34
280
     0
102
RTVSPost2010PropOp34
 70
     1
102
RTVSPost2010Prop35
280
     0
102
RTVSPost2010PropOp35
 70
     1
102
RTVSPost2010Prop36
280
     0
102
RTVSPost2010PropOp36
 70
     1
102
RTVSPost2010Prop37
 90
       50
102
RTVSPost2010PropOp37
 70
     1
102
RTVSPost2010Prop38
140
0.0
102
RTVSPost2010PropOp38
 70
     1
102
RTVSPost2010Prop39
140
1.0
102
RTVSPost2010PropOp39
 70
     1
102
RTVSPost2010Prop40
 90
        0
102
RTVSPost2010PropOp40
 70
     1
102
RTVSPost2010Prop41ColorIndex
 90
       18
102
RTVSPost2010Prop41ColorRGB
 90
        0
102
RTVSPost2010PropOp41
 70
     1
102
RTVSPost2010Prop42
 90
       50
102
RTVSPost2010PropOp42
 70
     1
102
RTVSPost2010Prop43
 90
        3
102
RTVSPost2010PropOp43
 70
     1
102
RTVSPost2010Prop44ColorIndex
 90
        5
102
RTVSPost2010Prop44ColorRGB
 90
      255
102
RTVSPost2010PropOp44
 70
     1
102
RTVSPost2010Prop45
280
     0
102
RTVSPost2010PropOp45
 70
     1
102
RTVSPost2010Prop46
 90
       50
102
RTVSPost2010PropOp46
 70
     1
102
RTVSPost2010Prop47
 90
       50
102
RTVSPost2010PropOp47
 70
     1
102
RTVSPost2010Prop48
 90
       50
102
RTVSPost2010PropOp48
 70
     1
102
RTVSPost2010Prop49
280
     0
102
RTVSPost2010PropOp49
 70
     1
102
RTVSPost2010Prop50
 90
       50
102
RTVSPost2010PropOp50
 70
     1
102
RTVSPost2010Prop51ColorIndex
 90
      256
102
RTVSPost2010Prop51ColorRGB
 90
-16777216
102
RTVSPost2010PropOp51
 70
     0
102
RTVSPost2010Prop52
140
1.0
102
RTVSPost2010PropOp52
 70
     0
102
RTVSPost2010Prop53
 90
        2
102
RTVSPost2010PropOp53
 70
     1
102
RTVSPost2010Prop54
  1
strokes_ogs.tif
102
RTVSPost2010PropOp54
 70
     1
102
RTVSPost2010Prop55
280
     0
102
RTVSPost2010PropOp55
 70
     1
102
RTVSPost2010Prop56
140
1.0
102
RTVSPost2010PropOp56
 70
     1
102
RTVSPost2010Prop57
140
1.0
102
RTVSPost2010PropOp57
 70
     1
102
RTVSPropertyOp0
 70
     1
102
RTVSPropertyOp1
 70
     1
102
RTVSPropertyOp2
 70
     1
102
RTVSPropertyOp3
 70
     1
102
RTVSPropertyOp4
 70
     1
102
RTVSPropertyOp5
 70
     1
102
RTVSPropertyOp6
 70
     1
102
RTVSPropertyOp7
 70
     1
102
RTVSPropertyOp8
 70
     1
102
RTVSPropertyOp9
 70
     1
102
RTVSPropertyOp10
 70
     1
102
RTVSPropertyOp11
 70
     1
102
RTVSPropertyOp12
 70
     1
102
RTVSPropertyOp13
 70
     1
102
RTVSPropertyOp14
 70
     1
102
RTVSPropertyOp15
 70
     1
102
RTVSPropertyOp16
 70
     1
102
RTVSPropertyOp17
 70
     1
102
RTVSPropertyOp18
 70
     1
102
RTVSPropertyOp19
 70
     1
102
RTVSPropertyOp20
 70
     1
102
RTVSPropertyOp21
 70
     1
102
RTVSPropertyOp22
 70
     1
102
RTVSPropertyOp23
 70
     1
102
RTVSPropertyOp24
 70
     1
102
RTVSPropertyOp25
 70
     1
102
RTVSPropertyOp26
 70
     1
102
RTVSPropertyOp27
 70
     1
102
RTVSPropertyOp28
 70
     1
102
RTVSPropertyOp29
 70
     1
102
RTVSPropertyOp30
 70
     1
102
RTVSPropertyOp31
 70
     1
102
RTVSPropertyOp32
 70
     1
102
RTVSPropertyOp33
 70
     1
102
RTVSPropertyOp34
 70
     1
102
RTVSPropertyOp35
 70
     1
102
RTVSPropertyOp36
 70
     1
102
RTVSPropertyOp37
 70
     1
102
RTVSPropertyOp38
 70
     1
102
RTVSPropertyOp39
 70
     1
102
RTVSPropertyOp40
 70
     1
102
RTVSPropertyOp41
 70
     1
102
RTVSPropertyOp42
 70
     1
102
RTVSPropertyOp43
 70
     1
102
RTVSPropertyOp44
 70
     1
102
RTVSPropertyOp45
 70
     1
102
RTVSPropertyOp46
 70
     1
102
RTVSPropertyOp47
 70
     1
102
RTVSPropertyOp48
 70
     1
102
RTVSPropertyOp49
 70
     1
102
RTVSPropertyOp50
 70
     1
102
RTVSPropertyOp51
 70
     0
102
RTVSPropertyOp52
 70
     0
102
RTVSPropertyOp53
 70
     1
102
RTVSPropertyOp54
 70
     1
102
RTVSPropertyOp55
 70
     1
102
RTVSPropertyOp56
 70
     1
102
RTVSPropertyOp57
 70
     1
102
RTVSPropertyOp58
 70
     1
102
RTVSPropertyOp59
 70
     1
102
RTVSPropertyOp60
 70
     1
102
RTVSPropertyOp61
 70
     1
102
RTVSPropertyOp62
 70
     1
  0
XRECORD
  5
858
102
{ACAD_REACTORS
330
857
102
}
330
857
100
AcDbXrecord
280
     1
102
RTVSPost2010Prop28
280
     0
102
RTVSPost2010PropOp28
 70
     1
102
RTVSPost2010Prop29
280
     1
102
RTVSPost2010PropOp29
 70
     1
102
RTVSPost2010Prop30
280
     1
102
RTVSPost2010PropOp30
 70
     1
102
RTVSPost2010Prop31
280
     0
102
RTVSPost2010PropOp31
 70
     1
102
RTVSPost2010Prop32
280
     0
102
RTVSPost2010PropOp32
 70
     1
102
RTVSPost2010Prop33
280
     0
102
RTVSPost2010PropOp33
 70
     1
102
RTVSPost2010Prop34
280
     0
102
RTVSPost2010PropOp34
 70
     1
102
RTVSPost2010Prop35
280
     0
102
RTVSPost2010PropOp35
 70
     1
102
RTVSPost2010Prop36
280
     0
102
RTVSPost2010PropOp36
 70
     1
102
RTVSPost2010Prop37
 90
       50
102
RTVSPost2010PropOp37
 70
     1
102
RTVSPost2010Prop38
140
0.0
102
RTVSPost2010PropOp38
 70
     1
102
RTVSPost2010Prop39
140
1.0
102
RTVSPost2010PropOp39
 70
     1
102
RTVSPost2010Prop40
 90
        0
102
RTVSPost2010PropOp40
 70
     1
102
RTVSPost2010Prop41ColorIndex
 90
       18
102
RTVSPost2010Prop41ColorRGB
 90
        0
102
RTVSPost2010PropOp41
 70
     1
102
RTVSPost2010Prop42
 90
       50
102
RTVSPost2010PropOp42
 70
     1
102
RTVSPost2010Prop43
 90
        3
102
RTVSPost2010PropOp43
 70
     1
102
RTVSPost2010Prop44ColorIndex
 90
        5
102
RTVSPost2010Prop44ColorRGB
 90
      255
102
RTVSPost2010PropOp44
 70
     1
102
RTVSPost2010Prop45
280
     0
102
RTVSPost2010PropOp45
 70
     1
102
RTVSPost2010Prop46
 90
       50
102
RTVSPost2010PropOp46
 70
     1
102
RTVSPost2010Prop47
 90
       50
102
RTVSPost2010PropOp47
 70
     1
102
RTVSPost2010Prop48
 90
       50
102
RTVSPost2010PropOp48
 70
     1
102
RTVSPost2010Prop49
280
     0
102
RTVSPost2010PropOp49
 70
     1
102
RTVSPost2010Prop50
 90
       50
102
RTVSPost2010PropOp50
 70
     1
102
RTVSPost2010Prop51ColorIndex
 90
      256
102
RTVSPost2010Prop51ColorRGB
 90
-16777216
102
RTVSPost2010PropOp51
 70
     0
102
RTVSPost2010Prop52
140
1.0
102
RTVSPost2010PropOp52
 70
     0
102
RTVSPost2010Prop53
 90
        2
102
RTVSPost2010PropOp53
 70
     1
102
RTVSPost2010Prop54
  1
strokes_ogs.tif
102
RTVSPost2010PropOp54
 70
     1
102
RTVSPost2010Prop55
280
     0
102
RTVSPost2010PropOp55
 70
     1
102
RTVSPost2010Prop56
140
1.0
102
RTVSPost2010PropOp56
 70
     1
102
RTVSPost2010Prop57
140
1.0
102
RTVSPost2010PropOp57
 70
     1
102
RTVSPropertyOp0
 70
     1
102
RTVSPropertyOp1
 70
     1
102
RTVSPropertyOp2
 70
     1
102
RTVSPropertyOp3
 70
     1
102
RTVSPropertyOp4
 70
     1
102
RTVSPropertyOp5
 70
     1
102
RTVSPropertyOp6
 70
     1
102
RTVSPropertyOp7
 70
     1
102
RTVSPropertyOp8
 70
     1
102
RTVSPropertyOp9
 70
     1
102
RTVSPropertyOp10
 70
     1
102
RTVSPropertyOp11
 70
     1
102
RTVSPropertyOp12
 70
     1
102
RTVSPropertyOp13
 70
     1
102
RTVSPropertyOp14
 70
     1
102
RTVSPropertyOp15
 70
     1
102
RTVSPropertyOp16
 70
     1
102
RTVSPropertyOp17
 70
     1
102
RTVSPropertyOp18
 70
     1
102
RTVSPropertyOp19
 70
     1
102
RTVSPropertyOp20
 70
     1
102
RTVSPropertyOp21
 70
     1
102
RTVSPropertyOp22
 70
     1
102
RTVSPropertyOp23
 70
     1
102
RTVSPropertyOp24
 70
     1
102
RTVSPropertyOp25
 70
     1
102
RTVSPropertyOp26
 70
     1
102
RTVSPropertyOp27
 70
     1
102
RTVSPropertyOp28
 70
     1
102
RTVSPropertyOp29
 70
     1
102
RTVSPropertyOp30
 70
     1
102
RTVSPropertyOp31
 70
     1
102
RTVSPropertyOp32
 70
     1
102
RTVSPropertyOp33
 70
     1
102
RTVSPropertyOp34
 70
     1
102
RTVSPropertyOp35
 70
     1
102
RTVSPropertyOp36
 70
     1
102
RTVSPropertyOp37
 70
     1
102
RTVSPropertyOp38
 70
     1
102
RTVSPropertyOp39
 70
     1
102
RTVSPropertyOp40
 70
     1
102
RTVSPropertyOp41
 70
     1
102
RTVSPropertyOp42
 70
     1
102
RTVSPropertyOp43
 70
     1
102
RTVSPropertyOp44
 70
     1
102
RTVSPropertyOp45
 70
     1
102
RTVSPropertyOp46
 70
     1
102
RTVSPropertyOp47
 70
     1
102
RTVSPropertyOp48
 70
     1
102
RTVSPropertyOp49
 70
     1
102
RTVSPropertyOp50
 70
     1
102
RTVSPropertyOp51
 70
     0
102
RTVSPropertyOp52
 70
     0
102
RTVSPropertyOp53
 70
     1
102
RTVSPropertyOp54
 70
     1
102
RTVSPropertyOp55
 70
     1
102
RTVSPropertyOp56
 70
     1
102
RTVSPropertyOp57
 70
     1
102
RTVSPropertyOp58
 70
     1
102
RTVSPropertyOp59
 70
     1
102
RTVSPropertyOp60
 70
     1
102
RTVSPropertyOp61
 70
     1
102
RTVSPropertyOp62
 70
     1
  0
XRECORD
  5
85A
102
{ACAD_REACTORS
330
859
102
}
330
859
100
AcDbXrecord
280
     1
102
RTVSPost2010Prop28
280
     0
102
RTVSPost2010PropOp28
 70
     1
102
RTVSPost2010Prop29
280
     1
102
RTVSPost2010PropOp29
 70
     1
102
RTVSPost2010Prop30
280
     1
102
RTVSPost2010PropOp30
 70
     1
102
RTVSPost2010Prop31
280
     0
102
RTVSPost2010PropOp31
 70
     1
102
RTVSPost2010Prop32
280
     0
102
RTVSPost2010PropOp32
 70
     1
102
RTVSPost2010Prop33
280
     0
102
RTVSPost2010PropOp33
 70
     1
102
RTVSPost2010Prop34
280
     0
102
RTVSPost2010PropOp34
 70
     1
102
RTVSPost2010Prop35
280
     0
102
RTVSPost2010PropOp35
 70
     1
102
RTVSPost2010Prop36
280
     0
102
RTVSPost2010PropOp36
 70
     1
102
RTVSPost2010Prop37
 90
       50
102
RTVSPost2010PropOp37
 70
     1
102
RTVSPost2010Prop38
140
0.0
102
RTVSPost2010PropOp38
 70
     1
102
RTVSPost2010Prop39
140
1.0
102
RTVSPost2010PropOp39
 70
     1
102
RTVSPost2010Prop40
 90
        0
102
RTVSPost2010PropOp40
 70
     1
102
RTVSPost2010Prop41ColorIndex
 90
       18
102
RTVSPost2010Prop41ColorRGB
 90
        0
102
RTVSPost2010PropOp41
 70
     1
102
RTVSPost2010Prop42
 90
       50
102
RTVSPost2010PropOp42
 70
     1
102
RTVSPost2010Prop43
 90
        3
102
RTVSPost2010PropOp43
 70
     1
102
RTVSPost2010Prop44ColorIndex
 90
        5
102
RTVSPost2010Prop44ColorRGB
 90
      255
102
RTVSPost2010PropOp44
 70
     1
102
RTVSPost2010Prop45
280
     0
102
RTVSPost2010PropOp45
 70
     1
102
RTVSPost2010Prop46
 90
       50
102
RTVSPost2010PropOp46
 70
     1
102
RTVSPost2010Prop47
 90
       50
102
RTVSPost2010PropOp47
 70
     1
102
RTVSPost2010Prop48
 90
       50
102
RTVSPost2010PropOp48
 70
     1
102
RTVSPost2010Prop49
280
     0
102
RTVSPost2010PropOp49
 70
     1
102
RTVSPost2010Prop50
 90
       50
102
RTVSPost2010PropOp50
 70
     1
102
RTVSPost2010Prop51ColorIndex
 90
      256
102
RTVSPost2010Prop51ColorRGB
 90
-16777216
102
RTVSPost2010PropOp51
 70
     0
102
RTVSPost2010Prop52
140
1.0
102
RTVSPost2010PropOp52
 70
     0
102
RTVSPost2010Prop53
 90
        2
102
RTVSPost2010PropOp53
 70
     1
102
RTVSPost2010Prop54
  1
strokes_ogs.tif
102
RTVSPost2010PropOp54
 70
     1
102
RTVSPost2010Prop55
280
     0
102
RTVSPost2010PropOp55
 70
     1
102
RTVSPost2010Prop56
140
1.0
102
RTVSPost2010PropOp56
 70
     1
102
RTVSPost2010Prop57
140
1.0
102
RTVSPost2010PropOp57
 70
     1
102
RTVSPropertyOp0
 70
     1
102
RTVSPropertyOp1
 70
     1
102
RTVSPropertyOp2
 70
     1
102
RTVSPropertyOp3
 70
     1
102
RTVSPropertyOp4
 70
     1
102
RTVSPropertyOp5
 70
     1
102
RTVSPropertyOp6
 70
     1
102
RTVSPropertyOp7
 70
     1
102
RTVSPropertyOp8
 70
     1
102
RTVSPropertyOp9
 70
     1
102
RTVSPropertyOp10
 70
     1
102
RTVSPropertyOp11
 70
     1
102
RTVSPropertyOp12
 70
     1
102
RTVSPropertyOp13
 70
     1
102
RTVSPropertyOp14
 70
     1
102
RTVSPropertyOp15
 70
     1
102
RTVSPropertyOp16
 70
     1
102
RTVSPropertyOp17
 70
     1
102
RTVSPropertyOp18
 70
     1
102
RTVSPropertyOp19
 70
     1
102
RTVSPropertyOp20
 70
     1
102
RTVSPropertyOp21
 70
     1
102
RTVSPropertyOp22
 70
     1
102
RTVSPropertyOp23
 70
     1
102
RTVSPropertyOp24
 70
     1
102
RTVSPropertyOp25
 70
     1
102
RTVSPropertyOp26
 70
     1
102
RTVSPropertyOp27
 70
     1
102
RTVSPropertyOp28
 70
     1
102
RTVSPropertyOp29
 70
     1
102
RTVSPropertyOp30
 70
     1
102
RTVSPropertyOp31
 70
     1
102
RTVSPropertyOp32
 70
     1
102
RTVSPropertyOp33
 70
     1
102
RTVSPropertyOp34
 70
     1
102
RTVSPropertyOp35
 70
     1
102
RTVSPropertyOp36
 70
     1
102
RTVSPropertyOp37
 70
     1
102
RTVSPropertyOp38
 70
     1
102
RTVSPropertyOp39
 70
     1
102
RTVSPropertyOp40
 70
     1
102
RTVSPropertyOp41
 70
     1
102
RTVSPropertyOp42
 70
     1
102
RTVSPropertyOp43
 70
     1
102
RTVSPropertyOp44
 70
     1
102
RTVSPropertyOp45
 70
     1
102
RTVSPropertyOp46
 70
     1
102
RTVSPropertyOp47
 70
     1
102
RTVSPropertyOp48
 70
     1
102
RTVSPropertyOp49
 70
     1
102
RTVSPropertyOp50
 70
     1
102
RTVSPropertyOp51
 70
     0
102
RTVSPropertyOp52
 70
     0
102
RTVSPropertyOp53
 70
     1
102
RTVSPropertyOp54
 70
     1
102
RTVSPropertyOp55
 70
     1
102
RTVSPropertyOp56
 70
     1
102
RTVSPropertyOp57
 70
     1
102
RTVSPropertyOp58
 70
     1
102
RTVSPropertyOp59
 70
     1
102
RTVSPropertyOp60
 70
     1
102
RTVSPropertyOp61
 70
     1
102
RTVSPropertyOp62
 70
     1
  0
XRECORD
  5
85C
102
{ACAD_REACTORS
330
85B
102
}
330
85B
100
AcDbXrecord
280
     1
102
RTVSPost2010Prop28
280
     0
102
RTVSPost2010PropOp28
 70
     1
102
RTVSPost2010Prop29
280
     1
102
RTVSPost2010PropOp29
 70
     1
102
RTVSPost2010Prop30
280
     1
102
RTVSPost2010PropOp30
 70
     1
102
RTVSPost2010Prop31
280
     0
102
RTVSPost2010PropOp31
 70
     1
102
RTVSPost2010Prop32
280
     0
102
RTVSPost2010PropOp32
 70
     1
102
RTVSPost2010Prop33
280
     0
102
RTVSPost2010PropOp33
 70
     1
102
RTVSPost2010Prop34
280
     0
102
RTVSPost2010PropOp34
 70
     1
102
RTVSPost2010Prop35
280
     0
102
RTVSPost2010PropOp35
 70
     1
102
RTVSPost2010Prop36
280
     0
102
RTVSPost2010PropOp36
 70
     1
102
RTVSPost2010Prop37
 90
       50
102
RTVSPost2010PropOp37
 70
     1
102
RTVSPost2010Prop38
140
0.0
102
RTVSPost2010PropOp38
 70
     1
102
RTVSPost2010Prop39
140
1.0
102
RTVSPost2010PropOp39
 70
     1
102
RTVSPost2010Prop40
 90
        0
102
RTVSPost2010PropOp40
 70
     1
102
RTVSPost2010Prop41ColorIndex
 90
       18
102
RTVSPost2010Prop41ColorRGB
 90
        0
102
RTVSPost2010PropOp41
 70
     1
102
RTVSPost2010Prop42
 90
       50
102
RTVSPost2010PropOp42
 70
     1
102
RTVSPost2010Prop43
 90
        3
102
RTVSPost2010PropOp43
 70
     1
102
RTVSPost2010Prop44ColorIndex
 90
        5
102
RTVSPost2010Prop44ColorRGB
 90
      255
102
RTVSPost2010PropOp44
 70
     1
102
RTVSPost2010Prop45
280
     0
102
RTVSPost2010PropOp45
 70
     1
102
RTVSPost2010Prop46
 90
       50
102
RTVSPost2010PropOp46
 70
     1
102
RTVSPost2010Prop47
 90
       50
102
RTVSPost2010PropOp47
 70
     1
102
RTVSPost2010Prop48
 90
       50
102
RTVSPost2010PropOp48
 70
     1
102
RTVSPost2010Prop49
280
     0
102
RTVSPost2010PropOp49
 70
     1
102
RTVSPost2010Prop50
 90
       50
102
RTVSPost2010PropOp50
 70
     1
102
RTVSPost2010Prop51ColorIndex
 90
      256
102
RTVSPost2010Prop51ColorRGB
 90
-16777216
102
RTVSPost2010PropOp51
 70
     0
102
RTVSPost2010Prop52
140
1.0
102
RTVSPost2010PropOp52
 70
     0
102
RTVSPost2010Prop53
 90
        2
102
RTVSPost2010PropOp53
 70
     1
102
RTVSPost2010Prop54
  1
strokes_ogs.tif
102
RTVSPost2010PropOp54
 70
     1
102
RTVSPost2010Prop55
280
     0
102
RTVSPost2010PropOp55
 70
     1
102
RTVSPost2010Prop56
140
1.0
102
RTVSPost2010PropOp56
 70
     1
102
RTVSPost2010Prop57
140
1.0
102
RTVSPost2010PropOp57
 70
     1
102
RTVSPropertyOp0
 70
     1
102
RTVSPropertyOp1
 70
     1
102
RTVSPropertyOp2
 70
     1
102
RTVSPropertyOp3
 70
     1
102
RTVSPropertyOp4
 70
     1
102
RTVSPropertyOp5
 70
     1
102
RTVSPropertyOp6
 70
     1
102
RTVSPropertyOp7
 70
     1
102
RTVSPropertyOp8
 70
     1
102
RTVSPropertyOp9
 70
     1
102
RTVSPropertyOp10
 70
     1
102
RTVSPropertyOp11
 70
     1
102
RTVSPropertyOp12
 70
     1
102
RTVSPropertyOp13
 70
     1
102
RTVSPropertyOp14
 70
     1
102
RTVSPropertyOp15
 70
     1
102
RTVSPropertyOp16
 70
     1
102
RTVSPropertyOp17
 70
     1
102
RTVSPropertyOp18
 70
     1
102
RTVSPropertyOp19
 70
     1
102
RTVSPropertyOp20
 70
     1
102
RTVSPropertyOp21
 70
     1
102
RTVSPropertyOp22
 70
     1
102
RTVSPropertyOp23
 70
     1
102
RTVSPropertyOp24
 70
     1
102
RTVSPropertyOp25
 70
     1
102
RTVSPropertyOp26
 70
     1
102
RTVSPropertyOp27
 70
     1
102
RTVSPropertyOp28
 70
     1
102
RTVSPropertyOp29
 70
     1
102
RTVSPropertyOp30
 70
     1
102
RTVSPropertyOp31
 70
     1
102
RTVSPropertyOp32
 70
     1
102
RTVSPropertyOp33
 70
     1
102
RTVSPropertyOp34
 70
     1
102
RTVSPropertyOp35
 70
     1
102
RTVSPropertyOp36
 70
     1
102
RTVSPropertyOp37
 70
     1
102
RTVSPropertyOp38
 70
     1
102
RTVSPropertyOp39
 70
     1
102
RTVSPropertyOp40
 70
     1
102
RTVSPropertyOp41
 70
     1
102
RTVSPropertyOp42
 70
     1
102
RTVSPropertyOp43
 70
     1
102
RTVSPropertyOp44
 70
     1
102
RTVSPropertyOp45
 70
     1
102
RTVSPropertyOp46
 70
     1
102
RTVSPropertyOp47
 70
     1
102
RTVSPropertyOp48
 70
     1
102
RTVSPropertyOp49
 70
     1
102
RTVSPropertyOp50
 70
     1
102
RTVSPropertyOp51
 70
     0
102
RTVSPropertyOp52
 70
     0
102
RTVSPropertyOp53
 70
     1
102
RTVSPropertyOp54
 70
     1
102
RTVSPropertyOp55
 70
     1
102
RTVSPropertyOp56
 70
     1
102
RTVSPropertyOp57
 70
     1
102
RTVSPropertyOp58
 70
     1
102
RTVSPropertyOp59
 70
     1
102
RTVSPropertyOp60
 70
     1
102
RTVSPropertyOp61
 70
     1
102
RTVSPropertyOp62
 70
     1
  0
XRECORD
  5
85E
102
{ACAD_REACTORS
330
85D
102
}
330
85D
100
AcDbXrecord
280
     1
102
RTVSPost2010Prop28
280
     0
102
RTVSPost2010PropOp28
 70
     1
102
RTVSPost2010Prop29
280
     1
102
RTVSPost2010PropOp29
 70
     1
102
RTVSPost2010Prop30
280
     1
102
RTVSPost2010PropOp30
 70
     1
102
RTVSPost2010Prop31
280
     0
102
RTVSPost2010PropOp31
 70
     1
102
RTVSPost2010Prop32
280
     0
102
RTVSPost2010PropOp32
 70
     1
102
RTVSPost2010Prop33
280
     0
102
RTVSPost2010PropOp33
 70
     1
102
RTVSPost2010Prop34
280
     0
102
RTVSPost2010PropOp34
 70
     1
102
RTVSPost2010Prop35
280
     0
102
RTVSPost2010PropOp35
 70
     1
102
RTVSPost2010Prop36
280
     0
102
RTVSPost2010PropOp36
 70
     1
102
RTVSPost2010Prop37
 90
       50
102
RTVSPost2010PropOp37
 70
     1
102
RTVSPost2010Prop38
140
0.0
102
RTVSPost2010PropOp38
 70
     1
102
RTVSPost2010Prop39
140
1.0
102
RTVSPost2010PropOp39
 70
     1
102
RTVSPost2010Prop40
 90
        0
102
RTVSPost2010PropOp40
 70
     1
102
RTVSPost2010Prop41ColorIndex
 90
       18
102
RTVSPost2010Prop41ColorRGB
 90
        0
102
RTVSPost2010PropOp41
 70
     1
102
RTVSPost2010Prop42
 90
       50
102
RTVSPost2010PropOp42
 70
     1
102
RTVSPost2010Prop43
 90
        3
102
RTVSPost2010PropOp43
 70
     1
102
RTVSPost2010Prop44ColorIndex
 90
        5
102
RTVSPost2010Prop44ColorRGB
 90
      255
102
RTVSPost2010PropOp44
 70
     1
102
RTVSPost2010Prop45
280
     0
102
RTVSPost2010PropOp45
 70
     1
102
RTVSPost2010Prop46
 90
       50
102
RTVSPost2010PropOp46
 70
     1
102
RTVSPost2010Prop47
 90
       50
102
RTVSPost2010PropOp47
 70
     1
102
RTVSPost2010Prop48
 90
       50
102
RTVSPost2010PropOp48
 70
     1
102
RTVSPost2010Prop49
280
     0
102
RTVSPost2010PropOp49
 70
     1
102
RTVSPost2010Prop50
 90
       50
102
RTVSPost2010PropOp50
 70
     1
102
RTVSPost2010Prop51ColorIndex
 90
      256
102
RTVSPost2010Prop51ColorRGB
 90
-16777216
102
RTVSPost2010PropOp51
 70
     0
102
RTVSPost2010Prop52
140
1.0
102
RTVSPost2010PropOp52
 70
     0
102
RTVSPost2010Prop53
 90
        2
102
RTVSPost2010PropOp53
 70
     1
102
RTVSPost2010Prop54
  1
strokes_ogs.tif
102
RTVSPost2010PropOp54
 70
     1
102
RTVSPost2010Prop55
280
     0
102
RTVSPost2010PropOp55
 70
     1
102
RTVSPost2010Prop56
140
1.0
102
RTVSPost2010PropOp56
 70
     1
102
RTVSPost2010Prop57
140
1.0
102
RTVSPost2010PropOp57
 70
     1
102
RTVSPropertyOp0
 70
     1
102
RTVSPropertyOp1
 70
     1
102
RTVSPropertyOp2
 70
     1
102
RTVSPropertyOp3
 70
     1
102
RTVSPropertyOp4
 70
     1
102
RTVSPropertyOp5
 70
     1
102
RTVSPropertyOp6
 70
     1
102
RTVSPropertyOp7
 70
     1
102
RTVSPropertyOp8
 70
     1
102
RTVSPropertyOp9
 70
     1
102
RTVSPropertyOp10
 70
     1
102
RTVSPropertyOp11
 70
     1
102
RTVSPropertyOp12
 70
     1
102
RTVSPropertyOp13
 70
     1
102
RTVSPropertyOp14
 70
     1
102
RTVSPropertyOp15
 70
     1
102
RTVSPropertyOp16
 70
     1
102
RTVSPropertyOp17
 70
     1
102
RTVSPropertyOp18
 70
     1
102
RTVSPropertyOp19
 70
     1
102
RTVSPropertyOp20
 70
     1
102
RTVSPropertyOp21
 70
     1
102
RTVSPropertyOp22
 70
     1
102
RTVSPropertyOp23
 70
     1
102
RTVSPropertyOp24
 70
     1
102
RTVSPropertyOp25
 70
     1
102
RTVSPropertyOp26
 70
     1
102
RTVSPropertyOp27
 70
     1
102
RTVSPropertyOp28
 70
     1
102
RTVSPropertyOp29
 70
     1
102
RTVSPropertyOp30
 70
     1
102
RTVSPropertyOp31
 70
     1
102
RTVSPropertyOp32
 70
     1
102
RTVSPropertyOp33
 70
     1
102
RTVSPropertyOp34
 70
     1
102
RTVSPropertyOp35
 70
     1
102
RTVSPropertyOp36
 70
     1
102
RTVSPropertyOp37
 70
     1
102
RTVSPropertyOp38
 70
     1
102
RTVSPropertyOp39
 70
     1
102
RTVSPropertyOp40
 70
     1
102
RTVSPropertyOp41
 70
     1
102
RTVSPropertyOp42
 70
     1
102
RTVSPropertyOp43
 70
     1
102
RTVSPropertyOp44
 70
     1
102
RTVSPropertyOp45
 70
     1
102
RTVSPropertyOp46
 70
     1
102
RTVSPropertyOp47
 70
     1
102
RTVSPropertyOp48
 70
     1
102
RTVSPropertyOp49
 70
     1
102
RTVSPropertyOp50
 70
     1
102
RTVSPropertyOp51
 70
     0
102
RTVSPropertyOp52
 70
     0
102
RTVSPropertyOp53
 70
     1
102
RTVSPropertyOp54
 70
     1
102
RTVSPropertyOp55
 70
     1
102
RTVSPropertyOp56
 70
     1
102
RTVSPropertyOp57
 70
     1
102
RTVSPropertyOp58
 70
     1
102
RTVSPropertyOp59
 70
     1
102
RTVSPropertyOp60
 70
     1
102
RTVSPropertyOp61
 70
     1
102
RTVSPropertyOp62
 70
     1
  0
XRECORD
  5
866
102
{ACAD_REACTORS
330
865
102
}
330
865
100
AcDbXrecord
280
     1
102
RTVSPost2010Prop28
280
     0
102
RTVSPost2010PropOp28
 70
     1
102
RTVSPost2010Prop29
280
     1
102
RTVSPost2010PropOp29
 70
     1
102
RTVSPost2010Prop30
280
     1
102
RTVSPost2010PropOp30
 70
     1
102
RTVSPost2010Prop31
280
     0
102
RTVSPost2010PropOp31
 70
     1
102
RTVSPost2010Prop32
280
     0
102
RTVSPost2010PropOp32
 70
     1
102
RTVSPost2010Prop33
280
     0
102
RTVSPost2010PropOp33
 70
     1
102
RTVSPost2010Prop34
280
     0
102
RTVSPost2010PropOp34
 70
     1
102
RTVSPost2010Prop35
280
     0
102
RTVSPost2010PropOp35
 70
     1
102
RTVSPost2010Prop36
280
     0
102
RTVSPost2010PropOp36
 70
     1
102
RTVSPost2010Prop37
 90
       50
102
RTVSPost2010PropOp37
 70
     1
102
RTVSPost2010Prop38
140
0.0
102
RTVSPost2010PropOp38
 70
     1
102
RTVSPost2010Prop39
140
1.0
102
RTVSPost2010PropOp39
 70
     1
102
RTVSPost2010Prop40
 90
        0
102
RTVSPost2010PropOp40
 70
     1
102
RTVSPost2010Prop41ColorIndex
 90
       18
102
RTVSPost2010Prop41ColorRGB
 90
        0
102
RTVSPost2010PropOp41
 70
     1
102
RTVSPost2010Prop42
 90
       50
102
RTVSPost2010PropOp42
 70
     1
102
RTVSPost2010Prop43
 90
        3
102
RTVSPost2010PropOp43
 70
     1
102
RTVSPost2010Prop44ColorIndex
 90
        5
102
RTVSPost2010Prop44ColorRGB
 90
      255
102
RTVSPost2010PropOp44
 70
     1
102
RTVSPost2010Prop45
280
     0
102
RTVSPost2010PropOp45
 70
     1
102
RTVSPost2010Prop46
 90
       50
102
RTVSPost2010PropOp46
 70
     1
102
RTVSPost2010Prop47
 90
       50
102
RTVSPost2010PropOp47
 70
     1
102
RTVSPost2010Prop48
 90
       50
102
RTVSPost2010PropOp48
 70
     1
102
RTVSPost2010Prop49
280
     0
102
RTVSPost2010PropOp49
 70
     1
102
RTVSPost2010Prop50
 90
       50
102
RTVSPost2010PropOp50
 70
     1
102
RTVSPost2010Prop51ColorIndex
 90
      256
102
RTVSPost2010Prop51ColorRGB
 90
-16777216
102
RTVSPost2010PropOp51
 70
     0
102
RTVSPost2010Prop52
140
1.0
102
RTVSPost2010PropOp52
 70
     0
102
RTVSPost2010Prop53
 90
        2
102
RTVSPost2010PropOp53
 70
     1
102
RTVSPost2010Prop54
  1
strokes_ogs.tif
102
RTVSPost2010PropOp54
 70
     1
102
RTVSPost2010Prop55
280
     0
102
RTVSPost2010PropOp55
 70
     1
102
RTVSPost2010Prop56
140
1.0
102
RTVSPost2010PropOp56
 70
     1
102
RTVSPost2010Prop57
140
1.0
102
RTVSPost2010PropOp57
 70
     1
102
RTVSPropertyOp0
 70
     1
102
RTVSPropertyOp1
 70
     1
102
RTVSPropertyOp2
 70
     1
102
RTVSPropertyOp3
 70
     1
102
RTVSPropertyOp4
 70
     1
102
RTVSPropertyOp5
 70
     1
102
RTVSPropertyOp6
 70
     1
102
RTVSPropertyOp7
 70
     1
102
RTVSPropertyOp8
 70
     1
102
RTVSPropertyOp9
 70
     1
102
RTVSPropertyOp10
 70
     1
102
RTVSPropertyOp11
 70
     1
102
RTVSPropertyOp12
 70
     1
102
RTVSPropertyOp13
 70
     1
102
RTVSPropertyOp14
 70
     1
102
RTVSPropertyOp15
 70
     1
102
RTVSPropertyOp16
 70
     1
102
RTVSPropertyOp17
 70
     1
102
RTVSPropertyOp18
 70
     1
102
RTVSPropertyOp19
 70
     1
102
RTVSPropertyOp20
 70
     1
102
RTVSPropertyOp21
 70
     1
102
RTVSPropertyOp22
 70
     1
102
RTVSPropertyOp23
 70
     1
102
RTVSPropertyOp24
 70
     1
102
RTVSPropertyOp25
 70
     1
102
RTVSPropertyOp26
 70
     1
102
RTVSPropertyOp27
 70
     1
102
RTVSPropertyOp28
 70
     1
102
RTVSPropertyOp29
 70
     1
102
RTVSPropertyOp30
 70
     1
102
RTVSPropertyOp31
 70
     1
102
RTVSPropertyOp32
 70
     1
102
RTVSPropertyOp33
 70
     1
102
RTVSPropertyOp34
 70
     1
102
RTVSPropertyOp35
 70
     1
102
RTVSPropertyOp36
 70
     1
102
RTVSPropertyOp37
 70
     1
102
RTVSPropertyOp38
 70
     1
102
RTVSPropertyOp39
 70
     1
102
RTVSPropertyOp40
 70
     1
102
RTVSPropertyOp41
 70
     1
102
RTVSPropertyOp42
 70
     1
102
RTVSPropertyOp43
 70
     1
102
RTVSPropertyOp44
 70
     1
102
RTVSPropertyOp45
 70
     1
102
RTVSPropertyOp46
 70
     1
102
RTVSPropertyOp47
 70
     1
102
RTVSPropertyOp48
 70
     1
102
RTVSPropertyOp49
 70
     1
102
RTVSPropertyOp50
 70
     1
102
RTVSPropertyOp51
 70
     0
102
RTVSPropertyOp52
 70
     0
102
RTVSPropertyOp53
 70
     1
102
RTVSPropertyOp54
 70
     1
102
RTVSPropertyOp55
 70
     1
102
RTVSPropertyOp56
 70
     1
102
RTVSPropertyOp57
 70
     1
102
RTVSPropertyOp58
 70
     1
102
RTVSPropertyOp59
 70
     1
102
RTVSPropertyOp60
 70
     1
102
RTVSPropertyOp61
 70
     1
102
RTVSPropertyOp62
 70
     1
  0
XRECORD
  5
882
102
{ACAD_REACTORS
330
881
102
}
330
881
100
AcDbXrecord
280
     1
102
RTVSPost2010Prop28
280
     0
102
RTVSPost2010PropOp28
 70
     0
102
RTVSPost2010Prop29
280
     1
102
RTVSPost2010PropOp29
 70
     0
102
RTVSPost2010Prop30
280
     1
102
RTVSPost2010PropOp30
 70
     0
102
RTVSPost2010Prop31
280
     0
102
RTVSPost2010PropOp31
 70
     0
102
RTVSPost2010Prop32
280
     0
102
RTVSPost2010PropOp32
 70
     0
102
RTVSPost2010Prop33
280
     0
102
RTVSPost2010PropOp33
 70
     0
102
RTVSPost2010Prop34
280
     0
102
RTVSPost2010PropOp34
 70
     0
102
RTVSPost2010Prop35
280
     0
102
RTVSPost2010PropOp35
 70
     0
102
RTVSPost2010Prop36
280
     0
102
RTVSPost2010PropOp36
 70
     0
102
RTVSPost2010Prop37
 90
       50
102
RTVSPost2010PropOp37
 70
     0
102
RTVSPost2010Prop38
140
0.0
102
RTVSPost2010PropOp38
 70
     0
102
RTVSPost2010Prop39
140
1.0
102
RTVSPost2010PropOp39
 70
     0
102
RTVSPost2010Prop40
 90
        0
102
RTVSPost2010PropOp40
 70
     0
102
RTVSPost2010Prop41ColorIndex
 90
       18
102
RTVSPost2010Prop41ColorRGB
 90
        0
102
RTVSPost2010PropOp41
 70
     0
102
RTVSPost2010Prop42
 90
       50
102
RTVSPost2010PropOp42
 70
     0
102
RTVSPost2010Prop43
 90
        3
102
RTVSPost2010PropOp43
 70
     0
102
RTVSPost2010Prop44ColorIndex
 90
        5
102
RTVSPost2010Prop44ColorRGB
 90
      255
102
RTVSPost2010PropOp44
 70
     0
102
RTVSPost2010Prop45
280
     0
102
RTVSPost2010PropOp45
 70
     0
102
RTVSPost2010Prop46
 90
       50
102
RTVSPost2010PropOp46
 70
     0
102
RTVSPost2010Prop47
 90
       50
102
RTVSPost2010PropOp47
 70
     0
102
RTVSPost2010Prop48
 90
       50
102
RTVSPost2010PropOp48
 70
     0
102
RTVSPost2010Prop49
280
     0
102
RTVSPost2010PropOp49
 70
     0
102
RTVSPost2010Prop50
 90
       50
102
RTVSPost2010PropOp50
 70
     0
102
RTVSPost2010Prop51ColorIndex
 90
      256
102
RTVSPost2010Prop51ColorRGB
 90
-16777216
102
RTVSPost2010PropOp51
 70
     0
102
RTVSPost2010Prop52
140
1.0
102
RTVSPost2010PropOp52
 70
     0
102
RTVSPost2010Prop53
 90
        2
102
RTVSPost2010PropOp53
 70
     0
102
RTVSPost2010Prop54
  1
strokes_ogs.tif
102
RTVSPost2010PropOp54
 70
     0
102
RTVSPost2010Prop55
280
     0
102
RTVSPost2010PropOp55
 70
     0
102
RTVSPost2010Prop56
140
1.0
102
RTVSPost2010PropOp56
 70
     0
102
RTVSPost2010Prop57
140
1.0
102
RTVSPost2010PropOp57
 70
     0
102
RTVSPropertyOp0
 70
     0
102
RTVSPropertyOp1
 70
     0
102
RTVSPropertyOp2
 70
     0
102
RTVSPropertyOp3
 70
     0
102
RTVSPropertyOp4
 70
     0
102
RTVSPropertyOp5
 70
     0
102
RTVSPropertyOp6
 70
     0
102
RTVSPropertyOp7
 70
     0
102
RTVSPropertyOp8
 70
     0
102
RTVSPropertyOp9
 70
     0
102
RTVSPropertyOp10
 70
     0
102
RTVSPropertyOp11
 70
     0
102
RTVSPropertyOp12
 70
     0
102
RTVSPropertyOp13
 70
     0
102
RTVSPropertyOp14
 70
     2
102
RTVSPropertyOp15
 70
     0
102
RTVSPropertyOp16
 70
     0
102
RTVSPropertyOp17
 70
     0
102
RTVSPropertyOp18
 70
     0
102
RTVSPropertyOp19
 70
     0
102
RTVSPropertyOp20
 70
     0
102
RTVSPropertyOp21
 70
     0
102
RTVSPropertyOp22
 70
     0
102
RTVSPropertyOp23
 70
     0
102
RTVSPropertyOp24
 70
     0
102
RTVSPropertyOp25
 70
     0
102
RTVSPropertyOp26
 70
     0
102
RTVSPropertyOp27
 70
     0
102
RTVSPropertyOp28
 70
     0
102
RTVSPropertyOp29
 70
     0
102
RTVSPropertyOp30
 70
     0
102
RTVSPropertyOp31
 70
     0
102
RTVSPropertyOp32
 70
     0
102
RTVSPropertyOp33
 70
     0
102
RTVSPropertyOp34
 70
     0
102
RTVSPropertyOp35
 70
     0
102
RTVSPropertyOp36
 70
     0
102
RTVSPropertyOp37
 70
     0
102
RTVSPropertyOp38
 70
     0
102
RTVSPropertyOp39
 70
     0
102
RTVSPropertyOp40
 70
     0
102
RTVSPropertyOp41
 70
     0
102
RTVSPropertyOp42
 70
     0
102
RTVSPropertyOp43
 70
     0
102
RTVSPropertyOp44
 70
     0
102
RTVSPropertyOp45
 70
     0
102
RTVSPropertyOp46
 70
     0
102
RTVSPropertyOp47
 70
     0
102
RTVSPropertyOp48
 70
     0
102
RTVSPropertyOp49
 70
     0
102
RTVSPropertyOp50
 70
     0
102
RTVSPropertyOp51
 70
     0
102
RTVSPropertyOp52
 70
     0
102
RTVSPropertyOp53
 70
     0
102
RTVSPropertyOp54
 70
     0
102
RTVSPropertyOp55
 70
     0
102
RTVSPropertyOp56
 70
     0
102
RTVSPropertyOp57
 70
     0
102
RTVSPropertyOp58
 70
     0
102
RTVSPropertyOp59
 70
     0
102
RTVSPropertyOp60
 70
     0
102
RTVSPropertyOp61
 70
     0
102
RTVSPropertyOp62
 70
     0
  0
XRECORD
  5
872
102
{ACAD_REACTORS
330
871
102
}
330
871
100
AcDbXrecord
280
     1
102
RTVSPost2010Prop28
280
     0
102
RTVSPost2010PropOp28
 70
     1
102
RTVSPost2010Prop29
280
     1
102
RTVSPost2010PropOp29
 70
     1
102
RTVSPost2010Prop30
280
     1
102
RTVSPost2010PropOp30
 70
     1
102
RTVSPost2010Prop31
280
     0
102
RTVSPost2010PropOp31
 70
     1
102
RTVSPost2010Prop32
280
     0
102
RTVSPost2010PropOp32
 70
     1
102
RTVSPost2010Prop33
280
     0
102
RTVSPost2010PropOp33
 70
     1
102
RTVSPost2010Prop34
280
     0
102
RTVSPost2010PropOp34
 70
     1
102
RTVSPost2010Prop35
280
     0
102
RTVSPost2010PropOp35
 70
     1
102
RTVSPost2010Prop36
280
     0
102
RTVSPost2010PropOp36
 70
     1
102
RTVSPost2010Prop37
 90
       50
102
RTVSPost2010PropOp37
 70
     1
102
RTVSPost2010Prop38
140
0.0
102
RTVSPost2010PropOp38
 70
     1
102
RTVSPost2010Prop39
140
1.0
102
RTVSPost2010PropOp39
 70
     1
102
RTVSPost2010Prop40
 90
        0
102
RTVSPost2010PropOp40
 70
     1
102
RTVSPost2010Prop41ColorIndex
 90
       18
102
RTVSPost2010Prop41ColorRGB
 90
        0
102
RTVSPost2010PropOp41
 70
     1
102
RTVSPost2010Prop42
 90
       50
102
RTVSPost2010PropOp42
 70
     1
102
RTVSPost2010Prop43
 90
        3
102
RTVSPost2010PropOp43
 70
     1
102
RTVSPost2010Prop44ColorIndex
 90
        5
102
RTVSPost2010Prop44ColorRGB
 90
      255
102
RTVSPost2010PropOp44
 70
     1
102
RTVSPost2010Prop45
280
     0
102
RTVSPost2010PropOp45
 70
     1
102
RTVSPost2010Prop46
 90
       50
102
RTVSPost2010PropOp46
 70
     1
102
RTVSPost2010Prop47
 90
       50
102
RTVSPost2010PropOp47
 70
     1
102
RTVSPost2010Prop48
 90
       50
102
RTVSPost2010PropOp48
 70
     1
102
RTVSPost2010Prop49
280
     0
102
RTVSPost2010PropOp49
 70
     1
102
RTVSPost2010Prop50
 90
       50
102
RTVSPost2010PropOp50
 70
     1
102
RTVSPost2010Prop51ColorIndex
 90
      256
102
RTVSPost2010Prop51ColorRGB
 90
-16777216
102
RTVSPost2010PropOp51
 70
     0
102
RTVSPost2010Prop52
140
1.0
102
RTVSPost2010PropOp52
 70
     0
102
RTVSPost2010Prop53
 90
        2
102
RTVSPost2010PropOp53
 70
     1
102
RTVSPost2010Prop54
  1
strokes_ogs.tif
102
RTVSPost2010PropOp54
 70
     1
102
RTVSPost2010Prop55
280
     0
102
RTVSPost2010PropOp55
 70
     1
102
RTVSPost2010Prop56
140
1.0
102
RTVSPost2010PropOp56
 70
     1
102
RTVSPost2010Prop57
140
1.0
102
RTVSPost2010PropOp57
 70
     1
102
RTVSPropertyOp0
 70
     1
102
RTVSPropertyOp1
 70
     1
102
RTVSPropertyOp2
 70
     1
102
RTVSPropertyOp3
 70
     1
102
RTVSPropertyOp4
 70
     1
102
RTVSPropertyOp5
 70
     1
102
RTVSPropertyOp6
 70
     1
102
RTVSPropertyOp7
 70
     1
102
RTVSPropertyOp8
 70
     1
102
RTVSPropertyOp9
 70
     1
102
RTVSPropertyOp10
 70
     1
102
RTVSPropertyOp11
 70
     1
102
RTVSPropertyOp12
 70
     1
102
RTVSPropertyOp13
 70
     1
102
RTVSPropertyOp14
 70
     1
102
RTVSPropertyOp15
 70
     1
102
RTVSPropertyOp16
 70
     1
102
RTVSPropertyOp17
 70
     1
102
RTVSPropertyOp18
 70
     1
102
RTVSPropertyOp19
 70
     1
102
RTVSPropertyOp20
 70
     1
102
RTVSPropertyOp21
 70
     1
102
RTVSPropertyOp22
 70
     1
102
RTVSPropertyOp23
 70
     1
102
RTVSPropertyOp24
 70
     1
102
RTVSPropertyOp25
 70
     1
102
RTVSPropertyOp26
 70
     1
102
RTVSPropertyOp27
 70
     1
102
RTVSPropertyOp28
 70
     1
102
RTVSPropertyOp29
 70
     1
102
RTVSPropertyOp30
 70
     1
102
RTVSPropertyOp31
 70
     1
102
RTVSPropertyOp32
 70
     1
102
RTVSPropertyOp33
 70
     1
102
RTVSPropertyOp34
 70
     1
102
RTVSPropertyOp35
 70
     1
102
RTVSPropertyOp36
 70
     1
102
RTVSPropertyOp37
 70
     1
102
RTVSPropertyOp38
 70
     1
102
RTVSPropertyOp39
 70
     1
102
RTVSPropertyOp40
 70
     1
102
RTVSPropertyOp41
 70
     1
102
RTVSPropertyOp42
 70
     1
102
RTVSPropertyOp43
 70
     1
102
RTVSPropertyOp44
 70
     1
102
RTVSPropertyOp45
 70
     1
102
RTVSPropertyOp46
 70
     1
102
RTVSPropertyOp47
 70
     1
102
RTVSPropertyOp48
 70
     1
102
RTVSPropertyOp49
 70
     1
102
RTVSPropertyOp50
 70
     1
102
RTVSPropertyOp51
 70
     0
102
RTVSPropertyOp52
 70
     0
102
RTVSPropertyOp53
 70
     1
102
RTVSPropertyOp54
 70
     1
102
RTVSPropertyOp55
 70
     1
102
RTVSPropertyOp56
 70
     1
102
RTVSPropertyOp57
 70
     1
102
RTVSPropertyOp58
 70
     1
102
RTVSPropertyOp59
 70
     1
102
RTVSPropertyOp60
 70
     1
102
RTVSPropertyOp61
 70
     1
102
RTVSPropertyOp62
 70
     1
  0
XRECORD
  5
884
102
{ACAD_REACTORS
330
883
102
}
330
883
100
AcDbXrecord
280
     1
102
RTVSPost2010Prop28
280
     0
102
RTVSPost2010PropOp28
 70
     0
102
RTVSPost2010Prop29
280
     1
102
RTVSPost2010PropOp29
 70
     0
102
RTVSPost2010Prop30
280
     1
102
RTVSPost2010PropOp30
 70
     0
102
RTVSPost2010Prop31
280
     0
102
RTVSPost2010PropOp31
 70
     0
102
RTVSPost2010Prop32
280
     0
102
RTVSPost2010PropOp32
 70
     0
102
RTVSPost2010Prop33
280
     0
102
RTVSPost2010PropOp33
 70
     0
102
RTVSPost2010Prop34
280
     0
102
RTVSPost2010PropOp34
 70
     0
102
RTVSPost2010Prop35
280
     0
102
RTVSPost2010PropOp35
 70
     0
102
RTVSPost2010Prop36
280
     0
102
RTVSPost2010PropOp36
 70
     0
102
RTVSPost2010Prop37
 90
       50
102
RTVSPost2010PropOp37
 70
     0
102
RTVSPost2010Prop38
140
0.0
102
RTVSPost2010PropOp38
 70
     0
102
RTVSPost2010Prop39
140
1.0
102
RTVSPost2010PropOp39
 70
     0
102
RTVSPost2010Prop40
 90
        0
102
RTVSPost2010PropOp40
 70
     0
102
RTVSPost2010Prop41ColorIndex
 90
       18
102
RTVSPost2010Prop41ColorRGB
 90
        0
102
RTVSPost2010PropOp41
 70
     0
102
RTVSPost2010Prop42
 90
       50
102
RTVSPost2010PropOp42
 70
     0
102
RTVSPost2010Prop43
 90
        3
102
RTVSPost2010PropOp43
 70
     0
102
RTVSPost2010Prop44ColorIndex
 90
        5
102
RTVSPost2010Prop44ColorRGB
 90
      255
102
RTVSPost2010PropOp44
 70
     0
102
RTVSPost2010Prop45
280
     0
102
RTVSPost2010PropOp45
 70
     0
102
RTVSPost2010Prop46
 90
       50
102
RTVSPost2010PropOp46
 70
     0
102
RTVSPost2010Prop47
 90
       50
102
RTVSPost2010PropOp47
 70
     0
102
RTVSPost2010Prop48
 90
       50
102
RTVSPost2010PropOp48
 70
     0
102
RTVSPost2010Prop49
280
     0
102
RTVSPost2010PropOp49
 70
     0
102
RTVSPost2010Prop50
 90
       50
102
RTVSPost2010PropOp50
 70
     0
102
RTVSPost2010Prop51ColorIndex
 90
      256
102
RTVSPost2010Prop51ColorRGB
 90
-16777216
102
RTVSPost2010PropOp51
 70
     0
102
RTVSPost2010Prop52
140
1.0
102
RTVSPost2010PropOp52
 70
     0
102
RTVSPost2010Prop53
 90
        2
102
RTVSPost2010PropOp53
 70
     0
102
RTVSPost2010Prop54
  1
strokes_ogs.tif
102
RTVSPost2010PropOp54
 70
     0
102
RTVSPost2010Prop55
280
     0
102
RTVSPost2010PropOp55
 70
     0
102
RTVSPost2010Prop56
140
1.0
102
RTVSPost2010PropOp56
 70
     0
102
RTVSPost2010Prop57
140
1.0
102
RTVSPost2010PropOp57
 70
     0
102
RTVSPropertyOp0
 70
     0
102
RTVSPropertyOp1
 70
     0
102
RTVSPropertyOp2
 70
     0
102
RTVSPropertyOp3
 70
     0
102
RTVSPropertyOp4
 70
     0
102
RTVSPropertyOp5
 70
     0
102
RTVSPropertyOp6
 70
     0
102
RTVSPropertyOp7
 70
     0
102
RTVSPropertyOp8
 70
     0
102
RTVSPropertyOp9
 70
     0
102
RTVSPropertyOp10
 70
     0
102
RTVSPropertyOp11
 70
     0
102
RTVSPropertyOp12
 70
     0
102
RTVSPropertyOp13
 70
     0
102
RTVSPropertyOp14
 70
     2
102
RTVSPropertyOp15
 70
     0
102
RTVSPropertyOp16
 70
     0
102
RTVSPropertyOp17
 70
     0
102
RTVSPropertyOp18
 70
     0
102
RTVSPropertyOp19
 70
     0
102
RTVSPropertyOp20
 70
     0
102
RTVSPropertyOp21
 70
     0
102
RTVSPropertyOp22
 70
     0
102
RTVSPropertyOp23
 70
     0
102
RTVSPropertyOp24
 70
     0
102
RTVSPropertyOp25
 70
     0
102
RTVSPropertyOp26
 70
     0
102
RTVSPropertyOp27
 70
     0
102
RTVSPropertyOp28
 70
     0
102
RTVSPropertyOp29
 70
     0
102
RTVSPropertyOp30
 70
     0
102
RTVSPropertyOp31
 70
     0
102
RTVSPropertyOp32
 70
     0
102
RTVSPropertyOp33
 70
     0
102
RTVSPropertyOp34
 70
     0
102
RTVSPropertyOp35
 70
     0
102
RTVSPropertyOp36
 70
     0
102
RTVSPropertyOp37
 70
     0
102
RTVSPropertyOp38
 70
     0
102
RTVSPropertyOp39
 70
     0
102
RTVSPropertyOp40
 70
     0
102
RTVSPropertyOp41
 70
     0
102
RTVSPropertyOp42
 70
     0
102
RTVSPropertyOp43
 70
     0
102
RTVSPropertyOp44
 70
     0
102
RTVSPropertyOp45
 70
     0
102
RTVSPropertyOp46
 70
     0
102
RTVSPropertyOp47
 70
     0
102
RTVSPropertyOp48
 70
     0
102
RTVSPropertyOp49
 70
     0
102
RTVSPropertyOp50
 70
     0
102
RTVSPropertyOp51
 70
     0
102
RTVSPropertyOp52
 70
     0
102
RTVSPropertyOp53
 70
     0
102
RTVSPropertyOp54
 70
     0
102
RTVSPropertyOp55
 70
     0
102
RTVSPropertyOp56
 70
     0
102
RTVSPropertyOp57
 70
     0
102
RTVSPropertyOp58
 70
     0
102
RTVSPropertyOp59
 70
     0
102
RTVSPropertyOp60
 70
     0
102
RTVSPropertyOp61
 70
     0
102
RTVSPropertyOp62
 70
     0
  0
XRECORD
  5
86A
102
{ACAD_REACTORS
330
869
102
}
330
869
100
AcDbXrecord
280
     1
102
RTVSPost2010Prop28
280
     0
102
RTVSPost2010PropOp28
 70
     1
102
RTVSPost2010Prop29
280
     1
102
RTVSPost2010PropOp29
 70
     1
102
RTVSPost2010Prop30
280
     1
102
RTVSPost2010PropOp30
 70
     1
102
RTVSPost2010Prop31
280
     0
102
RTVSPost2010PropOp31
 70
     1
102
RTVSPost2010Prop32
280
     0
102
RTVSPost2010PropOp32
 70
     1
102
RTVSPost2010Prop33
280
     0
102
RTVSPost2010PropOp33
 70
     1
102
RTVSPost2010Prop34
280
     0
102
RTVSPost2010PropOp34
 70
     1
102
RTVSPost2010Prop35
280
     0
102
RTVSPost2010PropOp35
 70
     1
102
RTVSPost2010Prop36
280
     0
102
RTVSPost2010PropOp36
 70
     1
102
RTVSPost2010Prop37
 90
       50
102
RTVSPost2010PropOp37
 70
     1
102
RTVSPost2010Prop38
140
0.0
102
RTVSPost2010PropOp38
 70
     1
102
RTVSPost2010Prop39
140
1.0
102
RTVSPost2010PropOp39
 70
     1
102
RTVSPost2010Prop40
 90
        0
102
RTVSPost2010PropOp40
 70
     1
102
RTVSPost2010Prop41ColorIndex
 90
       18
102
RTVSPost2010Prop41ColorRGB
 90
        0
102
RTVSPost2010PropOp41
 70
     1
102
RTVSPost2010Prop42
 90
       50
102
RTVSPost2010PropOp42
 70
     1
102
RTVSPost2010Prop43
 90
        3
102
RTVSPost2010PropOp43
 70
     1
102
RTVSPost2010Prop44ColorIndex
 90
        5
102
RTVSPost2010Prop44ColorRGB
 90
      255
102
RTVSPost2010PropOp44
 70
     1
102
RTVSPost2010Prop45
280
     0
102
RTVSPost2010PropOp45
 70
     1
102
RTVSPost2010Prop46
 90
       50
102
RTVSPost2010PropOp46
 70
     1
102
RTVSPost2010Prop47
 90
       50
102
RTVSPost2010PropOp47
 70
     1
102
RTVSPost2010Prop48
 90
       50
102
RTVSPost2010PropOp48
 70
     1
102
RTVSPost2010Prop49
280
     0
102
RTVSPost2010PropOp49
 70
     1
102
RTVSPost2010Prop50
 90
       50
102
RTVSPost2010PropOp50
 70
     1
102
RTVSPost2010Prop51ColorIndex
 90
      256
102
RTVSPost2010Prop51ColorRGB
 90
-16777216
102
RTVSPost2010PropOp51
 70
     0
102
RTVSPost2010Prop52
140
1.0
102
RTVSPost2010PropOp52
 70
     0
102
RTVSPost2010Prop53
 90
        2
102
RTVSPost2010PropOp53
 70
     1
102
RTVSPost2010Prop54
  1
strokes_ogs.tif
102
RTVSPost2010PropOp54
 70
     1
102
RTVSPost2010Prop55
280
     0
102
RTVSPost2010PropOp55
 70
     1
102
RTVSPost2010Prop56
140
1.0
102
RTVSPost2010PropOp56
 70
     1
102
RTVSPost2010Prop57
140
1.0
102
RTVSPost2010PropOp57
 70
     1
102
RTVSPropertyOp0
 70
     1
102
RTVSPropertyOp1
 70
     1
102
RTVSPropertyOp2
 70
     1
102
RTVSPropertyOp3
 70
     1
102
RTVSPropertyOp4
 70
     1
102
RTVSPropertyOp5
 70
     1
102
RTVSPropertyOp6
 70
     1
102
RTVSPropertyOp7
 70
     1
102
RTVSPropertyOp8
 70
     1
102
RTVSPropertyOp9
 70
     1
102
RTVSPropertyOp10
 70
     1
102
RTVSPropertyOp11
 70
     1
102
RTVSPropertyOp12
 70
     1
102
RTVSPropertyOp13
 70
     1
102
RTVSPropertyOp14
 70
     1
102
RTVSPropertyOp15
 70
     1
102
RTVSPropertyOp16
 70
     1
102
RTVSPropertyOp17
 70
     1
102
RTVSPropertyOp18
 70
     1
102
RTVSPropertyOp19
 70
     1
102
RTVSPropertyOp20
 70
     1
102
RTVSPropertyOp21
 70
     1
102
RTVSPropertyOp22
 70
     1
102
RTVSPropertyOp23
 70
     1
102
RTVSPropertyOp24
 70
     1
102
RTVSPropertyOp25
 70
     1
102
RTVSPropertyOp26
 70
     1
102
RTVSPropertyOp27
 70
     1
102
RTVSPropertyOp28
 70
     1
102
RTVSPropertyOp29
 70
     1
102
RTVSPropertyOp30
 70
     1
102
RTVSPropertyOp31
 70
     1
102
RTVSPropertyOp32
 70
     1
102
RTVSPropertyOp33
 70
     1
102
RTVSPropertyOp34
 70
     1
102
RTVSPropertyOp35
 70
     1
102
RTVSPropertyOp36
 70
     1
102
RTVSPropertyOp37
 70
     1
102
RTVSPropertyOp38
 70
     1
102
RTVSPropertyOp39
 70
     1
102
RTVSPropertyOp40
 70
     1
102
RTVSPropertyOp41
 70
     1
102
RTVSPropertyOp42
 70
     1
102
RTVSPropertyOp43
 70
     1
102
RTVSPropertyOp44
 70
     1
102
RTVSPropertyOp45
 70
     1
102
RTVSPropertyOp46
 70
     1
102
RTVSPropertyOp47
 70
     1
102
RTVSPropertyOp48
 70
     1
102
RTVSPropertyOp49
 70
     1
102
RTVSPropertyOp50
 70
     1
102
RTVSPropertyOp51
 70
     0
102
RTVSPropertyOp52
 70
     0
102
RTVSPropertyOp53
 70
     1
102
RTVSPropertyOp54
 70
     1
102
RTVSPropertyOp55
 70
     1
102
RTVSPropertyOp56
 70
     1
102
RTVSPropertyOp57
 70
     1
102
RTVSPropertyOp58
 70
     1
102
RTVSPropertyOp59
 70
     1
102
RTVSPropertyOp60
 70
     1
102
RTVSPropertyOp61
 70
     1
102
RTVSPropertyOp62
 70
     1
  0
XRECORD
  5
880
102
{ACAD_REACTORS
330
87F
102
}
330
87F
100
AcDbXrecord
280
     1
102
RTVSPost2010Prop28
280
     0
102
RTVSPost2010PropOp28
 70
     1
102
RTVSPost2010Prop29
280
     1
102
RTVSPost2010PropOp29
 70
     1
102
RTVSPost2010Prop30
280
     1
102
RTVSPost2010PropOp30
 70
     1
102
RTVSPost2010Prop31
280
     0
102
RTVSPost2010PropOp31
 70
     1
102
RTVSPost2010Prop32
280
     0
102
RTVSPost2010PropOp32
 70
     1
102
RTVSPost2010Prop33
280
     0
102
RTVSPost2010PropOp33
 70
     1
102
RTVSPost2010Prop34
280
     0
102
RTVSPost2010PropOp34
 70
     1
102
RTVSPost2010Prop35
280
     0
102
RTVSPost2010PropOp35
 70
     1
102
RTVSPost2010Prop36
280
     0
102
RTVSPost2010PropOp36
 70
     1
102
RTVSPost2010Prop37
 90
       50
102
RTVSPost2010PropOp37
 70
     1
102
RTVSPost2010Prop38
140
0.0
102
RTVSPost2010PropOp38
 70
     1
102
RTVSPost2010Prop39
140
1.0
102
RTVSPost2010PropOp39
 70
     1
102
RTVSPost2010Prop40
 90
        0
102
RTVSPost2010PropOp40
 70
     1
102
RTVSPost2010Prop41ColorIndex
 90
       18
102
RTVSPost2010Prop41ColorRGB
 90
        0
102
RTVSPost2010PropOp41
 70
     1
102
RTVSPost2010Prop42
 90
       50
102
RTVSPost2010PropOp42
 70
     1
102
RTVSPost2010Prop43
 90
        3
102
RTVSPost2010PropOp43
 70
     1
102
RTVSPost2010Prop44ColorIndex
 90
        5
102
RTVSPost2010Prop44ColorRGB
 90
      255
102
RTVSPost2010PropOp44
 70
     1
102
RTVSPost2010Prop45
280
     0
102
RTVSPost2010PropOp45
 70
     1
102
RTVSPost2010Prop46
 90
       50
102
RTVSPost2010PropOp46
 70
     1
102
RTVSPost2010Prop47
 90
       50
102
RTVSPost2010PropOp47
 70
     1
102
RTVSPost2010Prop48
 90
       50
102
RTVSPost2010PropOp48
 70
     1
102
RTVSPost2010Prop49
280
     0
102
RTVSPost2010PropOp49
 70
     1
102
RTVSPost2010Prop50
 90
       50
102
RTVSPost2010PropOp50
 70
     1
102
RTVSPost2010Prop51ColorIndex
 90
      256
102
RTVSPost2010Prop51ColorRGB
 90
-16777216
102
RTVSPost2010PropOp51
 70
     0
102
RTVSPost2010Prop52
140
1.0
102
RTVSPost2010PropOp52
 70
     0
102
RTVSPost2010Prop53
 90
        2
102
RTVSPost2010PropOp53
 70
     1
102
RTVSPost2010Prop54
  1
strokes_ogs.tif
102
RTVSPost2010PropOp54
 70
     1
102
RTVSPost2010Prop55
280
     0
102
RTVSPost2010PropOp55
 70
     1
102
RTVSPost2010Prop56
140
1.0
102
RTVSPost2010PropOp56
 70
     1
102
RTVSPost2010Prop57
140
1.0
102
RTVSPost2010PropOp57
 70
     1
102
RTVSPropertyOp0
 70
     1
102
RTVSPropertyOp1
 70
     1
102
RTVSPropertyOp2
 70
     1
102
RTVSPropertyOp3
 70
     1
102
RTVSPropertyOp4
 70
     1
102
RTVSPropertyOp5
 70
     1
102
RTVSPropertyOp6
 70
     1
102
RTVSPropertyOp7
 70
     1
102
RTVSPropertyOp8
 70
     1
102
RTVSPropertyOp9
 70
     1
102
RTVSPropertyOp10
 70
     1
102
RTVSPropertyOp11
 70
     1
102
RTVSPropertyOp12
 70
     1
102
RTVSPropertyOp13
 70
     1
102
RTVSPropertyOp14
 70
     1
102
RTVSPropertyOp15
 70
     1
102
RTVSPropertyOp16
 70
     1
102
RTVSPropertyOp17
 70
     1
102
RTVSPropertyOp18
 70
     1
102
RTVSPropertyOp19
 70
     1
102
RTVSPropertyOp20
 70
     1
102
RTVSPropertyOp21
 70
     1
102
RTVSPropertyOp22
 70
     1
102
RTVSPropertyOp23
 70
     1
102
RTVSPropertyOp24
 70
     1
102
RTVSPropertyOp25
 70
     1
102
RTVSPropertyOp26
 70
     1
102
RTVSPropertyOp27
 70
     1
102
RTVSPropertyOp28
 70
     1
102
RTVSPropertyOp29
 70
     1
102
RTVSPropertyOp30
 70
     1
102
RTVSPropertyOp31
 70
     1
102
RTVSPropertyOp32
 70
     1
102
RTVSPropertyOp33
 70
     1
102
RTVSPropertyOp34
 70
     1
102
RTVSPropertyOp35
 70
     1
102
RTVSPropertyOp36
 70
     1
102
RTVSPropertyOp37
 70
     1
102
RTVSPropertyOp38
 70
     1
102
RTVSPropertyOp39
 70
     1
102
RTVSPropertyOp40
 70
     1
102
RTVSPropertyOp41
 70
     1
102
RTVSPropertyOp42
 70
     1
102
RTVSPropertyOp43
 70
     1
102
RTVSPropertyOp44
 70
     1
102
RTVSPropertyOp45
 70
     1
102
RTVSPropertyOp46
 70
     1
102
RTVSPropertyOp47
 70
     1
102
RTVSPropertyOp48
 70
     1
102
RTVSPropertyOp49
 70
     1
102
RTVSPropertyOp50
 70
     1
102
RTVSPropertyOp51
 70
     0
102
RTVSPropertyOp52
 70
     0
102
RTVSPropertyOp53
 70
     1
102
RTVSPropertyOp54
 70
     1
102
RTVSPropertyOp55
 70
     1
102
RTVSPropertyOp56
 70
     1
102
RTVSPropertyOp57
 70
     1
102
RTVSPropertyOp58
 70
     1
102
RTVSPropertyOp59
 70
     1
102
RTVSPropertyOp60
 70
     1
102
RTVSPropertyOp61
 70
     1
102
RTVSPropertyOp62
 70
     1
  0
XRECORD
  5
87E
102
{ACAD_REACTORS
330
87D
102
}
330
87D
100
AcDbXrecord
280
     1
102
RTVSPost2010Prop28
280
     0
102
RTVSPost2010PropOp28
 70
     1
102
RTVSPost2010Prop29
280
     1
102
RTVSPost2010PropOp29
 70
     1
102
RTVSPost2010Prop30
280
     1
102
RTVSPost2010PropOp30
 70
     1
102
RTVSPost2010Prop31
280
     0
102
RTVSPost2010PropOp31
 70
     1
102
RTVSPost2010Prop32
280
     0
102
RTVSPost2010PropOp32
 70
     1
102
RTVSPost2010Prop33
280
     0
102
RTVSPost2010PropOp33
 70
     1
102
RTVSPost2010Prop34
280
     0
102
RTVSPost2010PropOp34
 70
     1
102
RTVSPost2010Prop35
280
     0
102
RTVSPost2010PropOp35
 70
     1
102
RTVSPost2010Prop36
280
     0
102
RTVSPost2010PropOp36
 70
     1
102
RTVSPost2010Prop37
 90
       50
102
RTVSPost2010PropOp37
 70
     1
102
RTVSPost2010Prop38
140
0.0
102
RTVSPost2010PropOp38
 70
     1
102
RTVSPost2010Prop39
140
1.0
102
RTVSPost2010PropOp39
 70
     1
102
RTVSPost2010Prop40
 90
        0
102
RTVSPost2010PropOp40
 70
     1
102
RTVSPost2010Prop41ColorIndex
 90
       18
102
RTVSPost2010Prop41ColorRGB
 90
        0
102
RTVSPost2010PropOp41
 70
     1
102
RTVSPost2010Prop42
 90
       50
102
RTVSPost2010PropOp42
 70
     1
102
RTVSPost2010Prop43
 90
        3
102
RTVSPost2010PropOp43
 70
     1
102
RTVSPost2010Prop44ColorIndex
 90
        5
102
RTVSPost2010Prop44ColorRGB
 90
      255
102
RTVSPost2010PropOp44
 70
     1
102
RTVSPost2010Prop45
280
     0
102
RTVSPost2010PropOp45
 70
     1
102
RTVSPost2010Prop46
 90
       50
102
RTVSPost2010PropOp46
 70
     1
102
RTVSPost2010Prop47
 90
       50
102
RTVSPost2010PropOp47
 70
     1
102
RTVSPost2010Prop48
 90
       50
102
RTVSPost2010PropOp48
 70
     1
102
RTVSPost2010Prop49
280
     0
102
RTVSPost2010PropOp49
 70
     1
102
RTVSPost2010Prop50
 90
       50
102
RTVSPost2010PropOp50
 70
     1
102
RTVSPost2010Prop51ColorIndex
 90
      256
102
RTVSPost2010Prop51ColorRGB
 90
-16777216
102
RTVSPost2010PropOp51
 70
     0
102
RTVSPost2010Prop52
140
1.0
102
RTVSPost2010PropOp52
 70
     0
102
RTVSPost2010Prop53
 90
        2
102
RTVSPost2010PropOp53
 70
     1
102
RTVSPost2010Prop54
  1
strokes_ogs.tif
102
RTVSPost2010PropOp54
 70
     1
102
RTVSPost2010Prop55
280
     0
102
RTVSPost2010PropOp55
 70
     1
102
RTVSPost2010Prop56
140
1.0
102
RTVSPost2010PropOp56
 70
     1
102
RTVSPost2010Prop57
140
1.0
102
RTVSPost2010PropOp57
 70
     1
102
RTVSPropertyOp0
 70
     1
102
RTVSPropertyOp1
 70
     1
102
RTVSPropertyOp2
 70
     1
102
RTVSPropertyOp3
 70
     1
102
RTVSPropertyOp4
 70
     1
102
RTVSPropertyOp5
 70
     1
102
RTVSPropertyOp6
 70
     1
102
RTVSPropertyOp7
 70
     1
102
RTVSPropertyOp8
 70
     1
102
RTVSPropertyOp9
 70
     1
102
RTVSPropertyOp10
 70
     1
102
RTVSPropertyOp11
 70
     1
102
RTVSPropertyOp12
 70
     1
102
RTVSPropertyOp13
 70
     1
102
RTVSPropertyOp14
 70
     1
102
RTVSPropertyOp15
 70
     1
102
RTVSPropertyOp16
 70
     1
102
RTVSPropertyOp17
 70
     1
102
RTVSPropertyOp18
 70
     1
102
RTVSPropertyOp19
 70
     1
102
RTVSPropertyOp20
 70
     1
102
RTVSPropertyOp21
 70
     1
102
RTVSPropertyOp22
 70
     1
102
RTVSPropertyOp23
 70
     1
102
RTVSPropertyOp24
 70
     1
102
RTVSPropertyOp25
 70
     1
102
RTVSPropertyOp26
 70
     1
102
RTVSPropertyOp27
 70
     1
102
RTVSPropertyOp28
 70
     1
102
RTVSPropertyOp29
 70
     1
102
RTVSPropertyOp30
 70
     1
102
RTVSPropertyOp31
 70
     1
102
RTVSPropertyOp32
 70
     1
102
RTVSPropertyOp33
 70
     1
102
RTVSPropertyOp34
 70
     1
102
RTVSPropertyOp35
 70
     1
102
RTVSPropertyOp36
 70
     1
102
RTVSPropertyOp37
 70
     1
102
RTVSPropertyOp38
 70
     1
102
RTVSPropertyOp39
 70
     1
102
RTVSPropertyOp40
 70
     1
102
RTVSPropertyOp41
 70
     1
102
RTVSPropertyOp42
 70
     1
102
RTVSPropertyOp43
 70
     1
102
RTVSPropertyOp44
 70
     1
102
RTVSPropertyOp45
 70
     1
102
RTVSPropertyOp46
 70
     1
102
RTVSPropertyOp47
 70
     1
102
RTVSPropertyOp48
 70
     1
102
RTVSPropertyOp49
 70
     1
102
RTVSPropertyOp50
 70
     1
102
RTVSPropertyOp51
 70
     0
102
RTVSPropertyOp52
 70
     0
102
RTVSPropertyOp53
 70
     1
102
RTVSPropertyOp54
 70
     1
102
RTVSPropertyOp55
 70
     1
102
RTVSPropertyOp56
 70
     1
102
RTVSPropertyOp57
 70
     1
102
RTVSPropertyOp58
 70
     1
102
RTVSPropertyOp59
 70
     1
102
RTVSPropertyOp60
 70
     1
102
RTVSPropertyOp61
 70
     1
102
RTVSPropertyOp62
 70
     1
  0
XRECORD
  5
878
102
{ACAD_REACTORS
330
877
102
}
330
877
100
AcDbXrecord
280
     1
102
RTVSPost2010Prop28
280
     0
102
RTVSPost2010PropOp28
 70
     1
102
RTVSPost2010Prop29
280
     1
102
RTVSPost2010PropOp29
 70
     1
102
RTVSPost2010Prop30
280
     1
102
RTVSPost2010PropOp30
 70
     1
102
RTVSPost2010Prop31
280
     0
102
RTVSPost2010PropOp31
 70
     1
102
RTVSPost2010Prop32
280
     0
102
RTVSPost2010PropOp32
 70
     1
102
RTVSPost2010Prop33
280
     0
102
RTVSPost2010PropOp33
 70
     1
102
RTVSPost2010Prop34
280
     0
102
RTVSPost2010PropOp34
 70
     1
102
RTVSPost2010Prop35
280
     0
102
RTVSPost2010PropOp35
 70
     1
102
RTVSPost2010Prop36
280
     0
102
RTVSPost2010PropOp36
 70
     1
102
RTVSPost2010Prop37
 90
       50
102
RTVSPost2010PropOp37
 70
     1
102
RTVSPost2010Prop38
140
0.0
102
RTVSPost2010PropOp38
 70
     1
102
RTVSPost2010Prop39
140
1.0
102
RTVSPost2010PropOp39
 70
     1
102
RTVSPost2010Prop40
 90
        0
102
RTVSPost2010PropOp40
 70
     1
102
RTVSPost2010Prop41ColorIndex
 90
       18
102
RTVSPost2010Prop41ColorRGB
 90
        0
102
RTVSPost2010PropOp41
 70
     1
102
RTVSPost2010Prop42
 90
       50
102
RTVSPost2010PropOp42
 70
     1
102
RTVSPost2010Prop43
 90
        3
102
RTVSPost2010PropOp43
 70
     1
102
RTVSPost2010Prop44ColorIndex
 90
        5
102
RTVSPost2010Prop44ColorRGB
 90
      255
102
RTVSPost2010PropOp44
 70
     1
102
RTVSPost2010Prop45
280
     0
102
RTVSPost2010PropOp45
 70
     1
102
RTVSPost2010Prop46
 90
       50
102
RTVSPost2010PropOp46
 70
     1
102
RTVSPost2010Prop47
 90
       50
102
RTVSPost2010PropOp47
 70
     1
102
RTVSPost2010Prop48
 90
       50
102
RTVSPost2010PropOp48
 70
     1
102
RTVSPost2010Prop49
280
     0
102
RTVSPost2010PropOp49
 70
     1
102
RTVSPost2010Prop50
 90
       50
102
RTVSPost2010PropOp50
 70
     1
102
RTVSPost2010Prop51ColorIndex
 90
      256
102
RTVSPost2010Prop51ColorRGB
 90
-16777216
102
RTVSPost2010PropOp51
 70
     0
102
RTVSPost2010Prop52
140
1.0
102
RTVSPost2010PropOp52
 70
     0
102
RTVSPost2010Prop53
 90
        2
102
RTVSPost2010PropOp53
 70
     1
102
RTVSPost2010Prop54
  1
strokes_ogs.tif
102
RTVSPost2010PropOp54
 70
     1
102
RTVSPost2010Prop55
280
     0
102
RTVSPost2010PropOp55
 70
     1
102
RTVSPost2010Prop56
140
1.0
102
RTVSPost2010PropOp56
 70
     1
102
RTVSPost2010Prop57
140
1.0
102
RTVSPost2010PropOp57
 70
     1
102
RTVSPropertyOp0
 70
     1
102
RTVSPropertyOp1
 70
     1
102
RTVSPropertyOp2
 70
     1
102
RTVSPropertyOp3
 70
     1
102
RTVSPropertyOp4
 70
     1
102
RTVSPropertyOp5
 70
     1
102
RTVSPropertyOp6
 70
     1
102
RTVSPropertyOp7
 70
     1
102
RTVSPropertyOp8
 70
     1
102
RTVSPropertyOp9
 70
     1
102
RTVSPropertyOp10
 70
     1
102
RTVSPropertyOp11
 70
     1
102
RTVSPropertyOp12
 70
     1
102
RTVSPropertyOp13
 70
     1
102
RTVSPropertyOp14
 70
     1
102
RTVSPropertyOp15
 70
     1
102
RTVSPropertyOp16
 70
     1
102
RTVSPropertyOp17
 70
     1
102
RTVSPropertyOp18
 70
     1
102
RTVSPropertyOp19
 70
     1
102
RTVSPropertyOp20
 70
     1
102
RTVSPropertyOp21
 70
     1
102
RTVSPropertyOp22
 70
     1
102
RTVSPropertyOp23
 70
     1
102
RTVSPropertyOp24
 70
     1
102
RTVSPropertyOp25
 70
     1
102
RTVSPropertyOp26
 70
     1
102
RTVSPropertyOp27
 70
     1
102
RTVSPropertyOp28
 70
     1
102
RTVSPropertyOp29
 70
     1
102
RTVSPropertyOp30
 70
     1
102
RTVSPropertyOp31
 70
     1
102
RTVSPropertyOp32
 70
     1
102
RTVSPropertyOp33
 70
     1
102
RTVSPropertyOp34
 70
     1
102
RTVSPropertyOp35
 70
     1
102
RTVSPropertyOp36
 70
     1
102
RTVSPropertyOp37
 70
     1
102
RTVSPropertyOp38
 70
     1
102
RTVSPropertyOp39
 70
     1
102
RTVSPropertyOp40
 70
     1
102
RTVSPropertyOp41
 70
     1
102
RTVSPropertyOp42
 70
     1
102
RTVSPropertyOp43
 70
     1
102
RTVSPropertyOp44
 70
     1
102
RTVSPropertyOp45
 70
     1
102
RTVSPropertyOp46
 70
     1
102
RTVSPropertyOp47
 70
     1
102
RTVSPropertyOp48
 70
     1
102
RTVSPropertyOp49
 70
     1
102
RTVSPropertyOp50
 70
     1
102
RTVSPropertyOp51
 70
     0
102
RTVSPropertyOp52
 70
     0
102
RTVSPropertyOp53
 70
     1
102
RTVSPropertyOp54
 70
     1
102
RTVSPropertyOp55
 70
     1
102
RTVSPropertyOp56
 70
     1
102
RTVSPropertyOp57
 70
     1
102
RTVSPropertyOp58
 70
     1
102
RTVSPropertyOp59
 70
     1
102
RTVSPropertyOp60
 70
     1
102
RTVSPropertyOp61
 70
     1
102
RTVSPropertyOp62
 70
     1
  0
XRECORD
  5
87A
102
{ACAD_REACTORS
330
879
102
}
330
879
100
AcDbXrecord
280
     1
102
RTVSPost2010Prop28
280
     0
102
RTVSPost2010PropOp28
 70
     1
102
RTVSPost2010Prop29
280
     1
102
RTVSPost2010PropOp29
 70
     1
102
RTVSPost2010Prop30
280
     1
102
RTVSPost2010PropOp30
 70
     1
102
RTVSPost2010Prop31
280
     0
102
RTVSPost2010PropOp31
 70
     1
102
RTVSPost2010Prop32
280
     0
102
RTVSPost2010PropOp32
 70
     1
102
RTVSPost2010Prop33
280
     0
102
RTVSPost2010PropOp33
 70
     1
102
RTVSPost2010Prop34
280
     0
102
RTVSPost2010PropOp34
 70
     1
102
RTVSPost2010Prop35
280
     0
102
RTVSPost2010PropOp35
 70
     1
102
RTVSPost2010Prop36
280
     0
102
RTVSPost2010PropOp36
 70
     1
102
RTVSPost2010Prop37
 90
       50
102
RTVSPost2010PropOp37
 70
     1
102
RTVSPost2010Prop38
140
0.0
102
RTVSPost2010PropOp38
 70
     1
102
RTVSPost2010Prop39
140
1.0
102
RTVSPost2010PropOp39
 70
     1
102
RTVSPost2010Prop40
 90
        0
102
RTVSPost2010PropOp40
 70
     1
102
RTVSPost2010Prop41ColorIndex
 90
       18
102
RTVSPost2010Prop41ColorRGB
 90
        0
102
RTVSPost2010PropOp41
 70
     1
102
RTVSPost2010Prop42
 90
       50
102
RTVSPost2010PropOp42
 70
     1
102
RTVSPost2010Prop43
 90
        3
102
RTVSPost2010PropOp43
 70
     1
102
RTVSPost2010Prop44ColorIndex
 90
        5
102
RTVSPost2010Prop44ColorRGB
 90
      255
102
RTVSPost2010PropOp44
 70
     1
102
RTVSPost2010Prop45
280
     0
102
RTVSPost2010PropOp45
 70
     1
102
RTVSPost2010Prop46
 90
       50
102
RTVSPost2010PropOp46
 70
     1
102
RTVSPost2010Prop47
 90
       50
102
RTVSPost2010PropOp47
 70
     1
102
RTVSPost2010Prop48
 90
       50
102
RTVSPost2010PropOp48
 70
     1
102
RTVSPost2010Prop49
280
     0
102
RTVSPost2010PropOp49
 70
     1
102
RTVSPost2010Prop50
 90
       50
102
RTVSPost2010PropOp50
 70
     1
102
RTVSPost2010Prop51ColorIndex
 90
      256
102
RTVSPost2010Prop51ColorRGB
 90
-16777216
102
RTVSPost2010PropOp51
 70
     0
102
RTVSPost2010Prop52
140
1.0
102
RTVSPost2010PropOp52
 70
     0
102
RTVSPost2010Prop53
 90
        2
102
RTVSPost2010PropOp53
 70
     1
102
RTVSPost2010Prop54
  1
strokes_ogs.tif
102
RTVSPost2010PropOp54
 70
     1
102
RTVSPost2010Prop55
280
     0
102
RTVSPost2010PropOp55
 70
     1
102
RTVSPost2010Prop56
140
1.0
102
RTVSPost2010PropOp56
 70
     1
102
RTVSPost2010Prop57
140
1.0
102
RTVSPost2010PropOp57
 70
     1
102
RTVSPropertyOp0
 70
     1
102
RTVSPropertyOp1
 70
     1
102
RTVSPropertyOp2
 70
     1
102
RTVSPropertyOp3
 70
     1
102
RTVSPropertyOp4
 70
     1
102
RTVSPropertyOp5
 70
     1
102
RTVSPropertyOp6
 70
     1
102
RTVSPropertyOp7
 70
     1
102
RTVSPropertyOp8
 70
     1
102
RTVSPropertyOp9
 70
     1
102
RTVSPropertyOp10
 70
     1
102
RTVSPropertyOp11
 70
     1
102
RTVSPropertyOp12
 70
     1
102
RTVSPropertyOp13
 70
     1
102
RTVSPropertyOp14
 70
     1
102
RTVSPropertyOp15
 70
     1
102
RTVSPropertyOp16
 70
     1
102
RTVSPropertyOp17
 70
     1
102
RTVSPropertyOp18
 70
     1
102
RTVSPropertyOp19
 70
     1
102
RTVSPropertyOp20
 70
     1
102
RTVSPropertyOp21
 70
     1
102
RTVSPropertyOp22
 70
     1
102
RTVSPropertyOp23
 70
     1
102
RTVSPropertyOp24
 70
     1
102
RTVSPropertyOp25
 70
     1
102
RTVSPropertyOp26
 70
     1
102
RTVSPropertyOp27
 70
     1
102
RTVSPropertyOp28
 70
     1
102
RTVSPropertyOp29
 70
     1
102
RTVSPropertyOp30
 70
     1
102
RTVSPropertyOp31
 70
     1
102
RTVSPropertyOp32
 70
     1
102
RTVSPropertyOp33
 70
     1
102
RTVSPropertyOp34
 70
     1
102
RTVSPropertyOp35
 70
     1
102
RTVSPropertyOp36
 70
     1
102
RTVSPropertyOp37
 70
     1
102
RTVSPropertyOp38
 70
     1
102
RTVSPropertyOp39
 70
     1
102
RTVSPropertyOp40
 70
     1
102
RTVSPropertyOp41
 70
     1
102
RTVSPropertyOp42
 70
     1
102
RTVSPropertyOp43
 70
     1
102
RTVSPropertyOp44
 70
     1
102
RTVSPropertyOp45
 70
     1
102
RTVSPropertyOp46
 70
     1
102
RTVSPropertyOp47
 70
     1
102
RTVSPropertyOp48
 70
     1
102
RTVSPropertyOp49
 70
     1
102
RTVSPropertyOp50
 70
     1
102
RTVSPropertyOp51
 70
     0
102
RTVSPropertyOp52
 70
     0
102
RTVSPropertyOp53
 70
     1
102
RTVSPropertyOp54
 70
     1
102
RTVSPropertyOp55
 70
     1
102
RTVSPropertyOp56
 70
     1
102
RTVSPropertyOp57
 70
     1
102
RTVSPropertyOp58
 70
     1
102
RTVSPropertyOp59
 70
     1
102
RTVSPropertyOp60
 70
     1
102
RTVSPropertyOp61
 70
     1
102
RTVSPropertyOp62
 70
     1
  0
XRECORD
  5
870
102
{ACAD_REACTORS
330
86F
102
}
330
86F
100
AcDbXrecord
280
     1
102
RTVSPost2010Prop28
280
     0
102
RTVSPost2010PropOp28
 70
     1
102
RTVSPost2010Prop29
280
     1
102
RTVSPost2010PropOp29
 70
     1
102
RTVSPost2010Prop30
280
     1
102
RTVSPost2010PropOp30
 70
     1
102
RTVSPost2010Prop31
280
     0
102
RTVSPost2010PropOp31
 70
     1
102
RTVSPost2010Prop32
280
     0
102
RTVSPost2010PropOp32
 70
     1
102
RTVSPost2010Prop33
280
     0
102
RTVSPost2010PropOp33
 70
     1
102
RTVSPost2010Prop34
280
     0
102
RTVSPost2010PropOp34
 70
     1
102
RTVSPost2010Prop35
280
     0
102
RTVSPost2010PropOp35
 70
     1
102
RTVSPost2010Prop36
280
     0
102
RTVSPost2010PropOp36
 70
     1
102
RTVSPost2010Prop37
 90
       50
102
RTVSPost2010PropOp37
 70
     1
102
RTVSPost2010Prop38
140
0.0
102
RTVSPost2010PropOp38
 70
     1
102
RTVSPost2010Prop39
140
1.0
102
RTVSPost2010PropOp39
 70
     1
102
RTVSPost2010Prop40
 90
        0
102
RTVSPost2010PropOp40
 70
     1
102
RTVSPost2010Prop41ColorIndex
 90
       18
102
RTVSPost2010Prop41ColorRGB
 90
        0
102
RTVSPost2010PropOp41
 70
     1
102
RTVSPost2010Prop42
 90
       50
102
RTVSPost2010PropOp42
 70
     1
102
RTVSPost2010Prop43
 90
        3
102
RTVSPost2010PropOp43
 70
     1
102
RTVSPost2010Prop44ColorIndex
 90
        5
102
RTVSPost2010Prop44ColorRGB
 90
      255
102
RTVSPost2010PropOp44
 70
     1
102
RTVSPost2010Prop45
280
     0
102
RTVSPost2010PropOp45
 70
     1
102
RTVSPost2010Prop46
 90
       50
102
RTVSPost2010PropOp46
 70
     1
102
RTVSPost2010Prop47
 90
       50
102
RTVSPost2010PropOp47
 70
     1
102
RTVSPost2010Prop48
 90
       50
102
RTVSPost2010PropOp48
 70
     1
102
RTVSPost2010Prop49
280
     0
102
RTVSPost2010PropOp49
 70
     1
102
RTVSPost2010Prop50
 90
       50
102
RTVSPost2010PropOp50
 70
     1
102
RTVSPost2010Prop51ColorIndex
 90
      256
102
RTVSPost2010Prop51ColorRGB
 90
-16777216
102
RTVSPost2010PropOp51
 70
     0
102
RTVSPost2010Prop52
140
1.0
102
RTVSPost2010PropOp52
 70
     0
102
RTVSPost2010Prop53
 90
        2
102
RTVSPost2010PropOp53
 70
     1
102
RTVSPost2010Prop54
  1
strokes_ogs.tif
102
RTVSPost2010PropOp54
 70
     1
102
RTVSPost2010Prop55
280
     0
102
RTVSPost2010PropOp55
 70
     1
102
RTVSPost2010Prop56
140
1.0
102
RTVSPost2010PropOp56
 70
     1
102
RTVSPost2010Prop57
140
1.0
102
RTVSPost2010PropOp57
 70
     1
102
RTVSPropertyOp0
 70
     1
102
RTVSPropertyOp1
 70
     1
102
RTVSPropertyOp2
 70
     1
102
RTVSPropertyOp3
 70
     1
102
RTVSPropertyOp4
 70
     1
102
RTVSPropertyOp5
 70
     1
102
RTVSPropertyOp6
 70
     1
102
RTVSPropertyOp7
 70
     1
102
RTVSPropertyOp8
 70
     1
102
RTVSPropertyOp9
 70
     1
102
RTVSPropertyOp10
 70
     1
102
RTVSPropertyOp11
 70
     1
102
RTVSPropertyOp12
 70
     1
102
RTVSPropertyOp13
 70
     1
102
RTVSPropertyOp14
 70
     1
102
RTVSPropertyOp15
 70
     1
102
RTVSPropertyOp16
 70
     1
102
RTVSPropertyOp17
 70
     1
102
RTVSPropertyOp18
 70
     1
102
RTVSPropertyOp19
 70
     1
102
RTVSPropertyOp20
 70
     1
102
RTVSPropertyOp21
 70
     1
102
RTVSPropertyOp22
 70
     1
102
RTVSPropertyOp23
 70
     1
102
RTVSPropertyOp24
 70
     1
102
RTVSPropertyOp25
 70
     1
102
RTVSPropertyOp26
 70
     1
102
RTVSPropertyOp27
 70
     1
102
RTVSPropertyOp28
 70
     1
102
RTVSPropertyOp29
 70
     1
102
RTVSPropertyOp30
 70
     1
102
RTVSPropertyOp31
 70
     1
102
RTVSPropertyOp32
 70
     1
102
RTVSPropertyOp33
 70
     1
102
RTVSPropertyOp34
 70
     1
102
RTVSPropertyOp35
 70
     1
102
RTVSPropertyOp36
 70
     1
102
RTVSPropertyOp37
 70
     1
102
RTVSPropertyOp38
 70
     1
102
RTVSPropertyOp39
 70
     1
102
RTVSPropertyOp40
 70
     1
102
RTVSPropertyOp41
 70
     1
102
RTVSPropertyOp42
 70
     1
102
RTVSPropertyOp43
 70
     1
102
RTVSPropertyOp44
 70
     1
102
RTVSPropertyOp45
 70
     1
102
RTVSPropertyOp46
 70
     1
102
RTVSPropertyOp47
 70
     1
102
RTVSPropertyOp48
 70
     1
102
RTVSPropertyOp49
 70
     1
102
RTVSPropertyOp50
 70
     1
102
RTVSPropertyOp51
 70
     0
102
RTVSPropertyOp52
 70
     0
102
RTVSPropertyOp53
 70
     1
102
RTVSPropertyOp54
 70
     1
102
RTVSPropertyOp55
 70
     1
102
RTVSPropertyOp56
 70
     1
102
RTVSPropertyOp57
 70
     1
102
RTVSPropertyOp58
 70
     1
102
RTVSPropertyOp59
 70
     1
102
RTVSPropertyOp60
 70
     1
102
RTVSPropertyOp61
 70
     1
102
RTVSPropertyOp62
 70
     1
  0
XRECORD
  5
864
102
{ACAD_REACTORS
330
863
102
}
330
863
100
AcDbXrecord
280
     1
102
RTVSPost2010Prop28
280
     0
102
RTVSPost2010PropOp28
 70
     1
102
RTVSPost2010Prop29
280
     1
102
RTVSPost2010PropOp29
 70
     1
102
RTVSPost2010Prop30
280
     1
102
RTVSPost2010PropOp30
 70
     1
102
RTVSPost2010Prop31
280
     0
102
RTVSPost2010PropOp31
 70
     1
102
RTVSPost2010Prop32
280
     0
102
RTVSPost2010PropOp32
 70
     1
102
RTVSPost2010Prop33
280
     0
102
RTVSPost2010PropOp33
 70
     1
102
RTVSPost2010Prop34
280
     0
102
RTVSPost2010PropOp34
 70
     1
102
RTVSPost2010Prop35
280
     0
102
RTVSPost2010PropOp35
 70
     1
102
RTVSPost2010Prop36
280
     0
102
RTVSPost2010PropOp36
 70
     1
102
RTVSPost2010Prop37
 90
       50
102
RTVSPost2010PropOp37
 70
     1
102
RTVSPost2010Prop38
140
0.0
102
RTVSPost2010PropOp38
 70
     1
102
RTVSPost2010Prop39
140
1.0
102
RTVSPost2010PropOp39
 70
     1
102
RTVSPost2010Prop40
 90
        0
102
RTVSPost2010PropOp40
 70
     1
102
RTVSPost2010Prop41ColorIndex
 90
       18
102
RTVSPost2010Prop41ColorRGB
 90
        0
102
RTVSPost2010PropOp41
 70
     1
102
RTVSPost2010Prop42
 90
       50
102
RTVSPost2010PropOp42
 70
     1
102
RTVSPost2010Prop43
 90
        3
102
RTVSPost2010PropOp43
 70
     1
102
RTVSPost2010Prop44ColorIndex
 90
        5
102
RTVSPost2010Prop44ColorRGB
 90
      255
102
RTVSPost2010PropOp44
 70
     1
102
RTVSPost2010Prop45
280
     0
102
RTVSPost2010PropOp45
 70
     1
102
RTVSPost2010Prop46
 90
       50
102
RTVSPost2010PropOp46
 70
     1
102
RTVSPost2010Prop47
 90
       50
102
RTVSPost2010PropOp47
 70
     1
102
RTVSPost2010Prop48
 90
       50
102
RTVSPost2010PropOp48
 70
     1
102
RTVSPost2010Prop49
280
     0
102
RTVSPost2010PropOp49
 70
     1
102
RTVSPost2010Prop50
 90
       50
102
RTVSPost2010PropOp50
 70
     1
102
RTVSPost2010Prop51ColorIndex
 90
      256
102
RTVSPost2010Prop51ColorRGB
 90
-16777216
102
RTVSPost2010PropOp51
 70
     0
102
RTVSPost2010Prop52
140
1.0
102
RTVSPost2010PropOp52
 70
     0
102
RTVSPost2010Prop53
 90
        2
102
RTVSPost2010PropOp53
 70
     1
102
RTVSPost2010Prop54
  1
strokes_ogs.tif
102
RTVSPost2010PropOp54
 70
     1
102
RTVSPost2010Prop55
280
     0
102
RTVSPost2010PropOp55
 70
     1
102
RTVSPost2010Prop56
140
1.0
102
RTVSPost2010PropOp56
 70
     1
102
RTVSPost2010Prop57
140
1.0
102
RTVSPost2010PropOp57
 70
     1
102
RTVSPropertyOp0
 70
     1
102
RTVSPropertyOp1
 70
     1
102
RTVSPropertyOp2
 70
     1
102
RTVSPropertyOp3
 70
     1
102
RTVSPropertyOp4
 70
     1
102
RTVSPropertyOp5
 70
     1
102
RTVSPropertyOp6
 70
     1
102
RTVSPropertyOp7
 70
     1
102
RTVSPropertyOp8
 70
     1
102
RTVSPropertyOp9
 70
     1
102
RTVSPropertyOp10
 70
     1
102
RTVSPropertyOp11
 70
     1
102
RTVSPropertyOp12
 70
     1
102
RTVSPropertyOp13
 70
     1
102
RTVSPropertyOp14
 70
     1
102
RTVSPropertyOp15
 70
     1
102
RTVSPropertyOp16
 70
     1
102
RTVSPropertyOp17
 70
     1
102
RTVSPropertyOp18
 70
     1
102
RTVSPropertyOp19
 70
     1
102
RTVSPropertyOp20
 70
     1
102
RTVSPropertyOp21
 70
     1
102
RTVSPropertyOp22
 70
     1
102
RTVSPropertyOp23
 70
     1
102
RTVSPropertyOp24
 70
     1
102
RTVSPropertyOp25
 70
     1
102
RTVSPropertyOp26
 70
     1
102
RTVSPropertyOp27
 70
     1
102
RTVSPropertyOp28
 70
     1
102
RTVSPropertyOp29
 70
     1
102
RTVSPropertyOp30
 70
     1
102
RTVSPropertyOp31
 70
     1
102
RTVSPropertyOp32
 70
     1
102
RTVSPropertyOp33
 70
     1
102
RTVSPropertyOp34
 70
     1
102
RTVSPropertyOp35
 70
     1
102
RTVSPropertyOp36
 70
     1
102
RTVSPropertyOp37
 70
     1
102
RTVSPropertyOp38
 70
     1
102
RTVSPropertyOp39
 70
     1
102
RTVSPropertyOp40
 70
     1
102
RTVSPropertyOp41
 70
     1
102
RTVSPropertyOp42
 70
     1
102
RTVSPropertyOp43
 70
     1
102
RTVSPropertyOp44
 70
     1
102
RTVSPropertyOp45
 70
     1
102
RTVSPropertyOp46
 70
     1
102
RTVSPropertyOp47
 70
     1
102
RTVSPropertyOp48
 70
     1
102
RTVSPropertyOp49
 70
     1
102
RTVSPropertyOp50
 70
     1
102
RTVSPropertyOp51
 70
     0
102
RTVSPropertyOp52
 70
     0
102
RTVSPropertyOp53
 70
     1
102
RTVSPropertyOp54
 70
     1
102
RTVSPropertyOp55
 70
     1
102
RTVSPropertyOp56
 70
     1
102
RTVSPropertyOp57
 70
     1
102
RTVSPropertyOp58
 70
     1
102
RTVSPropertyOp59
 70
     1
102
RTVSPropertyOp60
 70
     1
102
RTVSPropertyOp61
 70
     1
102
RTVSPropertyOp62
 70
     1
  0
XRECORD
  5
87C
102
{ACAD_REACTORS
330
87B
102
}
330
87B
100
AcDbXrecord
280
     1
102
RTVSPost2010Prop28
280
     0
102
RTVSPost2010PropOp28
 70
     1
102
RTVSPost2010Prop29
280
     1
102
RTVSPost2010PropOp29
 70
     1
102
RTVSPost2010Prop30
280
     1
102
RTVSPost2010PropOp30
 70
     1
102
RTVSPost2010Prop31
280
     0
102
RTVSPost2010PropOp31
 70
     1
102
RTVSPost2010Prop32
280
     0
102
RTVSPost2010PropOp32
 70
     1
102
RTVSPost2010Prop33
280
     0
102
RTVSPost2010PropOp33
 70
     1
102
RTVSPost2010Prop34
280
     0
102
RTVSPost2010PropOp34
 70
     1
102
RTVSPost2010Prop35
280
     0
102
RTVSPost2010PropOp35
 70
     1
102
RTVSPost2010Prop36
280
     0
102
RTVSPost2010PropOp36
 70
     1
102
RTVSPost2010Prop37
 90
       50
102
RTVSPost2010PropOp37
 70
     1
102
RTVSPost2010Prop38
140
0.0
102
RTVSPost2010PropOp38
 70
     1
102
RTVSPost2010Prop39
140
1.0
102
RTVSPost2010PropOp39
 70
     1
102
RTVSPost2010Prop40
 90
        0
102
RTVSPost2010PropOp40
 70
     1
102
RTVSPost2010Prop41ColorIndex
 90
       18
102
RTVSPost2010Prop41ColorRGB
 90
        0
102
RTVSPost2010PropOp41
 70
     1
102
RTVSPost2010Prop42
 90
       50
102
RTVSPost2010PropOp42
 70
     1
102
RTVSPost2010Prop43
 90
        3
102
RTVSPost2010PropOp43
 70
     1
102
RTVSPost2010Prop44ColorIndex
 90
        5
102
RTVSPost2010Prop44ColorRGB
 90
      255
102
RTVSPost2010PropOp44
 70
     1
102
RTVSPost2010Prop45
280
     0
102
RTVSPost2010PropOp45
 70
     1
102
RTVSPost2010Prop46
 90
       50
102
RTVSPost2010PropOp46
 70
     1
102
RTVSPost2010Prop47
 90
       50
102
RTVSPost2010PropOp47
 70
     1
102
RTVSPost2010Prop48
 90
       50
102
RTVSPost2010PropOp48
 70
     1
102
RTVSPost2010Prop49
280
     0
102
RTVSPost2010PropOp49
 70
     1
102
RTVSPost2010Prop50
 90
       50
102
RTVSPost2010PropOp50
 70
     1
102
RTVSPost2010Prop51ColorIndex
 90
      256
102
RTVSPost2010Prop51ColorRGB
 90
-16777216
102
RTVSPost2010PropOp51
 70
     0
102
RTVSPost2010Prop52
140
1.0
102
RTVSPost2010PropOp52
 70
     0
102
RTVSPost2010Prop53
 90
        2
102
RTVSPost2010PropOp53
 70
     1
102
RTVSPost2010Prop54
  1
strokes_ogs.tif
102
RTVSPost2010PropOp54
 70
     1
102
RTVSPost2010Prop55
280
     0
102
RTVSPost2010PropOp55
 70
     1
102
RTVSPost2010Prop56
140
1.0
102
RTVSPost2010PropOp56
 70
     1
102
RTVSPost2010Prop57
140
1.0
102
RTVSPost2010PropOp57
 70
     1
102
RTVSPropertyOp0
 70
     1
102
RTVSPropertyOp1
 70
     1
102
RTVSPropertyOp2
 70
     1
102
RTVSPropertyOp3
 70
     1
102
RTVSPropertyOp4
 70
     1
102
RTVSPropertyOp5
 70
     1
102
RTVSPropertyOp6
 70
     1
102
RTVSPropertyOp7
 70
     1
102
RTVSPropertyOp8
 70
     1
102
RTVSPropertyOp9
 70
     1
102
RTVSPropertyOp10
 70
     1
102
RTVSPropertyOp11
 70
     1
102
RTVSPropertyOp12
 70
     1
102
RTVSPropertyOp13
 70
     1
102
RTVSPropertyOp14
 70
     1
102
RTVSPropertyOp15
 70
     1
102
RTVSPropertyOp16
 70
     1
102
RTVSPropertyOp17
 70
     1
102
RTVSPropertyOp18
 70
     1
102
RTVSPropertyOp19
 70
     1
102
RTVSPropertyOp20
 70
     1
102
RTVSPropertyOp21
 70
     1
102
RTVSPropertyOp22
 70
     1
102
RTVSPropertyOp23
 70
     1
102
RTVSPropertyOp24
 70
     1
102
RTVSPropertyOp25
 70
     1
102
RTVSPropertyOp26
 70
     1
102
RTVSPropertyOp27
 70
     1
102
RTVSPropertyOp28
 70
     1
102
RTVSPropertyOp29
 70
     1
102
RTVSPropertyOp30
 70
     1
102
RTVSPropertyOp31
 70
     1
102
RTVSPropertyOp32
 70
     1
102
RTVSPropertyOp33
 70
     1
102
RTVSPropertyOp34
 70
     1
102
RTVSPropertyOp35
 70
     1
102
RTVSPropertyOp36
 70
     1
102
RTVSPropertyOp37
 70
     1
102
RTVSPropertyOp38
 70
     1
102
RTVSPropertyOp39
 70
     1
102
RTVSPropertyOp40
 70
     1
102
RTVSPropertyOp41
 70
     1
102
RTVSPropertyOp42
 70
     1
102
RTVSPropertyOp43
 70
     1
102
RTVSPropertyOp44
 70
     1
102
RTVSPropertyOp45
 70
     1
102
RTVSPropertyOp46
 70
     1
102
RTVSPropertyOp47
 70
     1
102
RTVSPropertyOp48
 70
     1
102
RTVSPropertyOp49
 70
     1
102
RTVSPropertyOp50
 70
     1
102
RTVSPropertyOp51
 70
     0
102
RTVSPropertyOp52
 70
     0
102
RTVSPropertyOp53
 70
     1
102
RTVSPropertyOp54
 70
     1
102
RTVSPropertyOp55
 70
     1
102
RTVSPropertyOp56
 70
     1
102
RTVSPropertyOp57
 70
     1
102
RTVSPropertyOp58
 70
     1
102
RTVSPropertyOp59
 70
     1
102
RTVSPropertyOp60
 70
     1
102
RTVSPropertyOp61
 70
     1
102
RTVSPropertyOp62
 70
     1
  0
ENDSEC
  0
EOF
