  0
SECTION
  2
HEADER
  9
$ACADVER
  1
AC1018
  9
$ACADMAINTVER
 70
   104
  9
$DWGCODEPAGE
  3
ANSI_932
  9
$LASTSAVEDBY
  1
0803015
  9
$INSBASE
 10
0.0
 20
0.0
 30
0.0
  9
$EXTMIN
 10
-0.05164657
 20
-0.00860297
 30
0.0
  9
$EXTMAX
 10
793.4634564
 20
564.20862485
 30
0.0
  9
$LIMMIN
 10
0.0
 20
0.0
  9
$LIMMAX
 10
420.0
 20
297.0
  9
$ORTHOMODE
 70
     1
  9
$REGENMODE
 70
     1
  9
$FILLMODE
 70
     1
  9
$QTEXTMODE
 70
     0
  9
$MIRRTEXT
 70
     0
  9
$LTSCALE
 40
1.0
  9
$ATTMODE
 70
     1
  9
$TEXTSIZE
 40
3.0
  9
$TRACEWID
 40
1.0
  9
$TEXTSTYLE
  7
STANDARD
  9
$CLAYER
  8
0
  9
$CELTYPE
  6
BYLAYER
  9
$CECOLOR
 62
   256
  9
$CELTSCALE
 40
1.0
  9
$DISPSILH
 70
     1
  9
$DIMSCALE
 40
1.0
  9
$DIMASZ
 40
1.5
  9
$DIMEXO
 40
2.0
  9
$DIMDLI
 40
10.0
  9
$DIMRND
 40
0.0
  9
$DIMDLE
 40
0.0
  9
$DIMEXE
 40
2.0
  9
$DIMTP
 40
0.0
  9
$DIMTM
 40
0.0
  9
$DIMTXT
 40
3.0
  9
$DIMCEN
 40
0.0
  9
$DIMTSZ
 40
0.0
  9
$DIMTOL
 70
     0
  9
$DIMLIM
 70
     0
  9
$DIMTIH
 70
     0
  9
$DIMTOH
 70
     0
  9
$DIMSE1
 70
     0
  9
$DIMSE2
 70
     0
  9
$DIMTAD
 70
     0
  9
$DIMZIN
 70
    12
  9
$DIMBLK
  1

  9
$DIMASO
 70
     1
  9
$DIMSHO
 70
     1
  9
$DIMPOST
  1

  9
$DIMAPOST
  1

  9
$DIMALT
 70
     0
  9
$DIMALTD
 70
     2
  9
$DIMALTF
 40
0.0394
  9
$DIMLFAC
 40
1.0
  9
$DIMTOFL
 70
     1
  9
$DIMTVP
 40
1.0
  9
$DIMTIX
 70
     0
  9
$DIMSOXD
 70
     0
  9
$DIMSAH
 70
     1
  9
$DIMBLK1
  1
DOT1
  9
$DIMBLK2
  1
DOT1
  9
$DIMSTYLE
  2
YKK_OSADOT
  9
$DIMCLRD
 70
     0
  9
$DIMCLRE
 70
     0
  9
$DIMCLRT
 70
     0
  9
$DIMTFAC
 40
1.0
  9
$DIMGAP
 40
0.01
  9
$DIMJUST
 70
     0
  9
$DIMSD1
 70
     0
  9
$DIMSD2
 70
     0
  9
$DIMTOLJ
 70
     1
  9
$DIMTZIN
 70
    12
  9
$DIMALTZ
 70
    12
  9
$DIMALTTZ
 70
    12
  9
$DIMUPT
 70
     0
  9
$DIMDEC
 70
     4
  9
$DIMTDEC
 70
     4
  9
$DIMALTU
 70
     2
  9
$DIMALTTD
 70
     2
  9
$DIMTXSTY
  7
STANDARD
  9
$DIMAUNIT
 70
     0
  9
$DIMADEC
 70
     0
  9
$DIMALTRND
 40
0.0
  9
$DIMAZIN
 70
     0
  9
$DIMDSEP
 70
    46
  9
$DIMATFIT
 70
     3
  9
$DIMFRAC
 70
     0
  9
$DIMLDRBLK
  1

  9
$DIMLUNIT
 70
     2
  9
$DIMLWD
 70
    -2
  9
$DIMLWE
 70
    -2
  9
$DIMTMOVE
 70
     2
  9
$LUNITS
 70
     2
  9
$LUPREC
 70
     4
  9
$SKETCHINC
 40
1.0
  9
$FILLETRAD
 40
0.0
  9
$AUNITS
 70
     0
  9
$AUPREC
 70
     0
  9
$MENU
  1
.
  9
$ELEVATION
 40
0.0
  9
$PELEVATION
 40
0.0
  9
$THICKNESS
 40
0.0
  9
$LIMCHECK
 70
     0
  9
$CHAMFERA
 40
0.0
  9
$CHAMFERB
 40
0.0
  9
$CHAMFERC
 40
0.0
  9
$CHAMFERD
 40
0.0
  9
$SKPOLY
 70
     0
  9
$TDCREATE
 40
2452591.511585648
  9
$TDUCREATE
 40
2452591.136585648
  9
$TDUPDATE
 40
2459276.455879630
  9
$TDUUPDATE
 40
2459276.080879630
  9
$TDINDWG
 40
0.0053298264
  9
$TDUSRTIMER
 40
0.0053298264
  9
$USRTIMER
 70
     1
  9
$ANGBASE
 50
0.0
  9
$ANGDIR
 70
     0
  9
$PDMODE
 70
     0
  9
$PDSIZE
 40
0.0
  9
$PLINEWID
 40
0.0
  9
$SPLFRAME
 70
     0
  9
$SPLINETYPE
 70
     6
  9
$SPLINESEGS
 70
     8
  9
$HANDSEED
  5
806
  9
$SURFTAB1
 70
     6
  9
$SURFTAB2
 70
     6
  9
$SURFTYPE
 70
     6
  9
$SURFU
 70
     6
  9
$SURFV
 70
     6
  9
$UCSBASE
  2

  9
$UCSNAME
  2

  9
$UCSORG
 10
0.0
 20
0.0
 30
0.0
  9
$UCSXDIR
 10
1.0
 20
0.0
 30
0.0
  9
$UCSYDIR
 10
0.0
 20
1.0
 30
0.0
  9
$UCSORTHOREF
  2

  9
$UCSORTHOVIEW
 70
     0
  9
$UCSORGTOP
 10
0.0
 20
0.0
 30
0.0
  9
$UCSORGBOTTOM
 10
0.0
 20
0.0
 30
0.0
  9
$UCSORGLEFT
 10
0.0
 20
0.0
 30
0.0
  9
$UCSORGRIGHT
 10
0.0
 20
0.0
 30
0.0
  9
$UCSORGFRONT
 10
0.0
 20
0.0
 30
0.0
  9
$UCSORGBACK
 10
0.0
 20
0.0
 30
0.0
  9
$PUCSBASE
  2

  9
$PUCSNAME
  2

  9
$PUCSORG
 10
0.0
 20
0.0
 30
0.0
  9
$PUCSXDIR
 10
1.0
 20
0.0
 30
0.0
  9
$PUCSYDIR
 10
0.0
 20
1.0
 30
0.0
  9
$PUCSORTHOREF
  2

  9
$PUCSORTHOVIEW
 70
     0
  9
$PUCSORGTOP
 10
0.0
 20
0.0
 30
0.0
  9
$PUCSORGBOTTOM
 10
0.0
 20
0.0
 30
0.0
  9
$PUCSORGLEFT
 10
0.0
 20
0.0
 30
0.0
  9
$PUCSORGRIGHT
 10
0.0
 20
0.0
 30
0.0
  9
$PUCSORGFRONT
 10
0.0
 20
0.0
 30
0.0
  9
$PUCSORGBACK
 10
0.0
 20
0.0
 30
0.0
  9
$USERI1
 70
     0
  9
$USERI2
 70
     0
  9
$USERI3
 70
     0
  9
$USERI4
 70
     0
  9
$USERI5
 70
     0
  9
$USERR1
 40
0.0
  9
$USERR2
 40
0.0
  9
$USERR3
 40
0.0
  9
$USERR4
 40
0.0
  9
$USERR5
 40
0.0
  9
$WORLDVIEW
 70
     1
  9
$SHADEDGE
 70
     3
  9
$SHADEDIF
 70
    70
  9
$TILEMODE
 70
     1
  9
$MAXACTVP
 70
    48
  9
$PINSBASE
 10
0.0
 20
0.0
 30
0.0
  9
$PLIMCHECK
 70
     0
  9
$PEXTMIN
 10
1.00000000E+20
 20
1.00000000E+20
 30
1.00000000E+20
  9
$PEXTMAX
 10
-1.00000000E+20
 20
-1.00000000E+20
 30
-1.00000000E+20
  9
$PLIMMIN
 10
0.0
 20
0.0
  9
$PLIMMAX
 10
420.0
 20
297.0
  9
$UNITMODE
 70
     0
  9
$VISRETAIN
 70
     1
  9
$PLINEGEN
 70
     0
  9
$PSLTSCALE
 70
     1
  9
$TREEDEPTH
 70
  3020
  9
$CMLSTYLE
  2
STANDARD
  9
$CMLJUST
 70
     0
  9
$CMLSCALE
 40
1.0
  9
$PROXYGRAPHICS
 70
     1
  9
$MEASUREMENT
 70
     1
  9
$CELWEIGHT
370
    -1
  9
$ENDCAPS
280
     0
  9
$JOINSTYLE
280
     0
  9
$LWDISPLAY
290
     0
  9
$INSUNITS
 70
     0
  9
$HYPERLINKBASE
  1

  9
$STYLESHEET
  1

  9
$XEDIT
290
     1
  9
$CEPSNTYPE
380
     0
  9
$PSTYLEMODE
290
     1
  9
$FINGERPRINTGUID
  2
{DA8D1F45-0A67-42A4-BE73-C329FB2781DF}
  9
$VERSIONGUID
  2
{CDB55C17-6F15-F049-8D09-4BFF3C6C6CDA}
  9
$EXTNAMES
290
     1
  9
$PSVPSCALE
 40
0.0
  9
$OLESTARTUP
290
     0
  9
$SORTENTS
280
   127
  9
$INDEXCTL
280
     0
  9
$HIDETEXT
280
     0
  9
$XCLIPFRAME
290
     0
  9
$HALOGAP
280
     0
  9
$OBSCOLOR
 70
   257
  9
$OBSLTYPE
280
     0
  9
$INTERSECTIONDISPLAY
280
     0
  9
$INTERSECTIONCOLOR
 70
   257
  9
$DIMASSOC
280
     1
  9
$PROJECTNAME
  1

  0
ENDSEC
  0
SECTION
  2
CLASSES
  0
CLASS
  1
DICTIONARYVAR
  2
AcDbDictionaryVar
  3
ObjectDBX Classes
 90
        0
 91
       10
280
     0
281
     0
  0
CLASS
  1
ACDBDICTIONARYWDFLT
  2
AcDbDictionaryWithDefault
  3
ObjectDBX Classes
 90
        0
 91
        1
280
     0
281
     0
  0
CLASS
  1
MATERIAL
  2
AcDbMaterial
  3
ObjectDBX Classes
 90
     1153
 91
        3
280
     0
281
     0
  0
CLASS
  1
VISUALSTYLE
  2
AcDbVisualStyle
  3
ObjectDBX Classes
 90
     4095
 91
       26
280
     0
281
     0
  0
CLASS
  1
TABLESTYLE
  2
AcDbTableStyle
  3
ObjectDBX Classes
 90
     4095
 91
        1
280
     0
281
     0
  0
CLASS
  1
SCALE
  2
AcDbScale
  3
ObjectDBX Classes
 90
     1153
 91
       33
280
     0
281
     0
  0
CLASS
  1
MLEADERSTYLE
  2
AcDbMLeaderStyle
  3
ACDB_MLEADERSTYLE_CLASS
 90
     4095
 91
        1
280
     0
281
     0
  0
CLASS
  1
CELLSTYLEMAP
  2
AcDbCellStyleMap
  3
ObjectDBX Classes
 90
     1152
 91
        2
280
     0
281
     0
  0
CLASS
  1
ACDBSECTIONVIEWSTYLE
  2
AcDbSectionViewStyle
  3
ObjectDBX Classes
 90
     1025
 91
        1
280
     0
281
     0
  0
CLASS
  1
ACDBDETAILVIEWSTYLE
  2
AcDbDetailViewStyle
  3
ObjectDBX Classes
 90
     1025
 91
        1
280
     0
281
     0
  0
CLASS
  1
RAPIDRTRENDERSETTINGS
  2
AcDbRapidRTRenderSettings
  3
ObjectDBX Classes
 90
     1024
 91
        1
280
     0
281
     0
  0
CLASS
  1
MENTALRAYRENDERSETTINGS
  2
AcDbMentalRayRenderSettings
  3
SCENEOE
 90
     1024
 91
        1
280
     0
281
     0
  0
CLASS
  1
SORTENTSTABLE
  2
AcDbSortentsTable
  3
ObjectDBX Classes
 90
        0
 91
        0
280
     0
281
     0
  0
ENDSEC
  0
SECTION
  2
TABLES
  0
TABLE
  2
VPORT
  5
12
102
{ACAD_XDICTIONARY
360
17A
102
}
330
0
100
AcDbSymbolTable
 70
     1
  0
VPORT
  5
F0
330
12
100
AcDbSymbolTableRecord
100
AcDbViewportTableRecord
  2
*ACTIVE
 70
     0
 10
0.0
 20
0.0
 11
1.0
 21
1.0
 12
396.70590491
 22
282.10001094
 13
0.0
 23
0.0
 14
10.0
 24
10.0
 15
10.0
 25
10.0
 16
0.0
 26
0.0
 36
1.0
 17
0.0
 27
0.0
 37
0.0
 40
569.71285016
 41
2.0504065
 42
50.0
 43
0.0
 44
0.0
 50
0.0
 51
0.0
 71
     0
 72
  1000
 73
     1
 74
     1
 75
     0
 76
     0
 77
     0
 78
     0
281
     0
 65
     1
110
0.0
120
0.0
130
0.0
111
1.0
121
0.0
131
0.0
112
0.0
122
1.0
132
0.0
 79
     0
146
0.0
1001
ACAD_NAV_VCDISPLAY
1070
     1
  0
ENDTAB
  0
TABLE
  2
LTYPE
  5
D
330
0
100
AcDbSymbolTable
 70
     3
  0
LTYPE
  5
E
330
D
100
AcDbSymbolTableRecord
100
AcDbLinetypeTableRecord
  2
BYBLOCK
 70
     0
  3

 72
    65
 73
     0
 40
0.0
  0
LTYPE
  5
F
330
D
100
AcDbSymbolTableRecord
100
AcDbLinetypeTableRecord
  2
BYLAYER
 70
     0
  3

 72
    65
 73
     0
 40
0.0
  0
LTYPE
  5
5
330
D
100
AcDbSymbolTableRecord
100
AcDbLinetypeTableRecord
  2
CONTINUOUS
 70
     0
  3
Solid line
 72
    65
 73
     0
 40
0.0
  0
LTYPE
  5
2D
330
D
100
AcDbSymbolTableRecord
100
AcDbLinetypeTableRecord
  2
HIDDEN
 70
     0
  3
__ __ __ __ __ __ __ __ __ __ __ __ __ __ __ __
 72
    65
 73
     2
 40
0.375
 49
0.25
 74
     0
 49
-0.125
 74
     0
  0
LTYPE
  5
264
330
D
100
AcDbSymbolTableRecord
100
AcDbLinetypeTableRecord
  2
YCENTER_1
 70
     0
  3
中心線尺度1--- － --- － ---
 72
    65
 73
     4
 40
13.0
 49
10.0
 74
     0
 49
-1.0
 74
     0
 49
1.0
 74
     0
 49
-1.0
 74
     0
  0
ENDTAB
  0
TABLE
  2
LAYER
  5
A
102
{ACAD_XDICTIONARY
360
1E0
102
}
330
0
100
AcDbSymbolTable
 70
     7
  0
LAYER
  5
4
102
{ACAD_XDICTIONARY
360
1EE
102
}
330
A
100
AcDbSymbolTableRecord
100
AcDbLayerTableRecord
  2
0
 70
     0
 62
     7
  6
CONTINUOUS
370
    -3
390
F3
  0
LAYER
  5
24
102
{ACAD_XDICTIONARY
360
1F0
102
}
330
A
100
AcDbSymbolTableRecord
100
AcDbLayerTableRecord
  2
YKK_ZWAK
 70
     0
 62
     7
  6
CONTINUOUS
370
    -3
390
F3
  0
LAYER
  5
E0
102
{ACAD_XDICTIONARY
360
1F2
102
}
330
A
100
AcDbSymbolTableRecord
100
AcDbLayerTableRecord
  2
USER1
 70
     0
 62
     3
  6
CONTINUOUS
370
    -3
390
F3
  0
LAYER
  5
265
102
{ACAD_XDICTIONARY
360
266
102
}
330
A
100
AcDbSymbolTableRecord
100
AcDbLayerTableRecord
  2
TABLE1
 70
     0
 62
   255
  6
CONTINUOUS
370
    13
390
F3
1001
AcAecLayerStandard
1000

1000
表
  0
LAYER
  5
267
330
A
100
AcDbSymbolTableRecord
100
AcDbLayerTableRecord
  2
YKK_12
 70
     0
 62
     2
  6
CONTINUOUS
370
    13
390
F3
1001
AcAecLayerStandard
1000

1000
見えがかり線
  0
LAYER
  5
268
330
A
100
AcDbSymbolTableRecord
100
AcDbLayerTableRecord
  2
YKK_13
 70
     0
 62
     4
  6
CONTINUOUS
370
    30
390
F3
1001
AcAecLayerStandard
1000

1000
部品
  0
LAYER
  5
269
330
A
100
AcDbSymbolTableRecord
100
AcDbLayerTableRecord
  2
YKK_D
 70
     0
 62
     6
  6
CONTINUOUS
370
    13
390
F3
1001
AcAecLayerStandard
1000

1000
寸法線・寸法数字
  0
ENDTAB
  0
TABLE
  2
STYLE
  5
B
330
0
100
AcDbSymbolTable
 70
     3
  0
STYLE
  5
C
330
B
100
AcDbSymbolTableRecord
100
AcDbTextStyleTableRecord
  2
STANDARD
 70
     0
 40
0.0
 41
1.0
 50
0.0
 71
     0
 42
3.0
  3
ROMANS.SHX
  4
EXTFONT.SHX
  0
STYLE
  5
33
330
B
100
AcDbSymbolTableRecord
100
AcDbTextStyleTableRecord
  2
YKK_OSSTYLE1
 70
     0
 40
0.0
 41
0.9
 50
0.0
 71
     0
 42
4.0
  3
romans.shx
  4
EXTFONT.SHX
  0
STYLE
  5
26A
330
B
100
AcDbSymbolTableRecord
100
AcDbTextStyleTableRecord
  2
text-b
 70
     0
 40
0.0
 41
0.8
 50
0.0
 71
     0
 42
4.5
  3
extslim2.shx
  4
extfont2.shx
  0
ENDTAB
  0
TABLE
  2
VIEW
  5
10
330
0
100
AcDbSymbolTable
 70
     0
  0
ENDTAB
  0
TABLE
  2
UCS
  5
11
330
0
100
AcDbSymbolTable
 70
     0
  0
ENDTAB
  0
TABLE
  2
APPID
  5
14
330
0
100
AcDbSymbolTable
 70
     9
  0
APPID
  5
15
330
14
100
AcDbSymbolTableRecord
100
AcDbRegAppTableRecord
  2
ACAD
 70
     0
  0
APPID
  5
14F
330
14
100
AcDbSymbolTableRecord
100
AcDbRegAppTableRecord
  2
YKK_AP_LOCKLAYER
 70
     0
  0
APPID
  5
1B4
330
14
100
AcDbSymbolTableRecord
100
AcDbRegAppTableRecord
  2
ACAD_MLEADERVER
 70
     0
  0
APPID
  5
1D5
330
14
100
AcDbSymbolTableRecord
100
AcDbRegAppTableRecord
  2
ACAD_PSEXT
 70
     0
  0
APPID
  5
1D6
330
14
100
AcDbSymbolTableRecord
100
AcDbRegAppTableRecord
  2
ACAD_NAV_VCDISPLAY
 70
     0
  0
APPID
  5
1EC
330
14
100
AcDbSymbolTableRecord
100
AcDbRegAppTableRecord
  2
ACAD_EXEMPT_FROM_CAD_STANDARDS
 70
     0
  0
APPID
  5
26E
330
14
100
AcDbSymbolTableRecord
100
AcDbRegAppTableRecord
  2
AcAecLayerStandard
 70
     0
  0
APPID
  5
26F
330
14
100
AcDbSymbolTableRecord
100
AcDbRegAppTableRecord
  2
ACAD_DSTYLE_DIMJOGGED_JOGANGLE_SYMBOL
 70
     0
  0
APPID
  5
710
330
14
100
AcDbSymbolTableRecord
100
AcDbRegAppTableRecord
  2
YGROUPINFO
 70
     0
  0
ENDTAB
  0
TABLE
  2
DIMSTYLE
  5
16
330
0
100
AcDbSymbolTable
 70
     1
100
AcDbDimStyleTable
 71
     0
  0
DIMSTYLE
105
1C
330
16
100
AcDbSymbolTableRecord
100
AcDbDimStyleTableRecord
  2
YKK_OSADOT
 70
     0
 41
1.5
 42
2.0
 43
10.0
 44
2.0
 73
     0
 74
     0
 78
    12
140
3.0
141
0.0
143
0.0394
145
1.0
147
0.01
172
     1
173
     1
279
     2
284
    12
285
    12
286
    12
340
C
341
1D
343
1D
344
1D
  0
ENDTAB
  0
TABLE
  2
BLOCK_RECORD
  5
1
330
0
100
AcDbSymbolTable
 70
     2
  0
BLOCK_RECORD
  5
2
102
{ACAD_XDICTIONARY
360
176
102
}
330
1
100
AcDbSymbolTableRecord
100
AcDbBlockTableRecord
  2
*MODEL_SPACE
340
14A
  0
BLOCK_RECORD
  5
7
102
{ACAD_XDICTIONARY
360
178
102
}
330
1
100
AcDbSymbolTableRecord
100
AcDbBlockTableRecord
  2
*PAPER_SPACE
340
14B
  0
BLOCK_RECORD
  5
1D
330
1
100
AcDbSymbolTableRecord
100
AcDbBlockTableRecord
  2
DOT1
340
0
  0
BLOCK_RECORD
  5
25
330
1
100
AcDbSymbolTableRecord
100
AcDbBlockTableRecord
  2
A201
340
0
102
{BLKREFS
331
23
102
}
  0
ENDTAB
  0
ENDSEC
  0
SECTION
  2
BLOCKS
  0
BLOCK
  5
3
330
2
100
AcDbEntity
  8
0
100
AcDbBlockBegin
  2
*MODEL_SPACE
 70
     0
 10
0.0
 20
0.0
 30
0.0
  3
*MODEL_SPACE
  1

  0
ENDBLK
  5
6
330
2
100
AcDbEntity
  8
0
100
AcDbBlockEnd
  0
BLOCK
  5
8
330
7
100
AcDbEntity
 67
     1
  8
0
100
AcDbBlockBegin
  2
*PAPER_SPACE
 70
     0
 10
0.0
 20
0.0
 30
0.0
  3
*PAPER_SPACE
  1

  0
ENDBLK
  5
9
330
7
100
AcDbEntity
 67
     1
  8
0
100
AcDbBlockEnd
  0
BLOCK
  5
21
330
1D
100
AcDbEntity
  8
0
100
AcDbBlockBegin
  2
DOT1
 70
     0
 10
0.0
 20
0.0
 30
0.0
  3
DOT1
  1

  0
CIRCLE
  5
1E
330
1D
100
AcDbEntity
  8
0
  6
ByBlock
 62
     0
370
    -2
100
AcDbCircle
 10
0.0
 20
0.0
 30
0.0
 40
0.5
  0
CIRCLE
  5
1F
330
1D
100
AcDbEntity
  8
0
  6
ByBlock
 62
     0
370
    -2
100
AcDbCircle
 10
0.0
 20
0.0
 30
0.0
 40
0.325
  0
LINE
  5
20
330
1D
100
AcDbEntity
  8
0
  6
ByBlock
 62
     0
370
    -2
100
AcDbLine
 10
0.0
 20
0.0
 30
0.0
 11
-1.0
 21
0.0
 31
0.0
  0
ENDBLK
  5
22
330
1D
100
AcDbEntity
  8
0
100
AcDbBlockEnd
  0
BLOCK
  5
DD
330
25
100
AcDbEntity
  8
0
100
AcDbBlockBegin
  2
A201
 70
     0
 10
0.0
 20
0.0
 30
0.0
  3
A201
  1

  0
LINE
  5
26
330
25
100
AcDbEntity
  8
YKK_ZWAK
  6
Continuous
 62
   254
100
AcDbLine
 10
21.000001
 20
8.9995
 30
0.0
 11
544.000013
 21
8.9995
 31
0.0
  0
LINE
  5
27
330
25
100
AcDbEntity
  8
YKK_ZWAK
  6
Continuous
 62
   131
100
AcDbLine
 10
205.000005
 20
21.000001
 30
0.0
 11
297.000007
 21
21.000001
 31
0.0
  0
LINE
  5
28
330
25
100
AcDbEntity
  8
YKK_ZWAK
  6
Continuous
 62
   254
100
AcDbLine
 10
571.000014
 20
34.999501
 30
0.0
 11
21.000001
 21
34.999501
 31
0.0
  0
LINE
  5
29
330
25
100
AcDbEntity
  8
YKK_ZWAK
  6
Continuous
 62
   254
100
AcDbLine
 10
544.000013
 20
33.999501
 30
0.0
 11
21.000001
 21
33.999501
 31
0.0
  0
LINE
  5
2A
330
25
100
AcDbEntity
  8
YKK_ZWAK
  6
Continuous
 62
   254
100
AcDbLine
 10
571.000014
 20
409.99951
 30
0.0
 11
21.000001
 21
409.99951
 31
0.0
  0
LINE
  5
2B
330
25
100
AcDbEntity
  8
YKK_ZWAK
  6
Continuous
 62
   254
100
AcDbLine
 10
21.000001
 20
34.999501
 30
0.0
 11
21.000001
 21
409.99951
 31
0.0
  0
LINE
  5
2C
330
25
100
AcDbEntity
  8
YKK_ZWAK
  6
HIDDEN
 62
   131
100
AcDbLine
 10
24.284751
 20
13.7865
 30
0.0
 11
201.565005
 21
13.7865
 31
0.0
  0
LINE
  5
2E
330
25
100
AcDbEntity
  8
YKK_ZWAK
  6
HIDDEN
 62
   131
100
AcDbLine
 10
24.284751
 20
18.7355
 30
0.0
 11
201.565005
 21
18.7355
 31
0.0
  0
LINE
  5
2F
330
25
100
AcDbEntity
  8
YKK_ZWAK
  6
HIDDEN
 62
   131
100
AcDbLine
 10
24.284751
 20
23.684501
 30
0.0
 11
201.565005
 21
23.684501
 31
0.0
  0
LINE
  5
30
330
25
100
AcDbEntity
  8
YKK_ZWAK
  6
HIDDEN
 62
   131
100
AcDbLine
 10
24.284751
 20
28.633501
 30
0.0
 11
201.565005
 21
28.633501
 31
0.0
  0
LINE
  5
31
330
25
100
AcDbEntity
  8
YKK_ZWAK
  6
Continuous
 62
   254
100
AcDbLine
 10
21.000001
 20
8.9995
 30
0.0
 11
21.000001
 21
33.999501
 31
0.0
  0
TEXT
  5
32
330
25
100
AcDbEntity
  8
YKK_ZWAK
  6
Continuous
 62
   131
100
AcDbText
 10
24.367481
 20
29.394844
 30
0.0
 40
3.0
  1
変 更 記 事
 41
0.9
  7
YKK_OSSTYLE1
100
AcDbText
  0
TEXT
  5
34
330
25
100
AcDbEntity
  8
YKK_ZWAK
  6
Continuous
 62
   254
100
AcDbText
 10
289.94159
 20
12.3725
 30
0.0
 40
5.0
  1
殿
 41
0.9
  7
YKK_OSSTYLE1
100
AcDbText
  0
LINE
  5
35
330
25
100
AcDbEntity
  8
YKK_ZWAK
  6
Continuous
 62
   254
100
AcDbLine
 10
296.000007
 20
33.999501
 30
0.0
 11
296.000007
 21
8.9995
 31
0.0
  0
LINE
  5
36
330
25
100
AcDbEntity
  8
YKK_ZWAK
  6
Continuous
 62
   254
100
AcDbLine
 10
205.000005
 20
33.999501
 30
0.0
 11
205.000005
 21
8.9995
 31
0.0
  0
TEXT
  5
37
330
25
100
AcDbEntity
  8
YKK_ZWAK
  6
Continuous
 62
   131
100
AcDbText
 10
207.692335
 20
17.675001
 30
0.0
 40
3.0
  1
施　　工
 41
0.9
  7
YKK_OSSTYLE1
100
AcDbText
  0
TEXT
  5
38
330
25
100
AcDbEntity
  8
YKK_ZWAK
  6
Continuous
 62
   131
100
AcDbText
 10
207.692335
 20
30.047503
 30
0.0
 40
3.0
  1
設計監理
 41
0.9
  7
YKK_OSSTYLE1
100
AcDbText
  0
TEXT
  5
39
330
25
100
AcDbEntity
  8
YKK_ZWAK
  6
Continuous
 62
   254
100
AcDbText
 10
289.94159
 20
24.745001
 30
0.0
 40
5.0
  1
殿
 41
0.9
  7
YKK_OSSTYLE1
100
AcDbText
  0
LINE
  5
3A
330
25
100
AcDbEntity
  8
YKK_ZWAK
  6
Continuous
 62
   254
100
AcDbLine
 10
19.000001
 20
222.4995055
 30
0.0
 11
21.000001
 21
222.4995055
 31
0.0
  0
LINE
  5
3B
330
25
100
AcDbEntity
  8
YKK_ZWAK
  6
Continuous
 62
     8
100
AcDbLine
 10
296.010007
 20
411.99951
 30
0.0
 11
296.010007
 21
409.99951
 31
0.0
  0
LINE
  5
3C
330
25
100
AcDbEntity
  8
YKK_ZWAK
  6
Continuous
 62
   254
100
AcDbLine
 10
571.000014
 20
409.99951
 30
0.0
 11
571.000014
 21
34.999501
 31
0.0
  0
LINE
  5
3D
330
25
100
AcDbEntity
  8
YKK_ZWAK
  6
Continuous
 62
   254
100
AcDbLine
 10
452.000011
 20
15.9995
 30
0.0
 11
523.999763
 21
15.9995
 31
0.0
  0
LINE
  5
3E
330
25
100
AcDbEntity
  8
YKK_ZWAK
  6
Continuous
 62
   131
100
AcDbLine
 10
437.703011
 20
29.000001
 30
0.0
 11
389.00001
 21
29.000001
 31
0.0
  0
LINE
  5
3F
330
25
100
AcDbEntity
  8
YKK_ZWAK
  6
Continuous
 62
   254
100
AcDbLine
 10
389.00001
 20
33.999501
 30
0.0
 11
389.00001
 21
8.9995
 31
0.0
  0
LINE
  5
40
330
25
100
AcDbEntity
  8
YKK_ZWAK
  6
Continuous
 62
   131
100
AcDbLine
 10
297.000007
 20
21.000001
 30
0.0
 11
389.00001
 21
21.000001
 31
0.0
  0
TEXT
  5
41
330
25
100
AcDbEntity
  8
YKK_ZWAK
  6
Continuous
 62
   131
100
AcDbText
 10
298.58378403
 20
17.465002
 30
0.0
 40
3.0
  1
図面内容
 41
0.9
  7
YKK_OSSTYLE1
100
AcDbText
  0
TEXT
  5
42
330
25
100
AcDbEntity
  8
YKK_ZWAK
  6
Continuous
 62
   131
100
AcDbText
 10
298.86588
 20
30.047503
 30
0.0
 40
3.0
  1
工 事 名
 41
0.9
  7
YKK_OSSTYLE1
100
AcDbText
  0
TEXT
  5
43
330
25
100
AcDbEntity
  8
YKK_ZWAK
  6
Continuous
 62
   254
100
AcDbText
 10
377.16530176
 20
24.745001
 30
0.0
 40
5.0
  1
工事
 41
0.9
  7
YKK_OSSTYLE1
100
AcDbText
  0
LINE
  5
44
330
25
100
AcDbEntity
  8
YKK_ZWAK
  6
Continuous
 62
   254
100
AcDbLine
 10
452.000011
 20
33.999501
 30
0.0
 11
452.000011
 21
8.9995
 31
0.0
  0
LINE
  5
45
330
25
100
AcDbEntity
  8
YKK_ZWAK
  6
Continuous
 62
   254
100
AcDbLine
 10
437.000011
 20
33.999501
 30
0.0
 11
437.000011
 21
8.9995
 31
0.0
  0
LINE
  5
46
330
25
100
AcDbEntity
  8
YKK_ZWAK
  6
Continuous
 62
   131
100
AcDbLine
 10
443.051603
 20
10.181617
 30
0.0
 11
449.854371
 21
16.984384
 31
0.0
  0
LINE
  5
47
330
25
100
AcDbEntity
  8
YKK_ZWAK
  6
Continuous
 62
   131
100
AcDbLine
 10
421.00001
 20
33.999501
 30
0.0
 11
421.00001
 21
8.9995
 31
0.0
  0
LINE
  5
48
330
25
100
AcDbEntity
  8
YKK_ZWAK
  6
Continuous
 62
   131
100
AcDbLine
 10
405.00001
 20
33.999501
 30
0.0
 11
405.00001
 21
8.9995
 31
0.0
  0
TEXT
  5
49
330
25
100
AcDbEntity
  8
YKK_ZWAK
  6
Continuous
 62
   131
100
AcDbText
 10
392.18209354
 20
9.752325
 30
0.0
 40
3.5
  1
 ． ．
 41
0.9
  7
YKK_OSSTYLE1
100
AcDbText
  0
LINE
  5
4A
330
25
100
AcDbEntity
  8
YKK_ZWAK
  6
Continuous
 62
   131
100
AcDbLine
 10
455.5999986
 20
10.4995
 30
0.0
 11
455.5999986
 21
8.9995
 31
0.0
  0
TEXT
  5
4B
330
25
100
AcDbEntity
  8
YKK_ZWAK
  6
Continuous
 62
   131
100
AcDbText
 10
407.8246491
 20
29.87075
 30
0.0
 40
3.0
  1
担  当
 41
0.9
  7
YKK_OSSTYLE1
100
AcDbText
  0
TEXT
  5
4C
330
25
100
AcDbEntity
  8
YKK_ZWAK
  6
Continuous
 62
   131
100
AcDbText
 10
392.5636631
 20
29.87075
 30
0.0
 40
3.0
  1
照  査
 41
0.9
  7
YKK_OSSTYLE1
100
AcDbText
  0
TEXT
  5
4D
330
25
100
AcDbEntity
  8
YKK_ZWAK
  6
Continuous
 62
   131
100
AcDbText
 10
424.0856971
 20
29.883751
 30
0.0
 40
3.0
  1
作  図
 41
0.9
  7
YKK_OSSTYLE1
100
AcDbText
  0
TEXT
  5
4E
330
25
100
AcDbEntity
  8
YKK_ZWAK
  6
Continuous
 62
   131
100
AcDbText
 10
453.905095
 20
30.047501
 30
0.0
 40
3.0
  1
御承認印
 41
0.9
  7
YKK_OSSTYLE1
100
AcDbText
  0
LINE
  5
4F
330
25
100
AcDbEntity
  8
YKK_ZWAK
  6
Continuous
 62
   131
100
AcDbLine
 10
437.703011
 20
29.000001
 30
0.0
 11
452.000011
 21
29.000001
 31
0.0
  0
LINE
  5
50
330
25
100
AcDbEntity
  8
YKK_ZWAK
  6
Continuous
 62
   131
100
AcDbLine
 10
439.264403
 20
21.330812
 30
0.0
 11
446.188247
 21
28.254656
 31
0.0
  0
TEXT
  5
51
330
25
100
AcDbEntity
  8
YKK_ZWAK
  6
Continuous
 62
   131
100
AcDbText
 10
439.5087681
 20
30.044463
 30
0.0
 40
3.0
  1
尺  度
 41
0.9
  7
YKK_OSSTYLE1
100
AcDbText
  0
CIRCLE
  5
52
330
25
100
AcDbEntity
  8
YKK_ZWAK
  6
Continuous
 62
     8
100
AcDbCircle
 10
579.426014
 20
83.719502
 30
0.0
 40
6.299999999999999
  0
LINE
  5
53
330
25
100
AcDbEntity
  8
YKK_ZWAK
  6
Continuous
 62
     8
100
AcDbLine
 10
573.126014
 20
69.579502
 30
0.0
 11
585.726014
 21
69.579502
 31
0.0
  0
LINE
  5
54
330
25
100
AcDbEntity
  8
YKK_ZWAK
  6
Continuous
 62
     8
100
AcDbLine
 10
573.126014
 20
55.439501
 30
0.0
 11
585.726014
 21
55.439501
 31
0.0
  0
CIRCLE
  5
55
330
25
100
AcDbEntity
  8
YKK_ZWAK
  6
Continuous
 62
     8
100
AcDbCircle
 10
579.426014
 20
69.579502
 30
0.0
 40
6.299999999999999
  0
CIRCLE
  5
56
330
25
100
AcDbEntity
  8
YKK_ZWAK
  6
Continuous
 62
     8
100
AcDbCircle
 10
579.426014
 20
55.439501
 30
0.0
 40
6.299999999999999
  0
LINE
  5
57
330
25
100
AcDbEntity
  8
YKK_ZWAK
  6
Continuous
 62
     8
100
AcDbLine
 10
573.126014
 20
41.299501
 30
0.0
 11
585.726014
 21
41.299501
 31
0.0
  0
CIRCLE
  5
58
330
25
100
AcDbEntity
  8
YKK_ZWAK
  6
Continuous
 62
     8
100
AcDbCircle
 10
579.426014
 20
41.299501
 30
0.0
 40
6.299999999999999
  0
LINE
  5
59
330
25
100
AcDbEntity
  8
YKK_ZWAK
  6
Continuous
 62
   254
100
AcDbLine
 10
544.000013
 20
33.999501
 30
0.0
 11
544.000013
 21
8.9995
 31
0.0
  0
LINE
  5
5A
330
25
100
AcDbEntity
  8
YKK_ZWAK
  6
Continuous
 62
   254
100
AcDbLine
 10
523.999763
 20
33.999501
 30
0.0
 11
523.999763
 21
8.9995
 31
0.0
  0
ARC
  5
5B
330
25
100
AcDbEntity
  8
YKK_ZWAK
  6
Continuous
 62
   254
100
AcDbCircle
 10
567.23923515
 20
16.32442811
 30
0.0
 40
3.065267824757687
100
AcDbArc
 50
285.44291453
 51
349.90448123
  0
ARC
  5
5C
330
25
100
AcDbEntity
  8
YKK_ZWAK
  6
Continuous
 62
   254
100
AcDbCircle
 10
553.606314
 20
13.7174867
 30
0.0
 40
7.916047100361496
100
AcDbArc
 50
168.7637177
 51
199.80079153
  0
ARC
  5
5D
330
25
100
AcDbEntity
  8
YKK_ZWAK
  6
Continuous
 62
   254
100
AcDbCircle
 10
550.84442657
 20
13.7651724
 30
0.0
 40
1.69178303147034
100
AcDbArc
 50
171.08203026
 51
216.71922793
  0
LINE
  5
5E
330
25
100
AcDbEntity
  8
YKK_ZWAK
  6
Continuous
 62
   254
100
AcDbLine
 10
562.610947
 20
9.566381
 30
0.0
 11
562.610947
 21
20.243049
 31
0.0
  0
LINE
  5
5F
330
25
100
AcDbEntity
  8
YKK_ZWAK
  6
Continuous
 62
   254
100
AcDbLine
 10
559.019868
 20
23.216355
 30
0.0
 11
559.019868
 21
9.566381
 31
0.0
  0
LINE
  5
60
330
25
100
AcDbEntity
  8
YKK_ZWAK
  6
Continuous
 62
   254
100
AcDbLine
 10
557.513933
 20
20.011363
 30
0.0
 11
557.513933
 21
9.585666
 31
0.0
  0
LINE
  5
61
330
25
100
AcDbEntity
  8
YKK_ZWAK
  6
Continuous
 62
   254
100
AcDbLine
 10
554.019393
 20
12.520312
 30
0.0
 11
554.019393
 21
19.470807
 31
0.0
  0
LINE
  5
62
330
25
100
AcDbEntity
  8
YKK_ZWAK
  6
Continuous
 62
   254
100
AcDbLine
 10
557.28225
 20
9.547052
 30
0.0
 11
549.405042
 21
9.527722
 31
0.0
  0
LINE
  5
63
330
25
100
AcDbEntity
  8
YKK_ZWAK
  6
Continuous
 62
   254
100
AcDbLine
 10
550.00355
 20
12.520312
 30
0.0
 11
554.019393
 21
12.520312
 31
0.0
  0
ARC
  5
64
330
25
100
AcDbEntity
  8
YKK_ZWAK
  6
Continuous
 62
   254
100
AcDbCircle
 10
548.60007313
 20
12.25485189
 30
0.0
 40
2.730646981973357
100
AcDbArc
 50
207.31435415
 51
263.59464075
  0
ARC
  5
65
330
25
100
AcDbEntity
  8
YKK_ZWAK
  6
Continuous
 62
   254
100
AcDbCircle
 10
550.17864126
 20
13.59595698
 30
0.0
 40
1.089801345776779
100
AcDbArc
 50
230.97279559
 51
260.75491133
  0
LINE
  5
66
330
25
100
AcDbEntity
  8
YKK_ZWAK
  6
Continuous
 62
   254
100
AcDbLine
 10
549.405042
 20
9.527722
 30
0.0
 11
548.343169
 21
9.527722
 31
0.0
  0
LINE
  5
67
330
25
100
AcDbEntity
  8
YKK_ZWAK
  6
Continuous
 62
   254
100
AcDbLine
 10
557.513933
 20
9.585666
 30
0.0
 11
557.28225
 21
9.547052
 31
0.0
  0
LINE
  5
68
330
25
100
AcDbEntity
  8
YKK_ZWAK
  6
Continuous
 62
   254
100
AcDbLine
 10
553.71047
 20
12.520312
 30
0.0
 11
553.961471
 21
12.520312
 31
0.0
  0
LINE
  5
69
330
25
100
AcDbEntity
  8
YKK_ZWAK
  6
Continuous
 62
   254
100
AcDbLine
 10
554.019393
 20
12.521084
 30
0.0
 11
554.020164
 21
12.520312
 31
0.0
  0
LINE
  5
6A
330
25
100
AcDbEntity
  8
YKK_ZWAK
  6
Continuous
 62
   254
100
AcDbLine
 10
562.051042
 20
9.566381
 30
0.0
 11
562.610947
 21
9.566381
 31
0.0
  0
LINE
  5
6B
330
25
100
AcDbEntity
  8
YKK_ZWAK
  6
Continuous
 62
   254
100
AcDbLine
 10
559.019868
 20
9.566381
 30
0.0
 11
562.051042
 21
9.566381
 31
0.0
  0
TEXT
  5
6C
330
25
100
AcDbEntity
  8
YKK_ZWAK
  6
Continuous
 62
   131
100
AcDbText
 10
528.4269094
 20
29.81226201
 30
0.0
 40
3.2
  1
図　番
 41
0.9
  7
YKK_OSSTYLE1
100
AcDbText
  0
TEXT
  5
6D
330
25
100
AcDbEntity
  8
YKK_ZWAK
  6
Continuous
 62
   131
100
AcDbText
 10
526.62767404
 20
16.79627903
 30
0.0
 40
3.2
  1
通し図番
 41
0.9
  7
YKK_OSSTYLE1
100
AcDbText
  0
LINE
  5
6E
330
25
100
AcDbEntity
  8
YKK_ZWAK
  6
Continuous
 62
   131
100
AcDbLine
 10
523.999763
 20
28.999501
 30
0.0
 11
544.000013
 21
28.999501
 31
0.0
  0
LINE
  5
6F
330
25
100
AcDbEntity
  8
YKK_ZWAK
  6
Continuous
 62
   131
100
AcDbLine
 10
544.000013
 20
16.0
 30
0.0
 11
523.999763
 21
16.0
 31
0.0
  0
LINE
  5
70
330
25
100
AcDbEntity
  8
YKK_ZWAK
  6
Continuous
 62
   254
100
AcDbLine
 10
523.999763
 20
21.000001
 30
0.0
 11
544.000013
 21
21.000001
 31
0.0
  0
TEXT
  5
71
330
25
100
AcDbEntity
  8
YKK_ZWAK
  6
Continuous
 62
   131
100
AcDbText
 10
504.12596439
 20
16.73585252
 30
0.0
 40
2.828
  1
年   月   日
 41
0.9
  7
YKK_OSSTYLE1
100
AcDbText
  0
ARC
  5
72
330
25
100
AcDbEntity
  8
YKK_ZWAK
  6
Continuous
 62
   254
100
AcDbCircle
 10
550.80023932
 20
8.38955158
 30
0.0
 40
9.506414110787718
100
AcDbArc
 50
79.38097908
 51
112.0582515
  0
ARC
  5
73
330
25
100
AcDbEntity
  8
YKK_ZWAK
  6
Continuous
 62
   254
100
AcDbCircle
 10
552.02960157
 20
8.66870802
 30
0.0
 40
14.82019555938878
100
AcDbArc
 50
78.78009532
 51
91.46937906
  0
LINE
  5
74
330
25
100
AcDbEntity
  8
YKK_ZWAK
  6
Continuous
 62
   254
100
AcDbLine
 10
553.247106
 20
20.281664
 30
0.0
 11
550.60589668
 21
20.23169161
 31
0.0
  0
LINE
  5
75
330
25
100
AcDbEntity
  8
YKK_ZWAK
  6
Continuous
 62
   254
100
AcDbLine
 10
553.054042
 20
15.04953
 30
0.0
 11
550.200893
 21
15.046227
 31
0.0
  0
LINE
  5
76
330
25
100
AcDbEntity
  8
YKK_ZWAK
  6
Continuous
 62
   254
100
AcDbLine
 10
554.187226
 20
33.42965
 30
0.0
 11
550.949599
 21
27.69553
 31
0.0
  0
LINE
  5
77
330
25
100
AcDbEntity
  8
YKK_ZWAK
  6
Continuous
 62
   254
100
AcDbLine
 10
551.59718
 20
33.42965
 30
0.0
 11
554.187226
 21
33.42965
 31
0.0
  0
LINE
  5
78
330
25
100
AcDbEntity
  8
YKK_ZWAK
  6
Continuous
 62
   254
100
AcDbLine
 10
548.594154
 20
27.714815
 30
0.0
 11
545.311979
 21
33.352466
 31
0.0
  0
ARC
  5
79
330
25
100
AcDbEntity
  8
YKK_ZWAK
  6
Continuous
 62
   254
100
AcDbCircle
 10
549.68520483
 20
20.30975154
 30
0.0
 40
3.598113650678814
100
AcDbArc
 50
158.41083245
 51
179.71775245
  0
ARC
  5
7A
330
25
100
AcDbEntity
  8
YKK_ZWAK
  6
Continuous
 62
   254
100
AcDbCircle
 10
548.59054743
 20
14.76560333
 30
0.0
 40
2.791490107652263
100
AcDbArc
 50
121.82711365
 51
169.08474902
  0
LINE
  5
7B
330
25
100
AcDbEntity
  8
YKK_ZWAK
  6
Continuous
 62
   254
100
AcDbLine
 10
549.405042
 20
18.949491
 30
0.0
 11
546.084266
 21
18.949491
 31
0.0
  0
LINE
  5
7C
330
25
100
AcDbEntity
  8
YKK_ZWAK
  6
Continuous
 62
   254
100
AcDbLine
 10
546.084266
 20
18.949491
 30
0.0
 11
546.084266
 21
20.32747631
 31
0.0
  0
ARC
  5
7D
330
25
100
AcDbEntity
  8
YKK_ZWAK
  6
Continuous
 62
   254
100
AcDbCircle
 10
550.20700835
 20
14.01426078
 30
0.0
 40
1.031984336873053
100
AcDbArc
 50
90.33952634
 51
178.0363902
  0
ARC
  5
7E
330
25
100
AcDbEntity
  8
YKK_ZWAK
  6
Continuous
 62
   254
100
AcDbCircle
 10
550.91098672
 20
18.99454401
 30
0.0
 40
1.5066184932453
100
AcDbArc
 50
138.46381796
 51
181.71359389
  0
ARC
  5
7F
330
25
100
AcDbEntity
  8
YKK_ZWAK
  6
Continuous
 62
   254
100
AcDbCircle
 10
550.51068793
 20
19.02046023
 30
0.0
 40
1.214967561291876
100
AcDbArc
 50
85.50551117
 51
126.78038212
  0
ARC
  5
80
330
25
100
AcDbEntity
  8
YKK_ZWAK
  6
Continuous
 62
   254
100
AcDbCircle
 10
548.00461954
 20
21.10278181
 30
0.0
 40
1.745462511199758
100
AcDbArc
 50
109.02126645
 51
161.5126404
  0
ARC
  5
81
330
25
100
AcDbEntity
  8
YKK_ZWAK
  6
Continuous
 62
   254
100
AcDbCircle
 10
551.65872095
 20
10.85588209
 30
0.0
 40
12.62863449008531
100
AcDbArc
 50
89.89164773
 51
109.30848271
  0
LINE
  5
82
330
25
100
AcDbEntity
  8
YKK_ZWAK
  6
Continuous
 62
   254
100
AcDbLine
 10
548.594154
 20
24.529198
 30
0.0
 11
548.594154
 21
27.714815
 31
0.0
  0
LINE
  5
83
330
25
100
AcDbEntity
  8
YKK_ZWAK
  6
Continuous
 62
   254
100
AcDbLine
 10
550.949599
 20
24.529198
 30
0.0
 11
548.594154
 21
24.529198
 31
0.0
  0
LINE
  5
84
330
25
100
AcDbEntity
  8
YKK_ZWAK
  6
Continuous
 62
   254
100
AcDbLine
 10
550.949599
 20
27.69553
 30
0.0
 11
550.949599
 21
24.529198
 31
0.0
  0
LINE
  5
85
330
25
100
AcDbEntity
  8
YKK_ZWAK
  6
Continuous
 62
   254
100
AcDbLine
 10
545.311979
 20
33.352466
 30
0.0
 11
547.821884
 21
33.352466
 31
0.0
  0
LINE
  5
86
330
25
100
AcDbEntity
  8
YKK_ZWAK
  6
Continuous
 62
   254
100
AcDbLine
 10
551.59718
 20
33.42965
 30
0.0
 11
549.771867
 21
29.877219
 31
0.0
  0
LINE
  5
87
330
25
100
AcDbEntity
  8
YKK_ZWAK
  6
Continuous
 62
   254
100
AcDbLine
 10
549.617423
 20
29.993062
 30
0.0
 11
549.771867
 21
29.877219
 31
0.0
  0
LINE
  5
88
330
25
100
AcDbEntity
  8
YKK_ZWAK
  6
Continuous
 62
   254
100
AcDbLine
 10
547.821884
 20
33.352466
 30
0.0
 11
549.617423
 21
29.993062
 31
0.0
  0
ARC
  5
89
330
25
100
AcDbEntity
  8
YKK_ZWAK
  6
Continuous
 62
   254
100
AcDbCircle
 10
568.28604917
 20
28.29398617
 30
0.0
 40
1.544618833868573
100
AcDbArc
 50
0.00166292
 51
89.99603715
  0
ARC
  5
8A
330
25
100
AcDbEntity
  8
YKK_ZWAK
  6
Continuous
 62
   254
100
AcDbCircle
 10
559.98514917
 20
28.23604217
 30
0.0
 40
1.544618833868573
100
AcDbArc
 50
0.00166292
 51
89.99603715
  0
LINE
  5
8B
330
25
100
AcDbEntity
  8
YKK_ZWAK
  6
Continuous
 62
   254
100
AcDbLine
 10
562.553028
 20
24.625712
 30
0.0
 11
562.553028
 21
33.487594
 31
0.0
  0
LINE
  5
8C
330
25
100
AcDbEntity
  8
YKK_ZWAK
  6
Continuous
 62
   254
100
AcDbLine
 10
554.328297
 20
24.548527
 30
0.0
 11
554.328297
 21
33.410366
 31
0.0
  0
LINE
  5
8D
330
25
100
AcDbEntity
  8
YKK_ZWAK
  6
Continuous
 62
   254
100
AcDbLine
 10
564.985674
 20
24.625712
 30
0.0
 11
562.553028
 21
24.625712
 31
0.0
  0
LINE
  5
8E
330
25
100
AcDbEntity
  8
YKK_ZWAK
  6
Continuous
 62
   254
100
AcDbLine
 10
567.302491
 20
23.216355
 30
0.0
 11
559.019868
 21
23.216355
 31
0.0
  0
LINE
  5
8F
330
25
100
AcDbEntity
  8
YKK_ZWAK
  6
Continuous
 62
   254
100
AcDbLine
 10
563.479759
 20
13.196086
 30
0.0
 11
567.283206
 21
13.196086
 31
0.0
  0
LINE
  5
90
330
25
100
AcDbEntity
  8
YKK_ZWAK
  6
Continuous
 62
   254
100
AcDbLine
 10
566.008932
 20
16.150017
 30
0.0
 11
563.479759
 21
16.150017
 31
0.0
  0
LINE
  5
91
330
25
100
AcDbEntity
  8
YKK_ZWAK
  6
Continuous
 62
   254
100
AcDbLine
 10
562.610947
 20
20.243049
 30
0.0
 11
565.931704
 21
20.243049
 31
0.0
  0
ARC
  5
92
330
25
100
AcDbEntity
  8
YKK_ZWAK
  6
Continuous
 62
   254
100
AcDbCircle
 10
554.22066
 20
20.08146332
 30
0.0
 40
3.294016994121146
100
AcDbArc
 50
358.78059045
 51
38.76562608
  0
ARC
  5
93
330
25
100
AcDbEntity
  8
YKK_ZWAK
  6
Continuous
 62
   254
100
AcDbCircle
 10
552.89717617
 20
19.17519964
 30
0.0
 40
1.16048018439929
100
AcDbArc
 50
14.7551995
 51
72.44994796
  0
LINE
  5
94
330
25
100
AcDbEntity
  8
YKK_ZWAK
  6
Continuous
 62
   254
100
AcDbLine
 10
553.054042
 20
17.617318
 30
0.0
 11
553.054042
 21
15.04953
 31
0.0
  0
LINE
  5
95
330
25
100
AcDbEntity
  8
YKK_ZWAK
  6
Continuous
 62
   254
100
AcDbLine
 10
552.552059
 20
17.733161
 30
0.0
 11
553.054042
 21
17.617318
 31
0.0
  0
LINE
  5
96
330
25
100
AcDbEntity
  8
YKK_ZWAK
  6
Continuous
 62
   254
100
AcDbLine
 10
563.479759
 20
16.150017
 30
0.0
 11
563.479759
 21
13.196086
 31
0.0
  0
LINE
  5
97
330
25
100
AcDbEntity
  8
YKK_ZWAK
  6
Continuous
 62
   254
100
AcDbLine
 10
558.981248
 20
27.869273
 30
0.0
 11
556.703043
 21
27.869273
 31
0.0
  0
ARC
  5
98
330
25
100
AcDbEntity
  8
YKK_ZWAK
  6
Continuous
 62
   254
100
AcDbCircle
 10
554.37879626
 20
20.07343796
 30
0.0
 40
3.177485297559325
100
AcDbArc
 50
40.66422291
 51
80.31693569
  0
LINE
  5
99
330
25
100
AcDbEntity
  8
YKK_ZWAK
  6
Continuous
 62
   254
100
AcDbLine
 10
556.703043
 20
24.548527
 30
0.0
 11
554.328297
 21
24.548527
 31
0.0
  0
LINE
  5
9A
330
25
100
AcDbEntity
  8
YKK_ZWAK
  6
Continuous
 62
   254
100
AcDbLine
 10
556.703043
 20
27.869273
 30
0.0
 11
556.703043
 21
24.548527
 31
0.0
  0
LINE
  5
9B
330
25
100
AcDbEntity
  8
YKK_ZWAK
  6
Continuous
 62
   254
100
AcDbLine
 10
561.529756
 20
28.236131
 30
0.0
 11
561.529756
 21
24.606427
 31
0.0
  0
LINE
  5
9C
330
25
100
AcDbEntity
  8
YKK_ZWAK
  6
Continuous
 62
   254
100
AcDbLine
 10
559.290171
 20
27.75343
 30
0.0
 11
558.981248
 21
27.869273
 31
0.0
  0
LINE
  5
9D
330
25
100
AcDbEntity
  8
YKK_ZWAK
  6
Continuous
 62
   254
100
AcDbLine
 10
559.290171
 20
24.606427
 30
0.0
 11
559.290171
 21
27.75343
 31
0.0
  0
LINE
  5
9E
330
25
100
AcDbEntity
  8
YKK_ZWAK
  6
Continuous
 62
   254
100
AcDbLine
 10
561.529756
 20
24.606427
 30
0.0
 11
559.290171
 21
24.606427
 31
0.0
  0
ARC
  5
9F
330
25
100
AcDbEntity
  8
YKK_ZWAK
  6
Continuous
 62
   254
100
AcDbCircle
 10
567.19412132
 20
20.11358836
 30
0.0
 40
3.10079004118515
100
AcDbArc
 50
14.44572328
 51
87.08746338
  0
ARC
  5
A0
330
25
100
AcDbEntity
  8
YKK_ZWAK
  6
Continuous
 62
   254
100
AcDbCircle
 10
564.36413966
 20
17.54165325
 30
0.0
 40
2.640498151312115
100
AcDbArc
 50
343.69020327
 51
354.7536235
  0
ARC
  5
A1
330
25
100
AcDbEntity
  8
YKK_ZWAK
  6
Continuous
 62
   254
100
AcDbCircle
 10
566.00966971
 20
17.08269286
 30
0.0
 40
0.9326761550249523
100
AcDbArc
 50
269.95468111
 51
342.90144849
  0
ARC
  5
A2
330
25
100
AcDbEntity
  8
YKK_ZWAK
  6
Continuous
 62
   254
100
AcDbCircle
 10
566.04623887
 20
19.3715952
 30
0.0
 40
0.8777839045469994
100
AcDbArc
 50
16.43123457
 51
96.91661396
  0
ARC
  5
A3
330
25
100
AcDbEntity
  8
YKK_ZWAK
  6
Continuous
 62
   254
100
AcDbCircle
 10
564.37945167
 20
18.85119468
 30
0.0
 40
2.623848066620805
100
AcDbArc
 50
4.93422741
 51
17.03551963
  0
LINE
  5
A4
330
25
100
AcDbEntity
  8
YKK_ZWAK
  6
Continuous
 62
   254
100
AcDbLine
 10
567.283206
 20
13.196086
 30
0.0
 11
568.055449
 21
13.369828
 31
0.0
  0
LINE
  5
A5
330
25
100
AcDbEntity
  8
YKK_ZWAK
  6
Continuous
 62
   254
100
AcDbLine
 10
566.980872
 20
19.173458
 30
0.0
 11
566.993576
 21
17.29190622
 31
0.0
  0
ARC
  5
A6
330
25
100
AcDbEntity
  8
YKK_ZWAK
  6
Continuous
 62
   254
100
AcDbCircle
 10
555.54697452
 20
18.15146785
 30
0.0
 40
14.90004285451682
100
AcDbArc
 50
350.99026817
 51
10.67624521
  0
LINE
  5
A7
330
25
100
AcDbEntity
  8
YKK_ZWAK
  6
Continuous
 62
   254
100
AcDbLine
 10
569.831709
 20
24.645041
 30
0.0
 11
567.572791
 21
24.645041
 31
0.0
  0
LINE
  5
A8
330
25
100
AcDbEntity
  8
YKK_ZWAK
  6
Continuous
 62
   254
100
AcDbLine
 10
567.572791
 20
27.772759
 30
0.0
 11
567.263877
 21
27.888602
 31
0.0
  0
LINE
  5
A9
330
25
100
AcDbEntity
  8
YKK_ZWAK
  6
Continuous
 62
   254
100
AcDbLine
 10
567.263877
 20
27.888602
 30
0.0
 11
564.985674
 21
27.888602
 31
0.0
  0
LINE
  5
AA
330
25
100
AcDbEntity
  8
YKK_ZWAK
  6
Continuous
 62
   254
100
AcDbLine
 10
564.985674
 20
27.888602
 30
0.0
 11
564.985674
 21
24.625712
 31
0.0
  0
LINE
  5
AB
330
25
100
AcDbEntity
  8
YKK_ZWAK
  6
Continuous
 62
   254
100
AcDbLine
 10
567.572791
 20
24.645041
 30
0.0
 11
567.572791
 21
27.772759
 31
0.0
  0
LINE
  5
AC
330
25
100
AcDbEntity
  8
YKK_ZWAK
  6
Continuous
 62
   254
100
AcDbLine
 10
567.572791
 20
24.681182
 30
0.0
 11
567.608933
 21
24.645041
 31
0.0
  0
LINE
  5
AD
330
25
100
AcDbEntity
  8
YKK_ZWAK
  6
Continuous
 62
   254
100
AcDbLine
 10
569.831709
 20
28.236131
 30
0.0
 11
569.831709
 21
24.645041
 31
0.0
  0
LINE
  5
AE
330
25
100
AcDbEntity
  8
YKK_ZWAK
  6
Continuous
 62
   254
100
AcDbLine
 10
562.553028
 20
33.487594
 30
0.0
 11
564.889116
 21
33.487594
 31
0.0
  0
LINE
  5
AF
330
25
100
AcDbEntity
  8
YKK_ZWAK
  6
Continuous
 62
   254
100
AcDbLine
 10
556.625823
 20
29.768591
 30
0.0
 11
559.03917
 21
33.44898
 31
0.0
  0
LINE
  5
B0
330
25
100
AcDbEntity
  8
YKK_ZWAK
  6
Continuous
 62
   254
100
AcDbLine
 10
556.625823
 20
33.410366
 30
0.0
 11
556.625823
 21
29.768591
 31
0.0
  0
LINE
  5
B1
330
25
100
AcDbEntity
  8
YKK_ZWAK
  6
Continuous
 62
   254
100
AcDbLine
 10
554.328297
 20
33.410366
 30
0.0
 11
556.625823
 21
33.410366
 31
0.0
  0
LINE
  5
B2
330
25
100
AcDbEntity
  8
YKK_ZWAK
  6
Continuous
 62
   254
100
AcDbLine
 10
559.985256
 20
29.780661
 30
0.0
 11
559.242942
 21
29.780661
 31
0.0
  0
LINE
  5
B3
330
25
100
AcDbEntity
  8
YKK_ZWAK
  6
Continuous
 62
   254
100
AcDbLine
 10
561.771363
 20
33.44898
 30
0.0
 11
559.242942
 21
29.780661
 31
0.0
  0
LINE
  5
B4
330
25
100
AcDbEntity
  8
YKK_ZWAK
  6
Continuous
 62
   254
100
AcDbLine
 10
559.03917
 20
33.44898
 30
0.0
 11
561.771363
 21
33.44898
 31
0.0
  0
LINE
  5
B5
330
25
100
AcDbEntity
  8
YKK_ZWAK
  6
Continuous
 62
   254
100
AcDbLine
 10
569.773765
 20
33.024222
 30
0.0
 11
567.543842
 21
29.838605
 31
0.0
  0
LINE
  5
B6
330
25
100
AcDbEntity
  8
YKK_ZWAK
  6
Continuous
 62
   254
100
AcDbLine
 10
567.341105
 20
33.487594
 30
0.0
 11
570.044065
 21
33.487594
 31
0.0
  0
LINE
  5
B7
330
25
100
AcDbEntity
  8
YKK_ZWAK
  6
Continuous
 62
   254
100
AcDbLine
 10
568.286156
 20
29.838605
 30
0.0
 11
567.543842
 21
29.838605
 31
0.0
  0
LINE
  5
B8
330
25
100
AcDbEntity
  8
YKK_ZWAK
  6
Continuous
 62
   254
100
AcDbLine
 10
564.889116
 20
29.779236
 30
0.0
 11
567.341105
 21
33.487594
 31
0.0
  0
LINE
  5
B9
330
25
100
AcDbEntity
  8
YKK_ZWAK
  6
Continuous
 62
   254
100
AcDbLine
 10
564.889116
 20
33.487594
 30
0.0
 11
564.889116
 21
29.779236
 31
0.0
  0
LINE
  5
BA
330
25
100
AcDbEntity
  8
YKK_ZWAK
  6
Continuous
 62
   254
100
AcDbLine
 10
570.044065
 20
33.487594
 30
0.0
 11
569.773765
 21
33.024222
 31
0.0
  0
LINE
  5
BB
330
25
100
AcDbEntity
  8
YKK_ZWAK
  6
Continuous
 62
     8
100
AcDbLine
 10
573.126014
 20
168.559504
 30
0.0
 11
585.726014
 21
168.559504
 31
0.0
  0
LINE
  5
BC
330
25
100
AcDbEntity
  8
YKK_ZWAK
  6
Continuous
 62
     8
100
AcDbLine
 10
573.126014
 20
154.419504
 30
0.0
 11
585.726014
 21
154.419504
 31
0.0
  0
LINE
  5
BD
330
25
100
AcDbEntity
  8
YKK_ZWAK
  6
Continuous
 62
     8
100
AcDbLine
 10
573.126014
 20
140.279503
 30
0.0
 11
585.726014
 21
140.279503
 31
0.0
  0
LINE
  5
BE
330
25
100
AcDbEntity
  8
YKK_ZWAK
  6
Continuous
 62
     8
100
AcDbLine
 10
573.126014
 20
126.139503
 30
0.0
 11
585.726014
 21
126.139503
 31
0.0
  0
LINE
  5
BF
330
25
100
AcDbEntity
  8
YKK_ZWAK
  6
Continuous
 62
     8
100
AcDbLine
 10
573.126014
 20
111.999503
 30
0.0
 11
585.726014
 21
111.999503
 31
0.0
  0
LINE
  5
C0
330
25
100
AcDbEntity
  8
YKK_ZWAK
  6
Continuous
 62
     8
100
AcDbLine
 10
573.126014
 20
97.859502
 30
0.0
 11
585.726014
 21
97.859502
 31
0.0
  0
LINE
  5
C1
330
25
100
AcDbEntity
  8
YKK_ZWAK
  6
Continuous
 62
     8
100
AcDbLine
 10
573.126014
 20
83.719502
 30
0.0
 11
585.726014
 21
83.719502
 31
0.0
  0
CIRCLE
  5
C2
330
25
100
AcDbEntity
  8
YKK_ZWAK
  6
Continuous
 62
     8
100
AcDbCircle
 10
579.426014
 20
168.559504
 30
0.0
 40
6.299999999999999
  0
CIRCLE
  5
C3
330
25
100
AcDbEntity
  8
YKK_ZWAK
  6
Continuous
 62
     8
100
AcDbCircle
 10
579.426014
 20
140.279503
 30
0.0
 40
6.299999999999999
  0
CIRCLE
  5
C4
330
25
100
AcDbEntity
  8
YKK_ZWAK
  6
Continuous
 62
     8
100
AcDbCircle
 10
579.426014
 20
111.999503
 30
0.0
 40
6.299999999999999
  0
CIRCLE
  5
C5
330
25
100
AcDbEntity
  8
YKK_ZWAK
  6
Continuous
 62
     8
100
AcDbCircle
 10
579.426014
 20
154.419504
 30
0.0
 40
6.299999999999999
  0
CIRCLE
  5
C6
330
25
100
AcDbEntity
  8
YKK_ZWAK
  6
Continuous
 62
     8
100
AcDbCircle
 10
579.426014
 20
126.139503
 30
0.0
 40
6.299999999999999
  0
CIRCLE
  5
C7
330
25
100
AcDbEntity
  8
YKK_ZWAK
  6
Continuous
 62
     8
100
AcDbCircle
 10
579.426014
 20
97.859502
 30
0.0
 40
6.299999999999999
  0
LINE
  5
C8
330
25
100
AcDbEntity
  8
YKK_ZWAK
  6
Continuous
 62
   254
100
AcDbLine
 10
571.000014
 20
222.4995055
 30
0.0
 11
573.000014
 21
222.4995055
 31
0.0
  0
TEXT
  5
C9
330
25
100
AcDbEntity
  8
YKK_ZWAK
  6
Continuous
 62
   131
100
AcDbText
 10
408.18209354
 20
9.752325
 30
0.0
 40
3.5
  1
 ． ．
 41
0.9
  7
YKK_OSSTYLE1
100
AcDbText
  0
TEXT
  5
CA
330
25
100
AcDbEntity
  8
YKK_ZWAK
  6
Continuous
 62
   131
100
AcDbText
 10
424.18209354
 20
9.752325
 30
0.0
 40
3.5
  1
 ． ．
 41
0.9
  7
YKK_OSSTYLE1
100
AcDbText
  0
LINE
  5
CB
330
25
100
AcDbEntity
  8
YKK_ZWAK
  6
Continuous
 62
   131
100
AcDbLine
 10
459.1999862
 20
10.4995
 30
0.0
 11
459.1999862
 21
8.9995
 31
0.0
  0
LINE
  5
CC
330
25
100
AcDbEntity
  8
YKK_ZWAK
  6
Continuous
 62
   131
100
AcDbLine
 10
462.7999738
 20
10.4995
 30
0.0
 11
462.7999738
 21
8.9995
 31
0.0
  0
LINE
  5
CD
330
25
100
AcDbEntity
  8
YKK_ZWAK
  6
Continuous
 62
   131
100
AcDbLine
 10
466.3999614
 20
10.4995
 30
0.0
 11
466.3999614
 21
8.9995
 31
0.0
  0
LINE
  5
CE
330
25
100
AcDbEntity
  8
YKK_ZWAK
  6
Continuous
 62
   131
100
AcDbLine
 10
469.999949
 20
10.4995
 30
0.0
 11
469.999949
 21
8.9995
 31
0.0
  0
LINE
  5
CF
330
25
100
AcDbEntity
  8
YKK_ZWAK
  6
Continuous
 62
   131
100
AcDbLine
 10
473.5999366
 20
10.4995
 30
0.0
 11
473.5999366
 21
8.9995
 31
0.0
  0
LINE
  5
D0
330
25
100
AcDbEntity
  8
YKK_ZWAK
  6
Continuous
 62
   131
100
AcDbLine
 10
477.1999242
 20
10.4995
 30
0.0
 11
477.1999242
 21
8.9995
 31
0.0
  0
LINE
  5
D1
330
25
100
AcDbEntity
  8
YKK_ZWAK
  6
Continuous
 62
   131
100
AcDbLine
 10
480.7999118
 20
10.4995
 30
0.0
 11
480.7999118
 21
8.9995
 31
0.0
  0
LINE
  5
D2
330
25
100
AcDbEntity
  8
YKK_ZWAK
  6
Continuous
 62
   131
100
AcDbLine
 10
484.3998994
 20
10.4995
 30
0.0
 11
484.3998994
 21
8.9995
 31
0.0
  0
LINE
  5
D3
330
25
100
AcDbEntity
  8
YKK_ZWAK
  6
Continuous
 62
   131
100
AcDbLine
 10
487.999887
 20
10.4995
 30
0.0
 11
487.999887
 21
8.9995
 31
0.0
  0
LINE
  5
D4
330
25
100
AcDbEntity
  8
YKK_ZWAK
  6
Continuous
 62
   131
100
AcDbLine
 10
491.5998746
 20
10.4995
 30
0.0
 11
491.5998746
 21
8.9995
 31
0.0
  0
LINE
  5
D5
330
25
100
AcDbEntity
  8
YKK_ZWAK
  6
Continuous
 62
   131
100
AcDbLine
 10
495.1998622
 20
10.4995
 30
0.0
 11
495.1998622
 21
8.9995
 31
0.0
  0
LINE
  5
D6
330
25
100
AcDbEntity
  8
YKK_ZWAK
  6
Continuous
 62
   131
100
AcDbLine
 10
498.7998498
 20
10.4995
 30
0.0
 11
498.7998498
 21
8.9995
 31
0.0
  0
LINE
  5
D7
330
25
100
AcDbEntity
  8
YKK_ZWAK
  6
Continuous
 62
   131
100
AcDbLine
 10
502.3998374
 20
10.4995
 30
0.0
 11
502.3998374
 21
8.9995
 31
0.0
  0
LINE
  5
D8
330
25
100
AcDbEntity
  8
YKK_ZWAK
  6
Continuous
 62
   131
100
AcDbLine
 10
505.999825
 20
10.4995
 30
0.0
 11
505.999825
 21
8.9995
 31
0.0
  0
LINE
  5
D9
330
25
100
AcDbEntity
  8
YKK_ZWAK
  6
Continuous
 62
   131
100
AcDbLine
 10
509.5998126
 20
10.4995
 30
0.0
 11
509.5998126
 21
8.9995
 31
0.0
  0
LINE
  5
DA
330
25
100
AcDbEntity
  8
YKK_ZWAK
  6
Continuous
 62
   131
100
AcDbLine
 10
513.1998002
 20
10.4995
 30
0.0
 11
513.1998002
 21
8.9995
 31
0.0
  0
LINE
  5
DB
330
25
100
AcDbEntity
  8
YKK_ZWAK
  6
Continuous
 62
   131
100
AcDbLine
 10
516.7997878
 20
10.4995
 30
0.0
 11
516.7997878
 21
8.9995
 31
0.0
  0
LINE
  5
DC
330
25
100
AcDbEntity
  8
YKK_ZWAK
  6
Continuous
 62
   131
100
AcDbLine
 10
520.3997754
 20
10.4995
 30
0.0
 11
520.3997754
 21
8.9995
 31
0.0
  0
ENDBLK
  5
DE
330
25
100
AcDbEntity
  8
0
100
AcDbBlockEnd
  0
ENDSEC
  0
SECTION
  2
ENTITIES
  0
INSERT
  5
23
330
2
100
AcDbEntity
  8
YKK_ZWAK
100
AcDbBlockReference
  2
A201
 10
-26.6000014
 20
-12.5993
 30
0.0
 41
1.4
 42
1.4
 43
1.4
  0
TEXT
  5
DF
330
2
100
AcDbEntity
  8
USER1
 62
     3
100
AcDbText
 10
402.65705229
 20
5.3544946
 30
0.0
 40
4.2
  1
エクステリア共通 汎用形材 T型ジョイント材
 72
     1
 11
454.37705229
 21
7.4544946
 31
0.0
100
AcDbText
 73
     2
  0
TEXT
  5
E3
330
2
100
AcDbEntity
  8
USER1
 62
     3
100
AcDbText
 10
587.9999986
 20
21.0007
 30
0.0
 40
5.6
  1
1
100
AcDbText
  0
TEXT
  5
E4
330
2
100
AcDbEntity
  8
USER1
 62
     3
100
AcDbText
 10
595.53333193
 20
15.4007
 30
0.0
 40
5.6
  1
1
 72
     1
 11
597.7999986
 21
18.2007
 31
0.0
100
AcDbText
 73
     2
  0
LINE
  5
4A1
330
2
100
AcDbEntity
  8
TABLE1
100
AcDbLine
 10
2.8140084
 20
469.87512599
 30
0.0
 11
772.8140084
 21
469.87512599
 31
0.0
  0
LINE
  5
4A2
330
2
100
AcDbEntity
  8
TABLE1
100
AcDbLine
 10
2.8140084
 20
445.87512599
 30
0.0
 11
772.8140084
 21
445.87512599
 31
0.0
  0
LINE
  5
4A3
330
2
100
AcDbEntity
  8
TABLE1
100
AcDbLine
 10
2.8140084
 20
211.92488941
 30
0.0
 11
772.8140084
 21
211.92488941
 31
0.0
  0
LINE
  5
4A4
330
2
100
AcDbEntity
  8
TABLE1
100
AcDbLine
 10
2.8140084
 20
199.92488941
 30
0.0
 11
772.8140084
 21
199.92488941
 31
0.0
  0
LINE
  5
4A5
330
2
100
AcDbEntity
  8
TABLE1
100
AcDbLine
 10
2.8140084
 20
175.92488941
 30
0.0
 11
772.8140084
 21
175.92488941
 31
0.0
  0
LINE
  5
4A6
330
2
100
AcDbEntity
  8
TABLE1
100
AcDbLine
 10
2.8140084
 20
163.92488941
 30
0.0
 11
772.8140084
 21
163.92488941
 31
0.0
  0
LINE
  5
4A7
330
2
100
AcDbEntity
  8
TABLE1
100
AcDbLine
 10
75.48067507
 20
151.92488941
 30
0.0
 11
772.8140084
 21
151.92488941
 31
0.0
  0
LINE
  5
4A8
330
2
100
AcDbEntity
  8
TABLE1
100
AcDbLine
 10
2.8140084
 20
139.92488941
 30
0.0
 11
772.8140084
 21
139.92488941
 31
0.0
  0
LINE
  5
4A9
330
2
100
AcDbEntity
  8
TABLE1
100
AcDbLine
 10
75.48067507
 20
127.92488941
 30
0.0
 11
772.8140084
 21
127.92488941
 31
0.0
  0
LINE
  5
4AA
330
2
100
AcDbEntity
  8
TABLE1
100
AcDbLine
 10
2.8140084
 20
115.92488941
 30
0.0
 11
772.8140084
 21
115.92488941
 31
0.0
  0
LINE
  5
4AB
330
2
100
AcDbEntity
  8
TABLE1
100
AcDbLine
 10
75.48067507
 20
163.92488941
 30
0.0
 11
75.48067507
 21
115.92488941
 31
0.0
  0
LINE
  5
4AC
330
2
100
AcDbEntity
  8
TABLE1
100
AcDbLine
 10
102.8140084
 20
481.87512599
 30
0.0
 11
102.8140084
 21
115.92488941
 31
0.0
  0
LINE
  5
4AD
330
2
100
AcDbEntity
  8
TABLE1
100
AcDbLine
 10
432.8140084
 20
469.87512599
 30
0.0
 11
432.8140084
 21
115.92488941
 31
0.0
  0
LINE
  5
4AE
330
2
100
AcDbEntity
  8
TABLE1
100
AcDbLine
 10
2.8140084
 20
187.92488941
 30
0.0
 11
772.8140084
 21
187.92488941
 31
0.0
  0
LINE
  5
4AF
330
2
100
AcDbEntity
  8
USER1
100
AcDbLine
 10
110.19420794
 20
437.10162165
 30
0.0
 11
122.19420794
 21
437.10162165
 31
0.0
  0
LINE
  5
4B0
330
2
100
AcDbEntity
  8
USER1
100
AcDbLine
 10
110.19420794
 20
437.10162165
 30
0.0
 11
110.19420794
 21
425.10162165
 31
0.0
  0
LINE
  5
4B1
330
2
100
AcDbEntity
  8
USER1
100
AcDbLine
 10
122.19420794
 20
437.10162165
 30
0.0
 11
119.19420794
 21
435.36957084
 31
0.0
  0
LINE
  5
4B2
330
2
100
AcDbEntity
  8
USER1
100
AcDbLine
 10
122.19420794
 20
437.10162165
 30
0.0
 11
119.19420794
 21
438.83367246
 31
0.0
  0
LINE
  5
4B3
330
2
100
AcDbEntity
  8
USER1
100
AcDbLine
 10
110.19420794
 20
425.10162165
 30
0.0
 11
108.46215713
 21
428.10162165
 31
0.0
  0
LINE
  5
4B4
330
2
100
AcDbEntity
  8
USER1
100
AcDbLine
 10
110.19420794
 20
425.10162165
 30
0.0
 11
111.92625874
 21
428.10162165
 31
0.0
  0
LINE
  5
4B5
330
2
100
AcDbEntity
  8
USER1
100
AcDbLine
 10
440.19420794
 20
437.10162165
 30
0.0
 11
452.19420794
 21
437.10162165
 31
0.0
  0
LINE
  5
4B6
330
2
100
AcDbEntity
  8
USER1
100
AcDbLine
 10
440.19420794
 20
437.10162165
 30
0.0
 11
440.19420794
 21
425.10162165
 31
0.0
  0
LINE
  5
4B7
330
2
100
AcDbEntity
  8
USER1
100
AcDbLine
 10
452.19420794
 20
437.10162165
 30
0.0
 11
449.19420794
 21
435.36957084
 31
0.0
  0
LINE
  5
4B8
330
2
100
AcDbEntity
  8
USER1
100
AcDbLine
 10
452.19420794
 20
437.10162165
 30
0.0
 11
449.19420794
 21
438.83367246
 31
0.0
  0
LINE
  5
4B9
330
2
100
AcDbEntity
  8
USER1
100
AcDbLine
 10
440.19420794
 20
425.10162165
 30
0.0
 11
438.46215713
 21
428.10162165
 31
0.0
  0
LINE
  5
4BA
330
2
100
AcDbEntity
  8
USER1
100
AcDbLine
 10
440.19420794
 20
425.10162165
 30
0.0
 11
441.92625874
 21
428.10162165
 31
0.0
  0
LINE
  5
4BB
330
2
100
AcDbEntity
  8
TABLE1
100
AcDbLine
 10
2.8140084
 20
457.87512599
 30
0.0
 11
772.8140084
 21
457.87512599
 31
0.0
  0
LINE
  5
4BC
330
2
100
AcDbEntity
  8
TABLE1
100
AcDbLine
 10
772.8140084
 20
481.87512599
 30
0.0
 11
772.8140084
 21
115.92488941
 31
0.0
  0
LINE
  5
4BD
330
2
100
AcDbEntity
  8
YKK_13
100
AcDbLine
 10
120.97371076
 20
295.6821667
 30
0.0
 11
127.2594972
 21
295.6821667
 31
0.0
  0
LINE
  5
4BE
330
2
100
AcDbEntity
  8
YKK_13
100
AcDbLine
 10
117.85239042
 20
298.38927349
 30
0.0
 11
120.26660398
 21
295.97505992
 31
0.0
  0
ARC
  5
4BF
330
2
100
AcDbEntity
  8
YKK_13
100
AcDbCircle
 10
118.5594972
 20
299.09638027
 30
0.0
 40
1.000000000000002
100
AcDbArc
 50
180.0
 51
225.0
  0
LINE
  5
4C0
330
2
100
AcDbEntity
  8
YKK_13
100
AcDbLine
 10
117.5594972
 20
299.6821667
 30
0.0
 11
117.5594972
 21
299.09638027
 31
0.0
  0
ARC
  5
4C1
330
2
100
AcDbEntity
  8
YKK_13
100
AcDbCircle
 10
118.5594972
 20
299.6821667
 30
0.0
 40
1.0
100
AcDbArc
 50
90.0
 51
180.0
  0
LINE
  5
4C2
330
2
100
AcDbEntity
  8
YKK_13
100
AcDbLine
 10
281.5594972
 20
300.6821667
 30
0.0
 11
118.5594972
 21
300.6821667
 31
0.0
  0
ARC
  5
4C3
330
2
100
AcDbEntity
  8
YKK_13
100
AcDbCircle
 10
281.5594972
 20
299.6821667
 30
0.0
 40
1.0
100
AcDbArc
 50
0.0
 51
90.0
  0
LINE
  5
4C4
330
2
100
AcDbEntity
  8
YKK_13
100
AcDbLine
 10
282.5594972
 20
299.09638027
 30
0.0
 11
282.5594972
 21
299.6821667
 31
0.0
  0
LINE
  5
4C5
330
2
100
AcDbEntity
  8
YKK_13
100
AcDbLine
 10
279.85239042
 20
295.97505992
 30
0.0
 11
282.26660398
 21
298.38927349
 31
0.0
  0
ARC
  5
4C6
330
2
100
AcDbEntity
  8
YKK_13
100
AcDbCircle
 10
279.14528364
 20
296.6821667
 30
0.0
 40
1.000000000000027
100
AcDbArc
 50
270.0
 51
315.0
  0
LINE
  5
4C7
330
2
100
AcDbEntity
  8
YKK_13
100
AcDbLine
 10
272.8594972
 20
295.6821667
 30
0.0
 11
279.14528364
 21
295.6821667
 31
0.0
  0
ARC
  5
4C8
330
2
100
AcDbEntity
  8
YKK_13
100
AcDbCircle
 10
272.5594972
 20
295.6821667
 30
0.0
 40
0.2999999999999829
100
AcDbArc
 50
0.0
 51
180.0
  0
ARC
  5
4C9
330
2
100
AcDbEntity
  8
YKK_13
100
AcDbCircle
 10
127.5594972
 20
295.6821667
 30
0.0
 40
0.2999999999999971
100
AcDbArc
 50
0.0
 51
180.0
  0
ARC
  5
4CA
330
2
100
AcDbEntity
  8
YKK_13
100
AcDbCircle
 10
281.5594972
 20
299.09638027
 30
0.0
 40
1.000000000000027
100
AcDbArc
 50
315.0
 51
0.0
  0
LINE
  5
4CB
330
2
100
AcDbEntity
  8
YKK_13
100
AcDbLine
 10
127.8594972
 20
295.6821667
 30
0.0
 11
272.2594972
 21
295.6821667
 31
0.0
  0
ARC
  5
4CC
330
2
100
AcDbEntity
  8
YKK_13
100
AcDbCircle
 10
120.97371076
 20
296.6821667
 30
0.0
 40
1.000000000000002
100
AcDbArc
 50
225.0
 51
270.0
  0
ARC
  5
4CD
330
2
100
AcDbEntity
  8
YKK_13
100
AcDbCircle
 10
162.8594972
 20
295.3821667
 30
0.0
 40
0.3000000000000114
100
AcDbArc
 50
90.0
 51
180.0
  0
ARC
  5
4CE
330
2
100
AcDbEntity
  8
YKK_13
100
AcDbCircle
 10
161.5594972
 20
256.6821667
 30
0.0
 40
1.000000000000013
100
AcDbArc
 50
270.0
 51
0.0
  0
LINE
  5
4CF
330
2
100
AcDbEntity
  8
YKK_13
100
AcDbLine
 10
160.76660398
 20
255.97505992
 30
0.0
 11
157.85239042
 21
258.88927349
 31
0.0
  0
LINE
  5
4D0
330
2
100
AcDbEntity
  8
YKK_13
100
AcDbLine
 10
157.5594972
 20
295.3821667
 30
0.0
 11
157.5594972
 21
270.9821667
 31
0.0
  0
LINE
  5
4D1
330
2
100
AcDbEntity
  8
YKK_13
100
AcDbLine
 10
157.5594972
 20
270.3821667
 30
0.0
 11
157.5594972
 21
259.59638027
 31
0.0
  0
LINE
  5
4D2
330
2
100
AcDbEntity
  8
YKK_13
100
AcDbLine
 10
161.47371076
 20
255.6821667
 30
0.0
 11
161.5594972
 21
255.6821667
 31
0.0
  0
ARC
  5
4D3
330
2
100
AcDbEntity
  8
YKK_13
100
AcDbCircle
 10
157.2594972
 20
295.3821667
 30
0.0
 40
0.3000000000000114
100
AcDbArc
 50
0.0
 51
90.0
  0
ARC
  5
4D4
330
2
100
AcDbEntity
  8
YKK_13
100
AcDbCircle
 10
158.5594972
 20
259.59638027
 30
0.0
 40
1.000000000000013
100
AcDbArc
 50
180.0
 51
225.0
  0
ARC
  5
4D5
330
2
100
AcDbEntity
  8
YKK_13
100
AcDbCircle
 10
157.5594972
 20
270.6821667
 30
0.0
 40
0.2999999999999971
100
AcDbArc
 50
270.0
 51
90.0
  0
LINE
  5
4D6
330
2
100
AcDbEntity
  8
YKK_13
100
AcDbLine
 10
162.5594972
 20
256.6821667
 30
0.0
 11
162.5594972
 21
295.3821667
 31
0.0
  0
ARC
  5
4D7
330
2
100
AcDbEntity
  8
YKK_13
100
AcDbCircle
 10
161.47371076
 20
256.6821667
 30
0.0
 40
1.000000000000013
100
AcDbArc
 50
225.0
 51
270.0
  0
ARC
  5
4D8
330
2
100
AcDbEntity
  8
YKK_13
100
AcDbCircle
 10
242.5594972
 20
270.6821667
 30
0.0
 40
0.2999999999999971
100
AcDbArc
 50
90.0
 51
270.0
  0
LINE
  5
4D9
330
2
100
AcDbEntity
  8
YKK_13
100
AcDbLine
 10
242.26660398
 20
258.88927349
 30
0.0
 11
239.35239042
 21
255.97505992
 31
0.0
  0
ARC
  5
4DA
330
2
100
AcDbEntity
  8
YKK_13
100
AcDbCircle
 10
238.64528364
 20
256.6821667
 30
0.0
 40
1.000000000000017
100
AcDbArc
 50
270.0
 51
315.0
  0
ARC
  5
4DB
330
2
100
AcDbEntity
  8
YKK_13
100
AcDbCircle
 10
237.2594972
 20
295.3821667
 30
0.0
 40
0.3000000000000114
100
AcDbArc
 50
0.0
 51
90.0
  0
LINE
  5
4DC
330
2
100
AcDbEntity
  8
YKK_13
100
AcDbLine
 10
237.5594972
 20
295.3821667
 30
0.0
 11
237.5594972
 21
256.6821667
 31
0.0
  0
LINE
  5
4DD
330
2
100
AcDbEntity
  8
YKK_13
100
AcDbLine
 10
238.5594972
 20
255.6821667
 30
0.0
 11
238.64528364
 21
255.6821667
 31
0.0
  0
ARC
  5
4DE
330
2
100
AcDbEntity
  8
YKK_13
100
AcDbCircle
 10
242.8594972
 20
295.3821667
 30
0.0
 40
0.3000000000000114
100
AcDbArc
 50
90.0
 51
180.0
  0
ARC
  5
4DF
330
2
100
AcDbEntity
  8
YKK_13
100
AcDbCircle
 10
241.5594972
 20
259.59638027
 30
0.0
 40
1.0
100
AcDbArc
 50
315.0
 51
0.0
  0
LINE
  5
4E0
330
2
100
AcDbEntity
  8
YKK_13
100
AcDbLine
 10
242.5594972
 20
270.9821667
 30
0.0
 11
242.5594972
 21
295.3821667
 31
0.0
  0
ARC
  5
4E1
330
2
100
AcDbEntity
  8
YKK_13
100
AcDbCircle
 10
238.5594972
 20
256.6821667
 30
0.0
 40
1.000000000000013
100
AcDbArc
 50
180.0
 51
270.0
  0
LINE
  5
4E2
330
2
100
AcDbEntity
  8
YKK_13
100
AcDbLine
 10
242.5594972
 20
259.59638027
 30
0.0
 11
242.5594972
 21
270.3821667
 31
0.0
  0
LINE
  5
4E3
330
2
100
AcDbEntity
  8
YKK_13
100
AcDbLine
 10
281.5594972
 20
325.62265244
 30
0.0
 11
118.5594972
 21
325.62265244
 31
0.0
  0
LINE
  5
4E4
330
2
100
AcDbEntity
  8
YKK_13
100
AcDbLine
 10
281.5594972
 20
415.62265244
 30
0.0
 11
118.5594972
 21
415.62265244
 31
0.0
  0
CIRCLE
  5
4E5
330
2
100
AcDbEntity
  8
YKK_13
100
AcDbCircle
 10
127.5594972
 20
350.62265244
 30
0.0
 40
2.75
  0
CIRCLE
  5
4E6
330
2
100
AcDbEntity
  8
YKK_13
100
AcDbCircle
 10
272.5594972
 20
390.62265244
 30
0.0
 40
2.75
  0
CIRCLE
  5
4E7
330
2
100
AcDbEntity
  8
YKK_13
100
AcDbCircle
 10
272.5594972
 20
350.62265244
 30
0.0
 40
2.75
  0
CIRCLE
  5
4E8
330
2
100
AcDbEntity
  8
YKK_13
100
AcDbCircle
 10
127.5594972
 20
390.62265244
 30
0.0
 40
2.75
  0
LINE
  5
4E9
330
2
100
AcDbEntity
  8
YKK_13
100
AcDbLine
 10
281.5594972
 20
415.62265244
 30
0.0
 11
282.5594972
 21
415.62265244
 31
0.0
  0
LINE
  5
4EA
330
2
100
AcDbEntity
  8
YKK_13
100
AcDbLine
 10
282.5594972
 20
415.62265244
 30
0.0
 11
282.5594972
 21
325.62265244
 31
0.0
  0
LINE
  5
4EB
330
2
100
AcDbEntity
  8
YKK_13
100
AcDbLine
 10
282.5594972
 20
325.62265244
 30
0.0
 11
281.5594972
 21
325.62265244
 31
0.0
  0
LINE
  5
4EC
330
2
100
AcDbEntity
  8
YKK_13
100
AcDbLine
 10
117.5594972
 20
325.62265244
 30
0.0
 11
117.5594972
 21
415.62265244
 31
0.0
  0
LINE
  5
4ED
330
2
100
AcDbEntity
  8
YKK_13
100
AcDbLine
 10
118.5594972
 20
325.62265244
 30
0.0
 11
117.5594972
 21
325.62265244
 31
0.0
  0
LINE
  5
4EE
330
2
100
AcDbEntity
  8
YKK_13
100
AcDbLine
 10
117.5594972
 20
415.62265244
 30
0.0
 11
118.5594972
 21
415.62265244
 31
0.0
  0
LINE
  5
4EF
330
2
100
AcDbEntity
  8
YKK_12
  6
YCENTER_1
100
AcDbLine
 10
200.0594972
 20
303.1821667
 30
0.0
 11
200.0594972
 21
253.54857649
 31
0.0
  0
LINE
  5
4F0
330
2
100
AcDbEntity
  8
YKK_12
  6
YCENTER_1
100
AcDbLine
 10
200.0594972
 20
323.12265244
 30
0.0
 11
200.0594972
 21
418.12265244
 31
0.0
  0
LINE
  5
4F1
330
2
100
AcDbEntity
  8
YKK_12
  6
YCENTER_1
100
AcDbLine
 10
277.3094972
 20
350.62265244
 30
0.0
 11
267.8094972
 21
350.62265244
 31
0.0
  0
LINE
  5
4F2
330
2
100
AcDbEntity
  8
YKK_12
  6
YCENTER_1
100
AcDbLine
 10
272.5594972
 20
355.37265244
 30
0.0
 11
272.5594972
 21
345.87265244
 31
0.0
  0
LINE
  5
4F3
330
2
100
AcDbEntity
  8
YKK_12
  6
YCENTER_1
100
AcDbLine
 10
277.3094972
 20
390.62265244
 30
0.0
 11
267.8094972
 21
390.62265244
 31
0.0
  0
LINE
  5
4F4
330
2
100
AcDbEntity
  8
YKK_12
  6
YCENTER_1
100
AcDbLine
 10
272.5594972
 20
395.37265244
 30
0.0
 11
272.5594972
 21
385.87265244
 31
0.0
  0
LINE
  5
4F5
330
2
100
AcDbEntity
  8
YKK_12
  6
YCENTER_1
100
AcDbLine
 10
132.3094972
 20
390.62265244
 30
0.0
 11
122.8094972
 21
390.62265244
 31
0.0
  0
LINE
  5
4F6
330
2
100
AcDbEntity
  8
YKK_12
  6
YCENTER_1
100
AcDbLine
 10
127.5594972
 20
395.37265244
 30
0.0
 11
127.5594972
 21
385.87265244
 31
0.0
  0
LINE
  5
4F7
330
2
100
AcDbEntity
  8
YKK_12
  6
YCENTER_1
100
AcDbLine
 10
132.3094972
 20
350.62265244
 30
0.0
 11
122.8094972
 21
350.62265244
 31
0.0
  0
LINE
  5
4F8
330
2
100
AcDbEntity
  8
YKK_12
  6
YCENTER_1
100
AcDbLine
 10
127.5594972
 20
355.37265244
 30
0.0
 11
127.5594972
 21
345.87265244
 31
0.0
  0
LINE
  5
4F9
330
2
100
AcDbEntity
  8
YKK_12
  6
YCENTER_1
100
AcDbLine
 10
285.0594972
 20
370.62265244
 30
0.0
 11
115.0594972
 21
370.62265244
 31
0.0
  0
LINE
  5
4FA
330
2
100
AcDbEntity
  8
YKK_13
100
AcDbLine
 10
397.25437649
 20
299.09638027
 30
0.0
 11
397.25437649
 21
299.6821667
 31
0.0
  0
LINE
  5
4FB
330
2
100
AcDbEntity
  8
YKK_13
100
AcDbLine
 10
307.25437649
 20
299.09638027
 30
0.0
 11
307.25437649
 21
299.6821667
 31
0.0
  0
LINE
  5
4FC
330
2
100
AcDbEntity
  8
YKK_13
100
AcDbLine
 10
397.25437649
 20
298.38927349
 30
0.0
 11
307.25437649
 21
298.38927349
 31
0.0
  0
LINE
  5
4FD
330
2
100
AcDbEntity
  8
YKK_13
100
AcDbLine
 10
307.25437649
 20
298.38927349
 30
0.0
 11
307.25437649
 21
299.09638027
 31
0.0
  0
LINE
  5
4FE
330
2
100
AcDbEntity
  8
YKK_13
100
AcDbLine
 10
397.25437649
 20
299.09638027
 30
0.0
 11
397.25437649
 21
298.38927349
 31
0.0
  0
LINE
  5
4FF
330
2
100
AcDbEntity
  8
YKK_13
100
AcDbLine
 10
307.25437649
 20
300.6821667
 30
0.0
 11
397.25437649
 21
300.6821667
 31
0.0
  0
LINE
  5
500
330
2
100
AcDbEntity
  8
YKK_13
100
AcDbLine
 10
307.25437649
 20
299.6821667
 30
0.0
 11
307.25437649
 21
300.6821667
 31
0.0
  0
LINE
  5
501
330
2
100
AcDbEntity
  8
YKK_13
100
AcDbLine
 10
397.25437649
 20
300.6821667
 30
0.0
 11
397.25437649
 21
299.6821667
 31
0.0
  0
LINE
  5
502
330
2
100
AcDbEntity
  8
YKK_13
100
AcDbLine
 10
307.25437649
 20
295.97505992
 30
0.0
 11
307.25437649
 21
298.38927349
 31
0.0
  0
LINE
  5
503
330
2
100
AcDbEntity
  8
YKK_13
100
AcDbLine
 10
397.25437649
 20
298.38927349
 30
0.0
 11
397.25437649
 21
295.97505992
 31
0.0
  0
LINE
  5
504
330
2
100
AcDbEntity
  8
YKK_13
100
AcDbLine
 10
397.25437649
 20
295.6821667
 30
0.0
 11
307.25437649
 21
295.6821667
 31
0.0
  0
LINE
  5
505
330
2
100
AcDbEntity
  8
YKK_13
100
AcDbLine
 10
307.25437649
 20
295.6821667
 30
0.0
 11
307.25437649
 21
295.97505992
 31
0.0
  0
LINE
  5
506
330
2
100
AcDbEntity
  8
YKK_13
100
AcDbLine
 10
397.25437649
 20
295.97505992
 30
0.0
 11
397.25437649
 21
295.6821667
 31
0.0
  0
LINE
  5
507
330
2
100
AcDbEntity
  8
YKK_13
100
AcDbLine
 10
394.75437649
 20
295.6821667
 30
0.0
 11
394.75437649
 21
295.3821667
 31
0.0
  0
LINE
  5
508
330
2
100
AcDbEntity
  8
YKK_13
100
AcDbLine
 10
309.75437649
 20
295.3821667
 30
0.0
 11
309.75437649
 21
295.6821667
 31
0.0
  0
ARC
  5
509
330
2
100
AcDbEntity
  8
YKK_13
100
AcDbCircle
 10
372.25437649
 20
270.6821667
 30
0.0
 40
2.249999999986375
100
AcDbArc
 50
352.33774434
 51
7.66225566
  0
LINE
  5
50A
330
2
100
AcDbEntity
  8
YKK_13
100
AcDbLine
 10
374.48428681
 20
270.9821667
 30
0.0
 11
374.73631122
 21
270.9821667
 31
0.0
  0
ARC
  5
50B
330
2
100
AcDbEntity
  8
YKK_13
100
AcDbCircle
 10
392.25437649
 20
270.6821667
 30
0.0
 40
2.500000000003923
100
AcDbArc
 50
353.10789742
 51
6.89210258
  0
LINE
  5
50C
330
2
100
AcDbEntity
  8
YKK_13
100
AcDbLine
 10
374.73631122
 20
270.3821667
 30
0.0
 11
374.48428681
 21
270.3821667
 31
0.0
  0
LINE
  5
50D
330
2
100
AcDbEntity
  8
YKK_13
100
AcDbLine
 10
370.02446618
 20
270.3821667
 30
0.0
 11
369.77244176
 21
270.3821667
 31
0.0
  0
ARC
  5
50E
330
2
100
AcDbEntity
  8
YKK_13
100
AcDbCircle
 10
372.25437649
 20
270.6821667
 30
0.0
 40
2.49999999999021
100
AcDbArc
 50
173.10789742
 51
186.89210258
  0
LINE
  5
50F
330
2
100
AcDbEntity
  8
YKK_13
100
AcDbLine
 10
369.77244176
 20
270.9821667
 30
0.0
 11
370.02446618
 21
270.9821667
 31
0.0
  0
ARC
  5
510
330
2
100
AcDbEntity
  8
YKK_13
100
AcDbCircle
 10
372.25437649
 20
270.6821667
 30
0.0
 40
2.249999999998939
100
AcDbArc
 50
172.33774434
 51
187.66225566
  0
LINE
  5
511
330
2
100
AcDbEntity
  8
YKK_13
100
AcDbLine
 10
334.48428681
 20
270.9821667
 30
0.0
 11
334.73631122
 21
270.9821667
 31
0.0
  0
ARC
  5
512
330
2
100
AcDbEntity
  8
YKK_13
100
AcDbCircle
 10
332.25437649
 20
270.6821667
 30
0.0
 40
2.499999999983662
100
AcDbArc
 50
353.10789742
 51
6.89210258
  0
LINE
  5
513
330
2
100
AcDbEntity
  8
YKK_13
100
AcDbLine
 10
334.73631122
 20
270.3821667
 30
0.0
 11
334.48428681
 21
270.3821667
 31
0.0
  0
ARC
  5
514
330
2
100
AcDbEntity
  8
YKK_13
100
AcDbCircle
 10
332.25437649
 20
270.6821667
 30
0.0
 40
2.250000000004798
100
AcDbArc
 50
352.33774434
 51
7.66225566
  0
LINE
  5
515
330
2
100
AcDbEntity
  8
YKK_13
100
AcDbLine
 10
330.02446618
 20
270.3821667
 30
0.0
 11
329.77244176
 21
270.3821667
 31
0.0
  0
ARC
  5
516
330
2
100
AcDbEntity
  8
YKK_13
100
AcDbCircle
 10
312.25437649
 20
270.6821667
 30
0.0
 40
2.500000000006461
100
AcDbArc
 50
173.10789742
 51
186.89210258
  0
LINE
  5
517
330
2
100
AcDbEntity
  8
YKK_13
100
AcDbLine
 10
329.77244176
 20
270.9821667
 30
0.0
 11
330.02446618
 21
270.9821667
 31
0.0
  0
ARC
  5
518
330
2
100
AcDbEntity
  8
YKK_13
100
AcDbCircle
 10
332.25437649
 20
270.6821667
 30
0.0
 40
2.250000000004853
100
AcDbArc
 50
172.33774434
 51
187.66225566
  0
LINE
  5
519
330
2
100
AcDbEntity
  8
YKK_13
100
AcDbLine
 10
394.75437649
 20
270.3821667
 30
0.0
 11
394.73631122
 21
270.3821667
 31
0.0
  0
LINE
  5
51A
330
2
100
AcDbEntity
  8
YKK_13
100
AcDbLine
 10
394.73631122
 20
270.9821667
 30
0.0
 11
394.75437649
 21
270.9821667
 31
0.0
  0
LINE
  5
51B
330
2
100
AcDbEntity
  8
YKK_13
100
AcDbLine
 10
394.75437649
 20
270.9821667
 30
0.0
 11
394.75437649
 21
270.3821667
 31
0.0
  0
LINE
  5
51C
330
2
100
AcDbEntity
  8
YKK_13
100
AcDbLine
 10
334.73631122
 20
270.9821667
 30
0.0
 11
369.77244176
 21
270.9821667
 31
0.0
  0
LINE
  5
51D
330
2
100
AcDbEntity
  8
YKK_13
100
AcDbLine
 10
369.77244176
 20
270.3821667
 30
0.0
 11
334.73631122
 21
270.3821667
 31
0.0
  0
LINE
  5
51E
330
2
100
AcDbEntity
  8
YKK_13
100
AcDbLine
 10
309.75437649
 20
270.9821667
 30
0.0
 11
309.77244176
 21
270.9821667
 31
0.0
  0
LINE
  5
51F
330
2
100
AcDbEntity
  8
YKK_13
100
AcDbLine
 10
309.77244176
 20
270.3821667
 30
0.0
 11
309.75437649
 21
270.3821667
 31
0.0
  0
LINE
  5
520
330
2
100
AcDbEntity
  8
YKK_13
100
AcDbLine
 10
309.75437649
 20
270.3821667
 30
0.0
 11
309.75437649
 21
270.9821667
 31
0.0
  0
ARC
  5
521
330
2
100
AcDbEntity
  8
YKK_13
100
AcDbCircle
 10
332.25437649
 20
270.6821667
 30
0.0
 40
2.500000000000029
100
AcDbArc
 50
180.0
 51
353.10789742
  0
ARC
  5
522
330
2
100
AcDbEntity
  8
YKK_13
100
AcDbCircle
 10
372.25437649
 20
270.6821667
 30
0.0
 40
2.500000000000029
100
AcDbArc
 50
186.89210258
 51
0.0
  0
LINE
  5
523
330
2
100
AcDbEntity
  8
YKK_13
100
AcDbLine
 10
309.75437649
 20
259.59638027
 30
0.0
 11
394.75437649
 21
259.59638027
 31
0.0
  0
LINE
  5
524
330
2
100
AcDbEntity
  8
YKK_13
100
AcDbLine
 10
309.75437649
 20
259.59638027
 30
0.0
 11
309.75437649
 21
270.3821667
 31
0.0
  0
LINE
  5
525
330
2
100
AcDbEntity
  8
YKK_13
100
AcDbLine
 10
394.75437649
 20
270.3821667
 30
0.0
 11
394.75437649
 21
259.59638027
 31
0.0
  0
LINE
  5
526
330
2
100
AcDbEntity
  8
YKK_13
100
AcDbLine
 10
309.75437649
 20
259.59638027
 30
0.0
 11
309.75437649
 21
258.88927349
 31
0.0
  0
LINE
  5
527
330
2
100
AcDbEntity
  8
YKK_13
100
AcDbLine
 10
394.75437649
 20
258.88927349
 30
0.0
 11
394.75437649
 21
259.59638027
 31
0.0
  0
ARC
  5
528
330
2
100
AcDbEntity
  8
YKK_13
100
AcDbCircle
 10
372.25437649
 20
270.6821667
 30
0.0
 40
2.500000000000029
100
AcDbArc
 50
0.0
 51
173.10789742
  0
ARC
  5
529
330
2
100
AcDbEntity
  8
YKK_13
100
AcDbCircle
 10
332.25437649
 20
270.6821667
 30
0.0
 40
2.500000000000029
100
AcDbArc
 50
6.89210258
 51
180.0
  0
LINE
  5
52A
330
2
100
AcDbEntity
  8
YKK_13
100
AcDbLine
 10
309.75437649
 20
270.9821667
 30
0.0
 11
309.75437649
 21
295.3821667
 31
0.0
  0
LINE
  5
52B
330
2
100
AcDbEntity
  8
YKK_13
100
AcDbLine
 10
394.75437649
 20
295.3821667
 30
0.0
 11
394.75437649
 21
270.9821667
 31
0.0
  0
ARC
  5
52C
330
2
100
AcDbEntity
  8
YKK_13
100
AcDbCircle
 10
372.25437649
 20
270.6821667
 30
0.0
 40
2.250000000000009
100
AcDbArc
 50
187.66225566
 51
352.33774434
  0
ARC
  5
52D
330
2
100
AcDbEntity
  8
YKK_13
100
AcDbCircle
 10
372.25437649
 20
270.6821667
 30
0.0
 40
2.250000000000009
100
AcDbArc
 50
7.66225566
 51
172.33774434
  0
ARC
  5
52E
330
2
100
AcDbEntity
  8
YKK_13
100
AcDbCircle
 10
332.25437649
 20
270.6821667
 30
0.0
 40
2.250000000000009
100
AcDbArc
 50
7.66225566
 51
172.33774434
  0
ARC
  5
52F
330
2
100
AcDbEntity
  8
YKK_13
100
AcDbCircle
 10
332.25437649
 20
270.6821667
 30
0.0
 40
2.250000000000009
100
AcDbArc
 50
187.66225566
 51
352.33774434
  0
LINE
  5
530
330
2
100
AcDbEntity
  8
YKK_13
100
AcDbLine
 10
309.75437649
 20
258.88927349
 30
0.0
 11
309.75437649
 21
255.97505992
 31
0.0
  0
LINE
  5
531
330
2
100
AcDbEntity
  8
YKK_13
100
AcDbLine
 10
394.75437649
 20
255.97505992
 30
0.0
 11
394.75437649
 21
258.88927349
 31
0.0
  0
LINE
  5
532
330
2
100
AcDbEntity
  8
YKK_13
100
AcDbLine
 10
394.75437649
 20
255.6821667
 30
0.0
 11
309.75437649
 21
255.6821667
 31
0.0
  0
LINE
  5
533
330
2
100
AcDbEntity
  8
YKK_13
100
AcDbLine
 10
309.75437649
 20
255.97505992
 30
0.0
 11
309.75437649
 21
255.6821667
 31
0.0
  0
LINE
  5
534
330
2
100
AcDbEntity
  8
YKK_13
100
AcDbLine
 10
394.75437649
 20
255.6821667
 30
0.0
 11
394.75437649
 21
255.97505992
 31
0.0
  0
LINE
  5
535
330
2
100
AcDbEntity
  8
YKK_12
  6
YCENTER_1
100
AcDbLine
 10
352.25437649
 20
253.1821667
 30
0.0
 11
352.25437649
 21
303.1821667
 31
0.0
  0
LINE
  5
536
330
2
100
AcDbEntity
  8
YKK_12
  6
YCENTER_1
100
AcDbLine
 10
376.75437649
 20
270.6821667
 30
0.0
 11
367.75437649
 21
270.6821667
 31
0.0
  0
LINE
  5
537
330
2
100
AcDbEntity
  8
YKK_12
  6
YCENTER_1
100
AcDbLine
 10
372.25437649
 20
275.1821667
 30
0.0
 11
372.25437649
 21
266.1821667
 31
0.0
  0
LINE
  5
538
330
2
100
AcDbEntity
  8
YKK_12
  6
YCENTER_1
100
AcDbLine
 10
336.75437649
 20
270.6821667
 30
0.0
 11
327.75437649
 21
270.6821667
 31
0.0
  0
LINE
  5
539
330
2
100
AcDbEntity
  8
YKK_12
  6
YCENTER_1
100
AcDbLine
 10
332.25437649
 20
275.1821667
 30
0.0
 11
332.25437649
 21
266.1821667
 31
0.0
  0
LINE
  5
53A
330
2
100
AcDbEntity
  8
YKK_13
100
AcDbLine
 10
374.73631122
 20
270.9821667
 30
0.0
 11
394.75437649
 21
270.9821667
 31
0.0
  0
LINE
  5
53B
330
2
100
AcDbEntity
  8
YKK_13
100
AcDbLine
 10
394.75437649
 20
270.3821667
 30
0.0
 11
374.73631122
 21
270.3821667
 31
0.0
  0
LINE
  5
53C
330
2
100
AcDbEntity
  8
YKK_13
100
AcDbLine
 10
309.75437649
 20
270.9821667
 30
0.0
 11
329.77244176
 21
270.9821667
 31
0.0
  0
LINE
  5
53D
330
2
100
AcDbEntity
  8
YKK_13
100
AcDbLine
 10
329.77244176
 20
270.3821667
 30
0.0
 11
309.75437649
 21
270.3821667
 31
0.0
  0
LINE
  5
53E
330
2
100
AcDbEntity
  8
YKK_13
100
AcDbLine
 10
443.25194587
 20
417.56007222
 30
0.0
 11
633.25051542
 21
417.56007222
 31
0.0
  0
CIRCLE
  5
53F
330
2
100
AcDbEntity
  8
YKK_13
100
AcDbCircle
 10
458.24939309
 20
347.56007222
 30
0.0
 40
2.75
  0
CIRCLE
  5
540
330
2
100
AcDbEntity
  8
YKK_13
100
AcDbCircle
 10
618.24939309
 20
387.56007222
 30
0.0
 40
2.75
  0
CIRCLE
  5
541
330
2
100
AcDbEntity
  8
YKK_13
100
AcDbCircle
 10
618.24939309
 20
347.56007222
 30
0.0
 40
2.75
  0
CIRCLE
  5
542
330
2
100
AcDbEntity
  8
YKK_13
100
AcDbCircle
 10
458.24939309
 20
387.56007222
 30
0.0
 40
2.75
  0
LINE
  5
543
330
2
100
AcDbEntity
  8
YKK_13
100
AcDbLine
 10
633.25051542
 20
417.56007222
 30
0.0
 11
633.25051542
 21
317.56007222
 31
0.0
  0
LINE
  5
544
330
2
100
AcDbEntity
  8
YKK_13
100
AcDbLine
 10
633.25051542
 20
317.56007222
 30
0.0
 11
443.25194587
 21
317.56007222
 31
0.0
  0
LINE
  5
545
330
2
100
AcDbEntity
  8
YKK_13
100
AcDbLine
 10
443.25194587
 20
317.56007222
 30
0.0
 11
443.25194587
 21
417.56007222
 31
0.0
  0
LINE
  5
546
330
2
100
AcDbEntity
  8
YKK_12
  6
YCENTER_1
100
AcDbLine
 10
538.24939309
 20
296.54334703
 30
0.0
 11
538.24939309
 21
246.90975681
 31
0.0
  0
LINE
  5
547
330
2
100
AcDbEntity
  8
YKK_12
  6
YCENTER_1
100
AcDbLine
 10
538.24939309
 20
315.06007222
 30
0.0
 11
538.24939309
 21
405.06007222
 31
0.0
  0
LINE
  5
548
330
2
100
AcDbEntity
  8
YKK_12
  6
YCENTER_1
100
AcDbLine
 10
622.99939309
 20
347.56007222
 30
0.0
 11
613.49939309
 21
347.56007222
 31
0.0
  0
LINE
  5
549
330
2
100
AcDbEntity
  8
YKK_12
  6
YCENTER_1
100
AcDbLine
 10
618.24939309
 20
352.31007222
 30
0.0
 11
618.24939309
 21
342.81007222
 31
0.0
  0
LINE
  5
54A
330
2
100
AcDbEntity
  8
YKK_12
  6
YCENTER_1
100
AcDbLine
 10
622.99939309
 20
387.56007222
 30
0.0
 11
613.49939309
 21
387.56007222
 31
0.0
  0
LINE
  5
54B
330
2
100
AcDbEntity
  8
YKK_12
  6
YCENTER_1
100
AcDbLine
 10
618.24939309
 20
392.31007222
 30
0.0
 11
618.24939309
 21
382.81007222
 31
0.0
  0
LINE
  5
54C
330
2
100
AcDbEntity
  8
YKK_12
  6
YCENTER_1
100
AcDbLine
 10
462.99939309
 20
387.56007222
 30
0.0
 11
453.49939309
 21
387.56007222
 31
0.0
  0
LINE
  5
54D
330
2
100
AcDbEntity
  8
YKK_12
  6
YCENTER_1
100
AcDbLine
 10
458.24939309
 20
392.31007222
 30
0.0
 11
458.24939309
 21
382.81007222
 31
0.0
  0
LINE
  5
54E
330
2
100
AcDbEntity
  8
YKK_12
  6
YCENTER_1
100
AcDbLine
 10
462.99939309
 20
347.56007222
 30
0.0
 11
453.49939309
 21
347.56007222
 31
0.0
  0
LINE
  5
54F
330
2
100
AcDbEntity
  8
YKK_12
  6
YCENTER_1
100
AcDbLine
 10
458.24939309
 20
352.31007222
 30
0.0
 11
458.24939309
 21
342.81007222
 31
0.0
  0
LINE
  5
550
330
2
100
AcDbEntity
  8
YKK_D
  6
YCENTER_1
100
AcDbLine
 10
458.24939309
 20
382.31007222
 30
0.0
 11
458.24939309
 21
352.81007222
 31
0.0
  0
LINE
  5
551
330
2
100
AcDbEntity
  8
YKK_13
100
AcDbLine
 10
753.19207983
 20
292.45756059
 30
0.0
 11
753.19207983
 21
293.04334703
 31
0.0
  0
LINE
  5
552
330
2
100
AcDbEntity
  8
YKK_13
100
AcDbLine
 10
653.19207983
 20
292.45756059
 30
0.0
 11
653.19207983
 21
293.04334703
 31
0.0
  0
LINE
  5
553
330
2
100
AcDbEntity
  8
YKK_13
100
AcDbLine
 10
753.19207983
 20
291.75045381
 30
0.0
 11
653.19207983
 21
291.75045381
 31
0.0
  0
LINE
  5
554
330
2
100
AcDbEntity
  8
YKK_13
100
AcDbLine
 10
653.19207983
 20
291.75045381
 30
0.0
 11
653.19207983
 21
292.45756059
 31
0.0
  0
LINE
  5
555
330
2
100
AcDbEntity
  8
YKK_13
100
AcDbLine
 10
753.19207983
 20
292.45756059
 30
0.0
 11
753.19207983
 21
291.75045381
 31
0.0
  0
LINE
  5
556
330
2
100
AcDbEntity
  8
YKK_13
100
AcDbLine
 10
653.19207983
 20
294.04334703
 30
0.0
 11
753.19207983
 21
294.04334703
 31
0.0
  0
LINE
  5
557
330
2
100
AcDbEntity
  8
YKK_13
100
AcDbLine
 10
653.19207983
 20
293.04334703
 30
0.0
 11
653.19207983
 21
294.04334703
 31
0.0
  0
LINE
  5
558
330
2
100
AcDbEntity
  8
YKK_13
100
AcDbLine
 10
753.19207983
 20
294.04334703
 30
0.0
 11
753.19207983
 21
293.04334703
 31
0.0
  0
LINE
  5
559
330
2
100
AcDbEntity
  8
YKK_13
100
AcDbLine
 10
653.19207983
 20
289.33624025
 30
0.0
 11
653.19207983
 21
291.75045381
 31
0.0
  0
LINE
  5
55A
330
2
100
AcDbEntity
  8
YKK_13
100
AcDbLine
 10
753.19207983
 20
291.75045381
 30
0.0
 11
753.19207983
 21
289.33624025
 31
0.0
  0
LINE
  5
55B
330
2
100
AcDbEntity
  8
YKK_13
100
AcDbLine
 10
753.19207983
 20
289.04334703
 30
0.0
 11
653.19207983
 21
289.04334703
 31
0.0
  0
LINE
  5
55C
330
2
100
AcDbEntity
  8
YKK_13
100
AcDbLine
 10
653.19207983
 20
289.04334703
 30
0.0
 11
653.19207983
 21
289.33624025
 31
0.0
  0
LINE
  5
55D
330
2
100
AcDbEntity
  8
YKK_13
100
AcDbLine
 10
753.19207983
 20
289.33624025
 30
0.0
 11
753.19207983
 21
289.04334703
 31
0.0
  0
LINE
  5
55E
330
2
100
AcDbEntity
  8
YKK_13
100
AcDbLine
 10
750.69207983
 20
289.04334703
 30
0.0
 11
750.69207983
 21
288.74334703
 31
0.0
  0
LINE
  5
55F
330
2
100
AcDbEntity
  8
YKK_13
100
AcDbLine
 10
655.69207983
 20
288.74334703
 30
0.0
 11
655.69207983
 21
289.04334703
 31
0.0
  0
ARC
  5
560
330
2
100
AcDbEntity
  8
YKK_13
100
AcDbCircle
 10
723.19207983
 20
264.04334703
 30
0.0
 40
2.249999999986375
100
AcDbArc
 50
352.33774434
 51
7.66225566
  0
LINE
  5
561
330
2
100
AcDbEntity
  8
YKK_13
100
AcDbLine
 10
725.42199014
 20
264.34334703
 30
0.0
 11
725.67401456
 21
264.34334703
 31
0.0
  0
ARC
  5
562
330
2
100
AcDbEntity
  8
YKK_13
100
AcDbCircle
 10
748.19207983
 20
264.04334703
 30
0.0
 40
2.500000000003923
100
AcDbArc
 50
353.10789742
 51
6.89210258
  0
LINE
  5
563
330
2
100
AcDbEntity
  8
YKK_13
100
AcDbLine
 10
725.67401456
 20
263.74334703
 30
0.0
 11
725.42199014
 21
263.74334703
 31
0.0
  0
LINE
  5
564
330
2
100
AcDbEntity
  8
YKK_13
100
AcDbLine
 10
720.96216952
 20
263.74334703
 30
0.0
 11
720.7101451
 21
263.74334703
 31
0.0
  0
ARC
  5
565
330
2
100
AcDbEntity
  8
YKK_13
100
AcDbCircle
 10
723.19207983
 20
264.04334703
 30
0.0
 40
2.49999999999021
100
AcDbArc
 50
173.10789742
 51
186.89210258
  0
LINE
  5
566
330
2
100
AcDbEntity
  8
YKK_13
100
AcDbLine
 10
720.7101451
 20
264.34334703
 30
0.0
 11
720.96216952
 21
264.34334703
 31
0.0
  0
ARC
  5
567
330
2
100
AcDbEntity
  8
YKK_13
100
AcDbCircle
 10
723.19207983
 20
264.04334703
 30
0.0
 40
2.249999999998939
100
AcDbArc
 50
172.33774434
 51
187.66225566
  0
LINE
  5
568
330
2
100
AcDbEntity
  8
YKK_13
100
AcDbLine
 10
685.42199014
 20
264.34334703
 30
0.0
 11
685.67401456
 21
264.34334703
 31
0.0
  0
ARC
  5
569
330
2
100
AcDbEntity
  8
YKK_13
100
AcDbCircle
 10
683.19207983
 20
264.04334703
 30
0.0
 40
2.499999999983662
100
AcDbArc
 50
353.10789742
 51
6.89210258
  0
LINE
  5
56A
330
2
100
AcDbEntity
  8
YKK_13
100
AcDbLine
 10
685.67401456
 20
263.74334703
 30
0.0
 11
685.42199014
 21
263.74334703
 31
0.0
  0
ARC
  5
56B
330
2
100
AcDbEntity
  8
YKK_13
100
AcDbCircle
 10
683.19207983
 20
264.04334703
 30
0.0
 40
2.250000000004798
100
AcDbArc
 50
352.33774434
 51
7.66225566
  0
LINE
  5
56C
330
2
100
AcDbEntity
  8
YKK_13
100
AcDbLine
 10
680.96216952
 20
263.74334703
 30
0.0
 11
680.7101451
 21
263.74334703
 31
0.0
  0
ARC
  5
56D
330
2
100
AcDbEntity
  8
YKK_13
100
AcDbCircle
 10
658.19207983
 20
264.04334703
 30
0.0
 40
2.500000000006461
100
AcDbArc
 50
173.10789742
 51
186.89210258
  0
LINE
  5
56E
330
2
100
AcDbEntity
  8
YKK_13
100
AcDbLine
 10
680.7101451
 20
264.34334703
 30
0.0
 11
680.96216952
 21
264.34334703
 31
0.0
  0
ARC
  5
56F
330
2
100
AcDbEntity
  8
YKK_13
100
AcDbCircle
 10
683.19207983
 20
264.04334703
 30
0.0
 40
2.250000000004853
100
AcDbArc
 50
172.33774434
 51
187.66225566
  0
LINE
  5
570
330
2
100
AcDbEntity
  8
YKK_13
100
AcDbLine
 10
750.69207983
 20
263.74334703
 30
0.0
 11
750.67401456
 21
263.74334703
 31
0.0
  0
LINE
  5
571
330
2
100
AcDbEntity
  8
YKK_13
100
AcDbLine
 10
750.67401456
 20
264.34334703
 30
0.0
 11
750.69207983
 21
264.34334703
 31
0.0
  0
LINE
  5
572
330
2
100
AcDbEntity
  8
YKK_13
100
AcDbLine
 10
750.69207983
 20
264.34334703
 30
0.0
 11
750.69207983
 21
263.74334703
 31
0.0
  0
LINE
  5
573
330
2
100
AcDbEntity
  8
YKK_13
100
AcDbLine
 10
685.67401456
 20
264.34334703
 30
0.0
 11
720.7101451
 21
264.34334703
 31
0.0
  0
LINE
  5
574
330
2
100
AcDbEntity
  8
YKK_13
100
AcDbLine
 10
720.7101451
 20
263.74334703
 30
0.0
 11
685.67401456
 21
263.74334703
 31
0.0
  0
LINE
  5
575
330
2
100
AcDbEntity
  8
YKK_13
100
AcDbLine
 10
655.69207983
 20
264.34334703
 30
0.0
 11
655.7101451
 21
264.34334703
 31
0.0
  0
LINE
  5
576
330
2
100
AcDbEntity
  8
YKK_13
100
AcDbLine
 10
655.7101451
 20
263.74334703
 30
0.0
 11
655.69207983
 21
263.74334703
 31
0.0
  0
LINE
  5
577
330
2
100
AcDbEntity
  8
YKK_13
100
AcDbLine
 10
655.69207983
 20
263.74334703
 30
0.0
 11
655.69207983
 21
264.34334703
 31
0.0
  0
ARC
  5
578
330
2
100
AcDbEntity
  8
YKK_13
100
AcDbCircle
 10
683.19207983
 20
264.04334703
 30
0.0
 40
2.500000000000029
100
AcDbArc
 50
180.0
 51
353.10789742
  0
ARC
  5
579
330
2
100
AcDbEntity
  8
YKK_13
100
AcDbCircle
 10
723.19207983
 20
264.04334703
 30
0.0
 40
2.500000000000029
100
AcDbArc
 50
186.89210258
 51
0.0
  0
LINE
  5
57A
330
2
100
AcDbEntity
  8
YKK_13
100
AcDbLine
 10
655.69207983
 20
252.95756059
 30
0.0
 11
750.69207983
 21
252.95756059
 31
0.0
  0
LINE
  5
57B
330
2
100
AcDbEntity
  8
YKK_13
100
AcDbLine
 10
655.69207983
 20
252.95756059
 30
0.0
 11
655.69207983
 21
263.74334703
 31
0.0
  0
LINE
  5
57C
330
2
100
AcDbEntity
  8
YKK_13
100
AcDbLine
 10
750.69207983
 20
263.74334703
 30
0.0
 11
750.69207983
 21
252.95756059
 31
0.0
  0
LINE
  5
57D
330
2
100
AcDbEntity
  8
YKK_13
100
AcDbLine
 10
655.69207983
 20
252.95756059
 30
0.0
 11
655.69207983
 21
252.25045381
 31
0.0
  0
LINE
  5
57E
330
2
100
AcDbEntity
  8
YKK_13
100
AcDbLine
 10
750.69207983
 20
252.25045381
 30
0.0
 11
750.69207983
 21
252.95756059
 31
0.0
  0
ARC
  5
57F
330
2
100
AcDbEntity
  8
YKK_13
100
AcDbCircle
 10
723.19207983
 20
264.04334703
 30
0.0
 40
2.500000000000029
100
AcDbArc
 50
0.0
 51
173.10789742
  0
ARC
  5
580
330
2
100
AcDbEntity
  8
YKK_13
100
AcDbCircle
 10
683.19207983
 20
264.04334703
 30
0.0
 40
2.500000000000029
100
AcDbArc
 50
6.89210258
 51
180.0
  0
LINE
  5
581
330
2
100
AcDbEntity
  8
YKK_13
100
AcDbLine
 10
655.69207983
 20
264.34334703
 30
0.0
 11
655.69207983
 21
288.74334703
 31
0.0
  0
LINE
  5
582
330
2
100
AcDbEntity
  8
YKK_13
100
AcDbLine
 10
750.69207983
 20
288.74334703
 30
0.0
 11
750.69207983
 21
264.34334703
 31
0.0
  0
ARC
  5
583
330
2
100
AcDbEntity
  8
YKK_13
100
AcDbCircle
 10
723.19207983
 20
264.04334703
 30
0.0
 40
2.250000000000009
100
AcDbArc
 50
187.66225566
 51
352.33774434
  0
ARC
  5
584
330
2
100
AcDbEntity
  8
YKK_13
100
AcDbCircle
 10
723.19207983
 20
264.04334703
 30
0.0
 40
2.250000000000009
100
AcDbArc
 50
7.66225566
 51
172.33774434
  0
ARC
  5
585
330
2
100
AcDbEntity
  8
YKK_13
100
AcDbCircle
 10
683.19207983
 20
264.04334703
 30
0.0
 40
2.250000000000009
100
AcDbArc
 50
7.66225566
 51
172.33774434
  0
ARC
  5
586
330
2
100
AcDbEntity
  8
YKK_13
100
AcDbCircle
 10
683.19207983
 20
264.04334703
 30
0.0
 40
2.250000000000009
100
AcDbArc
 50
187.66225566
 51
352.33774434
  0
LINE
  5
587
330
2
100
AcDbEntity
  8
YKK_13
100
AcDbLine
 10
655.69207983
 20
252.25045381
 30
0.0
 11
655.69207983
 21
249.33624025
 31
0.0
  0
LINE
  5
588
330
2
100
AcDbEntity
  8
YKK_13
100
AcDbLine
 10
750.69207983
 20
249.33624025
 30
0.0
 11
750.69207983
 21
252.25045381
 31
0.0
  0
LINE
  5
589
330
2
100
AcDbEntity
  8
YKK_13
100
AcDbLine
 10
750.69207983
 20
249.04334703
 30
0.0
 11
655.69207983
 21
249.04334703
 31
0.0
  0
LINE
  5
58A
330
2
100
AcDbEntity
  8
YKK_13
100
AcDbLine
 10
655.69207983
 20
249.33624025
 30
0.0
 11
655.69207983
 21
249.04334703
 31
0.0
  0
LINE
  5
58B
330
2
100
AcDbEntity
  8
YKK_13
100
AcDbLine
 10
750.69207983
 20
249.04334703
 30
0.0
 11
750.69207983
 21
249.33624025
 31
0.0
  0
LINE
  5
58C
330
2
100
AcDbEntity
  8
YKK_12
  6
YCENTER_1
100
AcDbLine
 10
703.19207983
 20
246.54334703
 30
0.0
 11
703.19207983
 21
296.54334703
 31
0.0
  0
LINE
  5
58D
330
2
100
AcDbEntity
  8
YKK_12
  6
YCENTER_1
100
AcDbLine
 10
727.69207983
 20
264.04334703
 30
0.0
 11
718.69207983
 21
264.04334703
 31
0.0
  0
LINE
  5
58E
330
2
100
AcDbEntity
  8
YKK_12
  6
YCENTER_1
100
AcDbLine
 10
723.19207983
 20
268.54334703
 30
0.0
 11
723.19207983
 21
259.54334703
 31
0.0
  0
LINE
  5
58F
330
2
100
AcDbEntity
  8
YKK_12
  6
YCENTER_1
100
AcDbLine
 10
687.69207983
 20
264.04334703
 30
0.0
 11
678.69207983
 21
264.04334703
 31
0.0
  0
LINE
  5
590
330
2
100
AcDbEntity
  8
YKK_12
  6
YCENTER_1
100
AcDbLine
 10
683.19207983
 20
268.54334703
 30
0.0
 11
683.19207983
 21
259.54334703
 31
0.0
  0
LINE
  5
591
330
2
100
AcDbEntity
  8
YKK_13
100
AcDbLine
 10
725.67401456
 20
264.34334703
 30
0.0
 11
750.69207983
 21
264.34334703
 31
0.0
  0
LINE
  5
592
330
2
100
AcDbEntity
  8
YKK_13
100
AcDbLine
 10
750.69207983
 20
263.74334703
 30
0.0
 11
725.67401456
 21
263.74334703
 31
0.0
  0
LINE
  5
593
330
2
100
AcDbEntity
  8
YKK_13
100
AcDbLine
 10
655.69207983
 20
264.34334703
 30
0.0
 11
680.7101451
 21
264.34334703
 31
0.0
  0
LINE
  5
594
330
2
100
AcDbEntity
  8
YKK_13
100
AcDbLine
 10
680.7101451
 20
263.74334703
 30
0.0
 11
655.69207983
 21
263.74334703
 31
0.0
  0
ARC
  5
595
330
2
100
AcDbEntity
  8
YKK_13
370
    -2
100
AcDbCircle
 10
490.44939309
 20
288.74334703
 30
0.0
 40
0.3000000000000114
100
AcDbArc
 50
0.0
 51
90.0
  0
LINE
  5
596
330
2
100
AcDbEntity
  8
YKK_13
370
    -2
100
AcDbLine
 10
490.44939309
 20
289.04334703
 30
0.0
 11
458.70765066
 21
289.04334703
 31
0.0
  0
ARC
  5
597
330
2
100
AcDbEntity
  8
YKK_13
370
    -2
100
AcDbCircle
 10
458.70765066
 20
289.24334703
 30
0.0
 40
0.1999999999999886
100
AcDbArc
 50
203.57817848
 51
270.0
  0
ARC
  5
598
330
2
100
AcDbEntity
  8
YKK_13
370
    -2
100
AcDbCircle
 10
458.24939309
 20
289.04334703
 30
0.0
 40
0.2999999999999927
100
AcDbArc
 50
23.57817848
 51
156.42182152
  0
ARC
  5
599
330
2
100
AcDbEntity
  8
YKK_13
370
    -2
100
AcDbCircle
 10
457.79113552
 20
289.24334703
 30
0.0
 40
0.1999999999999886
100
AcDbArc
 50
270.0
 51
336.42182152
  0
LINE
  5
59A
330
2
100
AcDbEntity
  8
YKK_13
370
    -2
100
AcDbLine
 10
457.79113552
 20
289.04334703
 30
0.0
 11
446.66360665
 21
289.04334703
 31
0.0
  0
ARC
  5
59B
330
2
100
AcDbEntity
  8
YKK_13
370
    -2
100
AcDbCircle
 10
446.66360665
 20
290.04334703
 30
0.0
 40
1.000000000000027
100
AcDbArc
 50
225.0
 51
270.0
  0
LINE
  5
59C
330
2
100
AcDbEntity
  8
YKK_13
370
    -2
100
AcDbLine
 10
445.95649987
 20
289.33624025
 30
0.0
 11
443.54228631
 21
291.75045381
 31
0.0
  0
ARC
  5
59D
330
2
100
AcDbEntity
  8
YKK_13
370
    -2
100
AcDbCircle
 10
444.24939309
 20
292.45756059
 30
0.0
 40
1.000000000000012
100
AcDbArc
 50
180.0
 51
225.0
  0
LINE
  5
59E
330
2
100
AcDbEntity
  8
YKK_13
370
    -2
100
AcDbLine
 10
443.24939309
 20
292.45756059
 30
0.0
 11
443.24939309
 21
293.04334703
 31
0.0
  0
ARC
  5
59F
330
2
100
AcDbEntity
  8
YKK_13
370
    -2
100
AcDbCircle
 10
444.24939309
 20
293.04334703
 30
0.0
 40
0.9999999999999715
100
AcDbArc
 50
90.0
 51
180.0
  0
LINE
  5
5A0
330
2
100
AcDbEntity
  8
YKK_13
370
    -2
100
AcDbLine
 10
444.24939309
 20
294.04334703
 30
0.0
 11
632.24939309
 21
294.04334703
 31
0.0
  0
ARC
  5
5A1
330
2
100
AcDbEntity
  8
YKK_13
370
    -2
100
AcDbCircle
 10
632.24939309
 20
293.04334703
 30
0.0
 40
1.0
100
AcDbArc
 50
0.0
 51
90.0
  0
LINE
  5
5A2
330
2
100
AcDbEntity
  8
YKK_13
370
    -2
100
AcDbLine
 10
633.24939309
 20
293.04334703
 30
0.0
 11
633.24939309
 21
292.45756059
 31
0.0
  0
ARC
  5
5A3
330
2
100
AcDbEntity
  8
YKK_13
370
    -2
100
AcDbCircle
 10
632.24939309
 20
292.45756059
 30
0.0
 40
1.0
100
AcDbArc
 50
315.0
 51
0.0
  0
LINE
  5
5A4
330
2
100
AcDbEntity
  8
YKK_13
370
    -2
100
AcDbLine
 10
632.95649987
 20
291.75045381
 30
0.0
 11
630.54228631
 21
289.33624025
 31
0.0
  0
ARC
  5
5A5
330
2
100
AcDbEntity
  8
YKK_13
370
    -2
100
AcDbCircle
 10
629.83517953
 20
290.04334703
 30
0.0
 40
1.000000000000047
100
AcDbArc
 50
270.0
 51
315.0
  0
LINE
  5
5A6
330
2
100
AcDbEntity
  8
YKK_13
370
    -2
100
AcDbLine
 10
629.83517953
 20
289.04334703
 30
0.0
 11
618.70765066
 21
289.04334703
 31
0.0
  0
ARC
  5
5A7
330
2
100
AcDbEntity
  8
YKK_13
370
    -2
100
AcDbCircle
 10
618.70765066
 20
289.24334703
 30
0.0
 40
0.1999999999999886
100
AcDbArc
 50
203.57817848
 51
270.0
  0
ARC
  5
5A8
330
2
100
AcDbEntity
  8
YKK_13
370
    -2
100
AcDbCircle
 10
618.24939309
 20
289.04334703
 30
0.0
 40
0.3000000000000057
100
AcDbArc
 50
23.57817848
 51
156.42182152
  0
ARC
  5
5A9
330
2
100
AcDbEntity
  8
YKK_13
370
    -2
100
AcDbCircle
 10
617.79113552
 20
289.24334703
 30
0.0
 40
0.1999999999999642
100
AcDbArc
 50
270.0
 51
336.42182152
  0
LINE
  5
5AA
330
2
100
AcDbEntity
  8
YKK_13
370
    -2
100
AcDbLine
 10
617.79113552
 20
289.04334703
 30
0.0
 11
586.04939309
 21
289.04334703
 31
0.0
  0
ARC
  5
5AB
330
2
100
AcDbEntity
  8
YKK_13
370
    -2
100
AcDbCircle
 10
586.04939309
 20
288.74334703
 30
0.0
 40
0.3000000000000114
100
AcDbArc
 50
90.0
 51
180.0
  0
LINE
  5
5AC
330
2
100
AcDbEntity
  8
YKK_13
370
    -2
100
AcDbLine
 10
585.74939309
 20
288.74334703
 30
0.0
 11
585.74939309
 21
264.5016046
 31
0.0
  0
ARC
  5
5AD
330
2
100
AcDbEntity
  8
YKK_13
370
    -2
100
AcDbCircle
 10
585.54939309
 20
264.5016046
 30
0.0
 40
0.1999999999999886
100
AcDbArc
 50
293.57817848
 51
0.0
  0
ARC
  5
5AE
330
2
100
AcDbEntity
  8
YKK_13
370
    -2
100
AcDbCircle
 10
585.74939309
 20
264.04334703
 30
0.0
 40
0.3000000000000057
100
AcDbArc
 50
113.57817848
 51
246.42182152
  0
ARC
  5
5AF
330
2
100
AcDbEntity
  8
YKK_13
370
    -2
100
AcDbCircle
 10
585.54939309
 20
263.58508946
 30
0.0
 40
0.1999999999999789
100
AcDbArc
 50
0.0
 51
66.42182152
  0
LINE
  5
5B0
330
2
100
AcDbEntity
  8
YKK_13
370
    -2
100
AcDbLine
 10
585.74939309
 20
263.58508946
 30
0.0
 11
585.74939309
 21
252.95756059
 31
0.0
  0
ARC
  5
5B1
330
2
100
AcDbEntity
  8
YKK_13
370
    -2
100
AcDbCircle
 10
584.74939309
 20
252.95756059
 30
0.0
 40
1.000000000000027
100
AcDbArc
 50
315.0
 51
0.0
  0
LINE
  5
5B2
330
2
100
AcDbEntity
  8
YKK_13
370
    -2
100
AcDbLine
 10
585.45649987
 20
252.25045381
 30
0.0
 11
582.54228631
 21
249.33624025
 31
0.0
  0
ARC
  5
5B3
330
2
100
AcDbEntity
  8
YKK_13
370
    -2
100
AcDbCircle
 10
581.83517953
 20
250.04334703
 30
0.0
 40
1.000000000000037
100
AcDbArc
 50
270.0
 51
315.0
  0
LINE
  5
5B4
330
2
100
AcDbEntity
  8
YKK_13
370
    -2
100
AcDbLine
 10
581.83517953
 20
249.04334703
 30
0.0
 11
581.74939309
 21
249.04334703
 31
0.0
  0
ARC
  5
5B5
330
2
100
AcDbEntity
  8
YKK_13
370
    -2
100
AcDbCircle
 10
581.74939309
 20
250.04334703
 30
0.0
 40
1.0
100
AcDbArc
 50
180.0
 51
270.0
  0
LINE
  5
5B6
330
2
100
AcDbEntity
  8
YKK_13
370
    -2
100
AcDbLine
 10
580.74939309
 20
250.04334703
 30
0.0
 11
580.74939309
 21
288.74334703
 31
0.0
  0
ARC
  5
5B7
330
2
100
AcDbEntity
  8
YKK_13
370
    -2
100
AcDbCircle
 10
580.44939309
 20
288.74334703
 30
0.0
 40
0.3000000000000114
100
AcDbArc
 50
0.0
 51
90.0
  0
LINE
  5
5B8
330
2
100
AcDbEntity
  8
YKK_13
370
    -2
100
AcDbLine
 10
580.44939309
 20
289.04334703
 30
0.0
 11
496.04939309
 21
289.04334703
 31
0.0
  0
ARC
  5
5B9
330
2
100
AcDbEntity
  8
YKK_13
370
    -2
100
AcDbCircle
 10
496.04939309
 20
288.74334703
 30
0.0
 40
0.3000000000000114
100
AcDbArc
 50
90.0
 51
180.0
  0
LINE
  5
5BA
330
2
100
AcDbEntity
  8
YKK_13
370
    -2
100
AcDbLine
 10
495.74939309
 20
288.74334703
 30
0.0
 11
495.74939309
 21
250.04334703
 31
0.0
  0
ARC
  5
5BB
330
2
100
AcDbEntity
  8
YKK_13
370
    -2
100
AcDbCircle
 10
494.74939309
 20
250.04334703
 30
0.0
 40
1.0
100
AcDbArc
 50
270.0
 51
0.0
  0
LINE
  5
5BC
330
2
100
AcDbEntity
  8
YKK_13
370
    -2
100
AcDbLine
 10
494.74939309
 20
249.04334703
 30
0.0
 11
494.66360665
 21
249.04334703
 31
0.0
  0
ARC
  5
5BD
330
2
100
AcDbEntity
  8
YKK_13
370
    -2
100
AcDbCircle
 10
494.66360665
 20
250.04334703
 30
0.0
 40
1.0
100
AcDbArc
 50
225.0
 51
270.0
  0
LINE
  5
5BE
330
2
100
AcDbEntity
  8
YKK_13
370
    -2
100
AcDbLine
 10
493.95649987
 20
249.33624025
 30
0.0
 11
491.04228631
 21
252.25045381
 31
0.0
  0
ARC
  5
5BF
330
2
100
AcDbEntity
  8
YKK_13
370
    -2
100
AcDbCircle
 10
491.74939309
 20
252.95756059
 30
0.0
 40
0.9999999999999879
100
AcDbArc
 50
180.0
 51
225.0
  0
LINE
  5
5C0
330
2
100
AcDbEntity
  8
YKK_13
370
    -2
100
AcDbLine
 10
490.74939309
 20
252.95756059
 30
0.0
 11
490.74939309
 21
263.58508946
 31
0.0
  0
ARC
  5
5C1
330
2
100
AcDbEntity
  8
YKK_13
370
    -2
100
AcDbCircle
 10
490.94939309
 20
263.58508946
 30
0.0
 40
0.2000000000000028
100
AcDbArc
 50
113.57817848
 51
180.0
  0
ARC
  5
5C2
330
2
100
AcDbEntity
  8
YKK_13
370
    -2
100
AcDbCircle
 10
490.74939309
 20
264.04334703
 30
0.0
 40
0.3000000000000057
100
AcDbArc
 50
293.57817848
 51
66.42182152
  0
ARC
  5
5C3
330
2
100
AcDbEntity
  8
YKK_13
370
    -2
100
AcDbCircle
 10
490.94939309
 20
264.5016046
 30
0.0
 40
0.1999999999999919
100
AcDbArc
 50
180.0
 51
246.42182152
  0
LINE
  5
5C4
330
2
100
AcDbEntity
  8
YKK_13
370
    -2
100
AcDbLine
 10
490.74939309
 20
264.5016046
 30
0.0
 11
490.74939309
 21
288.74334703
 31
0.0
  0
LINE
  5
5C5
330
2
100
AcDbEntity
  8
YKK_13
100
AcDbLine
 10
580.44939309
 20
289.04334703
 30
0.0
 11
586.04939309
 21
289.04334703
 31
0.0
  0
LINE
  5
5C6
330
2
100
AcDbEntity
  8
YKK_13
100
AcDbLine
 10
496.04939309
 20
289.04334703
 30
0.0
 11
490.44939309
 21
289.04334703
 31
0.0
  0
LINE
  5
5C7
330
2
100
AcDbEntity
  8
YKK_12
  6
YCENTER_1
100
AcDbLine
 10
637.75051542
 20
367.56007222
 30
0.0
 11
438.75194587
 21
367.56007222
 31
0.0
  0
TEXT
  5
5C8
330
2
100
AcDbEntity
  8
TABLE1
100
AcDbText
 10
48.22355441
 20
471.87512599
 30
0.0
 40
6.5
  1
品名
 41
0.8
  7
text-b
100
AcDbText
  0
TEXT
  5
5C9
330
2
100
AcDbEntity
  8
TABLE1
100
AcDbText
 10
48.26022107
 20
447.87512599
 30
0.0
 40
6.5
  1
型番
 41
0.8
  7
text-b
100
AcDbText
  0
TEXT
  5
5CA
330
2
100
AcDbEntity
  8
TABLE1
100
AcDbText
 10
42.23296071
 20
339.9000077
 30
0.0
 40
8.0
  1
寸法図
 41
0.8
  7
text-b
100
AcDbText
  0
TEXT
  5
5CB
330
2
100
AcDbEntity
  8
TABLE1
100
AcDbText
 10
39.17568134
 20
201.92488941
 30
0.0
 40
6.5
  1
外形寸法
 41
0.8
  7
text-b
100
AcDbText
  0
TEXT
  5
5CC
330
2
100
AcDbEntity
  8
TABLE1
100
AcDbText
 10
46.85568134
 20
177.92488941
 30
0.0
 40
6.5
  1
材質
 41
0.8
  7
text-b
100
AcDbText
  0
TEXT
  5
5CD
330
2
100
AcDbEntity
  8
TABLE1
100
AcDbText
 10
32.34901467
 20
165.92488941
 30
0.0
 40
6.5
  1
単重(㎏/m)
 41
0.8
  7
text-b
100
AcDbText
  0
TEXT
  5
5CE
330
2
100
AcDbEntity
  8
TABLE1
100
AcDbText
 10
7.4939852
 20
154.59155608
 30
0.0
 40
6.5
  1
断面二次モーメント
 41
0.8
  7
text-b
100
AcDbText
  0
TEXT
  5
5CF
330
2
100
AcDbEntity
  8
TABLE1
100
AcDbText
 10
29.59531853
 20
141.25822275
 30
0.0
 40
6.5
  1
(cm
 41
0.8
  7
text-b
100
AcDbText
  0
TEXT
  5
5D0
330
2
100
AcDbEntity
  8
TABLE1
100
AcDbText
 10
44.95531853
 20
146.19155608
 30
0.0
 40
6.5
  1
4
 41
0.8
  7
text-b
100
AcDbText
  0
TEXT
  5
5D1
330
2
100
AcDbEntity
  8
TABLE1
100
AcDbText
 10
48.53931853
 20
141.25822275
 30
0.0
 40
6.5
  1
)
 41
0.8
  7
text-b
100
AcDbText
  0
TEXT
  5
5D2
330
2
100
AcDbEntity
  8
TABLE1
100
AcDbText
 10
84.4540084
 20
153.92488941
 30
0.0
 40
6.5
  1
Ix
 41
0.8
  7
text-b
100
AcDbText
  0
TEXT
  5
5D3
330
2
100
AcDbEntity
  8
TABLE1
100
AcDbText
 10
84.4540084
 20
141.92488941
 30
0.0
 40
6.5
  1
Iy
 41
0.8
  7
text-b
100
AcDbText
  0
TEXT
  5
5D4
330
2
100
AcDbEntity
  8
TABLE1
100
AcDbText
 10
26.6939852
 20
130.59155608
 30
0.0
 40
6.5
  1
断面係数
 41
0.8
  7
text-b
100
AcDbText
  0
TEXT
  5
5D5
330
2
100
AcDbEntity
  8
TABLE1
100
AcDbText
 10
29.59531853
 20
117.25822275
 30
0.0
 40
6.5
  1
(cm
 41
0.8
  7
text-b
100
AcDbText
  0
TEXT
  5
5D6
330
2
100
AcDbEntity
  8
TABLE1
100
AcDbText
 10
44.95531853
 20
122.19155608
 30
0.0
 40
6.5
  1
3
 41
0.8
  7
text-b
100
AcDbText
  0
TEXT
  5
5D7
330
2
100
AcDbEntity
  8
TABLE1
100
AcDbText
 10
48.53931853
 20
117.25822275
 30
0.0
 40
6.5
  1
)
 41
0.8
  7
text-b
100
AcDbText
  0
TEXT
  5
5D8
330
2
100
AcDbEntity
  8
TABLE1
100
AcDbText
 10
84.4540084
 20
129.92488941
 30
0.0
 40
6.5
  1
Zx
 41
0.8
  7
text-b
100
AcDbText
  0
TEXT
  5
5D9
330
2
100
AcDbEntity
  8
TABLE1
100
AcDbText
 10
84.4540084
 20
117.92488941
 30
0.0
 40
6.5
  1
Zy
 41
0.8
  7
text-b
100
AcDbText
  0
TEXT
  5
5DA
330
2
100
AcDbEntity
  8
TABLE1
100
AcDbText
 10
247.76067507
 20
447.87512599
 30
0.0
 40
6.5
  1
6K-19041
 41
0.8
  7
text-b
100
AcDbText
  0
TEXT
  5
5DB
330
2
100
AcDbEntity
  8
TABLE1
100
AcDbText
 10
242.64067507
 20
201.92488941
 30
0.0
 40
6.5
  1
90×90×H45
 41
0.8
  7
text-b
100
AcDbText
  0
TEXT
  5
5DC
330
2
100
AcDbEntity
  8
TABLE1
100
AcDbText
 10
252.88067507
 20
177.92488941
 30
0.0
 40
6.5
  1
A6063S
 41
0.8
  7
text-b
100
AcDbText
  0
TEXT
  5
5DD
330
2
100
AcDbEntity
  8
TABLE1
100
AcDbText
 10
31.49568134
 20
189.92488941
 30
0.0
 40
6.5
  1
ユニット記号
 41
0.8
  7
text-b
100
AcDbText
  0
TEXT
  5
5DE
330
2
100
AcDbEntity
  8
TABLE1
100
AcDbText
 10
242.64067507
 20
189.92488941
 30
0.0
 40
6.5
  1
AHY-BC19-2
 41
0.8
  7
text-b
100
AcDbText
  0
TEXT
  5
5DF
330
2
100
AcDbEntity
  8
USER1
100
AcDbText
 10
653.64786265
 20
89.21172794
 30
0.0
 40
6.5
  1
※材質はJIS H 4100による
 41
0.8
  7
text-b
100
AcDbText
  0
LINE
  5
5E0
330
2
100
AcDbEntity
  8
YKK_12
100
AcDbLine
 10
648.20403361
 20
101.46720654
 30
0.0
 11
760.01836058
 21
101.46720654
 31
0.0
  0
LINE
  5
5E1
330
2
100
AcDbEntity
  8
YKK_12
100
AcDbLine
 10
760.01836058
 20
101.46720654
 30
0.0
 11
760.01836058
 21
85.69534952
 31
0.0
  0
LINE
  5
5E2
330
2
100
AcDbEntity
  8
YKK_12
100
AcDbLine
 10
760.01836058
 20
85.69534952
 30
0.0
 11
648.20403361
 21
85.69534952
 31
0.0
  0
LINE
  5
5E3
330
2
100
AcDbEntity
  8
YKK_12
100
AcDbLine
 10
648.20403361
 20
85.69534952
 30
0.0
 11
648.20403361
 21
101.46720654
 31
0.0
  0
TEXT
  5
5E4
330
2
100
AcDbEntity
  8
USER1
100
AcDbText
 10
108.21957299
 20
416.72218802
 30
0.0
 40
7.0
  1
X
 41
0.8
  7
text-b
100
AcDbText
  0
TEXT
  5
5E5
330
2
100
AcDbEntity
  8
USER1
100
AcDbText
 10
123.93349875
 20
433.03701707
 30
0.0
 40
7.0
  1
Y
 41
0.8
  7
text-b
100
AcDbText
  0
TEXT
  5
5E6
330
2
100
AcDbEntity
  8
USER1
100
AcDbText
 10
438.21957299
 20
416.72218802
 30
0.0
 40
7.0
  1
X
 41
0.8
  7
text-b
100
AcDbText
  0
TEXT
  5
5E7
330
2
100
AcDbEntity
  8
USER1
100
AcDbText
 10
453.93349875
 20
433.03701707
 30
0.0
 40
7.0
  1
Y
 41
0.8
  7
text-b
100
AcDbText
  0
TEXT
  5
5E8
330
2
100
AcDbEntity
  8
TABLE1
100
AcDbText
 10
48.26022107
 20
459.87512599
 30
0.0
 40
6.5
  1
種類
 41
0.8
  7
text-b
100
AcDbText
  0
TEXT
  5
5E9
330
2
100
AcDbEntity
  8
TABLE1
100
AcDbText
 10
230.26734173
 20
459.87512599
 30
0.0
 40
6.5
  1
90角用 ジョイント材
 41
0.8
  7
text-b
100
AcDbText
  0
TEXT
  5
5EA
330
2
100
AcDbEntity
  8
TABLE1
100
AcDbText
 10
255.22734173
 20
165.92488941
 30
0.0
 40
6.5
  1
3.246
 41
0.8
  7
text-b
100
AcDbText
  0
TEXT
  5
5EB
330
2
100
AcDbEntity
  8
TABLE1
100
AcDbText
 10
255.22734173
 20
153.92488941
 30
0.0
 40
6.5
  1
17.60
 41
0.8
  7
text-b
100
AcDbText
  0
TEXT
  5
5EC
330
2
100
AcDbEntity
  8
TABLE1
100
AcDbText
 10
252.66734173
 20
141.92488941
 30
0.0
 40
6.5
  1
242.56
 41
0.8
  7
text-b
100
AcDbText
  0
TEXT
  5
5ED
330
2
100
AcDbEntity
  8
TABLE1
100
AcDbText
 10
257.78734173
 20
129.92488941
 30
0.0
 40
6.5
  1
4.96
 41
0.8
  7
text-b
100
AcDbText
  0
TEXT
  5
5EE
330
2
100
AcDbEntity
  8
TABLE1
100
AcDbText
 10
255.22734173
 20
117.92488941
 30
0.0
 40
6.5
  1
29.40
 41
0.8
  7
text-b
100
AcDbText
  0
TEXT
  5
5EF
330
2
100
AcDbEntity
  8
TABLE1
100
AcDbText
 10
582.76067507
 20
447.87512599
 30
0.0
 40
6.5
  1
6K-19042
 41
0.8
  7
text-b
100
AcDbText
  0
TEXT
  5
5F0
330
2
100
AcDbEntity
  8
TABLE1
100
AcDbText
 10
572.52067507
 20
201.92488941
 30
0.0
 40
6.5
  1
100×100×H45
 41
0.8
  7
text-b
100
AcDbText
  0
TEXT
  5
5F1
330
2
100
AcDbEntity
  8
TABLE1
100
AcDbText
 10
587.88067507
 20
177.92488941
 30
0.0
 40
6.5
  1
A6063S
 41
0.8
  7
text-b
100
AcDbText
  0
TEXT
  5
5F2
330
2
100
AcDbEntity
  8
TABLE1
100
AcDbText
 10
577.64067507
 20
189.92488941
 30
0.0
 40
6.5
  1
AHY-BC20-2
 41
0.8
  7
text-b
100
AcDbText
  0
TEXT
  5
5F3
330
2
100
AcDbEntity
  8
TABLE1
100
AcDbText
 10
562.70734173
 20
459.87512599
 30
0.0
 40
6.5
  1
100角用 ジョイント材
 41
0.8
  7
text-b
100
AcDbText
  0
TEXT
  5
5F4
330
2
100
AcDbEntity
  8
TABLE1
100
AcDbText
 10
590.22734173
 20
165.92488941
 30
0.0
 40
6.5
  1
3.583
 41
0.8
  7
text-b
100
AcDbText
  0
TEXT
  5
5F5
330
2
100
AcDbEntity
  8
TABLE1
100
AcDbText
 10
590.22734173
 20
153.92488941
 30
0.0
 40
6.5
  1
18.19
 41
0.8
  7
text-b
100
AcDbText
  0
TEXT
  5
5F6
330
2
100
AcDbEntity
  8
TABLE1
100
AcDbText
 10
587.66734173
 20
141.92488941
 30
0.0
 40
6.5
  1
355.49
 41
0.8
  7
text-b
100
AcDbText
  0
TEXT
  5
5F7
330
2
100
AcDbEntity
  8
TABLE1
100
AcDbText
 10
592.78734173
 20
129.92488941
 30
0.0
 40
6.5
  1
5.03
 41
0.8
  7
text-b
100
AcDbText
  0
TEXT
  5
5F8
330
2
100
AcDbEntity
  8
TABLE1
100
AcDbText
 10
590.22734173
 20
117.92488941
 30
0.0
 40
6.5
  1
37.42
 41
0.8
  7
text-b
100
AcDbText
  0
TEXT
  5
5F9
330
2
100
AcDbEntity
  8
USER1
100
AcDbText
 10
409.19707163
 20
217.08042492
 30
0.0
 40
8.0
  1
t=5
 41
0.8
  7
text-b
100
AcDbText
  0
TEXT
  5
5FA
330
2
100
AcDbEntity
  8
USER1
100
AcDbText
 10
749.07562622
 20
217.08042492
 30
0.0
 40
8.0
  1
t=5
 41
0.8
  7
text-b
100
AcDbText
  0
LINE
  5
5FB
330
2
100
AcDbEntity
  8
YKK_D
100
AcDbLine
 10
157.5594972
 20
258.59638027
 30
0.0
 11
157.5594972
 21
244.6821667
 31
0.0
  0
LINE
  5
5FC
330
2
100
AcDbEntity
  8
YKK_D
100
AcDbLine
 10
242.5594972
 20
258.59638027
 30
0.0
 11
242.5594972
 21
244.6821667
 31
0.0
  0
LINE
  5
5FD
330
2
100
AcDbEntity
  8
YKK_D
100
AcDbLine
 10
159.2594972
 20
245.6821667
 30
0.0
 11
240.8594972
 21
245.6821667
 31
0.0
  0
LINE
  5
5FE
330
2
100
AcDbEntity
  8
YKK_D
100
AcDbLine
 10
239.5594972
 20
255.6821667
 30
0.0
 11
293.54680968
 21
255.6821667
 31
0.0
  0
LINE
  5
5FF
330
2
100
AcDbEntity
  8
YKK_D
100
AcDbLine
 10
282.5594972
 20
300.6821667
 30
0.0
 11
293.54680968
 21
300.6821667
 31
0.0
  0
LINE
  5
600
330
2
100
AcDbEntity
  8
YKK_D
100
AcDbLine
 10
292.54680968
 20
257.3821667
 30
0.0
 11
292.54680968
 21
298.9821667
 31
0.0
  0
LINE
  5
601
330
2
100
AcDbEntity
  8
YKK_D
100
AcDbLine
 10
117.55772209
 20
300.38927191
 30
0.0
 11
117.53818737
 21
311.39406332
 31
0.0
  0
LINE
  5
602
330
2
100
AcDbEntity
  8
YKK_D
100
AcDbLine
 10
282.55772209
 20
300.68216513
 30
0.0
 11
282.53818737
 21
311.68695654
 31
0.0
  0
LINE
  5
603
330
2
100
AcDbEntity
  8
YKK_D
100
AcDbLine
 10
119.2399598
 20
310.39708258
 30
0.0
 11
280.83996516
 21
310.68394043
 31
0.0
  0
LINE
  5
604
330
2
100
AcDbEntity
  8
YKK_D
100
AcDbLine
 10
278.3094972
 20
390.62265244
 30
0.0
 11
293.5594972
 21
390.62265244
 31
0.0
  0
LINE
  5
605
330
2
100
AcDbEntity
  8
YKK_D
100
AcDbLine
 10
278.3094972
 20
350.62265244
 30
0.0
 11
293.5594972
 21
350.62265244
 31
0.0
  0
LINE
  5
606
330
2
100
AcDbEntity
  8
YKK_D
100
AcDbLine
 10
292.5594972
 20
388.92265244
 30
0.0
 11
292.5594972
 21
352.32265244
 31
0.0
  0
LINE
  5
607
330
2
100
AcDbEntity
  8
YKK_D
100
AcDbLine
 10
272.5594972
 20
396.37265244
 30
0.0
 11
272.5594972
 21
426.62265244
 31
0.0
  0
LINE
  5
608
330
2
100
AcDbEntity
  8
YKK_D
100
AcDbLine
 10
127.5594972
 20
396.37265244
 30
0.0
 11
127.5594972
 21
426.62265244
 31
0.0
  0
LINE
  5
609
330
2
100
AcDbEntity
  8
YKK_D
100
AcDbLine
 10
270.8594972
 20
425.62265244
 30
0.0
 11
129.2594972
 21
425.62265244
 31
0.0
  0
LINE
  5
60A
330
2
100
AcDbEntity
  8
YKK_D
100
AcDbLine
 10
303.36310434
 20
426.00775201
 30
0.0
 11
279.84310434
 21
426.00775201
 31
0.0
  0
LINE
  5
60B
330
2
100
AcDbEntity
  8
YKK_D
100
AcDbLine
 10
279.84310434
 20
426.00775201
 30
0.0
 11
273.45666831
 21
394.98127425
 31
0.0
  0
LINE
  5
60C
330
2
100
AcDbEntity
  8
YKK_D
100
AcDbLine
 10
415.93663858
 20
260.37346194
 30
0.0
 11
400.41663858
 21
260.37346194
 31
0.0
  0
LINE
  5
60D
330
2
100
AcDbEntity
  8
YKK_D
100
AcDbLine
 10
400.41663858
 20
260.37346194
 30
0.0
 11
376.19844667
 21
269.2384526
 31
0.0
  0
LINE
  5
60E
330
2
100
AcDbEntity
  8
YKK_D
100
AcDbLine
 10
372.25437649
 20
265.1821667
 30
0.0
 11
372.25437649
 21
244.6821667
 31
0.0
  0
LINE
  5
60F
330
2
100
AcDbEntity
  8
YKK_D
100
AcDbLine
 10
332.25437649
 20
265.1821667
 30
0.0
 11
332.25437649
 21
244.6821667
 31
0.0
  0
LINE
  5
610
330
2
100
AcDbEntity
  8
YKK_D
100
AcDbLine
 10
370.55437649
 20
245.6821667
 30
0.0
 11
333.95437649
 21
245.6821667
 31
0.0
  0
LINE
  5
611
330
2
100
AcDbEntity
  8
YKK_D
100
AcDbLine
 10
377.75437649
 20
270.6821667
 30
0.0
 11
408.25437649
 21
270.6821667
 31
0.0
  0
LINE
  5
612
330
2
100
AcDbEntity
  8
YKK_D
100
AcDbLine
 10
398.25437649
 20
300.6821667
 30
0.0
 11
408.25437649
 21
300.6821667
 31
0.0
  0
LINE
  5
613
330
2
100
AcDbEntity
  8
YKK_D
100
AcDbLine
 10
407.25437649
 20
272.3821667
 30
0.0
 11
407.25437649
 21
298.9821667
 31
0.0
  0
LINE
  5
614
330
2
100
AcDbEntity
  8
YKK_D
100
AcDbLine
 10
394.75437649
 20
254.97505992
 30
0.0
 11
394.75437649
 21
234.6821667
 31
0.0
  0
LINE
  5
615
330
2
100
AcDbEntity
  8
YKK_D
100
AcDbLine
 10
309.75437649
 20
254.6821667
 30
0.0
 11
309.75437649
 21
234.6821667
 31
0.0
  0
LINE
  5
616
330
2
100
AcDbEntity
  8
YKK_D
100
AcDbLine
 10
393.05437649
 20
235.6821667
 30
0.0
 11
311.45437649
 21
235.6821667
 31
0.0
  0
LINE
  5
617
330
2
100
AcDbEntity
  8
YKK_D
100
AcDbLine
 10
397.25437649
 20
301.6821667
 30
0.0
 11
397.25437649
 21
311.6821667
 31
0.0
  0
LINE
  5
618
330
2
100
AcDbEntity
  8
YKK_D
100
AcDbLine
 10
307.25437649
 20
301.6821667
 30
0.0
 11
307.25437649
 21
311.6821667
 31
0.0
  0
LINE
  5
619
330
2
100
AcDbEntity
  8
YKK_D
100
AcDbLine
 10
395.55437649
 20
310.6821667
 30
0.0
 11
308.95437649
 21
310.6821667
 31
0.0
  0
TEXT
  5
61A
330
2
100
AcDbEntity
  8
TABLE1
100
AcDbText
 10
409.22734173
 20
471.87512599
 30
0.0
 40
6.5
  1
T型ジョイント材
 41
0.8
  7
text-b
100
AcDbText
  0
LINE
  5
61B
330
2
100
AcDbEntity
  8
YKK_D
100
AcDbLine
 10
490.74939309
 20
251.95756059
 30
0.0
 11
490.74939309
 21
238.04334703
 31
0.0
  0
LINE
  5
61C
330
2
100
AcDbEntity
  8
YKK_D
100
AcDbLine
 10
585.74939309
 20
251.95756059
 30
0.0
 11
585.74939309
 21
238.04334703
 31
0.0
  0
LINE
  5
61D
330
2
100
AcDbEntity
  8
YKK_D
100
AcDbLine
 10
492.44939309
 20
239.04334703
 30
0.0
 11
584.04939309
 21
239.04334703
 31
0.0
  0
LINE
  5
61E
330
2
100
AcDbEntity
  8
YKK_D
100
AcDbLine
 10
582.74939309
 20
249.04334703
 30
0.0
 11
644.25030336
 21
249.04334703
 31
0.0
  0
LINE
  5
61F
330
2
100
AcDbEntity
  8
YKK_D
100
AcDbLine
 10
633.24939309
 20
294.04334703
 30
0.0
 11
644.25030336
 21
294.04334703
 31
0.0
  0
LINE
  5
620
330
2
100
AcDbEntity
  8
YKK_D
100
AcDbLine
 10
643.25030336
 20
250.74334703
 30
0.0
 11
643.25030336
 21
292.34334703
 31
0.0
  0
LINE
  5
621
330
2
100
AcDbEntity
  8
YKK_D
100
AcDbLine
 10
443.25064369
 20
294.08836182
 30
0.0
 11
443.25324806
 21
305.08087804
 31
0.0
  0
LINE
  5
622
330
2
100
AcDbEntity
  8
YKK_D
100
AcDbLine
 10
633.24963001
 20
294.043347
 30
0.0
 11
633.25223437
 21
305.03586322
 31
0.0
  0
LINE
  5
623
330
2
100
AcDbEntity
  8
YKK_D
100
AcDbLine
 10
444.95301109
 20
304.0804753
 30
0.0
 11
631.5519975
 21
304.03626601
 31
0.0
  0
LINE
  5
624
330
2
100
AcDbEntity
  8
YKK_D
100
AcDbLine
 10
623.99939309
 20
387.56007222
 30
0.0
 11
644.25051542
 21
387.56007222
 31
0.0
  0
LINE
  5
625
330
2
100
AcDbEntity
  8
YKK_D
100
AcDbLine
 10
623.99939309
 20
347.56007222
 30
0.0
 11
644.25051542
 21
347.56007222
 31
0.0
  0
LINE
  5
626
330
2
100
AcDbEntity
  8
YKK_D
100
AcDbLine
 10
643.25051542
 20
385.86007222
 30
0.0
 11
643.25051542
 21
349.26007222
 31
0.0
  0
LINE
  5
627
330
2
100
AcDbEntity
  8
YKK_D
100
AcDbLine
 10
618.24939309
 20
393.31007222
 30
0.0
 11
618.24939309
 21
428.56007222
 31
0.0
  0
LINE
  5
628
330
2
100
AcDbEntity
  8
YKK_D
100
AcDbLine
 10
458.24939309
 20
393.31007222
 30
0.0
 11
458.24939309
 21
428.56007222
 31
0.0
  0
LINE
  5
629
330
2
100
AcDbEntity
  8
YKK_D
100
AcDbLine
 10
616.54939309
 20
427.56007222
 30
0.0
 11
459.94939309
 21
427.56007222
 31
0.0
  0
LINE
  5
62A
330
2
100
AcDbEntity
  8
YKK_D
100
AcDbLine
 10
650.74119549
 20
427.31969156
 30
0.0
 11
627.22119549
 21
427.31969156
 31
0.0
  0
LINE
  5
62B
330
2
100
AcDbEntity
  8
YKK_D
100
AcDbLine
 10
627.22119549
 20
427.31969156
 30
0.0
 11
619.22891237
 21
391.90092951
 31
0.0
  0
LINE
  5
62C
330
2
100
AcDbEntity
  8
YKK_D
100
AcDbLine
 10
768.88953479
 20
253.73464227
 30
0.0
 11
753.36953479
 21
253.73464227
 31
0.0
  0
LINE
  5
62D
330
2
100
AcDbEntity
  8
YKK_D
100
AcDbLine
 10
753.36953479
 20
253.73464227
 30
0.0
 11
727.16657972
 21
262.68564652
 31
0.0
  0
LINE
  5
62E
330
2
100
AcDbEntity
  8
YKK_D
100
AcDbLine
 10
723.19207983
 20
258.54334703
 30
0.0
 11
723.19207983
 21
238.04334703
 31
0.0
  0
LINE
  5
62F
330
2
100
AcDbEntity
  8
YKK_D
100
AcDbLine
 10
683.19207983
 20
258.54334703
 30
0.0
 11
683.19207983
 21
238.04334703
 31
0.0
  0
LINE
  5
630
330
2
100
AcDbEntity
  8
YKK_D
100
AcDbLine
 10
721.49207983
 20
239.04334703
 30
0.0
 11
684.89207983
 21
239.04334703
 31
0.0
  0
LINE
  5
631
330
2
100
AcDbEntity
  8
YKK_D
100
AcDbLine
 10
728.69207983
 20
264.04334703
 30
0.0
 11
764.19207983
 21
264.04334703
 31
0.0
  0
LINE
  5
632
330
2
100
AcDbEntity
  8
YKK_D
100
AcDbLine
 10
754.19207983
 20
294.04334703
 30
0.0
 11
764.19207983
 21
294.04334703
 31
0.0
  0
LINE
  5
633
330
2
100
AcDbEntity
  8
YKK_D
100
AcDbLine
 10
763.19207983
 20
265.74334703
 30
0.0
 11
763.19207983
 21
292.34334703
 31
0.0
  0
LINE
  5
634
330
2
100
AcDbEntity
  8
YKK_D
100
AcDbLine
 10
750.69207983
 20
248.33624025
 30
0.0
 11
750.69207983
 21
228.04334703
 31
0.0
  0
LINE
  5
635
330
2
100
AcDbEntity
  8
YKK_D
100
AcDbLine
 10
655.69207983
 20
248.04334703
 30
0.0
 11
655.69207983
 21
228.04334703
 31
0.0
  0
LINE
  5
636
330
2
100
AcDbEntity
  8
YKK_D
100
AcDbLine
 10
748.99207983
 20
229.04334703
 30
0.0
 11
657.39207983
 21
229.04334703
 31
0.0
  0
LINE
  5
637
330
2
100
AcDbEntity
  8
YKK_D
100
AcDbLine
 10
753.19207983
 20
295.04334703
 30
0.0
 11
753.19207983
 21
305.04334703
 31
0.0
  0
LINE
  5
638
330
2
100
AcDbEntity
  8
YKK_D
100
AcDbLine
 10
653.19207983
 20
295.04334703
 30
0.0
 11
653.19207983
 21
305.04334703
 31
0.0
  0
LINE
  5
639
330
2
100
AcDbEntity
  8
YKK_D
100
AcDbLine
 10
751.49207983
 20
304.04334703
 30
0.0
 11
654.89207983
 21
304.04334703
 31
0.0
  0
LINE
  5
63A
330
2
100
AcDbEntity
  8
YKK_D
  6
ByBlock
370
    -2
100
AcDbLine
 10
159.2594972
 20
245.22665308
 30
0.0
 11
157.5594972
 21
245.6821667
 31
0.0
  0
LINE
  5
63B
330
2
100
AcDbEntity
  8
YKK_D
  6
ByBlock
370
    -2
100
AcDbLine
 10
157.5594972
 20
245.6821667
 30
0.0
 11
159.2594972
 21
246.13768033
 31
0.0
  0
LINE
  5
63C
330
2
100
AcDbEntity
  8
YKK_D
  6
ByBlock
370
    -2
100
AcDbLine
 10
157.5594972
 20
245.6821667
 30
0.0
 11
159.2594972
 21
245.6821667
 31
0.0
  0
LINE
  5
63D
330
2
100
AcDbEntity
  8
YKK_D
  6
ByBlock
370
    -2
100
AcDbLine
 10
240.8594972
 20
246.13768033
 30
0.0
 11
242.5594972
 21
245.6821667
 31
0.0
  0
LINE
  5
63E
330
2
100
AcDbEntity
  8
YKK_D
  6
ByBlock
370
    -2
100
AcDbLine
 10
242.5594972
 20
245.6821667
 30
0.0
 11
240.8594972
 21
245.22665308
 31
0.0
  0
LINE
  5
63F
330
2
100
AcDbEntity
  8
YKK_D
  6
ByBlock
370
    -2
100
AcDbLine
 10
242.5594972
 20
245.6821667
 30
0.0
 11
240.8594972
 21
245.6821667
 31
0.0
  0
TEXT
  5
640
330
2
100
AcDbEntity
  8
YKK_D
100
AcDbText
 10
196.5394972
 20
246.4821667
 30
0.0
 40
6.0
  1
85
 41
0.8
  7
text-b
100
AcDbText
  0
LINE
  5
641
330
2
100
AcDbEntity
  8
YKK_D
  6
ByBlock
370
    -2
100
AcDbLine
 10
293.0023233
 20
257.3821667
 30
0.0
 11
292.54680968
 21
255.6821667
 31
0.0
  0
LINE
  5
642
330
2
100
AcDbEntity
  8
YKK_D
  6
ByBlock
370
    -2
100
AcDbLine
 10
292.54680968
 20
255.6821667
 30
0.0
 11
292.09129605
 21
257.3821667
 31
0.0
  0
LINE
  5
643
330
2
100
AcDbEntity
  8
YKK_D
  6
ByBlock
370
    -2
100
AcDbLine
 10
292.54680968
 20
255.6821667
 30
0.0
 11
292.54680968
 21
257.3821667
 31
0.0
  0
LINE
  5
644
330
2
100
AcDbEntity
  8
YKK_D
  6
ByBlock
370
    -2
100
AcDbLine
 10
292.09129605
 20
298.9821667
 30
0.0
 11
292.54680968
 21
300.6821667
 31
0.0
  0
LINE
  5
645
330
2
100
AcDbEntity
  8
YKK_D
  6
ByBlock
370
    -2
100
AcDbLine
 10
292.54680968
 20
300.6821667
 30
0.0
 11
293.0023233
 21
298.9821667
 31
0.0
  0
LINE
  5
646
330
2
100
AcDbEntity
  8
YKK_D
  6
ByBlock
370
    -2
100
AcDbLine
 10
292.54680968
 20
300.6821667
 30
0.0
 11
292.54680968
 21
298.9821667
 31
0.0
  0
TEXT
  5
647
330
2
100
AcDbEntity
  8
YKK_D
100
AcDbText
 10
291.74680968
 20
274.6621667
 30
0.0
 40
6.0
  1
45
 50
90.0
 41
0.8
  7
text-b
100
AcDbText
  0
LINE
  5
648
330
2
100
AcDbEntity
  8
YKK_D
  6
ByBlock
370
    -2
100
AcDbLine
 10
119.24076839
 20
309.94156967
 30
0.0
 11
117.53996248
 21
310.3940649
 31
0.0
  0
LINE
  5
649
330
2
100
AcDbEntity
  8
YKK_D
  6
ByBlock
370
    -2
100
AcDbLine
 10
117.53996248
 20
310.3940649
 30
0.0
 11
119.23915122
 21
310.85259548
 31
0.0
  0
LINE
  5
64A
330
2
100
AcDbEntity
  8
YKK_D
  6
ByBlock
370
    -2
100
AcDbLine
 10
117.53996248
 20
310.3940649
 30
0.0
 11
119.2399598
 21
310.39708258
 31
0.0
  0
LINE
  5
64B
330
2
100
AcDbEntity
  8
YKK_D
  6
ByBlock
370
    -2
100
AcDbLine
 10
280.83915658
 20
311.13945334
 30
0.0
 11
282.53996248
 21
310.68695811
 31
0.0
  0
LINE
  5
64C
330
2
100
AcDbEntity
  8
YKK_D
  6
ByBlock
370
    -2
100
AcDbLine
 10
282.53996248
 20
310.68695811
 30
0.0
 11
280.84077375
 21
310.22842753
 31
0.0
  0
LINE
  5
64D
330
2
100
AcDbEntity
  8
YKK_D
  6
ByBlock
370
    -2
100
AcDbLine
 10
282.53996248
 20
310.68695811
 30
0.0
 11
280.83996516
 21
310.68394043
 31
0.0
  0
TEXT
  5
64E
330
2
100
AcDbEntity
  8
YKK_D
100
AcDbText
 10
194.59855097
 20
311.33085366
 30
0.0
 40
6.0
  1
165
 50
0.10170623
 41
0.8
  7
text-b
100
AcDbText
  0
LINE
  5
64F
330
2
100
AcDbEntity
  8
YKK_D
  6
ByBlock
370
    -2
100
AcDbLine
 10
292.10398358
 20
388.92265244
 30
0.0
 11
292.5594972
 21
390.62265244
 31
0.0
  0
LINE
  5
650
330
2
100
AcDbEntity
  8
YKK_D
  6
ByBlock
370
    -2
100
AcDbLine
 10
292.5594972
 20
390.62265244
 30
0.0
 11
293.01501083
 21
388.92265244
 31
0.0
  0
LINE
  5
651
330
2
100
AcDbEntity
  8
YKK_D
  6
ByBlock
370
    -2
100
AcDbLine
 10
292.5594972
 20
390.62265244
 30
0.0
 11
292.5594972
 21
388.92265244
 31
0.0
  0
LINE
  5
652
330
2
100
AcDbEntity
  8
YKK_D
  6
ByBlock
370
    -2
100
AcDbLine
 10
293.01501083
 20
352.32265244
 30
0.0
 11
292.5594972
 21
350.62265244
 31
0.0
  0
LINE
  5
653
330
2
100
AcDbEntity
  8
YKK_D
  6
ByBlock
370
    -2
100
AcDbLine
 10
292.5594972
 20
350.62265244
 30
0.0
 11
292.10398358
 21
352.32265244
 31
0.0
  0
LINE
  5
654
330
2
100
AcDbEntity
  8
YKK_D
  6
ByBlock
370
    -2
100
AcDbLine
 10
292.5594972
 20
350.62265244
 30
0.0
 11
292.5594972
 21
352.32265244
 31
0.0
  0
TEXT
  5
655
330
2
100
AcDbEntity
  8
YKK_D
100
AcDbText
 10
291.7594972
 20
367.10265244
 30
0.0
 40
6.0
  1
40
 50
90.0
 41
0.8
  7
text-b
100
AcDbText
  0
LINE
  5
656
330
2
100
AcDbEntity
  8
YKK_D
  6
ByBlock
370
    -2
100
AcDbLine
 10
270.8594972
 20
426.07816607
 30
0.0
 11
272.5594972
 21
425.62265244
 31
0.0
  0
LINE
  5
657
330
2
100
AcDbEntity
  8
YKK_D
  6
ByBlock
370
    -2
100
AcDbLine
 10
272.5594972
 20
425.62265244
 30
0.0
 11
270.8594972
 21
425.16713882
 31
0.0
  0
LINE
  5
658
330
2
100
AcDbEntity
  8
YKK_D
  6
ByBlock
370
    -2
100
AcDbLine
 10
272.5594972
 20
425.62265244
 30
0.0
 11
270.8594972
 21
425.62265244
 31
0.0
  0
LINE
  5
659
330
2
100
AcDbEntity
  8
YKK_D
  6
ByBlock
370
    -2
100
AcDbLine
 10
129.2594972
 20
425.16713882
 30
0.0
 11
127.5594972
 21
425.62265244
 31
0.0
  0
LINE
  5
65A
330
2
100
AcDbEntity
  8
YKK_D
  6
ByBlock
370
    -2
100
AcDbLine
 10
127.5594972
 20
425.62265244
 30
0.0
 11
129.2594972
 21
426.07816607
 31
0.0
  0
LINE
  5
65B
330
2
100
AcDbEntity
  8
YKK_D
  6
ByBlock
370
    -2
100
AcDbLine
 10
127.5594972
 20
425.62265244
 30
0.0
 11
129.2594972
 21
425.62265244
 31
0.0
  0
TEXT
  5
65C
330
2
100
AcDbEntity
  8
YKK_D
100
AcDbText
 10
194.6194972
 20
426.42265244
 30
0.0
 40
6.0
  1
145
 41
0.8
  7
text-b
100
AcDbText
  0
TEXT
  5
65D
330
2
100
AcDbEntity
  8
YKK_D
100
AcDbText
 10
280.64310434
 20
426.80775201
 30
0.0
 40
6.0
  1
4-\U+22055.5
 41
0.8
  7
text-b
100
AcDbText
  0
LINE
  5
65E
330
2
100
AcDbEntity
  8
YKK_D
  6
ByBlock
370
    -2
100
AcDbLine
 10
273.90282822
 20
394.88943747
 30
0.0
 11
273.11392878
 21
393.31618277
 31
0.0
  0
LINE
  5
65F
330
2
100
AcDbEntity
  8
YKK_D
  6
ByBlock
370
    -2
100
AcDbLine
 10
273.11392878
 20
393.31618277
 30
0.0
 11
273.0105084
 21
395.07311102
 31
0.0
  0
LINE
  5
660
330
2
100
AcDbEntity
  8
YKK_D
  6
ByBlock
370
    -2
100
AcDbLine
 10
273.11392878
 20
393.31618277
 30
0.0
 11
273.45666831
 21
394.98127425
 31
0.0
  0
TEXT
  5
661
330
2
100
AcDbEntity
  8
YKK_D
100
AcDbText
 10
401.21663858
 20
261.17346194
 30
0.0
 40
6.0
  1
4-M5
 41
0.8
  7
text-b
100
AcDbText
  0
LINE
  5
662
330
2
100
AcDbEntity
  8
YKK_D
  6
ByBlock
370
    -2
100
AcDbLine
 10
376.04186776
 20
268.810696
 30
0.0
 11
374.60203731
 21
269.82281307
 31
0.0
  0
LINE
  5
663
330
2
100
AcDbEntity
  8
YKK_D
  6
ByBlock
370
    -2
100
AcDbLine
 10
374.60203731
 20
269.82281307
 30
0.0
 11
376.35502559
 21
269.66620919
 31
0.0
  0
LINE
  5
664
330
2
100
AcDbEntity
  8
YKK_D
  6
ByBlock
370
    -2
100
AcDbLine
 10
374.60203731
 20
269.82281307
 30
0.0
 11
376.19844667
 21
269.2384526
 31
0.0
  0
LINE
  5
665
330
2
100
AcDbEntity
  8
YKK_D
  6
ByBlock
370
    -2
100
AcDbLine
 10
370.55437649
 20
246.13768033
 30
0.0
 11
372.25437649
 21
245.6821667
 31
0.0
  0
LINE
  5
666
330
2
100
AcDbEntity
  8
YKK_D
  6
ByBlock
370
    -2
100
AcDbLine
 10
372.25437649
 20
245.6821667
 30
0.0
 11
370.55437649
 21
245.22665308
 31
0.0
  0
LINE
  5
667
330
2
100
AcDbEntity
  8
YKK_D
  6
ByBlock
370
    -2
100
AcDbLine
 10
372.25437649
 20
245.6821667
 30
0.0
 11
370.55437649
 21
245.6821667
 31
0.0
  0
LINE
  5
668
330
2
100
AcDbEntity
  8
YKK_D
  6
ByBlock
370
    -2
100
AcDbLine
 10
333.95437649
 20
245.22665308
 30
0.0
 11
332.25437649
 21
245.6821667
 31
0.0
  0
LINE
  5
669
330
2
100
AcDbEntity
  8
YKK_D
  6
ByBlock
370
    -2
100
AcDbLine
 10
332.25437649
 20
245.6821667
 30
0.0
 11
333.95437649
 21
246.13768033
 31
0.0
  0
LINE
  5
66A
330
2
100
AcDbEntity
  8
YKK_D
  6
ByBlock
370
    -2
100
AcDbLine
 10
332.25437649
 20
245.6821667
 30
0.0
 11
333.95437649
 21
245.6821667
 31
0.0
  0
TEXT
  5
66B
330
2
100
AcDbEntity
  8
YKK_D
100
AcDbText
 10
348.73437649
 20
246.4821667
 30
0.0
 40
6.0
  1
40
 41
0.8
  7
text-b
100
AcDbText
  0
LINE
  5
66C
330
2
100
AcDbEntity
  8
YKK_D
  6
ByBlock
370
    -2
100
AcDbLine
 10
407.70989012
 20
272.3821667
 30
0.0
 11
407.25437649
 21
270.6821667
 31
0.0
  0
LINE
  5
66D
330
2
100
AcDbEntity
  8
YKK_D
  6
ByBlock
370
    -2
100
AcDbLine
 10
407.25437649
 20
270.6821667
 30
0.0
 11
406.79886287
 21
272.3821667
 31
0.0
  0
LINE
  5
66E
330
2
100
AcDbEntity
  8
YKK_D
  6
ByBlock
370
    -2
100
AcDbLine
 10
407.25437649
 20
270.6821667
 30
0.0
 11
407.25437649
 21
272.3821667
 31
0.0
  0
LINE
  5
66F
330
2
100
AcDbEntity
  8
YKK_D
  6
ByBlock
370
    -2
100
AcDbLine
 10
406.79886287
 20
298.9821667
 30
0.0
 11
407.25437649
 21
300.6821667
 31
0.0
  0
LINE
  5
670
330
2
100
AcDbEntity
  8
YKK_D
  6
ByBlock
370
    -2
100
AcDbLine
 10
407.25437649
 20
300.6821667
 30
0.0
 11
407.70989012
 21
298.9821667
 31
0.0
  0
LINE
  5
671
330
2
100
AcDbEntity
  8
YKK_D
  6
ByBlock
370
    -2
100
AcDbLine
 10
407.25437649
 20
300.6821667
 30
0.0
 11
407.25437649
 21
298.9821667
 31
0.0
  0
TEXT
  5
672
330
2
100
AcDbEntity
  8
YKK_D
100
AcDbText
 10
406.45437649
 20
282.1621667
 30
0.0
 40
6.0
  1
30
 50
90.0
 41
0.8
  7
text-b
100
AcDbText
  0
LINE
  5
673
330
2
100
AcDbEntity
  8
YKK_D
  6
ByBlock
370
    -2
100
AcDbLine
 10
393.05437649
 20
236.13768033
 30
0.0
 11
394.75437649
 21
235.6821667
 31
0.0
  0
LINE
  5
674
330
2
100
AcDbEntity
  8
YKK_D
  6
ByBlock
370
    -2
100
AcDbLine
 10
394.75437649
 20
235.6821667
 30
0.0
 11
393.05437649
 21
235.22665308
 31
0.0
  0
LINE
  5
675
330
2
100
AcDbEntity
  8
YKK_D
  6
ByBlock
370
    -2
100
AcDbLine
 10
394.75437649
 20
235.6821667
 30
0.0
 11
393.05437649
 21
235.6821667
 31
0.0
  0
LINE
  5
676
330
2
100
AcDbEntity
  8
YKK_D
  6
ByBlock
370
    -2
100
AcDbLine
 10
311.45437649
 20
235.22665308
 30
0.0
 11
309.75437649
 21
235.6821667
 31
0.0
  0
LINE
  5
677
330
2
100
AcDbEntity
  8
YKK_D
  6
ByBlock
370
    -2
100
AcDbLine
 10
309.75437649
 20
235.6821667
 30
0.0
 11
311.45437649
 21
236.13768033
 31
0.0
  0
LINE
  5
678
330
2
100
AcDbEntity
  8
YKK_D
  6
ByBlock
370
    -2
100
AcDbLine
 10
309.75437649
 20
235.6821667
 30
0.0
 11
311.45437649
 21
235.6821667
 31
0.0
  0
TEXT
  5
679
330
2
100
AcDbEntity
  8
YKK_D
100
AcDbText
 10
348.73437649
 20
236.4821667
 30
0.0
 40
6.0
  1
85
 41
0.8
  7
text-b
100
AcDbText
  0
LINE
  5
67A
330
2
100
AcDbEntity
  8
YKK_D
  6
ByBlock
370
    -2
100
AcDbLine
 10
395.55437649
 20
311.13768033
 30
0.0
 11
397.25437649
 21
310.6821667
 31
0.0
  0
LINE
  5
67B
330
2
100
AcDbEntity
  8
YKK_D
  6
ByBlock
370
    -2
100
AcDbLine
 10
397.25437649
 20
310.6821667
 30
0.0
 11
395.55437649
 21
310.22665308
 31
0.0
  0
LINE
  5
67C
330
2
100
AcDbEntity
  8
YKK_D
  6
ByBlock
370
    -2
100
AcDbLine
 10
397.25437649
 20
310.6821667
 30
0.0
 11
395.55437649
 21
310.6821667
 31
0.0
  0
LINE
  5
67D
330
2
100
AcDbEntity
  8
YKK_D
  6
ByBlock
370
    -2
100
AcDbLine
 10
308.95437649
 20
310.22665308
 30
0.0
 11
307.25437649
 21
310.6821667
 31
0.0
  0
LINE
  5
67E
330
2
100
AcDbEntity
  8
YKK_D
  6
ByBlock
370
    -2
100
AcDbLine
 10
307.25437649
 20
310.6821667
 30
0.0
 11
308.95437649
 21
311.13768033
 31
0.0
  0
LINE
  5
67F
330
2
100
AcDbEntity
  8
YKK_D
  6
ByBlock
370
    -2
100
AcDbLine
 10
307.25437649
 20
310.6821667
 30
0.0
 11
308.95437649
 21
310.6821667
 31
0.0
  0
TEXT
  5
680
330
2
100
AcDbEntity
  8
YKK_D
100
AcDbText
 10
348.73437649
 20
311.4821667
 30
0.0
 40
6.0
  1
90
 41
0.8
  7
text-b
100
AcDbText
  0
LINE
  5
681
330
2
100
AcDbEntity
  8
YKK_D
  6
ByBlock
370
    -2
100
AcDbLine
 10
492.44939309
 20
238.58783341
 30
0.0
 11
490.74939309
 21
239.04334703
 31
0.0
  0
LINE
  5
682
330
2
100
AcDbEntity
  8
YKK_D
  6
ByBlock
370
    -2
100
AcDbLine
 10
490.74939309
 20
239.04334703
 30
0.0
 11
492.44939309
 21
239.49886065
 31
0.0
  0
LINE
  5
683
330
2
100
AcDbEntity
  8
YKK_D
  6
ByBlock
370
    -2
100
AcDbLine
 10
490.74939309
 20
239.04334703
 30
0.0
 11
492.44939309
 21
239.04334703
 31
0.0
  0
LINE
  5
684
330
2
100
AcDbEntity
  8
YKK_D
  6
ByBlock
370
    -2
100
AcDbLine
 10
584.04939309
 20
239.49886065
 30
0.0
 11
585.74939309
 21
239.04334703
 31
0.0
  0
LINE
  5
685
330
2
100
AcDbEntity
  8
YKK_D
  6
ByBlock
370
    -2
100
AcDbLine
 10
585.74939309
 20
239.04334703
 30
0.0
 11
584.04939309
 21
238.58783341
 31
0.0
  0
LINE
  5
686
330
2
100
AcDbEntity
  8
YKK_D
  6
ByBlock
370
    -2
100
AcDbLine
 10
585.74939309
 20
239.04334703
 30
0.0
 11
584.04939309
 21
239.04334703
 31
0.0
  0
TEXT
  5
687
330
2
100
AcDbEntity
  8
YKK_D
100
AcDbText
 10
534.72939309
 20
239.84334703
 30
0.0
 40
6.0
  1
95
 41
0.8
  7
text-b
100
AcDbText
  0
LINE
  5
688
330
2
100
AcDbEntity
  8
YKK_D
  6
ByBlock
370
    -2
100
AcDbLine
 10
643.70581699
 20
250.74334703
 30
0.0
 11
643.25030336
 21
249.04334703
 31
0.0
  0
LINE
  5
689
330
2
100
AcDbEntity
  8
YKK_D
  6
ByBlock
370
    -2
100
AcDbLine
 10
643.25030336
 20
249.04334703
 30
0.0
 11
642.79478974
 21
250.74334703
 31
0.0
  0
LINE
  5
68A
330
2
100
AcDbEntity
  8
YKK_D
  6
ByBlock
370
    -2
100
AcDbLine
 10
643.25030336
 20
249.04334703
 30
0.0
 11
643.25030336
 21
250.74334703
 31
0.0
  0
LINE
  5
68B
330
2
100
AcDbEntity
  8
YKK_D
  6
ByBlock
370
    -2
100
AcDbLine
 10
642.79478974
 20
292.34334703
 30
0.0
 11
643.25030336
 21
294.04334703
 31
0.0
  0
LINE
  5
68C
330
2
100
AcDbEntity
  8
YKK_D
  6
ByBlock
370
    -2
100
AcDbLine
 10
643.25030336
 20
294.04334703
 30
0.0
 11
643.70581699
 21
292.34334703
 31
0.0
  0
LINE
  5
68D
330
2
100
AcDbEntity
  8
YKK_D
  6
ByBlock
370
    -2
100
AcDbLine
 10
643.25030336
 20
294.04334703
 30
0.0
 11
643.25030336
 21
292.34334703
 31
0.0
  0
TEXT
  5
68E
330
2
100
AcDbEntity
  8
YKK_D
100
AcDbText
 10
642.45030336
 20
268.02334703
 30
0.0
 40
6.0
  1
45
 50
90.0
 41
0.8
  7
text-b
100
AcDbText
  0
LINE
  5
68F
330
2
100
AcDbEntity
  8
YKK_D
  6
ByBlock
370
    -2
100
AcDbLine
 10
444.95290317
 20
303.62496169
 30
0.0
 11
443.25301113
 21
304.08087806
 31
0.0
  0
LINE
  5
690
330
2
100
AcDbEntity
  8
YKK_D
  6
ByBlock
370
    -2
100
AcDbLine
 10
443.25301113
 20
304.08087806
 30
0.0
 11
444.95311901
 21
304.53598891
 31
0.0
  0
LINE
  5
691
330
2
100
AcDbEntity
  8
YKK_D
  6
ByBlock
370
    -2
100
AcDbLine
 10
443.25301113
 20
304.08087806
 30
0.0
 11
444.95301109
 21
304.0804753
 31
0.0
  0
LINE
  5
692
330
2
100
AcDbEntity
  8
YKK_D
  6
ByBlock
370
    -2
100
AcDbLine
 10
631.55210542
 20
304.49177962
 30
0.0
 11
633.25199745
 21
304.03586324
 31
0.0
  0
LINE
  5
693
330
2
100
AcDbEntity
  8
YKK_D
  6
ByBlock
370
    -2
100
AcDbLine
 10
633.25199745
 20
304.03586324
 30
0.0
 11
631.55188958
 21
303.5807524
 31
0.0
  0
LINE
  5
694
330
2
100
AcDbEntity
  8
YKK_D
  6
ByBlock
370
    -2
100
AcDbLine
 10
633.25199745
 20
304.03586324
 30
0.0
 11
631.5519975
 21
304.03626601
 31
0.0
  0
TEXT
  5
695
330
2
100
AcDbEntity
  8
YKK_D
100
AcDbText
 10
532.81269398
 20
304.85965948
 30
0.0
 40
6.0
  1
190
 50
359.98642541
 41
0.8
  7
text-b
100
AcDbText
  0
LINE
  5
696
330
2
100
AcDbEntity
  8
YKK_D
  6
ByBlock
370
    -2
100
AcDbLine
 10
642.7950018
 20
385.86007222
 30
0.0
 11
643.25051542
 21
387.56007222
 31
0.0
  0
LINE
  5
697
330
2
100
AcDbEntity
  8
YKK_D
  6
ByBlock
370
    -2
100
AcDbLine
 10
643.25051542
 20
387.56007222
 30
0.0
 11
643.70602905
 21
385.86007222
 31
0.0
  0
LINE
  5
698
330
2
100
AcDbEntity
  8
YKK_D
  6
ByBlock
370
    -2
100
AcDbLine
 10
643.25051542
 20
387.56007222
 30
0.0
 11
643.25051542
 21
385.86007222
 31
0.0
  0
LINE
  5
699
330
2
100
AcDbEntity
  8
YKK_D
  6
ByBlock
370
    -2
100
AcDbLine
 10
643.70602905
 20
349.26007222
 30
0.0
 11
643.25051542
 21
347.56007222
 31
0.0
  0
LINE
  5
69A
330
2
100
AcDbEntity
  8
YKK_D
  6
ByBlock
370
    -2
100
AcDbLine
 10
643.25051542
 20
347.56007222
 30
0.0
 11
642.7950018
 21
349.26007222
 31
0.0
  0
LINE
  5
69B
330
2
100
AcDbEntity
  8
YKK_D
  6
ByBlock
370
    -2
100
AcDbLine
 10
643.25051542
 20
347.56007222
 30
0.0
 11
643.25051542
 21
349.26007222
 31
0.0
  0
TEXT
  5
69C
330
2
100
AcDbEntity
  8
YKK_D
100
AcDbText
 10
642.45051542
 20
364.04007222
 30
0.0
 40
6.0
  1
40
 50
90.0
 41
0.8
  7
text-b
100
AcDbText
  0
LINE
  5
69D
330
2
100
AcDbEntity
  8
YKK_D
  6
ByBlock
370
    -2
100
AcDbLine
 10
616.54939309
 20
428.01558584
 30
0.0
 11
618.24939309
 21
427.56007222
 31
0.0
  0
LINE
  5
69E
330
2
100
AcDbEntity
  8
YKK_D
  6
ByBlock
370
    -2
100
AcDbLine
 10
618.24939309
 20
427.56007222
 30
0.0
 11
616.54939309
 21
427.1045586
 31
0.0
  0
LINE
  5
69F
330
2
100
AcDbEntity
  8
YKK_D
  6
ByBlock
370
    -2
100
AcDbLine
 10
618.24939309
 20
427.56007222
 30
0.0
 11
616.54939309
 21
427.56007222
 31
0.0
  0
LINE
  5
6A0
330
2
100
AcDbEntity
  8
YKK_D
  6
ByBlock
370
    -2
100
AcDbLine
 10
459.94939309
 20
427.1045586
 30
0.0
 11
458.24939309
 21
427.56007222
 31
0.0
  0
LINE
  5
6A1
330
2
100
AcDbEntity
  8
YKK_D
  6
ByBlock
370
    -2
100
AcDbLine
 10
458.24939309
 20
427.56007222
 30
0.0
 11
459.94939309
 21
428.01558584
 31
0.0
  0
LINE
  5
6A2
330
2
100
AcDbEntity
  8
YKK_D
  6
ByBlock
370
    -2
100
AcDbLine
 10
458.24939309
 20
427.56007222
 30
0.0
 11
459.94939309
 21
427.56007222
 31
0.0
  0
TEXT
  5
6A3
330
2
100
AcDbEntity
  8
YKK_D
100
AcDbText
 10
532.80939309
 20
428.36007222
 30
0.0
 40
6.0
  1
160
 41
0.8
  7
text-b
100
AcDbText
  0
TEXT
  5
6A4
330
2
100
AcDbEntity
  8
YKK_D
100
AcDbText
 10
628.02119549
 20
428.11969156
 30
0.0
 40
6.0
  1
4-\U+22055.5
 41
0.8
  7
text-b
100
AcDbText
  0
LINE
  5
6A5
330
2
100
AcDbEntity
  8
YKK_D
  6
ByBlock
370
    -2
100
AcDbLine
 10
619.67325386
 20
391.80066335
 30
0.0
 11
618.854714
 21
390.24262448
 31
0.0
  0
LINE
  5
6A6
330
2
100
AcDbEntity
  8
YKK_D
  6
ByBlock
370
    -2
100
AcDbLine
 10
618.854714
 20
390.24262448
 30
0.0
 11
618.78457088
 21
392.00119566
 31
0.0
  0
LINE
  5
6A7
330
2
100
AcDbEntity
  8
YKK_D
  6
ByBlock
370
    -2
100
AcDbLine
 10
618.854714
 20
390.24262448
 30
0.0
 11
619.22891237
 21
391.90092951
 31
0.0
  0
TEXT
  5
6A8
330
2
100
AcDbEntity
  8
YKK_D
100
AcDbText
 10
754.16953479
 20
254.53464227
 30
0.0
 40
6.0
  1
4-M5
 41
0.8
  7
text-b
100
AcDbText
  0
LINE
  5
6A9
330
2
100
AcDbEntity
  8
YKK_D
  6
ByBlock
370
    -2
100
AcDbLine
 10
727.01932946
 20
262.25458966
 30
0.0
 11
725.55785357
 21
263.23519197
 31
0.0
  0
LINE
  5
6AA
330
2
100
AcDbEntity
  8
YKK_D
  6
ByBlock
370
    -2
100
AcDbLine
 10
725.55785357
 20
263.23519197
 30
0.0
 11
727.31382997
 21
263.11670339
 31
0.0
  0
LINE
  5
6AB
330
2
100
AcDbEntity
  8
YKK_D
  6
ByBlock
370
    -2
100
AcDbLine
 10
725.55785357
 20
263.23519197
 30
0.0
 11
727.16657972
 21
262.68564652
 31
0.0
  0
LINE
  5
6AC
330
2
100
AcDbEntity
  8
YKK_D
  6
ByBlock
370
    -2
100
AcDbLine
 10
721.49207983
 20
239.49886065
 30
0.0
 11
723.19207983
 21
239.04334703
 31
0.0
  0
LINE
  5
6AD
330
2
100
AcDbEntity
  8
YKK_D
  6
ByBlock
370
    -2
100
AcDbLine
 10
723.19207983
 20
239.04334703
 30
0.0
 11
721.49207983
 21
238.58783341
 31
0.0
  0
LINE
  5
6AE
330
2
100
AcDbEntity
  8
YKK_D
  6
ByBlock
370
    -2
100
AcDbLine
 10
723.19207983
 20
239.04334703
 30
0.0
 11
721.49207983
 21
239.04334703
 31
0.0
  0
LINE
  5
6AF
330
2
100
AcDbEntity
  8
YKK_D
  6
ByBlock
370
    -2
100
AcDbLine
 10
684.89207983
 20
238.58783341
 30
0.0
 11
683.19207983
 21
239.04334703
 31
0.0
  0
LINE
  5
6B0
330
2
100
AcDbEntity
  8
YKK_D
  6
ByBlock
370
    -2
100
AcDbLine
 10
683.19207983
 20
239.04334703
 30
0.0
 11
684.89207983
 21
239.49886065
 31
0.0
  0
LINE
  5
6B1
330
2
100
AcDbEntity
  8
YKK_D
  6
ByBlock
370
    -2
100
AcDbLine
 10
683.19207983
 20
239.04334703
 30
0.0
 11
684.89207983
 21
239.04334703
 31
0.0
  0
TEXT
  5
6B2
330
2
100
AcDbEntity
  8
YKK_D
100
AcDbText
 10
699.67207983
 20
239.84334703
 30
0.0
 40
6.0
  1
40
 41
0.8
  7
text-b
100
AcDbText
  0
LINE
  5
6B3
330
2
100
AcDbEntity
  8
YKK_D
  6
ByBlock
370
    -2
100
AcDbLine
 10
763.64759345
 20
265.74334703
 30
0.0
 11
763.19207983
 21
264.04334703
 31
0.0
  0
LINE
  5
6B4
330
2
100
AcDbEntity
  8
YKK_D
  6
ByBlock
370
    -2
100
AcDbLine
 10
763.19207983
 20
264.04334703
 30
0.0
 11
762.73656621
 21
265.74334703
 31
0.0
  0
LINE
  5
6B5
330
2
100
AcDbEntity
  8
YKK_D
  6
ByBlock
370
    -2
100
AcDbLine
 10
763.19207983
 20
264.04334703
 30
0.0
 11
763.19207983
 21
265.74334703
 31
0.0
  0
LINE
  5
6B6
330
2
100
AcDbEntity
  8
YKK_D
  6
ByBlock
370
    -2
100
AcDbLine
 10
762.73656621
 20
292.34334703
 30
0.0
 11
763.19207983
 21
294.04334703
 31
0.0
  0
LINE
  5
6B7
330
2
100
AcDbEntity
  8
YKK_D
  6
ByBlock
370
    -2
100
AcDbLine
 10
763.19207983
 20
294.04334703
 30
0.0
 11
763.64759345
 21
292.34334703
 31
0.0
  0
LINE
  5
6B8
330
2
100
AcDbEntity
  8
YKK_D
  6
ByBlock
370
    -2
100
AcDbLine
 10
763.19207983
 20
294.04334703
 30
0.0
 11
763.19207983
 21
292.34334703
 31
0.0
  0
TEXT
  5
6B9
330
2
100
AcDbEntity
  8
YKK_D
100
AcDbText
 10
762.39207983
 20
275.52334703
 30
0.0
 40
6.0
  1
30
 50
90.0
 41
0.8
  7
text-b
100
AcDbText
  0
LINE
  5
6BA
330
2
100
AcDbEntity
  8
YKK_D
  6
ByBlock
370
    -2
100
AcDbLine
 10
748.99207983
 20
229.49886065
 30
0.0
 11
750.69207983
 21
229.04334703
 31
0.0
  0
LINE
  5
6BB
330
2
100
AcDbEntity
  8
YKK_D
  6
ByBlock
370
    -2
100
AcDbLine
 10
750.69207983
 20
229.04334703
 30
0.0
 11
748.99207983
 21
228.58783341
 31
0.0
  0
LINE
  5
6BC
330
2
100
AcDbEntity
  8
YKK_D
  6
ByBlock
370
    -2
100
AcDbLine
 10
750.69207983
 20
229.04334703
 30
0.0
 11
748.99207983
 21
229.04334703
 31
0.0
  0
LINE
  5
6BD
330
2
100
AcDbEntity
  8
YKK_D
  6
ByBlock
370
    -2
100
AcDbLine
 10
657.39207983
 20
228.58783341
 30
0.0
 11
655.69207983
 21
229.04334703
 31
0.0
  0
LINE
  5
6BE
330
2
100
AcDbEntity
  8
YKK_D
  6
ByBlock
370
    -2
100
AcDbLine
 10
655.69207983
 20
229.04334703
 30
0.0
 11
657.39207983
 21
229.49886065
 31
0.0
  0
LINE
  5
6BF
330
2
100
AcDbEntity
  8
YKK_D
  6
ByBlock
370
    -2
100
AcDbLine
 10
655.69207983
 20
229.04334703
 30
0.0
 11
657.39207983
 21
229.04334703
 31
0.0
  0
TEXT
  5
6C0
330
2
100
AcDbEntity
  8
YKK_D
100
AcDbText
 10
699.67207983
 20
229.84334703
 30
0.0
 40
6.0
  1
95
 41
0.8
  7
text-b
100
AcDbText
  0
LINE
  5
6C1
330
2
100
AcDbEntity
  8
YKK_D
  6
ByBlock
370
    -2
100
AcDbLine
 10
751.49207983
 20
304.49886065
 30
0.0
 11
753.19207983
 21
304.04334703
 31
0.0
  0
LINE
  5
6C2
330
2
100
AcDbEntity
  8
YKK_D
  6
ByBlock
370
    -2
100
AcDbLine
 10
753.19207983
 20
304.04334703
 30
0.0
 11
751.49207983
 21
303.58783341
 31
0.0
  0
LINE
  5
6C3
330
2
100
AcDbEntity
  8
YKK_D
  6
ByBlock
370
    -2
100
AcDbLine
 10
753.19207983
 20
304.04334703
 30
0.0
 11
751.49207983
 21
304.04334703
 31
0.0
  0
LINE
  5
6C4
330
2
100
AcDbEntity
  8
YKK_D
  6
ByBlock
370
    -2
100
AcDbLine
 10
654.89207983
 20
303.58783341
 30
0.0
 11
653.19207983
 21
304.04334703
 31
0.0
  0
LINE
  5
6C5
330
2
100
AcDbEntity
  8
YKK_D
  6
ByBlock
370
    -2
100
AcDbLine
 10
653.19207983
 20
304.04334703
 30
0.0
 11
654.89207983
 21
304.49886065
 31
0.0
  0
LINE
  5
6C6
330
2
100
AcDbEntity
  8
YKK_D
  6
ByBlock
370
    -2
100
AcDbLine
 10
653.19207983
 20
304.04334703
 30
0.0
 11
654.89207983
 21
304.04334703
 31
0.0
  0
TEXT
  5
6C7
330
2
100
AcDbEntity
  8
YKK_D
100
AcDbText
 10
697.75207983
 20
304.84334703
 30
0.0
 40
6.0
  1
100
 41
0.8
  7
text-b
100
AcDbText
  0
LINE
  5
70B
330
2
100
AcDbEntity
  8
TABLE1
100
AcDbLine
 10
2.8140084
 20
481.87512599
 30
0.0
 11
772.8140084
 21
481.87512599
 31
0.0
  0
LINE
  5
70F
330
2
100
AcDbEntity
  8
TABLE1
100
AcDbLine
 10
2.8140084
 20
481.87512599
 30
0.0
 11
2.8140084
 21
115.92488941
 31
0.0
  0
ENDSEC
  0
SECTION
  2
OBJECTS
  0
DICTIONARY
  5
1A
330
0
100
AcDbDictionary
281
     1
  3
ACAD_CIP_PREVIOUS_PRODUCT_INFO
350
1D4
  3
ACAD_COLOR
350
121
  3
ACAD_DETAILVIEWSTYLE
350
1CF
  3
ACAD_GROUP
350
18
  3
ACAD_LAYOUT
350
148
  3
ACAD_MATERIAL
350
F4
  3
ACAD_MLEADERSTYLE
350
146
  3
ACAD_MLINESTYLE
350
19
  3
ACAD_PLOTSETTINGS
350
149
  3
ACAD_PLOTSTYLENAME
350
F2
  3
ACAD_RENDER_ACTIVE_RAPIDRT_SETTINGS
350
1DE
  3
ACAD_RENDER_ACTIVE_SETTINGS
350
246
  3
ACAD_SCALELIST
350
124
  3
ACAD_SECTIONVIEWSTYLE
350
1CD
  3
ACAD_TABLESTYLE
350
122
  3
ACAD_VISUALSTYLE
350
10D
  3
ACDB_RECOMPOSE_DATA
350
7C9
  3
AcDbVariableDictionary
350
1BD
  0
DICTIONARY
  5
17A
330
12
100
AcDbDictionary
280
     1
281
     1
  0
DICTIONARY
  5
1E0
330
A
100
AcDbDictionary
280
     1
281
     1
  3
ACAD_LAYERSTATES
360
1E1
  0
DICTIONARY
  5
1EE
330
4
100
AcDbDictionary
280
     1
281
     1
  3
ADSK_XREC_LAYER_RECONCILED
360
1EF
  0
DICTIONARY
  5
1F0
330
24
100
AcDbDictionary
280
     1
281
     1
  3
ADSK_XREC_LAYER_RECONCILED
360
1F1
  0
DICTIONARY
  5
1F2
330
E0
100
AcDbDictionary
280
     1
281
     1
  3
ADSK_XREC_LAYER_RECONCILED
360
1F3
  0
DICTIONARY
  5
266
330
265
100
AcDbDictionary
280
     1
281
     1
  0
DICTIONARY
  5
176
330
2
100
AcDbDictionary
280
     1
281
     1
  3
ACAD_LAYOUTSELFREF
360
177
  0
DICTIONARY
  5
178
330
7
100
AcDbDictionary
280
     1
281
     1
  3
ACAD_LAYOUTSELFREF
360
179
  0
XRECORD
  5
1D4
102
{ACAD_REACTORS
330
1A
102
}
330
1A
100
AcDbXrecord
280
     1
300
ACD
300
2018
300
86830ACD_2018_0F
  0
DICTIONARY
  5
121
102
{ACAD_REACTORS
330
1A
102
}
330
1A
100
AcDbDictionary
281
     1
  0
DICTIONARY
  5
1CF
102
{ACAD_REACTORS
330
1A
102
}
330
1A
100
AcDbDictionary
281
     1
  3
Metric50
350
1D0
  0
DICTIONARY
  5
18
102
{ACAD_REACTORS
330
1A
102
}
330
1A
100
AcDbDictionary
281
     1
  0
DICTIONARY
  5
148
102
{ACAD_REACTORS
330
1A
102
}
330
1A
100
AcDbDictionary
281
     1
  3
Model
350
14A
  3
レイアウト1
350
14B
  0
DICTIONARY
  5
F4
102
{ACAD_REACTORS
330
1A
102
}
330
1A
100
AcDbDictionary
281
     1
  3
ByBlock
350
FD
  3
ByLayer
350
F5
  3
Global
350
105
  0
DICTIONARY
  5
146
102
{ACAD_REACTORS
330
1A
102
}
330
1A
100
AcDbDictionary
281
     1
  3
Standard
350
147
  0
DICTIONARY
  5
19
102
{ACAD_REACTORS
330
1A
102
}
330
1A
100
AcDbDictionary
281
     1
  3
STANDARD
350
1B
  0
DICTIONARY
  5
149
102
{ACAD_REACTORS
330
1A
102
}
330
1A
100
AcDbDictionary
281
     1
  0
ACDBDICTIONARYWDFLT
  5
F2
102
{ACAD_REACTORS
330
1A
102
}
330
1A
100
AcDbDictionary
281
     1
  3
Normal
350
F3
100
AcDbDictionaryWithDefault
340
F3
  0
RAPIDRTRENDERSETTINGS
  5
1DE
102
{ACAD_REACTORS
330
1A
102
}
330
1A
100
AcDbRenderSettings
 90
        2
  1
中
290
     1
290
     0
290
     1
290
     1
  1

  1
5 レンダリング レベルを適用
 90
        0
100
AcDbRapidRTRenderSettings
 90
        3
 70
     0
 90
        5
 90
        1
 70
     1
 70
     2
 40
3.0
 40
3.0
290
     1
  0
MENTALRAYRENDERSETTINGS
  5
246
102
{ACAD_XDICTIONARY
360
247
102
}
102
{ACAD_REACTORS
330
1A
102
}
330
1A
100
AcDbRenderSettings
 90
        2
  1
中間
290
     1
290
     1
290
     1
290
     1
  1

  1

 90
        0
100
AcDbMentalRayRenderSettings
 90
        2
 90
        0
 90
        1
 70
     2
 40
3.0
 40
3.0
 40
0.05
 40
0.05
 40
0.05
 40
0.05
 70
     0
290
     0
290
     1
 90
        5
 90
        5
 90
        5
290
     0
 90
      500
290
     0
 40
1.0
 90
    10000
 90
        5
 90
        5
 90
        5
290
     0
 90
      200
290
     0
290
     0
290
     0
 40
1.0
 40
1.0
 40
1500.0
 70
     0
 70
     0
 40
10.0
 70
     0
 70
     0
290
     0
  1

 90
       32
 70
     0
 90
     1048
290
     0
 40
1.0
  0
DICTIONARY
  5
124
102
{ACAD_REACTORS
330
1A
102
}
330
1A
100
AcDbDictionary
281
     1
  3
A0
350
125
  3
A1
350
126
  3
A2
350
127
  3
A3
350
128
  3
A4
350
129
  3
A5
350
12A
  3
A6
350
12B
  3
A7
350
12C
  3
A8
350
12D
  3
A9
350
12E
  3
B0
350
12F
  3
B1
350
130
  3
B2
350
131
  3
B3
350
132
  3
B4
350
133
  3
B5
350
134
  3
B6
350
135
  3
B7
350
136
  3
B8
350
137
  3
B9
350
138
  3
C0
350
139
  3
C1
350
13A
  3
C2
350
13B
  3
C3
350
13C
  3
C4
350
13D
  3
C5
350
13E
  3
C6
350
13F
  3
C7
350
140
  3
C8
350
141
  3
C9
350
142
  3
D0
350
143
  3
D1
350
144
  3
D2
350
145
  0
DICTIONARY
  5
1CD
102
{ACAD_REACTORS
330
1A
102
}
330
1A
100
AcDbDictionary
281
     1
  3
Metric50
350
1CE
  0
DICTIONARY
  5
122
102
{ACAD_REACTORS
330
1A
102
}
330
1A
100
AcDbDictionary
281
     1
  3
Standard
350
123
  0
DICTIONARY
  5
10D
102
{ACAD_REACTORS
330
1A
102
}
330
1A
100
AcDbDictionary
281
     1
  3
2dWireframe
350
113
  3
3D Hidden
350
115
  3
3dWireframe
350
114
  3
Basic
350
112
  3
Brighten
350
119
  3
ColorChange
350
11D
  3
Conceptual
350
116
  3
Dim
350
118
  3
EdgeColorOff
350
120
  3
Facepattern
350
11C
  3
Flat
350
10E
  3
FlatWithEdges
350
10F
  3
Gouraud
350
110
  3
GouraudWithEdges
350
111
  3
Hidden
350
1C7
  3
JitterOff
350
11E
  3
Linepattern
350
11B
  3
OverhangOff
350
11F
  3
Realistic
350
117
  3
Shaded
350
1CC
  3
Shaded with edges
350
1CB
  3
Shades of Gray
350
1C8
  3
Sketchy
350
1C9
  3
Thicken
350
11A
  3
Wireframe
350
1C6
  3
X-Ray
350
1CA
  0
XRECORD
  5
7C9
102
{ACAD_REACTORS
330
1A
102
}
330
1A
100
AcDbXrecord
280
     1
 90
        1
330
123
  0
DICTIONARY
  5
1BD
102
{ACAD_REACTORS
330
1A
102
}
330
1A
100
AcDbDictionary
281
     1
  3
CANNOSCALE
350
1C0
  3
CMLEADERSTYLE
350
1BF
  3
CTABLESTYLE
350
1BE
  3
CVIEWDETAILSTYLE
350
249
  3
CVIEWSECTIONSTYLE
350
24A
  3
DIMASSOC
350
1C3
  3
INDEXCTL
350
1C2
  3
SORTENTS
350
1C1
  3
XCLIPFRAME
350
7C7
  0
DICTIONARY
  5
1E1
102
{ACAD_REACTORS
330
1E0
102
}
330
1E0
100
AcDbDictionary
281
     1
  0
XRECORD
  5
1EF
102
{ACAD_REACTORS
330
1EE
102
}
330
1EE
100
AcDbXrecord
280
     1
290
     1
  0
XRECORD
  5
1F1
102
{ACAD_REACTORS
330
1F0
102
}
330
1F0
100
AcDbXrecord
280
     1
290
     1
  0
XRECORD
  5
1F3
102
{ACAD_REACTORS
330
1F2
102
}
330
1F2
100
AcDbXrecord
280
     1
290
     1
  0
XRECORD
  5
177
102
{ACAD_REACTORS
330
176
102
}
330
176
100
AcDbXrecord
280
     1
340
2
  0
XRECORD
  5
179
102
{ACAD_REACTORS
330
178
102
}
330
178
100
AcDbXrecord
280
     1
340
7
  0
ACDBDETAILVIEWSTYLE
  5
1D0
102
{ACAD_XDICTIONARY
360
804
102
}
102
{ACAD_REACTORS
330
1CF
102
}
330
1CF
100
AcDbModelDocViewStyle
 70
     0
  3
Metric50
290
     0
100
AcDbDetailViewStyle
 70
     0
 71
     0
 90
        3
 71
     1
340
C
 62
   256
 40
5.0
340
0
 62
   256
 40
5.0
300

 40
0.0
280
     1
 71
     2
340
5
 90
       25
 62
   256
 71
     3
340
C
 62
   256
 40
5.0
 90
        0
 40
15.0
 90
        1
300
%<\AcVar ViewDetailId>% (%<\AcVar ViewScale \f "%sn">%)
 71
     4
340
5
 90
       25
 62
   256
340
5
 90
       25
 62
   256
280
     0
  0
LAYOUT
  5
14A
102
{ACAD_XDICTIONARY
360
232
102
}
102
{ACAD_REACTORS
330
148
102
}
330
148
100
AcDbPlotSettings
  1

  2
C:\ACAD-I\support\plotters\Default Windows System Printer.pc3
  4
A4
  6

 40
4.90008307
 41
4.90005493
 42
4.90008545
 43
4.90008545
 44
210.01567078
 45
297.01065063
 46
0.0
 47
0.0
 48
0.0
 49
0.0
140
0.0
141
0.0
142
1.0
143
4.00365057
 70
 11952
 72
     1
 73
     1
 74
     0
  7
monochrome.ctb
 75
     0
147
0.24977205
 76
     0
 77
     2
 78
   300
148
80.18719345
149
2.35819568
100
AcDbLayout
  1
Model
 70
     1
 71
     0
 10
0.0
 20
0.0
 11
12.0
 21
9.0
 12
0.0
 22
0.0
 32
0.0
 14
0.0
 24
0.0
 34
0.0
 15
0.0
 25
0.0
 35
0.0
146
0.0
 13
0.0
 23
0.0
 33
0.0
 16
1.0
 26
0.0
 36
0.0
 17
0.0
 27
1.0
 37
0.0
 76
     0
330
2
331
F0
1001
ACAD_PSEXT
1000
C:\ACAD-I\support\plotters\Default Windows System Printer.pc3
1000
FX ApeosPort-IV C4475
1000
10.230.216.80
1000
宣伝部6F用ドライバー（20180907）
1070
     0
  0
LAYOUT
  5
14B
102
{ACAD_REACTORS
330
148
102
}
330
148
100
AcDbPlotSettings
  1

  2
C:\ACAD-I\support\plotters\Default Windows System Printer.pc3
  4
A4
  6

 40
4.90008307
 41
4.90005493
 42
4.90008545
 43
4.90008545
 44
210.01567078
 45
297.01065063
 46
0.0
 47
0.0
 48
0.0
 49
0.0
140
0.0
141
0.0
142
1.0
143
1.0
 70
 15024
 72
     1
 73
     1
 74
     5
  7
monochrome.ctb
 75
    16
147
1.0
 76
     0
 77
     2
 78
   300
148
0.0
149
0.0
100
AcDbLayout
  1
レイアウト1
 70
     1
 71
     1
 10
0.0
 20
0.0
 11
420.0
 21
297.0
 12
0.0
 22
0.0
 32
0.0
 14
1.00000000E+20
 24
1.00000000E+20
 34
1.00000000E+20
 15
-1.00000000E+20
 25
-1.00000000E+20
 35
-1.00000000E+20
146
0.0
 13
0.0
 23
0.0
 33
0.0
 16
1.0
 26
0.0
 36
0.0
 17
0.0
 27
1.0
 37
0.0
 76
     0
330
7
1001
ACAD_PSEXT
1000
C:\ACAD-I\support\plotters\Default Windows System Printer.pc3
1000
FX ApeosPort-IV C4475
1000
10.230.216.80
1000
宣伝部6F用ドライバー（20180907）
1070
     0
  0
MATERIAL
  5
FD
102
{ACAD_XDICTIONARY
360
FE
102
}
102
{ACAD_REACTORS
330
F4
102
}
330
F4
100
AcDbMaterial
  1
ByBlock
 72
     0
 43
0.02083333
 43
0.0
 43
0.0
 43
0.0
 43
0.0
 43
0.02083333
 43
0.0
 43
0.0
 43
0.0
 43
0.0
 43
1.0
 43
0.0
 43
0.0
 43
0.0
 43
0.0
 43
1.0
 77
     0
 47
0.02083333
 47
0.0
 47
0.0
 47
0.0
 47
0.0
 47
0.02083333
 47
0.0
 47
0.0
 47
0.0
 47
0.0
 47
1.0
 47
0.0
 47
0.0
 47
0.0
 47
0.0
 47
1.0
171
     0
 49
0.02083333
 49
0.0
 49
0.0
 49
0.0
 49
0.0
 49
0.02083333
 49
0.0
 49
0.0
 49
0.0
 49
0.0
 49
1.0
 49
0.0
 49
0.0
 49
0.0
 49
0.0
 49
1.0
175
     0
142
0.02083333
142
0.0
142
0.0
142
0.0
142
0.0
142
0.02083333
142
0.0
142
0.0
142
0.0
142
0.0
142
1.0
142
0.0
142
0.0
142
0.0
142
0.0
142
1.0
179
     0
144
0.02083333
144
0.0
144
0.0
144
0.0
144
0.0
144
0.02083333
144
0.0
144
0.0
144
0.0
144
0.0
144
1.0
144
0.0
144
0.0
144
0.0
144
0.0
144
1.0
147
0.02083333
147
0.0
147
0.0
147
0.0
147
0.0
147
0.02083333
147
0.0
147
0.0
147
0.0
147
0.0
147
1.0
147
0.0
147
0.0
147
0.0
147
0.0
147
1.0
  0
MATERIAL
  5
F5
102
{ACAD_XDICTIONARY
360
F6
102
}
102
{ACAD_REACTORS
330
F4
102
}
330
F4
100
AcDbMaterial
  1
ByLayer
 72
     0
 43
0.02083333
 43
0.0
 43
0.0
 43
0.0
 43
0.0
 43
0.02083333
 43
0.0
 43
0.0
 43
0.0
 43
0.0
 43
1.0
 43
0.0
 43
0.0
 43
0.0
 43
0.0
 43
1.0
 77
     0
 47
0.02083333
 47
0.0
 47
0.0
 47
0.0
 47
0.0
 47
0.02083333
 47
0.0
 47
0.0
 47
0.0
 47
0.0
 47
1.0
 47
0.0
 47
0.0
 47
0.0
 47
0.0
 47
1.0
171
     0
 49
0.02083333
 49
0.0
 49
0.0
 49
0.0
 49
0.0
 49
0.02083333
 49
0.0
 49
0.0
 49
0.0
 49
0.0
 49
1.0
 49
0.0
 49
0.0
 49
0.0
 49
0.0
 49
1.0
175
     0
142
0.02083333
142
0.0
142
0.0
142
0.0
142
0.0
142
0.02083333
142
0.0
142
0.0
142
0.0
142
0.0
142
1.0
142
0.0
142
0.0
142
0.0
142
0.0
142
1.0
179
     0
144
0.02083333
144
0.0
144
0.0
144
0.0
144
0.0
144
0.02083333
144
0.0
144
0.0
144
0.0
144
0.0
144
1.0
144
0.0
144
0.0
144
0.0
144
0.0
144
1.0
147
0.02083333
147
0.0
147
0.0
147
0.0
147
0.0
147
0.02083333
147
0.0
147
0.0
147
0.0
147
0.0
147
1.0
147
0.0
147
0.0
147
0.0
147
0.0
147
1.0
  0
MATERIAL
  5
105
102
{ACAD_XDICTIONARY
360
106
102
}
102
{ACAD_REACTORS
330
F4
102
}
330
F4
100
AcDbMaterial
  1
Global
 72
     0
 43
0.02083333
 43
0.0
 43
0.0
 43
0.0
 43
0.0
 43
0.02083333
 43
0.0
 43
0.0
 43
0.0
 43
0.0
 43
1.0
 43
0.0
 43
0.0
 43
0.0
 43
0.0
 43
1.0
 77
     0
 47
0.02083333
 47
0.0
 47
0.0
 47
0.0
 47
0.0
 47
0.02083333
 47
0.0
 47
0.0
 47
0.0
 47
0.0
 47
1.0
 47
0.0
 47
0.0
 47
0.0
 47
0.0
 47
1.0
171
     0
 49
0.02083333
 49
0.0
 49
0.0
 49
0.0
 49
0.0
 49
0.02083333
 49
0.0
 49
0.0
 49
0.0
 49
0.0
 49
1.0
 49
0.0
 49
0.0
 49
0.0
 49
0.0
 49
1.0
175
     0
142
0.02083333
142
0.0
142
0.0
142
0.0
142
0.0
142
0.02083333
142
0.0
142
0.0
142
0.0
142
0.0
142
1.0
142
0.0
142
0.0
142
0.0
142
0.0
142
1.0
179
     0
144
0.02083333
144
0.0
144
0.0
144
0.0
144
0.0
144
0.02083333
144
0.0
144
0.0
144
0.0
144
0.0
144
1.0
144
0.0
144
0.0
144
0.0
144
0.0
144
1.0
147
0.02083333
147
0.0
147
0.0
147
0.0
147
0.0
147
0.02083333
147
0.0
147
0.0
147
0.0
147
0.0
147
1.0
147
0.0
147
0.0
147
0.0
147
0.0
147
1.0
  0
MLEADERSTYLE
  5
147
102
{ACAD_REACTORS
330
146
102
}
330
146
100
AcDbMLeaderStyle
170
     2
171
     1
172
     0
 90
        2
 40
0.0
 41
0.0
173
     1
 91
-1056964608
340
E
 92
       -2
290
     1
 42
0.09
291
     1
 43
0.36
  3
Standard
 44
0.18
300

342
C
174
     1
178
     6
175
     1
176
     0
 93
-1056964608
 45
0.18
292
     0
297
     0
 46
0.18
 94
-1056964608
 47
1.0
 49
1.0
140
1.0
293
     1
141
0.0
294
     1
177
     0
142
1.0
295
     0
296
     0
143
0.125
1001
ACAD_MLEADERVER
1070
     2
  0
MLINESTYLE
  5
1B
102
{ACAD_REACTORS
330
19
102
}
330
19
100
AcDbMlineStyle
  2
STANDARD
 70
     0
  3

 62
   256
 51
90.0
 52
90.0
 71
     2
 49
0.5
 62
   256
  6
BYLAYER
 49
-0.5
 62
   256
  6
BYLAYER
  0
ACDBPLACEHOLDER
  5
F3
102
{ACAD_REACTORS
330
F2
102
}
330
F2
  0
DICTIONARY
  5
247
330
246
100
AcDbDictionary
280
     1
281
     1
  3
ADSK_XREC_MENTALRAYSETTINGSINFO
360
248
  0
SCALE
  5
125
102
{ACAD_REACTORS
330
124
102
}
330
124
100
AcDbScale
 70
     0
300
1:1
140
1.0
141
1.0
290
     1
  0
SCALE
  5
126
102
{ACAD_REACTORS
330
124
102
}
330
124
100
AcDbScale
 70
     0
300
1:2
140
1.0
141
2.0
290
     0
  0
SCALE
  5
127
102
{ACAD_REACTORS
330
124
102
}
330
124
100
AcDbScale
 70
     0
300
1:4
140
1.0
141
4.0
290
     0
  0
SCALE
  5
128
102
{ACAD_REACTORS
330
124
102
}
330
124
100
AcDbScale
 70
     0
300
1:5
140
1.0
141
5.0
290
     0
  0
SCALE
  5
129
102
{ACAD_REACTORS
330
124
102
}
330
124
100
AcDbScale
 70
     0
300
1:8
140
1.0
141
8.0
290
     0
  0
SCALE
  5
12A
102
{ACAD_REACTORS
330
124
102
}
330
124
100
AcDbScale
 70
     0
300
1:10
140
1.0
141
10.0
290
     0
  0
SCALE
  5
12B
102
{ACAD_REACTORS
330
124
102
}
330
124
100
AcDbScale
 70
     0
300
1:16
140
1.0
141
16.0
290
     0
  0
SCALE
  5
12C
102
{ACAD_REACTORS
330
124
102
}
330
124
100
AcDbScale
 70
     0
300
1:20
140
1.0
141
20.0
290
     0
  0
SCALE
  5
12D
102
{ACAD_REACTORS
330
124
102
}
330
124
100
AcDbScale
 70
     0
300
1:30
140
1.0
141
30.0
290
     0
  0
SCALE
  5
12E
102
{ACAD_REACTORS
330
124
102
}
330
124
100
AcDbScale
 70
     0
300
1:40
140
1.0
141
40.0
290
     0
  0
SCALE
  5
12F
102
{ACAD_REACTORS
330
124
102
}
330
124
100
AcDbScale
 70
     0
300
1:50
140
1.0
141
50.0
290
     0
  0
SCALE
  5
130
102
{ACAD_REACTORS
330
124
102
}
330
124
100
AcDbScale
 70
     0
300
1:100
140
1.0
141
100.0
290
     0
  0
SCALE
  5
131
102
{ACAD_REACTORS
330
124
102
}
330
124
100
AcDbScale
 70
     0
300
2:1
140
2.0
141
1.0
290
     0
  0
SCALE
  5
132
102
{ACAD_REACTORS
330
124
102
}
330
124
100
AcDbScale
 70
     0
300
4:1
140
4.0
141
1.0
290
     0
  0
SCALE
  5
133
102
{ACAD_REACTORS
330
124
102
}
330
124
100
AcDbScale
 70
     0
300
8:1
140
8.0
141
1.0
290
     0
  0
SCALE
  5
134
102
{ACAD_REACTORS
330
124
102
}
330
124
100
AcDbScale
 70
     0
300
10:1
140
10.0
141
1.0
290
     0
  0
SCALE
  5
135
102
{ACAD_REACTORS
330
124
102
}
330
124
100
AcDbScale
 70
     0
300
100:1
140
100.0
141
1.0
290
     0
  0
SCALE
  5
136
102
{ACAD_REACTORS
330
124
102
}
330
124
100
AcDbScale
 70
     0
300
1/128" = 1'-0"
140
0.0078125
141
12.0
290
     0
  0
SCALE
  5
137
102
{ACAD_REACTORS
330
124
102
}
330
124
100
AcDbScale
 70
     0
300
1/64" = 1'-0"
140
0.015625
141
12.0
290
     0
  0
SCALE
  5
138
102
{ACAD_REACTORS
330
124
102
}
330
124
100
AcDbScale
 70
     0
300
1/32" = 1'-0"
140
0.03125
141
12.0
290
     0
  0
SCALE
  5
139
102
{ACAD_REACTORS
330
124
102
}
330
124
100
AcDbScale
 70
     0
300
1/16" = 1'-0"
140
0.0625
141
12.0
290
     0
  0
SCALE
  5
13A
102
{ACAD_REACTORS
330
124
102
}
330
124
100
AcDbScale
 70
     0
300
3/32" = 1'-0"
140
0.09375
141
12.0
290
     0
  0
SCALE
  5
13B
102
{ACAD_REACTORS
330
124
102
}
330
124
100
AcDbScale
 70
     0
300
1/8" = 1'-0"
140
0.125
141
12.0
290
     0
  0
SCALE
  5
13C
102
{ACAD_REACTORS
330
124
102
}
330
124
100
AcDbScale
 70
     0
300
3/16" = 1'-0"
140
0.1875
141
12.0
290
     0
  0
SCALE
  5
13D
102
{ACAD_REACTORS
330
124
102
}
330
124
100
AcDbScale
 70
     0
300
1/4" = 1'-0"
140
0.25
141
12.0
290
     0
  0
SCALE
  5
13E
102
{ACAD_REACTORS
330
124
102
}
330
124
100
AcDbScale
 70
     0
300
3/8" = 1'-0"
140
0.375
141
12.0
290
     0
  0
SCALE
  5
13F
102
{ACAD_REACTORS
330
124
102
}
330
124
100
AcDbScale
 70
     0
300
1/2" = 1'-0"
140
0.5
141
12.0
290
     0
  0
SCALE
  5
140
102
{ACAD_REACTORS
330
124
102
}
330
124
100
AcDbScale
 70
     0
300
3/4" = 1'-0"
140
0.75
141
12.0
290
     0
  0
SCALE
  5
141
102
{ACAD_REACTORS
330
124
102
}
330
124
100
AcDbScale
 70
     0
300
1" = 1'-0"
140
1.0
141
12.0
290
     0
  0
SCALE
  5
142
102
{ACAD_REACTORS
330
124
102
}
330
124
100
AcDbScale
 70
     0
300
1-1/2" = 1'-0"
140
1.5
141
12.0
290
     0
  0
SCALE
  5
143
102
{ACAD_REACTORS
330
124
102
}
330
124
100
AcDbScale
 70
     0
300
3" = 1'-0"
140
3.0
141
12.0
290
     0
  0
SCALE
  5
144
102
{ACAD_REACTORS
330
124
102
}
330
124
100
AcDbScale
 70
     0
300
6" = 1'-0"
140
6.0
141
12.0
290
     0
  0
SCALE
  5
145
102
{ACAD_REACTORS
330
124
102
}
330
124
100
AcDbScale
 70
     0
300
1'-0" = 1'-0"
140
12.0
141
12.0
290
     0
  0
ACDBSECTIONVIEWSTYLE
  5
1CE
102
{ACAD_XDICTIONARY
360
802
102
}
102
{ACAD_REACTORS
330
1CD
102
}
330
1CD
100
AcDbModelDocViewStyle
 70
     0
  3
Metric50
290
     0
100
AcDbSectionViewStyle
 70
     0
 71
     0
 90
      102
 71
     1
340
C
 62
   256
 40
5.0
340
0
340
0
 62
   256
 40
5.0
300
I, O, Q, S, X, Z
 40
10.0
 90
        0
 40
2.5
 90
        0
 71
     2
340
5
 90
       25
 62
   256
340
5
 90
       50
 62
   256
 40
5.0
 40
2.5
 40
5.0
 71
     3
340
C
 62
   256
 40
5.0
 90
        0
 40
15.0
 90
        1
300
%<\AcVar ViewSectionStartId>%-%<\AcVar ViewSectionEndId>% (%<\AcVar ViewScale \f "%sn">%)
 71
     4
 62
   256
 62
   257
300
ANSI31
 40
1.0
 90
        0
290
     0
290
     0
 90
        6
 40
0.0
 40
1.57079633
 40
0.26179939
 40
1.30899694
 40
-0.26179939
 40
1.83259571
  0
TABLESTYLE
  5
123
102
{ACAD_XDICTIONARY
360
150
102
}
102
{ACAD_REACTORS
330
122
102
}
330
122
100
AcDbTableStyle
  3
Standard
 70
     0
 71
     0
 40
0.06
 41
0.06
280
     0
281
     0
  7
STANDARD
140
0.18
170
     2
 62
     0
 63
     7
283
     0
274
    -2
284
     1
 64
     0
275
    -2
285
     1
 65
     0
276
    -2
286
     1
 66
     0
277
    -2
287
     1
 67
     0
278
    -2
288
     1
 68
     0
279
    -2
289
     1
 69
     0
  7
STANDARD
140
0.25
170
     5
 62
     0
 63
     7
283
     0
274
    -2
284
     1
 64
     0
275
    -2
285
     1
 65
     0
276
    -2
286
     1
 66
     0
277
    -2
287
     1
 67
     0
278
    -2
288
     1
 68
     0
279
    -2
289
     1
 69
     0
  7
STANDARD
140
0.18
170
     5
 62
     0
 63
     7
283
     0
274
    -2
284
     1
 64
     0
275
    -2
285
     1
 65
     0
276
    -2
286
     1
 66
     0
277
    -2
287
     1
 67
     0
278
    -2
288
     1
 68
     0
279
    -2
289
     1
 69
     0
  0
VISUALSTYLE
  5
113
102
{ACAD_XDICTIONARY
360
7D7
102
}
102
{ACAD_REACTORS
330
10D
102
}
330
10D
100
AcDbVisualStyle
  2
2dWireframe
 70
     4
 71
     0
 72
     2
 73
     0
 90
        0
 40
-0.6
 41
-30.0
 62
     5
 63
     7
 74
     1
 91
        4
 64
     7
 65
   257
 75
     1
175
     1
 42
1.0
 92
        0
 66
   257
 43
1.0
 76
     1
 77
     6
 78
     2
 67
     7
 79
     5
170
     0
171
     0
290
     0
174
     0
 93
        1
 44
0.0
173
     0
291
     0
 45
0.0
1001
ACAD
1000
AcDbSavedByObjectVersion
1070
     0
  0
VISUALSTYLE
  5
115
102
{ACAD_XDICTIONARY
360
7DB
102
}
102
{ACAD_REACTORS
330
10D
102
}
330
10D
100
AcDbVisualStyle
  2
3D Hidden
 70
     6
 71
     1
 72
     2
 73
     2
 90
        0
 40
-0.6
 41
-30.0
 62
     5
 63
     7
 74
     2
 91
        2
 64
     7
 65
   257
 75
     2
175
     1
 42
179.0
 92
        0
 66
   257
 43
1.0
 76
     1
 77
     6
 78
     2
 67
     7
 79
     3
170
     0
171
     0
290
     0
174
     0
 93
        1
 44
0.0
173
     0
291
     0
 45
0.0
1001
ACAD
1000
AcDbSavedByObjectVersion
1070
     0
  0
VISUALSTYLE
  5
114
102
{ACAD_XDICTIONARY
360
7D9
102
}
102
{ACAD_REACTORS
330
10D
102
}
330
10D
100
AcDbVisualStyle
  2
3dWireframe
 70
     5
 71
     0
 72
     2
 73
     0
 90
        0
 40
-0.6
 41
-30.0
 62
     5
 63
     7
 74
     1
 91
        4
 64
     7
 65
   257
 75
     1
175
     1
 42
1.0
 92
        0
 66
   257
 43
1.0
 76
     1
 77
     6
 78
     2
 67
     7
 79
     5
170
     0
171
     0
290
     0
174
     0
 93
        1
 44
0.0
173
     0
291
     0
 45
0.0
1001
ACAD
1000
AcDbSavedByObjectVersion
1070
     0
  0
VISUALSTYLE
  5
112
102
{ACAD_XDICTIONARY
360
7D5
102
}
102
{ACAD_REACTORS
330
10D
102
}
330
10D
100
AcDbVisualStyle
  2
Basic
 70
     7
 71
     1
 72
     0
 73
     1
 90
        0
 40
-0.6
 41
-30.0
 62
     5
 63
     7
 74
     0
 91
        4
 64
     7
 65
   257
 75
     1
175
     1
 42
1.0
 92
        8
 66
     7
 43
1.0
 76
     1
 77
     6
 78
     2
 67
     7
 79
     5
170
     0
171
     0
290
     0
174
     0
 93
        1
 44
0.0
173
     0
291
     1
 45
0.0
1001
ACAD
1000
AcDbSavedByObjectVersion
1070
     0
  0
VISUALSTYLE
  5
119
102
{ACAD_XDICTIONARY
360
7E3
102
}
102
{ACAD_REACTORS
330
10D
102
}
330
10D
100
AcDbVisualStyle
  2
Brighten
 70
    12
 71
     2
 72
     2
 73
     0
 90
        0
 40
-0.6
 41
-30.0
 62
     5
 63
     7
 74
     1
 91
        4
 64
     7
 65
   257
 75
     1
175
     1
 42
1.0
 92
        8
 66
     7
 43
1.0
 76
     1
 77
     6
 78
     2
 67
     7
 79
     5
170
     0
171
     0
290
     0
174
     0
 93
        1
 44
50.0
173
     0
291
     1
 45
0.0
1001
ACAD
1000
AcDbSavedByObjectVersion
1070
     0
  0
VISUALSTYLE
  5
11D
102
{ACAD_XDICTIONARY
360
7EB
102
}
102
{ACAD_REACTORS
330
10D
102
}
330
10D
100
AcDbVisualStyle
  2
ColorChange
 70
    16
 71
     2
 72
     2
 73
     3
 90
        0
 40
-0.6
 41
-30.0
 62
     5
 63
     8
 74
     1
 91
        4
 64
     7
 65
   257
 75
     1
175
     1
 42
1.0
 92
        8
 66
     8
 43
1.0
 76
     1
 77
     6
 78
     2
 67
     7
 79
     5
170
     0
171
     0
290
     0
174
     0
 93
        1
 44
0.0
173
     0
291
     1
 45
0.0
1001
ACAD
1000
AcDbSavedByObjectVersion
1070
     0
  0
VISUALSTYLE
  5
116
102
{ACAD_XDICTIONARY
360
7DD
102
}
102
{ACAD_REACTORS
330
10D
102
}
330
10D
100
AcDbVisualStyle
  2
Conceptual
 70
     9
 71
     3
 72
     2
 73
     0
 90
        0
 40
-0.6
 41
-30.0
 62
     5
 63
     7
 74
     2
 91
        2
 64
     7
 65
   257
 75
     1
175
     1
 42
179.0
 92
        8
 66
     7
 43
1.0
 76
     1
 77
     6
 78
     2
 67
     7
 79
     3
170
     0
171
     0
290
     0
174
     0
 93
        1
 44
0.0
173
     0
291
     0
 45
0.0
1001
ACAD
1000
AcDbSavedByObjectVersion
1070
     0
  0
VISUALSTYLE
  5
118
102
{ACAD_XDICTIONARY
360
7E1
102
}
102
{ACAD_REACTORS
330
10D
102
}
330
10D
100
AcDbVisualStyle
  2
Dim
 70
    11
 71
     2
 72
     2
 73
     0
 90
        0
 40
-0.6
 41
-30.0
 62
     5
 63
     7
 74
     1
 91
        4
 64
     7
 65
   257
 75
     1
175
     1
 42
1.0
 92
        8
 66
     7
 43
1.0
 76
     1
 77
     6
 78
     2
 67
     7
 79
     5
170
     0
171
     0
290
     0
174
     0
 93
        1
 44
-50.0
173
     0
291
     1
 45
0.0
1001
ACAD
1000
AcDbSavedByObjectVersion
1070
     0
  0
VISUALSTYLE
  5
120
102
{ACAD_XDICTIONARY
360
7F1
102
}
102
{ACAD_REACTORS
330
10D
102
}
330
10D
100
AcDbVisualStyle
  2
EdgeColorOff
 70
    22
 71
     2
 72
     2
 73
     0
 90
        0
 40
-0.6
 41
-30.0
 62
     5
 63
     7
 74
     1
 91
        4
 64
     7
 65
   257
 75
     1
175
     1
 42
1.0
 92
        8
 66
     7
 43
1.0
 76
     1
 77
     6
 78
     2
 67
     7
 79
     5
170
     0
171
     0
290
     0
174
     0
 93
        1
 44
0.0
173
     0
291
     1
 45
0.0
1001
ACAD
1000
AcDbSavedByObjectVersion
1070
     0
  0
VISUALSTYLE
  5
11C
102
{ACAD_XDICTIONARY
360
7E9
102
}
102
{ACAD_REACTORS
330
10D
102
}
330
10D
100
AcDbVisualStyle
  2
Facepattern
 70
    15
 71
     2
 72
     2
 73
     0
 90
        0
 40
-0.6
 41
-30.0
 62
     5
 63
     7
 74
     1
 91
        4
 64
     7
 65
   257
 75
     1
175
     1
 42
1.0
 92
        8
 66
     7
 43
1.0
 76
     1
 77
     6
 78
     2
 67
     7
 79
     5
170
     0
171
     0
290
     0
174
     0
 93
        1
 44
0.0
173
     0
291
     1
 45
0.0
1001
ACAD
1000
AcDbSavedByObjectVersion
1070
     0
  0
VISUALSTYLE
  5
10E
102
{ACAD_XDICTIONARY
360
7CD
102
}
102
{ACAD_REACTORS
330
10D
102
}
330
10D
100
AcDbVisualStyle
  2
Flat
 70
     0
 71
     2
 72
     1
 73
     1
 90
        2
 40
-0.6
 41
30.0
 62
     5
 63
     7
 74
     0
 91
        4
 64
     7
 65
   257
 75
     1
175
     1
 42
1.0
 92
        8
 66
     7
 43
1.0
 76
     1
 77
     6
 78
     2
 67
     7
 79
     5
170
     0
171
     0
290
     0
174
     0
 93
       13
 44
0.0
173
     0
291
     1
 45
0.0
1001
ACAD
1000
AcDbSavedByObjectVersion
1070
     0
  0
VISUALSTYLE
  5
10F
102
{ACAD_XDICTIONARY
360
7CF
102
}
102
{ACAD_REACTORS
330
10D
102
}
330
10D
100
AcDbVisualStyle
  2
FlatWithEdges
 70
     1
 71
     2
 72
     1
 73
     1
 90
        2
 40
-0.6
 41
30.0
 62
     5
 63
     7
 74
     1
 91
        4
 64
     7
 65
   257
 75
     1
175
     1
 42
1.0
 92
        0
 66
   257
 43
1.0
 76
     1
 77
     6
 78
     2
 67
     7
 79
     5
170
     0
171
     0
290
     0
174
     0
 93
       13
 44
0.0
173
     0
291
     1
 45
0.0
1001
ACAD
1000
AcDbSavedByObjectVersion
1070
     0
  0
VISUALSTYLE
  5
110
102
{ACAD_XDICTIONARY
360
7D1
102
}
102
{ACAD_REACTORS
330
10D
102
}
330
10D
100
AcDbVisualStyle
  2
Gouraud
 70
     2
 71
     2
 72
     2
 73
     1
 90
        2
 40
-0.6
 41
30.0
 62
     5
 63
     7
 74
     0
 91
        4
 64
     7
 65
   257
 75
     1
175
     1
 42
1.0
 92
        0
 66
     7
 43
1.0
 76
     1
 77
     6
 78
     2
 67
     7
 79
     5
170
     0
171
     0
290
     0
174
     0
 93
       13
 44
0.0
173
     0
291
     1
 45
0.0
1001
ACAD
1000
AcDbSavedByObjectVersion
1070
     0
  0
VISUALSTYLE
  5
111
102
{ACAD_XDICTIONARY
360
7D3
102
}
102
{ACAD_REACTORS
330
10D
102
}
330
10D
100
AcDbVisualStyle
  2
GouraudWithEdges
 70
     3
 71
     2
 72
     2
 73
     1
 90
        2
 40
-0.6
 41
30.0
 62
     5
 63
     7
 74
     1
 91
        4
 64
     7
 65
   257
 75
     1
175
     1
 42
1.0
 92
        0
 66
   257
 43
1.0
 76
     1
 77
     6
 78
     2
 67
     7
 79
     5
170
     0
171
     0
290
     0
174
     0
 93
       13
 44
0.0
173
     0
291
     1
 45
0.0
1001
ACAD
1000
AcDbSavedByObjectVersion
1070
     0
  0
VISUALSTYLE
  5
1C7
102
{ACAD_XDICTIONARY
360
7F6
102
}
102
{ACAD_REACTORS
330
10D
102
}
330
10D
100
AcDbVisualStyle
  2
Hidden
 70
     6
 71
     1
 72
     2
 73
     2
 90
        0
 40
-0.6
 41
-30.0
 62
     5
 63
     7
421
 16777215
 74
     2
 91
        2
 64
     7
 65
   257
 75
     2
175
     1
 42
40.0
 92
        0
 66
   257
 43
1.0
 76
     1
 77
     6
 78
     2
 67
     7
 79
     3
170
     0
171
     0
290
     0
174
     0
 93
        1
 44
0.0
173
     0
291
     0
 45
0.0
1001
ACAD
1000
AcDbSavedByObjectVersion
1070
     0
  0
VISUALSTYLE
  5
11E
102
{ACAD_XDICTIONARY
360
7ED
102
}
102
{ACAD_REACTORS
330
10D
102
}
330
10D
100
AcDbVisualStyle
  2
JitterOff
 70
    20
 71
     2
 72
     2
 73
     0
 90
        0
 40
-0.6
 41
-30.0
 62
     5
 63
     7
 74
     1
 91
        4
 64
     7
 65
   257
 75
     1
175
     1
 42
1.0
 92
       10
 66
     7
 43
1.0
 76
     1
 77
     6
 78
     2
 67
     7
 79
     5
170
     0
171
     0
290
     0
174
     0
 93
        1
 44
0.0
173
     0
291
     1
 45
0.0
1001
ACAD
1000
AcDbSavedByObjectVersion
1070
     0
  0
VISUALSTYLE
  5
11B
102
{ACAD_XDICTIONARY
360
7E7
102
}
102
{ACAD_REACTORS
330
10D
102
}
330
10D
100
AcDbVisualStyle
  2
Linepattern
 70
    14
 71
     2
 72
     2
 73
     0
 90
        0
 40
-0.6
 41
-30.0
 62
     5
 63
     7
 74
     1
 91
        4
 64
     7
 65
   257
 75
     7
175
     7
 42
1.0
 92
        8
 66
     7
 43
1.0
 76
     1
 77
     6
 78
     2
 67
     7
 79
     5
170
     0
171
     0
290
     0
174
     0
 93
        1
 44
0.0
173
     0
291
     1
 45
0.0
1001
ACAD
1000
AcDbSavedByObjectVersion
1070
     0
  0
VISUALSTYLE
  5
11F
102
{ACAD_XDICTIONARY
360
7EF
102
}
102
{ACAD_REACTORS
330
10D
102
}
330
10D
100
AcDbVisualStyle
  2
OverhangOff
 70
    21
 71
     2
 72
     2
 73
     0
 90
        0
 40
-0.6
 41
-30.0
 62
     5
 63
     7
 74
     1
 91
        4
 64
     7
 65
   257
 75
     1
175
     1
 42
1.0
 92
        9
 66
     7
 43
1.0
 76
     1
 77
     6
 78
     2
 67
     7
 79
     5
170
     0
171
     0
290
     0
174
     0
 93
        1
 44
0.0
173
     0
291
     1
 45
0.0
1001
ACAD
1000
AcDbSavedByObjectVersion
1070
     0
  0
VISUALSTYLE
  5
117
102
{ACAD_XDICTIONARY
360
7DF
102
}
102
{ACAD_REACTORS
330
10D
102
}
330
10D
100
AcDbVisualStyle
  2
Realistic
 70
     8
 71
     2
 72
     2
 73
     0
 90
        0
 40
-0.6
 41
-30.0
 62
     5
 63
     7
 74
     1
 91
        0
 64
     7
 65
   257
 75
     1
175
     1
 42
1.0
 92
        8
 66
     8
 43
1.0
 76
     1
 77
     6
 78
     2
 67
     7
 79
     5
170
     0
171
     0
290
     0
174
     0
 93
       13
 44
0.0
173
     0
291
     0
 45
0.0
1001
ACAD
1000
AcDbSavedByObjectVersion
1070
     0
  0
VISUALSTYLE
  5
1CC
102
{ACAD_XDICTIONARY
360
800
102
}
102
{ACAD_REACTORS
330
10D
102
}
330
10D
100
AcDbVisualStyle
  2
Shaded
 70
    27
 71
     2
 72
     2
 73
     1
 90
        2
 40
-0.6
 41
30.0
 62
     5
 63
     7
421
 16777215
 74
     0
 91
        4
 64
     7
 65
   257
 75
     1
175
     1
 42
1.0
 92
        8
 66
   257
 43
1.0
 76
     1
 77
     6
 78
     2
 67
     8
425
  7895160
 79
     3
170
     0
171
     0
290
     0
174
     0
 93
        5
 44
0.0
173
     0
291
     0
 45
0.0
1001
ACAD
1000
AcDbSavedByObjectVersion
1070
     0
  0
VISUALSTYLE
  5
1CB
102
{ACAD_XDICTIONARY
360
7FE
102
}
102
{ACAD_REACTORS
330
10D
102
}
330
10D
100
AcDbVisualStyle
  2
Shaded with edges
 70
    26
 71
     2
 72
     2
 73
     1
 90
        2
 40
-0.6
 41
30.0
 62
     5
 63
     7
421
 16777215
 74
     1
 91
        2
 64
     7
 65
   257
 75
     2
175
     1
 42
1.0
 92
        8
 66
   257
 43
1.0
 76
     1
 77
     6
 78
     2
 67
     7
 79
     3
170
     0
171
     0
290
     0
174
     0
 93
        5
 44
0.0
173
     0
291
     0
 45
0.0
1001
ACAD
1000
AcDbSavedByObjectVersion
1070
     0
  0
VISUALSTYLE
  5
1C8
102
{ACAD_XDICTIONARY
360
7F8
102
}
102
{ACAD_REACTORS
330
10D
102
}
330
10D
100
AcDbVisualStyle
  2
Shades of Gray
 70
    23
 71
     2
 72
     2
 73
     3
 90
        0
 40
-0.6
 41
-30.0
 62
     5
 63
     7
421
 16777215
 74
     2
 91
        2
 64
     7
 65
     7
 75
     1
175
     1
 42
40.0
 92
        8
 66
     7
 43
1.0
 76
     1
 77
     6
 78
     2
 67
     7
 79
     3
170
     0
171
     0
290
     0
174
     0
 93
        1
 44
0.0
173
     0
291
     0
 45
0.0
1001
ACAD
1000
AcDbSavedByObjectVersion
1070
     0
  0
VISUALSTYLE
  5
1C9
102
{ACAD_XDICTIONARY
360
7FA
102
}
102
{ACAD_REACTORS
330
10D
102
}
330
10D
100
AcDbVisualStyle
  2
Sketchy
 70
    24
 71
     1
 72
     2
 73
     2
 90
        0
 40
-0.6
 41
-30.0
 62
     5
 63
     7
421
 16777215
 74
     2
 91
        2
 64
     7
 65
     7
 75
     1
175
     1
 42
40.0
 92
       11
 66
     7
 43
1.0
 76
     1
 77
     6
 78
     2
 67
     7
 79
     6
170
     0
171
     0
290
     0
174
     0
 93
        1
 44
0.0
173
     0
291
     0
 45
0.0
1001
ACAD
1000
AcDbSavedByObjectVersion
1070
     0
  0
VISUALSTYLE
  5
11A
102
{ACAD_XDICTIONARY
360
7E5
102
}
102
{ACAD_REACTORS
330
10D
102
}
330
10D
100
AcDbVisualStyle
  2
Thicken
 70
    13
 71
     2
 72
     2
 73
     0
 90
        0
 40
-0.6
 41
-30.0
 62
     5
 63
     7
 74
     1
 91
        4
 64
     7
 65
   257
 75
     1
175
     1
 42
1.0
 92
       12
 66
     7
 43
1.0
 76
     1
 77
     6
 78
     2
 67
     7
 79
     5
170
     0
171
     0
290
     0
174
     0
 93
        1
 44
0.0
173
     0
291
     1
 45
0.0
1001
ACAD
1000
AcDbSavedByObjectVersion
1070
     0
  0
VISUALSTYLE
  5
1C6
102
{ACAD_XDICTIONARY
360
7F4
102
}
102
{ACAD_REACTORS
330
10D
102
}
330
10D
100
AcDbVisualStyle
  2
Wireframe
 70
     5
 71
     0
 72
     2
 73
     0
 90
        0
 40
-0.6
 41
-30.0
 62
     5
 63
     7
421
 16777215
 74
     1
 91
        4
 64
     7
 65
   257
 75
     1
175
     1
 42
1.0
 92
        0
 66
   257
 43
1.0
 76
     1
 77
     6
 78
     2
 67
     7
 79
     3
170
     0
171
     0
290
     0
174
     0
 93
        1
 44
0.0
173
     0
291
     0
 45
0.0
1001
ACAD
1000
AcDbSavedByObjectVersion
1070
     0
  0
VISUALSTYLE
  5
1CA
102
{ACAD_XDICTIONARY
360
7FC
102
}
102
{ACAD_REACTORS
330
10D
102
}
330
10D
100
AcDbVisualStyle
  2
X-Ray
 70
    25
 71
     2
 72
     2
 73
     1
 90
        1
 40
0.5
 41
-30.0
 62
     5
 63
     7
421
 16777215
 74
     1
 91
        0
 64
     7
 65
   257
 75
     1
175
     1
 42
1.0
 92
        8
 66
     7
 43
1.0
 76
     1
 77
     6
 78
     2
 67
     7
 79
     3
170
     0
171
     0
290
     0
174
     0
 93
       13
 44
0.0
173
     0
291
     0
 45
0.0
1001
ACAD
1000
AcDbSavedByObjectVersion
1070
     0
  0
DICTIONARYVAR
  5
1C0
102
{ACAD_REACTORS
330
1BD
102
}
330
1BD
100
DictionaryVariables
280
     0
  1
1:1
  0
DICTIONARYVAR
  5
1BF
102
{ACAD_REACTORS
330
1BD
102
}
330
1BD
100
DictionaryVariables
280
     0
  1
STANDARD
  0
DICTIONARYVAR
  5
1BE
102
{ACAD_REACTORS
330
1BD
102
}
330
1BD
100
DictionaryVariables
280
     0
  1
STANDARD
  0
DICTIONARYVAR
  5
249
102
{ACAD_REACTORS
330
1BD
102
}
330
1BD
100
DictionaryVariables
280
     0
  1
Metric50
  0
DICTIONARYVAR
  5
24A
102
{ACAD_REACTORS
330
1BD
102
}
330
1BD
100
DictionaryVariables
280
     0
  1
Metric50
  0
DICTIONARYVAR
  5
1C3
102
{ACAD_REACTORS
330
1BD
102
}
330
1BD
100
DictionaryVariables
280
     0
  1
1
  0
DICTIONARYVAR
  5
1C2
102
{ACAD_REACTORS
330
1BD
102
}
330
1BD
100
DictionaryVariables
280
     0
  1
0
  0
DICTIONARYVAR
  5
1C1
102
{ACAD_REACTORS
330
1BD
102
}
330
1BD
100
DictionaryVariables
280
     0
  1
127
  0
DICTIONARYVAR
  5
7C7
102
{ACAD_REACTORS
330
1BD
102
}
330
1BD
100
DictionaryVariables
280
     0
  1
2
  0
DICTIONARY
  5
804
330
1D0
100
AcDbDictionary
280
     1
281
     1
  3
ACAD_XREC_ROUNDTRIP
360
805
  0
DICTIONARY
  5
232
330
14A
100
AcDbDictionary
280
     1
281
     1
  3
ADSK_XREC_LAYOUTTHUMBNAIL
360
233
  0
DICTIONARY
  5
FE
330
FD
100
AcDbDictionary
280
     1
281
     1
  3
ACAD_XREC_ROUNDTRIP
360
7CB
  3
BUMPTILE
360
100
  3
DIFFUSETILE
360
FF
  3
OPACITYTILE
360
103
  3
REFLECTIONTILE
360
102
  3
REFRACTIONTILE
360
104
  3
SPECULARTILE
360
101
  0
DICTIONARY
  5
F6
330
F5
100
AcDbDictionary
280
     1
281
     1
  3
ACAD_XREC_ROUNDTRIP
360
7CA
  3
BUMPTILE
360
F8
  3
DIFFUSETILE
360
F7
  3
OPACITYTILE
360
FB
  3
REFLECTIONTILE
360
FA
  3
REFRACTIONTILE
360
FC
  3
SPECULARTILE
360
F9
  0
DICTIONARY
  5
106
330
105
100
AcDbDictionary
280
     1
281
     1
  3
ACAD_XREC_ROUNDTRIP
360
7CC
  3
BUMPTILE
360
108
  3
DIFFUSETILE
360
107
  3
OPACITYTILE
360
10B
  3
REFLECTIONTILE
360
10A
  3
REFRACTIONTILE
360
10C
  3
SPECULARTILE
360
109
  0
XRECORD
  5
248
102
{ACAD_REACTORS
330
247
102
}
330
247
100
AcDbXrecord
280
     1
 70
     2
 71
     3
 72
     0
  0
DICTIONARY
  5
802
330
1CE
100
AcDbDictionary
280
     1
281
     1
  3
ACAD_XREC_ROUNDTRIP
360
803
  0
DICTIONARY
  5
150
330
123
100
AcDbDictionary
280
     1
281
     1
  3
ACAD_ROUNDTRIP_2008_TABLESTYLE_CELLSTYLEMAP
360
7C8
  3
ACAD_XREC_ROUNDTRIP
360
7F3
  0
DICTIONARY
  5
7D7
330
113
100
AcDbDictionary
280
     1
281
     1
  3
ACAD_XREC_ROUNDTRIP
360
7D8
  0
DICTIONARY
  5
7DB
330
115
100
AcDbDictionary
280
     1
281
     1
  3
ACAD_XREC_ROUNDTRIP
360
7DC
  0
DICTIONARY
  5
7D9
330
114
100
AcDbDictionary
280
     1
281
     1
  3
ACAD_XREC_ROUNDTRIP
360
7DA
  0
DICTIONARY
  5
7D5
330
112
100
AcDbDictionary
280
     1
281
     1
  3
ACAD_XREC_ROUNDTRIP
360
7D6
  0
DICTIONARY
  5
7E3
330
119
100
AcDbDictionary
280
     1
281
     1
  3
ACAD_XREC_ROUNDTRIP
360
7E4
  0
DICTIONARY
  5
7EB
330
11D
100
AcDbDictionary
280
     1
281
     1
  3
ACAD_XREC_ROUNDTRIP
360
7EC
  0
DICTIONARY
  5
7DD
330
116
100
AcDbDictionary
280
     1
281
     1
  3
ACAD_XREC_ROUNDTRIP
360
7DE
  0
DICTIONARY
  5
7E1
330
118
100
AcDbDictionary
280
     1
281
     1
  3
ACAD_XREC_ROUNDTRIP
360
7E2
  0
DICTIONARY
  5
7F1
330
120
100
AcDbDictionary
280
     1
281
     1
  3
ACAD_XREC_ROUNDTRIP
360
7F2
  0
DICTIONARY
  5
7E9
330
11C
100
AcDbDictionary
280
     1
281
     1
  3
ACAD_XREC_ROUNDTRIP
360
7EA
  0
DICTIONARY
  5
7CD
330
10E
100
AcDbDictionary
280
     1
281
     1
  3
ACAD_XREC_ROUNDTRIP
360
7CE
  0
DICTIONARY
  5
7CF
330
10F
100
AcDbDictionary
280
     1
281
     1
  3
ACAD_XREC_ROUNDTRIP
360
7D0
  0
DICTIONARY
  5
7D1
330
110
100
AcDbDictionary
280
     1
281
     1
  3
ACAD_XREC_ROUNDTRIP
360
7D2
  0
DICTIONARY
  5
7D3
330
111
100
AcDbDictionary
280
     1
281
     1
  3
ACAD_XREC_ROUNDTRIP
360
7D4
  0
DICTIONARY
  5
7F6
330
1C7
100
AcDbDictionary
280
     1
281
     1
  3
ACAD_XREC_ROUNDTRIP
360
7F7
  0
DICTIONARY
  5
7ED
330
11E
100
AcDbDictionary
280
     1
281
     1
  3
ACAD_XREC_ROUNDTRIP
360
7EE
  0
DICTIONARY
  5
7E7
330
11B
100
AcDbDictionary
280
     1
281
     1
  3
ACAD_XREC_ROUNDTRIP
360
7E8
  0
DICTIONARY
  5
7EF
330
11F
100
AcDbDictionary
280
     1
281
     1
  3
ACAD_XREC_ROUNDTRIP
360
7F0
  0
DICTIONARY
  5
7DF
330
117
100
AcDbDictionary
280
     1
281
     1
  3
ACAD_XREC_ROUNDTRIP
360
7E0
  0
DICTIONARY
  5
800
330
1CC
100
AcDbDictionary
280
     1
281
     1
  3
ACAD_XREC_ROUNDTRIP
360
801
  0
DICTIONARY
  5
7FE
330
1CB
100
AcDbDictionary
280
     1
281
     1
  3
ACAD_XREC_ROUNDTRIP
360
7FF
  0
DICTIONARY
  5
7F8
330
1C8
100
AcDbDictionary
280
     1
281
     1
  3
ACAD_XREC_ROUNDTRIP
360
7F9
  0
DICTIONARY
  5
7FA
330
1C9
100
AcDbDictionary
280
     1
281
     1
  3
ACAD_XREC_ROUNDTRIP
360
7FB
  0
DICTIONARY
  5
7E5
330
11A
100
AcDbDictionary
280
     1
281
     1
  3
ACAD_XREC_ROUNDTRIP
360
7E6
  0
DICTIONARY
  5
7F4
330
1C6
100
AcDbDictionary
280
     1
281
     1
  3
ACAD_XREC_ROUNDTRIP
360
7F5
  0
DICTIONARY
  5
7FC
330
1CA
100
AcDbDictionary
280
     1
281
     1
  3
ACAD_XREC_ROUNDTRIP
360
7FD
  0
XRECORD
  5
805
102
{ACAD_REACTORS
330
804
102
}
330
804
100
AcDbXrecord
280
     1
102
DISPLAYNAME
  1
Metric50
102
FLAGS
 90
        0
  0
XRECORD
  5
233
102
{ACAD_REACTORS
330
232
102
}
330
232
100
AcDbXrecord
280
     1
310
2800000000010000780000000100080000000000007800000100000001000000000100000000000000000066FFFFFF520000005600000050000000730000003200000031000000500000006F0000004F00000032330000466600006699000052CC000056FF00005000330073333300326633003199330050CC33006FFF3300
310
3200660018336600006666000099660000CC660000FF66000000990000339900006699000099990000CC990000FF99000000CC000033CC000066CC000099CC0000CCCC0000FFCC000000FF000033FF000066FF000099FF0000CCFF0000FFFF00010000331433003354660033539900336FCC003374FF003330003333303333
310
33726633337099333370CC333330FF3333010066331233663354666633539966336FCC663374FF66333000993330339933726699337099993331CC993300FF99330000CC330033CC330066CC330099CC3300CCCC3300FFCC330000FF330033FF330066FF330099FF3300CCFF3300FFFF330000006600330066006600660099
310
006600CC006600FF00660000336600333366006633660099336666CC336652FF33665600666650336666736666663299666631CC666650FF66666F0099664F339966336699664699996666CC996652FF99665600CC665033CC667366CC663299CC6631CCCC6650FFCC666F00FF663333FF661866FF660099FF6600CCFF6600
310
FFFF660000009900330099006600990099009900CC009900FF00990000339900333399006633990099339900CC339900FF33990000669900336699006666990099669900CC669900FF66990000999901339999146699995499999953CC99996FFF99997400CC993033CC993066CC997299CC9970CCCC9970FFCC993400FF99
310
0133FF991266FF995499FF9953CCFF996FFFFF99740000CC303300CC306600CC729900CC70CC00CC35FF00CC000033CC003333CC006633CC009933CC00CC33CC00FF33CC000066CC003366CC006666CC009966CC00CC66CC00FF66CC000099CC003399CC006699CC009999CC00CC99CC00FF99CC0000CCCC0033CCCC0066CC
310
CC0099CCCC00CCCCCC66FFCCCC5200FFCC5633FFCC5066FFCC7399FFCC32CCFFCC31FFFFCC500000FF6F3300FF4F6600FF339900FF46CC00FF66FF00FF520033FF563333FF506633FF739933FF32CC33FF31FF33FF500066FF6F3366FF336666FF5A9966FF00CC66FF14FF66FF540099FF533399FF6F6699FF749999FF30CC
310
99FF30FF99FF7200CCFF7033CCFF7066CCFF3799CCFF01CCCCFF12FFCCFF5400FFFF5333FFFF6F66FFFF7499FFFF30CCFFFF30FFFFFF72000000700D0D0D381A1A1A00282828003535356643434352505050565D5D5D506B6B6B73787878328686863193939350A1A1A16FAEAEAE4FBBBBBB33C9C9C946D6D6D666E4E4E452
310
F1F1F156FFFFFF50000000730000003200000031000000500000006F000000330000008C00000000000000F0000000FF00000000000000000000000000000000000000000000000000000000000000000000000000000000000000000000000000000000000000000000000000000000000000000000000000000000000000
310
00000000000000000000000000000000000000000000000000000000000000000000000000000000000000000000000000000000000000000000000000000000000000000000000000000000000000000000000000000000000000000000000000000000000000000000000000000000000000000000000000000000000000
310
00000000000000000000000000000000000000000000000000000000000000000000000000000000000000000000000000000000000000000000000000000000000000000000000000000000000000000000000000000000000000000000F2F2F2F2F2F2F2F2F2F2F2F2F2F2F2F2F2F2F2F2F2F2F2F2F2F2F2F2F2F2F2F2F2
310
F2F2F2F2F2F2F2F2F2F2F2F2F2F2F2F2F2F2F2F2F2F2F2F2F2F2F2F2F2F2F2F2F2F2F2F2F2F2F2F2F2F2F2F2F2F2F2F2F2F2F2F2F2F2F2F2F2F2F2F2F2F2F2F2F2F2F2F2F2F2F2F2F2F2F2F2F2F27575F275757575F27575F275F2F275F2F2F275757575757575757575757575F2757575757575F2F2F2F2F2F2F2F2F2F2F2
310
F20000000000000000000000000000000000000000000000000000000000000000000000000000000000000000000000000000000000000000000000000000000000000000000000000000000000000000000000000000000000000000000000F2757575757575757575757575757575757575757575757575757575757575
310
757575757575757575757575757575757575757575757575F2000000000000000000000000000000000000000000000000F2F2F20000282828282828282828282828282828282828282828280000F200000000750000000075000000F200007500F20000000000000000000000000000000000000000F20000000000F2F2F2
310
F2F2F2F2F2000000000000000000000000000000000000000000000000000000000000000000000000000000000000000000000000000000000000000000000000000000000000000000000000000000000000000000000000000000000000000000F275757575757575757575757575757575757575757575757575757575
310
7575757575757575757575757575757575757575757575757575F2750075750000000000000000000000000000000000000000F2F2757575757500000000282828282828282828282800280028280000F200000000750000000075000000F200000075F2F2F2F2F2F2F2F2F2F2F2F2F2F2F275757575F27575757575757575
310
F2F2F2F2F2F2F2F20000000000000000000000000000000000000000000000000000000000000000000000000000000000000000000000000000000000000000000000000000000000000000000000000000000000000000000000000000000000000000F20000000000000000000000000000000000000000000000000000
310
00000000000000000000000000000000000000000000000000000000F275757575757575757575757575757575757575757575757575757575757575757575757575757575757575757575757575757575757500000000750000000075000000F275002800F20000000000000000000000000000757575750075F2F2F2F2F2
310
F2F2F2F2F2F2F2F2F2F20000000000000000000000000000000000000000000000000000000000000000000000000000000000000000000000000000000000000000000000000000000000000000000000000000000000000000000000000000000000000000F2757575757575757575757575757575757575757575757575
310
757575757575757575757575757575757575757575757575757575757575F2000000000000000000000000000000000000000000000000F2F2F20000000000000000000000000000000000000000000000F2F2F2F200000000750000000075000000F228752800F20000000000000000000000000000000000000000F20000
310
000000F2F2F2F2F2F2F2F2000000000000000000000000000000000000000000000000000000000000000000000000000000000000000000000000000000000000000000000000000000000000000000000000000000000000000000000000000000000000000000F275757575757575757575757575757575757575757575
310
7575757575757575757575757575757575757575757575757575757575757575F2000000000000000000000000000000000000000000000000F2F2F20000000000000000000000000000000000000000000000F2F2F2F275757575757575757575757575752875757575000000000000000000000000000000000000000075
310
757575757575F2F2F2F2F2F2F2F20000000000000000000000000000000000000000000000000000000000000000000000000000000000000000000000000000000000000000000000000000000000000000000000000000000000000000000000000000000000000000F27575757575757500000000000000000000000000
310
00000000000000000000000000000000000000000000000000000000000000000000F2757575750000000000000000000000000000000000000000F2F2757575757500000000000000000000000000000000000000F2F2F2F275757575757500750075757575F2757575757575757575000000000000000000000000000000
310
00F27575757500F2F2F2F2F2F2F2F2000000000000000000000000000000000000000000000000000000000000000000000000000000000000000000000000000000000000000000000000000000000000000000000000000000000000000000000000000000000000000000F2F2F2F2F2F2F2F2F2F2F2F2F2F2F2F2F2F2F2
310
F2F2F2F2F2F2F2F2F2F2F2F2F2F2F2F2F2F2F2F2F2F2F2F2F2F2F2F2F2F2F2F2F2F2F2F2F275757575F2F2F2F2F2F2F2F2F2F2F2F2F2F2F2F2F2F2F2F2F2F2F275757575F2F2F2F2F2F2F2F2F2F2F2F2F2F2F2F2F2F2F2F2F2F2F2757575757575F275F275757575F2757575757575757575F2F2F2F2F2F2F2F2F2F2F2F2F2
310
F2F2F2F275757575F2F2F2F2F2F2F2F2F2F20000000000000000000000000000000000000000000000000000000000000000000000000000000000000000000000000000000000000000000000000000000000000000000000000000000000000000000000000000000000000000F200000000000000000000000000000000
310
00000000000000000000000000000000000000000000000000000000000000000000000000000000000000000000000000000000000000000000000000000000000000000000000000000000000000000000000000000000000000000000000000000000000000000000000000000000000000000000000000000000000000
310
00000000000000000000000000000000000000F200EC000000000000000000000000000000000000000000000000000000000000000000000000000000000000000000000000000000000000000000000000000000000000000000000000000000000000000000000000000000000000F20000000000000000000000000000
310
00000000000000000000000000000000000000000000000000000000000000000000000000000000000000000000000000000000000000000000000000000000000000000000000000000000000000000000000000000000000000000000000000000000000000000000000000000000000000000000000000000000000000
310
000000000000000000000000000000000000000000ECECECECEC00000000000000000000000000000000000000000000000000000000000000000000000000000000000000000000000000000000000000000000000000000000000000000000000000000000000000000000000000000000F2000000000000000000000000
310
00000000000000000000000000000000000000000000000000000000000000000000000000000000000000000000000000000000000000000000000000000000000000000000000000000000000000000000000000000000000000000000000000000000000000000000000000000000000000000000000000000000000000
310
0000000000000000000000000000000000000000000000F200EC000000000000000000000000000000000000000000000000000000000000000000000000000000000000000000000000000000000000000000000000000000000000000000000000000000000000000000000000000000000000F200000000000000000000
310
00000000000000000000000000000000000000000000000000000000000000000000000000000000000000000000000000000000000000000000000000000000000000000000000000000000000000000000000000000000000000000000000000000000000000000000000000000000000000000000000000000000000000
310
00000000000000000000000000000000000000000000000000F20000000000000000000000000000000000000000000000000000000000000000000000000000000000000000000000000000000000000000000000000000000000000000000000000000000000000000000000000000000000000000F20000000000000000
310
00000000000000000000000000000000000000000000000000000000000000000000000000000000000000000000000000000000000000000000000000000000000000000000000000000000000000000000000000000000000000000000000000000000000000000000000000000000000000000000000000000000000000
310
000000000000000000000000000000000000000000000000000000F200EC000000000000000000000000000000000000000000000000000000000000000000000000000000000000000000000000000000000000000000000000000000000000000000000000000000000000000000000000000000000000F2000000000000
310
00000000000000000000000000000000000000000000000000000000000000000000000000000000000000000000000000000000000000000000000000000000000000000000000000000000000000000000000000000000000000000000000000000000000000000000000000000000000000000000000000000000000000
310
0000000000000000000000000000000000000000000000000000000000ECECECECEC00000000000000000000000000000000000000000000000000000000000000000000000000000000000000000000000000000000000000000000000000000000000000000000000000000000000000000000000000000000F200000000
310
00000000000000000000000000000000000000000000000000000000000000000000000000000000000000000000000000000000000000000000000000000000000000000000000000000000000000000000000000000000000000000000000000000000000000000000000000000000000000000000000000000000000000
310
00000000000000000000000000000000000000000000000000000000000000F200EC000000000000000000000000000000000000000000000000000000000000000000000000000000000000000000000000000000000000000000000000000000000000000000000000000000000000000000000000000000000000F20000
310
00000000000000000000000000000000000000000000000000000000000000000000000000000000000000000000000000000000000000000000000000000000000000000000000000000000000000000000000000000000000000000000000000000000000000000000000000000000000000000000000000000000000000
310
000000000000000000000000000000000000000000000000000000000000000000F20000000000000000000000000000000000000000000000000000000000000000000000000000000000000000000000000000000000000000000000000000000000000000000000000000000000000000000000000000000000000000F2
310
00000000000000000000000000000000000000000000000000000000000000000000000000000000000000000000000000000000000000000000000000000000000000000000000000000000000000000000000000000000000000000000000000000000000000000000000000000000000000000000000000000000000000
310
0000000000000000000000000000000000000000000000000000000000000000000000F200EC0000000000000000000000000000000000000000000000000000000000000000000000000000000000000000000000000000000000000000000000000000000000000000000000000000000000000000000000000000000000
310
00F20000000000000000000000000000000000000000000000000000000000000000000000000000000000000000000000000000000000000000000000000000000000000000000000000000000000000000000000000000000000000000000000000000000000000000000000000000000000000000000000000000000000
310
00000000000000000000000000000000000000000000000000000028002800000000000000ECECECECEC00000000000000000000000000000000000000000000000000000000000000000000000000000000000000000000000000000000000000000000000000000000000000000000000000000000000000000000000000
310
000000F2000000000000000000000000000000000000000000000000000000000000000000000000000000000000000000000000000000000000000000000000000000000000000000000000000000000000000000000000000000000000000000000000000000000000000000000000000000000000000000000000000000
310
00000000000000000000000000DCDCDCDCDCDCDCDCDCDCDCDCDCDCDCDCDCDCDCDCDCDCDCDC0000F200EC00000000000000000000000000000000000000000000000000000000000000000000000000000000000000000000000000000000000000000000000000000000000000000000000000000000000000000000000000
310
0000000000F200000000000000000000000000000000000000000000000000000000000000000000000000000000000000000000000000000000000000000000000000000000000000000000000000000000000000000000000000000000000000000000000000000000000000000000000000000000000000000000000000
310
000000000000000000000000000000DC28282828282828282828282828282828282828000000DC0000F200000000000000000000000000000000000000000000000000000000000000000000000000000000000000000000000000000000000000000000000000000000000000000000000000000000000000000000000000
310
00000000000000F20000000000000000000000000000000000000000000000000000000000000000000000000000000000000000000000000000000000000000000000000000000000000000000000000000000000000000000000000000000000000000000000000000000000000000000000000000000000000000000000
310
0000000000000000000000000000000000DC00282828280028282828002828282828282800000000DC0000F200EC000000000000000000000000000000000000000000000000000000000000000000000000000000000000000000000000000000000000000000000000000000000000000000000000000000000000000000
310
000000000000000000F2000000000000000000000000000000000000000000000000000000000000000000000000000000000000000000000000000000000000000000000000000000000000000000000000000000000000000000000000000000000000000000000000000000000000000000000000000000000000000000
310
00000000000000000000000000000000000000DCDCDCDCDCDCDCDCDCDCDCDCDCDCDCDCDCDCDCDCDCDCDCDC0000ECECECECEC0000000000000000000000000000000000000000000000000000000000000000000000000000000000000000000000000000000000000000000000000000000000000000000000000000000000
310
0000000000000000000000F200000000000000000000000000000000000000000000000000000000000000000000000000000000000000000000000000000000000000000000000000000000000000000000000000000000000000000000000000000000000000000000000000000000000000000000000000000000000000
310
0000000000000000000000000000000000000000000000000000000000000000000000000000000000000000000000F200EC0000000000000000000000000000000000000000000000000000000000000000000000000000000000000000000000000000000000000000000000000000000000000000000000000000000000
310
00000000000000000000000000F20000000000000000000000000000000000000000000000000000000000000000000000000000000000000000000000000000000000000000000000000000000000000000000000000000000000000000000000000000000000000000000000000000000000000000000000000000000000
310
00000000000000000000000000000000000000000000000000000000000000000000000000000000000000000000000000F20000000000000000000000000000000000000000000000000000000000000000000000000000000000000000000000000000000000000000000000000000000000000000000000000000000000
310
000000000000000000000000000000F5F5F5F5F5F5F5F5F5F5F5F5F5F5F5F5F5F5F5F5F5F5F5F5F5F5F5F5F5F5F5F5F5F5F5F5F5F5F5F5F5F5F5F5F5F5F5F5F5F5F5F5F5F5F5F5F5F5F5F5F5F5F5F5F5F5F5F5F5F5F5F5F5F5F5F5F5F5F5F5F5F5F5F5F5F5F5F5F5F5F5F5F5F5F5F5F5F5F5F5F5F5F5F5F5F5F5F5F5F5F5F5
310
F5F5F5F5F5F5F5F5F5F5F5F5F5F5F5F5F5F5F5F5F5F5F5F5F5F5F5F5F5F5F5F5F5F5F5F5F5F5F5F5F5F5F5F5F5F5F5F5F5F5F5F5000000000000000000000000000000000000000000000000000000000000000000000000000000000000000000000000000000000000000000000000000000000000000000000000000000
310
0000000000000000000000000000000000F50000000000F5F5F5F5F5F500000000F500F5F50000F500000000000000000000000000000000000000000000000000000000000000F5F5F5F5F50000000000000000000000000000000000000000000000000000000000000000F5000000000000000000000000000000000000
310
0000000000000000000000000000F5F5F5F5F5F5000000000000000000000000000000000000000000000000000000000000000000F500EC0000000000000000000000000000000000000000000000000000000000000000000000000000000000000000000000000000000000000000000000000000000000000000000000
310
00000000000000000000000000000000000000F5000000000000F500F5F50000000000F5F5F5F5F5F5F5F5F5F5F5F5F5F5F5F5F5F5F5F5F5F5F5F5F5F5F5F5F5F5F5F5F5F5F5F5F5F5F5F5F5F5F5F5F5F5F5F5F5F5F5F5F5F5F5F5F5F5F5F5F5F5F5F5F5F5F5F5F5F5F5F5F5F5F5F5F5F5F5F5F5F5F5F5F5F5F5F5F5F5F5F5
310
F5F5F5F5F5F5F5F5F5F5F5F5F5F5F5F5F5F5F5F5F5F5F5F5F5F5F5F5F5F5F5F5F5F5F5F5F5F5F5F5F5F5F5F5F5F5F5F5F5F5F5F5F5F5F5F5ECECECEC00000000000000000000000000000000000000000000000000000000000000000000000000000000000000000000000000000000000000000000000000000000000000
310
000000000000000000000000000000000000000000F50000000000F5F5F5F5F50000000000F500F5F50000F500000000000000000000000000000000000000000000000000000000000000F5F5F5F5F50000000000000000000000000000000000000000000000000000000000000000F50000000000000000000000000000
310
00000000000000000000000000000000000000F5F5F5F500000000000000000000000000000000000000000000000000000000000000000000F500EC00000000000000000000000000000000000000000000000000000000000000000000000000000000000000000000000000000000000000000000000000000000000000
310
0000000000000000000000000000000000000000000000F50000000000F5F5F5F5F50000000000F500F5F50000F50000000000000000000000000000000000000000000000000000000000000000F5F5F5F50000000000000000000000000000000000000000000000000000000000000000F5000000000000000000000000
310
000000000000000000000000000000000000000000F500F5F500000000000000000000000000000000000000000000000000000000000000000000F500000000000000000000000000000000000000000000000000000000000000000000000000000000000000000000000000000000000000000000000000000000000000
310
00000000000000000000000000000000000000000000000000F5F5F5F5F5F5F5F5F5F5F5F5F5F5F5F5F5F5F5F5F5F5F5F5F5F5F5F5F5F5F5F5F5F5F5F5F5F5F5F5F5F5F5F5F5F5F5F5F5F5F5F5F5F5F5F5F5F5F5F5F5F5F5F5F5F5F5F5F5F5F5F5F5F5F5F5F5F5F5F5F5F5F5F5F5F5F5F5F5F5F5F5F5F5F5F5F5F5F5F5F5F5
310
F5F5F5F5F5F5F5F5F5F5F5F5F5F5F5F5F5F5F5F5F5F5F5F5F5F5F5F5F5F5F5F5F5F5F5F5F5F5F5F5F5F5F5F5F5F5F5F5F5F5F5F5F5F5F5F5F5F5F5F5F5F500EC000000000000000000000000000000000000000000000000000000000000000000000000000000000000000000000000000000000000000000000000000000
310
000000000000000000000000000000000000000000000000000000F50000000000F5F5F5F5F5F500000000F500F5F50000F5000000000000000000000000000000000000000000000000000000000000F5F5F5F5F5F50000000000000000000000000000000000000000000000000000000000000000F50000000000000000
310
000000000000000000000000000000000000000000000000F5F5F5F5F5F5000000000000000000000000000000000000000000000000000000000000000000F5ECECECEC0000000000000000000000000000000000000000000000000000000000000000000000000000000000000000000000000000000000000000000000
310
0000000000000000000000000000000000000000000000000000000000F5000000000000F500F5F50000000000F5F5F5F5F5F5F5F5F5F5F5F5F5F5F5F5F5F5F5F5F5F5F5F5F5F5F5F5F5F5F5F5F5F5F5F5F5F5F5F5F5F5F5F5F5F5F5F5F5F5F5F5F5F5F5F5F5F5F5F5F5F5F5F5F5F5F5F5F5F5F5F5F5F5F5F5F5F5F5F5F5F5
310
F5F5F5F5F5F5F5F5F5F5F5F5F5F5F5F5F5F5F5F5F5F5F5F5F5F5F5F5F5F5F5F5F5F5F5F5F5F5F5F5F5F5F5F5F5F5F5F5F5F5F5F5F5F5F5F5F5F5F5F5F5F5F5F5F5F500EC0000000000000000000000000000000000000000000000000000000000000000000000000000000000000000000000000000000000000000000000
310
00000000000000000000000000000000000000000000000000000000000000F5F5F5F5F5F5F5F50000F5F5F5000000F500F5F50000F500000000000000000000000000000000000000000000000000000000000000F5F5F5F5F50000000000000000000000000000000000000000000000000000000000000000F500000000
310
0000000000000000000000000000000000000000000000000000000000F5F5F5F5F5000000000000000000000000000000000000000000000000000000000000000000F50000000000000000000000000000000000000000000000000000000000000000000000000000000000000000000000000000000000000000000000
310
000000000000000000000000000000000000000000000000000000000000000000F5F5F5F5F5F5F5F5F5F5F5F5F5000000F500F5F50000F500000000000000000000000000000000000000000000000000000000000000F5F5F5F5F50000000000000000000000000000000000000000000000000000000000000000F50000
310
00000000000000000000000000000000000000000000000000000000000000F5F5F5F5F5000000000000000000000000000000000000000000000000000000000000000000F500EC00000000000000000000000000000000000000000000000000000000000000000000000000000000000000000000000000000000000000
310
0000000000000000000000000000000000000000000000000000000000000000000000F5F5F5F5F5F5F5F5F5F5F5F5F5F5F5F5F5F5F5F5F5F5F5F5F5F5F5F5F5F5F5F5F5F5F5F5F5F5F5F5F5F5F5F5F5F5F5F5F5F5F5F5F5F5F5F5F5F5F5F5F5F5F5F5F5F5F5F5F5F5F5F5F5F5F5F5F5F5F5F5F5F5F5F5F5F5F5F5F5F5F5F5
310
F5F5F5F5F5F5F5F5F5F5F5F5F5F5F5F5F5F5F5F5F5F5F5F5F5F5F5F5F5F5F5F5F5F5F5F5F5F5F5F5F5F5F5F5F5F5F5F5F5F5F5F5F5F5F5F5F5F5F5F5F5F5F5F5F5F5F5F5F5F5F5F5ECECECEC000000000000000000000000000000000000000000000000000000000000000000000000000000000000000000000000000000
310
00000000000000000000000000000000000000000000000000000000000000000000000000F5000000000000F5F5F5F5F5F5F5F500000000000000F500000000000000000000000000000000000000000000000000000000000000F500F5F5F500000000000000000000000000000000000000000000000000000000000000
310
00F50000000000000000000000000000000000000000000000000000000000000000F5F5F5F5F5F5000000000000000000000000000000000000000000000000000000000000000000F500EC000000000000000000000000000000000000000000000000000000000000000000000000000000000000000000000000000000
310
000000000000000000000000000000000000000000000000000000000000000000000000000000F5F5F5F5F5F5F5F5F5F5F5F5F5F5F5F5F5F5F5F5F5F5F5F5F5F5F5F5F5F5F5F5F5F5F5F5F5F5F5F5F5F5F5F5F5F5F5F5F5F5F5F5F5F5F5F5F5F5F5F5F5F5F5F5F5F5F5F5F5F5F5F5F5F5F5F5F5F5F5F5F5F5F5F5F5F5F5F5
310
F5F5F5F5F5F5F5F5F5F5F5F5F5F5F5F5F5F5F5F5F5F5F5F5F5F5F5F5F5F5F5F5F5F5F5F5F5F5F5F5F5F5F5F5F5F5F5F5F5F5F5F5F5F5F5F5F5F5F5F5F5F5F5F5F5F5F5F5F5F5F5F5F5F5F5F5000000000000000000000000000000000000000000000000000000000000000000000000000000000000000000000000000000
310
0000000000000000000000000000000000000000000000000000000000000000000000000000000000F5000000000000000000F5F5F5000000000000000000F5000000000000000000000000000000000000000000000000000000000000F5F5F5F5F5F5000000000000000000000000000000000000000000000000000000
310
0000000000F50000000000000000000000000000000000000000000000000000000000000000F5F5F5F5F5F5000000000000000000000000000000000000000000000000000000000000000000F500EC0000000000000000000000000000000000000000000000000000000000000000000000000000000000000000000000
310
00000000000000000000000000000000000000000000000000000000000000000000000000000000000000F5000000000000000000F5F5F5000000000000000000F500000000000000000000000000000000000000000000000000000000000000F5F5F5F5F500000000000000000000000000000000000000000000000000
310
00000000000000F50000000000000000000000000000000000000000000000000000000000000000F5F5F5F5F5F5000000000000000000000000000000000000000000000000000000000000000000F5ECECECEC00000000000000000000000000000000000000000000000000000000000000000000000000000000000000
310
000000000000000000000000000000000000000000000000000000000000000000000000000000000000000000F5F5F5F5F5F5F5F5F5F5F5F5F5F5F5F5F5F5F5F5F5F5F5F5F5F5F5F5F5F5F5F5F5F5F5F5F5F5F5F5F5F5F5F5F5F5F5F5F5F5F5F5F5F5F5F5F5F5F5F5F5F5F5F5F5F5F5F5F5F5F5F5F5F5F5F5F5F5F5F5F5F5
310
F5F5F5F5F5F5F5F5F5F5F5F5F5F5F5F5F5F5F5F5F5F5F5F5F5F5F5F5F5F5F5F5F5F5F5F5F5F5F5F5F5F5F5F5F5F5F5F5F5F5F5F5F5F5F5F5F5F5F5F5F5F5F5F5F5F5F5F5F5F5F5F5F5F5F5F5F5F5F5F5F5F500EC00000000000000000000000000000000000000000000000000000000000000000000000000000000000000
310
0000000000000000000000000000000000000000000000000000000000000000000000000000000000000000000000F50000000000F5F5F5F5F5F5F5F5F500000000000000F500000000000000000000000000000000000000000000000000000000F5F5F5F5F5F5F5F5F5F500000000000000000000000000000000000000
310
0000000000000000000000F5000000000000000000000000000000000000000000000000000000000000F5F5F5F5F5F5F5F5F50000000000000000000000000000000000000000000000000000000000000000F500000000000000000000000000000000000000000000000000000000000000000000000000000000000000
310
00000000000000000000000000000000000000000000000000000000000000000000000000000000000000000000000000F5F5F5F5F5F5F5F5F5F5F5F5F5F5F5F5F5F5F5F5F5F5F5F5F5F5F5F5F5F5F5F5F5F5F5F5F5F5F5F5F5F5F5F5F5F5F5F5F5F5F5F5F5F5F5F5F5F5F5F5F5F5F5F5F5F5F5F5F5F5F5F5F5F5F5F5F5F5
310
F5F5F5F5F5F5F5F5F5F5F5F5F5F5F5F5F5F5F5F5F5F5F5F5F5F5F5F5F5F5F5F5F5F5F5F5F5F5F5F5F5F5F5F5F5F5F5F5F5F5F5F5F5F5F5F5F5F5F5F5F5F5F5F5F5F5F5F5F5F5F5F5F5F5F5F5F5F5F5F5F5F5F5F5F5F500EC000000000000000000000000000000000000000000000000000000000000000000000000000000
310
000000000000000000000000000000000000000000000000000000000000000000000000000000000000000000000000000000F500000000000000F5F5F5F5F5F50000000000000000F500000000000000000000000000000000000000000000000000000000F5F5F5F5F5F5F5F5F5F5000000000000000000000000000000
310
000000000000000000000000000000F50000000000000000000000000000000000000000000000000000000000F5F5F5F5F5F5F5F5F5F5F500000000000000000000000000000000000000000000000000000000000000F5ECECECEC0000000000000000000000000000000000000000000000000000000000000000000000
310
0000000000000000000000000000000000000000000000000000000000000000000000000000000000000000000000000000000000F500000000000000F5F5F5F5F5F50000000000000000F500000000000000000000000000000000000000000000000000000000F5F5F5F5F5F5F5F5F5F500000000000000000000000000
310
0000000000000000000000000000000000F50000000000000000000000000000000000000000000000000000000000F5F5F5F5F5F5F5F5F5F5F500000000000000000000000000000000000000000000000000000000000000F500EC0000000000000000000000000000000000000000000000000000000000000000000000
310
00000000000000000000000000000000000000000000000000000000000000000000000000000000000000000000000000000000000000F5F5F5F5F5F5F5F5F5F5F5F5F5F5F5F5F5F5F5F5F5F5F5F5F5F5F5F5F5F5F5F5F5F5F5F5F5F5F5F5F5F5F5F5F5F5F5F5F5F5F5F5F5F5F5F5F5F5F5F5F5F5F5F5F5F5F5F5F5F5F5F5
310
F5F5F5F5F5F5F5F5F5F5F5F5F5F5F5F5F5F5F5F5F5F5F5F5F5F5F5F5F5F5F5F5F5F5F5F5F5F5F5F5F5F5F5F5F5F5F5F5F5F5F5F5F5F5F5F5F5F5F5F5F5F5F5F5F5F5F5F5F5F5F5F5F5F5F5F5F5F5F5F5F5F5F5F5F5F5F5F5F5F5F5F50000000000000000000000000000000000000000000000000000000000000000000000
310
000000000000000000000000000000000000000000000000000000000000000000000000000000000000000000000000000000000000000000F5000000000000000000000000000000000000000000F50000000000000000000000000000000000000000000000000000000000000000000000000000000000000000000000
310
000000000000000000000000000000000028282800F50000000000000000000000000000000000000000000000000000000000000000000000000000000000000000000000000000000000000000000000000000000000002828282800F500EC00000000000000000000000000000000000000000000000000000000000000
310
0000000000000000000000000000000000000000000000000000000000000000000000000000000000000000000000000000000000000000000000F5000000000000000000000000000000000000000000F5000000000000000000000000000000000000000000000000000000000000000000000000000000000000000000
310
0000000000000000000000000000000000002828282800F50000000000000000000000000000000000000000000000000000000000000000000000000000000000000000000000000000000000000000000000000000000000002828282800F5ECECECEC000000000000000000000000000000000000000000000000000000
310
00000000000000000000000000000000000000000000000000000000000000000000000000000000000000000000000000000000000000000000000000F5000000000000000000000000000000000000000000F500000000000000000000000000000000000000000000000000000000000000000000000000000000000000
310
00000000000000000000000000000000000000000000000000F500000000000000000000000000000000000000000000000000000000000000000000000000000000000000000000C3C3C3C3C3C3C3C3C3C3C3C3C3C3C3C3C3C3C3C3C300000000F500EC000000000000000000000000000000000000000000000000000000
310
000000000000000000000000000000000000000000000000000000000000000000000000000000000000000000000000000000000000000000000000000000F5000000000000000000000000000000000000000000F50000000000000000000000000000000000000000000000000000000000000000000000000000000000
310
000000000000000000000000000000000000000000000000000000F500000000000000000000000000000000000000000000000000000000000000000000000000000000000000000000C30000000000000000C3C3C30000000000000000C300000000F5000000000000000000000000000000000000000000000000000000
310
0000000000000000000000000000000000000000000000000000000000000000000000000000000000000000000000000000000000000000000000000000000000F5000000000000000000000000000000000000000000F5000000000000000000000000000000000000000000000000000000000000000000000000000000
310
000000C3C3C3C3C3C3C3C3C3C3C3C3C3C3C3C3C3C3C300000000000000F50000000000000000000000C3C3000000000000000000000000000000000000C30000000000000000000000000000C30000000000C30000C3C3C30000C30000000000C300000000F500000000000000000000000000000000000000000000000000
310
00000000000000000000000000000000000000000000000000000000000000000000000000000000000000000000000000000000000000000000000000000000000000F5000000000000000000000000000000000000000000F500000000000000000000000000000000000000000000000000000000000000000000000000
310
0000000000C300000000000000C3C3C300000000000000C300000000000000F50000000000000000000000C3C3C3C3C3C3C3C3C3C3C3C3C3C3C3C3C3C3C3C3C30000000000000000000000000000C30000000000C3C3C3C3C3C3C3C3C30000000000C300000000F50000000000000000000000000000000000000000000000
310
000000000000000000000000000000000000000000000000000000000000000000000000000000000000000000000000000000000000000000000000000000000000000000F5000000000000000000000000000000000000000000F500000000000000000000C3C3C3C3C3C3C3C3C3C3C3C3C3C3C3C3C3C3C3000000000000
310
00000000000000C300000000C3C3C3C3C3C3C3C3C300000000C300000000000000F50000000000000000000000C3000000000000000000C3C30000000000000000C30000000000000000000000000000C30000000000C3000000C3C30000C30000000000C300000000F5000000000000000000000000000000000000000000
310
0000000000000000000000000000000000000000000000000000000000000000000000000000000000000000000000000000000000000000000000000000000000000000000000F5000000000000000000000000000000000000000000F500000000000000000000C300000000000000C3C3C300000000000000C300000000
310
000000000000000000C300000000C3000000C3C30000C300000000C300000000000000F50000000000000000000000C32D0000000000000000DC00000000000000002DC3C3C3C3C3C3C3C3C3C3C3C3C3C3002D2D2D2D2D2DC32D2D2DDC2D2D2DC32D2D2D2D2D2D00000000F500000000000000000000000000000000000000
310
00000000000000000000000000000000000000000000000000000000000000000000000000000000000000000000000000000000000000000000000000000000000000000000000000F5000000000000000000000000000000000000000000F500000000000000000000C32D00000000000000DC00000000000000C3C3C3C3
310
C3C3C3C3C3C3C3C3C30000C32D2D2D2DC32D2D2DDC2D2D2DC32D2D2D2DC300000000000000F500000000000000000000002D2D0000000000000000DC00000000000000002D2D0000000000000000000000C300002D0000000000C3000000DC000000C300000000C3C3C3C3C3C3F50000000000000000000000000000000000
310
000000000000000000000000000000000000000000000000000000000000000000000000000000000000000000000000000000000000000000000000000000000000000000000000000000F5000000000000000000000000000000000000000000F500000000000000000000C32D00000000000000DC000000000000002DC3
310
00000000000000000000C300002D2D2D2D2DC32D2D2DDC2D2D2DC32D2D2D2DC3C3C3C3C3C30000F500000000000000000000002D2D0000000000000000DC00000000000000002D2D0000000000000000000000C300002D2D00000000C3000000DC000000C3C3C3C3C3002DC300C3C3F5000000000000000000000000000000
310
0000000000000000000000000000000000000000000000000000000000000000000000000000000000000000000000000000000000000000000000000000000000000000000000000000000000F5000000000000000000000000000000000000000000F5000000000000000000002D2D00000000000000DC00000000000000
310
2D2D00000000000000000000C300002D2D000000C3000000DC000000C30000C3C32D00C3C3C3000000F500000000000000000000002D2D0000000000000000DC00000000000000002D2D0000000000000000000000C300002D2D2D2D2D2DDCDC2D2DDC2D2DDCDCC3C3C3C3C3C3C3C3C300F500000000000000000000000000
310
00000000000000000000000000000000000000000000000000000000000000000000000000000000000000000000000000000000000000000000000000000000000000000000000000000000000000F5000000000000000000000000000000000000000000F5000000000000000000002D2D00000000000000DC0000000000
310
00002D2D00000000000000000000C300002D2D2D2D2DDCDC2D2DDC2D2DDCDCC3C3C3C3C3C3C3C300000000F500000000000000000000002D2D0000000000000000DC00000000000000002D2D00000000000000000000C3C300002D2D00000000DC000000DC000000DC00000000002D0000C300F50000000000000000000000
310
000000000000000000000000000000000000000000000000000000000000000000000000000000000000000000000000000000000000000000000000000000000000000000000000000000000000000000F5000000000000000000000000000000000000000000F5000000000000000000002D2D00000000000000DC000000
310
000000002D2D0000000000000000C3C3C300002D2D000000DC000000DC000000DC000000002D0000C300000000F500000000000000000000002D2D0000000000000000DC00000000000000002D2D00000000000000000000C3C300002D000000000000000000DC0000000000000000002DC3C3C300F5000000000000000000
310
0000000000000000000000000000000000000000000000000000000000000000000000000000000000000000000000000000000000000000000000000000000000000000000000000000000000000000000000F5000000000000000000000000000000000000000000F5000000000000000000002D2D00000000000000DC00
310
0000000000002D2D0000000000000000C3C3C300002D0000000000000000DC00000000000000002D0000C300000000F500000000000000000000002D2D0000000000000000DC00000000000000002D2D0000000000000000000000C300002D000000000000000000DC0000000000000000002DC3C3C300F500000000000000
310
00000000000000000000000000000000000000000000000000000000000000000000000000000000000000000000000000000000000000000000000000000000000000000000000000000000000000000000000000F5000000000000000000000000000000000000000000F5000000000000000000002D2D00000000000000
310
DC000000000000002D2D00000000000000000000C300002D0000000000000000DC00000000000000002DC3C3C300000000F500000000000000000000002D2D0000000000000000DC00000000000000002D2D0000000000000000000000C300002D000000000000000000DC0000000000000000002D0000C300F50000000000
310
000000000000000000000000000000000000000000000000000000000000000000000000000000000000000000000000000000000000000000000000000000000000000000000000000000000000000000000000000000F5000000000000000000000000000000000000000000F5000000000000000000002D2D0000000000
310
0000DC000000000000002D2D00000000000000000000C300002D0000000000000000DC00000000000000002DC3C3C300000000F500002D2D2D2D2D2D2D2D2D2D2D2D2D2D2D2D2D2D2D2D2D2D2D2D2D2D2D2D2D2D2D2D2D2D2D2D2D2D2D2D00C300002D2D2D2D2D2D2D2D2D2DDC2D2D2D2D2D2D2D2D2D2D2D00C300F5000000
310
0000000000000000000000000000000000000000000000000000000000000000000000000000000000000000000000000000000000000000000000000000000000000000000000000000000000000000000000000000000000F5000000000000000000000000000000000000000000F500002D2D2D2D2D2D2D2D2D2D2D2D2D
310
2D2D2D2DDC2D2D2D2D2D2D2D2D2D2D2D2D2D2D2D2D2D0000C300002D2D2D2D2D2D2D2D2DDC2D2D2D2D2D2D2D2D2D2D00C300000000F500C32D2D2D2D2D2D2D2D2D2D2D2D2D2D2D2D2D2D2D2D2D2D2D2D2D2D2D2D2D2D2D2D2D2D2D2D2D2D2DC3C3C3C300C32D2D2D2D2D2D2D2D2DDC2D2D2D2D2D2D2D2D2D2DC3C3C300F500
310
00000000000000000000000000000000000000000000000000000000000000000000000000000000000000000000000000000000000000000000000000000000000000000000000000000000000000000000000000000000000000F5000000000000000000000000000000000000000000F50000C32D2D2D2D2D2D2D2D2D2D
310
2D2D2D2D2D2DDC2D2D2D2D2D2D2D2D2D2D2D2D2D2D2D2DC3C3C3C300002D2D2D2D2D2D2D2D2DDC2D2D2D2D2D2D2D2D2DC3C3C300000000F500C300000000000000000000000000000000000000DC00000000000000000000000000000000000000C300000000C30000000000000000000000000000000000000000C3000000
310
F50000000000000000000000000000000000000000000000000000000000000000000000000000000000000000000000000000000000000000000000000000000000000000000000000000000000000000000000000000000000000000F5000000000000000000000000000000000000000000F50000C30000000000000000
310
0000000000000000DC00000000000000000000000000000000C30000000000C30000000000000000DC000000000000000000C3000000000000F500C3C3C3C3C3C3C3C3C3C3C3C3C3C3C3C3C3C3C3C3C3C3C3C3C3C3C3C3C3C3C3C3C3C3C3C3C3C3C3C3C300000000C3C3C3C3C3C3C3C3C3C3C3C3C3C3C3C3C3C3C3C3C3C300
310
0000F50000000000000000000000000000000000000000000000000000000000000000000000000000000000000000000000000000000000000000000000000000000000000000000000000000000000000000000000000000000000000000F5000000000000000000000000000000000000000000F50000C3C3C3C3C3C3C3
310
C3C3C3C3C3C3C3C3C3C3C3C3C3C3C3C3C3C3C3C3C3C3C3C3C3C3C3C30000000000C3C3C3C3C3C3C3C3C3C3C3C3C3C3C3C3C3C3C3C3000000000000F50000000000000000000000000000000000000000C3C3C30000000000000000000000000000000000000000000000000000000000000000C3C3C3000000000000000000
310
00000000F50000000000000000000000000000000000000000000000000000000000000000000000000000000000000000000000000000000000000000000000000000000000000000000000000000000000000000000000000000000000000000F5000000000000000000000000000000000000000000F50000C300000000
310
0000000000000000000000C3C3C3000000000000000000000000000000C30000000000C300000000000000C3C3C300000000000000C3C3000000000000F5000000000000000000000000000000000000000000DC00000000000000000000000000000000000000000000000000000000000000000000000000000000000000
310
000000000000F50000000000000000000000000000000000000000000000000000000000000000000000000000000000000000000000000000000000000000000000000000000000000000000000000000000000000000000000000000000000000000F5000000000000000000000000000000000000000000F50000000000
310
00000000000000000000000000C3C3C30000000000000000000000000000000000000000000000000000000000C3C3C3000000000000000000000000000000F5002D2D2D2D2D2D2D2D2D2D2D2D2D2D2D2D2D2D2D2DDC2D2D2D2D2D2D2D2D2D2D2D2D2D2D2D2D2D2D2D2D000000000000000000000000000000000000000000
310
0000000000000000F50000000000000000000000000000000000000000000000000000000000000000000000000000000000000000000000000000000000000000000000000000000000000000000000000000000000000000000000000000000000000000F5000000000000000000000000000000000000000000F5000000
310
00000000000000000000000000000000DC000000000000000000000000000000000000000000000000000000000000000000000000000000000000000000000000F5002D00000000000000000000000000000000000000DC000000000000000000000000000000000000002D00000000000000000000000000000000000000
310
00000000000000000000F50000000000000000000000000000000000000000000000000000000000000000000000000000000000000000000000000000000000000000000000000000000000000000000000000000000000000000000000000000000000000000F5000000000000000000000000000000000000000000F500
310
002D2D2D2D2D2D2D2D2D2D2D2D2D2D2D2D2DDC2D2D2D2D2D2D2D2D2D2D2D2D2D2D2D2D2D00000000000000000000000000000000000000000000000000000000000000F5002D00000000000000000000000000000000000000DC000000000000000000000000000000000000002D0000000000000000000000000000000000
310
000000000000000000000000F50000000000000000000000000000000000000000000000000000000000000000000000000000000000000000000000000000000000000000000000000000000000000000000000000000000000000000000000000000000000000000F5000000000000000000000000000000000000000000
310
F500002D00000000000000000000000000000000DC000000000000000000000000000000002D00000000000000000000000000000000000000000000000000000000000000F5002D00000000000000000000000000000000000000DC000000000000000000000000000000000000002D000000000000000000000000000000
310
0000000000000000000000000000F50000000000000000000000000000000000000000000000000000000000000000000000000000000000000000000000000000000000000000000000000000000000000000000000000000000000000000000000000000000000000000F500000000000000000000000000000000000000
310
0000F500002D00000000000000000000000000000000DC000000000000000000000000000000002D00000000000000000000000000000000000000000000000000000000000000F5002D00000000000000000000000000000000000000DC000000000000000000000000000000000000002D00000000000000000000000000
310
00000000000000000000000000000000F50000000000000000000000000000000000000000000000000000000000000000000000000000000000000000000000000000000000000000000000000000000000000000000000000000000000000000000000000000000000000000F50000000000000000F5F5F5F5F500000000
310
00000000F500002D00000000000000000000000000000000DC000000000000000000000000000000002D00000000000000000000000000000000000000000000000000000000000000F5002D0000DC00000000000000000000000000000000DC00000000000000000000000000000000DC00002D0000000000000000000000
310
000000000000000000000000000000000000F50000000000000000000000000000000000000000000000000000000000000000000000000000000000000000000000000000000000000000000000000000000000000000000000000000000000000000000000000000000000000000F50000000000000000F5F5F5F5F50000
310
000000000000F500002D00DC0000000000000000000000000000DC0000000000000000000000000000DC002D00000000000000000000000000000000000000000000000000000000000000F5002D00DCDCDC000000000000000000000000000000DC000000000000000000000000000000DCDCC3C3C3C3C3C3000000000000
310
0000000000000000000000000000000000000000F50000000000000000000000000000000000000000000000000000000000000000000000000000000000000000000000000000000000000000000000000000000000000000000000000000000000000000000000000000000000000000F500000000000000000000000000
310
0000000000000000F500002DDCDCDC00000000000000000000000000DC00000000000000000000000000DCDCDCC3C3C3C300000000000000000000000000000000000000000000000000000000F5002D0000C300000000000000000000000000000000DC00000000000000000000000000000000DC00002D00C3C300000000
310
00000000000000000000000000000000000000000000F50000000000000000000000000000000000000000000000000000000000000000000000000000000000000000000000000000000000000000000000000000000000000000000000000000000000000000000000000000000000000000F50000000000000000000000
310
00000000000000000000F500002D00DC0000000000000000000000000000DC0000000000000000000000000000DC002D0000C300000000000000000000000000000000000000000000000000000000F5002D0000C300000000000000000000000000000000DC000000000000000000000000000000000000002D00C3000000
310
000000000000000000000000000000000000000000000000F50000000000000000000000000000000000000000000000000000000000000000000000000000000000000000000000000000000000000000000000000000000000000000000000000000000000000000000000000000000000000000F5000000000000000000
310
000000000000000000000000F500002D00000000000000000000000000000000DC000000000000000000000000000000002D0000C300000000000000000000000000000000000000000000000000000000F5002D0000C300000000000000000000000000000000DC000000000000000000000000000000000000002D00C300
310
0000000000000000000000000000000000000000000000000000F50000000000000000000000000000000000000000000000000000000000000000000000000000000000000000000000000000000000000000000000000000000000000000000000000000000000000000000000000000000000000000F500000000000000
310
0000000000000000000000000000F500002D00000000000000000000000000000000DC000000000000000000000000000000002D00C3C300000000000000000000000000000000000000000000000000000000DCDCDCDCDCDCDCDCDCDCDCDCDCDCDCDCDCDCDCDCDCDCDCDCDCDCDCDCDCDCDCDCDCDCDCDCDCDCDCDCDCDCDCC3
310
C3000000000000000000000000000000000000000000000000000000F50000000000000000000000000000000000000000000000000000000000000000000000000000000000000000000000000000000000000000000000000000000000000000000000000000000000000000000000000000000000000000F50000000000
310
00000000000000000000000000000000F500DCDCDCDCDCDCDCDCDCDCDCDCDCDCDCDCDCDCDCDCDCDCDCDCDCDCDCDCDCDCDCDCDCDCDCDCC3C3C300000000000000000000000000000000000000000000000000000000F5002D0000C300000000000000000000000000000000DC00000000000000000000000000000000000000
310
2DC3C3000000000000000000000000000000000000000000000000000000F50000000000000000000000000000000000000000000000000000000000000000000000000000000000000000000000000000000000000000000000000000000000000000000000000000000000000000000000000000000000000000F5000000
310
000000000000000000000000000000000000F500002D00000000000000000000000000000000DC000000000000000000000000000000002DC3C3C300000000000000000000000000000000000000000000000000000000F5002D0000C300000000000000000000000000000000DC0000000000000000000000000000000000
310
00002D00C3000000000000000000000000000000000000000000000000000000F50000000000000000000000000000000000000000000000000000000000000000000000000000000000000000000000000000000000000000000000000000000000000000000000000000000000000000000000000000000000000000F500
310
0000000000000000000000000000000000000000F500002D00000000000000000000000000000000DC000000000000000000000000000000002D0000C300000000000000000000000000000000000000000000000000000000F5002D0000C300000000000000000000000000000000DC000000000000000000000000000000
310
000000002D00C3000000000000000000000000000000000000000000000000000000F50000000000000000000000000000000000000000000000000000000000000000000000000000000000000000000000000000000000000000000000000000000000000000000000000000000000000000000000000000000000000000
310
F5000000000000000000000000000000000000000000F500002D00DC0000000000000000000000000000DC0000000000000000000000000000DC002D0000C300000000000000000000000000000000000000000000000000000000F5002D0000DC00000000000000000000000000000000DC00000000000000000000000000
310
000000DC00002D00C3C30000000000000000000000000000000000000000000000000000F5000000000000000000000000000000000000000000000000000000000000000000000000000000000000000000000000000000000000000000000000000000000000000000000000000000000000000000000000000000000000
310
0000F5000000000000000000000000000000000000000000F500002DDCDCDC00000000000000000000000000DC00000000000000000000000000DCDCDCC3C3C3C300000000000000000000000000000000000000000000000000000000F5002D00DCDCDC000000000000000000000000000000DC0000000000000000000000
310
00000000DCC3C3C3C3C3C3C30000000000000000000000000000000000000000000000000000F500000000000000000000000000000000000000000000000000000000000000000000000000000000000000000000000000000000000000000000000000000000000000000000000000000000000000000000000000000000
310
00000000F5000000000000000000000000000000000000000000F500002D00C30000000000000000000000000000DC0000000000000000000000000000C3C32D00000000000000000000000000000000000000000000000000000000000000F5002D0000C300000000000000000000000000000000DC000000000000000000
310
00000000000000C300002D0000000000000000000000000000000000000000000000000000000000F50000000000000000000000000000000000000000000000000000000000000000000000000000000000000000000000000000000000000000000000000000000000000000000000000000000000000000000000000000
310
000000000000F5000000000000000000000000000000000000000000F500002D00C30000000000000000000000000000DC0000000000000000000000000000C3C32D00000000000000000000000000000000000000000000000000000000000000F5002D0000C300000000000000000000000000000000DC00000000000000
310
000000000000000000C3C3002D0000000000000000000000000000000000000000000000000000000000F5000000000000000000000000000000000000000000000000000000000000000000000000000000000000000000000000000000000000000000000000000000000000000000000000000000000000000000000000
310
0000000000000000F5000000000000000000000000000000000000000000F500002D00C30000000000000000000000000000DC0000000000000000000000000000C3C32D00000000000000000000000000000000000000000000000000000000000000F5002D0000C300000000000000000000000000000000000000000000
310
0000000000000000000000C3C3002D0000000000000000000000000000000000000000000000000000000000F500000000000000000000000000000000000000000000000000000000000000000000000000000000000000000000000000000000000000000000000000000000000000000000000000000000000000000000
310
00000000000000000000F5000000000000000000000000000000000000000000F500002D00C30000000000000000000000000000DC0000000000000000000000000000C3C32D00000000000000000000000000000000000000000000000000000000000000F5002D0000C30000000000000000000000000000000000000000
310
00000000000000000000000000C3C3002D0000000000000000000000000000000000000000000000000000000000F50000000000000000000000000000000000000000000000000000000000000000000000000000000000000000000000000000000000000000000000000000000000000000000000000000000000000000
310
000000000000000000000000F5000000000000000000000000000000000000000000F500002D2DC32D2D2D2D2D2D2D2D2D2D2D2D2D2DDC2D2D2D2D2D2D2D2D2D2D2D2D2D2DC32DC300000000000000000000000000000000000000000000000000000000000000F5002D0000C3000000000000000000000000000000000000
310
000000000000000000000000000000C3C3002D0000000000000000000000000000000000000000000000000000000000F5000000000000000000000000000000000000000000000000000000000000000000000000000000000000000000000000000000000000000000000000000000000000000000000000000000000000
310
0000000000000000000000000000F5000000000000000000000000000000000000000000F528000000C30000000000000000000000000000000000000000000000000000000000C300C300000000000000000000000000000000000000000000000000000000000000F528282D2DC32D2D2D2D2D2D2D2D2D2D2D2D2D2D2D2D
310
2D2D2D2D2D2D2D2D2D2D2D2D2D2D2D2D2DC32DC32D0000000000000000000000000000000000000000000000000000000000F500000000000000000000000000000000000000000000000000000000000000000000000000000000000000000000000000000000000000000000000000000000000000000000000000000000
310
00000000000000000000000000000000F5000000000000000000000000000000000000000000F528000000C3C3C3C3C3C3C3C3C3C3C3C3C3C3C3C3C3C3C3C3C3C3C3C3C3C3C3C3C3C3C300C300000000000000000000000000000000000000000000000000000000000000F528280000C30000000000000000000000000000
310
00000000000000000000000000000000000000C300C3000000000000000000000000000000000000000000000000000000000000F50000000000000000000000000000000000000000000000000000000000000000000000000000000000000000000000000000000000000000000000000000000000000000000000000000
310
000000000000000000000000000000000000F5000000000000000000000000000000000000000000F528000000C300000000000000000000000000C3C3C300000000000000000000000000C300C3C3C3C3C3C30000000000000000000000000000000000000000000000000000F528280000C3C3C3C3C3C3C3C3C3C3C3C3C3
310
C3C3C3C3C3C3C3C3C3C3C3C3C3C3C3C3C3C3C3C3C3C300C3C3C3C3C3C300000000000000000000000000000000000000000000000000F5000000000000000000000000000000000000000000000000000000000000000000000000000000000000000000000000000000000000000000000000000000000000000000000000
310
0000000000000000000000000000000000000000F5000000000000000000000000000000000000000000F5280028280000000000000000000000000000C3C3C300000000000000000000000000000000C3C3C3C3C30000000000000000000000000000000000000000000000000000F5002800282800000000000000000000
310
0000000000C3C3C3000000000000000000000000000000000000C3C3C3C3C300000000000000000000000000000000000000000000000000F500000000000000000000000000000000000000000000000000000000000000000000000000000000000000000000000000000000000000000000000000000000000000000000
310
00000000000000000000000000000000000000000000F5000000000000000000000000000000000000000000F52828282828000000000000000000000000000000000000000000000000000000000000000000000000000000000000000000000000000000000000000000000000000000F500282828280000000000000000
310
00000000000000000000000000000000000000000000000000000000000000000000000000000000000000000000000000000000000000000000F50000000000000000000000000000000000000000000000000000000000000000000000000000000000000000000000000000000000000000000000000000000000000000
310
000000000000000000000000000000000000000000000000F5000000000000000000000000000000000000000000F50000000000000000000000000000000000000000000000000000000000000000000000000000000000000000000000000000000000000000000000000000000000000000F50000000000000000000000
310
000000000000000000000000000000000000000000000000000000000000000000000000000000000000000000000000000000000000000000000000F5000000000000000000000000000000000000000000000000000000000000000000000000000000000000000000000000000000000000000000000000000000000000
310
0000000000000000000000000000000000000000000000000000F5F5F5F5F5F5F5F5F5F5F5F5F5F5F5F5F5F5F5F5F5F5F5F5F5F5F5F5F5F5F5F5F5F5F5F5F5F5F5F5F5F5F5F5F5F5F5F5F5F5F5F5F5F5F5F5F5F5F5F5F5F5F5F5F5F5F5F5F5F5F5F5F5F5F5F5F5F5F5F5F5F5F5F5F5F5F5F5F5F5F5F5F5F5F5F5F5F5F5F5F5
310
F5F5F5F5F5F5F5F5F5F5F5F5F5F5F5F5F5F5F5F5F5F5F5F5F5F5F5F5F5F5F5F5F5F5F5F5F5F5F5F5F5F5F5F5F5F5F5F5F5F5F5F5F5F5F5F5F5F5F5F5F5F5F500000000000000000000000000000000000000000000000000000000000000000000000000000000000000000000000000000000000000000000000000000000
310
00000000000000000000000000000000000000000000000000000000F5000000000000000000F5F5F5000000000000000000F50000000000000000000000000000000000000000000000000000000000F5F5F5F5F5F5F5F500000000000000000000000000000000000000000000000000000000000000F500000000000000
310
000000000000000000000000000000000000000000000000F5F5F5F5F5F5F5F50000000000000000000000000000000000000000000000000000000000000000F50000000000000000000000000000000000000000000000000000000000000000000000000000000000000000000000000000000000000000000000000000
310
000000000000000000000000000000000000000000000000000000000000F5F5F5F5F5F5F5F5F5F5F5F5F5F5F5F5F5F5F5F5F5F5F5F5F5F5F5F5F5F5F5F5F5F5F5F5F5F5F5F5F5F5F5F5F5F5F5F5F5F5F5F5F5F5F5F5F5F5F5F5F5F5F5F5F5F5F5F5F5F5F5F5F5F5F5F5F5F5F5F5F5F5F5F5F5F5F5F5F5F5F5F5F5F5F5F5F5
310
F5F5F5F5F5F5F5F5F5F5F5F5F5F5F5F5F5F5F5F5F5F5F5F5F5F5F5F5F5F5F5F5F5F5F5F5F5F5F5F5F5F5F5F5F5F5F5F5F5F5F5F5F5F5F5F5F5F5F5F5F5F5F5F5F5F5F5000000000000000000000000000000000000000000000000000000000000000000000000000000000000000000000000000000000000000000000000
310
0000000000000000000000000000000000000000000000000000000000000000F5000000000000000000F5F5F5000000000000000000F500000000000000000000000000000000000000000000000000F5F5F5F5F5F5F5F5F5F5F5F5F5F50000000000000000000000000000000000000000000000000000000000F5000000
310
000000000000000000000000000000000000000000000000F5F5F5F5F5F5F5F5F5F5F5F5F5F5000000000000000000000000000000000000000000000000000000000000F500000000000000000000000000000000000000000000000000000000000000000000000000000000000000000000000000000000000000000000
310
00000000000000000000000000000000000000000000000000000000000000000000F5000000000000000000F5F5F5000000000000000000F500000000000000000000000000000000000000000000000000F5F5F5F5F500F50000F5F5F5F5F50000000000000000000000000000000000000000000000000000000000F500
310
0000000000000000000000000000000000000000000000000000F5F5F5F5F5F5F50000F5F5F5F5F5000000000000000000000000000000000000000000000000000000000000F50000000000000000000000000000000000000000000000000000000000000000000000000000000000000000000000000000000000000000
310
000000000000000000000000000000000000000000000000000000000000000000000000F5F5F5F5F5F5F5F5F5F5F5F5F5F5F5F5F5F5F5F5F5F5F5F5F5F5F5F5F5F5F5F5F5F5F5F5F5F5F5F5F5F5F5F5F5F5F5F5F5F5F5F5F5F5F5F5F5F5F5F5F5F5F5F5F5F5F5F5F5F5F5F5F5F5F5F5F5F5F5F5F5F5F5F5F5F5F5F5F5F5F5
310
F5F5F5F5F5F5F5F5F5F5F5F5F5F5F5F5F5F5F5F5F5F5F5F5F5F5F5F5F5F5F5F5F5F5F5F5F5F5F5F5F5F5F5F5F5F5F5F5F5F5F5F5F5F5F5F5F5F5F5F5F5F5F5F5F5F5F5F5F5F5F5F5F5000000000000000000000000000000000000000000000000000000000000000000000000000000000000000000000000000000000000
310
0000000000000000000000000000000000000000000000000000000000000000000000000000F5000000000000000000F5F5F5000000000000000000F5000000000000000000000000000000000000000000000000000000000000000000000000000000000000000000000000000000000000000000000000000000F5F5F5
310
F5F5F5F5F5F5F5F5000000000000000000000000000000000000000000000000000000000000000000000000000000000000000000000000000000000000000000000000000000000000F500000000000000000000000000000000000000000000000000000000000000000000000000000000000000000000000000000000
310
00000000000000000000000000000000000000000000000000000000000000000000000000000000F5F5F5F5F5F5F5F5F5F5F5F5F5F5F5F5F5F5F5F5F5F5F5F5F5F5F5F5F5F5F5F5F5F5F5F5F5F5F5F5F5F5F5F5F5F5F5F5F5F5F5F5F5F5F5F5F5F5F5F5F5F5F5F5F5F5F5F5F5F5F5F5F5F5F5F5F5F5F5F5F5F5F5F5F5F5F5
310
F5F5F5F5F5F5F5F5F5F5F5F5F5F5F5F5F5F5F5F5F5F5F5F5F5F5F5F5F5F5F5F5F5F5F5F5F5F5F5F5F5F5F5F5F5F5F5F5F5F5F5F5F5F5F5F5F5F5F5F5F5F5F5F5F5F5F5F5F5F5F5F5F5F5F5F5F50000000000000000000000000000000000000000000000000000000000000000000000000000000000000000000000000000
310
000000000000000000000000000000000000000000000000000000000000000000000000000000000000F2000000000000000000000000000000000000000000000000000000000000000000000000000000000000000000000000000000000000000000000000000000000000000000000000000000000000000000000000
310
000000000000000000000000000000000000000000000000000000000000000000000000000000000000000000000000000000000000000000000000000000000000000000000000000000000000F2000000000000000000000000000000000000000000000000000000000000000000000000000000000000000000000000
310
0000000000000000000000000000000000000000000000000000000000000000000000000000000000000000F200000000000000000000000000000000000000000000000000000000000000000000000000000000000000000000000000000000000000000000000000000000000000000000000000000000000000000000
310
0000000000000000000000000000000000000000000000000000000000000000000000000000000000000000000000000000000000000000000000000000000000000000000000000000000000000000F200000000000000000000000000000000000000000000000000000000000000000000000000000000000000000000
310
00000000000000000000000000000000000000000000000000000000000000000000000000000000000000000000F20000000000000000000000000000000000000000000000000000000000000000000000000000000000000000000000000000000000000000000000000000000000000000000000000000000000000000
310
00000000000000000000000000000000000000000000000000000000000000000000000000000000000000000000000000000000000000000000000000000000000000000000000000000000000000000000F20000000000000000000000000000000000000000000000000000000000000000000000000000000000000000
310
000000000000000000000000000000000000000000000000000000000000000000000000000000000000000000000000F2000000000000000000000000000000000000000000000000000000000000000000000000000000000000000000000000000000000000000000000000000000000000000000000000000000000000
310
000000000000000000000000000000000000000000000000000000000000000000000000000000000000000000000000000000000000000000000000000000000000000000000000000000000000000000000000F2000000000000000000000000000000000000000000000000000000000000000000000000000000000000
310
0000000000000000000000000000000000000000000000000000000000000000000000000000000000000000000000000000F200000000000000000000000000000000000000000000000000000000000000000000000000000000000000000000000000000000000000000000000000000000000000000000000000000000
310
0000000000000000000000000000000000000000000000000000000000000000000000000000000000000000000000000000000000000000000000000000000000000000000000000000000000000000000000000000F200000000000000000000000000000000000000000000000000000000000000000000000000000000
310
00000000000000000000000000000000000000000000000000000000000000000000000000000000000000000000000000000000F20000000000000000000000000000000000000000000000000000000000000000000000000000000000000000000000000000000000000000000000000000000000000000000000000000
310
00000000000000000000000000000000000000000000000000000000000000000000000000000000000000000000000000000000000000000000000000000000000000000000000000000000000000000000000000000000F20000000000000000000000000000000000000000000000000000000000000000000000000000
310
000000000000000000000000000000000000000000000000000000000000000000000000000000000000000000000000000000000000F2000000000000000000000000000000000000000000000000000000000000000000000000000000000000000000000000000000000000000000000000000000000000000000000000
310
000000000000000000000000000000000000000000000000000000000000000000000000000000000000000000000000000000000000000000000000000000000000000000000000000000000000000000000000000000000000F2000000000000000000000000000000000000000000000000000000000000000000000000
310
0000000000000000000000000000000000000000000000000000000000000000000000000000000000000000000000000000000000000000F200000000000000000000000000000000000000000000000000000000000000000000000000000000000000000000000000000000000000000000000000000000000000000000
310
0000000000000000000000000000000000000000000000000000000000000000000000000000000000000000000000000000000000000000000000000000000000000000000000000000000000000000000000000000000000000000F200000000000000000000000000000000000000000000000000000000000000000000
310
00000000000000000000000000000000000000000000000000000000000000000000000000000000000000000000000000000000000000000000F20000000000000000000000000000000000000000000000000000000000000000000000000000000000000000000000000000000000000000000000000000000000000000
310
00000000000000000000000000000000000000000000000000000000000000000000000000000000000000000000000000000000000000000000000000000000000000000000000000000000000000000000000000000000000000000000F20000000000000000000000000000000000000000000000000000000000000000
310
000000000000000000000000000000000000000000000000000000000000000000000000000000000000000000000000000000000000000000000000F2000000000000000000000000000000000000000000000000000000000000000000000000000000000000000000000000000000000000000000000000000000000000
310
000000000000000000000000000000000000000000000000000000000000000000000000000000000000000000000000000000000000000000000000000000000000000000000000000000000000000000000000000000000000000000000000F2000000000000000000000000000000000000000000000000000000000000
310
0000000000000000000000000000000000000000000000000000000000000000000000000000000000000000000000000000000000000000000000000000F200000000000000000000000000000000000000000000000000000000000000000000000000000000000000000000000000000000000000000000000000000000
310
0000000000000000000000000000000000000000000000000000000000000000000000000000000000000000000000000000000000000000000000000000000000000000000000000000000000000000000000000000000000000000000000000000F200000000000000000000000000000000000000000000000000000000
310
00000000000000000000000000000000000000000000000000000000000000000000000000000000000000000000000000000000000000000000000000000000F20000000000000000000000000000000000000000000000000000000000000000000000000000000000000000000000000000000000000000000000000000
310
00000000000000000000000000000000000000000000000000000000000000000000000000000000000000000000000000000000000000000000000000000000000000000000000000000000000000000000000000000000000000000000000000000000F20000000000000000000000000000000000000000000000000000
310
000000000000000000000000000000000000000000000000000000000000000000000000000000000000000000000000000000000000000000000000000000000000F2000000000000000000000000000000000000000000000000000000000000000000000000000000000000000000000000000000000000000000000000
310
000000000000000000000000000000000000000000000000000000000000000000000000000000000000000000000000000000000000000000000000000000000000000000000000000000000000000000000000000000000000000000000000000000000000F2000000000000000000000000000000000000000000000000
310
0000000000000000000000000000000000000000000000000000000000000000000000000000000000000000000000000000000000000000000000000000000000000000F200000000000000000000000000000000000000000000000000000000000000000000000000000000000000000000000000000000000000000000
310
0000000000000000000000000000000000000000000000000000000000000000000000000000000000000000000000000000000000000000000000000000000000000000000000000000000000000000000000000000000000000000000000000000000000000000F200000000000000000000000000000000000000000000
310
00000000000000000000000000000000000000000000000000000000000000000000000000000000000000000000000000000000000000000000000000000000000000000000F20000000000000000000000000000000000000000000000000000000000000000000000000000000000000000000000000000000000000000
310
00000000000000000000000000000000000000000000000000000000000000000000000000000000000000000000000000000000000000000000000000000000000000000000000000000000000000000000000000000000000000000000000000000000000000000000F20000000000000000000000000000000000000000
310
000000000000000000000000000000000000000000000000000000000000000000000000000000000000000000000000000000000000000000000000000000000000000000000000F2000000000000000000000000000000000000000000000000000000000000000000000000000000000000000000000000000000000000
310
000000000000000000000000000000000000000000000000000000000000000000000000000000000000000000000000000000000000000000000000000000000000000000000000000000000000000000000000000000000000000000000000000000000000000000000000F2000000000000000000000000000000000000
310
0000000000000000000000000000000000000000000000000000000000000000000000000000000000000000000000000000000000000000000000000000000000000000000000000000F2F2F2F2F2F2F2F2F2F2F2F2F2F2F2F2F2F2F2F2F2F2F2F2F2F2F2F2F2F2F2F2F2F2F2F2F2F2F2F2F2F2F2F2F2F2F2F2F2F2F2F2F2
310
F2F2F2F2F2F2F2F2F2F2F2F2F2F2F2F2F2F2F2F2F2F2F2F2F2F2F2F2F2ECF2F2F2F2F2F2F2F2F2F2F2F2F2F2F2F2F2F2F2F2F2F2F2F2F2F2F2F2F2F2F2F2F2F2F2F2F2F2F2F2F2F2F2F2F2F2F2F2F2F2F2F2F2F2F2F2F2F2F2F2F2F2F2F2F2F2F2F2F2F2F2F2F2F2F2F2F2F2F2F2F200000000000000000000000000000000
310
00000000000000000000000000000000000000000000000000000000000000000000000000000000000000000000000000000000000000000000000000000000000000000000000000000000000000000000000000000000000000000000000000000000000000000000000000000000000000000000000000000000000000
310
00000000000000000000000000000000000000000000000000000000000000000000000000000000000000000000000000000000000000000000000000000000000000000000000000000000000000000000000000000000000000000000000000000000000000000000000000000000000000000000000000000000000000
310
00000000000000000000000000000000000000000000000000000000000000000000
  0
XRECORD
  5
7CB
102
{ACAD_REACTORS
330
FE
102
}
330
FE
100
AcDbXrecord
280
     1
102
MATERIAL
148
0.0
149
0.0
149
0.0
 93
        0
 94
      127
282
     0
 72
     0
 77
     0
171
     0
175
     0
179
     0
273
     0
  0
XRECORD
  5
100
102
{ACAD_REACTORS
330
FE
102
}
330
FE
100
AcDbXrecord
280
     1
270
     1
271
     1
  0
XRECORD
  5
FF
102
{ACAD_REACTORS
330
FE
102
}
330
FE
100
AcDbXrecord
280
     1
270
     1
271
     1
  0
XRECORD
  5
103
102
{ACAD_REACTORS
330
FE
102
}
330
FE
100
AcDbXrecord
280
     1
270
     1
271
     1
  0
XRECORD
  5
102
102
{ACAD_REACTORS
330
FE
102
}
330
FE
100
AcDbXrecord
280
     1
270
     1
271
     1
  0
XRECORD
  5
104
102
{ACAD_REACTORS
330
FE
102
}
330
FE
100
AcDbXrecord
280
     1
270
     1
271
     1
  0
XRECORD
  5
101
102
{ACAD_REACTORS
330
FE
102
}
330
FE
100
AcDbXrecord
280
     1
270
     1
271
     1
  0
XRECORD
  5
7CA
102
{ACAD_REACTORS
330
F6
102
}
330
F6
100
AcDbXrecord
280
     1
102
MATERIAL
148
0.0
149
0.0
149
0.0
 93
        0
 94
      127
282
     0
 72
     0
 77
     0
171
     0
175
     0
179
     0
273
     0
  0
XRECORD
  5
F8
102
{ACAD_REACTORS
330
F6
102
}
330
F6
100
AcDbXrecord
280
     1
270
     1
271
     1
  0
XRECORD
  5
F7
102
{ACAD_REACTORS
330
F6
102
}
330
F6
100
AcDbXrecord
280
     1
270
     1
271
     1
  0
XRECORD
  5
FB
102
{ACAD_REACTORS
330
F6
102
}
330
F6
100
AcDbXrecord
280
     1
270
     1
271
     1
  0
XRECORD
  5
FA
102
{ACAD_REACTORS
330
F6
102
}
330
F6
100
AcDbXrecord
280
     1
270
     1
271
     1
  0
XRECORD
  5
FC
102
{ACAD_REACTORS
330
F6
102
}
330
F6
100
AcDbXrecord
280
     1
270
     1
271
     1
  0
XRECORD
  5
F9
102
{ACAD_REACTORS
330
F6
102
}
330
F6
100
AcDbXrecord
280
     1
270
     1
271
     1
  0
XRECORD
  5
7CC
102
{ACAD_REACTORS
330
106
102
}
330
106
100
AcDbXrecord
280
     1
102
MATERIAL
148
0.0
149
0.0
149
0.0
 93
        0
 94
      127
282
     0
 72
     0
 77
     0
171
     0
175
     0
179
     0
273
     0
  0
XRECORD
  5
108
102
{ACAD_REACTORS
330
106
102
}
330
106
100
AcDbXrecord
280
     1
270
     1
271
     1
  0
XRECORD
  5
107
102
{ACAD_REACTORS
330
106
102
}
330
106
100
AcDbXrecord
280
     1
270
     1
271
     1
  0
XRECORD
  5
10B
102
{ACAD_REACTORS
330
106
102
}
330
106
100
AcDbXrecord
280
     1
270
     1
271
     1
  0
XRECORD
  5
10A
102
{ACAD_REACTORS
330
106
102
}
330
106
100
AcDbXrecord
280
     1
270
     1
271
     1
  0
XRECORD
  5
10C
102
{ACAD_REACTORS
330
106
102
}
330
106
100
AcDbXrecord
280
     1
270
     1
271
     1
  0
XRECORD
  5
109
102
{ACAD_REACTORS
330
106
102
}
330
106
100
AcDbXrecord
280
     1
270
     1
271
     1
  0
XRECORD
  5
803
102
{ACAD_REACTORS
330
802
102
}
330
802
100
AcDbXrecord
280
     1
102
DISPLAYNAME
  1
Metric50
102
FLAGS
 90
        0
  0
CELLSTYLEMAP
  5
7C8
102
{ACAD_REACTORS
330
150
102
}
330
150
100
AcDbCellStyleMap
 90
        3
300
CELLSTYLE
  1
TABLEFORMAT_BEGIN
 90
        5
170
     1
 91
        0
 92
    32768
 62
   257
 93
        1
300
CONTENTFORMAT
  1
CONTENTFORMAT_BEGIN
 90
        0
 91
        0
 92
      512
 93
        0
300

 40
0.0
140
1.0
 94
        5
 62
     0
340
C
144
0.25
309
CONTENTFORMAT_END
171
     0
 94
        0
309
TABLEFORMAT_END
  1
CELLSTYLE_BEGIN
 90
        1
 91
        1
300
_TITLE
309
CELLSTYLE_END
300
CELLSTYLE
  1
TABLEFORMAT_BEGIN
 90
        5
170
     1
 91
        0
 92
        0
 62
   257
 93
        1
300
CONTENTFORMAT
  1
CONTENTFORMAT_BEGIN
 90
        0
 91
        0
 92
      512
 93
        0
300

 40
0.0
140
1.0
 94
        5
 62
     0
340
C
144
0.18
309
CONTENTFORMAT_END
171
     0
 94
        0
309
TABLEFORMAT_END
  1
CELLSTYLE_BEGIN
 90
        2
 91
        1
300
_HEADER
309
CELLSTYLE_END
300
CELLSTYLE
  1
TABLEFORMAT_BEGIN
 90
        5
170
     1
 91
        0
 92
        0
 62
   257
 93
        1
300
CONTENTFORMAT
  1
CONTENTFORMAT_BEGIN
 90
        0
 91
        0
 92
      512
 93
        0
300

 40
0.0
140
1.0
 94
        2
 62
     0
340
C
144
0.18
309
CONTENTFORMAT_END
171
     0
 94
        0
309
TABLEFORMAT_END
  1
CELLSTYLE_BEGIN
 90
        3
 91
        2
300
_DATA
309
CELLSTYLE_END
  0
XRECORD
  5
7F3
102
{ACAD_REACTORS
330
150
102
}
330
150
100
AcDbXrecord
280
     1
102
ACAD_ROUNDTRIP_PRE2007_TABLESTYLE
 90
      512
 91
        0
  1

 92
      512
 93
        0
  2

 94
      512
 95
        0
  3

  0
XRECORD
  5
7D8
102
{ACAD_REACTORS
330
7D7
102
}
330
7D7
100
AcDbXrecord
280
     1
102
RTVSPost2010Prop28
280
     1
102
RTVSPost2010PropOp28
 70
     1
102
RTVSPost2010Prop29
280
     1
102
RTVSPost2010PropOp29
 70
     1
102
RTVSPost2010Prop30
280
     0
102
RTVSPost2010PropOp30
 70
     1
102
RTVSPost2010Prop31
280
     0
102
RTVSPost2010PropOp31
 70
     1
102
RTVSPost2010Prop32
280
     0
102
RTVSPost2010PropOp32
 70
     1
102
RTVSPost2010Prop33
280
     0
102
RTVSPost2010PropOp33
 70
     1
102
RTVSPost2010Prop34
280
     0
102
RTVSPost2010PropOp34
 70
     1
102
RTVSPost2010Prop35
280
     0
102
RTVSPost2010PropOp35
 70
     1
102
RTVSPost2010Prop36
280
     0
102
RTVSPost2010PropOp36
 70
     1
102
RTVSPost2010Prop37
 90
       50
102
RTVSPost2010PropOp37
 70
     1
102
RTVSPost2010Prop38
140
0.0
102
RTVSPost2010PropOp38
 70
     1
102
RTVSPost2010Prop39
140
1.0
102
RTVSPost2010PropOp39
 70
     1
102
RTVSPost2010Prop40
 90
        0
102
RTVSPost2010PropOp40
 70
     1
102
RTVSPost2010Prop41ColorIndex
 90
       18
102
RTVSPost2010Prop41ColorRGB
 90
        0
102
RTVSPost2010PropOp41
 70
     1
102
RTVSPost2010Prop42
 90
       50
102
RTVSPost2010PropOp42
 70
     1
102
RTVSPost2010Prop43
 90
        3
102
RTVSPost2010PropOp43
 70
     1
102
RTVSPost2010Prop44ColorIndex
 90
        5
102
RTVSPost2010Prop44ColorRGB
 90
      255
102
RTVSPost2010PropOp44
 70
     1
102
RTVSPost2010Prop45
280
     0
102
RTVSPost2010PropOp45
 70
     1
102
RTVSPost2010Prop46
 90
       50
102
RTVSPost2010PropOp46
 70
     1
102
RTVSPost2010Prop47
 90
       50
102
RTVSPost2010PropOp47
 70
     1
102
RTVSPost2010Prop48
 90
       50
102
RTVSPost2010PropOp48
 70
     1
102
RTVSPost2010Prop49
280
     0
102
RTVSPost2010PropOp49
 70
     1
102
RTVSPost2010Prop50
 90
       50
102
RTVSPost2010PropOp50
 70
     1
102
RTVSPost2010Prop51ColorIndex
 90
      256
102
RTVSPost2010Prop51ColorRGB
 90
-16777216
102
RTVSPost2010PropOp51
 70
     0
102
RTVSPost2010Prop52
140
1.0
102
RTVSPost2010PropOp52
 70
     0
102
RTVSPost2010Prop53
 90
        2
102
RTVSPost2010PropOp53
 70
     1
102
RTVSPost2010Prop54
  1
strokes_ogs.tif
102
RTVSPost2010PropOp54
 70
     1
102
RTVSPost2010Prop55
280
     0
102
RTVSPost2010PropOp55
 70
     1
102
RTVSPost2010Prop56
140
1.0
102
RTVSPost2010PropOp56
 70
     1
102
RTVSPost2010Prop57
140
1.0
102
RTVSPost2010PropOp57
 70
     1
102
RTVSPropertyOp0
 70
     1
102
RTVSPropertyOp1
 70
     1
102
RTVSPropertyOp2
 70
     1
102
RTVSPropertyOp3
 70
     1
102
RTVSPropertyOp4
 70
     1
102
RTVSPropertyOp5
 70
     1
102
RTVSPropertyOp6
 70
     1
102
RTVSPropertyOp7
 70
     1
102
RTVSPropertyOp8
 70
     1
102
RTVSPropertyOp9
 70
     1
102
RTVSPropertyOp10
 70
     1
102
RTVSPropertyOp11
 70
     1
102
RTVSPropertyOp12
 70
     1
102
RTVSPropertyOp13
 70
     1
102
RTVSPropertyOp14
 70
     1
102
RTVSPropertyOp15
 70
     1
102
RTVSPropertyOp16
 70
     1
102
RTVSPropertyOp17
 70
     1
102
RTVSPropertyOp18
 70
     1
102
RTVSPropertyOp19
 70
     1
102
RTVSPropertyOp20
 70
     1
102
RTVSPropertyOp21
 70
     1
102
RTVSPropertyOp22
 70
     1
102
RTVSPropertyOp23
 70
     1
102
RTVSPropertyOp24
 70
     1
102
RTVSPropertyOp25
 70
     1
102
RTVSPropertyOp26
 70
     1
102
RTVSPropertyOp27
 70
     1
102
RTVSPropertyOp28
 70
     1
102
RTVSPropertyOp29
 70
     1
102
RTVSPropertyOp30
 70
     1
102
RTVSPropertyOp31
 70
     1
102
RTVSPropertyOp32
 70
     1
102
RTVSPropertyOp33
 70
     1
102
RTVSPropertyOp34
 70
     1
102
RTVSPropertyOp35
 70
     1
102
RTVSPropertyOp36
 70
     1
102
RTVSPropertyOp37
 70
     1
102
RTVSPropertyOp38
 70
     1
102
RTVSPropertyOp39
 70
     1
102
RTVSPropertyOp40
 70
     1
102
RTVSPropertyOp41
 70
     1
102
RTVSPropertyOp42
 70
     1
102
RTVSPropertyOp43
 70
     1
102
RTVSPropertyOp44
 70
     1
102
RTVSPropertyOp45
 70
     1
102
RTVSPropertyOp46
 70
     1
102
RTVSPropertyOp47
 70
     1
102
RTVSPropertyOp48
 70
     1
102
RTVSPropertyOp49
 70
     1
102
RTVSPropertyOp50
 70
     1
102
RTVSPropertyOp51
 70
     0
102
RTVSPropertyOp52
 70
     0
102
RTVSPropertyOp53
 70
     1
102
RTVSPropertyOp54
 70
     1
102
RTVSPropertyOp55
 70
     1
102
RTVSPropertyOp56
 70
     1
102
RTVSPropertyOp57
 70
     1
102
RTVSPropertyOp58
 70
     1
102
RTVSPropertyOp59
 70
     1
102
RTVSPropertyOp60
 70
     1
102
RTVSPropertyOp61
 70
     1
102
RTVSPropertyOp62
 70
     1
  0
XRECORD
  5
7DC
102
{ACAD_REACTORS
330
7DB
102
}
330
7DB
100
AcDbXrecord
280
     1
102
RTVSPost2010Prop28
280
     0
102
RTVSPost2010PropOp28
 70
     1
102
RTVSPost2010Prop29
280
     1
102
RTVSPost2010PropOp29
 70
     1
102
RTVSPost2010Prop30
280
     1
102
RTVSPost2010PropOp30
 70
     1
102
RTVSPost2010Prop31
280
     0
102
RTVSPost2010PropOp31
 70
     1
102
RTVSPost2010Prop32
280
     0
102
RTVSPost2010PropOp32
 70
     1
102
RTVSPost2010Prop33
280
     0
102
RTVSPost2010PropOp33
 70
     1
102
RTVSPost2010Prop34
280
     0
102
RTVSPost2010PropOp34
 70
     1
102
RTVSPost2010Prop35
280
     0
102
RTVSPost2010PropOp35
 70
     1
102
RTVSPost2010Prop36
280
     0
102
RTVSPost2010PropOp36
 70
     1
102
RTVSPost2010Prop37
 90
       50
102
RTVSPost2010PropOp37
 70
     1
102
RTVSPost2010Prop38
140
0.0
102
RTVSPost2010PropOp38
 70
     1
102
RTVSPost2010Prop39
140
1.0
102
RTVSPost2010PropOp39
 70
     1
102
RTVSPost2010Prop40
 90
        0
102
RTVSPost2010PropOp40
 70
     1
102
RTVSPost2010Prop41ColorIndex
 90
       18
102
RTVSPost2010Prop41ColorRGB
 90
        0
102
RTVSPost2010PropOp41
 70
     1
102
RTVSPost2010Prop42
 90
       50
102
RTVSPost2010PropOp42
 70
     1
102
RTVSPost2010Prop43
 90
        3
102
RTVSPost2010PropOp43
 70
     1
102
RTVSPost2010Prop44ColorIndex
 90
        5
102
RTVSPost2010Prop44ColorRGB
 90
      255
102
RTVSPost2010PropOp44
 70
     1
102
RTVSPost2010Prop45
280
     0
102
RTVSPost2010PropOp45
 70
     1
102
RTVSPost2010Prop46
 90
       50
102
RTVSPost2010PropOp46
 70
     1
102
RTVSPost2010Prop47
 90
       50
102
RTVSPost2010PropOp47
 70
     1
102
RTVSPost2010Prop48
 90
       50
102
RTVSPost2010PropOp48
 70
     1
102
RTVSPost2010Prop49
280
     0
102
RTVSPost2010PropOp49
 70
     1
102
RTVSPost2010Prop50
 90
       50
102
RTVSPost2010PropOp50
 70
     1
102
RTVSPost2010Prop51ColorIndex
 90
      256
102
RTVSPost2010Prop51ColorRGB
 90
-16777216
102
RTVSPost2010PropOp51
 70
     0
102
RTVSPost2010Prop52
140
1.0
102
RTVSPost2010PropOp52
 70
     0
102
RTVSPost2010Prop53
 90
        2
102
RTVSPost2010PropOp53
 70
     1
102
RTVSPost2010Prop54
  1
strokes_ogs.tif
102
RTVSPost2010PropOp54
 70
     1
102
RTVSPost2010Prop55
280
     0
102
RTVSPost2010PropOp55
 70
     1
102
RTVSPost2010Prop56
140
1.0
102
RTVSPost2010PropOp56
 70
     1
102
RTVSPost2010Prop57
140
1.0
102
RTVSPost2010PropOp57
 70
     1
102
RTVSPropertyOp0
 70
     1
102
RTVSPropertyOp1
 70
     1
102
RTVSPropertyOp2
 70
     1
102
RTVSPropertyOp3
 70
     1
102
RTVSPropertyOp4
 70
     1
102
RTVSPropertyOp5
 70
     1
102
RTVSPropertyOp6
 70
     1
102
RTVSPropertyOp7
 70
     1
102
RTVSPropertyOp8
 70
     1
102
RTVSPropertyOp9
 70
     1
102
RTVSPropertyOp10
 70
     1
102
RTVSPropertyOp11
 70
     1
102
RTVSPropertyOp12
 70
     1
102
RTVSPropertyOp13
 70
     1
102
RTVSPropertyOp14
 70
     1
102
RTVSPropertyOp15
 70
     1
102
RTVSPropertyOp16
 70
     1
102
RTVSPropertyOp17
 70
     1
102
RTVSPropertyOp18
 70
     1
102
RTVSPropertyOp19
 70
     1
102
RTVSPropertyOp20
 70
     1
102
RTVSPropertyOp21
 70
     1
102
RTVSPropertyOp22
 70
     1
102
RTVSPropertyOp23
 70
     1
102
RTVSPropertyOp24
 70
     1
102
RTVSPropertyOp25
 70
     1
102
RTVSPropertyOp26
 70
     1
102
RTVSPropertyOp27
 70
     1
102
RTVSPropertyOp28
 70
     1
102
RTVSPropertyOp29
 70
     1
102
RTVSPropertyOp30
 70
     1
102
RTVSPropertyOp31
 70
     1
102
RTVSPropertyOp32
 70
     1
102
RTVSPropertyOp33
 70
     1
102
RTVSPropertyOp34
 70
     1
102
RTVSPropertyOp35
 70
     1
102
RTVSPropertyOp36
 70
     1
102
RTVSPropertyOp37
 70
     1
102
RTVSPropertyOp38
 70
     1
102
RTVSPropertyOp39
 70
     1
102
RTVSPropertyOp40
 70
     1
102
RTVSPropertyOp41
 70
     1
102
RTVSPropertyOp42
 70
     1
102
RTVSPropertyOp43
 70
     1
102
RTVSPropertyOp44
 70
     1
102
RTVSPropertyOp45
 70
     1
102
RTVSPropertyOp46
 70
     1
102
RTVSPropertyOp47
 70
     1
102
RTVSPropertyOp48
 70
     1
102
RTVSPropertyOp49
 70
     1
102
RTVSPropertyOp50
 70
     1
102
RTVSPropertyOp51
 70
     0
102
RTVSPropertyOp52
 70
     0
102
RTVSPropertyOp53
 70
     1
102
RTVSPropertyOp54
 70
     1
102
RTVSPropertyOp55
 70
     1
102
RTVSPropertyOp56
 70
     1
102
RTVSPropertyOp57
 70
     1
102
RTVSPropertyOp58
 70
     1
102
RTVSPropertyOp59
 70
     1
102
RTVSPropertyOp60
 70
     1
102
RTVSPropertyOp61
 70
     1
102
RTVSPropertyOp62
 70
     1
  0
XRECORD
  5
7DA
102
{ACAD_REACTORS
330
7D9
102
}
330
7D9
100
AcDbXrecord
280
     1
102
RTVSPost2010Prop28
280
     0
102
RTVSPost2010PropOp28
 70
     1
102
RTVSPost2010Prop29
280
     1
102
RTVSPost2010PropOp29
 70
     1
102
RTVSPost2010Prop30
280
     1
102
RTVSPost2010PropOp30
 70
     1
102
RTVSPost2010Prop31
280
     0
102
RTVSPost2010PropOp31
 70
     1
102
RTVSPost2010Prop32
280
     0
102
RTVSPost2010PropOp32
 70
     1
102
RTVSPost2010Prop33
280
     0
102
RTVSPost2010PropOp33
 70
     1
102
RTVSPost2010Prop34
280
     0
102
RTVSPost2010PropOp34
 70
     1
102
RTVSPost2010Prop35
280
     0
102
RTVSPost2010PropOp35
 70
     1
102
RTVSPost2010Prop36
280
     0
102
RTVSPost2010PropOp36
 70
     1
102
RTVSPost2010Prop37
 90
       50
102
RTVSPost2010PropOp37
 70
     1
102
RTVSPost2010Prop38
140
0.0
102
RTVSPost2010PropOp38
 70
     1
102
RTVSPost2010Prop39
140
1.0
102
RTVSPost2010PropOp39
 70
     1
102
RTVSPost2010Prop40
 90
        0
102
RTVSPost2010PropOp40
 70
     1
102
RTVSPost2010Prop41ColorIndex
 90
       18
102
RTVSPost2010Prop41ColorRGB
 90
        0
102
RTVSPost2010PropOp41
 70
     1
102
RTVSPost2010Prop42
 90
       50
102
RTVSPost2010PropOp42
 70
     1
102
RTVSPost2010Prop43
 90
        3
102
RTVSPost2010PropOp43
 70
     1
102
RTVSPost2010Prop44ColorIndex
 90
        5
102
RTVSPost2010Prop44ColorRGB
 90
      255
102
RTVSPost2010PropOp44
 70
     1
102
RTVSPost2010Prop45
280
     0
102
RTVSPost2010PropOp45
 70
     1
102
RTVSPost2010Prop46
 90
       50
102
RTVSPost2010PropOp46
 70
     1
102
RTVSPost2010Prop47
 90
       50
102
RTVSPost2010PropOp47
 70
     1
102
RTVSPost2010Prop48
 90
       50
102
RTVSPost2010PropOp48
 70
     1
102
RTVSPost2010Prop49
280
     0
102
RTVSPost2010PropOp49
 70
     1
102
RTVSPost2010Prop50
 90
       50
102
RTVSPost2010PropOp50
 70
     1
102
RTVSPost2010Prop51ColorIndex
 90
      256
102
RTVSPost2010Prop51ColorRGB
 90
-16777216
102
RTVSPost2010PropOp51
 70
     0
102
RTVSPost2010Prop52
140
1.0
102
RTVSPost2010PropOp52
 70
     0
102
RTVSPost2010Prop53
 90
        2
102
RTVSPost2010PropOp53
 70
     1
102
RTVSPost2010Prop54
  1
strokes_ogs.tif
102
RTVSPost2010PropOp54
 70
     1
102
RTVSPost2010Prop55
280
     0
102
RTVSPost2010PropOp55
 70
     1
102
RTVSPost2010Prop56
140
1.0
102
RTVSPost2010PropOp56
 70
     1
102
RTVSPost2010Prop57
140
1.0
102
RTVSPost2010PropOp57
 70
     1
102
RTVSPropertyOp0
 70
     1
102
RTVSPropertyOp1
 70
     1
102
RTVSPropertyOp2
 70
     1
102
RTVSPropertyOp3
 70
     1
102
RTVSPropertyOp4
 70
     1
102
RTVSPropertyOp5
 70
     1
102
RTVSPropertyOp6
 70
     1
102
RTVSPropertyOp7
 70
     1
102
RTVSPropertyOp8
 70
     1
102
RTVSPropertyOp9
 70
     1
102
RTVSPropertyOp10
 70
     1
102
RTVSPropertyOp11
 70
     1
102
RTVSPropertyOp12
 70
     1
102
RTVSPropertyOp13
 70
     1
102
RTVSPropertyOp14
 70
     1
102
RTVSPropertyOp15
 70
     1
102
RTVSPropertyOp16
 70
     1
102
RTVSPropertyOp17
 70
     1
102
RTVSPropertyOp18
 70
     1
102
RTVSPropertyOp19
 70
     1
102
RTVSPropertyOp20
 70
     1
102
RTVSPropertyOp21
 70
     1
102
RTVSPropertyOp22
 70
     1
102
RTVSPropertyOp23
 70
     1
102
RTVSPropertyOp24
 70
     1
102
RTVSPropertyOp25
 70
     1
102
RTVSPropertyOp26
 70
     1
102
RTVSPropertyOp27
 70
     1
102
RTVSPropertyOp28
 70
     1
102
RTVSPropertyOp29
 70
     1
102
RTVSPropertyOp30
 70
     1
102
RTVSPropertyOp31
 70
     1
102
RTVSPropertyOp32
 70
     1
102
RTVSPropertyOp33
 70
     1
102
RTVSPropertyOp34
 70
     1
102
RTVSPropertyOp35
 70
     1
102
RTVSPropertyOp36
 70
     1
102
RTVSPropertyOp37
 70
     1
102
RTVSPropertyOp38
 70
     1
102
RTVSPropertyOp39
 70
     1
102
RTVSPropertyOp40
 70
     1
102
RTVSPropertyOp41
 70
     1
102
RTVSPropertyOp42
 70
     1
102
RTVSPropertyOp43
 70
     1
102
RTVSPropertyOp44
 70
     1
102
RTVSPropertyOp45
 70
     1
102
RTVSPropertyOp46
 70
     1
102
RTVSPropertyOp47
 70
     1
102
RTVSPropertyOp48
 70
     1
102
RTVSPropertyOp49
 70
     1
102
RTVSPropertyOp50
 70
     1
102
RTVSPropertyOp51
 70
     0
102
RTVSPropertyOp52
 70
     0
102
RTVSPropertyOp53
 70
     1
102
RTVSPropertyOp54
 70
     1
102
RTVSPropertyOp55
 70
     1
102
RTVSPropertyOp56
 70
     1
102
RTVSPropertyOp57
 70
     1
102
RTVSPropertyOp58
 70
     1
102
RTVSPropertyOp59
 70
     1
102
RTVSPropertyOp60
 70
     1
102
RTVSPropertyOp61
 70
     1
102
RTVSPropertyOp62
 70
     1
  0
XRECORD
  5
7D6
102
{ACAD_REACTORS
330
7D5
102
}
330
7D5
100
AcDbXrecord
280
     1
102
RTVSPost2010Prop28
280
     0
102
RTVSPost2010PropOp28
 70
     1
102
RTVSPost2010Prop29
280
     1
102
RTVSPost2010PropOp29
 70
     1
102
RTVSPost2010Prop30
280
     1
102
RTVSPost2010PropOp30
 70
     1
102
RTVSPost2010Prop31
280
     0
102
RTVSPost2010PropOp31
 70
     1
102
RTVSPost2010Prop32
280
     0
102
RTVSPost2010PropOp32
 70
     1
102
RTVSPost2010Prop33
280
     0
102
RTVSPost2010PropOp33
 70
     1
102
RTVSPost2010Prop34
280
     0
102
RTVSPost2010PropOp34
 70
     1
102
RTVSPost2010Prop35
280
     0
102
RTVSPost2010PropOp35
 70
     1
102
RTVSPost2010Prop36
280
     0
102
RTVSPost2010PropOp36
 70
     1
102
RTVSPost2010Prop37
 90
       50
102
RTVSPost2010PropOp37
 70
     1
102
RTVSPost2010Prop38
140
0.0
102
RTVSPost2010PropOp38
 70
     1
102
RTVSPost2010Prop39
140
1.0
102
RTVSPost2010PropOp39
 70
     1
102
RTVSPost2010Prop40
 90
        0
102
RTVSPost2010PropOp40
 70
     1
102
RTVSPost2010Prop41ColorIndex
 90
       18
102
RTVSPost2010Prop41ColorRGB
 90
        0
102
RTVSPost2010PropOp41
 70
     1
102
RTVSPost2010Prop42
 90
       50
102
RTVSPost2010PropOp42
 70
     1
102
RTVSPost2010Prop43
 90
        3
102
RTVSPost2010PropOp43
 70
     1
102
RTVSPost2010Prop44ColorIndex
 90
        5
102
RTVSPost2010Prop44ColorRGB
 90
      255
102
RTVSPost2010PropOp44
 70
     1
102
RTVSPost2010Prop45
280
     0
102
RTVSPost2010PropOp45
 70
     1
102
RTVSPost2010Prop46
 90
       50
102
RTVSPost2010PropOp46
 70
     1
102
RTVSPost2010Prop47
 90
       50
102
RTVSPost2010PropOp47
 70
     1
102
RTVSPost2010Prop48
 90
       50
102
RTVSPost2010PropOp48
 70
     1
102
RTVSPost2010Prop49
280
     0
102
RTVSPost2010PropOp49
 70
     1
102
RTVSPost2010Prop50
 90
       50
102
RTVSPost2010PropOp50
 70
     1
102
RTVSPost2010Prop51ColorIndex
 90
      256
102
RTVSPost2010Prop51ColorRGB
 90
-16777216
102
RTVSPost2010PropOp51
 70
     0
102
RTVSPost2010Prop52
140
1.0
102
RTVSPost2010PropOp52
 70
     0
102
RTVSPost2010Prop53
 90
        2
102
RTVSPost2010PropOp53
 70
     1
102
RTVSPost2010Prop54
  1
strokes_ogs.tif
102
RTVSPost2010PropOp54
 70
     1
102
RTVSPost2010Prop55
280
     0
102
RTVSPost2010PropOp55
 70
     1
102
RTVSPost2010Prop56
140
1.0
102
RTVSPost2010PropOp56
 70
     1
102
RTVSPost2010Prop57
140
1.0
102
RTVSPost2010PropOp57
 70
     1
102
RTVSPropertyOp0
 70
     1
102
RTVSPropertyOp1
 70
     1
102
RTVSPropertyOp2
 70
     1
102
RTVSPropertyOp3
 70
     1
102
RTVSPropertyOp4
 70
     1
102
RTVSPropertyOp5
 70
     1
102
RTVSPropertyOp6
 70
     1
102
RTVSPropertyOp7
 70
     1
102
RTVSPropertyOp8
 70
     1
102
RTVSPropertyOp9
 70
     1
102
RTVSPropertyOp10
 70
     1
102
RTVSPropertyOp11
 70
     1
102
RTVSPropertyOp12
 70
     1
102
RTVSPropertyOp13
 70
     1
102
RTVSPropertyOp14
 70
     1
102
RTVSPropertyOp15
 70
     1
102
RTVSPropertyOp16
 70
     1
102
RTVSPropertyOp17
 70
     1
102
RTVSPropertyOp18
 70
     1
102
RTVSPropertyOp19
 70
     1
102
RTVSPropertyOp20
 70
     1
102
RTVSPropertyOp21
 70
     1
102
RTVSPropertyOp22
 70
     1
102
RTVSPropertyOp23
 70
     1
102
RTVSPropertyOp24
 70
     1
102
RTVSPropertyOp25
 70
     1
102
RTVSPropertyOp26
 70
     1
102
RTVSPropertyOp27
 70
     1
102
RTVSPropertyOp28
 70
     1
102
RTVSPropertyOp29
 70
     1
102
RTVSPropertyOp30
 70
     1
102
RTVSPropertyOp31
 70
     1
102
RTVSPropertyOp32
 70
     1
102
RTVSPropertyOp33
 70
     1
102
RTVSPropertyOp34
 70
     1
102
RTVSPropertyOp35
 70
     1
102
RTVSPropertyOp36
 70
     1
102
RTVSPropertyOp37
 70
     1
102
RTVSPropertyOp38
 70
     1
102
RTVSPropertyOp39
 70
     1
102
RTVSPropertyOp40
 70
     1
102
RTVSPropertyOp41
 70
     1
102
RTVSPropertyOp42
 70
     1
102
RTVSPropertyOp43
 70
     1
102
RTVSPropertyOp44
 70
     1
102
RTVSPropertyOp45
 70
     1
102
RTVSPropertyOp46
 70
     1
102
RTVSPropertyOp47
 70
     1
102
RTVSPropertyOp48
 70
     1
102
RTVSPropertyOp49
 70
     1
102
RTVSPropertyOp50
 70
     1
102
RTVSPropertyOp51
 70
     0
102
RTVSPropertyOp52
 70
     0
102
RTVSPropertyOp53
 70
     1
102
RTVSPropertyOp54
 70
     1
102
RTVSPropertyOp55
 70
     1
102
RTVSPropertyOp56
 70
     1
102
RTVSPropertyOp57
 70
     1
102
RTVSPropertyOp58
 70
     1
102
RTVSPropertyOp59
 70
     1
102
RTVSPropertyOp60
 70
     1
102
RTVSPropertyOp61
 70
     1
102
RTVSPropertyOp62
 70
     1
  0
XRECORD
  5
7E4
102
{ACAD_REACTORS
330
7E3
102
}
330
7E3
100
AcDbXrecord
280
     1
102
RTVSPost2010Prop28
280
     0
102
RTVSPost2010PropOp28
 70
     1
102
RTVSPost2010Prop29
280
     1
102
RTVSPost2010PropOp29
 70
     1
102
RTVSPost2010Prop30
280
     1
102
RTVSPost2010PropOp30
 70
     1
102
RTVSPost2010Prop31
280
     0
102
RTVSPost2010PropOp31
 70
     1
102
RTVSPost2010Prop32
280
     0
102
RTVSPost2010PropOp32
 70
     1
102
RTVSPost2010Prop33
280
     0
102
RTVSPost2010PropOp33
 70
     1
102
RTVSPost2010Prop34
280
     0
102
RTVSPost2010PropOp34
 70
     1
102
RTVSPost2010Prop35
280
     0
102
RTVSPost2010PropOp35
 70
     1
102
RTVSPost2010Prop36
280
     0
102
RTVSPost2010PropOp36
 70
     1
102
RTVSPost2010Prop37
 90
       50
102
RTVSPost2010PropOp37
 70
     1
102
RTVSPost2010Prop38
140
0.0
102
RTVSPost2010PropOp38
 70
     1
102
RTVSPost2010Prop39
140
1.0
102
RTVSPost2010PropOp39
 70
     1
102
RTVSPost2010Prop40
 90
        0
102
RTVSPost2010PropOp40
 70
     1
102
RTVSPost2010Prop41ColorIndex
 90
       18
102
RTVSPost2010Prop41ColorRGB
 90
        0
102
RTVSPost2010PropOp41
 70
     1
102
RTVSPost2010Prop42
 90
       50
102
RTVSPost2010PropOp42
 70
     1
102
RTVSPost2010Prop43
 90
        3
102
RTVSPost2010PropOp43
 70
     1
102
RTVSPost2010Prop44ColorIndex
 90
        5
102
RTVSPost2010Prop44ColorRGB
 90
      255
102
RTVSPost2010PropOp44
 70
     1
102
RTVSPost2010Prop45
280
     0
102
RTVSPost2010PropOp45
 70
     1
102
RTVSPost2010Prop46
 90
       50
102
RTVSPost2010PropOp46
 70
     1
102
RTVSPost2010Prop47
 90
       50
102
RTVSPost2010PropOp47
 70
     1
102
RTVSPost2010Prop48
 90
       50
102
RTVSPost2010PropOp48
 70
     1
102
RTVSPost2010Prop49
280
     0
102
RTVSPost2010PropOp49
 70
     1
102
RTVSPost2010Prop50
 90
       50
102
RTVSPost2010PropOp50
 70
     1
102
RTVSPost2010Prop51ColorIndex
 90
      256
102
RTVSPost2010Prop51ColorRGB
 90
-16777216
102
RTVSPost2010PropOp51
 70
     0
102
RTVSPost2010Prop52
140
1.0
102
RTVSPost2010PropOp52
 70
     0
102
RTVSPost2010Prop53
 90
        2
102
RTVSPost2010PropOp53
 70
     1
102
RTVSPost2010Prop54
  1
strokes_ogs.tif
102
RTVSPost2010PropOp54
 70
     1
102
RTVSPost2010Prop55
280
     0
102
RTVSPost2010PropOp55
 70
     1
102
RTVSPost2010Prop56
140
1.0
102
RTVSPost2010PropOp56
 70
     1
102
RTVSPost2010Prop57
140
1.0
102
RTVSPost2010PropOp57
 70
     1
102
RTVSPropertyOp0
 70
     1
102
RTVSPropertyOp1
 70
     1
102
RTVSPropertyOp2
 70
     1
102
RTVSPropertyOp3
 70
     1
102
RTVSPropertyOp4
 70
     1
102
RTVSPropertyOp5
 70
     1
102
RTVSPropertyOp6
 70
     1
102
RTVSPropertyOp7
 70
     1
102
RTVSPropertyOp8
 70
     1
102
RTVSPropertyOp9
 70
     1
102
RTVSPropertyOp10
 70
     1
102
RTVSPropertyOp11
 70
     1
102
RTVSPropertyOp12
 70
     1
102
RTVSPropertyOp13
 70
     1
102
RTVSPropertyOp14
 70
     1
102
RTVSPropertyOp15
 70
     1
102
RTVSPropertyOp16
 70
     1
102
RTVSPropertyOp17
 70
     1
102
RTVSPropertyOp18
 70
     1
102
RTVSPropertyOp19
 70
     1
102
RTVSPropertyOp20
 70
     1
102
RTVSPropertyOp21
 70
     1
102
RTVSPropertyOp22
 70
     1
102
RTVSPropertyOp23
 70
     1
102
RTVSPropertyOp24
 70
     1
102
RTVSPropertyOp25
 70
     1
102
RTVSPropertyOp26
 70
     1
102
RTVSPropertyOp27
 70
     1
102
RTVSPropertyOp28
 70
     1
102
RTVSPropertyOp29
 70
     1
102
RTVSPropertyOp30
 70
     1
102
RTVSPropertyOp31
 70
     1
102
RTVSPropertyOp32
 70
     1
102
RTVSPropertyOp33
 70
     1
102
RTVSPropertyOp34
 70
     1
102
RTVSPropertyOp35
 70
     1
102
RTVSPropertyOp36
 70
     1
102
RTVSPropertyOp37
 70
     1
102
RTVSPropertyOp38
 70
     1
102
RTVSPropertyOp39
 70
     1
102
RTVSPropertyOp40
 70
     1
102
RTVSPropertyOp41
 70
     1
102
RTVSPropertyOp42
 70
     1
102
RTVSPropertyOp43
 70
     1
102
RTVSPropertyOp44
 70
     1
102
RTVSPropertyOp45
 70
     1
102
RTVSPropertyOp46
 70
     1
102
RTVSPropertyOp47
 70
     1
102
RTVSPropertyOp48
 70
     1
102
RTVSPropertyOp49
 70
     1
102
RTVSPropertyOp50
 70
     1
102
RTVSPropertyOp51
 70
     0
102
RTVSPropertyOp52
 70
     0
102
RTVSPropertyOp53
 70
     1
102
RTVSPropertyOp54
 70
     1
102
RTVSPropertyOp55
 70
     1
102
RTVSPropertyOp56
 70
     1
102
RTVSPropertyOp57
 70
     1
102
RTVSPropertyOp58
 70
     1
102
RTVSPropertyOp59
 70
     1
102
RTVSPropertyOp60
 70
     1
102
RTVSPropertyOp61
 70
     1
102
RTVSPropertyOp62
 70
     1
  0
XRECORD
  5
7EC
102
{ACAD_REACTORS
330
7EB
102
}
330
7EB
100
AcDbXrecord
280
     1
102
RTVSPost2010Prop28
280
     0
102
RTVSPost2010PropOp28
 70
     1
102
RTVSPost2010Prop29
280
     1
102
RTVSPost2010PropOp29
 70
     1
102
RTVSPost2010Prop30
280
     1
102
RTVSPost2010PropOp30
 70
     1
102
RTVSPost2010Prop31
280
     0
102
RTVSPost2010PropOp31
 70
     1
102
RTVSPost2010Prop32
280
     0
102
RTVSPost2010PropOp32
 70
     1
102
RTVSPost2010Prop33
280
     0
102
RTVSPost2010PropOp33
 70
     1
102
RTVSPost2010Prop34
280
     0
102
RTVSPost2010PropOp34
 70
     1
102
RTVSPost2010Prop35
280
     0
102
RTVSPost2010PropOp35
 70
     1
102
RTVSPost2010Prop36
280
     0
102
RTVSPost2010PropOp36
 70
     1
102
RTVSPost2010Prop37
 90
       50
102
RTVSPost2010PropOp37
 70
     1
102
RTVSPost2010Prop38
140
0.0
102
RTVSPost2010PropOp38
 70
     1
102
RTVSPost2010Prop39
140
1.0
102
RTVSPost2010PropOp39
 70
     1
102
RTVSPost2010Prop40
 90
        0
102
RTVSPost2010PropOp40
 70
     1
102
RTVSPost2010Prop41ColorIndex
 90
       18
102
RTVSPost2010Prop41ColorRGB
 90
        0
102
RTVSPost2010PropOp41
 70
     1
102
RTVSPost2010Prop42
 90
       50
102
RTVSPost2010PropOp42
 70
     1
102
RTVSPost2010Prop43
 90
        3
102
RTVSPost2010PropOp43
 70
     1
102
RTVSPost2010Prop44ColorIndex
 90
        5
102
RTVSPost2010Prop44ColorRGB
 90
      255
102
RTVSPost2010PropOp44
 70
     1
102
RTVSPost2010Prop45
280
     0
102
RTVSPost2010PropOp45
 70
     1
102
RTVSPost2010Prop46
 90
       50
102
RTVSPost2010PropOp46
 70
     1
102
RTVSPost2010Prop47
 90
       50
102
RTVSPost2010PropOp47
 70
     1
102
RTVSPost2010Prop48
 90
       50
102
RTVSPost2010PropOp48
 70
     1
102
RTVSPost2010Prop49
280
     0
102
RTVSPost2010PropOp49
 70
     1
102
RTVSPost2010Prop50
 90
       50
102
RTVSPost2010PropOp50
 70
     1
102
RTVSPost2010Prop51ColorIndex
 90
      256
102
RTVSPost2010Prop51ColorRGB
 90
-16777216
102
RTVSPost2010PropOp51
 70
     0
102
RTVSPost2010Prop52
140
1.0
102
RTVSPost2010PropOp52
 70
     0
102
RTVSPost2010Prop53
 90
        2
102
RTVSPost2010PropOp53
 70
     1
102
RTVSPost2010Prop54
  1
strokes_ogs.tif
102
RTVSPost2010PropOp54
 70
     1
102
RTVSPost2010Prop55
280
     0
102
RTVSPost2010PropOp55
 70
     1
102
RTVSPost2010Prop56
140
1.0
102
RTVSPost2010PropOp56
 70
     1
102
RTVSPost2010Prop57
140
1.0
102
RTVSPost2010PropOp57
 70
     1
102
RTVSPropertyOp0
 70
     1
102
RTVSPropertyOp1
 70
     1
102
RTVSPropertyOp2
 70
     1
102
RTVSPropertyOp3
 70
     1
102
RTVSPropertyOp4
 70
     1
102
RTVSPropertyOp5
 70
     1
102
RTVSPropertyOp6
 70
     1
102
RTVSPropertyOp7
 70
     1
102
RTVSPropertyOp8
 70
     1
102
RTVSPropertyOp9
 70
     1
102
RTVSPropertyOp10
 70
     1
102
RTVSPropertyOp11
 70
     1
102
RTVSPropertyOp12
 70
     1
102
RTVSPropertyOp13
 70
     1
102
RTVSPropertyOp14
 70
     1
102
RTVSPropertyOp15
 70
     1
102
RTVSPropertyOp16
 70
     1
102
RTVSPropertyOp17
 70
     1
102
RTVSPropertyOp18
 70
     1
102
RTVSPropertyOp19
 70
     1
102
RTVSPropertyOp20
 70
     1
102
RTVSPropertyOp21
 70
     1
102
RTVSPropertyOp22
 70
     1
102
RTVSPropertyOp23
 70
     1
102
RTVSPropertyOp24
 70
     1
102
RTVSPropertyOp25
 70
     1
102
RTVSPropertyOp26
 70
     1
102
RTVSPropertyOp27
 70
     1
102
RTVSPropertyOp28
 70
     1
102
RTVSPropertyOp29
 70
     1
102
RTVSPropertyOp30
 70
     1
102
RTVSPropertyOp31
 70
     1
102
RTVSPropertyOp32
 70
     1
102
RTVSPropertyOp33
 70
     1
102
RTVSPropertyOp34
 70
     1
102
RTVSPropertyOp35
 70
     1
102
RTVSPropertyOp36
 70
     1
102
RTVSPropertyOp37
 70
     1
102
RTVSPropertyOp38
 70
     1
102
RTVSPropertyOp39
 70
     1
102
RTVSPropertyOp40
 70
     1
102
RTVSPropertyOp41
 70
     1
102
RTVSPropertyOp42
 70
     1
102
RTVSPropertyOp43
 70
     1
102
RTVSPropertyOp44
 70
     1
102
RTVSPropertyOp45
 70
     1
102
RTVSPropertyOp46
 70
     1
102
RTVSPropertyOp47
 70
     1
102
RTVSPropertyOp48
 70
     1
102
RTVSPropertyOp49
 70
     1
102
RTVSPropertyOp50
 70
     1
102
RTVSPropertyOp51
 70
     0
102
RTVSPropertyOp52
 70
     0
102
RTVSPropertyOp53
 70
     1
102
RTVSPropertyOp54
 70
     1
102
RTVSPropertyOp55
 70
     1
102
RTVSPropertyOp56
 70
     1
102
RTVSPropertyOp57
 70
     1
102
RTVSPropertyOp58
 70
     1
102
RTVSPropertyOp59
 70
     1
102
RTVSPropertyOp60
 70
     1
102
RTVSPropertyOp61
 70
     1
102
RTVSPropertyOp62
 70
     1
  0
XRECORD
  5
7DE
102
{ACAD_REACTORS
330
7DD
102
}
330
7DD
100
AcDbXrecord
280
     1
102
RTVSPost2010Prop28
280
     0
102
RTVSPost2010PropOp28
 70
     1
102
RTVSPost2010Prop29
280
     1
102
RTVSPost2010PropOp29
 70
     1
102
RTVSPost2010Prop30
280
     1
102
RTVSPost2010PropOp30
 70
     1
102
RTVSPost2010Prop31
280
     0
102
RTVSPost2010PropOp31
 70
     1
102
RTVSPost2010Prop32
280
     0
102
RTVSPost2010PropOp32
 70
     1
102
RTVSPost2010Prop33
280
     0
102
RTVSPost2010PropOp33
 70
     1
102
RTVSPost2010Prop34
280
     0
102
RTVSPost2010PropOp34
 70
     1
102
RTVSPost2010Prop35
280
     0
102
RTVSPost2010PropOp35
 70
     1
102
RTVSPost2010Prop36
280
     0
102
RTVSPost2010PropOp36
 70
     1
102
RTVSPost2010Prop37
 90
       50
102
RTVSPost2010PropOp37
 70
     1
102
RTVSPost2010Prop38
140
0.0
102
RTVSPost2010PropOp38
 70
     1
102
RTVSPost2010Prop39
140
1.0
102
RTVSPost2010PropOp39
 70
     1
102
RTVSPost2010Prop40
 90
        0
102
RTVSPost2010PropOp40
 70
     1
102
RTVSPost2010Prop41ColorIndex
 90
       18
102
RTVSPost2010Prop41ColorRGB
 90
        0
102
RTVSPost2010PropOp41
 70
     1
102
RTVSPost2010Prop42
 90
       50
102
RTVSPost2010PropOp42
 70
     1
102
RTVSPost2010Prop43
 90
        3
102
RTVSPost2010PropOp43
 70
     1
102
RTVSPost2010Prop44ColorIndex
 90
        5
102
RTVSPost2010Prop44ColorRGB
 90
      255
102
RTVSPost2010PropOp44
 70
     1
102
RTVSPost2010Prop45
280
     0
102
RTVSPost2010PropOp45
 70
     1
102
RTVSPost2010Prop46
 90
       50
102
RTVSPost2010PropOp46
 70
     1
102
RTVSPost2010Prop47
 90
       50
102
RTVSPost2010PropOp47
 70
     1
102
RTVSPost2010Prop48
 90
       50
102
RTVSPost2010PropOp48
 70
     1
102
RTVSPost2010Prop49
280
     0
102
RTVSPost2010PropOp49
 70
     1
102
RTVSPost2010Prop50
 90
       50
102
RTVSPost2010PropOp50
 70
     1
102
RTVSPost2010Prop51ColorIndex
 90
      256
102
RTVSPost2010Prop51ColorRGB
 90
-16777216
102
RTVSPost2010PropOp51
 70
     0
102
RTVSPost2010Prop52
140
1.0
102
RTVSPost2010PropOp52
 70
     0
102
RTVSPost2010Prop53
 90
        2
102
RTVSPost2010PropOp53
 70
     1
102
RTVSPost2010Prop54
  1
strokes_ogs.tif
102
RTVSPost2010PropOp54
 70
     1
102
RTVSPost2010Prop55
280
     0
102
RTVSPost2010PropOp55
 70
     1
102
RTVSPost2010Prop56
140
1.0
102
RTVSPost2010PropOp56
 70
     1
102
RTVSPost2010Prop57
140
1.0
102
RTVSPost2010PropOp57
 70
     1
102
RTVSPropertyOp0
 70
     1
102
RTVSPropertyOp1
 70
     1
102
RTVSPropertyOp2
 70
     1
102
RTVSPropertyOp3
 70
     1
102
RTVSPropertyOp4
 70
     1
102
RTVSPropertyOp5
 70
     1
102
RTVSPropertyOp6
 70
     1
102
RTVSPropertyOp7
 70
     1
102
RTVSPropertyOp8
 70
     1
102
RTVSPropertyOp9
 70
     1
102
RTVSPropertyOp10
 70
     1
102
RTVSPropertyOp11
 70
     1
102
RTVSPropertyOp12
 70
     1
102
RTVSPropertyOp13
 70
     1
102
RTVSPropertyOp14
 70
     1
102
RTVSPropertyOp15
 70
     1
102
RTVSPropertyOp16
 70
     1
102
RTVSPropertyOp17
 70
     1
102
RTVSPropertyOp18
 70
     1
102
RTVSPropertyOp19
 70
     1
102
RTVSPropertyOp20
 70
     1
102
RTVSPropertyOp21
 70
     1
102
RTVSPropertyOp22
 70
     1
102
RTVSPropertyOp23
 70
     1
102
RTVSPropertyOp24
 70
     1
102
RTVSPropertyOp25
 70
     1
102
RTVSPropertyOp26
 70
     1
102
RTVSPropertyOp27
 70
     1
102
RTVSPropertyOp28
 70
     1
102
RTVSPropertyOp29
 70
     1
102
RTVSPropertyOp30
 70
     1
102
RTVSPropertyOp31
 70
     1
102
RTVSPropertyOp32
 70
     1
102
RTVSPropertyOp33
 70
     1
102
RTVSPropertyOp34
 70
     1
102
RTVSPropertyOp35
 70
     1
102
RTVSPropertyOp36
 70
     1
102
RTVSPropertyOp37
 70
     1
102
RTVSPropertyOp38
 70
     1
102
RTVSPropertyOp39
 70
     1
102
RTVSPropertyOp40
 70
     1
102
RTVSPropertyOp41
 70
     1
102
RTVSPropertyOp42
 70
     1
102
RTVSPropertyOp43
 70
     1
102
RTVSPropertyOp44
 70
     1
102
RTVSPropertyOp45
 70
     1
102
RTVSPropertyOp46
 70
     1
102
RTVSPropertyOp47
 70
     1
102
RTVSPropertyOp48
 70
     1
102
RTVSPropertyOp49
 70
     1
102
RTVSPropertyOp50
 70
     1
102
RTVSPropertyOp51
 70
     0
102
RTVSPropertyOp52
 70
     0
102
RTVSPropertyOp53
 70
     1
102
RTVSPropertyOp54
 70
     1
102
RTVSPropertyOp55
 70
     1
102
RTVSPropertyOp56
 70
     1
102
RTVSPropertyOp57
 70
     1
102
RTVSPropertyOp58
 70
     1
102
RTVSPropertyOp59
 70
     1
102
RTVSPropertyOp60
 70
     1
102
RTVSPropertyOp61
 70
     1
102
RTVSPropertyOp62
 70
     1
  0
XRECORD
  5
7E2
102
{ACAD_REACTORS
330
7E1
102
}
330
7E1
100
AcDbXrecord
280
     1
102
RTVSPost2010Prop28
280
     0
102
RTVSPost2010PropOp28
 70
     1
102
RTVSPost2010Prop29
280
     1
102
RTVSPost2010PropOp29
 70
     1
102
RTVSPost2010Prop30
280
     1
102
RTVSPost2010PropOp30
 70
     1
102
RTVSPost2010Prop31
280
     0
102
RTVSPost2010PropOp31
 70
     1
102
RTVSPost2010Prop32
280
     0
102
RTVSPost2010PropOp32
 70
     1
102
RTVSPost2010Prop33
280
     0
102
RTVSPost2010PropOp33
 70
     1
102
RTVSPost2010Prop34
280
     0
102
RTVSPost2010PropOp34
 70
     1
102
RTVSPost2010Prop35
280
     0
102
RTVSPost2010PropOp35
 70
     1
102
RTVSPost2010Prop36
280
     0
102
RTVSPost2010PropOp36
 70
     1
102
RTVSPost2010Prop37
 90
       50
102
RTVSPost2010PropOp37
 70
     1
102
RTVSPost2010Prop38
140
0.0
102
RTVSPost2010PropOp38
 70
     1
102
RTVSPost2010Prop39
140
1.0
102
RTVSPost2010PropOp39
 70
     1
102
RTVSPost2010Prop40
 90
        0
102
RTVSPost2010PropOp40
 70
     1
102
RTVSPost2010Prop41ColorIndex
 90
       18
102
RTVSPost2010Prop41ColorRGB
 90
        0
102
RTVSPost2010PropOp41
 70
     1
102
RTVSPost2010Prop42
 90
       50
102
RTVSPost2010PropOp42
 70
     1
102
RTVSPost2010Prop43
 90
        3
102
RTVSPost2010PropOp43
 70
     1
102
RTVSPost2010Prop44ColorIndex
 90
        5
102
RTVSPost2010Prop44ColorRGB
 90
      255
102
RTVSPost2010PropOp44
 70
     1
102
RTVSPost2010Prop45
280
     0
102
RTVSPost2010PropOp45
 70
     1
102
RTVSPost2010Prop46
 90
       50
102
RTVSPost2010PropOp46
 70
     1
102
RTVSPost2010Prop47
 90
       50
102
RTVSPost2010PropOp47
 70
     1
102
RTVSPost2010Prop48
 90
       50
102
RTVSPost2010PropOp48
 70
     1
102
RTVSPost2010Prop49
280
     0
102
RTVSPost2010PropOp49
 70
     1
102
RTVSPost2010Prop50
 90
       50
102
RTVSPost2010PropOp50
 70
     1
102
RTVSPost2010Prop51ColorIndex
 90
      256
102
RTVSPost2010Prop51ColorRGB
 90
-16777216
102
RTVSPost2010PropOp51
 70
     0
102
RTVSPost2010Prop52
140
1.0
102
RTVSPost2010PropOp52
 70
     0
102
RTVSPost2010Prop53
 90
        2
102
RTVSPost2010PropOp53
 70
     1
102
RTVSPost2010Prop54
  1
strokes_ogs.tif
102
RTVSPost2010PropOp54
 70
     1
102
RTVSPost2010Prop55
280
     0
102
RTVSPost2010PropOp55
 70
     1
102
RTVSPost2010Prop56
140
1.0
102
RTVSPost2010PropOp56
 70
     1
102
RTVSPost2010Prop57
140
1.0
102
RTVSPost2010PropOp57
 70
     1
102
RTVSPropertyOp0
 70
     1
102
RTVSPropertyOp1
 70
     1
102
RTVSPropertyOp2
 70
     1
102
RTVSPropertyOp3
 70
     1
102
RTVSPropertyOp4
 70
     1
102
RTVSPropertyOp5
 70
     1
102
RTVSPropertyOp6
 70
     1
102
RTVSPropertyOp7
 70
     1
102
RTVSPropertyOp8
 70
     1
102
RTVSPropertyOp9
 70
     1
102
RTVSPropertyOp10
 70
     1
102
RTVSPropertyOp11
 70
     1
102
RTVSPropertyOp12
 70
     1
102
RTVSPropertyOp13
 70
     1
102
RTVSPropertyOp14
 70
     1
102
RTVSPropertyOp15
 70
     1
102
RTVSPropertyOp16
 70
     1
102
RTVSPropertyOp17
 70
     1
102
RTVSPropertyOp18
 70
     1
102
RTVSPropertyOp19
 70
     1
102
RTVSPropertyOp20
 70
     1
102
RTVSPropertyOp21
 70
     1
102
RTVSPropertyOp22
 70
     1
102
RTVSPropertyOp23
 70
     1
102
RTVSPropertyOp24
 70
     1
102
RTVSPropertyOp25
 70
     1
102
RTVSPropertyOp26
 70
     1
102
RTVSPropertyOp27
 70
     1
102
RTVSPropertyOp28
 70
     1
102
RTVSPropertyOp29
 70
     1
102
RTVSPropertyOp30
 70
     1
102
RTVSPropertyOp31
 70
     1
102
RTVSPropertyOp32
 70
     1
102
RTVSPropertyOp33
 70
     1
102
RTVSPropertyOp34
 70
     1
102
RTVSPropertyOp35
 70
     1
102
RTVSPropertyOp36
 70
     1
102
RTVSPropertyOp37
 70
     1
102
RTVSPropertyOp38
 70
     1
102
RTVSPropertyOp39
 70
     1
102
RTVSPropertyOp40
 70
     1
102
RTVSPropertyOp41
 70
     1
102
RTVSPropertyOp42
 70
     1
102
RTVSPropertyOp43
 70
     1
102
RTVSPropertyOp44
 70
     1
102
RTVSPropertyOp45
 70
     1
102
RTVSPropertyOp46
 70
     1
102
RTVSPropertyOp47
 70
     1
102
RTVSPropertyOp48
 70
     1
102
RTVSPropertyOp49
 70
     1
102
RTVSPropertyOp50
 70
     1
102
RTVSPropertyOp51
 70
     0
102
RTVSPropertyOp52
 70
     0
102
RTVSPropertyOp53
 70
     1
102
RTVSPropertyOp54
 70
     1
102
RTVSPropertyOp55
 70
     1
102
RTVSPropertyOp56
 70
     1
102
RTVSPropertyOp57
 70
     1
102
RTVSPropertyOp58
 70
     1
102
RTVSPropertyOp59
 70
     1
102
RTVSPropertyOp60
 70
     1
102
RTVSPropertyOp61
 70
     1
102
RTVSPropertyOp62
 70
     1
  0
XRECORD
  5
7F2
102
{ACAD_REACTORS
330
7F1
102
}
330
7F1
100
AcDbXrecord
280
     1
102
RTVSPost2010Prop28
280
     0
102
RTVSPost2010PropOp28
 70
     1
102
RTVSPost2010Prop29
280
     1
102
RTVSPost2010PropOp29
 70
     1
102
RTVSPost2010Prop30
280
     1
102
RTVSPost2010PropOp30
 70
     1
102
RTVSPost2010Prop31
280
     0
102
RTVSPost2010PropOp31
 70
     1
102
RTVSPost2010Prop32
280
     0
102
RTVSPost2010PropOp32
 70
     1
102
RTVSPost2010Prop33
280
     0
102
RTVSPost2010PropOp33
 70
     1
102
RTVSPost2010Prop34
280
     0
102
RTVSPost2010PropOp34
 70
     1
102
RTVSPost2010Prop35
280
     0
102
RTVSPost2010PropOp35
 70
     1
102
RTVSPost2010Prop36
280
     0
102
RTVSPost2010PropOp36
 70
     1
102
RTVSPost2010Prop37
 90
       50
102
RTVSPost2010PropOp37
 70
     1
102
RTVSPost2010Prop38
140
0.0
102
RTVSPost2010PropOp38
 70
     1
102
RTVSPost2010Prop39
140
1.0
102
RTVSPost2010PropOp39
 70
     1
102
RTVSPost2010Prop40
 90
        0
102
RTVSPost2010PropOp40
 70
     1
102
RTVSPost2010Prop41ColorIndex
 90
       18
102
RTVSPost2010Prop41ColorRGB
 90
        0
102
RTVSPost2010PropOp41
 70
     1
102
RTVSPost2010Prop42
 90
       50
102
RTVSPost2010PropOp42
 70
     1
102
RTVSPost2010Prop43
 90
        3
102
RTVSPost2010PropOp43
 70
     1
102
RTVSPost2010Prop44ColorIndex
 90
        5
102
RTVSPost2010Prop44ColorRGB
 90
      255
102
RTVSPost2010PropOp44
 70
     1
102
RTVSPost2010Prop45
280
     0
102
RTVSPost2010PropOp45
 70
     1
102
RTVSPost2010Prop46
 90
       50
102
RTVSPost2010PropOp46
 70
     1
102
RTVSPost2010Prop47
 90
       50
102
RTVSPost2010PropOp47
 70
     1
102
RTVSPost2010Prop48
 90
       50
102
RTVSPost2010PropOp48
 70
     1
102
RTVSPost2010Prop49
280
     0
102
RTVSPost2010PropOp49
 70
     1
102
RTVSPost2010Prop50
 90
       50
102
RTVSPost2010PropOp50
 70
     1
102
RTVSPost2010Prop51ColorIndex
 90
      256
102
RTVSPost2010Prop51ColorRGB
 90
-16777216
102
RTVSPost2010PropOp51
 70
     0
102
RTVSPost2010Prop52
140
1.0
102
RTVSPost2010PropOp52
 70
     0
102
RTVSPost2010Prop53
 90
        2
102
RTVSPost2010PropOp53
 70
     1
102
RTVSPost2010Prop54
  1
strokes_ogs.tif
102
RTVSPost2010PropOp54
 70
     1
102
RTVSPost2010Prop55
280
     0
102
RTVSPost2010PropOp55
 70
     1
102
RTVSPost2010Prop56
140
1.0
102
RTVSPost2010PropOp56
 70
     1
102
RTVSPost2010Prop57
140
1.0
102
RTVSPost2010PropOp57
 70
     1
102
RTVSPropertyOp0
 70
     0
102
RTVSPropertyOp1
 70
     0
102
RTVSPropertyOp2
 70
     0
102
RTVSPropertyOp3
 70
     0
102
RTVSPropertyOp4
 70
     0
102
RTVSPropertyOp5
 70
     0
102
RTVSPropertyOp6
 70
     0
102
RTVSPropertyOp7
 70
     0
102
RTVSPropertyOp8
 70
     0
102
RTVSPropertyOp9
 70
     0
102
RTVSPropertyOp10
 70
     0
102
RTVSPropertyOp11
 70
     0
102
RTVSPropertyOp12
 70
     0
102
RTVSPropertyOp13
 70
     0
102
RTVSPropertyOp14
 70
     2
102
RTVSPropertyOp15
 70
     0
102
RTVSPropertyOp16
 70
     0
102
RTVSPropertyOp17
 70
     0
102
RTVSPropertyOp18
 70
     0
102
RTVSPropertyOp19
 70
     0
102
RTVSPropertyOp20
 70
     0
102
RTVSPropertyOp21
 70
     0
102
RTVSPropertyOp22
 70
     0
102
RTVSPropertyOp23
 70
     0
102
RTVSPropertyOp24
 70
     0
102
RTVSPropertyOp25
 70
     0
102
RTVSPropertyOp26
 70
     0
102
RTVSPropertyOp27
 70
     0
102
RTVSPropertyOp28
 70
     1
102
RTVSPropertyOp29
 70
     1
102
RTVSPropertyOp30
 70
     1
102
RTVSPropertyOp31
 70
     1
102
RTVSPropertyOp32
 70
     1
102
RTVSPropertyOp33
 70
     1
102
RTVSPropertyOp34
 70
     1
102
RTVSPropertyOp35
 70
     1
102
RTVSPropertyOp36
 70
     1
102
RTVSPropertyOp37
 70
     1
102
RTVSPropertyOp38
 70
     1
102
RTVSPropertyOp39
 70
     1
102
RTVSPropertyOp40
 70
     1
102
RTVSPropertyOp41
 70
     1
102
RTVSPropertyOp42
 70
     1
102
RTVSPropertyOp43
 70
     1
102
RTVSPropertyOp44
 70
     1
102
RTVSPropertyOp45
 70
     1
102
RTVSPropertyOp46
 70
     1
102
RTVSPropertyOp47
 70
     1
102
RTVSPropertyOp48
 70
     1
102
RTVSPropertyOp49
 70
     1
102
RTVSPropertyOp50
 70
     1
102
RTVSPropertyOp51
 70
     0
102
RTVSPropertyOp52
 70
     0
102
RTVSPropertyOp53
 70
     1
102
RTVSPropertyOp54
 70
     1
102
RTVSPropertyOp55
 70
     1
102
RTVSPropertyOp56
 70
     1
102
RTVSPropertyOp57
 70
     1
102
RTVSPropertyOp58
 70
     1
102
RTVSPropertyOp59
 70
     1
102
RTVSPropertyOp60
 70
     1
102
RTVSPropertyOp61
 70
     1
102
RTVSPropertyOp62
 70
     1
  0
XRECORD
  5
7EA
102
{ACAD_REACTORS
330
7E9
102
}
330
7E9
100
AcDbXrecord
280
     1
102
RTVSPost2010Prop28
280
     0
102
RTVSPost2010PropOp28
 70
     1
102
RTVSPost2010Prop29
280
     1
102
RTVSPost2010PropOp29
 70
     1
102
RTVSPost2010Prop30
280
     1
102
RTVSPost2010PropOp30
 70
     1
102
RTVSPost2010Prop31
280
     0
102
RTVSPost2010PropOp31
 70
     1
102
RTVSPost2010Prop32
280
     0
102
RTVSPost2010PropOp32
 70
     1
102
RTVSPost2010Prop33
280
     0
102
RTVSPost2010PropOp33
 70
     1
102
RTVSPost2010Prop34
280
     0
102
RTVSPost2010PropOp34
 70
     1
102
RTVSPost2010Prop35
280
     0
102
RTVSPost2010PropOp35
 70
     1
102
RTVSPost2010Prop36
280
     0
102
RTVSPost2010PropOp36
 70
     1
102
RTVSPost2010Prop37
 90
       50
102
RTVSPost2010PropOp37
 70
     1
102
RTVSPost2010Prop38
140
0.0
102
RTVSPost2010PropOp38
 70
     1
102
RTVSPost2010Prop39
140
1.0
102
RTVSPost2010PropOp39
 70
     1
102
RTVSPost2010Prop40
 90
        0
102
RTVSPost2010PropOp40
 70
     1
102
RTVSPost2010Prop41ColorIndex
 90
       18
102
RTVSPost2010Prop41ColorRGB
 90
        0
102
RTVSPost2010PropOp41
 70
     1
102
RTVSPost2010Prop42
 90
       50
102
RTVSPost2010PropOp42
 70
     1
102
RTVSPost2010Prop43
 90
        3
102
RTVSPost2010PropOp43
 70
     1
102
RTVSPost2010Prop44ColorIndex
 90
        5
102
RTVSPost2010Prop44ColorRGB
 90
      255
102
RTVSPost2010PropOp44
 70
     1
102
RTVSPost2010Prop45
280
     0
102
RTVSPost2010PropOp45
 70
     1
102
RTVSPost2010Prop46
 90
       50
102
RTVSPost2010PropOp46
 70
     1
102
RTVSPost2010Prop47
 90
       50
102
RTVSPost2010PropOp47
 70
     1
102
RTVSPost2010Prop48
 90
       50
102
RTVSPost2010PropOp48
 70
     1
102
RTVSPost2010Prop49
280
     0
102
RTVSPost2010PropOp49
 70
     1
102
RTVSPost2010Prop50
 90
       50
102
RTVSPost2010PropOp50
 70
     1
102
RTVSPost2010Prop51ColorIndex
 90
      256
102
RTVSPost2010Prop51ColorRGB
 90
-16777216
102
RTVSPost2010PropOp51
 70
     0
102
RTVSPost2010Prop52
140
1.0
102
RTVSPost2010PropOp52
 70
     0
102
RTVSPost2010Prop53
 90
        2
102
RTVSPost2010PropOp53
 70
     1
102
RTVSPost2010Prop54
  1
strokes_ogs.tif
102
RTVSPost2010PropOp54
 70
     1
102
RTVSPost2010Prop55
280
     0
102
RTVSPost2010PropOp55
 70
     1
102
RTVSPost2010Prop56
140
1.0
102
RTVSPost2010PropOp56
 70
     1
102
RTVSPost2010Prop57
140
1.0
102
RTVSPost2010PropOp57
 70
     1
102
RTVSPropertyOp0
 70
     1
102
RTVSPropertyOp1
 70
     1
102
RTVSPropertyOp2
 70
     1
102
RTVSPropertyOp3
 70
     1
102
RTVSPropertyOp4
 70
     1
102
RTVSPropertyOp5
 70
     1
102
RTVSPropertyOp6
 70
     1
102
RTVSPropertyOp7
 70
     1
102
RTVSPropertyOp8
 70
     1
102
RTVSPropertyOp9
 70
     1
102
RTVSPropertyOp10
 70
     1
102
RTVSPropertyOp11
 70
     1
102
RTVSPropertyOp12
 70
     1
102
RTVSPropertyOp13
 70
     1
102
RTVSPropertyOp14
 70
     1
102
RTVSPropertyOp15
 70
     1
102
RTVSPropertyOp16
 70
     1
102
RTVSPropertyOp17
 70
     1
102
RTVSPropertyOp18
 70
     1
102
RTVSPropertyOp19
 70
     1
102
RTVSPropertyOp20
 70
     1
102
RTVSPropertyOp21
 70
     1
102
RTVSPropertyOp22
 70
     1
102
RTVSPropertyOp23
 70
     1
102
RTVSPropertyOp24
 70
     1
102
RTVSPropertyOp25
 70
     1
102
RTVSPropertyOp26
 70
     1
102
RTVSPropertyOp27
 70
     1
102
RTVSPropertyOp28
 70
     1
102
RTVSPropertyOp29
 70
     1
102
RTVSPropertyOp30
 70
     1
102
RTVSPropertyOp31
 70
     1
102
RTVSPropertyOp32
 70
     1
102
RTVSPropertyOp33
 70
     1
102
RTVSPropertyOp34
 70
     1
102
RTVSPropertyOp35
 70
     1
102
RTVSPropertyOp36
 70
     1
102
RTVSPropertyOp37
 70
     1
102
RTVSPropertyOp38
 70
     1
102
RTVSPropertyOp39
 70
     1
102
RTVSPropertyOp40
 70
     1
102
RTVSPropertyOp41
 70
     1
102
RTVSPropertyOp42
 70
     1
102
RTVSPropertyOp43
 70
     1
102
RTVSPropertyOp44
 70
     1
102
RTVSPropertyOp45
 70
     1
102
RTVSPropertyOp46
 70
     1
102
RTVSPropertyOp47
 70
     1
102
RTVSPropertyOp48
 70
     1
102
RTVSPropertyOp49
 70
     1
102
RTVSPropertyOp50
 70
     1
102
RTVSPropertyOp51
 70
     0
102
RTVSPropertyOp52
 70
     0
102
RTVSPropertyOp53
 70
     1
102
RTVSPropertyOp54
 70
     1
102
RTVSPropertyOp55
 70
     1
102
RTVSPropertyOp56
 70
     1
102
RTVSPropertyOp57
 70
     1
102
RTVSPropertyOp58
 70
     1
102
RTVSPropertyOp59
 70
     1
102
RTVSPropertyOp60
 70
     1
102
RTVSPropertyOp61
 70
     1
102
RTVSPropertyOp62
 70
     1
  0
XRECORD
  5
7CE
102
{ACAD_REACTORS
330
7CD
102
}
330
7CD
100
AcDbXrecord
280
     1
102
RTVSPost2010Prop28
280
     0
102
RTVSPost2010PropOp28
 70
     1
102
RTVSPost2010Prop29
280
     1
102
RTVSPost2010PropOp29
 70
     1
102
RTVSPost2010Prop30
280
     1
102
RTVSPost2010PropOp30
 70
     1
102
RTVSPost2010Prop31
280
     0
102
RTVSPost2010PropOp31
 70
     1
102
RTVSPost2010Prop32
280
     0
102
RTVSPost2010PropOp32
 70
     1
102
RTVSPost2010Prop33
280
     0
102
RTVSPost2010PropOp33
 70
     1
102
RTVSPost2010Prop34
280
     0
102
RTVSPost2010PropOp34
 70
     1
102
RTVSPost2010Prop35
280
     0
102
RTVSPost2010PropOp35
 70
     1
102
RTVSPost2010Prop36
280
     0
102
RTVSPost2010PropOp36
 70
     1
102
RTVSPost2010Prop37
 90
       50
102
RTVSPost2010PropOp37
 70
     1
102
RTVSPost2010Prop38
140
0.0
102
RTVSPost2010PropOp38
 70
     1
102
RTVSPost2010Prop39
140
1.0
102
RTVSPost2010PropOp39
 70
     1
102
RTVSPost2010Prop40
 90
        0
102
RTVSPost2010PropOp40
 70
     1
102
RTVSPost2010Prop41ColorIndex
 90
       18
102
RTVSPost2010Prop41ColorRGB
 90
        0
102
RTVSPost2010PropOp41
 70
     1
102
RTVSPost2010Prop42
 90
       50
102
RTVSPost2010PropOp42
 70
     1
102
RTVSPost2010Prop43
 90
        3
102
RTVSPost2010PropOp43
 70
     1
102
RTVSPost2010Prop44ColorIndex
 90
        5
102
RTVSPost2010Prop44ColorRGB
 90
      255
102
RTVSPost2010PropOp44
 70
     1
102
RTVSPost2010Prop45
280
     0
102
RTVSPost2010PropOp45
 70
     1
102
RTVSPost2010Prop46
 90
       50
102
RTVSPost2010PropOp46
 70
     1
102
RTVSPost2010Prop47
 90
       50
102
RTVSPost2010PropOp47
 70
     1
102
RTVSPost2010Prop48
 90
       50
102
RTVSPost2010PropOp48
 70
     1
102
RTVSPost2010Prop49
280
     0
102
RTVSPost2010PropOp49
 70
     1
102
RTVSPost2010Prop50
 90
       50
102
RTVSPost2010PropOp50
 70
     1
102
RTVSPost2010Prop51ColorIndex
 90
      256
102
RTVSPost2010Prop51ColorRGB
 90
-16777216
102
RTVSPost2010PropOp51
 70
     0
102
RTVSPost2010Prop52
140
1.0
102
RTVSPost2010PropOp52
 70
     0
102
RTVSPost2010Prop53
 90
        2
102
RTVSPost2010PropOp53
 70
     1
102
RTVSPost2010Prop54
  1
strokes_ogs.tif
102
RTVSPost2010PropOp54
 70
     1
102
RTVSPost2010Prop55
280
     0
102
RTVSPost2010PropOp55
 70
     1
102
RTVSPost2010Prop56
140
1.0
102
RTVSPost2010PropOp56
 70
     1
102
RTVSPost2010Prop57
140
1.0
102
RTVSPost2010PropOp57
 70
     1
102
RTVSPropertyOp0
 70
     1
102
RTVSPropertyOp1
 70
     1
102
RTVSPropertyOp2
 70
     1
102
RTVSPropertyOp3
 70
     1
102
RTVSPropertyOp4
 70
     1
102
RTVSPropertyOp5
 70
     1
102
RTVSPropertyOp6
 70
     1
102
RTVSPropertyOp7
 70
     1
102
RTVSPropertyOp8
 70
     1
102
RTVSPropertyOp9
 70
     1
102
RTVSPropertyOp10
 70
     1
102
RTVSPropertyOp11
 70
     1
102
RTVSPropertyOp12
 70
     1
102
RTVSPropertyOp13
 70
     1
102
RTVSPropertyOp14
 70
     1
102
RTVSPropertyOp15
 70
     1
102
RTVSPropertyOp16
 70
     1
102
RTVSPropertyOp17
 70
     1
102
RTVSPropertyOp18
 70
     1
102
RTVSPropertyOp19
 70
     1
102
RTVSPropertyOp20
 70
     1
102
RTVSPropertyOp21
 70
     1
102
RTVSPropertyOp22
 70
     1
102
RTVSPropertyOp23
 70
     1
102
RTVSPropertyOp24
 70
     1
102
RTVSPropertyOp25
 70
     1
102
RTVSPropertyOp26
 70
     1
102
RTVSPropertyOp27
 70
     1
102
RTVSPropertyOp28
 70
     1
102
RTVSPropertyOp29
 70
     1
102
RTVSPropertyOp30
 70
     1
102
RTVSPropertyOp31
 70
     1
102
RTVSPropertyOp32
 70
     1
102
RTVSPropertyOp33
 70
     1
102
RTVSPropertyOp34
 70
     1
102
RTVSPropertyOp35
 70
     1
102
RTVSPropertyOp36
 70
     1
102
RTVSPropertyOp37
 70
     1
102
RTVSPropertyOp38
 70
     1
102
RTVSPropertyOp39
 70
     1
102
RTVSPropertyOp40
 70
     1
102
RTVSPropertyOp41
 70
     1
102
RTVSPropertyOp42
 70
     1
102
RTVSPropertyOp43
 70
     1
102
RTVSPropertyOp44
 70
     1
102
RTVSPropertyOp45
 70
     1
102
RTVSPropertyOp46
 70
     1
102
RTVSPropertyOp47
 70
     1
102
RTVSPropertyOp48
 70
     1
102
RTVSPropertyOp49
 70
     1
102
RTVSPropertyOp50
 70
     1
102
RTVSPropertyOp51
 70
     0
102
RTVSPropertyOp52
 70
     0
102
RTVSPropertyOp53
 70
     1
102
RTVSPropertyOp54
 70
     1
102
RTVSPropertyOp55
 70
     1
102
RTVSPropertyOp56
 70
     1
102
RTVSPropertyOp57
 70
     1
102
RTVSPropertyOp58
 70
     1
102
RTVSPropertyOp59
 70
     1
102
RTVSPropertyOp60
 70
     1
102
RTVSPropertyOp61
 70
     1
102
RTVSPropertyOp62
 70
     1
  0
XRECORD
  5
7D0
102
{ACAD_REACTORS
330
7CF
102
}
330
7CF
100
AcDbXrecord
280
     1
102
RTVSPost2010Prop28
280
     0
102
RTVSPost2010PropOp28
 70
     1
102
RTVSPost2010Prop29
280
     1
102
RTVSPost2010PropOp29
 70
     1
102
RTVSPost2010Prop30
280
     1
102
RTVSPost2010PropOp30
 70
     1
102
RTVSPost2010Prop31
280
     0
102
RTVSPost2010PropOp31
 70
     1
102
RTVSPost2010Prop32
280
     0
102
RTVSPost2010PropOp32
 70
     1
102
RTVSPost2010Prop33
280
     0
102
RTVSPost2010PropOp33
 70
     1
102
RTVSPost2010Prop34
280
     0
102
RTVSPost2010PropOp34
 70
     1
102
RTVSPost2010Prop35
280
     0
102
RTVSPost2010PropOp35
 70
     1
102
RTVSPost2010Prop36
280
     0
102
RTVSPost2010PropOp36
 70
     1
102
RTVSPost2010Prop37
 90
       50
102
RTVSPost2010PropOp37
 70
     1
102
RTVSPost2010Prop38
140
0.0
102
RTVSPost2010PropOp38
 70
     1
102
RTVSPost2010Prop39
140
1.0
102
RTVSPost2010PropOp39
 70
     1
102
RTVSPost2010Prop40
 90
        0
102
RTVSPost2010PropOp40
 70
     1
102
RTVSPost2010Prop41ColorIndex
 90
       18
102
RTVSPost2010Prop41ColorRGB
 90
        0
102
RTVSPost2010PropOp41
 70
     1
102
RTVSPost2010Prop42
 90
       50
102
RTVSPost2010PropOp42
 70
     1
102
RTVSPost2010Prop43
 90
        3
102
RTVSPost2010PropOp43
 70
     1
102
RTVSPost2010Prop44ColorIndex
 90
        5
102
RTVSPost2010Prop44ColorRGB
 90
      255
102
RTVSPost2010PropOp44
 70
     1
102
RTVSPost2010Prop45
280
     0
102
RTVSPost2010PropOp45
 70
     1
102
RTVSPost2010Prop46
 90
       50
102
RTVSPost2010PropOp46
 70
     1
102
RTVSPost2010Prop47
 90
       50
102
RTVSPost2010PropOp47
 70
     1
102
RTVSPost2010Prop48
 90
       50
102
RTVSPost2010PropOp48
 70
     1
102
RTVSPost2010Prop49
280
     0
102
RTVSPost2010PropOp49
 70
     1
102
RTVSPost2010Prop50
 90
       50
102
RTVSPost2010PropOp50
 70
     1
102
RTVSPost2010Prop51ColorIndex
 90
      256
102
RTVSPost2010Prop51ColorRGB
 90
-16777216
102
RTVSPost2010PropOp51
 70
     0
102
RTVSPost2010Prop52
140
1.0
102
RTVSPost2010PropOp52
 70
     0
102
RTVSPost2010Prop53
 90
        2
102
RTVSPost2010PropOp53
 70
     1
102
RTVSPost2010Prop54
  1
strokes_ogs.tif
102
RTVSPost2010PropOp54
 70
     1
102
RTVSPost2010Prop55
280
     0
102
RTVSPost2010PropOp55
 70
     1
102
RTVSPost2010Prop56
140
1.0
102
RTVSPost2010PropOp56
 70
     1
102
RTVSPost2010Prop57
140
1.0
102
RTVSPost2010PropOp57
 70
     1
102
RTVSPropertyOp0
 70
     1
102
RTVSPropertyOp1
 70
     1
102
RTVSPropertyOp2
 70
     1
102
RTVSPropertyOp3
 70
     1
102
RTVSPropertyOp4
 70
     1
102
RTVSPropertyOp5
 70
     1
102
RTVSPropertyOp6
 70
     1
102
RTVSPropertyOp7
 70
     1
102
RTVSPropertyOp8
 70
     1
102
RTVSPropertyOp9
 70
     1
102
RTVSPropertyOp10
 70
     1
102
RTVSPropertyOp11
 70
     1
102
RTVSPropertyOp12
 70
     1
102
RTVSPropertyOp13
 70
     1
102
RTVSPropertyOp14
 70
     1
102
RTVSPropertyOp15
 70
     1
102
RTVSPropertyOp16
 70
     1
102
RTVSPropertyOp17
 70
     1
102
RTVSPropertyOp18
 70
     1
102
RTVSPropertyOp19
 70
     1
102
RTVSPropertyOp20
 70
     1
102
RTVSPropertyOp21
 70
     1
102
RTVSPropertyOp22
 70
     1
102
RTVSPropertyOp23
 70
     1
102
RTVSPropertyOp24
 70
     1
102
RTVSPropertyOp25
 70
     1
102
RTVSPropertyOp26
 70
     1
102
RTVSPropertyOp27
 70
     1
102
RTVSPropertyOp28
 70
     1
102
RTVSPropertyOp29
 70
     1
102
RTVSPropertyOp30
 70
     1
102
RTVSPropertyOp31
 70
     1
102
RTVSPropertyOp32
 70
     1
102
RTVSPropertyOp33
 70
     1
102
RTVSPropertyOp34
 70
     1
102
RTVSPropertyOp35
 70
     1
102
RTVSPropertyOp36
 70
     1
102
RTVSPropertyOp37
 70
     1
102
RTVSPropertyOp38
 70
     1
102
RTVSPropertyOp39
 70
     1
102
RTVSPropertyOp40
 70
     1
102
RTVSPropertyOp41
 70
     1
102
RTVSPropertyOp42
 70
     1
102
RTVSPropertyOp43
 70
     1
102
RTVSPropertyOp44
 70
     1
102
RTVSPropertyOp45
 70
     1
102
RTVSPropertyOp46
 70
     1
102
RTVSPropertyOp47
 70
     1
102
RTVSPropertyOp48
 70
     1
102
RTVSPropertyOp49
 70
     1
102
RTVSPropertyOp50
 70
     1
102
RTVSPropertyOp51
 70
     0
102
RTVSPropertyOp52
 70
     0
102
RTVSPropertyOp53
 70
     1
102
RTVSPropertyOp54
 70
     1
102
RTVSPropertyOp55
 70
     1
102
RTVSPropertyOp56
 70
     1
102
RTVSPropertyOp57
 70
     1
102
RTVSPropertyOp58
 70
     1
102
RTVSPropertyOp59
 70
     1
102
RTVSPropertyOp60
 70
     1
102
RTVSPropertyOp61
 70
     1
102
RTVSPropertyOp62
 70
     1
  0
XRECORD
  5
7D2
102
{ACAD_REACTORS
330
7D1
102
}
330
7D1
100
AcDbXrecord
280
     1
102
RTVSPost2010Prop28
280
     0
102
RTVSPost2010PropOp28
 70
     1
102
RTVSPost2010Prop29
280
     1
102
RTVSPost2010PropOp29
 70
     1
102
RTVSPost2010Prop30
280
     1
102
RTVSPost2010PropOp30
 70
     1
102
RTVSPost2010Prop31
280
     0
102
RTVSPost2010PropOp31
 70
     1
102
RTVSPost2010Prop32
280
     0
102
RTVSPost2010PropOp32
 70
     1
102
RTVSPost2010Prop33
280
     0
102
RTVSPost2010PropOp33
 70
     1
102
RTVSPost2010Prop34
280
     0
102
RTVSPost2010PropOp34
 70
     1
102
RTVSPost2010Prop35
280
     0
102
RTVSPost2010PropOp35
 70
     1
102
RTVSPost2010Prop36
280
     0
102
RTVSPost2010PropOp36
 70
     1
102
RTVSPost2010Prop37
 90
       50
102
RTVSPost2010PropOp37
 70
     1
102
RTVSPost2010Prop38
140
0.0
102
RTVSPost2010PropOp38
 70
     1
102
RTVSPost2010Prop39
140
1.0
102
RTVSPost2010PropOp39
 70
     1
102
RTVSPost2010Prop40
 90
        0
102
RTVSPost2010PropOp40
 70
     1
102
RTVSPost2010Prop41ColorIndex
 90
       18
102
RTVSPost2010Prop41ColorRGB
 90
        0
102
RTVSPost2010PropOp41
 70
     1
102
RTVSPost2010Prop42
 90
       50
102
RTVSPost2010PropOp42
 70
     1
102
RTVSPost2010Prop43
 90
        3
102
RTVSPost2010PropOp43
 70
     1
102
RTVSPost2010Prop44ColorIndex
 90
        5
102
RTVSPost2010Prop44ColorRGB
 90
      255
102
RTVSPost2010PropOp44
 70
     1
102
RTVSPost2010Prop45
280
     0
102
RTVSPost2010PropOp45
 70
     1
102
RTVSPost2010Prop46
 90
       50
102
RTVSPost2010PropOp46
 70
     1
102
RTVSPost2010Prop47
 90
       50
102
RTVSPost2010PropOp47
 70
     1
102
RTVSPost2010Prop48
 90
       50
102
RTVSPost2010PropOp48
 70
     1
102
RTVSPost2010Prop49
280
     0
102
RTVSPost2010PropOp49
 70
     1
102
RTVSPost2010Prop50
 90
       50
102
RTVSPost2010PropOp50
 70
     1
102
RTVSPost2010Prop51ColorIndex
 90
      256
102
RTVSPost2010Prop51ColorRGB
 90
-16777216
102
RTVSPost2010PropOp51
 70
     0
102
RTVSPost2010Prop52
140
1.0
102
RTVSPost2010PropOp52
 70
     0
102
RTVSPost2010Prop53
 90
        2
102
RTVSPost2010PropOp53
 70
     1
102
RTVSPost2010Prop54
  1
strokes_ogs.tif
102
RTVSPost2010PropOp54
 70
     1
102
RTVSPost2010Prop55
280
     0
102
RTVSPost2010PropOp55
 70
     1
102
RTVSPost2010Prop56
140
1.0
102
RTVSPost2010PropOp56
 70
     1
102
RTVSPost2010Prop57
140
1.0
102
RTVSPost2010PropOp57
 70
     1
102
RTVSPropertyOp0
 70
     1
102
RTVSPropertyOp1
 70
     1
102
RTVSPropertyOp2
 70
     1
102
RTVSPropertyOp3
 70
     1
102
RTVSPropertyOp4
 70
     1
102
RTVSPropertyOp5
 70
     1
102
RTVSPropertyOp6
 70
     1
102
RTVSPropertyOp7
 70
     1
102
RTVSPropertyOp8
 70
     1
102
RTVSPropertyOp9
 70
     1
102
RTVSPropertyOp10
 70
     1
102
RTVSPropertyOp11
 70
     1
102
RTVSPropertyOp12
 70
     1
102
RTVSPropertyOp13
 70
     1
102
RTVSPropertyOp14
 70
     1
102
RTVSPropertyOp15
 70
     1
102
RTVSPropertyOp16
 70
     1
102
RTVSPropertyOp17
 70
     1
102
RTVSPropertyOp18
 70
     1
102
RTVSPropertyOp19
 70
     1
102
RTVSPropertyOp20
 70
     1
102
RTVSPropertyOp21
 70
     1
102
RTVSPropertyOp22
 70
     1
102
RTVSPropertyOp23
 70
     1
102
RTVSPropertyOp24
 70
     1
102
RTVSPropertyOp25
 70
     1
102
RTVSPropertyOp26
 70
     1
102
RTVSPropertyOp27
 70
     1
102
RTVSPropertyOp28
 70
     1
102
RTVSPropertyOp29
 70
     1
102
RTVSPropertyOp30
 70
     1
102
RTVSPropertyOp31
 70
     1
102
RTVSPropertyOp32
 70
     1
102
RTVSPropertyOp33
 70
     1
102
RTVSPropertyOp34
 70
     1
102
RTVSPropertyOp35
 70
     1
102
RTVSPropertyOp36
 70
     1
102
RTVSPropertyOp37
 70
     1
102
RTVSPropertyOp38
 70
     1
102
RTVSPropertyOp39
 70
     1
102
RTVSPropertyOp40
 70
     1
102
RTVSPropertyOp41
 70
     1
102
RTVSPropertyOp42
 70
     1
102
RTVSPropertyOp43
 70
     1
102
RTVSPropertyOp44
 70
     1
102
RTVSPropertyOp45
 70
     1
102
RTVSPropertyOp46
 70
     1
102
RTVSPropertyOp47
 70
     1
102
RTVSPropertyOp48
 70
     1
102
RTVSPropertyOp49
 70
     1
102
RTVSPropertyOp50
 70
     1
102
RTVSPropertyOp51
 70
     0
102
RTVSPropertyOp52
 70
     0
102
RTVSPropertyOp53
 70
     1
102
RTVSPropertyOp54
 70
     1
102
RTVSPropertyOp55
 70
     1
102
RTVSPropertyOp56
 70
     1
102
RTVSPropertyOp57
 70
     1
102
RTVSPropertyOp58
 70
     1
102
RTVSPropertyOp59
 70
     1
102
RTVSPropertyOp60
 70
     1
102
RTVSPropertyOp61
 70
     1
102
RTVSPropertyOp62
 70
     1
  0
XRECORD
  5
7D4
102
{ACAD_REACTORS
330
7D3
102
}
330
7D3
100
AcDbXrecord
280
     1
102
RTVSPost2010Prop28
280
     0
102
RTVSPost2010PropOp28
 70
     1
102
RTVSPost2010Prop29
280
     1
102
RTVSPost2010PropOp29
 70
     1
102
RTVSPost2010Prop30
280
     1
102
RTVSPost2010PropOp30
 70
     1
102
RTVSPost2010Prop31
280
     0
102
RTVSPost2010PropOp31
 70
     1
102
RTVSPost2010Prop32
280
     0
102
RTVSPost2010PropOp32
 70
     1
102
RTVSPost2010Prop33
280
     0
102
RTVSPost2010PropOp33
 70
     1
102
RTVSPost2010Prop34
280
     0
102
RTVSPost2010PropOp34
 70
     1
102
RTVSPost2010Prop35
280
     0
102
RTVSPost2010PropOp35
 70
     1
102
RTVSPost2010Prop36
280
     0
102
RTVSPost2010PropOp36
 70
     1
102
RTVSPost2010Prop37
 90
       50
102
RTVSPost2010PropOp37
 70
     1
102
RTVSPost2010Prop38
140
0.0
102
RTVSPost2010PropOp38
 70
     1
102
RTVSPost2010Prop39
140
1.0
102
RTVSPost2010PropOp39
 70
     1
102
RTVSPost2010Prop40
 90
        0
102
RTVSPost2010PropOp40
 70
     1
102
RTVSPost2010Prop41ColorIndex
 90
       18
102
RTVSPost2010Prop41ColorRGB
 90
        0
102
RTVSPost2010PropOp41
 70
     1
102
RTVSPost2010Prop42
 90
       50
102
RTVSPost2010PropOp42
 70
     1
102
RTVSPost2010Prop43
 90
        3
102
RTVSPost2010PropOp43
 70
     1
102
RTVSPost2010Prop44ColorIndex
 90
        5
102
RTVSPost2010Prop44ColorRGB
 90
      255
102
RTVSPost2010PropOp44
 70
     1
102
RTVSPost2010Prop45
280
     0
102
RTVSPost2010PropOp45
 70
     1
102
RTVSPost2010Prop46
 90
       50
102
RTVSPost2010PropOp46
 70
     1
102
RTVSPost2010Prop47
 90
       50
102
RTVSPost2010PropOp47
 70
     1
102
RTVSPost2010Prop48
 90
       50
102
RTVSPost2010PropOp48
 70
     1
102
RTVSPost2010Prop49
280
     0
102
RTVSPost2010PropOp49
 70
     1
102
RTVSPost2010Prop50
 90
       50
102
RTVSPost2010PropOp50
 70
     1
102
RTVSPost2010Prop51ColorIndex
 90
      256
102
RTVSPost2010Prop51ColorRGB
 90
-16777216
102
RTVSPost2010PropOp51
 70
     0
102
RTVSPost2010Prop52
140
1.0
102
RTVSPost2010PropOp52
 70
     0
102
RTVSPost2010Prop53
 90
        2
102
RTVSPost2010PropOp53
 70
     1
102
RTVSPost2010Prop54
  1
strokes_ogs.tif
102
RTVSPost2010PropOp54
 70
     1
102
RTVSPost2010Prop55
280
     0
102
RTVSPost2010PropOp55
 70
     1
102
RTVSPost2010Prop56
140
1.0
102
RTVSPost2010PropOp56
 70
     1
102
RTVSPost2010Prop57
140
1.0
102
RTVSPost2010PropOp57
 70
     1
102
RTVSPropertyOp0
 70
     1
102
RTVSPropertyOp1
 70
     1
102
RTVSPropertyOp2
 70
     1
102
RTVSPropertyOp3
 70
     1
102
RTVSPropertyOp4
 70
     1
102
RTVSPropertyOp5
 70
     1
102
RTVSPropertyOp6
 70
     1
102
RTVSPropertyOp7
 70
     1
102
RTVSPropertyOp8
 70
     1
102
RTVSPropertyOp9
 70
     1
102
RTVSPropertyOp10
 70
     1
102
RTVSPropertyOp11
 70
     1
102
RTVSPropertyOp12
 70
     1
102
RTVSPropertyOp13
 70
     1
102
RTVSPropertyOp14
 70
     1
102
RTVSPropertyOp15
 70
     1
102
RTVSPropertyOp16
 70
     1
102
RTVSPropertyOp17
 70
     1
102
RTVSPropertyOp18
 70
     1
102
RTVSPropertyOp19
 70
     1
102
RTVSPropertyOp20
 70
     1
102
RTVSPropertyOp21
 70
     1
102
RTVSPropertyOp22
 70
     1
102
RTVSPropertyOp23
 70
     1
102
RTVSPropertyOp24
 70
     1
102
RTVSPropertyOp25
 70
     1
102
RTVSPropertyOp26
 70
     1
102
RTVSPropertyOp27
 70
     1
102
RTVSPropertyOp28
 70
     1
102
RTVSPropertyOp29
 70
     1
102
RTVSPropertyOp30
 70
     1
102
RTVSPropertyOp31
 70
     1
102
RTVSPropertyOp32
 70
     1
102
RTVSPropertyOp33
 70
     1
102
RTVSPropertyOp34
 70
     1
102
RTVSPropertyOp35
 70
     1
102
RTVSPropertyOp36
 70
     1
102
RTVSPropertyOp37
 70
     1
102
RTVSPropertyOp38
 70
     1
102
RTVSPropertyOp39
 70
     1
102
RTVSPropertyOp40
 70
     1
102
RTVSPropertyOp41
 70
     1
102
RTVSPropertyOp42
 70
     1
102
RTVSPropertyOp43
 70
     1
102
RTVSPropertyOp44
 70
     1
102
RTVSPropertyOp45
 70
     1
102
RTVSPropertyOp46
 70
     1
102
RTVSPropertyOp47
 70
     1
102
RTVSPropertyOp48
 70
     1
102
RTVSPropertyOp49
 70
     1
102
RTVSPropertyOp50
 70
     1
102
RTVSPropertyOp51
 70
     0
102
RTVSPropertyOp52
 70
     0
102
RTVSPropertyOp53
 70
     1
102
RTVSPropertyOp54
 70
     1
102
RTVSPropertyOp55
 70
     1
102
RTVSPropertyOp56
 70
     1
102
RTVSPropertyOp57
 70
     1
102
RTVSPropertyOp58
 70
     1
102
RTVSPropertyOp59
 70
     1
102
RTVSPropertyOp60
 70
     1
102
RTVSPropertyOp61
 70
     1
102
RTVSPropertyOp62
 70
     1
  0
XRECORD
  5
7F7
102
{ACAD_REACTORS
330
7F6
102
}
330
7F6
100
AcDbXrecord
280
     1
102
RTVSPost2010Prop28
280
     0
102
RTVSPost2010PropOp28
 70
     1
102
RTVSPost2010Prop29
280
     1
102
RTVSPost2010PropOp29
 70
     1
102
RTVSPost2010Prop30
280
     1
102
RTVSPost2010PropOp30
 70
     1
102
RTVSPost2010Prop31
280
     0
102
RTVSPost2010PropOp31
 70
     1
102
RTVSPost2010Prop32
280
     0
102
RTVSPost2010PropOp32
 70
     1
102
RTVSPost2010Prop33
280
     0
102
RTVSPost2010PropOp33
 70
     1
102
RTVSPost2010Prop34
280
     0
102
RTVSPost2010PropOp34
 70
     1
102
RTVSPost2010Prop35
280
     0
102
RTVSPost2010PropOp35
 70
     1
102
RTVSPost2010Prop36
280
     0
102
RTVSPost2010PropOp36
 70
     1
102
RTVSPost2010Prop37
 90
       50
102
RTVSPost2010PropOp37
 70
     1
102
RTVSPost2010Prop38
140
0.0
102
RTVSPost2010PropOp38
 70
     1
102
RTVSPost2010Prop39
140
1.0
102
RTVSPost2010PropOp39
 70
     1
102
RTVSPost2010Prop40
 90
        0
102
RTVSPost2010PropOp40
 70
     1
102
RTVSPost2010Prop41ColorIndex
 90
       18
102
RTVSPost2010Prop41ColorRGB
 90
        0
102
RTVSPost2010PropOp41
 70
     1
102
RTVSPost2010Prop42
 90
       50
102
RTVSPost2010PropOp42
 70
     1
102
RTVSPost2010Prop43
 90
        3
102
RTVSPost2010PropOp43
 70
     1
102
RTVSPost2010Prop44ColorIndex
 90
        5
102
RTVSPost2010Prop44ColorRGB
 90
      255
102
RTVSPost2010PropOp44
 70
     1
102
RTVSPost2010Prop45
280
     0
102
RTVSPost2010PropOp45
 70
     1
102
RTVSPost2010Prop46
 90
       50
102
RTVSPost2010PropOp46
 70
     1
102
RTVSPost2010Prop47
 90
       50
102
RTVSPost2010PropOp47
 70
     1
102
RTVSPost2010Prop48
 90
       50
102
RTVSPost2010PropOp48
 70
     1
102
RTVSPost2010Prop49
280
     0
102
RTVSPost2010PropOp49
 70
     1
102
RTVSPost2010Prop50
 90
       50
102
RTVSPost2010PropOp50
 70
     1
102
RTVSPost2010Prop51ColorIndex
 90
      256
102
RTVSPost2010Prop51ColorRGB
 90
-16777216
102
RTVSPost2010PropOp51
 70
     0
102
RTVSPost2010Prop52
140
1.0
102
RTVSPost2010PropOp52
 70
     0
102
RTVSPost2010Prop53
 90
        2
102
RTVSPost2010PropOp53
 70
     1
102
RTVSPost2010Prop54
  1
strokes_ogs.tif
102
RTVSPost2010PropOp54
 70
     1
102
RTVSPost2010Prop55
280
     0
102
RTVSPost2010PropOp55
 70
     1
102
RTVSPost2010Prop56
140
1.0
102
RTVSPost2010PropOp56
 70
     1
102
RTVSPost2010Prop57
140
1.0
102
RTVSPost2010PropOp57
 70
     1
102
RTVSPropertyOp0
 70
     1
102
RTVSPropertyOp1
 70
     1
102
RTVSPropertyOp2
 70
     1
102
RTVSPropertyOp3
 70
     1
102
RTVSPropertyOp4
 70
     1
102
RTVSPropertyOp5
 70
     1
102
RTVSPropertyOp6
 70
     1
102
RTVSPropertyOp7
 70
     1
102
RTVSPropertyOp8
 70
     1
102
RTVSPropertyOp9
 70
     1
102
RTVSPropertyOp10
 70
     1
102
RTVSPropertyOp11
 70
     1
102
RTVSPropertyOp12
 70
     1
102
RTVSPropertyOp13
 70
     1
102
RTVSPropertyOp14
 70
     1
102
RTVSPropertyOp15
 70
     1
102
RTVSPropertyOp16
 70
     1
102
RTVSPropertyOp17
 70
     1
102
RTVSPropertyOp18
 70
     1
102
RTVSPropertyOp19
 70
     1
102
RTVSPropertyOp20
 70
     1
102
RTVSPropertyOp21
 70
     1
102
RTVSPropertyOp22
 70
     1
102
RTVSPropertyOp23
 70
     1
102
RTVSPropertyOp24
 70
     1
102
RTVSPropertyOp25
 70
     1
102
RTVSPropertyOp26
 70
     1
102
RTVSPropertyOp27
 70
     1
102
RTVSPropertyOp28
 70
     1
102
RTVSPropertyOp29
 70
     1
102
RTVSPropertyOp30
 70
     1
102
RTVSPropertyOp31
 70
     1
102
RTVSPropertyOp32
 70
     1
102
RTVSPropertyOp33
 70
     1
102
RTVSPropertyOp34
 70
     1
102
RTVSPropertyOp35
 70
     1
102
RTVSPropertyOp36
 70
     1
102
RTVSPropertyOp37
 70
     1
102
RTVSPropertyOp38
 70
     1
102
RTVSPropertyOp39
 70
     1
102
RTVSPropertyOp40
 70
     1
102
RTVSPropertyOp41
 70
     1
102
RTVSPropertyOp42
 70
     1
102
RTVSPropertyOp43
 70
     1
102
RTVSPropertyOp44
 70
     1
102
RTVSPropertyOp45
 70
     1
102
RTVSPropertyOp46
 70
     1
102
RTVSPropertyOp47
 70
     1
102
RTVSPropertyOp48
 70
     1
102
RTVSPropertyOp49
 70
     1
102
RTVSPropertyOp50
 70
     1
102
RTVSPropertyOp51
 70
     0
102
RTVSPropertyOp52
 70
     0
102
RTVSPropertyOp53
 70
     1
102
RTVSPropertyOp54
 70
     1
102
RTVSPropertyOp55
 70
     1
102
RTVSPropertyOp56
 70
     1
102
RTVSPropertyOp57
 70
     1
102
RTVSPropertyOp58
 70
     1
102
RTVSPropertyOp59
 70
     1
102
RTVSPropertyOp60
 70
     1
102
RTVSPropertyOp61
 70
     1
102
RTVSPropertyOp62
 70
     1
  0
XRECORD
  5
7EE
102
{ACAD_REACTORS
330
7ED
102
}
330
7ED
100
AcDbXrecord
280
     1
102
RTVSPost2010Prop28
280
     0
102
RTVSPost2010PropOp28
 70
     1
102
RTVSPost2010Prop29
280
     1
102
RTVSPost2010PropOp29
 70
     1
102
RTVSPost2010Prop30
280
     1
102
RTVSPost2010PropOp30
 70
     1
102
RTVSPost2010Prop31
280
     0
102
RTVSPost2010PropOp31
 70
     1
102
RTVSPost2010Prop32
280
     0
102
RTVSPost2010PropOp32
 70
     1
102
RTVSPost2010Prop33
280
     0
102
RTVSPost2010PropOp33
 70
     1
102
RTVSPost2010Prop34
280
     0
102
RTVSPost2010PropOp34
 70
     1
102
RTVSPost2010Prop35
280
     0
102
RTVSPost2010PropOp35
 70
     1
102
RTVSPost2010Prop36
280
     0
102
RTVSPost2010PropOp36
 70
     1
102
RTVSPost2010Prop37
 90
       50
102
RTVSPost2010PropOp37
 70
     1
102
RTVSPost2010Prop38
140
0.0
102
RTVSPost2010PropOp38
 70
     1
102
RTVSPost2010Prop39
140
1.0
102
RTVSPost2010PropOp39
 70
     1
102
RTVSPost2010Prop40
 90
        0
102
RTVSPost2010PropOp40
 70
     1
102
RTVSPost2010Prop41ColorIndex
 90
       18
102
RTVSPost2010Prop41ColorRGB
 90
        0
102
RTVSPost2010PropOp41
 70
     1
102
RTVSPost2010Prop42
 90
       50
102
RTVSPost2010PropOp42
 70
     1
102
RTVSPost2010Prop43
 90
        3
102
RTVSPost2010PropOp43
 70
     1
102
RTVSPost2010Prop44ColorIndex
 90
        5
102
RTVSPost2010Prop44ColorRGB
 90
      255
102
RTVSPost2010PropOp44
 70
     1
102
RTVSPost2010Prop45
280
     0
102
RTVSPost2010PropOp45
 70
     1
102
RTVSPost2010Prop46
 90
       50
102
RTVSPost2010PropOp46
 70
     1
102
RTVSPost2010Prop47
 90
       50
102
RTVSPost2010PropOp47
 70
     1
102
RTVSPost2010Prop48
 90
       50
102
RTVSPost2010PropOp48
 70
     1
102
RTVSPost2010Prop49
280
     0
102
RTVSPost2010PropOp49
 70
     1
102
RTVSPost2010Prop50
 90
       50
102
RTVSPost2010PropOp50
 70
     1
102
RTVSPost2010Prop51ColorIndex
 90
      256
102
RTVSPost2010Prop51ColorRGB
 90
-16777216
102
RTVSPost2010PropOp51
 70
     0
102
RTVSPost2010Prop52
140
1.0
102
RTVSPost2010PropOp52
 70
     0
102
RTVSPost2010Prop53
 90
        2
102
RTVSPost2010PropOp53
 70
     1
102
RTVSPost2010Prop54
  1
strokes_ogs.tif
102
RTVSPost2010PropOp54
 70
     1
102
RTVSPost2010Prop55
280
     0
102
RTVSPost2010PropOp55
 70
     1
102
RTVSPost2010Prop56
140
1.0
102
RTVSPost2010PropOp56
 70
     1
102
RTVSPost2010Prop57
140
1.0
102
RTVSPost2010PropOp57
 70
     1
102
RTVSPropertyOp0
 70
     0
102
RTVSPropertyOp1
 70
     0
102
RTVSPropertyOp2
 70
     0
102
RTVSPropertyOp3
 70
     0
102
RTVSPropertyOp4
 70
     0
102
RTVSPropertyOp5
 70
     0
102
RTVSPropertyOp6
 70
     0
102
RTVSPropertyOp7
 70
     0
102
RTVSPropertyOp8
 70
     0
102
RTVSPropertyOp9
 70
     0
102
RTVSPropertyOp10
 70
     0
102
RTVSPropertyOp11
 70
     0
102
RTVSPropertyOp12
 70
     0
102
RTVSPropertyOp13
 70
     0
102
RTVSPropertyOp14
 70
     2
102
RTVSPropertyOp15
 70
     0
102
RTVSPropertyOp16
 70
     0
102
RTVSPropertyOp17
 70
     0
102
RTVSPropertyOp18
 70
     0
102
RTVSPropertyOp19
 70
     0
102
RTVSPropertyOp20
 70
     0
102
RTVSPropertyOp21
 70
     0
102
RTVSPropertyOp22
 70
     0
102
RTVSPropertyOp23
 70
     0
102
RTVSPropertyOp24
 70
     0
102
RTVSPropertyOp25
 70
     0
102
RTVSPropertyOp26
 70
     0
102
RTVSPropertyOp27
 70
     0
102
RTVSPropertyOp28
 70
     1
102
RTVSPropertyOp29
 70
     1
102
RTVSPropertyOp30
 70
     1
102
RTVSPropertyOp31
 70
     1
102
RTVSPropertyOp32
 70
     1
102
RTVSPropertyOp33
 70
     1
102
RTVSPropertyOp34
 70
     1
102
RTVSPropertyOp35
 70
     1
102
RTVSPropertyOp36
 70
     1
102
RTVSPropertyOp37
 70
     1
102
RTVSPropertyOp38
 70
     1
102
RTVSPropertyOp39
 70
     1
102
RTVSPropertyOp40
 70
     1
102
RTVSPropertyOp41
 70
     1
102
RTVSPropertyOp42
 70
     1
102
RTVSPropertyOp43
 70
     1
102
RTVSPropertyOp44
 70
     1
102
RTVSPropertyOp45
 70
     1
102
RTVSPropertyOp46
 70
     1
102
RTVSPropertyOp47
 70
     1
102
RTVSPropertyOp48
 70
     1
102
RTVSPropertyOp49
 70
     1
102
RTVSPropertyOp50
 70
     1
102
RTVSPropertyOp51
 70
     0
102
RTVSPropertyOp52
 70
     0
102
RTVSPropertyOp53
 70
     1
102
RTVSPropertyOp54
 70
     1
102
RTVSPropertyOp55
 70
     1
102
RTVSPropertyOp56
 70
     1
102
RTVSPropertyOp57
 70
     1
102
RTVSPropertyOp58
 70
     1
102
RTVSPropertyOp59
 70
     1
102
RTVSPropertyOp60
 70
     1
102
RTVSPropertyOp61
 70
     1
102
RTVSPropertyOp62
 70
     1
  0
XRECORD
  5
7E8
102
{ACAD_REACTORS
330
7E7
102
}
330
7E7
100
AcDbXrecord
280
     1
102
RTVSPost2010Prop28
280
     0
102
RTVSPost2010PropOp28
 70
     1
102
RTVSPost2010Prop29
280
     1
102
RTVSPost2010PropOp29
 70
     1
102
RTVSPost2010Prop30
280
     1
102
RTVSPost2010PropOp30
 70
     1
102
RTVSPost2010Prop31
280
     0
102
RTVSPost2010PropOp31
 70
     1
102
RTVSPost2010Prop32
280
     0
102
RTVSPost2010PropOp32
 70
     1
102
RTVSPost2010Prop33
280
     0
102
RTVSPost2010PropOp33
 70
     1
102
RTVSPost2010Prop34
280
     0
102
RTVSPost2010PropOp34
 70
     1
102
RTVSPost2010Prop35
280
     0
102
RTVSPost2010PropOp35
 70
     1
102
RTVSPost2010Prop36
280
     0
102
RTVSPost2010PropOp36
 70
     1
102
RTVSPost2010Prop37
 90
       50
102
RTVSPost2010PropOp37
 70
     1
102
RTVSPost2010Prop38
140
0.0
102
RTVSPost2010PropOp38
 70
     1
102
RTVSPost2010Prop39
140
1.0
102
RTVSPost2010PropOp39
 70
     1
102
RTVSPost2010Prop40
 90
        0
102
RTVSPost2010PropOp40
 70
     1
102
RTVSPost2010Prop41ColorIndex
 90
       18
102
RTVSPost2010Prop41ColorRGB
 90
        0
102
RTVSPost2010PropOp41
 70
     1
102
RTVSPost2010Prop42
 90
       50
102
RTVSPost2010PropOp42
 70
     1
102
RTVSPost2010Prop43
 90
        3
102
RTVSPost2010PropOp43
 70
     1
102
RTVSPost2010Prop44ColorIndex
 90
        5
102
RTVSPost2010Prop44ColorRGB
 90
      255
102
RTVSPost2010PropOp44
 70
     1
102
RTVSPost2010Prop45
280
     0
102
RTVSPost2010PropOp45
 70
     1
102
RTVSPost2010Prop46
 90
       50
102
RTVSPost2010PropOp46
 70
     1
102
RTVSPost2010Prop47
 90
       50
102
RTVSPost2010PropOp47
 70
     1
102
RTVSPost2010Prop48
 90
       50
102
RTVSPost2010PropOp48
 70
     1
102
RTVSPost2010Prop49
280
     0
102
RTVSPost2010PropOp49
 70
     1
102
RTVSPost2010Prop50
 90
       50
102
RTVSPost2010PropOp50
 70
     1
102
RTVSPost2010Prop51ColorIndex
 90
      256
102
RTVSPost2010Prop51ColorRGB
 90
-16777216
102
RTVSPost2010PropOp51
 70
     0
102
RTVSPost2010Prop52
140
1.0
102
RTVSPost2010PropOp52
 70
     0
102
RTVSPost2010Prop53
 90
        2
102
RTVSPost2010PropOp53
 70
     1
102
RTVSPost2010Prop54
  1
strokes_ogs.tif
102
RTVSPost2010PropOp54
 70
     1
102
RTVSPost2010Prop55
280
     0
102
RTVSPost2010PropOp55
 70
     1
102
RTVSPost2010Prop56
140
1.0
102
RTVSPost2010PropOp56
 70
     1
102
RTVSPost2010Prop57
140
1.0
102
RTVSPost2010PropOp57
 70
     1
102
RTVSPropertyOp0
 70
     1
102
RTVSPropertyOp1
 70
     1
102
RTVSPropertyOp2
 70
     1
102
RTVSPropertyOp3
 70
     1
102
RTVSPropertyOp4
 70
     1
102
RTVSPropertyOp5
 70
     1
102
RTVSPropertyOp6
 70
     1
102
RTVSPropertyOp7
 70
     1
102
RTVSPropertyOp8
 70
     1
102
RTVSPropertyOp9
 70
     1
102
RTVSPropertyOp10
 70
     1
102
RTVSPropertyOp11
 70
     1
102
RTVSPropertyOp12
 70
     1
102
RTVSPropertyOp13
 70
     1
102
RTVSPropertyOp14
 70
     1
102
RTVSPropertyOp15
 70
     1
102
RTVSPropertyOp16
 70
     1
102
RTVSPropertyOp17
 70
     1
102
RTVSPropertyOp18
 70
     1
102
RTVSPropertyOp19
 70
     1
102
RTVSPropertyOp20
 70
     1
102
RTVSPropertyOp21
 70
     1
102
RTVSPropertyOp22
 70
     1
102
RTVSPropertyOp23
 70
     1
102
RTVSPropertyOp24
 70
     1
102
RTVSPropertyOp25
 70
     1
102
RTVSPropertyOp26
 70
     1
102
RTVSPropertyOp27
 70
     1
102
RTVSPropertyOp28
 70
     1
102
RTVSPropertyOp29
 70
     1
102
RTVSPropertyOp30
 70
     1
102
RTVSPropertyOp31
 70
     1
102
RTVSPropertyOp32
 70
     1
102
RTVSPropertyOp33
 70
     1
102
RTVSPropertyOp34
 70
     1
102
RTVSPropertyOp35
 70
     1
102
RTVSPropertyOp36
 70
     1
102
RTVSPropertyOp37
 70
     1
102
RTVSPropertyOp38
 70
     1
102
RTVSPropertyOp39
 70
     1
102
RTVSPropertyOp40
 70
     1
102
RTVSPropertyOp41
 70
     1
102
RTVSPropertyOp42
 70
     1
102
RTVSPropertyOp43
 70
     1
102
RTVSPropertyOp44
 70
     1
102
RTVSPropertyOp45
 70
     1
102
RTVSPropertyOp46
 70
     1
102
RTVSPropertyOp47
 70
     1
102
RTVSPropertyOp48
 70
     1
102
RTVSPropertyOp49
 70
     1
102
RTVSPropertyOp50
 70
     1
102
RTVSPropertyOp51
 70
     0
102
RTVSPropertyOp52
 70
     0
102
RTVSPropertyOp53
 70
     1
102
RTVSPropertyOp54
 70
     1
102
RTVSPropertyOp55
 70
     1
102
RTVSPropertyOp56
 70
     1
102
RTVSPropertyOp57
 70
     1
102
RTVSPropertyOp58
 70
     1
102
RTVSPropertyOp59
 70
     1
102
RTVSPropertyOp60
 70
     1
102
RTVSPropertyOp61
 70
     1
102
RTVSPropertyOp62
 70
     1
  0
XRECORD
  5
7F0
102
{ACAD_REACTORS
330
7EF
102
}
330
7EF
100
AcDbXrecord
280
     1
102
RTVSPost2010Prop28
280
     0
102
RTVSPost2010PropOp28
 70
     1
102
RTVSPost2010Prop29
280
     1
102
RTVSPost2010PropOp29
 70
     1
102
RTVSPost2010Prop30
280
     1
102
RTVSPost2010PropOp30
 70
     1
102
RTVSPost2010Prop31
280
     0
102
RTVSPost2010PropOp31
 70
     1
102
RTVSPost2010Prop32
280
     0
102
RTVSPost2010PropOp32
 70
     1
102
RTVSPost2010Prop33
280
     0
102
RTVSPost2010PropOp33
 70
     1
102
RTVSPost2010Prop34
280
     0
102
RTVSPost2010PropOp34
 70
     1
102
RTVSPost2010Prop35
280
     0
102
RTVSPost2010PropOp35
 70
     1
102
RTVSPost2010Prop36
280
     0
102
RTVSPost2010PropOp36
 70
     1
102
RTVSPost2010Prop37
 90
       50
102
RTVSPost2010PropOp37
 70
     1
102
RTVSPost2010Prop38
140
0.0
102
RTVSPost2010PropOp38
 70
     1
102
RTVSPost2010Prop39
140
1.0
102
RTVSPost2010PropOp39
 70
     1
102
RTVSPost2010Prop40
 90
        0
102
RTVSPost2010PropOp40
 70
     1
102
RTVSPost2010Prop41ColorIndex
 90
       18
102
RTVSPost2010Prop41ColorRGB
 90
        0
102
RTVSPost2010PropOp41
 70
     1
102
RTVSPost2010Prop42
 90
       50
102
RTVSPost2010PropOp42
 70
     1
102
RTVSPost2010Prop43
 90
        3
102
RTVSPost2010PropOp43
 70
     1
102
RTVSPost2010Prop44ColorIndex
 90
        5
102
RTVSPost2010Prop44ColorRGB
 90
      255
102
RTVSPost2010PropOp44
 70
     1
102
RTVSPost2010Prop45
280
     0
102
RTVSPost2010PropOp45
 70
     1
102
RTVSPost2010Prop46
 90
       50
102
RTVSPost2010PropOp46
 70
     1
102
RTVSPost2010Prop47
 90
       50
102
RTVSPost2010PropOp47
 70
     1
102
RTVSPost2010Prop48
 90
       50
102
RTVSPost2010PropOp48
 70
     1
102
RTVSPost2010Prop49
280
     0
102
RTVSPost2010PropOp49
 70
     1
102
RTVSPost2010Prop50
 90
       50
102
RTVSPost2010PropOp50
 70
     1
102
RTVSPost2010Prop51ColorIndex
 90
      256
102
RTVSPost2010Prop51ColorRGB
 90
-16777216
102
RTVSPost2010PropOp51
 70
     0
102
RTVSPost2010Prop52
140
1.0
102
RTVSPost2010PropOp52
 70
     0
102
RTVSPost2010Prop53
 90
        2
102
RTVSPost2010PropOp53
 70
     1
102
RTVSPost2010Prop54
  1
strokes_ogs.tif
102
RTVSPost2010PropOp54
 70
     1
102
RTVSPost2010Prop55
280
     0
102
RTVSPost2010PropOp55
 70
     1
102
RTVSPost2010Prop56
140
1.0
102
RTVSPost2010PropOp56
 70
     1
102
RTVSPost2010Prop57
140
1.0
102
RTVSPost2010PropOp57
 70
     1
102
RTVSPropertyOp0
 70
     0
102
RTVSPropertyOp1
 70
     0
102
RTVSPropertyOp2
 70
     0
102
RTVSPropertyOp3
 70
     0
102
RTVSPropertyOp4
 70
     0
102
RTVSPropertyOp5
 70
     0
102
RTVSPropertyOp6
 70
     0
102
RTVSPropertyOp7
 70
     0
102
RTVSPropertyOp8
 70
     0
102
RTVSPropertyOp9
 70
     0
102
RTVSPropertyOp10
 70
     0
102
RTVSPropertyOp11
 70
     0
102
RTVSPropertyOp12
 70
     0
102
RTVSPropertyOp13
 70
     0
102
RTVSPropertyOp14
 70
     2
102
RTVSPropertyOp15
 70
     0
102
RTVSPropertyOp16
 70
     0
102
RTVSPropertyOp17
 70
     0
102
RTVSPropertyOp18
 70
     0
102
RTVSPropertyOp19
 70
     0
102
RTVSPropertyOp20
 70
     0
102
RTVSPropertyOp21
 70
     0
102
RTVSPropertyOp22
 70
     0
102
RTVSPropertyOp23
 70
     0
102
RTVSPropertyOp24
 70
     0
102
RTVSPropertyOp25
 70
     0
102
RTVSPropertyOp26
 70
     0
102
RTVSPropertyOp27
 70
     0
102
RTVSPropertyOp28
 70
     1
102
RTVSPropertyOp29
 70
     1
102
RTVSPropertyOp30
 70
     1
102
RTVSPropertyOp31
 70
     1
102
RTVSPropertyOp32
 70
     1
102
RTVSPropertyOp33
 70
     1
102
RTVSPropertyOp34
 70
     1
102
RTVSPropertyOp35
 70
     1
102
RTVSPropertyOp36
 70
     1
102
RTVSPropertyOp37
 70
     1
102
RTVSPropertyOp38
 70
     1
102
RTVSPropertyOp39
 70
     1
102
RTVSPropertyOp40
 70
     1
102
RTVSPropertyOp41
 70
     1
102
RTVSPropertyOp42
 70
     1
102
RTVSPropertyOp43
 70
     1
102
RTVSPropertyOp44
 70
     1
102
RTVSPropertyOp45
 70
     1
102
RTVSPropertyOp46
 70
     1
102
RTVSPropertyOp47
 70
     1
102
RTVSPropertyOp48
 70
     1
102
RTVSPropertyOp49
 70
     1
102
RTVSPropertyOp50
 70
     1
102
RTVSPropertyOp51
 70
     0
102
RTVSPropertyOp52
 70
     0
102
RTVSPropertyOp53
 70
     1
102
RTVSPropertyOp54
 70
     1
102
RTVSPropertyOp55
 70
     1
102
RTVSPropertyOp56
 70
     1
102
RTVSPropertyOp57
 70
     1
102
RTVSPropertyOp58
 70
     1
102
RTVSPropertyOp59
 70
     1
102
RTVSPropertyOp60
 70
     1
102
RTVSPropertyOp61
 70
     1
102
RTVSPropertyOp62
 70
     1
  0
XRECORD
  5
7E0
102
{ACAD_REACTORS
330
7DF
102
}
330
7DF
100
AcDbXrecord
280
     1
102
RTVSPost2010Prop28
280
     0
102
RTVSPost2010PropOp28
 70
     1
102
RTVSPost2010Prop29
280
     1
102
RTVSPost2010PropOp29
 70
     1
102
RTVSPost2010Prop30
280
     1
102
RTVSPost2010PropOp30
 70
     1
102
RTVSPost2010Prop31
280
     0
102
RTVSPost2010PropOp31
 70
     1
102
RTVSPost2010Prop32
280
     0
102
RTVSPost2010PropOp32
 70
     1
102
RTVSPost2010Prop33
280
     0
102
RTVSPost2010PropOp33
 70
     1
102
RTVSPost2010Prop34
280
     0
102
RTVSPost2010PropOp34
 70
     1
102
RTVSPost2010Prop35
280
     0
102
RTVSPost2010PropOp35
 70
     1
102
RTVSPost2010Prop36
280
     0
102
RTVSPost2010PropOp36
 70
     1
102
RTVSPost2010Prop37
 90
       50
102
RTVSPost2010PropOp37
 70
     1
102
RTVSPost2010Prop38
140
0.0
102
RTVSPost2010PropOp38
 70
     1
102
RTVSPost2010Prop39
140
1.0
102
RTVSPost2010PropOp39
 70
     1
102
RTVSPost2010Prop40
 90
        0
102
RTVSPost2010PropOp40
 70
     1
102
RTVSPost2010Prop41ColorIndex
 90
       18
102
RTVSPost2010Prop41ColorRGB
 90
        0
102
RTVSPost2010PropOp41
 70
     1
102
RTVSPost2010Prop42
 90
       50
102
RTVSPost2010PropOp42
 70
     1
102
RTVSPost2010Prop43
 90
        3
102
RTVSPost2010PropOp43
 70
     1
102
RTVSPost2010Prop44ColorIndex
 90
        5
102
RTVSPost2010Prop44ColorRGB
 90
      255
102
RTVSPost2010PropOp44
 70
     1
102
RTVSPost2010Prop45
280
     0
102
RTVSPost2010PropOp45
 70
     1
102
RTVSPost2010Prop46
 90
       50
102
RTVSPost2010PropOp46
 70
     1
102
RTVSPost2010Prop47
 90
       50
102
RTVSPost2010PropOp47
 70
     1
102
RTVSPost2010Prop48
 90
       50
102
RTVSPost2010PropOp48
 70
     1
102
RTVSPost2010Prop49
280
     0
102
RTVSPost2010PropOp49
 70
     1
102
RTVSPost2010Prop50
 90
       50
102
RTVSPost2010PropOp50
 70
     1
102
RTVSPost2010Prop51ColorIndex
 90
      256
102
RTVSPost2010Prop51ColorRGB
 90
-16777216
102
RTVSPost2010PropOp51
 70
     0
102
RTVSPost2010Prop52
140
1.0
102
RTVSPost2010PropOp52
 70
     0
102
RTVSPost2010Prop53
 90
        2
102
RTVSPost2010PropOp53
 70
     1
102
RTVSPost2010Prop54
  1
strokes_ogs.tif
102
RTVSPost2010PropOp54
 70
     1
102
RTVSPost2010Prop55
280
     0
102
RTVSPost2010PropOp55
 70
     1
102
RTVSPost2010Prop56
140
1.0
102
RTVSPost2010PropOp56
 70
     1
102
RTVSPost2010Prop57
140
1.0
102
RTVSPost2010PropOp57
 70
     1
102
RTVSPropertyOp0
 70
     1
102
RTVSPropertyOp1
 70
     1
102
RTVSPropertyOp2
 70
     1
102
RTVSPropertyOp3
 70
     1
102
RTVSPropertyOp4
 70
     1
102
RTVSPropertyOp5
 70
     1
102
RTVSPropertyOp6
 70
     1
102
RTVSPropertyOp7
 70
     1
102
RTVSPropertyOp8
 70
     1
102
RTVSPropertyOp9
 70
     1
102
RTVSPropertyOp10
 70
     1
102
RTVSPropertyOp11
 70
     1
102
RTVSPropertyOp12
 70
     1
102
RTVSPropertyOp13
 70
     1
102
RTVSPropertyOp14
 70
     1
102
RTVSPropertyOp15
 70
     1
102
RTVSPropertyOp16
 70
     1
102
RTVSPropertyOp17
 70
     1
102
RTVSPropertyOp18
 70
     1
102
RTVSPropertyOp19
 70
     1
102
RTVSPropertyOp20
 70
     1
102
RTVSPropertyOp21
 70
     1
102
RTVSPropertyOp22
 70
     1
102
RTVSPropertyOp23
 70
     1
102
RTVSPropertyOp24
 70
     1
102
RTVSPropertyOp25
 70
     1
102
RTVSPropertyOp26
 70
     1
102
RTVSPropertyOp27
 70
     1
102
RTVSPropertyOp28
 70
     1
102
RTVSPropertyOp29
 70
     1
102
RTVSPropertyOp30
 70
     1
102
RTVSPropertyOp31
 70
     1
102
RTVSPropertyOp32
 70
     1
102
RTVSPropertyOp33
 70
     1
102
RTVSPropertyOp34
 70
     1
102
RTVSPropertyOp35
 70
     1
102
RTVSPropertyOp36
 70
     1
102
RTVSPropertyOp37
 70
     1
102
RTVSPropertyOp38
 70
     1
102
RTVSPropertyOp39
 70
     1
102
RTVSPropertyOp40
 70
     1
102
RTVSPropertyOp41
 70
     1
102
RTVSPropertyOp42
 70
     1
102
RTVSPropertyOp43
 70
     1
102
RTVSPropertyOp44
 70
     1
102
RTVSPropertyOp45
 70
     1
102
RTVSPropertyOp46
 70
     1
102
RTVSPropertyOp47
 70
     1
102
RTVSPropertyOp48
 70
     1
102
RTVSPropertyOp49
 70
     1
102
RTVSPropertyOp50
 70
     1
102
RTVSPropertyOp51
 70
     0
102
RTVSPropertyOp52
 70
     0
102
RTVSPropertyOp53
 70
     1
102
RTVSPropertyOp54
 70
     1
102
RTVSPropertyOp55
 70
     1
102
RTVSPropertyOp56
 70
     1
102
RTVSPropertyOp57
 70
     1
102
RTVSPropertyOp58
 70
     1
102
RTVSPropertyOp59
 70
     1
102
RTVSPropertyOp60
 70
     1
102
RTVSPropertyOp61
 70
     1
102
RTVSPropertyOp62
 70
     1
  0
XRECORD
  5
801
102
{ACAD_REACTORS
330
800
102
}
330
800
100
AcDbXrecord
280
     1
102
RTVSPost2010Prop28
280
     0
102
RTVSPost2010PropOp28
 70
     1
102
RTVSPost2010Prop29
280
     1
102
RTVSPost2010PropOp29
 70
     1
102
RTVSPost2010Prop30
280
     1
102
RTVSPost2010PropOp30
 70
     1
102
RTVSPost2010Prop31
280
     0
102
RTVSPost2010PropOp31
 70
     1
102
RTVSPost2010Prop32
280
     0
102
RTVSPost2010PropOp32
 70
     1
102
RTVSPost2010Prop33
280
     0
102
RTVSPost2010PropOp33
 70
     1
102
RTVSPost2010Prop34
280
     0
102
RTVSPost2010PropOp34
 70
     1
102
RTVSPost2010Prop35
280
     0
102
RTVSPost2010PropOp35
 70
     1
102
RTVSPost2010Prop36
280
     0
102
RTVSPost2010PropOp36
 70
     1
102
RTVSPost2010Prop37
 90
       50
102
RTVSPost2010PropOp37
 70
     1
102
RTVSPost2010Prop38
140
0.0
102
RTVSPost2010PropOp38
 70
     1
102
RTVSPost2010Prop39
140
1.0
102
RTVSPost2010PropOp39
 70
     1
102
RTVSPost2010Prop40
 90
        0
102
RTVSPost2010PropOp40
 70
     1
102
RTVSPost2010Prop41ColorIndex
 90
       18
102
RTVSPost2010Prop41ColorRGB
 90
        0
102
RTVSPost2010PropOp41
 70
     1
102
RTVSPost2010Prop42
 90
       50
102
RTVSPost2010PropOp42
 70
     1
102
RTVSPost2010Prop43
 90
        3
102
RTVSPost2010PropOp43
 70
     1
102
RTVSPost2010Prop44ColorIndex
 90
        5
102
RTVSPost2010Prop44ColorRGB
 90
      255
102
RTVSPost2010PropOp44
 70
     1
102
RTVSPost2010Prop45
280
     0
102
RTVSPost2010PropOp45
 70
     1
102
RTVSPost2010Prop46
 90
       50
102
RTVSPost2010PropOp46
 70
     1
102
RTVSPost2010Prop47
 90
       50
102
RTVSPost2010PropOp47
 70
     1
102
RTVSPost2010Prop48
 90
       50
102
RTVSPost2010PropOp48
 70
     1
102
RTVSPost2010Prop49
280
     0
102
RTVSPost2010PropOp49
 70
     1
102
RTVSPost2010Prop50
 90
       50
102
RTVSPost2010PropOp50
 70
     1
102
RTVSPost2010Prop51ColorIndex
 90
      256
102
RTVSPost2010Prop51ColorRGB
 90
-16777216
102
RTVSPost2010PropOp51
 70
     0
102
RTVSPost2010Prop52
140
1.0
102
RTVSPost2010PropOp52
 70
     0
102
RTVSPost2010Prop53
 90
        2
102
RTVSPost2010PropOp53
 70
     1
102
RTVSPost2010Prop54
  1
strokes_ogs.tif
102
RTVSPost2010PropOp54
 70
     1
102
RTVSPost2010Prop55
280
     0
102
RTVSPost2010PropOp55
 70
     1
102
RTVSPost2010Prop56
140
1.0
102
RTVSPost2010PropOp56
 70
     1
102
RTVSPost2010Prop57
140
1.0
102
RTVSPost2010PropOp57
 70
     1
102
RTVSPropertyOp0
 70
     1
102
RTVSPropertyOp1
 70
     1
102
RTVSPropertyOp2
 70
     1
102
RTVSPropertyOp3
 70
     1
102
RTVSPropertyOp4
 70
     1
102
RTVSPropertyOp5
 70
     1
102
RTVSPropertyOp6
 70
     1
102
RTVSPropertyOp7
 70
     1
102
RTVSPropertyOp8
 70
     1
102
RTVSPropertyOp9
 70
     1
102
RTVSPropertyOp10
 70
     1
102
RTVSPropertyOp11
 70
     1
102
RTVSPropertyOp12
 70
     1
102
RTVSPropertyOp13
 70
     1
102
RTVSPropertyOp14
 70
     1
102
RTVSPropertyOp15
 70
     1
102
RTVSPropertyOp16
 70
     1
102
RTVSPropertyOp17
 70
     1
102
RTVSPropertyOp18
 70
     1
102
RTVSPropertyOp19
 70
     1
102
RTVSPropertyOp20
 70
     1
102
RTVSPropertyOp21
 70
     1
102
RTVSPropertyOp22
 70
     1
102
RTVSPropertyOp23
 70
     1
102
RTVSPropertyOp24
 70
     1
102
RTVSPropertyOp25
 70
     1
102
RTVSPropertyOp26
 70
     1
102
RTVSPropertyOp27
 70
     1
102
RTVSPropertyOp28
 70
     1
102
RTVSPropertyOp29
 70
     1
102
RTVSPropertyOp30
 70
     1
102
RTVSPropertyOp31
 70
     1
102
RTVSPropertyOp32
 70
     1
102
RTVSPropertyOp33
 70
     1
102
RTVSPropertyOp34
 70
     1
102
RTVSPropertyOp35
 70
     1
102
RTVSPropertyOp36
 70
     1
102
RTVSPropertyOp37
 70
     1
102
RTVSPropertyOp38
 70
     1
102
RTVSPropertyOp39
 70
     1
102
RTVSPropertyOp40
 70
     1
102
RTVSPropertyOp41
 70
     1
102
RTVSPropertyOp42
 70
     1
102
RTVSPropertyOp43
 70
     1
102
RTVSPropertyOp44
 70
     1
102
RTVSPropertyOp45
 70
     1
102
RTVSPropertyOp46
 70
     1
102
RTVSPropertyOp47
 70
     1
102
RTVSPropertyOp48
 70
     1
102
RTVSPropertyOp49
 70
     1
102
RTVSPropertyOp50
 70
     1
102
RTVSPropertyOp51
 70
     0
102
RTVSPropertyOp52
 70
     0
102
RTVSPropertyOp53
 70
     1
102
RTVSPropertyOp54
 70
     1
102
RTVSPropertyOp55
 70
     1
102
RTVSPropertyOp56
 70
     1
102
RTVSPropertyOp57
 70
     1
102
RTVSPropertyOp58
 70
     1
102
RTVSPropertyOp59
 70
     1
102
RTVSPropertyOp60
 70
     1
102
RTVSPropertyOp61
 70
     1
102
RTVSPropertyOp62
 70
     1
  0
XRECORD
  5
7FF
102
{ACAD_REACTORS
330
7FE
102
}
330
7FE
100
AcDbXrecord
280
     1
102
RTVSPost2010Prop28
280
     0
102
RTVSPost2010PropOp28
 70
     1
102
RTVSPost2010Prop29
280
     1
102
RTVSPost2010PropOp29
 70
     1
102
RTVSPost2010Prop30
280
     1
102
RTVSPost2010PropOp30
 70
     1
102
RTVSPost2010Prop31
280
     0
102
RTVSPost2010PropOp31
 70
     1
102
RTVSPost2010Prop32
280
     0
102
RTVSPost2010PropOp32
 70
     1
102
RTVSPost2010Prop33
280
     0
102
RTVSPost2010PropOp33
 70
     1
102
RTVSPost2010Prop34
280
     0
102
RTVSPost2010PropOp34
 70
     1
102
RTVSPost2010Prop35
280
     0
102
RTVSPost2010PropOp35
 70
     1
102
RTVSPost2010Prop36
280
     0
102
RTVSPost2010PropOp36
 70
     1
102
RTVSPost2010Prop37
 90
       50
102
RTVSPost2010PropOp37
 70
     1
102
RTVSPost2010Prop38
140
0.0
102
RTVSPost2010PropOp38
 70
     1
102
RTVSPost2010Prop39
140
1.0
102
RTVSPost2010PropOp39
 70
     1
102
RTVSPost2010Prop40
 90
        0
102
RTVSPost2010PropOp40
 70
     1
102
RTVSPost2010Prop41ColorIndex
 90
       18
102
RTVSPost2010Prop41ColorRGB
 90
        0
102
RTVSPost2010PropOp41
 70
     1
102
RTVSPost2010Prop42
 90
       50
102
RTVSPost2010PropOp42
 70
     1
102
RTVSPost2010Prop43
 90
        3
102
RTVSPost2010PropOp43
 70
     1
102
RTVSPost2010Prop44ColorIndex
 90
        5
102
RTVSPost2010Prop44ColorRGB
 90
      255
102
RTVSPost2010PropOp44
 70
     1
102
RTVSPost2010Prop45
280
     0
102
RTVSPost2010PropOp45
 70
     1
102
RTVSPost2010Prop46
 90
       50
102
RTVSPost2010PropOp46
 70
     1
102
RTVSPost2010Prop47
 90
       50
102
RTVSPost2010PropOp47
 70
     1
102
RTVSPost2010Prop48
 90
       50
102
RTVSPost2010PropOp48
 70
     1
102
RTVSPost2010Prop49
280
     0
102
RTVSPost2010PropOp49
 70
     1
102
RTVSPost2010Prop50
 90
       50
102
RTVSPost2010PropOp50
 70
     1
102
RTVSPost2010Prop51ColorIndex
 90
      256
102
RTVSPost2010Prop51ColorRGB
 90
-16777216
102
RTVSPost2010PropOp51
 70
     0
102
RTVSPost2010Prop52
140
1.0
102
RTVSPost2010PropOp52
 70
     0
102
RTVSPost2010Prop53
 90
        2
102
RTVSPost2010PropOp53
 70
     1
102
RTVSPost2010Prop54
  1
strokes_ogs.tif
102
RTVSPost2010PropOp54
 70
     1
102
RTVSPost2010Prop55
280
     0
102
RTVSPost2010PropOp55
 70
     1
102
RTVSPost2010Prop56
140
1.0
102
RTVSPost2010PropOp56
 70
     1
102
RTVSPost2010Prop57
140
1.0
102
RTVSPost2010PropOp57
 70
     1
102
RTVSPropertyOp0
 70
     1
102
RTVSPropertyOp1
 70
     1
102
RTVSPropertyOp2
 70
     1
102
RTVSPropertyOp3
 70
     1
102
RTVSPropertyOp4
 70
     1
102
RTVSPropertyOp5
 70
     1
102
RTVSPropertyOp6
 70
     1
102
RTVSPropertyOp7
 70
     1
102
RTVSPropertyOp8
 70
     1
102
RTVSPropertyOp9
 70
     1
102
RTVSPropertyOp10
 70
     1
102
RTVSPropertyOp11
 70
     1
102
RTVSPropertyOp12
 70
     1
102
RTVSPropertyOp13
 70
     1
102
RTVSPropertyOp14
 70
     1
102
RTVSPropertyOp15
 70
     1
102
RTVSPropertyOp16
 70
     1
102
RTVSPropertyOp17
 70
     1
102
RTVSPropertyOp18
 70
     1
102
RTVSPropertyOp19
 70
     1
102
RTVSPropertyOp20
 70
     1
102
RTVSPropertyOp21
 70
     1
102
RTVSPropertyOp22
 70
     1
102
RTVSPropertyOp23
 70
     1
102
RTVSPropertyOp24
 70
     1
102
RTVSPropertyOp25
 70
     1
102
RTVSPropertyOp26
 70
     1
102
RTVSPropertyOp27
 70
     1
102
RTVSPropertyOp28
 70
     1
102
RTVSPropertyOp29
 70
     1
102
RTVSPropertyOp30
 70
     1
102
RTVSPropertyOp31
 70
     1
102
RTVSPropertyOp32
 70
     1
102
RTVSPropertyOp33
 70
     1
102
RTVSPropertyOp34
 70
     1
102
RTVSPropertyOp35
 70
     1
102
RTVSPropertyOp36
 70
     1
102
RTVSPropertyOp37
 70
     1
102
RTVSPropertyOp38
 70
     1
102
RTVSPropertyOp39
 70
     1
102
RTVSPropertyOp40
 70
     1
102
RTVSPropertyOp41
 70
     1
102
RTVSPropertyOp42
 70
     1
102
RTVSPropertyOp43
 70
     1
102
RTVSPropertyOp44
 70
     1
102
RTVSPropertyOp45
 70
     1
102
RTVSPropertyOp46
 70
     1
102
RTVSPropertyOp47
 70
     1
102
RTVSPropertyOp48
 70
     1
102
RTVSPropertyOp49
 70
     1
102
RTVSPropertyOp50
 70
     1
102
RTVSPropertyOp51
 70
     0
102
RTVSPropertyOp52
 70
     0
102
RTVSPropertyOp53
 70
     1
102
RTVSPropertyOp54
 70
     1
102
RTVSPropertyOp55
 70
     1
102
RTVSPropertyOp56
 70
     1
102
RTVSPropertyOp57
 70
     1
102
RTVSPropertyOp58
 70
     1
102
RTVSPropertyOp59
 70
     1
102
RTVSPropertyOp60
 70
     1
102
RTVSPropertyOp61
 70
     1
102
RTVSPropertyOp62
 70
     1
  0
XRECORD
  5
7F9
102
{ACAD_REACTORS
330
7F8
102
}
330
7F8
100
AcDbXrecord
280
     1
102
RTVSPost2010Prop28
280
     0
102
RTVSPost2010PropOp28
 70
     1
102
RTVSPost2010Prop29
280
     1
102
RTVSPost2010PropOp29
 70
     1
102
RTVSPost2010Prop30
280
     1
102
RTVSPost2010PropOp30
 70
     1
102
RTVSPost2010Prop31
280
     0
102
RTVSPost2010PropOp31
 70
     1
102
RTVSPost2010Prop32
280
     0
102
RTVSPost2010PropOp32
 70
     1
102
RTVSPost2010Prop33
280
     0
102
RTVSPost2010PropOp33
 70
     1
102
RTVSPost2010Prop34
280
     0
102
RTVSPost2010PropOp34
 70
     1
102
RTVSPost2010Prop35
280
     0
102
RTVSPost2010PropOp35
 70
     1
102
RTVSPost2010Prop36
280
     0
102
RTVSPost2010PropOp36
 70
     1
102
RTVSPost2010Prop37
 90
       50
102
RTVSPost2010PropOp37
 70
     1
102
RTVSPost2010Prop38
140
0.0
102
RTVSPost2010PropOp38
 70
     1
102
RTVSPost2010Prop39
140
1.0
102
RTVSPost2010PropOp39
 70
     1
102
RTVSPost2010Prop40
 90
        0
102
RTVSPost2010PropOp40
 70
     1
102
RTVSPost2010Prop41ColorIndex
 90
       18
102
RTVSPost2010Prop41ColorRGB
 90
        0
102
RTVSPost2010PropOp41
 70
     1
102
RTVSPost2010Prop42
 90
       50
102
RTVSPost2010PropOp42
 70
     1
102
RTVSPost2010Prop43
 90
        3
102
RTVSPost2010PropOp43
 70
     1
102
RTVSPost2010Prop44ColorIndex
 90
        5
102
RTVSPost2010Prop44ColorRGB
 90
      255
102
RTVSPost2010PropOp44
 70
     1
102
RTVSPost2010Prop45
280
     0
102
RTVSPost2010PropOp45
 70
     1
102
RTVSPost2010Prop46
 90
       50
102
RTVSPost2010PropOp46
 70
     1
102
RTVSPost2010Prop47
 90
       50
102
RTVSPost2010PropOp47
 70
     1
102
RTVSPost2010Prop48
 90
       50
102
RTVSPost2010PropOp48
 70
     1
102
RTVSPost2010Prop49
280
     0
102
RTVSPost2010PropOp49
 70
     1
102
RTVSPost2010Prop50
 90
       50
102
RTVSPost2010PropOp50
 70
     1
102
RTVSPost2010Prop51ColorIndex
 90
      256
102
RTVSPost2010Prop51ColorRGB
 90
-16777216
102
RTVSPost2010PropOp51
 70
     0
102
RTVSPost2010Prop52
140
1.0
102
RTVSPost2010PropOp52
 70
     0
102
RTVSPost2010Prop53
 90
        2
102
RTVSPost2010PropOp53
 70
     1
102
RTVSPost2010Prop54
  1
strokes_ogs.tif
102
RTVSPost2010PropOp54
 70
     1
102
RTVSPost2010Prop55
280
     0
102
RTVSPost2010PropOp55
 70
     1
102
RTVSPost2010Prop56
140
1.0
102
RTVSPost2010PropOp56
 70
     1
102
RTVSPost2010Prop57
140
1.0
102
RTVSPost2010PropOp57
 70
     1
102
RTVSPropertyOp0
 70
     1
102
RTVSPropertyOp1
 70
     1
102
RTVSPropertyOp2
 70
     1
102
RTVSPropertyOp3
 70
     1
102
RTVSPropertyOp4
 70
     1
102
RTVSPropertyOp5
 70
     1
102
RTVSPropertyOp6
 70
     1
102
RTVSPropertyOp7
 70
     1
102
RTVSPropertyOp8
 70
     1
102
RTVSPropertyOp9
 70
     1
102
RTVSPropertyOp10
 70
     1
102
RTVSPropertyOp11
 70
     1
102
RTVSPropertyOp12
 70
     1
102
RTVSPropertyOp13
 70
     1
102
RTVSPropertyOp14
 70
     1
102
RTVSPropertyOp15
 70
     1
102
RTVSPropertyOp16
 70
     1
102
RTVSPropertyOp17
 70
     1
102
RTVSPropertyOp18
 70
     1
102
RTVSPropertyOp19
 70
     1
102
RTVSPropertyOp20
 70
     1
102
RTVSPropertyOp21
 70
     1
102
RTVSPropertyOp22
 70
     1
102
RTVSPropertyOp23
 70
     1
102
RTVSPropertyOp24
 70
     1
102
RTVSPropertyOp25
 70
     1
102
RTVSPropertyOp26
 70
     1
102
RTVSPropertyOp27
 70
     1
102
RTVSPropertyOp28
 70
     1
102
RTVSPropertyOp29
 70
     1
102
RTVSPropertyOp30
 70
     1
102
RTVSPropertyOp31
 70
     1
102
RTVSPropertyOp32
 70
     1
102
RTVSPropertyOp33
 70
     1
102
RTVSPropertyOp34
 70
     1
102
RTVSPropertyOp35
 70
     1
102
RTVSPropertyOp36
 70
     1
102
RTVSPropertyOp37
 70
     1
102
RTVSPropertyOp38
 70
     1
102
RTVSPropertyOp39
 70
     1
102
RTVSPropertyOp40
 70
     1
102
RTVSPropertyOp41
 70
     1
102
RTVSPropertyOp42
 70
     1
102
RTVSPropertyOp43
 70
     1
102
RTVSPropertyOp44
 70
     1
102
RTVSPropertyOp45
 70
     1
102
RTVSPropertyOp46
 70
     1
102
RTVSPropertyOp47
 70
     1
102
RTVSPropertyOp48
 70
     1
102
RTVSPropertyOp49
 70
     1
102
RTVSPropertyOp50
 70
     1
102
RTVSPropertyOp51
 70
     0
102
RTVSPropertyOp52
 70
     0
102
RTVSPropertyOp53
 70
     1
102
RTVSPropertyOp54
 70
     1
102
RTVSPropertyOp55
 70
     1
102
RTVSPropertyOp56
 70
     1
102
RTVSPropertyOp57
 70
     1
102
RTVSPropertyOp58
 70
     1
102
RTVSPropertyOp59
 70
     1
102
RTVSPropertyOp60
 70
     1
102
RTVSPropertyOp61
 70
     1
102
RTVSPropertyOp62
 70
     1
  0
XRECORD
  5
7FB
102
{ACAD_REACTORS
330
7FA
102
}
330
7FA
100
AcDbXrecord
280
     1
102
RTVSPost2010Prop28
280
     0
102
RTVSPost2010PropOp28
 70
     1
102
RTVSPost2010Prop29
280
     1
102
RTVSPost2010PropOp29
 70
     1
102
RTVSPost2010Prop30
280
     1
102
RTVSPost2010PropOp30
 70
     1
102
RTVSPost2010Prop31
280
     0
102
RTVSPost2010PropOp31
 70
     1
102
RTVSPost2010Prop32
280
     0
102
RTVSPost2010PropOp32
 70
     1
102
RTVSPost2010Prop33
280
     0
102
RTVSPost2010PropOp33
 70
     1
102
RTVSPost2010Prop34
280
     0
102
RTVSPost2010PropOp34
 70
     1
102
RTVSPost2010Prop35
280
     0
102
RTVSPost2010PropOp35
 70
     1
102
RTVSPost2010Prop36
280
     0
102
RTVSPost2010PropOp36
 70
     1
102
RTVSPost2010Prop37
 90
       50
102
RTVSPost2010PropOp37
 70
     1
102
RTVSPost2010Prop38
140
0.0
102
RTVSPost2010PropOp38
 70
     1
102
RTVSPost2010Prop39
140
1.0
102
RTVSPost2010PropOp39
 70
     1
102
RTVSPost2010Prop40
 90
        0
102
RTVSPost2010PropOp40
 70
     1
102
RTVSPost2010Prop41ColorIndex
 90
       18
102
RTVSPost2010Prop41ColorRGB
 90
        0
102
RTVSPost2010PropOp41
 70
     1
102
RTVSPost2010Prop42
 90
       50
102
RTVSPost2010PropOp42
 70
     1
102
RTVSPost2010Prop43
 90
        3
102
RTVSPost2010PropOp43
 70
     1
102
RTVSPost2010Prop44ColorIndex
 90
        5
102
RTVSPost2010Prop44ColorRGB
 90
      255
102
RTVSPost2010PropOp44
 70
     1
102
RTVSPost2010Prop45
280
     0
102
RTVSPost2010PropOp45
 70
     1
102
RTVSPost2010Prop46
 90
       50
102
RTVSPost2010PropOp46
 70
     1
102
RTVSPost2010Prop47
 90
       50
102
RTVSPost2010PropOp47
 70
     1
102
RTVSPost2010Prop48
 90
       50
102
RTVSPost2010PropOp48
 70
     1
102
RTVSPost2010Prop49
280
     0
102
RTVSPost2010PropOp49
 70
     1
102
RTVSPost2010Prop50
 90
       50
102
RTVSPost2010PropOp50
 70
     1
102
RTVSPost2010Prop51ColorIndex
 90
      256
102
RTVSPost2010Prop51ColorRGB
 90
-16777216
102
RTVSPost2010PropOp51
 70
     0
102
RTVSPost2010Prop52
140
1.0
102
RTVSPost2010PropOp52
 70
     0
102
RTVSPost2010Prop53
 90
        2
102
RTVSPost2010PropOp53
 70
     1
102
RTVSPost2010Prop54
  1
strokes_ogs.tif
102
RTVSPost2010PropOp54
 70
     1
102
RTVSPost2010Prop55
280
     0
102
RTVSPost2010PropOp55
 70
     1
102
RTVSPost2010Prop56
140
1.0
102
RTVSPost2010PropOp56
 70
     1
102
RTVSPost2010Prop57
140
1.0
102
RTVSPost2010PropOp57
 70
     1
102
RTVSPropertyOp0
 70
     1
102
RTVSPropertyOp1
 70
     1
102
RTVSPropertyOp2
 70
     1
102
RTVSPropertyOp3
 70
     1
102
RTVSPropertyOp4
 70
     1
102
RTVSPropertyOp5
 70
     1
102
RTVSPropertyOp6
 70
     1
102
RTVSPropertyOp7
 70
     1
102
RTVSPropertyOp8
 70
     1
102
RTVSPropertyOp9
 70
     1
102
RTVSPropertyOp10
 70
     1
102
RTVSPropertyOp11
 70
     1
102
RTVSPropertyOp12
 70
     1
102
RTVSPropertyOp13
 70
     1
102
RTVSPropertyOp14
 70
     1
102
RTVSPropertyOp15
 70
     1
102
RTVSPropertyOp16
 70
     1
102
RTVSPropertyOp17
 70
     1
102
RTVSPropertyOp18
 70
     1
102
RTVSPropertyOp19
 70
     1
102
RTVSPropertyOp20
 70
     1
102
RTVSPropertyOp21
 70
     1
102
RTVSPropertyOp22
 70
     1
102
RTVSPropertyOp23
 70
     1
102
RTVSPropertyOp24
 70
     1
102
RTVSPropertyOp25
 70
     1
102
RTVSPropertyOp26
 70
     1
102
RTVSPropertyOp27
 70
     1
102
RTVSPropertyOp28
 70
     1
102
RTVSPropertyOp29
 70
     1
102
RTVSPropertyOp30
 70
     1
102
RTVSPropertyOp31
 70
     1
102
RTVSPropertyOp32
 70
     1
102
RTVSPropertyOp33
 70
     1
102
RTVSPropertyOp34
 70
     1
102
RTVSPropertyOp35
 70
     1
102
RTVSPropertyOp36
 70
     1
102
RTVSPropertyOp37
 70
     1
102
RTVSPropertyOp38
 70
     1
102
RTVSPropertyOp39
 70
     1
102
RTVSPropertyOp40
 70
     1
102
RTVSPropertyOp41
 70
     1
102
RTVSPropertyOp42
 70
     1
102
RTVSPropertyOp43
 70
     1
102
RTVSPropertyOp44
 70
     1
102
RTVSPropertyOp45
 70
     1
102
RTVSPropertyOp46
 70
     1
102
RTVSPropertyOp47
 70
     1
102
RTVSPropertyOp48
 70
     1
102
RTVSPropertyOp49
 70
     1
102
RTVSPropertyOp50
 70
     1
102
RTVSPropertyOp51
 70
     0
102
RTVSPropertyOp52
 70
     0
102
RTVSPropertyOp53
 70
     1
102
RTVSPropertyOp54
 70
     1
102
RTVSPropertyOp55
 70
     1
102
RTVSPropertyOp56
 70
     1
102
RTVSPropertyOp57
 70
     1
102
RTVSPropertyOp58
 70
     1
102
RTVSPropertyOp59
 70
     1
102
RTVSPropertyOp60
 70
     1
102
RTVSPropertyOp61
 70
     1
102
RTVSPropertyOp62
 70
     1
  0
XRECORD
  5
7E6
102
{ACAD_REACTORS
330
7E5
102
}
330
7E5
100
AcDbXrecord
280
     1
102
RTVSPost2010Prop28
280
     0
102
RTVSPost2010PropOp28
 70
     1
102
RTVSPost2010Prop29
280
     1
102
RTVSPost2010PropOp29
 70
     1
102
RTVSPost2010Prop30
280
     1
102
RTVSPost2010PropOp30
 70
     1
102
RTVSPost2010Prop31
280
     0
102
RTVSPost2010PropOp31
 70
     1
102
RTVSPost2010Prop32
280
     0
102
RTVSPost2010PropOp32
 70
     1
102
RTVSPost2010Prop33
280
     0
102
RTVSPost2010PropOp33
 70
     1
102
RTVSPost2010Prop34
280
     0
102
RTVSPost2010PropOp34
 70
     1
102
RTVSPost2010Prop35
280
     0
102
RTVSPost2010PropOp35
 70
     1
102
RTVSPost2010Prop36
280
     0
102
RTVSPost2010PropOp36
 70
     1
102
RTVSPost2010Prop37
 90
       50
102
RTVSPost2010PropOp37
 70
     1
102
RTVSPost2010Prop38
140
0.0
102
RTVSPost2010PropOp38
 70
     1
102
RTVSPost2010Prop39
140
1.0
102
RTVSPost2010PropOp39
 70
     1
102
RTVSPost2010Prop40
 90
        0
102
RTVSPost2010PropOp40
 70
     1
102
RTVSPost2010Prop41ColorIndex
 90
       18
102
RTVSPost2010Prop41ColorRGB
 90
        0
102
RTVSPost2010PropOp41
 70
     1
102
RTVSPost2010Prop42
 90
       50
102
RTVSPost2010PropOp42
 70
     1
102
RTVSPost2010Prop43
 90
        3
102
RTVSPost2010PropOp43
 70
     1
102
RTVSPost2010Prop44ColorIndex
 90
        5
102
RTVSPost2010Prop44ColorRGB
 90
      255
102
RTVSPost2010PropOp44
 70
     1
102
RTVSPost2010Prop45
280
     0
102
RTVSPost2010PropOp45
 70
     1
102
RTVSPost2010Prop46
 90
       50
102
RTVSPost2010PropOp46
 70
     1
102
RTVSPost2010Prop47
 90
       50
102
RTVSPost2010PropOp47
 70
     1
102
RTVSPost2010Prop48
 90
       50
102
RTVSPost2010PropOp48
 70
     1
102
RTVSPost2010Prop49
280
     0
102
RTVSPost2010PropOp49
 70
     1
102
RTVSPost2010Prop50
 90
       50
102
RTVSPost2010PropOp50
 70
     1
102
RTVSPost2010Prop51ColorIndex
 90
      256
102
RTVSPost2010Prop51ColorRGB
 90
-16777216
102
RTVSPost2010PropOp51
 70
     0
102
RTVSPost2010Prop52
140
1.0
102
RTVSPost2010PropOp52
 70
     0
102
RTVSPost2010Prop53
 90
        2
102
RTVSPost2010PropOp53
 70
     1
102
RTVSPost2010Prop54
  1
strokes_ogs.tif
102
RTVSPost2010PropOp54
 70
     1
102
RTVSPost2010Prop55
280
     0
102
RTVSPost2010PropOp55
 70
     1
102
RTVSPost2010Prop56
140
1.0
102
RTVSPost2010PropOp56
 70
     1
102
RTVSPost2010Prop57
140
1.0
102
RTVSPost2010PropOp57
 70
     1
102
RTVSPropertyOp0
 70
     1
102
RTVSPropertyOp1
 70
     1
102
RTVSPropertyOp2
 70
     1
102
RTVSPropertyOp3
 70
     1
102
RTVSPropertyOp4
 70
     1
102
RTVSPropertyOp5
 70
     1
102
RTVSPropertyOp6
 70
     1
102
RTVSPropertyOp7
 70
     1
102
RTVSPropertyOp8
 70
     1
102
RTVSPropertyOp9
 70
     1
102
RTVSPropertyOp10
 70
     1
102
RTVSPropertyOp11
 70
     1
102
RTVSPropertyOp12
 70
     1
102
RTVSPropertyOp13
 70
     1
102
RTVSPropertyOp14
 70
     1
102
RTVSPropertyOp15
 70
     1
102
RTVSPropertyOp16
 70
     1
102
RTVSPropertyOp17
 70
     1
102
RTVSPropertyOp18
 70
     1
102
RTVSPropertyOp19
 70
     1
102
RTVSPropertyOp20
 70
     1
102
RTVSPropertyOp21
 70
     1
102
RTVSPropertyOp22
 70
     1
102
RTVSPropertyOp23
 70
     1
102
RTVSPropertyOp24
 70
     1
102
RTVSPropertyOp25
 70
     1
102
RTVSPropertyOp26
 70
     1
102
RTVSPropertyOp27
 70
     1
102
RTVSPropertyOp28
 70
     1
102
RTVSPropertyOp29
 70
     1
102
RTVSPropertyOp30
 70
     1
102
RTVSPropertyOp31
 70
     1
102
RTVSPropertyOp32
 70
     1
102
RTVSPropertyOp33
 70
     1
102
RTVSPropertyOp34
 70
     1
102
RTVSPropertyOp35
 70
     1
102
RTVSPropertyOp36
 70
     1
102
RTVSPropertyOp37
 70
     1
102
RTVSPropertyOp38
 70
     1
102
RTVSPropertyOp39
 70
     1
102
RTVSPropertyOp40
 70
     1
102
RTVSPropertyOp41
 70
     1
102
RTVSPropertyOp42
 70
     1
102
RTVSPropertyOp43
 70
     1
102
RTVSPropertyOp44
 70
     1
102
RTVSPropertyOp45
 70
     1
102
RTVSPropertyOp46
 70
     1
102
RTVSPropertyOp47
 70
     1
102
RTVSPropertyOp48
 70
     1
102
RTVSPropertyOp49
 70
     1
102
RTVSPropertyOp50
 70
     1
102
RTVSPropertyOp51
 70
     0
102
RTVSPropertyOp52
 70
     0
102
RTVSPropertyOp53
 70
     1
102
RTVSPropertyOp54
 70
     1
102
RTVSPropertyOp55
 70
     1
102
RTVSPropertyOp56
 70
     1
102
RTVSPropertyOp57
 70
     1
102
RTVSPropertyOp58
 70
     1
102
RTVSPropertyOp59
 70
     1
102
RTVSPropertyOp60
 70
     1
102
RTVSPropertyOp61
 70
     1
102
RTVSPropertyOp62
 70
     1
  0
XRECORD
  5
7F5
102
{ACAD_REACTORS
330
7F4
102
}
330
7F4
100
AcDbXrecord
280
     1
102
RTVSPost2010Prop28
280
     0
102
RTVSPost2010PropOp28
 70
     1
102
RTVSPost2010Prop29
280
     1
102
RTVSPost2010PropOp29
 70
     1
102
RTVSPost2010Prop30
280
     1
102
RTVSPost2010PropOp30
 70
     1
102
RTVSPost2010Prop31
280
     0
102
RTVSPost2010PropOp31
 70
     1
102
RTVSPost2010Prop32
280
     0
102
RTVSPost2010PropOp32
 70
     1
102
RTVSPost2010Prop33
280
     0
102
RTVSPost2010PropOp33
 70
     1
102
RTVSPost2010Prop34
280
     0
102
RTVSPost2010PropOp34
 70
     1
102
RTVSPost2010Prop35
280
     0
102
RTVSPost2010PropOp35
 70
     1
102
RTVSPost2010Prop36
280
     0
102
RTVSPost2010PropOp36
 70
     1
102
RTVSPost2010Prop37
 90
       50
102
RTVSPost2010PropOp37
 70
     1
102
RTVSPost2010Prop38
140
0.0
102
RTVSPost2010PropOp38
 70
     1
102
RTVSPost2010Prop39
140
1.0
102
RTVSPost2010PropOp39
 70
     1
102
RTVSPost2010Prop40
 90
        0
102
RTVSPost2010PropOp40
 70
     1
102
RTVSPost2010Prop41ColorIndex
 90
       18
102
RTVSPost2010Prop41ColorRGB
 90
        0
102
RTVSPost2010PropOp41
 70
     1
102
RTVSPost2010Prop42
 90
       50
102
RTVSPost2010PropOp42
 70
     1
102
RTVSPost2010Prop43
 90
        3
102
RTVSPost2010PropOp43
 70
     1
102
RTVSPost2010Prop44ColorIndex
 90
        5
102
RTVSPost2010Prop44ColorRGB
 90
      255
102
RTVSPost2010PropOp44
 70
     1
102
RTVSPost2010Prop45
280
     0
102
RTVSPost2010PropOp45
 70
     1
102
RTVSPost2010Prop46
 90
       50
102
RTVSPost2010PropOp46
 70
     1
102
RTVSPost2010Prop47
 90
       50
102
RTVSPost2010PropOp47
 70
     1
102
RTVSPost2010Prop48
 90
       50
102
RTVSPost2010PropOp48
 70
     1
102
RTVSPost2010Prop49
280
     0
102
RTVSPost2010PropOp49
 70
     1
102
RTVSPost2010Prop50
 90
       50
102
RTVSPost2010PropOp50
 70
     1
102
RTVSPost2010Prop51ColorIndex
 90
      256
102
RTVSPost2010Prop51ColorRGB
 90
-16777216
102
RTVSPost2010PropOp51
 70
     0
102
RTVSPost2010Prop52
140
1.0
102
RTVSPost2010PropOp52
 70
     0
102
RTVSPost2010Prop53
 90
        2
102
RTVSPost2010PropOp53
 70
     1
102
RTVSPost2010Prop54
  1
strokes_ogs.tif
102
RTVSPost2010PropOp54
 70
     1
102
RTVSPost2010Prop55
280
     0
102
RTVSPost2010PropOp55
 70
     1
102
RTVSPost2010Prop56
140
1.0
102
RTVSPost2010PropOp56
 70
     1
102
RTVSPost2010Prop57
140
1.0
102
RTVSPost2010PropOp57
 70
     1
102
RTVSPropertyOp0
 70
     1
102
RTVSPropertyOp1
 70
     1
102
RTVSPropertyOp2
 70
     1
102
RTVSPropertyOp3
 70
     1
102
RTVSPropertyOp4
 70
     1
102
RTVSPropertyOp5
 70
     1
102
RTVSPropertyOp6
 70
     1
102
RTVSPropertyOp7
 70
     1
102
RTVSPropertyOp8
 70
     1
102
RTVSPropertyOp9
 70
     1
102
RTVSPropertyOp10
 70
     1
102
RTVSPropertyOp11
 70
     1
102
RTVSPropertyOp12
 70
     1
102
RTVSPropertyOp13
 70
     1
102
RTVSPropertyOp14
 70
     1
102
RTVSPropertyOp15
 70
     1
102
RTVSPropertyOp16
 70
     1
102
RTVSPropertyOp17
 70
     1
102
RTVSPropertyOp18
 70
     1
102
RTVSPropertyOp19
 70
     1
102
RTVSPropertyOp20
 70
     1
102
RTVSPropertyOp21
 70
     1
102
RTVSPropertyOp22
 70
     1
102
RTVSPropertyOp23
 70
     1
102
RTVSPropertyOp24
 70
     1
102
RTVSPropertyOp25
 70
     1
102
RTVSPropertyOp26
 70
     1
102
RTVSPropertyOp27
 70
     1
102
RTVSPropertyOp28
 70
     1
102
RTVSPropertyOp29
 70
     1
102
RTVSPropertyOp30
 70
     1
102
RTVSPropertyOp31
 70
     1
102
RTVSPropertyOp32
 70
     1
102
RTVSPropertyOp33
 70
     1
102
RTVSPropertyOp34
 70
     1
102
RTVSPropertyOp35
 70
     1
102
RTVSPropertyOp36
 70
     1
102
RTVSPropertyOp37
 70
     1
102
RTVSPropertyOp38
 70
     1
102
RTVSPropertyOp39
 70
     1
102
RTVSPropertyOp40
 70
     1
102
RTVSPropertyOp41
 70
     1
102
RTVSPropertyOp42
 70
     1
102
RTVSPropertyOp43
 70
     1
102
RTVSPropertyOp44
 70
     1
102
RTVSPropertyOp45
 70
     1
102
RTVSPropertyOp46
 70
     1
102
RTVSPropertyOp47
 70
     1
102
RTVSPropertyOp48
 70
     1
102
RTVSPropertyOp49
 70
     1
102
RTVSPropertyOp50
 70
     1
102
RTVSPropertyOp51
 70
     0
102
RTVSPropertyOp52
 70
     0
102
RTVSPropertyOp53
 70
     1
102
RTVSPropertyOp54
 70
     1
102
RTVSPropertyOp55
 70
     1
102
RTVSPropertyOp56
 70
     1
102
RTVSPropertyOp57
 70
     1
102
RTVSPropertyOp58
 70
     1
102
RTVSPropertyOp59
 70
     1
102
RTVSPropertyOp60
 70
     1
102
RTVSPropertyOp61
 70
     1
102
RTVSPropertyOp62
 70
     1
  0
XRECORD
  5
7FD
102
{ACAD_REACTORS
330
7FC
102
}
330
7FC
100
AcDbXrecord
280
     1
102
RTVSPost2010Prop28
280
     0
102
RTVSPost2010PropOp28
 70
     1
102
RTVSPost2010Prop29
280
     1
102
RTVSPost2010PropOp29
 70
     1
102
RTVSPost2010Prop30
280
     1
102
RTVSPost2010PropOp30
 70
     1
102
RTVSPost2010Prop31
280
     0
102
RTVSPost2010PropOp31
 70
     1
102
RTVSPost2010Prop32
280
     0
102
RTVSPost2010PropOp32
 70
     1
102
RTVSPost2010Prop33
280
     0
102
RTVSPost2010PropOp33
 70
     1
102
RTVSPost2010Prop34
280
     0
102
RTVSPost2010PropOp34
 70
     1
102
RTVSPost2010Prop35
280
     0
102
RTVSPost2010PropOp35
 70
     1
102
RTVSPost2010Prop36
280
     0
102
RTVSPost2010PropOp36
 70
     1
102
RTVSPost2010Prop37
 90
       50
102
RTVSPost2010PropOp37
 70
     1
102
RTVSPost2010Prop38
140
0.0
102
RTVSPost2010PropOp38
 70
     1
102
RTVSPost2010Prop39
140
1.0
102
RTVSPost2010PropOp39
 70
     1
102
RTVSPost2010Prop40
 90
        0
102
RTVSPost2010PropOp40
 70
     1
102
RTVSPost2010Prop41ColorIndex
 90
       18
102
RTVSPost2010Prop41ColorRGB
 90
        0
102
RTVSPost2010PropOp41
 70
     1
102
RTVSPost2010Prop42
 90
       50
102
RTVSPost2010PropOp42
 70
     1
102
RTVSPost2010Prop43
 90
        3
102
RTVSPost2010PropOp43
 70
     1
102
RTVSPost2010Prop44ColorIndex
 90
        5
102
RTVSPost2010Prop44ColorRGB
 90
      255
102
RTVSPost2010PropOp44
 70
     1
102
RTVSPost2010Prop45
280
     0
102
RTVSPost2010PropOp45
 70
     1
102
RTVSPost2010Prop46
 90
       50
102
RTVSPost2010PropOp46
 70
     1
102
RTVSPost2010Prop47
 90
       50
102
RTVSPost2010PropOp47
 70
     1
102
RTVSPost2010Prop48
 90
       50
102
RTVSPost2010PropOp48
 70
     1
102
RTVSPost2010Prop49
280
     0
102
RTVSPost2010PropOp49
 70
     1
102
RTVSPost2010Prop50
 90
       50
102
RTVSPost2010PropOp50
 70
     1
102
RTVSPost2010Prop51ColorIndex
 90
      256
102
RTVSPost2010Prop51ColorRGB
 90
-16777216
102
RTVSPost2010PropOp51
 70
     0
102
RTVSPost2010Prop52
140
1.0
102
RTVSPost2010PropOp52
 70
     0
102
RTVSPost2010Prop53
 90
        2
102
RTVSPost2010PropOp53
 70
     1
102
RTVSPost2010Prop54
  1
strokes_ogs.tif
102
RTVSPost2010PropOp54
 70
     1
102
RTVSPost2010Prop55
280
     0
102
RTVSPost2010PropOp55
 70
     1
102
RTVSPost2010Prop56
140
1.0
102
RTVSPost2010PropOp56
 70
     1
102
RTVSPost2010Prop57
140
1.0
102
RTVSPost2010PropOp57
 70
     1
102
RTVSPropertyOp0
 70
     1
102
RTVSPropertyOp1
 70
     1
102
RTVSPropertyOp2
 70
     1
102
RTVSPropertyOp3
 70
     1
102
RTVSPropertyOp4
 70
     1
102
RTVSPropertyOp5
 70
     1
102
RTVSPropertyOp6
 70
     1
102
RTVSPropertyOp7
 70
     1
102
RTVSPropertyOp8
 70
     1
102
RTVSPropertyOp9
 70
     1
102
RTVSPropertyOp10
 70
     1
102
RTVSPropertyOp11
 70
     1
102
RTVSPropertyOp12
 70
     1
102
RTVSPropertyOp13
 70
     1
102
RTVSPropertyOp14
 70
     1
102
RTVSPropertyOp15
 70
     1
102
RTVSPropertyOp16
 70
     1
102
RTVSPropertyOp17
 70
     1
102
RTVSPropertyOp18
 70
     1
102
RTVSPropertyOp19
 70
     1
102
RTVSPropertyOp20
 70
     1
102
RTVSPropertyOp21
 70
     1
102
RTVSPropertyOp22
 70
     1
102
RTVSPropertyOp23
 70
     1
102
RTVSPropertyOp24
 70
     1
102
RTVSPropertyOp25
 70
     1
102
RTVSPropertyOp26
 70
     1
102
RTVSPropertyOp27
 70
     1
102
RTVSPropertyOp28
 70
     1
102
RTVSPropertyOp29
 70
     1
102
RTVSPropertyOp30
 70
     1
102
RTVSPropertyOp31
 70
     1
102
RTVSPropertyOp32
 70
     1
102
RTVSPropertyOp33
 70
     1
102
RTVSPropertyOp34
 70
     1
102
RTVSPropertyOp35
 70
     1
102
RTVSPropertyOp36
 70
     1
102
RTVSPropertyOp37
 70
     1
102
RTVSPropertyOp38
 70
     1
102
RTVSPropertyOp39
 70
     1
102
RTVSPropertyOp40
 70
     1
102
RTVSPropertyOp41
 70
     1
102
RTVSPropertyOp42
 70
     1
102
RTVSPropertyOp43
 70
     1
102
RTVSPropertyOp44
 70
     1
102
RTVSPropertyOp45
 70
     1
102
RTVSPropertyOp46
 70
     1
102
RTVSPropertyOp47
 70
     1
102
RTVSPropertyOp48
 70
     1
102
RTVSPropertyOp49
 70
     1
102
RTVSPropertyOp50
 70
     1
102
RTVSPropertyOp51
 70
     0
102
RTVSPropertyOp52
 70
     0
102
RTVSPropertyOp53
 70
     1
102
RTVSPropertyOp54
 70
     1
102
RTVSPropertyOp55
 70
     1
102
RTVSPropertyOp56
 70
     1
102
RTVSPropertyOp57
 70
     1
102
RTVSPropertyOp58
 70
     1
102
RTVSPropertyOp59
 70
     1
102
RTVSPropertyOp60
 70
     1
102
RTVSPropertyOp61
 70
     1
102
RTVSPropertyOp62
 70
     1
  0
ENDSEC
  0
EOF
