  0
SECTION
  2
HEADER
  9
$ACADVER
  1
AC1018
  9
$ACADMAINTVER
 70
   104
  9
$DWGCODEPAGE
  3
ANSI_932
  9
$INSBASE
 10
0.0
 20
0.0
 30
0.0
  9
$EXTMIN
 10
-0.5553112
 20
-0.30496157
 30
0.0
  9
$EXTMAX
 10
27500.08568931
 20
20000.30524098
 30
0.0
  9
$LIMMIN
 10
0.0
 20
0.0
  9
$LIMMAX
 10
420.0
 20
330.0
  9
$ORTHOMODE
 70
     1
  9
$REGENMODE
 70
     1
  9
$FILLMODE
 70
     1
  9
$QTEXTMODE
 70
     0
  9
$MIRRTEXT
 70
     0
  9
$LTSCALE
 40
1.0
  9
$ATTMODE
 70
     1
  9
$TEXTSIZE
 40
0.2
  9
$TRACEWID
 40
0.05
  9
$TEXTSTYLE
  7
STANDARD
  9
$CLAYER
  8
0
  9
$CELTYPE
  6
BYLAYER
  9
$CECOLOR
 62
   256
  9
$CELTSCALE
 40
1.0
  9
$DISPSILH
 70
     1
  9
$DIMSCALE
 40
1.0
  9
$DIMASZ
 40
0.18
  9
$DIMEXO
 40
0.0625
  9
$DIMDLI
 40
0.38
  9
$DIMRND
 40
0.0
  9
$DIMDLE
 40
0.0
  9
$DIMEXE
 40
0.18
  9
$DIMTP
 40
0.0
  9
$DIMTM
 40
0.0
  9
$DIMTXT
 40
0.18
  9
$DIMCEN
 40
0.09
  9
$DIMTSZ
 40
0.0
  9
$DIMTOL
 70
     0
  9
$DIMLIM
 70
     0
  9
$DIMTIH
 70
     1
  9
$DIMTOH
 70
     1
  9
$DIMSE1
 70
     0
  9
$DIMSE2
 70
     0
  9
$DIMTAD
 70
     0
  9
$DIMZIN
 70
     0
  9
$DIMBLK
  1

  9
$DIMASO
 70
     1
  9
$DIMSHO
 70
     0
  9
$DIMPOST
  1

  9
$DIMAPOST
  1

  9
$DIMALT
 70
     0
  9
$DIMALTD
 70
     2
  9
$DIMALTF
 40
25.4
  9
$DIMLFAC
 40
1.0
  9
$DIMTOFL
 70
     0
  9
$DIMTVP
 40
0.0
  9
$DIMTIX
 70
     0
  9
$DIMSOXD
 70
     0
  9
$DIMSAH
 70
     0
  9
$DIMBLK1
  1

  9
$DIMBLK2
  1

  9
$DIMSTYLE
  2
STANDARD
  9
$DIMCLRD
 70
     0
  9
$DIMCLRE
 70
     0
  9
$DIMCLRT
 70
     0
  9
$DIMTFAC
 40
1.0
  9
$DIMGAP
 40
0.09
  9
$DIMJUST
 70
     0
  9
$DIMSD1
 70
     0
  9
$DIMSD2
 70
     0
  9
$DIMTOLJ
 70
     1
  9
$DIMTZIN
 70
     0
  9
$DIMALTZ
 70
     0
  9
$DIMALTTZ
 70
     0
  9
$DIMUPT
 70
     0
  9
$DIMDEC
 70
     4
  9
$DIMTDEC
 70
     4
  9
$DIMALTU
 70
     2
  9
$DIMALTTD
 70
     2
  9
$DIMTXSTY
  7
STANDARD
  9
$DIMAUNIT
 70
     0
  9
$DIMADEC
 70
     0
  9
$DIMALTRND
 40
0.0
  9
$DIMAZIN
 70
     0
  9
$DIMDSEP
 70
    46
  9
$DIMATFIT
 70
     3
  9
$DIMFRAC
 70
     0
  9
$DIMLDRBLK
  1

  9
$DIMLUNIT
 70
     2
  9
$DIMLWD
 70
    -2
  9
$DIMLWE
 70
    -2
  9
$DIMTMOVE
 70
     2
  9
$LUNITS
 70
     2
  9
$LUPREC
 70
     4
  9
$SKETCHINC
 40
0.1
  9
$FILLETRAD
 40
1.0
  9
$AUNITS
 70
     0
  9
$AUPREC
 70
     0
  9
$MENU
  1
acad
  9
$ELEVATION
 40
0.0
  9
$PELEVATION
 40
0.0
  9
$THICKNESS
 40
0.0
  9
$LIMCHECK
 70
     0
  9
$CHAMFERA
 40
0.0
  9
$CHAMFERB
 40
0.0
  9
$CHAMFERC
 40
0.0
  9
$CHAMFERD
 40
0.0
  9
$SKPOLY
 70
     0
  9
$TDCREATE
 40
2452970.385818322
  9
$TDUCREATE
 40
2452970.010818322
  9
$TDUPDATE
 40
2457162.489453669
  9
$TDUUPDATE
 40
2457162.114453669
  9
$TDINDWG
 40
0.0358754051
  9
$TDUSRTIMER
 40
0.0358754051
  9
$USRTIMER
 70
     1
  9
$ANGBASE
 50
0.0
  9
$ANGDIR
 70
     0
  9
$PDMODE
 70
     0
  9
$PDSIZE
 40
0.0
  9
$PLINEWID
 40
0.0
  9
$SPLFRAME
 70
     0
  9
$SPLINETYPE
 70
     6
  9
$SPLINESEGS
 70
     8
  9
$HANDSEED
  5
319
  9
$SURFTAB1
 70
     6
  9
$SURFTAB2
 70
     6
  9
$SURFTYPE
 70
     6
  9
$SURFU
 70
     6
  9
$SURFV
 70
     6
  9
$UCSBASE
  2

  9
$UCSNAME
  2

  9
$UCSORG
 10
0.0
 20
0.0
 30
0.0
  9
$UCSXDIR
 10
1.0
 20
0.0
 30
0.0
  9
$UCSYDIR
 10
0.0
 20
1.0
 30
0.0
  9
$UCSORTHOREF
  2

  9
$UCSORTHOVIEW
 70
     0
  9
$UCSORGTOP
 10
0.0
 20
0.0
 30
0.0
  9
$UCSORGBOTTOM
 10
0.0
 20
0.0
 30
0.0
  9
$UCSORGLEFT
 10
0.0
 20
0.0
 30
0.0
  9
$UCSORGRIGHT
 10
0.0
 20
0.0
 30
0.0
  9
$UCSORGFRONT
 10
0.0
 20
0.0
 30
0.0
  9
$UCSORGBACK
 10
0.0
 20
0.0
 30
0.0
  9
$PUCSBASE
  2

  9
$PUCSNAME
  2

  9
$PUCSORG
 10
0.0
 20
0.0
 30
0.0
  9
$PUCSXDIR
 10
1.0
 20
0.0
 30
0.0
  9
$PUCSYDIR
 10
0.0
 20
1.0
 30
0.0
  9
$PUCSORTHOREF
  2

  9
$PUCSORTHOVIEW
 70
     0
  9
$PUCSORGTOP
 10
0.0
 20
0.0
 30
0.0
  9
$PUCSORGBOTTOM
 10
0.0
 20
0.0
 30
0.0
  9
$PUCSORGLEFT
 10
0.0
 20
0.0
 30
0.0
  9
$PUCSORGRIGHT
 10
0.0
 20
0.0
 30
0.0
  9
$PUCSORGFRONT
 10
0.0
 20
0.0
 30
0.0
  9
$PUCSORGBACK
 10
0.0
 20
0.0
 30
0.0
  9
$USERI1
 70
     0
  9
$USERI2
 70
     0
  9
$USERI3
 70
     0
  9
$USERI4
 70
     0
  9
$USERI5
 70
     0
  9
$USERR1
 40
0.0
  9
$USERR2
 40
0.0
  9
$USERR3
 40
0.0
  9
$USERR4
 40
0.0
  9
$USERR5
 40
0.0
  9
$WORLDVIEW
 70
     1
  9
$SHADEDGE
 70
     3
  9
$SHADEDIF
 70
    70
  9
$TILEMODE
 70
     1
  9
$MAXACTVP
 70
    16
  9
$PINSBASE
 10
0.0
 20
0.0
 30
0.0
  9
$PLIMCHECK
 70
     0
  9
$PEXTMIN
 10
1.00000000E+20
 20
1.00000000E+20
 30
1.00000000E+20
  9
$PEXTMAX
 10
-1.00000000E+20
 20
-1.00000000E+20
 30
-1.00000000E+20
  9
$PLIMMIN
 10
0.0
 20
0.0
  9
$PLIMMAX
 10
12.0
 20
9.0
  9
$UNITMODE
 70
     0
  9
$VISRETAIN
 70
     0
  9
$PLINEGEN
 70
     0
  9
$PSLTSCALE
 70
     0
  9
$TREEDEPTH
 70
  3020
  9
$CMLSTYLE
  2
STANDARD
  9
$CMLJUST
 70
     0
  9
$CMLSCALE
 40
1.0
  9
$PROXYGRAPHICS
 70
     1
  9
$MEASUREMENT
 70
     1
  9
$CELWEIGHT
370
    -1
  9
$ENDCAPS
280
     0
  9
$JOINSTYLE
280
     0
  9
$LWDISPLAY
290
     0
  9
$INSUNITS
 70
     0
  9
$HYPERLINKBASE
  1

  9
$STYLESHEET
  1

  9
$XEDIT
290
     1
  9
$CEPSNTYPE
380
     0
  9
$PSTYLEMODE
290
     1
  9
$FINGERPRINTGUID
  2
{CAD7B9B1-7CFE-4500-ACDC-E298A03C835F}
  9
$VERSIONGUID
  2
{05A4065C-542F-4698-8BEE-F63CF7A3354D}
  9
$EXTNAMES
290
     1
  9
$PSVPSCALE
 40
0.0
  9
$OLESTARTUP
290
     0
  9
$SORTENTS
280
   127
  9
$INDEXCTL
280
     0
  9
$HIDETEXT
280
     0
  9
$XCLIPFRAME
290
     0
  9
$HALOGAP
280
     0
  9
$OBSCOLOR
 70
   257
  9
$OBSLTYPE
280
     0
  9
$INTERSECTIONDISPLAY
280
     0
  9
$INTERSECTIONCOLOR
 70
   257
  9
$DIMASSOC
280
     1
  9
$PROJECTNAME
  1

  0
ENDSEC
  0
SECTION
  2
CLASSES
  0
CLASS
  1
DICTIONARYVAR
  2
AcDbDictionaryVar
  3
ObjectDBX Classes
 90
        0
 91
        7
280
     0
281
     0
  0
CLASS
  1
ACDBDICTIONARYWDFLT
  2
AcDbDictionaryWithDefault
  3
ObjectDBX Classes
 90
        0
 91
        1
280
     0
281
     0
  0
CLASS
  1
MATERIAL
  2
AcDbMaterial
  3
ObjectDBX Classes
 90
     1153
 91
        3
280
     0
281
     0
  0
CLASS
  1
VISUALSTYLE
  2
AcDbVisualStyle
  3
ObjectDBX Classes
 90
     4095
 91
       24
280
     0
281
     0
  0
CLASS
  1
TABLESTYLE
  2
AcDbTableStyle
  3
ObjectDBX Classes
 90
     4095
 91
        1
280
     0
281
     0
  0
CLASS
  1
SCALE
  2
AcDbScale
  3
ObjectDBX Classes
 90
     1153
 91
       17
280
     0
281
     0
  0
CLASS
  1
MLEADERSTYLE
  2
AcDbMLeaderStyle
  3
ACDB_MLEADERSTYLE_CLASS
 90
     4095
 91
        1
280
     0
281
     0
  0
CLASS
  1
ACDBSECTIONVIEWSTYLE
  2
AcDbSectionViewStyle
  3
ObjectDBX Classes
 90
     1025
 91
        1
280
     0
281
     0
  0
CLASS
  1
ACDBDETAILVIEWSTYLE
  2
AcDbDetailViewStyle
  3
ObjectDBX Classes
 90
     1025
 91
        1
280
     0
281
     0
  0
CLASS
  1
CELLSTYLEMAP
  2
AcDbCellStyleMap
  3
ObjectDBX Classes
 90
     1152
 91
        2
280
     0
281
     0
  0
ENDSEC
  0
SECTION
  2
TABLES
  0
TABLE
  2
VPORT
  5
12
330
0
100
AcDbSymbolTable
 70
     1
  0
VPORT
  5
235
330
12
100
AcDbSymbolTableRecord
100
AcDbViewportTableRecord
  2
*ACTIVE
 70
     0
 10
0.0
 20
0.0
 11
1.0
 21
1.0
 12
13749.76518905
 22
10000.00013971
 13
0.0
 23
0.0
 14
1.0
 24
1.0
 15
10.0
 25
10.0
 16
0.0
 26
0.0
 36
1.0
 17
0.0
 27
0.0
 37
0.0
 40
20183.264177
 41
1.91768293
 42
50.0
 43
0.0
 44
0.0
 50
0.0
 51
0.0
 71
     0
 72
   100
 73
     1
 74
     0
 75
     0
 76
     0
 77
     0
 78
     0
281
     0
 65
     1
110
0.0
120
0.0
130
0.0
111
1.0
121
0.0
131
0.0
112
0.0
122
1.0
132
0.0
 79
     0
146
0.0
1001
ACAD_NAV_VCDISPLAY
1070
     1
  0
ENDTAB
  0
TABLE
  2
LTYPE
  5
D
330
0
100
AcDbSymbolTable
 70
     1
  0
LTYPE
  5
E
330
D
100
AcDbSymbolTableRecord
100
AcDbLinetypeTableRecord
  2
BYBLOCK
 70
     0
  3

 72
    65
 73
     0
 40
0.0
  0
LTYPE
  5
F
330
D
100
AcDbSymbolTableRecord
100
AcDbLinetypeTableRecord
  2
BYLAYER
 70
     0
  3

 72
    65
 73
     0
 40
0.0
  0
LTYPE
  5
5
330
D
100
AcDbSymbolTableRecord
100
AcDbLinetypeTableRecord
  2
CONTINUOUS
 70
     0
  3
Solid line
 72
    65
 73
     0
 40
0.0
  0
ENDTAB
  0
TABLE
  2
LAYER
  5
A
330
0
100
AcDbSymbolTable
 70
     7
  0
LAYER
  5
4
330
A
100
AcDbSymbolTableRecord
100
AcDbLayerTableRecord
  2
0
 70
     0
 62
     7
  6
CONTINUOUS
370
    -3
390
238
  0
LAYER
  5
24
330
A
100
AcDbSymbolTableRecord
100
AcDbLayerTableRecord
  2
YKK_F1
 70
     0
 62
     7
  6
CONTINUOUS
370
    -3
390
238
  0
LAYER
  5
73
330
A
100
AcDbSymbolTableRecord
100
AcDbLayerTableRecord
  2
YKK_Z1
 70
     0
 62
     7
  6
CONTINUOUS
370
    -3
390
238
1001
ACAECLAYERSTANDARD
1000

1000
納まり　　　【細・実線】
  0
LAYER
  5
21
330
A
100
AcDbSymbolTableRecord
100
AcDbLayerTableRecord
  2
YKK_N1
 70
     0
 62
     2
  6
CONTINUOUS
370
    -3
390
238
1001
ACAECLAYERSTANDARD
1000

1000
寸法
  0
LAYER
  5
83
330
A
100
AcDbSymbolTableRecord
100
AcDbLayerTableRecord
  2
YKK_C2
 70
     0
 62
     5
  6
CONTINUOUS
370
    -3
390
238
  0
LAYER
  5
1E
330
A
100
AcDbSymbolTableRecord
100
AcDbLayerTableRecord
  2
YKK_A1
 70
     0
 62
     4
  6
CONTINUOUS
370
    -3
390
238
  0
LAYER
  5
78
330
A
100
AcDbSymbolTableRecord
100
AcDbLayerTableRecord
  2
YKK_C1
 70
     0
 62
     4
  6
CONTINUOUS
370
    -3
390
238
  0
ENDTAB
  0
TABLE
  2
STYLE
  5
B
330
0
100
AcDbSymbolTable
 70
     2
  0
STYLE
  5
C
330
B
100
AcDbSymbolTableRecord
100
AcDbTextStyleTableRecord
  2
STANDARD
 70
     0
 40
0.0
 41
1.0
 50
0.0
 71
     0
 42
0.2
  3
txt.shx
  4
bigfont.shx
  0
STYLE
  5
35
330
B
100
AcDbSymbolTableRecord
100
AcDbTextStyleTableRecord
  2
EXTFONT
 70
     0
 40
60.0
 41
1.0
 50
0.0
 71
     0
 42
60.0
  3
txt.shx
  4
EXTFONT
  0
ENDTAB
  0
TABLE
  2
VIEW
  5
10
330
0
100
AcDbSymbolTable
 70
     0
  0
ENDTAB
  0
TABLE
  2
UCS
  5
11
330
0
100
AcDbSymbolTable
 70
     0
  0
ENDTAB
  0
TABLE
  2
APPID
  5
14
330
0
100
AcDbSymbolTable
 70
     6
  0
APPID
  5
15
330
14
100
AcDbSymbolTableRecord
100
AcDbRegAppTableRecord
  2
ACAD
 70
     0
  0
APPID
  5
22
330
14
100
AcDbSymbolTableRecord
100
AcDbRegAppTableRecord
  2
ACAECLAYERSTANDARD
 70
     0
  0
APPID
  5
2C4
330
14
100
AcDbSymbolTableRecord
100
AcDbRegAppTableRecord
  2
ACAD_MLEADERVER
 70
     0
  0
APPID
  5
2D9
330
14
100
AcDbSymbolTableRecord
100
AcDbRegAppTableRecord
  2
ACAD_PSEXT
 70
     0
  0
APPID
  5
2DA
330
14
100
AcDbSymbolTableRecord
100
AcDbRegAppTableRecord
  2
ACAD_NAV_VCDISPLAY
 70
     0
  0
APPID
  5
2DB
330
14
100
AcDbSymbolTableRecord
100
AcDbRegAppTableRecord
  2
YKK_AP_LOCKLAYER
 70
     0
  0
ENDTAB
  0
TABLE
  2
DIMSTYLE
  5
16
330
0
100
AcDbSymbolTable
 70
     1
100
AcDbDimStyleTable
 71
     0
  0
DIMSTYLE
105
1C
330
16
100
AcDbSymbolTableRecord
100
AcDbDimStyleTableRecord
  2
STANDARD
 70
     0
279
     2
340
C
  0
ENDTAB
  0
TABLE
  2
BLOCK_RECORD
  5
1
330
0
100
AcDbSymbolTable
 70
     0
  0
BLOCK_RECORD
  5
2
330
1
100
AcDbSymbolTableRecord
100
AcDbBlockTableRecord
  2
*MODEL_SPACE
340
28B
  0
BLOCK_RECORD
  5
7
330
1
100
AcDbSymbolTableRecord
100
AcDbBlockTableRecord
  2
*PAPER_SPACE
340
28C
  0
ENDTAB
  0
ENDSEC
  0
SECTION
  2
BLOCKS
  0
BLOCK
  5
3
330
2
100
AcDbEntity
  8
0
100
AcDbBlockBegin
  2
*MODEL_SPACE
 70
     0
 10
0.0
 20
0.0
 30
0.0
  3
*MODEL_SPACE
  1

  0
ENDBLK
  5
6
330
2
100
AcDbEntity
  8
0
100
AcDbBlockEnd
  0
BLOCK
  5
8
330
7
100
AcDbEntity
 67
     1
  8
0
100
AcDbBlockBegin
  2
*PAPER_SPACE
 70
     0
 10
0.0
 20
0.0
 30
0.0
  3
*PAPER_SPACE
  1

  0
ENDBLK
  5
9
330
7
100
AcDbEntity
 67
     1
  8
0
100
AcDbBlockEnd
  0
ENDSEC
  0
SECTION
  2
ENTITIES
  0
LINE
  5
1D
330
2
100
AcDbEntity
  8
YKK_A1
100
AcDbLine
 10
15826.25799999
 20
17320.23720943
 30
0.0
 11
16326.258
 21
17320.23720943
 31
0.0
  0
LINE
  5
1F
330
2
100
AcDbEntity
  8
YKK_A1
100
AcDbLine
 10
16320.55799761
 20
17392.92960161
 30
0.0
 11
15826.25799999
 21
17332.2372095
 31
0.0
  0
LINE
  5
20
330
2
100
AcDbEntity
  8
YKK_N1
100
AcDbLine
 10
15833.258
 20
17261.23720943
 30
0.0
 11
16319.258
 21
17261.23720943
 31
0.0
  0
LINE
  5
23
330
2
100
AcDbEntity
  8
YKK_F1
 62
     7
100
AcDbLine
 10
0.0
 20
11250.0
 30
0.0
 11
27000.0
 21
11250.0
 31
0.0
  0
LINE
  5
25
330
2
100
AcDbEntity
  8
YKK_F1
 62
     7
100
AcDbLine
 10
0.0
 20
3450.0
 30
0.0
 11
27000.0
 21
3450.0
 31
0.0
  0
LINE
  5
26
330
2
100
AcDbEntity
  8
YKK_F1
 62
     7
100
AcDbLine
 10
0.0
 20
7350.0
 30
0.0
 11
27000.0
 21
7350.0
 31
0.0
  0
LINE
  5
27
330
2
100
AcDbEntity
  8
YKK_F1
 62
     7
100
AcDbLine
 10
0.0
 20
15150.0
 30
0.0
 11
27000.0
 21
15150.0
 31
0.0
  0
LINE
  5
28
330
2
100
AcDbEntity
  8
YKK_F1
 62
     7
100
AcDbLine
 10
0.0
 20
19050.0
 30
0.0
 11
27000.0
 21
19050.0
 31
0.0
  0
LINE
  5
29
330
2
100
AcDbEntity
  8
YKK_F1
 62
     7
100
AcDbLine
 10
0.0
 20
3900.0
 30
0.0
 11
27000.0
 21
3900.0
 31
0.0
  0
LINE
  5
2A
330
2
100
AcDbEntity
  8
YKK_F1
 62
     7
100
AcDbLine
 10
0.0
 20
7800.0
 30
0.0
 11
27000.0
 21
7800.0
 31
0.0
  0
LINE
  5
2B
330
2
100
AcDbEntity
  8
YKK_F1
 62
     7
100
AcDbLine
 10
0.0
 20
11700.0
 30
0.0
 11
27000.0
 21
11700.0
 31
0.0
  0
LINE
  5
2C
330
2
100
AcDbEntity
  8
YKK_F1
 62
     7
100
AcDbLine
 10
0.0
 20
15600.0
 30
0.0
 11
27000.0
 21
15600.0
 31
0.0
  0
LINE
  5
2D
330
2
100
AcDbEntity
  8
YKK_F1
 62
     7
100
AcDbLine
 10
0.0
 20
19500.0
 30
0.0
 11
27000.0
 21
19500.0
 31
0.0
  0
LINE
  5
2E
330
2
100
AcDbEntity
  8
YKK_F1
 62
     7
100
AcDbLine
 10
0.0
 20
0.0
 30
0.0
 11
27500.0
 21
0.0
 31
0.0
  0
LINE
  5
2F
330
2
100
AcDbEntity
  8
YKK_F1
 62
     7
100
AcDbLine
 10
0.0
 20
20000.0
 30
0.0
 11
27500.0
 21
20000.0
 31
0.0
  0
LINE
  5
30
330
2
100
AcDbEntity
  8
YKK_F1
 62
     7
100
AcDbLine
 10
13500.0
 20
0.0
 30
0.0
 11
13500.0
 21
19500.0
 31
0.0
  0
LINE
  5
31
330
2
100
AcDbEntity
  8
YKK_F1
 62
     7
100
AcDbLine
 10
9000.0
 20
0.0
 30
0.0
 11
9000.0
 21
19500.0
 31
0.0
  0
LINE
  5
32
330
2
100
AcDbEntity
  8
YKK_F1
 62
     7
100
AcDbLine
 10
4500.0
 20
0.0
 30
0.0
 11
4500.0
 21
19500.0
 31
0.0
  0
LINE
  5
33
330
2
100
AcDbEntity
  8
YKK_F1
 62
     7
100
AcDbLine
 10
0.0
 20
0.0
 30
0.0
 11
0.0
 21
20000.0
 31
0.0
  0
TEXT
  5
34
330
2
100
AcDbEntity
  8
0
100
AcDbText
 10
4600.0
 20
19187.5
 30
0.0
 40
175.0
  1
コンバイザー 出幅300
  7
EXTFONT
100
AcDbText
  0
TEXT
  5
36
330
2
100
AcDbEntity
  8
0
100
AcDbText
 10
100.0
 20
19187.5
 30
0.0
 40
175.0
  1
コンバイザー 出幅200
  7
EXTFONT
100
AcDbText
  0
TEXT
  5
37
330
2
100
AcDbEntity
  8
0
100
AcDbText
 10
500.0
 20
19625.0
 30
0.0
 40
250.0
  1
９ＰＲ０１　コンバイザー
  7
EXTFONT
100
AcDbText
  0
LINE
  5
38
330
2
100
AcDbEntity
  8
YKK_A1
100
AcDbLine
 10
1976.25
 20
17320.23720943
 30
0.0
 11
1827.25
 21
17320.23720943
 31
0.0
  0
LINE
  5
39
330
2
100
AcDbEntity
  8
YKK_A1
100
AcDbLine
 10
1976.25
 20
17332.23720943
 30
0.0
 11
1827.25
 21
17332.23720943
 31
0.0
  0
LINE
  5
3A
330
2
100
AcDbEntity
  8
YKK_A1
100
AcDbLine
 10
1976.25
 20
17356.08197116
 30
0.0
 11
1827.25
 21
17356.08197116
 31
0.0
  0
LINE
  5
3B
330
2
100
AcDbEntity
  8
YKK_N1
100
AcDbLine
 10
1683.25
 20
17261.23720943
 30
0.0
 11
1969.25
 21
17261.23720943
 31
0.0
  0
LINE
  5
3C
330
2
100
AcDbEntity
  8
YKK_A1
100
AcDbLine
 10
1676.25
 20
17356.08197116
 30
0.0
 11
1676.25
 21
17320.23720943
 31
0.0
  0
LINE
  5
3D
330
2
100
AcDbEntity
  8
YKK_A1
100
AcDbLine
 10
1825.25
 20
17332.23720943
 30
0.0
 11
1676.25
 21
17332.23720943
 31
0.0
  0
LINE
  5
3E
330
2
100
AcDbEntity
  8
YKK_A1
100
AcDbLine
 10
1825.25
 20
17356.08197116
 30
0.0
 11
1676.25
 21
17356.08197116
 31
0.0
  0
LINE
  5
3F
330
2
100
AcDbEntity
  8
YKK_A1
100
AcDbLine
 10
1825.25
 20
17320.23720943
 30
0.0
 11
1676.25
 21
17320.23720943
 31
0.0
  0
LINE
  5
40
330
2
100
AcDbEntity
  8
YKK_N1
100
AcDbLine
 10
1676.25
 20
17261.23720943
 30
0.0
 11
1694.43653348
 21
17250.73720943
 31
0.0
  0
LINE
  5
41
330
2
100
AcDbEntity
  8
YKK_N1
100
AcDbLine
 10
1676.25
 20
17261.23720943
 30
0.0
 11
1694.43653348
 21
17271.73720943
 31
0.0
  0
LINE
  5
42
330
2
100
AcDbEntity
  8
YKK_N1
100
AcDbLine
 10
1694.43653348
 20
17250.73720943
 30
0.0
 11
1694.43653348
 21
17271.73720943
 31
0.0
  0
LINE
  5
43
330
2
100
AcDbEntity
  8
YKK_N1
100
AcDbLine
 10
1676.25
 20
17261.23720943
 30
0.0
 11
1688.37435565
 21
17261.23720943
 31
0.0
  0
LINE
  5
44
330
2
100
AcDbEntity
  8
YKK_N1
100
AcDbLine
 10
1676.25
 20
17298.23720943
 30
0.0
 11
1676.25
 21
17260.23720943
 31
0.0
  0
LINE
  5
45
330
2
100
AcDbEntity
  8
YKK_N1
100
AcDbLine
 10
1676.25
 20
17298.23720943
 30
0.0
 11
1676.25
 21
17260.23720943
 31
0.0
  0
TEXT
  5
46
330
2
100
AcDbEntity
  8
YKK_N1
100
AcDbText
 10
1824.67764937
 20
17267.51132111
 30
0.0
 40
20.0
  1
L
 41
0.8
100
AcDbText
  0
LINE
  5
47
330
2
100
AcDbEntity
  8
YKK_A1
100
AcDbLine
 10
1976.25
 20
17356.08197116
 30
0.0
 11
1976.25
 21
17320.23720943
 31
0.0
  0
LINE
  5
48
330
2
100
AcDbEntity
  8
YKK_N1
100
AcDbLine
 10
1976.25
 20
17261.23720943
 30
0.0
 11
1958.06346652
 21
17271.73720943
 31
0.0
  0
LINE
  5
49
330
2
100
AcDbEntity
  8
YKK_N1
100
AcDbLine
 10
1976.25
 20
17261.23720943
 30
0.0
 11
1958.06346652
 21
17250.73720943
 31
0.0
  0
LINE
  5
4A
330
2
100
AcDbEntity
  8
YKK_N1
100
AcDbLine
 10
1958.06346652
 20
17271.73720943
 30
0.0
 11
1958.06346652
 21
17250.73720943
 31
0.0
  0
LINE
  5
4B
330
2
100
AcDbEntity
  8
YKK_N1
100
AcDbLine
 10
1976.25
 20
17261.23720943
 30
0.0
 11
1964.12564435
 21
17261.23720943
 31
0.0
  0
LINE
  5
4C
330
2
100
AcDbEntity
  8
YKK_N1
100
AcDbLine
 10
1976.25
 20
17298.23720943
 30
0.0
 11
1976.25
 21
17260.23720943
 31
0.0
  0
LINE
  5
4D
330
2
100
AcDbEntity
  8
YKK_N1
100
AcDbLine
 10
1976.25
 20
17298.23720943
 30
0.0
 11
1976.25
 21
17260.23720943
 31
0.0
  0
TEXT
  5
4E
330
2
100
AcDbEntity
  8
YKK_N1
100
AcDbText
 10
2539.13623722
 20
17267.23720943
 30
0.0
 40
20.0
  1
D=200
 41
0.8
100
AcDbText
  0
LINE
  5
4F
330
2
100
AcDbEntity
  8
YKK_N1
100
AcDbLine
 10
2483.25
 20
17261.23720943
 30
0.0
 11
2669.24986742
 21
17261.23720943
 31
0.0
  0
LINE
  5
50
330
2
100
AcDbEntity
  8
YKK_A1
100
AcDbLine
 10
2670.44999999
 20
17356.08197117
 30
0.0
 11
2476.24999999
 21
17332.2372095
 31
0.0
  0
LINE
  5
51
330
2
100
AcDbEntity
  8
YKK_A1
100
AcDbLine
 10
2476.24999999
 20
17320.23720943
 30
0.0
 11
2676.25
 21
17320.23720943
 31
0.0
  0
LINE
  5
52
330
2
100
AcDbEntity
  8
YKK_N1
100
AcDbLine
 10
2489.61014517
 20
17356.33084515
 30
0.0
 11
2520.28105576
 21
17356.33084515
 31
0.0
  0
LINE
  5
53
330
2
100
AcDbEntity
  8
YKK_N1
100
AcDbLine
 10
2520.28105576
 20
17356.33084515
 30
0.0
 11
2489.72247687
 21
17352.57872346
 31
0.0
  0
LINE
  5
54
330
2
100
AcDbEntity
  8
YKK_N1
100
AcDbLine
 10
2476.25
 20
17261.23720943
 30
0.0
 11
2494.43653348
 21
17250.73720943
 31
0.0
  0
LINE
  5
55
330
2
100
AcDbEntity
  8
YKK_N1
100
AcDbLine
 10
2494.43653348
 20
17250.73720943
 30
0.0
 11
2494.43653348
 21
17271.73720943
 31
0.0
  0
LINE
  5
56
330
2
100
AcDbEntity
  8
YKK_N1
100
AcDbLine
 10
2476.25
 20
17261.23720943
 30
0.0
 11
2494.43653348
 21
17271.73720943
 31
0.0
  0
LINE
  5
57
330
2
100
AcDbEntity
  8
YKK_N1
100
AcDbLine
 10
2476.25
 20
17261.23720943
 30
0.0
 11
2488.37435565
 21
17261.23720943
 31
0.0
  0
LINE
  5
58
330
2
100
AcDbEntity
  8
YKK_N1
100
AcDbLine
 10
2476.25
 20
17298.23720943
 30
0.0
 11
2476.25
 21
17260.23720943
 31
0.0
  0
TEXT
  5
59
330
2
100
AcDbEntity
  8
YKK_N1
100
AcDbText
 10
2431.24999999
 20
17317.52141422
 30
0.0
 40
20.0
  1
12
 50
90.0
 41
0.8
100
AcDbText
  0
LINE
  5
5A
330
2
100
AcDbEntity
  8
YKK_N1
100
AcDbLine
 10
2454.24999999
 20
17332.23720944
 30
0.0
 11
2436.24999999
 21
17332.23720944
 31
0.0
  0
LINE
  5
5B
330
2
100
AcDbEntity
  8
YKK_N1
100
AcDbLine
 10
2454.24999999
 20
17320.23720944
 30
0.0
 11
2436.24999999
 21
17320.23720944
 31
0.0
  0
LWPOLYLINE
  5
5C
330
2
100
AcDbEntity
  8
YKK_N1
  6
ByBlock
100
AcDbPolyline
 90
        2
 70
     1
 43
0.85
 10
2437.24999999
 20
17332.13095944
 42
1.0
 10
2437.24999999
 20
17332.34345944
 42
1.0
  0
LWPOLYLINE
  5
5D
330
2
100
AcDbEntity
  8
YKK_N1
  6
ByBlock
100
AcDbPolyline
 90
        2
 70
     1
 43
0.85
 10
2437.24999999
 20
17320.34345944
 42
1.0
 10
2437.24999999
 20
17320.13095944
 42
1.0
  0
LINE
  5
5E
330
2
100
AcDbEntity
  8
YKK_N1
100
AcDbLine
 10
2437.24999999
 20
17320.23720944
 30
0.0
 11
2437.24999999
 21
17332.23720944
 31
0.0
  0
TEXT
  5
5F
330
2
100
AcDbEntity
  8
YKK_N1
100
AcDbText
 10
2459.51192161
 20
17350.85125462
 30
0.0
 40
20.0
  1
7\U+00B0
 41
0.8
100
AcDbText
  0
ARC
  5
60
330
2
100
AcDbEntity
  8
YKK_N1
100
AcDbCircle
 10
2520.28105576
 20
17356.33084515
 30
0.0
 40
40.85131658991443
100
AcDbArc
 50
180.0
 51
187.0
  0
LINE
  5
61
330
2
100
AcDbEntity
  8
YKK_N1
100
AcDbLine
 10
2488.72993072
 20
17352.45685412
 30
0.0
 11
2478.74169254
 21
17351.23045268
 31
0.0
  0
LWPOLYLINE
  5
62
330
2
100
AcDbEntity
  8
YKK_N1
  6
ByBlock
100
AcDbPolyline
 90
        2
 70
     1
 43
0.85
 10
2479.72129008
 20
17351.45778005
 42
1.0
 10
2479.74718731
 20
17351.24686399
 42
1.0
  0
LINE
  5
63
330
2
100
AcDbEntity
  8
YKK_N1
100
AcDbLine
 10
2488.61014517
 20
17356.33084515
 30
0.0
 11
2478.42973917
 21
17356.33084515
 31
0.0
  0
LWPOLYLINE
  5
64
330
2
100
AcDbEntity
  8
YKK_N1
  6
ByBlock
100
AcDbPolyline
 90
        2
 70
     1
 43
0.85
 10
2479.42973917
 20
17356.22459515
 42
1.0
 10
2479.42973917
 20
17356.43709515
 42
1.0
  0
LINE
  5
65
330
2
100
AcDbEntity
  8
YKK_A1
100
AcDbLine
 10
2476.24999999
 20
17332.2372095
 30
0.0
 11
2476.24999999
 21
17320.23720943
 31
0.0
  0
LWPOLYLINE
  5
66
330
2
100
AcDbEntity
  8
YKK_N1
  6
ByBlock
100
AcDbPolyline
 90
        2
 70
     1
 43
0.85
 10
2742.25
 20
17355.97572117
 42
1.0
 10
2742.25
 20
17356.18822117
 42
1.0
  0
LINE
  5
67
330
2
100
AcDbEntity
  8
YKK_N1
100
AcDbLine
 10
2697.45
 20
17356.08197117
 30
0.0
 11
2743.25
 21
17356.08197117
 31
0.0
  0
LWPOLYLINE
  5
68
330
2
100
AcDbEntity
  8
YKK_N1
  6
ByBlock
100
AcDbPolyline
 90
        2
 70
     1
 43
0.85
 10
2742.25
 20
17320.34345944
 42
1.0
 10
2742.25
 20
17320.13095944
 42
1.0
  0
LINE
  5
69
330
2
100
AcDbEntity
  8
YKK_N1
100
AcDbLine
 10
2692.97560335
 20
17320.23720944
 30
0.0
 11
2743.25
 21
17320.23720944
 31
0.0
  0
LINE
  5
6A
330
2
100
AcDbEntity
  8
YKK_N1
100
AcDbLine
 10
2692.97573593
 20
17320.23720944
 30
0.0
 11
2723.25
 21
17320.23720944
 31
0.0
  0
LINE
  5
6B
330
2
100
AcDbEntity
  8
YKK_N1
100
AcDbLine
 10
2742.25
 20
17320.23720944
 30
0.0
 11
2742.25
 21
17356.08197117
 31
0.0
  0
TEXT
  5
6C
330
2
100
AcDbEntity
  8
YKK_N1
100
AcDbText
 10
2736.25
 20
17314.7545948
 30
0.0
 40
20.0
  1
35.8
 50
90.0
 41
0.8
100
AcDbText
  0
LINE
  5
6D
330
2
100
AcDbEntity
  8
YKK_N1
100
AcDbLine
 10
2676.24986742
 20
17261.23720943
 30
0.0
 11
2658.06333394
 21
17271.73720943
 31
0.0
  0
LINE
  5
6E
330
2
100
AcDbEntity
  8
YKK_N1
100
AcDbLine
 10
2658.06333394
 20
17271.73720943
 30
0.0
 11
2658.06333394
 21
17250.73720943
 31
0.0
  0
LINE
  5
6F
330
2
100
AcDbEntity
  8
YKK_N1
100
AcDbLine
 10
2676.24986742
 20
17261.23720943
 30
0.0
 11
2658.06333394
 21
17250.73720943
 31
0.0
  0
LINE
  5
70
330
2
100
AcDbEntity
  8
YKK_N1
100
AcDbLine
 10
2676.24986742
 20
17261.23720943
 30
0.0
 11
2664.12551177
 21
17261.23720943
 31
0.0
  0
LINE
  5
71
330
2
100
AcDbEntity
  8
YKK_N1
100
AcDbLine
 10
2676.24986742
 20
17298.23720943
 30
0.0
 11
2676.24986742
 21
17260.23720943
 31
0.0
  0
LINE
  5
72
330
2
100
AcDbEntity
  8
YKK_Z1
100
AcDbLine
 10
2676.25
 20
17290.23720944
 30
0.0
 11
2676.25
 21
17398.37883013
 31
0.0
  0
LINE
  5
74
330
2
100
AcDbEntity
  8
YKK_Z1
  6
Continuous
100
AcDbLine
 10
2688.25
 20
17380.23720944
 30
0.0
 11
2705.25
 21
17380.23720944
 31
0.0
  0
LINE
  5
75
330
2
100
AcDbEntity
  8
YKK_Z1
  6
Continuous
100
AcDbLine
 10
2688.25
 20
17335.23720944
 30
0.0
 11
2688.25
 21
17290.23720944
 31
0.0
  0
LINE
  5
76
330
2
100
AcDbEntity
  8
YKK_Z1
  6
Continuous
100
AcDbLine
 10
2706.25
 20
17280.9999539
 30
0.0
 11
2706.25
 21
17335.23720944
 31
0.0
  0
LINE
  5
77
330
2
100
AcDbEntity
  8
YKK_C1
100
AcDbLine
 10
2706.25004391
 20
17306.00006013
 30
0.0
 11
2704.25004391
 21
17306.00006013
 31
0.0
  0
LINE
  5
79
330
2
100
AcDbEntity
  8
YKK_C1
100
AcDbLine
 10
2704.25004391
 20
17306.00006013
 30
0.0
 11
2704.25004391
 21
17281.00006013
 31
0.0
  0
LINE
  5
7A
330
2
100
AcDbEntity
  8
YKK_Z1
  6
Continuous
100
AcDbLine
 10
2706.25001556
 20
17285.9999539
 30
0.0
 11
2811.25001556
 21
17330.9999539
 31
0.0
  0
LINE
  5
7B
330
2
100
AcDbEntity
  8
YKK_Z1
  6
Continuous
100
AcDbLine
 10
2811.25001556
 20
17330.9999539
 30
0.0
 11
2706.25001556
 21
17330.9999539
 31
0.0
  0
LINE
  5
7C
330
2
100
AcDbEntity
  8
YKK_Z1
  6
Continuous
100
AcDbLine
 10
2811.25001556
 20
17398.37883013
 30
0.0
 11
2811.25001556
 21
17270.99999968
 31
0.0
  0
LINE
  5
7D
330
2
100
AcDbEntity
  8
YKK_Z1
  6
Continuous
100
AcDbLine
 10
2823.75001556
 20
17398.37883013
 30
0.0
 11
2823.75001556
 21
17270.99999968
 31
0.0
  0
LINE
  5
7E
330
2
100
AcDbEntity
  8
YKK_Z1
  6
Continuous
100
AcDbLine
 10
2688.25
 20
17398.37883013
 30
0.0
 11
2688.25
 21
17290.23720944
 31
0.0
  0
LINE
  5
7F
330
2
100
AcDbEntity
  8
YKK_Z1
  6
Continuous
100
AcDbLine
 10
2706.25010341
 20
17330.99991938
 30
0.0
 11
2706.25010341
 21
17398.37883013
 31
0.0
  0
LINE
  5
80
330
2
100
AcDbEntity
  8
YKK_Z1
  6
Continuous
100
AcDbLine
 10
2706.25010341
 20
17398.37883013
 30
0.0
 11
2706.25010341
 21
17330.99991938
 31
0.0
  0
LINE
  5
81
330
2
100
AcDbEntity
  8
YKK_Z1
  6
Continuous
100
AcDbLine
 10
2705.25
 20
17375.23672113
 30
0.0
 11
2688.25
 21
17290.23720944
 31
0.0
  0
LINE
  5
82
330
2
100
AcDbEntity
  8
YKK_C2
  6
ByBlock
 48
0.5
100
AcDbLine
 10
2833.23047087
 20
17271.00000002
 30
0.0
 11
2833.23047088
 21
17253.00000002
 31
0.0
  0
LINE
  5
84
330
2
100
AcDbEntity
  8
YKK_C2
  6
Continuous
100
AcDbLine
 10
2786.82366972
 20
17250.99999968
 30
0.0
 11
2806.82366972
 21
17270.99999968
 31
0.0
  0
LINE
  5
85
330
2
100
AcDbEntity
  8
YKK_C2
  6
Continuous
100
AcDbLine
 10
2809.45108672
 20
17250.99999968
 30
0.0
 11
2829.45108672
 21
17270.99999968
 31
0.0
  0
ARC
  5
86
330
2
100
AcDbEntity
  8
YKK_C2
100
AcDbCircle
 10
2831.23047088
 20
17253.00000002
 30
0.0
 40
2.0
100
AcDbArc
 50
270.00001875
 51
0.00000002
  0
LINE
  5
87
330
2
100
AcDbEntity
  8
YKK_Z1
  6
ByBlock
 48
0.5
100
AcDbLine
 10
2706.25001594
 20
17285.9999539
 30
0.0
 11
2733.25001594
 21
17285.9999539
 31
0.0
  0
LINE
  5
88
330
2
100
AcDbEntity
  8
YKK_Z1
  6
ByBlock
 48
0.5
100
AcDbLine
 10
2733.25001594
 20
17285.9999539
 30
0.0
 11
2706.25001594
 21
17280.9999539
 31
0.0
  0
LINE
  5
89
330
2
100
AcDbEntity
  8
YKK_Z1
  6
Continuous
100
AcDbLine
 10
2689.25
 20
17290.23720944
 30
0.0
 11
2676.25
 21
17290.23720944
 31
0.0
  0
LINE
  5
8A
330
2
100
AcDbEntity
  8
YKK_Z1
  6
Continuous
100
AcDbLine
 10
2703.25
 20
17290.23720944
 30
0.0
 11
2689.25
 21
17290.23720944
 31
0.0
  0
LINE
  5
8B
330
2
100
AcDbEntity
  8
YKK_Z1
  6
Continuous
100
AcDbLine
 10
2688.25
 20
17290.23720944
 30
0.0
 11
2703.25001526
 21
17290.23720944
 31
0.0
  0
LINE
  5
8C
330
2
100
AcDbEntity
  8
YKK_Z1
  6
ByBlock
 48
0.5
100
AcDbLine
 10
2733.25001594
 20
17285.9999539
 30
0.0
 11
2733.25001594
 21
17280.9999539
 31
0.0
  0
LINE
  5
8D
330
2
100
AcDbEntity
  8
YKK_Z1
  6
Continuous
100
AcDbLine
 10
2733.25001491
 20
17270.9999539
 30
0.0
 11
2733.25001491
 21
17285.9999539
 31
0.0
  0
LINE
  5
8E
330
2
100
AcDbEntity
  8
YKK_Z1
  6
ByBlock
 48
0.5
100
AcDbLine
 10
2733.25001594
 20
17280.9999539
 30
0.0
 11
2706.25001594
 21
17280.9999539
 31
0.0
  0
LINE
  5
8F
330
2
100
AcDbEntity
  8
YKK_C2
  6
ByBlock
 48
0.5
100
AcDbLine
 10
2748.23046288
 20
17250.99999998
 30
0.0
 11
2748.23046288
 21
17253.99999998
 31
0.0
  0
LINE
  5
90
330
2
100
AcDbEntity
  8
YKK_C2
  6
Continuous
100
AcDbLine
 10
2688.25
 20
17290.23720944
 30
0.0
 11
2676.25
 21
17290.23720944
 31
0.0
  0
LINE
  5
91
330
2
100
AcDbEntity
  8
YKK_C2
  6
Continuous
100
AcDbLine
 10
2676.25
 20
17281.37934507
 30
0.0
 11
2685.10786438
 21
17290.23720944
 31
0.0
  0
LINE
  5
92
330
2
100
AcDbEntity
  8
YKK_C2
  6
Continuous
100
AcDbLine
 10
2681.01441082
 20
17280.48690163
 30
0.0
 11
2686.25
 21
17285.72249082
 31
0.0
  0
LINE
  5
93
330
2
100
AcDbEntity
  8
YKK_C2
  6
Continuous
100
AcDbLine
 10
2676.25
 20
17290.23720944
 30
0.0
 11
2676.25
 21
17280.23720944
 31
0.0
  0
LINE
  5
94
330
2
100
AcDbEntity
  8
YKK_C2
  6
Continuous
100
AcDbLine
 10
2676.25
 20
17287.03619932
 30
0.0
 11
2679.45101013
 21
17290.23720944
 31
0.0
  0
LINE
  5
95
330
2
100
AcDbEntity
  8
YKK_C2
  6
Continuous
100
AcDbLine
 10
2686.25
 20
17290.23720944
 30
0.0
 11
2686.25
 21
17280.76128724
 31
0.0
  0
LINE
  5
96
330
2
100
AcDbEntity
  8
YKK_C2
  6
Continuous
100
AcDbLine
 10
2744.56883573
 20
17253.99999968
 30
0.0
 11
2761.56883573
 21
17270.99999968
 31
0.0
  0
LINE
  5
97
330
2
100
AcDbEntity
  8
YKK_C2
  6
ByBlock
 48
0.5
100
AcDbLine
 10
2748.23046288
 20
17253.99999998
 30
0.0
 11
2736.23046288
 21
17253.99999998
 31
0.0
  0
LINE
  5
98
330
2
100
AcDbEntity
  8
YKK_C2
  6
ByBlock
 48
0.5
100
AcDbLine
 10
2734.23046387
 20
17255.99999998
 30
0.0
 11
2734.23046387
 21
17270.99999998
 31
0.0
  0
LINE
  5
99
330
2
100
AcDbEntity
  8
YKK_C2
  6
ByBlock
 48
0.5
100
AcDbLine
 10
2736.23046288
 20
17253.99999998
 30
0.0
 11
2734.23046387
 21
17255.99999998
 31
0.0
  0
LINE
  5
9A
330
2
100
AcDbEntity
  8
YKK_C2
  6
Continuous
100
AcDbLine
 10
2734.25007659
 20
17266.30865755
 30
0.0
 11
2738.94141873
 21
17270.99999968
 31
0.0
  0
LINE
  5
9B
330
2
100
AcDbEntity
  8
YKK_C1
100
AcDbLine
 10
2704.25004391
 20
17281.00006013
 30
0.0
 11
2690.87172717
 21
17281.00006013
 31
0.0
  0
LINE
  5
9C
330
2
100
AcDbEntity
  8
YKK_C1
100
AcDbLine
 10
2690.87172717
 20
17281.00006013
 30
0.0
 11
2662.25004391
 21
17279.50006061
 31
0.0
  0
LINE
  5
9D
330
2
100
AcDbEntity
  8
YKK_C1
100
AcDbLine
 10
2662.25004391
 20
17279.50006061
 30
0.0
 11
2662.25004391
 21
17251.00006013
 31
0.0
  0
LINE
  5
9E
330
2
100
AcDbEntity
  8
YKK_C1
100
AcDbLine
 10
2688.65004391
 20
17270.20006013
 30
0.0
 11
2678.65004391
 21
17270.20006013
 31
0.0
  0
LINE
  5
9F
330
2
100
AcDbEntity
  8
YKK_C1
100
AcDbLine
 10
2678.65004391
 20
17270.20006013
 30
0.0
 11
2678.65004391
 21
17280.3595475
 31
0.0
  0
LINE
  5
A0
330
2
100
AcDbEntity
  8
YKK_C1
100
AcDbLine
 10
2682.75004391
 20
17248.00006013
 30
0.0
 11
2682.75004391
 21
17270.20006013
 31
0.0
  0
LINE
  5
A1
330
2
100
AcDbEntity
  8
YKK_C1
100
AcDbLine
 10
2748.25004391
 20
17253.50006013
 30
0.0
 11
2748.25004391
 21
17251.00006013
 31
0.0
  0
LINE
  5
A2
330
2
100
AcDbEntity
  8
YKK_C1
100
AcDbLine
 10
2748.25004391
 20
17251.00006013
 30
0.0
 11
2732.35004391
 21
17251.00006013
 31
0.0
  0
LINE
  5
A3
330
2
100
AcDbEntity
  8
YKK_C1
100
AcDbLine
 10
2733.25004391
 20
17251.00006013
 30
0.0
 11
2733.25004391
 21
17281.00006013
 31
0.0
  0
LINE
  5
A4
330
2
100
AcDbEntity
  8
YKK_C1
100
AcDbLine
 10
2733.25004391
 20
17281.00006013
 30
0.0
 11
2731.25004391
 21
17281.00006013
 31
0.0
  0
LINE
  5
A5
330
2
100
AcDbEntity
  8
YKK_C1
100
AcDbLine
 10
2711.85004391
 20
17270.20006013
 30
0.0
 11
2733.25004391
 21
17270.20006013
 31
0.0
  0
LINE
  5
A6
330
2
100
AcDbEntity
  8
YKK_C1
100
AcDbLine
 10
2717.75004391
 20
17248.00006013
 30
0.0
 11
2717.75004391
 21
17280.99999613
 31
0.0
  0
LINE
  5
A7
330
2
100
AcDbEntity
  8
YKK_C1
100
AcDbLine
 10
2714.45004791
 20
17270.20006013
 30
0.0
 11
2714.45004791
 21
17273.99999613
 31
0.0
  0
LINE
  5
A8
330
2
100
AcDbEntity
  8
YKK_C1
100
AcDbLine
 10
2714.45004791
 20
17273.99999613
 30
0.0
 11
2686.05004591
 21
17273.99999613
 31
0.0
  0
LINE
  5
A9
330
2
100
AcDbEntity
  8
YKK_C1
100
AcDbLine
 10
2686.05004591
 20
17273.99999613
 30
0.0
 11
2686.05004591
 21
17270.20006013
 31
0.0
  0
LINE
  5
AA
330
2
100
AcDbEntity
  8
YKK_C1
100
AcDbLine
 10
2702.65004391
 20
17281.00006013
 30
0.0
 11
2702.65004391
 21
17273.99999613
 31
0.0
  0
LINE
  5
AB
330
2
100
AcDbEntity
  8
YKK_Z1
  6
Continuous
100
AcDbLine
 10
2706.25001556
 20
17285.9999539
 30
0.0
 11
2811.25001556
 21
17285.9999539
 31
0.0
  0
LINE
  5
AC
330
2
100
AcDbEntity
  8
YKK_Z1
  6
Continuous
100
AcDbLine
 10
2811.25001491
 20
17285.9999539
 30
0.0
 11
2733.25001491
 21
17270.9999539
 31
0.0
  0
LINE
  5
AD
330
2
100
AcDbEntity
  8
YKK_Z1
  6
Continuous
100
AcDbLine
 10
2811.25001491
 20
17285.9999539
 30
0.0
 11
2733.25001491
 21
17285.9999539
 31
0.0
  0
LINE
  5
AE
330
2
100
AcDbEntity
  8
YKK_Z1
  6
Continuous
100
AcDbLine
 10
2811.25001491
 20
17270.9999539
 30
0.0
 11
2733.25001491
 21
17270.9999539
 31
0.0
  0
LINE
  5
AF
330
2
100
AcDbEntity
  8
YKK_C2
  6
Continuous
100
AcDbLine
 10
2764.19625272
 20
17250.99999968
 30
0.0
 11
2784.19625272
 21
17270.99999968
 31
0.0
  0
LINE
  5
B0
330
2
100
AcDbEntity
  8
YKK_C2
  6
ByBlock
 48
0.5
100
AcDbLine
 10
2831.23047088
 20
17251.00000002
 30
0.0
 11
2748.23046288
 21
17250.99999998
 31
0.0
  0
LINE
  5
B1
330
2
100
AcDbEntity
  8
YKK_C2
  6
ByBlock
 48
0.5
100
AcDbLine
 10
2734.23046387
 20
17270.99999998
 30
0.0
 11
2833.23047087
 21
17271.00000002
 31
0.0
  0
LINE
  5
B2
330
2
100
AcDbEntity
  8
YKK_A1
100
AcDbLine
 10
2676.25
 20
17356.08197117
 30
0.0
 11
2670.4500006
 21
17356.08197117
 31
0.0
  0
LINE
  5
B3
330
2
100
AcDbEntity
  8
YKK_A1
100
AcDbLine
 10
2676.25
 20
17356.08197117
 30
0.0
 11
2676.25
 21
17320.23720943
 31
0.0
  0
TEXT
  5
B4
330
2
100
AcDbEntity
  8
0
100
AcDbText
 10
9100.0
 20
19187.5
 30
0.0
 40
175.0
  1
コンバイザー 出幅400
  7
EXTFONT
100
AcDbText
  0
LINE
  5
B5
330
2
100
AcDbEntity
  8
YKK_Z1
  6
Continuous
100
AcDbLine
 10
7238.25
 20
17380.23720944
 30
0.0
 11
7255.25
 21
17380.23720944
 31
0.0
  0
LINE
  5
B6
330
2
100
AcDbEntity
  8
YKK_Z1
  6
Continuous
100
AcDbLine
 10
7255.25
 20
17375.23672113
 30
0.0
 11
7238.25
 21
17290.23720944
 31
0.0
  0
LINE
  5
B7
330
2
100
AcDbEntity
  8
YKK_Z1
  6
Continuous
100
AcDbLine
 10
7253.25
 20
17290.23720944
 30
0.0
 11
7239.25
 21
17290.23720944
 31
0.0
  0
LINE
  5
B8
330
2
100
AcDbEntity
  8
YKK_Z1
  6
Continuous
100
AcDbLine
 10
7238.25
 20
17290.23720944
 30
0.0
 11
7253.25001526
 21
17290.23720944
 31
0.0
  0
LINE
  5
B9
330
2
100
AcDbEntity
  8
YKK_C1
100
AcDbLine
 10
7240.87172717
 20
17281.00006013
 30
0.0
 11
7212.25004391
 21
17279.50006061
 31
0.0
  0
LINE
  5
BA
330
2
100
AcDbEntity
  8
YKK_C1
100
AcDbLine
 10
7264.45004791
 20
17273.99999613
 30
0.0
 11
7236.05004591
 21
17273.99999613
 31
0.0
  0
LINE
  5
BB
330
2
100
AcDbEntity
  8
YKK_N1
100
AcDbLine
 10
6133.25
 20
17261.23720943
 30
0.0
 11
6419.25
 21
17261.23720943
 31
0.0
  0
LINE
  5
BC
330
2
100
AcDbEntity
  8
YKK_A1
100
AcDbLine
 10
6426.25
 20
17368.36042725
 30
0.0
 11
6277.25
 21
17368.36042725
 31
0.0
  0
LINE
  5
BD
330
2
100
AcDbEntity
  8
YKK_A1
100
AcDbLine
 10
6426.25
 20
17332.23720943
 30
0.0
 11
6277.25
 21
17332.23720943
 31
0.0
  0
LINE
  5
BE
330
2
100
AcDbEntity
  8
YKK_A1
100
AcDbLine
 10
6426.25
 20
17320.23720943
 30
0.0
 11
6277.25
 21
17320.23720943
 31
0.0
  0
TEXT
  5
BF
330
2
100
AcDbEntity
  8
YKK_N1
100
AcDbText
 10
6274.67764937
 20
17267.5113211
 30
0.0
 40
20.0
  1
L
 41
0.8
100
AcDbText
  0
LINE
  5
C0
330
2
100
AcDbEntity
  8
YKK_N1
100
AcDbLine
 10
6126.25
 20
17298.23720943
 30
0.0
 11
6126.25
 21
17260.23720943
 31
0.0
  0
LINE
  5
C1
330
2
100
AcDbEntity
  8
YKK_N1
100
AcDbLine
 10
6126.25
 20
17298.23720943
 30
0.0
 11
6126.25
 21
17260.23720943
 31
0.0
  0
LINE
  5
C2
330
2
100
AcDbEntity
  8
YKK_N1
100
AcDbLine
 10
6126.25
 20
17261.23720943
 30
0.0
 11
6138.37435565
 21
17261.23720943
 31
0.0
  0
LINE
  5
C3
330
2
100
AcDbEntity
  8
YKK_N1
100
AcDbLine
 10
6144.43653348
 20
17250.73720943
 30
0.0
 11
6144.43653348
 21
17271.73720943
 31
0.0
  0
LINE
  5
C4
330
2
100
AcDbEntity
  8
YKK_N1
100
AcDbLine
 10
6126.25
 20
17261.23720943
 30
0.0
 11
6144.43653348
 21
17271.73720943
 31
0.0
  0
LINE
  5
C5
330
2
100
AcDbEntity
  8
YKK_N1
100
AcDbLine
 10
6126.25
 20
17261.23720943
 30
0.0
 11
6144.43653348
 21
17250.73720943
 31
0.0
  0
LINE
  5
C6
330
2
100
AcDbEntity
  8
YKK_A1
100
AcDbLine
 10
6126.25
 20
17368.36042725
 30
0.0
 11
6126.25
 21
17320.23720943
 31
0.0
  0
LINE
  5
C7
330
2
100
AcDbEntity
  8
YKK_A1
100
AcDbLine
 10
6275.25
 20
17320.23720943
 30
0.0
 11
6126.25
 21
17320.23720943
 31
0.0
  0
LINE
  5
C8
330
2
100
AcDbEntity
  8
YKK_A1
100
AcDbLine
 10
6275.25
 20
17332.23720943
 30
0.0
 11
6126.25
 21
17332.23720943
 31
0.0
  0
LINE
  5
C9
330
2
100
AcDbEntity
  8
YKK_A1
100
AcDbLine
 10
6275.25
 20
17368.36042725
 30
0.0
 11
6126.25
 21
17368.36042725
 31
0.0
  0
LINE
  5
CA
330
2
100
AcDbEntity
  8
YKK_N1
100
AcDbLine
 10
6426.25
 20
17298.23720943
 30
0.0
 11
6426.25
 21
17260.23720943
 31
0.0
  0
LINE
  5
CB
330
2
100
AcDbEntity
  8
YKK_N1
100
AcDbLine
 10
6426.25
 20
17298.23720943
 30
0.0
 11
6426.25
 21
17260.23720943
 31
0.0
  0
LINE
  5
CC
330
2
100
AcDbEntity
  8
YKK_A1
100
AcDbLine
 10
6426.25
 20
17368.36042725
 30
0.0
 11
6426.25
 21
17320.23720943
 31
0.0
  0
LINE
  5
CD
330
2
100
AcDbEntity
  8
YKK_N1
100
AcDbLine
 10
6408.06346652
 20
17271.73720943
 30
0.0
 11
6408.06346652
 21
17250.73720943
 31
0.0
  0
LINE
  5
CE
330
2
100
AcDbEntity
  8
YKK_N1
100
AcDbLine
 10
6426.25
 20
17261.23720943
 30
0.0
 11
6414.12564435
 21
17261.23720943
 31
0.0
  0
LINE
  5
CF
330
2
100
AcDbEntity
  8
YKK_N1
100
AcDbLine
 10
6426.25
 20
17261.23720943
 30
0.0
 11
6408.06346652
 21
17250.73720943
 31
0.0
  0
LINE
  5
D0
330
2
100
AcDbEntity
  8
YKK_N1
100
AcDbLine
 10
6426.25
 20
17261.23720943
 30
0.0
 11
6408.06346652
 21
17271.73720943
 31
0.0
  0
TEXT
  5
D1
330
2
100
AcDbEntity
  8
YKK_N1
100
AcDbText
 10
6910.90756062
 20
17351.08418114
 30
0.0
 40
20.0
  1
7\U+00B0
 41
0.8
100
AcDbText
  0
LINE
  5
D2
330
2
100
AcDbEntity
  8
YKK_N1
100
AcDbLine
 10
6926.25
 20
17261.23720943
 30
0.0
 11
6938.37435565
 21
17261.23720943
 31
0.0
  0
LINE
  5
D3
330
2
100
AcDbEntity
  8
YKK_N1
100
AcDbLine
 10
6926.25
 20
17261.23720943
 30
0.0
 11
6944.43653348
 21
17250.73720943
 31
0.0
  0
LINE
  5
D4
330
2
100
AcDbEntity
  8
YKK_N1
100
AcDbLine
 10
6926.25
 20
17261.23720943
 30
0.0
 11
6944.43653348
 21
17271.73720943
 31
0.0
  0
LINE
  5
D5
330
2
100
AcDbEntity
  8
YKK_A1
100
AcDbLine
 10
7226.25
 20
17320.23720943
 30
0.0
 11
6926.24999999
 21
17320.23720942
 31
0.0
  0
LINE
  5
D6
330
2
100
AcDbEntity
  8
YKK_A1
100
AcDbLine
 10
6926.24999999
 20
17332.23720949
 30
0.0
 11
7220.44999847
 21
17368.36042725
 31
0.0
  0
LINE
  5
D7
330
2
100
AcDbEntity
  8
YKK_A1
100
AcDbLine
 10
6926.24999999
 20
17320.23720942
 30
0.0
 11
6926.24999999
 21
17332.23720949
 31
0.0
  0
LINE
  5
D8
330
2
100
AcDbEntity
  8
YKK_N1
100
AcDbLine
 10
6904.25
 20
17332.23720943
 30
0.0
 11
6886.25
 21
17332.23720943
 31
0.0
  0
LINE
  5
D9
330
2
100
AcDbEntity
  8
YKK_N1
100
AcDbLine
 10
6904.25
 20
17320.23720943
 30
0.0
 11
6886.25
 21
17320.23720943
 31
0.0
  0
LINE
  5
DA
330
2
100
AcDbEntity
  8
YKK_N1
100
AcDbLine
 10
6887.25
 20
17320.23720943
 30
0.0
 11
6887.25
 21
17332.23720943
 31
0.0
  0
LWPOLYLINE
  5
DB
330
2
100
AcDbEntity
  8
YKK_N1
  6
ByBlock
100
AcDbPolyline
 90
        2
 70
     1
 43
0.85
 10
6887.25
 20
17320.34345943
 42
1.0
 10
6887.25
 20
17320.13095943
 42
1.0
  0
LWPOLYLINE
  5
DC
330
2
100
AcDbEntity
  8
YKK_N1
  6
ByBlock
100
AcDbPolyline
 90
        2
 70
     1
 43
0.85
 10
6887.25
 20
17332.13095943
 42
1.0
 10
6887.25
 20
17332.34345943
 42
1.0
  0
TEXT
  5
DD
330
2
100
AcDbEntity
  8
YKK_N1
100
AcDbText
 10
6881.25
 20
17317.52141421
 30
0.0
 40
20.0
  1
12
 50
90.0
 41
0.8
100
AcDbText
  0
LINE
  5
DE
330
2
100
AcDbEntity
  8
YKK_N1
100
AcDbLine
 10
6926.25
 20
17298.23720943
 30
0.0
 11
6926.25
 21
17260.23720943
 31
0.0
  0
LINE
  5
DF
330
2
100
AcDbEntity
  8
YKK_N1
100
AcDbLine
 10
6939.61014517
 20
17356.33084514
 30
0.0
 11
6970.28105576
 21
17356.33084514
 31
0.0
  0
LINE
  5
E0
330
2
100
AcDbEntity
  8
YKK_N1
100
AcDbLine
 10
6970.28105576
 20
17356.33084514
 30
0.0
 11
6939.72247687
 21
17352.57872345
 31
0.0
  0
LINE
  5
E1
330
2
100
AcDbEntity
  8
YKK_Z1
100
AcDbLine
 10
7226.25
 20
17290.23720944
 30
0.0
 11
7226.25
 21
17398.37883013
 31
0.0
  0
LINE
  5
E2
330
2
100
AcDbEntity
  8
YKK_Z1
  6
Continuous
100
AcDbLine
 10
7238.25
 20
17398.37883013
 30
0.0
 11
7238.25
 21
17290.23720944
 31
0.0
  0
LINE
  5
E3
330
2
100
AcDbEntity
  8
YKK_Z1
  6
Continuous
100
AcDbLine
 10
7238.25
 20
17335.23720944
 30
0.0
 11
7238.25
 21
17290.23720944
 31
0.0
  0
LINE
  5
E4
330
2
100
AcDbEntity
  8
YKK_Z1
  6
Continuous
100
AcDbLine
 10
7239.25
 20
17290.23720944
 30
0.0
 11
7226.25
 21
17290.23720944
 31
0.0
  0
LINE
  5
E5
330
2
100
AcDbEntity
  8
YKK_C2
  6
Continuous
100
AcDbLine
 10
7238.25
 20
17290.23720944
 30
0.0
 11
7226.25
 21
17290.23720944
 31
0.0
  0
LINE
  5
E6
330
2
100
AcDbEntity
  8
YKK_C2
  6
Continuous
100
AcDbLine
 10
7226.25
 20
17281.37934507
 30
0.0
 11
7235.10786438
 21
17290.23720944
 31
0.0
  0
LINE
  5
E7
330
2
100
AcDbEntity
  8
YKK_C2
  6
Continuous
100
AcDbLine
 10
7231.01441082
 20
17280.48690163
 30
0.0
 11
7236.25
 21
17285.72249082
 31
0.0
  0
LINE
  5
E8
330
2
100
AcDbEntity
  8
YKK_C2
  6
Continuous
100
AcDbLine
 10
7226.25
 20
17290.23720944
 30
0.0
 11
7226.25
 21
17280.23720944
 31
0.0
  0
LINE
  5
E9
330
2
100
AcDbEntity
  8
YKK_C2
  6
Continuous
100
AcDbLine
 10
7226.25
 20
17287.03619932
 30
0.0
 11
7229.45101013
 21
17290.23720944
 31
0.0
  0
LINE
  5
EA
330
2
100
AcDbEntity
  8
YKK_C2
  6
Continuous
100
AcDbLine
 10
7236.25
 20
17290.23720944
 30
0.0
 11
7236.25
 21
17280.76128724
 31
0.0
  0
LINE
  5
EB
330
2
100
AcDbEntity
  8
YKK_C1
100
AcDbLine
 10
7212.25004391
 20
17279.50006061
 30
0.0
 11
7212.25004391
 21
17251.00006013
 31
0.0
  0
LINE
  5
EC
330
2
100
AcDbEntity
  8
YKK_C1
100
AcDbLine
 10
7238.65004391
 20
17270.20006013
 30
0.0
 11
7228.65004391
 21
17270.20006013
 31
0.0
  0
LINE
  5
ED
330
2
100
AcDbEntity
  8
YKK_C1
100
AcDbLine
 10
7228.65004391
 20
17270.20006013
 30
0.0
 11
7228.65004391
 21
17280.3595475
 31
0.0
  0
LINE
  5
EE
330
2
100
AcDbEntity
  8
YKK_C1
100
AcDbLine
 10
7232.75004391
 20
17248.00006013
 30
0.0
 11
7232.75004391
 21
17270.20006013
 31
0.0
  0
LINE
  5
EF
330
2
100
AcDbEntity
  8
YKK_C1
100
AcDbLine
 10
7236.05004591
 20
17273.99999613
 30
0.0
 11
7236.05004591
 21
17270.20006013
 31
0.0
  0
LINE
  5
F0
330
2
100
AcDbEntity
  8
YKK_A1
100
AcDbLine
 10
7226.25
 20
17368.36042725
 30
0.0
 11
7226.25
 21
17320.23720943
 31
0.0
  0
LINE
  5
F1
330
2
100
AcDbEntity
  8
YKK_A1
100
AcDbLine
 10
7220.44999847
 20
17368.36042725
 30
0.0
 11
7226.25
 21
17368.36042725
 31
0.0
  0
LINE
  5
F2
330
2
100
AcDbEntity
  8
YKK_N1
100
AcDbLine
 10
7226.24986742
 20
17298.23720943
 30
0.0
 11
7226.24986742
 21
17260.23720943
 31
0.0
  0
LINE
  5
F3
330
2
100
AcDbEntity
  8
YKK_N1
100
AcDbLine
 10
7226.24986742
 20
17261.23720943
 30
0.0
 11
7214.12551177
 21
17261.23720943
 31
0.0
  0
LINE
  5
F4
330
2
100
AcDbEntity
  8
YKK_N1
100
AcDbLine
 10
7226.24986742
 20
17261.23720943
 30
0.0
 11
7208.06333394
 21
17271.73720943
 31
0.0
  0
LINE
  5
F5
330
2
100
AcDbEntity
  8
YKK_N1
100
AcDbLine
 10
7208.06333394
 20
17271.73720943
 30
0.0
 11
7208.06333394
 21
17250.73720943
 31
0.0
  0
LINE
  5
F6
330
2
100
AcDbEntity
  8
YKK_N1
100
AcDbLine
 10
7226.24986742
 20
17261.23720943
 30
0.0
 11
7208.06333394
 21
17250.73720943
 31
0.0
  0
LWPOLYLINE
  5
F7
330
2
100
AcDbEntity
  8
YKK_N1
  6
ByBlock
100
AcDbPolyline
 90
        2
 70
     1
 43
0.85
 10
6929.60633259
 20
17356.22459514
 42
1.0
 10
6929.60633259
 20
17356.43709514
 42
1.0
  0
LWPOLYLINE
  5
F8
330
2
100
AcDbEntity
  8
YKK_N1
  6
ByBlock
100
AcDbPolyline
 90
        2
 70
     1
 43
0.85
 10
6929.89656719
 20
17351.47930136
 42
1.0
 10
6929.92246443
 20
17351.26838531
 42
1.0
  0
ARC
  5
F9
330
2
100
AcDbEntity
  8
YKK_N1
100
AcDbCircle
 10
6970.28105576
 20
17356.33084514
 30
0.0
 40
40.67472317065979
100
AcDbArc
 50
180.0
 51
187.0
  0
LINE
  5
FA
330
2
100
AcDbEntity
  8
YKK_N1
100
AcDbLine
 10
6938.72993072
 20
17352.45685411
 30
0.0
 11
6928.91696966
 21
17351.25197399
 31
0.0
  0
LINE
  5
FB
330
2
100
AcDbEntity
  8
YKK_N1
100
AcDbLine
 10
6938.61014517
 20
17356.33084514
 30
0.0
 11
6928.60633259
 21
17356.33084514
 31
0.0
  0
LINE
  5
FC
330
2
100
AcDbEntity
  8
YKK_N1
100
AcDbLine
 10
6944.43653348
 20
17250.73720943
 30
0.0
 11
6944.43653348
 21
17271.73720943
 31
0.0
  0
TEXT
  5
FD
330
2
100
AcDbEntity
  8
YKK_N1
100
AcDbText
 10
7038.60716255
 20
17267.23720943
 30
0.0
 40
20.0
  1
D=300
 41
0.8
100
AcDbText
  0
LINE
  5
FE
330
2
100
AcDbEntity
  8
YKK_N1
100
AcDbLine
 10
6933.25
 20
17261.23720943
 30
0.0
 11
7219.24986742
 21
17261.23720943
 31
0.0
  0
LINE
  5
FF
330
2
100
AcDbEntity
  8
YKK_Z1
  6
Continuous
100
AcDbLine
 10
7361.25001556
 20
17398.37883013
 30
0.0
 11
7361.25001556
 21
17270.99999968
 31
0.0
  0
LINE
  5
100
330
2
100
AcDbEntity
  8
YKK_Z1
  6
Continuous
100
AcDbLine
 10
7373.75001556
 20
17398.37883013
 30
0.0
 11
7373.75001556
 21
17270.99999968
 31
0.0
  0
LINE
  5
101
330
2
100
AcDbEntity
  8
YKK_C2
  6
ByBlock
 48
0.5
100
AcDbLine
 10
7383.23047087
 20
17271.00000002
 30
0.0
 11
7383.23047088
 21
17253.00000002
 31
0.0
  0
LINE
  5
102
330
2
100
AcDbEntity
  8
YKK_C2
  6
Continuous
100
AcDbLine
 10
7359.45108672
 20
17250.99999968
 30
0.0
 11
7379.45108672
 21
17270.99999968
 31
0.0
  0
ARC
  5
103
330
2
100
AcDbEntity
  8
YKK_C2
100
AcDbCircle
 10
7381.23047088
 20
17253.00000002
 30
0.0
 40
2.0
100
AcDbArc
 50
270.00001875
 51
0.00000002
  0
LINE
  5
104
330
2
100
AcDbEntity
  8
YKK_Z1
  6
Continuous
100
AcDbLine
 10
7256.25010341
 20
17330.99991938
 30
0.0
 11
7256.25010341
 21
17398.37883013
 31
0.0
  0
LINE
  5
105
330
2
100
AcDbEntity
  8
YKK_Z1
  6
Continuous
100
AcDbLine
 10
7256.25010341
 20
17398.37883013
 30
0.0
 11
7256.25010341
 21
17330.99991938
 31
0.0
  0
LINE
  5
106
330
2
100
AcDbEntity
  8
YKK_Z1
  6
Continuous
100
AcDbLine
 10
7256.25
 20
17280.9999539
 30
0.0
 11
7256.25
 21
17335.23720944
 31
0.0
  0
LINE
  5
107
330
2
100
AcDbEntity
  8
YKK_C1
100
AcDbLine
 10
7256.25004391
 20
17306.00006013
 30
0.0
 11
7254.25004391
 21
17306.00006013
 31
0.0
  0
LINE
  5
108
330
2
100
AcDbEntity
  8
YKK_C1
100
AcDbLine
 10
7254.25004391
 20
17306.00006013
 30
0.0
 11
7254.25004391
 21
17281.00006013
 31
0.0
  0
LINE
  5
109
330
2
100
AcDbEntity
  8
YKK_Z1
  6
ByBlock
 48
0.5
100
AcDbLine
 10
7256.25001594
 20
17285.9999539
 30
0.0
 11
7283.25001594
 21
17285.9999539
 31
0.0
  0
LINE
  5
10A
330
2
100
AcDbEntity
  8
YKK_Z1
  6
ByBlock
 48
0.5
100
AcDbLine
 10
7283.25001594
 20
17285.9999539
 30
0.0
 11
7256.25001594
 21
17280.9999539
 31
0.0
  0
LINE
  5
10B
330
2
100
AcDbEntity
  8
YKK_Z1
  6
ByBlock
 48
0.5
100
AcDbLine
 10
7283.25001594
 20
17285.9999539
 30
0.0
 11
7283.25001594
 21
17280.9999539
 31
0.0
  0
LINE
  5
10C
330
2
100
AcDbEntity
  8
YKK_Z1
  6
Continuous
100
AcDbLine
 10
7283.25001491
 20
17270.9999539
 30
0.0
 11
7283.25001491
 21
17285.9999539
 31
0.0
  0
LINE
  5
10D
330
2
100
AcDbEntity
  8
YKK_Z1
  6
ByBlock
 48
0.5
100
AcDbLine
 10
7283.25001594
 20
17280.9999539
 30
0.0
 11
7256.25001594
 21
17280.9999539
 31
0.0
  0
LINE
  5
10E
330
2
100
AcDbEntity
  8
YKK_C2
  6
ByBlock
 48
0.5
100
AcDbLine
 10
7298.23046288
 20
17250.99999998
 30
0.0
 11
7298.23046288
 21
17253.99999998
 31
0.0
  0
LINE
  5
10F
330
2
100
AcDbEntity
  8
YKK_C2
  6
Continuous
100
AcDbLine
 10
7294.56883573
 20
17253.99999968
 30
0.0
 11
7311.56883573
 21
17270.99999968
 31
0.0
  0
LINE
  5
110
330
2
100
AcDbEntity
  8
YKK_C2
  6
ByBlock
 48
0.5
100
AcDbLine
 10
7298.23046288
 20
17253.99999998
 30
0.0
 11
7286.23046288
 21
17253.99999998
 31
0.0
  0
LINE
  5
111
330
2
100
AcDbEntity
  8
YKK_C2
  6
ByBlock
 48
0.5
100
AcDbLine
 10
7284.23046387
 20
17255.99999998
 30
0.0
 11
7284.23046387
 21
17270.99999998
 31
0.0
  0
LINE
  5
112
330
2
100
AcDbEntity
  8
YKK_C2
  6
ByBlock
 48
0.5
100
AcDbLine
 10
7286.23046288
 20
17253.99999998
 30
0.0
 11
7284.23046387
 21
17255.99999998
 31
0.0
  0
LINE
  5
113
330
2
100
AcDbEntity
  8
YKK_C2
  6
Continuous
100
AcDbLine
 10
7284.25007659
 20
17266.30865755
 30
0.0
 11
7288.94141873
 21
17270.99999968
 31
0.0
  0
LINE
  5
114
330
2
100
AcDbEntity
  8
YKK_C1
100
AcDbLine
 10
7254.25004391
 20
17281.00006013
 30
0.0
 11
7240.87172717
 21
17281.00006013
 31
0.0
  0
LINE
  5
115
330
2
100
AcDbEntity
  8
YKK_C1
100
AcDbLine
 10
7298.25004391
 20
17253.50006013
 30
0.0
 11
7298.25004391
 21
17251.00006013
 31
0.0
  0
LINE
  5
116
330
2
100
AcDbEntity
  8
YKK_C1
100
AcDbLine
 10
7298.25004391
 20
17251.00006013
 30
0.0
 11
7282.35004391
 21
17251.00006013
 31
0.0
  0
LINE
  5
117
330
2
100
AcDbEntity
  8
YKK_C1
100
AcDbLine
 10
7283.25004391
 20
17251.00006013
 30
0.0
 11
7283.25004391
 21
17281.00006013
 31
0.0
  0
LINE
  5
118
330
2
100
AcDbEntity
  8
YKK_C1
100
AcDbLine
 10
7283.25004391
 20
17281.00006013
 30
0.0
 11
7281.25004391
 21
17281.00006013
 31
0.0
  0
LINE
  5
119
330
2
100
AcDbEntity
  8
YKK_C1
100
AcDbLine
 10
7261.85004391
 20
17270.20006013
 30
0.0
 11
7283.25004391
 21
17270.20006013
 31
0.0
  0
LINE
  5
11A
330
2
100
AcDbEntity
  8
YKK_C1
100
AcDbLine
 10
7267.75004391
 20
17248.00006013
 30
0.0
 11
7267.75004391
 21
17280.99999613
 31
0.0
  0
LINE
  5
11B
330
2
100
AcDbEntity
  8
YKK_C1
100
AcDbLine
 10
7264.45004791
 20
17270.20006013
 30
0.0
 11
7264.45004791
 21
17273.99999613
 31
0.0
  0
LINE
  5
11C
330
2
100
AcDbEntity
  8
YKK_C1
100
AcDbLine
 10
7252.65004391
 20
17281.00006013
 30
0.0
 11
7252.65004391
 21
17273.99999613
 31
0.0
  0
LINE
  5
11D
330
2
100
AcDbEntity
  8
YKK_C2
  6
Continuous
100
AcDbLine
 10
7314.19625272
 20
17250.99999968
 30
0.0
 11
7334.19625272
 21
17270.99999968
 31
0.0
  0
TEXT
  5
11E
330
2
100
AcDbEntity
  8
YKK_N1
100
AcDbText
 10
7286.25
 20
17322.27206939
 30
0.0
 40
20.0
  1
48.1
 50
90.0
 41
0.8
100
AcDbText
  0
LINE
  5
11F
330
2
100
AcDbEntity
  8
YKK_N1
100
AcDbLine
 10
7292.25
 20
17320.23720943
 30
0.0
 11
7292.25
 21
17368.36042725
 31
0.0
  0
LINE
  5
120
330
2
100
AcDbEntity
  8
YKK_N1
100
AcDbLine
 10
7242.97573593
 20
17320.23720943
 30
0.0
 11
7273.25
 21
17320.23720943
 31
0.0
  0
LINE
  5
121
330
2
100
AcDbEntity
  8
YKK_N1
100
AcDbLine
 10
7242.97560335
 20
17320.23720943
 30
0.0
 11
7293.25
 21
17320.23720943
 31
0.0
  0
LWPOLYLINE
  5
122
330
2
100
AcDbEntity
  8
YKK_N1
  6
ByBlock
100
AcDbPolyline
 90
        2
 70
     1
 43
0.85
 10
7292.25
 20
17320.34345943
 42
1.0
 10
7292.25
 20
17320.13095943
 42
1.0
  0
LWPOLYLINE
  5
123
330
2
100
AcDbEntity
  8
YKK_N1
  6
ByBlock
100
AcDbPolyline
 90
        2
 70
     1
 43
0.85
 10
7292.25
 20
17368.25417725
 42
1.0
 10
7292.25
 20
17368.46667725
 42
1.0
  0
LINE
  5
124
330
2
100
AcDbEntity
  8
YKK_N1
100
AcDbLine
 10
7246.44999847
 20
17368.36042725
 30
0.0
 11
7293.25
 21
17368.36042725
 31
0.0
  0
LINE
  5
125
330
2
100
AcDbEntity
  8
YKK_Z1
  6
Continuous
100
AcDbLine
 10
7256.25001556
 20
17285.9999539
 30
0.0
 11
7361.25001556
 21
17330.9999539
 31
0.0
  0
LINE
  5
126
330
2
100
AcDbEntity
  8
YKK_Z1
  6
Continuous
100
AcDbLine
 10
7361.25001556
 20
17330.9999539
 30
0.0
 11
7256.25001556
 21
17330.9999539
 31
0.0
  0
LINE
  5
127
330
2
100
AcDbEntity
  8
YKK_C2
  6
Continuous
100
AcDbLine
 10
7336.82366972
 20
17250.99999968
 30
0.0
 11
7356.82366972
 21
17270.99999968
 31
0.0
  0
LINE
  5
128
330
2
100
AcDbEntity
  8
YKK_Z1
  6
Continuous
100
AcDbLine
 10
7256.25001556
 20
17285.9999539
 30
0.0
 11
7361.25001556
 21
17285.9999539
 31
0.0
  0
LINE
  5
129
330
2
100
AcDbEntity
  8
YKK_Z1
  6
Continuous
100
AcDbLine
 10
7361.25001491
 20
17285.9999539
 30
0.0
 11
7283.25001491
 21
17270.9999539
 31
0.0
  0
LINE
  5
12A
330
2
100
AcDbEntity
  8
YKK_Z1
  6
Continuous
100
AcDbLine
 10
7361.25001491
 20
17285.9999539
 30
0.0
 11
7283.25001491
 21
17285.9999539
 31
0.0
  0
LINE
  5
12B
330
2
100
AcDbEntity
  8
YKK_Z1
  6
Continuous
100
AcDbLine
 10
7361.25001491
 20
17270.9999539
 30
0.0
 11
7283.25001491
 21
17270.9999539
 31
0.0
  0
LINE
  5
12C
330
2
100
AcDbEntity
  8
YKK_C2
  6
ByBlock
 48
0.5
100
AcDbLine
 10
7381.23047088
 20
17251.00000002
 30
0.0
 11
7298.23046288
 21
17250.99999998
 31
0.0
  0
LINE
  5
12D
330
2
100
AcDbEntity
  8
YKK_C2
  6
ByBlock
 48
0.5
100
AcDbLine
 10
7284.23046387
 20
17270.99999998
 30
0.0
 11
7383.23047087
 21
17271.00000002
 31
0.0
  0
LINE
  5
12E
330
2
100
AcDbEntity
  8
YKK_A1
100
AcDbLine
 10
10725.25
 20
17320.23720943
 30
0.0
 11
10576.25
 21
17320.23720943
 31
0.0
  0
LINE
  5
12F
330
2
100
AcDbEntity
  8
YKK_A1
100
AcDbLine
 10
10725.25
 20
17332.23720943
 30
0.0
 11
10576.25
 21
17332.23720943
 31
0.0
  0
LINE
  5
130
330
2
100
AcDbEntity
  8
YKK_A1
100
AcDbLine
 10
10725.25
 20
17380.63886705
 30
0.0
 11
10576.25
 21
17380.63886705
 31
0.0
  0
LINE
  5
131
330
2
100
AcDbEntity
  8
YKK_N1
100
AcDbLine
 10
10583.25
 20
17261.23720943
 30
0.0
 11
10869.25
 21
17261.23720943
 31
0.0
  0
LINE
  5
132
330
2
100
AcDbEntity
  8
YKK_N1
100
AcDbLine
 10
10576.25
 20
17298.23720943
 30
0.0
 11
10576.25
 21
17260.23720943
 31
0.0
  0
LINE
  5
133
330
2
100
AcDbEntity
  8
YKK_N1
100
AcDbLine
 10
10576.25
 20
17298.23720943
 30
0.0
 11
10576.25
 21
17260.23720943
 31
0.0
  0
LINE
  5
134
330
2
100
AcDbEntity
  8
YKK_N1
100
AcDbLine
 10
10576.25
 20
17261.23720943
 30
0.0
 11
10588.37435565
 21
17261.23720943
 31
0.0
  0
LINE
  5
135
330
2
100
AcDbEntity
  8
YKK_N1
100
AcDbLine
 10
10594.43653348
 20
17250.73720943
 30
0.0
 11
10594.43653348
 21
17271.73720943
 31
0.0
  0
LINE
  5
136
330
2
100
AcDbEntity
  8
YKK_N1
100
AcDbLine
 10
10576.25
 20
17261.23720943
 30
0.0
 11
10594.43653348
 21
17271.73720943
 31
0.0
  0
LINE
  5
137
330
2
100
AcDbEntity
  8
YKK_N1
100
AcDbLine
 10
10576.25
 20
17261.23720943
 30
0.0
 11
10594.43653348
 21
17250.73720943
 31
0.0
  0
LINE
  5
138
330
2
100
AcDbEntity
  8
YKK_A1
100
AcDbLine
 10
10576.25
 20
17380.63886705
 30
0.0
 11
10576.25
 21
17320.23720943
 31
0.0
  0
LINE
  5
139
330
2
100
AcDbEntity
  8
YKK_N1
100
AcDbLine
 10
10876.25
 20
17298.23720943
 30
0.0
 11
10876.25
 21
17260.23720943
 31
0.0
  0
LINE
  5
13A
330
2
100
AcDbEntity
  8
YKK_N1
100
AcDbLine
 10
10876.25
 20
17298.23720943
 30
0.0
 11
10876.25
 21
17260.23720943
 31
0.0
  0
LINE
  5
13B
330
2
100
AcDbEntity
  8
YKK_N1
100
AcDbLine
 10
10876.25
 20
17261.23720943
 30
0.0
 11
10864.12564435
 21
17261.23720943
 31
0.0
  0
LINE
  5
13C
330
2
100
AcDbEntity
  8
YKK_N1
100
AcDbLine
 10
10858.06346652
 20
17271.73720943
 30
0.0
 11
10858.06346652
 21
17250.73720943
 31
0.0
  0
LINE
  5
13D
330
2
100
AcDbEntity
  8
YKK_N1
100
AcDbLine
 10
10876.25
 20
17261.23720943
 30
0.0
 11
10858.06346652
 21
17250.73720943
 31
0.0
  0
LINE
  5
13E
330
2
100
AcDbEntity
  8
YKK_N1
100
AcDbLine
 10
10876.25
 20
17261.23720943
 30
0.0
 11
10858.06346652
 21
17271.73720943
 31
0.0
  0
LINE
  5
13F
330
2
100
AcDbEntity
  8
YKK_A1
100
AcDbLine
 10
10876.25
 20
17380.63886705
 30
0.0
 11
10876.25
 21
17320.23720943
 31
0.0
  0
LINE
  5
140
330
2
100
AcDbEntity
  8
YKK_A1
100
AcDbLine
 10
10876.25
 20
17380.63886705
 30
0.0
 11
10727.25
 21
17380.63886705
 31
0.0
  0
LINE
  5
141
330
2
100
AcDbEntity
  8
YKK_A1
100
AcDbLine
 10
10876.25
 20
17332.23720943
 30
0.0
 11
10727.25
 21
17332.23720943
 31
0.0
  0
LINE
  5
142
330
2
100
AcDbEntity
  8
YKK_A1
100
AcDbLine
 10
10876.25
 20
17320.23720943
 30
0.0
 11
10727.25
 21
17320.23720943
 31
0.0
  0
TEXT
  5
143
330
2
100
AcDbEntity
  8
YKK_N1
100
AcDbText
 10
10724.67764937
 20
17267.5113211
 30
0.0
 40
20.0
  1
L
 41
0.8
100
AcDbText
  0
LINE
  5
144
330
2
100
AcDbEntity
  8
YKK_A1
100
AcDbLine
 10
11376.24999999
 20
17332.23720949
 30
0.0
 11
11770.44999999
 21
17380.63886708
 31
0.0
  0
LINE
  5
145
330
2
100
AcDbEntity
  8
YKK_A1
100
AcDbLine
 10
11776.25
 20
17320.23720943
 30
0.0
 11
11376.24999999
 21
17320.23720942
 31
0.0
  0
LINE
  5
146
330
2
100
AcDbEntity
  8
YKK_N1
100
AcDbLine
 10
11383.25
 20
17261.23720943
 30
0.0
 11
11769.25
 21
17261.23720943
 31
0.0
  0
LINE
  5
147
330
2
100
AcDbEntity
  8
YKK_N1
100
AcDbLine
 10
11389.61027775
 20
17356.33084514
 30
0.0
 11
11420.28118834
 21
17356.33084514
 31
0.0
  0
LINE
  5
148
330
2
100
AcDbEntity
  8
YKK_N1
100
AcDbLine
 10
11420.28118834
 20
17356.33084514
 30
0.0
 11
11389.72260945
 21
17352.57872345
 31
0.0
  0
LINE
  5
149
330
2
100
AcDbEntity
  8
YKK_N1
100
AcDbLine
 10
11388.7300633
 20
17352.45685411
 30
0.0
 11
11377.09870979
 21
17351.02870347
 31
0.0
  0
LINE
  5
14A
330
2
100
AcDbEntity
  8
YKK_N1
100
AcDbLine
 10
11388.61027775
 20
17356.33084514
 30
0.0
 11
11376.77441691
 21
17356.33084514
 31
0.0
  0
LWPOLYLINE
  5
14B
330
2
100
AcDbEntity
  8
YKK_N1
  6
ByBlock
100
AcDbPolyline
 90
        2
 70
     1
 43
0.85
 10
11377.77441691
 20
17356.22459514
 42
1.0
 10
11377.77441691
 20
17356.43709514
 42
1.0
  0
LWPOLYLINE
  5
14C
330
2
100
AcDbEntity
  8
YKK_N1
  6
ByBlock
100
AcDbPolyline
 90
        2
 70
     1
 43
0.85
 10
11378.07830732
 20
17351.25603085
 42
1.0
 10
11378.10420456
 20
17351.04511479
 42
1.0
  0
ARC
  5
14D
330
2
100
AcDbEntity
  8
YKK_N1
100
AcDbCircle
 10
11420.28118834
 20
17356.33084514
 30
0.0
 40
42.50677143135901
100
AcDbArc
 50
180.0
 51
187.0
  0
LINE
  5
14E
330
2
100
AcDbEntity
  8
YKK_A1
100
AcDbLine
 10
11376.24999999
 20
17320.23720942
 30
0.0
 11
11376.24999999
 21
17332.23720949
 31
0.0
  0
TEXT
  5
14F
330
2
100
AcDbEntity
  8
YKK_N1
100
AcDbText
 10
11359.65546039
 20
17350.48098778
 30
0.0
 40
20.0
  1
7\U+00B0
 41
0.8
100
AcDbText
  0
LINE
  5
150
330
2
100
AcDbEntity
  8
YKK_N1
100
AcDbLine
 10
11376.25
 20
17298.23720943
 30
0.0
 11
11376.25
 21
17260.23720943
 31
0.0
  0
LINE
  5
151
330
2
100
AcDbEntity
  8
YKK_N1
100
AcDbLine
 10
11376.25
 20
17261.23720943
 30
0.0
 11
11388.37435565
 21
17261.23720943
 31
0.0
  0
LINE
  5
152
330
2
100
AcDbEntity
  8
YKK_N1
100
AcDbLine
 10
11376.25
 20
17261.23720943
 30
0.0
 11
11394.43653348
 21
17250.73720943
 31
0.0
  0
LINE
  5
153
330
2
100
AcDbEntity
  8
YKK_N1
100
AcDbLine
 10
11394.43653348
 20
17250.73720943
 30
0.0
 11
11394.43653348
 21
17271.73720943
 31
0.0
  0
LINE
  5
154
330
2
100
AcDbEntity
  8
YKK_N1
100
AcDbLine
 10
11376.25
 20
17261.23720943
 30
0.0
 11
11394.43653348
 21
17271.73720943
 31
0.0
  0
LWPOLYLINE
  5
155
330
2
100
AcDbEntity
  8
YKK_N1
  6
ByBlock
100
AcDbPolyline
 90
        2
 70
     1
 43
0.85
 10
11337.25
 20
17332.13095943
 42
1.0
 10
11337.25
 20
17332.34345943
 42
1.0
  0
LWPOLYLINE
  5
156
330
2
100
AcDbEntity
  8
YKK_N1
  6
ByBlock
100
AcDbPolyline
 90
        2
 70
     1
 43
0.85
 10
11337.25
 20
17320.34345943
 42
1.0
 10
11337.25
 20
17320.13095943
 42
1.0
  0
LINE
  5
157
330
2
100
AcDbEntity
  8
YKK_N1
100
AcDbLine
 10
11337.25
 20
17320.23720943
 30
0.0
 11
11337.25
 21
17332.23720943
 31
0.0
  0
TEXT
  5
158
330
2
100
AcDbEntity
  8
YKK_N1
100
AcDbText
 10
11331.25
 20
17317.52141421
 30
0.0
 40
20.0
  1
12
 50
90.0
 41
0.8
100
AcDbText
  0
LINE
  5
159
330
2
100
AcDbEntity
  8
YKK_N1
100
AcDbLine
 10
11354.25
 20
17332.23720943
 30
0.0
 11
11336.25
 21
17332.23720943
 31
0.0
  0
LINE
  5
15A
330
2
100
AcDbEntity
  8
YKK_N1
100
AcDbLine
 10
11354.25
 20
17320.23720943
 30
0.0
 11
11336.25
 21
17320.23720943
 31
0.0
  0
TEXT
  5
15B
330
2
100
AcDbEntity
  8
YKK_N1
100
AcDbText
 10
11538.72850845
 20
17267.23720943
 30
0.0
 40
20.0
  1
D=400
 41
0.8
100
AcDbText
  0
LINE
  5
15C
330
2
100
AcDbEntity
  8
YKK_C2
  6
Continuous
100
AcDbLine
 10
11909.45108672
 20
17250.99999968
 30
0.0
 11
11929.45108672
 21
17270.99999968
 31
0.0
  0
LINE
  5
15D
330
2
100
AcDbEntity
  8
YKK_C2
  6
ByBlock
 48
0.5
100
AcDbLine
 10
11931.23047088
 20
17251.00000002
 30
0.0
 11
11848.23046288
 21
17250.99999998
 31
0.0
  0
LINE
  5
15E
330
2
100
AcDbEntity
  8
YKK_C2
  6
ByBlock
 48
0.5
100
AcDbLine
 10
11834.23046387
 20
17270.99999998
 30
0.0
 11
11933.23047087
 21
17271.00000002
 31
0.0
  0
LINE
  5
15F
330
2
100
AcDbEntity
  8
YKK_Z1
  6
Continuous
100
AcDbLine
 10
11911.25001556
 20
17398.37883013
 30
0.0
 11
11911.25001556
 21
17270.99999968
 31
0.0
  0
LINE
  5
160
330
2
100
AcDbEntity
  8
YKK_Z1
100
AcDbLine
 10
11776.25
 20
17290.23720944
 30
0.0
 11
11776.25
 21
17398.37883013
 31
0.0
  0
LINE
  5
161
330
2
100
AcDbEntity
  8
YKK_Z1
  6
Continuous
100
AcDbLine
 10
11788.25
 20
17398.37883013
 30
0.0
 11
11788.25
 21
17290.23720944
 31
0.0
  0
LINE
  5
162
330
2
100
AcDbEntity
  8
YKK_Z1
  6
Continuous
100
AcDbLine
 10
11806.25010341
 20
17330.99991938
 30
0.0
 11
11806.25010341
 21
17398.37883013
 31
0.0
  0
LINE
  5
163
330
2
100
AcDbEntity
  8
YKK_Z1
  6
Continuous
100
AcDbLine
 10
11806.25010341
 20
17398.37883013
 30
0.0
 11
11806.25010341
 21
17330.99991938
 31
0.0
  0
LINE
  5
164
330
2
100
AcDbEntity
  8
YKK_Z1
  6
Continuous
100
AcDbLine
 10
11788.25
 20
17380.23720944
 30
0.0
 11
11805.25
 21
17380.23720944
 31
0.0
  0
LINE
  5
165
330
2
100
AcDbEntity
  8
YKK_Z1
  6
Continuous
100
AcDbLine
 10
11788.25
 20
17335.23720944
 30
0.0
 11
11788.25
 21
17290.23720944
 31
0.0
  0
LINE
  5
166
330
2
100
AcDbEntity
  8
YKK_Z1
  6
Continuous
100
AcDbLine
 10
11806.25
 20
17280.9999539
 30
0.0
 11
11806.25
 21
17335.23720944
 31
0.0
  0
LINE
  5
167
330
2
100
AcDbEntity
  8
YKK_C1
100
AcDbLine
 10
11806.25004391
 20
17306.00006013
 30
0.0
 11
11804.25004391
 21
17306.00006013
 31
0.0
  0
LINE
  5
168
330
2
100
AcDbEntity
  8
YKK_C1
100
AcDbLine
 10
11804.25004391
 20
17306.00006013
 30
0.0
 11
11804.25004391
 21
17281.00006013
 31
0.0
  0
LINE
  5
169
330
2
100
AcDbEntity
  8
YKK_Z1
  6
Continuous
100
AcDbLine
 10
11805.25
 20
17375.23672113
 30
0.0
 11
11788.25
 21
17290.23720944
 31
0.0
  0
LINE
  5
16A
330
2
100
AcDbEntity
  8
YKK_Z1
  6
ByBlock
 48
0.5
100
AcDbLine
 10
11806.25001594
 20
17285.9999539
 30
0.0
 11
11833.25001594
 21
17285.9999539
 31
0.0
  0
LINE
  5
16B
330
2
100
AcDbEntity
  8
YKK_Z1
  6
ByBlock
 48
0.5
100
AcDbLine
 10
11833.25001594
 20
17285.9999539
 30
0.0
 11
11806.25001594
 21
17280.9999539
 31
0.0
  0
LINE
  5
16C
330
2
100
AcDbEntity
  8
YKK_Z1
  6
Continuous
100
AcDbLine
 10
11789.25
 20
17290.23720944
 30
0.0
 11
11776.25
 21
17290.23720944
 31
0.0
  0
LINE
  5
16D
330
2
100
AcDbEntity
  8
YKK_Z1
  6
Continuous
100
AcDbLine
 10
11803.25
 20
17290.23720944
 30
0.0
 11
11789.25
 21
17290.23720944
 31
0.0
  0
LINE
  5
16E
330
2
100
AcDbEntity
  8
YKK_Z1
  6
Continuous
100
AcDbLine
 10
11788.25
 20
17290.23720944
 30
0.0
 11
11803.25001526
 21
17290.23720944
 31
0.0
  0
LINE
  5
16F
330
2
100
AcDbEntity
  8
YKK_Z1
  6
ByBlock
 48
0.5
100
AcDbLine
 10
11833.25001594
 20
17285.9999539
 30
0.0
 11
11833.25001594
 21
17280.9999539
 31
0.0
  0
LINE
  5
170
330
2
100
AcDbEntity
  8
YKK_Z1
  6
Continuous
100
AcDbLine
 10
11833.25001491
 20
17270.9999539
 30
0.0
 11
11833.25001491
 21
17285.9999539
 31
0.0
  0
LINE
  5
171
330
2
100
AcDbEntity
  8
YKK_Z1
  6
ByBlock
 48
0.5
100
AcDbLine
 10
11833.25001594
 20
17280.9999539
 30
0.0
 11
11806.25001594
 21
17280.9999539
 31
0.0
  0
LINE
  5
172
330
2
100
AcDbEntity
  8
YKK_C2
  6
ByBlock
 48
0.5
100
AcDbLine
 10
11848.23046288
 20
17250.99999998
 30
0.0
 11
11848.23046288
 21
17253.99999998
 31
0.0
  0
LINE
  5
173
330
2
100
AcDbEntity
  8
YKK_C2
  6
Continuous
100
AcDbLine
 10
11788.25
 20
17290.23720944
 30
0.0
 11
11776.25
 21
17290.23720944
 31
0.0
  0
LINE
  5
174
330
2
100
AcDbEntity
  8
YKK_C2
  6
Continuous
100
AcDbLine
 10
11776.25
 20
17281.37934507
 30
0.0
 11
11785.10786438
 21
17290.23720944
 31
0.0
  0
LINE
  5
175
330
2
100
AcDbEntity
  8
YKK_C2
  6
Continuous
100
AcDbLine
 10
11781.01441082
 20
17280.48690163
 30
0.0
 11
11786.25
 21
17285.72249082
 31
0.0
  0
LINE
  5
176
330
2
100
AcDbEntity
  8
YKK_C2
  6
Continuous
100
AcDbLine
 10
11776.25
 20
17290.23720944
 30
0.0
 11
11776.25
 21
17280.23720944
 31
0.0
  0
LINE
  5
177
330
2
100
AcDbEntity
  8
YKK_C2
  6
Continuous
100
AcDbLine
 10
11776.25
 20
17287.03619932
 30
0.0
 11
11779.45101013
 21
17290.23720944
 31
0.0
  0
LINE
  5
178
330
2
100
AcDbEntity
  8
YKK_C2
  6
Continuous
100
AcDbLine
 10
11786.25
 20
17290.23720944
 30
0.0
 11
11786.25
 21
17280.76128724
 31
0.0
  0
LINE
  5
179
330
2
100
AcDbEntity
  8
YKK_C2
  6
Continuous
100
AcDbLine
 10
11844.56883573
 20
17253.99999968
 30
0.0
 11
11861.56883573
 21
17270.99999968
 31
0.0
  0
LINE
  5
17A
330
2
100
AcDbEntity
  8
YKK_C2
  6
ByBlock
 48
0.5
100
AcDbLine
 10
11848.23046288
 20
17253.99999998
 30
0.0
 11
11836.23046288
 21
17253.99999998
 31
0.0
  0
LINE
  5
17B
330
2
100
AcDbEntity
  8
YKK_C2
  6
ByBlock
 48
0.5
100
AcDbLine
 10
11834.23046387
 20
17255.99999998
 30
0.0
 11
11834.23046387
 21
17270.99999998
 31
0.0
  0
LINE
  5
17C
330
2
100
AcDbEntity
  8
YKK_C2
  6
ByBlock
 48
0.5
100
AcDbLine
 10
11836.23046288
 20
17253.99999998
 30
0.0
 11
11834.23046387
 21
17255.99999998
 31
0.0
  0
LINE
  5
17D
330
2
100
AcDbEntity
  8
YKK_C2
  6
Continuous
100
AcDbLine
 10
11834.25007659
 20
17266.30865755
 30
0.0
 11
11838.94141873
 21
17270.99999968
 31
0.0
  0
LINE
  5
17E
330
2
100
AcDbEntity
  8
YKK_C1
100
AcDbLine
 10
11804.25004391
 20
17281.00006013
 30
0.0
 11
11790.87172717
 21
17281.00006013
 31
0.0
  0
LINE
  5
17F
330
2
100
AcDbEntity
  8
YKK_C1
100
AcDbLine
 10
11790.87172717
 20
17281.00006013
 30
0.0
 11
11762.25004391
 21
17279.50006061
 31
0.0
  0
LINE
  5
180
330
2
100
AcDbEntity
  8
YKK_C1
100
AcDbLine
 10
11762.25004391
 20
17279.50006061
 30
0.0
 11
11762.25004391
 21
17251.00006013
 31
0.0
  0
LINE
  5
181
330
2
100
AcDbEntity
  8
YKK_C1
100
AcDbLine
 10
11788.65004391
 20
17270.20006013
 30
0.0
 11
11778.65004391
 21
17270.20006013
 31
0.0
  0
LINE
  5
182
330
2
100
AcDbEntity
  8
YKK_C1
100
AcDbLine
 10
11778.65004391
 20
17270.20006013
 30
0.0
 11
11778.65004391
 21
17280.3595475
 31
0.0
  0
LINE
  5
183
330
2
100
AcDbEntity
  8
YKK_C1
100
AcDbLine
 10
11782.75004391
 20
17248.00006013
 30
0.0
 11
11782.75004391
 21
17270.20006013
 31
0.0
  0
LINE
  5
184
330
2
100
AcDbEntity
  8
YKK_C1
100
AcDbLine
 10
11848.25004391
 20
17253.50006013
 30
0.0
 11
11848.25004391
 21
17251.00006013
 31
0.0
  0
LINE
  5
185
330
2
100
AcDbEntity
  8
YKK_C1
100
AcDbLine
 10
11848.25004391
 20
17251.00006013
 30
0.0
 11
11832.35004391
 21
17251.00006013
 31
0.0
  0
LINE
  5
186
330
2
100
AcDbEntity
  8
YKK_C1
100
AcDbLine
 10
11833.25004391
 20
17251.00006013
 30
0.0
 11
11833.25004391
 21
17281.00006013
 31
0.0
  0
LINE
  5
187
330
2
100
AcDbEntity
  8
YKK_C1
100
AcDbLine
 10
11833.25004391
 20
17281.00006013
 30
0.0
 11
11831.25004391
 21
17281.00006013
 31
0.0
  0
LINE
  5
188
330
2
100
AcDbEntity
  8
YKK_C1
100
AcDbLine
 10
11811.85004391
 20
17270.20006013
 30
0.0
 11
11833.25004391
 21
17270.20006013
 31
0.0
  0
LINE
  5
189
330
2
100
AcDbEntity
  8
YKK_C1
100
AcDbLine
 10
11817.75004391
 20
17248.00006013
 30
0.0
 11
11817.75004391
 21
17280.99999613
 31
0.0
  0
LINE
  5
18A
330
2
100
AcDbEntity
  8
YKK_C1
100
AcDbLine
 10
11814.45004791
 20
17270.20006013
 30
0.0
 11
11814.45004791
 21
17273.99999613
 31
0.0
  0
LINE
  5
18B
330
2
100
AcDbEntity
  8
YKK_C1
100
AcDbLine
 10
11814.45004791
 20
17273.99999613
 30
0.0
 11
11786.05004591
 21
17273.99999613
 31
0.0
  0
LINE
  5
18C
330
2
100
AcDbEntity
  8
YKK_C1
100
AcDbLine
 10
11786.05004591
 20
17273.99999613
 30
0.0
 11
11786.05004591
 21
17270.20006013
 31
0.0
  0
LINE
  5
18D
330
2
100
AcDbEntity
  8
YKK_C1
100
AcDbLine
 10
11802.65004391
 20
17281.00006013
 30
0.0
 11
11802.65004391
 21
17273.99999613
 31
0.0
  0
LINE
  5
18E
330
2
100
AcDbEntity
  8
YKK_C2
  6
Continuous
100
AcDbLine
 10
11864.19625272
 20
17250.99999968
 30
0.0
 11
11884.19625272
 21
17270.99999968
 31
0.0
  0
LINE
  5
18F
330
2
100
AcDbEntity
  8
YKK_A1
100
AcDbLine
 10
11770.44999999
 20
17380.63886708
 30
0.0
 11
11776.25
 21
17380.63886705
 31
0.0
  0
LINE
  5
190
330
2
100
AcDbEntity
  8
YKK_A1
100
AcDbLine
 10
11776.25
 20
17380.63886705
 30
0.0
 11
11776.25
 21
17320.23720943
 31
0.0
  0
LINE
  5
191
330
2
100
AcDbEntity
  8
YKK_N1
100
AcDbLine
 10
11776.25
 20
17261.23720943
 30
0.0
 11
11764.12564435
 21
17261.23720943
 31
0.0
  0
LINE
  5
192
330
2
100
AcDbEntity
  8
YKK_N1
100
AcDbLine
 10
11776.25
 20
17298.23720943
 30
0.0
 11
11776.25
 21
17260.23720943
 31
0.0
  0
LINE
  5
193
330
2
100
AcDbEntity
  8
YKK_N1
100
AcDbLine
 10
11758.06346652
 20
17271.73720943
 30
0.0
 11
11758.06346652
 21
17250.73720943
 31
0.0
  0
LINE
  5
194
330
2
100
AcDbEntity
  8
YKK_N1
100
AcDbLine
 10
11776.25
 20
17261.23720943
 30
0.0
 11
11758.06346652
 21
17250.73720943
 31
0.0
  0
LINE
  5
195
330
2
100
AcDbEntity
  8
YKK_N1
100
AcDbLine
 10
11776.25
 20
17261.23720943
 30
0.0
 11
11758.06346652
 21
17271.73720943
 31
0.0
  0
TEXT
  5
196
330
2
100
AcDbEntity
  8
YKK_N1
100
AcDbText
 10
11836.25
 20
17329.30062457
 30
0.0
 40
20.0
  1
60.4
 50
90.0
 41
0.8
100
AcDbText
  0
LINE
  5
197
330
2
100
AcDbEntity
  8
YKK_N1
100
AcDbLine
 10
11792.97573593
 20
17320.23720943
 30
0.0
 11
11843.25
 21
17320.23720943
 31
0.0
  0
LINE
  5
198
330
2
100
AcDbEntity
  8
YKK_N1
100
AcDbLine
 10
11796.44999999
 20
17380.63886705
 30
0.0
 11
11843.25
 21
17380.63886705
 31
0.0
  0
LWPOLYLINE
  5
199
330
2
100
AcDbEntity
  8
YKK_N1
  6
ByBlock
100
AcDbPolyline
 90
        2
 70
     1
 43
0.85
 10
11842.25
 20
17320.34345943
 42
1.0
 10
11842.25
 20
17320.13095943
 42
1.0
  0
LINE
  5
19A
330
2
100
AcDbEntity
  8
YKK_N1
100
AcDbLine
 10
11792.97586851
 20
17320.23720943
 30
0.0
 11
11823.25
 21
17320.23720943
 31
0.0
  0
LINE
  5
19B
330
2
100
AcDbEntity
  8
YKK_N1
100
AcDbLine
 10
11842.25
 20
17320.23720943
 30
0.0
 11
11842.25
 21
17380.63886705
 31
0.0
  0
LWPOLYLINE
  5
19C
330
2
100
AcDbEntity
  8
YKK_N1
  6
ByBlock
100
AcDbPolyline
 90
        2
 70
     1
 43
0.85
 10
11842.25
 20
17380.53261705
 42
1.0
 10
11842.25
 20
17380.74511705
 42
1.0
  0
LINE
  5
19D
330
2
100
AcDbEntity
  8
YKK_Z1
  6
Continuous
100
AcDbLine
 10
11806.25001556
 20
17285.9999539
 30
0.0
 11
11911.25001556
 21
17330.9999539
 31
0.0
  0
LINE
  5
19E
330
2
100
AcDbEntity
  8
YKK_Z1
  6
Continuous
100
AcDbLine
 10
11911.25001556
 20
17330.9999539
 30
0.0
 11
11806.25001556
 21
17330.9999539
 31
0.0
  0
LINE
  5
19F
330
2
100
AcDbEntity
  8
YKK_C2
  6
Continuous
100
AcDbLine
 10
11886.82366972
 20
17250.99999968
 30
0.0
 11
11906.82366972
 21
17270.99999968
 31
0.0
  0
LINE
  5
1A0
330
2
100
AcDbEntity
  8
YKK_Z1
  6
Continuous
100
AcDbLine
 10
11806.25001556
 20
17285.9999539
 30
0.0
 11
11911.25001556
 21
17285.9999539
 31
0.0
  0
LINE
  5
1A1
330
2
100
AcDbEntity
  8
YKK_Z1
  6
Continuous
100
AcDbLine
 10
11911.25001491
 20
17285.9999539
 30
0.0
 11
11833.25001491
 21
17270.9999539
 31
0.0
  0
LINE
  5
1A2
330
2
100
AcDbEntity
  8
YKK_Z1
  6
Continuous
100
AcDbLine
 10
11911.25001491
 20
17285.9999539
 30
0.0
 11
11833.25001491
 21
17285.9999539
 31
0.0
  0
LINE
  5
1A3
330
2
100
AcDbEntity
  8
YKK_Z1
  6
Continuous
100
AcDbLine
 10
11911.25001491
 20
17270.9999539
 30
0.0
 11
11833.25001491
 21
17270.9999539
 31
0.0
  0
LINE
  5
1A4
330
2
100
AcDbEntity
  8
YKK_Z1
  6
Continuous
100
AcDbLine
 10
11923.75001556
 20
17398.37883013
 30
0.0
 11
11923.75001556
 21
17270.99999968
 31
0.0
  0
LINE
  5
1A5
330
2
100
AcDbEntity
  8
YKK_C2
  6
ByBlock
 48
0.5
100
AcDbLine
 10
11933.23047087
 20
17271.00000002
 30
0.0
 11
11933.23047088
 21
17253.00000002
 31
0.0
  0
ARC
  5
1A6
330
2
100
AcDbEntity
  8
YKK_C2
100
AcDbCircle
 10
11931.23047088
 20
17253.00000002
 30
0.0
 40
2.0
100
AcDbArc
 50
270.00001875
 51
0.00000002
  0
LINE
  5
1A7
330
2
100
AcDbEntity
  8
YKK_A1
100
AcDbLine
 10
15175.258
 20
17320.23720943
 30
0.0
 11
15026.258
 21
17320.23720943
 31
0.0
  0
LINE
  5
1A8
330
2
100
AcDbEntity
  8
YKK_A1
100
AcDbLine
 10
15175.258
 20
17332.23720943
 30
0.0
 11
15026.258
 21
17332.23720943
 31
0.0
  0
LINE
  5
1A9
330
2
100
AcDbEntity
  8
YKK_A1
100
AcDbLine
 10
15175.258
 20
17392.92960161
 30
0.0
 11
15026.258
 21
17392.92960161
 31
0.0
  0
LINE
  5
1AA
330
2
100
AcDbEntity
  8
YKK_N1
100
AcDbLine
 10
15026.258
 20
17261.23720943
 30
0.0
 11
15044.44453348
 21
17271.73720943
 31
0.0
  0
LINE
  5
1AB
330
2
100
AcDbEntity
  8
YKK_N1
100
AcDbLine
 10
15026.258
 20
17261.23720943
 30
0.0
 11
15044.44453348
 21
17250.73720943
 31
0.0
  0
LINE
  5
1AC
330
2
100
AcDbEntity
  8
YKK_N1
100
AcDbLine
 10
15033.258
 20
17261.23720943
 30
0.0
 11
15319.258
 21
17261.23720943
 31
0.0
  0
LINE
  5
1AD
330
2
100
AcDbEntity
  8
YKK_A1
100
AcDbLine
 10
15026.258
 20
17392.92960161
 30
0.0
 11
15026.258
 21
17320.23720943
 31
0.0
  0
LINE
  5
1AE
330
2
100
AcDbEntity
  8
YKK_N1
100
AcDbLine
 10
15026.258
 20
17298.23720943
 30
0.0
 11
15026.258
 21
17260.23720943
 31
0.0
  0
LINE
  5
1AF
330
2
100
AcDbEntity
  8
YKK_N1
100
AcDbLine
 10
15026.258
 20
17298.23720943
 30
0.0
 11
15026.258
 21
17260.23720943
 31
0.0
  0
LINE
  5
1B0
330
2
100
AcDbEntity
  8
YKK_N1
100
AcDbLine
 10
15026.258
 20
17261.23720943
 30
0.0
 11
15038.38235565
 21
17261.23720943
 31
0.0
  0
LINE
  5
1B1
330
2
100
AcDbEntity
  8
YKK_A1
100
AcDbLine
 10
15326.258
 20
17392.92960161
 30
0.0
 11
15326.258
 21
17320.23720943
 31
0.0
  0
LINE
  5
1B2
330
2
100
AcDbEntity
  8
YKK_N1
100
AcDbLine
 10
15326.258
 20
17298.23720943
 30
0.0
 11
15326.258
 21
17260.23720943
 31
0.0
  0
LINE
  5
1B3
330
2
100
AcDbEntity
  8
YKK_N1
100
AcDbLine
 10
15326.258
 20
17298.23720943
 30
0.0
 11
15326.258
 21
17260.23720943
 31
0.0
  0
LINE
  5
1B4
330
2
100
AcDbEntity
  8
YKK_N1
100
AcDbLine
 10
15326.258
 20
17261.23720943
 30
0.0
 11
15314.13364435
 21
17261.23720943
 31
0.0
  0
LINE
  5
1B5
330
2
100
AcDbEntity
  8
YKK_N1
100
AcDbLine
 10
15308.07146652
 20
17271.73720943
 30
0.0
 11
15308.07146652
 21
17250.73720943
 31
0.0
  0
LINE
  5
1B6
330
2
100
AcDbEntity
  8
YKK_N1
100
AcDbLine
 10
15326.258
 20
17261.23720943
 30
0.0
 11
15308.07146652
 21
17250.73720943
 31
0.0
  0
LINE
  5
1B7
330
2
100
AcDbEntity
  8
YKK_N1
100
AcDbLine
 10
15326.258
 20
17261.23720943
 30
0.0
 11
15308.07146652
 21
17271.73720943
 31
0.0
  0
TEXT
  5
1B8
330
2
100
AcDbEntity
  8
YKK_N1
100
AcDbText
 10
15174.68564937
 20
17267.51132111
 30
0.0
 40
20.0
  1
L
 41
0.8
100
AcDbText
  0
LINE
  5
1B9
330
2
100
AcDbEntity
  8
YKK_N1
100
AcDbLine
 10
15044.44453348
 20
17250.73720943
 30
0.0
 11
15044.44453348
 21
17271.73720943
 31
0.0
  0
LINE
  5
1BA
330
2
100
AcDbEntity
  8
YKK_A1
100
AcDbLine
 10
15326.258
 20
17392.92960161
 30
0.0
 11
15177.258
 21
17392.92960161
 31
0.0
  0
LINE
  5
1BB
330
2
100
AcDbEntity
  8
YKK_A1
100
AcDbLine
 10
15326.258
 20
17332.23720943
 30
0.0
 11
15177.258
 21
17332.23720943
 31
0.0
  0
LINE
  5
1BC
330
2
100
AcDbEntity
  8
YKK_A1
100
AcDbLine
 10
15326.258
 20
17320.23720943
 30
0.0
 11
15177.258
 21
17320.23720943
 31
0.0
  0
LINE
  5
1BD
330
2
100
AcDbEntity
  8
YKK_N1
100
AcDbLine
 10
15839.61827775
 20
17356.33084515
 30
0.0
 11
15870.28918834
 21
17356.33084515
 31
0.0
  0
LINE
  5
1BE
330
2
100
AcDbEntity
  8
YKK_N1
100
AcDbLine
 10
15870.28918834
 20
17356.33084515
 30
0.0
 11
15839.73060945
 21
17352.57872346
 31
0.0
  0
LINE
  5
1BF
330
2
100
AcDbEntity
  8
YKK_N1
100
AcDbLine
 10
15838.7380633
 20
17352.45685412
 30
0.0
 11
15825.28949515
 21
17350.80557758
 31
0.0
  0
LINE
  5
1C0
330
2
100
AcDbEntity
  8
YKK_N1
100
AcDbLine
 10
15838.61827775
 20
17356.33084515
 30
0.0
 11
15824.95155531
 21
17356.33084515
 31
0.0
  0
LWPOLYLINE
  5
1C1
330
2
100
AcDbEntity
  8
YKK_N1
  6
ByBlock
100
AcDbPolyline
 90
        2
 70
     1
 43
0.85
 10
15825.95155531
 20
17356.22459515
 42
1.0
 10
15825.95155531
 20
17356.43709515
 42
1.0
  0
LWPOLYLINE
  5
1C2
330
2
100
AcDbEntity
  8
YKK_N1
  6
ByBlock
100
AcDbPolyline
 90
        2
 70
     1
 43
0.85
 10
15826.26909269
 20
17351.03290496
 42
1.0
 10
15826.29498992
 20
17350.8219889
 42
1.0
  0
ARC
  5
1C3
330
2
100
AcDbEntity
  8
YKK_N1
100
AcDbCircle
 10
15870.28918834
 20
17356.33084515
 30
0.0
 40
44.3376330316089
100
AcDbArc
 50
180.0
 51
187.0
  0
LINE
  5
1C4
330
2
100
AcDbEntity
  8
YKK_A1
100
AcDbLine
 10
15826.25799999
 20
17332.2372095
 30
0.0
 11
15826.25799999
 21
17320.23720943
 31
0.0
  0
LINE
  5
1C5
330
2
100
AcDbEntity
  8
YKK_N1
100
AcDbLine
 10
15826.258
 20
17261.23720943
 30
0.0
 11
15838.38235565
 21
17261.23720943
 31
0.0
  0
LINE
  5
1C6
330
2
100
AcDbEntity
  8
YKK_N1
100
AcDbLine
 10
15826.258
 20
17261.23720943
 30
0.0
 11
15844.44453348
 21
17250.73720943
 31
0.0
  0
LINE
  5
1C7
330
2
100
AcDbEntity
  8
YKK_N1
100
AcDbLine
 10
15844.44453348
 20
17250.73720943
 30
0.0
 11
15844.44453348
 21
17271.73720943
 31
0.0
  0
LINE
  5
1C8
330
2
100
AcDbEntity
  8
YKK_N1
100
AcDbLine
 10
15826.258
 20
17261.23720943
 30
0.0
 11
15844.44453348
 21
17271.73720943
 31
0.0
  0
LINE
  5
1C9
330
2
100
AcDbEntity
  8
YKK_N1
100
AcDbLine
 10
15826.258
 20
17298.23720943
 30
0.0
 11
15826.258
 21
17260.23720943
 31
0.0
  0
LWPOLYLINE
  5
1CA
330
2
100
AcDbEntity
  8
YKK_N1
  6
ByBlock
100
AcDbPolyline
 90
        2
 70
     1
 43
0.85
 10
15787.258
 20
17332.13095944
 42
1.0
 10
15787.258
 20
17332.34345944
 42
1.0
  0
LWPOLYLINE
  5
1CB
330
2
100
AcDbEntity
  8
YKK_N1
  6
ByBlock
100
AcDbPolyline
 90
        2
 70
     1
 43
0.85
 10
15787.258
 20
17320.34345944
 42
1.0
 10
15787.258
 20
17320.13095944
 42
1.0
  0
LINE
  5
1CC
330
2
100
AcDbEntity
  8
YKK_N1
100
AcDbLine
 10
15787.258
 20
17320.23720944
 30
0.0
 11
15787.258
 21
17332.23720944
 31
0.0
  0
LINE
  5
1CD
330
2
100
AcDbEntity
  8
YKK_N1
100
AcDbLine
 10
15804.258
 20
17320.23720944
 30
0.0
 11
15786.258
 21
17320.23720944
 31
0.0
  0
LINE
  5
1CE
330
2
100
AcDbEntity
  8
YKK_N1
100
AcDbLine
 10
15804.258
 20
17332.23720944
 30
0.0
 11
15786.258
 21
17332.23720944
 31
0.0
  0
TEXT
  5
1CF
330
2
100
AcDbEntity
  8
YKK_N1
100
AcDbText
 10
15781.258
 20
17317.52141422
 30
0.0
 40
20.0
  1
12
 50
90.0
 41
0.8
100
AcDbText
  0
TEXT
  5
1D0
330
2
100
AcDbEntity
  8
YKK_N1
100
AcDbText
 10
15809.03381138
 20
17351.07337689
 30
0.0
 40
20.0
  1
7\U+00B0
 41
0.8
100
AcDbText
  0
TEXT
  5
1D1
330
2
100
AcDbEntity
  8
0
100
AcDbText
 10
13600.0
 20
19187.5
 30
0.0
 40
175.0
  1
コンバイザー 出幅500
  7
EXTFONT
100
AcDbText
  0
LINE
  5
1D2
330
2
100
AcDbEntity
  8
YKK_F1
 62
     7
100
AcDbLine
 10
27000.0
 20
0.0
 30
0.0
 11
27000.0
 21
19500.0
 31
0.0
  0
LINE
  5
1D3
330
2
100
AcDbEntity
  8
YKK_F1
 62
     7
100
AcDbLine
 10
22500.0
 20
0.0
 30
0.0
 11
22500.0
 21
19500.0
 31
0.0
  0
LINE
  5
1D4
330
2
100
AcDbEntity
  8
YKK_F1
 62
     7
100
AcDbLine
 10
18000.0
 20
0.0
 30
0.0
 11
18000.0
 21
19500.0
 31
0.0
  0
LINE
  5
1D5
330
2
100
AcDbEntity
  8
YKK_F1
 62
     7
100
AcDbLine
 10
27500.0
 20
0.0
 30
0.0
 11
27500.0
 21
20000.0
 31
0.0
  0
TEXT
  5
1D6
330
2
100
AcDbEntity
  8
YKK_N1
100
AcDbText
 10
16038.2483428
 20
17267.23720943
 30
0.0
 40
20.0
  1
D=500
 41
0.8
100
AcDbText
  0
LINE
  5
1D7
330
2
100
AcDbEntity
  8
YKK_Z1
  6
Continuous
100
AcDbLine
 10
16461.25801556
 20
17398.37883013
 30
0.0
 11
16461.25801556
 21
17270.99999968
 31
0.0
  0
LINE
  5
1D8
330
2
100
AcDbEntity
  8
YKK_Z1
  6
Continuous
100
AcDbLine
 10
16473.75801556
 20
17398.37883013
 30
0.0
 11
16473.75801556
 21
17270.99999968
 31
0.0
  0
LINE
  5
1D9
330
2
100
AcDbEntity
  8
YKK_C2
  6
ByBlock
 48
0.5
100
AcDbLine
 10
16483.23847087
 20
17271.00000002
 30
0.0
 11
16483.23847088
 21
17253.00000002
 31
0.0
  0
LINE
  5
1DA
330
2
100
AcDbEntity
  8
YKK_C2
  6
Continuous
100
AcDbLine
 10
16459.45908672
 20
17250.99999968
 30
0.0
 11
16479.45908672
 21
17270.99999968
 31
0.0
  0
ARC
  5
1DB
330
2
100
AcDbEntity
  8
YKK_C2
100
AcDbCircle
 10
16481.23847088
 20
17253.00000002
 30
0.0
 40
2.0
100
AcDbArc
 50
270.00001875
 51
0.00000002
  0
LINE
  5
1DC
330
2
100
AcDbEntity
  8
YKK_A1
100
AcDbLine
 10
16326.258
 20
17392.92960161
 30
0.0
 11
16320.55799761
 21
17392.92960161
 31
0.0
  0
LINE
  5
1DD
330
2
100
AcDbEntity
  8
YKK_Z1
  6
Continuous
100
AcDbLine
 10
16326.258
 20
17335.30780056
 30
0.0
 11
16326.258
 21
17285.30780056
 31
0.0
  0
LINE
  5
1DE
330
2
100
AcDbEntity
  8
YKK_Z1
  6
Continuous
100
AcDbLine
 10
16326.258
 20
17398.37883013
 30
0.0
 11
16326.258
 21
17290.23720944
 31
0.0
  0
LINE
  5
1DF
330
2
100
AcDbEntity
  8
YKK_A1
100
AcDbLine
 10
16326.258
 20
17320.23720943
 30
0.0
 11
16326.258
 21
17392.92960161
 31
0.0
  0
LINE
  5
1E0
330
2
100
AcDbEntity
  8
YKK_Z1
  6
Continuous
100
AcDbLine
 10
16338.258
 20
17380.23720944
 30
0.0
 11
16355.258
 21
17380.23720944
 31
0.0
  0
LINE
  5
1E1
330
2
100
AcDbEntity
  8
YKK_Z1
  6
Continuous
100
AcDbLine
 10
16338.258
 20
17335.23720944
 30
0.0
 11
16338.258
 21
17290.23720944
 31
0.0
  0
LINE
  5
1E2
330
2
100
AcDbEntity
  8
YKK_Z1
  6
Continuous
100
AcDbLine
 10
16356.258
 20
17280.9999539
 30
0.0
 11
16356.258
 21
17335.23720944
 31
0.0
  0
LINE
  5
1E3
330
2
100
AcDbEntity
  8
YKK_C1
100
AcDbLine
 10
16356.25804391
 20
17306.00006013
 30
0.0
 11
16354.25804391
 21
17306.00006013
 31
0.0
  0
LINE
  5
1E4
330
2
100
AcDbEntity
  8
YKK_C1
100
AcDbLine
 10
16354.25804391
 20
17306.00006013
 30
0.0
 11
16354.25804391
 21
17281.00006013
 31
0.0
  0
LINE
  5
1E5
330
2
100
AcDbEntity
  8
YKK_Z1
  6
Continuous
100
AcDbLine
 10
16338.258
 20
17398.37883013
 30
0.0
 11
16338.258
 21
17290.23720944
 31
0.0
  0
LINE
  5
1E6
330
2
100
AcDbEntity
  8
YKK_Z1
  6
Continuous
100
AcDbLine
 10
16356.25810341
 20
17330.99991938
 30
0.0
 11
16356.25810341
 21
17398.37883013
 31
0.0
  0
LINE
  5
1E7
330
2
100
AcDbEntity
  8
YKK_Z1
  6
Continuous
100
AcDbLine
 10
16356.25810341
 20
17398.37883013
 30
0.0
 11
16356.25810341
 21
17330.99991938
 31
0.0
  0
LINE
  5
1E8
330
2
100
AcDbEntity
  8
YKK_Z1
  6
Continuous
100
AcDbLine
 10
16355.258
 20
17375.23672113
 30
0.0
 11
16338.258
 21
17290.23720944
 31
0.0
  0
LINE
  5
1E9
330
2
100
AcDbEntity
  8
YKK_Z1
  6
ByBlock
 48
0.5
100
AcDbLine
 10
16356.25801594
 20
17285.9999539
 30
0.0
 11
16383.25801594
 21
17285.9999539
 31
0.0
  0
LINE
  5
1EA
330
2
100
AcDbEntity
  8
YKK_Z1
  6
ByBlock
 48
0.5
100
AcDbLine
 10
16383.25801594
 20
17285.9999539
 30
0.0
 11
16356.25801594
 21
17280.9999539
 31
0.0
  0
LINE
  5
1EB
330
2
100
AcDbEntity
  8
YKK_Z1
  6
Continuous
100
AcDbLine
 10
16339.258
 20
17290.23720944
 30
0.0
 11
16326.258
 21
17290.23720944
 31
0.0
  0
LINE
  5
1EC
330
2
100
AcDbEntity
  8
YKK_Z1
  6
Continuous
100
AcDbLine
 10
16353.258
 20
17290.23720944
 30
0.0
 11
16339.258
 21
17290.23720944
 31
0.0
  0
LINE
  5
1ED
330
2
100
AcDbEntity
  8
YKK_Z1
  6
Continuous
100
AcDbLine
 10
16338.258
 20
17290.23720944
 30
0.0
 11
16353.25801526
 21
17290.23720944
 31
0.0
  0
LINE
  5
1EE
330
2
100
AcDbEntity
  8
YKK_Z1
  6
ByBlock
 48
0.5
100
AcDbLine
 10
16383.25801594
 20
17285.9999539
 30
0.0
 11
16383.25801594
 21
17280.9999539
 31
0.0
  0
LINE
  5
1EF
330
2
100
AcDbEntity
  8
YKK_Z1
  6
Continuous
100
AcDbLine
 10
16383.25801491
 20
17270.9999539
 30
0.0
 11
16383.25801491
 21
17285.9999539
 31
0.0
  0
LINE
  5
1F0
330
2
100
AcDbEntity
  8
YKK_Z1
  6
ByBlock
 48
0.5
100
AcDbLine
 10
16383.25801594
 20
17280.9999539
 30
0.0
 11
16356.25801594
 21
17280.9999539
 31
0.0
  0
LINE
  5
1F1
330
2
100
AcDbEntity
  8
YKK_C2
  6
ByBlock
 48
0.5
100
AcDbLine
 10
16398.23846288
 20
17250.99999998
 30
0.0
 11
16398.23846288
 21
17253.99999998
 31
0.0
  0
LINE
  5
1F2
330
2
100
AcDbEntity
  8
YKK_C2
  6
Continuous
100
AcDbLine
 10
16338.258
 20
17290.23720944
 30
0.0
 11
16326.258
 21
17290.23720944
 31
0.0
  0
LINE
  5
1F3
330
2
100
AcDbEntity
  8
YKK_C2
  6
Continuous
100
AcDbLine
 10
16326.258
 20
17281.37934507
 30
0.0
 11
16335.11586438
 21
17290.23720944
 31
0.0
  0
LINE
  5
1F4
330
2
100
AcDbEntity
  8
YKK_C2
  6
Continuous
100
AcDbLine
 10
16331.02241082
 20
17280.48690163
 30
0.0
 11
16336.258
 21
17285.72249082
 31
0.0
  0
LINE
  5
1F5
330
2
100
AcDbEntity
  8
YKK_C2
  6
Continuous
100
AcDbLine
 10
16326.258
 20
17290.23720944
 30
0.0
 11
16326.258
 21
17280.23720944
 31
0.0
  0
LINE
  5
1F6
330
2
100
AcDbEntity
  8
YKK_C2
  6
Continuous
100
AcDbLine
 10
16326.258
 20
17287.03619932
 30
0.0
 11
16329.45901013
 21
17290.23720944
 31
0.0
  0
LINE
  5
1F7
330
2
100
AcDbEntity
  8
YKK_C2
  6
Continuous
100
AcDbLine
 10
16336.258
 20
17290.23720944
 30
0.0
 11
16336.258
 21
17280.76128724
 31
0.0
  0
LINE
  5
1F8
330
2
100
AcDbEntity
  8
YKK_C2
  6
Continuous
100
AcDbLine
 10
16394.57683573
 20
17253.99999968
 30
0.0
 11
16411.57683573
 21
17270.99999968
 31
0.0
  0
LINE
  5
1F9
330
2
100
AcDbEntity
  8
YKK_C2
  6
ByBlock
 48
0.5
100
AcDbLine
 10
16398.23846288
 20
17253.99999998
 30
0.0
 11
16386.23846288
 21
17253.99999998
 31
0.0
  0
LINE
  5
1FA
330
2
100
AcDbEntity
  8
YKK_C2
  6
ByBlock
 48
0.5
100
AcDbLine
 10
16384.23846387
 20
17255.99999998
 30
0.0
 11
16384.23846387
 21
17270.99999998
 31
0.0
  0
LINE
  5
1FB
330
2
100
AcDbEntity
  8
YKK_C2
  6
ByBlock
 48
0.5
100
AcDbLine
 10
16386.23846288
 20
17253.99999998
 30
0.0
 11
16384.23846387
 21
17255.99999998
 31
0.0
  0
LINE
  5
1FC
330
2
100
AcDbEntity
  8
YKK_C2
  6
Continuous
100
AcDbLine
 10
16384.25807659
 20
17266.30865755
 30
0.0
 11
16388.94941873
 21
17270.99999968
 31
0.0
  0
LINE
  5
1FD
330
2
100
AcDbEntity
  8
YKK_C1
100
AcDbLine
 10
16354.25804391
 20
17281.00006013
 30
0.0
 11
16340.87972717
 21
17281.00006013
 31
0.0
  0
LINE
  5
1FE
330
2
100
AcDbEntity
  8
YKK_C1
100
AcDbLine
 10
16340.87972717
 20
17281.00006013
 30
0.0
 11
16312.25804391
 21
17279.50006061
 31
0.0
  0
LINE
  5
1FF
330
2
100
AcDbEntity
  8
YKK_C1
100
AcDbLine
 10
16312.25804391
 20
17279.50006061
 30
0.0
 11
16312.25804391
 21
17251.00006013
 31
0.0
  0
LINE
  5
200
330
2
100
AcDbEntity
  8
YKK_C1
100
AcDbLine
 10
16338.65804391
 20
17270.20006013
 30
0.0
 11
16328.65804391
 21
17270.20006013
 31
0.0
  0
LINE
  5
201
330
2
100
AcDbEntity
  8
YKK_C1
100
AcDbLine
 10
16328.65804391
 20
17270.20006013
 30
0.0
 11
16328.65804391
 21
17280.3595475
 31
0.0
  0
LINE
  5
202
330
2
100
AcDbEntity
  8
YKK_C1
100
AcDbLine
 10
16332.75804391
 20
17248.00006013
 30
0.0
 11
16332.75804391
 21
17270.20006013
 31
0.0
  0
LINE
  5
203
330
2
100
AcDbEntity
  8
YKK_C1
100
AcDbLine
 10
16398.25804391
 20
17253.50006013
 30
0.0
 11
16398.25804391
 21
17251.00006013
 31
0.0
  0
LINE
  5
204
330
2
100
AcDbEntity
  8
YKK_C1
100
AcDbLine
 10
16398.25804391
 20
17251.00006013
 30
0.0
 11
16382.35804391
 21
17251.00006013
 31
0.0
  0
LINE
  5
205
330
2
100
AcDbEntity
  8
YKK_C1
100
AcDbLine
 10
16383.25804391
 20
17251.00006013
 30
0.0
 11
16383.25804391
 21
17281.00006013
 31
0.0
  0
LINE
  5
206
330
2
100
AcDbEntity
  8
YKK_C1
100
AcDbLine
 10
16383.25804391
 20
17281.00006013
 30
0.0
 11
16381.25804391
 21
17281.00006013
 31
0.0
  0
LINE
  5
207
330
2
100
AcDbEntity
  8
YKK_C1
100
AcDbLine
 10
16361.85804391
 20
17270.20006013
 30
0.0
 11
16383.25804391
 21
17270.20006013
 31
0.0
  0
LINE
  5
208
330
2
100
AcDbEntity
  8
YKK_C1
100
AcDbLine
 10
16367.75804391
 20
17248.00006013
 30
0.0
 11
16367.75804391
 21
17280.99999613
 31
0.0
  0
LINE
  5
209
330
2
100
AcDbEntity
  8
YKK_C1
100
AcDbLine
 10
16364.45804791
 20
17270.20006013
 30
0.0
 11
16364.45804791
 21
17273.99999613
 31
0.0
  0
LINE
  5
20A
330
2
100
AcDbEntity
  8
YKK_C1
100
AcDbLine
 10
16364.45804791
 20
17273.99999613
 30
0.0
 11
16336.05804591
 21
17273.99999613
 31
0.0
  0
LINE
  5
20B
330
2
100
AcDbEntity
  8
YKK_C1
100
AcDbLine
 10
16336.05804591
 20
17273.99999613
 30
0.0
 11
16336.05804591
 21
17270.20006013
 31
0.0
  0
LINE
  5
20C
330
2
100
AcDbEntity
  8
YKK_C1
100
AcDbLine
 10
16352.65804391
 20
17281.00006013
 30
0.0
 11
16352.65804391
 21
17273.99999613
 31
0.0
  0
LINE
  5
20D
330
2
100
AcDbEntity
  8
YKK_C2
  6
Continuous
100
AcDbLine
 10
16414.20425272
 20
17250.99999968
 30
0.0
 11
16434.20425272
 21
17270.99999968
 31
0.0
  0
LINE
  5
20E
330
2
100
AcDbEntity
  8
YKK_N1
100
AcDbLine
 10
16326.258
 20
17261.23720943
 30
0.0
 11
16314.13364435
 21
17261.23720943
 31
0.0
  0
LINE
  5
20F
330
2
100
AcDbEntity
  8
YKK_N1
100
AcDbLine
 10
16308.07146652
 20
17271.73720943
 30
0.0
 11
16308.07146652
 21
17250.73720943
 31
0.0
  0
LINE
  5
210
330
2
100
AcDbEntity
  8
YKK_N1
100
AcDbLine
 10
16326.258
 20
17261.23720943
 30
0.0
 11
16308.07146652
 21
17250.73720943
 31
0.0
  0
LINE
  5
211
330
2
100
AcDbEntity
  8
YKK_N1
100
AcDbLine
 10
16326.258
 20
17261.23720943
 30
0.0
 11
16308.07146652
 21
17271.73720943
 31
0.0
  0
TEXT
  5
212
330
2
100
AcDbEntity
  8
YKK_N1
100
AcDbText
 10
16386.06003046
 20
17277.11592191
 30
0.0
 40
20.0
  1
(40)
 50
90.0
 41
0.8
100
AcDbText
  0
TEXT
  5
213
330
2
100
AcDbEntity
  8
YKK_N1
100
AcDbText
 10
16386.258
 20
17332.59569214
 30
0.0
 40
20.0
  1
72.7
 50
90.0
 41
0.8
100
AcDbText
  0
LINE
  5
214
330
2
100
AcDbEntity
  8
YKK_N1
100
AcDbLine
 10
16392.258
 20
17320.23720944
 30
0.0
 11
16392.258
 21
17392.92960161
 31
0.0
  0
LWPOLYLINE
  5
215
330
2
100
AcDbEntity
  8
YKK_N1
  6
ByBlock
100
AcDbPolyline
 90
        2
 70
     1
 43
0.85
 10
16392.258
 20
17320.13095944
 42
1.0
 10
16392.258
 20
17320.34345944
 42
1.0
  0
LWPOLYLINE
  5
216
330
2
100
AcDbEntity
  8
YKK_N1
  6
ByBlock
100
AcDbPolyline
 90
        2
 70
     1
 43
0.85
 10
16392.258
 20
17320.34345944
 42
1.0
 10
16392.258
 20
17320.13095944
 42
1.0
  0
LWPOLYLINE
  5
217
330
2
100
AcDbEntity
  8
YKK_N1
  6
ByBlock
100
AcDbPolyline
 90
        2
 70
     1
 43
0.85
 10
16392.258
 20
17280.34345944
 42
1.0
 10
16392.258
 20
17280.13095944
 42
1.0
  0
LINE
  5
218
330
2
100
AcDbEntity
  8
YKK_N1
100
AcDbLine
 10
16353.258
 20
17280.23720944
 30
0.0
 11
16393.258
 21
17280.23720944
 31
0.0
  0
LINE
  5
219
330
2
100
AcDbEntity
  8
YKK_N1
100
AcDbLine
 10
16342.98373593
 20
17320.23720944
 30
0.0
 11
16393.258
 21
17320.23720944
 31
0.0
  0
LINE
  5
21A
330
2
100
AcDbEntity
  8
YKK_N1
100
AcDbLine
 10
16373.258
 20
17320.23720944
 30
0.0
 11
16393.258
 21
17320.23720944
 31
0.0
  0
LINE
  5
21B
330
2
100
AcDbEntity
  8
YKK_N1
100
AcDbLine
 10
16392.258
 20
17280.23720944
 30
0.0
 11
16392.258
 21
17320.23720944
 31
0.0
  0
LWPOLYLINE
  5
21C
330
2
100
AcDbEntity
  8
YKK_N1
  6
ByBlock
100
AcDbPolyline
 90
        2
 70
     1
 43
0.85
 10
16392.258
 20
17392.82335161
 42
1.0
 10
16392.258
 20
17393.03585161
 42
1.0
  0
LINE
  5
21D
330
2
100
AcDbEntity
  8
YKK_N1
100
AcDbLine
 10
16347.558
 20
17392.92960161
 30
0.0
 11
16393.258
 21
17392.92960161
 31
0.0
  0
LINE
  5
21E
330
2
100
AcDbEntity
  8
YKK_N1
100
AcDbLine
 10
16326.258
 20
17298.23720943
 30
0.0
 11
16326.258
 21
17260.23720943
 31
0.0
  0
LINE
  5
21F
330
2
100
AcDbEntity
  8
YKK_Z1
  6
Continuous
100
AcDbLine
 10
16356.25801556
 20
17285.9999539
 30
0.0
 11
16461.25801556
 21
17330.9999539
 31
0.0
  0
LINE
  5
220
330
2
100
AcDbEntity
  8
YKK_Z1
  6
Continuous
100
AcDbLine
 10
16461.25801556
 20
17330.9999539
 30
0.0
 11
16356.25801556
 21
17330.9999539
 31
0.0
  0
LINE
  5
221
330
2
100
AcDbEntity
  8
YKK_C2
  6
Continuous
100
AcDbLine
 10
16436.83166972
 20
17250.99999968
 30
0.0
 11
16456.83166972
 21
17270.99999968
 31
0.0
  0
LINE
  5
222
330
2
100
AcDbEntity
  8
YKK_Z1
  6
Continuous
100
AcDbLine
 10
16356.25801556
 20
17285.9999539
 30
0.0
 11
16461.25801556
 21
17285.9999539
 31
0.0
  0
LINE
  5
223
330
2
100
AcDbEntity
  8
YKK_Z1
  6
Continuous
100
AcDbLine
 10
16461.25801491
 20
17285.9999539
 30
0.0
 11
16383.25801491
 21
17270.9999539
 31
0.0
  0
LINE
  5
224
330
2
100
AcDbEntity
  8
YKK_Z1
  6
Continuous
100
AcDbLine
 10
16461.25801491
 20
17285.9999539
 30
0.0
 11
16383.25801491
 21
17285.9999539
 31
0.0
  0
LINE
  5
225
330
2
100
AcDbEntity
  8
YKK_Z1
  6
Continuous
100
AcDbLine
 10
16461.25801491
 20
17270.9999539
 30
0.0
 11
16383.25801491
 21
17270.9999539
 31
0.0
  0
LINE
  5
226
330
2
100
AcDbEntity
  8
YKK_C2
  6
ByBlock
 48
0.5
100
AcDbLine
 10
16481.23847088
 20
17251.00000002
 30
0.0
 11
16398.23846288
 21
17250.99999998
 31
0.0
  0
LINE
  5
227
330
2
100
AcDbEntity
  8
YKK_C2
  6
ByBlock
 48
0.5
100
AcDbLine
 10
16384.23846387
 20
17270.99999998
 30
0.0
 11
16483.23847087
 21
17271.00000002
 31
0.0
  0
ENDSEC
  0
SECTION
  2
OBJECTS
  0
DICTIONARY
  5
1A
330
0
100
AcDbDictionary
281
     1
  3
ACAD_CIP_PREVIOUS_PRODUCT_INFO
350
2D8
  3
ACAD_COLOR
350
26B
  3
ACAD_DETAILVIEWSTYLE
350
284
  3
ACAD_GROUP
350
18
  3
ACAD_LAYOUT
350
28A
  3
ACAD_MATERIAL
350
239
  3
ACAD_MLEADERSTYLE
350
280
  3
ACAD_MLINESTYLE
350
19
  3
ACAD_PLOTSETTINGS
350
289
  3
ACAD_PLOTSTYLENAME
350
237
  3
ACAD_SCALELIST
350
26E
  3
ACAD_SECTIONVIEWSTYLE
350
282
  3
ACAD_TABLESTYLE
350
26C
  3
ACAD_VISUALSTYLE
350
252
  3
ACDB_RECOMPOSE_DATA
350
2DE
  3
AcDbVariableDictionary
350
2CB
  0
XRECORD
  5
2D8
102
{ACAD_REACTORS
330
1A
102
}
330
1A
100
AcDbXrecord
280
     1
300
ACD
300
2014
300
86063ACD_2014_0F
  0
DICTIONARY
  5
26B
102
{ACAD_REACTORS
330
1A
102
}
330
1A
100
AcDbDictionary
281
     1
  0
DICTIONARY
  5
284
102
{ACAD_REACTORS
330
1A
102
}
330
1A
100
AcDbDictionary
281
     1
  3
Imperial24
350
285
  0
DICTIONARY
  5
18
102
{ACAD_REACTORS
330
1A
102
}
330
1A
100
AcDbDictionary
281
     1
  0
DICTIONARY
  5
28A
102
{ACAD_REACTORS
330
1A
102
}
330
1A
100
AcDbDictionary
281
     1
  3
Model
350
28B
  3
レイアウト1
350
28C
  0
DICTIONARY
  5
239
102
{ACAD_REACTORS
330
1A
102
}
330
1A
100
AcDbDictionary
281
     1
  3
ByBlock
350
242
  3
ByLayer
350
23A
  3
Global
350
24A
  0
DICTIONARY
  5
280
102
{ACAD_REACTORS
330
1A
102
}
330
1A
100
AcDbDictionary
281
     1
  3
Standard
350
281
  0
DICTIONARY
  5
19
102
{ACAD_REACTORS
330
1A
102
}
330
1A
100
AcDbDictionary
281
     1
  3
STANDARD
350
1B
  0
DICTIONARY
  5
289
102
{ACAD_REACTORS
330
1A
102
}
330
1A
100
AcDbDictionary
281
     1
  0
ACDBDICTIONARYWDFLT
  5
237
102
{ACAD_REACTORS
330
1A
102
}
330
1A
100
AcDbDictionary
281
     1
  3
Normal
350
238
100
AcDbDictionaryWithDefault
340
238
  0
DICTIONARY
  5
26E
102
{ACAD_REACTORS
330
1A
102
}
330
1A
100
AcDbDictionary
281
     1
  3
A0
350
26F
  3
A1
350
270
  3
A2
350
271
  3
A3
350
272
  3
A4
350
273
  3
A5
350
274
  3
A6
350
275
  3
A7
350
276
  3
A8
350
277
  3
A9
350
278
  3
B0
350
279
  3
B1
350
27A
  3
B2
350
27B
  3
B3
350
27C
  3
B4
350
27D
  3
B5
350
27E
  3
B6
350
27F
  0
DICTIONARY
  5
282
102
{ACAD_REACTORS
330
1A
102
}
330
1A
100
AcDbDictionary
281
     1
  3
Imperial24
350
283
  0
DICTIONARY
  5
26C
102
{ACAD_REACTORS
330
1A
102
}
330
1A
100
AcDbDictionary
281
     1
  3
Standard
350
26D
  0
DICTIONARY
  5
252
102
{ACAD_REACTORS
330
1A
102
}
330
1A
100
AcDbDictionary
281
     1
  3
2dWireframe
350
258
  3
Basic
350
257
  3
Brighten
350
25E
  3
ColorChange
350
262
  3
Conceptual
350
25B
  3
Dim
350
25D
  3
EdgeColorOff
350
26A
  3
Facepattern
350
261
  3
Flat
350
253
  3
FlatWithEdges
350
254
  3
Gouraud
350
255
  3
GouraudWithEdges
350
256
  3
Hidden
350
25A
  3
JitterOff
350
268
  3
Linepattern
350
260
  3
OverhangOff
350
269
  3
Realistic
350
25C
  3
Shaded
350
267
  3
Shaded with edges
350
266
  3
Shades of Gray
350
263
  3
Sketchy
350
264
  3
Thicken
350
25F
  3
Wireframe
350
259
  3
X-Ray
350
265
  0
XRECORD
  5
2DE
102
{ACAD_REACTORS
330
1A
102
}
330
1A
100
AcDbXrecord
280
     1
 90
        1
330
26D
  0
DICTIONARY
  5
2CB
102
{ACAD_REACTORS
330
1A
102
}
330
1A
100
AcDbDictionary
281
     1
  3
CANNOSCALE
350
2D0
  3
CMLEADERSTYLE
350
2CD
  3
CTABLESTYLE
350
2CC
  3
CVIEWDETAILSTYLE
350
2CE
  3
CVIEWSECTIONSTYLE
350
2CF
  3
XCLIPFRAME
350
2DC
  0
ACDBDETAILVIEWSTYLE
  5
285
102
{ACAD_XDICTIONARY
360
317
102
}
102
{ACAD_REACTORS
330
284
102
}
330
284
100
AcDbModelDocViewStyle
 70
     0
  3
Imperial24
290
     0
100
AcDbDetailViewStyle
 70
     0
 71
     0
 90
        3
 71
     1
340
C
 62
   256
 40
0.24
340
0
 62
   256
 40
0.24
300

 40
0.36
280
     3
 71
     2
340
5
 90
       25
 62
   256
 71
     3
340
C
 62
   256
 40
0.24
 90
        1
 40
0.75
 90
        1
300
%<\AcVar ViewType \f "%tc1">% %<\AcVar ViewDetailId>%\PSCALE %<\AcVar ViewScale \f "%sn">%
 71
     4
340
5
 90
       25
 62
   256
340
5
 90
       25
 62
   256
280
     0
  0
LAYOUT
  5
28B
102
{ACAD_REACTORS
330
28A
102
}
330
28A
100
AcDbPlotSettings
  1

  2
C:\ACAD-I\support\plotters\Default Windows System Printer.pc3
  4
A4
  6

 40
4.90008307
 41
4.90005732
 42
4.90008545
 43
4.90008545
 44
210.01567078
 45
297.01065063
 46
0.0
 47
0.0
 48
0.0
 49
0.0
140
0.0
141
0.0
142
1.0
143
3417.70222039
 70
 11952
 72
     0
 73
     1
 74
     0
  7
monochrome.ctb
 75
     0
147
0.00029259
 76
     0
 77
     2
 78
   300
148
14821.88279717
149
1933.85842357
100
AcDbLayout
  1
Model
 70
     1
 71
     0
 10
0.0
 20
0.0
 11
12.0
 21
9.0
 12
0.0
 22
0.0
 32
0.0
 14
0.0
 24
0.0
 34
0.0
 15
0.0
 25
0.0
 35
0.0
146
0.0
 13
0.0
 23
0.0
 33
0.0
 16
1.0
 26
0.0
 36
0.0
 17
0.0
 27
1.0
 37
0.0
 76
     0
330
2
1001
ACAD_PSEXT
1000
C:\ACAD-I\support\plotters\Default Windows System Printer.pc3
1000
FX ApeosPort-IV C4475
1000
IP_10.230.204.203
1000

1070
     0
  0
LAYOUT
  5
28C
102
{ACAD_REACTORS
330
28A
102
}
330
28A
100
AcDbPlotSettings
  1

  2
C:\ACAD-I\support\plotters\Default Windows System Printer.pc3
  4
A4
  6

 40
4.90008307
 41
4.90005732
 42
4.90008545
 43
4.90008545
 44
210.01567078
 45
297.01065063
 46
0.0
 47
0.0
 48
0.0
 49
0.0
140
0.0
141
0.0
142
1.0
143
1.0
 70
 15024
 72
     0
 73
     1
 74
     5
  7
monochrome.ctb
 75
    16
147
1.0
 76
     0
 77
     2
 78
   300
148
0.0
149
0.0
100
AcDbLayout
  1
レイアウト1
 70
     0
 71
     1
 10
0.0
 20
0.0
 11
12.0
 21
9.0
 12
0.0
 22
0.0
 32
0.0
 14
1.00000000E+20
 24
1.00000000E+20
 34
1.00000000E+20
 15
-1.00000000E+20
 25
-1.00000000E+20
 35
-1.00000000E+20
146
0.0
 13
0.0
 23
0.0
 33
0.0
 16
1.0
 26
0.0
 36
0.0
 17
0.0
 27
1.0
 37
0.0
 76
     0
330
7
1001
ACAD_PSEXT
1000
C:\ACAD-I\support\plotters\Default Windows System Printer.pc3
1000
FX ApeosPort-IV C4475
1000
IP_10.230.204.203
1000

1070
     0
  0
MATERIAL
  5
242
102
{ACAD_XDICTIONARY
360
243
102
}
102
{ACAD_REACTORS
330
239
102
}
330
239
100
AcDbMaterial
  1
ByBlock
 72
     0
 43
0.02083333
 43
0.0
 43
0.0
 43
0.0
 43
0.0
 43
0.02083333
 43
0.0
 43
0.0
 43
0.0
 43
0.0
 43
1.0
 43
0.0
 43
0.0
 43
0.0
 43
0.0
 43
1.0
 77
     0
 47
0.02083333
 47
0.0
 47
0.0
 47
0.0
 47
0.0
 47
0.02083333
 47
0.0
 47
0.0
 47
0.0
 47
0.0
 47
1.0
 47
0.0
 47
0.0
 47
0.0
 47
0.0
 47
1.0
171
     0
 49
0.02083333
 49
0.0
 49
0.0
 49
0.0
 49
0.0
 49
0.02083333
 49
0.0
 49
0.0
 49
0.0
 49
0.0
 49
1.0
 49
0.0
 49
0.0
 49
0.0
 49
0.0
 49
1.0
175
     0
142
0.02083333
142
0.0
142
0.0
142
0.0
142
0.0
142
0.02083333
142
0.0
142
0.0
142
0.0
142
0.0
142
1.0
142
0.0
142
0.0
142
0.0
142
0.0
142
1.0
179
     0
144
0.02083333
144
0.0
144
0.0
144
0.0
144
0.0
144
0.02083333
144
0.0
144
0.0
144
0.0
144
0.0
144
1.0
144
0.0
144
0.0
144
0.0
144
0.0
144
1.0
147
0.02083333
147
0.0
147
0.0
147
0.0
147
0.0
147
0.02083333
147
0.0
147
0.0
147
0.0
147
0.0
147
1.0
147
0.0
147
0.0
147
0.0
147
0.0
147
1.0
  0
MATERIAL
  5
23A
102
{ACAD_XDICTIONARY
360
23B
102
}
102
{ACAD_REACTORS
330
239
102
}
330
239
100
AcDbMaterial
  1
ByLayer
 72
     0
 43
0.02083333
 43
0.0
 43
0.0
 43
0.0
 43
0.0
 43
0.02083333
 43
0.0
 43
0.0
 43
0.0
 43
0.0
 43
1.0
 43
0.0
 43
0.0
 43
0.0
 43
0.0
 43
1.0
 77
     0
 47
0.02083333
 47
0.0
 47
0.0
 47
0.0
 47
0.0
 47
0.02083333
 47
0.0
 47
0.0
 47
0.0
 47
0.0
 47
1.0
 47
0.0
 47
0.0
 47
0.0
 47
0.0
 47
1.0
171
     0
 49
0.02083333
 49
0.0
 49
0.0
 49
0.0
 49
0.0
 49
0.02083333
 49
0.0
 49
0.0
 49
0.0
 49
0.0
 49
1.0
 49
0.0
 49
0.0
 49
0.0
 49
0.0
 49
1.0
175
     0
142
0.02083333
142
0.0
142
0.0
142
0.0
142
0.0
142
0.02083333
142
0.0
142
0.0
142
0.0
142
0.0
142
1.0
142
0.0
142
0.0
142
0.0
142
0.0
142
1.0
179
     0
144
0.02083333
144
0.0
144
0.0
144
0.0
144
0.0
144
0.02083333
144
0.0
144
0.0
144
0.0
144
0.0
144
1.0
144
0.0
144
0.0
144
0.0
144
0.0
144
1.0
147
0.02083333
147
0.0
147
0.0
147
0.0
147
0.0
147
0.02083333
147
0.0
147
0.0
147
0.0
147
0.0
147
1.0
147
0.0
147
0.0
147
0.0
147
0.0
147
1.0
  0
MATERIAL
  5
24A
102
{ACAD_XDICTIONARY
360
24B
102
}
102
{ACAD_REACTORS
330
239
102
}
330
239
100
AcDbMaterial
  1
Global
 72
     0
 43
0.02083333
 43
0.0
 43
0.0
 43
0.0
 43
0.0
 43
0.02083333
 43
0.0
 43
0.0
 43
0.0
 43
0.0
 43
1.0
 43
0.0
 43
0.0
 43
0.0
 43
0.0
 43
1.0
 77
     0
 47
0.02083333
 47
0.0
 47
0.0
 47
0.0
 47
0.0
 47
0.02083333
 47
0.0
 47
0.0
 47
0.0
 47
0.0
 47
1.0
 47
0.0
 47
0.0
 47
0.0
 47
0.0
 47
1.0
171
     0
 49
0.02083333
 49
0.0
 49
0.0
 49
0.0
 49
0.0
 49
0.02083333
 49
0.0
 49
0.0
 49
0.0
 49
0.0
 49
1.0
 49
0.0
 49
0.0
 49
0.0
 49
0.0
 49
1.0
175
     0
142
0.02083333
142
0.0
142
0.0
142
0.0
142
0.0
142
0.02083333
142
0.0
142
0.0
142
0.0
142
0.0
142
1.0
142
0.0
142
0.0
142
0.0
142
0.0
142
1.0
179
     0
144
0.02083333
144
0.0
144
0.0
144
0.0
144
0.0
144
0.02083333
144
0.0
144
0.0
144
0.0
144
0.0
144
1.0
144
0.0
144
0.0
144
0.0
144
0.0
144
1.0
147
0.02083333
147
0.0
147
0.0
147
0.0
147
0.0
147
0.02083333
147
0.0
147
0.0
147
0.0
147
0.0
147
1.0
147
0.0
147
0.0
147
0.0
147
0.0
147
1.0
  0
MLEADERSTYLE
  5
281
102
{ACAD_XDICTIONARY
360
313
102
}
102
{ACAD_REACTORS
330
280
102
}
330
280
100
AcDbMLeaderStyle
170
     2
171
     1
172
     0
 90
        2
 40
0.0
 41
0.0
173
     1
 91
-1056964608
340
E
 92
       -2
290
     1
 42
0.09
291
     1
 43
0.36
  3
Standard
 44
0.18
300

342
C
174
     1
178
     6
175
     1
176
     0
 93
-1056964608
 45
0.18
292
     0
297
     0
 46
0.18
 94
-1056964608
 47
1.0
 49
1.0
140
1.0
293
     1
141
0.0
294
     1
177
     0
142
1.0
295
     0
296
     0
143
0.125
1001
ACAD_MLEADERVER
1070
     2
  0
MLINESTYLE
  5
1B
102
{ACAD_REACTORS
330
19
102
}
330
19
100
AcDbMlineStyle
  2
STANDARD
 70
     0
  3

 62
   256
 51
90.0
 52
90.0
 71
     2
 49
0.5
 62
   256
  6
BYLAYER
 49
-0.5
 62
   256
  6
BYLAYER
  0
ACDBPLACEHOLDER
  5
238
102
{ACAD_REACTORS
330
237
102
}
330
237
  0
SCALE
  5
26F
102
{ACAD_REACTORS
330
26E
102
}
330
26E
100
AcDbScale
 70
     0
300
1:1
140
1.0
141
1.0
290
     1
  0
SCALE
  5
270
102
{ACAD_REACTORS
330
26E
102
}
330
26E
100
AcDbScale
 70
     0
300
1/128" = 1'-0"
140
0.0078125
141
12.0
290
     0
  0
SCALE
  5
271
102
{ACAD_REACTORS
330
26E
102
}
330
26E
100
AcDbScale
 70
     0
300
1/64" = 1'-0"
140
0.015625
141
12.0
290
     0
  0
SCALE
  5
272
102
{ACAD_REACTORS
330
26E
102
}
330
26E
100
AcDbScale
 70
     0
300
1/32" = 1'-0"
140
0.03125
141
12.0
290
     0
  0
SCALE
  5
273
102
{ACAD_REACTORS
330
26E
102
}
330
26E
100
AcDbScale
 70
     0
300
1/16" = 1'-0"
140
0.0625
141
12.0
290
     0
  0
SCALE
  5
274
102
{ACAD_REACTORS
330
26E
102
}
330
26E
100
AcDbScale
 70
     0
300
3/32" = 1'-0"
140
0.09375
141
12.0
290
     0
  0
SCALE
  5
275
102
{ACAD_REACTORS
330
26E
102
}
330
26E
100
AcDbScale
 70
     0
300
1/8" = 1'-0"
140
0.125
141
12.0
290
     0
  0
SCALE
  5
276
102
{ACAD_REACTORS
330
26E
102
}
330
26E
100
AcDbScale
 70
     0
300
3/16" = 1'-0"
140
0.1875
141
12.0
290
     0
  0
SCALE
  5
277
102
{ACAD_REACTORS
330
26E
102
}
330
26E
100
AcDbScale
 70
     0
300
1/4" = 1'-0"
140
0.25
141
12.0
290
     0
  0
SCALE
  5
278
102
{ACAD_REACTORS
330
26E
102
}
330
26E
100
AcDbScale
 70
     0
300
3/8" = 1'-0"
140
0.375
141
12.0
290
     0
  0
SCALE
  5
279
102
{ACAD_REACTORS
330
26E
102
}
330
26E
100
AcDbScale
 70
     0
300
1/2" = 1'-0"
140
0.5
141
12.0
290
     0
  0
SCALE
  5
27A
102
{ACAD_REACTORS
330
26E
102
}
330
26E
100
AcDbScale
 70
     0
300
3/4" = 1'-0"
140
0.75
141
12.0
290
     0
  0
SCALE
  5
27B
102
{ACAD_REACTORS
330
26E
102
}
330
26E
100
AcDbScale
 70
     0
300
1" = 1'-0"
140
1.0
141
12.0
290
     0
  0
SCALE
  5
27C
102
{ACAD_REACTORS
330
26E
102
}
330
26E
100
AcDbScale
 70
     0
300
1-1/2" = 1'-0"
140
1.5
141
12.0
290
     0
  0
SCALE
  5
27D
102
{ACAD_REACTORS
330
26E
102
}
330
26E
100
AcDbScale
 70
     0
300
3" = 1'-0"
140
3.0
141
12.0
290
     0
  0
SCALE
  5
27E
102
{ACAD_REACTORS
330
26E
102
}
330
26E
100
AcDbScale
 70
     0
300
6" = 1'-0"
140
6.0
141
12.0
290
     0
  0
SCALE
  5
27F
102
{ACAD_REACTORS
330
26E
102
}
330
26E
100
AcDbScale
 70
     0
300
1'-0" = 1'-0"
140
12.0
141
12.0
290
     0
  0
ACDBSECTIONVIEWSTYLE
  5
283
102
{ACAD_XDICTIONARY
360
315
102
}
102
{ACAD_REACTORS
330
282
102
}
330
282
100
AcDbModelDocViewStyle
 70
     0
  3
Imperial24
290
     0
100
AcDbSectionViewStyle
 70
     0
 71
     0
 90
      102
 71
     1
340
C
 62
   256
 40
5.0
340
0
340
0
 62
   256
 40
5.0
300
I, O, Q, S, X, Z
 40
10.0
 90
        0
 40
2.5
 90
        0
 71
     2
340
5
 90
       25
 62
   256
340
5
 90
       50
 62
   256
 40
5.0
 40
2.5
 40
5.0
 71
     3
340
C
 62
   256
 40
5.0
 90
        0
 40
15.0
 90
        1
300
%<\AcVar ViewSectionStartId>%-%<\AcVar ViewSectionEndId>% (%<\AcVar ViewScale \f "%sn">%)
 71
     4
 62
   256
 62
   257
300
ANSI31
 40
1.0
 90
        0
290
     0
290
     0
 90
        6
 40
0.0
 40
1.57079633
 40
0.26179939
 40
1.30899694
 40
-0.26179939
 40
1.83259571
  0
TABLESTYLE
  5
26D
102
{ACAD_XDICTIONARY
360
28D
102
}
102
{ACAD_REACTORS
330
26C
102
}
330
26C
100
AcDbTableStyle
  3
Standard
 70
     0
 71
     0
 40
0.06
 41
0.06
280
     0
281
     0
  7
STANDARD
140
0.18
170
     2
 62
     0
 63
     7
283
     0
274
    -2
284
     1
 64
     0
275
    -2
285
     1
 65
     0
276
    -2
286
     1
 66
     0
277
    -2
287
     1
 67
     0
278
    -2
288
     1
 68
     0
279
    -2
289
     1
 69
     0
  7
STANDARD
140
0.25
170
     5
 62
     0
 63
     7
283
     0
274
    -2
284
     1
 64
     0
275
    -2
285
     1
 65
     0
276
    -2
286
     1
 66
     0
277
    -2
287
     1
 67
     0
278
    -2
288
     1
 68
     0
279
    -2
289
     1
 69
     0
  7
STANDARD
140
0.18
170
     5
 62
     0
 63
     7
283
     0
274
    -2
284
     1
 64
     0
275
    -2
285
     1
 65
     0
276
    -2
286
     1
 66
     0
277
    -2
287
     1
 67
     0
278
    -2
288
     1
 68
     0
279
    -2
289
     1
 69
     0
  0
VISUALSTYLE
  5
258
102
{ACAD_XDICTIONARY
360
2EC
102
}
102
{ACAD_REACTORS
330
252
102
}
330
252
100
AcDbVisualStyle
  2
2dWireframe
 70
     4
 71
     0
 72
     2
 73
     0
 90
        0
 40
-0.6
 41
-30.0
 62
     5
 63
     7
421
 16777215
 74
     1
 91
        4
 64
     7
 65
   257
 75
     1
175
     1
 42
1.0
 92
        0
 66
   257
 43
1.0
 76
     1
 77
     6
 78
     2
 67
     7
 79
     5
170
     0
171
     0
290
     0
174
     0
 93
        1
 44
0.0
173
     0
291
     0
 45
0.0
1001
ACAD
1000
AcDbSavedByObjectVersion
1070
     0
  0
VISUALSTYLE
  5
257
102
{ACAD_XDICTIONARY
360
2EA
102
}
102
{ACAD_REACTORS
330
252
102
}
330
252
100
AcDbVisualStyle
  2
Basic
 70
     7
 71
     1
 72
     0
 73
     1
 90
        0
 40
-0.6
 41
-30.0
 62
     5
 63
     7
421
 16777215
 74
     0
 91
        4
 64
     7
 65
   257
 75
     1
175
     1
 42
1.0
 92
        8
 66
     7
 43
1.0
 76
     1
 77
     6
 78
     2
 67
     7
 79
     5
170
     0
171
     0
290
     0
174
     0
 93
        1
 44
0.0
173
     0
291
     1
 45
0.0
1001
ACAD
1000
AcDbSavedByObjectVersion
1070
     0
  0
VISUALSTYLE
  5
25E
102
{ACAD_XDICTIONARY
360
2F8
102
}
102
{ACAD_REACTORS
330
252
102
}
330
252
100
AcDbVisualStyle
  2
Brighten
 70
    12
 71
     2
 72
     2
 73
     0
 90
        0
 40
-0.6
 41
-30.0
 62
     5
 63
     7
421
 16777215
 74
     1
 91
        4
 64
     7
 65
   257
 75
     1
175
     1
 42
1.0
 92
        8
 66
     7
 43
1.0
 76
     1
 77
     6
 78
     2
 67
     7
 79
     5
170
     0
171
     0
290
     0
174
     0
 93
        1
 44
50.0
173
     0
291
     1
 45
0.0
1001
ACAD
1000
AcDbSavedByObjectVersion
1070
     0
  0
VISUALSTYLE
  5
262
102
{ACAD_XDICTIONARY
360
300
102
}
102
{ACAD_REACTORS
330
252
102
}
330
252
100
AcDbVisualStyle
  2
ColorChange
 70
    16
 71
     2
 72
     2
 73
     3
 90
        0
 40
-0.6
 41
-30.0
 62
     5
 63
     8
421
  8421504
 74
     1
 91
        4
 64
     7
 65
   257
 75
     1
175
     1
 42
1.0
 92
        8
 66
     8
424
  8421504
 43
1.0
 76
     1
 77
     6
 78
     2
 67
     7
 79
     5
170
     0
171
     0
290
     0
174
     0
 93
        1
 44
0.0
173
     0
291
     1
 45
0.0
1001
ACAD
1000
AcDbSavedByObjectVersion
1070
     0
  0
VISUALSTYLE
  5
25B
102
{ACAD_XDICTIONARY
360
2F2
102
}
102
{ACAD_REACTORS
330
252
102
}
330
252
100
AcDbVisualStyle
  2
Conceptual
 70
     9
 71
     3
 72
     2
 73
     0
 90
        0
 40
-0.6
 41
-30.0
 62
     5
 63
     7
421
 16777215
 74
     2
 91
        2
 64
     7
 65
   257
 75
     1
175
     1
 42
179.0
 92
        8
 66
     7
 43
1.0
 76
     1
 77
     6
 78
     2
 67
     7
 79
     3
170
     0
171
     0
290
     0
174
     0
 93
        1
 44
0.0
173
     0
291
     0
 45
0.0
1001
ACAD
1000
AcDbSavedByObjectVersion
1070
     0
  0
VISUALSTYLE
  5
25D
102
{ACAD_XDICTIONARY
360
2F6
102
}
102
{ACAD_REACTORS
330
252
102
}
330
252
100
AcDbVisualStyle
  2
Dim
 70
    11
 71
     2
 72
     2
 73
     0
 90
        0
 40
-0.6
 41
-30.0
 62
     5
 63
     7
421
 16777215
 74
     1
 91
        4
 64
     7
 65
   257
 75
     1
175
     1
 42
1.0
 92
        8
 66
     7
 43
1.0
 76
     1
 77
     6
 78
     2
 67
     7
 79
     5
170
     0
171
     0
290
     0
174
     0
 93
        1
 44
-50.0
173
     0
291
     1
 45
0.0
1001
ACAD
1000
AcDbSavedByObjectVersion
1070
     0
  0
VISUALSTYLE
  5
26A
102
{ACAD_XDICTIONARY
360
310
102
}
102
{ACAD_REACTORS
330
252
102
}
330
252
100
AcDbVisualStyle
  2
EdgeColorOff
 70
    22
 71
     2
 72
     2
 73
     0
 90
        0
 40
-0.6
 41
-30.0
 62
     5
 63
     7
421
 16777215
 74
     1
 91
        4
 64
     7
 65
   257
 75
     1
175
     1
 42
1.0
 92
        8
 66
     7
 43
1.0
 76
     1
 77
     6
 78
     2
 67
     7
 79
     5
170
     0
171
     0
290
     0
174
     0
 93
        1
 44
0.0
173
     0
291
     1
 45
0.0
1001
ACAD
1000
AcDbSavedByObjectVersion
1070
     0
  0
VISUALSTYLE
  5
261
102
{ACAD_XDICTIONARY
360
2FE
102
}
102
{ACAD_REACTORS
330
252
102
}
330
252
100
AcDbVisualStyle
  2
Facepattern
 70
    15
 71
     2
 72
     2
 73
     0
 90
        0
 40
-0.6
 41
-30.0
 62
     5
 63
     7
421
 16777215
 74
     1
 91
        4
 64
     7
 65
   257
 75
     1
175
     1
 42
1.0
 92
        8
 66
     7
 43
1.0
 76
     1
 77
     6
 78
     2
 67
     7
 79
     5
170
     0
171
     0
290
     0
174
     0
 93
        1
 44
0.0
173
     0
291
     1
 45
0.0
1001
ACAD
1000
AcDbSavedByObjectVersion
1070
     0
  0
VISUALSTYLE
  5
253
102
{ACAD_XDICTIONARY
360
2E2
102
}
102
{ACAD_REACTORS
330
252
102
}
330
252
100
AcDbVisualStyle
  2
Flat
 70
     0
 71
     2
 72
     1
 73
     1
 90
        2
 40
-0.6
 41
30.0
 62
     5
 63
     7
421
 16777215
 74
     0
 91
        0
 64
     7
 65
   257
 75
     1
175
     1
 42
1.0
 92
        8
 66
     7
 43
1.0
 76
     1
 77
     6
 78
     2
 67
     7
 79
     5
170
     0
171
     0
290
     0
174
     0
 93
       13
 44
0.0
173
     0
291
     1
 45
0.0
1001
ACAD
1000
AcDbSavedByObjectVersion
1070
     0
  0
VISUALSTYLE
  5
254
102
{ACAD_XDICTIONARY
360
2E4
102
}
102
{ACAD_REACTORS
330
252
102
}
330
252
100
AcDbVisualStyle
  2
FlatWithEdges
 70
     1
 71
     2
 72
     1
 73
     1
 90
        2
 40
-0.6
 41
30.0
 62
     5
 63
     7
421
 16777215
 74
     1
 91
        0
 64
     7
 65
   257
 75
     1
175
     1
 42
1.0
 92
        0
 66
   257
 43
1.0
 76
     1
 77
     6
 78
     2
 67
     7
 79
     5
170
     0
171
     0
290
     0
174
     0
 93
       13
 44
0.0
173
     0
291
     1
 45
0.0
1001
ACAD
1000
AcDbSavedByObjectVersion
1070
     0
  0
VISUALSTYLE
  5
255
102
{ACAD_XDICTIONARY
360
2E6
102
}
102
{ACAD_REACTORS
330
252
102
}
330
252
100
AcDbVisualStyle
  2
Gouraud
 70
     2
 71
     2
 72
     2
 73
     1
 90
        2
 40
-0.6
 41
30.0
 62
     5
 63
     7
421
 16777215
 74
     0
 91
        0
 64
     7
 65
   257
 75
     1
175
     1
 42
1.0
 92
        0
 66
     7
 43
1.0
 76
     1
 77
     6
 78
     2
 67
     7
 79
     5
170
     0
171
     0
290
     0
174
     0
 93
       13
 44
0.0
173
     0
291
     1
 45
0.0
1001
ACAD
1000
AcDbSavedByObjectVersion
1070
     0
  0
VISUALSTYLE
  5
256
102
{ACAD_XDICTIONARY
360
2E8
102
}
102
{ACAD_REACTORS
330
252
102
}
330
252
100
AcDbVisualStyle
  2
GouraudWithEdges
 70
     3
 71
     2
 72
     2
 73
     1
 90
        2
 40
-0.6
 41
30.0
 62
     5
 63
     7
421
 16777215
 74
     1
 91
        0
 64
     7
 65
   257
 75
     1
175
     1
 42
1.0
 92
        0
 66
   257
 43
1.0
 76
     1
 77
     6
 78
     2
 67
     7
 79
     5
170
     0
171
     0
290
     0
174
     0
 93
       13
 44
0.0
173
     0
291
     1
 45
0.0
1001
ACAD
1000
AcDbSavedByObjectVersion
1070
     0
  0
VISUALSTYLE
  5
25A
102
{ACAD_XDICTIONARY
360
2F0
102
}
102
{ACAD_REACTORS
330
252
102
}
330
252
100
AcDbVisualStyle
  2
Hidden
 70
     6
 71
     1
 72
     2
 73
     2
 90
        0
 40
-0.6
 41
-30.0
 62
     5
 63
     7
421
 16777215
 74
     2
 91
        2
 64
     7
 65
   257
 75
     2
175
     1
 42
40.0
 92
        0
 66
   257
 43
1.0
 76
     1
 77
     6
 78
     2
 67
     7
 79
     3
170
     0
171
     0
290
     0
174
     0
 93
        1
 44
0.0
173
     0
291
     0
 45
0.0
1001
ACAD
1000
AcDbSavedByObjectVersion
1070
     0
  0
VISUALSTYLE
  5
268
102
{ACAD_XDICTIONARY
360
30C
102
}
102
{ACAD_REACTORS
330
252
102
}
330
252
100
AcDbVisualStyle
  2
JitterOff
 70
    20
 71
     2
 72
     2
 73
     0
 90
        0
 40
-0.6
 41
-30.0
 62
     5
 63
     7
421
 16777215
 74
     1
 91
        4
 64
     7
 65
   257
 75
     1
175
     1
 42
1.0
 92
       10
 66
     7
 43
1.0
 76
     1
 77
     6
 78
     2
 67
     7
 79
     5
170
     0
171
     0
290
     0
174
     0
 93
        1
 44
0.0
173
     0
291
     1
 45
0.0
1001
ACAD
1000
AcDbSavedByObjectVersion
1070
     0
  0
VISUALSTYLE
  5
260
102
{ACAD_XDICTIONARY
360
2FC
102
}
102
{ACAD_REACTORS
330
252
102
}
330
252
100
AcDbVisualStyle
  2
Linepattern
 70
    14
 71
     2
 72
     2
 73
     0
 90
        0
 40
-0.6
 41
-30.0
 62
     5
 63
     7
421
 16777215
 74
     1
 91
        4
 64
     7
 65
   257
 75
     7
175
     7
 42
1.0
 92
        8
 66
     7
 43
1.0
 76
     1
 77
     6
 78
     2
 67
     7
 79
     5
170
     0
171
     0
290
     0
174
     0
 93
        1
 44
0.0
173
     0
291
     1
 45
0.0
1001
ACAD
1000
AcDbSavedByObjectVersion
1070
     0
  0
VISUALSTYLE
  5
269
102
{ACAD_XDICTIONARY
360
30E
102
}
102
{ACAD_REACTORS
330
252
102
}
330
252
100
AcDbVisualStyle
  2
OverhangOff
 70
    21
 71
     2
 72
     2
 73
     0
 90
        0
 40
-0.6
 41
-30.0
 62
     5
 63
     7
421
 16777215
 74
     1
 91
        4
 64
     7
 65
   257
 75
     1
175
     1
 42
1.0
 92
        9
 66
     7
 43
1.0
 76
     1
 77
     6
 78
     2
 67
     7
 79
     5
170
     0
171
     0
290
     0
174
     0
 93
        1
 44
0.0
173
     0
291
     1
 45
0.0
1001
ACAD
1000
AcDbSavedByObjectVersion
1070
     0
  0
VISUALSTYLE
  5
25C
102
{ACAD_XDICTIONARY
360
2F4
102
}
102
{ACAD_REACTORS
330
252
102
}
330
252
100
AcDbVisualStyle
  2
Realistic
 70
     8
 71
     2
 72
     2
 73
     0
 90
        2
 40
-0.6
 41
30.0
 62
     5
 63
     7
421
 16777215
 74
     0
 91
        0
 64
     7
 65
   257
 75
     1
175
     1
 42
1.0
 92
        8
 66
   257
 43
1.0
 76
     1
 77
     6
 78
     2
 67
     7
 79
     3
170
     0
171
     0
290
     0
174
     0
 93
       13
 44
0.0
173
     0
291
     0
 45
0.0
1001
ACAD
1000
AcDbSavedByObjectVersion
1070
     0
  0
VISUALSTYLE
  5
267
102
{ACAD_XDICTIONARY
360
30A
102
}
102
{ACAD_REACTORS
330
252
102
}
330
252
100
AcDbVisualStyle
  2
Shaded
 70
    27
 71
     2
 72
     2
 73
     1
 90
        2
 40
-0.6
 41
30.0
 62
     5
 63
     7
421
 16777215
 74
     0
 91
        4
 64
     7
 65
   257
 75
     1
175
     1
 42
1.0
 92
        8
 66
   257
 43
1.0
 76
     1
 77
     6
 78
     2
 67
     8
425
  7895160
 79
     3
170
     0
171
     0
290
     0
174
     0
 93
        5
 44
0.0
173
     0
291
     0
 45
0.0
1001
ACAD
1000
AcDbSavedByObjectVersion
1070
     0
  0
VISUALSTYLE
  5
266
102
{ACAD_XDICTIONARY
360
308
102
}
102
{ACAD_REACTORS
330
252
102
}
330
252
100
AcDbVisualStyle
  2
Shaded with edges
 70
    26
 71
     2
 72
     2
 73
     1
 90
        2
 40
-0.6
 41
30.0
 62
     5
 63
     7
421
 16777215
 74
     1
 91
       10
 64
     7
 65
   257
 75
     2
175
     1
 42
1.0
 92
        8
 66
   257
 43
1.0
 76
     1
 77
     6
 78
     2
 67
     7
 79
     3
170
     0
171
     0
290
     0
174
     0
 93
        5
 44
0.0
173
     0
291
     0
 45
0.0
1001
ACAD
1000
AcDbSavedByObjectVersion
1070
     0
  0
VISUALSTYLE
  5
263
102
{ACAD_XDICTIONARY
360
302
102
}
102
{ACAD_REACTORS
330
252
102
}
330
252
100
AcDbVisualStyle
  2
Shades of Gray
 70
    23
 71
     2
 72
     2
 73
     3
 90
        0
 40
-0.6
 41
-30.0
 62
     5
 63
     7
421
 16777215
 74
     2
 91
        2
 64
     7
 65
     7
 75
     1
175
     1
 42
40.0
 92
        8
 66
     7
 43
1.0
 76
     1
 77
     6
 78
     2
 67
     7
 79
     3
170
     0
171
     0
290
     0
174
     0
 93
        1
 44
0.0
173
     0
291
     0
 45
0.0
1001
ACAD
1000
AcDbSavedByObjectVersion
1070
     0
  0
VISUALSTYLE
  5
264
102
{ACAD_XDICTIONARY
360
304
102
}
102
{ACAD_REACTORS
330
252
102
}
330
252
100
AcDbVisualStyle
  2
Sketchy
 70
    24
 71
     1
 72
     2
 73
     2
 90
        0
 40
-0.6
 41
-30.0
 62
     5
 63
     7
421
 16777215
 74
     2
 91
        2
 64
     7
 65
     7
 75
     1
175
     1
 42
40.0
 92
       11
 66
     7
 43
1.0
 76
     1
 77
     6
 78
     2
 67
     7
 79
     6
170
     0
171
     0
290
     0
174
     0
 93
        1
 44
0.0
173
     0
291
     0
 45
0.0
1001
ACAD
1000
AcDbSavedByObjectVersion
1070
     0
  0
VISUALSTYLE
  5
25F
102
{ACAD_XDICTIONARY
360
2FA
102
}
102
{ACAD_REACTORS
330
252
102
}
330
252
100
AcDbVisualStyle
  2
Thicken
 70
    13
 71
     2
 72
     2
 73
     0
 90
        0
 40
-0.6
 41
-30.0
 62
     5
 63
     7
421
 16777215
 74
     1
 91
        4
 64
     7
 65
   257
 75
     1
175
     1
 42
1.0
 92
       12
 66
     7
 43
1.0
 76
     1
 77
     6
 78
     2
 67
     7
 79
     5
170
     0
171
     0
290
     0
174
     0
 93
        1
 44
0.0
173
     0
291
     1
 45
0.0
1001
ACAD
1000
AcDbSavedByObjectVersion
1070
     0
  0
VISUALSTYLE
  5
259
102
{ACAD_XDICTIONARY
360
2EE
102
}
102
{ACAD_REACTORS
330
252
102
}
330
252
100
AcDbVisualStyle
  2
Wireframe
 70
     5
 71
     0
 72
     2
 73
     0
 90
        0
 40
-0.6
 41
-30.0
 62
     5
 63
     7
421
 16777215
 74
     1
 91
        4
 64
     7
 65
   257
 75
     1
175
     1
 42
1.0
 92
        0
 66
   257
 43
1.0
 76
     1
 77
     6
 78
     2
 67
     7
 79
     3
170
     0
171
     0
290
     0
174
     0
 93
        1
 44
0.0
173
     0
291
     0
 45
0.0
1001
ACAD
1000
AcDbSavedByObjectVersion
1070
     0
  0
VISUALSTYLE
  5
265
102
{ACAD_XDICTIONARY
360
306
102
}
102
{ACAD_REACTORS
330
252
102
}
330
252
100
AcDbVisualStyle
  2
X-Ray
 70
    25
 71
     2
 72
     2
 73
     1
 90
        1
 40
0.5
 41
-30.0
 62
     5
 63
     7
421
 16777215
 74
     1
 91
        0
 64
     7
 65
   257
 75
     1
175
     1
 42
1.0
 92
        8
 66
     7
 43
1.0
 76
     1
 77
     6
 78
     2
 67
     7
 79
     3
170
     0
171
     0
290
     0
174
     0
 93
       13
 44
0.0
173
     0
291
     0
 45
0.0
1001
ACAD
1000
AcDbSavedByObjectVersion
1070
     0
  0
DICTIONARYVAR
  5
2D0
102
{ACAD_REACTORS
330
2CB
102
}
330
2CB
100
DictionaryVariables
280
     0
  1
1:1
  0
DICTIONARYVAR
  5
2CD
102
{ACAD_REACTORS
330
2CB
102
}
330
2CB
100
DictionaryVariables
280
     0
  1
STANDARD
  0
DICTIONARYVAR
  5
2CC
102
{ACAD_REACTORS
330
2CB
102
}
330
2CB
100
DictionaryVariables
280
     0
  1
STANDARD
  0
DICTIONARYVAR
  5
2CE
102
{ACAD_REACTORS
330
2CB
102
}
330
2CB
100
DictionaryVariables
280
     0
  1
Imperial24
  0
DICTIONARYVAR
  5
2CF
102
{ACAD_REACTORS
330
2CB
102
}
330
2CB
100
DictionaryVariables
280
     0
  1
Imperial24
  0
DICTIONARYVAR
  5
2DC
102
{ACAD_REACTORS
330
2CB
102
}
330
2CB
100
DictionaryVariables
280
     0
  1
2
  0
DICTIONARY
  5
317
330
285
100
AcDbDictionary
280
     1
281
     1
  3
ACAD_XREC_ROUNDTRIP
360
318
  0
DICTIONARY
  5
243
330
242
100
AcDbDictionary
280
     1
281
     1
  3
ACAD_XREC_ROUNDTRIP
360
2E0
  3
BUMPTILE
360
245
  3
DIFFUSETILE
360
244
  3
OPACITYTILE
360
248
  3
REFLECTIONTILE
360
247
  3
REFRACTIONTILE
360
249
  3
SPECULARTILE
360
246
  0
DICTIONARY
  5
23B
330
23A
100
AcDbDictionary
280
     1
281
     1
  3
ACAD_XREC_ROUNDTRIP
360
2DF
  3
BUMPTILE
360
23D
  3
DIFFUSETILE
360
23C
  3
OPACITYTILE
360
240
  3
REFLECTIONTILE
360
23F
  3
REFRACTIONTILE
360
241
  3
SPECULARTILE
360
23E
  0
DICTIONARY
  5
24B
330
24A
100
AcDbDictionary
280
     1
281
     1
  3
ACAD_XREC_ROUNDTRIP
360
2E1
  3
BUMPTILE
360
24D
  3
DIFFUSETILE
360
24C
  3
OPACITYTILE
360
250
  3
REFLECTIONTILE
360
24F
  3
REFRACTIONTILE
360
251
  3
SPECULARTILE
360
24E
  0
DICTIONARY
  5
313
330
281
100
AcDbDictionary
280
     1
281
     1
  3
ACAD_XREC_ROUNDTRIP
360
314
  0
DICTIONARY
  5
315
330
283
100
AcDbDictionary
280
     1
281
     1
  3
ACAD_XREC_ROUNDTRIP
360
316
  0
DICTIONARY
  5
28D
330
26D
100
AcDbDictionary
280
     1
281
     1
  3
ACAD_ROUNDTRIP_2008_TABLESTYLE_CELLSTYLEMAP
360
2DD
  3
ACAD_XREC_ROUNDTRIP
360
312
  0
DICTIONARY
  5
2EC
330
258
100
AcDbDictionary
280
     1
281
     1
  3
ACAD_XREC_ROUNDTRIP
360
2ED
  0
DICTIONARY
  5
2EA
330
257
100
AcDbDictionary
280
     1
281
     1
  3
ACAD_XREC_ROUNDTRIP
360
2EB
  0
DICTIONARY
  5
2F8
330
25E
100
AcDbDictionary
280
     1
281
     1
  3
ACAD_XREC_ROUNDTRIP
360
2F9
  0
DICTIONARY
  5
300
330
262
100
AcDbDictionary
280
     1
281
     1
  3
ACAD_XREC_ROUNDTRIP
360
301
  0
DICTIONARY
  5
2F2
330
25B
100
AcDbDictionary
280
     1
281
     1
  3
ACAD_XREC_ROUNDTRIP
360
2F3
  0
DICTIONARY
  5
2F6
330
25D
100
AcDbDictionary
280
     1
281
     1
  3
ACAD_XREC_ROUNDTRIP
360
2F7
  0
DICTIONARY
  5
310
330
26A
100
AcDbDictionary
280
     1
281
     1
  3
ACAD_XREC_ROUNDTRIP
360
311
  0
DICTIONARY
  5
2FE
330
261
100
AcDbDictionary
280
     1
281
     1
  3
ACAD_XREC_ROUNDTRIP
360
2FF
  0
DICTIONARY
  5
2E2
330
253
100
AcDbDictionary
280
     1
281
     1
  3
ACAD_XREC_ROUNDTRIP
360
2E3
  0
DICTIONARY
  5
2E4
330
254
100
AcDbDictionary
280
     1
281
     1
  3
ACAD_XREC_ROUNDTRIP
360
2E5
  0
DICTIONARY
  5
2E6
330
255
100
AcDbDictionary
280
     1
281
     1
  3
ACAD_XREC_ROUNDTRIP
360
2E7
  0
DICTIONARY
  5
2E8
330
256
100
AcDbDictionary
280
     1
281
     1
  3
ACAD_XREC_ROUNDTRIP
360
2E9
  0
DICTIONARY
  5
2F0
330
25A
100
AcDbDictionary
280
     1
281
     1
  3
ACAD_XREC_ROUNDTRIP
360
2F1
  0
DICTIONARY
  5
30C
330
268
100
AcDbDictionary
280
     1
281
     1
  3
ACAD_XREC_ROUNDTRIP
360
30D
  0
DICTIONARY
  5
2FC
330
260
100
AcDbDictionary
280
     1
281
     1
  3
ACAD_XREC_ROUNDTRIP
360
2FD
  0
DICTIONARY
  5
30E
330
269
100
AcDbDictionary
280
     1
281
     1
  3
ACAD_XREC_ROUNDTRIP
360
30F
  0
DICTIONARY
  5
2F4
330
25C
100
AcDbDictionary
280
     1
281
     1
  3
ACAD_XREC_ROUNDTRIP
360
2F5
  0
DICTIONARY
  5
30A
330
267
100
AcDbDictionary
280
     1
281
     1
  3
ACAD_XREC_ROUNDTRIP
360
30B
  0
DICTIONARY
  5
308
330
266
100
AcDbDictionary
280
     1
281
     1
  3
ACAD_XREC_ROUNDTRIP
360
309
  0
DICTIONARY
  5
302
330
263
100
AcDbDictionary
280
     1
281
     1
  3
ACAD_XREC_ROUNDTRIP
360
303
  0
DICTIONARY
  5
304
330
264
100
AcDbDictionary
280
     1
281
     1
  3
ACAD_XREC_ROUNDTRIP
360
305
  0
DICTIONARY
  5
2FA
330
25F
100
AcDbDictionary
280
     1
281
     1
  3
ACAD_XREC_ROUNDTRIP
360
2FB
  0
DICTIONARY
  5
2EE
330
259
100
AcDbDictionary
280
     1
281
     1
  3
ACAD_XREC_ROUNDTRIP
360
2EF
  0
DICTIONARY
  5
306
330
265
100
AcDbDictionary
280
     1
281
     1
  3
ACAD_XREC_ROUNDTRIP
360
307
  0
XRECORD
  5
318
102
{ACAD_REACTORS
330
317
102
}
330
317
100
AcDbXrecord
280
     1
102
DISPLAYNAME
  1
Imperial24
102
FLAGS
 90
        0
  0
XRECORD
  5
2E0
102
{ACAD_REACTORS
330
243
102
}
330
243
100
AcDbXrecord
280
     1
102
MATERIAL
148
0.0
149
0.0
149
0.0
 93
        0
 94
      127
282
     0
 72
     0
 77
     0
171
     0
175
     0
179
     0
273
     0
  0
XRECORD
  5
245
102
{ACAD_REACTORS
330
243
102
}
330
243
100
AcDbXrecord
280
     1
270
     1
271
     1
  0
XRECORD
  5
244
102
{ACAD_REACTORS
330
243
102
}
330
243
100
AcDbXrecord
280
     1
270
     1
271
     1
  0
XRECORD
  5
248
102
{ACAD_REACTORS
330
243
102
}
330
243
100
AcDbXrecord
280
     1
270
     1
271
     1
  0
XRECORD
  5
247
102
{ACAD_REACTORS
330
243
102
}
330
243
100
AcDbXrecord
280
     1
270
     1
271
     1
  0
XRECORD
  5
249
102
{ACAD_REACTORS
330
243
102
}
330
243
100
AcDbXrecord
280
     1
270
     1
271
     1
  0
XRECORD
  5
246
102
{ACAD_REACTORS
330
243
102
}
330
243
100
AcDbXrecord
280
     1
270
     1
271
     1
  0
XRECORD
  5
2DF
102
{ACAD_REACTORS
330
23B
102
}
330
23B
100
AcDbXrecord
280
     1
102
MATERIAL
148
0.0
149
0.0
149
0.0
 93
        0
 94
      127
282
     0
 72
     0
 77
     0
171
     0
175
     0
179
     0
273
     0
  0
XRECORD
  5
23D
102
{ACAD_REACTORS
330
23B
102
}
330
23B
100
AcDbXrecord
280
     1
270
     1
271
     1
  0
XRECORD
  5
23C
102
{ACAD_REACTORS
330
23B
102
}
330
23B
100
AcDbXrecord
280
     1
270
     1
271
     1
  0
XRECORD
  5
240
102
{ACAD_REACTORS
330
23B
102
}
330
23B
100
AcDbXrecord
280
     1
270
     1
271
     1
  0
XRECORD
  5
23F
102
{ACAD_REACTORS
330
23B
102
}
330
23B
100
AcDbXrecord
280
     1
270
     1
271
     1
  0
XRECORD
  5
241
102
{ACAD_REACTORS
330
23B
102
}
330
23B
100
AcDbXrecord
280
     1
270
     1
271
     1
  0
XRECORD
  5
23E
102
{ACAD_REACTORS
330
23B
102
}
330
23B
100
AcDbXrecord
280
     1
270
     1
271
     1
  0
XRECORD
  5
2E1
102
{ACAD_REACTORS
330
24B
102
}
330
24B
100
AcDbXrecord
280
     1
102
MATERIAL
148
0.0
149
0.0
149
0.0
 93
        0
 94
      127
282
     0
 72
     0
 77
     0
171
     0
175
     0
179
     0
273
     0
  0
XRECORD
  5
24D
102
{ACAD_REACTORS
330
24B
102
}
330
24B
100
AcDbXrecord
280
     1
270
     1
271
     1
  0
XRECORD
  5
24C
102
{ACAD_REACTORS
330
24B
102
}
330
24B
100
AcDbXrecord
280
     1
270
     1
271
     1
  0
XRECORD
  5
250
102
{ACAD_REACTORS
330
24B
102
}
330
24B
100
AcDbXrecord
280
     1
270
     1
271
     1
  0
XRECORD
  5
24F
102
{ACAD_REACTORS
330
24B
102
}
330
24B
100
AcDbXrecord
280
     1
270
     1
271
     1
  0
XRECORD
  5
251
102
{ACAD_REACTORS
330
24B
102
}
330
24B
100
AcDbXrecord
280
     1
270
     1
271
     1
  0
XRECORD
  5
24E
102
{ACAD_REACTORS
330
24B
102
}
330
24B
100
AcDbXrecord
280
     1
270
     1
271
     1
  0
XRECORD
  5
314
102
{ACAD_REACTORS
330
313
102
}
330
313
100
AcDbXrecord
280
     1
102
ACAD_ROUNDTRIP_2012_MLEADER_STYLE
298
     1
  0
XRECORD
  5
316
102
{ACAD_REACTORS
330
315
102
}
330
315
100
AcDbXrecord
280
     1
102
DISPLAYNAME
  1
Imperial24
102
FLAGS
 90
        0
  0
CELLSTYLEMAP
  5
2DD
102
{ACAD_REACTORS
330
28D
102
}
330
28D
100
AcDbCellStyleMap
 90
        3
300
CELLSTYLE
  1
TABLEFORMAT_BEGIN
 90
        5
170
     1
 91
        0
 92
    32768
 62
   257
 93
        1
300
CONTENTFORMAT
  1
CONTENTFORMAT_BEGIN
 90
        0
 91
        0
 92
      512
 93
        0
300

 40
0.0
140
1.0
 94
        5
 62
     0
340
C
144
0.25
309
CONTENTFORMAT_END
171
     0
 94
        0
309
TABLEFORMAT_END
  1
CELLSTYLE_BEGIN
 90
        1
 91
        1
300
_TITLE
309
CELLSTYLE_END
300
CELLSTYLE
  1
TABLEFORMAT_BEGIN
 90
        5
170
     1
 91
        0
 92
        0
 62
   257
 93
        1
300
CONTENTFORMAT
  1
CONTENTFORMAT_BEGIN
 90
        0
 91
        0
 92
      512
 93
        0
300

 40
0.0
140
1.0
 94
        5
 62
     0
340
C
144
0.18
309
CONTENTFORMAT_END
171
     0
 94
        0
309
TABLEFORMAT_END
  1
CELLSTYLE_BEGIN
 90
        2
 91
        1
300
_HEADER
309
CELLSTYLE_END
300
CELLSTYLE
  1
TABLEFORMAT_BEGIN
 90
        5
170
     1
 91
        0
 92
        0
 62
   257
 93
        1
300
CONTENTFORMAT
  1
CONTENTFORMAT_BEGIN
 90
        0
 91
        0
 92
      512
 93
        0
300

 40
0.0
140
1.0
 94
        2
 62
     0
340
C
144
0.18
309
CONTENTFORMAT_END
171
     0
 94
        0
309
TABLEFORMAT_END
  1
CELLSTYLE_BEGIN
 90
        3
 91
        2
300
_DATA
309
CELLSTYLE_END
  0
XRECORD
  5
312
102
{ACAD_REACTORS
330
28D
102
}
330
28D
100
AcDbXrecord
280
     1
102
ACAD_ROUNDTRIP_PRE2007_TABLESTYLE
 90
      512
 91
        0
  1

 92
      512
 93
        0
  2

 94
      512
 95
        0
  3

  0
XRECORD
  5
2ED
102
{ACAD_REACTORS
330
2EC
102
}
330
2EC
100
AcDbXrecord
280
     1
102
RTVSPost2010Prop28
280
     1
102
RTVSPost2010PropOp28
 70
     1
102
RTVSPost2010Prop29
280
     1
102
RTVSPost2010PropOp29
 70
     1
102
RTVSPost2010Prop30
280
     0
102
RTVSPost2010PropOp30
 70
     1
102
RTVSPost2010Prop31
280
     0
102
RTVSPost2010PropOp31
 70
     1
102
RTVSPost2010Prop32
280
     0
102
RTVSPost2010PropOp32
 70
     1
102
RTVSPost2010Prop33
280
     0
102
RTVSPost2010PropOp33
 70
     1
102
RTVSPost2010Prop34
280
     0
102
RTVSPost2010PropOp34
 70
     1
102
RTVSPost2010Prop35
280
     0
102
RTVSPost2010PropOp35
 70
     1
102
RTVSPost2010Prop36
280
     0
102
RTVSPost2010PropOp36
 70
     1
102
RTVSPost2010Prop37
 90
       50
102
RTVSPost2010PropOp37
 70
     1
102
RTVSPost2010Prop38
140
0.0
102
RTVSPost2010PropOp38
 70
     1
102
RTVSPost2010Prop39
140
1.0
102
RTVSPost2010PropOp39
 70
     1
102
RTVSPost2010Prop40
 90
        0
102
RTVSPost2010PropOp40
 70
     1
102
RTVSPost2010Prop41ColorIndex
 90
       18
102
RTVSPost2010Prop41ColorRGB
 90
        0
102
RTVSPost2010PropOp41
 70
     1
102
RTVSPost2010Prop42
 90
       50
102
RTVSPost2010PropOp42
 70
     1
102
RTVSPost2010Prop43
 90
        3
102
RTVSPost2010PropOp43
 70
     1
102
RTVSPost2010Prop44ColorIndex
 90
        5
102
RTVSPost2010Prop44ColorRGB
 90
      255
102
RTVSPost2010PropOp44
 70
     1
102
RTVSPost2010Prop45
280
     0
102
RTVSPost2010PropOp45
 70
     1
102
RTVSPost2010Prop46
 90
       50
102
RTVSPost2010PropOp46
 70
     1
102
RTVSPost2010Prop47
 90
       50
102
RTVSPost2010PropOp47
 70
     1
102
RTVSPost2010Prop48
 90
       50
102
RTVSPost2010PropOp48
 70
     1
102
RTVSPost2010Prop49
280
     0
102
RTVSPost2010PropOp49
 70
     1
102
RTVSPost2010Prop50
 90
       50
102
RTVSPost2010PropOp50
 70
     1
102
RTVSPost2010Prop51ColorIndex
 90
      256
102
RTVSPost2010Prop51ColorRGB
 90
-16777216
102
RTVSPost2010PropOp51
 70
     0
102
RTVSPost2010Prop52
140
1.0
102
RTVSPost2010PropOp52
 70
     0
102
RTVSPost2010Prop53
 90
        2
102
RTVSPost2010PropOp53
 70
     1
102
RTVSPost2010Prop54
  1
strokes_ogs.tif
102
RTVSPost2010PropOp54
 70
     1
102
RTVSPost2010Prop55
280
     0
102
RTVSPost2010PropOp55
 70
     1
102
RTVSPost2010Prop56
140
1.0
102
RTVSPost2010PropOp56
 70
     1
102
RTVSPost2010Prop57
140
1.0
102
RTVSPost2010PropOp57
 70
     1
102
RTVSPropertyOp0
 70
     1
102
RTVSPropertyOp1
 70
     1
102
RTVSPropertyOp2
 70
     1
102
RTVSPropertyOp3
 70
     1
102
RTVSPropertyOp4
 70
     1
102
RTVSPropertyOp5
 70
     1
102
RTVSPropertyOp6
 70
     1
102
RTVSPropertyOp7
 70
     1
102
RTVSPropertyOp8
 70
     1
102
RTVSPropertyOp9
 70
     1
102
RTVSPropertyOp10
 70
     1
102
RTVSPropertyOp11
 70
     1
102
RTVSPropertyOp12
 70
     1
102
RTVSPropertyOp13
 70
     1
102
RTVSPropertyOp14
 70
     1
102
RTVSPropertyOp15
 70
     1
102
RTVSPropertyOp16
 70
     1
102
RTVSPropertyOp17
 70
     1
102
RTVSPropertyOp18
 70
     1
102
RTVSPropertyOp19
 70
     1
102
RTVSPropertyOp20
 70
     1
102
RTVSPropertyOp21
 70
     1
102
RTVSPropertyOp22
 70
     1
102
RTVSPropertyOp23
 70
     1
102
RTVSPropertyOp24
 70
     1
102
RTVSPropertyOp25
 70
     1
102
RTVSPropertyOp26
 70
     1
102
RTVSPropertyOp27
 70
     1
102
RTVSPropertyOp28
 70
     1
102
RTVSPropertyOp29
 70
     1
102
RTVSPropertyOp30
 70
     1
102
RTVSPropertyOp31
 70
     1
102
RTVSPropertyOp32
 70
     1
102
RTVSPropertyOp33
 70
     1
102
RTVSPropertyOp34
 70
     1
102
RTVSPropertyOp35
 70
     1
102
RTVSPropertyOp36
 70
     1
102
RTVSPropertyOp37
 70
     1
102
RTVSPropertyOp38
 70
     1
102
RTVSPropertyOp39
 70
     1
102
RTVSPropertyOp40
 70
     1
102
RTVSPropertyOp41
 70
     1
102
RTVSPropertyOp42
 70
     1
102
RTVSPropertyOp43
 70
     1
102
RTVSPropertyOp44
 70
     1
102
RTVSPropertyOp45
 70
     1
102
RTVSPropertyOp46
 70
     1
102
RTVSPropertyOp47
 70
     1
102
RTVSPropertyOp48
 70
     1
102
RTVSPropertyOp49
 70
     1
102
RTVSPropertyOp50
 70
     1
102
RTVSPropertyOp51
 70
     0
102
RTVSPropertyOp52
 70
     0
102
RTVSPropertyOp53
 70
     1
102
RTVSPropertyOp54
 70
     1
102
RTVSPropertyOp55
 70
     1
102
RTVSPropertyOp56
 70
     1
102
RTVSPropertyOp57
 70
     1
102
RTVSPropertyOp58
 70
     1
102
RTVSPropertyOp59
 70
     1
102
RTVSPropertyOp60
 70
     1
102
RTVSPropertyOp61
 70
     1
102
RTVSPropertyOp62
 70
     1
  0
XRECORD
  5
2EB
102
{ACAD_REACTORS
330
2EA
102
}
330
2EA
100
AcDbXrecord
280
     1
102
RTVSPost2010Prop28
280
     0
102
RTVSPost2010PropOp28
 70
     1
102
RTVSPost2010Prop29
280
     1
102
RTVSPost2010PropOp29
 70
     1
102
RTVSPost2010Prop30
280
     1
102
RTVSPost2010PropOp30
 70
     1
102
RTVSPost2010Prop31
280
     0
102
RTVSPost2010PropOp31
 70
     1
102
RTVSPost2010Prop32
280
     0
102
RTVSPost2010PropOp32
 70
     1
102
RTVSPost2010Prop33
280
     0
102
RTVSPost2010PropOp33
 70
     1
102
RTVSPost2010Prop34
280
     0
102
RTVSPost2010PropOp34
 70
     1
102
RTVSPost2010Prop35
280
     0
102
RTVSPost2010PropOp35
 70
     1
102
RTVSPost2010Prop36
280
     0
102
RTVSPost2010PropOp36
 70
     1
102
RTVSPost2010Prop37
 90
       50
102
RTVSPost2010PropOp37
 70
     1
102
RTVSPost2010Prop38
140
0.0
102
RTVSPost2010PropOp38
 70
     1
102
RTVSPost2010Prop39
140
1.0
102
RTVSPost2010PropOp39
 70
     1
102
RTVSPost2010Prop40
 90
        0
102
RTVSPost2010PropOp40
 70
     1
102
RTVSPost2010Prop41ColorIndex
 90
       18
102
RTVSPost2010Prop41ColorRGB
 90
        0
102
RTVSPost2010PropOp41
 70
     1
102
RTVSPost2010Prop42
 90
       50
102
RTVSPost2010PropOp42
 70
     1
102
RTVSPost2010Prop43
 90
        3
102
RTVSPost2010PropOp43
 70
     1
102
RTVSPost2010Prop44ColorIndex
 90
        5
102
RTVSPost2010Prop44ColorRGB
 90
      255
102
RTVSPost2010PropOp44
 70
     1
102
RTVSPost2010Prop45
280
     0
102
RTVSPost2010PropOp45
 70
     1
102
RTVSPost2010Prop46
 90
       50
102
RTVSPost2010PropOp46
 70
     1
102
RTVSPost2010Prop47
 90
       50
102
RTVSPost2010PropOp47
 70
     1
102
RTVSPost2010Prop48
 90
       50
102
RTVSPost2010PropOp48
 70
     1
102
RTVSPost2010Prop49
280
     0
102
RTVSPost2010PropOp49
 70
     1
102
RTVSPost2010Prop50
 90
       50
102
RTVSPost2010PropOp50
 70
     1
102
RTVSPost2010Prop51ColorIndex
 90
      256
102
RTVSPost2010Prop51ColorRGB
 90
-16777216
102
RTVSPost2010PropOp51
 70
     0
102
RTVSPost2010Prop52
140
1.0
102
RTVSPost2010PropOp52
 70
     0
102
RTVSPost2010Prop53
 90
        2
102
RTVSPost2010PropOp53
 70
     1
102
RTVSPost2010Prop54
  1
strokes_ogs.tif
102
RTVSPost2010PropOp54
 70
     1
102
RTVSPost2010Prop55
280
     0
102
RTVSPost2010PropOp55
 70
     1
102
RTVSPost2010Prop56
140
1.0
102
RTVSPost2010PropOp56
 70
     1
102
RTVSPost2010Prop57
140
1.0
102
RTVSPost2010PropOp57
 70
     1
102
RTVSPropertyOp0
 70
     1
102
RTVSPropertyOp1
 70
     1
102
RTVSPropertyOp2
 70
     1
102
RTVSPropertyOp3
 70
     1
102
RTVSPropertyOp4
 70
     1
102
RTVSPropertyOp5
 70
     1
102
RTVSPropertyOp6
 70
     1
102
RTVSPropertyOp7
 70
     1
102
RTVSPropertyOp8
 70
     1
102
RTVSPropertyOp9
 70
     1
102
RTVSPropertyOp10
 70
     1
102
RTVSPropertyOp11
 70
     1
102
RTVSPropertyOp12
 70
     1
102
RTVSPropertyOp13
 70
     1
102
RTVSPropertyOp14
 70
     1
102
RTVSPropertyOp15
 70
     1
102
RTVSPropertyOp16
 70
     1
102
RTVSPropertyOp17
 70
     1
102
RTVSPropertyOp18
 70
     1
102
RTVSPropertyOp19
 70
     1
102
RTVSPropertyOp20
 70
     1
102
RTVSPropertyOp21
 70
     1
102
RTVSPropertyOp22
 70
     1
102
RTVSPropertyOp23
 70
     1
102
RTVSPropertyOp24
 70
     1
102
RTVSPropertyOp25
 70
     1
102
RTVSPropertyOp26
 70
     1
102
RTVSPropertyOp27
 70
     1
102
RTVSPropertyOp28
 70
     1
102
RTVSPropertyOp29
 70
     1
102
RTVSPropertyOp30
 70
     1
102
RTVSPropertyOp31
 70
     1
102
RTVSPropertyOp32
 70
     1
102
RTVSPropertyOp33
 70
     1
102
RTVSPropertyOp34
 70
     1
102
RTVSPropertyOp35
 70
     1
102
RTVSPropertyOp36
 70
     1
102
RTVSPropertyOp37
 70
     1
102
RTVSPropertyOp38
 70
     1
102
RTVSPropertyOp39
 70
     1
102
RTVSPropertyOp40
 70
     1
102
RTVSPropertyOp41
 70
     1
102
RTVSPropertyOp42
 70
     1
102
RTVSPropertyOp43
 70
     1
102
RTVSPropertyOp44
 70
     1
102
RTVSPropertyOp45
 70
     1
102
RTVSPropertyOp46
 70
     1
102
RTVSPropertyOp47
 70
     1
102
RTVSPropertyOp48
 70
     1
102
RTVSPropertyOp49
 70
     1
102
RTVSPropertyOp50
 70
     1
102
RTVSPropertyOp51
 70
     0
102
RTVSPropertyOp52
 70
     0
102
RTVSPropertyOp53
 70
     1
102
RTVSPropertyOp54
 70
     1
102
RTVSPropertyOp55
 70
     1
102
RTVSPropertyOp56
 70
     1
102
RTVSPropertyOp57
 70
     1
102
RTVSPropertyOp58
 70
     1
102
RTVSPropertyOp59
 70
     1
102
RTVSPropertyOp60
 70
     1
102
RTVSPropertyOp61
 70
     1
102
RTVSPropertyOp62
 70
     1
  0
XRECORD
  5
2F9
102
{ACAD_REACTORS
330
2F8
102
}
330
2F8
100
AcDbXrecord
280
     1
102
RTVSPost2010Prop28
280
     0
102
RTVSPost2010PropOp28
 70
     1
102
RTVSPost2010Prop29
280
     1
102
RTVSPost2010PropOp29
 70
     1
102
RTVSPost2010Prop30
280
     1
102
RTVSPost2010PropOp30
 70
     1
102
RTVSPost2010Prop31
280
     0
102
RTVSPost2010PropOp31
 70
     1
102
RTVSPost2010Prop32
280
     0
102
RTVSPost2010PropOp32
 70
     1
102
RTVSPost2010Prop33
280
     0
102
RTVSPost2010PropOp33
 70
     1
102
RTVSPost2010Prop34
280
     0
102
RTVSPost2010PropOp34
 70
     1
102
RTVSPost2010Prop35
280
     0
102
RTVSPost2010PropOp35
 70
     1
102
RTVSPost2010Prop36
280
     0
102
RTVSPost2010PropOp36
 70
     1
102
RTVSPost2010Prop37
 90
       50
102
RTVSPost2010PropOp37
 70
     1
102
RTVSPost2010Prop38
140
0.0
102
RTVSPost2010PropOp38
 70
     1
102
RTVSPost2010Prop39
140
1.0
102
RTVSPost2010PropOp39
 70
     1
102
RTVSPost2010Prop40
 90
        0
102
RTVSPost2010PropOp40
 70
     1
102
RTVSPost2010Prop41ColorIndex
 90
       18
102
RTVSPost2010Prop41ColorRGB
 90
        0
102
RTVSPost2010PropOp41
 70
     1
102
RTVSPost2010Prop42
 90
       50
102
RTVSPost2010PropOp42
 70
     1
102
RTVSPost2010Prop43
 90
        3
102
RTVSPost2010PropOp43
 70
     1
102
RTVSPost2010Prop44ColorIndex
 90
        5
102
RTVSPost2010Prop44ColorRGB
 90
      255
102
RTVSPost2010PropOp44
 70
     1
102
RTVSPost2010Prop45
280
     0
102
RTVSPost2010PropOp45
 70
     1
102
RTVSPost2010Prop46
 90
       50
102
RTVSPost2010PropOp46
 70
     1
102
RTVSPost2010Prop47
 90
       50
102
RTVSPost2010PropOp47
 70
     1
102
RTVSPost2010Prop48
 90
       50
102
RTVSPost2010PropOp48
 70
     1
102
RTVSPost2010Prop49
280
     0
102
RTVSPost2010PropOp49
 70
     1
102
RTVSPost2010Prop50
 90
       50
102
RTVSPost2010PropOp50
 70
     1
102
RTVSPost2010Prop51ColorIndex
 90
      256
102
RTVSPost2010Prop51ColorRGB
 90
-16777216
102
RTVSPost2010PropOp51
 70
     0
102
RTVSPost2010Prop52
140
1.0
102
RTVSPost2010PropOp52
 70
     0
102
RTVSPost2010Prop53
 90
        2
102
RTVSPost2010PropOp53
 70
     1
102
RTVSPost2010Prop54
  1
strokes_ogs.tif
102
RTVSPost2010PropOp54
 70
     1
102
RTVSPost2010Prop55
280
     0
102
RTVSPost2010PropOp55
 70
     1
102
RTVSPost2010Prop56
140
1.0
102
RTVSPost2010PropOp56
 70
     1
102
RTVSPost2010Prop57
140
1.0
102
RTVSPost2010PropOp57
 70
     1
102
RTVSPropertyOp0
 70
     1
102
RTVSPropertyOp1
 70
     1
102
RTVSPropertyOp2
 70
     1
102
RTVSPropertyOp3
 70
     1
102
RTVSPropertyOp4
 70
     1
102
RTVSPropertyOp5
 70
     1
102
RTVSPropertyOp6
 70
     1
102
RTVSPropertyOp7
 70
     1
102
RTVSPropertyOp8
 70
     1
102
RTVSPropertyOp9
 70
     1
102
RTVSPropertyOp10
 70
     1
102
RTVSPropertyOp11
 70
     1
102
RTVSPropertyOp12
 70
     1
102
RTVSPropertyOp13
 70
     1
102
RTVSPropertyOp14
 70
     1
102
RTVSPropertyOp15
 70
     1
102
RTVSPropertyOp16
 70
     1
102
RTVSPropertyOp17
 70
     1
102
RTVSPropertyOp18
 70
     1
102
RTVSPropertyOp19
 70
     1
102
RTVSPropertyOp20
 70
     1
102
RTVSPropertyOp21
 70
     1
102
RTVSPropertyOp22
 70
     1
102
RTVSPropertyOp23
 70
     1
102
RTVSPropertyOp24
 70
     1
102
RTVSPropertyOp25
 70
     1
102
RTVSPropertyOp26
 70
     1
102
RTVSPropertyOp27
 70
     1
102
RTVSPropertyOp28
 70
     1
102
RTVSPropertyOp29
 70
     1
102
RTVSPropertyOp30
 70
     1
102
RTVSPropertyOp31
 70
     1
102
RTVSPropertyOp32
 70
     1
102
RTVSPropertyOp33
 70
     1
102
RTVSPropertyOp34
 70
     1
102
RTVSPropertyOp35
 70
     1
102
RTVSPropertyOp36
 70
     1
102
RTVSPropertyOp37
 70
     1
102
RTVSPropertyOp38
 70
     1
102
RTVSPropertyOp39
 70
     1
102
RTVSPropertyOp40
 70
     1
102
RTVSPropertyOp41
 70
     1
102
RTVSPropertyOp42
 70
     1
102
RTVSPropertyOp43
 70
     1
102
RTVSPropertyOp44
 70
     1
102
RTVSPropertyOp45
 70
     1
102
RTVSPropertyOp46
 70
     1
102
RTVSPropertyOp47
 70
     1
102
RTVSPropertyOp48
 70
     1
102
RTVSPropertyOp49
 70
     1
102
RTVSPropertyOp50
 70
     1
102
RTVSPropertyOp51
 70
     0
102
RTVSPropertyOp52
 70
     0
102
RTVSPropertyOp53
 70
     1
102
RTVSPropertyOp54
 70
     1
102
RTVSPropertyOp55
 70
     1
102
RTVSPropertyOp56
 70
     1
102
RTVSPropertyOp57
 70
     1
102
RTVSPropertyOp58
 70
     1
102
RTVSPropertyOp59
 70
     1
102
RTVSPropertyOp60
 70
     1
102
RTVSPropertyOp61
 70
     1
102
RTVSPropertyOp62
 70
     1
  0
XRECORD
  5
301
102
{ACAD_REACTORS
330
300
102
}
330
300
100
AcDbXrecord
280
     1
102
RTVSPost2010Prop28
280
     0
102
RTVSPost2010PropOp28
 70
     1
102
RTVSPost2010Prop29
280
     1
102
RTVSPost2010PropOp29
 70
     1
102
RTVSPost2010Prop30
280
     1
102
RTVSPost2010PropOp30
 70
     1
102
RTVSPost2010Prop31
280
     0
102
RTVSPost2010PropOp31
 70
     1
102
RTVSPost2010Prop32
280
     0
102
RTVSPost2010PropOp32
 70
     1
102
RTVSPost2010Prop33
280
     0
102
RTVSPost2010PropOp33
 70
     1
102
RTVSPost2010Prop34
280
     0
102
RTVSPost2010PropOp34
 70
     1
102
RTVSPost2010Prop35
280
     0
102
RTVSPost2010PropOp35
 70
     1
102
RTVSPost2010Prop36
280
     0
102
RTVSPost2010PropOp36
 70
     1
102
RTVSPost2010Prop37
 90
       50
102
RTVSPost2010PropOp37
 70
     1
102
RTVSPost2010Prop38
140
0.0
102
RTVSPost2010PropOp38
 70
     1
102
RTVSPost2010Prop39
140
1.0
102
RTVSPost2010PropOp39
 70
     1
102
RTVSPost2010Prop40
 90
        0
102
RTVSPost2010PropOp40
 70
     1
102
RTVSPost2010Prop41ColorIndex
 90
       18
102
RTVSPost2010Prop41ColorRGB
 90
        0
102
RTVSPost2010PropOp41
 70
     1
102
RTVSPost2010Prop42
 90
       50
102
RTVSPost2010PropOp42
 70
     1
102
RTVSPost2010Prop43
 90
        3
102
RTVSPost2010PropOp43
 70
     1
102
RTVSPost2010Prop44ColorIndex
 90
        5
102
RTVSPost2010Prop44ColorRGB
 90
      255
102
RTVSPost2010PropOp44
 70
     1
102
RTVSPost2010Prop45
280
     0
102
RTVSPost2010PropOp45
 70
     1
102
RTVSPost2010Prop46
 90
       50
102
RTVSPost2010PropOp46
 70
     1
102
RTVSPost2010Prop47
 90
       50
102
RTVSPost2010PropOp47
 70
     1
102
RTVSPost2010Prop48
 90
       50
102
RTVSPost2010PropOp48
 70
     1
102
RTVSPost2010Prop49
280
     0
102
RTVSPost2010PropOp49
 70
     1
102
RTVSPost2010Prop50
 90
       50
102
RTVSPost2010PropOp50
 70
     1
102
RTVSPost2010Prop51ColorIndex
 90
      256
102
RTVSPost2010Prop51ColorRGB
 90
-16777216
102
RTVSPost2010PropOp51
 70
     0
102
RTVSPost2010Prop52
140
1.0
102
RTVSPost2010PropOp52
 70
     0
102
RTVSPost2010Prop53
 90
        2
102
RTVSPost2010PropOp53
 70
     1
102
RTVSPost2010Prop54
  1
strokes_ogs.tif
102
RTVSPost2010PropOp54
 70
     1
102
RTVSPost2010Prop55
280
     0
102
RTVSPost2010PropOp55
 70
     1
102
RTVSPost2010Prop56
140
1.0
102
RTVSPost2010PropOp56
 70
     1
102
RTVSPost2010Prop57
140
1.0
102
RTVSPost2010PropOp57
 70
     1
102
RTVSPropertyOp0
 70
     1
102
RTVSPropertyOp1
 70
     1
102
RTVSPropertyOp2
 70
     1
102
RTVSPropertyOp3
 70
     1
102
RTVSPropertyOp4
 70
     1
102
RTVSPropertyOp5
 70
     1
102
RTVSPropertyOp6
 70
     1
102
RTVSPropertyOp7
 70
     1
102
RTVSPropertyOp8
 70
     1
102
RTVSPropertyOp9
 70
     1
102
RTVSPropertyOp10
 70
     1
102
RTVSPropertyOp11
 70
     1
102
RTVSPropertyOp12
 70
     1
102
RTVSPropertyOp13
 70
     1
102
RTVSPropertyOp14
 70
     1
102
RTVSPropertyOp15
 70
     1
102
RTVSPropertyOp16
 70
     1
102
RTVSPropertyOp17
 70
     1
102
RTVSPropertyOp18
 70
     1
102
RTVSPropertyOp19
 70
     1
102
RTVSPropertyOp20
 70
     1
102
RTVSPropertyOp21
 70
     1
102
RTVSPropertyOp22
 70
     1
102
RTVSPropertyOp23
 70
     1
102
RTVSPropertyOp24
 70
     1
102
RTVSPropertyOp25
 70
     1
102
RTVSPropertyOp26
 70
     1
102
RTVSPropertyOp27
 70
     1
102
RTVSPropertyOp28
 70
     1
102
RTVSPropertyOp29
 70
     1
102
RTVSPropertyOp30
 70
     1
102
RTVSPropertyOp31
 70
     1
102
RTVSPropertyOp32
 70
     1
102
RTVSPropertyOp33
 70
     1
102
RTVSPropertyOp34
 70
     1
102
RTVSPropertyOp35
 70
     1
102
RTVSPropertyOp36
 70
     1
102
RTVSPropertyOp37
 70
     1
102
RTVSPropertyOp38
 70
     1
102
RTVSPropertyOp39
 70
     1
102
RTVSPropertyOp40
 70
     1
102
RTVSPropertyOp41
 70
     1
102
RTVSPropertyOp42
 70
     1
102
RTVSPropertyOp43
 70
     1
102
RTVSPropertyOp44
 70
     1
102
RTVSPropertyOp45
 70
     1
102
RTVSPropertyOp46
 70
     1
102
RTVSPropertyOp47
 70
     1
102
RTVSPropertyOp48
 70
     1
102
RTVSPropertyOp49
 70
     1
102
RTVSPropertyOp50
 70
     1
102
RTVSPropertyOp51
 70
     0
102
RTVSPropertyOp52
 70
     0
102
RTVSPropertyOp53
 70
     1
102
RTVSPropertyOp54
 70
     1
102
RTVSPropertyOp55
 70
     1
102
RTVSPropertyOp56
 70
     1
102
RTVSPropertyOp57
 70
     1
102
RTVSPropertyOp58
 70
     1
102
RTVSPropertyOp59
 70
     1
102
RTVSPropertyOp60
 70
     1
102
RTVSPropertyOp61
 70
     1
102
RTVSPropertyOp62
 70
     1
  0
XRECORD
  5
2F3
102
{ACAD_REACTORS
330
2F2
102
}
330
2F2
100
AcDbXrecord
280
     1
102
RTVSPost2010Prop28
280
     0
102
RTVSPost2010PropOp28
 70
     1
102
RTVSPost2010Prop29
280
     1
102
RTVSPost2010PropOp29
 70
     1
102
RTVSPost2010Prop30
280
     1
102
RTVSPost2010PropOp30
 70
     1
102
RTVSPost2010Prop31
280
     0
102
RTVSPost2010PropOp31
 70
     1
102
RTVSPost2010Prop32
280
     0
102
RTVSPost2010PropOp32
 70
     1
102
RTVSPost2010Prop33
280
     0
102
RTVSPost2010PropOp33
 70
     1
102
RTVSPost2010Prop34
280
     0
102
RTVSPost2010PropOp34
 70
     1
102
RTVSPost2010Prop35
280
     0
102
RTVSPost2010PropOp35
 70
     1
102
RTVSPost2010Prop36
280
     0
102
RTVSPost2010PropOp36
 70
     1
102
RTVSPost2010Prop37
 90
       50
102
RTVSPost2010PropOp37
 70
     1
102
RTVSPost2010Prop38
140
0.0
102
RTVSPost2010PropOp38
 70
     1
102
RTVSPost2010Prop39
140
1.0
102
RTVSPost2010PropOp39
 70
     1
102
RTVSPost2010Prop40
 90
        0
102
RTVSPost2010PropOp40
 70
     1
102
RTVSPost2010Prop41ColorIndex
 90
       18
102
RTVSPost2010Prop41ColorRGB
 90
        0
102
RTVSPost2010PropOp41
 70
     1
102
RTVSPost2010Prop42
 90
       50
102
RTVSPost2010PropOp42
 70
     1
102
RTVSPost2010Prop43
 90
        3
102
RTVSPost2010PropOp43
 70
     1
102
RTVSPost2010Prop44ColorIndex
 90
        5
102
RTVSPost2010Prop44ColorRGB
 90
      255
102
RTVSPost2010PropOp44
 70
     1
102
RTVSPost2010Prop45
280
     0
102
RTVSPost2010PropOp45
 70
     1
102
RTVSPost2010Prop46
 90
       50
102
RTVSPost2010PropOp46
 70
     1
102
RTVSPost2010Prop47
 90
       50
102
RTVSPost2010PropOp47
 70
     1
102
RTVSPost2010Prop48
 90
       50
102
RTVSPost2010PropOp48
 70
     1
102
RTVSPost2010Prop49
280
     0
102
RTVSPost2010PropOp49
 70
     1
102
RTVSPost2010Prop50
 90
       50
102
RTVSPost2010PropOp50
 70
     1
102
RTVSPost2010Prop51ColorIndex
 90
      256
102
RTVSPost2010Prop51ColorRGB
 90
-16777216
102
RTVSPost2010PropOp51
 70
     0
102
RTVSPost2010Prop52
140
1.0
102
RTVSPost2010PropOp52
 70
     0
102
RTVSPost2010Prop53
 90
        2
102
RTVSPost2010PropOp53
 70
     1
102
RTVSPost2010Prop54
  1
strokes_ogs.tif
102
RTVSPost2010PropOp54
 70
     1
102
RTVSPost2010Prop55
280
     0
102
RTVSPost2010PropOp55
 70
     1
102
RTVSPost2010Prop56
140
1.0
102
RTVSPost2010PropOp56
 70
     1
102
RTVSPost2010Prop57
140
1.0
102
RTVSPost2010PropOp57
 70
     1
102
RTVSPropertyOp0
 70
     1
102
RTVSPropertyOp1
 70
     1
102
RTVSPropertyOp2
 70
     1
102
RTVSPropertyOp3
 70
     1
102
RTVSPropertyOp4
 70
     1
102
RTVSPropertyOp5
 70
     1
102
RTVSPropertyOp6
 70
     1
102
RTVSPropertyOp7
 70
     1
102
RTVSPropertyOp8
 70
     1
102
RTVSPropertyOp9
 70
     1
102
RTVSPropertyOp10
 70
     1
102
RTVSPropertyOp11
 70
     1
102
RTVSPropertyOp12
 70
     1
102
RTVSPropertyOp13
 70
     1
102
RTVSPropertyOp14
 70
     1
102
RTVSPropertyOp15
 70
     1
102
RTVSPropertyOp16
 70
     1
102
RTVSPropertyOp17
 70
     1
102
RTVSPropertyOp18
 70
     1
102
RTVSPropertyOp19
 70
     1
102
RTVSPropertyOp20
 70
     1
102
RTVSPropertyOp21
 70
     1
102
RTVSPropertyOp22
 70
     1
102
RTVSPropertyOp23
 70
     1
102
RTVSPropertyOp24
 70
     1
102
RTVSPropertyOp25
 70
     1
102
RTVSPropertyOp26
 70
     1
102
RTVSPropertyOp27
 70
     1
102
RTVSPropertyOp28
 70
     1
102
RTVSPropertyOp29
 70
     1
102
RTVSPropertyOp30
 70
     1
102
RTVSPropertyOp31
 70
     1
102
RTVSPropertyOp32
 70
     1
102
RTVSPropertyOp33
 70
     1
102
RTVSPropertyOp34
 70
     1
102
RTVSPropertyOp35
 70
     1
102
RTVSPropertyOp36
 70
     1
102
RTVSPropertyOp37
 70
     1
102
RTVSPropertyOp38
 70
     1
102
RTVSPropertyOp39
 70
     1
102
RTVSPropertyOp40
 70
     1
102
RTVSPropertyOp41
 70
     1
102
RTVSPropertyOp42
 70
     1
102
RTVSPropertyOp43
 70
     1
102
RTVSPropertyOp44
 70
     1
102
RTVSPropertyOp45
 70
     1
102
RTVSPropertyOp46
 70
     1
102
RTVSPropertyOp47
 70
     1
102
RTVSPropertyOp48
 70
     1
102
RTVSPropertyOp49
 70
     1
102
RTVSPropertyOp50
 70
     1
102
RTVSPropertyOp51
 70
     0
102
RTVSPropertyOp52
 70
     0
102
RTVSPropertyOp53
 70
     1
102
RTVSPropertyOp54
 70
     1
102
RTVSPropertyOp55
 70
     1
102
RTVSPropertyOp56
 70
     1
102
RTVSPropertyOp57
 70
     1
102
RTVSPropertyOp58
 70
     1
102
RTVSPropertyOp59
 70
     1
102
RTVSPropertyOp60
 70
     1
102
RTVSPropertyOp61
 70
     1
102
RTVSPropertyOp62
 70
     1
  0
XRECORD
  5
2F7
102
{ACAD_REACTORS
330
2F6
102
}
330
2F6
100
AcDbXrecord
280
     1
102
RTVSPost2010Prop28
280
     0
102
RTVSPost2010PropOp28
 70
     1
102
RTVSPost2010Prop29
280
     1
102
RTVSPost2010PropOp29
 70
     1
102
RTVSPost2010Prop30
280
     1
102
RTVSPost2010PropOp30
 70
     1
102
RTVSPost2010Prop31
280
     0
102
RTVSPost2010PropOp31
 70
     1
102
RTVSPost2010Prop32
280
     0
102
RTVSPost2010PropOp32
 70
     1
102
RTVSPost2010Prop33
280
     0
102
RTVSPost2010PropOp33
 70
     1
102
RTVSPost2010Prop34
280
     0
102
RTVSPost2010PropOp34
 70
     1
102
RTVSPost2010Prop35
280
     0
102
RTVSPost2010PropOp35
 70
     1
102
RTVSPost2010Prop36
280
     0
102
RTVSPost2010PropOp36
 70
     1
102
RTVSPost2010Prop37
 90
       50
102
RTVSPost2010PropOp37
 70
     1
102
RTVSPost2010Prop38
140
0.0
102
RTVSPost2010PropOp38
 70
     1
102
RTVSPost2010Prop39
140
1.0
102
RTVSPost2010PropOp39
 70
     1
102
RTVSPost2010Prop40
 90
        0
102
RTVSPost2010PropOp40
 70
     1
102
RTVSPost2010Prop41ColorIndex
 90
       18
102
RTVSPost2010Prop41ColorRGB
 90
        0
102
RTVSPost2010PropOp41
 70
     1
102
RTVSPost2010Prop42
 90
       50
102
RTVSPost2010PropOp42
 70
     1
102
RTVSPost2010Prop43
 90
        3
102
RTVSPost2010PropOp43
 70
     1
102
RTVSPost2010Prop44ColorIndex
 90
        5
102
RTVSPost2010Prop44ColorRGB
 90
      255
102
RTVSPost2010PropOp44
 70
     1
102
RTVSPost2010Prop45
280
     0
102
RTVSPost2010PropOp45
 70
     1
102
RTVSPost2010Prop46
 90
       50
102
RTVSPost2010PropOp46
 70
     1
102
RTVSPost2010Prop47
 90
       50
102
RTVSPost2010PropOp47
 70
     1
102
RTVSPost2010Prop48
 90
       50
102
RTVSPost2010PropOp48
 70
     1
102
RTVSPost2010Prop49
280
     0
102
RTVSPost2010PropOp49
 70
     1
102
RTVSPost2010Prop50
 90
       50
102
RTVSPost2010PropOp50
 70
     1
102
RTVSPost2010Prop51ColorIndex
 90
      256
102
RTVSPost2010Prop51ColorRGB
 90
-16777216
102
RTVSPost2010PropOp51
 70
     0
102
RTVSPost2010Prop52
140
1.0
102
RTVSPost2010PropOp52
 70
     0
102
RTVSPost2010Prop53
 90
        2
102
RTVSPost2010PropOp53
 70
     1
102
RTVSPost2010Prop54
  1
strokes_ogs.tif
102
RTVSPost2010PropOp54
 70
     1
102
RTVSPost2010Prop55
280
     0
102
RTVSPost2010PropOp55
 70
     1
102
RTVSPost2010Prop56
140
1.0
102
RTVSPost2010PropOp56
 70
     1
102
RTVSPost2010Prop57
140
1.0
102
RTVSPost2010PropOp57
 70
     1
102
RTVSPropertyOp0
 70
     1
102
RTVSPropertyOp1
 70
     1
102
RTVSPropertyOp2
 70
     1
102
RTVSPropertyOp3
 70
     1
102
RTVSPropertyOp4
 70
     1
102
RTVSPropertyOp5
 70
     1
102
RTVSPropertyOp6
 70
     1
102
RTVSPropertyOp7
 70
     1
102
RTVSPropertyOp8
 70
     1
102
RTVSPropertyOp9
 70
     1
102
RTVSPropertyOp10
 70
     1
102
RTVSPropertyOp11
 70
     1
102
RTVSPropertyOp12
 70
     1
102
RTVSPropertyOp13
 70
     1
102
RTVSPropertyOp14
 70
     1
102
RTVSPropertyOp15
 70
     1
102
RTVSPropertyOp16
 70
     1
102
RTVSPropertyOp17
 70
     1
102
RTVSPropertyOp18
 70
     1
102
RTVSPropertyOp19
 70
     1
102
RTVSPropertyOp20
 70
     1
102
RTVSPropertyOp21
 70
     1
102
RTVSPropertyOp22
 70
     1
102
RTVSPropertyOp23
 70
     1
102
RTVSPropertyOp24
 70
     1
102
RTVSPropertyOp25
 70
     1
102
RTVSPropertyOp26
 70
     1
102
RTVSPropertyOp27
 70
     1
102
RTVSPropertyOp28
 70
     1
102
RTVSPropertyOp29
 70
     1
102
RTVSPropertyOp30
 70
     1
102
RTVSPropertyOp31
 70
     1
102
RTVSPropertyOp32
 70
     1
102
RTVSPropertyOp33
 70
     1
102
RTVSPropertyOp34
 70
     1
102
RTVSPropertyOp35
 70
     1
102
RTVSPropertyOp36
 70
     1
102
RTVSPropertyOp37
 70
     1
102
RTVSPropertyOp38
 70
     1
102
RTVSPropertyOp39
 70
     1
102
RTVSPropertyOp40
 70
     1
102
RTVSPropertyOp41
 70
     1
102
RTVSPropertyOp42
 70
     1
102
RTVSPropertyOp43
 70
     1
102
RTVSPropertyOp44
 70
     1
102
RTVSPropertyOp45
 70
     1
102
RTVSPropertyOp46
 70
     1
102
RTVSPropertyOp47
 70
     1
102
RTVSPropertyOp48
 70
     1
102
RTVSPropertyOp49
 70
     1
102
RTVSPropertyOp50
 70
     1
102
RTVSPropertyOp51
 70
     0
102
RTVSPropertyOp52
 70
     0
102
RTVSPropertyOp53
 70
     1
102
RTVSPropertyOp54
 70
     1
102
RTVSPropertyOp55
 70
     1
102
RTVSPropertyOp56
 70
     1
102
RTVSPropertyOp57
 70
     1
102
RTVSPropertyOp58
 70
     1
102
RTVSPropertyOp59
 70
     1
102
RTVSPropertyOp60
 70
     1
102
RTVSPropertyOp61
 70
     1
102
RTVSPropertyOp62
 70
     1
  0
XRECORD
  5
311
102
{ACAD_REACTORS
330
310
102
}
330
310
100
AcDbXrecord
280
     1
102
RTVSPost2010Prop28
280
     0
102
RTVSPost2010PropOp28
 70
     0
102
RTVSPost2010Prop29
280
     1
102
RTVSPost2010PropOp29
 70
     0
102
RTVSPost2010Prop30
280
     1
102
RTVSPost2010PropOp30
 70
     0
102
RTVSPost2010Prop31
280
     0
102
RTVSPost2010PropOp31
 70
     0
102
RTVSPost2010Prop32
280
     0
102
RTVSPost2010PropOp32
 70
     0
102
RTVSPost2010Prop33
280
     0
102
RTVSPost2010PropOp33
 70
     0
102
RTVSPost2010Prop34
280
     0
102
RTVSPost2010PropOp34
 70
     0
102
RTVSPost2010Prop35
280
     0
102
RTVSPost2010PropOp35
 70
     0
102
RTVSPost2010Prop36
280
     0
102
RTVSPost2010PropOp36
 70
     0
102
RTVSPost2010Prop37
 90
       50
102
RTVSPost2010PropOp37
 70
     0
102
RTVSPost2010Prop38
140
0.0
102
RTVSPost2010PropOp38
 70
     0
102
RTVSPost2010Prop39
140
1.0
102
RTVSPost2010PropOp39
 70
     0
102
RTVSPost2010Prop40
 90
        0
102
RTVSPost2010PropOp40
 70
     0
102
RTVSPost2010Prop41ColorIndex
 90
       18
102
RTVSPost2010Prop41ColorRGB
 90
        0
102
RTVSPost2010PropOp41
 70
     0
102
RTVSPost2010Prop42
 90
       50
102
RTVSPost2010PropOp42
 70
     0
102
RTVSPost2010Prop43
 90
        3
102
RTVSPost2010PropOp43
 70
     0
102
RTVSPost2010Prop44ColorIndex
 90
        5
102
RTVSPost2010Prop44ColorRGB
 90
      255
102
RTVSPost2010PropOp44
 70
     0
102
RTVSPost2010Prop45
280
     0
102
RTVSPost2010PropOp45
 70
     0
102
RTVSPost2010Prop46
 90
       50
102
RTVSPost2010PropOp46
 70
     0
102
RTVSPost2010Prop47
 90
       50
102
RTVSPost2010PropOp47
 70
     0
102
RTVSPost2010Prop48
 90
       50
102
RTVSPost2010PropOp48
 70
     0
102
RTVSPost2010Prop49
280
     0
102
RTVSPost2010PropOp49
 70
     0
102
RTVSPost2010Prop50
 90
       50
102
RTVSPost2010PropOp50
 70
     0
102
RTVSPost2010Prop51ColorIndex
 90
      256
102
RTVSPost2010Prop51ColorRGB
 90
-16777216
102
RTVSPost2010PropOp51
 70
     0
102
RTVSPost2010Prop52
140
1.0
102
RTVSPost2010PropOp52
 70
     0
102
RTVSPost2010Prop53
 90
        2
102
RTVSPost2010PropOp53
 70
     0
102
RTVSPost2010Prop54
  1
strokes_ogs.tif
102
RTVSPost2010PropOp54
 70
     0
102
RTVSPost2010Prop55
280
     0
102
RTVSPost2010PropOp55
 70
     0
102
RTVSPost2010Prop56
140
1.0
102
RTVSPost2010PropOp56
 70
     0
102
RTVSPost2010Prop57
140
1.0
102
RTVSPost2010PropOp57
 70
     0
102
RTVSPropertyOp0
 70
     0
102
RTVSPropertyOp1
 70
     0
102
RTVSPropertyOp2
 70
     0
102
RTVSPropertyOp3
 70
     0
102
RTVSPropertyOp4
 70
     0
102
RTVSPropertyOp5
 70
     0
102
RTVSPropertyOp6
 70
     0
102
RTVSPropertyOp7
 70
     0
102
RTVSPropertyOp8
 70
     0
102
RTVSPropertyOp9
 70
     0
102
RTVSPropertyOp10
 70
     0
102
RTVSPropertyOp11
 70
     0
102
RTVSPropertyOp12
 70
     0
102
RTVSPropertyOp13
 70
     0
102
RTVSPropertyOp14
 70
     2
102
RTVSPropertyOp15
 70
     0
102
RTVSPropertyOp16
 70
     0
102
RTVSPropertyOp17
 70
     0
102
RTVSPropertyOp18
 70
     0
102
RTVSPropertyOp19
 70
     0
102
RTVSPropertyOp20
 70
     0
102
RTVSPropertyOp21
 70
     0
102
RTVSPropertyOp22
 70
     0
102
RTVSPropertyOp23
 70
     0
102
RTVSPropertyOp24
 70
     0
102
RTVSPropertyOp25
 70
     0
102
RTVSPropertyOp26
 70
     0
102
RTVSPropertyOp27
 70
     0
102
RTVSPropertyOp28
 70
     0
102
RTVSPropertyOp29
 70
     0
102
RTVSPropertyOp30
 70
     0
102
RTVSPropertyOp31
 70
     0
102
RTVSPropertyOp32
 70
     0
102
RTVSPropertyOp33
 70
     0
102
RTVSPropertyOp34
 70
     0
102
RTVSPropertyOp35
 70
     0
102
RTVSPropertyOp36
 70
     0
102
RTVSPropertyOp37
 70
     0
102
RTVSPropertyOp38
 70
     0
102
RTVSPropertyOp39
 70
     0
102
RTVSPropertyOp40
 70
     0
102
RTVSPropertyOp41
 70
     0
102
RTVSPropertyOp42
 70
     0
102
RTVSPropertyOp43
 70
     0
102
RTVSPropertyOp44
 70
     0
102
RTVSPropertyOp45
 70
     0
102
RTVSPropertyOp46
 70
     0
102
RTVSPropertyOp47
 70
     0
102
RTVSPropertyOp48
 70
     0
102
RTVSPropertyOp49
 70
     0
102
RTVSPropertyOp50
 70
     0
102
RTVSPropertyOp51
 70
     0
102
RTVSPropertyOp52
 70
     0
102
RTVSPropertyOp53
 70
     0
102
RTVSPropertyOp54
 70
     0
102
RTVSPropertyOp55
 70
     0
102
RTVSPropertyOp56
 70
     0
102
RTVSPropertyOp57
 70
     0
102
RTVSPropertyOp58
 70
     0
102
RTVSPropertyOp59
 70
     0
102
RTVSPropertyOp60
 70
     0
102
RTVSPropertyOp61
 70
     0
102
RTVSPropertyOp62
 70
     0
  0
XRECORD
  5
2FF
102
{ACAD_REACTORS
330
2FE
102
}
330
2FE
100
AcDbXrecord
280
     1
102
RTVSPost2010Prop28
280
     0
102
RTVSPost2010PropOp28
 70
     1
102
RTVSPost2010Prop29
280
     1
102
RTVSPost2010PropOp29
 70
     1
102
RTVSPost2010Prop30
280
     1
102
RTVSPost2010PropOp30
 70
     1
102
RTVSPost2010Prop31
280
     0
102
RTVSPost2010PropOp31
 70
     1
102
RTVSPost2010Prop32
280
     0
102
RTVSPost2010PropOp32
 70
     1
102
RTVSPost2010Prop33
280
     0
102
RTVSPost2010PropOp33
 70
     1
102
RTVSPost2010Prop34
280
     0
102
RTVSPost2010PropOp34
 70
     1
102
RTVSPost2010Prop35
280
     0
102
RTVSPost2010PropOp35
 70
     1
102
RTVSPost2010Prop36
280
     0
102
RTVSPost2010PropOp36
 70
     1
102
RTVSPost2010Prop37
 90
       50
102
RTVSPost2010PropOp37
 70
     1
102
RTVSPost2010Prop38
140
0.0
102
RTVSPost2010PropOp38
 70
     1
102
RTVSPost2010Prop39
140
1.0
102
RTVSPost2010PropOp39
 70
     1
102
RTVSPost2010Prop40
 90
        0
102
RTVSPost2010PropOp40
 70
     1
102
RTVSPost2010Prop41ColorIndex
 90
       18
102
RTVSPost2010Prop41ColorRGB
 90
        0
102
RTVSPost2010PropOp41
 70
     1
102
RTVSPost2010Prop42
 90
       50
102
RTVSPost2010PropOp42
 70
     1
102
RTVSPost2010Prop43
 90
        3
102
RTVSPost2010PropOp43
 70
     1
102
RTVSPost2010Prop44ColorIndex
 90
        5
102
RTVSPost2010Prop44ColorRGB
 90
      255
102
RTVSPost2010PropOp44
 70
     1
102
RTVSPost2010Prop45
280
     0
102
RTVSPost2010PropOp45
 70
     1
102
RTVSPost2010Prop46
 90
       50
102
RTVSPost2010PropOp46
 70
     1
102
RTVSPost2010Prop47
 90
       50
102
RTVSPost2010PropOp47
 70
     1
102
RTVSPost2010Prop48
 90
       50
102
RTVSPost2010PropOp48
 70
     1
102
RTVSPost2010Prop49
280
     0
102
RTVSPost2010PropOp49
 70
     1
102
RTVSPost2010Prop50
 90
       50
102
RTVSPost2010PropOp50
 70
     1
102
RTVSPost2010Prop51ColorIndex
 90
      256
102
RTVSPost2010Prop51ColorRGB
 90
-16777216
102
RTVSPost2010PropOp51
 70
     0
102
RTVSPost2010Prop52
140
1.0
102
RTVSPost2010PropOp52
 70
     0
102
RTVSPost2010Prop53
 90
        2
102
RTVSPost2010PropOp53
 70
     1
102
RTVSPost2010Prop54
  1
strokes_ogs.tif
102
RTVSPost2010PropOp54
 70
     1
102
RTVSPost2010Prop55
280
     0
102
RTVSPost2010PropOp55
 70
     1
102
RTVSPost2010Prop56
140
1.0
102
RTVSPost2010PropOp56
 70
     1
102
RTVSPost2010Prop57
140
1.0
102
RTVSPost2010PropOp57
 70
     1
102
RTVSPropertyOp0
 70
     1
102
RTVSPropertyOp1
 70
     1
102
RTVSPropertyOp2
 70
     1
102
RTVSPropertyOp3
 70
     1
102
RTVSPropertyOp4
 70
     1
102
RTVSPropertyOp5
 70
     1
102
RTVSPropertyOp6
 70
     1
102
RTVSPropertyOp7
 70
     1
102
RTVSPropertyOp8
 70
     1
102
RTVSPropertyOp9
 70
     1
102
RTVSPropertyOp10
 70
     1
102
RTVSPropertyOp11
 70
     1
102
RTVSPropertyOp12
 70
     1
102
RTVSPropertyOp13
 70
     1
102
RTVSPropertyOp14
 70
     1
102
RTVSPropertyOp15
 70
     1
102
RTVSPropertyOp16
 70
     1
102
RTVSPropertyOp17
 70
     1
102
RTVSPropertyOp18
 70
     1
102
RTVSPropertyOp19
 70
     1
102
RTVSPropertyOp20
 70
     1
102
RTVSPropertyOp21
 70
     1
102
RTVSPropertyOp22
 70
     1
102
RTVSPropertyOp23
 70
     1
102
RTVSPropertyOp24
 70
     1
102
RTVSPropertyOp25
 70
     1
102
RTVSPropertyOp26
 70
     1
102
RTVSPropertyOp27
 70
     1
102
RTVSPropertyOp28
 70
     1
102
RTVSPropertyOp29
 70
     1
102
RTVSPropertyOp30
 70
     1
102
RTVSPropertyOp31
 70
     1
102
RTVSPropertyOp32
 70
     1
102
RTVSPropertyOp33
 70
     1
102
RTVSPropertyOp34
 70
     1
102
RTVSPropertyOp35
 70
     1
102
RTVSPropertyOp36
 70
     1
102
RTVSPropertyOp37
 70
     1
102
RTVSPropertyOp38
 70
     1
102
RTVSPropertyOp39
 70
     1
102
RTVSPropertyOp40
 70
     1
102
RTVSPropertyOp41
 70
     1
102
RTVSPropertyOp42
 70
     1
102
RTVSPropertyOp43
 70
     1
102
RTVSPropertyOp44
 70
     1
102
RTVSPropertyOp45
 70
     1
102
RTVSPropertyOp46
 70
     1
102
RTVSPropertyOp47
 70
     1
102
RTVSPropertyOp48
 70
     1
102
RTVSPropertyOp49
 70
     1
102
RTVSPropertyOp50
 70
     1
102
RTVSPropertyOp51
 70
     0
102
RTVSPropertyOp52
 70
     0
102
RTVSPropertyOp53
 70
     1
102
RTVSPropertyOp54
 70
     1
102
RTVSPropertyOp55
 70
     1
102
RTVSPropertyOp56
 70
     1
102
RTVSPropertyOp57
 70
     1
102
RTVSPropertyOp58
 70
     1
102
RTVSPropertyOp59
 70
     1
102
RTVSPropertyOp60
 70
     1
102
RTVSPropertyOp61
 70
     1
102
RTVSPropertyOp62
 70
     1
  0
XRECORD
  5
2E3
102
{ACAD_REACTORS
330
2E2
102
}
330
2E2
100
AcDbXrecord
280
     1
102
RTVSPost2010Prop28
280
     0
102
RTVSPost2010PropOp28
 70
     1
102
RTVSPost2010Prop29
280
     1
102
RTVSPost2010PropOp29
 70
     1
102
RTVSPost2010Prop30
280
     1
102
RTVSPost2010PropOp30
 70
     1
102
RTVSPost2010Prop31
280
     0
102
RTVSPost2010PropOp31
 70
     1
102
RTVSPost2010Prop32
280
     0
102
RTVSPost2010PropOp32
 70
     1
102
RTVSPost2010Prop33
280
     0
102
RTVSPost2010PropOp33
 70
     1
102
RTVSPost2010Prop34
280
     0
102
RTVSPost2010PropOp34
 70
     1
102
RTVSPost2010Prop35
280
     0
102
RTVSPost2010PropOp35
 70
     1
102
RTVSPost2010Prop36
280
     0
102
RTVSPost2010PropOp36
 70
     1
102
RTVSPost2010Prop37
 90
       50
102
RTVSPost2010PropOp37
 70
     1
102
RTVSPost2010Prop38
140
0.0
102
RTVSPost2010PropOp38
 70
     1
102
RTVSPost2010Prop39
140
1.0
102
RTVSPost2010PropOp39
 70
     1
102
RTVSPost2010Prop40
 90
        0
102
RTVSPost2010PropOp40
 70
     1
102
RTVSPost2010Prop41ColorIndex
 90
       18
102
RTVSPost2010Prop41ColorRGB
 90
        0
102
RTVSPost2010PropOp41
 70
     1
102
RTVSPost2010Prop42
 90
       50
102
RTVSPost2010PropOp42
 70
     1
102
RTVSPost2010Prop43
 90
        3
102
RTVSPost2010PropOp43
 70
     1
102
RTVSPost2010Prop44ColorIndex
 90
        5
102
RTVSPost2010Prop44ColorRGB
 90
      255
102
RTVSPost2010PropOp44
 70
     1
102
RTVSPost2010Prop45
280
     0
102
RTVSPost2010PropOp45
 70
     1
102
RTVSPost2010Prop46
 90
       50
102
RTVSPost2010PropOp46
 70
     1
102
RTVSPost2010Prop47
 90
       50
102
RTVSPost2010PropOp47
 70
     1
102
RTVSPost2010Prop48
 90
       50
102
RTVSPost2010PropOp48
 70
     1
102
RTVSPost2010Prop49
280
     0
102
RTVSPost2010PropOp49
 70
     1
102
RTVSPost2010Prop50
 90
       50
102
RTVSPost2010PropOp50
 70
     1
102
RTVSPost2010Prop51ColorIndex
 90
      256
102
RTVSPost2010Prop51ColorRGB
 90
-16777216
102
RTVSPost2010PropOp51
 70
     0
102
RTVSPost2010Prop52
140
1.0
102
RTVSPost2010PropOp52
 70
     0
102
RTVSPost2010Prop53
 90
        2
102
RTVSPost2010PropOp53
 70
     1
102
RTVSPost2010Prop54
  1
strokes_ogs.tif
102
RTVSPost2010PropOp54
 70
     1
102
RTVSPost2010Prop55
280
     0
102
RTVSPost2010PropOp55
 70
     1
102
RTVSPost2010Prop56
140
1.0
102
RTVSPost2010PropOp56
 70
     1
102
RTVSPost2010Prop57
140
1.0
102
RTVSPost2010PropOp57
 70
     1
102
RTVSPropertyOp0
 70
     1
102
RTVSPropertyOp1
 70
     1
102
RTVSPropertyOp2
 70
     1
102
RTVSPropertyOp3
 70
     1
102
RTVSPropertyOp4
 70
     1
102
RTVSPropertyOp5
 70
     1
102
RTVSPropertyOp6
 70
     1
102
RTVSPropertyOp7
 70
     1
102
RTVSPropertyOp8
 70
     1
102
RTVSPropertyOp9
 70
     1
102
RTVSPropertyOp10
 70
     1
102
RTVSPropertyOp11
 70
     1
102
RTVSPropertyOp12
 70
     1
102
RTVSPropertyOp13
 70
     1
102
RTVSPropertyOp14
 70
     1
102
RTVSPropertyOp15
 70
     1
102
RTVSPropertyOp16
 70
     1
102
RTVSPropertyOp17
 70
     1
102
RTVSPropertyOp18
 70
     1
102
RTVSPropertyOp19
 70
     1
102
RTVSPropertyOp20
 70
     1
102
RTVSPropertyOp21
 70
     1
102
RTVSPropertyOp22
 70
     1
102
RTVSPropertyOp23
 70
     1
102
RTVSPropertyOp24
 70
     1
102
RTVSPropertyOp25
 70
     1
102
RTVSPropertyOp26
 70
     1
102
RTVSPropertyOp27
 70
     1
102
RTVSPropertyOp28
 70
     1
102
RTVSPropertyOp29
 70
     1
102
RTVSPropertyOp30
 70
     1
102
RTVSPropertyOp31
 70
     1
102
RTVSPropertyOp32
 70
     1
102
RTVSPropertyOp33
 70
     1
102
RTVSPropertyOp34
 70
     1
102
RTVSPropertyOp35
 70
     1
102
RTVSPropertyOp36
 70
     1
102
RTVSPropertyOp37
 70
     1
102
RTVSPropertyOp38
 70
     1
102
RTVSPropertyOp39
 70
     1
102
RTVSPropertyOp40
 70
     1
102
RTVSPropertyOp41
 70
     1
102
RTVSPropertyOp42
 70
     1
102
RTVSPropertyOp43
 70
     1
102
RTVSPropertyOp44
 70
     1
102
RTVSPropertyOp45
 70
     1
102
RTVSPropertyOp46
 70
     1
102
RTVSPropertyOp47
 70
     1
102
RTVSPropertyOp48
 70
     1
102
RTVSPropertyOp49
 70
     1
102
RTVSPropertyOp50
 70
     1
102
RTVSPropertyOp51
 70
     0
102
RTVSPropertyOp52
 70
     0
102
RTVSPropertyOp53
 70
     1
102
RTVSPropertyOp54
 70
     1
102
RTVSPropertyOp55
 70
     1
102
RTVSPropertyOp56
 70
     1
102
RTVSPropertyOp57
 70
     1
102
RTVSPropertyOp58
 70
     1
102
RTVSPropertyOp59
 70
     1
102
RTVSPropertyOp60
 70
     1
102
RTVSPropertyOp61
 70
     1
102
RTVSPropertyOp62
 70
     1
  0
XRECORD
  5
2E5
102
{ACAD_REACTORS
330
2E4
102
}
330
2E4
100
AcDbXrecord
280
     1
102
RTVSPost2010Prop28
280
     0
102
RTVSPost2010PropOp28
 70
     1
102
RTVSPost2010Prop29
280
     1
102
RTVSPost2010PropOp29
 70
     1
102
RTVSPost2010Prop30
280
     1
102
RTVSPost2010PropOp30
 70
     1
102
RTVSPost2010Prop31
280
     0
102
RTVSPost2010PropOp31
 70
     1
102
RTVSPost2010Prop32
280
     0
102
RTVSPost2010PropOp32
 70
     1
102
RTVSPost2010Prop33
280
     0
102
RTVSPost2010PropOp33
 70
     1
102
RTVSPost2010Prop34
280
     0
102
RTVSPost2010PropOp34
 70
     1
102
RTVSPost2010Prop35
280
     0
102
RTVSPost2010PropOp35
 70
     1
102
RTVSPost2010Prop36
280
     0
102
RTVSPost2010PropOp36
 70
     1
102
RTVSPost2010Prop37
 90
       50
102
RTVSPost2010PropOp37
 70
     1
102
RTVSPost2010Prop38
140
0.0
102
RTVSPost2010PropOp38
 70
     1
102
RTVSPost2010Prop39
140
1.0
102
RTVSPost2010PropOp39
 70
     1
102
RTVSPost2010Prop40
 90
        0
102
RTVSPost2010PropOp40
 70
     1
102
RTVSPost2010Prop41ColorIndex
 90
       18
102
RTVSPost2010Prop41ColorRGB
 90
        0
102
RTVSPost2010PropOp41
 70
     1
102
RTVSPost2010Prop42
 90
       50
102
RTVSPost2010PropOp42
 70
     1
102
RTVSPost2010Prop43
 90
        3
102
RTVSPost2010PropOp43
 70
     1
102
RTVSPost2010Prop44ColorIndex
 90
        5
102
RTVSPost2010Prop44ColorRGB
 90
      255
102
RTVSPost2010PropOp44
 70
     1
102
RTVSPost2010Prop45
280
     0
102
RTVSPost2010PropOp45
 70
     1
102
RTVSPost2010Prop46
 90
       50
102
RTVSPost2010PropOp46
 70
     1
102
RTVSPost2010Prop47
 90
       50
102
RTVSPost2010PropOp47
 70
     1
102
RTVSPost2010Prop48
 90
       50
102
RTVSPost2010PropOp48
 70
     1
102
RTVSPost2010Prop49
280
     0
102
RTVSPost2010PropOp49
 70
     1
102
RTVSPost2010Prop50
 90
       50
102
RTVSPost2010PropOp50
 70
     1
102
RTVSPost2010Prop51ColorIndex
 90
      256
102
RTVSPost2010Prop51ColorRGB
 90
-16777216
102
RTVSPost2010PropOp51
 70
     0
102
RTVSPost2010Prop52
140
1.0
102
RTVSPost2010PropOp52
 70
     0
102
RTVSPost2010Prop53
 90
        2
102
RTVSPost2010PropOp53
 70
     1
102
RTVSPost2010Prop54
  1
strokes_ogs.tif
102
RTVSPost2010PropOp54
 70
     1
102
RTVSPost2010Prop55
280
     0
102
RTVSPost2010PropOp55
 70
     1
102
RTVSPost2010Prop56
140
1.0
102
RTVSPost2010PropOp56
 70
     1
102
RTVSPost2010Prop57
140
1.0
102
RTVSPost2010PropOp57
 70
     1
102
RTVSPropertyOp0
 70
     1
102
RTVSPropertyOp1
 70
     1
102
RTVSPropertyOp2
 70
     1
102
RTVSPropertyOp3
 70
     1
102
RTVSPropertyOp4
 70
     1
102
RTVSPropertyOp5
 70
     1
102
RTVSPropertyOp6
 70
     1
102
RTVSPropertyOp7
 70
     1
102
RTVSPropertyOp8
 70
     1
102
RTVSPropertyOp9
 70
     1
102
RTVSPropertyOp10
 70
     1
102
RTVSPropertyOp11
 70
     1
102
RTVSPropertyOp12
 70
     1
102
RTVSPropertyOp13
 70
     1
102
RTVSPropertyOp14
 70
     1
102
RTVSPropertyOp15
 70
     1
102
RTVSPropertyOp16
 70
     1
102
RTVSPropertyOp17
 70
     1
102
RTVSPropertyOp18
 70
     1
102
RTVSPropertyOp19
 70
     1
102
RTVSPropertyOp20
 70
     1
102
RTVSPropertyOp21
 70
     1
102
RTVSPropertyOp22
 70
     1
102
RTVSPropertyOp23
 70
     1
102
RTVSPropertyOp24
 70
     1
102
RTVSPropertyOp25
 70
     1
102
RTVSPropertyOp26
 70
     1
102
RTVSPropertyOp27
 70
     1
102
RTVSPropertyOp28
 70
     1
102
RTVSPropertyOp29
 70
     1
102
RTVSPropertyOp30
 70
     1
102
RTVSPropertyOp31
 70
     1
102
RTVSPropertyOp32
 70
     1
102
RTVSPropertyOp33
 70
     1
102
RTVSPropertyOp34
 70
     1
102
RTVSPropertyOp35
 70
     1
102
RTVSPropertyOp36
 70
     1
102
RTVSPropertyOp37
 70
     1
102
RTVSPropertyOp38
 70
     1
102
RTVSPropertyOp39
 70
     1
102
RTVSPropertyOp40
 70
     1
102
RTVSPropertyOp41
 70
     1
102
RTVSPropertyOp42
 70
     1
102
RTVSPropertyOp43
 70
     1
102
RTVSPropertyOp44
 70
     1
102
RTVSPropertyOp45
 70
     1
102
RTVSPropertyOp46
 70
     1
102
RTVSPropertyOp47
 70
     1
102
RTVSPropertyOp48
 70
     1
102
RTVSPropertyOp49
 70
     1
102
RTVSPropertyOp50
 70
     1
102
RTVSPropertyOp51
 70
     0
102
RTVSPropertyOp52
 70
     0
102
RTVSPropertyOp53
 70
     1
102
RTVSPropertyOp54
 70
     1
102
RTVSPropertyOp55
 70
     1
102
RTVSPropertyOp56
 70
     1
102
RTVSPropertyOp57
 70
     1
102
RTVSPropertyOp58
 70
     1
102
RTVSPropertyOp59
 70
     1
102
RTVSPropertyOp60
 70
     1
102
RTVSPropertyOp61
 70
     1
102
RTVSPropertyOp62
 70
     1
  0
XRECORD
  5
2E7
102
{ACAD_REACTORS
330
2E6
102
}
330
2E6
100
AcDbXrecord
280
     1
102
RTVSPost2010Prop28
280
     0
102
RTVSPost2010PropOp28
 70
     1
102
RTVSPost2010Prop29
280
     1
102
RTVSPost2010PropOp29
 70
     1
102
RTVSPost2010Prop30
280
     1
102
RTVSPost2010PropOp30
 70
     1
102
RTVSPost2010Prop31
280
     0
102
RTVSPost2010PropOp31
 70
     1
102
RTVSPost2010Prop32
280
     0
102
RTVSPost2010PropOp32
 70
     1
102
RTVSPost2010Prop33
280
     0
102
RTVSPost2010PropOp33
 70
     1
102
RTVSPost2010Prop34
280
     0
102
RTVSPost2010PropOp34
 70
     1
102
RTVSPost2010Prop35
280
     0
102
RTVSPost2010PropOp35
 70
     1
102
RTVSPost2010Prop36
280
     0
102
RTVSPost2010PropOp36
 70
     1
102
RTVSPost2010Prop37
 90
       50
102
RTVSPost2010PropOp37
 70
     1
102
RTVSPost2010Prop38
140
0.0
102
RTVSPost2010PropOp38
 70
     1
102
RTVSPost2010Prop39
140
1.0
102
RTVSPost2010PropOp39
 70
     1
102
RTVSPost2010Prop40
 90
        0
102
RTVSPost2010PropOp40
 70
     1
102
RTVSPost2010Prop41ColorIndex
 90
       18
102
RTVSPost2010Prop41ColorRGB
 90
        0
102
RTVSPost2010PropOp41
 70
     1
102
RTVSPost2010Prop42
 90
       50
102
RTVSPost2010PropOp42
 70
     1
102
RTVSPost2010Prop43
 90
        3
102
RTVSPost2010PropOp43
 70
     1
102
RTVSPost2010Prop44ColorIndex
 90
        5
102
RTVSPost2010Prop44ColorRGB
 90
      255
102
RTVSPost2010PropOp44
 70
     1
102
RTVSPost2010Prop45
280
     0
102
RTVSPost2010PropOp45
 70
     1
102
RTVSPost2010Prop46
 90
       50
102
RTVSPost2010PropOp46
 70
     1
102
RTVSPost2010Prop47
 90
       50
102
RTVSPost2010PropOp47
 70
     1
102
RTVSPost2010Prop48
 90
       50
102
RTVSPost2010PropOp48
 70
     1
102
RTVSPost2010Prop49
280
     0
102
RTVSPost2010PropOp49
 70
     1
102
RTVSPost2010Prop50
 90
       50
102
RTVSPost2010PropOp50
 70
     1
102
RTVSPost2010Prop51ColorIndex
 90
      256
102
RTVSPost2010Prop51ColorRGB
 90
-16777216
102
RTVSPost2010PropOp51
 70
     0
102
RTVSPost2010Prop52
140
1.0
102
RTVSPost2010PropOp52
 70
     0
102
RTVSPost2010Prop53
 90
        2
102
RTVSPost2010PropOp53
 70
     1
102
RTVSPost2010Prop54
  1
strokes_ogs.tif
102
RTVSPost2010PropOp54
 70
     1
102
RTVSPost2010Prop55
280
     0
102
RTVSPost2010PropOp55
 70
     1
102
RTVSPost2010Prop56
140
1.0
102
RTVSPost2010PropOp56
 70
     1
102
RTVSPost2010Prop57
140
1.0
102
RTVSPost2010PropOp57
 70
     1
102
RTVSPropertyOp0
 70
     1
102
RTVSPropertyOp1
 70
     1
102
RTVSPropertyOp2
 70
     1
102
RTVSPropertyOp3
 70
     1
102
RTVSPropertyOp4
 70
     1
102
RTVSPropertyOp5
 70
     1
102
RTVSPropertyOp6
 70
     1
102
RTVSPropertyOp7
 70
     1
102
RTVSPropertyOp8
 70
     1
102
RTVSPropertyOp9
 70
     1
102
RTVSPropertyOp10
 70
     1
102
RTVSPropertyOp11
 70
     1
102
RTVSPropertyOp12
 70
     1
102
RTVSPropertyOp13
 70
     1
102
RTVSPropertyOp14
 70
     1
102
RTVSPropertyOp15
 70
     1
102
RTVSPropertyOp16
 70
     1
102
RTVSPropertyOp17
 70
     1
102
RTVSPropertyOp18
 70
     1
102
RTVSPropertyOp19
 70
     1
102
RTVSPropertyOp20
 70
     1
102
RTVSPropertyOp21
 70
     1
102
RTVSPropertyOp22
 70
     1
102
RTVSPropertyOp23
 70
     1
102
RTVSPropertyOp24
 70
     1
102
RTVSPropertyOp25
 70
     1
102
RTVSPropertyOp26
 70
     1
102
RTVSPropertyOp27
 70
     1
102
RTVSPropertyOp28
 70
     1
102
RTVSPropertyOp29
 70
     1
102
RTVSPropertyOp30
 70
     1
102
RTVSPropertyOp31
 70
     1
102
RTVSPropertyOp32
 70
     1
102
RTVSPropertyOp33
 70
     1
102
RTVSPropertyOp34
 70
     1
102
RTVSPropertyOp35
 70
     1
102
RTVSPropertyOp36
 70
     1
102
RTVSPropertyOp37
 70
     1
102
RTVSPropertyOp38
 70
     1
102
RTVSPropertyOp39
 70
     1
102
RTVSPropertyOp40
 70
     1
102
RTVSPropertyOp41
 70
     1
102
RTVSPropertyOp42
 70
     1
102
RTVSPropertyOp43
 70
     1
102
RTVSPropertyOp44
 70
     1
102
RTVSPropertyOp45
 70
     1
102
RTVSPropertyOp46
 70
     1
102
RTVSPropertyOp47
 70
     1
102
RTVSPropertyOp48
 70
     1
102
RTVSPropertyOp49
 70
     1
102
RTVSPropertyOp50
 70
     1
102
RTVSPropertyOp51
 70
     0
102
RTVSPropertyOp52
 70
     0
102
RTVSPropertyOp53
 70
     1
102
RTVSPropertyOp54
 70
     1
102
RTVSPropertyOp55
 70
     1
102
RTVSPropertyOp56
 70
     1
102
RTVSPropertyOp57
 70
     1
102
RTVSPropertyOp58
 70
     1
102
RTVSPropertyOp59
 70
     1
102
RTVSPropertyOp60
 70
     1
102
RTVSPropertyOp61
 70
     1
102
RTVSPropertyOp62
 70
     1
  0
XRECORD
  5
2E9
102
{ACAD_REACTORS
330
2E8
102
}
330
2E8
100
AcDbXrecord
280
     1
102
RTVSPost2010Prop28
280
     0
102
RTVSPost2010PropOp28
 70
     1
102
RTVSPost2010Prop29
280
     1
102
RTVSPost2010PropOp29
 70
     1
102
RTVSPost2010Prop30
280
     1
102
RTVSPost2010PropOp30
 70
     1
102
RTVSPost2010Prop31
280
     0
102
RTVSPost2010PropOp31
 70
     1
102
RTVSPost2010Prop32
280
     0
102
RTVSPost2010PropOp32
 70
     1
102
RTVSPost2010Prop33
280
     0
102
RTVSPost2010PropOp33
 70
     1
102
RTVSPost2010Prop34
280
     0
102
RTVSPost2010PropOp34
 70
     1
102
RTVSPost2010Prop35
280
     0
102
RTVSPost2010PropOp35
 70
     1
102
RTVSPost2010Prop36
280
     0
102
RTVSPost2010PropOp36
 70
     1
102
RTVSPost2010Prop37
 90
       50
102
RTVSPost2010PropOp37
 70
     1
102
RTVSPost2010Prop38
140
0.0
102
RTVSPost2010PropOp38
 70
     1
102
RTVSPost2010Prop39
140
1.0
102
RTVSPost2010PropOp39
 70
     1
102
RTVSPost2010Prop40
 90
        0
102
RTVSPost2010PropOp40
 70
     1
102
RTVSPost2010Prop41ColorIndex
 90
       18
102
RTVSPost2010Prop41ColorRGB
 90
        0
102
RTVSPost2010PropOp41
 70
     1
102
RTVSPost2010Prop42
 90
       50
102
RTVSPost2010PropOp42
 70
     1
102
RTVSPost2010Prop43
 90
        3
102
RTVSPost2010PropOp43
 70
     1
102
RTVSPost2010Prop44ColorIndex
 90
        5
102
RTVSPost2010Prop44ColorRGB
 90
      255
102
RTVSPost2010PropOp44
 70
     1
102
RTVSPost2010Prop45
280
     0
102
RTVSPost2010PropOp45
 70
     1
102
RTVSPost2010Prop46
 90
       50
102
RTVSPost2010PropOp46
 70
     1
102
RTVSPost2010Prop47
 90
       50
102
RTVSPost2010PropOp47
 70
     1
102
RTVSPost2010Prop48
 90
       50
102
RTVSPost2010PropOp48
 70
     1
102
RTVSPost2010Prop49
280
     0
102
RTVSPost2010PropOp49
 70
     1
102
RTVSPost2010Prop50
 90
       50
102
RTVSPost2010PropOp50
 70
     1
102
RTVSPost2010Prop51ColorIndex
 90
      256
102
RTVSPost2010Prop51ColorRGB
 90
-16777216
102
RTVSPost2010PropOp51
 70
     0
102
RTVSPost2010Prop52
140
1.0
102
RTVSPost2010PropOp52
 70
     0
102
RTVSPost2010Prop53
 90
        2
102
RTVSPost2010PropOp53
 70
     1
102
RTVSPost2010Prop54
  1
strokes_ogs.tif
102
RTVSPost2010PropOp54
 70
     1
102
RTVSPost2010Prop55
280
     0
102
RTVSPost2010PropOp55
 70
     1
102
RTVSPost2010Prop56
140
1.0
102
RTVSPost2010PropOp56
 70
     1
102
RTVSPost2010Prop57
140
1.0
102
RTVSPost2010PropOp57
 70
     1
102
RTVSPropertyOp0
 70
     1
102
RTVSPropertyOp1
 70
     1
102
RTVSPropertyOp2
 70
     1
102
RTVSPropertyOp3
 70
     1
102
RTVSPropertyOp4
 70
     1
102
RTVSPropertyOp5
 70
     1
102
RTVSPropertyOp6
 70
     1
102
RTVSPropertyOp7
 70
     1
102
RTVSPropertyOp8
 70
     1
102
RTVSPropertyOp9
 70
     1
102
RTVSPropertyOp10
 70
     1
102
RTVSPropertyOp11
 70
     1
102
RTVSPropertyOp12
 70
     1
102
RTVSPropertyOp13
 70
     1
102
RTVSPropertyOp14
 70
     1
102
RTVSPropertyOp15
 70
     1
102
RTVSPropertyOp16
 70
     1
102
RTVSPropertyOp17
 70
     1
102
RTVSPropertyOp18
 70
     1
102
RTVSPropertyOp19
 70
     1
102
RTVSPropertyOp20
 70
     1
102
RTVSPropertyOp21
 70
     1
102
RTVSPropertyOp22
 70
     1
102
RTVSPropertyOp23
 70
     1
102
RTVSPropertyOp24
 70
     1
102
RTVSPropertyOp25
 70
     1
102
RTVSPropertyOp26
 70
     1
102
RTVSPropertyOp27
 70
     1
102
RTVSPropertyOp28
 70
     1
102
RTVSPropertyOp29
 70
     1
102
RTVSPropertyOp30
 70
     1
102
RTVSPropertyOp31
 70
     1
102
RTVSPropertyOp32
 70
     1
102
RTVSPropertyOp33
 70
     1
102
RTVSPropertyOp34
 70
     1
102
RTVSPropertyOp35
 70
     1
102
RTVSPropertyOp36
 70
     1
102
RTVSPropertyOp37
 70
     1
102
RTVSPropertyOp38
 70
     1
102
RTVSPropertyOp39
 70
     1
102
RTVSPropertyOp40
 70
     1
102
RTVSPropertyOp41
 70
     1
102
RTVSPropertyOp42
 70
     1
102
RTVSPropertyOp43
 70
     1
102
RTVSPropertyOp44
 70
     1
102
RTVSPropertyOp45
 70
     1
102
RTVSPropertyOp46
 70
     1
102
RTVSPropertyOp47
 70
     1
102
RTVSPropertyOp48
 70
     1
102
RTVSPropertyOp49
 70
     1
102
RTVSPropertyOp50
 70
     1
102
RTVSPropertyOp51
 70
     0
102
RTVSPropertyOp52
 70
     0
102
RTVSPropertyOp53
 70
     1
102
RTVSPropertyOp54
 70
     1
102
RTVSPropertyOp55
 70
     1
102
RTVSPropertyOp56
 70
     1
102
RTVSPropertyOp57
 70
     1
102
RTVSPropertyOp58
 70
     1
102
RTVSPropertyOp59
 70
     1
102
RTVSPropertyOp60
 70
     1
102
RTVSPropertyOp61
 70
     1
102
RTVSPropertyOp62
 70
     1
  0
XRECORD
  5
2F1
102
{ACAD_REACTORS
330
2F0
102
}
330
2F0
100
AcDbXrecord
280
     1
102
RTVSPost2010Prop28
280
     0
102
RTVSPost2010PropOp28
 70
     1
102
RTVSPost2010Prop29
280
     1
102
RTVSPost2010PropOp29
 70
     1
102
RTVSPost2010Prop30
280
     1
102
RTVSPost2010PropOp30
 70
     1
102
RTVSPost2010Prop31
280
     0
102
RTVSPost2010PropOp31
 70
     1
102
RTVSPost2010Prop32
280
     0
102
RTVSPost2010PropOp32
 70
     1
102
RTVSPost2010Prop33
280
     0
102
RTVSPost2010PropOp33
 70
     1
102
RTVSPost2010Prop34
280
     0
102
RTVSPost2010PropOp34
 70
     1
102
RTVSPost2010Prop35
280
     0
102
RTVSPost2010PropOp35
 70
     1
102
RTVSPost2010Prop36
280
     0
102
RTVSPost2010PropOp36
 70
     1
102
RTVSPost2010Prop37
 90
       50
102
RTVSPost2010PropOp37
 70
     1
102
RTVSPost2010Prop38
140
0.0
102
RTVSPost2010PropOp38
 70
     1
102
RTVSPost2010Prop39
140
1.0
102
RTVSPost2010PropOp39
 70
     1
102
RTVSPost2010Prop40
 90
        0
102
RTVSPost2010PropOp40
 70
     1
102
RTVSPost2010Prop41ColorIndex
 90
       18
102
RTVSPost2010Prop41ColorRGB
 90
        0
102
RTVSPost2010PropOp41
 70
     1
102
RTVSPost2010Prop42
 90
       50
102
RTVSPost2010PropOp42
 70
     1
102
RTVSPost2010Prop43
 90
        3
102
RTVSPost2010PropOp43
 70
     1
102
RTVSPost2010Prop44ColorIndex
 90
        5
102
RTVSPost2010Prop44ColorRGB
 90
      255
102
RTVSPost2010PropOp44
 70
     1
102
RTVSPost2010Prop45
280
     0
102
RTVSPost2010PropOp45
 70
     1
102
RTVSPost2010Prop46
 90
       50
102
RTVSPost2010PropOp46
 70
     1
102
RTVSPost2010Prop47
 90
       50
102
RTVSPost2010PropOp47
 70
     1
102
RTVSPost2010Prop48
 90
       50
102
RTVSPost2010PropOp48
 70
     1
102
RTVSPost2010Prop49
280
     0
102
RTVSPost2010PropOp49
 70
     1
102
RTVSPost2010Prop50
 90
       50
102
RTVSPost2010PropOp50
 70
     1
102
RTVSPost2010Prop51ColorIndex
 90
      256
102
RTVSPost2010Prop51ColorRGB
 90
-16777216
102
RTVSPost2010PropOp51
 70
     0
102
RTVSPost2010Prop52
140
1.0
102
RTVSPost2010PropOp52
 70
     0
102
RTVSPost2010Prop53
 90
        2
102
RTVSPost2010PropOp53
 70
     1
102
RTVSPost2010Prop54
  1
strokes_ogs.tif
102
RTVSPost2010PropOp54
 70
     1
102
RTVSPost2010Prop55
280
     0
102
RTVSPost2010PropOp55
 70
     1
102
RTVSPost2010Prop56
140
1.0
102
RTVSPost2010PropOp56
 70
     1
102
RTVSPost2010Prop57
140
1.0
102
RTVSPost2010PropOp57
 70
     1
102
RTVSPropertyOp0
 70
     1
102
RTVSPropertyOp1
 70
     1
102
RTVSPropertyOp2
 70
     1
102
RTVSPropertyOp3
 70
     1
102
RTVSPropertyOp4
 70
     1
102
RTVSPropertyOp5
 70
     1
102
RTVSPropertyOp6
 70
     1
102
RTVSPropertyOp7
 70
     1
102
RTVSPropertyOp8
 70
     1
102
RTVSPropertyOp9
 70
     1
102
RTVSPropertyOp10
 70
     1
102
RTVSPropertyOp11
 70
     1
102
RTVSPropertyOp12
 70
     1
102
RTVSPropertyOp13
 70
     1
102
RTVSPropertyOp14
 70
     1
102
RTVSPropertyOp15
 70
     1
102
RTVSPropertyOp16
 70
     1
102
RTVSPropertyOp17
 70
     1
102
RTVSPropertyOp18
 70
     1
102
RTVSPropertyOp19
 70
     1
102
RTVSPropertyOp20
 70
     1
102
RTVSPropertyOp21
 70
     1
102
RTVSPropertyOp22
 70
     1
102
RTVSPropertyOp23
 70
     1
102
RTVSPropertyOp24
 70
     1
102
RTVSPropertyOp25
 70
     1
102
RTVSPropertyOp26
 70
     1
102
RTVSPropertyOp27
 70
     1
102
RTVSPropertyOp28
 70
     1
102
RTVSPropertyOp29
 70
     1
102
RTVSPropertyOp30
 70
     1
102
RTVSPropertyOp31
 70
     1
102
RTVSPropertyOp32
 70
     1
102
RTVSPropertyOp33
 70
     1
102
RTVSPropertyOp34
 70
     1
102
RTVSPropertyOp35
 70
     1
102
RTVSPropertyOp36
 70
     1
102
RTVSPropertyOp37
 70
     1
102
RTVSPropertyOp38
 70
     1
102
RTVSPropertyOp39
 70
     1
102
RTVSPropertyOp40
 70
     1
102
RTVSPropertyOp41
 70
     1
102
RTVSPropertyOp42
 70
     1
102
RTVSPropertyOp43
 70
     1
102
RTVSPropertyOp44
 70
     1
102
RTVSPropertyOp45
 70
     1
102
RTVSPropertyOp46
 70
     1
102
RTVSPropertyOp47
 70
     1
102
RTVSPropertyOp48
 70
     1
102
RTVSPropertyOp49
 70
     1
102
RTVSPropertyOp50
 70
     1
102
RTVSPropertyOp51
 70
     0
102
RTVSPropertyOp52
 70
     0
102
RTVSPropertyOp53
 70
     1
102
RTVSPropertyOp54
 70
     1
102
RTVSPropertyOp55
 70
     1
102
RTVSPropertyOp56
 70
     1
102
RTVSPropertyOp57
 70
     1
102
RTVSPropertyOp58
 70
     1
102
RTVSPropertyOp59
 70
     1
102
RTVSPropertyOp60
 70
     1
102
RTVSPropertyOp61
 70
     1
102
RTVSPropertyOp62
 70
     1
  0
XRECORD
  5
30D
102
{ACAD_REACTORS
330
30C
102
}
330
30C
100
AcDbXrecord
280
     1
102
RTVSPost2010Prop28
280
     0
102
RTVSPost2010PropOp28
 70
     0
102
RTVSPost2010Prop29
280
     1
102
RTVSPost2010PropOp29
 70
     0
102
RTVSPost2010Prop30
280
     1
102
RTVSPost2010PropOp30
 70
     0
102
RTVSPost2010Prop31
280
     0
102
RTVSPost2010PropOp31
 70
     0
102
RTVSPost2010Prop32
280
     0
102
RTVSPost2010PropOp32
 70
     0
102
RTVSPost2010Prop33
280
     0
102
RTVSPost2010PropOp33
 70
     0
102
RTVSPost2010Prop34
280
     0
102
RTVSPost2010PropOp34
 70
     0
102
RTVSPost2010Prop35
280
     0
102
RTVSPost2010PropOp35
 70
     0
102
RTVSPost2010Prop36
280
     0
102
RTVSPost2010PropOp36
 70
     0
102
RTVSPost2010Prop37
 90
       50
102
RTVSPost2010PropOp37
 70
     0
102
RTVSPost2010Prop38
140
0.0
102
RTVSPost2010PropOp38
 70
     0
102
RTVSPost2010Prop39
140
1.0
102
RTVSPost2010PropOp39
 70
     0
102
RTVSPost2010Prop40
 90
        0
102
RTVSPost2010PropOp40
 70
     0
102
RTVSPost2010Prop41ColorIndex
 90
       18
102
RTVSPost2010Prop41ColorRGB
 90
        0
102
RTVSPost2010PropOp41
 70
     0
102
RTVSPost2010Prop42
 90
       50
102
RTVSPost2010PropOp42
 70
     0
102
RTVSPost2010Prop43
 90
        3
102
RTVSPost2010PropOp43
 70
     0
102
RTVSPost2010Prop44ColorIndex
 90
        5
102
RTVSPost2010Prop44ColorRGB
 90
      255
102
RTVSPost2010PropOp44
 70
     0
102
RTVSPost2010Prop45
280
     0
102
RTVSPost2010PropOp45
 70
     0
102
RTVSPost2010Prop46
 90
       50
102
RTVSPost2010PropOp46
 70
     0
102
RTVSPost2010Prop47
 90
       50
102
RTVSPost2010PropOp47
 70
     0
102
RTVSPost2010Prop48
 90
       50
102
RTVSPost2010PropOp48
 70
     0
102
RTVSPost2010Prop49
280
     0
102
RTVSPost2010PropOp49
 70
     0
102
RTVSPost2010Prop50
 90
       50
102
RTVSPost2010PropOp50
 70
     0
102
RTVSPost2010Prop51ColorIndex
 90
      256
102
RTVSPost2010Prop51ColorRGB
 90
-16777216
102
RTVSPost2010PropOp51
 70
     0
102
RTVSPost2010Prop52
140
1.0
102
RTVSPost2010PropOp52
 70
     0
102
RTVSPost2010Prop53
 90
        2
102
RTVSPost2010PropOp53
 70
     0
102
RTVSPost2010Prop54
  1
strokes_ogs.tif
102
RTVSPost2010PropOp54
 70
     0
102
RTVSPost2010Prop55
280
     0
102
RTVSPost2010PropOp55
 70
     0
102
RTVSPost2010Prop56
140
1.0
102
RTVSPost2010PropOp56
 70
     0
102
RTVSPost2010Prop57
140
1.0
102
RTVSPost2010PropOp57
 70
     0
102
RTVSPropertyOp0
 70
     0
102
RTVSPropertyOp1
 70
     0
102
RTVSPropertyOp2
 70
     0
102
RTVSPropertyOp3
 70
     0
102
RTVSPropertyOp4
 70
     0
102
RTVSPropertyOp5
 70
     0
102
RTVSPropertyOp6
 70
     0
102
RTVSPropertyOp7
 70
     0
102
RTVSPropertyOp8
 70
     0
102
RTVSPropertyOp9
 70
     0
102
RTVSPropertyOp10
 70
     0
102
RTVSPropertyOp11
 70
     0
102
RTVSPropertyOp12
 70
     0
102
RTVSPropertyOp13
 70
     0
102
RTVSPropertyOp14
 70
     2
102
RTVSPropertyOp15
 70
     0
102
RTVSPropertyOp16
 70
     0
102
RTVSPropertyOp17
 70
     0
102
RTVSPropertyOp18
 70
     0
102
RTVSPropertyOp19
 70
     0
102
RTVSPropertyOp20
 70
     0
102
RTVSPropertyOp21
 70
     0
102
RTVSPropertyOp22
 70
     0
102
RTVSPropertyOp23
 70
     0
102
RTVSPropertyOp24
 70
     0
102
RTVSPropertyOp25
 70
     0
102
RTVSPropertyOp26
 70
     0
102
RTVSPropertyOp27
 70
     0
102
RTVSPropertyOp28
 70
     0
102
RTVSPropertyOp29
 70
     0
102
RTVSPropertyOp30
 70
     0
102
RTVSPropertyOp31
 70
     0
102
RTVSPropertyOp32
 70
     0
102
RTVSPropertyOp33
 70
     0
102
RTVSPropertyOp34
 70
     0
102
RTVSPropertyOp35
 70
     0
102
RTVSPropertyOp36
 70
     0
102
RTVSPropertyOp37
 70
     0
102
RTVSPropertyOp38
 70
     0
102
RTVSPropertyOp39
 70
     0
102
RTVSPropertyOp40
 70
     0
102
RTVSPropertyOp41
 70
     0
102
RTVSPropertyOp42
 70
     0
102
RTVSPropertyOp43
 70
     0
102
RTVSPropertyOp44
 70
     0
102
RTVSPropertyOp45
 70
     0
102
RTVSPropertyOp46
 70
     0
102
RTVSPropertyOp47
 70
     0
102
RTVSPropertyOp48
 70
     0
102
RTVSPropertyOp49
 70
     0
102
RTVSPropertyOp50
 70
     0
102
RTVSPropertyOp51
 70
     0
102
RTVSPropertyOp52
 70
     0
102
RTVSPropertyOp53
 70
     0
102
RTVSPropertyOp54
 70
     0
102
RTVSPropertyOp55
 70
     0
102
RTVSPropertyOp56
 70
     0
102
RTVSPropertyOp57
 70
     0
102
RTVSPropertyOp58
 70
     0
102
RTVSPropertyOp59
 70
     0
102
RTVSPropertyOp60
 70
     0
102
RTVSPropertyOp61
 70
     0
102
RTVSPropertyOp62
 70
     0
  0
XRECORD
  5
2FD
102
{ACAD_REACTORS
330
2FC
102
}
330
2FC
100
AcDbXrecord
280
     1
102
RTVSPost2010Prop28
280
     0
102
RTVSPost2010PropOp28
 70
     1
102
RTVSPost2010Prop29
280
     1
102
RTVSPost2010PropOp29
 70
     1
102
RTVSPost2010Prop30
280
     1
102
RTVSPost2010PropOp30
 70
     1
102
RTVSPost2010Prop31
280
     0
102
RTVSPost2010PropOp31
 70
     1
102
RTVSPost2010Prop32
280
     0
102
RTVSPost2010PropOp32
 70
     1
102
RTVSPost2010Prop33
280
     0
102
RTVSPost2010PropOp33
 70
     1
102
RTVSPost2010Prop34
280
     0
102
RTVSPost2010PropOp34
 70
     1
102
RTVSPost2010Prop35
280
     0
102
RTVSPost2010PropOp35
 70
     1
102
RTVSPost2010Prop36
280
     0
102
RTVSPost2010PropOp36
 70
     1
102
RTVSPost2010Prop37
 90
       50
102
RTVSPost2010PropOp37
 70
     1
102
RTVSPost2010Prop38
140
0.0
102
RTVSPost2010PropOp38
 70
     1
102
RTVSPost2010Prop39
140
1.0
102
RTVSPost2010PropOp39
 70
     1
102
RTVSPost2010Prop40
 90
        0
102
RTVSPost2010PropOp40
 70
     1
102
RTVSPost2010Prop41ColorIndex
 90
       18
102
RTVSPost2010Prop41ColorRGB
 90
        0
102
RTVSPost2010PropOp41
 70
     1
102
RTVSPost2010Prop42
 90
       50
102
RTVSPost2010PropOp42
 70
     1
102
RTVSPost2010Prop43
 90
        3
102
RTVSPost2010PropOp43
 70
     1
102
RTVSPost2010Prop44ColorIndex
 90
        5
102
RTVSPost2010Prop44ColorRGB
 90
      255
102
RTVSPost2010PropOp44
 70
     1
102
RTVSPost2010Prop45
280
     0
102
RTVSPost2010PropOp45
 70
     1
102
RTVSPost2010Prop46
 90
       50
102
RTVSPost2010PropOp46
 70
     1
102
RTVSPost2010Prop47
 90
       50
102
RTVSPost2010PropOp47
 70
     1
102
RTVSPost2010Prop48
 90
       50
102
RTVSPost2010PropOp48
 70
     1
102
RTVSPost2010Prop49
280
     0
102
RTVSPost2010PropOp49
 70
     1
102
RTVSPost2010Prop50
 90
       50
102
RTVSPost2010PropOp50
 70
     1
102
RTVSPost2010Prop51ColorIndex
 90
      256
102
RTVSPost2010Prop51ColorRGB
 90
-16777216
102
RTVSPost2010PropOp51
 70
     0
102
RTVSPost2010Prop52
140
1.0
102
RTVSPost2010PropOp52
 70
     0
102
RTVSPost2010Prop53
 90
        2
102
RTVSPost2010PropOp53
 70
     1
102
RTVSPost2010Prop54
  1
strokes_ogs.tif
102
RTVSPost2010PropOp54
 70
     1
102
RTVSPost2010Prop55
280
     0
102
RTVSPost2010PropOp55
 70
     1
102
RTVSPost2010Prop56
140
1.0
102
RTVSPost2010PropOp56
 70
     1
102
RTVSPost2010Prop57
140
1.0
102
RTVSPost2010PropOp57
 70
     1
102
RTVSPropertyOp0
 70
     1
102
RTVSPropertyOp1
 70
     1
102
RTVSPropertyOp2
 70
     1
102
RTVSPropertyOp3
 70
     1
102
RTVSPropertyOp4
 70
     1
102
RTVSPropertyOp5
 70
     1
102
RTVSPropertyOp6
 70
     1
102
RTVSPropertyOp7
 70
     1
102
RTVSPropertyOp8
 70
     1
102
RTVSPropertyOp9
 70
     1
102
RTVSPropertyOp10
 70
     1
102
RTVSPropertyOp11
 70
     1
102
RTVSPropertyOp12
 70
     1
102
RTVSPropertyOp13
 70
     1
102
RTVSPropertyOp14
 70
     1
102
RTVSPropertyOp15
 70
     1
102
RTVSPropertyOp16
 70
     1
102
RTVSPropertyOp17
 70
     1
102
RTVSPropertyOp18
 70
     1
102
RTVSPropertyOp19
 70
     1
102
RTVSPropertyOp20
 70
     1
102
RTVSPropertyOp21
 70
     1
102
RTVSPropertyOp22
 70
     1
102
RTVSPropertyOp23
 70
     1
102
RTVSPropertyOp24
 70
     1
102
RTVSPropertyOp25
 70
     1
102
RTVSPropertyOp26
 70
     1
102
RTVSPropertyOp27
 70
     1
102
RTVSPropertyOp28
 70
     1
102
RTVSPropertyOp29
 70
     1
102
RTVSPropertyOp30
 70
     1
102
RTVSPropertyOp31
 70
     1
102
RTVSPropertyOp32
 70
     1
102
RTVSPropertyOp33
 70
     1
102
RTVSPropertyOp34
 70
     1
102
RTVSPropertyOp35
 70
     1
102
RTVSPropertyOp36
 70
     1
102
RTVSPropertyOp37
 70
     1
102
RTVSPropertyOp38
 70
     1
102
RTVSPropertyOp39
 70
     1
102
RTVSPropertyOp40
 70
     1
102
RTVSPropertyOp41
 70
     1
102
RTVSPropertyOp42
 70
     1
102
RTVSPropertyOp43
 70
     1
102
RTVSPropertyOp44
 70
     1
102
RTVSPropertyOp45
 70
     1
102
RTVSPropertyOp46
 70
     1
102
RTVSPropertyOp47
 70
     1
102
RTVSPropertyOp48
 70
     1
102
RTVSPropertyOp49
 70
     1
102
RTVSPropertyOp50
 70
     1
102
RTVSPropertyOp51
 70
     0
102
RTVSPropertyOp52
 70
     0
102
RTVSPropertyOp53
 70
     1
102
RTVSPropertyOp54
 70
     1
102
RTVSPropertyOp55
 70
     1
102
RTVSPropertyOp56
 70
     1
102
RTVSPropertyOp57
 70
     1
102
RTVSPropertyOp58
 70
     1
102
RTVSPropertyOp59
 70
     1
102
RTVSPropertyOp60
 70
     1
102
RTVSPropertyOp61
 70
     1
102
RTVSPropertyOp62
 70
     1
  0
XRECORD
  5
30F
102
{ACAD_REACTORS
330
30E
102
}
330
30E
100
AcDbXrecord
280
     1
102
RTVSPost2010Prop28
280
     0
102
RTVSPost2010PropOp28
 70
     0
102
RTVSPost2010Prop29
280
     1
102
RTVSPost2010PropOp29
 70
     0
102
RTVSPost2010Prop30
280
     1
102
RTVSPost2010PropOp30
 70
     0
102
RTVSPost2010Prop31
280
     0
102
RTVSPost2010PropOp31
 70
     0
102
RTVSPost2010Prop32
280
     0
102
RTVSPost2010PropOp32
 70
     0
102
RTVSPost2010Prop33
280
     0
102
RTVSPost2010PropOp33
 70
     0
102
RTVSPost2010Prop34
280
     0
102
RTVSPost2010PropOp34
 70
     0
102
RTVSPost2010Prop35
280
     0
102
RTVSPost2010PropOp35
 70
     0
102
RTVSPost2010Prop36
280
     0
102
RTVSPost2010PropOp36
 70
     0
102
RTVSPost2010Prop37
 90
       50
102
RTVSPost2010PropOp37
 70
     0
102
RTVSPost2010Prop38
140
0.0
102
RTVSPost2010PropOp38
 70
     0
102
RTVSPost2010Prop39
140
1.0
102
RTVSPost2010PropOp39
 70
     0
102
RTVSPost2010Prop40
 90
        0
102
RTVSPost2010PropOp40
 70
     0
102
RTVSPost2010Prop41ColorIndex
 90
       18
102
RTVSPost2010Prop41ColorRGB
 90
        0
102
RTVSPost2010PropOp41
 70
     0
102
RTVSPost2010Prop42
 90
       50
102
RTVSPost2010PropOp42
 70
     0
102
RTVSPost2010Prop43
 90
        3
102
RTVSPost2010PropOp43
 70
     0
102
RTVSPost2010Prop44ColorIndex
 90
        5
102
RTVSPost2010Prop44ColorRGB
 90
      255
102
RTVSPost2010PropOp44
 70
     0
102
RTVSPost2010Prop45
280
     0
102
RTVSPost2010PropOp45
 70
     0
102
RTVSPost2010Prop46
 90
       50
102
RTVSPost2010PropOp46
 70
     0
102
RTVSPost2010Prop47
 90
       50
102
RTVSPost2010PropOp47
 70
     0
102
RTVSPost2010Prop48
 90
       50
102
RTVSPost2010PropOp48
 70
     0
102
RTVSPost2010Prop49
280
     0
102
RTVSPost2010PropOp49
 70
     0
102
RTVSPost2010Prop50
 90
       50
102
RTVSPost2010PropOp50
 70
     0
102
RTVSPost2010Prop51ColorIndex
 90
      256
102
RTVSPost2010Prop51ColorRGB
 90
-16777216
102
RTVSPost2010PropOp51
 70
     0
102
RTVSPost2010Prop52
140
1.0
102
RTVSPost2010PropOp52
 70
     0
102
RTVSPost2010Prop53
 90
        2
102
RTVSPost2010PropOp53
 70
     0
102
RTVSPost2010Prop54
  1
strokes_ogs.tif
102
RTVSPost2010PropOp54
 70
     0
102
RTVSPost2010Prop55
280
     0
102
RTVSPost2010PropOp55
 70
     0
102
RTVSPost2010Prop56
140
1.0
102
RTVSPost2010PropOp56
 70
     0
102
RTVSPost2010Prop57
140
1.0
102
RTVSPost2010PropOp57
 70
     0
102
RTVSPropertyOp0
 70
     0
102
RTVSPropertyOp1
 70
     0
102
RTVSPropertyOp2
 70
     0
102
RTVSPropertyOp3
 70
     0
102
RTVSPropertyOp4
 70
     0
102
RTVSPropertyOp5
 70
     0
102
RTVSPropertyOp6
 70
     0
102
RTVSPropertyOp7
 70
     0
102
RTVSPropertyOp8
 70
     0
102
RTVSPropertyOp9
 70
     0
102
RTVSPropertyOp10
 70
     0
102
RTVSPropertyOp11
 70
     0
102
RTVSPropertyOp12
 70
     0
102
RTVSPropertyOp13
 70
     0
102
RTVSPropertyOp14
 70
     2
102
RTVSPropertyOp15
 70
     0
102
RTVSPropertyOp16
 70
     0
102
RTVSPropertyOp17
 70
     0
102
RTVSPropertyOp18
 70
     0
102
RTVSPropertyOp19
 70
     0
102
RTVSPropertyOp20
 70
     0
102
RTVSPropertyOp21
 70
     0
102
RTVSPropertyOp22
 70
     0
102
RTVSPropertyOp23
 70
     0
102
RTVSPropertyOp24
 70
     0
102
RTVSPropertyOp25
 70
     0
102
RTVSPropertyOp26
 70
     0
102
RTVSPropertyOp27
 70
     0
102
RTVSPropertyOp28
 70
     0
102
RTVSPropertyOp29
 70
     0
102
RTVSPropertyOp30
 70
     0
102
RTVSPropertyOp31
 70
     0
102
RTVSPropertyOp32
 70
     0
102
RTVSPropertyOp33
 70
     0
102
RTVSPropertyOp34
 70
     0
102
RTVSPropertyOp35
 70
     0
102
RTVSPropertyOp36
 70
     0
102
RTVSPropertyOp37
 70
     0
102
RTVSPropertyOp38
 70
     0
102
RTVSPropertyOp39
 70
     0
102
RTVSPropertyOp40
 70
     0
102
RTVSPropertyOp41
 70
     0
102
RTVSPropertyOp42
 70
     0
102
RTVSPropertyOp43
 70
     0
102
RTVSPropertyOp44
 70
     0
102
RTVSPropertyOp45
 70
     0
102
RTVSPropertyOp46
 70
     0
102
RTVSPropertyOp47
 70
     0
102
RTVSPropertyOp48
 70
     0
102
RTVSPropertyOp49
 70
     0
102
RTVSPropertyOp50
 70
     0
102
RTVSPropertyOp51
 70
     0
102
RTVSPropertyOp52
 70
     0
102
RTVSPropertyOp53
 70
     0
102
RTVSPropertyOp54
 70
     0
102
RTVSPropertyOp55
 70
     0
102
RTVSPropertyOp56
 70
     0
102
RTVSPropertyOp57
 70
     0
102
RTVSPropertyOp58
 70
     0
102
RTVSPropertyOp59
 70
     0
102
RTVSPropertyOp60
 70
     0
102
RTVSPropertyOp61
 70
     0
102
RTVSPropertyOp62
 70
     0
  0
XRECORD
  5
2F5
102
{ACAD_REACTORS
330
2F4
102
}
330
2F4
100
AcDbXrecord
280
     1
102
RTVSPost2010Prop28
280
     0
102
RTVSPost2010PropOp28
 70
     1
102
RTVSPost2010Prop29
280
     1
102
RTVSPost2010PropOp29
 70
     1
102
RTVSPost2010Prop30
280
     1
102
RTVSPost2010PropOp30
 70
     1
102
RTVSPost2010Prop31
280
     0
102
RTVSPost2010PropOp31
 70
     1
102
RTVSPost2010Prop32
280
     0
102
RTVSPost2010PropOp32
 70
     1
102
RTVSPost2010Prop33
280
     0
102
RTVSPost2010PropOp33
 70
     1
102
RTVSPost2010Prop34
280
     0
102
RTVSPost2010PropOp34
 70
     1
102
RTVSPost2010Prop35
280
     0
102
RTVSPost2010PropOp35
 70
     1
102
RTVSPost2010Prop36
280
     0
102
RTVSPost2010PropOp36
 70
     1
102
RTVSPost2010Prop37
 90
       50
102
RTVSPost2010PropOp37
 70
     1
102
RTVSPost2010Prop38
140
0.0
102
RTVSPost2010PropOp38
 70
     1
102
RTVSPost2010Prop39
140
1.0
102
RTVSPost2010PropOp39
 70
     1
102
RTVSPost2010Prop40
 90
        0
102
RTVSPost2010PropOp40
 70
     1
102
RTVSPost2010Prop41ColorIndex
 90
       18
102
RTVSPost2010Prop41ColorRGB
 90
        0
102
RTVSPost2010PropOp41
 70
     1
102
RTVSPost2010Prop42
 90
       50
102
RTVSPost2010PropOp42
 70
     1
102
RTVSPost2010Prop43
 90
        3
102
RTVSPost2010PropOp43
 70
     1
102
RTVSPost2010Prop44ColorIndex
 90
        5
102
RTVSPost2010Prop44ColorRGB
 90
      255
102
RTVSPost2010PropOp44
 70
     1
102
RTVSPost2010Prop45
280
     0
102
RTVSPost2010PropOp45
 70
     1
102
RTVSPost2010Prop46
 90
       50
102
RTVSPost2010PropOp46
 70
     1
102
RTVSPost2010Prop47
 90
       50
102
RTVSPost2010PropOp47
 70
     1
102
RTVSPost2010Prop48
 90
       50
102
RTVSPost2010PropOp48
 70
     1
102
RTVSPost2010Prop49
280
     0
102
RTVSPost2010PropOp49
 70
     1
102
RTVSPost2010Prop50
 90
       50
102
RTVSPost2010PropOp50
 70
     1
102
RTVSPost2010Prop51ColorIndex
 90
      256
102
RTVSPost2010Prop51ColorRGB
 90
-16777216
102
RTVSPost2010PropOp51
 70
     0
102
RTVSPost2010Prop52
140
1.0
102
RTVSPost2010PropOp52
 70
     0
102
RTVSPost2010Prop53
 90
        2
102
RTVSPost2010PropOp53
 70
     1
102
RTVSPost2010Prop54
  1
strokes_ogs.tif
102
RTVSPost2010PropOp54
 70
     1
102
RTVSPost2010Prop55
280
     0
102
RTVSPost2010PropOp55
 70
     1
102
RTVSPost2010Prop56
140
1.0
102
RTVSPost2010PropOp56
 70
     1
102
RTVSPost2010Prop57
140
1.0
102
RTVSPost2010PropOp57
 70
     1
102
RTVSPropertyOp0
 70
     1
102
RTVSPropertyOp1
 70
     1
102
RTVSPropertyOp2
 70
     1
102
RTVSPropertyOp3
 70
     1
102
RTVSPropertyOp4
 70
     1
102
RTVSPropertyOp5
 70
     1
102
RTVSPropertyOp6
 70
     1
102
RTVSPropertyOp7
 70
     1
102
RTVSPropertyOp8
 70
     1
102
RTVSPropertyOp9
 70
     1
102
RTVSPropertyOp10
 70
     1
102
RTVSPropertyOp11
 70
     1
102
RTVSPropertyOp12
 70
     1
102
RTVSPropertyOp13
 70
     1
102
RTVSPropertyOp14
 70
     1
102
RTVSPropertyOp15
 70
     1
102
RTVSPropertyOp16
 70
     1
102
RTVSPropertyOp17
 70
     1
102
RTVSPropertyOp18
 70
     1
102
RTVSPropertyOp19
 70
     1
102
RTVSPropertyOp20
 70
     1
102
RTVSPropertyOp21
 70
     1
102
RTVSPropertyOp22
 70
     1
102
RTVSPropertyOp23
 70
     1
102
RTVSPropertyOp24
 70
     1
102
RTVSPropertyOp25
 70
     1
102
RTVSPropertyOp26
 70
     1
102
RTVSPropertyOp27
 70
     1
102
RTVSPropertyOp28
 70
     1
102
RTVSPropertyOp29
 70
     1
102
RTVSPropertyOp30
 70
     1
102
RTVSPropertyOp31
 70
     1
102
RTVSPropertyOp32
 70
     1
102
RTVSPropertyOp33
 70
     1
102
RTVSPropertyOp34
 70
     1
102
RTVSPropertyOp35
 70
     1
102
RTVSPropertyOp36
 70
     1
102
RTVSPropertyOp37
 70
     1
102
RTVSPropertyOp38
 70
     1
102
RTVSPropertyOp39
 70
     1
102
RTVSPropertyOp40
 70
     1
102
RTVSPropertyOp41
 70
     1
102
RTVSPropertyOp42
 70
     1
102
RTVSPropertyOp43
 70
     1
102
RTVSPropertyOp44
 70
     1
102
RTVSPropertyOp45
 70
     1
102
RTVSPropertyOp46
 70
     1
102
RTVSPropertyOp47
 70
     1
102
RTVSPropertyOp48
 70
     1
102
RTVSPropertyOp49
 70
     1
102
RTVSPropertyOp50
 70
     1
102
RTVSPropertyOp51
 70
     0
102
RTVSPropertyOp52
 70
     0
102
RTVSPropertyOp53
 70
     1
102
RTVSPropertyOp54
 70
     1
102
RTVSPropertyOp55
 70
     1
102
RTVSPropertyOp56
 70
     1
102
RTVSPropertyOp57
 70
     1
102
RTVSPropertyOp58
 70
     1
102
RTVSPropertyOp59
 70
     1
102
RTVSPropertyOp60
 70
     1
102
RTVSPropertyOp61
 70
     1
102
RTVSPropertyOp62
 70
     1
  0
XRECORD
  5
30B
102
{ACAD_REACTORS
330
30A
102
}
330
30A
100
AcDbXrecord
280
     1
102
RTVSPost2010Prop28
280
     0
102
RTVSPost2010PropOp28
 70
     1
102
RTVSPost2010Prop29
280
     1
102
RTVSPost2010PropOp29
 70
     1
102
RTVSPost2010Prop30
280
     1
102
RTVSPost2010PropOp30
 70
     1
102
RTVSPost2010Prop31
280
     0
102
RTVSPost2010PropOp31
 70
     1
102
RTVSPost2010Prop32
280
     0
102
RTVSPost2010PropOp32
 70
     1
102
RTVSPost2010Prop33
280
     0
102
RTVSPost2010PropOp33
 70
     1
102
RTVSPost2010Prop34
280
     0
102
RTVSPost2010PropOp34
 70
     1
102
RTVSPost2010Prop35
280
     0
102
RTVSPost2010PropOp35
 70
     1
102
RTVSPost2010Prop36
280
     0
102
RTVSPost2010PropOp36
 70
     1
102
RTVSPost2010Prop37
 90
       50
102
RTVSPost2010PropOp37
 70
     1
102
RTVSPost2010Prop38
140
0.0
102
RTVSPost2010PropOp38
 70
     1
102
RTVSPost2010Prop39
140
1.0
102
RTVSPost2010PropOp39
 70
     1
102
RTVSPost2010Prop40
 90
        0
102
RTVSPost2010PropOp40
 70
     1
102
RTVSPost2010Prop41ColorIndex
 90
       18
102
RTVSPost2010Prop41ColorRGB
 90
        0
102
RTVSPost2010PropOp41
 70
     1
102
RTVSPost2010Prop42
 90
       50
102
RTVSPost2010PropOp42
 70
     1
102
RTVSPost2010Prop43
 90
        3
102
RTVSPost2010PropOp43
 70
     1
102
RTVSPost2010Prop44ColorIndex
 90
        5
102
RTVSPost2010Prop44ColorRGB
 90
      255
102
RTVSPost2010PropOp44
 70
     1
102
RTVSPost2010Prop45
280
     0
102
RTVSPost2010PropOp45
 70
     1
102
RTVSPost2010Prop46
 90
       50
102
RTVSPost2010PropOp46
 70
     1
102
RTVSPost2010Prop47
 90
       50
102
RTVSPost2010PropOp47
 70
     1
102
RTVSPost2010Prop48
 90
       50
102
RTVSPost2010PropOp48
 70
     1
102
RTVSPost2010Prop49
280
     0
102
RTVSPost2010PropOp49
 70
     1
102
RTVSPost2010Prop50
 90
       50
102
RTVSPost2010PropOp50
 70
     1
102
RTVSPost2010Prop51ColorIndex
 90
      256
102
RTVSPost2010Prop51ColorRGB
 90
-16777216
102
RTVSPost2010PropOp51
 70
     0
102
RTVSPost2010Prop52
140
1.0
102
RTVSPost2010PropOp52
 70
     0
102
RTVSPost2010Prop53
 90
        2
102
RTVSPost2010PropOp53
 70
     1
102
RTVSPost2010Prop54
  1
strokes_ogs.tif
102
RTVSPost2010PropOp54
 70
     1
102
RTVSPost2010Prop55
280
     0
102
RTVSPost2010PropOp55
 70
     1
102
RTVSPost2010Prop56
140
1.0
102
RTVSPost2010PropOp56
 70
     1
102
RTVSPost2010Prop57
140
1.0
102
RTVSPost2010PropOp57
 70
     1
102
RTVSPropertyOp0
 70
     1
102
RTVSPropertyOp1
 70
     1
102
RTVSPropertyOp2
 70
     1
102
RTVSPropertyOp3
 70
     1
102
RTVSPropertyOp4
 70
     1
102
RTVSPropertyOp5
 70
     1
102
RTVSPropertyOp6
 70
     1
102
RTVSPropertyOp7
 70
     1
102
RTVSPropertyOp8
 70
     1
102
RTVSPropertyOp9
 70
     1
102
RTVSPropertyOp10
 70
     1
102
RTVSPropertyOp11
 70
     1
102
RTVSPropertyOp12
 70
     1
102
RTVSPropertyOp13
 70
     1
102
RTVSPropertyOp14
 70
     1
102
RTVSPropertyOp15
 70
     1
102
RTVSPropertyOp16
 70
     1
102
RTVSPropertyOp17
 70
     1
102
RTVSPropertyOp18
 70
     1
102
RTVSPropertyOp19
 70
     1
102
RTVSPropertyOp20
 70
     1
102
RTVSPropertyOp21
 70
     1
102
RTVSPropertyOp22
 70
     1
102
RTVSPropertyOp23
 70
     1
102
RTVSPropertyOp24
 70
     1
102
RTVSPropertyOp25
 70
     1
102
RTVSPropertyOp26
 70
     1
102
RTVSPropertyOp27
 70
     1
102
RTVSPropertyOp28
 70
     1
102
RTVSPropertyOp29
 70
     1
102
RTVSPropertyOp30
 70
     1
102
RTVSPropertyOp31
 70
     1
102
RTVSPropertyOp32
 70
     1
102
RTVSPropertyOp33
 70
     1
102
RTVSPropertyOp34
 70
     1
102
RTVSPropertyOp35
 70
     1
102
RTVSPropertyOp36
 70
     1
102
RTVSPropertyOp37
 70
     1
102
RTVSPropertyOp38
 70
     1
102
RTVSPropertyOp39
 70
     1
102
RTVSPropertyOp40
 70
     1
102
RTVSPropertyOp41
 70
     1
102
RTVSPropertyOp42
 70
     1
102
RTVSPropertyOp43
 70
     1
102
RTVSPropertyOp44
 70
     1
102
RTVSPropertyOp45
 70
     1
102
RTVSPropertyOp46
 70
     1
102
RTVSPropertyOp47
 70
     1
102
RTVSPropertyOp48
 70
     1
102
RTVSPropertyOp49
 70
     1
102
RTVSPropertyOp50
 70
     1
102
RTVSPropertyOp51
 70
     0
102
RTVSPropertyOp52
 70
     0
102
RTVSPropertyOp53
 70
     1
102
RTVSPropertyOp54
 70
     1
102
RTVSPropertyOp55
 70
     1
102
RTVSPropertyOp56
 70
     1
102
RTVSPropertyOp57
 70
     1
102
RTVSPropertyOp58
 70
     1
102
RTVSPropertyOp59
 70
     1
102
RTVSPropertyOp60
 70
     1
102
RTVSPropertyOp61
 70
     1
102
RTVSPropertyOp62
 70
     1
  0
XRECORD
  5
309
102
{ACAD_REACTORS
330
308
102
}
330
308
100
AcDbXrecord
280
     1
102
RTVSPost2010Prop28
280
     0
102
RTVSPost2010PropOp28
 70
     1
102
RTVSPost2010Prop29
280
     1
102
RTVSPost2010PropOp29
 70
     1
102
RTVSPost2010Prop30
280
     1
102
RTVSPost2010PropOp30
 70
     1
102
RTVSPost2010Prop31
280
     0
102
RTVSPost2010PropOp31
 70
     1
102
RTVSPost2010Prop32
280
     0
102
RTVSPost2010PropOp32
 70
     1
102
RTVSPost2010Prop33
280
     0
102
RTVSPost2010PropOp33
 70
     1
102
RTVSPost2010Prop34
280
     0
102
RTVSPost2010PropOp34
 70
     1
102
RTVSPost2010Prop35
280
     0
102
RTVSPost2010PropOp35
 70
     1
102
RTVSPost2010Prop36
280
     0
102
RTVSPost2010PropOp36
 70
     1
102
RTVSPost2010Prop37
 90
       50
102
RTVSPost2010PropOp37
 70
     1
102
RTVSPost2010Prop38
140
0.0
102
RTVSPost2010PropOp38
 70
     1
102
RTVSPost2010Prop39
140
1.0
102
RTVSPost2010PropOp39
 70
     1
102
RTVSPost2010Prop40
 90
        0
102
RTVSPost2010PropOp40
 70
     1
102
RTVSPost2010Prop41ColorIndex
 90
       18
102
RTVSPost2010Prop41ColorRGB
 90
        0
102
RTVSPost2010PropOp41
 70
     1
102
RTVSPost2010Prop42
 90
       50
102
RTVSPost2010PropOp42
 70
     1
102
RTVSPost2010Prop43
 90
        3
102
RTVSPost2010PropOp43
 70
     1
102
RTVSPost2010Prop44ColorIndex
 90
        5
102
RTVSPost2010Prop44ColorRGB
 90
      255
102
RTVSPost2010PropOp44
 70
     1
102
RTVSPost2010Prop45
280
     0
102
RTVSPost2010PropOp45
 70
     1
102
RTVSPost2010Prop46
 90
       50
102
RTVSPost2010PropOp46
 70
     1
102
RTVSPost2010Prop47
 90
       50
102
RTVSPost2010PropOp47
 70
     1
102
RTVSPost2010Prop48
 90
       50
102
RTVSPost2010PropOp48
 70
     1
102
RTVSPost2010Prop49
280
     0
102
RTVSPost2010PropOp49
 70
     1
102
RTVSPost2010Prop50
 90
       50
102
RTVSPost2010PropOp50
 70
     1
102
RTVSPost2010Prop51ColorIndex
 90
      256
102
RTVSPost2010Prop51ColorRGB
 90
-16777216
102
RTVSPost2010PropOp51
 70
     0
102
RTVSPost2010Prop52
140
1.0
102
RTVSPost2010PropOp52
 70
     0
102
RTVSPost2010Prop53
 90
        2
102
RTVSPost2010PropOp53
 70
     1
102
RTVSPost2010Prop54
  1
strokes_ogs.tif
102
RTVSPost2010PropOp54
 70
     1
102
RTVSPost2010Prop55
280
     0
102
RTVSPost2010PropOp55
 70
     1
102
RTVSPost2010Prop56
140
1.0
102
RTVSPost2010PropOp56
 70
     1
102
RTVSPost2010Prop57
140
1.0
102
RTVSPost2010PropOp57
 70
     1
102
RTVSPropertyOp0
 70
     1
102
RTVSPropertyOp1
 70
     1
102
RTVSPropertyOp2
 70
     1
102
RTVSPropertyOp3
 70
     1
102
RTVSPropertyOp4
 70
     1
102
RTVSPropertyOp5
 70
     1
102
RTVSPropertyOp6
 70
     1
102
RTVSPropertyOp7
 70
     1
102
RTVSPropertyOp8
 70
     1
102
RTVSPropertyOp9
 70
     1
102
RTVSPropertyOp10
 70
     1
102
RTVSPropertyOp11
 70
     1
102
RTVSPropertyOp12
 70
     1
102
RTVSPropertyOp13
 70
     1
102
RTVSPropertyOp14
 70
     1
102
RTVSPropertyOp15
 70
     1
102
RTVSPropertyOp16
 70
     1
102
RTVSPropertyOp17
 70
     1
102
RTVSPropertyOp18
 70
     1
102
RTVSPropertyOp19
 70
     1
102
RTVSPropertyOp20
 70
     1
102
RTVSPropertyOp21
 70
     1
102
RTVSPropertyOp22
 70
     1
102
RTVSPropertyOp23
 70
     1
102
RTVSPropertyOp24
 70
     1
102
RTVSPropertyOp25
 70
     1
102
RTVSPropertyOp26
 70
     1
102
RTVSPropertyOp27
 70
     1
102
RTVSPropertyOp28
 70
     1
102
RTVSPropertyOp29
 70
     1
102
RTVSPropertyOp30
 70
     1
102
RTVSPropertyOp31
 70
     1
102
RTVSPropertyOp32
 70
     1
102
RTVSPropertyOp33
 70
     1
102
RTVSPropertyOp34
 70
     1
102
RTVSPropertyOp35
 70
     1
102
RTVSPropertyOp36
 70
     1
102
RTVSPropertyOp37
 70
     1
102
RTVSPropertyOp38
 70
     1
102
RTVSPropertyOp39
 70
     1
102
RTVSPropertyOp40
 70
     1
102
RTVSPropertyOp41
 70
     1
102
RTVSPropertyOp42
 70
     1
102
RTVSPropertyOp43
 70
     1
102
RTVSPropertyOp44
 70
     1
102
RTVSPropertyOp45
 70
     1
102
RTVSPropertyOp46
 70
     1
102
RTVSPropertyOp47
 70
     1
102
RTVSPropertyOp48
 70
     1
102
RTVSPropertyOp49
 70
     1
102
RTVSPropertyOp50
 70
     1
102
RTVSPropertyOp51
 70
     0
102
RTVSPropertyOp52
 70
     0
102
RTVSPropertyOp53
 70
     1
102
RTVSPropertyOp54
 70
     1
102
RTVSPropertyOp55
 70
     1
102
RTVSPropertyOp56
 70
     1
102
RTVSPropertyOp57
 70
     1
102
RTVSPropertyOp58
 70
     1
102
RTVSPropertyOp59
 70
     1
102
RTVSPropertyOp60
 70
     1
102
RTVSPropertyOp61
 70
     1
102
RTVSPropertyOp62
 70
     1
  0
XRECORD
  5
303
102
{ACAD_REACTORS
330
302
102
}
330
302
100
AcDbXrecord
280
     1
102
RTVSPost2010Prop28
280
     0
102
RTVSPost2010PropOp28
 70
     1
102
RTVSPost2010Prop29
280
     1
102
RTVSPost2010PropOp29
 70
     1
102
RTVSPost2010Prop30
280
     1
102
RTVSPost2010PropOp30
 70
     1
102
RTVSPost2010Prop31
280
     0
102
RTVSPost2010PropOp31
 70
     1
102
RTVSPost2010Prop32
280
     0
102
RTVSPost2010PropOp32
 70
     1
102
RTVSPost2010Prop33
280
     0
102
RTVSPost2010PropOp33
 70
     1
102
RTVSPost2010Prop34
280
     0
102
RTVSPost2010PropOp34
 70
     1
102
RTVSPost2010Prop35
280
     0
102
RTVSPost2010PropOp35
 70
     1
102
RTVSPost2010Prop36
280
     0
102
RTVSPost2010PropOp36
 70
     1
102
RTVSPost2010Prop37
 90
       50
102
RTVSPost2010PropOp37
 70
     1
102
RTVSPost2010Prop38
140
0.0
102
RTVSPost2010PropOp38
 70
     1
102
RTVSPost2010Prop39
140
1.0
102
RTVSPost2010PropOp39
 70
     1
102
RTVSPost2010Prop40
 90
        0
102
RTVSPost2010PropOp40
 70
     1
102
RTVSPost2010Prop41ColorIndex
 90
       18
102
RTVSPost2010Prop41ColorRGB
 90
        0
102
RTVSPost2010PropOp41
 70
     1
102
RTVSPost2010Prop42
 90
       50
102
RTVSPost2010PropOp42
 70
     1
102
RTVSPost2010Prop43
 90
        3
102
RTVSPost2010PropOp43
 70
     1
102
RTVSPost2010Prop44ColorIndex
 90
        5
102
RTVSPost2010Prop44ColorRGB
 90
      255
102
RTVSPost2010PropOp44
 70
     1
102
RTVSPost2010Prop45
280
     0
102
RTVSPost2010PropOp45
 70
     1
102
RTVSPost2010Prop46
 90
       50
102
RTVSPost2010PropOp46
 70
     1
102
RTVSPost2010Prop47
 90
       50
102
RTVSPost2010PropOp47
 70
     1
102
RTVSPost2010Prop48
 90
       50
102
RTVSPost2010PropOp48
 70
     1
102
RTVSPost2010Prop49
280
     0
102
RTVSPost2010PropOp49
 70
     1
102
RTVSPost2010Prop50
 90
       50
102
RTVSPost2010PropOp50
 70
     1
102
RTVSPost2010Prop51ColorIndex
 90
      256
102
RTVSPost2010Prop51ColorRGB
 90
-16777216
102
RTVSPost2010PropOp51
 70
     0
102
RTVSPost2010Prop52
140
1.0
102
RTVSPost2010PropOp52
 70
     0
102
RTVSPost2010Prop53
 90
        2
102
RTVSPost2010PropOp53
 70
     1
102
RTVSPost2010Prop54
  1
strokes_ogs.tif
102
RTVSPost2010PropOp54
 70
     1
102
RTVSPost2010Prop55
280
     0
102
RTVSPost2010PropOp55
 70
     1
102
RTVSPost2010Prop56
140
1.0
102
RTVSPost2010PropOp56
 70
     1
102
RTVSPost2010Prop57
140
1.0
102
RTVSPost2010PropOp57
 70
     1
102
RTVSPropertyOp0
 70
     1
102
RTVSPropertyOp1
 70
     1
102
RTVSPropertyOp2
 70
     1
102
RTVSPropertyOp3
 70
     1
102
RTVSPropertyOp4
 70
     1
102
RTVSPropertyOp5
 70
     1
102
RTVSPropertyOp6
 70
     1
102
RTVSPropertyOp7
 70
     1
102
RTVSPropertyOp8
 70
     1
102
RTVSPropertyOp9
 70
     1
102
RTVSPropertyOp10
 70
     1
102
RTVSPropertyOp11
 70
     1
102
RTVSPropertyOp12
 70
     1
102
RTVSPropertyOp13
 70
     1
102
RTVSPropertyOp14
 70
     1
102
RTVSPropertyOp15
 70
     1
102
RTVSPropertyOp16
 70
     1
102
RTVSPropertyOp17
 70
     1
102
RTVSPropertyOp18
 70
     1
102
RTVSPropertyOp19
 70
     1
102
RTVSPropertyOp20
 70
     1
102
RTVSPropertyOp21
 70
     1
102
RTVSPropertyOp22
 70
     1
102
RTVSPropertyOp23
 70
     1
102
RTVSPropertyOp24
 70
     1
102
RTVSPropertyOp25
 70
     1
102
RTVSPropertyOp26
 70
     1
102
RTVSPropertyOp27
 70
     1
102
RTVSPropertyOp28
 70
     1
102
RTVSPropertyOp29
 70
     1
102
RTVSPropertyOp30
 70
     1
102
RTVSPropertyOp31
 70
     1
102
RTVSPropertyOp32
 70
     1
102
RTVSPropertyOp33
 70
     1
102
RTVSPropertyOp34
 70
     1
102
RTVSPropertyOp35
 70
     1
102
RTVSPropertyOp36
 70
     1
102
RTVSPropertyOp37
 70
     1
102
RTVSPropertyOp38
 70
     1
102
RTVSPropertyOp39
 70
     1
102
RTVSPropertyOp40
 70
     1
102
RTVSPropertyOp41
 70
     1
102
RTVSPropertyOp42
 70
     1
102
RTVSPropertyOp43
 70
     1
102
RTVSPropertyOp44
 70
     1
102
RTVSPropertyOp45
 70
     1
102
RTVSPropertyOp46
 70
     1
102
RTVSPropertyOp47
 70
     1
102
RTVSPropertyOp48
 70
     1
102
RTVSPropertyOp49
 70
     1
102
RTVSPropertyOp50
 70
     1
102
RTVSPropertyOp51
 70
     0
102
RTVSPropertyOp52
 70
     0
102
RTVSPropertyOp53
 70
     1
102
RTVSPropertyOp54
 70
     1
102
RTVSPropertyOp55
 70
     1
102
RTVSPropertyOp56
 70
     1
102
RTVSPropertyOp57
 70
     1
102
RTVSPropertyOp58
 70
     1
102
RTVSPropertyOp59
 70
     1
102
RTVSPropertyOp60
 70
     1
102
RTVSPropertyOp61
 70
     1
102
RTVSPropertyOp62
 70
     1
  0
XRECORD
  5
305
102
{ACAD_REACTORS
330
304
102
}
330
304
100
AcDbXrecord
280
     1
102
RTVSPost2010Prop28
280
     0
102
RTVSPost2010PropOp28
 70
     1
102
RTVSPost2010Prop29
280
     1
102
RTVSPost2010PropOp29
 70
     1
102
RTVSPost2010Prop30
280
     1
102
RTVSPost2010PropOp30
 70
     1
102
RTVSPost2010Prop31
280
     0
102
RTVSPost2010PropOp31
 70
     1
102
RTVSPost2010Prop32
280
     0
102
RTVSPost2010PropOp32
 70
     1
102
RTVSPost2010Prop33
280
     0
102
RTVSPost2010PropOp33
 70
     1
102
RTVSPost2010Prop34
280
     0
102
RTVSPost2010PropOp34
 70
     1
102
RTVSPost2010Prop35
280
     0
102
RTVSPost2010PropOp35
 70
     1
102
RTVSPost2010Prop36
280
     0
102
RTVSPost2010PropOp36
 70
     1
102
RTVSPost2010Prop37
 90
       50
102
RTVSPost2010PropOp37
 70
     1
102
RTVSPost2010Prop38
140
0.0
102
RTVSPost2010PropOp38
 70
     1
102
RTVSPost2010Prop39
140
1.0
102
RTVSPost2010PropOp39
 70
     1
102
RTVSPost2010Prop40
 90
        0
102
RTVSPost2010PropOp40
 70
     1
102
RTVSPost2010Prop41ColorIndex
 90
       18
102
RTVSPost2010Prop41ColorRGB
 90
        0
102
RTVSPost2010PropOp41
 70
     1
102
RTVSPost2010Prop42
 90
       50
102
RTVSPost2010PropOp42
 70
     1
102
RTVSPost2010Prop43
 90
        3
102
RTVSPost2010PropOp43
 70
     1
102
RTVSPost2010Prop44ColorIndex
 90
        5
102
RTVSPost2010Prop44ColorRGB
 90
      255
102
RTVSPost2010PropOp44
 70
     1
102
RTVSPost2010Prop45
280
     0
102
RTVSPost2010PropOp45
 70
     1
102
RTVSPost2010Prop46
 90
       50
102
RTVSPost2010PropOp46
 70
     1
102
RTVSPost2010Prop47
 90
       50
102
RTVSPost2010PropOp47
 70
     1
102
RTVSPost2010Prop48
 90
       50
102
RTVSPost2010PropOp48
 70
     1
102
RTVSPost2010Prop49
280
     0
102
RTVSPost2010PropOp49
 70
     1
102
RTVSPost2010Prop50
 90
       50
102
RTVSPost2010PropOp50
 70
     1
102
RTVSPost2010Prop51ColorIndex
 90
      256
102
RTVSPost2010Prop51ColorRGB
 90
-16777216
102
RTVSPost2010PropOp51
 70
     0
102
RTVSPost2010Prop52
140
1.0
102
RTVSPost2010PropOp52
 70
     0
102
RTVSPost2010Prop53
 90
        2
102
RTVSPost2010PropOp53
 70
     1
102
RTVSPost2010Prop54
  1
strokes_ogs.tif
102
RTVSPost2010PropOp54
 70
     1
102
RTVSPost2010Prop55
280
     0
102
RTVSPost2010PropOp55
 70
     1
102
RTVSPost2010Prop56
140
1.0
102
RTVSPost2010PropOp56
 70
     1
102
RTVSPost2010Prop57
140
1.0
102
RTVSPost2010PropOp57
 70
     1
102
RTVSPropertyOp0
 70
     1
102
RTVSPropertyOp1
 70
     1
102
RTVSPropertyOp2
 70
     1
102
RTVSPropertyOp3
 70
     1
102
RTVSPropertyOp4
 70
     1
102
RTVSPropertyOp5
 70
     1
102
RTVSPropertyOp6
 70
     1
102
RTVSPropertyOp7
 70
     1
102
RTVSPropertyOp8
 70
     1
102
RTVSPropertyOp9
 70
     1
102
RTVSPropertyOp10
 70
     1
102
RTVSPropertyOp11
 70
     1
102
RTVSPropertyOp12
 70
     1
102
RTVSPropertyOp13
 70
     1
102
RTVSPropertyOp14
 70
     1
102
RTVSPropertyOp15
 70
     1
102
RTVSPropertyOp16
 70
     1
102
RTVSPropertyOp17
 70
     1
102
RTVSPropertyOp18
 70
     1
102
RTVSPropertyOp19
 70
     1
102
RTVSPropertyOp20
 70
     1
102
RTVSPropertyOp21
 70
     1
102
RTVSPropertyOp22
 70
     1
102
RTVSPropertyOp23
 70
     1
102
RTVSPropertyOp24
 70
     1
102
RTVSPropertyOp25
 70
     1
102
RTVSPropertyOp26
 70
     1
102
RTVSPropertyOp27
 70
     1
102
RTVSPropertyOp28
 70
     1
102
RTVSPropertyOp29
 70
     1
102
RTVSPropertyOp30
 70
     1
102
RTVSPropertyOp31
 70
     1
102
RTVSPropertyOp32
 70
     1
102
RTVSPropertyOp33
 70
     1
102
RTVSPropertyOp34
 70
     1
102
RTVSPropertyOp35
 70
     1
102
RTVSPropertyOp36
 70
     1
102
RTVSPropertyOp37
 70
     1
102
RTVSPropertyOp38
 70
     1
102
RTVSPropertyOp39
 70
     1
102
RTVSPropertyOp40
 70
     1
102
RTVSPropertyOp41
 70
     1
102
RTVSPropertyOp42
 70
     1
102
RTVSPropertyOp43
 70
     1
102
RTVSPropertyOp44
 70
     1
102
RTVSPropertyOp45
 70
     1
102
RTVSPropertyOp46
 70
     1
102
RTVSPropertyOp47
 70
     1
102
RTVSPropertyOp48
 70
     1
102
RTVSPropertyOp49
 70
     1
102
RTVSPropertyOp50
 70
     1
102
RTVSPropertyOp51
 70
     0
102
RTVSPropertyOp52
 70
     0
102
RTVSPropertyOp53
 70
     1
102
RTVSPropertyOp54
 70
     1
102
RTVSPropertyOp55
 70
     1
102
RTVSPropertyOp56
 70
     1
102
RTVSPropertyOp57
 70
     1
102
RTVSPropertyOp58
 70
     1
102
RTVSPropertyOp59
 70
     1
102
RTVSPropertyOp60
 70
     1
102
RTVSPropertyOp61
 70
     1
102
RTVSPropertyOp62
 70
     1
  0
XRECORD
  5
2FB
102
{ACAD_REACTORS
330
2FA
102
}
330
2FA
100
AcDbXrecord
280
     1
102
RTVSPost2010Prop28
280
     0
102
RTVSPost2010PropOp28
 70
     1
102
RTVSPost2010Prop29
280
     1
102
RTVSPost2010PropOp29
 70
     1
102
RTVSPost2010Prop30
280
     1
102
RTVSPost2010PropOp30
 70
     1
102
RTVSPost2010Prop31
280
     0
102
RTVSPost2010PropOp31
 70
     1
102
RTVSPost2010Prop32
280
     0
102
RTVSPost2010PropOp32
 70
     1
102
RTVSPost2010Prop33
280
     0
102
RTVSPost2010PropOp33
 70
     1
102
RTVSPost2010Prop34
280
     0
102
RTVSPost2010PropOp34
 70
     1
102
RTVSPost2010Prop35
280
     0
102
RTVSPost2010PropOp35
 70
     1
102
RTVSPost2010Prop36
280
     0
102
RTVSPost2010PropOp36
 70
     1
102
RTVSPost2010Prop37
 90
       50
102
RTVSPost2010PropOp37
 70
     1
102
RTVSPost2010Prop38
140
0.0
102
RTVSPost2010PropOp38
 70
     1
102
RTVSPost2010Prop39
140
1.0
102
RTVSPost2010PropOp39
 70
     1
102
RTVSPost2010Prop40
 90
        0
102
RTVSPost2010PropOp40
 70
     1
102
RTVSPost2010Prop41ColorIndex
 90
       18
102
RTVSPost2010Prop41ColorRGB
 90
        0
102
RTVSPost2010PropOp41
 70
     1
102
RTVSPost2010Prop42
 90
       50
102
RTVSPost2010PropOp42
 70
     1
102
RTVSPost2010Prop43
 90
        3
102
RTVSPost2010PropOp43
 70
     1
102
RTVSPost2010Prop44ColorIndex
 90
        5
102
RTVSPost2010Prop44ColorRGB
 90
      255
102
RTVSPost2010PropOp44
 70
     1
102
RTVSPost2010Prop45
280
     0
102
RTVSPost2010PropOp45
 70
     1
102
RTVSPost2010Prop46
 90
       50
102
RTVSPost2010PropOp46
 70
     1
102
RTVSPost2010Prop47
 90
       50
102
RTVSPost2010PropOp47
 70
     1
102
RTVSPost2010Prop48
 90
       50
102
RTVSPost2010PropOp48
 70
     1
102
RTVSPost2010Prop49
280
     0
102
RTVSPost2010PropOp49
 70
     1
102
RTVSPost2010Prop50
 90
       50
102
RTVSPost2010PropOp50
 70
     1
102
RTVSPost2010Prop51ColorIndex
 90
      256
102
RTVSPost2010Prop51ColorRGB
 90
-16777216
102
RTVSPost2010PropOp51
 70
     0
102
RTVSPost2010Prop52
140
1.0
102
RTVSPost2010PropOp52
 70
     0
102
RTVSPost2010Prop53
 90
        2
102
RTVSPost2010PropOp53
 70
     1
102
RTVSPost2010Prop54
  1
strokes_ogs.tif
102
RTVSPost2010PropOp54
 70
     1
102
RTVSPost2010Prop55
280
     0
102
RTVSPost2010PropOp55
 70
     1
102
RTVSPost2010Prop56
140
1.0
102
RTVSPost2010PropOp56
 70
     1
102
RTVSPost2010Prop57
140
1.0
102
RTVSPost2010PropOp57
 70
     1
102
RTVSPropertyOp0
 70
     1
102
RTVSPropertyOp1
 70
     1
102
RTVSPropertyOp2
 70
     1
102
RTVSPropertyOp3
 70
     1
102
RTVSPropertyOp4
 70
     1
102
RTVSPropertyOp5
 70
     1
102
RTVSPropertyOp6
 70
     1
102
RTVSPropertyOp7
 70
     1
102
RTVSPropertyOp8
 70
     1
102
RTVSPropertyOp9
 70
     1
102
RTVSPropertyOp10
 70
     1
102
RTVSPropertyOp11
 70
     1
102
RTVSPropertyOp12
 70
     1
102
RTVSPropertyOp13
 70
     1
102
RTVSPropertyOp14
 70
     1
102
RTVSPropertyOp15
 70
     1
102
RTVSPropertyOp16
 70
     1
102
RTVSPropertyOp17
 70
     1
102
RTVSPropertyOp18
 70
     1
102
RTVSPropertyOp19
 70
     1
102
RTVSPropertyOp20
 70
     1
102
RTVSPropertyOp21
 70
     1
102
RTVSPropertyOp22
 70
     1
102
RTVSPropertyOp23
 70
     1
102
RTVSPropertyOp24
 70
     1
102
RTVSPropertyOp25
 70
     1
102
RTVSPropertyOp26
 70
     1
102
RTVSPropertyOp27
 70
     1
102
RTVSPropertyOp28
 70
     1
102
RTVSPropertyOp29
 70
     1
102
RTVSPropertyOp30
 70
     1
102
RTVSPropertyOp31
 70
     1
102
RTVSPropertyOp32
 70
     1
102
RTVSPropertyOp33
 70
     1
102
RTVSPropertyOp34
 70
     1
102
RTVSPropertyOp35
 70
     1
102
RTVSPropertyOp36
 70
     1
102
RTVSPropertyOp37
 70
     1
102
RTVSPropertyOp38
 70
     1
102
RTVSPropertyOp39
 70
     1
102
RTVSPropertyOp40
 70
     1
102
RTVSPropertyOp41
 70
     1
102
RTVSPropertyOp42
 70
     1
102
RTVSPropertyOp43
 70
     1
102
RTVSPropertyOp44
 70
     1
102
RTVSPropertyOp45
 70
     1
102
RTVSPropertyOp46
 70
     1
102
RTVSPropertyOp47
 70
     1
102
RTVSPropertyOp48
 70
     1
102
RTVSPropertyOp49
 70
     1
102
RTVSPropertyOp50
 70
     1
102
RTVSPropertyOp51
 70
     0
102
RTVSPropertyOp52
 70
     0
102
RTVSPropertyOp53
 70
     1
102
RTVSPropertyOp54
 70
     1
102
RTVSPropertyOp55
 70
     1
102
RTVSPropertyOp56
 70
     1
102
RTVSPropertyOp57
 70
     1
102
RTVSPropertyOp58
 70
     1
102
RTVSPropertyOp59
 70
     1
102
RTVSPropertyOp60
 70
     1
102
RTVSPropertyOp61
 70
     1
102
RTVSPropertyOp62
 70
     1
  0
XRECORD
  5
2EF
102
{ACAD_REACTORS
330
2EE
102
}
330
2EE
100
AcDbXrecord
280
     1
102
RTVSPost2010Prop28
280
     0
102
RTVSPost2010PropOp28
 70
     1
102
RTVSPost2010Prop29
280
     1
102
RTVSPost2010PropOp29
 70
     1
102
RTVSPost2010Prop30
280
     1
102
RTVSPost2010PropOp30
 70
     1
102
RTVSPost2010Prop31
280
     0
102
RTVSPost2010PropOp31
 70
     1
102
RTVSPost2010Prop32
280
     0
102
RTVSPost2010PropOp32
 70
     1
102
RTVSPost2010Prop33
280
     0
102
RTVSPost2010PropOp33
 70
     1
102
RTVSPost2010Prop34
280
     0
102
RTVSPost2010PropOp34
 70
     1
102
RTVSPost2010Prop35
280
     0
102
RTVSPost2010PropOp35
 70
     1
102
RTVSPost2010Prop36
280
     0
102
RTVSPost2010PropOp36
 70
     1
102
RTVSPost2010Prop37
 90
       50
102
RTVSPost2010PropOp37
 70
     1
102
RTVSPost2010Prop38
140
0.0
102
RTVSPost2010PropOp38
 70
     1
102
RTVSPost2010Prop39
140
1.0
102
RTVSPost2010PropOp39
 70
     1
102
RTVSPost2010Prop40
 90
        0
102
RTVSPost2010PropOp40
 70
     1
102
RTVSPost2010Prop41ColorIndex
 90
       18
102
RTVSPost2010Prop41ColorRGB
 90
        0
102
RTVSPost2010PropOp41
 70
     1
102
RTVSPost2010Prop42
 90
       50
102
RTVSPost2010PropOp42
 70
     1
102
RTVSPost2010Prop43
 90
        3
102
RTVSPost2010PropOp43
 70
     1
102
RTVSPost2010Prop44ColorIndex
 90
        5
102
RTVSPost2010Prop44ColorRGB
 90
      255
102
RTVSPost2010PropOp44
 70
     1
102
RTVSPost2010Prop45
280
     0
102
RTVSPost2010PropOp45
 70
     1
102
RTVSPost2010Prop46
 90
       50
102
RTVSPost2010PropOp46
 70
     1
102
RTVSPost2010Prop47
 90
       50
102
RTVSPost2010PropOp47
 70
     1
102
RTVSPost2010Prop48
 90
       50
102
RTVSPost2010PropOp48
 70
     1
102
RTVSPost2010Prop49
280
     0
102
RTVSPost2010PropOp49
 70
     1
102
RTVSPost2010Prop50
 90
       50
102
RTVSPost2010PropOp50
 70
     1
102
RTVSPost2010Prop51ColorIndex
 90
      256
102
RTVSPost2010Prop51ColorRGB
 90
-16777216
102
RTVSPost2010PropOp51
 70
     0
102
RTVSPost2010Prop52
140
1.0
102
RTVSPost2010PropOp52
 70
     0
102
RTVSPost2010Prop53
 90
        2
102
RTVSPost2010PropOp53
 70
     1
102
RTVSPost2010Prop54
  1
strokes_ogs.tif
102
RTVSPost2010PropOp54
 70
     1
102
RTVSPost2010Prop55
280
     0
102
RTVSPost2010PropOp55
 70
     1
102
RTVSPost2010Prop56
140
1.0
102
RTVSPost2010PropOp56
 70
     1
102
RTVSPost2010Prop57
140
1.0
102
RTVSPost2010PropOp57
 70
     1
102
RTVSPropertyOp0
 70
     1
102
RTVSPropertyOp1
 70
     1
102
RTVSPropertyOp2
 70
     1
102
RTVSPropertyOp3
 70
     1
102
RTVSPropertyOp4
 70
     1
102
RTVSPropertyOp5
 70
     1
102
RTVSPropertyOp6
 70
     1
102
RTVSPropertyOp7
 70
     1
102
RTVSPropertyOp8
 70
     1
102
RTVSPropertyOp9
 70
     1
102
RTVSPropertyOp10
 70
     1
102
RTVSPropertyOp11
 70
     1
102
RTVSPropertyOp12
 70
     1
102
RTVSPropertyOp13
 70
     1
102
RTVSPropertyOp14
 70
     1
102
RTVSPropertyOp15
 70
     1
102
RTVSPropertyOp16
 70
     1
102
RTVSPropertyOp17
 70
     1
102
RTVSPropertyOp18
 70
     1
102
RTVSPropertyOp19
 70
     1
102
RTVSPropertyOp20
 70
     1
102
RTVSPropertyOp21
 70
     1
102
RTVSPropertyOp22
 70
     1
102
RTVSPropertyOp23
 70
     1
102
RTVSPropertyOp24
 70
     1
102
RTVSPropertyOp25
 70
     1
102
RTVSPropertyOp26
 70
     1
102
RTVSPropertyOp27
 70
     1
102
RTVSPropertyOp28
 70
     1
102
RTVSPropertyOp29
 70
     1
102
RTVSPropertyOp30
 70
     1
102
RTVSPropertyOp31
 70
     1
102
RTVSPropertyOp32
 70
     1
102
RTVSPropertyOp33
 70
     1
102
RTVSPropertyOp34
 70
     1
102
RTVSPropertyOp35
 70
     1
102
RTVSPropertyOp36
 70
     1
102
RTVSPropertyOp37
 70
     1
102
RTVSPropertyOp38
 70
     1
102
RTVSPropertyOp39
 70
     1
102
RTVSPropertyOp40
 70
     1
102
RTVSPropertyOp41
 70
     1
102
RTVSPropertyOp42
 70
     1
102
RTVSPropertyOp43
 70
     1
102
RTVSPropertyOp44
 70
     1
102
RTVSPropertyOp45
 70
     1
102
RTVSPropertyOp46
 70
     1
102
RTVSPropertyOp47
 70
     1
102
RTVSPropertyOp48
 70
     1
102
RTVSPropertyOp49
 70
     1
102
RTVSPropertyOp50
 70
     1
102
RTVSPropertyOp51
 70
     0
102
RTVSPropertyOp52
 70
     0
102
RTVSPropertyOp53
 70
     1
102
RTVSPropertyOp54
 70
     1
102
RTVSPropertyOp55
 70
     1
102
RTVSPropertyOp56
 70
     1
102
RTVSPropertyOp57
 70
     1
102
RTVSPropertyOp58
 70
     1
102
RTVSPropertyOp59
 70
     1
102
RTVSPropertyOp60
 70
     1
102
RTVSPropertyOp61
 70
     1
102
RTVSPropertyOp62
 70
     1
  0
XRECORD
  5
307
102
{ACAD_REACTORS
330
306
102
}
330
306
100
AcDbXrecord
280
     1
102
RTVSPost2010Prop28
280
     0
102
RTVSPost2010PropOp28
 70
     1
102
RTVSPost2010Prop29
280
     1
102
RTVSPost2010PropOp29
 70
     1
102
RTVSPost2010Prop30
280
     1
102
RTVSPost2010PropOp30
 70
     1
102
RTVSPost2010Prop31
280
     0
102
RTVSPost2010PropOp31
 70
     1
102
RTVSPost2010Prop32
280
     0
102
RTVSPost2010PropOp32
 70
     1
102
RTVSPost2010Prop33
280
     0
102
RTVSPost2010PropOp33
 70
     1
102
RTVSPost2010Prop34
280
     0
102
RTVSPost2010PropOp34
 70
     1
102
RTVSPost2010Prop35
280
     0
102
RTVSPost2010PropOp35
 70
     1
102
RTVSPost2010Prop36
280
     0
102
RTVSPost2010PropOp36
 70
     1
102
RTVSPost2010Prop37
 90
       50
102
RTVSPost2010PropOp37
 70
     1
102
RTVSPost2010Prop38
140
0.0
102
RTVSPost2010PropOp38
 70
     1
102
RTVSPost2010Prop39
140
1.0
102
RTVSPost2010PropOp39
 70
     1
102
RTVSPost2010Prop40
 90
        0
102
RTVSPost2010PropOp40
 70
     1
102
RTVSPost2010Prop41ColorIndex
 90
       18
102
RTVSPost2010Prop41ColorRGB
 90
        0
102
RTVSPost2010PropOp41
 70
     1
102
RTVSPost2010Prop42
 90
       50
102
RTVSPost2010PropOp42
 70
     1
102
RTVSPost2010Prop43
 90
        3
102
RTVSPost2010PropOp43
 70
     1
102
RTVSPost2010Prop44ColorIndex
 90
        5
102
RTVSPost2010Prop44ColorRGB
 90
      255
102
RTVSPost2010PropOp44
 70
     1
102
RTVSPost2010Prop45
280
     0
102
RTVSPost2010PropOp45
 70
     1
102
RTVSPost2010Prop46
 90
       50
102
RTVSPost2010PropOp46
 70
     1
102
RTVSPost2010Prop47
 90
       50
102
RTVSPost2010PropOp47
 70
     1
102
RTVSPost2010Prop48
 90
       50
102
RTVSPost2010PropOp48
 70
     1
102
RTVSPost2010Prop49
280
     0
102
RTVSPost2010PropOp49
 70
     1
102
RTVSPost2010Prop50
 90
       50
102
RTVSPost2010PropOp50
 70
     1
102
RTVSPost2010Prop51ColorIndex
 90
      256
102
RTVSPost2010Prop51ColorRGB
 90
-16777216
102
RTVSPost2010PropOp51
 70
     0
102
RTVSPost2010Prop52
140
1.0
102
RTVSPost2010PropOp52
 70
     0
102
RTVSPost2010Prop53
 90
        2
102
RTVSPost2010PropOp53
 70
     1
102
RTVSPost2010Prop54
  1
strokes_ogs.tif
102
RTVSPost2010PropOp54
 70
     1
102
RTVSPost2010Prop55
280
     0
102
RTVSPost2010PropOp55
 70
     1
102
RTVSPost2010Prop56
140
1.0
102
RTVSPost2010PropOp56
 70
     1
102
RTVSPost2010Prop57
140
1.0
102
RTVSPost2010PropOp57
 70
     1
102
RTVSPropertyOp0
 70
     1
102
RTVSPropertyOp1
 70
     1
102
RTVSPropertyOp2
 70
     1
102
RTVSPropertyOp3
 70
     1
102
RTVSPropertyOp4
 70
     1
102
RTVSPropertyOp5
 70
     1
102
RTVSPropertyOp6
 70
     1
102
RTVSPropertyOp7
 70
     1
102
RTVSPropertyOp8
 70
     1
102
RTVSPropertyOp9
 70
     1
102
RTVSPropertyOp10
 70
     1
102
RTVSPropertyOp11
 70
     1
102
RTVSPropertyOp12
 70
     1
102
RTVSPropertyOp13
 70
     1
102
RTVSPropertyOp14
 70
     1
102
RTVSPropertyOp15
 70
     1
102
RTVSPropertyOp16
 70
     1
102
RTVSPropertyOp17
 70
     1
102
RTVSPropertyOp18
 70
     1
102
RTVSPropertyOp19
 70
     1
102
RTVSPropertyOp20
 70
     1
102
RTVSPropertyOp21
 70
     1
102
RTVSPropertyOp22
 70
     1
102
RTVSPropertyOp23
 70
     1
102
RTVSPropertyOp24
 70
     1
102
RTVSPropertyOp25
 70
     1
102
RTVSPropertyOp26
 70
     1
102
RTVSPropertyOp27
 70
     1
102
RTVSPropertyOp28
 70
     1
102
RTVSPropertyOp29
 70
     1
102
RTVSPropertyOp30
 70
     1
102
RTVSPropertyOp31
 70
     1
102
RTVSPropertyOp32
 70
     1
102
RTVSPropertyOp33
 70
     1
102
RTVSPropertyOp34
 70
     1
102
RTVSPropertyOp35
 70
     1
102
RTVSPropertyOp36
 70
     1
102
RTVSPropertyOp37
 70
     1
102
RTVSPropertyOp38
 70
     1
102
RTVSPropertyOp39
 70
     1
102
RTVSPropertyOp40
 70
     1
102
RTVSPropertyOp41
 70
     1
102
RTVSPropertyOp42
 70
     1
102
RTVSPropertyOp43
 70
     1
102
RTVSPropertyOp44
 70
     1
102
RTVSPropertyOp45
 70
     1
102
RTVSPropertyOp46
 70
     1
102
RTVSPropertyOp47
 70
     1
102
RTVSPropertyOp48
 70
     1
102
RTVSPropertyOp49
 70
     1
102
RTVSPropertyOp50
 70
     1
102
RTVSPropertyOp51
 70
     0
102
RTVSPropertyOp52
 70
     0
102
RTVSPropertyOp53
 70
     1
102
RTVSPropertyOp54
 70
     1
102
RTVSPropertyOp55
 70
     1
102
RTVSPropertyOp56
 70
     1
102
RTVSPropertyOp57
 70
     1
102
RTVSPropertyOp58
 70
     1
102
RTVSPropertyOp59
 70
     1
102
RTVSPropertyOp60
 70
     1
102
RTVSPropertyOp61
 70
     1
102
RTVSPropertyOp62
 70
     1
  0
ENDSEC
  0
EOF
