  0
SECTION
  2
HEADER
  9
$ACADVER
  1
AC1009
  9
$INSBASE
 10
0.0
 20
0.0
 30
0.0
  9
$EXTMIN
 10
111.7391051842195
 20
81.41968823472721
 30
0.0
  9
$EXTMAX
 10
42161.73910518421
 20
29781.41968823473
 30
0.0
  9
$LIMMIN
 10
0.0
 20
0.0
  9
$LIMMAX
 10
420.0
 20
297.0
  9
$ORTHOMODE
 70
     0
  9
$REGENMODE
 70
     1
  9
$FILLMODE
 70
     1
  9
$QTEXTMODE
 70
     0
  9
$MIRRTEXT
 70
     1
  9
$DRAGMODE
 70
     2
  9
$LTSCALE
 40
1.0
  9
$OSMODE
 70
     0
  9
$ATTMODE
 70
     1
  9
$TEXTSIZE
 40
3.5
  9
$TRACEWID
 40
1.0
  9
$TEXTSTYLE
  7
STANDARD
  9
$CLAYER
  8
YKK_F1
  9
$CELTYPE
  6
BYLAYER
  9
$CECOLOR
 62
   256
  9
$DIMSCALE
 40
1.0
  9
$DIMASZ
 40
2.5
  9
$DIMEXO
 40
0.625
  9
$DIMDLI
 40
3.75
  9
$DIMRND
 40
0.0
  9
$DIMDLE
 40
0.0
  9
$DIMEXE
 40
1.25
  9
$DIMTP
 40
0.0
  9
$DIMTM
 40
0.0
  9
$DIMTXT
 40
2.5
  9
$DIMCEN
 40
2.5
  9
$DIMTSZ
 40
0.0
  9
$DIMTOL
 70
     0
  9
$DIMLIM
 70
     0
  9
$DIMTIH
 70
     1
  9
$DIMTOH
 70
     0
  9
$DIMSE1
 70
     0
  9
$DIMSE2
 70
     0
  9
$DIMTAD
 70
     1
  9
$DIMZIN
 70
     0
  9
$DIMBLK
  1

  9
$DIMASO
 70
     1
  9
$DIMSHO
 70
     1
  9
$DIMPOST
  1

  9
$DIMAPOST
  1

  9
$DIMALT
 70
     0
  9
$DIMALTD
 70
     2
  9
$DIMALTF
 40
0.0394
  9
$DIMLFAC
 40
1.0
  9
$DIMTOFL
 70
     1
  9
$DIMTVP
 40
1.0
  9
$DIMTIX
 70
     0
  9
$DIMSOXD
 70
     0
  9
$DIMSAH
 70
     0
  9
$DIMBLK1
  1

  9
$DIMBLK2
  1

  9
$DIMSTYLE
  2
*UNNAMED
  9
$DIMCLRD
 70
     0
  9
$DIMCLRE
 70
     0
  9
$DIMCLRT
 70
     0
  9
$DIMTFAC
 40
1.0
  9
$DIMGAP
 40
0.625
  9
$LUNITS
 70
     2
  9
$LUPREC
 70
     4
  9
$SKETCHINC
 40
1.0
  9
$FILLETRAD
 40
0.0
  9
$AUNITS
 70
     0
  9
$AUPREC
 70
     0
  9
$MENU
  1
ACAD
  9
$ELEVATION
 40
0.0
  9
$PELEVATION
 40
0.0
  9
$THICKNESS
 40
0.0
  9
$LIMCHECK
 70
     0
  9
$BLIPMODE
 70
     1
  9
$CHAMFERA
 40
10.0
  9
$CHAMFERB
 40
10.0
  9
$SKPOLY
 70
     0
  9
$TDCREATE
 40
2450238.477175926
  9
$TDUPDATE
 40
2450620.592928240
  9
$TDINDWG
 40
0.0551888889
  9
$TDUSRTIMER
 40
0.0551888889
  9
$USRTIMER
 70
     1
  9
$ANGBASE
 50
0.0
  9
$ANGDIR
 70
     0
  9
$PDMODE
 70
     0
  9
$PDSIZE
 40
0.0
  9
$PLINEWID
 40
0.0
  9
$COORDS
 70
     0
  9
$SPLFRAME
 70
     0
  9
$SPLINETYPE
 70
     6
  9
$SPLINESEGS
 70
     8
  9
$ATTDIA
 70
     0
  9
$ATTREQ
 70
     1
  9
$HANDLING
 70
     0
  9
$HANDSEED
  5
0
  9
$SURFTAB1
 70
     6
  9
$SURFTAB2
 70
     6
  9
$SURFTYPE
 70
     6
  9
$SURFU
 70
     6
  9
$SURFV
 70
     6
  9
$UCSNAME
  2

  9
$UCSORG
 10
0.0
 20
0.0
 30
0.0
  9
$UCSXDIR
 10
1.0
 20
0.0
 30
0.0
  9
$UCSYDIR
 10
0.0
 20
1.0
 30
0.0
  9
$PUCSNAME
  2

  9
$PUCSORG
 10
0.0
 20
0.0
 30
0.0
  9
$PUCSXDIR
 10
1.0
 20
0.0
 30
0.0
  9
$PUCSYDIR
 10
0.0
 20
1.0
 30
0.0
  9
$USERI1
 70
     0
  9
$USERI2
 70
     0
  9
$USERI3
 70
     0
  9
$USERI4
 70
     0
  9
$USERI5
 70
     0
  9
$USERR1
 40
0.0
  9
$USERR2
 40
0.0
  9
$USERR3
 40
0.0
  9
$USERR4
 40
0.0
  9
$USERR5
 40
0.0
  9
$WORLDVIEW
 70
     1
  9
$SHADEDGE
 70
     3
  9
$SHADEDIF
 70
    70
  9
$TILEMODE
 70
     1
  9
$MAXACTVP
 70
    16
  9
$PINSBASE
 10
0.0
 20
0.0
 30
0.0
  9
$PLIMCHECK
 70
     0
  9
$PEXTMIN
 10
1.000000000000000E+20
 20
1.000000000000000E+20
 30
1.000000000000000E+20
  9
$PEXTMAX
 10
-1.000000000000000E+20
 20
-1.000000000000000E+20
 30
-1.000000000000000E+20
  9
$PLIMMIN
 10
0.0
 20
0.0
  9
$PLIMMAX
 10
420.0
 20
297.0
  9
$UNITMODE
 70
     0
  9
$VISRETAIN
 70
     0
  9
$PLINEGEN
 70
     0
  9
$PSLTSCALE
 70
     1
  9
$TREEDEPTH
 70
  3020
  9
$DWGCODEPAGE
  3
dos932
  0
ENDSEC
  0
SECTION
  2
TABLES
  0
TABLE
  2
VPORT
 70
     2
  0
VPORT
  2
*ACTIVE
 70
     0
 10
0.0
 20
0.0
 11
1.0
 21
1.0
 12
21080.8695525921
 22
15238.50110870471
 13
0.0
 23
0.0
 14
10.0
 24
10.0
 15
10.0
 25
10.0
 16
0.0
 26
0.0
 36
1.0
 17
0.0
 27
0.0
 37
0.0
 40
33507.99668964782
 41
1.332576617480136
 42
50.0
 43
0.0
 44
0.0
 50
0.0
 51
0.0
 71
     0
 72
   100
 73
     1
 74
     0
 75
     1
 76
     0
 77
     0
 78
     0
  0
ENDTAB
  0
TABLE
  2
LTYPE
 70
     1
  0
LTYPE
  2
CONTINUOUS
 70
    64
  3
Solid line
 72
    65
 73
     0
 40
0.0
  0
ENDTAB
  0
TABLE
  2
LAYER
 70
     2
  0
LAYER
  2
0
 70
    64
 62
     7
  6
CONTINUOUS
  0
LAYER
  2
YKK_F1
 70
    64
 62
     7
  6
CONTINUOUS
  0
ENDTAB
  0
TABLE
  2
STYLE
 70
     2
  0
STYLE
  2
STANDARD
 70
    64
 40
0.0
 41
1.0
 50
0.0
 71
     0
 42
3.5
  3
txt
  4

  0
STYLE
  2
EXTFONT
 70
    64
 40
0.0
 41
1.0
 50
0.0
 71
     0
 42
3.5
  3

  4
EXTFONT.SHX
  0
ENDTAB
  0
TABLE
  2
VIEW
 70
     0
  0
ENDTAB
  0
TABLE
  2
UCS
 70
     0
  0
ENDTAB
  0
TABLE
  2
APPID
 70
     1
  0
APPID
  2
ACAD
 70
    64
  0
ENDTAB
  0
TABLE
  2
DIMSTYLE
 70
     0
  0
ENDTAB
  0
ENDSEC
  0
SECTION
  2
BLOCKS
  0
ENDSEC
  0
SECTION
  2
ENTITIES
  0
LINE
  8
YKK_F1
 10
111.7391051842195
 20
81.41968823472723
 30
0.0
 11
111.7391051842195
 21
29781.41968823472
 31
0.0
  0
LINE
  8
YKK_F1
 10
111.7391051842195
 20
81.41968823472723
 30
0.0
 11
42161.73910518421
 21
81.41968823472721
 31
0.0
  0
LINE
  8
YKK_F1
 10
42161.73910518421
 20
81.41968823472721
 30
0.0
 11
42161.73910518421
 21
29781.41968823472
 31
0.0
  0
TEXT
  8
YKK_F1
 10
871.7011151842198
 20
1857.735588234727
 30
0.0
 40
100.0
  1
付記：
  7
EXTFONT
  0
TEXT
  8
YKK_F1
 10
1371.701115184219
 20
1281.795688234727
 30
0.0
 40
250.0
  1
*
  7
EXTFONT
  0
TEXT
  8
YKK_F1
 10
1371.701115184219
 20
1031.043888234727
 30
0.0
 40
250.0
  1
*
  7
EXTFONT
  0
TEXT
  8
YKK_F1
 10
1371.701115184219
 20
781.043888234727
 30
0.0
 40
250.0
  1
*
  7
EXTFONT
  0
TEXT
  8
YKK_F1
 10
1371.701115184219
 20
1782.735588234727
 30
0.0
 40
250.0
  1
*
  7
EXTFONT
  0
TEXT
  8
YKK_F1
 10
1371.701115184219
 20
1531.795688234727
 30
0.0
 40
250.0
  1
*
  7
EXTFONT
  0
TEXT
  8
YKK_F1
 10
23116.06210518422
 20
1065.968488234727
 30
0.0
 40
100.0
  1
測量　　年　　月　　日
  7
EXTFONT
  0
TEXT
  8
YKK_F1
 10
23116.06210518422
 20
1482.697888234727
 30
0.0
 40
100.0
  1
設計　　年　　月　　日
  7
EXTFONT
  0
TEXT
  8
YKK_F1
 10
23116.06210518422
 20
1897.735588234727
 30
0.0
 40
100.0
  1
審査　　年　　月　　日
  7
EXTFONT
  0
TEXT
  8
YKK_F1
 10
36148.49443851755
 20
1681.795688234727
 30
0.0
 40
200.0
  1
(仮称)○×ビル新築工事
  7
EXTFONT
 72
     4
 11
37455.16110518422
 21
1781.795688234727
 31
0.0
  0
TEXT
  8
YKK_F1
 10
36361.82777185088
 20
1056.795688234727
 30
0.0
 40
200.0
  1
建具表－（　　　　　　　　）
  7
EXTFONT
 72
     4
 11
37955.16110518422
 21
1156.795688234727
 31
0.0
  0
TEXT
  8
YKK_F1
 10
31008.54610518422
 20
1148.863388234727
 30
0.0
 40
100.0
  1
担当者
  7
EXTFONT
  0
TEXT
  8
YKK_F1
 10
31008.54610518422
 20
1897.735588234727
 30
0.0
 40
100.0
  1
管理建築士
  7
EXTFONT
  0
TEXT
  8
YKK_F1
 10
34006.28910518421
 20
1897.735588234727
 30
0.0
 40
100.0
  1
設計No.
  7
EXTFONT
  0
TEXT
  8
YKK_F1
 10
34006.28910518421
 20
1398.675288234727
 30
0.0
 40
100.0
  1
縮尺
  7
EXTFONT
  0
TEXT
  8
YKK_F1
 10
35505.16110518421
 20
1398.675288234727
 30
0.0
 40
100.0
  1
図面名
  7
EXTFONT
  0
TEXT
  8
YKK_F1
 10
35505.1611051842
 20
1897.735588234727
 30
0.0
 40
100.0
  1
名称
  7
EXTFONT
  0
TEXT
  8
YKK_F1
 10
41079.11551787569
 20
832.5366806661266
 30
0.0
 40
100.0
  1
枚の内
  7
EXTFONT
  0
TEXT
  8
YKK_F1
 10
39502.52910518422
 20
1706.795688234727
 30
0.0
 40
150.0
  1
工事設計図
  7
EXTFONT
 72
     2
 11
40352.52910518422
 21
1706.795688234727
 31
0.0
  0
TEXT
  8
YKK_F1
 10
40502.52910518421
 20
1897.735588234727
 30
0.0
 40
100.0
  1
図面No.
  7
EXTFONT
  0
LINE
  8
YKK_F1
  6
CONTINUOUS
 10
1011.778105184221
 20
22944.35598823472
 30
0.0
 11
41261.77810518423
 21
22944.35598823472
 31
0.0
  0
LINE
  8
YKK_F1
  6
CONTINUOUS
 10
1011.778105184221
 20
25194.35598823472
 30
0.0
 11
41261.77810518423
 21
25194.35598823472
 31
0.0
  0
LINE
  8
YKK_F1
  6
CONTINUOUS
 10
1011.778105184221
 20
24944.35598823472
 30
0.0
 11
41261.77810518423
 21
24944.35598823472
 31
0.0
  0
LINE
  8
YKK_F1
  6
CONTINUOUS
 10
1011.778105184221
 20
24694.35598823472
 30
0.0
 11
41261.77810518423
 21
24694.35598823472
 31
0.0
  0
LINE
  8
YKK_F1
  6
CONTINUOUS
 10
1011.778105184221
 20
24444.35598823472
 30
0.0
 11
41261.77810518423
 21
24444.35598823472
 31
0.0
  0
LINE
  8
YKK_F1
  6
CONTINUOUS
 10
1011.778105184221
 20
24194.35598823472
 30
0.0
 11
41261.77810518423
 21
24194.35598823472
 31
0.0
  0
LINE
  8
YKK_F1
  6
CONTINUOUS
 10
1011.778105184221
 20
23944.35598823472
 30
0.0
 11
41261.77810518423
 21
23944.35598823472
 31
0.0
  0
LINE
  8
YKK_F1
  6
CONTINUOUS
 10
1011.778105184221
 20
23694.35598823472
 30
0.0
 11
41261.77810518423
 21
23694.35598823472
 31
0.0
  0
LINE
  8
YKK_F1
  6
CONTINUOUS
 10
1011.778105184221
 20
23444.35598823472
 30
0.0
 11
41261.77810518423
 21
23444.35598823472
 31
0.0
  0
LINE
  8
YKK_F1
  6
CONTINUOUS
 10
1011.778105184221
 20
23194.35598823472
 30
0.0
 11
41261.77810518423
 21
23194.35598823472
 31
0.0
  0
LINE
  8
YKK_F1
  6
CONTINUOUS
 10
1011.778105184221
 20
28149.35598823472
 30
0.0
 11
41261.77810518423
 21
28149.35598823472
 31
0.0
  0
LINE
  8
YKK_F1
  6
CONTINUOUS
 10
1011.778105184221
 20
28399.35598823472
 30
0.0
 11
41261.77810518423
 21
28399.35598823472
 31
0.0
  0
LINE
  8
YKK_F1
  6
CONTINUOUS
 10
1011.778105184221
 20
22444.35598823472
 30
0.0
 11
41261.77810518423
 21
22444.35598823472
 31
0.0
  0
LINE
  8
YKK_F1
  6
CONTINUOUS
 10
1011.778105184221
 20
22194.35598823472
 30
0.0
 11
41261.77810518423
 21
22194.35598823472
 31
0.0
  0
LINE
  8
YKK_F1
  6
CONTINUOUS
 10
1011.778105184221
 20
17239.35598823472
 30
0.0
 11
41261.77810518423
 21
17239.35598823472
 31
0.0
  0
LINE
  8
YKK_F1
  6
CONTINUOUS
 10
1011.778105184221
 20
17489.35598823472
 30
0.0
 11
41261.77810518423
 21
17489.35598823472
 31
0.0
  0
LINE
  8
YKK_F1
  6
CONTINUOUS
 10
1011.778105184221
 20
17739.35598823472
 30
0.0
 11
41261.77810518423
 21
17739.35598823472
 31
0.0
  0
LINE
  8
YKK_F1
  6
CONTINUOUS
 10
1011.778105184221
 20
17989.35598823472
 30
0.0
 11
41261.77810518423
 21
17989.35598823472
 31
0.0
  0
LINE
  8
YKK_F1
  6
CONTINUOUS
 10
1011.778105184221
 20
18239.35598823472
 30
0.0
 11
41261.77810518423
 21
18239.35598823472
 31
0.0
  0
LINE
  8
YKK_F1
  6
CONTINUOUS
 10
1011.778105184221
 20
18489.35598823472
 30
0.0
 11
41261.77810518423
 21
18489.35598823472
 31
0.0
  0
LINE
  8
YKK_F1
  6
CONTINUOUS
 10
1011.778105184221
 20
18739.35598823472
 30
0.0
 11
41261.77810518423
 21
18739.35598823472
 31
0.0
  0
LINE
  8
YKK_F1
  6
CONTINUOUS
 10
1011.778105184221
 20
18989.35598823472
 30
0.0
 11
41261.77810518423
 21
18989.35598823472
 31
0.0
  0
LINE
  8
YKK_F1
  6
CONTINUOUS
 10
1011.778105184221
 20
19239.35598823472
 30
0.0
 11
41261.77810518423
 21
19239.35598823472
 31
0.0
  0
LINE
  8
YKK_F1
  6
CONTINUOUS
 10
1011.778105184221
 20
13284.35598823472
 30
0.0
 11
41261.77810518423
 21
13284.35598823472
 31
0.0
  0
LINE
  8
YKK_F1
  6
CONTINUOUS
 10
1011.778105184221
 20
13034.35598823472
 30
0.0
 11
41261.77810518423
 21
13034.35598823472
 31
0.0
  0
LINE
  8
YKK_F1
  6
CONTINUOUS
 10
1011.778105184221
 20
12784.35598823472
 30
0.0
 11
41261.77810518423
 21
12784.35598823472
 31
0.0
  0
LINE
  8
YKK_F1
  6
CONTINUOUS
 10
1011.778105184221
 20
12534.35598823472
 30
0.0
 11
41261.77810518423
 21
12534.35598823472
 31
0.0
  0
LINE
  8
YKK_F1
  6
CONTINUOUS
 10
1011.778105184221
 20
12284.35598823472
 30
0.0
 11
41261.77810518423
 21
12284.35598823472
 31
0.0
  0
LINE
  8
YKK_F1
  6
CONTINUOUS
 10
1011.778105184221
 20
12034.35598823472
 30
0.0
 11
41261.77810518423
 21
12034.35598823472
 31
0.0
  0
LINE
  8
YKK_F1
  6
CONTINUOUS
 10
1011.778105184221
 20
11784.35598823472
 30
0.0
 11
41261.77810518423
 21
11784.35598823472
 31
0.0
  0
LINE
  8
YKK_F1
  6
CONTINUOUS
 10
1011.778105184221
 20
11534.35598823472
 30
0.0
 11
41261.77810518423
 21
11534.35598823472
 31
0.0
  0
LINE
  8
YKK_F1
  6
CONTINUOUS
 10
1011.778105184221
 20
11284.35598823472
 30
0.0
 11
41261.77810518423
 21
11284.35598823472
 31
0.0
  0
LINE
  8
YKK_F1
  6
CONTINUOUS
 10
1011.778105184221
 20
16239.35598823472
 30
0.0
 11
41261.77810518423
 21
16239.35598823472
 31
0.0
  0
LINE
  8
YKK_F1
  6
CONTINUOUS
 10
1011.778105184221
 20
16489.35598823472
 30
0.0
 11
41261.77810518423
 21
16489.35598823472
 31
0.0
  0
LINE
  8
YKK_F1
  6
CONTINUOUS
 10
1011.778105184221
 20
16989.35598823472
 30
0.0
 11
41261.77810518423
 21
16989.35598823472
 31
0.0
  0
LINE
  8
YKK_F1
  6
CONTINUOUS
 10
1011.778105184221
 20
11034.35598823472
 30
0.0
 11
41261.77810518423
 21
11034.35598823472
 31
0.0
  0
LINE
  8
YKK_F1
  6
CONTINUOUS
 10
1011.778105184221
 20
28899.35598823472
 30
0.0
 11
41261.77810518422
 21
28899.35598823472
 31
0.0
  0
LINE
  8
YKK_F1
  6
CONTINUOUS
 10
821.7011151842198
 20
29068.63868823472
 30
0.0
 11
41451.77810518421
 21
29068.63868823472
 31
0.0
  0
LINE
  8
YKK_F1
  6
CONTINUOUS
 10
621.5135651842174
 20
29268.82568823473
 30
0.0
 11
41652.52910518422
 21
29268.82568823473
 31
0.0
  0
LINE
  8
YKK_F1
  6
CONTINUOUS
 10
809.2958051842179
 20
29081.04368823472
 30
0.0
 11
41464.18410518422
 21
29081.04368823472
 31
0.0
  0
LINE
  8
YKK_F1
  6
CONTINUOUS
 10
796.8895651842212
 20
29094.01368823472
 30
0.0
 11
41477.15610518423
 21
29094.01368823472
 31
0.0
  0
LINE
  8
YKK_F1
  6
CONTINUOUS
 10
783.9197951842179
 20
29106.98568823472
 30
0.0
 11
41489.56010518422
 21
29106.98568823472
 31
0.0
  0
LINE
  8
YKK_F1
  6
CONTINUOUS
 10
771.5135551842213
 20
29119.38968823473
 30
0.0
 11
41501.96810518422
 21
29119.38968823473
 31
0.0
  0
LINE
  8
YKK_F1
  6
CONTINUOUS
 10
771.5135551842213
 20
2030.855988234727
 30
0.0
 11
41501.96810518422
 21
2030.855988234727
 31
0.0
  0
LINE
  8
YKK_F1
  6
CONTINUOUS
 10
41489.56010518422
 20
744.0137482347271
 30
0.0
 11
783.9197951842179
 21
744.0137482347271
 31
0.0
  0
LINE
  8
YKK_F1
  6
CONTINUOUS
 10
41477.15610518423
 20
756.4197782347272
 30
0.0
 11
796.8895651842212
 21
756.4197782347272
 31
0.0
  0
LINE
  8
YKK_F1
  6
CONTINUOUS
 10
41464.18410518422
 20
769.389708234727
 30
0.0
 11
809.2958051842179
 21
769.389708234727
 31
0.0
  0
LINE
  8
YKK_F1
  6
CONTINUOUS
 10
41451.77810518421
 20
782.359698234727
 30
0.0
 11
821.7011151842198
 21
782.359698234727
 31
0.0
  0
LINE
  8
YKK_F1
  6
CONTINUOUS
 10
41501.96810518422
 20
731.6076782347271
 30
0.0
 11
771.5135551842213
 21
731.6076782347271
 31
0.0
  0
LINE
  8
YKK_F1
  6
CONTINUOUS
 10
41652.52910518422
 20
582.1717082347271
 30
0.0
 11
621.5135651842174
 21
582.1717082347271
 31
0.0
  0
LINE
  8
YKK_F1
  6
CONTINUOUS
 10
1011.778105184221
 20
5079.355988234725
 30
0.0
 11
1011.778105184221
 21
28899.35598823472
 31
0.0
  0
LINE
  8
YKK_F1
  6
CONTINUOUS
 10
5661.778105184222
 20
5079.355988234725
 30
0.0
 11
5661.778105184222
 21
28899.35598823472
 31
0.0
  0
LINE
  8
YKK_F1
  6
CONTINUOUS
 10
821.7011151842198
 20
782.359698234727
 30
0.0
 11
821.7011151842198
 21
29068.63868823472
 31
0.0
  0
LINE
  8
YKK_F1
  6
CONTINUOUS
 10
809.2958051842179
 20
769.389708234727
 30
0.0
 11
809.2958051842179
 21
29081.04368823472
 31
0.0
  0
LINE
  8
YKK_F1
  6
CONTINUOUS
 10
796.8895651842212
 20
756.4197782347272
 30
0.0
 11
796.8895651842212
 21
29094.01368823472
 31
0.0
  0
LINE
  8
YKK_F1
  6
CONTINUOUS
 10
783.9197951842179
 20
744.0137482347271
 30
0.0
 11
783.9197951842179
 21
29106.98568823472
 31
0.0
  0
LINE
  8
YKK_F1
  6
CONTINUOUS
 10
771.5135551842213
 20
731.6076782347271
 30
0.0
 11
771.5135551842213
 21
29119.38968823473
 31
0.0
  0
LINE
  8
YKK_F1
  6
CONTINUOUS
 10
621.5135651842174
 20
582.1717082347271
 30
0.0
 11
621.5135651842174
 21
29268.82568823473
 31
0.0
  0
LINE
  8
YKK_F1
  6
CONTINUOUS
 10
23066.06210518422
 20
1032.171718234727
 30
0.0
 11
771.5135551842213
 21
1032.171718234727
 31
0.0
  0
LINE
  8
YKK_F1
  6
CONTINUOUS
 10
23066.06210518422
 20
1281.983788234727
 30
0.0
 11
771.5135551842213
 21
1281.983788234727
 31
0.0
  0
LINE
  8
YKK_F1
  6
CONTINUOUS
 10
23066.06210518422
 20
1531.795688234727
 30
0.0
 11
771.5135551842213
 21
1531.795688234727
 31
0.0
  0
LINE
  8
YKK_F1
  6
CONTINUOUS
 10
23066.06210518422
 20
1782.735588234727
 30
0.0
 11
771.5135551842213
 21
1782.735588234727
 31
0.0
  0
LINE
  8
YKK_F1
  6
CONTINUOUS
 10
24564.93510518422
 20
1199.088888234727
 30
0.0
 11
23066.06210518422
 21
1199.088888234727
 31
0.0
  0
LINE
  8
YKK_F1
  6
CONTINUOUS
 10
24564.93510518422
 20
1615.818288234727
 30
0.0
 11
23066.06210518422
 21
1615.818288234727
 31
0.0
  0
TEXT
  8
YKK_F1
  6
CONTINUOUS
 10
23282.04010518422
 20
831.4196882347271
 30
0.0
 40
150.0
  1
'97,**,**
  0
TEXT
  8
YKK_F1
  6
CONTINUOUS
 10
23282.04010518422
 20
1248.149088234727
 30
0.0
 40
150.0
  1
'97,**,**
  0
TEXT
  8
YKK_F1
  6
CONTINUOUS
 10
23282.04010518422
 20
1664.878488234727
 30
0.0
 40
150.0
  1
'97,**,**
  0
LINE
  8
YKK_F1
  6
CONTINUOUS
 10
23066.06210518422
 20
2030.855988234727
 30
0.0
 11
23066.06210518422
 21
731.6076782347271
 31
0.0
  0
LINE
  8
YKK_F1
  6
CONTINUOUS
 10
24564.93510518422
 20
2030.855988234727
 30
0.0
 11
24564.93510518422
 21
731.6076782347271
 31
0.0
  0
CIRCLE
  8
YKK_F1
 10
6061.778105184221
 20
28649.35598823472
 30
0.0
 40
233.3333333333333
  0
LINE
  8
YKK_F1
  6
CONTINUOUS
 10
5836.778105184222
 20
28649.35598823472
 30
0.0
 11
6286.778105184222
 21
28649.35598823472
 31
0.0
  0
TEXT
  8
YKK_F1
 10
5901.778105184221
 20
28449.35598823472
 30
0.0
 40
160.0
  1
ＡＷ
  7
EXTFONT
  0
LINE
  8
YKK_F1
  6
CONTINUOUS
 10
41451.77810518421
 20
782.359698234727
 30
0.0
 11
41451.77810518421
 21
29068.63868823472
 31
0.0
  0
LINE
  8
YKK_F1
  6
CONTINUOUS
 10
41489.56010518422
 20
744.0137482347271
 30
0.0
 11
41489.56010518422
 21
29106.98568823472
 31
0.0
  0
LINE
  8
YKK_F1
  6
CONTINUOUS
 10
41477.15610518423
 20
756.4197782347272
 30
0.0
 11
41477.15610518423
 21
29094.01368823472
 31
0.0
  0
LINE
  8
YKK_F1
  6
CONTINUOUS
 10
41464.18410518422
 20
769.389708234727
 30
0.0
 11
41464.18410518422
 21
29081.04368823472
 31
0.0
  0
LINE
  8
YKK_F1
  6
CONTINUOUS
 10
41501.96810518422
 20
731.6076782347271
 30
0.0
 11
41501.96810518422
 21
29119.38968823473
 31
0.0
  0
LINE
  8
YKK_F1
  6
CONTINUOUS
 10
41652.52910518422
 20
582.1717082347271
 30
0.0
 11
41652.52910518422
 21
29268.82568823473
 31
0.0
  0
LINE
  8
YKK_F1
  6
CONTINUOUS
 10
33956.28910518421
 20
1531.795688234727
 30
0.0
 11
40452.52910518422
 21
1531.795688234727
 31
0.0
  0
LINE
  8
YKK_F1
  6
CONTINUOUS
 10
33956.28910518421
 20
1281.983788234727
 30
0.0
 11
30958.54610518422
 21
1281.983788234727
 31
0.0
  0
LINE
  8
YKK_F1
  6
CONTINUOUS
 10
30958.54610518422
 20
2030.855988234727
 30
0.0
 11
30958.54610518422
 21
731.6076782347271
 31
0.0
  0
LINE
  8
YKK_F1
  6
CONTINUOUS
 10
33956.28910518421
 20
2030.855988234727
 30
0.0
 11
33956.28910518421
 21
731.6076782347271
 31
0.0
  0
LINE
  8
YKK_F1
  6
CONTINUOUS
 10
35055.91310518422
 20
1432.547688234727
 30
0.0
 11
34355.53710518422
 21
882.1716782347269
 31
0.0
  0
TEXT
  8
YKK_F1
  6
CONTINUOUS
 10
34418.69510518422
 20
1195.141588234727
 30
0.0
 40
150.0
  1
1
  0
TEXT
  8
YKK_F1
  6
CONTINUOUS
 10
34955.57413222156
 20
947.9586473049979
 30
0.0
 40
150.0
  1
50
  0
LINE
  8
YKK_F1
  6
CONTINUOUS
 10
35455.16110518422
 20
2030.855988234727
 30
0.0
 11
35455.16110518422
 21
731.6076782347271
 31
0.0
  0
LINE
  8
YKK_F1
  6
CONTINUOUS
 10
41351.96710518421
 20
1732.547588234727
 30
0.0
 11
40552.34310518422
 21
1082.923688234727
 31
0.0
  0
LINE
  8
YKK_F1
  6
CONTINUOUS
 10
40452.52910518422
 20
2030.855988234727
 30
0.0
 11
40452.52910518422
 21
731.6076782347271
 31
0.0
  0
LINE
  8
YKK_F1
 10
42161.73910518421
 20
81.41968823472721
 30
0.0
 11
42161.73910518421
 21
29781.41968823472
 31
0.0
  0
LINE
  8
YKK_F1
  6
CONTINUOUS
 10
10747.4923908985
 20
5079.355988234725
 30
0.0
 11
10747.4923908985
 21
28899.35598823472
 31
0.0
  0
CIRCLE
  8
YKK_F1
 10
6061.778105184221
 20
28649.35598823472
 30
0.0
 40
233.3333333333333
  0
TEXT
  8
YKK_F1
 10
5901.778105184221
 20
28449.35598823472
 30
0.0
 40
160.0
  1
ＡＷ
  7
EXTFONT
  0
LINE
  8
YKK_F1
  6
CONTINUOUS
 10
5828.444771850858
 20
28649.35598823472
 30
0.0
 11
6295.111438517584
 21
28649.35598823473
 31
0.0
  0
TEXT
  8
YKK_F1
 10
10217.4923908985
 20
28424.35598823472
 30
0.0
 40
200.0
  1
箇所
  7
EXTFONT
  0
LINE
  8
YKK_F1
  6
CONTINUOUS
 10
1011.778105184221
 20
5079.355988234725
 30
0.0
 11
41261.77810518423
 21
5079.355988234725
 31
0.0
  0
LINE
  8
YKK_F1
  6
CONTINUOUS
 10
1011.778105184221
 20
10534.35598823472
 30
0.0
 11
41261.77810518423
 21
10534.35598823472
 31
0.0
  0
LINE
  8
YKK_F1
  6
CONTINUOUS
 10
1011.778105184221
 20
10284.35598823472
 30
0.0
 11
41261.77810518423
 21
10284.35598823472
 31
0.0
  0
LINE
  8
YKK_F1
  6
CONTINUOUS
 10
1011.778105184221
 20
5329.355988234725
 30
0.0
 11
41261.77810518423
 21
5329.355988234725
 31
0.0
  0
LINE
  8
YKK_F1
  6
CONTINUOUS
 10
1011.778105184221
 20
5579.355988234725
 30
0.0
 11
41261.77810518423
 21
5579.355988234725
 31
0.0
  0
LINE
  8
YKK_F1
  6
CONTINUOUS
 10
1011.778105184221
 20
5829.355988234725
 30
0.0
 11
41261.77810518423
 21
5829.355988234725
 31
0.0
  0
LINE
  8
YKK_F1
  6
CONTINUOUS
 10
1011.778105184221
 20
6079.355988234725
 30
0.0
 11
41261.77810518423
 21
6079.355988234725
 31
0.0
  0
LINE
  8
YKK_F1
  6
CONTINUOUS
 10
1011.778105184221
 20
6329.355988234725
 30
0.0
 11
41261.77810518423
 21
6329.355988234725
 31
0.0
  0
LINE
  8
YKK_F1
  6
CONTINUOUS
 10
1011.778105184221
 20
6579.355988234725
 30
0.0
 11
41261.77810518423
 21
6579.355988234725
 31
0.0
  0
LINE
  8
YKK_F1
  6
CONTINUOUS
 10
1011.778105184221
 20
6829.355988234725
 30
0.0
 11
41261.77810518423
 21
6829.355988234725
 31
0.0
  0
LINE
  8
YKK_F1
  6
CONTINUOUS
 10
1011.778105184221
 20
7079.355988234725
 30
0.0
 11
41261.77810518423
 21
7079.355988234725
 31
0.0
  0
LINE
  8
YKK_F1
  6
CONTINUOUS
 10
1011.778105184221
 20
7329.355988234725
 30
0.0
 11
41261.77810518423
 21
7329.355988234725
 31
0.0
  0
TEXT
  8
YKK_F1
 10
2155.46713887461
 20
17759.35598823472
 30
0.0
 40
200.0
  1
建　　具　　金　　物
  7
EXTFONT
 72
     1
 11
3328.800472207944
 21
17759.35598823472
 31
0.0
  0
TEXT
  8
YKK_F1
 10
2275.467138874611
 20
17009.35598823472
 30
0.0
 40
200.0
  1
備　　　　　　　考
  7
EXTFONT
 72
     1
 11
3328.800472207944
 21
17009.35598823472
 31
0.0
  0
TEXT
  8
YKK_F1
 10
1962.133805541277
 20
17509.35598823472
 30
0.0
 40
200.0
  1
(付　　属　　金　　物)
  7
EXTFONT
 72
     1
 11
3328.800472207944
 21
17509.35598823472
 31
0.0
  0
TEXT
  8
YKK_F1
 10
1361.59680366224
 20
18759.35598823472
 30
0.0
 40
200.0
  1
寸法・見付・見込（枠見付・枠見込）
  7
EXTFONT
 72
     1
 11
3314.930136995575
 21
18759.35598823472
 31
0.0
  0
TEXT
  8
YKK_F1
 10
1795.467138874611
 20
19009.35598823472
 30
0.0
 40
200.0
  1
型式・防音・エアタイト仕様
  7
EXTFONT
 72
     1
 11
3328.800472207944
 21
19009.35598823472
 31
0.0
  0
TEXT
  8
YKK_F1
 10
2275.46713887461
 20
18509.35598823472
 30
0.0
 40
200.0
  1
材　質　・　仕　様
  7
EXTFONT
 72
     1
 11
3328.800472207944
 21
18509.35598823472
 31
0.0
  0
TEXT
  8
YKK_F1
 10
2275.467138874611
 20
18259.35598823472
 30
0.0
 40
200.0
  1
仕　　　　　　　上
  7
EXTFONT
 72
     1
 11
3328.800472207944
 21
18259.35598823472
 31
0.0
  0
TEXT
  8
YKK_F1
 10
1908.800472207944
 20
18009.35598823472
 30
0.0
 40
200.0
  1
ガラス・種類・ガラス押え
  7
EXTFONT
 72
     1
 11
3328.800472207944
 21
18009.35598823472
 31
0.0
  0
TEXT
  8
YKK_F1
 10
2232.076443701776
 20
20636.85598823472
 30
0.0
 40
200.0
  1
姿　　　　　　　図
  7
EXTFONT
 72
     1
 11
3278.743110368443
 21
20636.85598823472
 31
0.0
  0
TEXT
  8
YKK_F1
 10
2272.187882219331
 20
22569.35598823472
 30
0.0
 40
200.0
  1
符　号　・　数　量
  7
EXTFONT
 72
     1
 11
3325.521215552664
 21
22569.35598823472
 31
0.0
  0
TEXT
  8
YKK_F1
 10
2272.18788221933
 20
22214.35598823472
 30
0.0
 40
200.0
  1
使用箇所・防火仕様
  7
EXTFONT
 72
     1
 11
3325.521215552664
 21
22214.35598823472
 31
0.0
  0
CIRCLE
  8
YKK_F1
 10
6061.778105184221
 20
22694.35598823472
 30
0.0
 40
233.3333333333333
  0
CIRCLE
  8
YKK_F1
 10
6061.778105184221
 20
22694.35598823472
 30
0.0
 40
233.3333333333333
  0
LINE
  8
YKK_F1
  6
CONTINUOUS
 10
5828.444771850858
 20
22694.35598823472
 30
0.0
 11
6295.111438517584
 21
22694.35598823473
 31
0.0
  0
LINE
  8
YKK_F1
  6
CONTINUOUS
 10
5836.778105184222
 20
22694.35598823472
 30
0.0
 11
6286.778105184222
 21
22694.35598823472
 31
0.0
  0
TEXT
  8
YKK_F1
 10
5901.778105184221
 20
22494.35598823472
 30
0.0
 40
160.0
  1
ＡＷ
  7
EXTFONT
  0
TEXT
  8
YKK_F1
 10
5901.778105184221
 20
22494.35598823472
 30
0.0
 40
160.0
  1
ＡＷ
  7
EXTFONT
  0
TEXT
  8
YKK_F1
 10
10217.4923908985
 20
22469.35598823472
 30
0.0
 40
200.0
  1
箇所
  7
EXTFONT
  0
TEXT
  8
YKK_F1
 10
1962.133805541277
 20
23464.35598823472
 30
0.0
 40
200.0
  1
(付　　属　　金　　物)
  7
EXTFONT
 72
     1
 11
3328.800472207944
 21
23464.35598823472
 31
0.0
  0
TEXT
  8
YKK_F1
 10
1908.800472207944
 20
23964.35598823472
 30
0.0
 40
200.0
  1
ガラス・種類・ガラス押え
  7
EXTFONT
 72
     1
 11
3328.800472207944
 21
23964.35598823472
 31
0.0
  0
TEXT
  8
YKK_F1
 10
1795.467138874611
 20
24964.35598823472
 30
0.0
 40
200.0
  1
型式・防音・エアタイト仕様
  7
EXTFONT
 72
     1
 11
3328.800472207944
 21
24964.35598823472
 31
0.0
  0
TEXT
  8
YKK_F1
 10
2275.467138874611
 20
22964.35598823472
 30
0.0
 40
200.0
  1
備　　　　　　　考
  7
EXTFONT
 72
     1
 11
3328.800472207944
 21
22964.35598823472
 31
0.0
  0
TEXT
  8
YKK_F1
 10
2155.46713887461
 20
23714.35598823472
 30
0.0
 40
200.0
  1
建　　具　　金　　物
  7
EXTFONT
 72
     1
 11
3328.800472207944
 21
23714.35598823472
 31
0.0
  0
TEXT
  8
YKK_F1
 10
2275.46713887461
 20
24464.35598823472
 30
0.0
 40
200.0
  1
材　質　・　仕　様
  7
EXTFONT
 72
     1
 11
3328.800472207944
 21
24464.35598823472
 31
0.0
  0
TEXT
  8
YKK_F1
 10
2275.467138874611
 20
24214.35598823472
 30
0.0
 40
200.0
  1
仕　　　　　　　上
  7
EXTFONT
 72
     1
 11
3328.800472207944
 21
24214.35598823472
 31
0.0
  0
TEXT
  8
YKK_F1
 10
2232.076443701776
 20
26591.85598823472
 30
0.0
 40
200.0
  1
姿　　　　　　　図
  7
EXTFONT
 72
     1
 11
3278.743110368443
 21
26591.85598823472
 31
0.0
  0
TEXT
  8
YKK_F1
 10
2272.18788221933
 20
28169.35598823472
 30
0.0
 40
200.0
  1
使用箇所・防火仕様
  7
EXTFONT
 72
     1
 11
3325.521215552664
 21
28169.35598823472
 31
0.0
  0
TEXT
  8
YKK_F1
 10
2272.187882219331
 20
28524.35598823472
 30
0.0
 40
200.0
  1
符　号　・　数　量
  7
EXTFONT
 72
     1
 11
3325.521215552664
 21
28524.35598823472
 31
0.0
  0
TEXT
  8
YKK_F1
 10
1361.59680366224
 20
24714.35598823473
 30
0.0
 40
200.0
  1
寸法・見付・見込（枠見付・枠見込）
  7
EXTFONT
 72
     1
 11
3314.930136995575
 21
24714.35598823473
 31
0.0
  0
TEXT
  8
YKK_F1
 10
1962.133805541278
 20
5599.355988234729
 30
0.0
 40
200.0
  1
(付　　属　　金　　物)
  7
EXTFONT
 72
     1
 11
3328.800472207944
 21
5599.355988234729
 31
0.0
  0
TEXT
  8
YKK_F1
 10
1361.596803662239
 20
6849.355988234733
 30
0.0
 40
200.0
  1
寸法・見付・見込（枠見付・枠見込）
  7
EXTFONT
 72
     1
 11
3314.930136995576
 21
6849.355988234733
 31
0.0
  0
TEXT
  8
YKK_F1
 10
1908.800472207944
 20
6099.355988234729
 30
0.0
 40
200.0
  1
ガラス・種類・ガラス押え
  7
EXTFONT
 72
     1
 11
3328.800472207944
 21
6099.355988234729
 31
0.0
  0
TEXT
  8
YKK_F1
 10
1795.46713887461
 20
7099.35598823473
 30
0.0
 40
200.0
  1
型式・防音・エアタイト仕様
  7
EXTFONT
 72
     1
 11
3328.800472207944
 21
7099.35598823473
 31
0.0
  0
TEXT
  8
YKK_F1
 10
2275.467138874609
 20
5099.355988234729
 30
0.0
 40
200.0
  1
備　　　　　　　考
  7
EXTFONT
 72
     1
 11
3328.800472207944
 21
5099.355988234729
 31
0.0
  0
TEXT
  8
YKK_F1
 10
2155.46713887461
 20
5849.355988234729
 30
0.0
 40
200.0
  1
建　　具　　金　　物
  7
EXTFONT
 72
     1
 11
3328.800472207944
 21
5849.355988234729
 31
0.0
  0
TEXT
  8
YKK_F1
 10
2275.467138874609
 20
6599.355988234728
 30
0.0
 40
200.0
  1
材　質　・　仕　様
  7
EXTFONT
 72
     1
 11
3328.800472207944
 21
6599.355988234728
 31
0.0
  0
TEXT
  8
YKK_F1
 10
2275.467138874609
 20
6349.355988234729
 30
0.0
 40
200.0
  1
仕　　　　　　　上
  7
EXTFONT
 72
     1
 11
3328.800472207944
 21
6349.355988234729
 31
0.0
  0
TEXT
  8
YKK_F1
 10
1908.800472207944
 20
12054.35598823473
 30
0.0
 40
200.0
  1
ガラス・種類・ガラス押え
  7
EXTFONT
 72
     1
 11
3328.800472207944
 21
12054.35598823473
 31
0.0
  0
TEXT
  8
YKK_F1
 10
1962.133805541278
 20
11554.35598823473
 30
0.0
 40
200.0
  1
(付　　属　　金　　物)
  7
EXTFONT
 72
     1
 11
3328.800472207944
 21
11554.35598823473
 31
0.0
  0
TEXT
  8
YKK_F1
 10
2232.076443701775
 20
8726.85598823473
 30
0.0
 40
200.0
  1
姿　　　　　　　図
  7
EXTFONT
 72
     1
 11
3278.743110368443
 21
8726.85598823473
 31
0.0
  0
TEXT
  8
YKK_F1
 10
2275.467138874609
 20
12304.35598823472
 30
0.0
 40
200.0
  1
仕　　　　　　　上
  7
EXTFONT
 72
     1
 11
3328.800472207944
 21
12304.35598823472
 31
0.0
  0
TEXT
  8
YKK_F1
 10
2155.46713887461
 20
11804.35598823472
 30
0.0
 40
200.0
  1
建　　具　　金　　物
  7
EXTFONT
 72
     1
 11
3328.800472207944
 21
11804.35598823472
 31
0.0
  0
TEXT
  8
YKK_F1
 10
2275.467138874609
 20
11054.35598823472
 30
0.0
 40
200.0
  1
備　　　　　　　考
  7
EXTFONT
 72
     1
 11
3328.800472207944
 21
11054.35598823472
 31
0.0
  0
TEXT
  8
YKK_F1
 10
2272.18788221933
 20
10304.35598823473
 30
0.0
 40
200.0
  1
使用箇所・防火仕様
  7
EXTFONT
 72
     1
 11
3325.521215552664
 21
10304.35598823473
 31
0.0
  0
TEXT
  8
YKK_F1
 10
2272.187882219332
 20
10659.35598823472
 30
0.0
 40
200.0
  1
符　号　・　数　量
  7
EXTFONT
 72
     1
 11
3325.521215552664
 21
10659.35598823472
 31
0.0
  0
LINE
  8
YKK_F1
  6
CONTINUOUS
 10
5836.778105184222
 20
10784.35598823473
 30
0.0
 11
6286.778105184222
 21
10784.35598823473
 31
0.0
  0
LINE
  8
YKK_F1
  6
CONTINUOUS
 10
5828.444771850858
 20
10784.35598823473
 30
0.0
 11
6295.111438517584
 21
10784.35598823473
 31
0.0
  0
CIRCLE
  8
YKK_F1
 10
6061.778105184221
 20
10784.35598823473
 30
0.0
 40
233.3333333333333
  0
CIRCLE
  8
YKK_F1
 10
6061.778105184221
 20
10784.35598823473
 30
0.0
 40
233.3333333333333
  0
TEXT
  8
YKK_F1
 10
5901.778105184221
 20
10584.35598823473
 30
0.0
 40
160.0
  1
ＡＷ
  7
EXTFONT
  0
TEXT
  8
YKK_F1
 10
5901.778105184221
 20
10584.35598823473
 30
0.0
 40
160.0
  1
ＡＷ
  7
EXTFONT
  0
TEXT
  8
YKK_F1
 10
1361.596803662239
 20
12804.35598823473
 30
0.0
 40
200.0
  1
寸法・見付・見込（枠見付・枠見込）
  7
EXTFONT
 72
     1
 11
3314.930136995576
 21
12804.35598823473
 31
0.0
  0
TEXT
  8
YKK_F1
 10
1795.46713887461
 20
13054.35598823472
 30
0.0
 40
200.0
  1
型式・防音・エアタイト仕様
  7
EXTFONT
 72
     1
 11
3328.800472207944
 21
13054.35598823472
 31
0.0
  0
TEXT
  8
YKK_F1
 10
2232.076443701775
 20
14681.85598823472
 30
0.0
 40
200.0
  1
姿　　　　　　　図
  7
EXTFONT
 72
     1
 11
3278.743110368443
 21
14681.85598823472
 31
0.0
  0
TEXT
  8
YKK_F1
 10
2275.467138874609
 20
12554.35598823472
 30
0.0
 40
200.0
  1
材　質　・　仕　様
  7
EXTFONT
 72
     1
 11
3328.800472207944
 21
12554.35598823472
 31
0.0
  0
TEXT
  8
YKK_F1
 10
2272.187882219332
 20
16614.35598823473
 30
0.0
 40
200.0
  1
符　号　・　数　量
  7
EXTFONT
 72
     1
 11
3325.521215552664
 21
16614.35598823473
 31
0.0
  0
TEXT
  8
YKK_F1
 10
2272.18788221933
 20
16259.35598823472
 30
0.0
 40
200.0
  1
使用箇所・防火仕様
  7
EXTFONT
 72
     1
 11
3325.521215552664
 21
16259.35598823472
 31
0.0
  0
LINE
  8
YKK_F1
  6
CONTINUOUS
 10
5828.444771850858
 20
16739.35598823472
 30
0.0
 11
6295.111438517584
 21
16739.35598823473
 31
0.0
  0
LINE
  8
YKK_F1
  6
CONTINUOUS
 10
5836.778105184222
 20
16739.35598823472
 30
0.0
 11
6286.778105184222
 21
16739.35598823472
 31
0.0
  0
CIRCLE
  8
YKK_F1
 10
6061.778105184221
 20
16739.35598823472
 30
0.0
 40
233.3333333333333
  0
CIRCLE
  8
YKK_F1
 10
6061.778105184221
 20
16739.35598823472
 30
0.0
 40
233.3333333333333
  0
TEXT
  8
YKK_F1
 10
5901.778105184221
 20
16539.35598823473
 30
0.0
 40
160.0
  1
ＡＷ
  7
EXTFONT
  0
TEXT
  8
YKK_F1
 10
5901.778105184221
 20
16539.35598823473
 30
0.0
 40
160.0
  1
ＡＷ
  7
EXTFONT
  0
TEXT
  8
YKK_F1
 10
10217.4923908985
 20
10559.35598823472
 30
0.0
 40
200.0
  1
箇所
  7
EXTFONT
  0
TEXT
  8
YKK_F1
 10
10217.4923908985
 20
16514.35598823472
 30
0.0
 40
200.0
  1
箇所
  7
EXTFONT
  0
CIRCLE
  8
YKK_F1
 10
11147.4923908985
 20
10784.35598823473
 30
0.0
 40
233.3333333333333
  0
CIRCLE
  8
YKK_F1
 10
11147.4923908985
 20
10784.35598823473
 30
0.0
 40
233.3333333333333
  0
LINE
  8
YKK_F1
  6
CONTINUOUS
 10
10914.15905756514
 20
10784.35598823473
 30
0.0
 11
11380.82572423186
 21
10784.35598823473
 31
0.0
  0
LINE
  8
YKK_F1
  6
CONTINUOUS
 10
10922.4923908985
 20
10784.35598823473
 30
0.0
 11
11372.4923908985
 21
10784.35598823473
 31
0.0
  0
TEXT
  8
YKK_F1
 10
10987.4923908985
 20
10584.35598823473
 30
0.0
 40
160.0
  1
ＡＷ
  7
EXTFONT
  0
TEXT
  8
YKK_F1
 10
10987.4923908985
 20
10584.35598823473
 30
0.0
 40
160.0
  1
ＡＷ
  7
EXTFONT
  0
TEXT
  8
YKK_F1
 10
15303.20667661279
 20
10559.35598823472
 30
0.0
 40
200.0
  1
箇所
  7
EXTFONT
  0
CIRCLE
  8
YKK_F1
 10
11147.4923908985
 20
16739.35598823472
 30
0.0
 40
233.3333333333333
  0
CIRCLE
  8
YKK_F1
 10
11147.4923908985
 20
16739.35598823472
 30
0.0
 40
233.3333333333333
  0
LINE
  8
YKK_F1
  6
CONTINUOUS
 10
10922.4923908985
 20
16739.35598823472
 30
0.0
 11
11372.4923908985
 21
16739.35598823472
 31
0.0
  0
LINE
  8
YKK_F1
  6
CONTINUOUS
 10
10914.15905756514
 20
16739.35598823472
 30
0.0
 11
11380.82572423186
 21
16739.35598823473
 31
0.0
  0
TEXT
  8
YKK_F1
 10
10987.4923908985
 20
16539.35598823473
 30
0.0
 40
160.0
  1
ＡＷ
  7
EXTFONT
  0
TEXT
  8
YKK_F1
 10
10987.4923908985
 20
16539.35598823473
 30
0.0
 40
160.0
  1
ＡＷ
  7
EXTFONT
  0
LINE
  8
YKK_F1
  6
CONTINUOUS
 10
10922.4923908985
 20
22694.35598823472
 30
0.0
 11
11372.4923908985
 21
22694.35598823472
 31
0.0
  0
LINE
  8
YKK_F1
  6
CONTINUOUS
 10
10914.15905756514
 20
22694.35598823472
 30
0.0
 11
11380.82572423186
 21
22694.35598823473
 31
0.0
  0
CIRCLE
  8
YKK_F1
 10
11147.4923908985
 20
22694.35598823472
 30
0.0
 40
233.3333333333333
  0
CIRCLE
  8
YKK_F1
 10
11147.4923908985
 20
22694.35598823472
 30
0.0
 40
233.3333333333333
  0
TEXT
  8
YKK_F1
 10
10987.4923908985
 20
22494.35598823472
 30
0.0
 40
160.0
  1
ＡＷ
  7
EXTFONT
  0
TEXT
  8
YKK_F1
 10
10987.4923908985
 20
22494.35598823472
 30
0.0
 40
160.0
  1
ＡＷ
  7
EXTFONT
  0
LINE
  8
YKK_F1
  6
CONTINUOUS
 10
10914.15905756514
 20
28649.35598823472
 30
0.0
 11
11380.82572423186
 21
28649.35598823473
 31
0.0
  0
LINE
  8
YKK_F1
  6
CONTINUOUS
 10
10922.4923908985
 20
28649.35598823472
 30
0.0
 11
11372.4923908985
 21
28649.35598823472
 31
0.0
  0
CIRCLE
  8
YKK_F1
 10
11147.4923908985
 20
28649.35598823472
 30
0.0
 40
233.3333333333333
  0
CIRCLE
  8
YKK_F1
 10
11147.4923908985
 20
28649.35598823472
 30
0.0
 40
233.3333333333333
  0
TEXT
  8
YKK_F1
 10
10987.4923908985
 20
28449.35598823472
 30
0.0
 40
160.0
  1
ＡＷ
  7
EXTFONT
  0
TEXT
  8
YKK_F1
 10
10987.4923908985
 20
28449.35598823472
 30
0.0
 40
160.0
  1
ＡＷ
  7
EXTFONT
  0
TEXT
  8
YKK_F1
 10
15303.20667661279
 20
16514.35598823472
 30
0.0
 40
200.0
  1
箇所
  7
EXTFONT
  0
TEXT
  8
YKK_F1
 10
15303.20667661279
 20
22469.35598823472
 30
0.0
 40
200.0
  1
箇所
  7
EXTFONT
  0
TEXT
  8
YKK_F1
 10
15303.20667661279
 20
28424.35598823472
 30
0.0
 40
200.0
  1
箇所
  7
EXTFONT
  0
LINE
  8
YKK_F1
  6
CONTINUOUS
 10
15833.20667661279
 20
5079.355988234725
 30
0.0
 11
15833.20667661279
 21
28899.35598823472
 31
0.0
  0
TEXT
  8
YKK_F1
 10
16073.20667661279
 20
10584.35598823473
 30
0.0
 40
160.0
  1
ＡＷ
  7
EXTFONT
  0
TEXT
  8
YKK_F1
 10
16073.20667661279
 20
10584.35598823473
 30
0.0
 40
160.0
  1
ＡＷ
  7
EXTFONT
  0
LINE
  8
YKK_F1
  6
CONTINUOUS
 10
16008.20667661279
 20
10784.35598823473
 30
0.0
 11
16458.20667661279
 21
10784.35598823473
 31
0.0
  0
LINE
  8
YKK_F1
  6
CONTINUOUS
 10
15999.87334327942
 20
10784.35598823473
 30
0.0
 11
16466.54000994615
 21
10784.35598823473
 31
0.0
  0
CIRCLE
  8
YKK_F1
 10
16233.20667661279
 20
10784.35598823473
 30
0.0
 40
233.3333333333333
  0
CIRCLE
  8
YKK_F1
 10
16233.20667661279
 20
10784.35598823473
 30
0.0
 40
233.3333333333333
  0
TEXT
  8
YKK_F1
 10
20388.92096232708
 20
10559.35598823472
 30
0.0
 40
200.0
  1
箇所
  7
EXTFONT
  0
TEXT
  8
YKK_F1
 10
16073.20667661279
 20
16539.35598823473
 30
0.0
 40
160.0
  1
ＡＷ
  7
EXTFONT
  0
TEXT
  8
YKK_F1
 10
16073.20667661279
 20
16539.35598823473
 30
0.0
 40
160.0
  1
ＡＷ
  7
EXTFONT
  0
LINE
  8
YKK_F1
  6
CONTINUOUS
 10
15999.87334327942
 20
16739.35598823472
 30
0.0
 11
16466.54000994615
 21
16739.35598823473
 31
0.0
  0
LINE
  8
YKK_F1
  6
CONTINUOUS
 10
16008.20667661279
 20
16739.35598823472
 30
0.0
 11
16458.20667661279
 21
16739.35598823472
 31
0.0
  0
CIRCLE
  8
YKK_F1
 10
16233.20667661279
 20
16739.35598823472
 30
0.0
 40
233.3333333333333
  0
CIRCLE
  8
YKK_F1
 10
16233.20667661279
 20
16739.35598823472
 30
0.0
 40
233.3333333333333
  0
TEXT
  8
YKK_F1
 10
16073.20667661279
 20
22494.35598823472
 30
0.0
 40
160.0
  1
ＡＷ
  7
EXTFONT
  0
TEXT
  8
YKK_F1
 10
16073.20667661279
 20
22494.35598823472
 30
0.0
 40
160.0
  1
ＡＷ
  7
EXTFONT
  0
CIRCLE
  8
YKK_F1
 10
16233.20667661279
 20
22694.35598823472
 30
0.0
 40
233.3333333333333
  0
CIRCLE
  8
YKK_F1
 10
16233.20667661279
 20
22694.35598823472
 30
0.0
 40
233.3333333333333
  0
LINE
  8
YKK_F1
  6
CONTINUOUS
 10
15999.87334327942
 20
22694.35598823472
 30
0.0
 11
16466.54000994615
 21
22694.35598823473
 31
0.0
  0
LINE
  8
YKK_F1
  6
CONTINUOUS
 10
16008.20667661279
 20
22694.35598823472
 30
0.0
 11
16458.20667661279
 21
22694.35598823472
 31
0.0
  0
TEXT
  8
YKK_F1
 10
20388.92096232708
 20
16514.35598823472
 30
0.0
 40
200.0
  1
箇所
  7
EXTFONT
  0
TEXT
  8
YKK_F1
 10
20388.92096232708
 20
22469.35598823472
 30
0.0
 40
200.0
  1
箇所
  7
EXTFONT
  0
TEXT
  8
YKK_F1
 10
16073.20667661279
 20
28449.35598823472
 30
0.0
 40
160.0
  1
ＡＷ
  7
EXTFONT
  0
TEXT
  8
YKK_F1
 10
16073.20667661279
 20
28449.35598823472
 30
0.0
 40
160.0
  1
ＡＷ
  7
EXTFONT
  0
CIRCLE
  8
YKK_F1
 10
16233.20667661279
 20
28649.35598823472
 30
0.0
 40
233.3333333333333
  0
CIRCLE
  8
YKK_F1
 10
16233.20667661279
 20
28649.35598823472
 30
0.0
 40
233.3333333333333
  0
LINE
  8
YKK_F1
  6
CONTINUOUS
 10
16008.20667661279
 20
28649.35598823472
 30
0.0
 11
16458.20667661279
 21
28649.35598823472
 31
0.0
  0
LINE
  8
YKK_F1
  6
CONTINUOUS
 10
15999.87334327942
 20
28649.35598823472
 30
0.0
 11
16466.54000994615
 21
28649.35598823473
 31
0.0
  0
TEXT
  8
YKK_F1
 10
20388.92096232708
 20
28424.35598823472
 30
0.0
 40
200.0
  1
箇所
  7
EXTFONT
  0
LINE
  8
YKK_F1
  6
CONTINUOUS
 10
20918.92096232708
 20
5079.355988234725
 30
0.0
 11
20918.92096232708
 21
28899.35598823472
 31
0.0
  0
CIRCLE
  8
YKK_F1
 10
21318.92096232708
 20
10784.35598823473
 30
0.0
 40
233.3333333333333
  0
CIRCLE
  8
YKK_F1
 10
21318.92096232708
 20
10784.35598823473
 30
0.0
 40
233.3333333333333
  0
LINE
  8
YKK_F1
  6
CONTINUOUS
 10
21085.58762899371
 20
10784.35598823473
 30
0.0
 11
21552.25429566044
 21
10784.35598823473
 31
0.0
  0
LINE
  8
YKK_F1
  6
CONTINUOUS
 10
21093.92096232708
 20
10784.35598823473
 30
0.0
 11
21543.92096232708
 21
10784.35598823473
 31
0.0
  0
TEXT
  8
YKK_F1
 10
21158.92096232708
 20
10584.35598823473
 30
0.0
 40
160.0
  1
ＡＷ
  7
EXTFONT
  0
TEXT
  8
YKK_F1
 10
21158.92096232708
 20
10584.35598823473
 30
0.0
 40
160.0
  1
ＡＷ
  7
EXTFONT
  0
TEXT
  8
YKK_F1
 10
25474.63524804136
 20
10559.35598823472
 30
0.0
 40
200.0
  1
箇所
  7
EXTFONT
  0
CIRCLE
  8
YKK_F1
 10
21318.92096232708
 20
16739.35598823472
 30
0.0
 40
233.3333333333333
  0
CIRCLE
  8
YKK_F1
 10
21318.92096232708
 20
16739.35598823472
 30
0.0
 40
233.3333333333333
  0
LINE
  8
YKK_F1
  6
CONTINUOUS
 10
21093.92096232708
 20
16739.35598823472
 30
0.0
 11
21543.92096232708
 21
16739.35598823472
 31
0.0
  0
LINE
  8
YKK_F1
  6
CONTINUOUS
 10
21085.58762899371
 20
16739.35598823472
 30
0.0
 11
21552.25429566044
 21
16739.35598823473
 31
0.0
  0
TEXT
  8
YKK_F1
 10
21158.92096232708
 20
16539.35598823473
 30
0.0
 40
160.0
  1
ＡＷ
  7
EXTFONT
  0
TEXT
  8
YKK_F1
 10
21158.92096232708
 20
16539.35598823473
 30
0.0
 40
160.0
  1
ＡＷ
  7
EXTFONT
  0
TEXT
  8
YKK_F1
 10
25474.63524804136
 20
16514.35598823472
 30
0.0
 40
200.0
  1
箇所
  7
EXTFONT
  0
LINE
  8
YKK_F1
  6
CONTINUOUS
 10
21093.92096232708
 20
22694.35598823472
 30
0.0
 11
21543.92096232708
 21
22694.35598823472
 31
0.0
  0
LINE
  8
YKK_F1
  6
CONTINUOUS
 10
21085.58762899371
 20
22694.35598823472
 30
0.0
 11
21552.25429566044
 21
22694.35598823473
 31
0.0
  0
CIRCLE
  8
YKK_F1
 10
21318.92096232708
 20
22694.35598823472
 30
0.0
 40
233.3333333333333
  0
CIRCLE
  8
YKK_F1
 10
21318.92096232708
 20
22694.35598823472
 30
0.0
 40
233.3333333333333
  0
TEXT
  8
YKK_F1
 10
21158.92096232708
 20
22494.35598823472
 30
0.0
 40
160.0
  1
ＡＷ
  7
EXTFONT
  0
TEXT
  8
YKK_F1
 10
21158.92096232708
 20
22494.35598823472
 30
0.0
 40
160.0
  1
ＡＷ
  7
EXTFONT
  0
TEXT
  8
YKK_F1
 10
25474.63524804136
 20
22469.35598823472
 30
0.0
 40
200.0
  1
箇所
  7
EXTFONT
  0
LINE
  8
YKK_F1
  6
CONTINUOUS
 10
21085.58762899371
 20
28649.35598823472
 30
0.0
 11
21552.25429566044
 21
28649.35598823473
 31
0.0
  0
LINE
  8
YKK_F1
  6
CONTINUOUS
 10
21093.92096232708
 20
28649.35598823472
 30
0.0
 11
21543.92096232708
 21
28649.35598823472
 31
0.0
  0
CIRCLE
  8
YKK_F1
 10
21318.92096232708
 20
28649.35598823472
 30
0.0
 40
233.3333333333333
  0
CIRCLE
  8
YKK_F1
 10
21318.92096232708
 20
28649.35598823472
 30
0.0
 40
233.3333333333333
  0
TEXT
  8
YKK_F1
 10
21158.92096232708
 20
28449.35598823472
 30
0.0
 40
160.0
  1
ＡＷ
  7
EXTFONT
  0
TEXT
  8
YKK_F1
 10
21158.92096232708
 20
28449.35598823472
 30
0.0
 40
160.0
  1
ＡＷ
  7
EXTFONT
  0
TEXT
  8
YKK_F1
 10
25474.63524804136
 20
28424.35598823472
 30
0.0
 40
200.0
  1
箇所
  7
EXTFONT
  0
LINE
  8
YKK_F1
  6
CONTINUOUS
 10
26004.63524804136
 20
5079.355988234725
 30
0.0
 11
26004.63524804136
 21
28899.35598823472
 31
0.0
  0
CIRCLE
  8
YKK_F1
 10
26404.63524804136
 20
10784.35598823473
 30
0.0
 40
233.3333333333333
  0
CIRCLE
  8
YKK_F1
 10
26404.63524804136
 20
10784.35598823473
 30
0.0
 40
233.3333333333333
  0
LINE
  8
YKK_F1
  6
CONTINUOUS
 10
26179.63524804136
 20
10784.35598823473
 30
0.0
 11
26629.63524804136
 21
10784.35598823473
 31
0.0
  0
LINE
  8
YKK_F1
  6
CONTINUOUS
 10
26171.301914708
 20
10784.35598823473
 30
0.0
 11
26637.96858137472
 21
10784.35598823473
 31
0.0
  0
TEXT
  8
YKK_F1
 10
26244.63524804136
 20
10584.35598823473
 30
0.0
 40
160.0
  1
ＡＷ
  7
EXTFONT
  0
TEXT
  8
YKK_F1
 10
26244.63524804136
 20
10584.35598823473
 30
0.0
 40
160.0
  1
ＡＷ
  7
EXTFONT
  0
TEXT
  8
YKK_F1
 10
30560.34953375565
 20
10559.35598823472
 30
0.0
 40
200.0
  1
箇所
  7
EXTFONT
  0
CIRCLE
  8
YKK_F1
 10
26404.63524804136
 20
16739.35598823472
 30
0.0
 40
233.3333333333333
  0
CIRCLE
  8
YKK_F1
 10
26404.63524804136
 20
16739.35598823472
 30
0.0
 40
233.3333333333333
  0
LINE
  8
YKK_F1
  6
CONTINUOUS
 10
26171.301914708
 20
16739.35598823472
 30
0.0
 11
26637.96858137472
 21
16739.35598823473
 31
0.0
  0
LINE
  8
YKK_F1
  6
CONTINUOUS
 10
26179.63524804136
 20
16739.35598823472
 30
0.0
 11
26629.63524804136
 21
16739.35598823472
 31
0.0
  0
TEXT
  8
YKK_F1
 10
26244.63524804136
 20
16539.35598823473
 30
0.0
 40
160.0
  1
ＡＷ
  7
EXTFONT
  0
TEXT
  8
YKK_F1
 10
26244.63524804136
 20
16539.35598823473
 30
0.0
 40
160.0
  1
ＡＷ
  7
EXTFONT
  0
TEXT
  8
YKK_F1
 10
30560.34953375565
 20
16514.35598823472
 30
0.0
 40
200.0
  1
箇所
  7
EXTFONT
  0
CIRCLE
  8
YKK_F1
 10
26404.63524804136
 20
22694.35598823472
 30
0.0
 40
233.3333333333333
  0
CIRCLE
  8
YKK_F1
 10
26404.63524804136
 20
22694.35598823472
 30
0.0
 40
233.3333333333333
  0
TEXT
  8
YKK_F1
 10
26244.63524804136
 20
22494.35598823472
 30
0.0
 40
160.0
  1
ＡＷ
  7
EXTFONT
  0
TEXT
  8
YKK_F1
 10
26244.63524804136
 20
22494.35598823472
 30
0.0
 40
160.0
  1
ＡＷ
  7
EXTFONT
  0
LINE
  8
YKK_F1
  6
CONTINUOUS
 10
26171.301914708
 20
22694.35598823472
 30
0.0
 11
26637.96858137472
 21
22694.35598823473
 31
0.0
  0
LINE
  8
YKK_F1
  6
CONTINUOUS
 10
26179.63524804136
 20
22694.35598823472
 30
0.0
 11
26629.63524804136
 21
22694.35598823472
 31
0.0
  0
TEXT
  8
YKK_F1
 10
30560.34953375565
 20
22469.35598823472
 30
0.0
 40
200.0
  1
箇所
  7
EXTFONT
  0
TEXT
  8
YKK_F1
 10
26244.63524804136
 20
28449.35598823472
 30
0.0
 40
160.0
  1
ＡＷ
  7
EXTFONT
  0
TEXT
  8
YKK_F1
 10
26244.63524804136
 20
28449.35598823472
 30
0.0
 40
160.0
  1
ＡＷ
  7
EXTFONT
  0
CIRCLE
  8
YKK_F1
 10
26404.63524804136
 20
28649.35598823472
 30
0.0
 40
233.3333333333333
  0
CIRCLE
  8
YKK_F1
 10
26404.63524804136
 20
28649.35598823472
 30
0.0
 40
233.3333333333333
  0
LINE
  8
YKK_F1
  6
CONTINUOUS
 10
26179.63524804136
 20
28649.35598823472
 30
0.0
 11
26629.63524804136
 21
28649.35598823472
 31
0.0
  0
LINE
  8
YKK_F1
  6
CONTINUOUS
 10
26171.301914708
 20
28649.35598823472
 30
0.0
 11
26637.96858137472
 21
28649.35598823473
 31
0.0
  0
TEXT
  8
YKK_F1
 10
30560.34953375565
 20
28424.35598823472
 30
0.0
 40
200.0
  1
箇所
  7
EXTFONT
  0
LINE
  8
YKK_F1
  6
CONTINUOUS
 10
31090.34953375565
 20
5079.355988234725
 30
0.0
 11
31090.34953375565
 21
28899.35598823472
 31
0.0
  0
CIRCLE
  8
YKK_F1
 10
31490.34953375565
 20
10784.35598823473
 30
0.0
 40
233.3333333333333
  0
CIRCLE
  8
YKK_F1
 10
31490.34953375565
 20
10784.35598823473
 30
0.0
 40
233.3333333333333
  0
TEXT
  8
YKK_F1
 10
31330.34953375565
 20
10584.35598823473
 30
0.0
 40
160.0
  1
ＡＷ
  7
EXTFONT
  0
TEXT
  8
YKK_F1
 10
31330.34953375565
 20
10584.35598823473
 30
0.0
 40
160.0
  1
ＡＷ
  7
EXTFONT
  0
LINE
  8
YKK_F1
  6
CONTINUOUS
 10
31257.01620042228
 20
10784.35598823473
 30
0.0
 11
31723.68286708901
 21
10784.35598823473
 31
0.0
  0
LINE
  8
YKK_F1
  6
CONTINUOUS
 10
31265.34953375565
 20
10784.35598823473
 30
0.0
 11
31715.34953375565
 21
10784.35598823473
 31
0.0
  0
TEXT
  8
YKK_F1
 10
35646.06381946993
 20
10559.35598823472
 30
0.0
 40
200.0
  1
箇所
  7
EXTFONT
  0
CIRCLE
  8
YKK_F1
 10
31490.34953375565
 20
16739.35598823472
 30
0.0
 40
233.3333333333333
  0
CIRCLE
  8
YKK_F1
 10
31490.34953375565
 20
16739.35598823472
 30
0.0
 40
233.3333333333333
  0
TEXT
  8
YKK_F1
 10
31330.34953375565
 20
16539.35598823473
 30
0.0
 40
160.0
  1
ＡＷ
  7
EXTFONT
  0
TEXT
  8
YKK_F1
 10
31330.34953375565
 20
16539.35598823473
 30
0.0
 40
160.0
  1
ＡＷ
  7
EXTFONT
  0
LINE
  8
YKK_F1
  6
CONTINUOUS
 10
31265.34953375565
 20
16739.35598823472
 30
0.0
 11
31715.34953375565
 21
16739.35598823472
 31
0.0
  0
LINE
  8
YKK_F1
  6
CONTINUOUS
 10
31257.01620042228
 20
16739.35598823472
 30
0.0
 11
31723.68286708901
 21
16739.35598823473
 31
0.0
  0
CIRCLE
  8
YKK_F1
 10
31490.34953375565
 20
22694.35598823472
 30
0.0
 40
233.3333333333333
  0
CIRCLE
  8
YKK_F1
 10
31490.34953375565
 20
22694.35598823472
 30
0.0
 40
233.3333333333333
  0
TEXT
  8
YKK_F1
 10
31330.34953375565
 20
22494.35598823472
 30
0.0
 40
160.0
  1
ＡＷ
  7
EXTFONT
  0
TEXT
  8
YKK_F1
 10
31330.34953375565
 20
22494.35598823472
 30
0.0
 40
160.0
  1
ＡＷ
  7
EXTFONT
  0
LINE
  8
YKK_F1
  6
CONTINUOUS
 10
31265.34953375565
 20
22694.35598823472
 30
0.0
 11
31715.34953375565
 21
22694.35598823472
 31
0.0
  0
LINE
  8
YKK_F1
  6
CONTINUOUS
 10
31257.01620042228
 20
22694.35598823472
 30
0.0
 11
31723.68286708901
 21
22694.35598823473
 31
0.0
  0
TEXT
  8
YKK_F1
 10
35646.06381946993
 20
16514.35598823472
 30
0.0
 40
200.0
  1
箇所
  7
EXTFONT
  0
TEXT
  8
YKK_F1
 10
35646.06381946993
 20
22469.35598823472
 30
0.0
 40
200.0
  1
箇所
  7
EXTFONT
  0
CIRCLE
  8
YKK_F1
 10
31490.34953375565
 20
28649.35598823472
 30
0.0
 40
233.3333333333333
  0
CIRCLE
  8
YKK_F1
 10
31490.34953375565
 20
28649.35598823472
 30
0.0
 40
233.3333333333333
  0
TEXT
  8
YKK_F1
 10
31330.34953375565
 20
28449.35598823472
 30
0.0
 40
160.0
  1
ＡＷ
  7
EXTFONT
  0
TEXT
  8
YKK_F1
 10
31330.34953375565
 20
28449.35598823472
 30
0.0
 40
160.0
  1
ＡＷ
  7
EXTFONT
  0
LINE
  8
YKK_F1
  6
CONTINUOUS
 10
31257.01620042228
 20
28649.35598823472
 30
0.0
 11
31723.68286708901
 21
28649.35598823473
 31
0.0
  0
LINE
  8
YKK_F1
  6
CONTINUOUS
 10
31265.34953375565
 20
28649.35598823472
 30
0.0
 11
31715.34953375565
 21
28649.35598823472
 31
0.0
  0
TEXT
  8
YKK_F1
 10
35646.06381946993
 20
28424.35598823472
 30
0.0
 40
200.0
  1
箇所
  7
EXTFONT
  0
LINE
  8
YKK_F1
  6
CONTINUOUS
 10
36176.06381946993
 20
5079.355988234725
 30
0.0
 11
36176.06381946993
 21
28899.35598823472
 31
0.0
  0
CIRCLE
  8
YKK_F1
 10
36576.06381946993
 20
10784.35598823473
 30
0.0
 40
233.3333333333333
  0
CIRCLE
  8
YKK_F1
 10
36576.06381946993
 20
10784.35598823473
 30
0.0
 40
233.3333333333333
  0
LINE
  8
YKK_F1
  6
CONTINUOUS
 10
36351.06381946993
 20
10784.35598823473
 30
0.0
 11
36801.06381946993
 21
10784.35598823473
 31
0.0
  0
LINE
  8
YKK_F1
  6
CONTINUOUS
 10
36342.73048613656
 20
10784.35598823473
 30
0.0
 11
36809.3971528033
 21
10784.35598823473
 31
0.0
  0
TEXT
  8
YKK_F1
 10
36416.06381946993
 20
10584.35598823473
 30
0.0
 40
160.0
  1
ＡＷ
  7
EXTFONT
  0
TEXT
  8
YKK_F1
 10
36416.06381946993
 20
10584.35598823473
 30
0.0
 40
160.0
  1
ＡＷ
  7
EXTFONT
  0
TEXT
  8
YKK_F1
 10
40731.77810518421
 20
10559.35598823472
 30
0.0
 40
200.0
  1
箇所
  7
EXTFONT
  0
CIRCLE
  8
YKK_F1
 10
36576.06381946993
 20
16739.35598823472
 30
0.0
 40
233.3333333333333
  0
CIRCLE
  8
YKK_F1
 10
36576.06381946993
 20
16739.35598823472
 30
0.0
 40
233.3333333333333
  0
LINE
  8
YKK_F1
  6
CONTINUOUS
 10
36342.73048613656
 20
16739.35598823472
 30
0.0
 11
36809.3971528033
 21
16739.35598823473
 31
0.0
  0
LINE
  8
YKK_F1
  6
CONTINUOUS
 10
36351.06381946993
 20
16739.35598823472
 30
0.0
 11
36801.06381946993
 21
16739.35598823472
 31
0.0
  0
TEXT
  8
YKK_F1
 10
36416.06381946993
 20
16539.35598823473
 30
0.0
 40
160.0
  1
ＡＷ
  7
EXTFONT
  0
TEXT
  8
YKK_F1
 10
36416.06381946993
 20
16539.35598823473
 30
0.0
 40
160.0
  1
ＡＷ
  7
EXTFONT
  0
CIRCLE
  8
YKK_F1
 10
36576.06381946993
 20
22694.35598823472
 30
0.0
 40
233.3333333333333
  0
CIRCLE
  8
YKK_F1
 10
36576.06381946993
 20
22694.35598823472
 30
0.0
 40
233.3333333333333
  0
TEXT
  8
YKK_F1
 10
36416.06381946993
 20
22494.35598823472
 30
0.0
 40
160.0
  1
ＡＷ
  7
EXTFONT
  0
TEXT
  8
YKK_F1
 10
36416.06381946993
 20
22494.35598823472
 30
0.0
 40
160.0
  1
ＡＷ
  7
EXTFONT
  0
LINE
  8
YKK_F1
  6
CONTINUOUS
 10
36342.73048613656
 20
22694.35598823472
 30
0.0
 11
36809.3971528033
 21
22694.35598823473
 31
0.0
  0
LINE
  8
YKK_F1
  6
CONTINUOUS
 10
36351.06381946993
 20
22694.35598823472
 30
0.0
 11
36801.06381946993
 21
22694.35598823472
 31
0.0
  0
TEXT
  8
YKK_F1
 10
36416.06381946993
 20
28449.35598823472
 30
0.0
 40
160.0
  1
ＡＷ
  7
EXTFONT
  0
TEXT
  8
YKK_F1
 10
36416.06381946993
 20
28449.35598823472
 30
0.0
 40
160.0
  1
ＡＷ
  7
EXTFONT
  0
CIRCLE
  8
YKK_F1
 10
36576.06381946993
 20
28649.35598823472
 30
0.0
 40
233.3333333333333
  0
CIRCLE
  8
YKK_F1
 10
36576.06381946993
 20
28649.35598823472
 30
0.0
 40
233.3333333333333
  0
LINE
  8
YKK_F1
  6
CONTINUOUS
 10
36351.06381946993
 20
28649.35598823472
 30
0.0
 11
36801.06381946993
 21
28649.35598823472
 31
0.0
  0
LINE
  8
YKK_F1
  6
CONTINUOUS
 10
36342.73048613656
 20
28649.35598823472
 30
0.0
 11
36809.3971528033
 21
28649.35598823473
 31
0.0
  0
TEXT
  8
YKK_F1
 10
40731.77810518421
 20
16514.35598823472
 30
0.0
 40
200.0
  1
箇所
  7
EXTFONT
  0
TEXT
  8
YKK_F1
 10
40731.77810518421
 20
22469.35598823472
 30
0.0
 40
200.0
  1
箇所
  7
EXTFONT
  0
TEXT
  8
YKK_F1
 10
40731.77810518421
 20
28424.35598823472
 30
0.0
 40
200.0
  1
箇所
  7
EXTFONT
  0
LINE
  8
YKK_F1
  6
CONTINUOUS
 10
41261.77810518422
 20
5079.355988234725
 30
0.0
 11
41261.77810518422
 21
28899.35598823472
 31
0.0
  0
TEXT
  8
YKK_F1
 10
15971.51355518423
 20
3300.855988234726
 30
0.0
 40
100.0
  1
ガラス
  7
EXTFONT
  0
TEXT
  8
YKK_F1
 10
4471.513555184232
 20
3300.855988234726
 30
0.0
 40
100.0
  1
ＷＰ　　　：障子
  7
EXTFONT
  0
TEXT
  8
YKK_F1
 10
4471.513555184232
 20
3150.855988234726
 30
0.0
 40
100.0
  1
Ｈ　　　　：襖
  7
EXTFONT
  0
TEXT
  8
YKK_F1
 10
4471.513555184232
 20
2550.855988234726
 30
0.0
 40
100.0
  1
ＷＷ　　　：木製窓
  7
EXTFONT
  0
TEXT
  8
YKK_F1
 10
4471.513555184232
 20
2700.855988234726
 30
0.0
 40
100.0
  1
ＡＷ　　　：アルミ窓
  7
EXTFONT
  0
TEXT
  8
YKK_F1
 10
4471.513555184232
 20
2850.855988234726
 30
0.0
 40
100.0
  1
ＳＷ　　　：スチール窓
  7
EXTFONT
  0
TEXT
  8
YKK_F1
 10
4471.513555184232
 20
3000.855988234726
 30
0.0
 40
100.0
  1
ＳＵＳ・Ｗ：ステンレス窓
  7
EXTFONT
  0
TEXT
  8
YKK_F1
 10
4471.513555184232
 20
2250.855988234726
 30
0.0
 40
100.0
  1
ＳＧ　　　：スチールガラリ
  7
EXTFONT
  0
TEXT
  8
YKK_F1
 10
4471.513555184232
 20
2400.855988234726
 30
0.0
 40
100.0
  1
ＡＧ　　　：アルミガラリ
  7
EXTFONT
  0
TEXT
  8
YKK_F1
 10
1571.513555184232
 20
3300.855988234726
 30
0.0
 40
100.0
  1
建具記号
  7
EXTFONT
  0
TEXT
  8
YKK_F1
 10
971.5135551842323
 20
3300.855988234726
 30
0.0
 40
100.0
  1
符号
  7
EXTFONT
  0
TEXT
  8
YKK_F1
 10
2171.513555184232
 20
2850.855988234726
 30
0.0
 40
100.0
  1
ＳＤ　　　：スチールドア
  7
EXTFONT
  0
TEXT
  8
YKK_F1
 10
2171.513555184232
 20
2400.855988234726
 30
0.0
 40
100.0
  1
ＷＤ　　　：木製ドア
  7
EXTFONT
  0
TEXT
  8
YKK_F1
 10
2171.513555184232
 20
2550.855988234726
 30
0.0
 40
100.0
  1
ＡＤ　　　：アルミドア
  7
EXTFONT
  0
TEXT
  8
YKK_F1
 10
2171.513555184232
 20
2700.855988234726
 30
0.0
 40
100.0
  1
ＬＳＤ　　：軽量スチールドア
  7
EXTFONT
  0
TEXT
  8
YKK_F1
 10
2171.513555184232
 20
2250.855988234726
 30
0.0
 40
100.0
  1
ＴＤ　　　：強化ガラスドア
  7
EXTFONT
  0
TEXT
  8
YKK_F1
 10
2171.513555184232
 20
3300.855988234726
 30
0.0
 40
100.0
  1
ＳＵＳ・Ｓ：ステンレスシャッター
  7
EXTFONT
  0
TEXT
  8
YKK_F1
 10
2171.513555184232
 20
3000.855988234726
 30
0.0
 40
100.0
  1
ＳＵＳ・D：ステンレスドア
  7
EXTFONT
  0
TEXT
  8
YKK_F1
 10
2171.513555184232
 20
3150.855988234726
 30
0.0
 40
100.0
  1
ＳＳ　　　：スチールシャッター
  7
EXTFONT
  0
TEXT
  8
YKK_F1
 10
9071.513555184232
 20
2700.855988234726
 30
0.0
 40
100.0
  1
ＳＵＳ：ステンレススチール
  7
EXTFONT
  0
TEXT
  8
YKK_F1
 10
9071.513555184232
 20
3150.855988234726
 30
0.0
 40
100.0
  1
Ａ　　：アルミニウム耐蝕合金
  7
EXTFONT
  0
TEXT
  8
YKK_F1
 10
9071.513555184232
 20
2400.855988234726
 30
0.0
 40
100.0
  1
Ｈ　　：ハニカムコア（アルミ・紙・その他）
  7
EXTFONT
  0
TEXT
  8
YKK_F1
 10
6771.513555184232
 20
3300.855988234726
 30
0.0
 40
100.0
  1
ＳＭ　　　：防煙垂壁
  7
EXTFONT
  0
TEXT
  8
YKK_F1
 10
6771.513555184232
 20
2850.855988234726
 30
0.0
 40
100.0
  1
＊
  7
EXTFONT
  0
TEXT
  8
YKK_F1
 10
6771.513555184232
 20
2250.855988234726
 30
0.0
 40
100.0
  1
＊
  7
EXTFONT
  0
TEXT
  8
YKK_F1
 10
6771.513555184232
 20
2550.855988234726
 30
0.0
 40
100.0
  1
＊
  7
EXTFONT
  0
TEXT
  8
YKK_F1
 10
6771.513555184232
 20
2400.855988234726
 30
0.0
 40
100.0
  1
＊
  7
EXTFONT
  0
TEXT
  8
YKK_F1
 10
6771.513555184232
 20
2700.855988234726
 30
0.0
 40
100.0
  1
＊
  7
EXTFONT
  0
TEXT
  8
YKK_F1
 10
6771.513555184232
 20
3000.855988234726
 30
0.0
 40
100.0
  1
＊
  7
EXTFONT
  0
TEXT
  8
YKK_F1
 10
6771.513555184232
 20
3150.855988234726
 30
0.0
 40
100.0
  1
＊
  7
EXTFONT
  0
TEXT
  8
YKK_F1
 10
9071.513555184232
 20
2850.855988234726
 30
0.0
 40
100.0
  1
Ｔ　　：強化ガラス
  7
EXTFONT
  0
TEXT
  8
YKK_F1
 10
9071.513555184232
 20
2250.855988234726
 30
0.0
 40
100.0
  1
＊
  7
EXTFONT
  0
TEXT
  8
YKK_F1
 10
9071.513555184232
 20
2550.855988234726
 30
0.0
 40
100.0
  1
Ｂ　　：ブロンズ・銅
  7
EXTFONT
  0
TEXT
  8
YKK_F1
 10
8671.513555184231
 20
3300.855988234726
 30
0.0
 40
100.0
  1
材質
  7
EXTFONT
  0
TEXT
  8
YKK_F1
 10
9071.513555184232
 20
3000.855988234726
 30
0.0
 40
100.0
  1
Ｗ　　：木製
  7
EXTFONT
  0
TEXT
  8
YKK_F1
 10
9071.513555184232
 20
3300.855988234726
 30
0.0
 40
100.0
  1
Ｓ　　：スチール
  7
EXTFONT
  0
TEXT
  8
YKK_F1
 10
11971.51355518423
 20
3150.855988234726
 30
0.0
 40
100.0
  1
ＣＬ　：クリアラッカー
  7
EXTFONT
  0
TEXT
  8
YKK_F1
 10
11971.51355518423
 20
2850.855988234726
 30
0.0
 40
100.0
  1
ＬＥＢ：合成樹脂色焼付
  7
EXTFONT
  0
TEXT
  8
YKK_F1
 10
11971.51355518423
 20
3300.855988234726
 30
0.0
 40
100.0
  1
ＳＯＰ：合成樹脂調合ペイント
  7
EXTFONT
  0
TEXT
  8
YKK_F1
 10
11971.51355518423
 20
3000.855988234726
 30
0.0
 40
100.0
  1
ＬＥ　：合成樹脂色ラッカー
  7
EXTFONT
  0
TEXT
  8
YKK_F1
 10
11971.51355518423
 20
2700.855988234726
 30
0.0
 40
100.0
  1
Ａ　　：アルミ酸化皮膜処理（白）
  7
EXTFONT
  0
TEXT
  8
YKK_F1
 10
11971.51355518423
 20
2550.855988234726
 30
0.0
 40
100.0
  1
ＡＣ　：アルミ電解着色処理（色）
  7
EXTFONT
  0
TEXT
  8
YKK_F1
 10
11971.51355518423
 20
2400.855988234726
 30
0.0
 40
100.0
  1
ＭＰ　：メラミン化粧板貼
  7
EXTFONT
  0
TEXT
  8
YKK_F1
 10
11971.51355518423
 20
2250.855988234726
 30
0.0
 40
100.0
  1
＊
  7
EXTFONT
  0
TEXT
  8
YKK_F1
 10
11571.51355518423
 20
3300.855988234726
 30
0.0
 40
100.0
  1
仕上
  7
EXTFONT
  0
TEXT
  8
YKK_F1
 10
14271.51355518423
 20
2850.855988234726
 30
0.0
 40
100.0
  1
Ｍ　　：鏡面
  7
EXTFONT
  0
TEXT
  8
YKK_F1
 10
14271.51355518423
 20
2250.855988234726
 30
0.0
 40
100.0
  1
＊
  7
EXTFONT
  0
TEXT
  8
YKK_F1
 10
14271.51355518423
 20
2550.855988234726
 30
0.0
 40
100.0
  1
＊
  7
EXTFONT
  0
TEXT
  8
YKK_F1
 10
14271.51355518423
 20
2700.855988234726
 30
0.0
 40
100.0
  1
＊
  7
EXTFONT
  0
TEXT
  8
YKK_F1
 10
14271.51355518423
 20
2400.855988234726
 30
0.0
 40
100.0
  1
＊
  7
EXTFONT
  0
TEXT
  8
YKK_F1
 10
14271.51355518423
 20
3300.855988234726
 30
0.0
 40
100.0
  1
Ｕ　　：本漆
  7
EXTFONT
  0
TEXT
  8
YKK_F1
 10
14271.51355518423
 20
3150.855988234726
 30
0.0
 40
100.0
  1
Ｋ　　：カシュー
  7
EXTFONT
  0
TEXT
  8
YKK_F1
 10
14271.51355518423
 20
3000.855988234726
 30
0.0
 40
100.0
  1
Ｈ　　：ヘアライン＃４
  7
EXTFONT
  0
TEXT
  8
YKK_F1
 10
20071.51355518423
 20
3150.855988234726
 30
0.0
 40
100.0
  1
　　レバーハンドル等に依り引寄せ
  7
EXTFONT
  0
TEXT
  8
YKK_F1
 10
20071.51355518423
 20
3000.855988234726
 30
0.0
 40
100.0
  1
Ｂ：枠四周合成ゴムストリップ付
  7
EXTFONT
  0
TEXT
  8
YKK_F1
 10
20071.51355518423
 20
3300.855988234726
 30
0.0
 40
100.0
  1
Ａ：枠四周合成ゴムストリップ付
  7
EXTFONT
  0
TEXT
  8
YKK_F1
 10
17771.51355518423
 20
2850.855988234726
 30
0.0
 40
100.0
  1
＊
  7
EXTFONT
  0
TEXT
  8
YKK_F1
 10
16471.51355518423
 20
2850.855988234726
 30
0.0
 40
100.0
  1
Ｗ　：ワイヤー入
  7
EXTFONT
  0
TEXT
  8
YKK_F1
 10
16471.51355518423
 20
2250.855988234726
 30
0.0
 40
100.0
  1
Ｔ　：強化
  7
EXTFONT
  0
TEXT
  8
YKK_F1
 10
16471.51355518423
 20
2400.855988234726
 30
0.0
 40
100.0
  1
Ｒ　：熱線反射
  7
EXTFONT
  0
TEXT
  8
YKK_F1
 10
16471.51355518423
 20
2550.855988234726
 30
0.0
 40
100.0
  1
Ｆ　：型板
  7
EXTFONT
  0
TEXT
  8
YKK_F1
 10
16471.51355518423
 20
2700.855988234726
 30
0.0
 40
100.0
  1
Ｐ　：磨き
  7
EXTFONT
  0
TEXT
  8
YKK_F1
 10
17771.51355518423
 20
2250.855988234726
 30
0.0
 40
100.0
  1
＊
  7
EXTFONT
  0
TEXT
  8
YKK_F1
 10
17771.51355518423
 20
2550.855988234726
 30
0.0
 40
100.0
  1
＊
  7
EXTFONT
  0
TEXT
  8
YKK_F1
 10
17771.51355518423
 20
2700.855988234726
 30
0.0
 40
100.0
  1
＊
  7
EXTFONT
  0
TEXT
  8
YKK_F1
 10
17771.51355518423
 20
2400.855988234726
 30
0.0
 40
100.0
  1
＊
  7
EXTFONT
  0
TEXT
  8
YKK_F1
 10
16471.51355518423
 20
3150.855988234726
 30
0.0
 40
100.0
  1
Ｈ　：吸熱
  7
EXTFONT
  0
TEXT
  8
YKK_F1
 10
16471.51355518423
 20
3000.855988234726
 30
0.0
 40
100.0
  1
Ｄ　：複層
  7
EXTFONT
  0
TEXT
  8
YKK_F1
 10
16471.51355518423
 20
3300.855988234726
 30
0.0
 40
100.0
  1
Ｃ　：透明
  7
EXTFONT
  0
TEXT
  8
YKK_F1
 10
17771.51355518423
 20
3300.855988234726
 30
0.0
 40
100.0
  1
ＦＬ：フロート
  7
EXTFONT
  0
TEXT
  8
YKK_F1
 10
17771.51355518423
 20
3150.855988234726
 30
0.0
 40
100.0
  1
＊
  7
EXTFONT
  0
TEXT
  8
YKK_F1
 10
17771.51355518423
 20
3000.855988234726
 30
0.0
 40
100.0
  1
＊
  7
EXTFONT
  0
TEXT
  8
YKK_F1
 10
20071.51355518423
 20
2850.855988234726
 30
0.0
 40
100.0
  1
Ｃ：ダブルモヘア
  7
EXTFONT
  0
TEXT
  8
YKK_F1
 10
20071.51355518423
 20
2550.855988234726
 30
0.0
 40
100.0
  1
Ａ：ビーズ付自閉
  7
EXTFONT
  0
TEXT
  8
YKK_F1
 10
20071.51355518423
 20
2400.855988234726
 30
0.0
 40
100.0
  1
Ｂ：煙感知器連動自閉装置
  7
EXTFONT
  0
TEXT
  8
YKK_F1
 10
20071.51355518423
 20
2250.855988234726
 30
0.0
 40
100.0
  1
＊
  7
EXTFONT
  0
TEXT
  8
YKK_F1
 10
19071.51355518423
 20
2550.855988234726
 30
0.0
 40
100.0
  1
防火防煙型式
  7
EXTFONT
  0
TEXT
  8
YKK_F1
 10
20071.51355518423
 20
2700.855988234726
 30
0.0
 40
100.0
  1
＊
  7
EXTFONT
  0
TEXT
  8
YKK_F1
 10
19071.51355518423
 20
3300.855988234726
 30
0.0
 40
100.0
  1
エアタイト型式
  7
EXTFONT
  0
LINE
  8
YKK_F1
 10
111.7391051842205
 20
29781.41968823473
 30
0.0
 11
42161.73910518421
 21
29781.41968823472
 31
0.0
  0
TEXT
  8
0
 10
1121.513565184213
 20
29393.82568823473
 30
0.0
 40
250.0
  1
＊　白紙原紙　Ａ１版
  7
EXTFONT
  0
TEXT
  8
0
 10
36276.06381946993
 20
5354.355988234727
 30
0.0
 40
200.0
  1
＊
  7
EXTFONT
  0
TEXT
  8
0
 10
36276.06381946993
 20
5104.355988234727
 30
0.0
 40
200.0
  1
＊
  7
EXTFONT
  0
TEXT
  8
0
 10
36276.06381946993
 20
6604.355988234726
 30
0.0
 40
200.0
  1
＊
  7
EXTFONT
  0
TEXT
  8
0
 10
36276.06381946993
 20
6104.355988234727
 30
0.0
 40
200.0
  1
＊
  7
EXTFONT
  0
TEXT
  8
0
 10
36276.06381946993
 20
5604.355988234727
 30
0.0
 40
200.0
  1
＊
  7
EXTFONT
  0
TEXT
  8
0
 10
36276.06381946993
 20
5854.355988234727
 30
0.0
 40
200.0
  1
＊
  7
EXTFONT
  0
TEXT
  8
0
 10
36276.06381946993
 20
6354.355988234727
 30
0.0
 40
200.0
  1
＊
  7
EXTFONT
  0
TEXT
  8
0
 10
36276.06381946993
 20
6854.355988234726
 30
0.0
 40
200.0
  1
＊
  7
EXTFONT
  0
TEXT
  8
0
 10
36276.06381946993
 20
7104.355988234726
 30
0.0
 40
200.0
  1
＊
  7
EXTFONT
  0
TEXT
  8
0
 10
36276.06381946993
 20
10309.35598823473
 30
0.0
 40
200.0
  1
＊
  7
EXTFONT
  0
TEXT
  8
0
 10
36476.06381946992
 20
10784.35598823473
 30
0.0
 40
200.0
  1
＊
  7
EXTFONT
  0
LINE
  8
YKK_F1
  6
CONTINUOUS
 10
36351.06381946992
 20
10784.35598823473
 30
0.0
 11
36342.73048613659
 21
10776.02265490139
 31
0.0
  0
TEXT
  8
0
 10
40311.77810518423
 20
10559.35598823473
 30
0.0
 40
200.0
  1
＊
  7
EXTFONT
  0
TEXT
  8
0
 10
40011.77810518423
 20
10309.35598823473
 30
0.0
 40
200.0
  1
＊
  7
EXTFONT
  0
TEXT
  8
0
 10
36276.06381946993
 20
11059.35598823472
 30
0.0
 40
200.0
  1
＊
  7
EXTFONT
  0
TEXT
  8
0
 10
36276.06381946993
 20
11309.35598823472
 30
0.0
 40
200.0
  1
＊
  7
EXTFONT
  0
TEXT
  8
0
 10
36276.06381946993
 20
12559.35598823472
 30
0.0
 40
200.0
  1
＊
  7
EXTFONT
  0
TEXT
  8
0
 10
36276.06381946993
 20
12059.35598823472
 30
0.0
 40
200.0
  1
＊
  7
EXTFONT
  0
TEXT
  8
0
 10
36276.06381946993
 20
11809.35598823472
 30
0.0
 40
200.0
  1
＊
  7
EXTFONT
  0
TEXT
  8
0
 10
36276.06381946993
 20
11559.35598823472
 30
0.0
 40
200.0
  1
＊
  7
EXTFONT
  0
TEXT
  8
0
 10
36276.06381946993
 20
12309.35598823472
 30
0.0
 40
200.0
  1
＊
  7
EXTFONT
  0
TEXT
  8
0
 10
36276.06381946993
 20
13059.35598823472
 30
0.0
 40
200.0
  1
＊
  7
EXTFONT
  0
TEXT
  8
0
 10
36276.06381946993
 20
12809.35598823472
 30
0.0
 40
200.0
  1
＊
  7
EXTFONT
  0
TEXT
  8
0
 10
36276.06381946993
 20
16264.35598823473
 30
0.0
 40
200.0
  1
＊
  7
EXTFONT
  0
TEXT
  8
0
 10
36476.06381946992
 20
16739.35598823473
 30
0.0
 40
200.0
  1
＊
  7
EXTFONT
  0
TEXT
  8
0
 10
40311.77810518423
 20
16514.35598823473
 30
0.0
 40
200.0
  1
＊
  7
EXTFONT
  0
TEXT
  8
0
 10
40011.77810518423
 20
16264.35598823473
 30
0.0
 40
200.0
  1
＊
  7
EXTFONT
  0
TEXT
  8
0
 10
36276.06381946993
 20
17014.35598823472
 30
0.0
 40
200.0
  1
＊
  7
EXTFONT
  0
TEXT
  8
0
 10
36276.06381946993
 20
17264.35598823472
 30
0.0
 40
200.0
  1
＊
  7
EXTFONT
  0
TEXT
  8
0
 10
36276.06381946993
 20
18514.35598823472
 30
0.0
 40
200.0
  1
＊
  7
EXTFONT
  0
TEXT
  8
0
 10
36276.06381946993
 20
18014.35598823472
 30
0.0
 40
200.0
  1
＊
  7
EXTFONT
  0
TEXT
  8
0
 10
36276.06381946993
 20
17764.35598823472
 30
0.0
 40
200.0
  1
＊
  7
EXTFONT
  0
TEXT
  8
0
 10
36276.06381946993
 20
17514.35598823472
 30
0.0
 40
200.0
  1
＊
  7
EXTFONT
  0
TEXT
  8
0
 10
36276.06381946993
 20
18264.35598823472
 30
0.0
 40
200.0
  1
＊
  7
EXTFONT
  0
TEXT
  8
0
 10
36276.06381946993
 20
19014.35598823472
 30
0.0
 40
200.0
  1
＊
  7
EXTFONT
  0
TEXT
  8
0
 10
36276.06381946993
 20
18764.35598823472
 30
0.0
 40
200.0
  1
＊
  7
EXTFONT
  0
TEXT
  8
0
 10
36276.06381946993
 20
23219.35598823472
 30
0.0
 40
200.0
  1
＊
  7
EXTFONT
  0
TEXT
  8
0
 10
36276.06381946993
 20
22219.35598823473
 30
0.0
 40
200.0
  1
＊
  7
EXTFONT
  0
TEXT
  8
0
 10
36276.06381946993
 20
22969.35598823472
 30
0.0
 40
200.0
  1
＊
  7
EXTFONT
  0
TEXT
  8
0
 10
36476.06381946992
 20
22694.35598823473
 30
0.0
 40
200.0
  1
＊
  7
EXTFONT
  0
TEXT
  8
0
 10
36276.06381946993
 20
23469.35598823472
 30
0.0
 40
200.0
  1
＊
  7
EXTFONT
  0
TEXT
  8
0
 10
36276.06381946993
 20
23719.35598823472
 30
0.0
 40
200.0
  1
＊
  7
EXTFONT
  0
TEXT
  8
0
 10
36276.06381946993
 20
24219.35598823472
 30
0.0
 40
200.0
  1
＊
  7
EXTFONT
  0
TEXT
  8
0
 10
36276.06381946993
 20
23969.35598823472
 30
0.0
 40
200.0
  1
＊
  7
EXTFONT
  0
TEXT
  8
0
 10
36276.06381946993
 20
24969.35598823472
 30
0.0
 40
200.0
  1
＊
  7
EXTFONT
  0
TEXT
  8
0
 10
36276.06381946993
 20
24719.35598823472
 30
0.0
 40
200.0
  1
＊
  7
EXTFONT
  0
TEXT
  8
0
 10
36276.06381946993
 20
24469.35598823472
 30
0.0
 40
200.0
  1
＊
  7
EXTFONT
  0
TEXT
  8
0
 10
40311.77810518423
 20
22469.35598823473
 30
0.0
 40
200.0
  1
＊
  7
EXTFONT
  0
TEXT
  8
0
 10
40011.77810518423
 20
22219.35598823473
 30
0.0
 40
200.0
  1
＊
  7
EXTFONT
  0
TEXT
  8
0
 10
36276.06381946993
 20
28174.35598823473
 30
0.0
 40
200.0
  1
＊
  7
EXTFONT
  0
TEXT
  8
0
 10
36476.06381946992
 20
28649.35598823473
 30
0.0
 40
200.0
  1
＊
  7
EXTFONT
  0
TEXT
  8
0
 10
40311.77810518423
 20
28424.35598823473
 30
0.0
 40
200.0
  1
＊
  7
EXTFONT
  0
TEXT
  8
0
 10
40011.77810518423
 20
28174.35598823473
 30
0.0
 40
200.0
  1
＊
  7
EXTFONT
  0
TEXT
  8
0
 10
31190.34953375565
 20
5104.355988234727
 30
0.0
 40
200.0
  1
＊
  7
EXTFONT
  0
TEXT
  8
0
 10
31190.34953375565
 20
5354.355988234727
 30
0.0
 40
200.0
  1
＊
  7
EXTFONT
  0
TEXT
  8
0
 10
31190.34953375565
 20
6604.355988234726
 30
0.0
 40
200.0
  1
＊
  7
EXTFONT
  0
TEXT
  8
0
 10
31190.34953375565
 20
6104.355988234727
 30
0.0
 40
200.0
  1
＊
  7
EXTFONT
  0
TEXT
  8
0
 10
31190.34953375565
 20
5854.355988234727
 30
0.0
 40
200.0
  1
＊
  7
EXTFONT
  0
TEXT
  8
0
 10
31190.34953375565
 20
5604.355988234727
 30
0.0
 40
200.0
  1
＊
  7
EXTFONT
  0
TEXT
  8
0
 10
31190.34953375565
 20
6354.355988234727
 30
0.0
 40
200.0
  1
＊
  7
EXTFONT
  0
TEXT
  8
0
 10
31190.34953375565
 20
7104.355988234726
 30
0.0
 40
200.0
  1
＊
  7
EXTFONT
  0
TEXT
  8
0
 10
31190.34953375565
 20
6854.355988234726
 30
0.0
 40
200.0
  1
＊
  7
EXTFONT
  0
TEXT
  8
0
 10
31190.34953375565
 20
11309.35598823472
 30
0.0
 40
200.0
  1
＊
  7
EXTFONT
  0
TEXT
  8
0
 10
31190.34953375565
 20
10309.35598823473
 30
0.0
 40
200.0
  1
＊
  7
EXTFONT
  0
TEXT
  8
0
 10
31190.34953375565
 20
11059.35598823472
 30
0.0
 40
200.0
  1
＊
  7
EXTFONT
  0
TEXT
  8
0
 10
31390.34953375563
 20
10784.35598823473
 30
0.0
 40
200.0
  1
＊
  7
EXTFONT
  0
TEXT
  8
0
 10
31190.34953375565
 20
11559.35598823472
 30
0.0
 40
200.0
  1
＊
  7
EXTFONT
  0
TEXT
  8
0
 10
31190.34953375565
 20
11809.35598823472
 30
0.0
 40
200.0
  1
＊
  7
EXTFONT
  0
TEXT
  8
0
 10
31190.34953375565
 20
12309.35598823472
 30
0.0
 40
200.0
  1
＊
  7
EXTFONT
  0
TEXT
  8
0
 10
31190.34953375565
 20
12059.35598823472
 30
0.0
 40
200.0
  1
＊
  7
EXTFONT
  0
TEXT
  8
0
 10
31190.34953375565
 20
13059.35598823472
 30
0.0
 40
200.0
  1
＊
  7
EXTFONT
  0
TEXT
  8
0
 10
31190.34953375565
 20
12809.35598823472
 30
0.0
 40
200.0
  1
＊
  7
EXTFONT
  0
TEXT
  8
0
 10
31190.34953375565
 20
12559.35598823472
 30
0.0
 40
200.0
  1
＊
  7
EXTFONT
  0
TEXT
  8
0
 10
35226.06381946995
 20
10559.35598823473
 30
0.0
 40
200.0
  1
＊
  7
EXTFONT
  0
TEXT
  8
0
 10
34926.06381946995
 20
10309.35598823473
 30
0.0
 40
200.0
  1
＊
  7
EXTFONT
  0
TEXT
  8
0
 10
31190.34953375565
 20
16264.35598823473
 30
0.0
 40
200.0
  1
＊
  7
EXTFONT
  0
TEXT
  8
0
 10
31190.34953375565
 20
17014.35598823472
 30
0.0
 40
200.0
  1
＊
  7
EXTFONT
  0
TEXT
  8
0
 10
31390.34953375563
 20
16739.35598823473
 30
0.0
 40
200.0
  1
＊
  7
EXTFONT
  0
TEXT
  8
0
 10
31190.34953375565
 20
18264.35598823472
 30
0.0
 40
200.0
  1
＊
  7
EXTFONT
  0
TEXT
  8
0
 10
31190.34953375565
 20
17514.35598823472
 30
0.0
 40
200.0
  1
＊
  7
EXTFONT
  0
TEXT
  8
0
 10
31190.34953375565
 20
17264.35598823472
 30
0.0
 40
200.0
  1
＊
  7
EXTFONT
  0
TEXT
  8
0
 10
31190.34953375565
 20
17764.35598823472
 30
0.0
 40
200.0
  1
＊
  7
EXTFONT
  0
TEXT
  8
0
 10
31190.34953375565
 20
18014.35598823472
 30
0.0
 40
200.0
  1
＊
  7
EXTFONT
  0
TEXT
  8
0
 10
31190.34953375565
 20
18764.35598823472
 30
0.0
 40
200.0
  1
＊
  7
EXTFONT
  0
TEXT
  8
0
 10
31190.34953375565
 20
18514.35598823472
 30
0.0
 40
200.0
  1
＊
  7
EXTFONT
  0
TEXT
  8
0
 10
31190.34953375565
 20
19014.35598823472
 30
0.0
 40
200.0
  1
＊
  7
EXTFONT
  0
TEXT
  8
0
 10
35226.06381946995
 20
16514.35598823473
 30
0.0
 40
200.0
  1
＊
  7
EXTFONT
  0
TEXT
  8
0
 10
34926.06381946995
 20
16264.35598823473
 30
0.0
 40
200.0
  1
＊
  7
EXTFONT
  0
TEXT
  8
0
 10
31190.34953375565
 20
22969.35598823472
 30
0.0
 40
200.0
  1
＊
  7
EXTFONT
  0
TEXT
  8
0
 10
31190.34953375565
 20
22219.35598823473
 30
0.0
 40
200.0
  1
＊
  7
EXTFONT
  0
TEXT
  8
0
 10
31390.34953375563
 20
22694.35598823473
 30
0.0
 40
200.0
  1
＊
  7
EXTFONT
  0
TEXT
  8
0
 10
31190.34953375565
 20
23469.35598823472
 30
0.0
 40
200.0
  1
＊
  7
EXTFONT
  0
TEXT
  8
0
 10
31190.34953375565
 20
23219.35598823472
 30
0.0
 40
200.0
  1
＊
  7
EXTFONT
  0
TEXT
  8
0
 10
31190.34953375565
 20
23969.35598823472
 30
0.0
 40
200.0
  1
＊
  7
EXTFONT
  0
TEXT
  8
0
 10
31190.34953375565
 20
23719.35598823472
 30
0.0
 40
200.0
  1
＊
  7
EXTFONT
  0
TEXT
  8
0
 10
34926.06381946995
 20
22219.35598823473
 30
0.0
 40
200.0
  1
＊
  7
EXTFONT
  0
TEXT
  8
0
 10
35226.06381946995
 20
22469.35598823473
 30
0.0
 40
200.0
  1
＊
  7
EXTFONT
  0
TEXT
  8
0
 10
31190.34953375565
 20
24719.35598823472
 30
0.0
 40
200.0
  1
＊
  7
EXTFONT
  0
TEXT
  8
0
 10
31190.34953375565
 20
24469.35598823472
 30
0.0
 40
200.0
  1
＊
  7
EXTFONT
  0
TEXT
  8
0
 10
31190.34953375565
 20
24219.35598823472
 30
0.0
 40
200.0
  1
＊
  7
EXTFONT
  0
TEXT
  8
0
 10
31190.34953375565
 20
24969.35598823472
 30
0.0
 40
200.0
  1
＊
  7
EXTFONT
  0
TEXT
  8
0
 10
31190.34953375565
 20
28174.35598823473
 30
0.0
 40
200.0
  1
＊
  7
EXTFONT
  0
TEXT
  8
0
 10
31390.34953375563
 20
28649.35598823473
 30
0.0
 40
200.0
  1
＊
  7
EXTFONT
  0
TEXT
  8
0
 10
34926.06381946995
 20
28174.35598823473
 30
0.0
 40
200.0
  1
＊
  7
EXTFONT
  0
TEXT
  8
0
 10
35226.06381946995
 20
28424.35598823473
 30
0.0
 40
200.0
  1
＊
  7
EXTFONT
  0
TEXT
  8
0
 10
26104.63524804136
 20
5354.355988234727
 30
0.0
 40
200.0
  1
＊
  7
EXTFONT
  0
TEXT
  8
0
 10
26104.63524804136
 20
5104.355988234727
 30
0.0
 40
200.0
  1
＊
  7
EXTFONT
  0
TEXT
  8
0
 10
26104.63524804136
 20
6604.355988234726
 30
0.0
 40
200.0
  1
＊
  7
EXTFONT
  0
TEXT
  8
0
 10
26104.63524804136
 20
6104.355988234727
 30
0.0
 40
200.0
  1
＊
  7
EXTFONT
  0
TEXT
  8
0
 10
26104.63524804136
 20
5604.355988234727
 30
0.0
 40
200.0
  1
＊
  7
EXTFONT
  0
TEXT
  8
0
 10
26104.63524804136
 20
5854.355988234727
 30
0.0
 40
200.0
  1
＊
  7
EXTFONT
  0
TEXT
  8
0
 10
26104.63524804136
 20
6354.355988234727
 30
0.0
 40
200.0
  1
＊
  7
EXTFONT
  0
TEXT
  8
0
 10
26104.63524804136
 20
6854.355988234726
 30
0.0
 40
200.0
  1
＊
  7
EXTFONT
  0
TEXT
  8
0
 10
26104.63524804136
 20
7104.355988234726
 30
0.0
 40
200.0
  1
＊
  7
EXTFONT
  0
TEXT
  8
0
 10
26104.63524804136
 20
11309.35598823472
 30
0.0
 40
200.0
  1
＊
  7
EXTFONT
  0
TEXT
  8
0
 10
26104.63524804136
 20
10309.35598823473
 30
0.0
 40
200.0
  1
＊
  7
EXTFONT
  0
TEXT
  8
0
 10
26104.63524804136
 20
11059.35598823472
 30
0.0
 40
200.0
  1
＊
  7
EXTFONT
  0
TEXT
  8
0
 10
26304.63524804135
 20
10784.35598823473
 30
0.0
 40
200.0
  1
＊
  7
EXTFONT
  0
TEXT
  8
0
 10
26104.63524804136
 20
11809.35598823472
 30
0.0
 40
200.0
  1
＊
  7
EXTFONT
  0
TEXT
  8
0
 10
26104.63524804136
 20
11559.35598823472
 30
0.0
 40
200.0
  1
＊
  7
EXTFONT
  0
TEXT
  8
0
 10
26104.63524804136
 20
12059.35598823472
 30
0.0
 40
200.0
  1
＊
  7
EXTFONT
  0
TEXT
  8
0
 10
26104.63524804136
 20
12309.35598823472
 30
0.0
 40
200.0
  1
＊
  7
EXTFONT
  0
TEXT
  8
0
 10
26104.63524804136
 20
13059.35598823472
 30
0.0
 40
200.0
  1
＊
  7
EXTFONT
  0
TEXT
  8
0
 10
26104.63524804136
 20
12559.35598823472
 30
0.0
 40
200.0
  1
＊
  7
EXTFONT
  0
TEXT
  8
0
 10
26104.63524804136
 20
12809.35598823472
 30
0.0
 40
200.0
  1
＊
  7
EXTFONT
  0
TEXT
  8
0
 10
29840.34953375566
 20
10309.35598823473
 30
0.0
 40
200.0
  1
＊
  7
EXTFONT
  0
TEXT
  8
0
 10
30140.34953375566
 20
10559.35598823473
 30
0.0
 40
200.0
  1
＊
  7
EXTFONT
  0
TEXT
  8
0
 10
26104.63524804136
 20
16264.35598823473
 30
0.0
 40
200.0
  1
＊
  7
EXTFONT
  0
TEXT
  8
0
 10
26104.63524804136
 20
17014.35598823472
 30
0.0
 40
200.0
  1
＊
  7
EXTFONT
  0
TEXT
  8
0
 10
26304.63524804135
 20
16739.35598823473
 30
0.0
 40
200.0
  1
＊
  7
EXTFONT
  0
TEXT
  8
0
 10
26104.63524804136
 20
18264.35598823472
 30
0.0
 40
200.0
  1
＊
  7
EXTFONT
  0
TEXT
  8
0
 10
26104.63524804136
 20
17264.35598823472
 30
0.0
 40
200.0
  1
＊
  7
EXTFONT
  0
TEXT
  8
0
 10
26104.63524804136
 20
17514.35598823472
 30
0.0
 40
200.0
  1
＊
  7
EXTFONT
  0
TEXT
  8
0
 10
26104.63524804136
 20
18014.35598823472
 30
0.0
 40
200.0
  1
＊
  7
EXTFONT
  0
TEXT
  8
0
 10
26104.63524804136
 20
17764.35598823472
 30
0.0
 40
200.0
  1
＊
  7
EXTFONT
  0
TEXT
  8
0
 10
26104.63524804136
 20
18514.35598823472
 30
0.0
 40
200.0
  1
＊
  7
EXTFONT
  0
TEXT
  8
0
 10
26104.63524804136
 20
18764.35598823472
 30
0.0
 40
200.0
  1
＊
  7
EXTFONT
  0
TEXT
  8
0
 10
26104.63524804136
 20
19014.35598823472
 30
0.0
 40
200.0
  1
＊
  7
EXTFONT
  0
TEXT
  8
0
 10
26104.63524804136
 20
22969.35598823472
 30
0.0
 40
200.0
  1
＊
  7
EXTFONT
  0
TEXT
  8
0
 10
26104.63524804136
 20
22219.35598823473
 30
0.0
 40
200.0
  1
＊
  7
EXTFONT
  0
TEXT
  8
0
 10
26304.63524804135
 20
22694.35598823473
 30
0.0
 40
200.0
  1
＊
  7
EXTFONT
  0
TEXT
  8
0
 10
26104.63524804136
 20
23469.35598823472
 30
0.0
 40
200.0
  1
＊
  7
EXTFONT
  0
TEXT
  8
0
 10
26104.63524804136
 20
23219.35598823472
 30
0.0
 40
200.0
  1
＊
  7
EXTFONT
  0
TEXT
  8
0
 10
26104.63524804136
 20
23719.35598823472
 30
0.0
 40
200.0
  1
＊
  7
EXTFONT
  0
TEXT
  8
0
 10
26104.63524804136
 20
23969.35598823472
 30
0.0
 40
200.0
  1
＊
  7
EXTFONT
  0
TEXT
  8
0
 10
26104.63524804136
 20
24719.35598823472
 30
0.0
 40
200.0
  1
＊
  7
EXTFONT
  0
TEXT
  8
0
 10
26104.63524804136
 20
24219.35598823472
 30
0.0
 40
200.0
  1
＊
  7
EXTFONT
  0
TEXT
  8
0
 10
26104.63524804136
 20
24469.35598823472
 30
0.0
 40
200.0
  1
＊
  7
EXTFONT
  0
TEXT
  8
0
 10
26104.63524804136
 20
24969.35598823472
 30
0.0
 40
200.0
  1
＊
  7
EXTFONT
  0
TEXT
  8
0
 10
26104.63524804136
 20
28174.35598823473
 30
0.0
 40
200.0
  1
＊
  7
EXTFONT
  0
TEXT
  8
0
 10
26304.63524804135
 20
28649.35598823473
 30
0.0
 40
200.0
  1
＊
  7
EXTFONT
  0
TEXT
  8
0
 10
29840.34953375566
 20
16264.35598823473
 30
0.0
 40
200.0
  1
＊
  7
EXTFONT
  0
TEXT
  8
0
 10
30140.34953375566
 20
16514.35598823473
 30
0.0
 40
200.0
  1
＊
  7
EXTFONT
  0
TEXT
  8
0
 10
29840.34953375566
 20
22219.35598823473
 30
0.0
 40
200.0
  1
＊
  7
EXTFONT
  0
TEXT
  8
0
 10
30140.34953375566
 20
22469.35598823473
 30
0.0
 40
200.0
  1
＊
  7
EXTFONT
  0
TEXT
  8
0
 10
29840.34953375566
 20
28174.35598823473
 30
0.0
 40
200.0
  1
＊
  7
EXTFONT
  0
TEXT
  8
0
 10
30140.34953375566
 20
28424.35598823473
 30
0.0
 40
200.0
  1
＊
  7
EXTFONT
  0
TEXT
  8
0
 10
21018.92096232707
 20
5104.355988234727
 30
0.0
 40
200.0
  1
＊
  7
EXTFONT
  0
TEXT
  8
0
 10
21018.92096232707
 20
5354.355988234727
 30
0.0
 40
200.0
  1
＊
  7
EXTFONT
  0
TEXT
  8
0
 10
21018.92096232707
 20
6604.355988234726
 30
0.0
 40
200.0
  1
＊
  7
EXTFONT
  0
TEXT
  8
0
 10
21018.92096232707
 20
6104.355988234727
 30
0.0
 40
200.0
  1
＊
  7
EXTFONT
  0
TEXT
  8
0
 10
21018.92096232707
 20
5854.355988234727
 30
0.0
 40
200.0
  1
＊
  7
EXTFONT
  0
TEXT
  8
0
 10
21018.92096232707
 20
5604.355988234727
 30
0.0
 40
200.0
  1
＊
  7
EXTFONT
  0
TEXT
  8
0
 10
21018.92096232707
 20
6354.355988234727
 30
0.0
 40
200.0
  1
＊
  7
EXTFONT
  0
TEXT
  8
0
 10
21018.92096232707
 20
7104.355988234726
 30
0.0
 40
200.0
  1
＊
  7
EXTFONT
  0
TEXT
  8
0
 10
21018.92096232707
 20
6854.355988234726
 30
0.0
 40
200.0
  1
＊
  7
EXTFONT
  0
TEXT
  8
0
 10
21018.92096232707
 20
11309.35598823472
 30
0.0
 40
200.0
  1
＊
  7
EXTFONT
  0
TEXT
  8
0
 10
21018.92096232707
 20
10309.35598823473
 30
0.0
 40
200.0
  1
＊
  7
EXTFONT
  0
TEXT
  8
0
 10
21218.92096232706
 20
10784.35598823473
 30
0.0
 40
200.0
  1
＊
  7
EXTFONT
  0
TEXT
  8
0
 10
21018.92096232707
 20
11059.35598823472
 30
0.0
 40
200.0
  1
＊
  7
EXTFONT
  0
TEXT
  8
0
 10
21018.92096232707
 20
11559.35598823472
 30
0.0
 40
200.0
  1
＊
  7
EXTFONT
  0
TEXT
  8
0
 10
21018.92096232707
 20
11809.35598823472
 30
0.0
 40
200.0
  1
＊
  7
EXTFONT
  0
TEXT
  8
0
 10
21018.92096232707
 20
12309.35598823472
 30
0.0
 40
200.0
  1
＊
  7
EXTFONT
  0
TEXT
  8
0
 10
21018.92096232707
 20
12059.35598823472
 30
0.0
 40
200.0
  1
＊
  7
EXTFONT
  0
TEXT
  8
0
 10
21018.92096232707
 20
13059.35598823472
 30
0.0
 40
200.0
  1
＊
  7
EXTFONT
  0
TEXT
  8
0
 10
21018.92096232707
 20
12809.35598823472
 30
0.0
 40
200.0
  1
＊
  7
EXTFONT
  0
TEXT
  8
0
 10
21018.92096232707
 20
12559.35598823472
 30
0.0
 40
200.0
  1
＊
  7
EXTFONT
  0
TEXT
  8
0
 10
24754.63524804137
 20
10309.35598823473
 30
0.0
 40
200.0
  1
＊
  7
EXTFONT
  0
TEXT
  8
0
 10
25054.63524804137
 20
10559.35598823473
 30
0.0
 40
200.0
  1
＊
  7
EXTFONT
  0
TEXT
  8
0
 10
21018.92096232707
 20
16264.35598823473
 30
0.0
 40
200.0
  1
＊
  7
EXTFONT
  0
TEXT
  8
0
 10
21218.92096232706
 20
16739.35598823473
 30
0.0
 40
200.0
  1
＊
  7
EXTFONT
  0
TEXT
  8
0
 10
21018.92096232707
 20
17014.35598823472
 30
0.0
 40
200.0
  1
＊
  7
EXTFONT
  0
TEXT
  8
0
 10
21018.92096232707
 20
18264.35598823472
 30
0.0
 40
200.0
  1
＊
  7
EXTFONT
  0
TEXT
  8
0
 10
21018.92096232707
 20
17514.35598823472
 30
0.0
 40
200.0
  1
＊
  7
EXTFONT
  0
TEXT
  8
0
 10
21018.92096232707
 20
17264.35598823472
 30
0.0
 40
200.0
  1
＊
  7
EXTFONT
  0
TEXT
  8
0
 10
21018.92096232707
 20
17764.35598823472
 30
0.0
 40
200.0
  1
＊
  7
EXTFONT
  0
TEXT
  8
0
 10
21018.92096232707
 20
18014.35598823472
 30
0.0
 40
200.0
  1
＊
  7
EXTFONT
  0
TEXT
  8
0
 10
21018.92096232707
 20
18764.35598823472
 30
0.0
 40
200.0
  1
＊
  7
EXTFONT
  0
TEXT
  8
0
 10
21018.92096232707
 20
18514.35598823472
 30
0.0
 40
200.0
  1
＊
  7
EXTFONT
  0
TEXT
  8
0
 10
21018.92096232707
 20
19014.35598823472
 30
0.0
 40
200.0
  1
＊
  7
EXTFONT
  0
TEXT
  8
0
 10
21018.92096232707
 20
22969.35598823472
 30
0.0
 40
200.0
  1
＊
  7
EXTFONT
  0
TEXT
  8
0
 10
21018.92096232707
 20
22219.35598823473
 30
0.0
 40
200.0
  1
＊
  7
EXTFONT
  0
TEXT
  8
0
 10
21218.92096232706
 20
22694.35598823473
 30
0.0
 40
200.0
  1
＊
  7
EXTFONT
  0
TEXT
  8
0
 10
21018.92096232707
 20
23469.35598823472
 30
0.0
 40
200.0
  1
＊
  7
EXTFONT
  0
TEXT
  8
0
 10
21018.92096232707
 20
23219.35598823472
 30
0.0
 40
200.0
  1
＊
  7
EXTFONT
  0
TEXT
  8
0
 10
21018.92096232707
 20
23969.35598823472
 30
0.0
 40
200.0
  1
＊
  7
EXTFONT
  0
TEXT
  8
0
 10
21018.92096232707
 20
23719.35598823472
 30
0.0
 40
200.0
  1
＊
  7
EXTFONT
  0
TEXT
  8
0
 10
24754.63524804137
 20
16264.35598823473
 30
0.0
 40
200.0
  1
＊
  7
EXTFONT
  0
TEXT
  8
0
 10
25054.63524804137
 20
16514.35598823473
 30
0.0
 40
200.0
  1
＊
  7
EXTFONT
  0
TEXT
  8
0
 10
24754.63524804137
 20
22219.35598823473
 30
0.0
 40
200.0
  1
＊
  7
EXTFONT
  0
TEXT
  8
0
 10
25054.63524804137
 20
22469.35598823473
 30
0.0
 40
200.0
  1
＊
  7
EXTFONT
  0
TEXT
  8
0
 10
21018.92096232707
 20
24719.35598823472
 30
0.0
 40
200.0
  1
＊
  7
EXTFONT
  0
TEXT
  8
0
 10
21018.92096232707
 20
24469.35598823472
 30
0.0
 40
200.0
  1
＊
  7
EXTFONT
  0
TEXT
  8
0
 10
21018.92096232707
 20
24219.35598823472
 30
0.0
 40
200.0
  1
＊
  7
EXTFONT
  0
TEXT
  8
0
 10
21018.92096232707
 20
24969.35598823472
 30
0.0
 40
200.0
  1
＊
  7
EXTFONT
  0
TEXT
  8
0
 10
21018.92096232707
 20
28174.35598823473
 30
0.0
 40
200.0
  1
＊
  7
EXTFONT
  0
TEXT
  8
0
 10
21218.92096232706
 20
28649.35598823473
 30
0.0
 40
200.0
  1
＊
  7
EXTFONT
  0
TEXT
  8
0
 10
24754.63524804137
 20
28174.35598823473
 30
0.0
 40
200.0
  1
＊
  7
EXTFONT
  0
TEXT
  8
0
 10
25054.63524804137
 20
28424.35598823473
 30
0.0
 40
200.0
  1
＊
  7
EXTFONT
  0
TEXT
  8
0
 10
15933.20667661278
 20
28174.35598823473
 30
0.0
 40
200.0
  1
＊
  7
EXTFONT
  0
TEXT
  8
0
 10
15933.20667661278
 20
24969.35598823472
 30
0.0
 40
200.0
  1
＊
  7
EXTFONT
  0
TEXT
  8
0
 10
15933.20667661278
 20
24219.35598823472
 30
0.0
 40
200.0
  1
＊
  7
EXTFONT
  0
TEXT
  8
0
 10
15933.20667661278
 20
24469.35598823472
 30
0.0
 40
200.0
  1
＊
  7
EXTFONT
  0
TEXT
  8
0
 10
15933.20667661278
 20
24719.35598823472
 30
0.0
 40
200.0
  1
＊
  7
EXTFONT
  0
TEXT
  8
0
 10
15933.20667661278
 20
23719.35598823472
 30
0.0
 40
200.0
  1
＊
  7
EXTFONT
  0
TEXT
  8
0
 10
15933.20667661278
 20
23969.35598823472
 30
0.0
 40
200.0
  1
＊
  7
EXTFONT
  0
TEXT
  8
0
 10
15933.20667661278
 20
23219.35598823472
 30
0.0
 40
200.0
  1
＊
  7
EXTFONT
  0
TEXT
  8
0
 10
15933.20667661278
 20
23469.35598823472
 30
0.0
 40
200.0
  1
＊
  7
EXTFONT
  0
TEXT
  8
0
 10
15933.20667661278
 20
22219.35598823473
 30
0.0
 40
200.0
  1
＊
  7
EXTFONT
  0
TEXT
  8
0
 10
15933.20667661278
 20
22969.35598823472
 30
0.0
 40
200.0
  1
＊
  7
EXTFONT
  0
TEXT
  8
0
 10
15933.20667661278
 20
19014.35598823472
 30
0.0
 40
200.0
  1
＊
  7
EXTFONT
  0
TEXT
  8
0
 10
15933.20667661278
 20
18514.35598823472
 30
0.0
 40
200.0
  1
＊
  7
EXTFONT
  0
TEXT
  8
0
 10
15933.20667661278
 20
18764.35598823472
 30
0.0
 40
200.0
  1
＊
  7
EXTFONT
  0
TEXT
  8
0
 10
15933.20667661278
 20
18014.35598823472
 30
0.0
 40
200.0
  1
＊
  7
EXTFONT
  0
TEXT
  8
0
 10
15933.20667661278
 20
17764.35598823472
 30
0.0
 40
200.0
  1
＊
  7
EXTFONT
  0
TEXT
  8
0
 10
15933.20667661278
 20
17264.35598823472
 30
0.0
 40
200.0
  1
＊
  7
EXTFONT
  0
TEXT
  8
0
 10
15933.20667661278
 20
17514.35598823472
 30
0.0
 40
200.0
  1
＊
  7
EXTFONT
  0
TEXT
  8
0
 10
15933.20667661278
 20
18264.35598823472
 30
0.0
 40
200.0
  1
＊
  7
EXTFONT
  0
TEXT
  8
0
 10
15933.20667661278
 20
17014.35598823472
 30
0.0
 40
200.0
  1
＊
  7
EXTFONT
  0
TEXT
  8
0
 10
15933.20667661278
 20
16264.35598823473
 30
0.0
 40
200.0
  1
＊
  7
EXTFONT
  0
TEXT
  8
0
 10
15933.20667661278
 20
12559.35598823472
 30
0.0
 40
200.0
  1
＊
  7
EXTFONT
  0
TEXT
  8
0
 10
15933.20667661278
 20
12809.35598823472
 30
0.0
 40
200.0
  1
＊
  7
EXTFONT
  0
TEXT
  8
0
 10
15933.20667661278
 20
13059.35598823472
 30
0.0
 40
200.0
  1
＊
  7
EXTFONT
  0
TEXT
  8
0
 10
15933.20667661278
 20
12059.35598823472
 30
0.0
 40
200.0
  1
＊
  7
EXTFONT
  0
TEXT
  8
0
 10
15933.20667661278
 20
12309.35598823472
 30
0.0
 40
200.0
  1
＊
  7
EXTFONT
  0
TEXT
  8
0
 10
15933.20667661278
 20
11809.35598823472
 30
0.0
 40
200.0
  1
＊
  7
EXTFONT
  0
TEXT
  8
0
 10
15933.20667661278
 20
11559.35598823472
 30
0.0
 40
200.0
  1
＊
  7
EXTFONT
  0
TEXT
  8
0
 10
15933.20667661278
 20
11059.35598823472
 30
0.0
 40
200.0
  1
＊
  7
EXTFONT
  0
TEXT
  8
0
 10
15933.20667661278
 20
10309.35598823473
 30
0.0
 40
200.0
  1
＊
  7
EXTFONT
  0
TEXT
  8
0
 10
15933.20667661278
 20
11309.35598823472
 30
0.0
 40
200.0
  1
＊
  7
EXTFONT
  0
TEXT
  8
0
 10
15933.20667661278
 20
6854.355988234726
 30
0.0
 40
200.0
  1
＊
  7
EXTFONT
  0
TEXT
  8
0
 10
15933.20667661278
 20
7104.355988234726
 30
0.0
 40
200.0
  1
＊
  7
EXTFONT
  0
TEXT
  8
0
 10
15933.20667661278
 20
6354.355988234727
 30
0.0
 40
200.0
  1
＊
  7
EXTFONT
  0
TEXT
  8
0
 10
15933.20667661278
 20
5604.355988234727
 30
0.0
 40
200.0
  1
＊
  7
EXTFONT
  0
TEXT
  8
0
 10
15933.20667661278
 20
5854.355988234727
 30
0.0
 40
200.0
  1
＊
  7
EXTFONT
  0
TEXT
  8
0
 10
15933.20667661278
 20
6104.355988234727
 30
0.0
 40
200.0
  1
＊
  7
EXTFONT
  0
TEXT
  8
0
 10
15933.20667661278
 20
6604.355988234726
 30
0.0
 40
200.0
  1
＊
  7
EXTFONT
  0
TEXT
  8
0
 10
15933.20667661278
 20
5354.355988234727
 30
0.0
 40
200.0
  1
＊
  7
EXTFONT
  0
TEXT
  8
0
 10
15933.20667661278
 20
5104.355988234727
 30
0.0
 40
200.0
  1
＊
  7
EXTFONT
  0
TEXT
  8
0
 10
16133.20667661277
 20
10784.35598823473
 30
0.0
 40
200.0
  1
＊
  7
EXTFONT
  0
TEXT
  8
0
 10
19968.92096232709
 20
10559.35598823473
 30
0.0
 40
200.0
  1
＊
  7
EXTFONT
  0
TEXT
  8
0
 10
19668.92096232709
 20
10309.35598823473
 30
0.0
 40
200.0
  1
＊
  7
EXTFONT
  0
TEXT
  8
0
 10
16133.20667661277
 20
16739.35598823473
 30
0.0
 40
200.0
  1
＊
  7
EXTFONT
  0
TEXT
  8
0
 10
19968.92096232709
 20
16514.35598823473
 30
0.0
 40
200.0
  1
＊
  7
EXTFONT
  0
TEXT
  8
0
 10
19668.92096232709
 20
16264.35598823473
 30
0.0
 40
200.0
  1
＊
  7
EXTFONT
  0
TEXT
  8
0
 10
16133.20667661277
 20
22694.35598823473
 30
0.0
 40
200.0
  1
＊
  7
EXTFONT
  0
TEXT
  8
0
 10
19968.92096232709
 20
22469.35598823473
 30
0.0
 40
200.0
  1
＊
  7
EXTFONT
  0
TEXT
  8
0
 10
19668.92096232709
 20
22219.35598823473
 30
0.0
 40
200.0
  1
＊
  7
EXTFONT
  0
TEXT
  8
0
 10
16133.20667661277
 20
28649.35598823473
 30
0.0
 40
200.0
  1
＊
  7
EXTFONT
  0
TEXT
  8
0
 10
19968.92096232709
 20
28424.35598823473
 30
0.0
 40
200.0
  1
＊
  7
EXTFONT
  0
TEXT
  8
0
 10
19668.92096232709
 20
28174.35598823473
 30
0.0
 40
200.0
  1
＊
  7
EXTFONT
  0
TEXT
  8
0
 10
10847.4923908985
 20
5104.355988234727
 30
0.0
 40
200.0
  1
＊
  7
EXTFONT
  0
TEXT
  8
0
 10
10847.4923908985
 20
5354.355988234727
 30
0.0
 40
200.0
  1
＊
  7
EXTFONT
  0
TEXT
  8
0
 10
10847.4923908985
 20
6604.355988234726
 30
0.0
 40
200.0
  1
＊
  7
EXTFONT
  0
TEXT
  8
0
 10
10847.4923908985
 20
6104.355988234727
 30
0.0
 40
200.0
  1
＊
  7
EXTFONT
  0
TEXT
  8
0
 10
10847.4923908985
 20
5854.355988234727
 30
0.0
 40
200.0
  1
＊
  7
EXTFONT
  0
TEXT
  8
0
 10
10847.4923908985
 20
5604.355988234727
 30
0.0
 40
200.0
  1
＊
  7
EXTFONT
  0
TEXT
  8
0
 10
10847.4923908985
 20
6354.355988234727
 30
0.0
 40
200.0
  1
＊
  7
EXTFONT
  0
TEXT
  8
0
 10
10847.4923908985
 20
7104.355988234726
 30
0.0
 40
200.0
  1
＊
  7
EXTFONT
  0
TEXT
  8
0
 10
10847.4923908985
 20
6854.355988234726
 30
0.0
 40
200.0
  1
＊
  7
EXTFONT
  0
TEXT
  8
0
 10
10847.4923908985
 20
11309.35598823472
 30
0.0
 40
200.0
  1
＊
  7
EXTFONT
  0
TEXT
  8
0
 10
10847.4923908985
 20
10309.35598823473
 30
0.0
 40
200.0
  1
＊
  7
EXTFONT
  0
TEXT
  8
0
 10
10847.4923908985
 20
11059.35598823472
 30
0.0
 40
200.0
  1
＊
  7
EXTFONT
  0
TEXT
  8
0
 10
10847.4923908985
 20
11559.35598823472
 30
0.0
 40
200.0
  1
＊
  7
EXTFONT
  0
TEXT
  8
0
 10
10847.4923908985
 20
11809.35598823472
 30
0.0
 40
200.0
  1
＊
  7
EXTFONT
  0
TEXT
  8
0
 10
10847.4923908985
 20
12309.35598823472
 30
0.0
 40
200.0
  1
＊
  7
EXTFONT
  0
TEXT
  8
0
 10
10847.4923908985
 20
12059.35598823472
 30
0.0
 40
200.0
  1
＊
  7
EXTFONT
  0
TEXT
  8
0
 10
11047.49239089849
 20
10784.35598823473
 30
0.0
 40
200.0
  1
＊
  7
EXTFONT
  0
TEXT
  8
0
 10
10847.4923908985
 20
13059.35598823472
 30
0.0
 40
200.0
  1
＊
  7
EXTFONT
  0
TEXT
  8
0
 10
10847.4923908985
 20
12809.35598823472
 30
0.0
 40
200.0
  1
＊
  7
EXTFONT
  0
TEXT
  8
0
 10
10847.4923908985
 20
12559.35598823472
 30
0.0
 40
200.0
  1
＊
  7
EXTFONT
  0
TEXT
  8
0
 10
14583.2066766128
 20
10309.35598823473
 30
0.0
 40
200.0
  1
＊
  7
EXTFONT
  0
TEXT
  8
0
 10
14883.2066766128
 20
10559.35598823473
 30
0.0
 40
200.0
  1
＊
  7
EXTFONT
  0
TEXT
  8
0
 10
10847.4923908985
 20
16264.35598823473
 30
0.0
 40
200.0
  1
＊
  7
EXTFONT
  0
TEXT
  8
0
 10
10847.4923908985
 20
17014.35598823472
 30
0.0
 40
200.0
  1
＊
  7
EXTFONT
  0
TEXT
  8
0
 10
11047.49239089849
 20
16739.35598823473
 30
0.0
 40
200.0
  1
＊
  7
EXTFONT
  0
TEXT
  8
0
 10
10847.4923908985
 20
18264.35598823472
 30
0.0
 40
200.0
  1
＊
  7
EXTFONT
  0
TEXT
  8
0
 10
10847.4923908985
 20
17514.35598823472
 30
0.0
 40
200.0
  1
＊
  7
EXTFONT
  0
TEXT
  8
0
 10
10847.4923908985
 20
17264.35598823472
 30
0.0
 40
200.0
  1
＊
  7
EXTFONT
  0
TEXT
  8
0
 10
10847.4923908985
 20
17764.35598823472
 30
0.0
 40
200.0
  1
＊
  7
EXTFONT
  0
TEXT
  8
0
 10
10847.4923908985
 20
18014.35598823472
 30
0.0
 40
200.0
  1
＊
  7
EXTFONT
  0
TEXT
  8
0
 10
10847.4923908985
 20
18764.35598823472
 30
0.0
 40
200.0
  1
＊
  7
EXTFONT
  0
TEXT
  8
0
 10
10847.4923908985
 20
18514.35598823472
 30
0.0
 40
200.0
  1
＊
  7
EXTFONT
  0
TEXT
  8
0
 10
10847.4923908985
 20
19014.35598823472
 30
0.0
 40
200.0
  1
＊
  7
EXTFONT
  0
TEXT
  8
0
 10
14883.2066766128
 20
16514.35598823473
 30
0.0
 40
200.0
  1
＊
  7
EXTFONT
  0
TEXT
  8
0
 10
14583.2066766128
 20
16264.35598823473
 30
0.0
 40
200.0
  1
＊
  7
EXTFONT
  0
TEXT
  8
0
 10
10847.4923908985
 20
22969.35598823472
 30
0.0
 40
200.0
  1
＊
  7
EXTFONT
  0
TEXT
  8
0
 10
10847.4923908985
 20
22219.35598823473
 30
0.0
 40
200.0
  1
＊
  7
EXTFONT
  0
TEXT
  8
0
 10
10847.4923908985
 20
23469.35598823472
 30
0.0
 40
200.0
  1
＊
  7
EXTFONT
  0
TEXT
  8
0
 10
10847.4923908985
 20
23219.35598823472
 30
0.0
 40
200.0
  1
＊
  7
EXTFONT
  0
TEXT
  8
0
 10
10847.4923908985
 20
23969.35598823472
 30
0.0
 40
200.0
  1
＊
  7
EXTFONT
  0
TEXT
  8
0
 10
10847.4923908985
 20
23719.35598823472
 30
0.0
 40
200.0
  1
＊
  7
EXTFONT
  0
TEXT
  8
0
 10
11047.49239089849
 20
22694.35598823473
 30
0.0
 40
200.0
  1
＊
  7
EXTFONT
  0
TEXT
  8
0
 10
14583.2066766128
 20
22219.35598823473
 30
0.0
 40
200.0
  1
＊
  7
EXTFONT
  0
TEXT
  8
0
 10
14883.2066766128
 20
22469.35598823473
 30
0.0
 40
200.0
  1
＊
  7
EXTFONT
  0
TEXT
  8
0
 10
10847.4923908985
 20
24719.35598823472
 30
0.0
 40
200.0
  1
＊
  7
EXTFONT
  0
TEXT
  8
0
 10
10847.4923908985
 20
24469.35598823472
 30
0.0
 40
200.0
  1
＊
  7
EXTFONT
  0
TEXT
  8
0
 10
10847.4923908985
 20
24219.35598823472
 30
0.0
 40
200.0
  1
＊
  7
EXTFONT
  0
TEXT
  8
0
 10
10847.4923908985
 20
24969.35598823472
 30
0.0
 40
200.0
  1
＊
  7
EXTFONT
  0
TEXT
  8
0
 10
10847.4923908985
 20
28174.35598823473
 30
0.0
 40
200.0
  1
＊
  7
EXTFONT
  0
TEXT
  8
0
 10
11047.49239089849
 20
28649.35598823473
 30
0.0
 40
200.0
  1
＊
  7
EXTFONT
  0
TEXT
  8
0
 10
14583.2066766128
 20
28174.35598823473
 30
0.0
 40
200.0
  1
＊
  7
EXTFONT
  0
TEXT
  8
0
 10
14883.2066766128
 20
28424.35598823473
 30
0.0
 40
200.0
  1
＊
  7
EXTFONT
  0
TEXT
  8
0
 10
5761.778105184219
 20
5354.355988234727
 30
0.0
 40
200.0
  1
＊
  7
EXTFONT
  0
TEXT
  8
0
 10
5761.778105184219
 20
5104.355988234727
 30
0.0
 40
200.0
  1
＊
  7
EXTFONT
  0
TEXT
  8
0
 10
5761.778105184219
 20
6604.355988234726
 30
0.0
 40
200.0
  1
＊
  7
EXTFONT
  0
TEXT
  8
0
 10
5761.778105184219
 20
6104.355988234727
 30
0.0
 40
200.0
  1
＊
  7
EXTFONT
  0
TEXT
  8
0
 10
5761.778105184219
 20
5604.355988234727
 30
0.0
 40
200.0
  1
＊
  7
EXTFONT
  0
TEXT
  8
0
 10
5761.778105184219
 20
5854.355988234727
 30
0.0
 40
200.0
  1
＊
  7
EXTFONT
  0
TEXT
  8
0
 10
5761.778105184219
 20
6354.355988234727
 30
0.0
 40
200.0
  1
＊
  7
EXTFONT
  0
TEXT
  8
0
 10
5761.778105184219
 20
6854.355988234726
 30
0.0
 40
200.0
  1
＊
  7
EXTFONT
  0
TEXT
  8
0
 10
5761.778105184219
 20
7104.355988234726
 30
0.0
 40
200.0
  1
＊
  7
EXTFONT
  0
TEXT
  8
0
 10
5761.778105184219
 20
11309.35598823472
 30
0.0
 40
200.0
  1
＊
  7
EXTFONT
  0
TEXT
  8
0
 10
5761.778105184219
 20
10309.35598823473
 30
0.0
 40
200.0
  1
＊
  7
EXTFONT
  0
TEXT
  8
0
 10
5961.778105184204
 20
10784.35598823473
 30
0.0
 40
200.0
  1
＊
  7
EXTFONT
  0
TEXT
  8
0
 10
5761.778105184219
 20
11059.35598823472
 30
0.0
 40
200.0
  1
＊
  7
EXTFONT
  0
TEXT
  8
0
 10
5761.778105184219
 20
11809.35598823472
 30
0.0
 40
200.0
  1
＊
  7
EXTFONT
  0
TEXT
  8
0
 10
5761.778105184219
 20
11559.35598823472
 30
0.0
 40
200.0
  1
＊
  7
EXTFONT
  0
TEXT
  8
0
 10
5761.778105184219
 20
12059.35598823472
 30
0.0
 40
200.0
  1
＊
  7
EXTFONT
  0
TEXT
  8
0
 10
5761.778105184219
 20
12309.35598823472
 30
0.0
 40
200.0
  1
＊
  7
EXTFONT
  0
TEXT
  8
0
 10
5761.778105184219
 20
13059.35598823472
 30
0.0
 40
200.0
  1
＊
  7
EXTFONT
  0
TEXT
  8
0
 10
5761.778105184219
 20
12559.35598823472
 30
0.0
 40
200.0
  1
＊
  7
EXTFONT
  0
TEXT
  8
0
 10
5761.778105184219
 20
12809.35598823472
 30
0.0
 40
200.0
  1
＊
  7
EXTFONT
  0
TEXT
  8
0
 10
9497.49239089852
 20
10309.35598823473
 30
0.0
 40
200.0
  1
＊
  7
EXTFONT
  0
TEXT
  8
0
 10
9797.492390898518
 20
10559.35598823473
 30
0.0
 40
200.0
  1
＊
  7
EXTFONT
  0
TEXT
  8
0
 10
5761.778105184219
 20
16264.35598823473
 30
0.0
 40
200.0
  1
＊
  7
EXTFONT
  0
TEXT
  8
0
 10
5961.778105184204
 20
16739.35598823473
 30
0.0
 40
200.0
  1
＊
  7
EXTFONT
  0
TEXT
  8
0
 10
5761.778105184219
 20
17014.35598823472
 30
0.0
 40
200.0
  1
＊
  7
EXTFONT
  0
TEXT
  8
0
 10
5761.778105184219
 20
18264.35598823472
 30
0.0
 40
200.0
  1
＊
  7
EXTFONT
  0
TEXT
  8
0
 10
5761.778105184219
 20
17264.35598823472
 30
0.0
 40
200.0
  1
＊
  7
EXTFONT
  0
TEXT
  8
0
 10
5761.778105184219
 20
17514.35598823472
 30
0.0
 40
200.0
  1
＊
  7
EXTFONT
  0
TEXT
  8
0
 10
5761.778105184219
 20
18014.35598823472
 30
0.0
 40
200.0
  1
＊
  7
EXTFONT
  0
TEXT
  8
0
 10
5761.778105184219
 20
17764.35598823472
 30
0.0
 40
200.0
  1
＊
  7
EXTFONT
  0
TEXT
  8
0
 10
5761.778105184219
 20
18514.35598823472
 30
0.0
 40
200.0
  1
＊
  7
EXTFONT
  0
TEXT
  8
0
 10
5761.778105184219
 20
18764.35598823472
 30
0.0
 40
200.0
  1
＊
  7
EXTFONT
  0
TEXT
  8
0
 10
5761.778105184219
 20
19014.35598823472
 30
0.0
 40
200.0
  1
＊
  7
EXTFONT
  0
TEXT
  8
0
 10
5761.778105184219
 20
22969.35598823472
 30
0.0
 40
200.0
  1
＊
  7
EXTFONT
  0
TEXT
  8
0
 10
5761.778105184219
 20
22219.35598823473
 30
0.0
 40
200.0
  1
＊
  7
EXTFONT
  0
TEXT
  8
0
 10
5961.778105184204
 20
22694.35598823473
 30
0.0
 40
200.0
  1
＊
  7
EXTFONT
  0
TEXT
  8
0
 10
5761.778105184219
 20
23469.35598823472
 30
0.0
 40
200.0
  1
＊
  7
EXTFONT
  0
TEXT
  8
0
 10
5761.778105184219
 20
23219.35598823472
 30
0.0
 40
200.0
  1
＊
  7
EXTFONT
  0
TEXT
  8
0
 10
5761.778105184219
 20
23719.35598823472
 30
0.0
 40
200.0
  1
＊
  7
EXTFONT
  0
TEXT
  8
0
 10
5761.778105184219
 20
23969.35598823472
 30
0.0
 40
200.0
  1
＊
  7
EXTFONT
  0
TEXT
  8
0
 10
9797.492390898518
 20
16514.35598823473
 30
0.0
 40
200.0
  1
＊
  7
EXTFONT
  0
TEXT
  8
0
 10
9497.49239089852
 20
16264.35598823473
 30
0.0
 40
200.0
  1
＊
  7
EXTFONT
  0
TEXT
  8
0
 10
9497.49239089852
 20
22219.35598823473
 30
0.0
 40
200.0
  1
＊
  7
EXTFONT
  0
TEXT
  8
0
 10
9797.492390898518
 20
22469.35598823473
 30
0.0
 40
200.0
  1
＊
  7
EXTFONT
  0
TEXT
  8
0
 10
5761.778105184219
 20
24719.35598823472
 30
0.0
 40
200.0
  1
＊
  7
EXTFONT
  0
TEXT
  8
0
 10
5761.778105184219
 20
24219.35598823472
 30
0.0
 40
200.0
  1
＊
  7
EXTFONT
  0
TEXT
  8
0
 10
5761.778105184219
 20
24469.35598823472
 30
0.0
 40
200.0
  1
＊
  7
EXTFONT
  0
TEXT
  8
0
 10
5761.778105184219
 20
24969.35598823472
 30
0.0
 40
200.0
  1
＊
  7
EXTFONT
  0
TEXT
  8
0
 10
5761.778105184219
 20
28174.35598823473
 30
0.0
 40
200.0
  1
＊
  7
EXTFONT
  0
TEXT
  8
0
 10
5961.778105184204
 20
28649.35598823473
 30
0.0
 40
200.0
  1
＊
  7
EXTFONT
  0
TEXT
  8
0
 10
9497.49239089852
 20
28174.35598823473
 30
0.0
 40
200.0
  1
＊
  7
EXTFONT
  0
TEXT
  8
0
 10
9797.492390898518
 20
28424.35598823473
 30
0.0
 40
200.0
  1
＊
  7
EXTFONT
  0
LINE
  8
YKK_F1
  6
CONTINUOUS
 10
1011.778105184221
 20
4829.355988234725
 30
0.0
 11
41261.77810518423
 21
4829.355988234725
 31
0.0
  0
LINE
  8
YKK_F1
  6
CONTINUOUS
 10
1011.778105184221
 20
4579.355988234725
 30
0.0
 11
41261.77810518423
 21
4579.355988234725
 31
0.0
  0
LINE
  8
YKK_F1
  6
CONTINUOUS
 10
1011.778105184221
 20
4329.355988234725
 30
0.0
 11
41261.77810518423
 21
4329.355988234725
 31
0.0
  0
LINE
  8
YKK_F1
  6
CONTINUOUS
 10
1011.778105184221
 20
4079.355988234725
 30
0.0
 11
41261.77810518423
 21
4079.355988234725
 31
0.0
  0
LINE
  8
YKK_F1
  6
CONTINUOUS
 10
1011.778105184221
 20
3829.355988234725
 30
0.0
 11
41261.77810518423
 21
3829.355988234725
 31
0.0
  0
LINE
  8
YKK_F1
  6
CONTINUOUS
 10
1011.778105184221
 20
3579.355988234725
 30
0.0
 11
41261.77810518423
 21
3579.355988234725
 31
0.0
  0
LINE
  8
YKK_F1
 10
1011.778105184221
 20
3579.355988234725
 30
0.0
 11
1011.778105184221
 21
4829.355988234725
 31
0.0
  0
LINE
  8
YKK_F1
 10
41261.77810518423
 20
3579.355988234725
 30
0.0
 11
41261.77810518423
 21
4829.355988234725
 31
0.0
  0
TEXT
  8
YKK_F1
 10
1111.965665184219
 20
4656.235588234725
 30
0.0
 40
100.0
  1
特記：
  7
EXTFONT
  0
TEXT
  8
YKK_F1
 10
1611.96566518422
 20
3829.543888234725
 30
0.0
 40
250.0
  1
*
  7
EXTFONT
  0
TEXT
  8
YKK_F1
 10
1611.96566518422
 20
4080.295688234725
 30
0.0
 40
250.0
  1
*
  7
EXTFONT
  0
TEXT
  8
YKK_F1
 10
1611.96566518422
 20
4330.295688234725
 30
0.0
 40
250.0
  1
*
  7
EXTFONT
  0
TEXT
  8
YKK_F1
 10
1611.96566518422
 20
4581.235588234725
 30
0.0
 40
250.0
  1
*
  7
EXTFONT
  0
TEXT
  8
YKK_F1
 10
1611.96566518422
 20
3579.543888234725
 30
0.0
 40
250.0
  1
*
  7
EXTFONT
  0
ENDSEC
  0
EOF
