  0
SECTION
  2
HEADER
  9
$ACADVER
  1
AC1009
  9
$INSBASE
 10
0.0
 20
0.0
 30
0.0
  9
$EXTMIN
 10
111.7391051842195
 20
81.41968823472721
 30
0.0
  9
$EXTMAX
 10
29811.73910518421
 20
21081.41968823473
 30
0.0
  9
$LIMMIN
 10
0.0
 20
0.0
  9
$LIMMAX
 10
420.0
 20
297.0
  9
$ORTHOMODE
 70
     0
  9
$REGENMODE
 70
     1
  9
$FILLMODE
 70
     1
  9
$QTEXTMODE
 70
     0
  9
$MIRRTEXT
 70
     1
  9
$DRAGMODE
 70
     2
  9
$LTSCALE
 40
1.0
  9
$OSMODE
 70
     0
  9
$ATTMODE
 70
     1
  9
$TEXTSIZE
 40
3.5
  9
$TRACEWID
 40
1.0
  9
$TEXTSTYLE
  7
STANDARD
  9
$CLAYER
  8
0
  9
$CELTYPE
  6
BYLAYER
  9
$CECOLOR
 62
   256
  9
$DIMSCALE
 40
1.0
  9
$DIMASZ
 40
2.5
  9
$DIMEXO
 40
0.625
  9
$DIMDLI
 40
3.75
  9
$DIMRND
 40
0.0
  9
$DIMDLE
 40
0.0
  9
$DIMEXE
 40
1.25
  9
$DIMTP
 40
0.0
  9
$DIMTM
 40
0.0
  9
$DIMTXT
 40
2.5
  9
$DIMCEN
 40
2.5
  9
$DIMTSZ
 40
0.0
  9
$DIMTOL
 70
     0
  9
$DIMLIM
 70
     0
  9
$DIMTIH
 70
     1
  9
$DIMTOH
 70
     0
  9
$DIMSE1
 70
     0
  9
$DIMSE2
 70
     0
  9
$DIMTAD
 70
     1
  9
$DIMZIN
 70
     0
  9
$DIMBLK
  1

  9
$DIMASO
 70
     1
  9
$DIMSHO
 70
     1
  9
$DIMPOST
  1

  9
$DIMAPOST
  1

  9
$DIMALT
 70
     0
  9
$DIMALTD
 70
     2
  9
$DIMALTF
 40
0.0394
  9
$DIMLFAC
 40
1.0
  9
$DIMTOFL
 70
     1
  9
$DIMTVP
 40
1.0
  9
$DIMTIX
 70
     0
  9
$DIMSOXD
 70
     0
  9
$DIMSAH
 70
     0
  9
$DIMBLK1
  1

  9
$DIMBLK2
  1

  9
$DIMSTYLE
  2
*UNNAMED
  9
$DIMCLRD
 70
     0
  9
$DIMCLRE
 70
     0
  9
$DIMCLRT
 70
     0
  9
$DIMTFAC
 40
1.0
  9
$DIMGAP
 40
0.625
  9
$LUNITS
 70
     2
  9
$LUPREC
 70
     4
  9
$SKETCHINC
 40
1.0
  9
$FILLETRAD
 40
0.0
  9
$AUNITS
 70
     0
  9
$AUPREC
 70
     0
  9
$MENU
  1
ACAD
  9
$ELEVATION
 40
0.0
  9
$PELEVATION
 40
0.0
  9
$THICKNESS
 40
0.0
  9
$LIMCHECK
 70
     0
  9
$BLIPMODE
 70
     1
  9
$CHAMFERA
 40
10.0
  9
$CHAMFERB
 40
10.0
  9
$SKPOLY
 70
     0
  9
$TDCREATE
 40
2450602.173843634
  9
$TDUPDATE
 40
2450620.593807870
  9
$TDINDWG
 40
0.0144100694
  9
$TDUSRTIMER
 40
0.0144100694
  9
$USRTIMER
 70
     1
  9
$ANGBASE
 50
0.0
  9
$ANGDIR
 70
     0
  9
$PDMODE
 70
     0
  9
$PDSIZE
 40
0.0
  9
$PLINEWID
 40
0.0
  9
$COORDS
 70
     1
  9
$SPLFRAME
 70
     0
  9
$SPLINETYPE
 70
     6
  9
$SPLINESEGS
 70
     8
  9
$ATTDIA
 70
     0
  9
$ATTREQ
 70
     1
  9
$HANDLING
 70
     0
  9
$HANDSEED
  5
0
  9
$SURFTAB1
 70
     6
  9
$SURFTAB2
 70
     6
  9
$SURFTYPE
 70
     6
  9
$SURFU
 70
     6
  9
$SURFV
 70
     6
  9
$UCSNAME
  2

  9
$UCSORG
 10
0.0
 20
0.0
 30
0.0
  9
$UCSXDIR
 10
1.0
 20
0.0
 30
0.0
  9
$UCSYDIR
 10
0.0
 20
1.0
 30
0.0
  9
$PUCSNAME
  2

  9
$PUCSORG
 10
0.0
 20
0.0
 30
0.0
  9
$PUCSXDIR
 10
1.0
 20
0.0
 30
0.0
  9
$PUCSYDIR
 10
0.0
 20
1.0
 30
0.0
  9
$USERI1
 70
     0
  9
$USERI2
 70
     0
  9
$USERI3
 70
     0
  9
$USERI4
 70
     0
  9
$USERI5
 70
     0
  9
$USERR1
 40
0.0
  9
$USERR2
 40
0.0
  9
$USERR3
 40
0.0
  9
$USERR4
 40
0.0
  9
$USERR5
 40
0.0
  9
$WORLDVIEW
 70
     1
  9
$SHADEDGE
 70
     3
  9
$SHADEDIF
 70
    70
  9
$TILEMODE
 70
     1
  9
$MAXACTVP
 70
    16
  9
$PINSBASE
 10
0.0
 20
0.0
 30
0.0
  9
$PLIMCHECK
 70
     0
  9
$PEXTMIN
 10
1.000000000000000E+20
 20
1.000000000000000E+20
 30
1.000000000000000E+20
  9
$PEXTMAX
 10
-1.000000000000000E+20
 20
-1.000000000000000E+20
 30
-1.000000000000000E+20
  9
$PLIMMIN
 10
0.0
 20
0.0
  9
$PLIMMAX
 10
420.0
 20
297.0
  9
$UNITMODE
 70
     0
  9
$VISRETAIN
 70
     0
  9
$PLINEGEN
 70
     0
  9
$PSLTSCALE
 70
     1
  9
$TREEDEPTH
 70
  3020
  9
$DWGCODEPAGE
  3
dos932
  0
ENDSEC
  0
SECTION
  2
TABLES
  0
TABLE
  2
VPORT
 70
     2
  0
VPORT
  2
*ACTIVE
 70
     0
 10
0.0
 20
0.0
 11
1.0
 21
1.0
 12
15149.43780400468
 22
10531.34604002465
 13
0.0
 23
0.0
 14
10.0
 24
10.0
 15
10.0
 25
10.0
 16
0.0
 26
0.0
 36
1.0
 17
0.0
 27
0.0
 37
0.0
 40
23464.37260336708
 41
1.332576617480136
 42
50.0
 43
0.0
 44
0.0
 50
0.0
 51
0.0
 71
     0
 72
   100
 73
     1
 74
     0
 75
     0
 76
     0
 77
     0
 78
     0
  0
ENDTAB
  0
TABLE
  2
LTYPE
 70
     1
  0
LTYPE
  2
CONTINUOUS
 70
    64
  3
Solid line
 72
    65
 73
     0
 40
0.0
  0
ENDTAB
  0
TABLE
  2
LAYER
 70
     2
  0
LAYER
  2
0
 70
    64
 62
     7
  6
CONTINUOUS
  0
LAYER
  2
YKK_F1
 70
    64
 62
     7
  6
CONTINUOUS
  0
ENDTAB
  0
TABLE
  2
STYLE
 70
     2
  0
STYLE
  2
STANDARD
 70
    64
 40
0.0
 41
1.0
 50
0.0
 71
     0
 42
3.5
  3
txt
  4

  0
STYLE
  2
EXTFONT
 70
    64
 40
0.0
 41
1.0
 50
0.0
 71
     0
 42
3.5
  3

  4
EXTFONT.SHX
  0
ENDTAB
  0
TABLE
  2
VIEW
 70
     0
  0
ENDTAB
  0
TABLE
  2
UCS
 70
     0
  0
ENDTAB
  0
TABLE
  2
APPID
 70
     1
  0
APPID
  2
ACAD
 70
    64
  0
ENDTAB
  0
TABLE
  2
DIMSTYLE
 70
     0
  0
ENDTAB
  0
ENDSEC
  0
SECTION
  2
BLOCKS
  0
ENDSEC
  0
SECTION
  2
ENTITIES
  0
LINE
  8
YKK_F1
 10
111.7391051842195
 20
81.41968823472723
 30
0.0
 11
111.7391051842195
 21
21081.41968823473
 31
0.0
  0
LINE
  8
YKK_F1
 10
111.7391051842195
 20
81.41968823472723
 30
0.0
 11
29811.73910518421
 21
81.41968823472721
 31
0.0
  0
LINE
  8
YKK_F1
 10
111.7391051842195
 20
21081.41968823473
 30
0.0
 11
29811.73910518421
 21
21081.41968823472
 31
0.0
  0
LINE
  8
YKK_F1
 10
29811.73910518421
 20
81.41968823472721
 30
0.0
 11
29811.73910518421
 21
21081.41968823472
 31
0.0
  0
TEXT
  8
YKK_F1
 10
14271.51355518422
 20
3105.855988234725
 30
0.0
 40
100.0
  1
Ｋ　　：カシュー
  7
EXTFONT
  0
TEXT
  8
YKK_F1
 10
14271.51355518422
 20
2955.855988234725
 30
0.0
 40
100.0
  1
Ｈ　　：ヘアライン＃４
  7
EXTFONT
  0
TEXT
  8
YKK_F1
 10
14271.51355518422
 20
2805.855988234725
 30
0.0
 40
100.0
  1
Ｍ　　：鏡面
  7
EXTFONT
  0
TEXT
  8
YKK_F1
 10
14271.51355518422
 20
3255.855988234725
 30
0.0
 40
100.0
  1
Ｕ　　：本漆
  7
EXTFONT
  0
TEXT
  8
YKK_F1
 10
4471.513555184221
 20
2655.855988234725
 30
0.0
 40
100.0
  1
ＡＷ　　　：アルミ窓
  7
EXTFONT
  0
TEXT
  8
YKK_F1
 10
4471.513555184221
 20
2205.855988234725
 30
0.0
 40
100.0
  1
ＳＧ　　　：スチールガラリ
  7
EXTFONT
  0
TEXT
  8
YKK_F1
 10
4471.513555184221
 20
2355.855988234725
 30
0.0
 40
100.0
  1
ＡＧ　　　：アルミガラリ
  7
EXTFONT
  0
TEXT
  8
YKK_F1
 10
4471.513555184221
 20
2805.855988234725
 30
0.0
 40
100.0
  1
ＳＷ　　　：スチール窓
  7
EXTFONT
  0
TEXT
  8
YKK_F1
 10
4471.513555184221
 20
2955.855988234725
 30
0.0
 40
100.0
  1
ＳＵＳ・Ｗ：ステンレス窓
  7
EXTFONT
  0
TEXT
  8
YKK_F1
 10
871.7011151842198
 20
1857.735588234725
 30
0.0
 40
100.0
  1
付記：
  7
EXTFONT
  0
TEXT
  8
YKK_F1
 10
2171.513555184221
 20
2655.855988234725
 30
0.0
 40
100.0
  1
ＬＳＤ　　：軽量スチールドア
  7
EXTFONT
  0
TEXT
  8
YKK_F1
 10
2171.513555184221
 20
2205.855988234725
 30
0.0
 40
100.0
  1
ＴＤ　　　：強化ガラスドア
  7
EXTFONT
  0
TEXT
  8
YKK_F1
 10
2171.513555184221
 20
2505.855988234725
 30
0.0
 40
100.0
  1
ＡＤ　　　：アルミドア
  7
EXTFONT
  0
TEXT
  8
YKK_F1
 10
2171.513555184221
 20
2355.855988234725
 30
0.0
 40
100.0
  1
ＷＤ　　　：木製ドア
  7
EXTFONT
  0
TEXT
  8
YKK_F1
 10
2171.513555184221
 20
2805.855988234725
 30
0.0
 40
100.0
  1
ＳＤ　　　：スチールドア
  7
EXTFONT
  0
TEXT
  8
YKK_F1
 10
2171.513555184221
 20
2955.855988234725
 30
0.0
 40
100.0
  1
ＳＵＳ・D：ステンレスドア
  7
EXTFONT
  0
TEXT
  8
YKK_F1
 10
2171.513555184221
 20
3105.855988234725
 30
0.0
 40
100.0
  1
ＳＳ　　　：スチールシャッター
  7
EXTFONT
  0
TEXT
  8
YKK_F1
 10
2171.513555184221
 20
3255.855988234725
 30
0.0
 40
100.0
  1
ＳＵＳ・Ｓ：ステンレスシャッター
  7
EXTFONT
  0
TEXT
  8
YKK_F1
 10
1371.701115184219
 20
1281.795688234728
 30
0.0
 40
250.0
  1
*
  7
EXTFONT
  0
TEXT
  8
YKK_F1
 10
1371.701115184219
 20
1031.043888234726
 30
0.0
 40
250.0
  1
*
  7
EXTFONT
  0
TEXT
  8
YKK_F1
 10
1371.701115184219
 20
781.0438882347262
 30
0.0
 40
250.0
  1
*
  7
EXTFONT
  0
TEXT
  8
YKK_F1
 10
1371.701115184219
 20
1531.795688234728
 30
0.0
 40
250.0
  1
*
  7
EXTFONT
  0
TEXT
  8
YKK_F1
 10
1371.701115184219
 20
1782.735588234725
 30
0.0
 40
250.0
  1
*
  7
EXTFONT
  0
TEXT
  8
YKK_F1
 10
971.5135551842212
 20
3255.855988234725
 30
0.0
 40
100.0
  1
符号
  7
EXTFONT
  0
TEXT
  8
YKK_F1
 10
1571.513555184221
 20
3255.855988234725
 30
0.0
 40
100.0
  1
建具記号
  7
EXTFONT
  0
TEXT
  8
YKK_F1
 10
4471.513555184221
 20
3105.855988234725
 30
0.0
 40
100.0
  1
Ｈ　　　　：襖
  7
EXTFONT
  0
TEXT
  8
YKK_F1
 10
4471.513555184221
 20
2505.855988234725
 30
0.0
 40
100.0
  1
ＷＷ　　　：木製窓
  7
EXTFONT
  0
TEXT
  8
YKK_F1
 10
4471.513555184221
 20
3255.855988234725
 30
0.0
 40
100.0
  1
ＷＰ　　　：障子
  7
EXTFONT
  0
TEXT
  8
YKK_F1
 10
9071.513555184221
 20
2355.855988234725
 30
0.0
 40
100.0
  1
Ｈ　　：ハニカムコア（アルミ・紙・その他）
  7
EXTFONT
  0
TEXT
  8
YKK_F1
 10
9071.513555184221
 20
2655.855988234725
 30
0.0
 40
100.0
  1
ＳＵＳ：ステンレススチール
  7
EXTFONT
  0
TEXT
  8
YKK_F1
 10
9071.513555184221
 20
3105.855988234725
 30
0.0
 40
100.0
  1
Ａ　　：アルミニウム耐蝕合金
  7
EXTFONT
  0
TEXT
  8
YKK_F1
 10
6771.51355518422
 20
3255.855988234725
 30
0.0
 40
100.0
  1
ＳＭ　　　：防煙垂壁
  7
EXTFONT
  0
TEXT
  8
YKK_F1
 10
6771.51355518422
 20
2205.855988234725
 30
0.0
 40
100.0
  1
＊
  7
EXTFONT
  0
TEXT
  8
YKK_F1
 10
6771.51355518422
 20
3105.855988234725
 30
0.0
 40
100.0
  1
＊
  7
EXTFONT
  0
TEXT
  8
YKK_F1
 10
6771.51355518422
 20
2655.855988234725
 30
0.0
 40
100.0
  1
＊
  7
EXTFONT
  0
TEXT
  8
YKK_F1
 10
6771.51355518422
 20
2505.855988234725
 30
0.0
 40
100.0
  1
＊
  7
EXTFONT
  0
TEXT
  8
YKK_F1
 10
6771.51355518422
 20
2355.855988234725
 30
0.0
 40
100.0
  1
＊
  7
EXTFONT
  0
TEXT
  8
YKK_F1
 10
6771.51355518422
 20
2805.855988234725
 30
0.0
 40
100.0
  1
＊
  7
EXTFONT
  0
TEXT
  8
YKK_F1
 10
6771.51355518422
 20
2955.855988234725
 30
0.0
 40
100.0
  1
＊
  7
EXTFONT
  0
TEXT
  8
YKK_F1
 10
9071.513555184221
 20
2205.855988234725
 30
0.0
 40
100.0
  1
＊
  7
EXTFONT
  0
TEXT
  8
YKK_F1
 10
9071.513555184221
 20
2955.855988234725
 30
0.0
 40
100.0
  1
Ｗ　　：木製
  7
EXTFONT
  0
TEXT
  8
YKK_F1
 10
8671.513555184221
 20
3255.855988234725
 30
0.0
 40
100.0
  1
材質
  7
EXTFONT
  0
TEXT
  8
YKK_F1
 10
9071.513555184221
 20
2505.855988234725
 30
0.0
 40
100.0
  1
Ｂ　　：ブロンズ・銅
  7
EXTFONT
  0
TEXT
  8
YKK_F1
 10
9071.513555184221
 20
2805.855988234725
 30
0.0
 40
100.0
  1
Ｔ　　：強化ガラス
  7
EXTFONT
  0
TEXT
  8
YKK_F1
 10
9071.513555184221
 20
3255.855988234725
 30
0.0
 40
100.0
  1
Ｓ　　：スチール
  7
EXTFONT
  0
TEXT
  8
YKK_F1
 10
11971.51355518422
 20
2655.855988234725
 30
0.0
 40
100.0
  1
Ａ　　：アルミ酸化皮膜処理（白）
  7
EXTFONT
  0
TEXT
  8
YKK_F1
 10
11971.51355518422
 20
2505.855988234725
 30
0.0
 40
100.0
  1
ＡＣ　：アルミ電解着色処理（色）
  7
EXTFONT
  0
TEXT
  8
YKK_F1
 10
11971.51355518422
 20
2355.855988234725
 30
0.0
 40
100.0
  1
ＭＰ　：メラミン化粧板貼
  7
EXTFONT
  0
TEXT
  8
YKK_F1
 10
11971.51355518422
 20
3255.855988234725
 30
0.0
 40
100.0
  1
ＳＯＰ：合成樹脂調合ペイント
  7
EXTFONT
  0
TEXT
  8
YKK_F1
 10
11971.51355518422
 20
2955.855988234725
 30
0.0
 40
100.0
  1
ＬＥ　：合成樹脂色ラッカー
  7
EXTFONT
  0
TEXT
  8
YKK_F1
 10
11971.51355518422
 20
3105.855988234725
 30
0.0
 40
100.0
  1
ＣＬ　：クリアラッカー
  7
EXTFONT
  0
TEXT
  8
YKK_F1
 10
11971.51355518422
 20
2805.855988234725
 30
0.0
 40
100.0
  1
ＬＥＢ：合成樹脂色焼付
  7
EXTFONT
  0
TEXT
  8
YKK_F1
 10
10766.06210518422
 20
1065.968488234728
 30
0.0
 40
100.0
  1
測量　　年　　月　　日
  7
EXTFONT
  0
TEXT
  8
YKK_F1
 10
10766.06210518422
 20
1482.697888234728
 30
0.0
 40
100.0
  1
設計　　年　　月　　日
  7
EXTFONT
  0
TEXT
  8
YKK_F1
 10
10766.06210518422
 20
1897.735588234725
 30
0.0
 40
100.0
  1
審査　　年　　月　　日
  7
EXTFONT
  0
TEXT
  8
YKK_F1
 10
11971.51355518422
 20
2205.855988234725
 30
0.0
 40
100.0
  1
＊
  7
EXTFONT
  0
TEXT
  8
YKK_F1
 10
11571.51355518422
 20
3255.855988234725
 30
0.0
 40
100.0
  1
仕上
  7
EXTFONT
  0
TEXT
  8
YKK_F1
 10
14271.51355518422
 20
2205.855988234725
 30
0.0
 40
100.0
  1
＊
  7
EXTFONT
  0
TEXT
  8
YKK_F1
 10
14271.51355518422
 20
2655.855988234725
 30
0.0
 40
100.0
  1
＊
  7
EXTFONT
  0
TEXT
  8
YKK_F1
 10
14271.51355518422
 20
2505.855988234725
 30
0.0
 40
100.0
  1
＊
  7
EXTFONT
  0
TEXT
  8
YKK_F1
 10
14271.51355518422
 20
2355.855988234725
 30
0.0
 40
100.0
  1
＊
  7
EXTFONT
  0
TEXT
  8
YKK_F1
 10
1121.513565184217
 20
20693.82568823473
 30
0.0
 40
250.0
  1
＊　白紙原紙　Ａ２版－２
  7
EXTFONT
  0
TEXT
  8
YKK_F1
 10
23798.49443851755
 20
1681.795688234728
 30
0.0
 40
200.0
  1
(仮称)○×ビル新築工事
  7
EXTFONT
 72
     4
 11
25105.16110518422
 21
1781.795688234728
 31
0.0
  0
TEXT
  8
YKK_F1
 10
24011.82777185088
 20
1056.795688234728
 30
0.0
 40
200.0
  1
建具表－（　　　　　　　　）
  7
EXTFONT
 72
     4
 11
25605.16110518422
 21
1156.795688234728
 31
0.0
  0
TEXT
  8
YKK_F1
 10
19071.51355518422
 20
2505.855988234725
 30
0.0
 40
100.0
  1
防火防煙型式
  7
EXTFONT
  0
TEXT
  8
YKK_F1
 10
19071.51355518422
 20
3255.855988234725
 30
0.0
 40
100.0
  1
エアタイト型式
  7
EXTFONT
  0
TEXT
  8
YKK_F1
 10
16471.51355518422
 20
2355.855988234725
 30
0.0
 40
100.0
  1
Ｒ　：熱線反射
  7
EXTFONT
  0
TEXT
  8
YKK_F1
 10
16471.51355518422
 20
2805.855988234725
 30
0.0
 40
100.0
  1
Ｗ　：ワイヤー入
  7
EXTFONT
  0
TEXT
  8
YKK_F1
 10
16471.51355518422
 20
2205.855988234725
 30
0.0
 40
100.0
  1
Ｔ　：強化
  7
EXTFONT
  0
TEXT
  8
YKK_F1
 10
15971.51355518422
 20
3255.855988234725
 30
0.0
 40
100.0
  1
ガラス
  7
EXTFONT
  0
TEXT
  8
YKK_F1
 10
16471.51355518422
 20
3105.855988234725
 30
0.0
 40
100.0
  1
Ｈ　：吸熱
  7
EXTFONT
  0
TEXT
  8
YKK_F1
 10
16471.51355518422
 20
2655.855988234725
 30
0.0
 40
100.0
  1
Ｐ　：磨き
  7
EXTFONT
  0
TEXT
  8
YKK_F1
 10
16471.51355518422
 20
2505.855988234725
 30
0.0
 40
100.0
  1
Ｆ　：型板
  7
EXTFONT
  0
TEXT
  8
YKK_F1
 10
16471.51355518422
 20
2955.855988234725
 30
0.0
 40
100.0
  1
Ｄ　：複層
  7
EXTFONT
  0
TEXT
  8
YKK_F1
 10
16471.51355518422
 20
3255.855988234725
 30
0.0
 40
100.0
  1
Ｃ　：透明
  7
EXTFONT
  0
TEXT
  8
YKK_F1
 10
17771.51355518422
 20
2205.855988234725
 30
0.0
 40
100.0
  1
＊
  7
EXTFONT
  0
TEXT
  8
YKK_F1
 10
18658.54610518422
 20
1148.863388234727
 30
0.0
 40
100.0
  1
担当者
  7
EXTFONT
  0
TEXT
  8
YKK_F1
 10
18658.54610518422
 20
1897.735588234725
 30
0.0
 40
100.0
  1
管理建築士
  7
EXTFONT
  0
TEXT
  8
YKK_F1
 10
17771.51355518422
 20
3255.855988234725
 30
0.0
 40
100.0
  1
ＦＬ：フロート
  7
EXTFONT
  0
TEXT
  8
YKK_F1
 10
17771.51355518422
 20
3105.855988234725
 30
0.0
 40
100.0
  1
＊
  7
EXTFONT
  0
TEXT
  8
YKK_F1
 10
17771.51355518422
 20
2655.855988234725
 30
0.0
 40
100.0
  1
＊
  7
EXTFONT
  0
TEXT
  8
YKK_F1
 10
17771.51355518422
 20
2505.855988234725
 30
0.0
 40
100.0
  1
＊
  7
EXTFONT
  0
TEXT
  8
YKK_F1
 10
17771.51355518422
 20
2355.855988234725
 30
0.0
 40
100.0
  1
＊
  7
EXTFONT
  0
TEXT
  8
YKK_F1
 10
17771.51355518422
 20
2955.855988234725
 30
0.0
 40
100.0
  1
＊
  7
EXTFONT
  0
TEXT
  8
YKK_F1
 10
17771.51355518422
 20
2805.855988234725
 30
0.0
 40
100.0
  1
＊
  7
EXTFONT
  0
TEXT
  8
YKK_F1
 10
20071.51355518422
 20
3105.855988234725
 30
0.0
 40
100.0
  1
　　レバーハンドル等に依り引寄せ
  7
EXTFONT
  0
TEXT
  8
YKK_F1
 10
21656.28910518421
 20
1897.735588234725
 30
0.0
 40
100.0
  1
設計No.
  7
EXTFONT
  0
TEXT
  8
YKK_F1
 10
20071.51355518422
 20
2205.855988234725
 30
0.0
 40
100.0
  1
＊
  7
EXTFONT
  0
TEXT
  8
YKK_F1
 10
21656.28910518421
 20
1398.675288234728
 30
0.0
 40
100.0
  1
縮尺
  7
EXTFONT
  0
TEXT
  8
YKK_F1
 10
20071.51355518422
 20
2355.855988234725
 30
0.0
 40
100.0
  1
Ｂ：煙感知器連動自閉装置
  7
EXTFONT
  0
TEXT
  8
YKK_F1
 10
20071.51355518422
 20
2955.855988234725
 30
0.0
 40
100.0
  1
Ｂ：枠四周合成ゴムストリップ付
  7
EXTFONT
  0
TEXT
  8
YKK_F1
 10
20071.51355518422
 20
3255.855988234725
 30
0.0
 40
100.0
  1
Ａ：枠四周合成ゴムストリップ付
  7
EXTFONT
  0
TEXT
  8
YKK_F1
 10
20071.51355518422
 20
2505.855988234725
 30
0.0
 40
100.0
  1
Ａ：ビーズ付自閉
  7
EXTFONT
  0
TEXT
  8
YKK_F1
 10
20071.51355518422
 20
2805.855988234725
 30
0.0
 40
100.0
  1
Ｃ：ダブルモヘア
  7
EXTFONT
  0
TEXT
  8
YKK_F1
 10
20071.51355518422
 20
2655.855988234725
 30
0.0
 40
100.0
  1
＊
  7
EXTFONT
  0
TEXT
  8
YKK_F1
 10
23155.16110518421
 20
1398.675288234728
 30
0.0
 40
100.0
  1
図面名
  7
EXTFONT
  0
TEXT
  8
YKK_F1
 10
23155.1611051842
 20
1897.735588234725
 30
0.0
 40
100.0
  1
名称
  7
EXTFONT
  0
TEXT
  8
YKK_F1
 10
28729.11551787569
 20
832.5366806661259
 30
0.0
 40
100.0
  1
枚の内
  7
EXTFONT
  0
TEXT
  8
YKK_F1
 10
27152.52910518421
 20
1706.795688234728
 30
0.0
 40
150.0
  1
工事設計図
  7
EXTFONT
 72
     2
 11
28002.52910518421
 21
1706.795688234728
 31
0.0
  0
TEXT
  8
YKK_F1
 10
28152.5291051842
 20
1897.735588234725
 30
0.0
 40
100.0
  1
図面No.
  7
EXTFONT
  0
LINE
  8
YKK_F1
  6
CONTINUOUS
 10
1011.778105184221
 20
9339.355988234727
 30
0.0
 11
28911.77810518422
 21
9339.355988234727
 31
0.0
  0
LINE
  8
YKK_F1
  6
CONTINUOUS
 10
1011.778105184221
 20
9589.355988234727
 30
0.0
 11
28911.77810518422
 21
9589.355988234727
 31
0.0
  0
LINE
  8
YKK_F1
  6
CONTINUOUS
 10
1011.778105184221
 20
9839.355988234729
 30
0.0
 11
28911.77810518422
 21
9839.355988234729
 31
0.0
  0
LINE
  8
YKK_F1
  6
CONTINUOUS
 10
1011.778105184221
 20
10089.35598823472
 30
0.0
 11
28911.77810518422
 21
10089.35598823472
 31
0.0
  0
LINE
  8
YKK_F1
  6
CONTINUOUS
 10
1011.778105184221
 20
10339.35598823472
 30
0.0
 11
28911.77810518422
 21
10339.35598823472
 31
0.0
  0
LINE
  8
YKK_F1
  6
CONTINUOUS
 10
1011.778105184221
 20
10589.35598823472
 30
0.0
 11
28911.77810518422
 21
10589.35598823472
 31
0.0
  0
LINE
  8
YKK_F1
  6
CONTINUOUS
 10
1011.778105184221
 20
10839.35598823472
 30
0.0
 11
28911.77810518422
 21
10839.35598823472
 31
0.0
  0
LINE
  8
YKK_F1
  6
CONTINUOUS
 10
1011.778105184221
 20
11089.35598823472
 30
0.0
 11
28911.77810518422
 21
11089.35598823472
 31
0.0
  0
LINE
  8
YKK_F1
  6
CONTINUOUS
 10
1011.778105184221
 20
11339.35598823472
 30
0.0
 11
28911.77810518422
 21
11339.35598823472
 31
0.0
  0
LINE
  8
YKK_F1
  6
CONTINUOUS
 10
1011.778105184221
 20
5784.355988234725
 30
0.0
 11
28911.77810518422
 21
5784.355988234725
 31
0.0
  0
LINE
  8
YKK_F1
  6
CONTINUOUS
 10
1011.778105184221
 20
5534.355988234725
 30
0.0
 11
28911.77810518422
 21
5534.355988234725
 31
0.0
  0
LINE
  8
YKK_F1
  6
CONTINUOUS
 10
1011.778105184221
 20
5284.355988234725
 30
0.0
 11
28911.77810518422
 21
5284.355988234725
 31
0.0
  0
LINE
  8
YKK_F1
  6
CONTINUOUS
 10
1011.778105184221
 20
5034.355988234725
 30
0.0
 11
28911.77810518422
 21
5034.355988234725
 31
0.0
  0
LINE
  8
YKK_F1
  6
CONTINUOUS
 10
1011.778105184221
 20
4784.355988234725
 30
0.0
 11
28911.77810518422
 21
4784.355988234725
 31
0.0
  0
LINE
  8
YKK_F1
  6
CONTINUOUS
 10
1011.778105184221
 20
4534.355988234725
 30
0.0
 11
28911.77810518422
 21
4534.355988234725
 31
0.0
  0
LINE
  8
YKK_F1
  6
CONTINUOUS
 10
1011.778105184221
 20
4284.355988234725
 30
0.0
 11
28911.77810518422
 21
4284.355988234725
 31
0.0
  0
LINE
  8
YKK_F1
  6
CONTINUOUS
 10
1011.778105184221
 20
4034.355988234725
 30
0.0
 11
28911.77810518422
 21
4034.355988234725
 31
0.0
  0
LINE
  8
YKK_F1
  6
CONTINUOUS
 10
1011.778105184221
 20
3784.355988234725
 30
0.0
 11
28911.77810518422
 21
3784.355988234725
 31
0.0
  0
LINE
  8
YKK_F1
  6
CONTINUOUS
 10
1011.778105184221
 20
8339.355988234727
 30
0.0
 11
28911.77810518422
 21
8339.355988234727
 31
0.0
  0
LINE
  8
YKK_F1
  6
CONTINUOUS
 10
1011.778105184221
 20
8589.355988234727
 30
0.0
 11
28911.77810518422
 21
8589.355988234727
 31
0.0
  0
LINE
  8
YKK_F1
  6
CONTINUOUS
 10
1011.778105184221
 20
9089.355988234727
 30
0.0
 11
28911.77810518422
 21
9089.355988234727
 31
0.0
  0
LINE
  8
YKK_F1
  6
CONTINUOUS
 10
1011.778105184221
 20
3534.355988234725
 30
0.0
 11
28911.77810518422
 21
3534.355988234725
 31
0.0
  0
LINE
  8
YKK_F1
  6
CONTINUOUS
 10
771.5135551842213
 20
2030.855988234725
 30
0.0
 11
29151.96810518421
 21
2030.855988234725
 31
0.0
  0
LINE
  8
YKK_F1
  6
CONTINUOUS
 10
29139.56010518422
 20
744.0137482347272
 30
0.0
 11
783.9197951842179
 21
744.0137482347272
 31
0.0
  0
LINE
  8
YKK_F1
  6
CONTINUOUS
 10
29127.15610518422
 20
756.4197782347255
 30
0.0
 11
796.8895651842212
 21
756.4197782347255
 31
0.0
  0
LINE
  8
YKK_F1
  6
CONTINUOUS
 10
29114.18410518421
 20
769.3897082347285
 30
0.0
 11
809.2958051842179
 21
769.3897082347285
 31
0.0
  0
LINE
  8
YKK_F1
  6
CONTINUOUS
 10
29101.77810518422
 20
782.3596982347262
 30
0.0
 11
821.7011151842198
 21
782.3596982347262
 31
0.0
  0
LINE
  8
YKK_F1
  6
CONTINUOUS
 10
29151.96810518421
 20
731.6076782347263
 30
0.0
 11
771.5135551842213
 21
731.6076782347263
 31
0.0
  0
LINE
  8
YKK_F1
  6
CONTINUOUS
 10
29302.52910518421
 20
582.1717082347277
 30
0.0
 11
621.5135651842174
 21
582.1717082347277
 31
0.0
  0
LINE
  8
YKK_F1
  6
CONTINUOUS
 10
1011.778105184221
 20
14644.35598823472
 30
0.0
 11
28911.77810518422
 21
14644.35598823472
 31
0.0
  0
LINE
  8
YKK_F1
  6
CONTINUOUS
 10
1011.778105184221
 20
16894.35598823472
 30
0.0
 11
28911.77810518422
 21
16894.35598823472
 31
0.0
  0
LINE
  8
YKK_F1
  6
CONTINUOUS
 10
1011.778105184221
 20
16644.35598823472
 30
0.0
 11
28911.77810518422
 21
16644.35598823472
 31
0.0
  0
LINE
  8
YKK_F1
  6
CONTINUOUS
 10
1011.778105184221
 20
16394.35598823472
 30
0.0
 11
28911.77810518422
 21
16394.35598823472
 31
0.0
  0
LINE
  8
YKK_F1
  6
CONTINUOUS
 10
1011.778105184221
 20
16144.35598823472
 30
0.0
 11
28911.77810518422
 21
16144.35598823472
 31
0.0
  0
LINE
  8
YKK_F1
  6
CONTINUOUS
 10
1011.778105184221
 20
15894.35598823472
 30
0.0
 11
28911.77810518422
 21
15894.35598823472
 31
0.0
  0
LINE
  8
YKK_F1
  6
CONTINUOUS
 10
1011.778105184221
 20
15644.35598823472
 30
0.0
 11
28911.77810518422
 21
15644.35598823472
 31
0.0
  0
LINE
  8
YKK_F1
  6
CONTINUOUS
 10
1011.778105184221
 20
15394.35598823472
 30
0.0
 11
28911.77810518422
 21
15394.35598823472
 31
0.0
  0
LINE
  8
YKK_F1
  6
CONTINUOUS
 10
1011.778105184221
 20
15144.35598823472
 30
0.0
 11
28911.77810518422
 21
15144.35598823472
 31
0.0
  0
LINE
  8
YKK_F1
  6
CONTINUOUS
 10
1011.778105184221
 20
14894.35598823472
 30
0.0
 11
28911.77810518422
 21
14894.35598823472
 31
0.0
  0
LINE
  8
YKK_F1
  6
CONTINUOUS
 10
1011.778105184221
 20
19449.35598823472
 30
0.0
 11
28911.77810518422
 21
19449.35598823472
 31
0.0
  0
LINE
  8
YKK_F1
  6
CONTINUOUS
 10
1011.778105184221
 20
19699.35598823472
 30
0.0
 11
28911.77810518422
 21
19699.35598823472
 31
0.0
  0
LINE
  8
YKK_F1
  6
CONTINUOUS
 10
1011.778105184221
 20
14144.35598823472
 30
0.0
 11
28911.77810518422
 21
14144.35598823472
 31
0.0
  0
LINE
  8
YKK_F1
  6
CONTINUOUS
 10
1011.778105184221
 20
13894.35598823472
 30
0.0
 11
28911.77810518422
 21
13894.35598823472
 31
0.0
  0
LINE
  8
YKK_F1
  6
CONTINUOUS
 10
1011.778105184221
 20
20199.35598823472
 30
0.0
 11
28911.77810518422
 21
20199.35598823472
 31
0.0
  0
LINE
  8
YKK_F1
  6
CONTINUOUS
 10
821.7011151842198
 20
20368.63868823472
 30
0.0
 11
29101.77810518422
 21
20368.63868823472
 31
0.0
  0
LINE
  8
YKK_F1
  6
CONTINUOUS
 10
621.5135651842174
 20
20568.82568823473
 30
0.0
 11
29302.52910518421
 21
20568.82568823473
 31
0.0
  0
LINE
  8
YKK_F1
  6
CONTINUOUS
 10
809.2958051842179
 20
20381.04368823472
 30
0.0
 11
29114.18410518421
 21
20381.04368823472
 31
0.0
  0
LINE
  8
YKK_F1
  6
CONTINUOUS
 10
796.8895651842212
 20
20394.01368823472
 30
0.0
 11
29127.15610518422
 21
20394.01368823472
 31
0.0
  0
LINE
  8
YKK_F1
  6
CONTINUOUS
 10
783.9197951842179
 20
20406.98568823472
 30
0.0
 11
29139.56010518422
 21
20406.98568823472
 31
0.0
  0
LINE
  8
YKK_F1
  6
CONTINUOUS
 10
771.5135551842213
 20
20419.38968823473
 30
0.0
 11
29151.96810518421
 21
20419.38968823473
 31
0.0
  0
LINE
  8
YKK_F1
  6
CONTINUOUS
 10
1011.778105184221
 20
3534.355988234725
 30
0.0
 11
1011.778105184221
 21
20199.35598823472
 31
0.0
  0
LINE
  8
YKK_F1
  6
CONTINUOUS
 10
821.7011151842198
 20
782.3596982347262
 30
0.0
 11
821.7011151842198
 21
20368.63868823472
 31
0.0
  0
LINE
  8
YKK_F1
  6
CONTINUOUS
 10
809.2958051842179
 20
769.3897082347285
 30
0.0
 11
809.2958051842179
 21
20381.04368823472
 31
0.0
  0
LINE
  8
YKK_F1
  6
CONTINUOUS
 10
796.8895651842212
 20
756.4197782347255
 30
0.0
 11
796.8895651842212
 21
20394.01368823472
 31
0.0
  0
LINE
  8
YKK_F1
  6
CONTINUOUS
 10
783.9197951842179
 20
744.0137482347272
 30
0.0
 11
783.9197951842179
 21
20406.98568823472
 31
0.0
  0
LINE
  8
YKK_F1
  6
CONTINUOUS
 10
771.5135551842213
 20
731.6076782347263
 30
0.0
 11
771.5135551842213
 21
20419.38968823473
 31
0.0
  0
LINE
  8
YKK_F1
  6
CONTINUOUS
 10
621.5135651842174
 20
582.1717082347277
 30
0.0
 11
621.5135651842174
 21
20568.82568823473
 31
0.0
  0
LINE
  8
YKK_F1
  6
CONTINUOUS
 10
5661.778105184222
 20
3534.355988234725
 30
0.0
 11
5661.778105184222
 21
20199.35598823472
 31
0.0
  0
LINE
  8
YKK_F1
  6
CONTINUOUS
 10
10311.77810518422
 20
3534.355988234725
 30
0.0
 11
10311.77810518422
 21
20199.35598823472
 31
0.0
  0
LINE
  8
YKK_F1
  6
CONTINUOUS
 10
10716.06210518422
 20
1032.171718234727
 30
0.0
 11
771.5135551842213
 21
1032.171718234727
 31
0.0
  0
LINE
  8
YKK_F1
  6
CONTINUOUS
 10
10716.06210518422
 20
1281.983788234727
 30
0.0
 11
771.5135551842213
 21
1281.983788234727
 31
0.0
  0
LINE
  8
YKK_F1
  6
CONTINUOUS
 10
10716.06210518422
 20
1531.795688234728
 30
0.0
 11
771.5135551842213
 21
1531.795688234728
 31
0.0
  0
LINE
  8
YKK_F1
  6
CONTINUOUS
 10
10716.06210518422
 20
1782.735588234725
 30
0.0
 11
771.5135551842213
 21
1782.735588234725
 31
0.0
  0
LINE
  8
YKK_F1
  6
CONTINUOUS
 10
12214.93510518422
 20
1199.088888234728
 30
0.0
 11
10716.06210518422
 21
1199.088888234728
 31
0.0
  0
LINE
  8
YKK_F1
  6
CONTINUOUS
 10
12214.93510518422
 20
1615.818288234728
 30
0.0
 11
10716.06210518422
 21
1615.818288234728
 31
0.0
  0
TEXT
  8
YKK_F1
  6
CONTINUOUS
 10
10932.04010518422
 20
831.4196882347278
 30
0.0
 40
150.0
  1
'97,**,**
  0
TEXT
  8
YKK_F1
  6
CONTINUOUS
 10
10932.04010518422
 20
1248.149088234728
 30
0.0
 40
150.0
  1
'97,**,**
  0
TEXT
  8
YKK_F1
  6
CONTINUOUS
 10
10932.04010518422
 20
1664.878488234728
 30
0.0
 40
150.0
  1
'97,**,**
  0
LINE
  8
YKK_F1
  6
CONTINUOUS
 10
10716.06210518422
 20
2030.855988234725
 30
0.0
 11
10716.06210518422
 21
731.6076782347263
 31
0.0
  0
LINE
  8
YKK_F1
  6
CONTINUOUS
 10
12214.93510518422
 20
2030.855988234725
 30
0.0
 11
12214.93510518422
 21
731.6076782347263
 31
0.0
  0
CIRCLE
  8
YKK_F1
 10
6061.778105184221
 20
19949.35598823472
 30
0.0
 40
233.3333333333333
  0
TEXT
  8
YKK_F1
 10
5901.778105184221
 20
19749.35598823472
 30
0.0
 40
160.0
  1
ＡＷ
  7
EXTFONT
  0
LINE
  8
YKK_F1
  6
CONTINUOUS
 10
5828.444771850936
 20
19949.35598823472
 30
0.0
 11
6295.111438517506
 21
19949.35598823472
 31
0.0
  0
TEXT
  8
YKK_F1
 10
9781.778105184223
 20
19724.35598823472
 30
0.0
 40
200.0
  1
箇所
  7
EXTFONT
  0
LINE
  8
YKK_F1
  6
CONTINUOUS
 10
29101.77810518422
 20
782.3596982347262
 30
0.0
 11
29101.77810518422
 21
20368.63868823472
 31
0.0
  0
LINE
  8
YKK_F1
  6
CONTINUOUS
 10
29139.56010518422
 20
744.0137482347272
 30
0.0
 11
29139.56010518422
 21
20406.98568823472
 31
0.0
  0
LINE
  8
YKK_F1
  6
CONTINUOUS
 10
29127.15610518422
 20
756.4197782347255
 30
0.0
 11
29127.15610518422
 21
20394.01368823472
 31
0.0
  0
LINE
  8
YKK_F1
  6
CONTINUOUS
 10
29114.18410518421
 20
769.3897082347285
 30
0.0
 11
29114.18410518421
 21
20381.04368823472
 31
0.0
  0
LINE
  8
YKK_F1
  6
CONTINUOUS
 10
29151.96810518421
 20
731.6076782347263
 30
0.0
 11
29151.96810518421
 21
20419.38968823473
 31
0.0
  0
LINE
  8
YKK_F1
  6
CONTINUOUS
 10
29302.52910518421
 20
582.1717082347277
 30
0.0
 11
29302.52910518421
 21
20568.82568823473
 31
0.0
  0
LINE
  8
YKK_F1
  6
CONTINUOUS
 10
28911.77810518423
 20
3534.355988234725
 30
0.0
 11
28911.77810518422
 21
20199.35598823472
 31
0.0
  0
LINE
  8
YKK_F1
  6
CONTINUOUS
 10
24261.77810518423
 20
3534.355988234725
 30
0.0
 11
24261.77810518422
 21
20199.35598823472
 31
0.0
  0
LINE
  8
YKK_F1
  6
CONTINUOUS
 10
19611.77810518423
 20
3534.355988234725
 30
0.0
 11
19611.77810518422
 21
20199.35598823472
 31
0.0
  0
LINE
  8
YKK_F1
  6
CONTINUOUS
 10
14961.77810518422
 20
3534.355988234725
 30
0.0
 11
14961.77810518422
 21
20199.35598823472
 31
0.0
  0
LINE
  8
YKK_F1
  6
CONTINUOUS
 10
21606.28910518421
 20
1531.795688234728
 30
0.0
 11
28102.52910518421
 21
1531.795688234728
 31
0.0
  0
LINE
  8
YKK_F1
  6
CONTINUOUS
 10
21606.28910518421
 20
1281.983788234727
 30
0.0
 11
18608.54610518422
 21
1281.983788234727
 31
0.0
  0
LINE
  8
YKK_F1
  6
CONTINUOUS
 10
18608.54610518422
 20
2030.855988234725
 30
0.0
 11
18608.54610518422
 21
731.6076782347263
 31
0.0
  0
LINE
  8
YKK_F1
  6
CONTINUOUS
 10
21606.28910518421
 20
2030.855988234725
 30
0.0
 11
21606.28910518421
 21
731.6076782347263
 31
0.0
  0
LINE
  8
YKK_F1
  6
CONTINUOUS
 10
22705.91310518422
 20
1432.547688234728
 30
0.0
 11
22005.53710518422
 21
882.1716782347284
 31
0.0
  0
TEXT
  8
YKK_F1
  6
CONTINUOUS
 10
22068.69510518422
 20
1195.141588234728
 30
0.0
 40
150.0
  1
1
  0
TEXT
  8
YKK_F1
  6
CONTINUOUS
 10
22605.57413222155
 20
947.9586473049966
 30
0.0
 40
150.0
  1
50
  0
LINE
  8
YKK_F1
  6
CONTINUOUS
 10
23105.16110518422
 20
2030.855988234725
 30
0.0
 11
23105.16110518422
 21
731.6076782347263
 31
0.0
  0
LINE
  8
YKK_F1
  6
CONTINUOUS
 10
29001.96710518422
 20
1732.547588234727
 30
0.0
 11
28202.34310518421
 21
1082.923688234728
 31
0.0
  0
LINE
  8
YKK_F1
  6
CONTINUOUS
 10
28102.52910518421
 20
2030.855988234725
 30
0.0
 11
28102.52910518421
 21
731.6076782347263
 31
0.0
  0
TEXT
  8
YKK_F1
 10
1815.409777035111
 20
16664.35598823472
 30
0.0
 40
200.0
  1
型式・防音・エアタイト仕様
  7
EXTFONT
 72
     1
 11
3348.743110368439
 21
16664.35598823472
 31
0.0
  0
TEXT
  8
YKK_F1
 10
1395.409777035107
 20
16414.35598823473
 30
0.0
 40
200.0
  1
寸法・見付・見込（枠見付・枠見込）
  7
EXTFONT
 72
     1
 11
3348.743110368439
 21
16414.35598823473
 31
0.0
  0
TEXT
  8
YKK_F1
 10
2295.40977703511
 20
14269.35598823472
 30
0.0
 40
200.0
  1
符　号　・　数　量
  7
EXTFONT
 72
     1
 11
3348.743110368439
 21
14269.35598823472
 31
0.0
  0
TEXT
  8
YKK_F1
 10
2295.40977703511
 20
13914.35598823472
 30
0.0
 40
200.0
  1
使用箇所・防火仕様
  7
EXTFONT
 72
     1
 11
3348.743110368439
 21
13914.35598823472
 31
0.0
  0
TEXT
  8
YKK_F1
 10
2295.40977703511
 20
16164.35598823472
 30
0.0
 40
200.0
  1
材　質　・　仕　様
  7
EXTFONT
 72
     1
 11
3348.743110368439
 21
16164.35598823472
 31
0.0
  0
TEXT
  8
YKK_F1
 10
2048.743110368439
 20
15164.35598823472
 30
0.0
 40
200.0
  1
(付　　属　　金　　物)
  7
EXTFONT
 72
     1
 11
3348.743110368439
 21
15164.35598823472
 31
0.0
  0
TEXT
  8
YKK_F1
 10
2175.409777035111
 20
15414.35598823472
 30
0.0
 40
200.0
  1
建　　具　　金　　物
  7
EXTFONT
 72
     1
 11
3348.743110368439
 21
15414.35598823472
 31
0.0
  0
TEXT
  8
YKK_F1
 10
1928.743110368443
 20
15664.35598823472
 30
0.0
 40
200.0
  1
ガラス・種類・ガラス押え
  7
EXTFONT
 72
     1
 11
3348.743110368439
 21
15664.35598823472
 31
0.0
  0
TEXT
  8
YKK_F1
 10
2295.40977703511
 20
14664.35598823472
 30
0.0
 40
200.0
  1
備　　　　　　　考
  7
EXTFONT
 72
     1
 11
3348.743110368439
 21
14664.35598823472
 31
0.0
  0
TEXT
  8
YKK_F1
 10
2295.40977703511
 20
15914.35598823472
 30
0.0
 40
200.0
  1
仕　　　　　　　上
  7
EXTFONT
 72
     1
 11
3348.743110368439
 21
15914.35598823472
 31
0.0
  0
TEXT
  8
YKK_F1
 10
1815.409777035114
 20
11109.35598823472
 30
0.0
 40
200.0
  1
型式・防音・エアタイト仕様
  7
EXTFONT
 72
     1
 11
3348.743110368446
 21
11109.35598823472
 31
0.0
  0
TEXT
  8
YKK_F1
 10
1395.409777035111
 20
10859.35598823472
 30
0.0
 40
200.0
  1
寸法・見付・見込（枠見付・枠見込）
  7
EXTFONT
 72
     1
 11
3348.743110368446
 21
10859.35598823472
 31
0.0
  0
TEXT
  8
YKK_F1
 10
2175.409777035111
 20
9859.355988234725
 30
0.0
 40
200.0
  1
建　　具　　金　　物
  7
EXTFONT
 72
     1
 11
3348.743110368446
 21
9859.355988234725
 31
0.0
  0
TEXT
  8
YKK_F1
 10
2295.40977703511
 20
8714.355988234727
 30
0.0
 40
200.0
  1
符　号　・　数　量
  7
EXTFONT
 72
     1
 11
3348.743110368446
 21
8714.355988234727
 31
0.0
  0
TEXT
  8
YKK_F1
 10
2295.40977703511
 20
8359.355988234728
 30
0.0
 40
200.0
  1
使用箇所・防火仕様
  7
EXTFONT
 72
     1
 11
3348.743110368446
 21
8359.355988234728
 31
0.0
  0
TEXT
  8
YKK_F1
 10
2048.743110368446
 20
9609.355988234725
 30
0.0
 40
200.0
  1
(付　　属　　金　　物)
  7
EXTFONT
 72
     1
 11
3348.743110368446
 21
9609.355988234725
 31
0.0
  0
TEXT
  8
YKK_F1
 10
2295.40977703511
 20
9109.355988234725
 30
0.0
 40
200.0
  1
備　　　　　　　考
  7
EXTFONT
 72
     1
 11
3348.743110368446
 21
9109.355988234725
 31
0.0
  0
TEXT
  8
YKK_F1
 10
1928.743110368446
 20
10109.35598823472
 30
0.0
 40
200.0
  1
ガラス・種類・ガラス押え
  7
EXTFONT
 72
     1
 11
3348.743110368446
 21
10109.35598823472
 31
0.0
  0
TEXT
  8
YKK_F1
 10
2295.40977703511
 20
10609.35598823472
 30
0.0
 40
200.0
  1
材　質　・　仕　様
  7
EXTFONT
 72
     1
 11
3348.743110368446
 21
10609.35598823472
 31
0.0
  0
TEXT
  8
YKK_F1
 10
2295.40977703511
 20
10359.35598823472
 30
0.0
 40
200.0
  1
仕　　　　　　　上
  7
EXTFONT
 72
     1
 11
3348.743110368446
 21
10359.35598823472
 31
0.0
  0
TEXT
  8
YKK_F1
 10
2295.40977703511
 20
5054.355988234727
 30
0.0
 40
200.0
  1
材　質　・　仕　様
  7
EXTFONT
 72
     1
 11
3348.743110368446
 21
5054.355988234727
 31
0.0
  0
TEXT
  8
YKK_F1
 10
2295.40977703511
 20
3554.355988234728
 30
0.0
 40
200.0
  1
備　　　　　　　考
  7
EXTFONT
 72
     1
 11
3348.743110368446
 21
3554.355988234728
 31
0.0
  0
TEXT
  8
YKK_F1
 10
2048.743110368446
 20
4054.355988234728
 30
0.0
 40
200.0
  1
(付　　属　　金　　物)
  7
EXTFONT
 72
     1
 11
3348.743110368446
 21
4054.355988234728
 31
0.0
  0
TEXT
  8
YKK_F1
 10
2175.409777035111
 20
4304.355988234728
 30
0.0
 40
200.0
  1
建　　具　　金　　物
  7
EXTFONT
 72
     1
 11
3348.743110368446
 21
4304.355988234728
 31
0.0
  0
TEXT
  8
YKK_F1
 10
1928.743110368446
 20
4554.355988234725
 30
0.0
 40
200.0
  1
ガラス・種類・ガラス押え
  7
EXTFONT
 72
     1
 11
3348.743110368446
 21
4554.355988234725
 31
0.0
  0
TEXT
  8
YKK_F1
 10
2295.40977703511
 20
4804.355988234727
 30
0.0
 40
200.0
  1
仕　　　　　　　上
  7
EXTFONT
 72
     1
 11
3348.743110368446
 21
4804.355988234727
 31
0.0
  0
TEXT
  8
YKK_F1
 10
1815.409777035114
 20
5554.355988234727
 30
0.0
 40
200.0
  1
型式・防音・エアタイト仕様
  7
EXTFONT
 72
     1
 11
3348.743110368446
 21
5554.355988234727
 31
0.0
  0
TEXT
  8
YKK_F1
 10
1395.409777035111
 20
5304.355988234731
 30
0.0
 40
200.0
  1
寸法・見付・見込（枠見付・枠見込）
  7
EXTFONT
 72
     1
 11
3348.743110368446
 21
5304.355988234731
 31
0.0
  0
TEXT
  8
YKK_F1
 10
2295.40977703511
 20
19824.35598823472
 30
0.0
 40
200.0
  1
符　号　・　数　量
  7
EXTFONT
 72
     1
 11
3348.743110368439
 21
19824.35598823472
 31
0.0
  0
TEXT
  8
YKK_F1
 10
2295.40977703511
 20
19469.35598823472
 30
0.0
 40
200.0
  1
使用箇所・防火仕様
  7
EXTFONT
 72
     1
 11
3348.743110368439
 21
19469.35598823472
 31
0.0
  0
TEXT
  8
0
 10
5761.778105184218
 20
15669.35598823472
 30
0.0
 40
200.0
  1
＊
  7
EXTFONT
  0
TEXT
  8
0
 10
5761.778105184218
 20
14919.35598823472
 30
0.0
 40
200.0
  1
＊
  7
EXTFONT
  0
TEXT
  8
0
 10
5761.778105184218
 20
14669.35598823472
 30
0.0
 40
200.0
  1
＊
  7
EXTFONT
  0
TEXT
  8
0
 10
5761.778105184218
 20
15169.35598823472
 30
0.0
 40
200.0
  1
＊
  7
EXTFONT
  0
TEXT
  8
0
 10
5761.778105184218
 20
15419.35598823472
 30
0.0
 40
200.0
  1
＊
  7
EXTFONT
  0
TEXT
  8
0
 10
5761.778105184218
 20
16169.35598823472
 30
0.0
 40
200.0
  1
＊
  7
EXTFONT
  0
TEXT
  8
0
 10
5761.778105184218
 20
15919.35598823472
 30
0.0
 40
200.0
  1
＊
  7
EXTFONT
  0
TEXT
  8
0
 10
5761.778105184218
 20
16419.35598823472
 30
0.0
 40
200.0
  1
＊
  7
EXTFONT
  0
TEXT
  8
0
 10
5761.778105184218
 20
16669.35598823472
 30
0.0
 40
200.0
  1
＊
  7
EXTFONT
  0
TEXT
  8
YKK_F1
 10
9781.778105184223
 20
19724.35598823472
 30
0.0
 40
200.0
  1
箇所
  7
EXTFONT
  0
TEXT
  8
0
 10
5961.778105184222
 20
19949.35598823472
 30
0.0
 40
200.0
  1
＊
  7
EXTFONT
  0
TEXT
  8
0
 10
5761.778105184236
 20
19474.35598823472
 30
0.0
 40
200.0
  1
＊
  7
EXTFONT
  0
TEXT
  8
0
 10
9061.778105184222
 20
19474.35598823472
 30
0.0
 40
200.0
  1
＊
  7
EXTFONT
  0
TEXT
  8
0
 10
9361.778105184221
 20
19724.35598823472
 30
0.0
 40
200.0
  1
＊
  7
EXTFONT
  0
TEXT
  8
0
 10
5761.778105184218
 20
10614.35598823472
 30
0.0
 40
200.0
  1
＊
  7
EXTFONT
  0
TEXT
  8
0
 10
5761.778105184218
 20
9114.355988234724
 30
0.0
 40
200.0
  1
＊
  7
EXTFONT
  0
TEXT
  8
0
 10
5761.778105184218
 20
9614.355988234724
 30
0.0
 40
200.0
  1
＊
  7
EXTFONT
  0
TEXT
  8
0
 10
5761.778105184218
 20
9364.355988234724
 30
0.0
 40
200.0
  1
＊
  7
EXTFONT
  0
TEXT
  8
0
 10
5761.778105184218
 20
10114.35598823472
 30
0.0
 40
200.0
  1
＊
  7
EXTFONT
  0
TEXT
  8
0
 10
5761.778105184218
 20
9864.355988234724
 30
0.0
 40
200.0
  1
＊
  7
EXTFONT
  0
TEXT
  8
0
 10
5761.778105184218
 20
10364.35598823472
 30
0.0
 40
200.0
  1
＊
  7
EXTFONT
  0
TEXT
  8
0
 10
5761.778105184218
 20
10864.35598823472
 30
0.0
 40
200.0
  1
＊
  7
EXTFONT
  0
TEXT
  8
0
 10
5761.778105184218
 20
11114.35598823472
 30
0.0
 40
200.0
  1
＊
  7
EXTFONT
  0
TEXT
  8
0
 10
5761.778105184236
 20
13919.35598823472
 30
0.0
 40
200.0
  1
＊
  7
EXTFONT
  0
CIRCLE
  8
YKK_F1
 10
6061.778105184221
 20
14394.35598823472
 30
0.0
 40
233.3333333333333
  0
TEXT
  8
0
 10
5961.778105184222
 20
14394.35598823472
 30
0.0
 40
200.0
  1
＊
  7
EXTFONT
  0
TEXT
  8
YKK_F1
 10
5901.778105184221
 20
14194.35598823472
 30
0.0
 40
160.0
  1
ＡＷ
  7
EXTFONT
  0
LINE
  8
YKK_F1
  6
CONTINUOUS
 10
5828.444771850936
 20
14394.35598823472
 30
0.0
 11
6295.111438517506
 21
14394.35598823472
 31
0.0
  0
TEXT
  8
0
 10
9061.778105184222
 20
13919.35598823472
 30
0.0
 40
200.0
  1
＊
  7
EXTFONT
  0
TEXT
  8
0
 10
9361.778105184221
 20
14169.35598823472
 30
0.0
 40
200.0
  1
＊
  7
EXTFONT
  0
TEXT
  8
YKK_F1
 10
9781.778105184223
 20
14169.35598823472
 30
0.0
 40
200.0
  1
箇所
  7
EXTFONT
  0
TEXT
  8
YKK_F1
 10
9781.778105184223
 20
14169.35598823472
 30
0.0
 40
200.0
  1
箇所
  7
EXTFONT
  0
TEXT
  8
0
 10
5761.778105184218
 20
5059.355988234724
 30
0.0
 40
200.0
  1
＊
  7
EXTFONT
  0
TEXT
  8
0
 10
5761.778105184218
 20
3559.355988234723
 30
0.0
 40
200.0
  1
＊
  7
EXTFONT
  0
TEXT
  8
0
 10
5761.778105184218
 20
4059.355988234723
 30
0.0
 40
200.0
  1
＊
  7
EXTFONT
  0
TEXT
  8
0
 10
5761.778105184218
 20
3809.355988234723
 30
0.0
 40
200.0
  1
＊
  7
EXTFONT
  0
TEXT
  8
0
 10
5761.778105184218
 20
4559.355988234723
 30
0.0
 40
200.0
  1
＊
  7
EXTFONT
  0
TEXT
  8
0
 10
5761.778105184218
 20
4309.355988234723
 30
0.0
 40
200.0
  1
＊
  7
EXTFONT
  0
TEXT
  8
0
 10
5761.778105184218
 20
4809.355988234724
 30
0.0
 40
200.0
  1
＊
  7
EXTFONT
  0
TEXT
  8
0
 10
5761.778105184218
 20
5309.355988234726
 30
0.0
 40
200.0
  1
＊
  7
EXTFONT
  0
TEXT
  8
0
 10
5761.778105184218
 20
5559.355988234726
 30
0.0
 40
200.0
  1
＊
  7
EXTFONT
  0
TEXT
  8
0
 10
5761.778105184236
 20
8364.355988234725
 30
0.0
 40
200.0
  1
＊
  7
EXTFONT
  0
CIRCLE
  8
YKK_F1
 10
6061.778105184221
 20
8839.355988234727
 30
0.0
 40
233.3333333333333
  0
TEXT
  8
0
 10
5961.778105184222
 20
8839.355988234727
 30
0.0
 40
200.0
  1
＊
  7
EXTFONT
  0
TEXT
  8
YKK_F1
 10
5901.778105184221
 20
8639.355988234726
 30
0.0
 40
160.0
  1
ＡＷ
  7
EXTFONT
  0
LINE
  8
YKK_F1
  6
CONTINUOUS
 10
5828.444771850936
 20
8839.355988234727
 30
0.0
 11
6295.111438517506
 21
8839.355988234727
 31
0.0
  0
TEXT
  8
0
 10
9061.778105184222
 20
8364.355988234725
 30
0.0
 40
200.0
  1
＊
  7
EXTFONT
  0
TEXT
  8
0
 10
9361.778105184221
 20
8614.355988234725
 30
0.0
 40
200.0
  1
＊
  7
EXTFONT
  0
TEXT
  8
YKK_F1
 10
9781.778105184223
 20
8614.355988234725
 30
0.0
 40
200.0
  1
箇所
  7
EXTFONT
  0
TEXT
  8
YKK_F1
 10
9781.778105184223
 20
8614.355988234725
 30
0.0
 40
200.0
  1
箇所
  7
EXTFONT
  0
TEXT
  8
0
 10
10411.77810518421
 20
16169.35598823472
 30
0.0
 40
200.0
  1
＊
  7
EXTFONT
  0
TEXT
  8
0
 10
10411.77810518421
 20
14669.35598823472
 30
0.0
 40
200.0
  1
＊
  7
EXTFONT
  0
TEXT
  8
0
 10
10411.77810518421
 20
15169.35598823472
 30
0.0
 40
200.0
  1
＊
  7
EXTFONT
  0
TEXT
  8
0
 10
10411.77810518421
 20
14919.35598823472
 30
0.0
 40
200.0
  1
＊
  7
EXTFONT
  0
TEXT
  8
0
 10
10411.77810518421
 20
15669.35598823472
 30
0.0
 40
200.0
  1
＊
  7
EXTFONT
  0
TEXT
  8
0
 10
10411.77810518421
 20
15419.35598823472
 30
0.0
 40
200.0
  1
＊
  7
EXTFONT
  0
TEXT
  8
0
 10
10411.77810518421
 20
15919.35598823472
 30
0.0
 40
200.0
  1
＊
  7
EXTFONT
  0
TEXT
  8
0
 10
10411.77810518421
 20
16419.35598823472
 30
0.0
 40
200.0
  1
＊
  7
EXTFONT
  0
TEXT
  8
0
 10
10411.77810518421
 20
16669.35598823472
 30
0.0
 40
200.0
  1
＊
  7
EXTFONT
  0
TEXT
  8
0
 10
10411.77810518423
 20
19474.35598823472
 30
0.0
 40
200.0
  1
＊
  7
EXTFONT
  0
CIRCLE
  8
YKK_F1
 10
10711.77810518422
 20
19949.35598823472
 30
0.0
 40
233.3333333333333
  0
TEXT
  8
0
 10
10611.77810518422
 20
19949.35598823472
 30
0.0
 40
200.0
  1
＊
  7
EXTFONT
  0
TEXT
  8
YKK_F1
 10
10551.77810518422
 20
19749.35598823472
 30
0.0
 40
160.0
  1
ＡＷ
  7
EXTFONT
  0
LINE
  8
YKK_F1
  6
CONTINUOUS
 10
10478.44477185093
 20
19949.35598823472
 30
0.0
 11
10945.1114385175
 21
19949.35598823472
 31
0.0
  0
TEXT
  8
0
 10
13711.77810518422
 20
19474.35598823472
 30
0.0
 40
200.0
  1
＊
  7
EXTFONT
  0
TEXT
  8
0
 10
14011.77810518422
 20
19724.35598823472
 30
0.0
 40
200.0
  1
＊
  7
EXTFONT
  0
TEXT
  8
YKK_F1
 10
14431.77810518422
 20
19724.35598823472
 30
0.0
 40
200.0
  1
箇所
  7
EXTFONT
  0
TEXT
  8
YKK_F1
 10
14431.77810518422
 20
19724.35598823472
 30
0.0
 40
200.0
  1
箇所
  7
EXTFONT
  0
TEXT
  8
0
 10
10411.77810518421
 20
10614.35598823472
 30
0.0
 40
200.0
  1
＊
  7
EXTFONT
  0
TEXT
  8
0
 10
10411.77810518421
 20
9114.355988234724
 30
0.0
 40
200.0
  1
＊
  7
EXTFONT
  0
TEXT
  8
0
 10
10411.77810518421
 20
9614.355988234724
 30
0.0
 40
200.0
  1
＊
  7
EXTFONT
  0
TEXT
  8
0
 10
10411.77810518421
 20
9364.355988234724
 30
0.0
 40
200.0
  1
＊
  7
EXTFONT
  0
TEXT
  8
0
 10
10411.77810518421
 20
10114.35598823472
 30
0.0
 40
200.0
  1
＊
  7
EXTFONT
  0
TEXT
  8
0
 10
10411.77810518421
 20
9864.355988234724
 30
0.0
 40
200.0
  1
＊
  7
EXTFONT
  0
TEXT
  8
0
 10
10411.77810518421
 20
10364.35598823472
 30
0.0
 40
200.0
  1
＊
  7
EXTFONT
  0
TEXT
  8
0
 10
10411.77810518421
 20
10864.35598823472
 30
0.0
 40
200.0
  1
＊
  7
EXTFONT
  0
TEXT
  8
0
 10
10411.77810518421
 20
11114.35598823472
 30
0.0
 40
200.0
  1
＊
  7
EXTFONT
  0
TEXT
  8
0
 10
10411.77810518423
 20
13919.35598823472
 30
0.0
 40
200.0
  1
＊
  7
EXTFONT
  0
CIRCLE
  8
YKK_F1
 10
10711.77810518422
 20
14394.35598823472
 30
0.0
 40
233.3333333333333
  0
TEXT
  8
0
 10
10611.77810518422
 20
14394.35598823472
 30
0.0
 40
200.0
  1
＊
  7
EXTFONT
  0
TEXT
  8
YKK_F1
 10
10551.77810518422
 20
14194.35598823472
 30
0.0
 40
160.0
  1
ＡＷ
  7
EXTFONT
  0
LINE
  8
YKK_F1
  6
CONTINUOUS
 10
10478.44477185093
 20
14394.35598823472
 30
0.0
 11
10945.1114385175
 21
14394.35598823472
 31
0.0
  0
TEXT
  8
0
 10
13711.77810518422
 20
13919.35598823472
 30
0.0
 40
200.0
  1
＊
  7
EXTFONT
  0
TEXT
  8
0
 10
14011.77810518422
 20
14169.35598823472
 30
0.0
 40
200.0
  1
＊
  7
EXTFONT
  0
TEXT
  8
YKK_F1
 10
14431.77810518422
 20
14169.35598823472
 30
0.0
 40
200.0
  1
箇所
  7
EXTFONT
  0
TEXT
  8
YKK_F1
 10
14431.77810518422
 20
14169.35598823472
 30
0.0
 40
200.0
  1
箇所
  7
EXTFONT
  0
TEXT
  8
0
 10
10411.77810518421
 20
5059.355988234724
 30
0.0
 40
200.0
  1
＊
  7
EXTFONT
  0
TEXT
  8
0
 10
10411.77810518421
 20
3559.355988234723
 30
0.0
 40
200.0
  1
＊
  7
EXTFONT
  0
TEXT
  8
0
 10
10411.77810518421
 20
4059.355988234723
 30
0.0
 40
200.0
  1
＊
  7
EXTFONT
  0
TEXT
  8
0
 10
10411.77810518421
 20
3809.355988234723
 30
0.0
 40
200.0
  1
＊
  7
EXTFONT
  0
TEXT
  8
0
 10
10411.77810518421
 20
4559.355988234723
 30
0.0
 40
200.0
  1
＊
  7
EXTFONT
  0
TEXT
  8
0
 10
10411.77810518421
 20
4309.355988234723
 30
0.0
 40
200.0
  1
＊
  7
EXTFONT
  0
TEXT
  8
0
 10
10411.77810518421
 20
4809.355988234724
 30
0.0
 40
200.0
  1
＊
  7
EXTFONT
  0
TEXT
  8
0
 10
10411.77810518421
 20
5309.355988234726
 30
0.0
 40
200.0
  1
＊
  7
EXTFONT
  0
TEXT
  8
0
 10
10411.77810518421
 20
5559.355988234726
 30
0.0
 40
200.0
  1
＊
  7
EXTFONT
  0
TEXT
  8
0
 10
10411.77810518423
 20
8364.355988234725
 30
0.0
 40
200.0
  1
＊
  7
EXTFONT
  0
CIRCLE
  8
YKK_F1
 10
10711.77810518422
 20
8839.355988234727
 30
0.0
 40
233.3333333333333
  0
TEXT
  8
0
 10
10611.77810518422
 20
8839.355988234727
 30
0.0
 40
200.0
  1
＊
  7
EXTFONT
  0
TEXT
  8
YKK_F1
 10
10551.77810518422
 20
8639.355988234726
 30
0.0
 40
160.0
  1
ＡＷ
  7
EXTFONT
  0
LINE
  8
YKK_F1
  6
CONTINUOUS
 10
10478.44477185093
 20
8839.355988234727
 30
0.0
 11
10945.1114385175
 21
8839.355988234727
 31
0.0
  0
TEXT
  8
0
 10
13711.77810518422
 20
8364.355988234725
 30
0.0
 40
200.0
  1
＊
  7
EXTFONT
  0
TEXT
  8
0
 10
14011.77810518422
 20
8614.355988234725
 30
0.0
 40
200.0
  1
＊
  7
EXTFONT
  0
TEXT
  8
YKK_F1
 10
14431.77810518422
 20
8614.355988234725
 30
0.0
 40
200.0
  1
箇所
  7
EXTFONT
  0
TEXT
  8
YKK_F1
 10
14431.77810518422
 20
8614.355988234725
 30
0.0
 40
200.0
  1
箇所
  7
EXTFONT
  0
TEXT
  8
0
 10
15061.77810518421
 20
16169.35598823472
 30
0.0
 40
200.0
  1
＊
  7
EXTFONT
  0
TEXT
  8
0
 10
15061.77810518421
 20
14669.35598823472
 30
0.0
 40
200.0
  1
＊
  7
EXTFONT
  0
TEXT
  8
0
 10
15061.77810518421
 20
15169.35598823472
 30
0.0
 40
200.0
  1
＊
  7
EXTFONT
  0
TEXT
  8
0
 10
15061.77810518421
 20
14919.35598823472
 30
0.0
 40
200.0
  1
＊
  7
EXTFONT
  0
TEXT
  8
0
 10
15061.77810518421
 20
15669.35598823472
 30
0.0
 40
200.0
  1
＊
  7
EXTFONT
  0
TEXT
  8
0
 10
15061.77810518421
 20
15419.35598823472
 30
0.0
 40
200.0
  1
＊
  7
EXTFONT
  0
TEXT
  8
0
 10
15061.77810518421
 20
15919.35598823472
 30
0.0
 40
200.0
  1
＊
  7
EXTFONT
  0
TEXT
  8
0
 10
15061.77810518421
 20
16419.35598823472
 30
0.0
 40
200.0
  1
＊
  7
EXTFONT
  0
TEXT
  8
0
 10
15061.77810518421
 20
16669.35598823472
 30
0.0
 40
200.0
  1
＊
  7
EXTFONT
  0
TEXT
  8
0
 10
15061.77810518423
 20
19474.35598823472
 30
0.0
 40
200.0
  1
＊
  7
EXTFONT
  0
CIRCLE
  8
YKK_F1
 10
15361.77810518422
 20
19949.35598823472
 30
0.0
 40
233.3333333333333
  0
TEXT
  8
0
 10
15261.77810518422
 20
19949.35598823472
 30
0.0
 40
200.0
  1
＊
  7
EXTFONT
  0
TEXT
  8
YKK_F1
 10
15201.77810518422
 20
19749.35598823472
 30
0.0
 40
160.0
  1
ＡＷ
  7
EXTFONT
  0
LINE
  8
YKK_F1
  6
CONTINUOUS
 10
15128.44477185093
 20
19949.35598823472
 30
0.0
 11
15595.1114385175
 21
19949.35598823472
 31
0.0
  0
TEXT
  8
0
 10
18361.77810518422
 20
19474.35598823472
 30
0.0
 40
200.0
  1
＊
  7
EXTFONT
  0
TEXT
  8
0
 10
18661.77810518422
 20
19724.35598823472
 30
0.0
 40
200.0
  1
＊
  7
EXTFONT
  0
TEXT
  8
YKK_F1
 10
19081.77810518422
 20
19724.35598823472
 30
0.0
 40
200.0
  1
箇所
  7
EXTFONT
  0
TEXT
  8
YKK_F1
 10
19081.77810518422
 20
19724.35598823472
 30
0.0
 40
200.0
  1
箇所
  7
EXTFONT
  0
TEXT
  8
0
 10
15061.77810518421
 20
10614.35598823472
 30
0.0
 40
200.0
  1
＊
  7
EXTFONT
  0
TEXT
  8
0
 10
15061.77810518421
 20
9114.355988234724
 30
0.0
 40
200.0
  1
＊
  7
EXTFONT
  0
TEXT
  8
0
 10
15061.77810518421
 20
9614.355988234724
 30
0.0
 40
200.0
  1
＊
  7
EXTFONT
  0
TEXT
  8
0
 10
15061.77810518421
 20
9364.355988234724
 30
0.0
 40
200.0
  1
＊
  7
EXTFONT
  0
TEXT
  8
0
 10
15061.77810518421
 20
10114.35598823472
 30
0.0
 40
200.0
  1
＊
  7
EXTFONT
  0
TEXT
  8
0
 10
15061.77810518421
 20
9864.355988234724
 30
0.0
 40
200.0
  1
＊
  7
EXTFONT
  0
TEXT
  8
0
 10
15061.77810518421
 20
10364.35598823472
 30
0.0
 40
200.0
  1
＊
  7
EXTFONT
  0
TEXT
  8
0
 10
15061.77810518421
 20
10864.35598823472
 30
0.0
 40
200.0
  1
＊
  7
EXTFONT
  0
TEXT
  8
0
 10
15061.77810518421
 20
11114.35598823472
 30
0.0
 40
200.0
  1
＊
  7
EXTFONT
  0
TEXT
  8
0
 10
15061.77810518423
 20
13919.35598823472
 30
0.0
 40
200.0
  1
＊
  7
EXTFONT
  0
CIRCLE
  8
YKK_F1
 10
15361.77810518422
 20
14394.35598823472
 30
0.0
 40
233.3333333333333
  0
TEXT
  8
0
 10
15261.77810518422
 20
14394.35598823472
 30
0.0
 40
200.0
  1
＊
  7
EXTFONT
  0
TEXT
  8
YKK_F1
 10
15201.77810518422
 20
14194.35598823472
 30
0.0
 40
160.0
  1
ＡＷ
  7
EXTFONT
  0
LINE
  8
YKK_F1
  6
CONTINUOUS
 10
15128.44477185093
 20
14394.35598823472
 30
0.0
 11
15595.1114385175
 21
14394.35598823472
 31
0.0
  0
TEXT
  8
0
 10
18361.77810518422
 20
13919.35598823472
 30
0.0
 40
200.0
  1
＊
  7
EXTFONT
  0
TEXT
  8
0
 10
18661.77810518422
 20
14169.35598823472
 30
0.0
 40
200.0
  1
＊
  7
EXTFONT
  0
TEXT
  8
YKK_F1
 10
19081.77810518422
 20
14169.35598823472
 30
0.0
 40
200.0
  1
箇所
  7
EXTFONT
  0
TEXT
  8
YKK_F1
 10
19081.77810518422
 20
14169.35598823472
 30
0.0
 40
200.0
  1
箇所
  7
EXTFONT
  0
TEXT
  8
0
 10
15061.77810518421
 20
5059.355988234724
 30
0.0
 40
200.0
  1
＊
  7
EXTFONT
  0
TEXT
  8
0
 10
15061.77810518421
 20
3559.355988234723
 30
0.0
 40
200.0
  1
＊
  7
EXTFONT
  0
TEXT
  8
0
 10
15061.77810518421
 20
4059.355988234723
 30
0.0
 40
200.0
  1
＊
  7
EXTFONT
  0
TEXT
  8
0
 10
15061.77810518421
 20
3809.355988234723
 30
0.0
 40
200.0
  1
＊
  7
EXTFONT
  0
TEXT
  8
0
 10
15061.77810518421
 20
4559.355988234723
 30
0.0
 40
200.0
  1
＊
  7
EXTFONT
  0
TEXT
  8
0
 10
15061.77810518421
 20
4309.355988234723
 30
0.0
 40
200.0
  1
＊
  7
EXTFONT
  0
TEXT
  8
0
 10
15061.77810518421
 20
4809.355988234724
 30
0.0
 40
200.0
  1
＊
  7
EXTFONT
  0
TEXT
  8
0
 10
15061.77810518421
 20
5309.355988234726
 30
0.0
 40
200.0
  1
＊
  7
EXTFONT
  0
TEXT
  8
0
 10
15061.77810518421
 20
5559.355988234726
 30
0.0
 40
200.0
  1
＊
  7
EXTFONT
  0
TEXT
  8
0
 10
15061.77810518423
 20
8364.355988234725
 30
0.0
 40
200.0
  1
＊
  7
EXTFONT
  0
CIRCLE
  8
YKK_F1
 10
15361.77810518422
 20
8839.355988234727
 30
0.0
 40
233.3333333333333
  0
TEXT
  8
0
 10
15261.77810518422
 20
8839.355988234727
 30
0.0
 40
200.0
  1
＊
  7
EXTFONT
  0
TEXT
  8
YKK_F1
 10
15201.77810518422
 20
8639.355988234726
 30
0.0
 40
160.0
  1
ＡＷ
  7
EXTFONT
  0
LINE
  8
YKK_F1
  6
CONTINUOUS
 10
15128.44477185093
 20
8839.355988234727
 30
0.0
 11
15595.1114385175
 21
8839.355988234727
 31
0.0
  0
TEXT
  8
0
 10
18361.77810518422
 20
8364.355988234725
 30
0.0
 40
200.0
  1
＊
  7
EXTFONT
  0
TEXT
  8
0
 10
18661.77810518422
 20
8614.355988234725
 30
0.0
 40
200.0
  1
＊
  7
EXTFONT
  0
TEXT
  8
YKK_F1
 10
19081.77810518422
 20
8614.355988234725
 30
0.0
 40
200.0
  1
箇所
  7
EXTFONT
  0
TEXT
  8
YKK_F1
 10
19081.77810518422
 20
8614.355988234725
 30
0.0
 40
200.0
  1
箇所
  7
EXTFONT
  0
TEXT
  8
0
 10
19711.77810518421
 20
16169.35598823472
 30
0.0
 40
200.0
  1
＊
  7
EXTFONT
  0
TEXT
  8
0
 10
19711.77810518421
 20
14669.35598823472
 30
0.0
 40
200.0
  1
＊
  7
EXTFONT
  0
TEXT
  8
0
 10
19711.77810518421
 20
15169.35598823472
 30
0.0
 40
200.0
  1
＊
  7
EXTFONT
  0
TEXT
  8
0
 10
19711.77810518421
 20
14919.35598823472
 30
0.0
 40
200.0
  1
＊
  7
EXTFONT
  0
TEXT
  8
0
 10
19711.77810518421
 20
15669.35598823472
 30
0.0
 40
200.0
  1
＊
  7
EXTFONT
  0
TEXT
  8
0
 10
19711.77810518421
 20
15419.35598823472
 30
0.0
 40
200.0
  1
＊
  7
EXTFONT
  0
TEXT
  8
0
 10
19711.77810518421
 20
15919.35598823472
 30
0.0
 40
200.0
  1
＊
  7
EXTFONT
  0
TEXT
  8
0
 10
19711.77810518421
 20
16419.35598823472
 30
0.0
 40
200.0
  1
＊
  7
EXTFONT
  0
TEXT
  8
0
 10
19711.77810518421
 20
16669.35598823472
 30
0.0
 40
200.0
  1
＊
  7
EXTFONT
  0
TEXT
  8
0
 10
19711.77810518423
 20
19474.35598823472
 30
0.0
 40
200.0
  1
＊
  7
EXTFONT
  0
CIRCLE
  8
YKK_F1
 10
20011.77810518422
 20
19949.35598823472
 30
0.0
 40
233.3333333333333
  0
TEXT
  8
0
 10
19911.77810518422
 20
19949.35598823472
 30
0.0
 40
200.0
  1
＊
  7
EXTFONT
  0
TEXT
  8
YKK_F1
 10
19851.77810518422
 20
19749.35598823472
 30
0.0
 40
160.0
  1
ＡＷ
  7
EXTFONT
  0
LINE
  8
YKK_F1
  6
CONTINUOUS
 10
19778.44477185093
 20
19949.35598823472
 30
0.0
 11
20245.1114385175
 21
19949.35598823472
 31
0.0
  0
TEXT
  8
0
 10
23011.77810518422
 20
19474.35598823472
 30
0.0
 40
200.0
  1
＊
  7
EXTFONT
  0
TEXT
  8
0
 10
23311.77810518422
 20
19724.35598823472
 30
0.0
 40
200.0
  1
＊
  7
EXTFONT
  0
TEXT
  8
YKK_F1
 10
23731.77810518422
 20
19724.35598823472
 30
0.0
 40
200.0
  1
箇所
  7
EXTFONT
  0
TEXT
  8
YKK_F1
 10
23731.77810518422
 20
19724.35598823472
 30
0.0
 40
200.0
  1
箇所
  7
EXTFONT
  0
TEXT
  8
0
 10
19711.77810518421
 20
10614.35598823472
 30
0.0
 40
200.0
  1
＊
  7
EXTFONT
  0
TEXT
  8
0
 10
19711.77810518421
 20
9114.355988234724
 30
0.0
 40
200.0
  1
＊
  7
EXTFONT
  0
TEXT
  8
0
 10
19711.77810518421
 20
9614.355988234724
 30
0.0
 40
200.0
  1
＊
  7
EXTFONT
  0
TEXT
  8
0
 10
19711.77810518421
 20
9364.355988234724
 30
0.0
 40
200.0
  1
＊
  7
EXTFONT
  0
TEXT
  8
0
 10
19711.77810518421
 20
10114.35598823472
 30
0.0
 40
200.0
  1
＊
  7
EXTFONT
  0
TEXT
  8
0
 10
19711.77810518421
 20
9864.355988234724
 30
0.0
 40
200.0
  1
＊
  7
EXTFONT
  0
TEXT
  8
0
 10
19711.77810518421
 20
10364.35598823472
 30
0.0
 40
200.0
  1
＊
  7
EXTFONT
  0
TEXT
  8
0
 10
19711.77810518421
 20
10864.35598823472
 30
0.0
 40
200.0
  1
＊
  7
EXTFONT
  0
TEXT
  8
0
 10
19711.77810518421
 20
11114.35598823472
 30
0.0
 40
200.0
  1
＊
  7
EXTFONT
  0
TEXT
  8
0
 10
19711.77810518423
 20
13919.35598823472
 30
0.0
 40
200.0
  1
＊
  7
EXTFONT
  0
CIRCLE
  8
YKK_F1
 10
20011.77810518422
 20
14394.35598823472
 30
0.0
 40
233.3333333333333
  0
TEXT
  8
0
 10
19911.77810518422
 20
14394.35598823472
 30
0.0
 40
200.0
  1
＊
  7
EXTFONT
  0
TEXT
  8
YKK_F1
 10
19851.77810518422
 20
14194.35598823472
 30
0.0
 40
160.0
  1
ＡＷ
  7
EXTFONT
  0
LINE
  8
YKK_F1
  6
CONTINUOUS
 10
19778.44477185093
 20
14394.35598823472
 30
0.0
 11
20245.1114385175
 21
14394.35598823472
 31
0.0
  0
TEXT
  8
0
 10
23011.77810518422
 20
13919.35598823472
 30
0.0
 40
200.0
  1
＊
  7
EXTFONT
  0
TEXT
  8
0
 10
23311.77810518422
 20
14169.35598823472
 30
0.0
 40
200.0
  1
＊
  7
EXTFONT
  0
TEXT
  8
YKK_F1
 10
23731.77810518422
 20
14169.35598823472
 30
0.0
 40
200.0
  1
箇所
  7
EXTFONT
  0
TEXT
  8
YKK_F1
 10
23731.77810518422
 20
14169.35598823472
 30
0.0
 40
200.0
  1
箇所
  7
EXTFONT
  0
TEXT
  8
0
 10
19711.77810518421
 20
5059.355988234724
 30
0.0
 40
200.0
  1
＊
  7
EXTFONT
  0
TEXT
  8
0
 10
19711.77810518421
 20
3559.355988234723
 30
0.0
 40
200.0
  1
＊
  7
EXTFONT
  0
TEXT
  8
0
 10
19711.77810518421
 20
4059.355988234723
 30
0.0
 40
200.0
  1
＊
  7
EXTFONT
  0
TEXT
  8
0
 10
19711.77810518421
 20
3809.355988234723
 30
0.0
 40
200.0
  1
＊
  7
EXTFONT
  0
TEXT
  8
0
 10
19711.77810518421
 20
4559.355988234723
 30
0.0
 40
200.0
  1
＊
  7
EXTFONT
  0
TEXT
  8
0
 10
19711.77810518421
 20
4309.355988234723
 30
0.0
 40
200.0
  1
＊
  7
EXTFONT
  0
TEXT
  8
0
 10
19711.77810518421
 20
4809.355988234724
 30
0.0
 40
200.0
  1
＊
  7
EXTFONT
  0
TEXT
  8
0
 10
19711.77810518421
 20
5309.355988234726
 30
0.0
 40
200.0
  1
＊
  7
EXTFONT
  0
TEXT
  8
0
 10
19711.77810518421
 20
5559.355988234726
 30
0.0
 40
200.0
  1
＊
  7
EXTFONT
  0
TEXT
  8
0
 10
19711.77810518423
 20
8364.355988234725
 30
0.0
 40
200.0
  1
＊
  7
EXTFONT
  0
CIRCLE
  8
YKK_F1
 10
20011.77810518422
 20
8839.355988234727
 30
0.0
 40
233.3333333333333
  0
TEXT
  8
0
 10
19911.77810518422
 20
8839.355988234727
 30
0.0
 40
200.0
  1
＊
  7
EXTFONT
  0
TEXT
  8
YKK_F1
 10
19851.77810518422
 20
8639.355988234726
 30
0.0
 40
160.0
  1
ＡＷ
  7
EXTFONT
  0
LINE
  8
YKK_F1
  6
CONTINUOUS
 10
19778.44477185093
 20
8839.355988234727
 30
0.0
 11
20245.1114385175
 21
8839.355988234727
 31
0.0
  0
TEXT
  8
0
 10
23011.77810518422
 20
8364.355988234725
 30
0.0
 40
200.0
  1
＊
  7
EXTFONT
  0
TEXT
  8
0
 10
23311.77810518422
 20
8614.355988234725
 30
0.0
 40
200.0
  1
＊
  7
EXTFONT
  0
TEXT
  8
YKK_F1
 10
23731.77810518422
 20
8614.355988234725
 30
0.0
 40
200.0
  1
箇所
  7
EXTFONT
  0
TEXT
  8
YKK_F1
 10
23731.77810518422
 20
8614.355988234725
 30
0.0
 40
200.0
  1
箇所
  7
EXTFONT
  0
TEXT
  8
0
 10
24361.77810518421
 20
16169.35598823472
 30
0.0
 40
200.0
  1
＊
  7
EXTFONT
  0
TEXT
  8
0
 10
24361.77810518421
 20
14669.35598823472
 30
0.0
 40
200.0
  1
＊
  7
EXTFONT
  0
TEXT
  8
0
 10
24361.77810518421
 20
15169.35598823472
 30
0.0
 40
200.0
  1
＊
  7
EXTFONT
  0
TEXT
  8
0
 10
24361.77810518421
 20
14919.35598823472
 30
0.0
 40
200.0
  1
＊
  7
EXTFONT
  0
TEXT
  8
0
 10
24361.77810518421
 20
15669.35598823472
 30
0.0
 40
200.0
  1
＊
  7
EXTFONT
  0
TEXT
  8
0
 10
24361.77810518421
 20
15419.35598823472
 30
0.0
 40
200.0
  1
＊
  7
EXTFONT
  0
TEXT
  8
0
 10
24361.77810518421
 20
15919.35598823472
 30
0.0
 40
200.0
  1
＊
  7
EXTFONT
  0
TEXT
  8
0
 10
24361.77810518421
 20
16419.35598823472
 30
0.0
 40
200.0
  1
＊
  7
EXTFONT
  0
TEXT
  8
0
 10
24361.77810518421
 20
16669.35598823472
 30
0.0
 40
200.0
  1
＊
  7
EXTFONT
  0
TEXT
  8
0
 10
24361.77810518423
 20
19474.35598823472
 30
0.0
 40
200.0
  1
＊
  7
EXTFONT
  0
CIRCLE
  8
YKK_F1
 10
24661.77810518422
 20
19949.35598823472
 30
0.0
 40
233.3333333333333
  0
TEXT
  8
0
 10
24561.77810518422
 20
19949.35598823472
 30
0.0
 40
200.0
  1
＊
  7
EXTFONT
  0
TEXT
  8
YKK_F1
 10
24501.77810518422
 20
19749.35598823472
 30
0.0
 40
160.0
  1
ＡＷ
  7
EXTFONT
  0
LINE
  8
YKK_F1
  6
CONTINUOUS
 10
24428.44477185093
 20
19949.35598823472
 30
0.0
 11
24895.1114385175
 21
19949.35598823472
 31
0.0
  0
TEXT
  8
0
 10
27661.77810518422
 20
19474.35598823472
 30
0.0
 40
200.0
  1
＊
  7
EXTFONT
  0
TEXT
  8
0
 10
27961.77810518422
 20
19724.35598823472
 30
0.0
 40
200.0
  1
＊
  7
EXTFONT
  0
TEXT
  8
YKK_F1
 10
28381.77810518422
 20
19724.35598823472
 30
0.0
 40
200.0
  1
箇所
  7
EXTFONT
  0
TEXT
  8
YKK_F1
 10
28381.77810518422
 20
19724.35598823472
 30
0.0
 40
200.0
  1
箇所
  7
EXTFONT
  0
TEXT
  8
0
 10
24361.77810518421
 20
10614.35598823472
 30
0.0
 40
200.0
  1
＊
  7
EXTFONT
  0
TEXT
  8
0
 10
24361.77810518421
 20
9114.355988234724
 30
0.0
 40
200.0
  1
＊
  7
EXTFONT
  0
TEXT
  8
0
 10
24361.77810518421
 20
9614.355988234724
 30
0.0
 40
200.0
  1
＊
  7
EXTFONT
  0
TEXT
  8
0
 10
24361.77810518421
 20
9364.355988234724
 30
0.0
 40
200.0
  1
＊
  7
EXTFONT
  0
TEXT
  8
0
 10
24361.77810518421
 20
10114.35598823472
 30
0.0
 40
200.0
  1
＊
  7
EXTFONT
  0
TEXT
  8
0
 10
24361.77810518421
 20
9864.355988234724
 30
0.0
 40
200.0
  1
＊
  7
EXTFONT
  0
TEXT
  8
0
 10
24361.77810518421
 20
10364.35598823472
 30
0.0
 40
200.0
  1
＊
  7
EXTFONT
  0
TEXT
  8
0
 10
24361.77810518421
 20
10864.35598823472
 30
0.0
 40
200.0
  1
＊
  7
EXTFONT
  0
TEXT
  8
0
 10
24361.77810518421
 20
11114.35598823472
 30
0.0
 40
200.0
  1
＊
  7
EXTFONT
  0
TEXT
  8
0
 10
24361.77810518423
 20
13919.35598823472
 30
0.0
 40
200.0
  1
＊
  7
EXTFONT
  0
CIRCLE
  8
YKK_F1
 10
24661.77810518422
 20
14394.35598823472
 30
0.0
 40
233.3333333333333
  0
TEXT
  8
0
 10
24561.77810518422
 20
14394.35598823472
 30
0.0
 40
200.0
  1
＊
  7
EXTFONT
  0
TEXT
  8
YKK_F1
 10
24501.77810518422
 20
14194.35598823472
 30
0.0
 40
160.0
  1
ＡＷ
  7
EXTFONT
  0
LINE
  8
YKK_F1
  6
CONTINUOUS
 10
24428.44477185093
 20
14394.35598823472
 30
0.0
 11
24895.1114385175
 21
14394.35598823472
 31
0.0
  0
TEXT
  8
0
 10
27661.77810518422
 20
13919.35598823472
 30
0.0
 40
200.0
  1
＊
  7
EXTFONT
  0
TEXT
  8
0
 10
27961.77810518422
 20
14169.35598823472
 30
0.0
 40
200.0
  1
＊
  7
EXTFONT
  0
TEXT
  8
YKK_F1
 10
28381.77810518422
 20
14169.35598823472
 30
0.0
 40
200.0
  1
箇所
  7
EXTFONT
  0
TEXT
  8
YKK_F1
 10
28381.77810518422
 20
14169.35598823472
 30
0.0
 40
200.0
  1
箇所
  7
EXTFONT
  0
TEXT
  8
0
 10
24361.77810518421
 20
5059.355988234724
 30
0.0
 40
200.0
  1
＊
  7
EXTFONT
  0
TEXT
  8
0
 10
24361.77810518421
 20
3559.355988234723
 30
0.0
 40
200.0
  1
＊
  7
EXTFONT
  0
TEXT
  8
0
 10
24361.77810518421
 20
4059.355988234723
 30
0.0
 40
200.0
  1
＊
  7
EXTFONT
  0
TEXT
  8
0
 10
24361.77810518421
 20
3809.355988234723
 30
0.0
 40
200.0
  1
＊
  7
EXTFONT
  0
TEXT
  8
0
 10
24361.77810518421
 20
4559.355988234723
 30
0.0
 40
200.0
  1
＊
  7
EXTFONT
  0
TEXT
  8
0
 10
24361.77810518421
 20
4309.355988234723
 30
0.0
 40
200.0
  1
＊
  7
EXTFONT
  0
TEXT
  8
0
 10
24361.77810518421
 20
4809.355988234724
 30
0.0
 40
200.0
  1
＊
  7
EXTFONT
  0
TEXT
  8
0
 10
24361.77810518421
 20
5309.355988234726
 30
0.0
 40
200.0
  1
＊
  7
EXTFONT
  0
TEXT
  8
0
 10
24361.77810518421
 20
5559.355988234726
 30
0.0
 40
200.0
  1
＊
  7
EXTFONT
  0
TEXT
  8
0
 10
24361.77810518423
 20
8364.355988234725
 30
0.0
 40
200.0
  1
＊
  7
EXTFONT
  0
CIRCLE
  8
YKK_F1
 10
24661.77810518422
 20
8839.355988234727
 30
0.0
 40
233.3333333333333
  0
TEXT
  8
0
 10
24561.77810518422
 20
8839.355988234727
 30
0.0
 40
200.0
  1
＊
  7
EXTFONT
  0
TEXT
  8
YKK_F1
 10
24501.77810518422
 20
8639.355988234726
 30
0.0
 40
160.0
  1
ＡＷ
  7
EXTFONT
  0
LINE
  8
YKK_F1
  6
CONTINUOUS
 10
24428.44477185093
 20
8839.355988234727
 30
0.0
 11
24895.1114385175
 21
8839.355988234727
 31
0.0
  0
TEXT
  8
0
 10
27661.77810518422
 20
8364.355988234725
 30
0.0
 40
200.0
  1
＊
  7
EXTFONT
  0
TEXT
  8
0
 10
27961.77810518422
 20
8614.355988234725
 30
0.0
 40
200.0
  1
＊
  7
EXTFONT
  0
TEXT
  8
YKK_F1
 10
28381.77810518422
 20
8614.355988234725
 30
0.0
 40
200.0
  1
箇所
  7
EXTFONT
  0
TEXT
  8
YKK_F1
 10
28381.77810518422
 20
8614.355988234725
 30
0.0
 40
200.0
  1
箇所
  7
EXTFONT
  0
ENDSEC
  0
EOF
