  0
SECTION
  2
HEADER
  9
$ACADVER
  1
AC1024
  9
$ACADMAINTVER
 70
   226
  9
$DWGCODEPAGE
  3
ANSI_932
  9
$LASTSAVEDBY
  1
0533013
  9
$INSBASE
 10
0.0
 20
0.0
 30
0.0
  9
$EXTMIN
 10
-2.0
 20
0.0
 30
0.0
  9
$EXTMAX
 10
28679.0155
 20
20000.0
 30
0.0
  9
$LIMMIN
 10
0.0
 20
0.0
  9
$LIMMAX
 10
420.0
 20
297.0
  9
$ORTHOMODE
 70
     1
  9
$REGENMODE
 70
     1
  9
$FILLMODE
 70
     1
  9
$QTEXTMODE
 70
     0
  9
$MIRRTEXT
 70
     0
  9
$LTSCALE
 40
1.0
  9
$ATTMODE
 70
     1
  9
$TEXTSIZE
 40
2.5
  9
$TRACEWID
 40
1.0
  9
$TEXTSTYLE
  7
STANDARD
  9
$CLAYER
  8
0
  9
$CELTYPE
  6
ByLayer
  9
$CECOLOR
 62
   256
  9
$CELTSCALE
 40
1.0
  9
$DISPSILH
 70
     1
  9
$DIMSCALE
 40
1.0
  9
$DIMASZ
 40
0.18
  9
$DIMEXO
 40
0.0625
  9
$DIMDLI
 40
0.38
  9
$DIMRND
 40
0.0
  9
$DIMDLE
 40
0.0
  9
$DIMEXE
 40
0.18
  9
$DIMTP
 40
0.0
  9
$DIMTM
 40
0.0
  9
$DIMTXT
 40
0.18
  9
$DIMCEN
 40
0.09
  9
$DIMTSZ
 40
0.0
  9
$DIMTOL
 70
     0
  9
$DIMLIM
 70
     0
  9
$DIMTIH
 70
     1
  9
$DIMTOH
 70
     1
  9
$DIMSE1
 70
     0
  9
$DIMSE2
 70
     0
  9
$DIMTAD
 70
     0
  9
$DIMZIN
 70
     0
  9
$DIMBLK
  1
Small
  9
$DIMASO
 70
     1
  9
$DIMSHO
 70
     1
  9
$DIMPOST
  1

  9
$DIMAPOST
  1

  9
$DIMALT
 70
     0
  9
$DIMALTD
 70
     2
  9
$DIMALTF
 40
25.4
  9
$DIMLFAC
 40
1.0
  9
$DIMTOFL
 70
     0
  9
$DIMTVP
 40
0.0
  9
$DIMTIX
 70
     0
  9
$DIMSOXD
 70
     0
  9
$DIMSAH
 70
     0
  9
$DIMBLK1
  1

  9
$DIMBLK2
  1

  9
$DIMSTYLE
  2
STANDARD
  9
$DIMCLRD
 70
     0
  9
$DIMCLRE
 70
     0
  9
$DIMCLRT
 70
     0
  9
$DIMTFAC
 40
1.0
  9
$DIMGAP
 40
0.09
  9
$DIMJUST
 70
     0
  9
$DIMSD1
 70
     0
  9
$DIMSD2
 70
     0
  9
$DIMTOLJ
 70
     1
  9
$DIMTZIN
 70
     8
  9
$DIMALTZ
 70
     8
  9
$DIMALTTZ
 70
     8
  9
$DIMUPT
 70
     0
  9
$DIMDEC
 70
     4
  9
$DIMTDEC
 70
     4
  9
$DIMALTU
 70
     2
  9
$DIMALTTD
 70
     4
  9
$DIMTXSTY
  7
STANDARD
  9
$DIMAUNIT
 70
     0
  9
$DIMADEC
 70
     0
  9
$DIMALTRND
 40
0.0
  9
$DIMAZIN
 70
     0
  9
$DIMDSEP
 70
    46
  9
$DIMATFIT
 70
     3
  9
$DIMFRAC
 70
     0
  9
$DIMLDRBLK
  1

  9
$DIMLUNIT
 70
     2
  9
$DIMLWD
 70
    -2
  9
$DIMLWE
 70
    -2
  9
$DIMTMOVE
 70
     2
  9
$DIMFXL
 40
1.0
  9
$DIMFXLON
 70
     0
  9
$DIMJOGANG
 40
0.7853981633974483
  9
$DIMTFILL
 70
     0
  9
$DIMTFILLCLR
 70
     0
  9
$DIMARCSYM
 70
     0
  9
$DIMLTYPE
  6

  9
$DIMLTEX1
  6

  9
$DIMLTEX2
  6

  9
$DIMTXTDIRECTION
 70
     0
  9
$LUNITS
 70
     2
  9
$LUPREC
 70
     4
  9
$SKETCHINC
 40
1.0
  9
$FILLETRAD
 40
0.0
  9
$AUNITS
 70
     0
  9
$AUPREC
 70
     0
  9
$MENU
  1
acad
  9
$ELEVATION
 40
0.0
  9
$PELEVATION
 40
0.0
  9
$THICKNESS
 40
0.0
  9
$LIMCHECK
 70
     0
  9
$CHAMFERA
 40
10.0
  9
$CHAMFERB
 40
10.0
  9
$CHAMFERC
 40
0.0
  9
$CHAMFERD
 40
0.0
  9
$SKPOLY
 70
     0
  9
$TDCREATE
 40
2456631.413773148
  9
$TDUCREATE
 40
2456631.038777801
  9
$TDUPDATE
 40
2460850.519745370
  9
$TDUUPDATE
 40
2460850.144745371
  9
$TDINDWG
 40
0.8187711690
  9
$TDUSRTIMER
 40
0.8187711690
  9
$USRTIMER
 70
     1
  9
$ANGBASE
 50
0.0
  9
$ANGDIR
 70
     0
  9
$PDMODE
 70
     0
  9
$PDSIZE
 40
0.0
  9
$PLINEWID
 40
0.0
  9
$SPLFRAME
 70
     0
  9
$SPLINETYPE
 70
     6
  9
$SPLINESEGS
 70
     8
  9
$HANDSEED
  5
1CA55
  9
$SURFTAB1
 70
     6
  9
$SURFTAB2
 70
     6
  9
$SURFTYPE
 70
     6
  9
$SURFU
 70
     6
  9
$SURFV
 70
     6
  9
$UCSBASE
  2

  9
$UCSNAME
  2

  9
$UCSORG
 10
0.0
 20
0.0
 30
0.0
  9
$UCSXDIR
 10
1.0
 20
0.0
 30
0.0
  9
$UCSYDIR
 10
0.0
 20
1.0
 30
0.0
  9
$UCSORTHOREF
  2

  9
$UCSORTHOVIEW
 70
     0
  9
$UCSORGTOP
 10
0.0
 20
0.0
 30
0.0
  9
$UCSORGBOTTOM
 10
0.0
 20
0.0
 30
0.0
  9
$UCSORGLEFT
 10
0.0
 20
0.0
 30
0.0
  9
$UCSORGRIGHT
 10
0.0
 20
0.0
 30
0.0
  9
$UCSORGFRONT
 10
0.0
 20
0.0
 30
0.0
  9
$UCSORGBACK
 10
0.0
 20
0.0
 30
0.0
  9
$PUCSBASE
  2

  9
$PUCSNAME
  2

  9
$PUCSORG
 10
0.0
 20
0.0
 30
0.0
  9
$PUCSXDIR
 10
1.0
 20
0.0
 30
0.0
  9
$PUCSYDIR
 10
0.0
 20
1.0
 30
0.0
  9
$PUCSORTHOREF
  2

  9
$PUCSORTHOVIEW
 70
     0
  9
$PUCSORGTOP
 10
0.0
 20
0.0
 30
0.0
  9
$PUCSORGBOTTOM
 10
0.0
 20
0.0
 30
0.0
  9
$PUCSORGLEFT
 10
0.0
 20
0.0
 30
0.0
  9
$PUCSORGRIGHT
 10
0.0
 20
0.0
 30
0.0
  9
$PUCSORGFRONT
 10
0.0
 20
0.0
 30
0.0
  9
$PUCSORGBACK
 10
0.0
 20
0.0
 30
0.0
  9
$USERI1
 70
     0
  9
$USERI2
 70
     0
  9
$USERI3
 70
     0
  9
$USERI4
 70
     0
  9
$USERI5
 70
     0
  9
$USERR1
 40
0.0
  9
$USERR2
 40
0.0
  9
$USERR3
 40
0.0
  9
$USERR4
 40
0.0
  9
$USERR5
 40
0.0
  9
$WORLDVIEW
 70
     1
  9
$SHADEDGE
 70
     3
  9
$SHADEDIF
 70
    70
  9
$TILEMODE
 70
     1
  9
$MAXACTVP
 70
    48
  9
$PINSBASE
 10
0.0
 20
0.0
 30
0.0
  9
$PLIMCHECK
 70
     0
  9
$PEXTMIN
 10
1.000000000000000E+20
 20
1.000000000000000E+20
 30
1.000000000000000E+20
  9
$PEXTMAX
 10
-1.000000000000000E+20
 20
-1.000000000000000E+20
 30
-1.000000000000000E+20
  9
$PLIMMIN
 10
0.0
 20
0.0
  9
$PLIMMAX
 10
420.0
 20
297.0
  9
$UNITMODE
 70
     0
  9
$VISRETAIN
 70
     1
  9
$PLINEGEN
 70
     0
  9
$PSLTSCALE
 70
     1
  9
$TREEDEPTH
 70
  3020
  9
$CMLSTYLE
  2
Standard
  9
$CMLJUST
 70
     0
  9
$CMLSCALE
 40
1.0
  9
$PROXYGRAPHICS
 70
     1
  9
$MEASUREMENT
 70
     1
  9
$CELWEIGHT
370
    -1
  9
$ENDCAPS
280
     0
  9
$JOINSTYLE
280
     0
  9
$LWDISPLAY
290
     0
  9
$INSUNITS
 70
     0
  9
$HYPERLINKBASE
  1

  9
$STYLESHEET
  1

  9
$XEDIT
290
     1
  9
$CEPSNTYPE
380
     0
  9
$PSTYLEMODE
290
     1
  9
$FINGERPRINTGUID
  2
{991A5F1E-0671-41BB-A9C1-6311A94DF6AB}
  9
$VERSIONGUID
  2
{FEF6DB6D-8308-2F4A-9099-9E3FF61F23C2}
  9
$EXTNAMES
290
     1
  9
$PSVPSCALE
 40
0.0
  9
$OLESTARTUP
290
     0
  9
$SORTENTS
280
   127
  9
$INDEXCTL
280
     0
  9
$HIDETEXT
280
     1
  9
$XCLIPFRAME
280
     2
  9
$HALOGAP
280
     0
  9
$OBSCOLOR
 70
   257
  9
$OBSLTYPE
280
     0
  9
$INTERSECTIONDISPLAY
280
     0
  9
$INTERSECTIONCOLOR
 70
   257
  9
$DIMASSOC
280
     2
  9
$PROJECTNAME
  1

  9
$CAMERADISPLAY
290
     0
  9
$LENSLENGTH
 40
50.0
  9
$CAMERAHEIGHT
 40
0.0
  9
$STEPSPERSEC
 40
2.0
  9
$STEPSIZE
 40
6.0
  9
$3DDWFPREC
 40
2.0
  9
$PSOLWIDTH
 40
0.25
  9
$PSOLHEIGHT
 40
4.0
  9
$LOFTANG1
 40
1.570796326794896
  9
$LOFTANG2
 40
1.570796326794896
  9
$LOFTMAG1
 40
0.0
  9
$LOFTMAG2
 40
0.0
  9
$LOFTPARAM
 70
     7
  9
$LOFTNORMALS
280
     1
  9
$LATITUDE
 40
37.795
  9
$LONGITUDE
 40
-122.394
  9
$NORTHDIRECTION
 40
0.0
  9
$TIMEZONE
 70
 -8000
  9
$LIGHTGLYPHDISPLAY
280
     1
  9
$TILEMODELIGHTSYNCH
280
     1
  9
$CMATERIAL
347
E75E
  9
$SOLIDHIST
280
     0
  9
$SHOWHIST
280
     1
  9
$DWFFRAME
280
     2
  9
$DGNFRAME
280
     0
  9
$REALWORLDSCALE
290
     1
  9
$INTERFERECOLOR
 62
     1
  9
$INTERFEREOBJVS
345
E780
  9
$INTERFEREVPVS
346
E77D
  9
$CSHADOW
280
     0
  9
$SHADOWPLANELOCATION
 40
0.0
  0
ENDSEC
  0
SECTION
  2
CLASSES
  0
CLASS
  1
ACDBDICTIONARYWDFLT
  2
AcDbDictionaryWithDefault
  3
ObjectDBX Classes
 90
        0
 91
        1
280
     0
281
     0
  0
CLASS
  1
MATERIAL
  2
AcDbMaterial
  3
ObjectDBX Classes
 90
     1153
 91
        3
280
     0
281
     0
  0
CLASS
  1
VISUALSTYLE
  2
AcDbVisualStyle
  3
ObjectDBX Classes
 90
     4095
 91
       24
280
     0
281
     0
  0
CLASS
  1
SCALE
  2
AcDbScale
  3
ObjectDBX Classes
 90
     1153
 91
       17
280
     0
281
     0
  0
CLASS
  1
TABLESTYLE
  2
AcDbTableStyle
  3
ObjectDBX Classes
 90
     4095
 91
        1
280
     0
281
     0
  0
CLASS
  1
MLEADERSTYLE
  2
AcDbMLeaderStyle
  3
ACDB_MLEADERSTYLE_CLASS
 90
     4095
 91
        1
280
     0
281
     0
  0
CLASS
  1
ACDBSECTIONVIEWSTYLE
  2
AcDbSectionViewStyle
  3
ObjectDBX Classes
 90
     1025
 91
        2
280
     0
281
     0
  0
CLASS
  1
ACDBDETAILVIEWSTYLE
  2
AcDbDetailViewStyle
  3
ObjectDBX Classes
 90
     1025
 91
        2
280
     0
281
     0
  0
CLASS
  1
CELLSTYLEMAP
  2
AcDbCellStyleMap
  3
ObjectDBX Classes
 90
     1152
 91
        1
280
     0
281
     0
  0
CLASS
  1
DICTIONARYVAR
  2
AcDbDictionaryVar
  3
ObjectDBX Classes
 90
        0
 91
        9
280
     0
281
     0
  0
CLASS
  1
RAPIDRTRENDERSETTINGS
  2
AcDbRapidRTRenderSettings
  3
ObjectDBX Classes
 90
     1024
 91
        7
280
     0
281
     0
  0
CLASS
  1
MENTALRAYRENDERSETTINGS
  2
AcDbMentalRayRenderSettings
  3
SCENEOE
 90
     1024
 91
        1
280
     0
281
     0
  0
CLASS
  1
SORTENTSTABLE
  2
AcDbSortentsTable
  3
ObjectDBX Classes
 90
        0
 91
        1
280
     0
281
     0
  0
CLASS
  1
ACAD_EVALUATION_GRAPH
  2
AcDbEvalGraph
  3
ObjectDBX Classes
 90
     1153
 91
        0
280
     0
281
     0
  0
CLASS
  1
ACAECUSTOBJ
  2
AcAeEditorObj
  3
AcAeEditorObj
 90
     1024
 91
        0
280
     0
281
     0
  0
CLASS
  1
ACDB_DYNAMICBLOCKPURGEPREVENTER_VERSION
  2
AcDbDynamicBlockPurgePreventer
  3
ObjectDBX Classes
 90
     1153
 91
        0
280
     0
281
     0
  0
CLASS
  1
EXACXREFPANELOBJECT
  2
ExAcXREFPanelObject
  3
EXAC_ESW
 90
     1025
 91
        1
280
     0
281
     0
  0
CLASS
  1
NPOCOLLECTION
  2
AcDbImpNonPersistentObjectsCollection
  3
ObjectDBX Classes
 90
     1153
 91
        1
280
     0
281
     0
  0
ENDSEC
  0
SECTION
  2
TABLES
  0
TABLE
  2
VPORT
  5
E755
102
{ACAD_XDICTIONARY
360
E7F3
102
}
330
0
100
AcDbSymbolTable
 70
     1
  0
VPORT
  5
E7C4
330
E755
100
AcDbSymbolTableRecord
100
AcDbViewportTableRecord
  2
*ACTIVE
 70
     0
 10
0.0
 20
0.0
 11
1.0
 21
1.0
 12
14338.50801712704
 22
10180.81498186454
 13
0.0
 23
0.0
 14
10.0
 24
10.0
 15
10.0
 25
10.0
 16
0.0
 26
0.0
 36
1.0
 17
0.0
 27
0.0
 37
0.0
 40
20542.8903080093
 41
2.072916666666666
 42
50.0
 43
0.0
 44
0.0
 50
0.0
 51
0.0
 71
     0
 72
   100
 73
     1
 74
     1
 75
     0
 76
     0
 77
     0
 78
     0
281
     0
 65
     1
110
0.0
120
0.0
130
0.0
111
1.0
121
0.0
131
0.0
112
0.0
122
1.0
132
0.0
 79
     0
146
0.0
348
E77C
 60
     3
 61
     5
292
     1
282
     1
141
0.0
142
0.0
 63
   250
421
  3355443
1001
ACAD_NAV_VCDISPLAY
1070
     1
  0
ENDTAB
  0
TABLE
  2
LTYPE
  5
E752
330
0
100
AcDbSymbolTable
 70
     2
  0
LTYPE
  5
E7A7
330
E752
100
AcDbSymbolTableRecord
100
AcDbLinetypeTableRecord
  2
ByBlock
 70
     0
  3

 72
    65
 73
     0
 40
0.0
  0
LTYPE
  5
E7A8
330
E752
100
AcDbSymbolTableRecord
100
AcDbLinetypeTableRecord
  2
ByLayer
 70
     0
  3

 72
    65
 73
     0
 40
0.0
  0
LTYPE
  5
E7A9
330
E752
100
AcDbSymbolTableRecord
100
AcDbLinetypeTableRecord
  2
CONTINUOUS
 70
     0
  3
Solid line
 72
    65
 73
     0
 40
0.0
  0
LTYPE
  5
E7C1
330
E752
100
AcDbSymbolTableRecord
100
AcDbLinetypeTableRecord
  2
YCENTER_1
 70
     0
  3
中心線尺度1--- － --- － ---
 72
    65
 73
     4
 40
13.0
 49
10.0
 74
     0
 49
-1.0
 74
     0
 49
1.0
 74
     0
 49
-1.0
 74
     0
  0
ENDTAB
  0
TABLE
  2
LAYER
  5
E74F
102
{ACAD_XDICTIONARY
360
E7E2
102
}
330
0
100
AcDbSymbolTable
 70
     7
  0
LAYER
  5
E7A1
330
E74F
100
AcDbSymbolTableRecord
100
AcDbLayerTableRecord
  2
0
 70
     0
 62
     7
  6
CONTINUOUS
370
    -3
390
E75C
347
E76E
  0
LAYER
  5
E7D0
330
E74F
100
AcDbSymbolTableRecord
100
AcDbLayerTableRecord
  2
YKK_F1
 70
     0
 62
     7
  6
CONTINUOUS
370
    -3
390
E75C
347
E76E
  0
LAYER
  5
E7D1
330
E74F
100
AcDbSymbolTableRecord
100
AcDbLayerTableRecord
  2
YKK_A1
 70
     0
 62
     4
  6
CONTINUOUS
370
    -3
390
E75C
347
E76E
  0
LAYER
  5
E7D2
330
E74F
100
AcDbSymbolTableRecord
100
AcDbLayerTableRecord
  2
YKK_N1
 70
     0
 62
     2
  6
CONTINUOUS
370
    -3
390
E75C
347
E76E
  0
LAYER
  5
E7D3
330
E74F
100
AcDbSymbolTableRecord
100
AcDbLayerTableRecord
  2
YKK_B1
 70
     0
 62
     4
  6
CONTINUOUS
370
    -3
390
E75C
347
E76E
  0
LAYER
  5
E7D5
330
E74F
100
AcDbSymbolTableRecord
100
AcDbLayerTableRecord
  2
YKK_Z1
 70
     0
 62
     7
  6
CONTINUOUS
370
    -3
390
E75C
347
E76E
  0
LAYER
  5
14E6A
330
E74F
100
AcDbSymbolTableRecord
100
AcDbLayerTableRecord
  2
YKK_IN
 70
     0
 62
     1
  6
CONTINUOUS
370
    -3
390
E75C
347
E76E
  0
ENDTAB
  0
TABLE
  2
STYLE
  5
E750
330
0
100
AcDbSymbolTable
 70
     1
  0
STYLE
  5
E7A2
330
E750
100
AcDbSymbolTableRecord
100
AcDbTextStyleTableRecord
  2
STANDARD
 70
     0
 40
0.0
 41
1.0
 50
0.0
 71
     0
 42
2.5
  3
txt.shx
  4
bigfont.shx
  0
ENDTAB
  0
TABLE
  2
VIEW
  5
E753
330
0
100
AcDbSymbolTable
 70
     0
  0
ENDTAB
  0
TABLE
  2
UCS
  5
E754
330
0
100
AcDbSymbolTable
 70
     0
  0
ENDTAB
  0
TABLE
  2
APPID
  5
E756
330
0
100
AcDbSymbolTable
 70
    54
  0
APPID
  5
E7A3
330
E756
100
AcDbSymbolTableRecord
100
AcDbRegAppTableRecord
  2
ACAD
 70
     0
  0
APPID
  5
E7C5
330
E756
100
AcDbSymbolTableRecord
100
AcDbRegAppTableRecord
  2
YKK_AP_LOCKLAYER
 70
     0
  0
APPID
  5
E7C6
330
E756
100
AcDbSymbolTableRecord
100
AcDbRegAppTableRecord
  2
YTEXT_INFOMATION
 70
     0
  0
APPID
  5
E7C7
330
E756
100
AcDbSymbolTableRecord
100
AcDbRegAppTableRecord
  2
GENIUS_GENODEF_13
 70
     0
  0
APPID
  5
E7C8
330
E756
100
AcDbSymbolTableRecord
100
AcDbRegAppTableRecord
  2
YOBJCUT10106162730
 70
     0
  0
APPID
  5
E7C9
330
E756
100
AcDbSymbolTableRecord
100
AcDbRegAppTableRecord
  2
YOBJCUT10106162742
 70
     0
  0
APPID
  5
E7CA
330
E756
100
AcDbSymbolTableRecord
100
AcDbRegAppTableRecord
  2
YOBJCUT10106162748
 70
     0
  0
APPID
  5
E7CB
330
E756
100
AcDbSymbolTableRecord
100
AcDbRegAppTableRecord
  2
YOBJCUT10106165759
 70
     0
  0
APPID
  5
E7CC
330
E756
100
AcDbSymbolTableRecord
100
AcDbRegAppTableRecord
  2
GENIUS_GENOBJ-N-FIL_13
 70
     0
  0
APPID
  5
E7CD
330
E756
100
AcDbSymbolTableRecord
100
AcDbRegAppTableRecord
  2
ACAD_EXEMPT_FROM_CAD_STANDARDS
 70
     0
  0
APPID
  5
E7CE
330
E756
100
AcDbSymbolTableRecord
100
AcDbRegAppTableRecord
  2
ACAD_MLEADERVER
 70
     0
  0
APPID
  5
E7CF
330
E756
100
AcDbSymbolTableRecord
100
AcDbRegAppTableRecord
  2
ACADANNOTATIVE
 70
     0
  0
APPID
  5
E7AA
330
E756
100
AcDbSymbolTableRecord
100
AcDbRegAppTableRecord
  2
AUDIT_D_160831140635-288
 70
     0
  0
APPID
  5
E7DE
330
E756
100
AcDbSymbolTableRecord
100
AcDbRegAppTableRecord
  2
ACAD_NAV_VCDISPLAY
 70
     0
  0
APPID
  5
F283
330
E756
100
AcDbSymbolTableRecord
100
AcDbRegAppTableRecord
  2
AcAecLayerStandard
 70
     0
  0
APPID
  5
F284
330
E756
100
AcDbSymbolTableRecord
100
AcDbRegAppTableRecord
  2
ACAD_PSEXT
 70
     0
  0
APPID
  5
10888
330
E756
100
AcDbSymbolTableRecord
100
AcDbRegAppTableRecord
  2
ACAD_DSTYLE_DIMJAG
 70
     0
  0
APPID
  5
10889
330
E756
100
AcDbSymbolTableRecord
100
AcDbRegAppTableRecord
  2
ACAD_DSTYLE_DIMTALN
 70
     0
  0
APPID
  5
1088A
330
E756
100
AcDbSymbolTableRecord
100
AcDbRegAppTableRecord
  2
YGROUP_INFOMATION
 70
     0
  0
APPID
  5
1088B
330
E756
100
AcDbSymbolTableRecord
100
AcDbRegAppTableRecord
  2
ACAD_DSTYLE_DIMJOGGED_JOGANGLE_SYMBOL
 70
     0
  0
APPID
  5
1088C
330
E756
100
AcDbSymbolTableRecord
100
AcDbRegAppTableRecord
  2
ACAD_DSTYLE_DIMBREAK
 70
     0
  0
APPID
  5
11176
330
E756
100
AcDbSymbolTableRecord
100
AcDbRegAppTableRecord
  2
YGROUPINFO
 70
     0
  0
APPID
  5
117FF
330
E756
100
AcDbSymbolTableRecord
100
AcDbRegAppTableRecord
  2
Acad_TC
 70
     0
  0
APPID
  5
11B75
330
E756
100
AcDbSymbolTableRecord
100
AcDbRegAppTableRecord
  2
ACAD_DSTYLE_DIMTEXT_FILL
 70
     0
  0
APPID
  5
11B76
330
E756
100
AcDbSymbolTableRecord
100
AcDbRegAppTableRecord
  2
AcDbDynamicBlockGUID
 70
     0
  0
APPID
  5
15FD7
330
E756
100
AcDbSymbolTableRecord
100
AcDbRegAppTableRecord
  2
GradientColor1ACI
 70
     0
  0
APPID
  5
15FD8
330
E756
100
AcDbSymbolTableRecord
100
AcDbRegAppTableRecord
  2
GradientColor2ACI
 70
     0
  0
APPID
  5
15FD9
330
E756
100
AcDbSymbolTableRecord
100
AcDbRegAppTableRecord
  2
YOBJCUT11101132421
 70
     0
  0
APPID
  5
15FDA
330
E756
100
AcDbSymbolTableRecord
100
AcDbRegAppTableRecord
  2
YOBJCUT11009184053
 70
     0
  0
APPID
  5
15FDB
330
E756
100
AcDbSymbolTableRecord
100
AcDbRegAppTableRecord
  2
YOBJCUT11009184059
 70
     0
  0
APPID
  5
15FDC
330
E756
100
AcDbSymbolTableRecord
100
AcDbRegAppTableRecord
  2
YOBJCUT11009111508
 70
     0
  0
APPID
  5
15FDD
330
E756
100
AcDbSymbolTableRecord
100
AcDbRegAppTableRecord
  2
YOBJCUT11009111513
 70
     0
  0
APPID
  5
15FDE
330
E756
100
AcDbSymbolTableRecord
100
AcDbRegAppTableRecord
  2
YOBJCUT11009111523
 70
     0
  0
APPID
  5
15FDF
330
E756
100
AcDbSymbolTableRecord
100
AcDbRegAppTableRecord
  2
YOBJCUT11009111533
 70
     0
  0
APPID
  5
15FE0
330
E756
100
AcDbSymbolTableRecord
100
AcDbRegAppTableRecord
  2
YOBJCUT11018190538
 70
     0
  0
APPID
  5
15FE1
330
E756
100
AcDbSymbolTableRecord
100
AcDbRegAppTableRecord
  2
YOBJCUT11018190752
 70
     0
  0
APPID
  5
15FE2
330
E756
100
AcDbSymbolTableRecord
100
AcDbRegAppTableRecord
  2
YOBJCUT11018191904
 70
     0
  0
APPID
  5
15FE3
330
E756
100
AcDbSymbolTableRecord
100
AcDbRegAppTableRecord
  2
YOBJCUT11018192006
 70
     0
  0
APPID
  5
15FE4
330
E756
100
AcDbSymbolTableRecord
100
AcDbRegAppTableRecord
  2
YOBJCUT11018192410
 70
     0
  0
APPID
  5
15FE5
330
E756
100
AcDbSymbolTableRecord
100
AcDbRegAppTableRecord
  2
YOBJCUT11018192302
 70
     0
  0
APPID
  5
19F5E
330
E756
100
AcDbSymbolTableRecord
100
AcDbRegAppTableRecord
  2
YOBJCUT11009112847
 70
     0
  0
APPID
  5
19F5F
330
E756
100
AcDbSymbolTableRecord
100
AcDbRegAppTableRecord
  2
YOBJCUT11009112859
 70
     0
  0
APPID
  5
19F60
330
E756
100
AcDbSymbolTableRecord
100
AcDbRegAppTableRecord
  2
YOBJCUT11009112905
 70
     0
  0
APPID
  5
19F61
330
E756
100
AcDbSymbolTableRecord
100
AcDbRegAppTableRecord
  2
YOBJCUT11009112854
 70
     0
  0
APPID
  5
19F62
330
E756
100
AcDbSymbolTableRecord
100
AcDbRegAppTableRecord
  2
YOBJCUT11009193237
 70
     0
  0
APPID
  5
19F63
330
E756
100
AcDbSymbolTableRecord
100
AcDbRegAppTableRecord
  2
YOBJCUT11009193301
 70
     0
  0
APPID
  5
19F64
330
E756
100
AcDbSymbolTableRecord
100
AcDbRegAppTableRecord
  2
YOBJCUT11009193308
 70
     0
  0
APPID
  5
1A227
330
E756
100
AcDbSymbolTableRecord
100
AcDbRegAppTableRecord
  2
ACAUTHENVIRON
 70
     0
  0
APPID
  5
1A22A
330
E756
100
AcDbSymbolTableRecord
100
AcDbRegAppTableRecord
  2
AcDbDynamicBlockTrueName
 70
     0
  0
APPID
  5
1B092
330
E756
100
AcDbSymbolTableRecord
100
AcDbRegAppTableRecord
  2
YOBJCUT11009182212
 70
     0
  0
APPID
  5
1B093
330
E756
100
AcDbSymbolTableRecord
100
AcDbRegAppTableRecord
  2
YOBJCUT11009182230
 70
     0
  0
APPID
  5
1B094
330
E756
100
AcDbSymbolTableRecord
100
AcDbRegAppTableRecord
  2
YOBJCUT11009182219
 70
     0
  0
APPID
  5
1B095
330
E756
100
AcDbSymbolTableRecord
100
AcDbRegAppTableRecord
  2
YOBJCUT11009182225
 70
     0
  0
APPID
  5
1C94E
330
E756
100
AcDbSymbolTableRecord
100
AcDbRegAppTableRecord
  2
YACAD
 70
     0
  0
ENDTAB
  0
TABLE
  2
DIMSTYLE
  5
E757
330
0
100
AcDbSymbolTable
 70
     1
100
AcDbDimStyleTable
 71
     1
340
E7A4
  0
DIMSTYLE
105
E7A4
330
E757
100
AcDbSymbolTableRecord
100
AcDbDimStyleTableRecord
  2
STANDARD
 70
     0
274
     4
279
     2
284
     8
285
     8
286
     8
340
E7A2
  0
ENDTAB
  0
TABLE
  2
BLOCK_RECORD
  5
E74E
330
0
100
AcDbSymbolTable
 70
     1
  0
BLOCK_RECORD
  5
E7BC
102
{ACAD_XDICTIONARY
360
11178
102
}
330
E74E
100
AcDbSymbolTableRecord
100
AcDbBlockTableRecord
  2
*Model_Space
340
E7BF
 70
     0
280
     1
281
     0
  0
BLOCK_RECORD
  5
E7B8
330
E74E
100
AcDbSymbolTableRecord
100
AcDbBlockTableRecord
  2
*Paper_Space
340
E7BB
 70
     0
280
     1
281
     0
  0
BLOCK_RECORD
  5
1C94A
330
E74E
100
AcDbSymbolTableRecord
100
AcDbBlockTableRecord
  2
_Small
340
0
 70
     0
280
     1
281
     0
  0
ENDTAB
  0
ENDSEC
  0
SECTION
  2
BLOCKS
  0
BLOCK
  5
E7D8
330
E7BC
100
AcDbEntity
  8
0
100
AcDbBlockBegin
  2
*Model_Space
 70
     0
 10
0.0
 20
0.0
 30
0.0
  3
*Model_Space
  1

  0
ENDBLK
  5
E7D9
330
E7BC
100
AcDbEntity
  8
0
100
AcDbBlockEnd
  0
BLOCK
  5
E7D6
330
E7B8
100
AcDbEntity
 67
     1
  8
0
100
AcDbBlockBegin
  2
*Paper_Space
 70
     0
 10
0.0
 20
0.0
 30
0.0
  3
*Paper_Space
  1

  0
ENDBLK
  5
E7D7
330
E7B8
100
AcDbEntity
 67
     1
  8
0
100
AcDbBlockEnd
  0
BLOCK
  5
1C94C
330
1C94A
100
AcDbEntity
  8
0
100
AcDbBlockBegin
  2
_Small
 70
     0
 10
0.0
 20
0.0
 30
0.0
  3
_Small
  1

  0
CIRCLE
  5
1C94B
330
1C94A
100
AcDbEntity
  8
0
  6
ByBlock
 62
     0
370
    -2
100
AcDbCircle
 10
0.0
 20
0.0
 30
0.0
 40
0.25
  0
ENDBLK
  5
1C94D
330
1C94A
100
AcDbEntity
  8
0
100
AcDbBlockEnd
  0
ENDSEC
  0
SECTION
  2
ENTITIES
  0
LINE
  5
6CD5
330
E7BC
100
AcDbEntity
  8
YKK_F1
100
AcDbLine
 10
-2.0
 20
15165.0
 30
0.0
 11
28498.0
 21
15165.0
 31
0.0
  0
LINE
  5
6CD6
330
E7BC
100
AcDbEntity
  8
YKK_F1
100
AcDbLine
 10
-2.0
 20
14714.99999999999
 30
0.0
 11
28498.0
 21
14714.99999999999
 31
0.0
  0
LINE
  5
6CD7
330
E7BC
100
AcDbEntity
  8
YKK_F1
100
AcDbLine
 10
-2.0
 20
14265.0
 30
0.0
 11
28498.0
 21
14265.0
 31
0.0
  0
LINE
  5
6CD8
330
E7BC
100
AcDbEntity
  8
YKK_F1
100
AcDbLine
 10
-2.0
 20
20000.0
 30
0.0
 11
28679.0155
 21
20000.0
 31
0.0
  0
LINE
  5
6CD9
330
E7BC
100
AcDbEntity
  8
YKK_F1
100
AcDbLine
 10
-2.0
 20
19500.0
 30
0.0
 11
28498.0
 21
19500.0
 31
0.0
  0
LINE
  5
6CDA
330
E7BC
100
AcDbEntity
  8
YKK_F1
100
AcDbLine
 10
-2.0
 20
19050.0
 30
0.0
 11
28498.0
 21
19050.0
 31
0.0
  0
LINE
  5
6CDB
330
E7BC
100
AcDbEntity
  8
YKK_F1
100
AcDbLine
 10
-2.0
 20
18600.0
 30
0.0
 11
28498.0
 21
18600.0
 31
0.0
  0
LINE
  5
6CDC
330
E7BC
100
AcDbEntity
  8
YKK_F1
100
AcDbLine
 10
-2.0
 20
10380.0
 30
0.0
 11
28498.0
 21
10380.0
 31
0.0
  0
LINE
  5
6CDD
330
E7BC
100
AcDbEntity
  8
YKK_F1
100
AcDbLine
 10
-2.0
 20
10830.0
 30
0.0
 11
28498.0
 21
10830.0
 31
0.0
  0
LINE
  5
6CDE
330
E7BC
100
AcDbEntity
  8
YKK_F1
100
AcDbLine
 10
-2.0
 20
0.0
 30
0.0
 11
28679.0155
 21
0.0
 31
0.0
  0
LINE
  5
6CDF
330
E7BC
100
AcDbEntity
  8
YKK_F1
100
AcDbLine
 10
-2.0
 20
2797.500000000002
 30
0.0
 11
22798.0
 21
2797.500000000003
 31
0.0
  0
LINE
  5
6CE0
330
E7BC
100
AcDbEntity
  8
YKK_F1
100
AcDbLine
 10
-2.0
 20
3247.500000000002
 30
0.0
 11
22798.0
 21
3247.500000000003
 31
0.0
  0
LINE
  5
6CE1
330
E7BC
100
AcDbEntity
  8
YKK_F1
100
AcDbLine
 10
-2.0
 20
6045.000000000004
 30
0.0
 11
28498.0
 21
6045.000000000004
 31
0.0
  0
LINE
  5
6CE2
330
E7BC
100
AcDbEntity
  8
YKK_F1
100
AcDbLine
 10
-2.0
 20
6495.000000000003
 30
0.0
 11
28498.0
 21
6495.000000000003
 31
0.0
  0
LINE
  5
6CE3
330
E7BC
100
AcDbEntity
  8
YKK_F1
100
AcDbLine
 10
-2.0
 20
9930.0
 30
0.0
 11
28498.0
 21
9930.0
 31
0.0
  0
LINE
  5
6CE4
330
E7BC
100
AcDbEntity
  8
YKK_F1
100
AcDbLine
 10
5698.0
 20
0.0
 30
0.0
 11
5698.0
 21
19500.0
 31
0.0
  0
LINE
  5
6CE5
330
E7BC
100
AcDbEntity
  8
YKK_F1
100
AcDbLine
 10
11398.0
 20
0.0
 30
0.0
 11
11398.0
 21
19500.0
 31
0.0
  0
LINE
  5
6CE6
330
E7BC
100
AcDbEntity
  8
YKK_F1
100
AcDbLine
 10
-2.0
 20
0.0
 30
0.0
 11
-2.0
 21
20000.0
 31
0.0
  0
LINE
  5
6CEC
330
E7BC
100
AcDbEntity
  8
YKK_F1
100
AcDbLine
 10
17098.0
 20
0.0
 30
0.0
 11
17098.0
 21
19500.0
 31
0.0
  0
LINE
  5
6CED
330
E7BC
100
AcDbEntity
  8
YKK_F1
100
AcDbLine
 10
22798.0
 20
0.0
 30
0.0
 11
22798.0
 21
19500.0
 31
0.0
  0
LINE
  5
6CEE
330
E7BC
100
AcDbEntity
  8
YKK_F1
100
AcDbLine
 10
28498.0
 20
0.0
 30
0.0
 11
28498.0
 21
20000.0
 31
0.0
  0
LINE
  5
6CEF
330
E7BC
100
AcDbEntity
  8
YKK_F1
100
AcDbLine
 10
28679.0155
 20
0.0
 30
0.0
 11
28679.0155
 21
20000.0
 31
0.0
  0
TEXT
  5
78AE
330
E7BC
100
AcDbEntity
  8
0
100
AcDbText
 10
98.0
 20
19187.50000000001
 30
0.0
 40
175.0
  1
トレンド 片引き戸(3枚建) TNA
100
AcDbText
1001
YTEXT_INFOMATION
1002
{
1000
オーソドックス 片開きドア MDA-BEラフォレスタ  室内ドア䈀䰀਀
1002
}
1000
BL
1010
-11.66666666666788
1020
0.0000000000000014
1030
0.0
1040
175.0
1070
     0
1002
{
1000
TEXTOBJECTS
1000
56E8
1002
}
  0
TEXT
  5
14728
330
E7BC
100
AcDbEntity
  8
0
100
AcDbText
 10
500.000000000005
 20
19625.0
 30
0.0
 40
250.0
  1
BWKCK07  木質インテリア建材 Smayell(スマエル) 室内引戸 上吊りタイプ トレンド 片引き戸(3枚建) 呼称幅(W)322 意匠図
100
AcDbText
1001
YTEXT_INFOMATION
1002
{
1000
ＭＤＡＯ＿Ｋ０１  木質インテリア建材  ラフォレスタ  室内ドア  オーソドックス(フラッシュ構造)  片開きドア  呼称幅０７３92EĂ
1002
}
1000
BL
1010
0.0
1020
0.0
1030
0.0
1040
250.0
1070
     0
1002
{
1000
TEXTOBJECTS
1000
14728
1002
}
  0
TEXT
  5
14733
330
E7BC
100
AcDbEntity
  8
0
100
AcDbText
 10
100.0
 20
18737.50000000001
 30
0.0
 40
175.0
  1
W=3,228 H=2,033
100
AcDbText
1001
YTEXT_INFOMATION
1002
{
1000
W=733 H=2,033
1002
}
1000
BL
1010
0.0000000000000018
1020
29.16666666666788
1030
0.0
1040
175.0
1070
     0
1002
{
1000
TEXTOBJECTS
1000
14733
1002
}
  0
TEXT
  5
187E4
330
E7BC
100
AcDbEntity
  8
0
100
AcDbText
 10
106.0
 20
6095.000000000003
 30
0.0
 40
175.0
  1
見込210/ラウンドレール
100
AcDbText
1001
YTEXT_INFOMATION
1002
{
1000
枠見込み156/上吊りタイプ$$$$$
1002
}
1000
BL
1010
0.0
1020
0.0
1030
0.0
1040
100.0
1070
     0
1002
{
1000
TEXTOBJECTS
1000
187E4
1002
}
  0
TEXT
  5
187E5
330
E7BC
100
AcDbEntity
  8
0
100
AcDbText
 10
106.0
 20
6270.000000000003
 30
0.0
 40
175.0
  1
ノンケーシングタイプ3方枠
100
AcDbText
1001
YTEXT_INFOMATION
1002
{
1000
ノンケーシングタイプ3方枠プ専用床見切(アルミ)$$$$$$$$$$嬬$$$啕啕쀷嬬딨볷㳩
1002
}
1000
BL
1010
-23.33333333333333
1020
0.0000000000000029
1030
0.0
1040
175.0
1070
     0
1002
{
1000
TEXTOBJECTS
1000
187E5
1002
}
  0
TEXT
  5
187EA
330
E7BC
100
AcDbEntity
  8
0
100
AcDbText
 10
105.9999999999998
 20
2847.500000000002
 30
0.0
 40
175.0
  1
見込201/ラウンドレール
100
AcDbText
1001
YTEXT_INFOMATION
1002
{
1000
枠見込み156/上吊りタイプ$$$$$
1002
}
1000
BL
1010
0.0
1020
0.0
1030
0.0
1040
100.0
1070
     0
1002
{
1000
TEXTOBJECTS
1000
187EA
1002
}
  0
TEXT
  5
187EB
330
E7BC
100
AcDbEntity
  8
0
100
AcDbText
 10
105.9999999999998
 20
3022.500000000002
 30
0.0
 40
175.0
  1
ケーシングタイプ3方枠
100
AcDbText
1001
YTEXT_INFOMATION
1002
{
1000
ノンケーシングタイプ3方枠プ専用床見切(アルミ)$$$$$$$$$$嬬$$$啕啕쀷嬬딨볷㳩
1002
}
1000
BL
1010
-23.33333333333333
1020
0.0000000000000029
1030
0.0
1040
175.0
1070
     0
1002
{
1000
TEXTOBJECTS
1000
187EB
1002
}
  0
LINE
  5
1AAE5
330
E7BC
100
AcDbEntity
  8
YKK_A1
100
AcDbLine
 10
1134.0
 20
15952.5000000001
 30
0.0
 11
1154.0
 21
15952.5000000001
 31
0.0
  0
LINE
  5
1AAE6
330
E7BC
100
AcDbEntity
  8
YKK_A1
100
AcDbLine
 10
1154.0
 20
15952.5000000001
 30
0.0
 11
1154.0
 21
17985.5000000001
 31
0.0
  0
LINE
  5
1AAE7
330
E7BC
100
AcDbEntity
  8
YKK_A1
100
AcDbLine
 10
1158.0
 20
17985.5000000001
 30
0.0
 11
1134.0
 21
17985.5000000001
 31
0.0
  0
LINE
  5
1AAE8
330
E7BC
100
AcDbEntity
  8
YKK_A1
100
AcDbLine
 10
1134.0
 20
17985.5000000001
 30
0.0
 11
1134.0
 21
15952.5000000001
 31
0.0
  0
LINE
  5
1AAE9
330
E7BC
100
AcDbEntity
  8
YKK_A1
100
AcDbLine
 10
1158.0
 20
17961.5000000001
 30
0.0
 11
4342.0
 21
17961.5000000001
 31
0.0
  0
LINE
  5
1AAEA
330
E7BC
100
AcDbEntity
  8
YKK_A1
100
AcDbLine
 10
4338.0
 20
17985.5000000001
 30
0.0
 11
1158.0
 21
17985.5000000001
 31
0.0
  0
LINE
  5
1AAEB
330
E7BC
100
AcDbEntity
  8
YKK_A1
100
AcDbLine
 10
4342.0
 20
15952.5000000001
 30
0.0
 11
4362.0
 21
15952.5000000001
 31
0.0
  0
LINE
  5
1AAEC
330
E7BC
100
AcDbEntity
  8
YKK_A1
100
AcDbLine
 10
4362.0
 20
15952.5000000001
 30
0.0
 11
4362.0
 21
17985.5000000001
 31
0.0
  0
LINE
  5
1AAED
330
E7BC
100
AcDbEntity
  8
YKK_A1
100
AcDbLine
 10
4362.0
 20
17985.5000000001
 30
0.0
 11
4338.0
 21
17985.5000000001
 31
0.0
  0
LINE
  5
1AAEE
330
E7BC
100
AcDbEntity
  8
YKK_A1
100
AcDbLine
 10
4342.0
 20
17985.5000000001
 30
0.0
 11
4342.0
 21
15952.5000000001
 31
0.0
  0
LINE
  5
1AAF1
330
E7BC
100
AcDbEntity
  8
YKK_A1
100
AcDbLine
 10
1158.0
 20
17934.5000000001
 30
0.0
 11
4342.0
 21
17934.5000000001
 31
0.0
  0
LINE
  5
1AAF4
102
{ACAD_REACTORS
330
1ABA0
330
1ABA1
330
1ABA2
330
1ABA3
102
}
330
E7BC
100
AcDbEntity
  8
YKK_A1
100
AcDbLine
 10
4275.500006163929
 20
16825.49994661273
 30
0.0
 11
4315.500006163929
 21
16825.49994661273
 31
0.0
  0
LINE
  5
1AAF5
102
{ACAD_REACTORS
330
1ABA0
330
1ABA1
330
1ABA2
330
1ABA3
102
}
330
E7BC
100
AcDbEntity
  8
YKK_A1
100
AcDbLine
 10
4275.500006163929
 20
16955.49994661273
 30
0.0
 11
4315.500006163929
 21
16955.49994661273
 31
0.0
  0
ARC
  5
1AAF6
102
{ACAD_REACTORS
330
1ABA3
102
}
330
E7BC
100
AcDbEntity
  8
YKK_A1
100
AcDbCircle
 10
4315.500006163929
 20
16954.49994661267
 30
0.0
 40
1.0
100
AcDbArc
 50
0.0
 51
90.0
  0
LINE
  5
1AAF7
102
{ACAD_REACTORS
330
1ABA0
330
1ABA1
330
1ABA2
330
1ABA3
102
}
330
E7BC
100
AcDbEntity
  8
YKK_A1
100
AcDbLine
 10
4316.50000616393
 20
16826.49994661273
 30
0.0
 11
4316.50000616393
 21
16954.49994661267
 31
0.0
  0
LINE
  5
1AAF8
102
{ACAD_REACTORS
330
1ABA0
330
1ABA1
330
1ABA2
330
1ABA3
102
}
330
E7BC
100
AcDbEntity
  8
YKK_A1
100
AcDbLine
 10
4274.500006163928
 20
16826.49994661273
 30
0.0
 11
4274.500006163928
 21
16954.49994661267
 31
0.0
  0
ARC
  5
1AAF9
102
{ACAD_REACTORS
330
1ABA3
102
}
330
E7BC
100
AcDbEntity
  8
YKK_A1
100
AcDbCircle
 10
4275.500006163929
 20
16954.49994661267
 30
0.0
 40
1.0
100
AcDbArc
 50
90.0
 51
180.0
  0
LINE
  5
1AAFA
102
{ACAD_REACTORS
330
1ABA0
330
1ABA1
330
1ABA3
102
}
330
E7BC
100
AcDbEntity
  8
YKK_A1
100
AcDbLine
 10
4280.500002980289
 20
16944.49994880925
 30
0.0
 11
4280.499999613529
 21
16836.49994880925
 31
0.0
  0
ARC
  5
1AAFB
102
{ACAD_REACTORS
330
1ABA0
330
1ABA1
330
1ABA3
102
}
330
E7BC
100
AcDbEntity
  8
YKK_A1
100
AcDbCircle
 10
4281.500002980261
 20
16944.49994877811
 30
0.0
 40
1.0
100
AcDbArc
 50
90.0
 51
179.999998213912
  0
ARC
  5
1AAFC
102
{ACAD_REACTORS
330
1ABA0
330
1ABA1
330
1ABA3
102
}
330
E7BC
100
AcDbEntity
  8
YKK_A1
100
AcDbCircle
 10
4281.499999613529
 20
16836.49994877804
 30
0.0
 40
1.0
100
AcDbArc
 50
179.999998213912
 51
270.0
  0
LINE
  5
1AAFD
102
{ACAD_REACTORS
330
1ABA0
330
1ABA1
330
1ABA3
102
}
330
E7BC
100
AcDbEntity
  8
YKK_A1
100
AcDbLine
 10
4281.499999613529
 20
16835.49994877805
 30
0.0
 11
4309.499999613529
 21
16835.49994877805
 31
0.0
  0
ARC
  5
1AAFE
102
{ACAD_REACTORS
330
1ABA0
330
1ABA1
330
1ABA3
102
}
330
E7BC
100
AcDbEntity
  8
YKK_A1
100
AcDbCircle
 10
4309.499999613529
 20
16836.49994877804
 30
0.0
 40
1.0
100
AcDbArc
 50
270.0
 51
359.999998213912
  0
LINE
  5
1AAFF
102
{ACAD_REACTORS
330
1ABA0
330
1ABA1
330
1ABA3
102
}
330
E7BC
100
AcDbEntity
  8
YKK_A1
100
AcDbLine
 10
4310.499999613528
 20
16836.49994874685
 30
0.0
 11
4310.500002980145
 21
16944.49994874674
 31
0.0
  0
ARC
  5
1AB00
102
{ACAD_REACTORS
330
1ABA0
330
1ABA1
330
1ABA3
102
}
330
E7BC
100
AcDbEntity
  8
YKK_A1
100
AcDbCircle
 10
4309.500002980144
 20
16944.49994877811
 30
0.0
 40
1.0
100
AcDbArc
 50
359.9999982055743
 51
90.0
  0
LINE
  5
1AB01
102
{ACAD_REACTORS
330
1ABA0
330
1ABA1
330
1ABA3
102
}
330
E7BC
100
AcDbEntity
  8
YKK_A1
100
AcDbLine
 10
4309.500002980144
 20
16945.49994877805
 30
0.0
 11
4281.500002980261
 21
16945.49994877805
 31
0.0
  0
ARC
  5
1AB02
102
{ACAD_REACTORS
330
1ABA3
102
}
330
E7BC
100
AcDbEntity
  8
YKK_A1
100
AcDbCircle
 10
4315.500006163929
 20
16826.49994661273
 30
0.0
 40
1.0
100
AcDbArc
 50
270.0
 51
0.0
  0
ARC
  5
1AB03
102
{ACAD_REACTORS
330
1ABA3
102
}
330
E7BC
100
AcDbEntity
  8
YKK_A1
100
AcDbCircle
 10
4275.500006163929
 20
16826.49994661273
 30
0.0
 40
1.0
100
AcDbArc
 50
180.0
 51
270.0
  0
LINE
  5
1AB04
102
{ACAD_REACTORS
330
1ABA4
330
1ABA5
330
1ABA6
330
1ABA7
102
}
330
E7BC
100
AcDbEntity
  8
YKK_A1
100
AcDbLine
 10
2805.499993836014
 20
16825.49994661273
 30
0.0
 11
2765.499993836014
 21
16825.49994661273
 31
0.0
  0
LINE
  5
1AB05
102
{ACAD_REACTORS
330
1ABA4
330
1ABA5
330
1ABA6
330
1ABA7
102
}
330
E7BC
100
AcDbEntity
  8
YKK_A1
100
AcDbLine
 10
2805.499993836014
 20
16955.49994661273
 30
0.0
 11
2765.499993836014
 21
16955.49994661273
 31
0.0
  0
ARC
  5
1AB06
102
{ACAD_REACTORS
330
1ABA4
102
}
330
E7BC
100
AcDbEntity
  8
YKK_A1
100
AcDbCircle
 10
2765.499993836014
 20
16954.49994661267
 30
0.0
 40
1.0
100
AcDbArc
 50
90.0
 51
180.0
  0
LINE
  5
1AB07
102
{ACAD_REACTORS
330
1ABA4
330
1ABA5
330
1ABA6
330
1ABA7
102
}
330
E7BC
100
AcDbEntity
  8
YKK_A1
100
AcDbLine
 10
2764.499993835983
 20
16826.49994661273
 30
0.0
 11
2764.499993835983
 21
16954.49994661267
 31
0.0
  0
LINE
  5
1AB08
102
{ACAD_REACTORS
330
1ABA4
330
1ABA5
330
1ABA6
330
1ABA7
102
}
330
E7BC
100
AcDbEntity
  8
YKK_A1
100
AcDbLine
 10
2806.499993835983
 20
16826.49994661273
 30
0.0
 11
2806.499993835983
 21
16954.49994661267
 31
0.0
  0
ARC
  5
1AB09
102
{ACAD_REACTORS
330
1ABA4
102
}
330
E7BC
100
AcDbEntity
  8
YKK_A1
100
AcDbCircle
 10
2805.499993836014
 20
16954.49994661267
 30
0.0
 40
1.0
100
AcDbArc
 50
0.0
 51
90.0
  0
LINE
  5
1AB0A
102
{ACAD_REACTORS
330
1ABA4
330
1ABA6
330
1ABA7
102
}
330
E7BC
100
AcDbEntity
  8
YKK_A1
100
AcDbLine
 10
2800.499997019652
 20
16944.49994880925
 30
0.0
 11
2800.500000386412
 21
16836.49994880925
 31
0.0
  0
ARC
  5
1AB0B
102
{ACAD_REACTORS
330
1ABA4
330
1ABA6
330
1ABA7
102
}
330
E7BC
100
AcDbEntity
  8
YKK_A1
100
AcDbCircle
 10
2799.499997019653
 20
16944.49994877811
 30
0.0
 40
1.0
100
AcDbArc
 50
0.0000017860879607
 51
90.0
  0
ARC
  5
1AB0C
102
{ACAD_REACTORS
330
1ABA4
330
1ABA6
330
1ABA7
102
}
330
E7BC
100
AcDbEntity
  8
YKK_A1
100
AcDbCircle
 10
2799.500000386383
 20
16836.49994877804
 30
0.0
 40
1.0
100
AcDbArc
 50
270.0
 51
0.0000017860879607
  0
LINE
  5
1AB0D
102
{ACAD_REACTORS
330
1ABA4
330
1ABA6
330
1ABA7
102
}
330
E7BC
100
AcDbEntity
  8
YKK_A1
100
AcDbLine
 10
2799.500000386383
 20
16835.49994877805
 30
0.0
 11
2771.500000386383
 21
16835.49994877805
 31
0.0
  0
ARC
  5
1AB0E
102
{ACAD_REACTORS
330
1ABA4
330
1ABA6
330
1ABA7
102
}
330
E7BC
100
AcDbEntity
  8
YKK_A1
100
AcDbCircle
 10
2771.500000386383
 20
16836.49994877804
 30
0.0
 40
1.0
100
AcDbArc
 50
180.0000017860879
 51
270.0
  0
LINE
  5
1AB0F
102
{ACAD_REACTORS
330
1ABA4
330
1ABA6
330
1ABA7
102
}
330
E7BC
100
AcDbEntity
  8
YKK_A1
100
AcDbLine
 10
2770.500000386411
 20
16836.49994874685
 30
0.0
 11
2770.499997019797
 21
16944.49994874674
 31
0.0
  0
ARC
  5
1AB10
102
{ACAD_REACTORS
330
1ABA4
330
1ABA6
330
1ABA7
102
}
330
E7BC
100
AcDbEntity
  8
YKK_A1
100
AcDbCircle
 10
2771.499997019797
 20
16944.49994877811
 30
0.0
 40
1.0
100
AcDbArc
 50
90.0
 51
180.0000017940917
  0
LINE
  5
1AB11
102
{ACAD_REACTORS
330
1ABA4
330
1ABA6
330
1ABA7
102
}
330
E7BC
100
AcDbEntity
  8
YKK_A1
100
AcDbLine
 10
2771.499997019797
 20
16945.49994877805
 30
0.0
 11
2799.499997019653
 21
16945.49994877805
 31
0.0
  0
ARC
  5
1AB12
102
{ACAD_REACTORS
330
1ABA4
102
}
330
E7BC
100
AcDbEntity
  8
YKK_A1
100
AcDbCircle
 10
2765.499993836014
 20
16826.49994661273
 30
0.0
 40
1.0
100
AcDbArc
 50
180.0
 51
270.0
  0
ARC
  5
1AB13
102
{ACAD_REACTORS
330
1ABA4
102
}
330
E7BC
100
AcDbEntity
  8
YKK_A1
100
AcDbCircle
 10
2805.499993836014
 20
16826.49994661273
 30
0.0
 40
1.0
100
AcDbArc
 50
270.0
 51
0.0
  0
LINE
  5
1AB16
102
{ACAD_REACTORS
330
1ABA8
330
1ABA9
330
1ABAA
330
1ABAB
102
}
330
E7BC
100
AcDbEntity
  8
YKK_A1
100
AcDbLine
 10
2015.499993836012
 20
16825.49994661273
 30
0.0
 11
1975.499993836012
 21
16825.49994661273
 31
0.0
  0
LINE
  5
1AB17
102
{ACAD_REACTORS
330
1ABA8
330
1ABA9
330
1ABAA
330
1ABAB
102
}
330
E7BC
100
AcDbEntity
  8
YKK_A1
100
AcDbLine
 10
2015.499993836012
 20
16955.49994661273
 30
0.0
 11
1975.499993836012
 21
16955.49994661273
 31
0.0
  0
ARC
  5
1AB18
102
{ACAD_REACTORS
330
1ABA8
102
}
330
E7BC
100
AcDbEntity
  8
YKK_A1
100
AcDbCircle
 10
1975.499993836012
 20
16954.49994661267
 30
0.0
 40
1.0
100
AcDbArc
 50
90.0
 51
180.0
  0
LINE
  5
1AB19
102
{ACAD_REACTORS
330
1ABA8
330
1ABA9
330
1ABAA
330
1ABAB
102
}
330
E7BC
100
AcDbEntity
  8
YKK_A1
100
AcDbLine
 10
1974.499993835983
 20
16826.49994661273
 30
0.0
 11
1974.499993835983
 21
16954.49994661267
 31
0.0
  0
LINE
  5
1AB1A
102
{ACAD_REACTORS
330
1ABA8
330
1ABA9
330
1ABAA
330
1ABAB
102
}
330
E7BC
100
AcDbEntity
  8
YKK_A1
100
AcDbLine
 10
2016.499993835983
 20
16826.49994661273
 30
0.0
 11
2016.499993835983
 21
16954.49994661267
 31
0.0
  0
ARC
  5
1AB1B
102
{ACAD_REACTORS
330
1ABA8
102
}
330
E7BC
100
AcDbEntity
  8
YKK_A1
100
AcDbCircle
 10
2015.499993836012
 20
16954.49994661267
 30
0.0
 40
1.0
100
AcDbArc
 50
0.0
 51
90.0
  0
LINE
  5
1AB1C
102
{ACAD_REACTORS
330
1ABA8
330
1ABAA
330
1ABAB
102
}
330
E7BC
100
AcDbEntity
  8
YKK_A1
100
AcDbLine
 10
2010.499997019651
 20
16944.49994880925
 30
0.0
 11
2010.500000386412
 21
16836.49994880925
 31
0.0
  0
ARC
  5
1AB1D
102
{ACAD_REACTORS
330
1ABA8
330
1ABAA
330
1ABAB
102
}
330
E7BC
100
AcDbEntity
  8
YKK_A1
100
AcDbCircle
 10
2009.499997019652
 20
16944.49994877811
 30
0.0
 40
1.0
100
AcDbArc
 50
0.0000017860879607
 51
90.0
  0
ARC
  5
1AB1E
102
{ACAD_REACTORS
330
1ABA8
330
1ABAA
330
1ABAB
102
}
330
E7BC
100
AcDbEntity
  8
YKK_A1
100
AcDbCircle
 10
2009.500000386382
 20
16836.49994877804
 30
0.0
 40
1.0
100
AcDbArc
 50
270.0
 51
0.0000017860879607
  0
LINE
  5
1AB1F
102
{ACAD_REACTORS
330
1ABA8
330
1ABAA
330
1ABAB
102
}
330
E7BC
100
AcDbEntity
  8
YKK_A1
100
AcDbLine
 10
2009.500000386382
 20
16835.49994877805
 30
0.0
 11
1981.500000386382
 21
16835.49994877805
 31
0.0
  0
ARC
  5
1AB20
102
{ACAD_REACTORS
330
1ABA8
330
1ABAA
330
1ABAB
102
}
330
E7BC
100
AcDbEntity
  8
YKK_A1
100
AcDbCircle
 10
1981.500000386382
 20
16836.49994877804
 30
0.0
 40
1.0
100
AcDbArc
 50
180.0000017860879
 51
270.0
  0
LINE
  5
1AB21
102
{ACAD_REACTORS
330
1ABA8
330
1ABAA
330
1ABAB
102
}
330
E7BC
100
AcDbEntity
  8
YKK_A1
100
AcDbLine
 10
1980.500000386411
 20
16836.49994874685
 30
0.0
 11
1980.499997019768
 21
16944.49994874674
 31
0.0
  0
ARC
  5
1AB22
102
{ACAD_REACTORS
330
1ABA8
330
1ABAA
330
1ABAB
102
}
330
E7BC
100
AcDbEntity
  8
YKK_A1
100
AcDbCircle
 10
1981.499997019797
 20
16944.49994877811
 30
0.0
 40
1.0
100
AcDbArc
 50
90.0
 51
180.0000017940917
  0
LINE
  5
1AB23
102
{ACAD_REACTORS
330
1ABA8
330
1ABAA
330
1ABAB
102
}
330
E7BC
100
AcDbEntity
  8
YKK_A1
100
AcDbLine
 10
1981.499997019797
 20
16945.49994877805
 30
0.0
 11
2009.499997019652
 21
16945.49994877805
 31
0.0
  0
ARC
  5
1AB24
102
{ACAD_REACTORS
330
1ABA8
102
}
330
E7BC
100
AcDbEntity
  8
YKK_A1
100
AcDbCircle
 10
1975.499993836012
 20
16826.49994661273
 30
0.0
 40
1.0
100
AcDbArc
 50
180.0
 51
270.0
  0
ARC
  5
1AB25
102
{ACAD_REACTORS
330
1ABA8
102
}
330
E7BC
100
AcDbEntity
  8
YKK_A1
100
AcDbCircle
 10
2015.499993836012
 20
16826.49994661273
 30
0.0
 40
1.0
100
AcDbArc
 50
270.0
 51
0.0
  0
LINE
  5
1AB26
102
{ACAD_REACTORS
330
1ABAC
102
}
330
E7BC
100
AcDbEntity
  8
YKK_A1
100
AcDbLine
 10
2365.495275576308
 20
17225.90941498223
 30
0.0
 11
2485.495277364448
 21
17225.90941498223
 31
0.0
  0
LINE
  5
1AB27
102
{ACAD_REACTORS
330
1ABAC
102
}
330
E7BC
100
AcDbEntity
  8
YKK_A1
100
AcDbLine
 10
2485.495277364448
 20
17225.90941498223
 30
0.0
 11
2485.495277364448
 21
17165.90941408816
 31
0.0
  0
LINE
  5
1AB28
102
{ACAD_REACTORS
330
1ABAC
102
}
330
E7BC
100
AcDbEntity
  8
YKK_A1
100
AcDbLine
 10
2485.495277364448
 20
17165.90941408816
 30
0.0
 11
2365.495275576308
 21
17165.90941408816
 31
0.0
  0
LINE
  5
1AB29
102
{ACAD_REACTORS
330
1ABAC
102
}
330
E7BC
100
AcDbEntity
  8
YKK_A1
100
AcDbLine
 10
2365.495275576308
 20
17126.62738120007
 30
0.0
 11
2365.495275576308
 21
17165.90941408816
 31
0.0
  0
LINE
  5
1AB2A
102
{ACAD_REACTORS
330
1ABAC
102
}
330
E7BC
100
AcDbEntity
  8
YKK_A1
100
AcDbLine
 10
2245.495273788169
 20
17195.90941453519
 30
0.0
 11
2365.495275576308
 21
17265.19144787032
 31
0.0
  0
LINE
  5
1AB2B
102
{ACAD_REACTORS
330
1ABAC
102
}
330
E7BC
100
AcDbEntity
  8
YKK_A1
100
AcDbLine
 10
2245.495273788169
 20
17195.90941453519
 30
0.0
 11
2365.495275576308
 21
17126.62738120007
 31
0.0
  0
LINE
  5
1AB2C
102
{ACAD_REACTORS
330
1ABAC
102
}
330
E7BC
100
AcDbEntity
  8
YKK_A1
100
AcDbLine
 10
2365.495275576308
 20
17225.90941498223
 30
0.0
 11
2365.495275576308
 21
17265.19144787032
 31
0.0
  0
LINE
  5
1AB2D
102
{ACAD_REACTORS
330
1ABAD
102
}
330
E7BC
100
AcDbEntity
  8
YKK_A1
100
AcDbLine
 10
3155.495275576308
 20
17025.90941498223
 30
0.0
 11
3275.495277364449
 21
17025.90941498223
 31
0.0
  0
LINE
  5
1AB2E
102
{ACAD_REACTORS
330
1ABAD
102
}
330
E7BC
100
AcDbEntity
  8
YKK_A1
100
AcDbLine
 10
3275.495277364449
 20
17025.90941498223
 30
0.0
 11
3275.495277364449
 21
16965.90941408816
 31
0.0
  0
LINE
  5
1AB2F
102
{ACAD_REACTORS
330
1ABAD
102
}
330
E7BC
100
AcDbEntity
  8
YKK_A1
100
AcDbLine
 10
3275.495277364449
 20
16965.90941408816
 30
0.0
 11
3155.495275576308
 21
16965.90941408816
 31
0.0
  0
LINE
  5
1AB30
102
{ACAD_REACTORS
330
1ABAD
102
}
330
E7BC
100
AcDbEntity
  8
YKK_A1
100
AcDbLine
 10
3155.495275576308
 20
16926.62738120007
 30
0.0
 11
3155.495275576308
 21
16965.90941408816
 31
0.0
  0
LINE
  5
1AB31
102
{ACAD_REACTORS
330
1ABAD
102
}
330
E7BC
100
AcDbEntity
  8
YKK_A1
100
AcDbLine
 10
3035.495273788169
 20
16995.9094145352
 30
0.0
 11
3155.495275576308
 21
17065.19144787032
 31
0.0
  0
LINE
  5
1AB32
102
{ACAD_REACTORS
330
1ABAD
102
}
330
E7BC
100
AcDbEntity
  8
YKK_A1
100
AcDbLine
 10
3035.495273788169
 20
16995.9094145352
 30
0.0
 11
3155.495275576308
 21
16926.62738120007
 31
0.0
  0
LINE
  5
1AB33
102
{ACAD_REACTORS
330
1ABAD
102
}
330
E7BC
100
AcDbEntity
  8
YKK_A1
100
AcDbLine
 10
3155.495275576308
 20
17025.90941498223
 30
0.0
 11
3155.495275576308
 21
17065.19144787032
 31
0.0
  0
LINE
  5
1AB34
102
{ACAD_REACTORS
330
1ABAE
102
}
330
E7BC
100
AcDbEntity
  8
YKK_A1
100
AcDbLine
 10
3945.495275576308
 20
16825.90941498223
 30
0.0
 11
4065.495277364447
 21
16825.90941498223
 31
0.0
  0
LINE
  5
1AB35
102
{ACAD_REACTORS
330
1ABAE
102
}
330
E7BC
100
AcDbEntity
  8
YKK_A1
100
AcDbLine
 10
4065.495277364447
 20
16825.90941498223
 30
0.0
 11
4065.495277364447
 21
16765.90941408816
 31
0.0
  0
LINE
  5
1AB36
102
{ACAD_REACTORS
330
1ABAE
102
}
330
E7BC
100
AcDbEntity
  8
YKK_A1
100
AcDbLine
 10
4065.495277364447
 20
16765.90941408816
 30
0.0
 11
3945.495275576308
 21
16765.90941408816
 31
0.0
  0
LINE
  5
1AB37
102
{ACAD_REACTORS
330
1ABAE
102
}
330
E7BC
100
AcDbEntity
  8
YKK_A1
100
AcDbLine
 10
3945.495275576308
 20
16726.62738120007
 30
0.0
 11
3945.495275576308
 21
16765.90941408816
 31
0.0
  0
LINE
  5
1AB38
102
{ACAD_REACTORS
330
1ABAE
102
}
330
E7BC
100
AcDbEntity
  8
YKK_A1
100
AcDbLine
 10
3825.495273788169
 20
16795.90941453519
 30
0.0
 11
3945.495275576308
 21
16865.19144787032
 31
0.0
  0
LINE
  5
1AB39
102
{ACAD_REACTORS
330
1ABAE
102
}
330
E7BC
100
AcDbEntity
  8
YKK_A1
100
AcDbLine
 10
3825.495273788169
 20
16795.90941453519
 30
0.0
 11
3945.495275576308
 21
16726.62738120007
 31
0.0
  0
LINE
  5
1AB3A
102
{ACAD_REACTORS
330
1ABAE
102
}
330
E7BC
100
AcDbEntity
  8
YKK_A1
100
AcDbLine
 10
3945.495275576308
 20
16825.90941498223
 30
0.0
 11
3945.495275576308
 21
16865.19144787032
 31
0.0
  0
LINE
  5
1AB3B
102
{ACAD_REACTORS
330
1ABAF
102
}
330
E7BC
100
AcDbEntity
  8
YKK_A1
100
AcDbLine
 10
3945.495275576308
 20
16825.90941498223
 30
0.0
 11
4065.495277364447
 21
16825.90941498223
 31
0.0
  0
LINE
  5
1AB3C
102
{ACAD_REACTORS
330
1ABAF
102
}
330
E7BC
100
AcDbEntity
  8
YKK_A1
100
AcDbLine
 10
4065.495277364447
 20
16825.90941498223
 30
0.0
 11
4065.495277364447
 21
16765.90941408816
 31
0.0
  0
LINE
  5
1AB3D
102
{ACAD_REACTORS
330
1ABAF
102
}
330
E7BC
100
AcDbEntity
  8
YKK_A1
100
AcDbLine
 10
4065.495277364447
 20
16765.90941408816
 30
0.0
 11
3945.495275576308
 21
16765.90941408816
 31
0.0
  0
LINE
  5
1AB3E
102
{ACAD_REACTORS
330
1ABAF
102
}
330
E7BC
100
AcDbEntity
  8
YKK_A1
100
AcDbLine
 10
3945.495275576308
 20
16726.62738120007
 30
0.0
 11
3945.495275576308
 21
16765.90941408816
 31
0.0
  0
LINE
  5
1AB3F
102
{ACAD_REACTORS
330
1ABAF
102
}
330
E7BC
100
AcDbEntity
  8
YKK_A1
100
AcDbLine
 10
3825.495273788169
 20
16795.90941453519
 30
0.0
 11
3945.495275576308
 21
16865.19144787032
 31
0.0
  0
LINE
  5
1AB40
102
{ACAD_REACTORS
330
1ABAF
102
}
330
E7BC
100
AcDbEntity
  8
YKK_A1
100
AcDbLine
 10
3825.495273788169
 20
16795.90941453519
 30
0.0
 11
3945.495275576308
 21
16726.62738120007
 31
0.0
  0
LINE
  5
1AB41
102
{ACAD_REACTORS
330
1ABAF
102
}
330
E7BC
100
AcDbEntity
  8
YKK_A1
100
AcDbLine
 10
3945.495275576308
 20
16825.90941498223
 30
0.0
 11
3945.495275576308
 21
16865.19144787032
 31
0.0
  0
LINE
  5
1AD53
102
{ACAD_REACTORS
330
1AD5E
330
1AD5F
102
}
330
E7BC
100
AcDbEntity
  8
YKK_A1
100
AcDbLine
 10
4345.541296240248
 20
15961.49999956844
 30
0.0
 11
3525.541983052474
 21
15961.49999956844
 31
0.0
  0
LINE
  5
1AD54
102
{ACAD_REACTORS
330
1AD5E
330
1AD5F
102
}
330
E7BC
100
AcDbEntity
  8
YKK_A1
100
AcDbLine
 10
3525.54198305247
 20
17941.49987880949
 30
0.0
 11
4345.541296240255
 21
17941.49987880949
 31
0.0
  0
LINE
  5
1AD55
102
{ACAD_REACTORS
330
1AD5E
330
1AD5F
102
}
330
E7BC
100
AcDbEntity
  8
YKK_A1
100
AcDbLine
 10
4345.541296240255
 20
17941.49987880949
 30
0.0
 11
4345.541296240248
 21
15961.49999956844
 31
0.0
  0
LINE
  5
1AD56
102
{ACAD_REACTORS
330
1AD5E
330
1AD5F
102
}
330
E7BC
100
AcDbEntity
  8
YKK_A1
100
AcDbLine
 10
3525.541983052474
 20
15961.49999956844
 30
0.0
 11
3525.541983052474
 21
17941.49987880949
 31
0.0
  0
LINE
  5
1AFC9
330
E7BC
100
AcDbEntity
  8
YKK_N1
100
AcDbLine
 10
4275.397459621554
 20
15802.50000000001
 30
0.0
 11
4362.0
 21
15752.50000000001
 31
0.0
  0
LINE
  5
1AFCA
330
E7BC
100
AcDbEntity
  8
YKK_N1
100
AcDbLine
 10
4275.397459621554
 20
15802.50000000001
 30
0.0
 11
4275.397459621554
 21
15702.50000000001
 31
0.0
  0
LINE
  5
1AFCB
330
E7BC
100
AcDbEntity
  8
YKK_N1
100
AcDbLine
 10
4275.397459621554
 20
15702.50000000001
 30
0.0
 11
4362.0
 21
15752.50000000001
 31
0.0
  0
LINE
  5
1AFCC
330
E7BC
100
AcDbEntity
  8
YKK_N1
100
AcDbLine
 10
4362.0
 20
15877.50000000001
 30
0.0
 11
4362.0
 21
15752.50000000001
 31
0.0
  0
TEXT
  5
1AFCD
330
E7BC
100
AcDbEntity
  8
YKK_N1
100
AcDbText
 10
2567.999999999997
 20
15764.50000000001
 30
0.0
 40
60.0
  1
W=3228
 72
     4
 11
2747.999999999997
 21
15794.50000000001
 31
0.0
100
AcDbText
  0
LINE
  5
1AFCE
330
E7BC
100
AcDbEntity
  8
YKK_N1
100
AcDbLine
 10
1220.602540378444
 20
15802.50000000001
 30
0.0
 11
1220.602540378444
 21
15702.50000000001
 31
0.0
  0
LINE
  5
1AFCF
330
E7BC
100
AcDbEntity
  8
YKK_N1
100
AcDbLine
 10
1134.0
 20
15752.50000000001
 30
0.0
 11
1220.602540378444
 21
15702.50000000001
 31
0.0
  0
LINE
  5
1AFD0
330
E7BC
100
AcDbEntity
  8
YKK_N1
100
AcDbLine
 10
1134.0
 20
15752.50000000001
 30
0.0
 11
1220.602540378444
 21
15802.50000000001
 31
0.0
  0
LINE
  5
1AFD1
330
E7BC
100
AcDbEntity
  8
YKK_N1
100
AcDbLine
 10
1134.0
 20
15877.50000000001
 30
0.0
 11
1134.0
 21
15752.50000000001
 31
0.0
  0
LINE
  5
1AFD2
330
E7BC
100
AcDbEntity
  8
YKK_N1
100
AcDbLine
 10
1134.0
 20
15752.50000000001
 30
0.0
 11
4361.999999999993
 21
15752.50000000001
 31
0.0
  0
LINE
  5
1AFD4
330
E7BC
100
AcDbEntity
  8
YKK_N1
100
AcDbLine
 10
4437.0
 20
17985.5
 30
0.0
 11
4562.0
 21
17985.5
 31
0.0
  0
LINE
  5
1AFD5
330
E7BC
100
AcDbEntity
  8
YKK_N1
100
AcDbLine
 10
4512.0
 20
17898.89745962156
 30
0.0
 11
4612.0
 21
17898.89745962156
 31
0.0
  0
LINE
  5
1AFD6
330
E7BC
100
AcDbEntity
  8
YKK_N1
100
AcDbLine
 10
4512.0
 20
17898.89745962156
 30
0.0
 11
4562.0
 21
17985.5
 31
0.0
  0
LINE
  5
1AFD7
330
E7BC
100
AcDbEntity
  8
YKK_N1
100
AcDbLine
 10
4562.0
 20
17985.5
 30
0.0
 11
4612.0
 21
17898.89745962156
 31
0.0
  0
LINE
  5
1AFD8
330
E7BC
100
AcDbEntity
  8
YKK_N1
100
AcDbLine
 10
4512.0
 20
16039.10254037845
 30
0.0
 11
4612.0
 21
16039.10254037845
 31
0.0
  0
LINE
  5
1AFD9
330
E7BC
100
AcDbEntity
  8
YKK_N1
100
AcDbLine
 10
4437.0
 20
15952.50000000001
 30
0.0
 11
4562.0
 21
15952.50000000001
 31
0.0
  0
LINE
  5
1AFDA
330
E7BC
100
AcDbEntity
  8
YKK_N1
100
AcDbLine
 10
4512.0
 20
16039.10254037845
 30
0.0
 11
4562.0
 21
15952.50000000001
 31
0.0
  0
LINE
  5
1AFDB
330
E7BC
100
AcDbEntity
  8
YKK_N1
100
AcDbLine
 10
4562.0
 20
15952.50000000001
 30
0.0
 11
4612.0
 21
16039.10254037845
 31
0.0
  0
LINE
  5
1AFDC
330
E7BC
100
AcDbEntity
  8
YKK_N1
100
AcDbLine
 10
4562.0
 20
17985.5
 30
0.0
 11
4562.0
 21
15952.50000000001
 31
0.0
  0
TEXT
  5
1AFDD
330
E7BC
100
AcDbEntity
  8
YKK_N1
100
AcDbText
 10
4550.0
 20
16803.99995038147
 30
0.0
 40
60.0
  1
H=2033
 50
90.00000000000005
 72
     4
 11
4520.0
 21
16968.99995038147
 31
0.0
100
AcDbText
1001
YTEXT_INFOMATION
1002
{
1000
H=2033
1002
}
1000
MC
1010
-165.0
1020
-29.99999999999988
1030
0.0
1040
60.0
1070
     0
1002
{
1000
TEXTOBJECTS
1000
1AFDD
1002
}
  0
CIRCLE
  5
1AFDF
330
E7BC
100
AcDbEntity
  8
YKK_IN
100
AcDbCircle
 10
2747.999999999997
 20
15952.50000000001
 30
0.0
 40
25.0
  0
LINE
  5
1AFE0
330
E7BC
100
AcDbEntity
  8
YKK_IN
100
AcDbLine
 10
2712.644660940667
 20
15917.14466094068
 30
0.0
 11
2783.355339059327
 21
15987.85533905934
 31
0.0
  0
LINE
  5
1AFE1
330
E7BC
100
AcDbEntity
  8
YKK_IN
100
AcDbLine
 10
2712.644660940667
 20
15987.85533905934
 30
0.0
 11
2783.355339059327
 21
15917.14466094068
 31
0.0
  0
LINE
  5
1B184
330
E7BC
100
AcDbEntity
  8
YKK_B1
100
AcDbLine
 10
1336.36690585633
 20
4167.700030517582
 30
0.0
 11
1336.566905856327
 21
4167.700030517582
 31
0.0
  0
LINE
  5
1B1A1
102
{ACAD_REACTORS
330
1B2A9
102
}
330
E7BC
100
AcDbEntity
  8
YKK_Z1
  6
YCENTER_1
100
AcDbLine
 10
453.5795307570141
 20
4087.500030924739
 30
0.0
 11
3830.971989790258
 21
4087.500030924739
 31
0.0
  0
LINE
  5
1B21E
102
{ACAD_REACTORS
330
1B2A9
330
1B2B4
102
}
330
E7BC
100
AcDbEntity
  8
YKK_B1
100
AcDbLine
 10
1326.566905856328
 20
4108.500030924736
 30
0.0
 11
1326.566905856328
 21
4082.500030924737
 31
0.0
  0
LINE
  5
1B21F
102
{ACAD_REACTORS
330
1B2A9
330
1B2B4
102
}
330
E7BC
100
AcDbEntity
  8
YKK_B1
100
AcDbLine
 10
1328.566905856328
 20
4080.500030924735
 30
0.0
 11
1326.566905856328
 21
4082.500030924737
 31
0.0
  0
LINE
  5
1B220
102
{ACAD_REACTORS
330
1B2A9
330
1B2B4
102
}
330
E7BC
100
AcDbEntity
  8
YKK_B1
100
AcDbLine
 10
2146.566906263482
 20
4082.500030924737
 30
0.0
 11
2146.566906263482
 21
4108.500030924736
 31
0.0
  0
LINE
  5
1B221
102
{ACAD_REACTORS
330
1B2A9
330
1B2B4
102
}
330
E7BC
100
AcDbEntity
  8
YKK_B1
100
AcDbLine
 10
2144.566906263482
 20
4080.500030924735
 30
0.0
 11
2146.566906263482
 21
4082.500030924737
 31
0.0
  0
LINE
  5
1B222
102
{ACAD_REACTORS
330
1B2A9
330
1B2B4
102
}
330
E7BC
100
AcDbEntity
  8
YKK_B1
100
AcDbLine
 10
2144.566906263482
 20
4110.500030924736
 30
0.0
 11
2146.566906263482
 21
4108.500030924736
 31
0.0
  0
LINE
  5
1B223
102
{ACAD_REACTORS
330
1B2A9
330
1B2B4
102
}
330
E7BC
100
AcDbEntity
  8
YKK_B1
100
AcDbLine
 10
1328.566905856328
 20
4110.500030924737
 30
0.0
 11
2144.566906263482
 21
4110.500030924736
 31
0.0
  0
LINE
  5
1B224
102
{ACAD_REACTORS
330
1B2A9
330
1B2B4
102
}
330
E7BC
100
AcDbEntity
  8
YKK_B1
100
AcDbLine
 10
1326.566905856328
 20
4108.500030924736
 30
0.0
 11
1328.566905856328
 21
4110.500030924737
 31
0.0
  0
LINE
  5
1B225
102
{ACAD_REACTORS
330
1B2A9
330
1B2B4
102
}
330
E7BC
100
AcDbEntity
  8
YKK_B1
100
AcDbLine
 10
1328.566905856328
 20
4080.500030924735
 30
0.0
 11
2144.566906263482
 21
4080.500030924735
 31
0.0
  0
LINE
  5
1B226
102
{ACAD_REACTORS
330
1B2A9
330
1B2B5
102
}
330
E7BC
100
AcDbEntity
  8
YKK_B1
100
AcDbLine
 10
2116.566906263482
 20
4070.500030841524
 30
0.0
 11
2116.566906263482
 21
4044.500030841523
 31
0.0
  0
LINE
  5
1B227
102
{ACAD_REACTORS
330
1B2A9
330
1B2B5
102
}
330
E7BC
100
AcDbEntity
  8
YKK_B1
100
AcDbLine
 10
2118.566906263481
 20
4042.500030841522
 30
0.0
 11
2116.566906263482
 21
4044.500030841523
 31
0.0
  0
LINE
  5
1B228
102
{ACAD_REACTORS
330
1B2A9
330
1B2B5
102
}
330
E7BC
100
AcDbEntity
  8
YKK_B1
100
AcDbLine
 10
2936.566906587424
 20
4044.500030841523
 30
0.0
 11
2936.566906587424
 21
4070.500030841523
 31
0.0
  0
LINE
  5
1B229
102
{ACAD_REACTORS
330
1B2A9
330
1B2B5
102
}
330
E7BC
100
AcDbEntity
  8
YKK_B1
100
AcDbLine
 10
2934.566906587424
 20
4042.500030841522
 30
0.0
 11
2936.566906587424
 21
4044.500030841523
 31
0.0
  0
LINE
  5
1B22A
102
{ACAD_REACTORS
330
1B2A9
330
1B2B5
102
}
330
E7BC
100
AcDbEntity
  8
YKK_B1
100
AcDbLine
 10
2934.566906587424
 20
4072.500030841523
 30
0.0
 11
2936.566906587424
 21
4070.500030841523
 31
0.0
  0
LINE
  5
1B22B
102
{ACAD_REACTORS
330
1B2A9
330
1B2B5
102
}
330
E7BC
100
AcDbEntity
  8
YKK_B1
100
AcDbLine
 10
2118.566906263481
 20
4072.500030841523
 30
0.0
 11
2934.566906587424
 21
4072.500030841523
 31
0.0
  0
LINE
  5
1B22C
102
{ACAD_REACTORS
330
1B2A9
330
1B2B5
102
}
330
E7BC
100
AcDbEntity
  8
YKK_B1
100
AcDbLine
 10
2116.566906263482
 20
4070.500030841524
 30
0.0
 11
2118.566906263481
 21
4072.500030841523
 31
0.0
  0
LINE
  5
1B22D
102
{ACAD_REACTORS
330
1B2A9
330
1B2B5
102
}
330
E7BC
100
AcDbEntity
  8
YKK_B1
100
AcDbLine
 10
2118.566906263481
 20
4042.500030841522
 30
0.0
 11
2934.566906587424
 21
4042.500030841522
 31
0.0
  0
LINE
  5
1B22E
102
{ACAD_REACTORS
330
1B2A9
330
1B2B6
102
}
330
E7BC
100
AcDbEntity
  8
YKK_B1
100
AcDbLine
 10
2906.568918889715
 20
4032.500031311249
 30
0.0
 11
2906.568918889715
 21
4006.500031311246
 31
0.0
  0
LINE
  5
1B22F
102
{ACAD_REACTORS
330
1B2A9
330
1B2B6
102
}
330
E7BC
100
AcDbEntity
  8
YKK_B1
100
AcDbLine
 10
2908.568918889715
 20
4004.500031311247
 30
0.0
 11
2906.568918889715
 21
4006.500031311246
 31
0.0
  0
LINE
  5
1B230
102
{ACAD_REACTORS
330
1B2A9
330
1B2B6
102
}
330
E7BC
100
AcDbEntity
  8
YKK_B1
100
AcDbLine
 10
3726.57093119201
 20
4006.500031311246
 30
0.0
 11
3726.57093119201
 21
4032.500031311246
 31
0.0
  0
LINE
  5
1B231
102
{ACAD_REACTORS
330
1B2A9
330
1B2B6
102
}
330
E7BC
100
AcDbEntity
  8
YKK_B1
100
AcDbLine
 10
3724.57093119201
 20
4004.500031311247
 30
0.0
 11
3726.57093119201
 21
4006.500031311246
 31
0.0
  0
LINE
  5
1B232
102
{ACAD_REACTORS
330
1B2A9
330
1B2B6
102
}
330
E7BC
100
AcDbEntity
  8
YKK_B1
100
AcDbLine
 10
3724.57093119201
 20
4034.500031311249
 30
0.0
 11
3726.57093119201
 21
4032.500031311246
 31
0.0
  0
LINE
  5
1B233
102
{ACAD_REACTORS
330
1B2A9
330
1B2B6
102
}
330
E7BC
100
AcDbEntity
  8
YKK_B1
100
AcDbLine
 10
2908.568918889715
 20
4034.500031311249
 30
0.0
 11
3724.57093119201
 21
4034.500031311249
 31
0.0
  0
LINE
  5
1B234
102
{ACAD_REACTORS
330
1B2A9
330
1B2B6
102
}
330
E7BC
100
AcDbEntity
  8
YKK_B1
100
AcDbLine
 10
2906.568918889715
 20
4032.500031311249
 30
0.0
 11
2908.568918889715
 21
4034.500031311249
 31
0.0
  0
LINE
  5
1B235
102
{ACAD_REACTORS
330
1B2A9
330
1B2B6
102
}
330
E7BC
100
AcDbEntity
  8
YKK_B1
100
AcDbLine
 10
2908.568918889715
 20
4004.500031311247
 30
0.0
 11
3724.57093119201
 21
4004.500031311247
 31
0.0
  0
LINE
  5
1B236
102
{ACAD_REACTORS
330
1B2B7
102
}
330
E7BC
100
AcDbEntity
  8
YKK_B1
100
AcDbLine
 10
4445.847063030003
 20
5612.499999999903
 30
0.0
 11
4655.847063030004
 21
5612.499999999903
 31
0.0
  0
LINE
  5
1B237
102
{ACAD_REACTORS
330
1B2B8
102
}
330
E7BC
100
AcDbEntity
  8
YKK_Z1
100
AcDbLine
 10
4675.847063030004
 20
3576.499999999904
 30
0.0
 11
4629.847063470628
 21
3576.499999999904
 31
0.0
  0
LINE
  5
1B238
102
{ACAD_REACTORS
330
1B2B8
102
}
330
E7BC
100
AcDbEntity
  8
YKK_Z1
100
AcDbLine
 10
4607.84706350482
 20
3576.499999999904
 30
0.0
 11
4591.847063470628
 21
3576.499999999904
 31
0.0
  0
LINE
  5
1B239
102
{ACAD_REACTORS
330
1B2B8
102
}
330
E7BC
100
AcDbEntity
  8
YKK_Z1
100
AcDbLine
 10
4569.847063504822
 20
3576.499999999904
 30
0.0
 11
4553.847063470628
 21
3576.499999999904
 31
0.0
  0
LINE
  5
1B23A
102
{ACAD_REACTORS
330
1B2B8
102
}
330
E7BC
100
AcDbEntity
  8
YKK_Z1
100
AcDbLine
 10
4531.84706350482
 20
3576.499999999903
 30
0.0
 11
4435.847063030005
 21
3576.499999999903
 31
0.0
  0
LINE
  5
1B23B
102
{ACAD_REACTORS
330
1B2B8
102
}
330
E7BC
100
AcDbEntity
  8
YKK_Z1
100
AcDbLine
 10
4675.847063030004
 20
3573.499999999904
 30
0.0
 11
4629.847063470628
 21
3573.499999999904
 31
0.0
  0
LINE
  5
1B23C
102
{ACAD_REACTORS
330
1B2B8
102
}
330
E7BC
100
AcDbEntity
  8
YKK_Z1
100
AcDbLine
 10
4607.84706350482
 20
3573.499999999905
 30
0.0
 11
4591.847063470628
 21
3573.499999999905
 31
0.0
  0
LINE
  5
1B23D
102
{ACAD_REACTORS
330
1B2B8
102
}
330
E7BC
100
AcDbEntity
  8
YKK_Z1
100
AcDbLine
 10
4569.847063504822
 20
3573.499999999905
 30
0.0
 11
4553.847063470628
 21
3573.499999999905
 31
0.0
  0
LINE
  5
1B23E
102
{ACAD_REACTORS
330
1B2B8
102
}
330
E7BC
100
AcDbEntity
  8
YKK_Z1
100
AcDbLine
 10
4531.84706350482
 20
3573.499999999905
 30
0.0
 11
4435.847063030005
 21
3573.499999999906
 31
0.0
  0
LINE
  5
1B23F
102
{ACAD_REACTORS
330
1B2B8
102
}
330
E7BC
100
AcDbEntity
  8
YKK_Z1
100
AcDbLine
 10
4675.847063030004
 20
3570.499999999905
 30
0.0
 11
4629.847063470628
 21
3570.499999999904
 31
0.0
  0
LINE
  5
1B240
102
{ACAD_REACTORS
330
1B2B8
102
}
330
E7BC
100
AcDbEntity
  8
YKK_Z1
100
AcDbLine
 10
4607.84706350482
 20
3570.499999999904
 30
0.0
 11
4591.847063470628
 21
3570.499999999904
 31
0.0
  0
LINE
  5
1B241
102
{ACAD_REACTORS
330
1B2B8
102
}
330
E7BC
100
AcDbEntity
  8
YKK_Z1
100
AcDbLine
 10
4569.847063504822
 20
3570.499999999904
 30
0.0
 11
4553.847063470628
 21
3570.499999999903
 31
0.0
  0
LINE
  5
1B242
102
{ACAD_REACTORS
330
1B2B8
102
}
330
E7BC
100
AcDbEntity
  8
YKK_Z1
100
AcDbLine
 10
4531.84706350482
 20
3570.499999999903
 30
0.0
 11
4435.847063030005
 21
3570.499999999902
 31
0.0
  0
LINE
  5
1B243
330
E7BC
100
AcDbEntity
  8
YKK_B1
100
AcDbLine
 10
4527.847063470626
 20
3588.503214368707
 30
0.0
 11
4534.347063470629
 21
3588.503214368707
 31
0.0
  0
LINE
  5
1B244
330
E7BC
100
AcDbEntity
  8
YKK_B1
100
AcDbLine
 10
4551.347063470628
 20
3588.503214368707
 30
0.0
 11
4557.847063470628
 21
3588.503214368705
 31
0.0
  0
LINE
  5
1B245
330
E7BC
100
AcDbEntity
  8
YKK_B1
100
AcDbLine
 10
4565.847063470626
 20
3588.503214368707
 30
0.0
 11
4572.347063470628
 21
3588.503214368705
 31
0.0
  0
LINE
  5
1B246
330
E7BC
100
AcDbEntity
  8
YKK_B1
100
AcDbLine
 10
4589.347063470628
 20
3588.503214368705
 30
0.0
 11
4595.847063470626
 21
3588.503214368705
 31
0.0
  0
LINE
  5
1B247
102
{ACAD_REACTORS
330
1B2B9
102
}
330
E7BC
100
AcDbEntity
  8
YKK_B1
100
AcDbLine
 10
4633.847063470628
 20
5568.500227200051
 30
0.0
 11
4603.847063470626
 21
5568.500227200053
 31
0.0
  0
LINE
  5
1B248
102
{ACAD_REACTORS
330
1B2B9
102
}
330
E7BC
100
AcDbEntity
  8
YKK_B1
100
AcDbLine
 10
4595.847063470626
 20
5568.500227200051
 30
0.0
 11
4565.847063470626
 21
5568.500227200051
 31
0.0
  0
LINE
  5
1B249
102
{ACAD_REACTORS
330
1B2B9
102
}
330
E7BC
100
AcDbEntity
  8
YKK_B1
100
AcDbLine
 10
4557.847063470626
 20
5568.500227200051
 30
0.0
 11
4527.847063470626
 21
5568.500227200051
 31
0.0
  0
LINE
  5
1B24A
330
E7BC
100
AcDbEntity
  8
YKK_B1
100
AcDbLine
 10
4603.847063470626
 20
3588.503214368707
 30
0.0
 11
4610.347063470628
 21
3588.503214368705
 31
0.0
  0
LINE
  5
1B24B
330
E7BC
100
AcDbEntity
  8
YKK_B1
100
AcDbLine
 10
4627.347063470629
 20
3588.503214368705
 30
0.0
 11
4633.847063470628
 21
3588.503214368705
 31
0.0
  0
LINE
  5
1B24C
102
{ACAD_REACTORS
330
1B2B8
102
}
330
E7BC
100
AcDbEntity
  8
YKK_Z1
100
AcDbLine
 10
4675.847063030004
 20
3579.499999999904
 30
0.0
 11
4629.847063470628
 21
3579.499999999904
 31
0.0
  0
LINE
  5
1B24D
102
{ACAD_REACTORS
330
1B2B8
102
}
330
E7BC
100
AcDbEntity
  8
YKK_Z1
100
AcDbLine
 10
4607.84706350482
 20
3579.499999999904
 30
0.0
 11
4591.847063470628
 21
3579.499999999904
 31
0.0
  0
LINE
  5
1B24E
102
{ACAD_REACTORS
330
1B2B8
102
}
330
E7BC
100
AcDbEntity
  8
YKK_Z1
100
AcDbLine
 10
4569.847063504822
 20
3579.499999999904
 30
0.0
 11
4553.847063470628
 21
3579.499999999904
 31
0.0
  0
LINE
  5
1B24F
102
{ACAD_REACTORS
330
1B2B8
102
}
330
E7BC
100
AcDbEntity
  8
YKK_Z1
100
AcDbLine
 10
4531.84706350482
 20
3579.499999999904
 30
0.0
 11
4435.847063030005
 21
3579.499999999904
 31
0.0
  0
LINE
  5
1B250
102
{ACAD_REACTORS
330
1B2B8
102
}
330
E7BC
100
AcDbEntity
  8
YKK_Z1
100
AcDbLine
 10
4435.847063030005
 20
3567.499999999904
 30
0.0
 11
4675.847063030004
 21
3567.499999999904
 31
0.0
  0
LINE
  5
1B251
102
{ACAD_REACTORS
330
1B2B7
102
}
330
E7BC
100
AcDbEntity
  8
YKK_B1
100
AcDbLine
 10
4445.847063030003
 20
5612.499999999903
 30
0.0
 11
4445.847063030003
 21
3579.499999999904
 31
0.0
  0
LINE
  5
1B252
330
E7BC
100
AcDbEntity
  8
YKK_B1
100
AcDbLine
 10
4527.847063470626
 20
3588.503214368707
 30
0.0
 11
4527.847063470626
 21
5568.500227200051
 31
0.0
  0
LINE
  5
1B253
330
E7BC
100
AcDbEntity
  8
YKK_Z1
  6
YCENTER_1
100
AcDbLine
 10
4550.847063030004
 20
5668.489074938267
 30
0.0
 11
4550.847063030004
 21
3519.460444545437
 31
0.0
  0
LINE
  5
1B254
330
E7BC
100
AcDbEntity
  8
YKK_B1
100
AcDbLine
 10
4557.847063470628
 20
3588.503214368705
 30
0.0
 11
4557.847063470626
 21
5568.500227200051
 31
0.0
  0
LINE
  5
1B255
102
{ACAD_REACTORS
330
1B2BA
102
}
330
E7BC
100
AcDbEntity
  8
YKK_B1
100
AcDbLine
 10
4565.847063470626
 20
5568.500227200051
 30
0.0
 11
4565.847063470626
 21
3588.503214368707
 31
0.0
  0
LINE
  5
1B256
330
E7BC
100
AcDbEntity
  8
YKK_B1
100
AcDbLine
 10
4595.847063470626
 20
3588.503214368705
 30
0.0
 11
4595.847063470626
 21
5568.500227200051
 31
0.0
  0
LINE
  5
1B257
102
{ACAD_REACTORS
330
1B2B9
102
}
330
E7BC
100
AcDbEntity
  8
YKK_B1
100
AcDbLine
 10
4603.847063470626
 20
5568.500227200051
 30
0.0
 11
4603.847063470626
 21
3588.503214368707
 31
0.0
  0
LINE
  5
1B258
330
E7BC
100
AcDbEntity
  8
YKK_B1
100
AcDbLine
 10
4633.847063470628
 20
3588.503214368705
 30
0.0
 11
4633.847063470626
 21
5568.500227200051
 31
0.0
  0
LINE
  5
1B259
102
{ACAD_REACTORS
330
1B2B7
102
}
330
E7BC
100
AcDbEntity
  8
YKK_B1
100
AcDbLine
 10
4655.847063030004
 20
5612.499999999903
 30
0.0
 11
4655.847063030003
 21
3579.499999999904
 31
0.0
  0
LINE
  5
1B25A
102
{ACAD_REACTORS
330
1B2B8
102
}
330
E7BC
100
AcDbEntity
  8
YKK_Z1
100
AcDbLine
 10
4531.84706350482
 20
3579.499999999904
 30
0.0
 11
4531.84706350482
 21
3567.499998587806
 31
0.0
  0
LINE
  5
1B25B
102
{ACAD_REACTORS
330
1B2B8
102
}
330
E7BC
100
AcDbEntity
  8
YKK_Z1
100
AcDbLine
 10
4553.847063470628
 20
3579.499999999904
 30
0.0
 11
4553.847063470628
 21
3567.499998569405
 31
0.0
  0
LINE
  5
1B25C
330
E7BC
100
AcDbEntity
  8
YKK_B1
100
AcDbLine
 10
4534.347063470629
 20
3588.503212938205
 30
0.0
 11
4534.347063470626
 21
3602.503212938206
 31
0.0
  0
LINE
  5
1B25D
330
E7BC
100
AcDbEntity
  8
YKK_B1
100
AcDbLine
 10
4551.347063470628
 20
3588.503212938205
 30
0.0
 11
4551.347063470626
 21
3602.503212938206
 31
0.0
  0
LINE
  5
1B25E
330
E7BC
100
AcDbEntity
  8
YKK_B1
100
AcDbLine
 10
4534.347063470626
 20
3602.503212938206
 30
0.0
 11
4551.347063470626
 21
3602.503212938206
 31
0.0
  0
LINE
  5
1B25F
102
{ACAD_REACTORS
330
1B2B8
102
}
330
E7BC
100
AcDbEntity
  8
YKK_Z1
100
AcDbLine
 10
4569.847063504822
 20
3579.499999999904
 30
0.0
 11
4569.847063504822
 21
3567.499998587806
 31
0.0
  0
LINE
  5
1B260
102
{ACAD_REACTORS
330
1B2B8
102
}
330
E7BC
100
AcDbEntity
  8
YKK_Z1
100
AcDbLine
 10
4591.847063470628
 20
3579.499999999904
 30
0.0
 11
4591.847063470628
 21
3567.499998569405
 31
0.0
  0
LINE
  5
1B261
330
E7BC
100
AcDbEntity
  8
YKK_B1
100
AcDbLine
 10
4572.347063470628
 20
3588.503212938205
 30
0.0
 11
4572.347063470628
 21
3602.503212938206
 31
0.0
  0
LINE
  5
1B262
330
E7BC
100
AcDbEntity
  8
YKK_B1
100
AcDbLine
 10
4589.347063470628
 20
3588.503212938205
 30
0.0
 11
4589.347063470628
 21
3602.503212938206
 31
0.0
  0
LINE
  5
1B263
330
E7BC
100
AcDbEntity
  8
YKK_B1
100
AcDbLine
 10
4572.347063470628
 20
3602.503212938206
 30
0.0
 11
4589.347063470628
 21
3602.503212938206
 31
0.0
  0
LINE
  5
1B264
102
{ACAD_REACTORS
330
1B2B8
102
}
330
E7BC
100
AcDbEntity
  8
YKK_Z1
100
AcDbLine
 10
4607.84706350482
 20
3579.499999999904
 30
0.0
 11
4607.84706350482
 21
3567.499998587806
 31
0.0
  0
LINE
  5
1B265
102
{ACAD_REACTORS
330
1B2B8
102
}
330
E7BC
100
AcDbEntity
  8
YKK_Z1
100
AcDbLine
 10
4629.847063470628
 20
3579.499999999904
 30
0.0
 11
4629.847063470628
 21
3567.499998569405
 31
0.0
  0
LINE
  5
1B266
330
E7BC
100
AcDbEntity
  8
YKK_B1
100
AcDbLine
 10
4610.347063470628
 20
3588.503212938205
 30
0.0
 11
4610.347063470628
 21
3602.503212938206
 31
0.0
  0
LINE
  5
1B267
330
E7BC
100
AcDbEntity
  8
YKK_B1
100
AcDbLine
 10
4627.347063470629
 20
3588.503212938205
 30
0.0
 11
4627.347063470626
 21
3602.503212938206
 31
0.0
  0
LINE
  5
1B268
330
E7BC
100
AcDbEntity
  8
YKK_B1
100
AcDbLine
 10
4610.347063470628
 20
3602.503212938206
 30
0.0
 11
4627.347063470626
 21
3602.503212938206
 31
0.0
  0
LINE
  5
1B2F7
330
E7BC
100
AcDbEntity
  8
YKK_N1
100
AcDbLine
 10
4805.847063030004
 20
3579.500022070216
 30
0.0
 11
5130.847063030003
 21
3579.500022070216
 31
0.0
  0
LINE
  5
1B2F8
330
E7BC
100
AcDbEntity
  8
YKK_N1
100
AcDbLine
 10
5080.847063030003
 20
3666.102561132716
 30
0.0
 11
5180.847063030004
 21
3666.102561132716
 31
0.0
  0
LINE
  5
1B2F9
330
E7BC
100
AcDbEntity
  8
YKK_N1
100
AcDbLine
 10
5080.846827775171
 20
3666.102419360926
 30
0.0
 11
5130.846828448233
 21
3579.499879371072
 31
0.0
  0
LINE
  5
1B2FA
330
E7BC
100
AcDbEntity
  8
YKK_N1
100
AcDbLine
 10
5130.846967507798
 20
3579.499893377138
 30
0.0
 11
5180.846968180853
 21
3666.102433366992
 31
0.0
  0
LINE
  5
1B2FB
330
E7BC
100
AcDbEntity
  8
YKK_N1
100
AcDbLine
 10
4805.847063030004
 20
3588.500022070216
 30
0.0
 11
4930.846828448233
 21
3588.500022070216
 31
0.0
  0
LINE
  5
1B2FC
330
E7BC
100
AcDbEntity
  8
YKK_N1
100
AcDbLine
 10
4930.846828448233
 20
3588.500022070216
 30
0.0
 11
4930.846828448233
 21
3579.499893377138
 31
0.0
  0
CIRCLE
  5
1B2FD
330
E7BC
100
AcDbEntity
  8
YKK_N1
100
AcDbCircle
 10
4930.846923970439
 20
3579.500022070216
 30
0.0
 40
5.0
  0
TEXT
  5
1B2FE
330
E7BC
100
AcDbEntity
  8
YKK_N1
100
AcDbText
 10
4920.0921852226
 20
3600.00670369826
 30
0.0
 40
60.0
  1
9
 50
90.00000000000005
 72
     4
 11
4890.092185222599
 21
3620.006703698261
 31
0.0
100
AcDbText
1001
YTEXT_INFOMATION
1002
{
1000
12
1002
}
1000
MC
1010
-40.00000000000002
1020
-29.99999999999997
1030
0.0
1040
60.0
1070
     0
1002
{
1000
TEXTOBJECTS
1000
1B2FE
1002
}
  0
CIRCLE
  5
1B2FF
330
E7BC
100
AcDbEntity
  8
YKK_N1
100
AcDbCircle
 10
4930.846923970439
 20
3588.499893377138
 30
0.0
 40
5.0
  0
LINE
  5
1B300
330
E7BC
100
AcDbEntity
  8
YKK_N1
100
AcDbLine
 10
4805.847063030004
 20
3567.500008064151
 30
0.0
 11
5130.846923970439
 21
3567.500008064151
 31
0.0
  0
LINE
  5
1B301
330
E7BC
100
AcDbEntity
  8
YKK_N1
100
AcDbLine
 10
5130.846828448233
 20
3579.499879371072
 30
0.0
 11
5130.846828448233
 21
3567.499879371072
 31
0.0
  0
CIRCLE
  5
1B302
330
E7BC
100
AcDbEntity
  8
YKK_N1
100
AcDbCircle
 10
5130.846923970439
 20
3567.500008064151
 30
0.0
 40
5.0
  0
TEXT
  5
1B303
330
E7BC
100
AcDbEntity
  8
YKK_N1
100
AcDbText
 10
5118.846923970439
 20
3456.84155623206
 30
0.0
 40
60.0
  1
12
 50
90.00000000000005
 72
     4
 11
5088.846923970439
 21
3496.84155623206
 31
0.0
100
AcDbText
1001
YTEXT_INFOMATION
1002
{
1000
12
1002
}
1000
MC
1010
-40.00000000000002
1020
-29.99999999999997
1030
0.0
1040
60.0
1070
     0
1002
{
1000
TEXTOBJECTS
1000
1B303
1002
}
  0
LINE
  5
1B304
330
E7BC
100
AcDbEntity
  8
YKK_N1
100
AcDbLine
 10
5130.847063030003
 20
3579.499879371072
 30
0.0
 11
5130.847063030003
 21
5612.499979371073
 31
0.0
  0
LINE
  5
1B305
330
E7BC
100
AcDbEntity
  8
YKK_N1
100
AcDbLine
 10
4805.847063030004
 20
5612.499999999903
 30
0.0
 11
5130.847297611775
 21
5612.499999999903
 31
0.0
  0
LINE
  5
1B306
330
E7BC
100
AcDbEntity
  8
YKK_N1
100
AcDbLine
 10
4805.847063030004
 20
5588.499999999903
 30
0.0
 11
4930.847063030004
 21
5588.499999999903
 31
0.0
  0
LINE
  5
1B307
330
E7BC
100
AcDbEntity
  8
YKK_N1
100
AcDbLine
 10
4930.847063030004
 20
5612.499999999903
 30
0.0
 11
4930.847063030004
 21
5588.499999999903
 31
0.0
  0
CIRCLE
  5
1B308
330
E7BC
100
AcDbEntity
  8
YKK_N1
100
AcDbCircle
 10
4930.847063030004
 20
5612.499999999903
 30
0.0
 40
5.0
  0
CIRCLE
  5
1B309
330
E7BC
100
AcDbEntity
  8
YKK_N1
100
AcDbCircle
 10
4930.847063030004
 20
5588.499999999903
 30
0.0
 40
5.0
  0
TEXT
  5
1B30A
330
E7BC
100
AcDbEntity
  8
YKK_N1
100
AcDbText
 10
4910.621616484746
 20
5480.340600884304
 30
0.0
 40
60.0
  1
24
 50
90.00000000000005
 72
     4
 11
4880.621616484746
 21
5530.340600884304
 31
0.0
100
AcDbText
  0
LINE
  5
1B30B
330
E7BC
100
AcDbEntity
  8
YKK_N1
100
AcDbLine
 10
5080.847297611775
 20
5525.897460937404
 30
0.0
 11
5180.847297611775
 21
5525.897460937404
 31
0.0
  0
LINE
  5
1B30C
330
E7BC
100
AcDbEntity
  8
YKK_N1
100
AcDbLine
 10
5130.847036178105
 20
5612.499998351813
 30
0.0
 11
5180.847036851166
 21
5525.897458361963
 31
0.0
  0
LINE
  5
1B30D
330
E7BC
100
AcDbEntity
  8
YKK_N1
100
AcDbLine
 10
5080.84728930356
 20
5525.897578084018
 30
0.0
 11
5130.847289976617
 21
5612.500118073872
 31
0.0
  0
TEXT
  5
1B30E
330
E7BC
100
AcDbEntity
  8
YKK_N1
100
AcDbText
 10
5118.847063030004
 20
4430.999879752541
 30
0.0
 40
60.0
  1
H=2033
 50
90.00000000000005
 72
     4
 11
5088.847063030003
 21
4595.999879752541
 31
0.0
100
AcDbText
1001
YTEXT_INFOMATION
1002
{
1000
H=2033
1002
}
1000
MC
1010
-165.0
1020
-29.99999999999988
1030
0.0
1040
60.0
1070
     0
1002
{
1000
TEXTOBJECTS
1000
1B30E
1002
}
  0
LINE
  5
1B314
330
E7BC
100
AcDbEntity
  8
YKK_N1
100
AcDbLine
 10
515.0689188897167
 20
3832.500030517581
 30
0.0
 11
515.0689188897167
 21
3507.500000000002
 31
0.0
  0
LINE
  5
1B315
330
E7BC
100
AcDbEntity
  8
YKK_N1
100
AcDbLine
 10
3743.068918889717
 20
3832.500030517581
 30
0.0
 11
3743.068918889717
 21
3507.500000000002
 31
0.0
  0
LINE
  5
1B316
330
E7BC
100
AcDbEntity
  8
YKK_N1
100
AcDbLine
 10
515.0689688587943
 20
3507.500000000003
 30
0.0
 11
3743.068902451152
 21
3507.500000000002
 31
0.0
  0
LINE
  5
1B317
330
E7BC
100
AcDbEntity
  8
YKK_N1
100
AcDbLine
 10
601.6714579522167
 20
3557.500000000003
 30
0.0
 11
601.6714579522167
 21
3457.500000000003
 31
0.0
  0
LINE
  5
1B318
330
E7BC
100
AcDbEntity
  8
YKK_N1
100
AcDbLine
 10
515.0689305127753
 20
3507.500022139089
 30
0.0
 11
601.6714711220564
 21
3457.500021108403
 31
0.0
  0
LINE
  5
1B319
330
E7BC
100
AcDbEntity
  8
YKK_N1
100
AcDbLine
 10
515.0689157155002
 20
3507.500010421371
 30
0.0
 11
601.6714557053501
 21
3557.500011094429
 31
0.0
  0
LINE
  5
1B31A
330
E7BC
100
AcDbEntity
  8
YKK_N1
100
AcDbLine
 10
3656.466388460992
 20
3457.500014337871
 30
0.0
 11
3743.068928450842
 21
3507.500015010931
 31
0.0
  0
LINE
  5
1B31B
330
E7BC
100
AcDbEntity
  8
YKK_N1
100
AcDbLine
 10
3656.466379827217
 20
3557.500000000003
 30
0.0
 11
3656.466379827217
 21
3457.500000000003
 31
0.0
  0
LINE
  5
1B31C
330
E7BC
100
AcDbEntity
  8
YKK_N1
100
AcDbLine
 10
3656.466394606724
 20
3557.499987978894
 30
0.0
 11
3743.068908167574
 21
3507.500002564626
 31
0.0
  0
TEXT
  5
1B31D
330
E7BC
100
AcDbEntity
  8
YKK_N1
100
AcDbText
 10
562.3943802192452
 20
3719.500000000004
 30
0.0
 40
60.0
  1
20
 72
     4
 11
607.3943802192452
 21
3749.500000000003
 31
0.0
100
AcDbText
  0
CIRCLE
  5
1B31E
330
E7BC
100
AcDbEntity
  8
YKK_N1
100
AcDbCircle
 10
535.0689188897168
 20
3707.500000000003
 30
0.0
 40
5.0
  0
LINE
  5
1B31F
330
E7BC
100
AcDbEntity
  8
YKK_N1
100
AcDbLine
 10
515.0689188897167
 20
3707.500000000003
 30
0.0
 11
535.0689188897168
 21
3707.500000000003
 31
0.0
  0
CIRCLE
  5
1B320
330
E7BC
100
AcDbEntity
  8
YKK_N1
100
AcDbCircle
 10
515.0689188897167
 20
3707.500000000003
 30
0.0
 40
5.0
  0
LINE
  5
1B321
330
E7BC
100
AcDbEntity
  8
YKK_N1
100
AcDbLine
 10
535.0689188897168
 20
3832.500030517581
 30
0.0
 11
535.0689188897168
 21
3707.500000000003
 31
0.0
  0
TEXT
  5
1B322
330
E7BC
100
AcDbEntity
  8
YKK_N1
100
AcDbText
 10
3608.474840299832
 20
3719.500000000004
 30
0.0
 40
60.0
  1
20
 72
     4
 11
3653.474840299831
 21
3749.500000000003
 31
0.0
100
AcDbText
  0
CIRCLE
  5
1B323
330
E7BC
100
AcDbEntity
  8
YKK_N1
100
AcDbCircle
 10
3743.068918889717
 20
3707.500000000003
 30
0.0
 40
5.0
  0
CIRCLE
  5
1B324
330
E7BC
100
AcDbEntity
  8
YKK_N1
100
AcDbCircle
 10
3723.068918889717
 20
3707.500000000003
 30
0.0
 40
5.0
  0
LINE
  5
1B325
330
E7BC
100
AcDbEntity
  8
YKK_N1
100
AcDbLine
 10
3723.068918889717
 20
3832.500030517581
 30
0.0
 11
3723.068918889717
 21
3707.500000000003
 31
0.0
  0
LINE
  5
1B326
330
E7BC
100
AcDbEntity
  8
YKK_N1
100
AcDbLine
 10
3723.068918889717
 20
3707.500000000003
 30
0.0
 11
3743.068918889717
 21
3707.500000000003
 31
0.0
  0
TEXT
  5
1B327
330
E7BC
100
AcDbEntity
  8
YKK_N1
100
AcDbText
 10
1949.068935654973
 20
3519.500000000004
 30
0.0
 40
60.0
  1
W=3228
 72
     4
 11
2129.068935654974
 21
3549.500000000004
 31
0.0
100
AcDbText
  0
TEXT
  5
1B329
330
E7BC
100
AcDbEntity
  8
YKK_N1
100
AcDbText
 10
3529.896160456739
 20
3853.190913420716
 30
0.0
 40
60.0
  1
30
 50
90.0
 72
     4
 11
3499.896160456739
 21
3898.190913420716
 31
0.0
100
AcDbText
  0
LINE
  5
1B32A
330
E7BC
100
AcDbEntity
  8
YKK_N1
100
AcDbLine
 10
3343.068918889717
 20
3982.500030517581
 30
0.0
 11
3343.068918889717
 21
4192.500030517582
 31
0.0
  0
LINE
  5
1B32B
330
E7BC
100
AcDbEntity
  8
YKK_N1
100
AcDbLine
 10
3543.068918889717
 20
4004.500031311247
 30
0.0
 11
3543.068918889717
 21
4034.500031311249
 31
0.0
  0
CIRCLE
  5
1B32C
330
E7BC
100
AcDbEntity
  8
YKK_N1
100
AcDbCircle
 10
3543.068918889717
 20
4004.500031311247
 30
0.0
 40
5.0
  0
CIRCLE
  5
1B32D
330
E7BC
100
AcDbEntity
  8
YKK_N1
100
AcDbCircle
 10
3543.068918889717
 20
4034.500031311249
 30
0.0
 40
5.0
  0
CIRCLE
  5
1B32E
330
E7BC
100
AcDbEntity
  8
YKK_N1
100
AcDbCircle
 10
3343.068918889717
 20
3982.500030517581
 30
0.0
 40
5.0
  0
TEXT
  5
1B32F
330
E7BC
100
AcDbEntity
  8
YKK_N1
100
AcDbText
 10
3329.877619893852
 20
3850.549991667467
 30
0.0
 40
60.0
  1
210
 50
90.0
 72
     4
 11
3299.877619893852
 21
3915.549991667467
 31
0.0
100
AcDbText
1001
YTEXT_INFOMATION
1002
{
1000
156
1002
}
1000
MC
1010
-70.0
1020
-29.99999999999999
1030
0.0
1040
60.0
1070
     0
1002
{
1000
TEXTOBJECTS
1000
1B32F
1002
}
  0
LINE
  5
1B330
330
E7BC
100
AcDbEntity
  8
YKK_N1
100
AcDbLine
 10
3648.068900447063
 20
4192.500030517582
 30
0.0
 11
3343.068918889717
 21
4192.500030517582
 31
0.0
  0
LINE
  5
1B331
330
E7BC
100
AcDbEntity
  8
YKK_N1
100
AcDbLine
 10
3648.068900447063
 20
3982.500030517581
 30
0.0
 11
3343.068918889717
 21
3982.500030517581
 31
0.0
  0
CIRCLE
  5
1B332
330
E7BC
100
AcDbEntity
  8
YKK_N1
100
AcDbCircle
 10
3343.068918889717
 20
4192.500030517582
 30
0.0
 40
5.0
  0
TEXT
  5
1B333
330
E7BC
100
AcDbEntity
  8
YKK_N1
100
AcDbText
 10
4333.410667848712
 20
4855.123880613543
 30
0.0
 40
60.0
  1
30
 72
     4
 11
4378.410667848712
 21
4885.123880613543
 31
0.0
100
AcDbText
  0
LINE
  5
1B334
330
E7BC
100
AcDbEntity
  8
YKK_N1
100
AcDbLine
 10
4445.847063030003
 20
4643.123880613543
 30
0.0
 11
4655.847063030004
 21
4643.123880613543
 31
0.0
  0
LINE
  5
1B335
330
E7BC
100
AcDbEntity
  8
YKK_N1
100
AcDbLine
 10
4527.847063470626
 20
4843.123880613543
 30
0.0
 11
4557.847063470626
 21
4843.123880613543
 31
0.0
  0
CIRCLE
  5
1B336
330
E7BC
100
AcDbEntity
  8
YKK_N1
100
AcDbCircle
 10
4527.847063470626
 20
4843.123880613543
 30
0.0
 40
5.0
  0
CIRCLE
  5
1B337
330
E7BC
100
AcDbEntity
  8
YKK_N1
100
AcDbCircle
 10
4557.847063470626
 20
4843.123880613543
 30
0.0
 40
5.0
  0
CIRCLE
  5
1B338
330
E7BC
100
AcDbEntity
  8
YKK_N1
100
AcDbCircle
 10
4445.847063030003
 20
4643.123880613543
 30
0.0
 40
5.0
  0
CIRCLE
  5
1B339
330
E7BC
100
AcDbEntity
  8
YKK_N1
100
AcDbCircle
 10
4655.847063030004
 20
4643.123880613543
 30
0.0
 40
5.0
  0
TEXT
  5
1B33A
330
E7BC
100
AcDbEntity
  8
YKK_N1
100
AcDbText
 10
4299.671813887708
 20
4655.123880613543
 30
0.0
 40
60.0
  1
210
 72
     4
 11
4364.671813887707
 21
4685.123880613543
 31
0.0
100
AcDbText
1001
YTEXT_INFOMATION
1002
{
1000
156
1002
}
1000
MC
1010
-70.0
1020
-29.99999999999999
1030
0.0
1040
60.0
1070
     0
1002
{
1000
TEXTOBJECTS
1000
1B33A
1002
}
  0
LINE
  5
1B35C
330
E7BC
100
AcDbEntity
  8
YKK_N1
100
AcDbLine
 10
735.0689188897177
 20
3982.500030517581
 30
0.0
 11
735.0689188897177
 21
4123.500030517581
 31
0.0
  0
CIRCLE
  5
1B35D
330
E7BC
100
AcDbEntity
  8
YKK_N1
100
AcDbCircle
 10
735.0689188897177
 20
3982.500030517581
 30
0.0
 40
5.0
  0
CIRCLE
  5
1B35E
330
E7BC
100
AcDbEntity
  8
YKK_N1
100
AcDbCircle
 10
735.0689188897177
 20
4123.500030517581
 30
0.0
 40
5.0
  0
TEXT
  5
1B35F
330
E7BC
100
AcDbEntity
  8
YKK_N1
100
AcDbText
 10
714.3091065013232
 20
4140.558701239414
 30
0.0
 40
60.0
  1
141
 50
90.0
 72
     4
 11
684.3091065013232
 21
4200.558701239414
 31
0.0
100
AcDbText
1001
YTEXT_INFOMATION
1002
{
1000
156
1002
}
1000
MC
1010
-70.0
1020
-29.99999999999999
1030
0.0
1040
60.0
1070
     0
1002
{
1000
TEXTOBJECTS
1000
1B35F
1002
}
  0
LINE
  5
1B360
330
E7BC
100
AcDbEntity
  8
YKK_N1
100
AcDbLine
 10
610.0689188897177
 20
3982.500030517581
 30
0.0
 11
735.0689188897177
 21
3982.500030517581
 31
0.0
  0
LINE
  5
1B361
330
E7BC
100
AcDbEntity
  8
YKK_N1
100
AcDbLine
 10
610.0689188897177
 20
4123.500030517581
 30
0.0
 11
735.0689188897177
 21
4123.500030517581
 31
0.0
  0
LINE
  5
1B362
330
E7BC
100
AcDbEntity
  8
YKK_N1
100
AcDbLine
 10
1556.566905856326
 20
4118.500030517582
 30
0.0
 11
1556.566905856326
 21
4192.500030517582
 31
0.0
  0
CIRCLE
  5
1B363
330
E7BC
100
AcDbEntity
  8
YKK_N1
100
AcDbCircle
 10
1556.566905856326
 20
4118.500030517582
 30
0.0
 40
5.0
  0
CIRCLE
  5
1B364
330
E7BC
100
AcDbEntity
  8
YKK_N1
100
AcDbCircle
 10
1556.566905856326
 20
4192.500030517582
 30
0.0
 40
5.0
  0
TEXT
  5
1B365
330
E7BC
100
AcDbEntity
  8
YKK_N1
100
AcDbText
 10
1535.807093467932
 20
4219.558701239416
 30
0.0
 40
60.0
  1
74
 50
90.0
 72
     4
 11
1505.807093467932
 21
4269.558701239417
 31
0.0
100
AcDbText
1001
YTEXT_INFOMATION
1002
{
1000
156
1002
}
1000
MC
1010
-70.0
1020
-29.99999999999999
1030
0.0
1040
60.0
1070
     0
1002
{
1000
TEXTOBJECTS
1000
1B365
1002
}
  0
LINE
  5
1B366
330
E7BC
100
AcDbEntity
  8
YKK_N1
100
AcDbLine
 10
1431.566905856326
 20
4192.500030517582
 30
0.0
 11
1556.566905856326
 21
4192.500030517582
 31
0.0
  0
LINE
  5
1B367
330
E7BC
100
AcDbEntity
  8
YKK_N1
100
AcDbLine
 10
1431.566905856326
 20
4118.500030517582
 30
0.0
 11
1556.566905856326
 21
4118.500030517582
 31
0.0
  0
LINE
  5
1B41B
102
{ACAD_REACTORS
330
1B4D3
102
}
330
E7BC
100
AcDbEntity
  8
YKK_Z1
100
AcDbLine
 10
4690.347066867094
 20
329.000022151765
 30
0.0
 11
4619.34706295588
 21
329.0000222249716
 31
0.0
  0
LINE
  5
1B41C
102
{ACAD_REACTORS
330
1B4D3
102
}
330
E7BC
100
AcDbEntity
  8
YKK_Z1
100
AcDbLine
 10
4597.347062990072
 20
329.0000222450776
 30
0.0
 11
4581.34706295588
 21
329.0000222615747
 31
0.0
  0
LINE
  5
1B41D
102
{ACAD_REACTORS
330
1B4D3
102
}
330
E7BC
100
AcDbEntity
  8
YKK_Z1
100
AcDbLine
 10
4559.347062990072
 20
329.0000222842583
 30
0.0
 11
4543.34706295588
 21
329.0000223007557
 31
0.0
  0
LINE
  5
1B41E
102
{ACAD_REACTORS
330
1B4D3
102
}
330
E7BC
100
AcDbEntity
  8
YKK_Z1
100
AcDbLine
 10
4521.347062990073
 20
329.0000223260169
 30
0.0
 11
4412.347062728536
 21
329.0000224384046
 31
0.0
  0
LINE
  5
1B41F
102
{ACAD_REACTORS
330
1B4D3
102
}
330
E7BC
100
AcDbEntity
  8
YKK_Z1
100
AcDbLine
 10
4690.347066894346
 20
326.0000221517648
 30
0.0
 11
4619.347062955879
 21
326.0000222249717
 31
0.0
  0
LINE
  5
1B420
102
{ACAD_REACTORS
330
1B4D3
102
}
330
E7BC
100
AcDbEntity
  8
YKK_Z1
100
AcDbLine
 10
4597.347062990072
 20
326.0000222450778
 30
0.0
 11
4581.34706295588
 21
326.0000222615752
 31
0.0
  0
LINE
  5
1B421
102
{ACAD_REACTORS
330
1B4D3
102
}
330
E7BC
100
AcDbEntity
  8
YKK_Z1
100
AcDbLine
 10
4559.347062990072
 20
326.0000222842589
 30
0.0
 11
4543.34706295588
 21
326.0000223007562
 31
0.0
  0
LINE
  5
1B422
102
{ACAD_REACTORS
330
1B4D3
102
}
330
E7BC
100
AcDbEntity
  8
YKK_Z1
100
AcDbLine
 10
4521.347062990073
 20
326.0000223260179
 30
0.0
 11
4412.347062728536
 21
326.000022438406
 31
0.0
  0
LINE
  5
1B423
102
{ACAD_REACTORS
330
1B4D3
102
}
330
E7BC
100
AcDbEntity
  8
YKK_Z1
100
AcDbLine
 10
4690.347066921598
 20
323.0000221517655
 30
0.0
 11
4619.34706295588
 21
323.0000222249714
 31
0.0
  0
LINE
  5
1B424
102
{ACAD_REACTORS
330
1B4D3
102
}
330
E7BC
100
AcDbEntity
  8
YKK_Z1
100
AcDbLine
 10
4597.347062990072
 20
323.0000222450774
 30
0.0
 11
4581.34706295588
 21
323.0000222615747
 31
0.0
  0
LINE
  5
1B425
102
{ACAD_REACTORS
330
1B4D3
102
}
330
E7BC
100
AcDbEntity
  8
YKK_Z1
100
AcDbLine
 10
4559.347062990072
 20
323.0000222842582
 30
0.0
 11
4543.34706295588
 21
323.0000223007553
 31
0.0
  0
LINE
  5
1B426
102
{ACAD_REACTORS
330
1B4D3
102
}
330
E7BC
100
AcDbEntity
  8
YKK_Z1
100
AcDbLine
 10
4521.347062990073
 20
323.0000223260165
 30
0.0
 11
4412.347062728536
 21
323.0000224384032
 31
0.0
  0
LINE
  5
1B427
102
{ACAD_REACTORS
330
1B4D4
102
}
330
E7BC
100
AcDbEntity
  8
YKK_B1
100
AcDbLine
 10
4517.347062955877
 20
2321.000021940614
 30
0.0
 11
4547.347062955878
 21
2321.000021940614
 31
0.0
  0
LINE
  5
1B428
102
{ACAD_REACTORS
330
1B4D5
102
}
330
E7BC
100
AcDbEntity
  8
YKK_B1
100
AcDbLine
 10
4517.34706295588
 20
341.0032365896486
 30
0.0
 11
4523.847062955879
 21
341.0032365896483
 31
0.0
  0
LINE
  5
1B429
102
{ACAD_REACTORS
330
1B4D5
102
}
330
E7BC
100
AcDbEntity
  8
YKK_B1
100
AcDbLine
 10
4540.847062955879
 20
341.0032365896483
 30
0.0
 11
4547.347062955878
 21
341.0032365896483
 31
0.0
  0
LINE
  5
1B42A
102
{ACAD_REACTORS
330
1B4D6
102
}
330
E7BC
100
AcDbEntity
  8
YKK_B1
100
AcDbLine
 10
4555.347062955878
 20
2321.000021940614
 30
0.0
 11
4585.347062955878
 21
2321.000021940614
 31
0.0
  0
LINE
  5
1B42B
102
{ACAD_REACTORS
330
1B4D7
102
}
330
E7BC
100
AcDbEntity
  8
YKK_B1
100
AcDbLine
 10
4555.347062955878
 20
341.0032365896486
 30
0.0
 11
4561.847062955878
 21
341.0032365896483
 31
0.0
  0
LINE
  5
1B42C
102
{ACAD_REACTORS
330
1B4D7
102
}
330
E7BC
100
AcDbEntity
  8
YKK_B1
100
AcDbLine
 10
4578.847062955879
 20
341.0032365896483
 30
0.0
 11
4585.34706295588
 21
341.0032365896483
 31
0.0
  0
LINE
  5
1B42D
102
{ACAD_REACTORS
330
1B4D8
102
}
330
E7BC
100
AcDbEntity
  8
YKK_B1
100
AcDbLine
 10
4593.347062955879
 20
2321.000021940614
 30
0.0
 11
4623.347062955878
 21
2321.000021940614
 31
0.0
  0
LINE
  5
1B42E
102
{ACAD_REACTORS
330
1B4D9
102
}
330
E7BC
100
AcDbEntity
  8
YKK_B1
100
AcDbLine
 10
4593.34706295588
 20
341.0032365896486
 30
0.0
 11
4599.84706295588
 21
341.0032365896483
 31
0.0
  0
LINE
  5
1B42F
102
{ACAD_REACTORS
330
1B4D9
102
}
330
E7BC
100
AcDbEntity
  8
YKK_B1
100
AcDbLine
 10
4616.847062955879
 20
341.0032365896483
 30
0.0
 11
4623.347062955878
 21
341.0032365896483
 31
0.0
  0
LINE
  5
1B430
102
{ACAD_REACTORS
330
1B4D3
102
}
330
E7BC
100
AcDbEntity
  8
YKK_Z1
100
AcDbLine
 10
4690.347066839843
 20
332.0000222208473
 30
0.0
 11
4619.347062955879
 21
332.0000222208473
 31
0.0
  0
LINE
  5
1B431
102
{ACAD_REACTORS
330
1B4D3
102
}
330
E7BC
100
AcDbEntity
  8
YKK_Z1
100
AcDbLine
 10
4597.347062990072
 20
332.0000222208473
 30
0.0
 11
4581.34706295588
 21
332.0000222208473
 31
0.0
  0
LINE
  5
1B432
102
{ACAD_REACTORS
330
1B4D3
102
}
330
E7BC
100
AcDbEntity
  8
YKK_Z1
100
AcDbLine
 10
4559.347062990072
 20
332.0000222208473
 30
0.0
 11
4543.34706295588
 21
332.0000222208471
 31
0.0
  0
LINE
  5
1B433
102
{ACAD_REACTORS
330
1B4D3
102
}
330
E7BC
100
AcDbEntity
  8
YKK_Z1
100
AcDbLine
 10
4521.347062990073
 20
332.0000222208471
 30
0.0
 11
4412.347062728536
 21
332.0000222208471
 31
0.0
  0
LINE
  5
1B434
102
{ACAD_REACTORS
330
1B4D3
102
}
330
E7BC
100
AcDbEntity
  8
YKK_Z1
100
AcDbLine
 10
4412.347062728536
 20
320.0000222213628
 30
0.0
 11
4690.34706694885
 21
320.0000221550201
 31
0.0
  0
LINE
  5
1B436
102
{ACAD_REACTORS
330
1B4D5
102
}
330
E7BC
100
AcDbEntity
  8
YKK_B1
100
AcDbLine
 10
4517.34706295588
 20
341.0032365896486
 30
0.0
 11
4517.347062955877
 21
2321.000021940614
 31
0.0
  0
LINE
  5
1B438
102
{ACAD_REACTORS
330
1B4D5
102
}
330
E7BC
100
AcDbEntity
  8
YKK_B1
100
AcDbLine
 10
4547.347062955878
 20
341.0032365896483
 30
0.0
 11
4547.347062955878
 21
2321.000021940614
 31
0.0
  0
LINE
  5
1B43A
102
{ACAD_REACTORS
330
1B4D7
102
}
330
E7BC
100
AcDbEntity
  8
YKK_B1
100
AcDbLine
 10
4555.347062955878
 20
341.0032365896486
 30
0.0
 11
4555.347062955878
 21
2321.000021940614
 31
0.0
  0
LINE
  5
1B43C
102
{ACAD_REACTORS
330
1B4D7
102
}
330
E7BC
100
AcDbEntity
  8
YKK_B1
100
AcDbLine
 10
4585.34706295588
 20
341.0032365896483
 30
0.0
 11
4585.347062955878
 21
2321.000021940614
 31
0.0
  0
LINE
  5
1B43E
102
{ACAD_REACTORS
330
1B4D9
102
}
330
E7BC
100
AcDbEntity
  8
YKK_B1
100
AcDbLine
 10
4593.34706295588
 20
341.0032365896486
 30
0.0
 11
4593.347062955879
 21
2321.000021940614
 31
0.0
  0
LINE
  5
1B440
102
{ACAD_REACTORS
330
1B4D9
102
}
330
E7BC
100
AcDbEntity
  8
YKK_B1
100
AcDbLine
 10
4623.347062955878
 20
341.0032365896483
 30
0.0
 11
4623.347062955878
 21
2321.000021940614
 31
0.0
  0
LINE
  5
1B442
330
E7BC
100
AcDbEntity
  8
YKK_B1
100
AcDbLine
 10
4646.847063030004
 20
332.0000222208473
 30
0.0
 11
4646.847063030004
 21
2352.50002325964
 31
0.0
  0
LINE
  5
1B444
330
E7BC
100
AcDbEntity
  8
YKK_B1
100
AcDbLine
 10
4445.847063030003
 20
332.0000222208471
 30
0.0
 11
4445.847063030003
 21
2352.50002325964
 31
0.0
  0
LINE
  5
1B445
330
E7BC
100
AcDbEntity
  8
YKK_Z1
  6
YCENTER_1
100
AcDbLine
 10
4543.847062515253
 20
271.9314361953914
 30
0.0
 11
4543.847062515253
 21
2435.425085502137
 31
0.0
  0
LINE
  5
1B446
102
{ACAD_REACTORS
330
1B4D3
102
}
330
E7BC
100
AcDbEntity
  8
YKK_Z1
100
AcDbLine
 10
4521.347062990072
 20
332.0000222208471
 30
0.0
 11
4521.347062990072
 21
320.0000208087488
 31
0.0
  0
LINE
  5
1B447
102
{ACAD_REACTORS
330
1B4D3
102
}
330
E7BC
100
AcDbEntity
  8
YKK_Z1
100
AcDbLine
 10
4543.34706295588
 20
332.0000222208471
 30
0.0
 11
4543.34706295588
 21
320.0000207903471
 31
0.0
  0
LINE
  5
1B448
102
{ACAD_REACTORS
330
1B4D5
102
}
330
E7BC
100
AcDbEntity
  8
YKK_B1
100
AcDbLine
 10
4523.847062955879
 20
341.0032351591488
 30
0.0
 11
4523.847062955879
 21
355.0032351591487
 31
0.0
  0
LINE
  5
1B449
102
{ACAD_REACTORS
330
1B4D5
102
}
330
E7BC
100
AcDbEntity
  8
YKK_B1
100
AcDbLine
 10
4540.847062955879
 20
341.0032351591484
 30
0.0
 11
4540.847062955879
 21
355.0032351591485
 31
0.0
  0
LINE
  5
1B44A
102
{ACAD_REACTORS
330
1B4D5
102
}
330
E7BC
100
AcDbEntity
  8
YKK_B1
100
AcDbLine
 10
4523.847062955879
 20
355.0032351591487
 30
0.0
 11
4540.847062955879
 21
355.0032351591485
 31
0.0
  0
LINE
  5
1B44B
102
{ACAD_REACTORS
330
1B4D3
102
}
330
E7BC
100
AcDbEntity
  8
YKK_Z1
100
AcDbLine
 10
4559.347062990072
 20
332.0000222208473
 30
0.0
 11
4559.347062990072
 21
320.0000208087488
 31
0.0
  0
LINE
  5
1B44C
102
{ACAD_REACTORS
330
1B4D3
102
}
330
E7BC
100
AcDbEntity
  8
YKK_Z1
100
AcDbLine
 10
4581.34706295588
 20
332.0000222208473
 30
0.0
 11
4581.34706295588
 21
320.0000207903471
 31
0.0
  0
LINE
  5
1B44D
102
{ACAD_REACTORS
330
1B4D7
102
}
330
E7BC
100
AcDbEntity
  8
YKK_B1
100
AcDbLine
 10
4561.847062955878
 20
341.0032351591488
 30
0.0
 11
4561.847062955878
 21
355.0032351591487
 31
0.0
  0
LINE
  5
1B44E
102
{ACAD_REACTORS
330
1B4D7
102
}
330
E7BC
100
AcDbEntity
  8
YKK_B1
100
AcDbLine
 10
4578.847062955879
 20
341.0032351591484
 30
0.0
 11
4578.847062955879
 21
355.0032351591485
 31
0.0
  0
LINE
  5
1B44F
102
{ACAD_REACTORS
330
1B4D7
102
}
330
E7BC
100
AcDbEntity
  8
YKK_B1
100
AcDbLine
 10
4561.847062955878
 20
355.0032351591487
 30
0.0
 11
4578.847062955879
 21
355.0032351591485
 31
0.0
  0
LINE
  5
1B450
102
{ACAD_REACTORS
330
1B4D3
102
}
330
E7BC
100
AcDbEntity
  8
YKK_Z1
100
AcDbLine
 10
4597.347062990072
 20
332.0000222208473
 30
0.0
 11
4597.347062990072
 21
320.0000208087488
 31
0.0
  0
LINE
  5
1B451
102
{ACAD_REACTORS
330
1B4D3
102
}
330
E7BC
100
AcDbEntity
  8
YKK_Z1
100
AcDbLine
 10
4619.347062955879
 20
332.0000222208473
 30
0.0
 11
4619.347062955879
 21
320.0000207903471
 31
0.0
  0
LINE
  5
1B452
102
{ACAD_REACTORS
330
1B4D9
102
}
330
E7BC
100
AcDbEntity
  8
YKK_B1
100
AcDbLine
 10
4599.84706295588
 20
341.0032351591488
 30
0.0
 11
4599.84706295588
 21
355.0032351591487
 31
0.0
  0
LINE
  5
1B453
102
{ACAD_REACTORS
330
1B4D9
102
}
330
E7BC
100
AcDbEntity
  8
YKK_B1
100
AcDbLine
 10
4616.847062955879
 20
341.0032351591484
 30
0.0
 11
4616.847062955879
 21
355.0032351591485
 31
0.0
  0
LINE
  5
1B454
102
{ACAD_REACTORS
330
1B4D9
102
}
330
E7BC
100
AcDbEntity
  8
YKK_B1
100
AcDbLine
 10
4599.84706295588
 20
355.0032351591487
 30
0.0
 11
4616.847062955879
 21
355.0032351591485
 31
0.0
  0
LINE
  5
1B455
102
{ACAD_REACTORS
330
1B4DA
102
}
330
E7BC
100
AcDbEntity
  8
YKK_B1
100
AcDbLine
 10
4448.847064204227
 20
2365.000021940615
 30
0.0
 11
4643.847064204227
 21
2365.000021940615
 31
0.0
  0
LINE
  5
1B45B
102
{ACAD_REACTORS
330
1B4DC
102
}
330
E7BC
100
AcDbEntity
  8
YKK_B1
100
AcDbLine
 10
3735.84456730718
 20
950.414531825576
 30
0.0
 11
3728.84456730718
 21
950.414531825576
 31
0.0
  0
LINE
  5
1B45C
102
{ACAD_REACTORS
330
1B4DC
102
}
330
E7BC
100
AcDbEntity
  8
YKK_B1
100
AcDbLine
 10
3728.84456730718
 20
950.414531825576
 30
0.0
 11
3728.84456730718
 21
983.414531825576
 31
0.0
  0
ARC
  5
1B45D
102
{ACAD_REACTORS
330
1B4DC
102
}
330
E7BC
100
AcDbEntity
  8
YKK_B1
100
AcDbCircle
 10
3730.84456730718
 20
983.414531825576
 30
0.0
 40
2.0
100
AcDbArc
 50
90.0
 51
180.0
  0
LINE
  5
1B45E
102
{ACAD_REACTORS
330
1B4DC
102
}
330
E7BC
100
AcDbEntity
  8
YKK_B1
100
AcDbLine
 10
3730.84456730718
 20
985.414531825576
 30
0.0
 11
3750.84456730718
 21
985.414531825576
 31
0.0
  0
ARC
  5
1B45F
102
{ACAD_REACTORS
330
1B4DC
102
}
330
E7BC
100
AcDbEntity
  8
YKK_B1
100
AcDbCircle
 10
3750.84456730718
 20
983.414531825576
 30
0.0
 40
2.0
100
AcDbArc
 50
0.0
 51
90.0
  0
LINE
  5
1B460
102
{ACAD_REACTORS
330
1B4DC
102
}
330
E7BC
100
AcDbEntity
  8
YKK_B1
100
AcDbLine
 10
3752.84456730718
 20
983.414531825576
 30
0.0
 11
3752.84456730718
 21
971.4145318255759
 31
0.0
  0
LINE
  5
1B461
102
{ACAD_REACTORS
330
1B4DC
102
}
330
E7BC
100
AcDbEntity
  8
YKK_B1
100
AcDbLine
 10
3752.84456730718
 20
971.4145318255759
 30
0.0
 11
3735.84456730718
 21
971.4145318255759
 31
0.0
  0
LINE
  5
1B462
102
{ACAD_REACTORS
330
1B4DC
102
}
330
E7BC
100
AcDbEntity
  8
YKK_B1
100
AcDbLine
 10
3735.84456730718
 20
971.4145318255759
 30
0.0
 11
3735.84456730718
 21
950.414531825576
 31
0.0
  0
LINE
  5
1B463
102
{ACAD_REACTORS
330
1B4DD
102
}
330
E7BC
100
AcDbEntity
  8
YKK_B1
100
AcDbLine
 10
3735.84456730718
 20
772.4145355627806
 30
0.0
 11
3728.84456730718
 21
772.4145355627806
 31
0.0
  0
LINE
  5
1B464
102
{ACAD_REACTORS
330
1B4DD
102
}
330
E7BC
100
AcDbEntity
  8
YKK_B1
100
AcDbLine
 10
3728.84456730718
 20
772.4145355627806
 30
0.0
 11
3728.84456730718
 21
739.4145355627806
 31
0.0
  0
ARC
  5
1B465
102
{ACAD_REACTORS
330
1B4DD
102
}
330
E7BC
100
AcDbEntity
  8
YKK_B1
100
AcDbCircle
 10
3730.84456730718
 20
739.4145355627806
 30
0.0
 40
2.0
100
AcDbArc
 50
180.0
 51
270.0
  0
LINE
  5
1B466
102
{ACAD_REACTORS
330
1B4DD
102
}
330
E7BC
100
AcDbEntity
  8
YKK_B1
100
AcDbLine
 10
3730.84456730718
 20
737.4145355627806
 30
0.0
 11
3750.84456730718
 21
737.4145355627806
 31
0.0
  0
ARC
  5
1B467
102
{ACAD_REACTORS
330
1B4DD
102
}
330
E7BC
100
AcDbEntity
  8
YKK_B1
100
AcDbCircle
 10
3750.84456730718
 20
739.4145355627806
 30
0.0
 40
2.0
100
AcDbArc
 50
270.0
 51
0.0
  0
LINE
  5
1B468
102
{ACAD_REACTORS
330
1B4DD
102
}
330
E7BC
100
AcDbEntity
  8
YKK_B1
100
AcDbLine
 10
3752.84456730718
 20
739.4145355627806
 30
0.0
 11
3752.84456730718
 21
751.4145355627806
 31
0.0
  0
LINE
  5
1B469
102
{ACAD_REACTORS
330
1B4DD
102
}
330
E7BC
100
AcDbEntity
  8
YKK_B1
100
AcDbLine
 10
3752.84456730718
 20
751.4145355627806
 30
0.0
 11
3735.84456730718
 21
751.4145355627806
 31
0.0
  0
LINE
  5
1B46A
102
{ACAD_REACTORS
330
1B4DD
102
}
330
E7BC
100
AcDbEntity
  8
YKK_B1
100
AcDbLine
 10
3735.84456730718
 20
751.4145355627806
 30
0.0
 11
3735.84456730718
 21
772.4145355627806
 31
0.0
  0
LINE
  5
1B46B
102
{ACAD_REACTORS
330
1B4DE
102
}
330
E7BC
100
AcDbEntity
  8
YKK_B1
100
AcDbLine
 10
518.8445312127928
 20
772.4145355627806
 30
0.0
 11
525.8445312127928
 21
772.4145355627806
 31
0.0
  0
LINE
  5
1B46C
102
{ACAD_REACTORS
330
1B4DE
102
}
330
E7BC
100
AcDbEntity
  8
YKK_B1
100
AcDbLine
 10
525.8445312127928
 20
772.4145355627806
 30
0.0
 11
525.8445312127928
 21
739.4145355627806
 31
0.0
  0
ARC
  5
1B46D
102
{ACAD_REACTORS
330
1B4DE
102
}
330
E7BC
100
AcDbEntity
  8
YKK_B1
100
AcDbCircle
 10
523.8445312127928
 20
739.4145355627806
 30
0.0
 40
2.0
100
AcDbArc
 50
270.0
 51
0.0
  0
LINE
  5
1B46E
102
{ACAD_REACTORS
330
1B4DE
102
}
330
E7BC
100
AcDbEntity
  8
YKK_B1
100
AcDbLine
 10
523.8445312127928
 20
737.4145355627806
 30
0.0
 11
503.8445312127928
 21
737.4145355627806
 31
0.0
  0
ARC
  5
1B46F
102
{ACAD_REACTORS
330
1B4DE
102
}
330
E7BC
100
AcDbEntity
  8
YKK_B1
100
AcDbCircle
 10
503.8445312127928
 20
739.4145355627806
 30
0.0
 40
2.0
100
AcDbArc
 50
180.0
 51
270.0
  0
LINE
  5
1B470
102
{ACAD_REACTORS
330
1B4DE
102
}
330
E7BC
100
AcDbEntity
  8
YKK_B1
100
AcDbLine
 10
501.8445312127927
 20
739.4145355627806
 30
0.0
 11
501.8445312127927
 21
751.4145355627806
 31
0.0
  0
LINE
  5
1B471
102
{ACAD_REACTORS
330
1B4DE
102
}
330
E7BC
100
AcDbEntity
  8
YKK_B1
100
AcDbLine
 10
501.8445312127927
 20
751.4145355627806
 30
0.0
 11
518.8445312127928
 21
751.4145355627806
 31
0.0
  0
LINE
  5
1B472
102
{ACAD_REACTORS
330
1B4DE
102
}
330
E7BC
100
AcDbEntity
  8
YKK_B1
100
AcDbLine
 10
518.8445312127928
 20
751.4145355627806
 30
0.0
 11
518.8445312127928
 21
772.4145355627806
 31
0.0
  0
LINE
  5
1B473
102
{ACAD_REACTORS
330
1B4DF
102
}
330
E7BC
100
AcDbEntity
  8
YKK_B1
100
AcDbLine
 10
1340.349271838582
 20
950.414531825576
 30
0.0
 11
1347.349271838582
 21
950.414531825576
 31
0.0
  0
LINE
  5
1B474
102
{ACAD_REACTORS
330
1B4DF
102
}
330
E7BC
100
AcDbEntity
  8
YKK_B1
100
AcDbLine
 10
1347.349271838582
 20
950.414531825576
 30
0.0
 11
1347.349271838582
 21
983.414531825576
 31
0.0
  0
ARC
  5
1B475
102
{ACAD_REACTORS
330
1B4DF
102
}
330
E7BC
100
AcDbEntity
  8
YKK_B1
100
AcDbCircle
 10
1345.349271838582
 20
983.414531825576
 30
0.0
 40
2.0
100
AcDbArc
 50
0.0
 51
90.0
  0
LINE
  5
1B476
102
{ACAD_REACTORS
330
1B4DF
102
}
330
E7BC
100
AcDbEntity
  8
YKK_B1
100
AcDbLine
 10
1345.349271838582
 20
985.414531825576
 30
0.0
 11
1325.349271838582
 21
985.414531825576
 31
0.0
  0
ARC
  5
1B477
102
{ACAD_REACTORS
330
1B4DF
102
}
330
E7BC
100
AcDbEntity
  8
YKK_B1
100
AcDbCircle
 10
1325.349271838582
 20
983.414531825576
 30
0.0
 40
2.0
100
AcDbArc
 50
90.0
 51
180.0
  0
LINE
  5
1B478
102
{ACAD_REACTORS
330
1B4DF
102
}
330
E7BC
100
AcDbEntity
  8
YKK_B1
100
AcDbLine
 10
1323.349271838582
 20
983.414531825576
 30
0.0
 11
1323.349271838582
 21
971.4145318255759
 31
0.0
  0
LINE
  5
1B479
102
{ACAD_REACTORS
330
1B4DF
102
}
330
E7BC
100
AcDbEntity
  8
YKK_B1
100
AcDbLine
 10
1323.349271838582
 20
971.4145318255759
 30
0.0
 11
1340.349271838582
 21
971.4145318255759
 31
0.0
  0
LINE
  5
1B47A
102
{ACAD_REACTORS
330
1B4DF
102
}
330
E7BC
100
AcDbEntity
  8
YKK_B1
100
AcDbLine
 10
1340.349271838582
 20
971.4145318255759
 30
0.0
 11
1340.349271838582
 21
950.414531825576
 31
0.0
  0
LINE
  5
1B47C
102
{ACAD_REACTORS
330
1B4E0
102
}
330
E7BC
100
AcDbEntity
  8
YKK_Z1
  6
YCENTER_1
100
AcDbLine
 10
447.8941624041522
 20
863.9145337682739
 30
0.0
 11
3812.989458939981
 21
863.9145337682739
 31
0.0
  0
LINE
  5
1B47D
102
{ACAD_REACTORS
330
1B4E0
330
1B4E1
102
}
330
E7BC
100
AcDbEntity
  8
YKK_B1
100
AcDbLine
 10
2904.84456800019
 20
812.4145336850581
 30
0.0
 11
2904.84456800019
 21
786.4145336850577
 31
0.0
  0
LINE
  5
1B47E
102
{ACAD_REACTORS
330
1B4E0
330
1B4E1
102
}
330
E7BC
100
AcDbEntity
  8
YKK_B1
100
AcDbLine
 10
2906.84456800019
 20
784.4145336850576
 30
0.0
 11
2904.84456800019
 21
786.4145336850577
 31
0.0
  0
LINE
  5
1B47F
102
{ACAD_REACTORS
330
1B4E0
330
1B4E1
102
}
330
E7BC
100
AcDbEntity
  8
YKK_B1
100
AcDbLine
 10
3724.842555697898
 20
786.4145336850577
 30
0.0
 11
3724.842555697898
 21
812.4145336850576
 31
0.0
  0
LINE
  5
1B480
102
{ACAD_REACTORS
330
1B4E0
330
1B4E1
102
}
330
E7BC
100
AcDbEntity
  8
YKK_B1
100
AcDbLine
 10
3722.842555697898
 20
784.4145336850576
 30
0.0
 11
3724.842555697898
 21
786.4145336850577
 31
0.0
  0
LINE
  5
1B481
102
{ACAD_REACTORS
330
1B4E0
330
1B4E1
102
}
330
E7BC
100
AcDbEntity
  8
YKK_B1
100
AcDbLine
 10
3722.842555697898
 20
814.4145336850577
 30
0.0
 11
3724.842555697898
 21
812.4145336850576
 31
0.0
  0
LINE
  5
1B482
102
{ACAD_REACTORS
330
1B4E0
330
1B4E1
102
}
330
E7BC
100
AcDbEntity
  8
YKK_B1
100
AcDbLine
 10
3722.842555697898
 20
814.4145336850577
 30
0.0
 11
2906.84456800019
 21
814.4145336850581
 31
0.0
  0
LINE
  5
1B483
102
{ACAD_REACTORS
330
1B4E0
330
1B4E1
102
}
330
E7BC
100
AcDbEntity
  8
YKK_B1
100
AcDbLine
 10
2904.84456800019
 20
812.4145336850581
 30
0.0
 11
2906.84456800019
 21
814.4145336850581
 31
0.0
  0
LINE
  5
1B484
102
{ACAD_REACTORS
330
1B4E0
330
1B4E1
102
}
330
E7BC
100
AcDbEntity
  8
YKK_B1
100
AcDbLine
 10
3722.842555697898
 20
784.4145336850576
 30
0.0
 11
2906.84456800019
 21
784.4145336850576
 31
0.0
  0
LINE
  5
1B485
102
{ACAD_REACTORS
330
1B4E0
330
1B4E2
102
}
330
E7BC
100
AcDbEntity
  8
YKK_B1
100
AcDbLine
 10
1324.844567926099
 20
888.4145337682708
 30
0.0
 11
1324.844567926099
 21
862.4145337682703
 31
0.0
  0
LINE
  5
1B486
102
{ACAD_REACTORS
330
1B4E0
330
1B4E2
102
}
330
E7BC
100
AcDbEntity
  8
YKK_B1
100
AcDbLine
 10
1326.844567926099
 20
860.4145337682703
 30
0.0
 11
1324.844567926099
 21
862.4145337682703
 31
0.0
  0
LINE
  5
1B487
102
{ACAD_REACTORS
330
1B4E0
330
1B4E2
102
}
330
E7BC
100
AcDbEntity
  8
YKK_B1
100
AcDbLine
 10
2144.844568000191
 20
862.4145337682703
 30
0.0
 11
2144.844568000191
 21
888.4145337682703
 31
0.0
  0
LINE
  5
1B488
102
{ACAD_REACTORS
330
1B4E0
330
1B4E2
102
}
330
E7BC
100
AcDbEntity
  8
YKK_B1
100
AcDbLine
 10
2142.844568000191
 20
860.4145337682703
 30
0.0
 11
2144.844568000191
 21
862.4145337682703
 31
0.0
  0
LINE
  5
1B489
102
{ACAD_REACTORS
330
1B4E0
330
1B4E2
102
}
330
E7BC
100
AcDbEntity
  8
YKK_B1
100
AcDbLine
 10
2142.844568000191
 20
890.4145337682702
 30
0.0
 11
2144.844568000191
 21
888.4145337682703
 31
0.0
  0
LINE
  5
1B48A
102
{ACAD_REACTORS
330
1B4E0
330
1B4E2
102
}
330
E7BC
100
AcDbEntity
  8
YKK_B1
100
AcDbLine
 10
2142.844568000191
 20
890.4145337682702
 30
0.0
 11
1326.844567926099
 21
890.4145337682708
 31
0.0
  0
LINE
  5
1B48B
102
{ACAD_REACTORS
330
1B4E0
330
1B4E2
102
}
330
E7BC
100
AcDbEntity
  8
YKK_B1
100
AcDbLine
 10
1324.844567926099
 20
888.4145337682708
 30
0.0
 11
1326.844567926099
 21
890.4145337682708
 31
0.0
  0
LINE
  5
1B48C
102
{ACAD_REACTORS
330
1B4E0
330
1B4E2
102
}
330
E7BC
100
AcDbEntity
  8
YKK_B1
100
AcDbLine
 10
2142.844568000191
 20
860.4145337682703
 30
0.0
 11
1326.844567926099
 21
860.4145337682703
 31
0.0
  0
LINE
  5
1B48D
102
{ACAD_REACTORS
330
1B4E0
330
1B4E3
102
}
330
E7BC
100
AcDbEntity
  8
YKK_B1
100
AcDbLine
 10
2114.844568000191
 20
850.4145336850584
 30
0.0
 11
2114.844568000191
 21
824.414533685058
 31
0.0
  0
LINE
  5
1B48E
102
{ACAD_REACTORS
330
1B4E0
330
1B4E3
102
}
330
E7BC
100
AcDbEntity
  8
YKK_B1
100
AcDbLine
 10
2116.844568000191
 20
822.4145336850581
 30
0.0
 11
2114.844568000191
 21
824.414533685058
 31
0.0
  0
LINE
  5
1B48F
102
{ACAD_REACTORS
330
1B4E0
330
1B4E3
102
}
330
E7BC
100
AcDbEntity
  8
YKK_B1
100
AcDbLine
 10
2934.844568000191
 20
824.414533685058
 30
0.0
 11
2934.844568000191
 21
850.414533685058
 31
0.0
  0
LINE
  5
1B490
102
{ACAD_REACTORS
330
1B4E0
330
1B4E3
102
}
330
E7BC
100
AcDbEntity
  8
YKK_B1
100
AcDbLine
 10
2932.844568000191
 20
822.4145336850581
 30
0.0
 11
2934.844568000191
 21
824.414533685058
 31
0.0
  0
LINE
  5
1B491
102
{ACAD_REACTORS
330
1B4E0
330
1B4E3
102
}
330
E7BC
100
AcDbEntity
  8
YKK_B1
100
AcDbLine
 10
2932.844568000191
 20
852.4145336850581
 30
0.0
 11
2934.844568000191
 21
850.414533685058
 31
0.0
  0
LINE
  5
1B492
102
{ACAD_REACTORS
330
1B4E0
330
1B4E3
102
}
330
E7BC
100
AcDbEntity
  8
YKK_B1
100
AcDbLine
 10
2932.844568000191
 20
852.4145336850581
 30
0.0
 11
2116.844568000191
 21
852.4145336850585
 31
0.0
  0
LINE
  5
1B493
102
{ACAD_REACTORS
330
1B4E0
330
1B4E3
102
}
330
E7BC
100
AcDbEntity
  8
YKK_B1
100
AcDbLine
 10
2114.844568000191
 20
850.4145336850584
 30
0.0
 11
2116.844568000191
 21
852.4145336850585
 31
0.0
  0
LINE
  5
1B494
102
{ACAD_REACTORS
330
1B4E0
330
1B4E3
102
}
330
E7BC
100
AcDbEntity
  8
YKK_B1
100
AcDbLine
 10
2932.844568000191
 20
822.4145336850581
 30
0.0
 11
2116.844568000191
 21
822.4145336850581
 31
0.0
  0
LINE
  5
1B4E8
330
E7BC
100
AcDbEntity
  8
YKK_N1
100
AcDbLine
 10
4817.347062954477
 20
332.0000443299466
 30
0.0
 11
5142.347062954478
 21
332.0000443299466
 31
0.0
  0
LINE
  5
1B4E9
330
E7BC
100
AcDbEntity
  8
YKK_N1
100
AcDbLine
 10
5092.347062954477
 20
418.6025833924466
 30
0.0
 11
5192.347062954477
 21
418.6025833924466
 31
0.0
  0
LINE
  5
1B4EA
330
E7BC
100
AcDbEntity
  8
YKK_N1
100
AcDbLine
 10
5092.346827699643
 20
418.6024416206562
 30
0.0
 11
5142.346828372706
 21
331.9999016308027
 31
0.0
  0
LINE
  5
1B4EB
330
E7BC
100
AcDbEntity
  8
YKK_N1
100
AcDbLine
 10
5142.346967432271
 20
331.9999156368683
 30
0.0
 11
5192.346968105326
 21
418.6024556267217
 31
0.0
  0
LINE
  5
1B4EC
330
E7BC
100
AcDbEntity
  8
YKK_N1
100
AcDbLine
 10
4817.347062954477
 20
341.0033651321868
 30
0.0
 11
4942.346923894912
 21
341.0033651321868
 31
0.0
  0
LINE
  5
1B4ED
330
E7BC
100
AcDbEntity
  8
YKK_N1
100
AcDbLine
 10
4942.346828372706
 20
341.0032364391085
 30
0.0
 11
4942.346828372706
 21
332.0000443299466
 31
0.0
  0
CIRCLE
  5
1B4EE
330
E7BC
100
AcDbEntity
  8
YKK_N1
100
AcDbCircle
 10
4942.346828372706
 20
332.0000443299466
 30
0.0
 40
5.0
  0
TEXT
  5
1B4EF
330
E7BC
100
AcDbEntity
  8
YKK_N1
100
AcDbText
 10
4929.766016405522
 20
356.0899738139362
 30
0.0
 40
60.0
  1
9
 50
90.00000000000005
 72
     4
 11
4899.766016405521
 21
376.0899738139362
 31
0.0
100
AcDbText
1001
YTEXT_INFOMATION
1002
{
1000
12
1002
}
1000
MC
1010
-40.00000000000002
1020
-29.99999999999997
1030
0.0
1040
60.0
1070
     0
1002
{
1000
TEXTOBJECTS
1000
1B4EF
1002
}
  0
CIRCLE
  5
1B4F0
330
E7BC
100
AcDbEntity
  8
YKK_N1
100
AcDbCircle
 10
4942.346923894912
 20
341.0032364391085
 30
0.0
 40
5.0
  0
LINE
  5
1B4F1
330
E7BC
100
AcDbEntity
  8
YKK_N1
100
AcDbLine
 10
4817.347062954477
 20
320.000030323881
 30
0.0
 11
5142.346923894912
 21
320.000030323881
 31
0.0
  0
LINE
  5
1B4F2
330
E7BC
100
AcDbEntity
  8
YKK_N1
100
AcDbLine
 10
5142.346828372706
 20
331.9999016308027
 30
0.0
 11
5142.346828372706
 21
319.9999016308027
 31
0.0
  0
CIRCLE
  5
1B4F3
330
E7BC
100
AcDbEntity
  8
YKK_N1
100
AcDbCircle
 10
5142.346923894912
 20
320.000030323881
 30
0.0
 40
5.0
  0
TEXT
  5
1B4F4
330
E7BC
100
AcDbEntity
  8
YKK_N1
100
AcDbText
 10
5130.346923894911
 20
209.3415784917904
 30
0.0
 40
60.0
  1
12
 50
90.00000000000005
 72
     4
 11
5100.346923894912
 21
249.3415784917904
 31
0.0
100
AcDbText
1001
YTEXT_INFOMATION
1002
{
1000
12
1002
}
1000
MC
1010
-40.00000000000002
1020
-29.99999999999997
1030
0.0
1040
60.0
1070
     0
1002
{
1000
TEXTOBJECTS
1000
1B4F4
1002
}
  0
LINE
  5
1B4F5
330
E7BC
100
AcDbEntity
  8
YKK_N1
100
AcDbLine
 10
5142.347062954478
 20
331.9999016308027
 30
0.0
 11
5142.347062954478
 21
2365.000001630804
 31
0.0
  0
LINE
  5
1B4F6
330
E7BC
100
AcDbEntity
  8
YKK_N1
100
AcDbLine
 10
4817.347062954477
 20
2365.000022259636
 30
0.0
 11
5142.347297536247
 21
2365.000022259636
 31
0.0
  0
LINE
  5
1B4F7
330
E7BC
100
AcDbEntity
  8
YKK_N1
100
AcDbLine
 10
4817.347062954477
 20
2341.000022259637
 30
0.0
 11
4942.347062954477
 21
2341.000022259637
 31
0.0
  0
LINE
  5
1B4F8
330
E7BC
100
AcDbEntity
  8
YKK_N1
100
AcDbLine
 10
4942.347062954477
 20
2365.000022259637
 30
0.0
 11
4942.347062954477
 21
2341.000022259637
 31
0.0
  0
CIRCLE
  5
1B4F9
330
E7BC
100
AcDbEntity
  8
YKK_N1
100
AcDbCircle
 10
4942.347062954477
 20
2365.000022259637
 30
0.0
 40
5.0
  0
CIRCLE
  5
1B4FA
330
E7BC
100
AcDbEntity
  8
YKK_N1
100
AcDbCircle
 10
4942.347062954477
 20
2341.000022259637
 30
0.0
 40
5.0
  0
TEXT
  5
1B4FB
330
E7BC
100
AcDbEntity
  8
YKK_N1
100
AcDbText
 10
4925.472393549951
 20
2230.46952243299
 30
0.0
 40
60.0
  1
24
 50
90.00000000000005
 72
     4
 11
4895.472393549951
 21
2280.46952243299
 31
0.0
100
AcDbText
  0
LINE
  5
1B4FC
330
E7BC
100
AcDbEntity
  8
YKK_N1
100
AcDbLine
 10
5092.347297536246
 20
2278.397483197136
 30
0.0
 11
5192.347297536247
 21
2278.397483197136
 31
0.0
  0
LINE
  5
1B4FD
330
E7BC
100
AcDbEntity
  8
YKK_N1
100
AcDbLine
 10
5142.347036102576
 20
2365.000020611544
 30
0.0
 11
5192.34703677564
 21
2278.397480621694
 31
0.0
  0
LINE
  5
1B4FE
330
E7BC
100
AcDbEntity
  8
YKK_N1
100
AcDbLine
 10
5092.347289228034
 20
2278.397600343749
 30
0.0
 11
5142.347289901088
 21
2365.000140333603
 31
0.0
  0
TEXT
  5
1B4FF
330
E7BC
100
AcDbEntity
  8
YKK_N1
100
AcDbText
 10
5130.347062954475
 20
1183.499902012272
 30
0.0
 40
60.0
  1
H=2033
 50
90.00000000000005
 72
     4
 11
5100.347062954476
 21
1348.499902012272
 31
0.0
100
AcDbText
1001
YTEXT_INFOMATION
1002
{
1000
H=2033
1002
}
1000
MC
1010
-165.0
1020
-29.99999999999988
1030
0.0
1040
60.0
1070
     0
1002
{
1000
TEXTOBJECTS
1000
1B4FF
1002
}
  0
TEXT
  5
1B500
330
E7BC
100
AcDbEntity
  8
YKK_N1
100
AcDbText
 10
5130.347062954475
 20
2418.839963303264
 30
0.0
 40
60.0
  1
11.5
 50
90.0
 72
     4
 11
5100.347062954476
 21
2488.839963303264
 31
0.0
100
AcDbText
  0
CIRCLE
  5
1B501
330
E7BC
100
AcDbEntity
  8
YKK_N1
100
AcDbCircle
 10
5142.347062954478
 20
2376.499747250546
 30
0.0
 40
5.0
  0
LINE
  5
1B502
330
E7BC
100
AcDbEntity
  8
YKK_N1
100
AcDbLine
 10
5142.347062954478
 20
2364.999747250546
 30
0.0
 11
5142.347062954478
 21
2376.499747250546
 31
0.0
  0
LINE
  5
1B503
330
E7BC
100
AcDbEntity
  8
YKK_N1
100
AcDbLine
 10
4817.347061286561
 20
2376.499747250549
 30
0.0
 11
5142.347062954478
 21
2376.499747250546
 31
0.0
  0
LINE
  5
1B505
330
E7BC
100
AcDbEntity
  8
YKK_N1
100
AcDbLine
 10
4445.847063030003
 20
1395.623902873274
 30
0.0
 11
4646.847063030004
 21
1395.623902873274
 31
0.0
  0
CIRCLE
  5
1B509
330
E7BC
100
AcDbEntity
  8
YKK_N1
100
AcDbCircle
 10
4445.847063030003
 20
1395.623902873274
 30
0.0
 40
5.0
  0
CIRCLE
  5
1B50A
330
E7BC
100
AcDbEntity
  8
YKK_N1
100
AcDbCircle
 10
4646.847063030004
 20
1395.623902873274
 30
0.0
 40
5.0
  0
TEXT
  5
1B50B
330
E7BC
100
AcDbEntity
  8
YKK_N1
100
AcDbText
 10
4292.752735877399
 20
1406.701195031615
 30
0.0
 40
60.0
  1
201
 72
     4
 11
4357.7527358774
 21
1436.701195031615
 31
0.0
100
AcDbText
1001
YTEXT_INFOMATION
1002
{
1000
156
1002
}
1000
MC
1010
-70.0
1020
-29.99999999999999
1030
0.0
1040
60.0
1070
     0
1002
{
1000
TEXTOBJECTS
1000
1B50B
1002
}
  0
TEXT
  5
1B525
330
E7BC
100
AcDbEntity
  8
YKK_N1
100
AcDbText
 10
4322.910667957694
 20
1607.623902873274
 30
0.0
 40
60.0
  1
30
 72
     4
 11
4367.910667957694
 21
1637.623902873274
 31
0.0
100
AcDbText
  0
LINE
  5
1B526
330
E7BC
100
AcDbEntity
  8
YKK_N1
100
AcDbLine
 10
4517.347063579609
 20
1595.623902873274
 30
0.0
 11
4547.347063579608
 21
1595.623902873274
 31
0.0
  0
CIRCLE
  5
1B527
330
E7BC
100
AcDbEntity
  8
YKK_N1
100
AcDbCircle
 10
4517.347063579609
 20
1595.623902873274
 30
0.0
 40
5.0
  0
CIRCLE
  5
1B528
330
E7BC
100
AcDbEntity
  8
YKK_N1
100
AcDbCircle
 10
4547.347063579608
 20
1595.623902873274
 30
0.0
 40
5.0
  0
LINE
  5
1B637
330
E7BC
100
AcDbEntity
  8
YKK_N1
100
AcDbLine
 10
3741.344530288114
 20
587.4145660803588
 30
0.0
 11
3741.344530288114
 21
262.4145355627807
 31
0.0
  0
LINE
  5
1B638
330
E7BC
100
AcDbEntity
  8
YKK_N1
100
AcDbLine
 10
513.4517896546972
 20
255.9587834177365
 30
0.0
 11
3741.344530288114
 21
262.4145355627807
 31
0.0
  0
LINE
  5
1B639
330
E7BC
100
AcDbEntity
  8
YKK_N1
100
AcDbLine
 10
3654.741999859388
 20
212.4145499006491
 30
0.0
 11
3741.344539849239
 21
262.4145505737079
 31
0.0
  0
LINE
  5
1B63A
330
E7BC
100
AcDbEntity
  8
YKK_N1
100
AcDbLine
 10
3654.741991225613
 20
312.4145355627807
 30
0.0
 11
3654.741991225613
 21
212.4145355627807
 31
0.0
  0
LINE
  5
1B63B
330
E7BC
100
AcDbEntity
  8
YKK_N1
100
AcDbLine
 10
3654.742006005121
 20
312.4145235416727
 30
0.0
 11
3741.344519565971
 21
262.414538127403
 31
0.0
  0
TEXT
  5
1B63C
330
E7BC
100
AcDbEntity
  8
YKK_N1
100
AcDbText
 10
3606.750451698228
 20
474.4145355627806
 30
0.0
 40
60.0
  1
20
 72
     4
 11
3651.750451698228
 21
504.4145355627807
 31
0.0
100
AcDbText
  0
CIRCLE
  5
1B63D
330
E7BC
100
AcDbEntity
  8
YKK_N1
100
AcDbCircle
 10
3741.344530288114
 20
462.4145355627807
 30
0.0
 40
5.0
  0
CIRCLE
  5
1B63E
330
E7BC
100
AcDbEntity
  8
YKK_N1
100
AcDbCircle
 10
3721.344530288114
 20
462.4145355627807
 30
0.0
 40
5.0
  0
LINE
  5
1B63F
330
E7BC
100
AcDbEntity
  8
YKK_N1
100
AcDbLine
 10
3721.344530288114
 20
587.4145660803588
 30
0.0
 11
3721.344530288114
 21
462.4145355627807
 31
0.0
  0
LINE
  5
1B640
330
E7BC
100
AcDbEntity
  8
YKK_N1
100
AcDbLine
 10
3721.344530288114
 20
462.4145355627807
 30
0.0
 11
3741.344530288114
 21
462.4145355627807
 31
0.0
  0
TEXT
  5
1B641
330
E7BC
100
AcDbEntity
  8
YKK_N1
100
AcDbText
 10
3795.184746340835
 20
274.4145644124433
 30
0.0
 40
60.0
  1
11.5
 72
     4
 11
3865.184746340835
 21
304.4145644124433
 31
0.0
100
AcDbText
  0
CIRCLE
  5
1B642
330
E7BC
100
AcDbEntity
  8
YKK_N1
100
AcDbCircle
 10
3752.844530288117
 20
262.4145644124433
 30
0.0
 40
5.0
  0
LINE
  5
1B643
330
E7BC
100
AcDbEntity
  8
YKK_N1
100
AcDbLine
 10
3741.344530288117
 20
262.4145644124433
 30
0.0
 11
3752.844530288117
 21
262.4145644124433
 31
0.0
  0
LINE
  5
1B644
330
E7BC
100
AcDbEntity
  8
YKK_N1
100
AcDbLine
 10
3752.844530288121
 20
587.4145660803588
 30
0.0
 11
3752.844530288117
 21
262.4145644124433
 31
0.0
  0
LINE
  5
1B645
330
E7BC
100
AcDbEntity
  8
YKK_N1
100
AcDbLine
 10
513.4517752824352
 20
580.9587933834819
 30
0.0
 11
513.4517752824352
 21
255.9587628659038
 31
0.0
  0
LINE
  5
1B646
330
E7BC
100
AcDbEntity
  8
YKK_N1
100
AcDbLine
 10
600.0543143449354
 20
305.9587628659038
 30
0.0
 11
600.0543143449354
 21
205.9587628659038
 31
0.0
  0
LINE
  5
1B647
330
E7BC
100
AcDbEntity
  8
YKK_N1
100
AcDbLine
 10
513.4517869054938
 20
255.9587850049902
 30
0.0
 11
600.0543275147752
 21
205.9587839743036
 31
0.0
  0
LINE
  5
1B648
330
E7BC
100
AcDbEntity
  8
YKK_N1
100
AcDbLine
 10
513.4517721082188
 20
255.9587732872724
 30
0.0
 11
600.0543120980687
 21
305.9587739603312
 31
0.0
  0
TEXT
  5
1B649
330
E7BC
100
AcDbEntity
  8
YKK_N1
100
AcDbText
 10
560.7772366119637
 20
467.9587628659038
 30
0.0
 40
60.0
  1
20
 72
     4
 11
605.7772366119637
 21
497.9587628659039
 31
0.0
100
AcDbText
  0
CIRCLE
  5
1B64A
330
E7BC
100
AcDbEntity
  8
YKK_N1
100
AcDbCircle
 10
533.4517752824353
 20
455.9587628659038
 30
0.0
 40
5.0
  0
LINE
  5
1B64B
330
E7BC
100
AcDbEntity
  8
YKK_N1
100
AcDbLine
 10
513.4517752824352
 20
455.9587628659038
 30
0.0
 11
533.4517752824353
 21
455.9587628659038
 31
0.0
  0
CIRCLE
  5
1B64C
330
E7BC
100
AcDbEntity
  8
YKK_N1
100
AcDbCircle
 10
513.4517752824352
 20
455.9587628659038
 30
0.0
 40
5.0
  0
LINE
  5
1B64D
330
E7BC
100
AcDbEntity
  8
YKK_N1
100
AcDbLine
 10
533.4517752824353
 20
580.9587933834819
 30
0.0
 11
533.4517752824353
 21
455.9587628659038
 31
0.0
  0
TEXT
  5
1B64E
330
E7BC
100
AcDbEntity
  8
YKK_N1
100
AcDbText
 10
319.6115592297169
 20
267.9587917155668
 30
0.0
 40
60.0
  1
11.5
 72
     4
 11
389.6115592297169
 21
297.9587917155669
 31
0.0
100
AcDbText
  0
CIRCLE
  5
1B64F
330
E7BC
100
AcDbEntity
  8
YKK_N1
100
AcDbCircle
 10
501.9517752824354
 20
255.9587917155669
 30
0.0
 40
5.0
  0
LINE
  5
1B650
330
E7BC
100
AcDbEntity
  8
YKK_N1
100
AcDbLine
 10
513.4517752824352
 20
255.9587917155669
 30
0.0
 11
501.9517752824354
 21
255.9587917155669
 31
0.0
  0
LINE
  5
1B651
330
E7BC
100
AcDbEntity
  8
YKK_N1
100
AcDbLine
 10
501.9517752824318
 20
580.9587933834819
 30
0.0
 11
501.9517752824354
 21
255.9587917155669
 31
0.0
  0
TEXT
  5
1B652
330
E7BC
100
AcDbEntity
  8
YKK_N1
100
AcDbText
 10
1947.398159971406
 20
274.414545838697
 30
0.0
 40
60.0
  1
W=3228
 72
     4
 11
2127.398159971406
 21
304.414545838697
 31
0.0
100
AcDbText
  0
LINE
  5
1B653
330
E7BC
100
AcDbEntity
  8
YKK_N1
100
AcDbLine
 10
733.3445305197824
 20
760.9145336941775
 30
0.0
 11
733.3445305197824
 21
903.4145334585959
 31
0.0
  0
CIRCLE
  5
1B654
330
E7BC
100
AcDbEntity
  8
YKK_N1
100
AcDbCircle
 10
733.3445305197824
 20
760.9145336941775
 30
0.0
 40
5.0
  0
CIRCLE
  5
1B655
330
E7BC
100
AcDbEntity
  8
YKK_N1
100
AcDbCircle
 10
733.3445305197824
 20
903.4145334585959
 30
0.0
 40
5.0
  0
TEXT
  5
1B656
330
E7BC
100
AcDbEntity
  8
YKK_N1
100
AcDbText
 10
712.5847181313878
 20
964.151347410778
 30
0.0
 40
60.0
  1
142.5
 50
90.0
 72
     4
 11
682.5847181313878
 21
1074.151347410778
 31
0.0
100
AcDbText
1001
YTEXT_INFOMATION
1002
{
1000
156
1002
}
1000
MC
1010
-70.0
1020
-29.99999999999999
1030
0.0
1040
60.0
1070
     0
1002
{
1000
TEXTOBJECTS
1000
1B656
1002
}
  0
LINE
  5
1B657
330
E7BC
100
AcDbEntity
  8
YKK_N1
100
AcDbLine
 10
608.3445305197824
 20
903.4145334585959
 30
0.0
 11
733.3445305197824
 21
903.4145334585959
 31
0.0
  0
LINE
  5
1B658
330
E7BC
100
AcDbEntity
  8
YKK_N1
100
AcDbLine
 10
608.3445305197824
 20
760.9145336941775
 30
0.0
 11
733.3445305197824
 21
760.9145336941775
 31
0.0
  0
LINE
  5
1B659
330
E7BC
100
AcDbEntity
  8
YKK_N1
100
AcDbLine
 10
1554.846542747979
 20
898.4145336941766
 30
0.0
 11
1554.846542747979
 21
961.9145336941775
 31
0.0
  0
CIRCLE
  5
1B65A
330
E7BC
100
AcDbEntity
  8
YKK_N1
100
AcDbCircle
 10
1554.846542747979
 20
898.4145336941766
 30
0.0
 40
5.0
  0
CIRCLE
  5
1B65B
330
E7BC
100
AcDbEntity
  8
YKK_N1
100
AcDbCircle
 10
1554.846542747979
 20
961.9145336941775
 30
0.0
 40
5.0
  0
TEXT
  5
1B65C
330
E7BC
100
AcDbEntity
  8
YKK_N1
100
AcDbText
 10
1534.086730359584
 20
984.151347410779
 30
0.0
 40
60.0
  1
63.5
 50
90.0
 72
     4
 11
1504.086730359584
 21
1074.151347410779
 31
0.0
100
AcDbText
1001
YTEXT_INFOMATION
1002
{
1000
156
1002
}
1000
MC
1010
-70.0
1020
-29.99999999999999
1030
0.0
1040
60.0
1070
     0
1002
{
1000
TEXTOBJECTS
1000
1B65C
1002
}
  0
LINE
  5
1B65D
330
E7BC
100
AcDbEntity
  8
YKK_N1
100
AcDbLine
 10
1429.846542747979
 20
961.9145336941775
 30
0.0
 11
1554.846542747979
 21
961.9145336941775
 31
0.0
  0
LINE
  5
1B65E
330
E7BC
100
AcDbEntity
  8
YKK_N1
100
AcDbLine
 10
1429.846542747979
 20
898.4145336941766
 30
0.0
 11
1554.846542747979
 21
898.4145336941766
 31
0.0
  0
TEXT
  5
1B65F
330
E7BC
100
AcDbEntity
  8
YKK_N1
100
AcDbText
 10
3529.344586442844
 20
634.7291931950801
 30
0.0
 40
60.0
  1
30
 50
90.0
 72
     4
 11
3499.344586442845
 21
679.7291931950801
 31
0.0
100
AcDbText
  0
LINE
  5
1B660
330
E7BC
100
AcDbEntity
  8
YKK_N1
100
AcDbLine
 10
3341.344586442844
 20
760.9145336850572
 30
0.0
 11
3341.344586442844
 21
961.9145336941782
 31
0.0
  0
LINE
  5
1B661
330
E7BC
100
AcDbEntity
  8
YKK_N1
100
AcDbLine
 10
3541.344586442844
 20
784.4145336850572
 30
0.0
 11
3541.344586442844
 21
814.4145336850577
 31
0.0
  0
CIRCLE
  5
1B662
330
E7BC
100
AcDbEntity
  8
YKK_N1
100
AcDbCircle
 10
3541.344586442844
 20
784.4145336850572
 30
0.0
 40
5.0
  0
CIRCLE
  5
1B663
330
E7BC
100
AcDbEntity
  8
YKK_N1
100
AcDbCircle
 10
3541.344586442844
 20
814.4145336850577
 30
0.0
 40
5.0
  0
CIRCLE
  5
1B664
330
E7BC
100
AcDbEntity
  8
YKK_N1
100
AcDbCircle
 10
3341.344586442844
 20
760.9145336850572
 30
0.0
 40
5.0
  0
CIRCLE
  5
1B665
330
E7BC
100
AcDbEntity
  8
YKK_N1
100
AcDbCircle
 10
3341.344586442844
 20
961.9145336941782
 30
0.0
 40
5.0
  0
TEXT
  5
1B666
330
E7BC
100
AcDbEntity
  8
YKK_N1
100
AcDbText
 10
3329.344586442844
 20
604.9414671892679
 30
0.0
 40
60.0
  1
201
 50
90.0
 72
     4
 11
3299.344586442844
 21
669.941467189268
 31
0.0
100
AcDbText
1001
YTEXT_INFOMATION
1002
{
1000
156
1002
}
1000
MC
1010
-70.0
1020
-29.99999999999999
1030
0.0
1040
60.0
1070
     0
1002
{
1000
TEXTOBJECTS
1000
1B666
1002
}
  0
LINE
  5
1B667
330
E7BC
100
AcDbEntity
  8
YKK_N1
100
AcDbLine
 10
3646.34456800019
 20
961.9145336941782
 30
0.0
 11
3341.344586442844
 21
961.9145336941782
 31
0.0
  0
LINE
  5
1B668
330
E7BC
100
AcDbEntity
  8
YKK_N1
100
AcDbLine
 10
3646.34456800019
 20
760.9145336850572
 30
0.0
 11
3341.344586442844
 21
760.9145336850572
 31
0.0
  0
LINE
  5
1B74D
330
E7BC
100
AcDbEntity
  8
YKK_B1
100
AcDbLine
 10
1342.566905856327
 20
4134.500030517581
 30
0.0
 11
1350.566905856327
 21
4134.500030517581
 31
0.0
  0
LINE
  5
1B74E
330
E7BC
100
AcDbEntity
  8
YKK_B1
100
AcDbLine
 10
1350.566905856327
 20
4134.500030517581
 30
0.0
 11
1350.566905856327
 21
4118.500030517582
 31
0.0
  0
LINE
  5
1B74F
330
E7BC
100
AcDbEntity
  8
YKK_B1
100
AcDbLine
 10
1350.566905856327
 20
4118.500030517582
 30
0.0
 11
1356.566905856327
 21
4118.500030517582
 31
0.0
  0
LINE
  5
1B750
330
E7BC
100
AcDbEntity
  8
YKK_B1
100
AcDbLine
 10
1356.566905856327
 20
4118.500030517582
 30
0.0
 11
1356.566905856327
 21
4190.500030517582
 31
0.0
  0
ARC
  5
1B751
330
E7BC
100
AcDbEntity
  8
YKK_B1
100
AcDbCircle
 10
1354.566905856327
 20
4190.500030517582
 30
0.0
 40
2.0
100
AcDbArc
 50
0.0
 51
90.0
  0
LINE
  5
1B752
330
E7BC
100
AcDbEntity
  8
YKK_B1
100
AcDbLine
 10
1354.566905856327
 20
4192.500030517582
 30
0.0
 11
1336.566905856327
 21
4192.500030517582
 31
0.0
  0
LINE
  5
1B753
330
E7BC
100
AcDbEntity
  8
YKK_B1
100
AcDbLine
 10
1336.566905856327
 20
4192.500030517582
 30
0.0
 11
1336.566905856327
 21
4118.500030517582
 31
0.0
  0
LINE
  5
1B754
330
E7BC
100
AcDbEntity
  8
YKK_B1
100
AcDbLine
 10
1336.566905856327
 20
4118.500030517582
 30
0.0
 11
1342.566905856327
 21
4118.500030517582
 31
0.0
  0
LINE
  5
1B755
330
E7BC
100
AcDbEntity
  8
YKK_B1
100
AcDbLine
 10
1342.566905856327
 20
4118.500030517582
 30
0.0
 11
1342.566905856327
 21
4134.500030517581
 31
0.0
  0
LINE
  5
1B756
330
E7BC
100
AcDbEntity
  8
YKK_B1
100
AcDbLine
 10
3723.568918889717
 20
4051.500030517581
 30
0.0
 11
3723.068918889717
 21
4051.000030517581
 31
0.0
  0
LINE
  5
1B757
330
E7BC
100
AcDbEntity
  8
YKK_B1
100
AcDbLine
 10
3723.068918889717
 20
4051.000030517581
 30
0.0
 11
3723.068918889717
 21
4040.500030517581
 31
0.0
  0
ARC
  5
1B758
330
E7BC
100
AcDbEntity
  8
YKK_B1
100
AcDbCircle
 10
3724.068918889717
 20
4040.500030517581
 30
0.0
 40
1.0
100
AcDbArc
 50
180.0
 51
270.0
  0
LINE
  5
1B759
330
E7BC
100
AcDbEntity
  8
YKK_B1
100
AcDbLine
 10
3724.068918889717
 20
4039.500030517581
 30
0.0
 11
3726.068918889717
 21
4039.500030517581
 31
0.0
  0
ARC
  5
1B75A
330
E7BC
100
AcDbEntity
  8
YKK_B1
100
AcDbCircle
 10
3726.068918889717
 20
4037.500030517581
 30
0.0
 40
2.0
100
AcDbArc
 50
0.0
 51
90.0
  0
LINE
  5
1B75B
330
E7BC
100
AcDbEntity
  8
YKK_B1
100
AcDbLine
 10
3728.068918889717
 20
4037.500030517581
 30
0.0
 11
3728.068918889717
 21
4001.500030517581
 31
0.0
  0
ARC
  5
1B75C
330
E7BC
100
AcDbEntity
  8
YKK_B1
100
AcDbCircle
 10
3726.068918889717
 20
4001.500030517581
 30
0.0
 40
2.0
100
AcDbArc
 50
270.0
 51
0.0
  0
LINE
  5
1B75D
330
E7BC
100
AcDbEntity
  8
YKK_B1
100
AcDbLine
 10
3726.068918889717
 20
3999.500030517582
 30
0.0
 11
3724.068918889717
 21
3999.500030517582
 31
0.0
  0
ARC
  5
1B75E
330
E7BC
100
AcDbEntity
  8
YKK_B1
100
AcDbCircle
 10
3724.068918889717
 20
3998.500030517582
 30
0.0
 40
1.0
100
AcDbArc
 50
90.0
 51
180.0
  0
LINE
  5
1B75F
330
E7BC
100
AcDbEntity
  8
YKK_B1
100
AcDbLine
 10
3723.068918889717
 20
3998.500030517582
 30
0.0
 11
3723.068918889717
 21
3984.500030517582
 31
0.0
  0
ARC
  5
1B760
330
E7BC
100
AcDbEntity
  8
YKK_B1
100
AcDbCircle
 10
3725.068918889717
 20
3984.500030517582
 30
0.0
 40
2.0
100
AcDbArc
 50
180.0
 51
270.0
  0
LINE
  5
1B761
330
E7BC
100
AcDbEntity
  8
YKK_B1
100
AcDbLine
 10
3725.068918889717
 20
3982.500030517581
 30
0.0
 11
3743.068918889717
 21
3982.500030517581
 31
0.0
  0
LINE
  5
1B762
330
E7BC
100
AcDbEntity
  8
YKK_B1
100
AcDbLine
 10
3743.068918889717
 20
3982.500030517581
 30
0.0
 11
3743.068918889717
 21
4007.500030517581
 31
0.0
  0
LINE
  5
1B763
330
E7BC
100
AcDbEntity
  8
YKK_B1
100
AcDbLine
 10
3743.068918889717
 20
4007.500030517581
 30
0.0
 11
3743.068918889717
 21
4167.500030517582
 31
0.0
  0
LINE
  5
1B764
330
E7BC
100
AcDbEntity
  8
YKK_B1
100
AcDbLine
 10
3743.068918889717
 20
4167.500030517582
 30
0.0
 11
3743.068918889717
 21
4192.500030517582
 31
0.0
  0
LINE
  5
1B765
330
E7BC
100
AcDbEntity
  8
YKK_B1
100
AcDbLine
 10
3743.068918889717
 20
4192.500030517582
 30
0.0
 11
3725.068918889717
 21
4192.500030517582
 31
0.0
  0
ARC
  5
1B766
330
E7BC
100
AcDbEntity
  8
YKK_B1
100
AcDbCircle
 10
3725.068918889717
 20
4190.500030517582
 30
0.0
 40
2.0
100
AcDbArc
 50
90.0
 51
180.0
  0
LINE
  5
1B767
330
E7BC
100
AcDbEntity
  8
YKK_B1
100
AcDbLine
 10
3723.068918889717
 20
4190.500030517582
 30
0.0
 11
3723.068918889717
 21
4064.000030517581
 31
0.0
  0
LINE
  5
1B768
330
E7BC
100
AcDbEntity
  8
YKK_B1
100
AcDbLine
 10
3723.068918889717
 20
4064.000030517581
 30
0.0
 11
3723.568918889717
 21
4063.500030517581
 31
0.0
  0
LINE
  5
1B769
330
E7BC
100
AcDbEntity
  8
YKK_B1
100
AcDbLine
 10
3723.568918889717
 20
4063.500030517581
 30
0.0
 11
3728.068918889717
 21
4063.500030517581
 31
0.0
  0
LINE
  5
1B76A
330
E7BC
100
AcDbEntity
  8
YKK_B1
100
AcDbLine
 10
3728.068918889717
 20
4063.500030517581
 30
0.0
 11
3728.068918889717
 21
4062.500030517582
 31
0.0
  0
LINE
  5
1B76B
330
E7BC
100
AcDbEntity
  8
YKK_B1
100
AcDbLine
 10
3728.068918889717
 20
4062.500030517582
 30
0.0
 11
3728.068918889717
 21
4052.500030517581
 31
0.0
  0
LINE
  5
1B76C
330
E7BC
100
AcDbEntity
  8
YKK_B1
100
AcDbLine
 10
3728.068918889717
 20
4052.500030517581
 30
0.0
 11
3728.068918889717
 21
4051.500030517581
 31
0.0
  0
LINE
  5
1B76D
330
E7BC
100
AcDbEntity
  8
YKK_B1
100
AcDbLine
 10
3728.068918889717
 20
4051.500030517581
 30
0.0
 11
3723.568918889717
 21
4051.500030517581
 31
0.0
  0
LINE
  5
1B76E
330
E7BC
100
AcDbEntity
  8
YKK_B1
100
AcDbLine
 10
528.0689188897158
 20
4123.500030517581
 30
0.0
 11
535.0689188897168
 21
4123.500030517581
 31
0.0
1001
YOBJCUT11101132421
1000
SHAPE
  0
LINE
  5
1B76F
330
E7BC
100
AcDbEntity
  8
YKK_B1
100
AcDbLine
 10
535.0689188897168
 20
4123.500030517581
 30
0.0
 11
535.0689188897168
 21
3984.500030517582
 31
0.0
1001
YOBJCUT11101132421
1000
SHAPE
  0
ARC
  5
1B770
330
E7BC
100
AcDbEntity
  8
YKK_B1
100
AcDbCircle
 10
533.0689188897167
 20
3984.500030517582
 30
0.0
 40
2.0
100
AcDbArc
 50
270.0
 51
0.0
1001
YOBJCUT11101132421
1000
SHAPE
  0
LINE
  5
1B771
330
E7BC
100
AcDbEntity
  8
YKK_B1
100
AcDbLine
 10
533.0689188897167
 20
3982.500030517581
 30
0.0
 11
515.0689188897167
 21
3982.500030517581
 31
0.0
1001
YOBJCUT11101132421
1000
SHAPE
  0
LINE
  5
1B772
330
E7BC
100
AcDbEntity
  8
YKK_B1
100
AcDbLine
 10
515.0689188897167
 20
3982.500030517581
 30
0.0
 11
515.0689188897167
 21
4037.500030517579
 31
0.0
1001
YOBJCUT11101132421
1000
SHAPE
  0
LINE
  5
1B773
330
E7BC
100
AcDbEntity
  8
YKK_B1
100
AcDbLine
 10
515.0689188897167
 20
4037.500030517579
 30
0.0
 11
515.0689188897167
 21
4123.500030517581
 31
0.0
1001
YOBJCUT11101132421
1000
SHAPE
  0
LINE
  5
1B774
330
E7BC
100
AcDbEntity
  8
YKK_B1
100
AcDbLine
 10
515.0689188897167
 20
4123.500030517581
 30
0.0
 11
528.0689188897158
 21
4123.500030517581
 31
0.0
1001
YOBJCUT11101132421
1000
SHAPE
  0
LINE
  5
1B775
330
E7BC
100
AcDbEntity
  8
YKK_B1
100
AcDbLine
 10
4609.347060141515
 20
5599.699999999906
 30
0.0
 11
4590.347060141513
 21
5599.699999999906
 31
0.0
  0
LINE
  5
1B776
330
E7BC
100
AcDbEntity
  8
YKK_B1
100
AcDbLine
 10
4590.347060141513
 20
5599.699999999906
 30
0.0
 11
4590.347060141513
 21
5602.499999999905
 31
0.0
  0
LINE
  5
1B777
330
E7BC
100
AcDbEntity
  8
YKK_B1
100
AcDbLine
 10
4590.347060141513
 20
5602.499999999905
 30
0.0
 11
4571.347060141513
 21
5602.499999999905
 31
0.0
  0
LINE
  5
1B778
330
E7BC
100
AcDbEntity
  8
YKK_B1
100
AcDbLine
 10
4571.347060141513
 20
5602.499999999905
 30
0.0
 11
4571.347060141515
 21
5599.699999999906
 31
0.0
  0
LINE
  5
1B779
330
E7BC
100
AcDbEntity
  8
YKK_B1
100
AcDbLine
 10
4571.347060141515
 20
5599.699999999906
 30
0.0
 11
4552.347060141515
 21
5599.699999999906
 31
0.0
  0
LINE
  5
1B77A
330
E7BC
100
AcDbEntity
  8
YKK_B1
100
AcDbLine
 10
4552.347060141515
 20
5599.699999999906
 30
0.0
 11
4552.347060141513
 21
5602.499999999905
 31
0.0
  0
LINE
  5
1B77B
330
E7BC
100
AcDbEntity
  8
YKK_B1
100
AcDbLine
 10
4552.347060141513
 20
5602.499999999905
 30
0.0
 11
4533.347060141513
 21
5602.499999999905
 31
0.0
  0
LINE
  5
1B77C
330
E7BC
100
AcDbEntity
  8
YKK_B1
100
AcDbLine
 10
4533.347060141513
 20
5602.499999999905
 30
0.0
 11
4533.347060141514
 21
5599.699999999906
 31
0.0
  0
LINE
  5
1B77D
330
E7BC
100
AcDbEntity
  8
YKK_B1
100
AcDbLine
 10
4533.347060141514
 20
5599.699999999906
 30
0.0
 11
4525.147060141514
 21
5599.699999999906
 31
0.0
  0
ARC
  5
1B77E
330
E7BC
100
AcDbEntity
  8
YKK_B1
100
AcDbCircle
 10
4525.147060141514
 20
5597.699999999903
 30
0.0
 40
2.0
100
AcDbArc
 50
90.0
 51
180.0
  0
LINE
  5
1B77F
330
E7BC
100
AcDbEntity
  8
YKK_B1
100
AcDbLine
 10
4523.147060141513
 20
5597.699999999903
 30
0.0
 11
4523.147060141513
 21
5588.999999999905
 31
0.0
  0
LINE
  5
1B780
330
E7BC
100
AcDbEntity
  8
YKK_B1
100
AcDbLine
 10
4523.147060141513
 20
5588.999999999905
 30
0.0
 11
4522.647060141514
 21
5588.499999999903
 31
0.0
  0
LINE
  5
1B781
330
E7BC
100
AcDbEntity
  8
YKK_B1
100
AcDbLine
 10
4522.647060141514
 20
5588.499999999903
 30
0.0
 11
4450.347060141512
 21
5588.499999999903
 31
0.0
  0
ARC
  5
1B782
330
E7BC
100
AcDbEntity
  8
YKK_B1
100
AcDbCircle
 10
4450.347060141512
 20
5590.499999999905
 30
0.0
 40
2.0
100
AcDbArc
 50
180.0
 51
270.0
  0
LINE
  5
1B783
330
E7BC
100
AcDbEntity
  8
YKK_B1
100
AcDbLine
 10
4448.347060141514
 20
5590.499999999905
 30
0.0
 11
4448.347060141514
 21
5612.499999999903
 31
0.0
  0
LINE
  5
1B784
330
E7BC
100
AcDbEntity
  8
YKK_B1
100
AcDbLine
 10
4448.347060141514
 20
5612.499999999903
 30
0.0
 11
4653.347060141515
 21
5612.499999999903
 31
0.0
  0
LINE
  5
1B785
330
E7BC
100
AcDbEntity
  8
YKK_B1
100
AcDbLine
 10
4653.347060141515
 20
5612.499999999903
 30
0.0
 11
4653.347060141515
 21
5590.499999999905
 31
0.0
  0
ARC
  5
1B786
330
E7BC
100
AcDbEntity
  8
YKK_B1
100
AcDbCircle
 10
4651.347060141513
 20
5590.499999999905
 30
0.0
 40
2.0
100
AcDbArc
 50
270.0
 51
0.0
  0
LINE
  5
1B787
330
E7BC
100
AcDbEntity
  8
YKK_B1
100
AcDbLine
 10
4651.347060141513
 20
5588.499999999903
 30
0.0
 11
4639.047060141514
 21
5588.499999999903
 31
0.0
  0
LINE
  5
1B788
330
E7BC
100
AcDbEntity
  8
YKK_B1
100
AcDbLine
 10
4639.047060141514
 20
5588.499999999903
 30
0.0
 11
4638.547060141514
 21
5588.999999999905
 31
0.0
  0
LINE
  5
1B789
330
E7BC
100
AcDbEntity
  8
YKK_B1
100
AcDbLine
 10
4638.547060141514
 20
5588.999999999905
 30
0.0
 11
4638.547060141514
 21
5597.699999999903
 31
0.0
  0
ARC
  5
1B78A
330
E7BC
100
AcDbEntity
  8
YKK_B1
100
AcDbCircle
 10
4636.547060141515
 20
5597.699999999903
 30
0.0
 40
2.0
100
AcDbArc
 50
0.0
 51
90.0
  0
LINE
  5
1B78B
330
E7BC
100
AcDbEntity
  8
YKK_B1
100
AcDbLine
 10
4636.547060141515
 20
5599.699999999906
 30
0.0
 11
4628.347060141513
 21
5599.699999999906
 31
0.0
  0
LINE
  5
1B78C
330
E7BC
100
AcDbEntity
  8
YKK_B1
100
AcDbLine
 10
4628.347060141513
 20
5599.699999999906
 30
0.0
 11
4628.347060141513
 21
5602.499999999905
 31
0.0
  0
LINE
  5
1B78D
330
E7BC
100
AcDbEntity
  8
YKK_B1
100
AcDbLine
 10
4628.347060141513
 20
5602.499999999905
 30
0.0
 11
4609.347060141511
 21
5602.499999999905
 31
0.0
  0
LINE
  5
1B78E
330
E7BC
100
AcDbEntity
  8
YKK_B1
100
AcDbLine
 10
4609.347060141511
 20
5602.499999999905
 30
0.0
 11
4609.347060141515
 21
5599.699999999906
 31
0.0
  0
ARC
  5
1B78F
330
E7BC
100
AcDbEntity
  8
YKK_B1
100
AcDbCircle
 10
4642.347062734866
 20
2343.000021940615
 30
0.0
 40
2.0
100
AcDbArc
 50
270.0
 51
0.0
  0
LINE
  5
1B790
330
E7BC
100
AcDbEntity
  8
YKK_B1
100
AcDbLine
 10
4644.347062734865
 20
2343.000021940615
 30
0.0
 11
4644.347062734862
 21
2352.000021940614
 31
0.0
  0
LINE
  5
1B791
330
E7BC
100
AcDbEntity
  8
YKK_B1
100
AcDbLine
 10
4644.347062734862
 20
2352.000021940614
 30
0.0
 11
4637.347062734862
 21
2352.000021940614
 31
0.0
  0
LINE
  5
1B792
330
E7BC
100
AcDbEntity
  8
YKK_B1
100
AcDbLine
 10
4637.347062734862
 20
2352.000021940614
 30
0.0
 11
4634.847062734865
 21
2352.000021940614
 31
0.0
  0
LINE
  5
1B793
330
E7BC
100
AcDbEntity
  8
YKK_B1
100
AcDbLine
 10
4634.847062734865
 20
2352.000021940614
 30
0.0
 11
4634.847062734865
 21
2359.700021940614
 31
0.0
  0
LINE
  5
1B794
330
E7BC
100
AcDbEntity
  8
YKK_B1
100
AcDbLine
 10
4634.847062734865
 20
2359.700021940614
 30
0.0
 11
4643.347062734866
 21
2359.700021940614
 31
0.0
  0
LINE
  5
1B795
330
E7BC
100
AcDbEntity
  8
YKK_B1
100
AcDbLine
 10
4643.347062734866
 20
2359.700021940614
 30
0.0
 11
4644.347062734865
 21
2360.700021940615
 31
0.0
  0
LINE
  5
1B796
330
E7BC
100
AcDbEntity
  8
YKK_B1
100
AcDbLine
 10
4644.347062734865
 20
2360.700021940615
 30
0.0
 11
4644.347062734865
 21
2365.000021940615
 31
0.0
  0
LINE
  5
1B797
330
E7BC
100
AcDbEntity
  8
YKK_B1
100
AcDbLine
 10
4644.347062734865
 20
2365.000021940615
 30
0.0
 11
4448.347062734866
 21
2365.000021940615
 31
0.0
  0
LINE
  5
1B798
330
E7BC
100
AcDbEntity
  8
YKK_B1
100
AcDbLine
 10
4448.347062734866
 20
2365.000021940615
 30
0.0
 11
4448.347062734866
 21
2360.700021940615
 31
0.0
  0
LINE
  5
1B799
330
E7BC
100
AcDbEntity
  8
YKK_B1
100
AcDbLine
 10
4448.347062734866
 20
2360.700021940615
 30
0.0
 11
4449.347062734866
 21
2359.700021940614
 31
0.0
  0
LINE
  5
1B79A
330
E7BC
100
AcDbEntity
  8
YKK_B1
100
AcDbLine
 10
4449.347062734866
 20
2359.700021940614
 30
0.0
 11
4457.847062734866
 21
2359.700021940614
 31
0.0
  0
LINE
  5
1B79B
330
E7BC
100
AcDbEntity
  8
YKK_B1
100
AcDbLine
 10
4457.847062734866
 20
2359.700021940614
 30
0.0
 11
4457.847062734866
 21
2352.000021940614
 31
0.0
  0
LINE
  5
1B79C
330
E7BC
100
AcDbEntity
  8
YKK_B1
100
AcDbLine
 10
4457.847062734866
 20
2352.000021940614
 30
0.0
 11
4455.347062734865
 21
2352.000021940614
 31
0.0
  0
LINE
  5
1B79D
330
E7BC
100
AcDbEntity
  8
YKK_B1
100
AcDbLine
 10
4455.347062734865
 20
2352.000021940614
 30
0.0
 11
4448.347062734866
 21
2352.000021940614
 31
0.0
  0
LINE
  5
1B79E
330
E7BC
100
AcDbEntity
  8
YKK_B1
100
AcDbLine
 10
4448.347062734866
 20
2352.000021940614
 30
0.0
 11
4448.347062734866
 21
2343.000021940615
 31
0.0
  0
ARC
  5
1B79F
330
E7BC
100
AcDbEntity
  8
YKK_B1
100
AcDbCircle
 10
4450.347062734866
 20
2343.000021940615
 30
0.0
 40
2.0
100
AcDbArc
 50
180.0
 51
270.0
  0
LINE
  5
1B7A0
330
E7BC
100
AcDbEntity
  8
YKK_B1
100
AcDbLine
 10
4450.347062734866
 20
2341.000021940615
 30
0.0
 11
4512.147062734869
 21
2341.000021940615
 31
0.0
  0
LINE
  5
1B7A1
330
E7BC
100
AcDbEntity
  8
YKK_B1
100
AcDbLine
 10
4512.147062734869
 20
2341.000021940615
 30
0.0
 11
4512.647062734869
 21
2341.500021940615
 31
0.0
  0
LINE
  5
1B7A2
330
E7BC
100
AcDbEntity
  8
YKK_B1
100
AcDbLine
 10
4512.647062734869
 20
2341.500021940615
 30
0.0
 11
4512.647062734869
 21
2350.200021940615
 31
0.0
  0
ARC
  5
1B7A3
330
E7BC
100
AcDbEntity
  8
YKK_B1
100
AcDbCircle
 10
4514.647062734868
 20
2350.200021940615
 30
0.0
 40
2.0
100
AcDbArc
 50
90.0
 51
180.0
  0
LINE
  5
1B7A4
330
E7BC
100
AcDbEntity
  8
YKK_B1
100
AcDbLine
 10
4514.647062734868
 20
2352.200021940614
 30
0.0
 11
4522.847062734871
 21
2352.200021940614
 31
0.0
  0
LINE
  5
1B7A5
330
E7BC
100
AcDbEntity
  8
YKK_B1
100
AcDbLine
 10
4522.847062734871
 20
2352.200021940614
 30
0.0
 11
4522.847062734871
 21
2355.000021940615
 31
0.0
  0
LINE
  5
1B7A6
330
E7BC
100
AcDbEntity
  8
YKK_B1
100
AcDbLine
 10
4522.847062734871
 20
2355.000021940615
 30
0.0
 11
4541.847062734869
 21
2355.000021940615
 31
0.0
  0
LINE
  5
1B7A7
330
E7BC
100
AcDbEntity
  8
YKK_B1
100
AcDbLine
 10
4541.847062734869
 20
2355.000021940615
 30
0.0
 11
4541.847062734869
 21
2352.200021940614
 31
0.0
  0
LINE
  5
1B7A8
330
E7BC
100
AcDbEntity
  8
YKK_B1
100
AcDbLine
 10
4541.847062734869
 20
2352.200021940614
 30
0.0
 11
4560.847062734871
 21
2352.200021940614
 31
0.0
  0
LINE
  5
1B7A9
330
E7BC
100
AcDbEntity
  8
YKK_B1
100
AcDbLine
 10
4560.847062734871
 20
2352.200021940614
 30
0.0
 11
4560.847062734871
 21
2355.000021940615
 31
0.0
  0
LINE
  5
1B7AA
330
E7BC
100
AcDbEntity
  8
YKK_B1
100
AcDbLine
 10
4560.847062734871
 20
2355.000021940615
 30
0.0
 11
4579.847062734869
 21
2355.000021940615
 31
0.0
  0
LINE
  5
1B7AB
330
E7BC
100
AcDbEntity
  8
YKK_B1
100
AcDbLine
 10
4579.847062734869
 20
2355.000021940615
 30
0.0
 11
4579.847062734869
 21
2352.200021940614
 31
0.0
  0
LINE
  5
1B7AC
330
E7BC
100
AcDbEntity
  8
YKK_B1
100
AcDbLine
 10
4579.847062734869
 20
2352.200021940614
 30
0.0
 11
4598.847062734868
 21
2352.200021940614
 31
0.0
  0
LINE
  5
1B7AD
330
E7BC
100
AcDbEntity
  8
YKK_B1
100
AcDbLine
 10
4598.847062734868
 20
2352.200021940614
 30
0.0
 11
4598.847062734868
 21
2355.000021940615
 31
0.0
  0
LINE
  5
1B7AE
330
E7BC
100
AcDbEntity
  8
YKK_B1
100
AcDbLine
 10
4598.847062734868
 20
2355.000021940615
 30
0.0
 11
4617.84706273487
 21
2355.000021940615
 31
0.0
  0
LINE
  5
1B7AF
330
E7BC
100
AcDbEntity
  8
YKK_B1
100
AcDbLine
 10
4617.84706273487
 20
2355.000021940615
 30
0.0
 11
4617.84706273487
 21
2352.200021940614
 31
0.0
  0
LINE
  5
1B7B0
330
E7BC
100
AcDbEntity
  8
YKK_B1
100
AcDbLine
 10
4617.84706273487
 20
2352.200021940614
 30
0.0
 11
4626.047062734865
 21
2352.200021940614
 31
0.0
  0
ARC
  5
1B7B1
330
E7BC
100
AcDbEntity
  8
YKK_B1
100
AcDbCircle
 10
4626.047062734865
 20
2350.200021940615
 30
0.0
 40
2.0
100
AcDbArc
 50
0.0
 51
90.0
  0
LINE
  5
1B7B2
330
E7BC
100
AcDbEntity
  8
YKK_B1
100
AcDbLine
 10
4628.047062734867
 20
2350.200021940615
 30
0.0
 11
4628.047062734867
 21
2341.500021940615
 31
0.0
  0
LINE
  5
1B7B3
330
E7BC
100
AcDbEntity
  8
YKK_B1
100
AcDbLine
 10
4628.047062734867
 20
2341.500021940615
 30
0.0
 11
4628.547062734866
 21
2341.000021940615
 31
0.0
  0
LINE
  5
1B7B4
330
E7BC
100
AcDbEntity
  8
YKK_B1
100
AcDbLine
 10
4628.547062734866
 20
2341.000021940615
 30
0.0
 11
4642.347062734866
 21
2341.000021940615
 31
0.0
  0
LINE
  5
1B7B5
330
E7BC
100
AcDbEntity
  8
YKK_B1
100
AcDbLine
 10
4436.347062515255
 20
2359.50002325964
 30
0.0
 11
4436.347062515255
 21
2376.50002325964
 31
0.0
  0
LINE
  5
1B7B6
330
E7BC
100
AcDbEntity
  8
YKK_B1
100
AcDbLine
 10
4436.347062515255
 20
2376.50002325964
 30
0.0
 11
4427.347062515256
 21
2376.50002325964
 31
0.0
  0
ARC
  5
1B7B7
330
E7BC
100
AcDbEntity
  8
YKK_B1
100
AcDbCircle
 10
4427.347062515256
 20
2374.500023259639
 30
0.0
 40
2.000000000000454
100
AcDbArc
 50
90.0
 51
180.000000000013
  0
LINE
  5
1B7B8
330
E7BC
100
AcDbEntity
  8
YKK_B1
100
AcDbLine
 10
4425.347062515256
 20
2374.500023259638
 30
0.0
 11
4425.347062515256
 21
2354.500023259639
 31
0.0
  0
ARC
  5
1B7B9
330
E7BC
100
AcDbEntity
  8
YKK_B1
100
AcDbCircle
 10
4427.347062515255
 20
2354.500023259639
 30
0.0
 40
1.99999999999909
100
AcDbArc
 50
180.000000000013
 51
270.000000000026
  0
LINE
  5
1B7BA
330
E7BC
100
AcDbEntity
  8
YKK_B1
100
AcDbLine
 10
4427.347062515256
 20
2352.50002325964
 30
0.0
 11
4457.347062515256
 21
2352.50002325964
 31
0.0
  0
LINE
  5
1B7BB
330
E7BC
100
AcDbEntity
  8
YKK_B1
100
AcDbLine
 10
4457.347062515256
 20
2352.50002325964
 30
0.0
 11
4457.347062515256
 21
2359.50002325964
 31
0.0
  0
LINE
  5
1B7BC
330
E7BC
100
AcDbEntity
  8
YKK_B1
100
AcDbLine
 10
4457.347062515256
 20
2359.50002325964
 30
0.0
 11
4436.347062515255
 21
2359.50002325964
 31
0.0
  0
LINE
  5
1B7BD
330
E7BC
100
AcDbEntity
  8
YKK_B1
100
AcDbLine
 10
3721.344568000191
 20
830.9145336941783
 30
0.0
 11
3721.344568000191
 21
820.4145336941783
 31
0.0
  0
ARC
  5
1B7BE
330
E7BC
100
AcDbEntity
  8
YKK_B1
100
AcDbCircle
 10
3722.344568000191
 20
820.4145336941783
 30
0.0
 40
1.0
100
AcDbArc
 50
180.0
 51
270.0
  0
LINE
  5
1B7BF
330
E7BC
100
AcDbEntity
  8
YKK_B1
100
AcDbLine
 10
3722.344568000191
 20
819.4145336941783
 30
0.0
 11
3724.344568000191
 21
819.4145336941783
 31
0.0
  0
ARC
  5
1B7C0
330
E7BC
100
AcDbEntity
  8
YKK_B1
100
AcDbCircle
 10
3724.344568000191
 20
817.4145336941784
 30
0.0
 40
2.0
100
AcDbArc
 50
0.0
 51
90.0
  0
LINE
  5
1B7C1
330
E7BC
100
AcDbEntity
  8
YKK_B1
100
AcDbLine
 10
3726.344568000191
 20
817.4145336941784
 30
0.0
 11
3726.344568000191
 21
781.4145336941783
 31
0.0
  0
ARC
  5
1B7C2
330
E7BC
100
AcDbEntity
  8
YKK_B1
100
AcDbCircle
 10
3724.344568000191
 20
781.4145336941783
 30
0.0
 40
2.0
100
AcDbArc
 50
270.0
 51
0.0
  0
LINE
  5
1B7C3
330
E7BC
100
AcDbEntity
  8
YKK_B1
100
AcDbLine
 10
3724.344568000191
 20
779.4145336941783
 30
0.0
 11
3722.344568000191
 21
779.4145336941783
 31
0.0
  0
ARC
  5
1B7C4
330
E7BC
100
AcDbEntity
  8
YKK_B1
100
AcDbCircle
 10
3722.344568000191
 20
778.4145336941783
 30
0.0
 40
1.0
100
AcDbArc
 50
90.0
 51
180.0
  0
LINE
  5
1B7C5
330
E7BC
100
AcDbEntity
  8
YKK_B1
100
AcDbLine
 10
3721.344568000191
 20
778.4145336941783
 30
0.0
 11
3721.344568000191
 21
762.9145336941783
 31
0.0
  0
ARC
  5
1B7C6
330
E7BC
100
AcDbEntity
  8
YKK_B1
100
AcDbCircle
 10
3723.344568000192
 20
762.9145336941783
 30
0.0
 40
2.0
100
AcDbArc
 50
180.0
 51
270.0
  0
LINE
  5
1B7C7
330
E7BC
100
AcDbEntity
  8
YKK_B1
100
AcDbLine
 10
3723.344568000192
 20
760.9145336941783
 30
0.0
 11
3728.344568000191
 21
760.9145336941783
 31
0.0
  0
LINE
  5
1B7C8
330
E7BC
100
AcDbEntity
  8
YKK_B1
100
AcDbLine
 10
3728.344568000191
 20
760.9145336941783
 30
0.0
 11
3728.344568000191
 21
767.9145336941783
 31
0.0
  0
LINE
  5
1B7C9
330
E7BC
100
AcDbEntity
  8
YKK_B1
100
AcDbLine
 10
3728.344568000191
 20
767.9145336941783
 30
0.0
 11
3728.344568000191
 21
772.9145336941783
 31
0.0
  0
LINE
  5
1B7CA
330
E7BC
100
AcDbEntity
  8
YKK_B1
100
AcDbLine
 10
3728.344568000191
 20
772.9145336941783
 30
0.0
 11
3736.044568000192
 21
772.9145336941783
 31
0.0
  0
LINE
  5
1B7CB
330
E7BC
100
AcDbEntity
  8
YKK_B1
100
AcDbLine
 10
3736.044568000192
 20
772.9145336941783
 30
0.0
 11
3736.044568000192
 21
764.4145336941782
 31
0.0
  0
LINE
  5
1B7CC
330
E7BC
100
AcDbEntity
  8
YKK_B1
100
AcDbLine
 10
3736.044568000192
 20
764.4145336941782
 30
0.0
 11
3737.044568000192
 21
763.4145336941783
 31
0.0
  0
LINE
  5
1B7CD
330
E7BC
100
AcDbEntity
  8
YKK_B1
100
AcDbLine
 10
3737.044568000192
 20
763.4145336941783
 30
0.0
 11
3741.344568000191
 21
763.4145336941783
 31
0.0
  0
LINE
  5
1B7CE
330
E7BC
100
AcDbEntity
  8
YKK_B1
100
AcDbLine
 10
3741.344568000191
 20
763.4145336941783
 30
0.0
 11
3741.344568000191
 21
959.4145336941783
 31
0.0
  0
LINE
  5
1B7CF
330
E7BC
100
AcDbEntity
  8
YKK_B1
100
AcDbLine
 10
3741.344568000191
 20
959.4145336941783
 30
0.0
 11
3737.044568000192
 21
959.4145336941783
 31
0.0
  0
LINE
  5
1B7D0
330
E7BC
100
AcDbEntity
  8
YKK_B1
100
AcDbLine
 10
3737.044568000192
 20
959.4145336941783
 30
0.0
 11
3736.044568000192
 21
958.4145336941784
 31
0.0
  0
LINE
  5
1B7D1
330
E7BC
100
AcDbEntity
  8
YKK_B1
100
AcDbLine
 10
3736.044568000192
 20
958.4145336941784
 30
0.0
 11
3736.044568000192
 21
949.9145336941783
 31
0.0
  0
LINE
  5
1B7D2
330
E7BC
100
AcDbEntity
  8
YKK_B1
100
AcDbLine
 10
3736.044568000192
 20
949.9145336941783
 30
0.0
 11
3728.344568000191
 21
949.9145336941783
 31
0.0
  0
LINE
  5
1B7D3
330
E7BC
100
AcDbEntity
  8
YKK_B1
100
AcDbLine
 10
3728.344568000191
 20
949.9145336941783
 30
0.0
 11
3728.344568000191
 21
954.9145336941784
 31
0.0
  0
LINE
  5
1B7D4
330
E7BC
100
AcDbEntity
  8
YKK_B1
100
AcDbLine
 10
3728.344568000191
 20
954.9145336941784
 30
0.0
 11
3728.344568000191
 21
961.9145336941782
 31
0.0
  0
LINE
  5
1B7D5
330
E7BC
100
AcDbEntity
  8
YKK_B1
100
AcDbLine
 10
3728.344568000191
 20
961.9145336941782
 30
0.0
 11
3723.344568000192
 21
961.9145336941782
 31
0.0
  0
ARC
  5
1B7D6
330
E7BC
100
AcDbEntity
  8
YKK_B1
100
AcDbCircle
 10
3723.344568000192
 20
959.9145336941782
 30
0.0
 40
2.0
100
AcDbArc
 50
90.0
 51
180.0
  0
LINE
  5
1B7D7
330
E7BC
100
AcDbEntity
  8
YKK_B1
100
AcDbLine
 10
3721.344568000191
 20
959.9145336941782
 30
0.0
 11
3721.344568000191
 21
843.9145336941782
 31
0.0
  0
LINE
  5
1B7D8
330
E7BC
100
AcDbEntity
  8
YKK_B1
100
AcDbLine
 10
3721.344568000191
 20
843.9145336941782
 30
0.0
 11
3721.844568000192
 21
843.4145336941783
 31
0.0
  0
LINE
  5
1B7D9
330
E7BC
100
AcDbEntity
  8
YKK_B1
100
AcDbLine
 10
3721.844568000192
 20
843.4145336941783
 30
0.0
 11
3726.344568000191
 21
843.4145336941783
 31
0.0
  0
LINE
  5
1B7DA
330
E7BC
100
AcDbEntity
  8
YKK_B1
100
AcDbLine
 10
3726.344568000191
 20
843.4145336941783
 30
0.0
 11
3726.344568000191
 21
842.4145336941784
 31
0.0
  0
LINE
  5
1B7DB
330
E7BC
100
AcDbEntity
  8
YKK_B1
100
AcDbLine
 10
3726.344568000191
 20
842.4145336941784
 30
0.0
 11
3726.344568000191
 21
832.4145336941782
 31
0.0
  0
LINE
  5
1B7DC
330
E7BC
100
AcDbEntity
  8
YKK_B1
100
AcDbLine
 10
3726.344568000191
 20
832.4145336941782
 30
0.0
 11
3726.344568000191
 21
831.4145336941782
 31
0.0
  0
LINE
  5
1B7DD
330
E7BC
100
AcDbEntity
  8
YKK_B1
100
AcDbLine
 10
3726.344568000191
 20
831.4145336941782
 30
0.0
 11
3721.844568000192
 21
831.4145336941782
 31
0.0
  0
LINE
  5
1B7DE
330
E7BC
100
AcDbEntity
  8
YKK_B1
100
AcDbLine
 10
3721.844568000192
 20
831.4145336941782
 30
0.0
 11
3721.344568000191
 21
830.9145336941783
 31
0.0
  0
ARC
  5
1B7DF
330
E7BC
100
AcDbEntity
  8
YKK_B1
100
AcDbCircle
 10
531.3445305197824
 20
762.9145336941775
 30
0.0
 40
2.0
100
AcDbArc
 50
270.0
 51
0.0
  0
LINE
  5
1B7E0
330
E7BC
100
AcDbEntity
  8
YKK_B1
100
AcDbLine
 10
531.3445305197824
 20
760.9145336941775
 30
0.0
 11
526.3445305197833
 21
760.9145336941775
 31
0.0
  0
LINE
  5
1B7E1
330
E7BC
100
AcDbEntity
  8
YKK_B1
100
AcDbLine
 10
526.3445305197833
 20
760.9145336941775
 30
0.0
 11
526.3445305197833
 21
767.9145336941775
 31
0.0
  0
LINE
  5
1B7E2
330
E7BC
100
AcDbEntity
  8
YKK_B1
100
AcDbLine
 10
526.3445305197833
 20
767.9145336941775
 30
0.0
 11
526.3445305197833
 21
772.9145336941775
 31
0.0
  0
LINE
  5
1B7E3
330
E7BC
100
AcDbEntity
  8
YKK_B1
100
AcDbLine
 10
526.3445305197833
 20
772.9145336941775
 30
0.0
 11
518.6445305197826
 21
772.9145336941775
 31
0.0
  0
LINE
  5
1B7E4
330
E7BC
100
AcDbEntity
  8
YKK_B1
100
AcDbLine
 10
518.6445305197826
 20
772.9145336941775
 30
0.0
 11
518.6445305197826
 21
764.4145336941775
 31
0.0
  0
LINE
  5
1B7E5
330
E7BC
100
AcDbEntity
  8
YKK_B1
100
AcDbLine
 10
518.6445305197826
 20
764.4145336941775
 30
0.0
 11
517.6445305197826
 21
763.4145336941775
 31
0.0
  0
LINE
  5
1B7E6
330
E7BC
100
AcDbEntity
  8
YKK_B1
100
AcDbLine
 10
517.6445305197826
 20
763.4145336941775
 30
0.0
 11
513.3445305197833
 21
763.4145336941775
 31
0.0
  0
LINE
  5
1B7E7
330
E7BC
100
AcDbEntity
  8
YKK_B1
100
AcDbLine
 10
513.3445305197833
 20
763.4145336941775
 30
0.0
 11
513.3445305197833
 21
903.4145336941774
 31
0.0
  0
LINE
  5
1B7E8
330
E7BC
100
AcDbEntity
  8
YKK_B1
100
AcDbLine
 10
513.3445305197833
 20
903.4145336941774
 30
0.0
 11
526.3445305197815
 21
903.4145336941774
 31
0.0
  0
LINE
  5
1B7E9
330
E7BC
100
AcDbEntity
  8
YKK_B1
100
AcDbLine
 10
526.3445305197815
 20
903.4145336941774
 30
0.0
 11
533.3445305197824
 21
903.4145336941774
 31
0.0
  0
LINE
  5
1B7EA
330
E7BC
100
AcDbEntity
  8
YKK_B1
100
AcDbLine
 10
533.3445305197824
 20
903.4145336941774
 30
0.0
 11
533.3445305197824
 21
762.9145336941775
 31
0.0
  0
LINE
  5
1B7EC
330
E7BC
100
AcDbEntity
  8
YKK_B1
100
AcDbLine
 10
4656.347062954475
 20
2359.50002325964
 30
0.0
 11
4656.347062954475
 21
2376.50002325964
 31
0.0
  0
LINE
  5
1B7ED
330
E7BC
100
AcDbEntity
  8
YKK_B1
100
AcDbLine
 10
4656.347062954475
 20
2376.50002325964
 30
0.0
 11
4665.347062954475
 21
2376.50002325964
 31
0.0
  0
ARC
  5
1B7EE
330
E7BC
100
AcDbEntity
  8
YKK_B1
100
AcDbCircle
 10
4665.347062954475
 20
2374.500023259639
 30
0.0
 40
2.000000000000454
100
AcDbArc
 50
359.999999999987
 51
90.0
  0
LINE
  5
1B7EF
330
E7BC
100
AcDbEntity
  8
YKK_B1
100
AcDbLine
 10
4667.347062954475
 20
2374.500023259638
 30
0.0
 11
4667.347062954475
 21
2354.500023259639
 31
0.0
  0
ARC
  5
1B7F0
330
E7BC
100
AcDbEntity
  8
YKK_B1
100
AcDbCircle
 10
4665.347062954475
 20
2354.500023259639
 30
0.0
 40
2.000000000000909
100
AcDbArc
 50
270.0
 51
359.999999999974
  0
LINE
  5
1B7F1
330
E7BC
100
AcDbEntity
  8
YKK_B1
100
AcDbLine
 10
4665.347062954475
 20
2352.50002325964
 30
0.0
 11
4635.347062954475
 21
2352.50002325964
 31
0.0
  0
LINE
  5
1B7F2
330
E7BC
100
AcDbEntity
  8
YKK_B1
100
AcDbLine
 10
4635.347062954475
 20
2352.50002325964
 30
0.0
 11
4635.347062954475
 21
2359.50002325964
 31
0.0
  0
LINE
  5
1B7F3
330
E7BC
100
AcDbEntity
  8
YKK_B1
100
AcDbLine
 10
4635.347062954475
 20
2359.50002325964
 30
0.0
 11
4656.347062954475
 21
2359.50002325964
 31
0.0
  0
LINE
  5
1B7F4
330
E7BC
100
AcDbEntity
  8
0
  6
ByBlock
 62
     0
 48
0.5
370
    -2
100
AcDbLine
 10
1340.846542747979
 20
898.4145336941777
 30
0.0
 11
1334.846542747979
 21
898.4145336941777
 31
0.0
  0
LINE
  5
1B7F5
330
E7BC
100
AcDbEntity
  8
0
  6
ByBlock
 62
     0
 48
0.5
370
    -2
100
AcDbLine
 10
1334.846542747979
 20
898.4145336941777
 30
0.0
 11
1334.846542747979
 21
959.4145336941775
 31
0.0
  0
LINE
  5
1B7F6
330
E7BC
100
AcDbEntity
  8
0
  6
ByBlock
 62
     0
 48
0.5
370
    -2
100
AcDbLine
 10
1334.846542747979
 20
959.4145336941775
 30
0.0
 11
1339.146542747979
 21
959.4145336941775
 31
0.0
  0
LINE
  5
1B7F7
330
E7BC
100
AcDbEntity
  8
0
  6
ByBlock
 62
     0
 48
0.5
370
    -2
100
AcDbLine
 10
1339.146542747979
 20
959.4145336941775
 30
0.0
 11
1340.146542747979
 21
958.4145336941775
 31
0.0
  0
LINE
  5
1B7F8
330
E7BC
100
AcDbEntity
  8
0
  6
ByBlock
 62
     0
 48
0.5
370
    -2
100
AcDbLine
 10
1340.146542747979
 20
958.4145336941775
 30
0.0
 11
1340.146542747979
 21
949.9145336941776
 31
0.0
  0
LINE
  5
1B7F9
330
E7BC
100
AcDbEntity
  8
0
  6
ByBlock
 62
     0
 48
0.5
370
    -2
100
AcDbLine
 10
1340.146542747979
 20
949.9145336941776
 30
0.0
 11
1347.846542747979
 21
949.9145336941776
 31
0.0
  0
LINE
  5
1B7FA
330
E7BC
100
AcDbEntity
  8
0
  6
ByBlock
 62
     0
 48
0.5
370
    -2
100
AcDbLine
 10
1347.846542747979
 20
949.9145336941776
 30
0.0
 11
1347.846542747979
 21
961.9145336941775
 31
0.0
  0
LINE
  5
1B7FB
330
E7BC
100
AcDbEntity
  8
0
  6
ByBlock
 62
     0
 48
0.5
370
    -2
100
AcDbLine
 10
1347.846542747979
 20
961.9145336941775
 30
0.0
 11
1352.846542747979
 21
961.9145336941775
 31
0.0
  0
ARC
  5
1B7FC
330
E7BC
100
AcDbEntity
  8
0
  6
ByBlock
 62
     0
 48
0.5
370
    -2
100
AcDbCircle
 10
1352.846542747979
 20
959.9145336941775
 30
0.0
 40
2.0
100
AcDbArc
 50
0.0
 51
90.0
  0
LINE
  5
1B7FD
330
E7BC
100
AcDbEntity
  8
0
  6
ByBlock
 62
     0
 48
0.5
370
    -2
100
AcDbLine
 10
1354.846542747979
 20
959.9145336941775
 30
0.0
 11
1354.846542747979
 21
898.4145336941777
 31
0.0
  0
LINE
  5
1B7FE
330
E7BC
100
AcDbEntity
  8
0
  6
ByBlock
 62
     0
 48
0.5
370
    -2
100
AcDbLine
 10
1354.846542747979
 20
898.4145336941777
 30
0.0
 11
1348.846542747979
 21
898.4145336941777
 31
0.0
  0
LINE
  5
1B7FF
330
E7BC
100
AcDbEntity
  8
0
  6
ByBlock
 62
     0
 48
0.5
370
    -2
100
AcDbLine
 10
1348.846542747979
 20
898.4145336941777
 30
0.0
 11
1348.846542747979
 21
914.4145336941775
 31
0.0
  0
LINE
  5
1B800
330
E7BC
100
AcDbEntity
  8
0
  6
ByBlock
 62
     0
 48
0.5
370
    -2
100
AcDbLine
 10
1348.846542747979
 20
914.4145336941775
 30
0.0
 11
1340.846542747979
 21
914.4145336941775
 31
0.0
  0
LINE
  5
1B801
330
E7BC
100
AcDbEntity
  8
0
  6
ByBlock
 62
     0
 48
0.5
370
    -2
100
AcDbLine
 10
1340.846542747979
 20
914.4145336941775
 30
0.0
 11
1340.846542747979
 21
898.4145336941777
 31
0.0
  0
LINE
  5
1C473
102
{ACAD_REACTORS
330
1C478
330
1C479
102
}
330
E7BC
100
AcDbEntity
  8
YKK_A1
100
AcDbLine
 10
3525.541983052474
 20
15961.4828775334
 30
0.0
 11
2735.499999814687
 21
15961.4828775334
 31
0.0
  0
LINE
  5
1C474
102
{ACAD_REACTORS
330
1C478
330
1C479
102
}
330
E7BC
100
AcDbEntity
  8
YKK_A1
100
AcDbLine
 10
2735.499999814683
 20
17941.48275677445
 30
0.0
 11
3525.541983052474
 21
17941.49987880949
 31
0.0
  0
LINE
  5
1C476
102
{ACAD_REACTORS
330
1C478
330
1C479
102
}
330
E7BC
100
AcDbEntity
  8
YKK_A1
100
AcDbLine
 10
2735.499999814687
 20
15961.4828775334
 30
0.0
 11
2735.499999814687
 21
17941.48275677445
 31
0.0
  0
LINE
  5
1C47A
102
{ACAD_REACTORS
330
1C47F
330
1C480
102
}
330
E7BC
100
AcDbEntity
  8
YKK_A1
100
AcDbLine
 10
2735.499999814687
 20
15961.4828775334
 30
0.0
 11
1945.500000688918
 21
15961.53299251506
 31
0.0
  0
LINE
  5
1C47B
102
{ACAD_REACTORS
330
1C47F
330
1C480
102
}
330
E7BC
100
AcDbEntity
  8
YKK_A1
100
AcDbLine
 10
1945.500000688915
 20
17941.53287175611
 30
0.0
 11
2735.499999814687
 21
17941.53287175611
 31
0.0
  0
LINE
  5
1C47D
102
{ACAD_REACTORS
330
1C47F
330
1C480
102
}
330
E7BC
100
AcDbEntity
  8
YKK_A1
100
AcDbLine
 10
1945.500000688918
 20
15961.53299251506
 30
0.0
 11
1945.500000688918
 21
17941.53287175611
 31
0.0
  0
ENDSEC
  0
SECTION
  2
OBJECTS
  0
DICTIONARY
  5
E759
330
0
100
AcDbDictionary
281
     1
  3
ACAD_CIP_PREVIOUS_PRODUCT_INFO
350
E7DD
  3
ACAD_COLOR
350
E7AF
  3
ACAD_DETAILVIEWSTYLE
350
E7B6
  3
ACAD_GROUP
350
E75A
  3
ACAD_LAYOUT
350
E7AE
  3
ACAD_MATERIAL
350
E75D
  3
ACAD_MLEADERSTYLE
350
E7B2
  3
ACAD_MLINESTYLE
350
E7AB
  3
ACAD_PLOTSETTINGS
350
E7AD
  3
ACAD_PLOTSTYLENAME
350
E75B
  3
ACAD_RENDER_ACTIVE_RAPIDRT_SETTINGS
350
EA96
  3
ACAD_RENDER_ACTIVE_SETTINGS
350
F263
  3
ACAD_SCALELIST
350
E78F
  3
ACAD_SECTIONVIEWSTYLE
350
E7B4
  3
ACAD_TABLESTYLE
350
E7B0
  3
ACAD_VISUALSTYLE
350
E776
  3
ACDB_RECOMPOSE_DATA
350
1CA1A
  3
AcDbVariableDictionary
350
E831
  3
YACAD
350
1C94F
  0
DICTIONARY
  5
E7F3
330
E755
100
AcDbDictionary
280
     1
281
     1
  0
DICTIONARY
  5
E7E2
330
E74F
100
AcDbDictionary
280
     1
281
     1
  3
ACAD_LAYERSTATES
360
E7E3
  0
DICTIONARY
  5
11178
330
E7BC
100
AcDbDictionary
280
     1
281
     1
  3
ACAD_SORTENTS
360
11179
  0
XRECORD
  5
E7DD
102
{ACAD_REACTORS
330
E759
102
}
330
E759
100
AcDbXrecord
280
     1
300
ACD
300
2022
300
87545ACD_2022_0F
  0
DICTIONARY
  5
E7AF
102
{ACAD_REACTORS
330
E759
102
}
330
E759
100
AcDbDictionary
281
     1
  0
DICTIONARY
  5
E7B6
102
{ACAD_REACTORS
330
E759
102
}
330
E759
100
AcDbDictionary
281
     1
  3
Imperial24
350
E7B7
  3
Metric50
350
E83E
  0
DICTIONARY
  5
E75A
102
{ACAD_REACTORS
330
E759
102
}
330
E759
100
AcDbDictionary
281
     1
  3
*A1
350
1B4DE
  3
*A10
350
1ABA0
  3
*A11
350
1B4E2
  3
*A12
350
1B4DF
  3
*A13
350
1B2A9
  3
*A14
350
1ABA3
  3
*A15
350
1AD5E
  3
*A16
350
1B2B4
  3
*A17
350
1B2B5
  3
*A18
350
1B2B6
  3
*A19
350
1B2B7
  3
*A2
350
1B4E1
  3
*A20
350
1B2B8
  3
*A21
350
1B2B9
  3
*A22
350
1ABAD
  3
*A23
350
1B4E0
  3
*A24
350
1ABAA
  3
*A25
350
1B2BA
  3
*A26
350
1C478
  3
*A27
350
1B4D3
  3
*A28
350
1B4D4
  3
*A29
350
1C480
  3
*A3
350
1ABA8
  3
*A30
350
1B4D5
  3
*A31
350
1B4D6
  3
*A32
350
1B4D7
  3
*A33
350
1B4D8
  3
*A34
350
1ABA7
  3
*A35
350
1ABAE
  3
*A36
350
1B4D9
  3
*A37
350
1ABAB
  3
*A38
350
1B4DA
  3
*A39
350
1C479
  3
*A4
350
1ABA5
  3
*A40
350
1B4DC
  3
*A41
350
1B4DD
  3
*A42
350
1ABA4
  3
*A43
350
1ABAF
  3
*A44
350
1ABA1
  3
*A45
350
1B4E3
  3
*A46
350
1AD5F
  3
*A5
350
1ABA2
  3
*A6
350
1C47F
  3
*A7
350
1ABAC
  3
*A8
350
1ABA9
  3
*A9
350
1ABA6
  0
DICTIONARY
  5
E7AE
102
{ACAD_REACTORS
330
E759
102
}
330
E759
100
AcDbDictionary
281
     1
  3
Model
350
E7BF
  3
レイアウト1
350
E7BB
  0
DICTIONARY
  5
E75D
102
{ACAD_REACTORS
330
E759
102
}
330
E759
100
AcDbDictionary
281
     1
  3
ByBlock
350
E766
  3
ByLayer
350
E75E
  3
Global
350
E76E
  0
DICTIONARY
  5
E7B2
102
{ACAD_REACTORS
330
E759
102
}
330
E759
100
AcDbDictionary
281
     1
  3
Standard
350
E7B3
  0
DICTIONARY
  5
E7AB
102
{ACAD_REACTORS
330
E759
102
}
330
E759
100
AcDbDictionary
281
     1
  3
Standard
350
E7AC
  0
DICTIONARY
  5
E7AD
102
{ACAD_REACTORS
330
E759
102
}
330
E759
100
AcDbDictionary
281
     1
  0
ACDBDICTIONARYWDFLT
  5
E75B
102
{ACAD_REACTORS
330
E759
102
}
330
E759
100
AcDbDictionary
281
     1
  3
Normal
350
E75C
100
AcDbDictionaryWithDefault
340
E75C
  0
RAPIDRTRENDERSETTINGS
  5
EA96
102
{ACAD_REACTORS
330
E759
102
}
330
E759
100
AcDbRenderSettings
 90
        2
  1
中
290
     1
290
     0
290
     1
290
     1
  1

  1
5 レンダリング レベルを適用
 90
        0
100
AcDbRapidRTRenderSettings
 90
        3
 70
     0
 90
        5
 90
        1
 70
     1
 70
     2
 40
3.0
 40
3.0
290
     1
  0
MENTALRAYRENDERSETTINGS
  5
F263
102
{ACAD_XDICTIONARY
360
F264
102
}
102
{ACAD_REACTORS
330
E759
102
}
330
E759
100
AcDbRenderSettings
 90
        2
  1
中間
290
     1
290
     1
290
     1
290
     1
  1

  1

 90
        0
100
AcDbMentalRayRenderSettings
 90
        2
 90
        0
 90
        1
 70
     2
 40
3.0
 40
3.0
 40
0.0500000007450581
 40
0.0500000007450581
 40
0.0500000007450581
 40
0.0500000007450581
 70
     0
290
     0
290
     1
 90
        5
 90
        5
 90
        5
290
     0
 90
      500
290
     0
 40
1.0
 90
    10000
 90
        5
 90
        5
 90
        5
290
     0
 90
      200
290
     0
290
     0
290
     0
 40
1.0
 40
1.0
 40
1500.0
 70
     0
 70
     0
 40
10.0
 70
     0
 70
     0
290
     0
  1

 90
       32
 70
     0
 90
     1048
290
     0
 40
1.0
  0
DICTIONARY
  5
E78F
102
{ACAD_REACTORS
330
E759
102
}
330
E759
100
AcDbDictionary
281
     1
  3
A0
350
E790
  3
A1
350
E791
  3
A2
350
E792
  3
A3
350
E793
  3
A4
350
E794
  3
A5
350
E795
  3
A6
350
E796
  3
A7
350
E797
  3
A8
350
E798
  3
A9
350
E799
  3
B0
350
E79A
  3
B1
350
E79B
  3
B2
350
E79C
  3
B3
350
E79D
  3
B4
350
E79E
  3
B5
350
E79F
  3
B6
350
E7A0
  0
DICTIONARY
  5
E7B4
102
{ACAD_REACTORS
330
E759
102
}
330
E759
100
AcDbDictionary
281
     1
  3
Imperial24
350
E7B5
  3
Metric50
350
E83D
  0
DICTIONARY
  5
E7B0
102
{ACAD_REACTORS
330
E759
102
}
330
E759
100
AcDbDictionary
281
     1
  3
Standard
350
E7B1
  0
DICTIONARY
  5
E776
102
{ACAD_REACTORS
330
E759
102
}
330
E759
100
AcDbDictionary
281
     1
  3
2dWireframe
350
E77C
  3
Basic
350
E77B
  3
Brighten
350
E782
  3
ColorChange
350
E786
  3
Conceptual
350
E77F
  3
Dim
350
E781
  3
EdgeColorOff
350
E78E
  3
Facepattern
350
E785
  3
Flat
350
E777
  3
FlatWithEdges
350
E778
  3
Gouraud
350
E779
  3
GouraudWithEdges
350
E77A
  3
Hidden
350
E77E
  3
JitterOff
350
E78C
  3
Linepattern
350
E784
  3
OverhangOff
350
E78D
  3
Realistic
350
E780
  3
Shaded
350
E78B
  3
Shaded with edges
350
E78A
  3
Shades of Gray
350
E787
  3
Sketchy
350
E788
  3
Thicken
350
E783
  3
Wireframe
350
E77D
  3
X-Ray
350
E789
  0
XRECORD
  5
1CA1A
102
{ACAD_REACTORS
330
E759
102
}
330
E759
100
AcDbXrecord
280
     1
 90
        1
330
E7B1
  0
DICTIONARY
  5
E831
102
{ACAD_REACTORS
330
E759
102
}
330
E759
100
AcDbDictionary
281
     1
  3
CANNOSCALE
350
E837
  3
CMLEADERSTYLE
350
E833
  3
CTABLESTYLE
350
E832
  3
CVIEWDETAILSTYLE
350
E834
  3
CVIEWSECTIONSTYLE
350
E835
  3
LAYEREVAL
350
E839
  3
LAYERNOTIFY
350
E83A
  3
LIGHTINGUNITS
350
E838
  3
MSLTSCALE
350
E836
  0
DICTIONARY
  5
1C94F
102
{ACAD_REACTORS
330
E759
102
}
330
E759
100
AcDbDictionary
281
     1
  3
Y-BASE
350
1C950
  0
DICTIONARY
  5
E7E3
102
{ACAD_REACTORS
330
E7E2
102
}
330
E7E2
100
AcDbDictionary
281
     1
  0
SORTENTSTABLE
  5
11179
102
{ACAD_REACTORS
330
11178
102
}
330
11178
100
AcDbSortentsTable
330
E7BC
331
187E4
  5
187E5
331
187E5
  5
187E6
331
187EA
  5
187EB
331
187EB
  5
187EC
331
1AFDF
  5
1C49C
331
1AFE0
  5
1C49D
331
1AFE1
  5
1C49E
331
1B184
  5
1B01B
331
1B1A1
  5
1B239
331
1B21E
  5
1B23A
331
1B21F
  5
1B23B
331
1B220
  5
1B23C
331
1B221
  5
1B23D
331
1B222
  5
1B23E
331
1B223
  5
1B23F
331
1B224
  5
1B240
331
1B225
  5
1B241
331
1B226
  5
1B242
331
1B227
  5
1B243
331
1B228
  5
1B244
331
1B229
  5
1B245
331
1B22A
  5
1B246
331
1B22B
  5
1B247
331
1B22C
  5
1B248
331
1B22D
  5
1B249
331
1B22E
  5
1B24A
331
1B22F
  5
1B24B
331
1B230
  5
1B24C
331
1B231
  5
1B24D
331
1B232
  5
1B24E
331
1B233
  5
1B24F
331
1B234
  5
1B250
331
1B235
  5
1B251
331
1B236
  5
1B252
331
1B237
  5
1B253
331
1B238
  5
1B254
331
1B239
  5
1B255
331
1B23A
  5
1B256
331
1B23B
  5
1B257
331
1B23C
  5
1B258
331
1B23D
  5
1B259
331
1B23E
  5
1B25A
331
1B23F
  5
1B25B
331
1B240
  5
1B25C
331
1B241
  5
1B25D
331
1B242
  5
1B25E
331
1B243
  5
1B25F
331
1B244
  5
1B260
331
1B245
  5
1B261
331
1B246
  5
1B262
331
1B247
  5
1B263
331
1B248
  5
1B264
331
1B249
  5
1B265
331
1B24A
  5
1B266
331
1B24B
  5
1B267
331
1B24C
  5
1B268
331
1B24D
  5
1B2F7
331
1B24E
  5
1B2F8
331
1B24F
  5
1B2F9
331
1B250
  5
1B2FA
331
1B251
  5
1B2FB
331
1B252
  5
1B2FC
331
1B253
  5
1B2FD
331
1B254
  5
1B2FE
331
1B255
  5
1B2FF
331
1B256
  5
1B300
331
1B257
  5
1B301
331
1B258
  5
1B302
331
1B259
  5
1B303
331
1B25A
  5
1B304
331
1B25B
  5
1B305
331
1B25C
  5
1B306
331
1B25D
  5
1B307
331
1B25E
  5
1B308
331
1B25F
  5
1B309
331
1B260
  5
1B30A
331
1B261
  5
1B30B
331
1B262
  5
1B30C
331
1B263
  5
1B30D
331
1B264
  5
1B30E
331
1B265
  5
1B314
331
1B266
  5
1B315
331
1B267
  5
1B316
331
1B268
  5
1B317
331
1B2F7
  5
1B333
331
1B2F8
  5
1B334
331
1B2F9
  5
1B335
331
1B2FA
  5
1B336
331
1B2FB
  5
1B337
331
1B2FC
  5
1B338
331
1B2FD
  5
1B339
331
1B2FE
  5
1B33A
331
1B2FF
  5
1B35C
331
1B300
  5
1B35D
331
1B301
  5
1B35E
331
1B302
  5
1B35F
331
1B303
  5
1B360
331
1B304
  5
1B361
331
1B305
  5
1B362
331
1B306
  5
1B363
331
1B307
  5
1B364
331
1B308
  5
1B365
331
1B309
  5
1B366
331
1B30A
  5
1B367
331
1B30B
  5
1B41B
331
1B30C
  5
1B41C
331
1B30D
  5
1B41D
331
1B30E
  5
1B41E
331
1B314
  5
1B41F
331
1B315
  5
1B420
331
1B316
  5
1B421
331
1B317
  5
1B422
331
1B318
  5
1B423
331
1B319
  5
1B424
331
1B31A
  5
1B425
331
1B31B
  5
1B426
331
1B31C
  5
1B427
331
1B31D
  5
1B428
331
1B31E
  5
1B429
331
1B31F
  5
1B42A
331
1B320
  5
1B42B
331
1B321
  5
1B42C
331
1B322
  5
1B42D
331
1B323
  5
1B42E
331
1B324
  5
1B42F
331
1B325
  5
1B430
331
1B326
  5
1B431
331
1B327
  5
1B432
331
1B329
  5
1B433
331
1B32A
  5
1B434
331
1B32B
  5
1B436
331
1B32C
  5
1B438
331
1B32D
  5
1B43A
331
1B32E
  5
1B43C
331
1B32F
  5
1B43E
331
1B330
  5
1B440
331
1B331
  5
1B442
331
1B332
  5
1B444
331
1B333
  5
1B445
331
1B334
  5
1B446
331
1B335
  5
1B447
331
1B336
  5
1B448
331
1B337
  5
1B449
331
1B338
  5
1B44A
331
1B339
  5
1B44B
331
1B33A
  5
1B44C
331
1B35C
  5
1B44D
331
1B35D
  5
1B44E
331
1B35E
  5
1B44F
331
1B35F
  5
1B450
331
1B360
  5
1B451
331
1B361
  5
1B452
331
1B362
  5
1B453
331
1B363
  5
1B454
331
1B364
  5
1B455
331
1B365
  5
1B45E
331
1B366
  5
1B45F
331
1B367
  5
1B460
331
1B41B
  5
1B461
331
1B41C
  5
1B462
331
1B41D
  5
1B463
331
1B41E
  5
1B464
331
1B41F
  5
1B465
331
1B420
  5
1B466
331
1B421
  5
1B467
331
1B422
  5
1B468
331
1B423
  5
1B469
331
1B424
  5
1B46A
331
1B425
  5
1B46B
331
1B426
  5
1B46C
331
1B427
  5
1B46D
331
1B428
  5
1B46E
331
1B429
  5
1B46F
331
1B42A
  5
1B470
331
1B42B
  5
1B471
331
1B42C
  5
1B472
331
1B42D
  5
1B473
331
1B42E
  5
1B474
331
1B42F
  5
1B475
331
1B430
  5
1B476
331
1B431
  5
1B477
331
1B432
  5
1B478
331
1B433
  5
1B479
331
1B434
  5
1B47A
331
1B436
  5
1B47B
331
1B438
  5
1B47C
331
1B43A
  5
1B47D
331
1B43C
  5
1B47F
331
1B43E
  5
1B480
331
1B440
  5
1B481
331
1B442
  5
1B482
331
1B444
  5
1B483
331
1B445
  5
1B484
331
1B446
  5
1B485
331
1B447
  5
1B486
331
1B448
  5
1B487
331
1B449
  5
1B488
331
1B44A
  5
1B489
331
1B44B
  5
1B48A
331
1B44C
  5
1B48B
331
1B44D
  5
1B48C
331
1B44E
  5
1B48D
331
1B44F
  5
1B48E
331
1B450
  5
1B48F
331
1B451
  5
1B490
331
1B452
  5
1B491
331
1B453
  5
1B492
331
1B454
  5
1B493
331
1B455
  5
1B494
331
1B45B
  5
1B75F
331
1B45C
  5
1B760
331
1B45D
  5
1B761
331
1B45E
  5
1B762
331
1B45F
  5
1B763
331
1B460
  5
1B764
331
1B461
  5
1B765
331
1B462
  5
1B766
331
1B463
  5
1B767
331
1B464
  5
1B768
331
1B465
  5
1B769
331
1B466
  5
1B76A
331
1B467
  5
1B76B
331
1B468
  5
1B76C
331
1B469
  5
1B76D
331
1B46A
  5
1B76E
331
1B46B
  5
1B76F
331
1B46C
  5
1B770
331
1B46D
  5
1B771
331
1B46E
  5
1B772
331
1B46F
  5
1B773
331
1B470
  5
1B774
331
1B471
  5
1B775
331
1B472
  5
1B776
331
1B473
  5
1B777
331
1B474
  5
1B778
331
1B475
  5
1B779
331
1B476
  5
1B77A
331
1B477
  5
1B77B
331
1B478
  5
1B77C
331
1B479
  5
1B77D
331
1B47A
  5
1B77E
331
1B47C
  5
1B77F
331
1B47D
  5
1B780
331
1B47E
  5
1B781
331
1B47F
  5
1B782
331
1B480
  5
1B783
331
1B481
  5
1B784
331
1B482
  5
1B785
331
1B483
  5
1B786
331
1B484
  5
1B787
331
1B485
  5
1B788
331
1B486
  5
1B789
331
1B487
  5
1B78A
331
1B488
  5
1B78B
331
1B489
  5
1B78C
331
1B48A
  5
1B78D
331
1B48B
  5
1B78E
331
1B48C
  5
1B78F
331
1B48D
  5
1B790
331
1B48E
  5
1B791
331
1B48F
  5
1B792
331
1B490
  5
1B793
331
1B491
  5
1B794
331
1B492
  5
1B795
331
1B493
  5
1B796
331
1B494
  5
1B797
331
1B4E8
  5
1B7A0
331
1B4E9
  5
1B7A1
331
1B4EA
  5
1B7A2
331
1B4EB
  5
1B7A3
331
1B4EC
  5
1B7A4
331
1B4ED
  5
1B7A5
331
1B4EE
  5
1B7A6
331
1B4EF
  5
1B7A7
331
1B4F0
  5
1B7A8
331
1B4F1
  5
1B7A9
331
1B4F2
  5
1B7AA
331
1B4F3
  5
1B7AB
331
1B4F4
  5
1B7AC
331
1B4F5
  5
1B7AD
331
1B4F6
  5
1B7AE
331
1B4F7
  5
1B7AF
331
1B4F8
  5
1B7B0
331
1B4F9
  5
1B7B1
331
1B4FA
  5
1B7B2
331
1B4FB
  5
1B7B3
331
1B4FC
  5
1B7B4
331
1B4FD
  5
1B7B5
331
1B4FE
  5
1B7B6
331
1B4FF
  5
1B7B7
331
1B500
  5
1B7B8
331
1B501
  5
1B7B9
331
1B502
  5
1B7BA
331
1B503
  5
1B7BB
331
1B505
  5
1B7BC
331
1B509
  5
1B7BD
331
1B50A
  5
1B7BE
331
1B50B
  5
1B7BF
331
1B525
  5
1B7C0
331
1B526
  5
1B7C1
331
1B527
  5
1B7C2
331
1B528
  5
1B7C3
331
1B637
  5
1B7C4
331
1B638
  5
1B7C5
331
1B639
  5
1B7C6
331
1B63A
  5
1B7C7
331
1B63B
  5
1B7C8
331
1B63C
  5
1B7C9
331
1B63D
  5
1B7CA
331
1B63E
  5
1B7CB
331
1B63F
  5
1B7CC
331
1B640
  5
1B7CD
331
1B641
  5
1B7CE
331
1B642
  5
1B7CF
331
1B643
  5
1B7D0
331
1B644
  5
1B7D1
331
1B645
  5
1B7D2
331
1B646
  5
1B7D3
331
1B647
  5
1B7D4
331
1B648
  5
1B7D5
331
1B649
  5
1B7D6
331
1B64A
  5
1B7D7
331
1B64B
  5
1B7D8
331
1B64C
  5
1B7D9
331
1B64D
  5
1B7DA
331
1B64E
  5
1B7DB
331
1B64F
  5
1B7DC
331
1B650
  5
1B7DD
331
1B651
  5
1B7DE
331
1B652
  5
1B7DF
331
1B653
  5
1B7E0
331
1B654
  5
1B7E1
331
1B655
  5
1B7E2
331
1B656
  5
1B7E3
331
1B657
  5
1B7E4
331
1B658
  5
1B7E5
331
1B659
  5
1B7E6
331
1B65A
  5
1B7E7
331
1B65B
  5
1B7E8
331
1B65C
  5
1B7E9
331
1B65D
  5
1B7EA
331
1B65E
  5
1B7EB
331
1B65F
  5
1B7EC
331
1B660
  5
1B7ED
331
1B661
  5
1B7EE
331
1B662
  5
1B7EF
331
1B663
  5
1B7F0
331
1B664
  5
1B7F1
331
1B665
  5
1B7F2
331
1B666
  5
1B7F3
331
1B667
  5
1B7F4
331
1B668
  5
1B7F5
331
1B74D
  5
1B01C
331
1B74E
  5
1B01D
331
1B74F
  5
1B01E
331
1B750
  5
1B01F
331
1B751
  5
1B020
331
1B752
  5
1B021
331
1B753
  5
1B022
331
1B754
  5
1B023
331
1B755
  5
1B024
331
1B756
  5
1B025
331
1B757
  5
1B026
331
1B758
  5
1B184
331
1B759
  5
1B1A1
331
1B75A
  5
1B21E
331
1B75B
  5
1B21F
331
1B75C
  5
1B220
331
1B75D
  5
1B221
331
1B75E
  5
1B222
331
1B75F
  5
1B223
331
1B760
  5
1B224
331
1B761
  5
1B225
331
1B762
  5
1B226
331
1B763
  5
1B227
331
1B764
  5
1B228
331
1B765
  5
1B229
331
1B766
  5
1B22A
331
1B767
  5
1B22B
331
1B768
  5
1B22C
331
1B769
  5
1B22D
331
1B76A
  5
1B22E
331
1B76B
  5
1B22F
331
1B76C
  5
1B230
331
1B76D
  5
1B231
331
1B76E
  5
1B232
331
1B76F
  5
1B233
331
1B770
  5
1B234
331
1B771
  5
1B235
331
1B772
  5
1B236
331
1B773
  5
1B237
331
1B774
  5
1B238
331
1B775
  5
1B318
331
1B776
  5
1B319
331
1B777
  5
1B31A
331
1B778
  5
1B31B
331
1B779
  5
1B31C
331
1B77A
  5
1B31D
331
1B77B
  5
1B31E
331
1B77C
  5
1B31F
331
1B77D
  5
1B320
331
1B77E
  5
1B321
331
1B77F
  5
1B322
331
1B780
  5
1B323
331
1B781
  5
1B324
331
1B782
  5
1B325
331
1B783
  5
1B326
331
1B784
  5
1B327
331
1B785
  5
1B329
331
1B786
  5
1B32A
331
1B787
  5
1B32B
331
1B788
  5
1B32C
331
1B789
  5
1B32D
331
1B78A
  5
1B32E
331
1B78B
  5
1B32F
331
1B78C
  5
1B330
331
1B78D
  5
1B331
331
1B78E
  5
1B332
331
1B78F
  5
1B495
331
1B790
  5
1B4E5
331
1B791
  5
1B4E6
331
1B792
  5
1B4E8
331
1B793
  5
1B4E9
331
1B794
  5
1B4EA
331
1B795
  5
1B4EB
331
1B796
  5
1B4EC
331
1B797
  5
1B4ED
331
1B798
  5
1B4EE
331
1B799
  5
1B4EF
331
1B79A
  5
1B4F0
331
1B79B
  5
1B4F1
331
1B79C
  5
1B4F2
331
1B79D
  5
1B4F3
331
1B79E
  5
1B4F4
331
1B79F
  5
1B4F5
331
1B7A0
  5
1B4F6
331
1B7A1
  5
1B4F7
331
1B7A2
  5
1B4F8
331
1B7A3
  5
1B4F9
331
1B7A4
  5
1B4FA
331
1B7A5
  5
1B4FB
331
1B7A6
  5
1B4FC
331
1B7A7
  5
1B4FD
331
1B7A8
  5
1B4FE
331
1B7A9
  5
1B4FF
331
1B7AA
  5
1B500
331
1B7AB
  5
1B501
331
1B7AC
  5
1B502
331
1B7AD
  5
1B503
331
1B7AE
  5
1B505
331
1B7AF
  5
1B509
331
1B7B0
  5
1B50A
331
1B7B1
  5
1B50B
331
1B7B2
  5
1B525
331
1B7B3
  5
1B526
331
1B7B4
  5
1B527
331
1B7B5
  5
1B528
331
1B7B6
  5
1B637
331
1B7B7
  5
1B638
331
1B7B8
  5
1B639
331
1B7B9
  5
1B63A
331
1B7BA
  5
1B63B
331
1B7BB
  5
1B63C
331
1B7BC
  5
1B63D
331
1B7BD
  5
1B63E
331
1B7BE
  5
1B63F
331
1B7BF
  5
1B640
331
1B7C0
  5
1B641
331
1B7C1
  5
1B642
331
1B7C2
  5
1B643
331
1B7C3
  5
1B644
331
1B7C4
  5
1B645
331
1B7C5
  5
1B646
331
1B7C6
  5
1B647
331
1B7C7
  5
1B648
331
1B7C8
  5
1B649
331
1B7C9
  5
1B64A
331
1B7CA
  5
1B64B
331
1B7CB
  5
1B64C
331
1B7CC
  5
1B64D
331
1B7CD
  5
1B64E
331
1B7CE
  5
1B64F
331
1B7CF
  5
1B650
331
1B7D0
  5
1B651
331
1B7D1
  5
1B652
331
1B7D2
  5
1B653
331
1B7D3
  5
1B654
331
1B7D4
  5
1B655
331
1B7D5
  5
1B656
331
1B7D6
  5
1B657
331
1B7D7
  5
1B658
331
1B7D8
  5
1B659
331
1B7D9
  5
1B65A
331
1B7DA
  5
1B65B
331
1B7DB
  5
1B65C
331
1B7DC
  5
1B65D
331
1B7DD
  5
1B65E
331
1B7DE
  5
1B65F
331
1B7DF
  5
1B660
331
1B7E0
  5
1B661
331
1B7E1
  5
1B662
331
1B7E2
  5
1B663
331
1B7E3
  5
1B664
331
1B7E4
  5
1B665
331
1B7E5
  5
1B666
331
1B7E6
  5
1B667
331
1B7E7
  5
1B668
331
1B7E8
  5
1B74D
331
1B7E9
  5
1B74E
331
1B7EA
  5
1B74F
331
1B7EC
  5
1B798
331
1B7ED
  5
1B799
331
1B7EE
  5
1B79A
331
1B7EF
  5
1B79B
331
1B7F0
  5
1B79C
331
1B7F1
  5
1B79D
331
1B7F2
  5
1B79E
331
1B7F3
  5
1B79F
331
1B7F4
  5
1B750
331
1B7F5
  5
1B751
331
1B7F6
  5
1B752
331
1B7F7
  5
1B753
331
1B7F8
  5
1B754
331
1B7F9
  5
1B755
331
1B7FA
  5
1B756
331
1B7FB
  5
1B757
331
1B7FC
  5
1B758
331
1B7FD
  5
1B759
331
1B7FE
  5
1B75A
331
1B7FF
  5
1B75B
331
1B800
  5
1B75D
331
1B801
  5
1B75E
331
1C473
  5
1B7F6
331
1C474
  5
1B7F7
331
1C476
  5
1B7F8
331
1C47A
  5
1B7FA
331
1C47B
  5
1B7FB
331
1C47D
  5
1B7FC
  0
ACDBDETAILVIEWSTYLE
  5
E7B7
102
{ACAD_XDICTIONARY
360
1CA4F
102
}
102
{ACAD_REACTORS
330
E7B6
102
}
330
E7B6
100
AcDbModelDocViewStyle
 70
     0
  3
Imperial24
290
     0
100
AcDbDetailViewStyle
 70
     0
 71
     0
 90
        3
 71
     1
340
E7A2
 62
   256
 40
0.24
340
0
 62
   256
 40
0.24
300

 40
0.36
280
     3
 71
     2
340
E7A9
 90
       25
 62
   256
 71
     3
340
E7A2
 62
   256
 40
0.24
 90
        1
 40
0.75
 90
        1
300
%<\AcVar ViewType \f "%tc1">% %<\AcVar ViewDetailId>%\PSCALE %<\AcVar ViewScale \f "%sn">%
 71
     4
340
E7A9
 90
       25
 62
   256
340
E7A9
 90
       25
 62
   256
280
     0
  0
ACDBDETAILVIEWSTYLE
  5
E83E
102
{ACAD_XDICTIONARY
360
1CA53
102
}
102
{ACAD_REACTORS
330
E7B6
102
}
330
E7B6
100
AcDbModelDocViewStyle
 70
     0
  3
Metric50
290
     0
100
AcDbDetailViewStyle
 70
     0
 71
     0
 90
        3
 71
     1
340
E7A2
 62
   256
 40
5.0
340
0
 62
   256
 40
5.0
300

 40
0.0
280
     1
 71
     2
340
E7A9
 90
       25
 62
   256
 71
     3
340
E7A2
 62
   256
 40
5.0
 90
        0
 40
15.0
 90
        1
300
%<\AcVar ViewDetailId>% (%<\AcVar ViewScale \f "%sn">%)
 71
     4
340
E7A9
 90
       25
 62
   256
340
E7A9
 90
       25
 62
   256
280
     0
  0
GROUP
  5
1B4DE
102
{ACAD_REACTORS
330
E75A
102
}
330
E75A
100
AcDbGroup
300

 70
     1
 71
     1
340
1B46B
340
1B46C
340
1B46D
340
1B46E
340
1B46F
340
1B470
340
1B471
340
1B472
  0
GROUP
  5
1ABA0
102
{ACAD_REACTORS
330
E75A
102
}
330
E75A
100
AcDbGroup
300

 70
     1
 71
     1
340
1AAF4
340
1AAF5
340
1AAF7
340
1AAF8
340
1AAFA
340
1AAFB
340
1AAFC
340
1AAFD
340
1AAFE
340
1AAFF
340
1AB00
340
1AB01
  0
GROUP
  5
1B4E2
102
{ACAD_REACTORS
330
E75A
102
}
330
E75A
100
AcDbGroup
300

 70
     1
 71
     1
340
1B485
340
1B486
340
1B487
340
1B488
340
1B489
340
1B48A
340
1B48B
340
1B48C
  0
GROUP
  5
1B4DF
102
{ACAD_REACTORS
330
E75A
102
}
330
E75A
100
AcDbGroup
300

 70
     1
 71
     1
340
1B473
340
1B474
340
1B475
340
1B476
340
1B477
340
1B478
340
1B479
340
1B47A
  0
GROUP
  5
1B2A9
102
{ACAD_REACTORS
330
E75A
102
}
330
E75A
100
AcDbGroup
300

 70
     1
 71
     1
340
1B1A1
340
1B21E
340
1B21F
340
1B220
340
1B221
340
1B222
340
1B223
340
1B224
340
1B225
340
1B226
340
1B227
340
1B228
340
1B229
340
1B22A
340
1B22B
340
1B22C
340
1B22D
340
1B22E
340
1B22F
340
1B230
340
1B231
340
1B232
340
1B233
340
1B234
340
1B235
  0
GROUP
  5
1ABA3
102
{ACAD_REACTORS
330
E75A
102
}
330
E75A
100
AcDbGroup
300

 70
     1
 71
     1
340
1AAF4
340
1AAF5
340
1AAF6
340
1AAF7
340
1AAF8
340
1AAF9
340
1AAFA
340
1AAFB
340
1AAFC
340
1AAFD
340
1AAFE
340
1AAFF
340
1AB00
340
1AB01
340
1AB02
340
1AB03
  0
GROUP
  5
1AD5E
102
{ACAD_REACTORS
330
E75A
102
}
330
E75A
100
AcDbGroup
300

 70
     1
 71
     1
340
1AD53
340
1AD54
340
1AD55
340
1AD56
  0
GROUP
  5
1B2B4
102
{ACAD_REACTORS
330
E75A
102
}
330
E75A
100
AcDbGroup
300

 70
     1
 71
     1
340
1B21E
340
1B21F
340
1B220
340
1B221
340
1B222
340
1B223
340
1B224
340
1B225
  0
GROUP
  5
1B2B5
102
{ACAD_REACTORS
330
E75A
102
}
330
E75A
100
AcDbGroup
300

 70
     1
 71
     1
340
1B226
340
1B227
340
1B228
340
1B229
340
1B22A
340
1B22B
340
1B22C
340
1B22D
  0
GROUP
  5
1B2B6
102
{ACAD_REACTORS
330
E75A
102
}
330
E75A
100
AcDbGroup
300

 70
     1
 71
     1
340
1B22E
340
1B22F
340
1B230
340
1B231
340
1B232
340
1B233
340
1B234
340
1B235
  0
GROUP
  5
1B2B7
102
{ACAD_REACTORS
330
E75A
102
}
330
E75A
100
AcDbGroup
300

 70
     1
 71
     1
340
1B236
340
1B251
340
1B259
  0
GROUP
  5
1B4E1
102
{ACAD_REACTORS
330
E75A
102
}
330
E75A
100
AcDbGroup
300

 70
     1
 71
     1
340
1B47D
340
1B47E
340
1B47F
340
1B480
340
1B481
340
1B482
340
1B483
340
1B484
  0
GROUP
  5
1B2B8
102
{ACAD_REACTORS
330
E75A
102
}
330
E75A
100
AcDbGroup
300

 70
     1
 71
     1
340
1B237
340
1B238
340
1B239
340
1B23A
340
1B23B
340
1B23C
340
1B23D
340
1B23E
340
1B23F
340
1B240
340
1B241
340
1B242
340
1B24C
340
1B24D
340
1B24E
340
1B24F
340
1B250
340
1B25A
340
1B25B
340
1B25F
340
1B260
340
1B264
340
1B265
  0
GROUP
  5
1B2B9
102
{ACAD_REACTORS
330
E75A
102
}
330
E75A
100
AcDbGroup
300

 70
     1
 71
     1
340
1B247
340
1B248
340
1B249
340
1B257
  0
GROUP
  5
1ABAD
102
{ACAD_REACTORS
330
E75A
102
}
330
E75A
100
AcDbGroup
300

 70
     1
 71
     1
340
1AB2D
340
1AB2E
340
1AB2F
340
1AB30
340
1AB31
340
1AB32
340
1AB33
  0
GROUP
  5
1B4E0
102
{ACAD_REACTORS
330
E75A
102
}
330
E75A
100
AcDbGroup
300

 70
     1
 71
     1
340
1B47C
340
1B47D
340
1B47E
340
1B47F
340
1B480
340
1B481
340
1B482
340
1B483
340
1B484
340
1B485
340
1B486
340
1B487
340
1B488
340
1B489
340
1B48A
340
1B48B
340
1B48C
340
1B48D
340
1B48E
340
1B48F
340
1B490
340
1B491
340
1B492
340
1B493
340
1B494
  0
GROUP
  5
1ABAA
102
{ACAD_REACTORS
330
E75A
102
}
330
E75A
100
AcDbGroup
300

 70
     1
 71
     1
340
1AB16
340
1AB17
340
1AB19
340
1AB1A
340
1AB1C
340
1AB1D
340
1AB1E
340
1AB1F
340
1AB20
340
1AB21
340
1AB22
340
1AB23
  0
GROUP
  5
1B2BA
102
{ACAD_REACTORS
330
E75A
102
}
330
E75A
100
AcDbGroup
300

 70
     1
 71
     1
340
1B255
  0
GROUP
  5
1C478
102
{ACAD_REACTORS
330
E75A
102
}
330
E75A
100
AcDbGroup
300

 70
     1
 71
     1
340
1C473
340
1C474
340
1C476
  0
GROUP
  5
1B4D3
102
{ACAD_REACTORS
330
E75A
102
}
330
E75A
100
AcDbGroup
300

 70
     1
 71
     1
340
1B41B
340
1B41C
340
1B41D
340
1B41E
340
1B41F
340
1B420
340
1B421
340
1B422
340
1B423
340
1B424
340
1B425
340
1B426
340
1B430
340
1B431
340
1B432
340
1B433
340
1B434
340
1B446
340
1B447
340
1B44B
340
1B44C
340
1B450
340
1B451
  0
GROUP
  5
1B4D4
102
{ACAD_REACTORS
330
E75A
102
}
330
E75A
100
AcDbGroup
300

 70
     1
 71
     1
340
1B427
  0
GROUP
  5
1C480
102
{ACAD_REACTORS
330
E75A
102
}
330
E75A
100
AcDbGroup
300

 70
     1
 71
     1
340
1C47A
340
1C47B
340
1C47D
  0
GROUP
  5
1ABA8
102
{ACAD_REACTORS
330
E75A
102
}
330
E75A
100
AcDbGroup
300

 70
     1
 71
     1
340
1AB16
340
1AB17
340
1AB18
340
1AB19
340
1AB1A
340
1AB1B
340
1AB1C
340
1AB1D
340
1AB1E
340
1AB1F
340
1AB20
340
1AB21
340
1AB22
340
1AB23
340
1AB24
340
1AB25
  0
GROUP
  5
1B4D5
102
{ACAD_REACTORS
330
E75A
102
}
330
E75A
100
AcDbGroup
300

 70
     1
 71
     1
340
1B428
340
1B429
340
1B436
340
1B438
340
1B448
340
1B449
340
1B44A
  0
GROUP
  5
1B4D6
102
{ACAD_REACTORS
330
E75A
102
}
330
E75A
100
AcDbGroup
300

 70
     1
 71
     1
340
1B42A
  0
GROUP
  5
1B4D7
102
{ACAD_REACTORS
330
E75A
102
}
330
E75A
100
AcDbGroup
300

 70
     1
 71
     1
340
1B42B
340
1B42C
340
1B43A
340
1B43C
340
1B44D
340
1B44E
340
1B44F
  0
GROUP
  5
1B4D8
102
{ACAD_REACTORS
330
E75A
102
}
330
E75A
100
AcDbGroup
300

 70
     1
 71
     1
340
1B42D
  0
GROUP
  5
1ABA7
102
{ACAD_REACTORS
330
E75A
102
}
330
E75A
100
AcDbGroup
300

 70
     1
 71
     1
340
1AB04
340
1AB05
340
1AB07
340
1AB08
340
1AB0A
340
1AB0B
340
1AB0C
340
1AB0D
340
1AB0E
340
1AB0F
340
1AB10
340
1AB11
  0
GROUP
  5
1ABAE
102
{ACAD_REACTORS
330
E75A
102
}
330
E75A
100
AcDbGroup
300

 70
     1
 71
     1
340
1AB34
340
1AB35
340
1AB36
340
1AB37
340
1AB38
340
1AB39
340
1AB3A
  0
GROUP
  5
1B4D9
102
{ACAD_REACTORS
330
E75A
102
}
330
E75A
100
AcDbGroup
300

 70
     1
 71
     1
340
1B42E
340
1B42F
340
1B43E
340
1B440
340
1B452
340
1B453
340
1B454
  0
GROUP
  5
1ABAB
102
{ACAD_REACTORS
330
E75A
102
}
330
E75A
100
AcDbGroup
300

 70
     1
 71
     1
340
1AB16
340
1AB17
340
1AB19
340
1AB1A
340
1AB1C
340
1AB1D
340
1AB1E
340
1AB1F
340
1AB20
340
1AB21
340
1AB22
340
1AB23
  0
GROUP
  5
1B4DA
102
{ACAD_REACTORS
330
E75A
102
}
330
E75A
100
AcDbGroup
300

 70
     1
 71
     1
340
1B455
  0
GROUP
  5
1C479
102
{ACAD_REACTORS
330
E75A
102
}
330
E75A
100
AcDbGroup
300

 70
     1
 71
     1
340
1C473
340
1C474
340
1C476
  0
GROUP
  5
1ABA5
102
{ACAD_REACTORS
330
E75A
102
}
330
E75A
100
AcDbGroup
300

 70
     1
 71
     1
340
1AB04
340
1AB05
340
1AB07
340
1AB08
  0
GROUP
  5
1B4DC
102
{ACAD_REACTORS
330
E75A
102
}
330
E75A
100
AcDbGroup
300

 70
     1
 71
     1
340
1B45B
340
1B45C
340
1B45D
340
1B45E
340
1B45F
340
1B460
340
1B461
340
1B462
  0
GROUP
  5
1B4DD
102
{ACAD_REACTORS
330
E75A
102
}
330
E75A
100
AcDbGroup
300

 70
     1
 71
     1
340
1B463
340
1B464
340
1B465
340
1B466
340
1B467
340
1B468
340
1B469
340
1B46A
  0
GROUP
  5
1ABA4
102
{ACAD_REACTORS
330
E75A
102
}
330
E75A
100
AcDbGroup
300

 70
     1
 71
     1
340
1AB04
340
1AB05
340
1AB06
340
1AB07
340
1AB08
340
1AB09
340
1AB0A
340
1AB0B
340
1AB0C
340
1AB0D
340
1AB0E
340
1AB0F
340
1AB10
340
1AB11
340
1AB12
340
1AB13
  0
GROUP
  5
1ABAF
102
{ACAD_REACTORS
330
E75A
102
}
330
E75A
100
AcDbGroup
300

 70
     1
 71
     1
340
1AB3B
340
1AB3C
340
1AB3D
340
1AB3E
340
1AB3F
340
1AB40
340
1AB41
  0
GROUP
  5
1ABA1
102
{ACAD_REACTORS
330
E75A
102
}
330
E75A
100
AcDbGroup
300

 70
     1
 71
     1
340
1AAF4
340
1AAF5
340
1AAF7
340
1AAF8
340
1AAFA
340
1AAFB
340
1AAFC
340
1AAFD
340
1AAFE
340
1AAFF
340
1AB00
340
1AB01
  0
GROUP
  5
1B4E3
102
{ACAD_REACTORS
330
E75A
102
}
330
E75A
100
AcDbGroup
300

 70
     1
 71
     1
340
1B48D
340
1B48E
340
1B48F
340
1B490
340
1B491
340
1B492
340
1B493
340
1B494
  0
GROUP
  5
1AD5F
102
{ACAD_REACTORS
330
E75A
102
}
330
E75A
100
AcDbGroup
300

 70
     1
 71
     1
340
1AD53
340
1AD54
340
1AD55
340
1AD56
  0
GROUP
  5
1ABA2
102
{ACAD_REACTORS
330
E75A
102
}
330
E75A
100
AcDbGroup
300

 70
     1
 71
     1
340
1AAF4
340
1AAF5
340
1AAF7
340
1AAF8
  0
GROUP
  5
1C47F
102
{ACAD_REACTORS
330
E75A
102
}
330
E75A
100
AcDbGroup
300

 70
     1
 71
     1
340
1C47A
340
1C47B
340
1C47D
  0
GROUP
  5
1ABAC
102
{ACAD_REACTORS
330
E75A
102
}
330
E75A
100
AcDbGroup
300

 70
     1
 71
     1
340
1AB26
340
1AB27
340
1AB28
340
1AB29
340
1AB2A
340
1AB2B
340
1AB2C
  0
GROUP
  5
1ABA9
102
{ACAD_REACTORS
330
E75A
102
}
330
E75A
100
AcDbGroup
300

 70
     1
 71
     1
340
1AB16
340
1AB17
340
1AB19
340
1AB1A
  0
GROUP
  5
1ABA6
102
{ACAD_REACTORS
330
E75A
102
}
330
E75A
100
AcDbGroup
300

 70
     1
 71
     1
340
1AB04
340
1AB05
340
1AB07
340
1AB08
340
1AB0A
340
1AB0B
340
1AB0C
340
1AB0D
340
1AB0E
340
1AB0F
340
1AB10
340
1AB11
  0
LAYOUT
  5
E7BF
102
{ACAD_XDICTIONARY
360
E82F
102
}
102
{ACAD_REACTORS
330
E7AE
102
}
330
E7AE
100
AcDbPlotSettings
  1

  2
C:\ACAD-I\support\plotters\Default Windows System Printer.pc3
  4
A4
  6

 40
4.900083065032958
 41
4.900057315826416
 42
4.90008544921875
 43
4.90008544921875
 44
210.0156707763672
 45
297.0106506347656
 46
0.0
 47
0.0
 48
0.0
 49
0.0
140
0.0
141
0.0
142
1.0
143
4290.253584957267
 70
  1712
 72
     0
 73
     0
 74
     0
  7
monochrome.ctb
 75
     0
147
0.0002330864551938
 76
     0
 77
     2
 78
   300
148
40821.56604199425
149
2066.293730605273
100
AcDbLayout
  1
Model
 70
     1
 71
     0
 10
0.0
 20
0.0
 11
12.0
 21
9.0
 12
0.0
 22
0.0
 32
0.0
 14
0.0
 24
0.0
 34
0.0
 15
0.0
 25
0.0
 35
0.0
146
0.0
 13
0.0
 23
0.0
 33
0.0
 16
1.0
 26
0.0
 36
0.0
 17
0.0
 27
1.0
 37
0.0
 76
     0
330
E7BC
331
E7C4
  0
LAYOUT
  5
E7BB
102
{ACAD_REACTORS
330
E7AE
102
}
330
E7AE
100
AcDbPlotSettings
  1

  2
C:\ACAD-I\support\plotters\Default Windows System Printer.pc3
  4
A4
  6

 40
4.900083065032958
 41
4.900057315826416
 42
4.90008544921875
 43
4.90008544921875
 44
210.0156707763672
 45
297.0106506347656
 46
0.0
 47
0.0
 48
0.0
 49
0.0
140
0.0
141
0.0
142
1.0
143
1.0
 70
   688
 72
     0
 73
     0
 74
     5
  7
monochrome.ctb
 75
    16
147
1.0
 76
     0
 77
     2
 78
   300
148
0.0
149
0.0
100
AcDbLayout
  1
レイアウト1
 70
     1
 71
     1
 10
0.0
 20
0.0
 11
420.0
 21
297.0
 12
0.0
 22
0.0
 32
0.0
 14
1.000000000000000E+20
 24
1.000000000000000E+20
 34
1.000000000000000E+20
 15
-1.000000000000000E+20
 25
-1.000000000000000E+20
 35
-1.000000000000000E+20
146
0.0
 13
0.0
 23
0.0
 33
0.0
 16
1.0
 26
0.0
 36
0.0
 17
0.0
 27
1.0
 37
0.0
 76
     0
330
E7B8
  0
MATERIAL
  5
E766
102
{ACAD_XDICTIONARY
360
E767
102
}
102
{ACAD_REACTORS
330
E75D
102
}
330
E75D
100
AcDbMaterial
  1
ByBlock
 72
     0
 43
0.0208333333333333
 43
0.0
 43
0.0
 43
0.0
 43
0.0
 43
0.0208333333333333
 43
0.0
 43
0.0
 43
0.0
 43
0.0
 43
1.0
 43
0.0
 43
0.0
 43
0.0
 43
0.0
 43
1.0
 77
     0
 47
0.0208333333333333
 47
0.0
 47
0.0
 47
0.0
 47
0.0
 47
0.0208333333333333
 47
0.0
 47
0.0
 47
0.0
 47
0.0
 47
1.0
 47
0.0
 47
0.0
 47
0.0
 47
0.0
 47
1.0
171
     0
 49
0.0208333333333333
 49
0.0
 49
0.0
 49
0.0
 49
0.0
 49
0.0208333333333333
 49
0.0
 49
0.0
 49
0.0
 49
0.0
 49
1.0
 49
0.0
 49
0.0
 49
0.0
 49
0.0
 49
1.0
175
     0
142
0.0208333333333333
142
0.0
142
0.0
142
0.0
142
0.0
142
0.0208333333333333
142
0.0
142
0.0
142
0.0
142
0.0
142
1.0
142
0.0
142
0.0
142
0.0
142
0.0
142
1.0
179
     0
144
0.0208333333333333
144
0.0
144
0.0
144
0.0
144
0.0
144
0.0208333333333333
144
0.0
144
0.0
144
0.0
144
0.0
144
1.0
144
0.0
144
0.0
144
0.0
144
0.0
144
1.0
147
0.0208333333333333
147
0.0
147
0.0
147
0.0
147
0.0
147
0.0208333333333333
147
0.0
147
0.0
147
0.0
147
0.0
147
1.0
147
0.0
147
0.0
147
0.0
147
0.0
147
1.0
  0
MATERIAL
  5
E75E
102
{ACAD_XDICTIONARY
360
E75F
102
}
102
{ACAD_REACTORS
330
E75D
102
}
330
E75D
100
AcDbMaterial
  1
ByLayer
 72
     0
 43
0.0208333333333333
 43
0.0
 43
0.0
 43
0.0
 43
0.0
 43
0.0208333333333333
 43
0.0
 43
0.0
 43
0.0
 43
0.0
 43
1.0
 43
0.0
 43
0.0
 43
0.0
 43
0.0
 43
1.0
 77
     0
 47
0.0208333333333333
 47
0.0
 47
0.0
 47
0.0
 47
0.0
 47
0.0208333333333333
 47
0.0
 47
0.0
 47
0.0
 47
0.0
 47
1.0
 47
0.0
 47
0.0
 47
0.0
 47
0.0
 47
1.0
171
     0
 49
0.0208333333333333
 49
0.0
 49
0.0
 49
0.0
 49
0.0
 49
0.0208333333333333
 49
0.0
 49
0.0
 49
0.0
 49
0.0
 49
1.0
 49
0.0
 49
0.0
 49
0.0
 49
0.0
 49
1.0
175
     0
142
0.0208333333333333
142
0.0
142
0.0
142
0.0
142
0.0
142
0.0208333333333333
142
0.0
142
0.0
142
0.0
142
0.0
142
1.0
142
0.0
142
0.0
142
0.0
142
0.0
142
1.0
179
     0
144
0.0208333333333333
144
0.0
144
0.0
144
0.0
144
0.0
144
0.0208333333333333
144
0.0
144
0.0
144
0.0
144
0.0
144
1.0
144
0.0
144
0.0
144
0.0
144
0.0
144
1.0
147
0.0208333333333333
147
0.0
147
0.0
147
0.0
147
0.0
147
0.0208333333333333
147
0.0
147
0.0
147
0.0
147
0.0
147
1.0
147
0.0
147
0.0
147
0.0
147
0.0
147
1.0
  0
MATERIAL
  5
E76E
102
{ACAD_XDICTIONARY
360
E76F
102
}
102
{ACAD_REACTORS
330
E75D
102
}
330
E75D
100
AcDbMaterial
  1
Global
 72
     0
 43
0.0208333333333333
 43
0.0
 43
0.0
 43
0.0
 43
0.0
 43
0.0208333333333333
 43
0.0
 43
0.0
 43
0.0
 43
0.0
 43
1.0
 43
0.0
 43
0.0
 43
0.0
 43
0.0
 43
1.0
 77
     0
 47
0.0208333333333333
 47
0.0
 47
0.0
 47
0.0
 47
0.0
 47
0.0208333333333333
 47
0.0
 47
0.0
 47
0.0
 47
0.0
 47
1.0
 47
0.0
 47
0.0
 47
0.0
 47
0.0
 47
1.0
171
     0
 49
0.0208333333333333
 49
0.0
 49
0.0
 49
0.0
 49
0.0
 49
0.0208333333333333
 49
0.0
 49
0.0
 49
0.0
 49
0.0
 49
1.0
 49
0.0
 49
0.0
 49
0.0
 49
0.0
 49
1.0
175
     0
142
0.0208333333333333
142
0.0
142
0.0
142
0.0
142
0.0
142
0.0208333333333333
142
0.0
142
0.0
142
0.0
142
0.0
142
1.0
142
0.0
142
0.0
142
0.0
142
0.0
142
1.0
179
     0
144
0.0208333333333333
144
0.0
144
0.0
144
0.0
144
0.0
144
0.0208333333333333
144
0.0
144
0.0
144
0.0
144
0.0
144
1.0
144
0.0
144
0.0
144
0.0
144
0.0
144
1.0
147
0.0208333333333333
147
0.0
147
0.0
147
0.0
147
0.0
147
0.0208333333333333
147
0.0
147
0.0
147
0.0
147
0.0
147
1.0
147
0.0
147
0.0
147
0.0
147
0.0
147
1.0
  0
MLEADERSTYLE
  5
E7B3
102
{ACAD_XDICTIONARY
360
1CA4B
102
}
102
{ACAD_REACTORS
330
E7B2
102
}
330
E7B2
100
AcDbMLeaderStyle
179
     2
170
     2
171
     1
172
     0
 90
        2
 40
0.0
 41
0.0
173
     1
 91
-1056964608
340
E7A7
 92
       -2
290
     1
 42
0.09
291
     1
 43
0.36
  3
Standard
 44
0.18
300

342
E7A2
174
     1
178
     6
175
     1
176
     0
 93
-1056964608
 45
0.18
292
     0
297
     0
 46
0.18
 94
-1056964608
 47
1.0
 49
1.0
140
1.0
293
     1
141
0.0
294
     1
177
     0
142
1.0
295
     0
296
     0
143
0.125
271
     0
272
     9
273
     9
  0
MLINESTYLE
  5
E7AC
102
{ACAD_REACTORS
330
E7AB
102
}
330
E7AB
100
AcDbMlineStyle
  2
STANDARD
 70
     0
  3

 62
   256
 51
90.0
 52
90.0
 71
     2
 49
0.5
 62
   256
  6
BYLAYER
 49
-0.5
 62
   256
  6
BYLAYER
  0
ACDBPLACEHOLDER
  5
E75C
102
{ACAD_REACTORS
330
E75B
102
}
330
E75B
  0
DICTIONARY
  5
F264
330
F263
100
AcDbDictionary
280
     1
281
     1
  3
ACAD_XREC_ROUNDTRIP
360
18C93
  3
ADSK_XREC_MENTALRAYSETTINGSINFO
360
F265
  0
SCALE
  5
E790
102
{ACAD_REACTORS
330
E78F
102
}
330
E78F
100
AcDbScale
 70
     0
300
1:1
140
1.0
141
1.0
290
     1
  0
SCALE
  5
E791
102
{ACAD_REACTORS
330
E78F
102
}
330
E78F
100
AcDbScale
 70
     0
300
1/128" = 1'-0"
140
0.0078125
141
12.0
290
     0
  0
SCALE
  5
E792
102
{ACAD_REACTORS
330
E78F
102
}
330
E78F
100
AcDbScale
 70
     0
300
1/64" = 1'-0"
140
0.015625
141
12.0
290
     0
  0
SCALE
  5
E793
102
{ACAD_REACTORS
330
E78F
102
}
330
E78F
100
AcDbScale
 70
     0
300
1/32" = 1'-0"
140
0.03125
141
12.0
290
     0
  0
SCALE
  5
E794
102
{ACAD_REACTORS
330
E78F
102
}
330
E78F
100
AcDbScale
 70
     0
300
1/16" = 1'-0"
140
0.0625
141
12.0
290
     0
  0
SCALE
  5
E795
102
{ACAD_REACTORS
330
E78F
102
}
330
E78F
100
AcDbScale
 70
     0
300
3/32" = 1'-0"
140
0.09375
141
12.0
290
     0
  0
SCALE
  5
E796
102
{ACAD_REACTORS
330
E78F
102
}
330
E78F
100
AcDbScale
 70
     0
300
1/8" = 1'-0"
140
0.125
141
12.0
290
     0
  0
SCALE
  5
E797
102
{ACAD_REACTORS
330
E78F
102
}
330
E78F
100
AcDbScale
 70
     0
300
3/16" = 1'-0"
140
0.1875
141
12.0
290
     0
  0
SCALE
  5
E798
102
{ACAD_REACTORS
330
E78F
102
}
330
E78F
100
AcDbScale
 70
     0
300
1/4" = 1'-0"
140
0.25
141
12.0
290
     0
  0
SCALE
  5
E799
102
{ACAD_REACTORS
330
E78F
102
}
330
E78F
100
AcDbScale
 70
     0
300
3/8" = 1'-0"
140
0.375
141
12.0
290
     0
  0
SCALE
  5
E79A
102
{ACAD_REACTORS
330
E78F
102
}
330
E78F
100
AcDbScale
 70
     0
300
1/2" = 1'-0"
140
0.5
141
12.0
290
     0
  0
SCALE
  5
E79B
102
{ACAD_REACTORS
330
E78F
102
}
330
E78F
100
AcDbScale
 70
     0
300
3/4" = 1'-0"
140
0.75
141
12.0
290
     0
  0
SCALE
  5
E79C
102
{ACAD_REACTORS
330
E78F
102
}
330
E78F
100
AcDbScale
 70
     0
300
1" = 1'-0"
140
1.0
141
12.0
290
     0
  0
SCALE
  5
E79D
102
{ACAD_REACTORS
330
E78F
102
}
330
E78F
100
AcDbScale
 70
     0
300
1-1/2" = 1'-0"
140
1.5
141
12.0
290
     0
  0
SCALE
  5
E79E
102
{ACAD_REACTORS
330
E78F
102
}
330
E78F
100
AcDbScale
 70
     0
300
3" = 1'-0"
140
3.0
141
12.0
290
     0
  0
SCALE
  5
E79F
102
{ACAD_REACTORS
330
E78F
102
}
330
E78F
100
AcDbScale
 70
     0
300
6" = 1'-0"
140
6.0
141
12.0
290
     0
  0
SCALE
  5
E7A0
102
{ACAD_REACTORS
330
E78F
102
}
330
E78F
100
AcDbScale
 70
     0
300
1'-0" = 1'-0"
140
12.0
141
12.0
290
     0
  0
ACDBSECTIONVIEWSTYLE
  5
E7B5
102
{ACAD_XDICTIONARY
360
1CA4D
102
}
102
{ACAD_REACTORS
330
E7B4
102
}
330
E7B4
100
AcDbModelDocViewStyle
 70
     0
  3
Imperial24
290
     0
100
AcDbSectionViewStyle
 70
     0
 71
     0
 90
       78
 71
     1
340
E7A2
 62
   256
 40
0.24
340
0
340
0
 62
   256
 40
0.24
300
I, O, Q, S, X, Z
 40
0.48
 90
        3
 40
0.18
 90
        1
 71
     2
340
E7A9
 90
       25
 62
   256
340
E7A9
 90
       50
 62
   256
 40
0.24
 40
0.0
 40
0.24
 71
     3
340
E7A2
 62
   256
 40
0.24
 90
        1
 40
0.75
 90
        1
300
%<\AcVar ViewType \f "%tc1">% %<\AcVar ViewSectionStartId>%-%<\AcVar ViewSectionEndId>%\PSCALE %<\AcVar ViewScale \f "%sn">%
 71
     4
 62
   256
 62
   257
300
ANSI31
 40
1.0
 90
        0
290
     0
290
     0
 90
        6
 40
0.0
 40
1.570796326794896
 40
0.2617993877991494
 40
1.308996938995747
 40
-0.2617993877991494
 40
1.832595714594045
  0
ACDBSECTIONVIEWSTYLE
  5
E83D
102
{ACAD_XDICTIONARY
360
1CA51
102
}
102
{ACAD_REACTORS
330
E7B4
102
}
330
E7B4
100
AcDbModelDocViewStyle
 70
     0
  3
Metric50
290
     0
100
AcDbSectionViewStyle
 70
     0
 71
     0
 90
      102
 71
     1
340
E7A2
 62
   256
 40
5.0
340
0
340
0
 62
   256
 40
5.0
300
I, O, Q, S, X, Z
 40
10.0
 90
        0
 40
2.5
 90
        0
 71
     2
340
E7A9
 90
       25
 62
   256
340
E7A9
 90
       50
 62
   256
 40
5.0
 40
2.5
 40
5.0
 71
     3
340
E7A2
 62
   256
 40
5.0
 90
        0
 40
15.0
 90
        1
300
%<\AcVar ViewSectionStartId>%-%<\AcVar ViewSectionEndId>% (%<\AcVar ViewScale \f "%sn">%)
 71
     4
 62
   256
 62
   257
300
ANSI31
 40
1.0
 90
        0
290
     0
290
     0
 90
        6
 40
0.0
 40
1.570796326794896
 40
0.2617993877991494
 40
1.308996938995747
 40
-0.2617993877991494
 40
1.832595714594045
  0
TABLESTYLE
  5
E7B1
102
{ACAD_XDICTIONARY
360
E7E8
102
}
102
{ACAD_REACTORS
330
E7B0
102
}
330
E7B0
100
AcDbTableStyle
280
     0
  3
Standard
 70
     0
 71
     0
 40
0.06
 41
0.06
280
     0
281
     0
  7
STANDARD
140
0.18
170
     2
 62
     0
 63
     7
283
     0
 90
      512
 91
        0
  1

274
    -2
284
     1
 64
     0
275
    -2
285
     1
 65
     0
276
    -2
286
     1
 66
     0
277
    -2
287
     1
 67
     0
278
    -2
288
     1
 68
     0
279
    -2
289
     1
 69
     0
  7
STANDARD
140
0.25
170
     5
 62
     0
 63
     7
283
     0
 90
      512
 91
        0
  1

274
    -2
284
     1
 64
     0
275
    -2
285
     1
 65
     0
276
    -2
286
     1
 66
     0
277
    -2
287
     1
 67
     0
278
    -2
288
     1
 68
     0
279
    -2
289
     1
 69
     0
  7
STANDARD
140
0.18
170
     5
 62
     0
 63
     7
283
     0
 90
      512
 91
        0
  1

274
    -2
284
     1
 64
     0
275
    -2
285
     1
 65
     0
276
    -2
286
     1
 66
     0
277
    -2
287
     1
 67
     0
278
    -2
288
     1
 68
     0
279
    -2
289
     1
 69
     0
  0
VISUALSTYLE
  5
E77C
102
{ACAD_XDICTIONARY
360
1CA25
102
}
102
{ACAD_REACTORS
330
E776
102
}
330
E776
100
AcDbVisualStyle
  2
2dWireframe
 70
     4
177
     2
291
     0
 71
     0
176
     1
 72
     2
176
     1
 73
     0
176
     1
 90
        0
176
     1
 40
0.6
176
     1
 41
30.0
176
     1
 63
     7
421
 16777215
176
     1
 74
     1
176
     1
 91
        4
176
     1
 64
     7
176
     1
 65
   257
176
     1
 75
     1
176
     1
175
     1
176
     1
 42
1.0
176
     1
 92
        0
176
     1
 66
   257
176
     1
 43
1.0
176
     1
 76
     1
176
     1
 77
     6
176
     1
 78
     2
176
     1
 67
     7
176
     1
 79
     5
176
     1
170
     0
176
     1
171
     0
176
     1
290
     0
176
     1
 93
        1
176
     1
 44
0.0
176
     1
173
     0
176
     1
1001
ACAD
1000
AcDbSavedByObjectVersion
1070
     0
  0
VISUALSTYLE
  5
E77B
102
{ACAD_XDICTIONARY
360
1CA23
102
}
102
{ACAD_REACTORS
330
E776
102
}
330
E776
100
AcDbVisualStyle
  2
Basic
 70
     7
177
     2
291
     1
 71
     1
176
     1
 72
     0
176
     1
 73
     1
176
     1
 90
        0
176
     1
 40
0.6
176
     1
 41
30.0
176
     1
 63
     7
421
 16777215
176
     1
 74
     0
176
     1
 91
        4
176
     1
 64
     7
176
     1
 65
   257
176
     1
 75
     1
176
     1
175
     1
176
     1
 42
1.0
176
     1
 92
        8
176
     1
 66
     7
176
     1
 43
1.0
176
     1
 76
     1
176
     1
 77
     6
176
     1
 78
     2
176
     1
 67
     7
176
     1
 79
     5
176
     1
170
     0
176
     1
171
     0
176
     1
290
     0
176
     1
 93
        1
176
     1
 44
0.0
176
     1
173
     0
176
     1
1001
ACAD
1000
AcDbSavedByObjectVersion
1070
     0
  0
VISUALSTYLE
  5
E782
102
{ACAD_XDICTIONARY
360
1CA31
102
}
102
{ACAD_REACTORS
330
E776
102
}
330
E776
100
AcDbVisualStyle
  2
Brighten
 70
    12
177
     2
291
     1
 71
     2
176
     1
 72
     2
176
     1
 73
     0
176
     1
 90
        0
176
     1
 40
0.6
176
     1
 41
30.0
176
     1
 63
     7
421
 16777215
176
     1
 74
     1
176
     1
 91
        4
176
     1
 64
     7
176
     1
 65
   257
176
     1
 75
     1
176
     1
175
     1
176
     1
 42
1.0
176
     1
 92
        8
176
     1
 66
     7
176
     1
 43
1.0
176
     1
 76
     1
176
     1
 77
     6
176
     1
 78
     2
176
     1
 67
     7
176
     1
 79
     5
176
     1
170
     0
176
     1
171
     0
176
     1
290
     0
176
     1
 93
        1
176
     1
 44
50.0
176
     1
173
     0
176
     1
1001
ACAD
1000
AcDbSavedByObjectVersion
1070
     0
  0
VISUALSTYLE
  5
E786
102
{ACAD_XDICTIONARY
360
1CA39
102
}
102
{ACAD_REACTORS
330
E776
102
}
330
E776
100
AcDbVisualStyle
  2
ColorChange
 70
    16
177
     2
291
     1
 71
     2
176
     1
 72
     2
176
     1
 73
     3
176
     1
 90
        0
176
     1
 40
0.6
176
     1
 41
30.0
176
     1
 63
     8
421
  8421504
176
     1
 74
     1
176
     1
 91
        4
176
     1
 64
     7
176
     1
 65
   257
176
     1
 75
     1
176
     1
175
     1
176
     1
 42
1.0
176
     1
 92
        8
176
     1
 66
     8
424
  8421504
176
     1
 43
1.0
176
     1
 76
     1
176
     1
 77
     6
176
     1
 78
     2
176
     1
 67
     7
176
     1
 79
     5
176
     1
170
     0
176
     1
171
     0
176
     1
290
     0
176
     1
 93
        1
176
     1
 44
0.0
176
     1
173
     0
176
     1
1001
ACAD
1000
AcDbSavedByObjectVersion
1070
     0
  0
VISUALSTYLE
  5
E77F
102
{ACAD_XDICTIONARY
360
1CA2B
102
}
102
{ACAD_REACTORS
330
E776
102
}
330
E776
100
AcDbVisualStyle
  2
Conceptual
 70
     9
177
     2
291
     0
 71
     3
176
     1
 72
     2
176
     1
 73
     0
176
     1
 90
        0
176
     1
 40
0.6
176
     1
 41
30.0
176
     1
 63
     7
421
 16777215
176
     1
 74
     2
176
     1
 91
        2
176
     1
 64
     7
176
     1
 65
   257
176
     1
 75
     1
176
     1
175
     1
176
     1
 42
179.0
176
     1
 92
        8
176
     1
 66
     7
176
     1
 43
1.0
176
     1
 76
     1
176
     1
 77
     6
176
     1
 78
     2
176
     1
 67
     7
176
     1
 79
     3
176
     1
170
     0
176
     1
171
     0
176
     1
290
     0
176
     1
 93
        1
176
     1
 44
0.0
176
     1
173
     0
176
     1
1001
ACAD
1000
AcDbSavedByObjectVersion
1070
     0
  0
VISUALSTYLE
  5
E781
102
{ACAD_XDICTIONARY
360
1CA2F
102
}
102
{ACAD_REACTORS
330
E776
102
}
330
E776
100
AcDbVisualStyle
  2
Dim
 70
    11
177
     2
291
     1
 71
     2
176
     1
 72
     2
176
     1
 73
     0
176
     1
 90
        0
176
     1
 40
0.6
176
     1
 41
30.0
176
     1
 63
     7
421
 16777215
176
     1
 74
     1
176
     1
 91
        4
176
     1
 64
     7
176
     1
 65
   257
176
     1
 75
     1
176
     1
175
     1
176
     1
 42
1.0
176
     1
 92
        8
176
     1
 66
     7
176
     1
 43
1.0
176
     1
 76
     1
176
     1
 77
     6
176
     1
 78
     2
176
     1
 67
     7
176
     1
 79
     5
176
     1
170
     0
176
     1
171
     0
176
     1
290
     0
176
     1
 93
        1
176
     1
 44
-50.0
176
     1
173
     0
176
     1
1001
ACAD
1000
AcDbSavedByObjectVersion
1070
     0
  0
VISUALSTYLE
  5
E78E
102
{ACAD_XDICTIONARY
360
1CA49
102
}
102
{ACAD_REACTORS
330
E776
102
}
330
E776
100
AcDbVisualStyle
  2
EdgeColorOff
 70
    22
177
     2
291
     1
 71
     2
176
     0
 72
     2
176
     0
 73
     0
176
     0
 90
        0
176
     0
 40
0.6
176
     0
 41
30.0
176
     0
 63
     7
421
 16777215
176
     0
 74
     1
176
     0
 91
        4
176
     0
 64
     7
176
     0
 65
   257
176
     0
 75
     1
176
     0
175
     1
176
     0
 42
1.0
176
     0
 92
        8
176
     2
 66
     7
176
     0
 43
1.0
176
     0
 76
     1
176
     0
 77
     6
176
     0
 78
     2
176
     0
 67
     7
176
     0
 79
     5
176
     0
170
     0
176
     0
171
     0
176
     0
290
     0
176
     0
 93
        1
176
     0
 44
0.0
176
     0
173
     0
176
     0
1001
ACAD
1000
AcDbSavedByObjectVersion
1070
     0
  0
VISUALSTYLE
  5
E785
102
{ACAD_XDICTIONARY
360
1CA37
102
}
102
{ACAD_REACTORS
330
E776
102
}
330
E776
100
AcDbVisualStyle
  2
Facepattern
 70
    15
177
     2
291
     1
 71
     2
176
     1
 72
     2
176
     1
 73
     0
176
     1
 90
        0
176
     1
 40
0.6
176
     1
 41
30.0
176
     1
 63
     7
421
 16777215
176
     1
 74
     1
176
     1
 91
        4
176
     1
 64
     7
176
     1
 65
   257
176
     1
 75
     1
176
     1
175
     1
176
     1
 42
1.0
176
     1
 92
        8
176
     1
 66
     7
176
     1
 43
1.0
176
     1
 76
     1
176
     1
 77
     6
176
     1
 78
     2
176
     1
 67
     7
176
     1
 79
     5
176
     1
170
     0
176
     1
171
     0
176
     1
290
     0
176
     1
 93
        1
176
     1
 44
0.0
176
     1
173
     0
176
     1
1001
ACAD
1000
AcDbSavedByObjectVersion
1070
     0
  0
VISUALSTYLE
  5
E777
102
{ACAD_XDICTIONARY
360
1CA1B
102
}
102
{ACAD_REACTORS
330
E776
102
}
330
E776
100
AcDbVisualStyle
  2
Flat
 70
     0
177
     2
291
     1
 71
     2
176
     1
 72
     1
176
     1
 73
     1
176
     1
 90
        2
176
     1
 40
0.6
176
     1
 41
30.0
176
     1
 63
     7
421
 16777215
176
     1
 74
     0
176
     1
 91
        0
176
     1
 64
     7
176
     1
 65
   257
176
     1
 75
     1
176
     1
175
     1
176
     1
 42
1.0
176
     1
 92
        8
176
     1
 66
     7
176
     1
 43
1.0
176
     1
 76
     1
176
     1
 77
     6
176
     1
 78
     2
176
     1
 67
     7
176
     1
 79
     5
176
     1
170
     0
176
     1
171
     0
176
     1
290
     0
176
     1
 93
       13
176
     1
 44
0.0
176
     1
173
     0
176
     1
1001
ACAD
1000
AcDbSavedByObjectVersion
1070
     0
  0
VISUALSTYLE
  5
E778
102
{ACAD_XDICTIONARY
360
1CA1D
102
}
102
{ACAD_REACTORS
330
E776
102
}
330
E776
100
AcDbVisualStyle
  2
FlatWithEdges
 70
     1
177
     2
291
     1
 71
     2
176
     1
 72
     1
176
     1
 73
     1
176
     1
 90
        2
176
     1
 40
0.6
176
     1
 41
30.0
176
     1
 63
     7
421
 16777215
176
     1
 74
     1
176
     1
 91
        0
176
     1
 64
     7
176
     1
 65
   257
176
     1
 75
     1
176
     1
175
     1
176
     1
 42
1.0
176
     1
 92
        0
176
     1
 66
   257
176
     1
 43
1.0
176
     1
 76
     1
176
     1
 77
     6
176
     1
 78
     2
176
     1
 67
     7
176
     1
 79
     5
176
     1
170
     0
176
     1
171
     0
176
     1
290
     0
176
     1
 93
       13
176
     1
 44
0.0
176
     1
173
     0
176
     1
1001
ACAD
1000
AcDbSavedByObjectVersion
1070
     0
  0
VISUALSTYLE
  5
E779
102
{ACAD_XDICTIONARY
360
1CA1F
102
}
102
{ACAD_REACTORS
330
E776
102
}
330
E776
100
AcDbVisualStyle
  2
Gouraud
 70
     2
177
     2
291
     1
 71
     2
176
     1
 72
     2
176
     1
 73
     1
176
     1
 90
        2
176
     1
 40
0.6
176
     1
 41
30.0
176
     1
 63
     7
421
 16777215
176
     1
 74
     0
176
     1
 91
        0
176
     1
 64
     7
176
     1
 65
   257
176
     1
 75
     1
176
     1
175
     1
176
     1
 42
1.0
176
     1
 92
        0
176
     1
 66
     7
176
     1
 43
1.0
176
     1
 76
     1
176
     1
 77
     6
176
     1
 78
     2
176
     1
 67
     7
176
     1
 79
     5
176
     1
170
     0
176
     1
171
     0
176
     1
290
     0
176
     1
 93
       13
176
     1
 44
0.0
176
     1
173
     0
176
     1
1001
ACAD
1000
AcDbSavedByObjectVersion
1070
     0
  0
VISUALSTYLE
  5
E77A
102
{ACAD_XDICTIONARY
360
1CA21
102
}
102
{ACAD_REACTORS
330
E776
102
}
330
E776
100
AcDbVisualStyle
  2
GouraudWithEdges
 70
     3
177
     2
291
     1
 71
     2
176
     1
 72
     2
176
     1
 73
     1
176
     1
 90
        2
176
     1
 40
0.6
176
     1
 41
30.0
176
     1
 63
     7
421
 16777215
176
     1
 74
     1
176
     1
 91
        0
176
     1
 64
     7
176
     1
 65
   257
176
     1
 75
     1
176
     1
175
     1
176
     1
 42
1.0
176
     1
 92
        0
176
     1
 66
   257
176
     1
 43
1.0
176
     1
 76
     1
176
     1
 77
     6
176
     1
 78
     2
176
     1
 67
     7
176
     1
 79
     5
176
     1
170
     0
176
     1
171
     0
176
     1
290
     0
176
     1
 93
       13
176
     1
 44
0.0
176
     1
173
     0
176
     1
1001
ACAD
1000
AcDbSavedByObjectVersion
1070
     0
  0
VISUALSTYLE
  5
E77E
102
{ACAD_XDICTIONARY
360
1CA29
102
}
102
{ACAD_REACTORS
330
E776
102
}
330
E776
100
AcDbVisualStyle
  2
Hidden
 70
     6
177
     2
291
     0
 71
     1
176
     1
 72
     2
176
     1
 73
     2
176
     1
 90
        0
176
     1
 40
0.6
176
     1
 41
30.0
176
     1
 63
     7
421
 16777215
176
     1
 74
     2
176
     1
 91
        2
176
     1
 64
     7
176
     1
 65
   257
176
     1
 75
     2
176
     1
175
     1
176
     1
 42
40.0
176
     1
 92
        0
176
     1
 66
   257
176
     1
 43
1.0
176
     1
 76
     1
176
     1
 77
     6
176
     1
 78
     2
176
     1
 67
     7
176
     1
 79
     3
176
     1
170
     0
176
     1
171
     0
176
     1
290
     0
176
     1
 93
        1
176
     1
 44
0.0
176
     1
173
     0
176
     1
1001
ACAD
1000
AcDbSavedByObjectVersion
1070
     0
  0
VISUALSTYLE
  5
E78C
102
{ACAD_XDICTIONARY
360
1CA45
102
}
102
{ACAD_REACTORS
330
E776
102
}
330
E776
100
AcDbVisualStyle
  2
JitterOff
 70
    20
177
     2
291
     1
 71
     2
176
     0
 72
     2
176
     0
 73
     0
176
     0
 90
        0
176
     0
 40
0.6
176
     0
 41
30.0
176
     0
 63
     7
421
 16777215
176
     0
 74
     1
176
     0
 91
        4
176
     0
 64
     7
176
     0
 65
   257
176
     0
 75
     1
176
     0
175
     1
176
     0
 42
1.0
176
     0
 92
       10
176
     2
 66
     7
176
     0
 43
1.0
176
     0
 76
     1
176
     0
 77
     6
176
     0
 78
     2
176
     0
 67
     7
176
     0
 79
     5
176
     0
170
     0
176
     0
171
     0
176
     0
290
     0
176
     0
 93
        1
176
     0
 44
0.0
176
     0
173
     0
176
     0
1001
ACAD
1000
AcDbSavedByObjectVersion
1070
     0
  0
VISUALSTYLE
  5
E784
102
{ACAD_XDICTIONARY
360
1CA35
102
}
102
{ACAD_REACTORS
330
E776
102
}
330
E776
100
AcDbVisualStyle
  2
Linepattern
 70
    14
177
     2
291
     1
 71
     2
176
     1
 72
     2
176
     1
 73
     0
176
     1
 90
        0
176
     1
 40
0.6
176
     1
 41
30.0
176
     1
 63
     7
421
 16777215
176
     1
 74
     1
176
     1
 91
        4
176
     1
 64
     7
176
     1
 65
   257
176
     1
 75
     7
176
     1
175
     7
176
     1
 42
1.0
176
     1
 92
        8
176
     1
 66
     7
176
     1
 43
1.0
176
     1
 76
     1
176
     1
 77
     6
176
     1
 78
     2
176
     1
 67
     7
176
     1
 79
     5
176
     1
170
     0
176
     1
171
     0
176
     1
290
     0
176
     1
 93
        1
176
     1
 44
0.0
176
     1
173
     0
176
     1
1001
ACAD
1000
AcDbSavedByObjectVersion
1070
     0
  0
VISUALSTYLE
  5
E78D
102
{ACAD_XDICTIONARY
360
1CA47
102
}
102
{ACAD_REACTORS
330
E776
102
}
330
E776
100
AcDbVisualStyle
  2
OverhangOff
 70
    21
177
     2
291
     1
 71
     2
176
     0
 72
     2
176
     0
 73
     0
176
     0
 90
        0
176
     0
 40
0.6
176
     0
 41
30.0
176
     0
 63
     7
421
 16777215
176
     0
 74
     1
176
     0
 91
        4
176
     0
 64
     7
176
     0
 65
   257
176
     0
 75
     1
176
     0
175
     1
176
     0
 42
1.0
176
     0
 92
        9
176
     2
 66
     7
176
     0
 43
1.0
176
     0
 76
     1
176
     0
 77
     6
176
     0
 78
     2
176
     0
 67
     7
176
     0
 79
     5
176
     0
170
     0
176
     0
171
     0
176
     0
290
     0
176
     0
 93
        1
176
     0
 44
0.0
176
     0
173
     0
176
     0
1001
ACAD
1000
AcDbSavedByObjectVersion
1070
     0
  0
VISUALSTYLE
  5
E780
102
{ACAD_XDICTIONARY
360
1CA2D
102
}
102
{ACAD_REACTORS
330
E776
102
}
330
E776
100
AcDbVisualStyle
  2
Realistic
 70
     8
177
     2
291
     0
 71
     2
176
     1
 72
     2
176
     1
 73
     0
176
     1
 90
        2
176
     1
 40
0.6
176
     1
 41
30.0
176
     1
 63
     7
421
 16777215
176
     1
 74
     0
176
     1
 91
        0
176
     1
 64
     7
176
     1
 65
   257
176
     1
 75
     1
176
     1
175
     1
176
     1
 42
1.0
176
     1
 92
        8
176
     1
 66
   257
176
     1
 43
1.0
176
     1
 76
     1
176
     1
 77
     6
176
     1
 78
     2
176
     1
 67
     7
176
     1
 79
     3
176
     1
170
     0
176
     1
171
     0
176
     1
290
     0
176
     1
 93
       13
176
     1
 44
0.0
176
     1
173
     0
176
     1
1001
ACAD
1000
AcDbSavedByObjectVersion
1070
     0
  0
VISUALSTYLE
  5
E78B
102
{ACAD_XDICTIONARY
360
1CA43
102
}
102
{ACAD_REACTORS
330
E776
102
}
330
E776
100
AcDbVisualStyle
  2
Shaded
 70
    27
177
     2
291
     0
 71
     2
176
     1
 72
     2
176
     1
 73
     1
176
     1
 90
        2
176
     1
 40
0.6
176
     1
 41
30.0
176
     1
 63
     7
421
 16777215
176
     1
 74
     0
176
     1
 91
        4
176
     1
 64
     7
176
     1
 65
   257
176
     1
 75
     1
176
     1
175
     1
176
     1
 42
1.0
176
     1
 92
        8
176
     1
 66
   257
176
     1
 43
1.0
176
     1
 76
     1
176
     1
 77
     6
176
     1
 78
     2
176
     1
 67
     8
425
  7895160
176
     1
 79
     3
176
     1
170
     0
176
     1
171
     0
176
     1
290
     0
176
     1
 93
        5
176
     1
 44
0.0
176
     1
173
     0
176
     1
1001
ACAD
1000
AcDbSavedByObjectVersion
1070
     0
  0
VISUALSTYLE
  5
E78A
102
{ACAD_XDICTIONARY
360
1CA41
102
}
102
{ACAD_REACTORS
330
E776
102
}
330
E776
100
AcDbVisualStyle
  2
Shaded with edges
 70
    26
177
     2
291
     0
 71
     2
176
     1
 72
     2
176
     1
 73
     1
176
     1
 90
        2
176
     1
 40
0.6
176
     1
 41
30.0
176
     1
 63
     7
421
 16777215
176
     1
 74
     1
176
     1
 91
        2
176
     1
 64
     7
176
     1
 65
   257
176
     1
 75
     2
176
     1
175
     1
176
     1
 42
1.0
176
     1
 92
        8
176
     1
 66
   257
176
     1
 43
1.0
176
     1
 76
     1
176
     1
 77
     6
176
     1
 78
     2
176
     1
 67
     7
176
     1
 79
     3
176
     1
170
     0
176
     1
171
     0
176
     1
290
     0
176
     1
 93
        5
176
     1
 44
0.0
176
     1
173
     0
176
     1
1001
ACAD
1000
AcDbSavedByObjectVersion
1070
     0
  0
VISUALSTYLE
  5
E787
102
{ACAD_XDICTIONARY
360
1CA3B
102
}
102
{ACAD_REACTORS
330
E776
102
}
330
E776
100
AcDbVisualStyle
  2
Shades of Gray
 70
    23
177
     2
291
     0
 71
     2
176
     1
 72
     2
176
     1
 73
     3
176
     1
 90
        0
176
     1
 40
0.6
176
     1
 41
30.0
176
     1
 63
     7
421
 16777215
176
     1
 74
     2
176
     1
 91
        2
176
     1
 64
     7
176
     1
 65
     7
176
     1
 75
     1
176
     1
175
     1
176
     1
 42
40.0
176
     1
 92
        8
176
     1
 66
     7
176
     1
 43
1.0
176
     1
 76
     1
176
     1
 77
     6
176
     1
 78
     2
176
     1
 67
     7
176
     1
 79
     3
176
     1
170
     0
176
     1
171
     0
176
     1
290
     0
176
     1
 93
        1
176
     1
 44
0.0
176
     1
173
     0
176
     1
1001
ACAD
1000
AcDbSavedByObjectVersion
1070
     0
  0
VISUALSTYLE
  5
E788
102
{ACAD_XDICTIONARY
360
1CA3D
102
}
102
{ACAD_REACTORS
330
E776
102
}
330
E776
100
AcDbVisualStyle
  2
Sketchy
 70
    24
177
     2
291
     0
 71
     1
176
     1
 72
     2
176
     1
 73
     2
176
     1
 90
        0
176
     1
 40
0.6
176
     1
 41
30.0
176
     1
 63
     7
421
 16777215
176
     1
 74
     2
176
     1
 91
        2
176
     1
 64
     7
176
     1
 65
     7
176
     1
 75
     1
176
     1
175
     1
176
     1
 42
40.0
176
     1
 92
       11
176
     1
 66
     7
176
     1
 43
1.0
176
     1
 76
     1
176
     1
 77
     6
176
     1
 78
     2
176
     1
 67
     7
176
     1
 79
     6
176
     1
170
     0
176
     1
171
     0
176
     1
290
     0
176
     1
 93
        1
176
     1
 44
0.0
176
     1
173
     0
176
     1
1001
ACAD
1000
AcDbSavedByObjectVersion
1070
     0
  0
VISUALSTYLE
  5
E783
102
{ACAD_XDICTIONARY
360
1CA33
102
}
102
{ACAD_REACTORS
330
E776
102
}
330
E776
100
AcDbVisualStyle
  2
Thicken
 70
    13
177
     2
291
     1
 71
     2
176
     1
 72
     2
176
     1
 73
     0
176
     1
 90
        0
176
     1
 40
0.6
176
     1
 41
30.0
176
     1
 63
     7
421
 16777215
176
     1
 74
     1
176
     1
 91
        4
176
     1
 64
     7
176
     1
 65
   257
176
     1
 75
     1
176
     1
175
     1
176
     1
 42
1.0
176
     1
 92
       12
176
     1
 66
     7
176
     1
 43
1.0
176
     1
 76
     1
176
     1
 77
     6
176
     1
 78
     2
176
     1
 67
     7
176
     1
 79
     5
176
     1
170
     0
176
     1
171
     0
176
     1
290
     0
176
     1
 93
        1
176
     1
 44
0.0
176
     1
173
     0
176
     1
1001
ACAD
1000
AcDbSavedByObjectVersion
1070
     0
  0
VISUALSTYLE
  5
E77D
102
{ACAD_XDICTIONARY
360
1CA27
102
}
102
{ACAD_REACTORS
330
E776
102
}
330
E776
100
AcDbVisualStyle
  2
Wireframe
 70
     5
177
     2
291
     0
 71
     0
176
     1
 72
     2
176
     1
 73
     0
176
     1
 90
        0
176
     1
 40
0.6
176
     1
 41
30.0
176
     1
 63
     7
421
 16777215
176
     1
 74
     1
176
     1
 91
        4
176
     1
 64
     7
176
     1
 65
   257
176
     1
 75
     1
176
     1
175
     1
176
     1
 42
1.0
176
     1
 92
        0
176
     1
 66
   257
176
     1
 43
1.0
176
     1
 76
     1
176
     1
 77
     6
176
     1
 78
     2
176
     1
 67
     7
176
     1
 79
     3
176
     1
170
     0
176
     1
171
     0
176
     1
290
     0
176
     1
 93
        1
176
     1
 44
0.0
176
     1
173
     0
176
     1
1001
ACAD
1000
AcDbSavedByObjectVersion
1070
     0
  0
VISUALSTYLE
  5
E789
102
{ACAD_XDICTIONARY
360
1CA3F
102
}
102
{ACAD_REACTORS
330
E776
102
}
330
E776
100
AcDbVisualStyle
  2
X-Ray
 70
    25
177
     2
291
     0
 71
     2
176
     1
 72
     2
176
     1
 73
     1
176
     1
 90
        1
176
     1
 40
0.5
176
     1
 41
30.0
176
     1
 63
     7
421
 16777215
176
     1
 74
     1
176
     1
 91
        0
176
     1
 64
     7
176
     1
 65
   257
176
     1
 75
     1
176
     1
175
     1
176
     1
 42
1.0
176
     1
 92
        8
176
     1
 66
     7
176
     1
 43
1.0
176
     1
 76
     1
176
     1
 77
     6
176
     1
 78
     2
176
     1
 67
     7
176
     1
 79
     3
176
     1
170
     0
176
     1
171
     0
176
     1
290
     0
176
     1
 93
       13
176
     1
 44
0.0
176
     1
173
     0
176
     1
1001
ACAD
1000
AcDbSavedByObjectVersion
1070
     0
  0
DICTIONARYVAR
  5
E837
102
{ACAD_REACTORS
330
E831
102
}
330
E831
100
DictionaryVariables
280
     0
  1
1:1
  0
DICTIONARYVAR
  5
E833
102
{ACAD_REACTORS
330
E831
102
}
330
E831
100
DictionaryVariables
280
     0
  1
STANDARD
  0
DICTIONARYVAR
  5
E832
102
{ACAD_REACTORS
330
E831
102
}
330
E831
100
DictionaryVariables
280
     0
  1
STANDARD
  0
DICTIONARYVAR
  5
E834
102
{ACAD_REACTORS
330
E831
102
}
330
E831
100
DictionaryVariables
280
     0
  1
Imperial24
  0
DICTIONARYVAR
  5
E835
102
{ACAD_REACTORS
330
E831
102
}
330
E831
100
DictionaryVariables
280
     0
  1
Imperial24
  0
DICTIONARYVAR
  5
E839
102
{ACAD_REACTORS
330
E831
102
}
330
E831
100
DictionaryVariables
280
     0
  1
0
  0
DICTIONARYVAR
  5
E83A
102
{ACAD_REACTORS
330
E831
102
}
330
E831
100
DictionaryVariables
280
     0
  1
0
  0
DICTIONARYVAR
  5
E838
102
{ACAD_REACTORS
330
E831
102
}
330
E831
100
DictionaryVariables
280
     0
  1
2
  0
DICTIONARYVAR
  5
E836
102
{ACAD_REACTORS
330
E831
102
}
330
E831
100
DictionaryVariables
280
     0
  1
1
  0
DICTIONARY
  5
1C950
102
{ACAD_REACTORS
330
1C94F
102
}
330
1C94F
100
AcDbDictionary
281
     1
  3
YB-CATALOGEXPLODE
350
1C951
  0
DICTIONARY
  5
1CA4F
330
E7B7
100
AcDbDictionary
280
     1
281
     1
  3
ACAD_XREC_ROUNDTRIP
360
1CA50
  0
DICTIONARY
  5
1CA53
330
E83E
100
AcDbDictionary
280
     1
281
     1
  3
ACAD_XREC_ROUNDTRIP
360
1CA54
  0
DICTIONARY
  5
E82F
330
E7BF
100
AcDbDictionary
280
     1
281
     1
  3
ADSK_XREC_LAYOUTTHUMBNAIL
360
1CA06
  0
DICTIONARY
  5
E767
330
E766
100
AcDbDictionary
280
     1
281
     1
  3
BUMPTILE
360
E769
  3
DIFFUSETILE
360
E768
  3
OPACITYTILE
360
E76C
  3
REFLECTIONTILE
360
E76B
  3
REFRACTIONTILE
360
E76D
  3
SPECULARTILE
360
E76A
  0
DICTIONARY
  5
E75F
330
E75E
100
AcDbDictionary
280
     1
281
     1
  3
BUMPTILE
360
E761
  3
DIFFUSETILE
360
E760
  3
OPACITYTILE
360
E764
  3
REFLECTIONTILE
360
E763
  3
REFRACTIONTILE
360
E765
  3
SPECULARTILE
360
E762
  0
DICTIONARY
  5
E76F
330
E76E
100
AcDbDictionary
280
     1
281
     1
  3
BUMPTILE
360
E771
  3
DIFFUSETILE
360
E770
  3
OPACITYTILE
360
E774
  3
REFLECTIONTILE
360
E773
  3
REFRACTIONTILE
360
E775
  3
SPECULARTILE
360
E772
  0
DICTIONARY
  5
1CA4B
330
E7B3
100
AcDbDictionary
280
     1
281
     1
  3
ACAD_XREC_ROUNDTRIP
360
1CA4C
  0
XRECORD
  5
18C93
102
{ACAD_REACTORS
330
F264
102
}
330
F264
100
AcDbXrecord
280
     1
102
ACAD_MENTALRAY_SETTING_RT
330
EA96
 70
     1
  0
XRECORD
  5
F265
102
{ACAD_REACTORS
330
F264
102
}
330
F264
100
AcDbXrecord
280
     1
 70
     2
 71
     3
 72
     0
  0
DICTIONARY
  5
1CA4D
330
E7B5
100
AcDbDictionary
280
     1
281
     1
  3
ACAD_XREC_ROUNDTRIP
360
1CA4E
  0
DICTIONARY
  5
1CA51
330
E83D
100
AcDbDictionary
280
     1
281
     1
  3
ACAD_XREC_ROUNDTRIP
360
1CA52
  0
DICTIONARY
  5
E7E8
330
E7B1
100
AcDbDictionary
280
     1
281
     1
  3
ACAD_ROUNDTRIP_2008_TABLESTYLE_CELLSTYLEMAP
360
1CA19
  0
DICTIONARY
  5
1CA25
330
E77C
100
AcDbDictionary
280
     1
281
     1
  3
ACAD_XREC_ROUNDTRIP
360
1CA26
  0
DICTIONARY
  5
1CA23
330
E77B
100
AcDbDictionary
280
     1
281
     1
  3
ACAD_XREC_ROUNDTRIP
360
1CA24
  0
DICTIONARY
  5
1CA31
330
E782
100
AcDbDictionary
280
     1
281
     1
  3
ACAD_XREC_ROUNDTRIP
360
1CA32
  0
DICTIONARY
  5
1CA39
330
E786
100
AcDbDictionary
280
     1
281
     1
  3
ACAD_XREC_ROUNDTRIP
360
1CA3A
  0
DICTIONARY
  5
1CA2B
330
E77F
100
AcDbDictionary
280
     1
281
     1
  3
ACAD_XREC_ROUNDTRIP
360
1CA2C
  0
DICTIONARY
  5
1CA2F
330
E781
100
AcDbDictionary
280
     1
281
     1
  3
ACAD_XREC_ROUNDTRIP
360
1CA30
  0
DICTIONARY
  5
1CA49
330
E78E
100
AcDbDictionary
280
     1
281
     1
  3
ACAD_XREC_ROUNDTRIP
360
1CA4A
  0
DICTIONARY
  5
1CA37
330
E785
100
AcDbDictionary
280
     1
281
     1
  3
ACAD_XREC_ROUNDTRIP
360
1CA38
  0
DICTIONARY
  5
1CA1B
330
E777
100
AcDbDictionary
280
     1
281
     1
  3
ACAD_XREC_ROUNDTRIP
360
1CA1C
  0
DICTIONARY
  5
1CA1D
330
E778
100
AcDbDictionary
280
     1
281
     1
  3
ACAD_XREC_ROUNDTRIP
360
1CA1E
  0
DICTIONARY
  5
1CA1F
330
E779
100
AcDbDictionary
280
     1
281
     1
  3
ACAD_XREC_ROUNDTRIP
360
1CA20
  0
DICTIONARY
  5
1CA21
330
E77A
100
AcDbDictionary
280
     1
281
     1
  3
ACAD_XREC_ROUNDTRIP
360
1CA22
  0
DICTIONARY
  5
1CA29
330
E77E
100
AcDbDictionary
280
     1
281
     1
  3
ACAD_XREC_ROUNDTRIP
360
1CA2A
  0
DICTIONARY
  5
1CA45
330
E78C
100
AcDbDictionary
280
     1
281
     1
  3
ACAD_XREC_ROUNDTRIP
360
1CA46
  0
DICTIONARY
  5
1CA35
330
E784
100
AcDbDictionary
280
     1
281
     1
  3
ACAD_XREC_ROUNDTRIP
360
1CA36
  0
DICTIONARY
  5
1CA47
330
E78D
100
AcDbDictionary
280
     1
281
     1
  3
ACAD_XREC_ROUNDTRIP
360
1CA48
  0
DICTIONARY
  5
1CA2D
330
E780
100
AcDbDictionary
280
     1
281
     1
  3
ACAD_XREC_ROUNDTRIP
360
1CA2E
  0
DICTIONARY
  5
1CA43
330
E78B
100
AcDbDictionary
280
     1
281
     1
  3
ACAD_XREC_ROUNDTRIP
360
1CA44
  0
DICTIONARY
  5
1CA41
330
E78A
100
AcDbDictionary
280
     1
281
     1
  3
ACAD_XREC_ROUNDTRIP
360
1CA42
  0
DICTIONARY
  5
1CA3B
330
E787
100
AcDbDictionary
280
     1
281
     1
  3
ACAD_XREC_ROUNDTRIP
360
1CA3C
  0
DICTIONARY
  5
1CA3D
330
E788
100
AcDbDictionary
280
     1
281
     1
  3
ACAD_XREC_ROUNDTRIP
360
1CA3E
  0
DICTIONARY
  5
1CA33
330
E783
100
AcDbDictionary
280
     1
281
     1
  3
ACAD_XREC_ROUNDTRIP
360
1CA34
  0
DICTIONARY
  5
1CA27
330
E77D
100
AcDbDictionary
280
     1
281
     1
  3
ACAD_XREC_ROUNDTRIP
360
1CA28
  0
DICTIONARY
  5
1CA3F
330
E789
100
AcDbDictionary
280
     1
281
     1
  3
ACAD_XREC_ROUNDTRIP
360
1CA40
  0
DICTIONARY
  5
1C951
102
{ACAD_REACTORS
330
1C950
102
}
330
1C950
100
AcDbDictionary
281
     1
1001
YACAD
1000
1
  0
XRECORD
  5
1CA50
102
{ACAD_REACTORS
330
1CA4F
102
}
330
1CA4F
100
AcDbXrecord
280
     1
102
DISPLAYNAME
  1
Imperial24
102
FLAGS
 90
        0
  0
XRECORD
  5
1CA54
102
{ACAD_REACTORS
330
1CA53
102
}
330
1CA53
100
AcDbXrecord
280
     1
102
DISPLAYNAME
  1
Metric50
102
FLAGS
 90
        0
  0
XRECORD
  5
1CA06
102
{ACAD_REACTORS
330
E82F
102
}
330
E82F
100
AcDbXrecord
280
     1
310
2800000000010000790000000100080000000000007900000100000001000000000100000000000000000000FFFFFF52000000FF000000FF000000FF000000FF000000FF000000FF000000FF000000FF000000FF330000FF660000FF990000FFCC0000FFFF0000FF003300FF333300FF663300FF993300FFCC3300FFFF3300
310
FF006600FF336600FF666600FF996600FFCC6600FFFF6600FF009900FF339900FF669900FF999900FFCC9900FFFF9900FF00CC00FF33CC00FF66CC00FF99CC00FFCCCC00FFFFCC00FF00FF00FF33FF00FF66FF00FF99FF00FFCCFF00FFFFFF00FF000033FF330033FF660033FF990033FFCC0033FFFF0033FF003333FF3333
310
33FF663333FF993333FFCC3333FFFF3333FF006633FF336633FF666633FF996633FFCC6633FFFF6633FF009933FF339933FF669933FF999933FFCC9933FFFF9933FF00CC33FF33CC33FF66CC33FF99CC33FFCCCC33FFFFCC33FF00FF33FF33FF33FF66FF33FF99FF33FFCCFF33FFFFFF33FF000066FF330066FF660066FF99
310
0066FFCC0066FFFF0066FF003366FF333366FF663366FF993366FFCC3366FFFF3366FF006666FF336666FF666666FF996666FFCC6666FFFF6666FF009966FF339966FF669966FF999966FFCC9966FFFF9966FF00CC66FF33CC66FF66CC66FF99CC66FFCCCC66FFFFCC66FF00FF66FF33FF66FF66FF66FF99FF66FFCCFF66FF
310
FFFF66FF000099FF330099FF660099FF990099FFCC0099FFFF0099FF003399FF333399FF663399FF993399FFCC3399FFFF3399FF006699FF336699FF666699FF996699FFCC6699FFFF6699FF009999FF339999FF669999FF999999FFCC9999FFFF9999FF00CC99FF33CC99FF66CC99FF99CC99FFCCCC99FFFFCC99FF00FF99
310
FF33FF99FF66FF99FF99FF99FFCCFF99FFFFFF99FF0000CCFF3300CCFF6600CCFF9900CCFFCC00CCFFFF00CCFF0033CCFF3333CCFF6633CCFF9933CCFFCC33CCFFFF33CCFF0066CCFF3366CCFF6666CCFF9966CCFFCC66CCFFFF66CCFF0099CCFF3399CCFF6699CCFF9999CCFFCC99CCFFFF99CCFF00CCCCFF33CCCCFF66CC
310
CCFF99CCCCFFCCCCCCFFFFCCCCFF00FFCCFF33FFCCFF66FFCCFF99FFCCFFCCFFCCFFFFFFCCFF0000FFFF3300FFFF6600FFFF9900FFFFCC00FFFFFF00FFFF0033FFFF3333FFFF6633FFFF9933FFFFCC33FFFFFF33FFFF0066FFFF3366FFFF6666FFFF9966FFFFCC66FFFFFF66FFFF0099FFFF3399FFFF6699FFFF9999FFFFCC
310
99FFFFFF99FFFF00CCFFFF33CCFFFF66CCFFFF99CCFFFFCCCCFFFFFFCCFFFF00FFFFFF33FFFFFF66FFFFFF99FFFFFFCCFFFFFFFFFFFFFF000000FF0D0D0DFF1A1A1AFF282828FF353535FF434343FF505050FF5D5D5DFF6B6B6BFF787878FF868686FF939393FFA1A1A1FFAEAEAEFFBBBBBBFFC9C9C9FFD6D6D6FFE4E4E4FF
310
F1F1F1FFFFFFFFFF000000FF000000FF000000FF000000FF000000FF000000FF000000FF000000FF000000FF000000FF00000000000000000000000000000000000000000000000000000000000000000000000000000000000000000000000000000000000000000000000000000000000000000000000000000000000000
310
00000000000000000000000000000000000000000000000000000000000000000000000000000000000000000000000000000000000000000000000000000000000000000000000000000000000000000000000000000000000000000000000000000000000000000000000000000000000000000000000000000000000000
310
0000000000000000000000000000000000000000000000000000000000000000000000000000000000000000000000000000000000000000000000000000000000000000000000000000000000000000000000000000000000000000F5F5F5F5F5F5F5F5F5F5F5F5F5F5F5F5F5F5F5F5F5F5F5F5F5F5F5F5F5F5F5F5F5F5F5
310
F5F5F5F5F5F5F5F5F5F5F5F5F5F5F5F5F5F5F5F5F5F5F5F5F5F5F5F5F5F5F5F5F5F5F5F5F5F5F5F5F5F5F5F5F5F5F5F5F5F5F5F5F5F5F5F5F5F5F5F5F5F5F5F5F5F5F5F5F5F5F5F5F5F5F5F5F5F5F5F5F5F5F5F5F5F5F5F5F5F5F5F5F5F5F5F5F5F5F5F5F5F5F5F5F5F5F5F5F5F5F5F5F5F5F5F5F5F5F5F5F5F5F5F5F5F5F5
310
F5F5F5F5F5F5F5F5F5F5000000000000000000000000000000000000000000000000000000000000000000000000000000000000000000000000000000000000000000000000000000000000000000000000000000000000000000000000F500DCDCDCDCDCDCDCDCDCDCDCDCDCDCDCDCDCDCDCDCDCDC0000F5F5DCDCDC0000
310
00F5000000000000000000000000000000000000000000000000000000000000000000F5000000000000000000000000000000000000000000000000000000000000000000F5000000000000000000000000000000000000000000000000000000000000000000F50000000000000000000000000000000000000000000000
310
00000000000000000000F5F5000000000000000000000000000000000000000000000000000000000000000000000000000000000000000000000000000000000000000000000000000000000000000000000000000000000000000000000000F50000DCDC000000000000DCDCDC00000000000000DCDCDC00002D2DDCDCDC
310
DC0000F5000000000000000000000000000000000000000000000000000000000000000000F5000000000000000000000000000000000000000000000000000000000000000000F5000000000000000000000000000000000000000000000000000000000000000000F5000000000000000000000000000000000000000000
310
000000000000000000000000F5F5000000000000000000000000000000000000000000000000000000000000000000000000000000000000000000000000000000000000000000000000000000000000000000000000000000000000000000000000F50000DCDC0000000000000000000000000000DCDCDCDC0000002DF500
310
00DC000000F5000000000000000000000000000000000000000000000000000000000000000000F5000000000000000000000000000000000000000000000000000000000000000000F5000000000000000000000000000000000000000000000000000000000000000000F500000000000000000000000000000000000000
310
0000000000000000000000000000F5F5000000000000000000000000000000000000000000000000000000000000000000000000000000000000000000000000000000000000000000000000000000000000000000000000000000000000000000000000F50000DCDC000000000000002D2D2D2D2D2D2DDCDCDC2D0000002D
310
F50000DC000000F5000000000000000000000000000000000000000000000000000000000000000000F5000000000000000000000000000000000000000000000000000000000000000000F5000000000000000000000000000000000000000000000000000000000000000000F50000000000000000000000000000000000
310
00000000000000000000000000000000F5F5000000000000000000000000000000000000000000000000000000000000000000000000000000000000000000000000000000000000000000000000000000000000000000000000000000000000000000000000F500F5DCDCF5F5F5DCDC2D2D2D2D2D2D2D2DF5F5DCDCF50000
310
002DF50000DC000000F5000000000000000000000000000000000000000000000000000000000000000000F5000000000000000000000000000000000000000000000000000000000000000000F5000000000000000000000000000000000000000000000000000000000000000000F5000000000000000000000000000000
310
000000000000000000000000000000000000F5F5000000000000000000000000000000000000000000000000000000000000000000000000000000000000000000000000000000000000000000000000000000000000000000000000000000000000000000000000F5000000DC000000DCDC00000000000000000000000000
310
0000002DF50000DC000000F5000000000000000000000000000000000000000000000000000000000000000000F5000000000000000000000000000000000000000000000000000000000000000000F5000000000000000000000000000000000000000000000000000000000000000000F500000000000000000000000000
310
0000000000000000000000000000000000000000F5F5000000000000000000000000000000000000000000000000000000000000000000000000000000000000000000000000000000000000000000000000000000000000000000000000000000000000000000000000F5000000DC00000000000000000000000000000000
310
00000000002DF50000DC000000F5000000000000000000000000000000000000000000000000000000000000000000F5000000000000000000000000000000000000000000000000000000000000000000F5000000000000000000000000000000000000000000000000000000000000000000F50000000000000000000000
310
00000000000000000000000000000000000000000000F5F5000000000000000000000000000000000000000000000000000000000000000000000000000000000000000000000000000000000000000000000000000000000000000000000000000000000000000000000000F5000000000000000000000000000000000000
310
000000000000DCDCDC0000DC000000F5000000000000000000000000000000000000000000000000000000000000000000F5000000000000000000000000000000000000000000000000000000000000000000F5000000000000000000000000000000000000000000000000000000000000000000F5000000000000000000
310
000000000000000000000000000000000000000000000000F5F5000000000000000000000000000000000000000000000000000000000000000000000000000000000000000000000000000000000000000000000000000000000000000000000000000000000000000000000000F500000000000000000000000000000000
310
000000000000000000DCDC0000DC000000F5000000000000000000000000000000000000000000000000000000000000000000F5000000000000000000000000000000000000000000000000000000000000000000F5000000000000000000000000000000000000000000000000000000000000000000F500000000000000
310
0000000000000000000000000000000000000000000000000000F5F5000000000000000000000000000000000000000000000000000000000000000000000000000000000000000000000000000000000000000000000000000000000000000000000000000000000000000000000000F50000000000000000000000000000
310
00000000000000000000002DF50000DC000000F5000000000000000000000000000000000000000000000000000000000000000000F5000000000000000000000000000000000000000000000000000000000000000000F5000000000000000000000000000000000000000000000000000000000000000000F50000000000
310
00000000000000000000000000000000000000000000000000000000F5F5000000000000000000000000000000000000000000000000000000000000000000000000000000000000000000000000000000000000000000000000000000000000000000000000000000000000000000000000F5000000000000000000000000
310
000000000000000000000000002DF50000DC000000F5000000000000000000000000000000000000000000000000000000000000000000F5000000000000000000000000000000000000000000000000000000000000000000F5000000000000000000000000000000000000000000000000000000000000000000F5000000
310
000000000000000000000000000000000000000000000000000000000000F5F5000000000000000000000000000000000000000000000000000000000000000000000000000000000000000000000000000000000000000000000000000000000000000000000000000000000000000000000000F500000000000000000000
310
0000000000000000000000000000002DF50000DC000000F5000000000000000000000000000000000000000000000000000000000000000000F5000000000000000000000000000000000000000000000000000000000000000000F5000000000000000000000000000000000000000000000000000000000000000000F500
310
0000000000000000000000000000000000000000000000000000000000000000F5F5000000000000000000000000000000000000000000000000000000000000000000000000000000000000000000000000000000000000000000000000000000000000000000000000000000000000000000000000F50000000000000000
310
00000000000000000000000000000000002D2DDCDCDCDC0000F5000000000000000000000000000000000000000000000000000000000000000000F5000000000000000000000000000000000000000000000000000000000000000000F5000000000000000000000000000000000000000000000000000000000000000000
310
F5000000000000000000000000000000000000000000000000000000000000000000F5F5000000000000000000000000000000000000000000000000000000000000000000000000000000000000000000000000000000000000000000000000000000000000000000000000000000000000000000000000F5000000000000
310
000000000000000000000000000000000000002D2DDCDCDC000000F5000000000000000000000000000000000000000000000000000000000000000000F5000000000000000000000000000000000000000000000000000000000000000000F500000000000000000000000000000000000000000000000000000000000000
310
0000F5000000000000000000000000000000000000000000000000000000000000000000F5F5000000000000000000000000000000000000000000000000000000000000000000000000000000000000000000000000000000000000000000000000000000000000000000000000000000000000000000000000F500000000
310
00000000000000000000000000000000000000000000000000DC000000F5000000000000000000000000000000000000000000000000000000000000000000F5000000000000000000000000000000000000000000000000000000000000000000F50000000000000000000000000000000000000000000000000000000000
310
00000000F5000000000000000000000000000000000000000000000000000000000000000000F5F5000000000000000000000000000000000000000000000000000000000000000000000000000000000000000000000000000000000000000000000000000000000000000000000000000000000000000000000000F5F5F5
310
F5F5F5F5F5F5F5F5F5F5F5F5F5F5F5F5F5F5F5F5F5F5F5F5F5F5F5F5F5F5F5F5F5F5F5F5F5F5F5F5F5F5F5F5F5F5F5F5F5F5F5F5F5F5F5F5F5F5F5F5F5F5F5F5F5F5F5F5F5F5F5F5F5F5F5F5F5F5F5F5F5F5F5F5F5F5F5F5F5F5F5F5F5F5F5F5F5F5F5F5F5F5F5F5F5F5F5F5F5F5F5F5F5F5F5F5F5F5F5F5F5F5F5F5F5F5F5
310
F5F5F5F5F5F5F5000000000000000000000000000000000000000000000000000000000000000000F5F5000000000000000000000000000000000000000000000000000000000000000000000000000000000000000000000000000000000000000000000000000000000000000000000000000000000000000000000000F5
310
F5F5F5F5F5F5F5F5F5F5F5F5F5F5F5000000000000000000000000000000000000F5000000000000000000000000000000000000000000000000000000000000000000F5000000000000000000000000000000000000000000000000000000000000000000F500000000000000000000000000000000000000000000000000
310
0000000000000000F5000000000000000000000000000000000000000000000000000000000000000000F5F50000000000000000000000000000000000000000000000000000000000000000000000000000000000000000000000000000000000000000000000000000000000000000000000000000000000000000000000
310
00F5F5F5F5F5F5F5F5F5F5F5F5F5F5F500000000000000000000000000000000000000F5000000000000000000000000000000000000000000000000000000000000000000F5000000000000000000000000000000000000000000000000000000000000000000F50000000000000000000000000000000000000000000000
310
00000000000000000000F5000000000000000000000000000000000000000000000000000000000000000000F5F5000000000000000000000000000000000000000000000000000000000000000000000000000000000000000000000000000000000000000000000000000000000000000000000000000000000000000000
310
000000F5F5F5F5F5F5F5F5F5F5F5F5F5F5F5F5F5F5F5F5F5F5F5F5F5F5F5F5F5F5F5F5F5F5F5F5F5F5F5F5F5F5F5F5F5F5F5F5F5F5F5F5F5F5F5F5F5F5F5F5F5F5F5F5F5F5F5F5F5F5F5F5F5F5F5F5F5F5F5F5F5F5F5F5F5F5F5F5F5F5F5F5F5F5F5F5F5F5F5F5F5F5F5F5F5F5F5F5F5F5F5F5F5F5F5F5F5F5F5F5F5F5F5F5
310
F5F5F5F5F5F5F5F5F5F5F5F5F5000000000000000000000000000000000000000000000000000000000000000000F5F500000000000000000000000000000000000000000000000000000000000000000000000000000000000000000000000000000000000000000000000000000000000000000000000000000000000000
310
0000000000F50000DCDCDCDCDCDCDCDCDCDCDCDCDCDCDCDCDCDCDCDC00000000F50000DC000000F5000000000000000000000000000000000000000000000000000000000000000000F5000000000000000000000000000000000000000000000000000000000000000000F500000000000000000000000000000000000000
310
0000000000000000000000000000F5000000000000000000000000000000000000000000000000000000000000000000F5F50000000000000000000000000000000000000000000000000000000000000000000000000000000000000000000000000000000000000000000000000000000000000000000000000000000000
310
00000000000000F50000DC00000000000000DCDCDC0000000000000000DC0000002D2DDCDCDCDC0000F5000000000000000000000000000000000000000000000000000000000000000000F5000000000000000000000000000000000000000000000000000000000000000000F50000000000000000000000000000000000
310
00000000000000000000000000000000F5000000000000000000000000000000000000000000000000000000000000000000F5F5000000000000000000000000000000000000000000000000000000000000000000000000000000000000000000000000000000000000000000000000000000000000000000000000000000
310
000000000000000000F50000DCDC0000000000000000000000000000DCDCDCDC0000002D2D2D00DC000000F5000000000000000000000000000000000000000000000000000000000000000000F5000000000000000000000000000000000000000000000000000000000000000000F5000000000000000000000000000000
310
000000000000000000000000000000000000F5000000000000000000000000000000000000000000000000000000000000000000F5F500000000000000000000000000000000000000000000000000000000000000000000000000000000000000000000000000000000000000000000000000000000000000000000000000
310
0000000000000000000000F50000DCDC0000000000000000000000002D2DDCDCDC2D0000002D2D2D00DC000000F5000000000000000000000000000000000000000000000000000000000000000000F5000000000000000000000000000000000000000000000000000000000000000000F500000000000000000000000000
310
0000000000000000000000000000000000000000F5000000000000000000000000000000000000000000000000000000000000000000F5F50000000000000000000000000000000000000000000000000000000000000000000000000000000000000000000000000000000000000000000000000000000000000000000000
310
00000000000000000000000000F500F5DCDCF5F5F5DCDC2D2D2D2D2D2D2D2D2D2DDCDC2DF500002D2D2D00DC000000F5000000000000000000000000000000000000000000000000000000000000000000F5000000000000000000000000000000000000000000000000000000000000000000F50000000000000000000000
310
00000000000000000000000000000000000000000000F5000000000000000000000000000000000000000000000000000000000000000000F5F5000000000000000000000000000000000000000000000000000000000000000000000000000000000000000000000000000000000000000000000000000000000000000000
310
000000000000000000000000000000F5000000DC000000DCDC000000000000000000000000000000002D2D2D00DC000000F5000000000000000000000000000000000000000000000000000000000000000000F5000000000000000000000000000000000000000000000000000000000000000000F5000000000000000000
310
000000000000000000000000000000000000000000000000F5000000000000000000000000000000000000000000000000000000000000000000F5F500000000000000000000000000000000000000000000000000000000000000000000000000000000000000000000000000000000000000000000000000000000000000
310
0000000000000000000000000000000000F5000000000000000000000000000000000000000000000000002D2D2D00DC000000F5000000000000000000000000000000000000000000000000000000000000000000F5000000000000000000000000000000000000000000000000000000000000000000F500000000000000
310
0000000000000000000000000000000000000000000000000000F5000000000000000000000000000000000000000000000000000000000000000000F5F50000000000000000000000000000000000000000000000000000000000000000000000000000000000000000000000000000000000000000000000000000000000
310
00000000000000000000000000000000000000F5000000000000000000000000000000000000000000000000DCDCDCDC00DC000000F5000000000000000000000000000000000000000000000000000000000000000000F5000000000000000000000000000000000000000000000000000000000000000000F50000000000
310
00000000000000000000000000000000000000000000000000000000F5000000000000000000000000000000000000000000000000000000000000000000F5F5000000000000000000000000000000000000000000000000000000000000000000000000000000000000000000000000000000000000000000000000000000
310
000000000000000000000000000000000000000000F5000000000000000000000000000000000000000000000000DCDCDC2D00DC000000F5000000000000000000000000000000000000000000000000000000000000000000F5000000000000000000000000000000000000000000000000000000000000000000F5000000
310
000000000000000000000000000000000000000000000000000000000000F5000000000000000000000000000000000000000000000000000000000000000000F5F500000000000000000000000000000000000000000000000000000000000000000000000000000000000000000000000000000000000000000000000000
310
0000000000000000000000000000000000000000000000F500000000000000000000000000000000000000000000000000DC2D2D00DC000000F5000000000000000000000000000000000000000000000000000000000000000000F5000000000000000000000000000000000000000000000000000000000000000000F500
310
0000000000000000000000000000000000000000000000000000000000000000F5000000000000000000000000000000000000000000000000000000000000000000F5F50000000000000000000000000000000000000000000000000000000000000000000000000000000000000000000000000000000000000000000000
310
00000000000000000000000000000000000000000000000000F5000000000000000000000000000000000000000000000000002D2D2D00DC000000F5000000000000000000000000000000000000000000000000000000000000000000F5000000000000000000000000000000000000000000000000000000000000000000
310
F5000000000000000000000000000000000000000000000000000000000000000000F5000000000000000000000000000000000000000000000000000000000000000000F5F5000000000000000000000000000000000000000000000000000000000000000000000000000000000000000000000000000000000000000000
310
000000000000000000000000000000000000000000000000000000F5000000000000000000000000000000000000000000000000002D2D2D00DC000000F5000000000000000000000000000000000000000000000000000000000000000000F500000000000000000000000000000000000000000000000000000000000000
310
0000F5000000000000000000000000000000000000000000000000000000000000000000F5000000000000000000000000000000000000000000000000000000000000000000F5F500000000000000000000000000000000000000000000000000000000000000000000000000000000000000000000000000000000000000
310
0000000000000000000000000000000000000000000000000000000000F5000000000000000000000000000000000000000000000000002D2D2DDCDCDC0000F5000000000000000000000000000000000000000000000000000000000000000000F50000000000000000000000000000000000000000000000000000000000
310
00000000F5000000000000000000000000000000000000000000000000000000000000000000F5000000000000000000000000000000000000000000000000000000000000000000F5F50000000000000000000000000000000000000000000000000000000000000000000000000000000000000000000000000000000000
310
00000000000000000000000000000000000000000000000000000000000000F5000000000000000000000000000000000000000000000000002D2DDCDCDC000000F5000000000000000000000000000000000000000000000000000000000000000000F5000000000000000000000000000000000000000000000000000000
310
000000000000F5000000000000000000000000000000000000000000000000000000000000000000F5000000000000000000000000000000000000000000000000000000000000000000F5F5000000000000000000000000000000000000000000000000000000000000000000000000000000000000000000000000000000
310
000000000000000000000000000000000000000000000000000000000000000000F5000000000000000000000000000000000000000000000000000000000000000000F5000000000000000000000000000000000000000000000000000000000000000000F500000000000000000000000000000000000000000000000000
310
0000000000000000F5000000000000000000000000000000000000000000000000000000000000000000F5000000000000000000000000000000000000000000000000000000000000000000F5F500000000000000000000000000000000000000000000000000000000000000000000000000000000000000000000000000
310
0000000000000000000000000000000000000000000000000000000000000000000000F5F5F5F5F5F5F5F5F5F5F5F5F5F5F5F5F5F5F5F5F5F5F5F5F5F5F5F5F5F5F5F5F5F5F5F5F5F5F5F5F5F5F5F5F5F5F5F5F5F5F5F5F5F5F5F5F5F5F5F5F5F5F5F5F5F5F5F5F5F5F5F5F5F5F5F5F5F5F5F5F5F5F5F5F5F5F5F5F5F5F5F5
310
F5F5F5F5F5F5F5F5F5F5F5F5F5F5F5F5F5F5F5F5F5F5F5F5F5F5F5F5F5F5F5F5F5F5F5F5F5F5F5F5F5F5F5F5F5F5F5F5F5F5F5F5F5F5F5F5F5F5F5F5F5F5F5F5F5F5F5F5F5F5F5F5F5F5F5F5F5F5F5F50000000000000000000000000000000000000000000000000000000000000000000000000000000000000000000000
310
00000000000000000000000000000000000000000000000000000000000000000000000000F5F5F5F5F5F500F5F5F5F5F5F5F5F5F5000000000000000000000000000000000000F5000000000000000000000000000000000000000000000000000000000000000000F5000000000000000000000000000000000000000000
310
000000000000000000000000F5000000000000000000000000000000000000000000000000000000000000000000F5000000000000000000000000000000000000000000000000000000000000000000F5F5000000000000000000000000000000000000000000000000000000000000000000000000000000000000000000
310
000000000000000000000000000000000000000000000000000000000000000000000000000000F5F5F5F5F5F5F5F5F5F5F5F5F5F5F5F5F50000000000000000000000000000000000F5000000000000000000000000000000000000000000000000000000000000000000F500000000000000000000000000000000000000
310
0000000000000000000000000000F5000000000000000000000000000000000000000000000000000000000000000000F5000000000000000000000000000000000000000000000000000000000000000000F5F500000000000000000000000000000000000000000000000000000000000000000000000000000000000000
310
0000000000000000000000000000000000000000000000000000000000000000000000000000000000F5F5F5F5F5F5F5F5F5F5F5F5F5F5F5F5F5F5F5F5F5F5F5F5F5F5F5F5F5F5F5F5F5F5F5F5F5F5F5F5F5F5F5F5F5F5F5F5F5F5F5F5F5F5F5F5F5F5F5F5F5F5F5F5F5F5F5F5F5F5F5F5F5F5F5F5F5F5F5F5F5F5F5F5F5F5
310
F5F5F5F5F5F5F5F5F5F5F5F5F5F5F5F5F5F5F5F5F5F5F5F5F5F5F5F5F5F5F5F5F5F5F5F5F5F5F5F5F5F5F5F5F5F5F5F5F5F5F5F5F5F5F5F5F5F5F5F5F5F5F5F5F5F5F5F5F5F5F5F5F5F5F5F5F5F5F5F5F5F5F5F5F5F50000000000000000000000000000000000000000000000000000000000000000000000000000000000
310
00000000000000000000000000000000000000000000000000000000000000000000000000000000000000F5000000000000000000000000000000000000000000000000000000000000000000F5000000000000000000000000000000000000000000000000000000000000000000F5000000000000000000000000000000
310
000000000000000000000000000000000000F5000000000000000000000000000000000000000000000000000000000000000000F5000000000000000000000000000000000000000000000000000000000000000000F5F5000000000000000000000000000000000000000000000000000000000000000000000000000000
310
000000000000000000000000000000000000000000000000000000000000000000000000000000000000000000F5000000000000000000000000000000000000000000000000000000000000000000F5000000000000000000000000000000000000000000000000000000000000000000F500000000000000000000000000
310
0000000000000000000000000000000000000000F5000000000000000000000000000000000000000000000000000000000000000000F5000000000000000000000000000000000000000000000000000000000000000000F5F500000000000000000000000000000000000000000000000000000000000000000000000000
310
0000000000000000000000000000000000000000000000000000000000000000000000000000000000000000000000F5000000000000000000000000000000000000000000000000000000000000000000F5000000000000000000000000000000000000000000000000000000000000000000F50000000000000000000000
310
00000000000000000000000000000000000000000000F5000000000000000000000000000000000000000000000000000000000000000000F5000000000000000000000000000000000000000000000000000000000000000000F5F50000000000000000000000000000000000000000000000000000000000000000000000
310
00000000000000000000000000000000000000000000000000000000000000000000000000000000000000000000000000F5000000000000000000000000000000000000000000000000000000000000000000F5000000000000000000000000000000000000000000000000000000000000000000F5000000000000000000
310
000000000000000000000000000000000000000000000000F5000000000000000000000000000000000000000000000000000000000000000000F5000000000000000000000000000000000000000000000000000000000000000000F5F5000000000000000000000000000000000000000000000000000000000000000000
310
000000000000000000000000000000000000000000000000000000000000000000000000000000000000000000000000000000F5000000000000000000000000000000000000000000000000000000000000000000F5000000000000000000000000000000000000000000000000000000000000000000F500000000000000
310
0000000000000000000000000000000000000000000000000000F5000000000000000000000000000000000000000000000000000000000000000000F5000000000000000000000000000000000000000000000000000000000000000000F5F500000000000000000000000000000000000000000000000000000000000000
310
0000000000000000000000000000000000000000000000000000000000000000000000000000000000000000000000000000000000F5000000000000000000000000000000000000000000000000000000000000000000F5000000000000000000000000000000000000000000000000000000000000000000F50000000000
310
00000000000000000000000000000000000000000000000000000000F5000000000000000000000000000000000000000000000000000000000000000000F5000000000000000000000000000000000000000000000000000000000000000000F5F50000000000000000000000000000000000000000000000000000000000
310
00000000000000000000000000000000000000000000000000000000000000000000000000000000000000000000000000000000000000F5000000000000000000000000000000000000000000000000000000000000000000F5000000000000000000000000000000000000000000000000000000000000000000F5000000
310
000000000000000000000000000000000000000000000000000000000000F5000000000000000000000000000000000000000000000000000000000000000000F5000000000000000000000000000000000000000000000000000000000000000000F5F5000000000000000000000000000000000000000000000000000000
310
000000000000000000000000000000000000000000000000000000000000000000000000000000000000000000000000000000000000000000F5000000000000000000000000000000000000000000000000000000000000000000F5000000000000000000000000000000000000000000000000000000000000000000F500
310
0000000000000000000000000000000000000000000000000000000000000000F5000000000000000000000000000000000000000000000000000000000000000000F5000000000000000000000000000000000000000000000000000000000000000000F5F500000000000000000000000000000000000000000000000000
310
0000000000000000000000000000000000000000000000000000000000000000000000000000000000000000000000000000000000000000000000F5000000000000000000000000000000000000000000000000000000000000000000F5000000000000000000000000000000000000000000000000000000000000000000
310
F5000000000000000000000000000000000000000000000000000000000000000000F5000000000000000000000000000000000000000000000000000000000000000000F5000000000000000000000000000000000000000000000000000000000000000000F5F50000000000000000000000000000000000000000000000
310
00000000000000000000000000000000000000000000000000000000000000000000000000000000000000000000000000000000000000000000000000F5000000000000000000000000000000000000000000000000000000000000000000F500000000000000000000000000000000000000000000000000000000000000
310
0000F5000000000000000000000000000000000000000000000000000000000000000000F5000000000000000000000000000000000000000000000000000000000000000000F5000000000000000000000000000000000000000000000000000000000000000000F5F5000000000000000000000000000000000000000000
310
000000000000000000000000000000000000000000000000000000000000000000000000000000000000000000000000000000000000000000000000000000F5000000000000000000000000000000000000000000000000000000000000000000F50000000000000000000000000000000000000000000000000000000000
310
00000000F5000000000000000000000000000000000000000000000000000000000000000000F5000000000000000000000000000000000000000000000000000000000000000000F5000000000000000000000000000000000000000000000000000000000000000000F5F500000000000000000000000000000000000000
310
0000000000000000000000000000000000000000000000000000000000000000000000000000000000000000000000000000000000000000000000000000000000F5000000000000000000000000000000000000000000000000000000000000000000F5000000000000000000000000000000000000000000000000000000
310
000000000000F5000000000000000000000000000000000000000000000000000000000000000000F5000000000000000000000000000000000000000000000000000000000000000000F5000000000000000000000000000000000000000000000000000000000000000000F5F50000000000000000000000000000000000
310
00000000000000000000000000000000000000000000000000000000000000000000000000000000000000000000000000000000000000000000000000000000000000F5000000000000000000000000000000000000000000000000000000000000000000F500000000000000000000000000000000000000000000000000
310
0000000000000000F5000000000000000000000000000000000000000000000000000000000000000000F5000000000000000000000000000000000000000000000000000000000000000000F5000000000000000000000000000000000000000000000000000000000000000000F5F5000000000000000000000000000000
310
000000000000000000000000000000000000000000000000000000000000000000000000000000000000000000000000000000000000000000000000000000000000000000F5000000000000000000000000000000000000000000000000000000000000000000F50000000000000000000000000000000000000000000000
310
00000000000000000000F5000000000000000000000000000000000000000000000000000000000000000000F5000000000000000000000000000000000000000000000000000000000000000000F5000000000000000000000000000000000000000000000000000000000000000000F5F500000000000000000000000000
310
0000000000000000000000000000000000000000000000000000000000000000000000000000000000000000000000000000000000000000000000000000000000000000000000F5000000000000000000000000000000000000000000000000000000000000000000F5000000000000000000000000000000000000000000
310
000000000000000000000000F5000000000000000000000000000000000000000000000000000000000000000000F5000000000000000000000000000000000000000000000000000000000000000000F5000000000000000000000000000000000000000000000000000000000000000000F5F50000000000000000000000
310
00000000000000000000000000000000000000000000000000000000000000000000000000000000000000000000000000000000000000000000000000000000000000000000000000F5000000000000000000000000000000000000000000000000000000000000000000F500000000000000000000000000000000000000
310
0000000000000000000000000000F5000000000000000000000000000000000000000000000000000000000000000000F5000000000000000000000000000000000000000000000000000000000000000000F5000000000000000000000000000000000000000000000000000000000000000000F5F5000000000000000000
310
000000000000000000000000000000000000000000000000000000000000000000000000000000000000000000000000000000000000000000000000000000000000000000000000000000F5000000000000000000000000000000000000000000000000000000000000000000F50000000000000000000000000000000000
310
00000000000000000000000000000000F5000000000000000000000000000000000000000000000000000000000000000000F5000000000000000000000000000000000000000000000000000000000000000000F5000000000000000000000000000000000000000000000000000000000000000000F5F500000000000000
310
0000000000000000000000000000000000000000000000000000000000000000000000000000000000000000000000000000000000000000000000000000000000000000000000000000000000F5000000000000000000000000000000000000000000000000000000000000000000F5000000000000000000000000000000
310
000000000000000000000000000000000000F5000000000000000000000000000000000000000000000000000000000000000000F5000000000000000000000000000000000000000000000000000000000000000000F5000000000000000000000000000000000000000000000000000000000000000000F5F50000000000
310
00000000000000000000000000000000000000000000000000000000000000000000000000000000000000000000000000000000000000000000000000000000000000000000000000000000000000F5000000000000000000000000000000000000000000000000000000000000000000F500000000000000000000000000
310
0000000000000000000000000000000000000000F5000000000000000000000000000000000000000000000000000000000000000000F5000000000000000000000000000000000000000000000000000000000000000000F5000000000000000000000000000000000000000000000000000000000000000000F5F5000000
310
000000000000000000000000000000000000000000000000000000000000000000000000000000000000000000000000000000000000000000000000000000000000000000000000000000000000000000F5000000000000000000000000000000000000000000000000000000000000000000F50000000000000000000000
310
00000000000000000000000000000000000000000000F5000000000000000000000000000000000000000000000000000000000000000000F5000000000000000000000000000000000000000000000000000000000000000000F5000000000000000000000000000000000000000000000000000000000000000000F5F500
310
0000000000000000000000000000000000000000000000000000000000000000000000000000000000000000000000000000000000000000000000000000000000000000000000000000000000000000000000F5F5F5F5F5F5F5F5F5F5F5F5F5F5F5F5F5F5F5F5F5F5F5F5F5F5F5F5F5F5F5F5F5F5F5F5F5F5F5F5F5F5F5F5
310
F5F5F5F5F5F5F5F5F5F5F5F5F5F5F5F5F5F5F5F5F5F5F5F5F5F5F5F5F5F5F5F5F5F5F5F5F5F5F5F5F5F5F5F5F5F5F5F5F5F5F5F5F5F5F5F5F5F5F5F5F5F5F5F5F5F5F5F5F5F5F5F5F5F5F5F5F5F5F5F5F5F5F5F5F5F5F5F5F5F5F5F5F5F5F5F5F5F5F5F5F5F5F5F5F5F5F5F5F5F5F5F5F5F5F5F5F5F5F5F5F5F5F5F5F5F5F5
310
F5000000000000000000000000000000000000000000000000000000000000000000000000000000000000000000000000000000000000000000000000000000000000000000000000000000000000000000000000F5000000000000000000000000000000000000000000000000000000000000000000F500000000000000
310
0000000000000000000000000000000000000000000000000000F5000000000000000000000000000000000000000000000000000000000000000000F5000000000000000000000000000000000000000000000000000000000000000000F50000000000000000000000000000000000000000000000000000000000000000
310
00F5F5000000000000000000000000000000000000000000000000000000000000000000000000000000000000000000000000000000000000000000000000000000000000000000000000000000000000000000000000F5F5F5F5F5F5F5F5F5F5F5F5F5F5F5F5F5F5F5F5F5F5F5F5F5F5F5F5F5F5F5F5F5F5F5F5F5F5F5F5
310
F5F5F5F5F5F5F5F5F5F5F5F5F5F5F5F5F5F5F5F5F5F5F5F5F5F5F5F5F5F5F5F5F5F5F5F5F5F5F5F5F5F5F5F5F5F5F5F5F5F5F5F5F5F5F5F5F5F5F5F5F5F5F5F5F5F5F5F5F5F5F5F5F5F5F5F5F5F5F5F5F5F5F5F5F5F5F5F5F5F5F5F5F5F5F5F5F5F5F5F5F5F5F5F5F5F5F5F5F5F5F5F5F5F5F5F5F5F5F5F5F5F5F5F5F5F5F5
310
F5F5F5F5F5000000000000000000000000000000000000000000000000000000000000000000000000000000000000000000000000000000000000000000000000000000000000000000000000000000000000000000000000F5000000000000000000000000000000000000000000000000000000000000000000F5000000
310
000000000000000000000000000000000000000000000000000000000000F5000000000000000000000000000000000000000000000000000000000000000000F5000000000000000000000000000000000000000000000000000000000000000000F500000000000000000000000000000000000000000000000000000000
310
0000000000F5F5000000000000000000000000000000000000000000000000000000000000000000000000000000000000000000000000000000000000000000000000000000000000000000000000000000000000000000000000F5000000000000000000000000000000000000000000000000000000000000000000F500
310
0000000000000000000000000000000000000000000000000000000000000000F5000000000000000000000000000000000000000000000000000000000000000000F5000000000000000000000000000000000000000000000000000000000000000000F50000000000000000000000000000000000000000000000000000
310
00000000000000F5F5000000000000000000000000000000000000000000000000000000000000000000000000000000000000000000000000000000000000000000000000000000000000000000000000000000000000000000000000F5F5F5F5F5F5F5F5F5F5F5F5F5F5F5F5F5F5F5F5F5F5F5F5F5F5F5F5F5F5F5F5F5F5
310
F5F5F5F5F5F5F5F5F5F5F5F5F5F5F5F5F5F5F5F5F5F5F5F5F5F5F5F5F5F5F5F5F5F5F5F5F5F5F5F5F5F5F5F5F5F5F5F5F5F5F5F5F5F5F5F5F5F5F5F5F5F5F5F5F5F5F5F5F5F5F5F5F5F5F5F5F5F5F5F5F5F5F5F5F5F5F5F5F5F5F5F5F5F5F5F5F5F5F5F5F5F5F5F5F5F5F5F5F5F5F5F5F5F5F5F5F5F5F5F5F5F5F5F5F5F5F5
310
F5F5F5F5F5F5F5F5F5F5F5000000000000000000000000000000000000000000000000000000000000000000000000000000000000000000000000000000000000000000000000000000000000000000000000000000000000000000000000F500000000000000000000000000000000000000000000000000000000000000
310
0000F5000000000000000000000000000000000000000000000000000000000000000000F5000000000000000000000000000000000000000000000000000000000000000000F5000000000000000000000000000000000000000000000000000000000000000000F500000000000000000000000000000000000000000000
310
0000000000000000000000F5F5000000000000000000000000000000000000000000000000000000000000000000000000000000000000000000000000000000000000000000000000000000000000000000000000000000000000000000000000F50000000000000000000000000000000000000000000000000000000000
310
00000000F5000000000000000000000000000000000000000000000000000000000000000000F5000000000000000000000000000000000000000000000000000000000000000000F5000000000000000000000000000000000000000000000000000000000000000000F50000000000000000000000000000000000000000
310
00000000000000000000000000F5F5000000000000000000000000000000000000000000000000000000000000000000000000000000000000000000000000000000000000000000000000000000000000000000000000000000000000000000000000F5000000000000000000000000000000000000000000000000000000
310
000000000000F5000000000000000000000000000000000000000000000000000000000000000000F5000000000000000000000000000000000000000000000000000000000000000000F5000000000000000000000000000000000000000000000000000000000000000000F5000000000000000000000000000000000000
310
000000000000000000000000000000F5F5000000000000000000000000000000000000000000000000000000000000000000000000000000000000000000000000000000000000000000000000000000000000000000000000000000000000000000000000F500000000000000000000000000000000000000000000000000
310
0000000000000000F5000000000000000000000000000000000000000000000000000000000000000000F5000000000000000000000000000000000000000000000000000000000000000000F5000000000000000000000000000000000000000000000000000000000000000000F500000000000000000000000000000000
310
0000000000000000000000000000000000F5F5000000000000000000000000000000000000000000000000000000000000000000000000000000000000000000000000000000000000000000000000000000000000000000000000000000000000000000000000F50000000000000000000000000000000000000000000000
310
00000000000000000000F5000000000000000000000000000000000000000000000000000000000000000000F5000000000000000000000000000000000000000000000000000000000000000000F5000000000000000000000000000000000000000000000000000000000000000000F50000000000000000000000000000
310
00000000000000000000000000000000000000F5F5000000000000000000000000000000000000000000000000000000000000000000000000000000000000000000000000000000000000000000000000000000000000000000000000000000000000000000000000F5000000000000000000000000000000000000000000
310
000000000000000000000000F5000000000000000000000000000000000000000000000000000000000000000000F5000000000000000000000000000000000000000000000000000000000000000000F5000000000000000000000000000000000000000000000000000000000000000000F5000000000000000000000000
310
000000000000000000000000000000000000000000F5F5000000000000000000000000000000000000000000000000000000000000000000000000000000000000000000000000000000000000000000000000000000000000000000000000000000000000000000000000F500000000000000000000000000000000000000
310
0000000000000000000000000000F5000000000000000000000000000000000000000000000000000000000000000000F5000000000000000000000000000000000000000000000000000000000000000000F5000000000000000000000000000000000000000000000000000000000000000000F500000000000000000000
310
0000000000000000000000000000000000000000000000F5F5000000000000000000000000000000000000000000000000000000000000000000000000000000000000000000000000000000000000000000000000000000000000000000000000000000000000000000000000F50000000000000000000000000000000000
310
00000000000000000000000000000000F5000000000000000000000000000000000000000000000000000000000000000000F5000000000000000000000000000000000000000000000000000000000000000000F5000000000000000000000000000000000000000000000000000000000000000000F50000000000000000
310
00000000000000000000000000000000000000000000000000F5F5000000000000000000000000000000000000000000000000000000000000000000000000000000000000000000000000000000000000000000000000000000000000000000000000000000000000000000000000F5000000000000000000000000000000
310
000000000000000000000000000000000000F5000000000000000000000000000000000000000000000000000000000000000000F5000000000000000000000000000000000000000000000000000000000000000000F5000000000000000000000000000000000000000000000000000000000000000000F5000000000000
310
000000000000000000000000000000000000000000000000000000F5F5000000000000000000000000000000000000000000000000000000000000000000000000000000000000000000000000000000000000000000000000000000000000000000000000000000000000000000000000F500000000000000000000000000
310
0000000000000000000000000000000000000000F5000000000000000000000000000000000000000000000000000000000000000000F5000000000000000000000000000000000000000000000000000000000000000000F5000000000000000000000000000000000000000000000000000000000000000000F500000000
310
0000000000000000000000000000000000000000000000000000000000F5F5000000000000000000000000000000000000000000000000000000000000000000000000000000000000000000000000000000000000000000000000000000000000000000000000000000000000000000000000F50000000000000000000000
310
00000000000000000000000000000000000000000000F5000000000000000000000000000000000000000000000000000000000000000000F5000000000000000000000000000000000000000000000000000000000000000000F5000000000000000000000000000000000000000000000000000000000000000000F50000
310
00000000000000000000000000000000000000000000000000000000000000F5F5000000000000000000000000000000000000000000000000000000000000000000000000000000000000000000000000000000000000000000000000000000000000000000000000000000000000000000000000F5000000000000000000
310
000000000000000000000000000000000000000000000000F5000000000000000000000000000000000000000000000000000000000000000000F5000000000000000000000000000000000000000000000000000000000000000000F5000000000000000000000000000000000000000000000000000000000000000000F5
310
000000000000000000000000000000000000000000000000000000000000000000F5F5000000000000000000000000000000000000000000000000000000000000000000000000000000000000000000000000000000000000000000000000000000000000000000000000000000000000000000000000F500000000000000
310
0000000000000000000000000000000000000000000000000000F5000000000000000000000000000000000000000000000000000000000000000000F5000000000000000000000000000000000000000000000000000000000000000000F50000000000000000000000000000000000000000000000000000000000000000
310
00F5000000000000000000000000000000000000000000000000000000000000000000F5F5000000000000000000000000000000000000000000000000000000000000000000000000000000000000000000000000000000000000000000000000000000000000000000000000000000000000000000000000F50000000000
310
00000000000000000000000000000000000000000000000000000000F5000000000000000000000000000000000000000000000000000000000000000000F5000000000000000000000000000000000000000000000000000000000000000000F5000000000000000000000000000000000000000000000000000000000000
310
000000F5000000000000000000000000000000000000000000000000000000000000000000F5F5000000000000000000000000000000000000000000000000000000000000000000000000000000000000000000000000000000000000000000000000000000000000000000000000000000000000000000000000F5000000
310
000000000000000000000000000000000000000000000000000000000000F5000000000000000000000000000000000000000000000000000000000000000000F5000000000000000000000000000000000000000000000000000000000000000000F500000000000000000000000000000000000000000000000000000000
310
0000000000F5000000000000000000000000000000000000000000000000000000000000000000F5F5000000000000000000000000000000000000000000000000000000000000000000000000000000000000000000000000000000000000000000000000000000000000000000000000000000000000000000000000F500
310
0000000000000000000000000000000000000000000000000000000000000000F5000000000000000000000000000000000000000000000000000000000000000000F5000000000000000000000000000000000000000000000000000000000000000000F50000000000000000000000000000000000000000000000000000
310
00000000000000F5000000000000000000000000000000000000000000000000000000000000000000F5F5000000000000000000000000000000000000000000000000000000000000000000000000000000000000000000000000000000000000000000000000000000000000000000000000000000000000000000000000
310
F5000000000000000000000000000000000000000000000000000000000000000000F5000000000000000000000000000000000000000000000000000000000000000000F5000000000000000000000000000000000000000000000000000000000000000000F5000000000000000000000000000000000000000000000000
310
000000000000000000F5000000000000000000000000000000000000000000000000000000000000000000F5F500000000000000000000000000000000000000000000000000000000000000000000000000000000000000000000000000000000000000000000000000000000000000000000000000000000000000000000
310
0000F5000000000000000000000000000000000000000000000000000000000000000000F5000000000000000000000000000000000000000000000000000000000000000000F5000000000000000000000000000000000000000000000000000000000000000000F500000000000000000000000000000000000000000000
310
0000000000000000000000F5000000000000000000000000000000000000000000000000000000000000000000F5F50000000000000000000000000000000000000000000000000000000000000000000000000000000000000000000000000000000000000000000000000000000000000000000000000000000000000000
310
00000000F5000000000000000000000000000000000000000000000000000000000000000000F5000000000000000000000000000000000000000000000000000000000000000000F5000000000000000000000000000000000000000000000000000000000000000000F50000000000000000000000000000000000000000
310
00000000000000000000000000F5000000000000000000000000000000000000000000000000000000000000000000F5F5000000000000000000000000000000000000000000000000000000000000000000000000000000000000000000000000000000000000000000000000000000000000000000000000000000000000
310
000000000000F5F5F5F5F5F5F5F5F5F5F5F5F5F5F5F5F5F5F5F5F5F5F5F5F5F5F5F5F5F5F5F5F5F5F5F5F5F5F5F5F5F5F5F5F5F5F5F5F5F5F5F5F5F5F5F5F5F5F5F5F5F5F5F5F5F5F5F5F5F5F5F5F5F5F5F5F5F5F5F5F5F5F5F5F5F5F5F5F5F5F5F5F5F5F5F5F5F5F5F5F5F5F5F5F5F5F5F5F5F5F5F5F5F5F5F5F5F5F5F5F5
310
F5F5F5F5F5F5F5F5F5F5F5F5F5F5F5F5F5F5F5F5F5F5F5F5F5F5F5F5F5F5F5F5F5F5F5F5F5F5F5F5F5F5F5F5F5F5F5F5F5F5F500000000000000000000000000000000000000000000000000000000000000000000000000000000000000000000000000000000000000000000000000000000000000000000000000000000
310
0000000000000000F5000000000000000000000000000000000000000000000000000000000000000000F5000000000000000000000000000000000000000000000000000000000000000000F5000000000000000000000000000000000000000000000000000000000000000000F500000000000000000000000000000000
310
0000000000000000000000000000000000F5000000000000000000000000000000000000000000000000000000000000000000F5F50000000000000000000000000000000000000000000000000000000000000000000000000000000000000000000000000000000000000000000000000000000000000000000000000000
310
00000000000000000000F5000000000000000000000000000000000000000000000000000000000000000000F5000000000000000000000000000000000000000000000000000000000000000000F5000000000000000000000000000000000000000000000000000000000000000000F50000000000000000000000000000
310
00000000000000000000000000000000000000F5000000000000000000000000000000000000000000000000000000000000000000F5F5000000000000000000000000000000000000000000000000000000000000000000000000000000000000000000000000000000000000000000000000000000000000000000000000
310
000000000000000000000000F5F5F5F5F5F5F5F5F5F5F5F5F5F5F5F5F5F5F5F5F5F5F5F5F5F5F5F5F5F5F5F5F5F5F5F5F5F5F5F5F5F5F5F5F5F5F5F5F5F5F5F5F5F5F5F5F5F5F5F5F5F5F5F5F5F5F5F5F5F5F5F5F5F5F5F5F5F5F5F5F5F5F5F5F5F5F5F5F5F5F5F5F5F5F5F5F5F5F5F5F5F5F5F5F5F5F5F5F5F5F5F5F5F5F5
310
F5F5F5F5F5F5F5F5F5F5F5F5F5F5F5F5F5F5F5F5F5F5F5F5F5F5F5F5F5F5F5F5F5F5F5F5F5F5F5F5F5F5F5F5F5F5F5F5F5F5F5F5F5F5F5F5F500000000000000000000000000000000000000000000000000000000000000000000000000000000000000000000000000000000000000000000000000000000000000000000
310
0000000000000000000000000000F5000000000000000000000000000000000000000000000000000000000000000000F5000000000000000000000000000000000000000000000000000000000000000000F5000000000000000000000000000000000000000000000000000000000000000000F500000000000000000000
310
0000000000000000000000000000000000000000000000F5000000000000000000000000000000000000000000000000000000000000000000F5F50000000000000000000000000000000000000000000000000000000000000000000000000000000000000000000000000000000000000000000000000000000000000000
310
00000000000000000000000000000000F5000000000000000000000000000000000000000000000000000000000000000000F5000000000000000000000000000000000000000000000000000000000000000000F5000000000000000000000000000000000000000000000000000000000000000000F50000000000000000
310
00000000000000000000000000000000000000000000000000F5000000000000000000000000000000000000000000000000000000000000000000F5F5000000000000000000000000000000000000000000000000000000000000000000000000000000000000000000000000000000000000000000000000000000000000
310
000000000000000000000000000000000000F5F5F5F5F5F5F5F5F5F5F5F5F5F5F5F5F5F5F5F5F5F5F5F5F5F5F5F5F5F5F5F5F5F5F5F5F5F5F5F5F5F5F5F5F5F5F5F5F5F5F5F5F5F5F5F5F5F5F5F5F5F5F5F5F5F5F5F5F5F5F5F5F5F5F5F5F5F5F5F5F5F5F5F5F5F5F5F5F5F5F5F5F5F5F5F5F5F5F5F5F5F5F5F5F5F5F5F5F5
310
F5F5F5F5F5F5F5F5F5F5F5F5F5F5F5F5F5F5F5F5F5F5F5F5F5F5F5F5F5F5F5F5F5F5F5F5F5F5F5F5F5F5F5F5F5F5F5F5F5F5F5F5F5F5F5F5F5F5F5F5F5F5F500000000000000000000000000000000000000000000000000000000000000000000000000000000000000000000000000000000000000000000000000000000
310
0000000000000000000000000000000000000000F5000000000000000000000000000000000000000000000000000000000000000000F5000000000000000000000000000000000000000000000000000000000000000000F5000000000000000000000000000000000000000000000000000000000000000000F500000000
310
0000000000000000000000000000000000000000000000000000000000F5000000000000000000000000000000000000000000000000000000000000000000F5F50000000000000000000000000000000000000000000000000000000000000000000000000000000000000000000000000000000000000000000000000000
310
00000000000000000000000000000000000000000000F5000000000000000000000000000000000000000000000000000000000000000000F5000000000000000000000000000000000000000000000000000000000000000000F5000000000000000000000000000000000000000000000000000000000000000000F50000
310
00000000000000000000000000000000000000000000000000000000000000F5000000000000000000000000000000000000000000000000000000000000000000F5F5000000000000000000000000000000000000000000000000000000000000000000000000000000000000000000000000000000000000000000000000
310
000000000000000000000000000000000000000000000000F50000000000DCDCDCDCDCDCDCDCDCDCDCDCDCDCDCDCDCDCDCDCDC00000000000000F5000000000000000000000000000000000000000000000000000000000000000000F5000000000000000000000000000000000000000000000000000000000000000000F5
310
000000000000000000000000000000000000000000000000000000000000000000F5000000000000000000000000000000000000000000000000000000000000000000F5F500000000000000000000000000000000000000000000000000000000000000000000000000000000000000000000000000000000000000000000
310
0000000000000000000000000000000000000000000000000000F50000000000DCDC0000002D2D2D2D2DBE2D2D2D2D2D2D2D2DDCDCDC000000000000F5000000000000000000000000000000000000000000000000000000000000000000F50000000000000000000000000000000000000000000000000000000000000000
310
00F5000000000000000000000000000000000000000000000000000000000000000000F5000000000000000000000000000000000000000000000000000000000000000000F5F50000000000000000000000000000000000000000000000000000000000000000000000000000000000000000000000000000000000000000
310
00000000000000000000000000000000000000000000000000000000F500000000002D2D0000002D00000000BE000000002D000000002DDC000000000000F5000000000000000000000000000000000000000000000000000000000000000000F5000000000000000000000000000000000000000000000000000000000000
310
000000F5000000000000000000000000000000000000000000000000000000000000000000F5000000000000000000000000000000000000000000000000000000000000000000F5F5000000000000000000000000000000000000000000000000000000000000000000000000000000000000000000000000000000000000
310
000000000000000000000000000000000000000000000000000000000000F500000000002D2D0000002D000000002D000000002D000000002DDC000000000000F5000000000000000000000000000000000000000000000000000000000000000000F500000000000000000000000000000000000000000000000000000000
310
0000000000F5000000000000000000000000000000000000000000000000000000000000000000F5000000000000000000000000000000000000000000000000000000000000000000F5F500000000000000000000000000000000000000000000000000000000000000000000000000000000000000000000000000000000
310
0000000000000000000000000000000000000000000000000000000000000000F500000000002D2D0000002D000000002D000000002D000000002DDC000000000000F5000000000000000000000000000000000000000000000000000000000000000000F50000000000000000000000000000000000000000000000000000
310
00000000000000F5000000000000000000000000000000000000000000000000000000000000000000F5000000000000000000000000000000000000000000000000000000000000000000F5F50000000000000000000000000000000000000000000000000000000000000000000000000000000000000000000000000000
310
00000000000000000000000000000000000000000000000000000000000000000000F500000000002D2D0000002D000000002D000000002D000000002DDC000000000000F5000000000000000000000000000000000000000000000000000000000000000000F5000000000000000000000000000000000000000000000000
310
000000000000000000F5000000000000000000000000000000000000000000000000000000000000000000F5000000000000000000000000000000000000000000000000000000000000000000F5F5000000000000000000000000000000000000000000000000000000000000000000000000000000000000000000000000
310
000000000000000000000000000000000000000000000000000000000000000000000000F500000000002D2D0000002D000000002D000000002D002D2D002DDC000000000000F5000000000000000000000000000000000000000000000000000000000000000000F500000000000000000000000000000000000000000000
310
0000000000000000000000F5000000000000000000000000000000000000000000000000000000000000000000F5000000000000000000000000000000000000000000000000000000000000000000F5F500000000000000000000000000000000000000000000000000000000000000000000000000000000000000000000
310
0000000000000000000000000000000000000000000000000000000000000000000000000000F500000000002D2D0000002D2D0000002D00002D002D002D2D2D2DDC000000000000F5000000000000000000000000000000000000000000000000000000000000000000F50000000000000000000000000000000000000000
310
00000000000000000000000000F5000000000000000000000000000000000000000000000000000000000000000000F5000000000000000000000000000000000000000000000000000000000000000000F5F50000000000000000000000000000000000000000000000000000000000000000000000000000000000000000
310
00000000000000000000000000000000000000000000000000000000000000000000000000000000F500000000002D2D0000002D00002D002D002D2D002D000000002DDC000000000000F5000000000000000000000000000000000000000000000000000000000000000000F5000000000000000000000000000000000000
310
000000000000000000000000000000F5000000000000000000000000000000000000000000000000000000000000000000F5000000000000000000000000000000000000000000000000000000000000000000F5F5000000000000000000000000000000000000000000000000000000000000000000000000000000000000
310
000000000000000000000000000000000000000000000000000000000000000000000000000000000000F500000000002D2D0000002D002D2D2D2D000000002D000000002DDC000000000000F5000000000000000000000000000000000000000000000000000000000000000000F500000000000000000000000000000000
310
0000000000000000000000000000000000F5000000000000000000000000000000000000000000000000000000000000000000F5000000000000000000000000000000000000000000000000000000000000000000F5F500000000000000000000000000000000000000000000000000000000000000000000000000000000
310
0000000000000000000000000000000000000000000000000000000000000000000000000000000000000000F500000000002D2D0000002D000000002D000000002D000000002DDC000000000000F5000000000000000000000000000000000000000000000000000000000000000000F50000000000000000000000000000
310
00000000000000000000000000000000000000F5000000000000000000000000000000000000000000000000000000000000000000F5000000000000000000000000000000000000000000000000000000000000000000F5F50000000000000000000000000000000000000000000000000000000000000000000000000000
310
00000000000000000000000000000000000000000000000000000000000000000000000000000000000000000000F500000000002D2D0000002D000000002D000000002D000000002DDC000000000000F5000000000000000000000000000000000000000000000000000000000000000000F5000000000000000000000000
310
000000000000000000000000000000000000000000F5000000000000000000000000000000000000000000000000000000000000000000F5000000000000000000000000000000000000000000000000000000000000000000F5F5000000000000000000000000000000000000000000000000000000000000000000000000
310
000000000000000000000000000000000000000000000000000000000000000000000000000000000000000000000000F500000000002D2D0000002D000000002D000000002D000000002DDC000000000000F5000000000000000000000000000000000000000000000000000000000000000000F500000000000000000000
310
0000000000000000000000000000000000000000000000F5000000000000000000000000000000000000000000000000000000000000000000F5000000000000000000000000000000000000000000000000000000000000000000F5F500000000000000000000000000000000000000000000000000000000000000000000
310
0000000000000000000000000000000000000000000000000000000000000000000000000000000000000000000000000000F500000000002D2D2D2D2D2D2D2D2D2D2D2D2D2D2D2D2D2D2D2DDCDC000000000000F5000000000000000000000000000000000000000000000000000000000000000000F50000000000000000
310
00000000000000000000000000000000000000000000000000F5000000000000000000000000000000000000000000000000000000000000000000F5000000000000000000000000000000000000000000000000000000000000000000F5F50000000000000000000000000000000000000000000000000000000000000000
310
00000000000000000000000000000000000000000000000000000000000000000000000000000000000000000000000000000000F5000000000000000000000000000000000000000000000000000000000000000000F5000000000000000000000000000000000000000000000000000000000000000000F5000000000000
310
000000000000000000000000000000000000000000000000000000F5000000000000000000000000000000000000000000000000000000000000000000F5000000000000000000000000000000000000000000000000000000000000000000F5F5000000000000000000000000000000000000000000000000000000000000
310
000000000000000000000000000000000000000000000000000000000000000000000000000000000000000000000000000000000000F5000000000000000000000000000000000000000000000000000000000000000000F5000000000000000000000000000000000000000000000000000000000000000000F500000000
310
0000000000000000000000000000000000000000000000000000000000F5000000000000000000000000000000000000000000000000000000000000000000F5000000000000000000000000000000000000000000000000000000000000000000F5F500000000000000000000000000000000000000000000000000000000
310
0000000000000000000000000000000000000000000000000000000000000000000000000000000000000000000000000000000000000000F5000000000000000000000000000000000000000000000000000000000000000000F5000000000000000000000000000000000000000000000000000000000000000000F50000
310
00000000000000000000000000000000000000000000000000000000000000F5000000000000000000000000000000000000000000000000000000000000000000F5000000000000000000000000000000000000000000000000000000000000000000F5F50000000000000000000000000000000000000000000000000000
310
00000000000000000000000000000000000000000000000000000000000000000000000000000000000000000000000000000000000000000000F5F5F5F5F5F5F5F5F5F5F5F5F5F5F5F5F5F5F5F5F5F5F5F5F5F5F5F5F5F5F5F5F5F5F5F5F5F5F5F5F5F5F5F5F5F5F5F5F5F5F5F5F5F5F5F5F5F5F5F5F5F5F5F5F5F5F5F5F5
310
F5F5F5F5F5F5F5F5F5F5F5F5F5F5F5F5F5F5F5F5F5F5F5F5F5F5F5F5F5F5F5F5F5F5F5F5F5F5F5F5F5F5F5F5F5F5F5F5F5F5F5F5F5F5F5F5F5F5F5F5F5F5F5F5F5F5F5F5F5F5F5F5F5F5F5F5F5F5F5F5F5F5F5F5F5F5F5F5F5F5F5F5F5F5F5F5F5F5F5F5F5F5F5000000000000000000000000000000000000000000000000
310
000000000000000000000000000000000000000000000000000000000000000000000000000000000000000000000000000000000000000000000000F5F5F5F5F5F5F5F5F5F5F5F5F5F5F500000000000000000000000000000000000000F50000000000000000000000000000000000000000000000000000000000000000
310
00F5000000000000000000000000000000000000000000000000000000000000000000F5000000000000000000000000000000000000000000000000000000000000000000F5000000000000000000000000000000000000000000000000000000000000000000F5F500000000000000000000000000000000000000000000
310
0000000000000000000000000000000000000000000000000000000000000000000000000000000000000000000000000000000000000000000000000000F5F5F5F5F5F5F5F5F5F5F5F5F5F5F500000000000000000000000000000000000000F5000000000000000000000000000000000000000000000000000000000000
310
000000F5000000000000000000000000000000000000000000000000000000000000000000F5000000000000000000000000000000000000000000000000000000000000000000F5000000000000000000000000000000000000000000000000000000000000000000F5F50000000000000000000000000000000000000000
310
00000000000000000000000000000000000000000000000000000000000000000000000000000000000000000000000000000000000000000000000000000000F5F5F5F5F5F5F5F5F5F5F5F5F5F5F5F5F5F5F5F5F5F5F5F5F5F5F5F5F5F5F5F5F5F5F5F5F5F5F5F5F5F5F5F5F5F5F5F5F5F5F5F5F5F5F5F5F5F5F5F5F5F5F5
310
F5F5F5F5F5F5F5F5F5F5F5F5F5F5F5F5F5F5F5F5F5F5F5F5F5F5F5F5F5F5F5F5F5F5F5F5F5F5F5F5F5F5F5F5F5F5F5F5F5F5F5F5F5F5F5F5F5F5F5F5F5F5F5F5F5F5F5F5F5F5F5F5F5F5F5F5F5F5F5F5F5F5F5F5F5F5F5F5F5F5F5F5F5F5F5F5F5F5F5F5F5F5F5F5F5F5F5F5F5000000000000000000000000000000000000
310
000000000000000000000000000000000000000000000000000000000000000000000000000000000000000000000000000000000000000000000000000000000000F5F5F5F5F5F5F5F5F5F5F5F5F5F5F5F5F5F5F5F50000000000000000000000000000F50000000000000000000000000000000000000000000000000000
310
00000000000000F5000000000000000000000000000000000000000000000000000000000000000000F5000000000000000000000000000000000000000000000000000000000000000000F5000000000000000000000000000000000000000000000000000000000000000000F5F500000000000000000000000000000000
310
0000000000000000000000000000000000000000000000000000000000000000000000000000000000000000000000000000000000000000000000000000000000000000F5F5F5F5F5F5F5F5F5F5F5F5F5F5F5F5F5F5F5F5F5F5F5F5F5F5F5F5F5F5F5F5F5F5F5F5F5F5F5F5F5F5F5F5F5F5F5F5F5F5F5F5F5F5F5F5F5F5F5
310
F5F5F5F5F5F5F5F5F5F5F5F5F5F5F5F5F5F5F5F5F5F5F5F5F5F5F5F5F5F5F5F5F5F5F5F5F5F5F5F5F5F5F5F5F5F5F5F5F5F5F5F5F5F5F5F5F5F5F5F5F5F5F5F5F5F5F5F5F5F5F5F5F5F5F5F5F5F5F5F5F5F5F5F5F5F5F5F5F5F5F5F5F5F5F5F5F5F5F5F5F5F5F5F5F5F5F5F5F5F5F5F5F50000000000000000000000000000
310
00000000000000000000000000000000000000000000000000000000000000000000000000000000000000000000000000000000000000000000000000000000000000000000F50000F5F5F5F5F5F5F5F5F5F50000F5F5F5F500F5F500F500F5F500F5F5F5F5F5F5F5F5F5F5F5F5F5F5F5F5F5F5F5F5F5F500F5F5F5F5F5F5
310
F500F5F5F5F5F5F5F500F500F500F500F5F5F500F500F5F5F5F5F5F5F500F5F5F5F5F5F50000F5F5F5F5F5F5F5F5F5F5F5F5F5F5F5F5F5F5F5F500000000000000000000000000000000000000000000000000000000000000000000000000000000000000000000000000000000000000F5F5000000000000000000000000
310
000000000000000000000000000000000000000000000000000000000000000000000000000000000000000000000000000000000000000000000000000000000000000000000000F50000F5F5F5F500F5F500F500F500F5F5F5F5F5F5F5F5F5F5F500F5F5F5F5F5F5F5F5F5F5F5F5F5F5F500F5F5F5F5F5F5F5F5F5F5F5F5
310
F5F5F5F500F5F5F5F5F5F5F5F5F5F5F5F5F5F5F5F5F5F5F5F5F5F5F5F5F5F5F5F5F5F5F5F5F5F5F5F5F5F5F5F5F5F5F5F5F5F5F5F5F5F5F5F5F5F5F500000000000000000000000000000000000000000000000000000000000000000000000000000000000000000000000000000000000000F5F500000000000000000000
310
0000000000000000000000000000000000000000000000000000000000000000000000000000000000000000000000000000000000000000000000000000000000000000000000000000F5F5F5F5F5F5F5F5F5F5F5F5F5F5F5F5F5F5F5F5F5F5F5F5F5F5F5F5F5F5F5F5F5F5F5F5F5F5F5F5F5F5F5F5F5F5F5F5F5F5F5F5F5
310
F5F5F5F5F5F5F5F5F5F5F5F5F5F5F5F5F5F5F5F5F5F5F5F5F5F5F5F5F5F5F5F5F5F5F5F5F5F5F5F5F5F5F5F5F5F5F5F5F5F5F5F5F5F5F5F5F5F5F5F5F5F5F5F5F5F5F5F5F5F5F5F5F5F5F5F5F5F5F5F5F5F5F5F5F5F5F5F5F5F5F5F5F5F5F5F5F5F5F5F5F5F5F5F5F5F5F5F5F5F5F5F5F5F5F5F5F5F5F50000000000000000
310
00000000000000000000000000000000000000000000000000000000000000000000000000000000000000000000000000000000000000000000000000000000000000000000000000000000000000000000000000000000000000000000000000000000000000000000000000000000000000000000000000000000000000
310
00000000000000000000000000000000000000000000000000000000000000000000000000000000000000000000000000000000000000000000000000000000000000000000000000000000000000000000000000000000000000000000000000000000000000000000000000000000000000000000000000000000000000
310
000000000000000000000000000000000000000000000000000000000000000000000000
  0
XRECORD
  5
E769
102
{ACAD_REACTORS
330
E767
102
}
330
E767
100
AcDbXrecord
280
     1
270
     1
271
     1
  0
XRECORD
  5
E768
102
{ACAD_REACTORS
330
E767
102
}
330
E767
100
AcDbXrecord
280
     1
270
     1
271
     1
  0
XRECORD
  5
E76C
102
{ACAD_REACTORS
330
E767
102
}
330
E767
100
AcDbXrecord
280
     1
270
     1
271
     1
  0
XRECORD
  5
E76B
102
{ACAD_REACTORS
330
E767
102
}
330
E767
100
AcDbXrecord
280
     1
270
     1
271
     1
  0
XRECORD
  5
E76D
102
{ACAD_REACTORS
330
E767
102
}
330
E767
100
AcDbXrecord
280
     1
270
     1
271
     1
  0
XRECORD
  5
E76A
102
{ACAD_REACTORS
330
E767
102
}
330
E767
100
AcDbXrecord
280
     1
270
     1
271
     1
  0
XRECORD
  5
E761
102
{ACAD_REACTORS
330
E75F
102
}
330
E75F
100
AcDbXrecord
280
     1
270
     1
271
     1
  0
XRECORD
  5
E760
102
{ACAD_REACTORS
330
E75F
102
}
330
E75F
100
AcDbXrecord
280
     1
270
     1
271
     1
  0
XRECORD
  5
E764
102
{ACAD_REACTORS
330
E75F
102
}
330
E75F
100
AcDbXrecord
280
     1
270
     1
271
     1
  0
XRECORD
  5
E763
102
{ACAD_REACTORS
330
E75F
102
}
330
E75F
100
AcDbXrecord
280
     1
270
     1
271
     1
  0
XRECORD
  5
E765
102
{ACAD_REACTORS
330
E75F
102
}
330
E75F
100
AcDbXrecord
280
     1
270
     1
271
     1
  0
XRECORD
  5
E762
102
{ACAD_REACTORS
330
E75F
102
}
330
E75F
100
AcDbXrecord
280
     1
270
     1
271
     1
  0
XRECORD
  5
E771
102
{ACAD_REACTORS
330
E76F
102
}
330
E76F
100
AcDbXrecord
280
     1
270
     1
271
     1
  0
XRECORD
  5
E770
102
{ACAD_REACTORS
330
E76F
102
}
330
E76F
100
AcDbXrecord
280
     1
270
     1
271
     1
  0
XRECORD
  5
E774
102
{ACAD_REACTORS
330
E76F
102
}
330
E76F
100
AcDbXrecord
280
     1
270
     1
271
     1
  0
XRECORD
  5
E773
102
{ACAD_REACTORS
330
E76F
102
}
330
E76F
100
AcDbXrecord
280
     1
270
     1
271
     1
  0
XRECORD
  5
E775
102
{ACAD_REACTORS
330
E76F
102
}
330
E76F
100
AcDbXrecord
280
     1
270
     1
271
     1
  0
XRECORD
  5
E772
102
{ACAD_REACTORS
330
E76F
102
}
330
E76F
100
AcDbXrecord
280
     1
270
     1
271
     1
  0
XRECORD
  5
1CA4C
102
{ACAD_REACTORS
330
1CA4B
102
}
330
1CA4B
100
AcDbXrecord
280
     1
102
ACAD_ROUNDTRIP_2012_MLEADER_STYLE
298
     1
  0
XRECORD
  5
1CA4E
102
{ACAD_REACTORS
330
1CA4D
102
}
330
1CA4D
100
AcDbXrecord
280
     1
102
DISPLAYNAME
  1
Imperial24
102
FLAGS
 90
        0
  0
XRECORD
  5
1CA52
102
{ACAD_REACTORS
330
1CA51
102
}
330
1CA51
100
AcDbXrecord
280
     1
102
DISPLAYNAME
  1
Metric50
102
FLAGS
 90
        0
  0
CELLSTYLEMAP
  5
1CA19
102
{ACAD_REACTORS
330
E7E8
102
}
330
E7E8
100
AcDbCellStyleMap
 90
        3
300
CELLSTYLE
  1
TABLEFORMAT_BEGIN
 90
        5
170
     1
 91
        0
 92
    32768
 62
   257
 93
        1
300
CONTENTFORMAT
  1
CONTENTFORMAT_BEGIN
 90
        0
 91
        0
 92
      512
 93
        0
300

 40
0.0
140
1.0
 94
        5
 62
     0
340
E7A2
144
0.25
309
CONTENTFORMAT_END
171
     1
301
MARGIN
  1
CELLMARGIN_BEGIN
 40
0.06
 40
0.06
 40
0.06
 40
0.06
 40
0.18
 40
0.18
309
CELLMARGIN_END
 94
        6
 95
        1
302
GRIDFORMAT
  1
GRIDFORMAT_BEGIN
 90
        0
 91
        1
 62
     0
 92
       -2
340
0
 93
        0
 40
0.045
309
GRIDFORMAT_END
 95
        2
302
GRIDFORMAT
  1
GRIDFORMAT_BEGIN
 90
        0
 91
        1
 62
     0
 92
       -2
340
0
 93
        0
 40
0.045
309
GRIDFORMAT_END
 95
        4
302
GRIDFORMAT
  1
GRIDFORMAT_BEGIN
 90
        0
 91
        1
 62
     0
 92
       -2
340
0
 93
        0
 40
0.045
309
GRIDFORMAT_END
 95
        8
302
GRIDFORMAT
  1
GRIDFORMAT_BEGIN
 90
        0
 91
        1
 62
     0
 92
       -2
340
0
 93
        0
 40
0.045
309
GRIDFORMAT_END
 95
       16
302
GRIDFORMAT
  1
GRIDFORMAT_BEGIN
 90
        0
 91
        1
 62
     0
 92
       -2
340
0
 93
        0
 40
0.045
309
GRIDFORMAT_END
 95
       32
302
GRIDFORMAT
  1
GRIDFORMAT_BEGIN
 90
        0
 91
        1
 62
     0
 92
       -2
340
0
 93
        0
 40
0.045
309
GRIDFORMAT_END
309
TABLEFORMAT_END
  1
CELLSTYLE_BEGIN
 90
        1
 91
        1
300
_TITLE
309
CELLSTYLE_END
300
CELLSTYLE
  1
TABLEFORMAT_BEGIN
 90
        5
170
     1
 91
        0
 92
        0
 62
   257
 93
        1
300
CONTENTFORMAT
  1
CONTENTFORMAT_BEGIN
 90
        0
 91
        0
 92
      512
 93
        0
300

 40
0.0
140
1.0
 94
        5
 62
     0
340
E7A2
144
0.18
309
CONTENTFORMAT_END
171
     1
301
MARGIN
  1
CELLMARGIN_BEGIN
 40
0.06
 40
0.06
 40
0.06
 40
0.06
 40
0.18
 40
0.18
309
CELLMARGIN_END
 94
        6
 95
        1
302
GRIDFORMAT
  1
GRIDFORMAT_BEGIN
 90
        0
 91
        1
 62
     0
 92
       -2
340
0
 93
        0
 40
0.045
309
GRIDFORMAT_END
 95
        2
302
GRIDFORMAT
  1
GRIDFORMAT_BEGIN
 90
        0
 91
        1
 62
     0
 92
       -2
340
0
 93
        0
 40
0.045
309
GRIDFORMAT_END
 95
        4
302
GRIDFORMAT
  1
GRIDFORMAT_BEGIN
 90
        0
 91
        1
 62
     0
 92
       -2
340
0
 93
        0
 40
0.045
309
GRIDFORMAT_END
 95
        8
302
GRIDFORMAT
  1
GRIDFORMAT_BEGIN
 90
        0
 91
        1
 62
     0
 92
       -2
340
0
 93
        0
 40
0.045
309
GRIDFORMAT_END
 95
       16
302
GRIDFORMAT
  1
GRIDFORMAT_BEGIN
 90
        0
 91
        1
 62
     0
 92
       -2
340
0
 93
        0
 40
0.045
309
GRIDFORMAT_END
 95
       32
302
GRIDFORMAT
  1
GRIDFORMAT_BEGIN
 90
        0
 91
        1
 62
     0
 92
       -2
340
0
 93
        0
 40
0.045
309
GRIDFORMAT_END
309
TABLEFORMAT_END
  1
CELLSTYLE_BEGIN
 90
        2
 91
        1
300
_HEADER
309
CELLSTYLE_END
300
CELLSTYLE
  1
TABLEFORMAT_BEGIN
 90
        5
170
     1
 91
        0
 92
        0
 62
   257
 93
        1
300
CONTENTFORMAT
  1
CONTENTFORMAT_BEGIN
 90
        0
 91
        0
 92
      512
 93
        0
300

 40
0.0
140
1.0
 94
        2
 62
     0
340
E7A2
144
0.18
309
CONTENTFORMAT_END
171
     1
301
MARGIN
  1
CELLMARGIN_BEGIN
 40
0.06
 40
0.06
 40
0.06
 40
0.06
 40
0.18
 40
0.18
309
CELLMARGIN_END
 94
        6
 95
        1
302
GRIDFORMAT
  1
GRIDFORMAT_BEGIN
 90
        0
 91
        1
 62
     0
 92
       -2
340
0
 93
        0
 40
0.045
309
GRIDFORMAT_END
 95
        2
302
GRIDFORMAT
  1
GRIDFORMAT_BEGIN
 90
        0
 91
        1
 62
     0
 92
       -2
340
0
 93
        0
 40
0.045
309
GRIDFORMAT_END
 95
        4
302
GRIDFORMAT
  1
GRIDFORMAT_BEGIN
 90
        0
 91
        1
 62
     0
 92
       -2
340
0
 93
        0
 40
0.045
309
GRIDFORMAT_END
 95
        8
302
GRIDFORMAT
  1
GRIDFORMAT_BEGIN
 90
        0
 91
        1
 62
     0
 92
       -2
340
0
 93
        0
 40
0.045
309
GRIDFORMAT_END
 95
       16
302
GRIDFORMAT
  1
GRIDFORMAT_BEGIN
 90
        0
 91
        1
 62
     0
 92
       -2
340
0
 93
        0
 40
0.045
309
GRIDFORMAT_END
 95
       32
302
GRIDFORMAT
  1
GRIDFORMAT_BEGIN
 90
        0
 91
        1
 62
     0
 92
       -2
340
0
 93
        0
 40
0.045
309
GRIDFORMAT_END
309
TABLEFORMAT_END
  1
CELLSTYLE_BEGIN
 90
        3
 91
        2
300
_DATA
309
CELLSTYLE_END
  0
XRECORD
  5
1CA26
102
{ACAD_REACTORS
330
1CA25
102
}
330
1CA25
100
AcDbXrecord
280
     1
102
RTVSPost2010Prop28
280
     1
102
RTVSPost2010PropOp28
 70
     1
102
RTVSPost2010Prop29
280
     1
102
RTVSPost2010PropOp29
 70
     1
102
RTVSPost2010Prop30
280
     0
102
RTVSPost2010PropOp30
 70
     1
102
RTVSPost2010Prop31
280
     0
102
RTVSPost2010PropOp31
 70
     1
102
RTVSPost2010Prop32
280
     0
102
RTVSPost2010PropOp32
 70
     1
102
RTVSPost2010Prop33
280
     0
102
RTVSPost2010PropOp33
 70
     1
102
RTVSPost2010Prop34
280
     0
102
RTVSPost2010PropOp34
 70
     1
102
RTVSPost2010Prop35
280
     0
102
RTVSPost2010PropOp35
 70
     1
102
RTVSPost2010Prop36
280
     0
102
RTVSPost2010PropOp36
 70
     1
102
RTVSPost2010Prop37
 90
       50
102
RTVSPost2010PropOp37
 70
     1
102
RTVSPost2010Prop38
140
0.0
102
RTVSPost2010PropOp38
 70
     1
102
RTVSPost2010Prop39
140
1.0
102
RTVSPost2010PropOp39
 70
     1
102
RTVSPost2010Prop40
 90
        0
102
RTVSPost2010PropOp40
 70
     1
102
RTVSPost2010Prop41ColorIndex
 90
       18
102
RTVSPost2010Prop41ColorRGB
 90
        0
102
RTVSPost2010PropOp41
 70
     1
102
RTVSPost2010Prop42
 90
       50
102
RTVSPost2010PropOp42
 70
     1
102
RTVSPost2010Prop43
 90
        3
102
RTVSPost2010PropOp43
 70
     1
102
RTVSPost2010Prop44ColorIndex
 90
        5
102
RTVSPost2010Prop44ColorRGB
 90
      255
102
RTVSPost2010PropOp44
 70
     1
102
RTVSPost2010Prop45
280
     0
102
RTVSPost2010PropOp45
 70
     1
102
RTVSPost2010Prop46
 90
       50
102
RTVSPost2010PropOp46
 70
     1
102
RTVSPost2010Prop47
 90
       50
102
RTVSPost2010PropOp47
 70
     1
102
RTVSPost2010Prop48
 90
       50
102
RTVSPost2010PropOp48
 70
     1
102
RTVSPost2010Prop49
280
     0
102
RTVSPost2010PropOp49
 70
     1
102
RTVSPost2010Prop50
 90
       50
102
RTVSPost2010PropOp50
 70
     1
102
RTVSPost2010Prop51ColorIndex
 90
      256
102
RTVSPost2010Prop51ColorRGB
 90
-16777216
102
RTVSPost2010PropOp51
 70
     0
102
RTVSPost2010Prop52
140
1.0
102
RTVSPost2010PropOp52
 70
     0
102
RTVSPost2010Prop53
 90
        2
102
RTVSPost2010PropOp53
 70
     1
102
RTVSPost2010Prop54
  1
strokes_ogs.tif
102
RTVSPost2010PropOp54
 70
     1
102
RTVSPost2010Prop55
280
     0
102
RTVSPost2010PropOp55
 70
     1
102
RTVSPost2010Prop56
140
1.0
102
RTVSPost2010PropOp56
 70
     1
102
RTVSPost2010Prop57
140
1.0
102
RTVSPost2010PropOp57
 70
     1
  0
XRECORD
  5
1CA24
102
{ACAD_REACTORS
330
1CA23
102
}
330
1CA23
100
AcDbXrecord
280
     1
102
RTVSPost2010Prop28
280
     0
102
RTVSPost2010PropOp28
 70
     1
102
RTVSPost2010Prop29
280
     1
102
RTVSPost2010PropOp29
 70
     1
102
RTVSPost2010Prop30
280
     1
102
RTVSPost2010PropOp30
 70
     1
102
RTVSPost2010Prop31
280
     0
102
RTVSPost2010PropOp31
 70
     1
102
RTVSPost2010Prop32
280
     0
102
RTVSPost2010PropOp32
 70
     1
102
RTVSPost2010Prop33
280
     0
102
RTVSPost2010PropOp33
 70
     1
102
RTVSPost2010Prop34
280
     0
102
RTVSPost2010PropOp34
 70
     1
102
RTVSPost2010Prop35
280
     0
102
RTVSPost2010PropOp35
 70
     1
102
RTVSPost2010Prop36
280
     0
102
RTVSPost2010PropOp36
 70
     1
102
RTVSPost2010Prop37
 90
       50
102
RTVSPost2010PropOp37
 70
     1
102
RTVSPost2010Prop38
140
0.0
102
RTVSPost2010PropOp38
 70
     1
102
RTVSPost2010Prop39
140
1.0
102
RTVSPost2010PropOp39
 70
     1
102
RTVSPost2010Prop40
 90
        0
102
RTVSPost2010PropOp40
 70
     1
102
RTVSPost2010Prop41ColorIndex
 90
       18
102
RTVSPost2010Prop41ColorRGB
 90
        0
102
RTVSPost2010PropOp41
 70
     1
102
RTVSPost2010Prop42
 90
       50
102
RTVSPost2010PropOp42
 70
     1
102
RTVSPost2010Prop43
 90
        3
102
RTVSPost2010PropOp43
 70
     1
102
RTVSPost2010Prop44ColorIndex
 90
        5
102
RTVSPost2010Prop44ColorRGB
 90
      255
102
RTVSPost2010PropOp44
 70
     1
102
RTVSPost2010Prop45
280
     0
102
RTVSPost2010PropOp45
 70
     1
102
RTVSPost2010Prop46
 90
       50
102
RTVSPost2010PropOp46
 70
     1
102
RTVSPost2010Prop47
 90
       50
102
RTVSPost2010PropOp47
 70
     1
102
RTVSPost2010Prop48
 90
       50
102
RTVSPost2010PropOp48
 70
     1
102
RTVSPost2010Prop49
280
     0
102
RTVSPost2010PropOp49
 70
     1
102
RTVSPost2010Prop50
 90
       50
102
RTVSPost2010PropOp50
 70
     1
102
RTVSPost2010Prop51ColorIndex
 90
      256
102
RTVSPost2010Prop51ColorRGB
 90
-16777216
102
RTVSPost2010PropOp51
 70
     0
102
RTVSPost2010Prop52
140
1.0
102
RTVSPost2010PropOp52
 70
     0
102
RTVSPost2010Prop53
 90
        2
102
RTVSPost2010PropOp53
 70
     1
102
RTVSPost2010Prop54
  1
strokes_ogs.tif
102
RTVSPost2010PropOp54
 70
     1
102
RTVSPost2010Prop55
280
     0
102
RTVSPost2010PropOp55
 70
     1
102
RTVSPost2010Prop56
140
1.0
102
RTVSPost2010PropOp56
 70
     1
102
RTVSPost2010Prop57
140
1.0
102
RTVSPost2010PropOp57
 70
     1
  0
XRECORD
  5
1CA32
102
{ACAD_REACTORS
330
1CA31
102
}
330
1CA31
100
AcDbXrecord
280
     1
102
RTVSPost2010Prop28
280
     0
102
RTVSPost2010PropOp28
 70
     1
102
RTVSPost2010Prop29
280
     1
102
RTVSPost2010PropOp29
 70
     1
102
RTVSPost2010Prop30
280
     1
102
RTVSPost2010PropOp30
 70
     1
102
RTVSPost2010Prop31
280
     0
102
RTVSPost2010PropOp31
 70
     1
102
RTVSPost2010Prop32
280
     0
102
RTVSPost2010PropOp32
 70
     1
102
RTVSPost2010Prop33
280
     0
102
RTVSPost2010PropOp33
 70
     1
102
RTVSPost2010Prop34
280
     0
102
RTVSPost2010PropOp34
 70
     1
102
RTVSPost2010Prop35
280
     0
102
RTVSPost2010PropOp35
 70
     1
102
RTVSPost2010Prop36
280
     0
102
RTVSPost2010PropOp36
 70
     1
102
RTVSPost2010Prop37
 90
       50
102
RTVSPost2010PropOp37
 70
     1
102
RTVSPost2010Prop38
140
0.0
102
RTVSPost2010PropOp38
 70
     1
102
RTVSPost2010Prop39
140
1.0
102
RTVSPost2010PropOp39
 70
     1
102
RTVSPost2010Prop40
 90
        0
102
RTVSPost2010PropOp40
 70
     1
102
RTVSPost2010Prop41ColorIndex
 90
       18
102
RTVSPost2010Prop41ColorRGB
 90
        0
102
RTVSPost2010PropOp41
 70
     1
102
RTVSPost2010Prop42
 90
       50
102
RTVSPost2010PropOp42
 70
     1
102
RTVSPost2010Prop43
 90
        3
102
RTVSPost2010PropOp43
 70
     1
102
RTVSPost2010Prop44ColorIndex
 90
        5
102
RTVSPost2010Prop44ColorRGB
 90
      255
102
RTVSPost2010PropOp44
 70
     1
102
RTVSPost2010Prop45
280
     0
102
RTVSPost2010PropOp45
 70
     1
102
RTVSPost2010Prop46
 90
       50
102
RTVSPost2010PropOp46
 70
     1
102
RTVSPost2010Prop47
 90
       50
102
RTVSPost2010PropOp47
 70
     1
102
RTVSPost2010Prop48
 90
       50
102
RTVSPost2010PropOp48
 70
     1
102
RTVSPost2010Prop49
280
     0
102
RTVSPost2010PropOp49
 70
     1
102
RTVSPost2010Prop50
 90
       50
102
RTVSPost2010PropOp50
 70
     1
102
RTVSPost2010Prop51ColorIndex
 90
      256
102
RTVSPost2010Prop51ColorRGB
 90
-16777216
102
RTVSPost2010PropOp51
 70
     0
102
RTVSPost2010Prop52
140
1.0
102
RTVSPost2010PropOp52
 70
     0
102
RTVSPost2010Prop53
 90
        2
102
RTVSPost2010PropOp53
 70
     1
102
RTVSPost2010Prop54
  1
strokes_ogs.tif
102
RTVSPost2010PropOp54
 70
     1
102
RTVSPost2010Prop55
280
     0
102
RTVSPost2010PropOp55
 70
     1
102
RTVSPost2010Prop56
140
1.0
102
RTVSPost2010PropOp56
 70
     1
102
RTVSPost2010Prop57
140
1.0
102
RTVSPost2010PropOp57
 70
     1
  0
XRECORD
  5
1CA3A
102
{ACAD_REACTORS
330
1CA39
102
}
330
1CA39
100
AcDbXrecord
280
     1
102
RTVSPost2010Prop28
280
     0
102
RTVSPost2010PropOp28
 70
     1
102
RTVSPost2010Prop29
280
     1
102
RTVSPost2010PropOp29
 70
     1
102
RTVSPost2010Prop30
280
     1
102
RTVSPost2010PropOp30
 70
     1
102
RTVSPost2010Prop31
280
     0
102
RTVSPost2010PropOp31
 70
     1
102
RTVSPost2010Prop32
280
     0
102
RTVSPost2010PropOp32
 70
     1
102
RTVSPost2010Prop33
280
     0
102
RTVSPost2010PropOp33
 70
     1
102
RTVSPost2010Prop34
280
     0
102
RTVSPost2010PropOp34
 70
     1
102
RTVSPost2010Prop35
280
     0
102
RTVSPost2010PropOp35
 70
     1
102
RTVSPost2010Prop36
280
     0
102
RTVSPost2010PropOp36
 70
     1
102
RTVSPost2010Prop37
 90
       50
102
RTVSPost2010PropOp37
 70
     1
102
RTVSPost2010Prop38
140
0.0
102
RTVSPost2010PropOp38
 70
     1
102
RTVSPost2010Prop39
140
1.0
102
RTVSPost2010PropOp39
 70
     1
102
RTVSPost2010Prop40
 90
        0
102
RTVSPost2010PropOp40
 70
     1
102
RTVSPost2010Prop41ColorIndex
 90
       18
102
RTVSPost2010Prop41ColorRGB
 90
        0
102
RTVSPost2010PropOp41
 70
     1
102
RTVSPost2010Prop42
 90
       50
102
RTVSPost2010PropOp42
 70
     1
102
RTVSPost2010Prop43
 90
        3
102
RTVSPost2010PropOp43
 70
     1
102
RTVSPost2010Prop44ColorIndex
 90
        5
102
RTVSPost2010Prop44ColorRGB
 90
      255
102
RTVSPost2010PropOp44
 70
     1
102
RTVSPost2010Prop45
280
     0
102
RTVSPost2010PropOp45
 70
     1
102
RTVSPost2010Prop46
 90
       50
102
RTVSPost2010PropOp46
 70
     1
102
RTVSPost2010Prop47
 90
       50
102
RTVSPost2010PropOp47
 70
     1
102
RTVSPost2010Prop48
 90
       50
102
RTVSPost2010PropOp48
 70
     1
102
RTVSPost2010Prop49
280
     0
102
RTVSPost2010PropOp49
 70
     1
102
RTVSPost2010Prop50
 90
       50
102
RTVSPost2010PropOp50
 70
     1
102
RTVSPost2010Prop51ColorIndex
 90
      256
102
RTVSPost2010Prop51ColorRGB
 90
-16777216
102
RTVSPost2010PropOp51
 70
     0
102
RTVSPost2010Prop52
140
1.0
102
RTVSPost2010PropOp52
 70
     0
102
RTVSPost2010Prop53
 90
        2
102
RTVSPost2010PropOp53
 70
     1
102
RTVSPost2010Prop54
  1
strokes_ogs.tif
102
RTVSPost2010PropOp54
 70
     1
102
RTVSPost2010Prop55
280
     0
102
RTVSPost2010PropOp55
 70
     1
102
RTVSPost2010Prop56
140
1.0
102
RTVSPost2010PropOp56
 70
     1
102
RTVSPost2010Prop57
140
1.0
102
RTVSPost2010PropOp57
 70
     1
  0
XRECORD
  5
1CA2C
102
{ACAD_REACTORS
330
1CA2B
102
}
330
1CA2B
100
AcDbXrecord
280
     1
102
RTVSPost2010Prop28
280
     0
102
RTVSPost2010PropOp28
 70
     1
102
RTVSPost2010Prop29
280
     1
102
RTVSPost2010PropOp29
 70
     1
102
RTVSPost2010Prop30
280
     1
102
RTVSPost2010PropOp30
 70
     1
102
RTVSPost2010Prop31
280
     0
102
RTVSPost2010PropOp31
 70
     1
102
RTVSPost2010Prop32
280
     0
102
RTVSPost2010PropOp32
 70
     1
102
RTVSPost2010Prop33
280
     0
102
RTVSPost2010PropOp33
 70
     1
102
RTVSPost2010Prop34
280
     0
102
RTVSPost2010PropOp34
 70
     1
102
RTVSPost2010Prop35
280
     0
102
RTVSPost2010PropOp35
 70
     1
102
RTVSPost2010Prop36
280
     0
102
RTVSPost2010PropOp36
 70
     1
102
RTVSPost2010Prop37
 90
       50
102
RTVSPost2010PropOp37
 70
     1
102
RTVSPost2010Prop38
140
0.0
102
RTVSPost2010PropOp38
 70
     1
102
RTVSPost2010Prop39
140
1.0
102
RTVSPost2010PropOp39
 70
     1
102
RTVSPost2010Prop40
 90
        0
102
RTVSPost2010PropOp40
 70
     1
102
RTVSPost2010Prop41ColorIndex
 90
       18
102
RTVSPost2010Prop41ColorRGB
 90
        0
102
RTVSPost2010PropOp41
 70
     1
102
RTVSPost2010Prop42
 90
       50
102
RTVSPost2010PropOp42
 70
     1
102
RTVSPost2010Prop43
 90
        3
102
RTVSPost2010PropOp43
 70
     1
102
RTVSPost2010Prop44ColorIndex
 90
        5
102
RTVSPost2010Prop44ColorRGB
 90
      255
102
RTVSPost2010PropOp44
 70
     1
102
RTVSPost2010Prop45
280
     0
102
RTVSPost2010PropOp45
 70
     1
102
RTVSPost2010Prop46
 90
       50
102
RTVSPost2010PropOp46
 70
     1
102
RTVSPost2010Prop47
 90
       50
102
RTVSPost2010PropOp47
 70
     1
102
RTVSPost2010Prop48
 90
       50
102
RTVSPost2010PropOp48
 70
     1
102
RTVSPost2010Prop49
280
     0
102
RTVSPost2010PropOp49
 70
     1
102
RTVSPost2010Prop50
 90
       50
102
RTVSPost2010PropOp50
 70
     1
102
RTVSPost2010Prop51ColorIndex
 90
      256
102
RTVSPost2010Prop51ColorRGB
 90
-16777216
102
RTVSPost2010PropOp51
 70
     0
102
RTVSPost2010Prop52
140
1.0
102
RTVSPost2010PropOp52
 70
     0
102
RTVSPost2010Prop53
 90
        2
102
RTVSPost2010PropOp53
 70
     1
102
RTVSPost2010Prop54
  1
strokes_ogs.tif
102
RTVSPost2010PropOp54
 70
     1
102
RTVSPost2010Prop55
280
     0
102
RTVSPost2010PropOp55
 70
     1
102
RTVSPost2010Prop56
140
1.0
102
RTVSPost2010PropOp56
 70
     1
102
RTVSPost2010Prop57
140
1.0
102
RTVSPost2010PropOp57
 70
     1
  0
XRECORD
  5
1CA30
102
{ACAD_REACTORS
330
1CA2F
102
}
330
1CA2F
100
AcDbXrecord
280
     1
102
RTVSPost2010Prop28
280
     0
102
RTVSPost2010PropOp28
 70
     1
102
RTVSPost2010Prop29
280
     1
102
RTVSPost2010PropOp29
 70
     1
102
RTVSPost2010Prop30
280
     1
102
RTVSPost2010PropOp30
 70
     1
102
RTVSPost2010Prop31
280
     0
102
RTVSPost2010PropOp31
 70
     1
102
RTVSPost2010Prop32
280
     0
102
RTVSPost2010PropOp32
 70
     1
102
RTVSPost2010Prop33
280
     0
102
RTVSPost2010PropOp33
 70
     1
102
RTVSPost2010Prop34
280
     0
102
RTVSPost2010PropOp34
 70
     1
102
RTVSPost2010Prop35
280
     0
102
RTVSPost2010PropOp35
 70
     1
102
RTVSPost2010Prop36
280
     0
102
RTVSPost2010PropOp36
 70
     1
102
RTVSPost2010Prop37
 90
       50
102
RTVSPost2010PropOp37
 70
     1
102
RTVSPost2010Prop38
140
0.0
102
RTVSPost2010PropOp38
 70
     1
102
RTVSPost2010Prop39
140
1.0
102
RTVSPost2010PropOp39
 70
     1
102
RTVSPost2010Prop40
 90
        0
102
RTVSPost2010PropOp40
 70
     1
102
RTVSPost2010Prop41ColorIndex
 90
       18
102
RTVSPost2010Prop41ColorRGB
 90
        0
102
RTVSPost2010PropOp41
 70
     1
102
RTVSPost2010Prop42
 90
       50
102
RTVSPost2010PropOp42
 70
     1
102
RTVSPost2010Prop43
 90
        3
102
RTVSPost2010PropOp43
 70
     1
102
RTVSPost2010Prop44ColorIndex
 90
        5
102
RTVSPost2010Prop44ColorRGB
 90
      255
102
RTVSPost2010PropOp44
 70
     1
102
RTVSPost2010Prop45
280
     0
102
RTVSPost2010PropOp45
 70
     1
102
RTVSPost2010Prop46
 90
       50
102
RTVSPost2010PropOp46
 70
     1
102
RTVSPost2010Prop47
 90
       50
102
RTVSPost2010PropOp47
 70
     1
102
RTVSPost2010Prop48
 90
       50
102
RTVSPost2010PropOp48
 70
     1
102
RTVSPost2010Prop49
280
     0
102
RTVSPost2010PropOp49
 70
     1
102
RTVSPost2010Prop50
 90
       50
102
RTVSPost2010PropOp50
 70
     1
102
RTVSPost2010Prop51ColorIndex
 90
      256
102
RTVSPost2010Prop51ColorRGB
 90
-16777216
102
RTVSPost2010PropOp51
 70
     0
102
RTVSPost2010Prop52
140
1.0
102
RTVSPost2010PropOp52
 70
     0
102
RTVSPost2010Prop53
 90
        2
102
RTVSPost2010PropOp53
 70
     1
102
RTVSPost2010Prop54
  1
strokes_ogs.tif
102
RTVSPost2010PropOp54
 70
     1
102
RTVSPost2010Prop55
280
     0
102
RTVSPost2010PropOp55
 70
     1
102
RTVSPost2010Prop56
140
1.0
102
RTVSPost2010PropOp56
 70
     1
102
RTVSPost2010Prop57
140
1.0
102
RTVSPost2010PropOp57
 70
     1
  0
XRECORD
  5
1CA4A
102
{ACAD_REACTORS
330
1CA49
102
}
330
1CA49
100
AcDbXrecord
280
     1
102
RTVSPost2010Prop28
280
     0
102
RTVSPost2010PropOp28
 70
     0
102
RTVSPost2010Prop29
280
     1
102
RTVSPost2010PropOp29
 70
     0
102
RTVSPost2010Prop30
280
     1
102
RTVSPost2010PropOp30
 70
     0
102
RTVSPost2010Prop31
280
     0
102
RTVSPost2010PropOp31
 70
     0
102
RTVSPost2010Prop32
280
     0
102
RTVSPost2010PropOp32
 70
     0
102
RTVSPost2010Prop33
280
     0
102
RTVSPost2010PropOp33
 70
     0
102
RTVSPost2010Prop34
280
     0
102
RTVSPost2010PropOp34
 70
     0
102
RTVSPost2010Prop35
280
     0
102
RTVSPost2010PropOp35
 70
     0
102
RTVSPost2010Prop36
280
     0
102
RTVSPost2010PropOp36
 70
     0
102
RTVSPost2010Prop37
 90
       50
102
RTVSPost2010PropOp37
 70
     0
102
RTVSPost2010Prop38
140
0.0
102
RTVSPost2010PropOp38
 70
     0
102
RTVSPost2010Prop39
140
1.0
102
RTVSPost2010PropOp39
 70
     0
102
RTVSPost2010Prop40
 90
        0
102
RTVSPost2010PropOp40
 70
     0
102
RTVSPost2010Prop41ColorIndex
 90
       18
102
RTVSPost2010Prop41ColorRGB
 90
        0
102
RTVSPost2010PropOp41
 70
     0
102
RTVSPost2010Prop42
 90
       50
102
RTVSPost2010PropOp42
 70
     0
102
RTVSPost2010Prop43
 90
        3
102
RTVSPost2010PropOp43
 70
     0
102
RTVSPost2010Prop44ColorIndex
 90
        5
102
RTVSPost2010Prop44ColorRGB
 90
      255
102
RTVSPost2010PropOp44
 70
     0
102
RTVSPost2010Prop45
280
     0
102
RTVSPost2010PropOp45
 70
     0
102
RTVSPost2010Prop46
 90
       50
102
RTVSPost2010PropOp46
 70
     0
102
RTVSPost2010Prop47
 90
       50
102
RTVSPost2010PropOp47
 70
     0
102
RTVSPost2010Prop48
 90
       50
102
RTVSPost2010PropOp48
 70
     0
102
RTVSPost2010Prop49
280
     0
102
RTVSPost2010PropOp49
 70
     0
102
RTVSPost2010Prop50
 90
       50
102
RTVSPost2010PropOp50
 70
     0
102
RTVSPost2010Prop51ColorIndex
 90
      256
102
RTVSPost2010Prop51ColorRGB
 90
-16777216
102
RTVSPost2010PropOp51
 70
     0
102
RTVSPost2010Prop52
140
1.0
102
RTVSPost2010PropOp52
 70
     0
102
RTVSPost2010Prop53
 90
        2
102
RTVSPost2010PropOp53
 70
     0
102
RTVSPost2010Prop54
  1
strokes_ogs.tif
102
RTVSPost2010PropOp54
 70
     0
102
RTVSPost2010Prop55
280
     0
102
RTVSPost2010PropOp55
 70
     0
102
RTVSPost2010Prop56
140
1.0
102
RTVSPost2010PropOp56
 70
     0
102
RTVSPost2010Prop57
140
1.0
102
RTVSPost2010PropOp57
 70
     0
  0
XRECORD
  5
1CA38
102
{ACAD_REACTORS
330
1CA37
102
}
330
1CA37
100
AcDbXrecord
280
     1
102
RTVSPost2010Prop28
280
     0
102
RTVSPost2010PropOp28
 70
     1
102
RTVSPost2010Prop29
280
     1
102
RTVSPost2010PropOp29
 70
     1
102
RTVSPost2010Prop30
280
     1
102
RTVSPost2010PropOp30
 70
     1
102
RTVSPost2010Prop31
280
     0
102
RTVSPost2010PropOp31
 70
     1
102
RTVSPost2010Prop32
280
     0
102
RTVSPost2010PropOp32
 70
     1
102
RTVSPost2010Prop33
280
     0
102
RTVSPost2010PropOp33
 70
     1
102
RTVSPost2010Prop34
280
     0
102
RTVSPost2010PropOp34
 70
     1
102
RTVSPost2010Prop35
280
     0
102
RTVSPost2010PropOp35
 70
     1
102
RTVSPost2010Prop36
280
     0
102
RTVSPost2010PropOp36
 70
     1
102
RTVSPost2010Prop37
 90
       50
102
RTVSPost2010PropOp37
 70
     1
102
RTVSPost2010Prop38
140
0.0
102
RTVSPost2010PropOp38
 70
     1
102
RTVSPost2010Prop39
140
1.0
102
RTVSPost2010PropOp39
 70
     1
102
RTVSPost2010Prop40
 90
        0
102
RTVSPost2010PropOp40
 70
     1
102
RTVSPost2010Prop41ColorIndex
 90
       18
102
RTVSPost2010Prop41ColorRGB
 90
        0
102
RTVSPost2010PropOp41
 70
     1
102
RTVSPost2010Prop42
 90
       50
102
RTVSPost2010PropOp42
 70
     1
102
RTVSPost2010Prop43
 90
        3
102
RTVSPost2010PropOp43
 70
     1
102
RTVSPost2010Prop44ColorIndex
 90
        5
102
RTVSPost2010Prop44ColorRGB
 90
      255
102
RTVSPost2010PropOp44
 70
     1
102
RTVSPost2010Prop45
280
     0
102
RTVSPost2010PropOp45
 70
     1
102
RTVSPost2010Prop46
 90
       50
102
RTVSPost2010PropOp46
 70
     1
102
RTVSPost2010Prop47
 90
       50
102
RTVSPost2010PropOp47
 70
     1
102
RTVSPost2010Prop48
 90
       50
102
RTVSPost2010PropOp48
 70
     1
102
RTVSPost2010Prop49
280
     0
102
RTVSPost2010PropOp49
 70
     1
102
RTVSPost2010Prop50
 90
       50
102
RTVSPost2010PropOp50
 70
     1
102
RTVSPost2010Prop51ColorIndex
 90
      256
102
RTVSPost2010Prop51ColorRGB
 90
-16777216
102
RTVSPost2010PropOp51
 70
     0
102
RTVSPost2010Prop52
140
1.0
102
RTVSPost2010PropOp52
 70
     0
102
RTVSPost2010Prop53
 90
        2
102
RTVSPost2010PropOp53
 70
     1
102
RTVSPost2010Prop54
  1
strokes_ogs.tif
102
RTVSPost2010PropOp54
 70
     1
102
RTVSPost2010Prop55
280
     0
102
RTVSPost2010PropOp55
 70
     1
102
RTVSPost2010Prop56
140
1.0
102
RTVSPost2010PropOp56
 70
     1
102
RTVSPost2010Prop57
140
1.0
102
RTVSPost2010PropOp57
 70
     1
  0
XRECORD
  5
1CA1C
102
{ACAD_REACTORS
330
1CA1B
102
}
330
1CA1B
100
AcDbXrecord
280
     1
102
RTVSPost2010Prop28
280
     0
102
RTVSPost2010PropOp28
 70
     1
102
RTVSPost2010Prop29
280
     1
102
RTVSPost2010PropOp29
 70
     1
102
RTVSPost2010Prop30
280
     1
102
RTVSPost2010PropOp30
 70
     1
102
RTVSPost2010Prop31
280
     0
102
RTVSPost2010PropOp31
 70
     1
102
RTVSPost2010Prop32
280
     0
102
RTVSPost2010PropOp32
 70
     1
102
RTVSPost2010Prop33
280
     0
102
RTVSPost2010PropOp33
 70
     1
102
RTVSPost2010Prop34
280
     0
102
RTVSPost2010PropOp34
 70
     1
102
RTVSPost2010Prop35
280
     0
102
RTVSPost2010PropOp35
 70
     1
102
RTVSPost2010Prop36
280
     0
102
RTVSPost2010PropOp36
 70
     1
102
RTVSPost2010Prop37
 90
       50
102
RTVSPost2010PropOp37
 70
     1
102
RTVSPost2010Prop38
140
0.0
102
RTVSPost2010PropOp38
 70
     1
102
RTVSPost2010Prop39
140
1.0
102
RTVSPost2010PropOp39
 70
     1
102
RTVSPost2010Prop40
 90
        0
102
RTVSPost2010PropOp40
 70
     1
102
RTVSPost2010Prop41ColorIndex
 90
       18
102
RTVSPost2010Prop41ColorRGB
 90
        0
102
RTVSPost2010PropOp41
 70
     1
102
RTVSPost2010Prop42
 90
       50
102
RTVSPost2010PropOp42
 70
     1
102
RTVSPost2010Prop43
 90
        3
102
RTVSPost2010PropOp43
 70
     1
102
RTVSPost2010Prop44ColorIndex
 90
        5
102
RTVSPost2010Prop44ColorRGB
 90
      255
102
RTVSPost2010PropOp44
 70
     1
102
RTVSPost2010Prop45
280
     0
102
RTVSPost2010PropOp45
 70
     1
102
RTVSPost2010Prop46
 90
       50
102
RTVSPost2010PropOp46
 70
     1
102
RTVSPost2010Prop47
 90
       50
102
RTVSPost2010PropOp47
 70
     1
102
RTVSPost2010Prop48
 90
       50
102
RTVSPost2010PropOp48
 70
     1
102
RTVSPost2010Prop49
280
     0
102
RTVSPost2010PropOp49
 70
     1
102
RTVSPost2010Prop50
 90
       50
102
RTVSPost2010PropOp50
 70
     1
102
RTVSPost2010Prop51ColorIndex
 90
      256
102
RTVSPost2010Prop51ColorRGB
 90
-16777216
102
RTVSPost2010PropOp51
 70
     0
102
RTVSPost2010Prop52
140
1.0
102
RTVSPost2010PropOp52
 70
     0
102
RTVSPost2010Prop53
 90
        2
102
RTVSPost2010PropOp53
 70
     1
102
RTVSPost2010Prop54
  1
strokes_ogs.tif
102
RTVSPost2010PropOp54
 70
     1
102
RTVSPost2010Prop55
280
     0
102
RTVSPost2010PropOp55
 70
     1
102
RTVSPost2010Prop56
140
1.0
102
RTVSPost2010PropOp56
 70
     1
102
RTVSPost2010Prop57
140
1.0
102
RTVSPost2010PropOp57
 70
     1
  0
XRECORD
  5
1CA1E
102
{ACAD_REACTORS
330
1CA1D
102
}
330
1CA1D
100
AcDbXrecord
280
     1
102
RTVSPost2010Prop28
280
     0
102
RTVSPost2010PropOp28
 70
     1
102
RTVSPost2010Prop29
280
     1
102
RTVSPost2010PropOp29
 70
     1
102
RTVSPost2010Prop30
280
     1
102
RTVSPost2010PropOp30
 70
     1
102
RTVSPost2010Prop31
280
     0
102
RTVSPost2010PropOp31
 70
     1
102
RTVSPost2010Prop32
280
     0
102
RTVSPost2010PropOp32
 70
     1
102
RTVSPost2010Prop33
280
     0
102
RTVSPost2010PropOp33
 70
     1
102
RTVSPost2010Prop34
280
     0
102
RTVSPost2010PropOp34
 70
     1
102
RTVSPost2010Prop35
280
     0
102
RTVSPost2010PropOp35
 70
     1
102
RTVSPost2010Prop36
280
     0
102
RTVSPost2010PropOp36
 70
     1
102
RTVSPost2010Prop37
 90
       50
102
RTVSPost2010PropOp37
 70
     1
102
RTVSPost2010Prop38
140
0.0
102
RTVSPost2010PropOp38
 70
     1
102
RTVSPost2010Prop39
140
1.0
102
RTVSPost2010PropOp39
 70
     1
102
RTVSPost2010Prop40
 90
        0
102
RTVSPost2010PropOp40
 70
     1
102
RTVSPost2010Prop41ColorIndex
 90
       18
102
RTVSPost2010Prop41ColorRGB
 90
        0
102
RTVSPost2010PropOp41
 70
     1
102
RTVSPost2010Prop42
 90
       50
102
RTVSPost2010PropOp42
 70
     1
102
RTVSPost2010Prop43
 90
        3
102
RTVSPost2010PropOp43
 70
     1
102
RTVSPost2010Prop44ColorIndex
 90
        5
102
RTVSPost2010Prop44ColorRGB
 90
      255
102
RTVSPost2010PropOp44
 70
     1
102
RTVSPost2010Prop45
280
     0
102
RTVSPost2010PropOp45
 70
     1
102
RTVSPost2010Prop46
 90
       50
102
RTVSPost2010PropOp46
 70
     1
102
RTVSPost2010Prop47
 90
       50
102
RTVSPost2010PropOp47
 70
     1
102
RTVSPost2010Prop48
 90
       50
102
RTVSPost2010PropOp48
 70
     1
102
RTVSPost2010Prop49
280
     0
102
RTVSPost2010PropOp49
 70
     1
102
RTVSPost2010Prop50
 90
       50
102
RTVSPost2010PropOp50
 70
     1
102
RTVSPost2010Prop51ColorIndex
 90
      256
102
RTVSPost2010Prop51ColorRGB
 90
-16777216
102
RTVSPost2010PropOp51
 70
     0
102
RTVSPost2010Prop52
140
1.0
102
RTVSPost2010PropOp52
 70
     0
102
RTVSPost2010Prop53
 90
        2
102
RTVSPost2010PropOp53
 70
     1
102
RTVSPost2010Prop54
  1
strokes_ogs.tif
102
RTVSPost2010PropOp54
 70
     1
102
RTVSPost2010Prop55
280
     0
102
RTVSPost2010PropOp55
 70
     1
102
RTVSPost2010Prop56
140
1.0
102
RTVSPost2010PropOp56
 70
     1
102
RTVSPost2010Prop57
140
1.0
102
RTVSPost2010PropOp57
 70
     1
  0
XRECORD
  5
1CA20
102
{ACAD_REACTORS
330
1CA1F
102
}
330
1CA1F
100
AcDbXrecord
280
     1
102
RTVSPost2010Prop28
280
     0
102
RTVSPost2010PropOp28
 70
     1
102
RTVSPost2010Prop29
280
     1
102
RTVSPost2010PropOp29
 70
     1
102
RTVSPost2010Prop30
280
     1
102
RTVSPost2010PropOp30
 70
     1
102
RTVSPost2010Prop31
280
     0
102
RTVSPost2010PropOp31
 70
     1
102
RTVSPost2010Prop32
280
     0
102
RTVSPost2010PropOp32
 70
     1
102
RTVSPost2010Prop33
280
     0
102
RTVSPost2010PropOp33
 70
     1
102
RTVSPost2010Prop34
280
     0
102
RTVSPost2010PropOp34
 70
     1
102
RTVSPost2010Prop35
280
     0
102
RTVSPost2010PropOp35
 70
     1
102
RTVSPost2010Prop36
280
     0
102
RTVSPost2010PropOp36
 70
     1
102
RTVSPost2010Prop37
 90
       50
102
RTVSPost2010PropOp37
 70
     1
102
RTVSPost2010Prop38
140
0.0
102
RTVSPost2010PropOp38
 70
     1
102
RTVSPost2010Prop39
140
1.0
102
RTVSPost2010PropOp39
 70
     1
102
RTVSPost2010Prop40
 90
        0
102
RTVSPost2010PropOp40
 70
     1
102
RTVSPost2010Prop41ColorIndex
 90
       18
102
RTVSPost2010Prop41ColorRGB
 90
        0
102
RTVSPost2010PropOp41
 70
     1
102
RTVSPost2010Prop42
 90
       50
102
RTVSPost2010PropOp42
 70
     1
102
RTVSPost2010Prop43
 90
        3
102
RTVSPost2010PropOp43
 70
     1
102
RTVSPost2010Prop44ColorIndex
 90
        5
102
RTVSPost2010Prop44ColorRGB
 90
      255
102
RTVSPost2010PropOp44
 70
     1
102
RTVSPost2010Prop45
280
     0
102
RTVSPost2010PropOp45
 70
     1
102
RTVSPost2010Prop46
 90
       50
102
RTVSPost2010PropOp46
 70
     1
102
RTVSPost2010Prop47
 90
       50
102
RTVSPost2010PropOp47
 70
     1
102
RTVSPost2010Prop48
 90
       50
102
RTVSPost2010PropOp48
 70
     1
102
RTVSPost2010Prop49
280
     0
102
RTVSPost2010PropOp49
 70
     1
102
RTVSPost2010Prop50
 90
       50
102
RTVSPost2010PropOp50
 70
     1
102
RTVSPost2010Prop51ColorIndex
 90
      256
102
RTVSPost2010Prop51ColorRGB
 90
-16777216
102
RTVSPost2010PropOp51
 70
     0
102
RTVSPost2010Prop52
140
1.0
102
RTVSPost2010PropOp52
 70
     0
102
RTVSPost2010Prop53
 90
        2
102
RTVSPost2010PropOp53
 70
     1
102
RTVSPost2010Prop54
  1
strokes_ogs.tif
102
RTVSPost2010PropOp54
 70
     1
102
RTVSPost2010Prop55
280
     0
102
RTVSPost2010PropOp55
 70
     1
102
RTVSPost2010Prop56
140
1.0
102
RTVSPost2010PropOp56
 70
     1
102
RTVSPost2010Prop57
140
1.0
102
RTVSPost2010PropOp57
 70
     1
  0
XRECORD
  5
1CA22
102
{ACAD_REACTORS
330
1CA21
102
}
330
1CA21
100
AcDbXrecord
280
     1
102
RTVSPost2010Prop28
280
     0
102
RTVSPost2010PropOp28
 70
     1
102
RTVSPost2010Prop29
280
     1
102
RTVSPost2010PropOp29
 70
     1
102
RTVSPost2010Prop30
280
     1
102
RTVSPost2010PropOp30
 70
     1
102
RTVSPost2010Prop31
280
     0
102
RTVSPost2010PropOp31
 70
     1
102
RTVSPost2010Prop32
280
     0
102
RTVSPost2010PropOp32
 70
     1
102
RTVSPost2010Prop33
280
     0
102
RTVSPost2010PropOp33
 70
     1
102
RTVSPost2010Prop34
280
     0
102
RTVSPost2010PropOp34
 70
     1
102
RTVSPost2010Prop35
280
     0
102
RTVSPost2010PropOp35
 70
     1
102
RTVSPost2010Prop36
280
     0
102
RTVSPost2010PropOp36
 70
     1
102
RTVSPost2010Prop37
 90
       50
102
RTVSPost2010PropOp37
 70
     1
102
RTVSPost2010Prop38
140
0.0
102
RTVSPost2010PropOp38
 70
     1
102
RTVSPost2010Prop39
140
1.0
102
RTVSPost2010PropOp39
 70
     1
102
RTVSPost2010Prop40
 90
        0
102
RTVSPost2010PropOp40
 70
     1
102
RTVSPost2010Prop41ColorIndex
 90
       18
102
RTVSPost2010Prop41ColorRGB
 90
        0
102
RTVSPost2010PropOp41
 70
     1
102
RTVSPost2010Prop42
 90
       50
102
RTVSPost2010PropOp42
 70
     1
102
RTVSPost2010Prop43
 90
        3
102
RTVSPost2010PropOp43
 70
     1
102
RTVSPost2010Prop44ColorIndex
 90
        5
102
RTVSPost2010Prop44ColorRGB
 90
      255
102
RTVSPost2010PropOp44
 70
     1
102
RTVSPost2010Prop45
280
     0
102
RTVSPost2010PropOp45
 70
     1
102
RTVSPost2010Prop46
 90
       50
102
RTVSPost2010PropOp46
 70
     1
102
RTVSPost2010Prop47
 90
       50
102
RTVSPost2010PropOp47
 70
     1
102
RTVSPost2010Prop48
 90
       50
102
RTVSPost2010PropOp48
 70
     1
102
RTVSPost2010Prop49
280
     0
102
RTVSPost2010PropOp49
 70
     1
102
RTVSPost2010Prop50
 90
       50
102
RTVSPost2010PropOp50
 70
     1
102
RTVSPost2010Prop51ColorIndex
 90
      256
102
RTVSPost2010Prop51ColorRGB
 90
-16777216
102
RTVSPost2010PropOp51
 70
     0
102
RTVSPost2010Prop52
140
1.0
102
RTVSPost2010PropOp52
 70
     0
102
RTVSPost2010Prop53
 90
        2
102
RTVSPost2010PropOp53
 70
     1
102
RTVSPost2010Prop54
  1
strokes_ogs.tif
102
RTVSPost2010PropOp54
 70
     1
102
RTVSPost2010Prop55
280
     0
102
RTVSPost2010PropOp55
 70
     1
102
RTVSPost2010Prop56
140
1.0
102
RTVSPost2010PropOp56
 70
     1
102
RTVSPost2010Prop57
140
1.0
102
RTVSPost2010PropOp57
 70
     1
  0
XRECORD
  5
1CA2A
102
{ACAD_REACTORS
330
1CA29
102
}
330
1CA29
100
AcDbXrecord
280
     1
102
RTVSPost2010Prop28
280
     0
102
RTVSPost2010PropOp28
 70
     1
102
RTVSPost2010Prop29
280
     1
102
RTVSPost2010PropOp29
 70
     1
102
RTVSPost2010Prop30
280
     1
102
RTVSPost2010PropOp30
 70
     1
102
RTVSPost2010Prop31
280
     0
102
RTVSPost2010PropOp31
 70
     1
102
RTVSPost2010Prop32
280
     0
102
RTVSPost2010PropOp32
 70
     1
102
RTVSPost2010Prop33
280
     0
102
RTVSPost2010PropOp33
 70
     1
102
RTVSPost2010Prop34
280
     0
102
RTVSPost2010PropOp34
 70
     1
102
RTVSPost2010Prop35
280
     0
102
RTVSPost2010PropOp35
 70
     1
102
RTVSPost2010Prop36
280
     0
102
RTVSPost2010PropOp36
 70
     1
102
RTVSPost2010Prop37
 90
       50
102
RTVSPost2010PropOp37
 70
     1
102
RTVSPost2010Prop38
140
0.0
102
RTVSPost2010PropOp38
 70
     1
102
RTVSPost2010Prop39
140
1.0
102
RTVSPost2010PropOp39
 70
     1
102
RTVSPost2010Prop40
 90
        0
102
RTVSPost2010PropOp40
 70
     1
102
RTVSPost2010Prop41ColorIndex
 90
       18
102
RTVSPost2010Prop41ColorRGB
 90
        0
102
RTVSPost2010PropOp41
 70
     1
102
RTVSPost2010Prop42
 90
       50
102
RTVSPost2010PropOp42
 70
     1
102
RTVSPost2010Prop43
 90
        3
102
RTVSPost2010PropOp43
 70
     1
102
RTVSPost2010Prop44ColorIndex
 90
        5
102
RTVSPost2010Prop44ColorRGB
 90
      255
102
RTVSPost2010PropOp44
 70
     1
102
RTVSPost2010Prop45
280
     0
102
RTVSPost2010PropOp45
 70
     1
102
RTVSPost2010Prop46
 90
       50
102
RTVSPost2010PropOp46
 70
     1
102
RTVSPost2010Prop47
 90
       50
102
RTVSPost2010PropOp47
 70
     1
102
RTVSPost2010Prop48
 90
       50
102
RTVSPost2010PropOp48
 70
     1
102
RTVSPost2010Prop49
280
     0
102
RTVSPost2010PropOp49
 70
     1
102
RTVSPost2010Prop50
 90
       50
102
RTVSPost2010PropOp50
 70
     1
102
RTVSPost2010Prop51ColorIndex
 90
      256
102
RTVSPost2010Prop51ColorRGB
 90
-16777216
102
RTVSPost2010PropOp51
 70
     0
102
RTVSPost2010Prop52
140
1.0
102
RTVSPost2010PropOp52
 70
     0
102
RTVSPost2010Prop53
 90
        2
102
RTVSPost2010PropOp53
 70
     1
102
RTVSPost2010Prop54
  1
strokes_ogs.tif
102
RTVSPost2010PropOp54
 70
     1
102
RTVSPost2010Prop55
280
     0
102
RTVSPost2010PropOp55
 70
     1
102
RTVSPost2010Prop56
140
1.0
102
RTVSPost2010PropOp56
 70
     1
102
RTVSPost2010Prop57
140
1.0
102
RTVSPost2010PropOp57
 70
     1
  0
XRECORD
  5
1CA46
102
{ACAD_REACTORS
330
1CA45
102
}
330
1CA45
100
AcDbXrecord
280
     1
102
RTVSPost2010Prop28
280
     0
102
RTVSPost2010PropOp28
 70
     0
102
RTVSPost2010Prop29
280
     1
102
RTVSPost2010PropOp29
 70
     0
102
RTVSPost2010Prop30
280
     1
102
RTVSPost2010PropOp30
 70
     0
102
RTVSPost2010Prop31
280
     0
102
RTVSPost2010PropOp31
 70
     0
102
RTVSPost2010Prop32
280
     0
102
RTVSPost2010PropOp32
 70
     0
102
RTVSPost2010Prop33
280
     0
102
RTVSPost2010PropOp33
 70
     0
102
RTVSPost2010Prop34
280
     0
102
RTVSPost2010PropOp34
 70
     0
102
RTVSPost2010Prop35
280
     0
102
RTVSPost2010PropOp35
 70
     0
102
RTVSPost2010Prop36
280
     0
102
RTVSPost2010PropOp36
 70
     0
102
RTVSPost2010Prop37
 90
       50
102
RTVSPost2010PropOp37
 70
     0
102
RTVSPost2010Prop38
140
0.0
102
RTVSPost2010PropOp38
 70
     0
102
RTVSPost2010Prop39
140
1.0
102
RTVSPost2010PropOp39
 70
     0
102
RTVSPost2010Prop40
 90
        0
102
RTVSPost2010PropOp40
 70
     0
102
RTVSPost2010Prop41ColorIndex
 90
       18
102
RTVSPost2010Prop41ColorRGB
 90
        0
102
RTVSPost2010PropOp41
 70
     0
102
RTVSPost2010Prop42
 90
       50
102
RTVSPost2010PropOp42
 70
     0
102
RTVSPost2010Prop43
 90
        3
102
RTVSPost2010PropOp43
 70
     0
102
RTVSPost2010Prop44ColorIndex
 90
        5
102
RTVSPost2010Prop44ColorRGB
 90
      255
102
RTVSPost2010PropOp44
 70
     0
102
RTVSPost2010Prop45
280
     0
102
RTVSPost2010PropOp45
 70
     0
102
RTVSPost2010Prop46
 90
       50
102
RTVSPost2010PropOp46
 70
     0
102
RTVSPost2010Prop47
 90
       50
102
RTVSPost2010PropOp47
 70
     0
102
RTVSPost2010Prop48
 90
       50
102
RTVSPost2010PropOp48
 70
     0
102
RTVSPost2010Prop49
280
     0
102
RTVSPost2010PropOp49
 70
     0
102
RTVSPost2010Prop50
 90
       50
102
RTVSPost2010PropOp50
 70
     0
102
RTVSPost2010Prop51ColorIndex
 90
      256
102
RTVSPost2010Prop51ColorRGB
 90
-16777216
102
RTVSPost2010PropOp51
 70
     0
102
RTVSPost2010Prop52
140
1.0
102
RTVSPost2010PropOp52
 70
     0
102
RTVSPost2010Prop53
 90
        2
102
RTVSPost2010PropOp53
 70
     0
102
RTVSPost2010Prop54
  1
strokes_ogs.tif
102
RTVSPost2010PropOp54
 70
     0
102
RTVSPost2010Prop55
280
     0
102
RTVSPost2010PropOp55
 70
     0
102
RTVSPost2010Prop56
140
1.0
102
RTVSPost2010PropOp56
 70
     0
102
RTVSPost2010Prop57
140
1.0
102
RTVSPost2010PropOp57
 70
     0
  0
XRECORD
  5
1CA36
102
{ACAD_REACTORS
330
1CA35
102
}
330
1CA35
100
AcDbXrecord
280
     1
102
RTVSPost2010Prop28
280
     0
102
RTVSPost2010PropOp28
 70
     1
102
RTVSPost2010Prop29
280
     1
102
RTVSPost2010PropOp29
 70
     1
102
RTVSPost2010Prop30
280
     1
102
RTVSPost2010PropOp30
 70
     1
102
RTVSPost2010Prop31
280
     0
102
RTVSPost2010PropOp31
 70
     1
102
RTVSPost2010Prop32
280
     0
102
RTVSPost2010PropOp32
 70
     1
102
RTVSPost2010Prop33
280
     0
102
RTVSPost2010PropOp33
 70
     1
102
RTVSPost2010Prop34
280
     0
102
RTVSPost2010PropOp34
 70
     1
102
RTVSPost2010Prop35
280
     0
102
RTVSPost2010PropOp35
 70
     1
102
RTVSPost2010Prop36
280
     0
102
RTVSPost2010PropOp36
 70
     1
102
RTVSPost2010Prop37
 90
       50
102
RTVSPost2010PropOp37
 70
     1
102
RTVSPost2010Prop38
140
0.0
102
RTVSPost2010PropOp38
 70
     1
102
RTVSPost2010Prop39
140
1.0
102
RTVSPost2010PropOp39
 70
     1
102
RTVSPost2010Prop40
 90
        0
102
RTVSPost2010PropOp40
 70
     1
102
RTVSPost2010Prop41ColorIndex
 90
       18
102
RTVSPost2010Prop41ColorRGB
 90
        0
102
RTVSPost2010PropOp41
 70
     1
102
RTVSPost2010Prop42
 90
       50
102
RTVSPost2010PropOp42
 70
     1
102
RTVSPost2010Prop43
 90
        3
102
RTVSPost2010PropOp43
 70
     1
102
RTVSPost2010Prop44ColorIndex
 90
        5
102
RTVSPost2010Prop44ColorRGB
 90
      255
102
RTVSPost2010PropOp44
 70
     1
102
RTVSPost2010Prop45
280
     0
102
RTVSPost2010PropOp45
 70
     1
102
RTVSPost2010Prop46
 90
       50
102
RTVSPost2010PropOp46
 70
     1
102
RTVSPost2010Prop47
 90
       50
102
RTVSPost2010PropOp47
 70
     1
102
RTVSPost2010Prop48
 90
       50
102
RTVSPost2010PropOp48
 70
     1
102
RTVSPost2010Prop49
280
     0
102
RTVSPost2010PropOp49
 70
     1
102
RTVSPost2010Prop50
 90
       50
102
RTVSPost2010PropOp50
 70
     1
102
RTVSPost2010Prop51ColorIndex
 90
      256
102
RTVSPost2010Prop51ColorRGB
 90
-16777216
102
RTVSPost2010PropOp51
 70
     0
102
RTVSPost2010Prop52
140
1.0
102
RTVSPost2010PropOp52
 70
     0
102
RTVSPost2010Prop53
 90
        2
102
RTVSPost2010PropOp53
 70
     1
102
RTVSPost2010Prop54
  1
strokes_ogs.tif
102
RTVSPost2010PropOp54
 70
     1
102
RTVSPost2010Prop55
280
     0
102
RTVSPost2010PropOp55
 70
     1
102
RTVSPost2010Prop56
140
1.0
102
RTVSPost2010PropOp56
 70
     1
102
RTVSPost2010Prop57
140
1.0
102
RTVSPost2010PropOp57
 70
     1
  0
XRECORD
  5
1CA48
102
{ACAD_REACTORS
330
1CA47
102
}
330
1CA47
100
AcDbXrecord
280
     1
102
RTVSPost2010Prop28
280
     0
102
RTVSPost2010PropOp28
 70
     0
102
RTVSPost2010Prop29
280
     1
102
RTVSPost2010PropOp29
 70
     0
102
RTVSPost2010Prop30
280
     1
102
RTVSPost2010PropOp30
 70
     0
102
RTVSPost2010Prop31
280
     0
102
RTVSPost2010PropOp31
 70
     0
102
RTVSPost2010Prop32
280
     0
102
RTVSPost2010PropOp32
 70
     0
102
RTVSPost2010Prop33
280
     0
102
RTVSPost2010PropOp33
 70
     0
102
RTVSPost2010Prop34
280
     0
102
RTVSPost2010PropOp34
 70
     0
102
RTVSPost2010Prop35
280
     0
102
RTVSPost2010PropOp35
 70
     0
102
RTVSPost2010Prop36
280
     0
102
RTVSPost2010PropOp36
 70
     0
102
RTVSPost2010Prop37
 90
       50
102
RTVSPost2010PropOp37
 70
     0
102
RTVSPost2010Prop38
140
0.0
102
RTVSPost2010PropOp38
 70
     0
102
RTVSPost2010Prop39
140
1.0
102
RTVSPost2010PropOp39
 70
     0
102
RTVSPost2010Prop40
 90
        0
102
RTVSPost2010PropOp40
 70
     0
102
RTVSPost2010Prop41ColorIndex
 90
       18
102
RTVSPost2010Prop41ColorRGB
 90
        0
102
RTVSPost2010PropOp41
 70
     0
102
RTVSPost2010Prop42
 90
       50
102
RTVSPost2010PropOp42
 70
     0
102
RTVSPost2010Prop43
 90
        3
102
RTVSPost2010PropOp43
 70
     0
102
RTVSPost2010Prop44ColorIndex
 90
        5
102
RTVSPost2010Prop44ColorRGB
 90
      255
102
RTVSPost2010PropOp44
 70
     0
102
RTVSPost2010Prop45
280
     0
102
RTVSPost2010PropOp45
 70
     0
102
RTVSPost2010Prop46
 90
       50
102
RTVSPost2010PropOp46
 70
     0
102
RTVSPost2010Prop47
 90
       50
102
RTVSPost2010PropOp47
 70
     0
102
RTVSPost2010Prop48
 90
       50
102
RTVSPost2010PropOp48
 70
     0
102
RTVSPost2010Prop49
280
     0
102
RTVSPost2010PropOp49
 70
     0
102
RTVSPost2010Prop50
 90
       50
102
RTVSPost2010PropOp50
 70
     0
102
RTVSPost2010Prop51ColorIndex
 90
      256
102
RTVSPost2010Prop51ColorRGB
 90
-16777216
102
RTVSPost2010PropOp51
 70
     0
102
RTVSPost2010Prop52
140
1.0
102
RTVSPost2010PropOp52
 70
     0
102
RTVSPost2010Prop53
 90
        2
102
RTVSPost2010PropOp53
 70
     0
102
RTVSPost2010Prop54
  1
strokes_ogs.tif
102
RTVSPost2010PropOp54
 70
     0
102
RTVSPost2010Prop55
280
     0
102
RTVSPost2010PropOp55
 70
     0
102
RTVSPost2010Prop56
140
1.0
102
RTVSPost2010PropOp56
 70
     0
102
RTVSPost2010Prop57
140
1.0
102
RTVSPost2010PropOp57
 70
     0
  0
XRECORD
  5
1CA2E
102
{ACAD_REACTORS
330
1CA2D
102
}
330
1CA2D
100
AcDbXrecord
280
     1
102
RTVSPost2010Prop28
280
     0
102
RTVSPost2010PropOp28
 70
     1
102
RTVSPost2010Prop29
280
     1
102
RTVSPost2010PropOp29
 70
     1
102
RTVSPost2010Prop30
280
     1
102
RTVSPost2010PropOp30
 70
     1
102
RTVSPost2010Prop31
280
     0
102
RTVSPost2010PropOp31
 70
     1
102
RTVSPost2010Prop32
280
     0
102
RTVSPost2010PropOp32
 70
     1
102
RTVSPost2010Prop33
280
     0
102
RTVSPost2010PropOp33
 70
     1
102
RTVSPost2010Prop34
280
     0
102
RTVSPost2010PropOp34
 70
     1
102
RTVSPost2010Prop35
280
     0
102
RTVSPost2010PropOp35
 70
     1
102
RTVSPost2010Prop36
280
     0
102
RTVSPost2010PropOp36
 70
     1
102
RTVSPost2010Prop37
 90
       50
102
RTVSPost2010PropOp37
 70
     1
102
RTVSPost2010Prop38
140
0.0
102
RTVSPost2010PropOp38
 70
     1
102
RTVSPost2010Prop39
140
1.0
102
RTVSPost2010PropOp39
 70
     1
102
RTVSPost2010Prop40
 90
        0
102
RTVSPost2010PropOp40
 70
     1
102
RTVSPost2010Prop41ColorIndex
 90
       18
102
RTVSPost2010Prop41ColorRGB
 90
        0
102
RTVSPost2010PropOp41
 70
     1
102
RTVSPost2010Prop42
 90
       50
102
RTVSPost2010PropOp42
 70
     1
102
RTVSPost2010Prop43
 90
        3
102
RTVSPost2010PropOp43
 70
     1
102
RTVSPost2010Prop44ColorIndex
 90
        5
102
RTVSPost2010Prop44ColorRGB
 90
      255
102
RTVSPost2010PropOp44
 70
     1
102
RTVSPost2010Prop45
280
     0
102
RTVSPost2010PropOp45
 70
     1
102
RTVSPost2010Prop46
 90
       50
102
RTVSPost2010PropOp46
 70
     1
102
RTVSPost2010Prop47
 90
       50
102
RTVSPost2010PropOp47
 70
     1
102
RTVSPost2010Prop48
 90
       50
102
RTVSPost2010PropOp48
 70
     1
102
RTVSPost2010Prop49
280
     0
102
RTVSPost2010PropOp49
 70
     1
102
RTVSPost2010Prop50
 90
       50
102
RTVSPost2010PropOp50
 70
     1
102
RTVSPost2010Prop51ColorIndex
 90
      256
102
RTVSPost2010Prop51ColorRGB
 90
-16777216
102
RTVSPost2010PropOp51
 70
     0
102
RTVSPost2010Prop52
140
1.0
102
RTVSPost2010PropOp52
 70
     0
102
RTVSPost2010Prop53
 90
        2
102
RTVSPost2010PropOp53
 70
     1
102
RTVSPost2010Prop54
  1
strokes_ogs.tif
102
RTVSPost2010PropOp54
 70
     1
102
RTVSPost2010Prop55
280
     0
102
RTVSPost2010PropOp55
 70
     1
102
RTVSPost2010Prop56
140
1.0
102
RTVSPost2010PropOp56
 70
     1
102
RTVSPost2010Prop57
140
1.0
102
RTVSPost2010PropOp57
 70
     1
  0
XRECORD
  5
1CA44
102
{ACAD_REACTORS
330
1CA43
102
}
330
1CA43
100
AcDbXrecord
280
     1
102
RTVSPost2010Prop28
280
     0
102
RTVSPost2010PropOp28
 70
     1
102
RTVSPost2010Prop29
280
     1
102
RTVSPost2010PropOp29
 70
     1
102
RTVSPost2010Prop30
280
     1
102
RTVSPost2010PropOp30
 70
     1
102
RTVSPost2010Prop31
280
     0
102
RTVSPost2010PropOp31
 70
     1
102
RTVSPost2010Prop32
280
     0
102
RTVSPost2010PropOp32
 70
     1
102
RTVSPost2010Prop33
280
     0
102
RTVSPost2010PropOp33
 70
     1
102
RTVSPost2010Prop34
280
     0
102
RTVSPost2010PropOp34
 70
     1
102
RTVSPost2010Prop35
280
     0
102
RTVSPost2010PropOp35
 70
     1
102
RTVSPost2010Prop36
280
     0
102
RTVSPost2010PropOp36
 70
     1
102
RTVSPost2010Prop37
 90
       50
102
RTVSPost2010PropOp37
 70
     1
102
RTVSPost2010Prop38
140
0.0
102
RTVSPost2010PropOp38
 70
     1
102
RTVSPost2010Prop39
140
1.0
102
RTVSPost2010PropOp39
 70
     1
102
RTVSPost2010Prop40
 90
        0
102
RTVSPost2010PropOp40
 70
     1
102
RTVSPost2010Prop41ColorIndex
 90
       18
102
RTVSPost2010Prop41ColorRGB
 90
        0
102
RTVSPost2010PropOp41
 70
     1
102
RTVSPost2010Prop42
 90
       50
102
RTVSPost2010PropOp42
 70
     1
102
RTVSPost2010Prop43
 90
        3
102
RTVSPost2010PropOp43
 70
     1
102
RTVSPost2010Prop44ColorIndex
 90
        5
102
RTVSPost2010Prop44ColorRGB
 90
      255
102
RTVSPost2010PropOp44
 70
     1
102
RTVSPost2010Prop45
280
     0
102
RTVSPost2010PropOp45
 70
     1
102
RTVSPost2010Prop46
 90
       50
102
RTVSPost2010PropOp46
 70
     1
102
RTVSPost2010Prop47
 90
       50
102
RTVSPost2010PropOp47
 70
     1
102
RTVSPost2010Prop48
 90
       50
102
RTVSPost2010PropOp48
 70
     1
102
RTVSPost2010Prop49
280
     0
102
RTVSPost2010PropOp49
 70
     1
102
RTVSPost2010Prop50
 90
       50
102
RTVSPost2010PropOp50
 70
     1
102
RTVSPost2010Prop51ColorIndex
 90
      256
102
RTVSPost2010Prop51ColorRGB
 90
-16777216
102
RTVSPost2010PropOp51
 70
     0
102
RTVSPost2010Prop52
140
1.0
102
RTVSPost2010PropOp52
 70
     0
102
RTVSPost2010Prop53
 90
        2
102
RTVSPost2010PropOp53
 70
     1
102
RTVSPost2010Prop54
  1
strokes_ogs.tif
102
RTVSPost2010PropOp54
 70
     1
102
RTVSPost2010Prop55
280
     0
102
RTVSPost2010PropOp55
 70
     1
102
RTVSPost2010Prop56
140
1.0
102
RTVSPost2010PropOp56
 70
     1
102
RTVSPost2010Prop57
140
1.0
102
RTVSPost2010PropOp57
 70
     1
  0
XRECORD
  5
1CA42
102
{ACAD_REACTORS
330
1CA41
102
}
330
1CA41
100
AcDbXrecord
280
     1
102
RTVSPost2010Prop28
280
     0
102
RTVSPost2010PropOp28
 70
     1
102
RTVSPost2010Prop29
280
     1
102
RTVSPost2010PropOp29
 70
     1
102
RTVSPost2010Prop30
280
     1
102
RTVSPost2010PropOp30
 70
     1
102
RTVSPost2010Prop31
280
     0
102
RTVSPost2010PropOp31
 70
     1
102
RTVSPost2010Prop32
280
     0
102
RTVSPost2010PropOp32
 70
     1
102
RTVSPost2010Prop33
280
     0
102
RTVSPost2010PropOp33
 70
     1
102
RTVSPost2010Prop34
280
     0
102
RTVSPost2010PropOp34
 70
     1
102
RTVSPost2010Prop35
280
     0
102
RTVSPost2010PropOp35
 70
     1
102
RTVSPost2010Prop36
280
     0
102
RTVSPost2010PropOp36
 70
     1
102
RTVSPost2010Prop37
 90
       50
102
RTVSPost2010PropOp37
 70
     1
102
RTVSPost2010Prop38
140
0.0
102
RTVSPost2010PropOp38
 70
     1
102
RTVSPost2010Prop39
140
1.0
102
RTVSPost2010PropOp39
 70
     1
102
RTVSPost2010Prop40
 90
        0
102
RTVSPost2010PropOp40
 70
     1
102
RTVSPost2010Prop41ColorIndex
 90
       18
102
RTVSPost2010Prop41ColorRGB
 90
        0
102
RTVSPost2010PropOp41
 70
     1
102
RTVSPost2010Prop42
 90
       50
102
RTVSPost2010PropOp42
 70
     1
102
RTVSPost2010Prop43
 90
        3
102
RTVSPost2010PropOp43
 70
     1
102
RTVSPost2010Prop44ColorIndex
 90
        5
102
RTVSPost2010Prop44ColorRGB
 90
      255
102
RTVSPost2010PropOp44
 70
     1
102
RTVSPost2010Prop45
280
     0
102
RTVSPost2010PropOp45
 70
     1
102
RTVSPost2010Prop46
 90
       50
102
RTVSPost2010PropOp46
 70
     1
102
RTVSPost2010Prop47
 90
       50
102
RTVSPost2010PropOp47
 70
     1
102
RTVSPost2010Prop48
 90
       50
102
RTVSPost2010PropOp48
 70
     1
102
RTVSPost2010Prop49
280
     0
102
RTVSPost2010PropOp49
 70
     1
102
RTVSPost2010Prop50
 90
       50
102
RTVSPost2010PropOp50
 70
     1
102
RTVSPost2010Prop51ColorIndex
 90
      256
102
RTVSPost2010Prop51ColorRGB
 90
-16777216
102
RTVSPost2010PropOp51
 70
     0
102
RTVSPost2010Prop52
140
1.0
102
RTVSPost2010PropOp52
 70
     0
102
RTVSPost2010Prop53
 90
        2
102
RTVSPost2010PropOp53
 70
     1
102
RTVSPost2010Prop54
  1
strokes_ogs.tif
102
RTVSPost2010PropOp54
 70
     1
102
RTVSPost2010Prop55
280
     0
102
RTVSPost2010PropOp55
 70
     1
102
RTVSPost2010Prop56
140
1.0
102
RTVSPost2010PropOp56
 70
     1
102
RTVSPost2010Prop57
140
1.0
102
RTVSPost2010PropOp57
 70
     1
  0
XRECORD
  5
1CA3C
102
{ACAD_REACTORS
330
1CA3B
102
}
330
1CA3B
100
AcDbXrecord
280
     1
102
RTVSPost2010Prop28
280
     0
102
RTVSPost2010PropOp28
 70
     1
102
RTVSPost2010Prop29
280
     1
102
RTVSPost2010PropOp29
 70
     1
102
RTVSPost2010Prop30
280
     1
102
RTVSPost2010PropOp30
 70
     1
102
RTVSPost2010Prop31
280
     0
102
RTVSPost2010PropOp31
 70
     1
102
RTVSPost2010Prop32
280
     0
102
RTVSPost2010PropOp32
 70
     1
102
RTVSPost2010Prop33
280
     0
102
RTVSPost2010PropOp33
 70
     1
102
RTVSPost2010Prop34
280
     0
102
RTVSPost2010PropOp34
 70
     1
102
RTVSPost2010Prop35
280
     0
102
RTVSPost2010PropOp35
 70
     1
102
RTVSPost2010Prop36
280
     0
102
RTVSPost2010PropOp36
 70
     1
102
RTVSPost2010Prop37
 90
       50
102
RTVSPost2010PropOp37
 70
     1
102
RTVSPost2010Prop38
140
0.0
102
RTVSPost2010PropOp38
 70
     1
102
RTVSPost2010Prop39
140
1.0
102
RTVSPost2010PropOp39
 70
     1
102
RTVSPost2010Prop40
 90
        0
102
RTVSPost2010PropOp40
 70
     1
102
RTVSPost2010Prop41ColorIndex
 90
       18
102
RTVSPost2010Prop41ColorRGB
 90
        0
102
RTVSPost2010PropOp41
 70
     1
102
RTVSPost2010Prop42
 90
       50
102
RTVSPost2010PropOp42
 70
     1
102
RTVSPost2010Prop43
 90
        3
102
RTVSPost2010PropOp43
 70
     1
102
RTVSPost2010Prop44ColorIndex
 90
        5
102
RTVSPost2010Prop44ColorRGB
 90
      255
102
RTVSPost2010PropOp44
 70
     1
102
RTVSPost2010Prop45
280
     0
102
RTVSPost2010PropOp45
 70
     1
102
RTVSPost2010Prop46
 90
       50
102
RTVSPost2010PropOp46
 70
     1
102
RTVSPost2010Prop47
 90
       50
102
RTVSPost2010PropOp47
 70
     1
102
RTVSPost2010Prop48
 90
       50
102
RTVSPost2010PropOp48
 70
     1
102
RTVSPost2010Prop49
280
     0
102
RTVSPost2010PropOp49
 70
     1
102
RTVSPost2010Prop50
 90
       50
102
RTVSPost2010PropOp50
 70
     1
102
RTVSPost2010Prop51ColorIndex
 90
      256
102
RTVSPost2010Prop51ColorRGB
 90
-16777216
102
RTVSPost2010PropOp51
 70
     0
102
RTVSPost2010Prop52
140
1.0
102
RTVSPost2010PropOp52
 70
     0
102
RTVSPost2010Prop53
 90
        2
102
RTVSPost2010PropOp53
 70
     1
102
RTVSPost2010Prop54
  1
strokes_ogs.tif
102
RTVSPost2010PropOp54
 70
     1
102
RTVSPost2010Prop55
280
     0
102
RTVSPost2010PropOp55
 70
     1
102
RTVSPost2010Prop56
140
1.0
102
RTVSPost2010PropOp56
 70
     1
102
RTVSPost2010Prop57
140
1.0
102
RTVSPost2010PropOp57
 70
     1
  0
XRECORD
  5
1CA3E
102
{ACAD_REACTORS
330
1CA3D
102
}
330
1CA3D
100
AcDbXrecord
280
     1
102
RTVSPost2010Prop28
280
     0
102
RTVSPost2010PropOp28
 70
     1
102
RTVSPost2010Prop29
280
     1
102
RTVSPost2010PropOp29
 70
     1
102
RTVSPost2010Prop30
280
     1
102
RTVSPost2010PropOp30
 70
     1
102
RTVSPost2010Prop31
280
     0
102
RTVSPost2010PropOp31
 70
     1
102
RTVSPost2010Prop32
280
     0
102
RTVSPost2010PropOp32
 70
     1
102
RTVSPost2010Prop33
280
     0
102
RTVSPost2010PropOp33
 70
     1
102
RTVSPost2010Prop34
280
     0
102
RTVSPost2010PropOp34
 70
     1
102
RTVSPost2010Prop35
280
     0
102
RTVSPost2010PropOp35
 70
     1
102
RTVSPost2010Prop36
280
     0
102
RTVSPost2010PropOp36
 70
     1
102
RTVSPost2010Prop37
 90
       50
102
RTVSPost2010PropOp37
 70
     1
102
RTVSPost2010Prop38
140
0.0
102
RTVSPost2010PropOp38
 70
     1
102
RTVSPost2010Prop39
140
1.0
102
RTVSPost2010PropOp39
 70
     1
102
RTVSPost2010Prop40
 90
        0
102
RTVSPost2010PropOp40
 70
     1
102
RTVSPost2010Prop41ColorIndex
 90
       18
102
RTVSPost2010Prop41ColorRGB
 90
        0
102
RTVSPost2010PropOp41
 70
     1
102
RTVSPost2010Prop42
 90
       50
102
RTVSPost2010PropOp42
 70
     1
102
RTVSPost2010Prop43
 90
        3
102
RTVSPost2010PropOp43
 70
     1
102
RTVSPost2010Prop44ColorIndex
 90
        5
102
RTVSPost2010Prop44ColorRGB
 90
      255
102
RTVSPost2010PropOp44
 70
     1
102
RTVSPost2010Prop45
280
     0
102
RTVSPost2010PropOp45
 70
     1
102
RTVSPost2010Prop46
 90
       50
102
RTVSPost2010PropOp46
 70
     1
102
RTVSPost2010Prop47
 90
       50
102
RTVSPost2010PropOp47
 70
     1
102
RTVSPost2010Prop48
 90
       50
102
RTVSPost2010PropOp48
 70
     1
102
RTVSPost2010Prop49
280
     0
102
RTVSPost2010PropOp49
 70
     1
102
RTVSPost2010Prop50
 90
       50
102
RTVSPost2010PropOp50
 70
     1
102
RTVSPost2010Prop51ColorIndex
 90
      256
102
RTVSPost2010Prop51ColorRGB
 90
-16777216
102
RTVSPost2010PropOp51
 70
     0
102
RTVSPost2010Prop52
140
1.0
102
RTVSPost2010PropOp52
 70
     0
102
RTVSPost2010Prop53
 90
        2
102
RTVSPost2010PropOp53
 70
     1
102
RTVSPost2010Prop54
  1
strokes_ogs.tif
102
RTVSPost2010PropOp54
 70
     1
102
RTVSPost2010Prop55
280
     0
102
RTVSPost2010PropOp55
 70
     1
102
RTVSPost2010Prop56
140
1.0
102
RTVSPost2010PropOp56
 70
     1
102
RTVSPost2010Prop57
140
1.0
102
RTVSPost2010PropOp57
 70
     1
  0
XRECORD
  5
1CA34
102
{ACAD_REACTORS
330
1CA33
102
}
330
1CA33
100
AcDbXrecord
280
     1
102
RTVSPost2010Prop28
280
     0
102
RTVSPost2010PropOp28
 70
     1
102
RTVSPost2010Prop29
280
     1
102
RTVSPost2010PropOp29
 70
     1
102
RTVSPost2010Prop30
280
     1
102
RTVSPost2010PropOp30
 70
     1
102
RTVSPost2010Prop31
280
     0
102
RTVSPost2010PropOp31
 70
     1
102
RTVSPost2010Prop32
280
     0
102
RTVSPost2010PropOp32
 70
     1
102
RTVSPost2010Prop33
280
     0
102
RTVSPost2010PropOp33
 70
     1
102
RTVSPost2010Prop34
280
     0
102
RTVSPost2010PropOp34
 70
     1
102
RTVSPost2010Prop35
280
     0
102
RTVSPost2010PropOp35
 70
     1
102
RTVSPost2010Prop36
280
     0
102
RTVSPost2010PropOp36
 70
     1
102
RTVSPost2010Prop37
 90
       50
102
RTVSPost2010PropOp37
 70
     1
102
RTVSPost2010Prop38
140
0.0
102
RTVSPost2010PropOp38
 70
     1
102
RTVSPost2010Prop39
140
1.0
102
RTVSPost2010PropOp39
 70
     1
102
RTVSPost2010Prop40
 90
        0
102
RTVSPost2010PropOp40
 70
     1
102
RTVSPost2010Prop41ColorIndex
 90
       18
102
RTVSPost2010Prop41ColorRGB
 90
        0
102
RTVSPost2010PropOp41
 70
     1
102
RTVSPost2010Prop42
 90
       50
102
RTVSPost2010PropOp42
 70
     1
102
RTVSPost2010Prop43
 90
        3
102
RTVSPost2010PropOp43
 70
     1
102
RTVSPost2010Prop44ColorIndex
 90
        5
102
RTVSPost2010Prop44ColorRGB
 90
      255
102
RTVSPost2010PropOp44
 70
     1
102
RTVSPost2010Prop45
280
     0
102
RTVSPost2010PropOp45
 70
     1
102
RTVSPost2010Prop46
 90
       50
102
RTVSPost2010PropOp46
 70
     1
102
RTVSPost2010Prop47
 90
       50
102
RTVSPost2010PropOp47
 70
     1
102
RTVSPost2010Prop48
 90
       50
102
RTVSPost2010PropOp48
 70
     1
102
RTVSPost2010Prop49
280
     0
102
RTVSPost2010PropOp49
 70
     1
102
RTVSPost2010Prop50
 90
       50
102
RTVSPost2010PropOp50
 70
     1
102
RTVSPost2010Prop51ColorIndex
 90
      256
102
RTVSPost2010Prop51ColorRGB
 90
-16777216
102
RTVSPost2010PropOp51
 70
     0
102
RTVSPost2010Prop52
140
1.0
102
RTVSPost2010PropOp52
 70
     0
102
RTVSPost2010Prop53
 90
        2
102
RTVSPost2010PropOp53
 70
     1
102
RTVSPost2010Prop54
  1
strokes_ogs.tif
102
RTVSPost2010PropOp54
 70
     1
102
RTVSPost2010Prop55
280
     0
102
RTVSPost2010PropOp55
 70
     1
102
RTVSPost2010Prop56
140
1.0
102
RTVSPost2010PropOp56
 70
     1
102
RTVSPost2010Prop57
140
1.0
102
RTVSPost2010PropOp57
 70
     1
  0
XRECORD
  5
1CA28
102
{ACAD_REACTORS
330
1CA27
102
}
330
1CA27
100
AcDbXrecord
280
     1
102
RTVSPost2010Prop28
280
     0
102
RTVSPost2010PropOp28
 70
     1
102
RTVSPost2010Prop29
280
     1
102
RTVSPost2010PropOp29
 70
     1
102
RTVSPost2010Prop30
280
     1
102
RTVSPost2010PropOp30
 70
     1
102
RTVSPost2010Prop31
280
     0
102
RTVSPost2010PropOp31
 70
     1
102
RTVSPost2010Prop32
280
     0
102
RTVSPost2010PropOp32
 70
     1
102
RTVSPost2010Prop33
280
     0
102
RTVSPost2010PropOp33
 70
     1
102
RTVSPost2010Prop34
280
     0
102
RTVSPost2010PropOp34
 70
     1
102
RTVSPost2010Prop35
280
     0
102
RTVSPost2010PropOp35
 70
     1
102
RTVSPost2010Prop36
280
     0
102
RTVSPost2010PropOp36
 70
     1
102
RTVSPost2010Prop37
 90
       50
102
RTVSPost2010PropOp37
 70
     1
102
RTVSPost2010Prop38
140
0.0
102
RTVSPost2010PropOp38
 70
     1
102
RTVSPost2010Prop39
140
1.0
102
RTVSPost2010PropOp39
 70
     1
102
RTVSPost2010Prop40
 90
        0
102
RTVSPost2010PropOp40
 70
     1
102
RTVSPost2010Prop41ColorIndex
 90
       18
102
RTVSPost2010Prop41ColorRGB
 90
        0
102
RTVSPost2010PropOp41
 70
     1
102
RTVSPost2010Prop42
 90
       50
102
RTVSPost2010PropOp42
 70
     1
102
RTVSPost2010Prop43
 90
        3
102
RTVSPost2010PropOp43
 70
     1
102
RTVSPost2010Prop44ColorIndex
 90
        5
102
RTVSPost2010Prop44ColorRGB
 90
      255
102
RTVSPost2010PropOp44
 70
     1
102
RTVSPost2010Prop45
280
     0
102
RTVSPost2010PropOp45
 70
     1
102
RTVSPost2010Prop46
 90
       50
102
RTVSPost2010PropOp46
 70
     1
102
RTVSPost2010Prop47
 90
       50
102
RTVSPost2010PropOp47
 70
     1
102
RTVSPost2010Prop48
 90
       50
102
RTVSPost2010PropOp48
 70
     1
102
RTVSPost2010Prop49
280
     0
102
RTVSPost2010PropOp49
 70
     1
102
RTVSPost2010Prop50
 90
       50
102
RTVSPost2010PropOp50
 70
     1
102
RTVSPost2010Prop51ColorIndex
 90
      256
102
RTVSPost2010Prop51ColorRGB
 90
-16777216
102
RTVSPost2010PropOp51
 70
     0
102
RTVSPost2010Prop52
140
1.0
102
RTVSPost2010PropOp52
 70
     0
102
RTVSPost2010Prop53
 90
        2
102
RTVSPost2010PropOp53
 70
     1
102
RTVSPost2010Prop54
  1
strokes_ogs.tif
102
RTVSPost2010PropOp54
 70
     1
102
RTVSPost2010Prop55
280
     0
102
RTVSPost2010PropOp55
 70
     1
102
RTVSPost2010Prop56
140
1.0
102
RTVSPost2010PropOp56
 70
     1
102
RTVSPost2010Prop57
140
1.0
102
RTVSPost2010PropOp57
 70
     1
  0
XRECORD
  5
1CA40
102
{ACAD_REACTORS
330
1CA3F
102
}
330
1CA3F
100
AcDbXrecord
280
     1
102
RTVSPost2010Prop28
280
     0
102
RTVSPost2010PropOp28
 70
     1
102
RTVSPost2010Prop29
280
     1
102
RTVSPost2010PropOp29
 70
     1
102
RTVSPost2010Prop30
280
     1
102
RTVSPost2010PropOp30
 70
     1
102
RTVSPost2010Prop31
280
     0
102
RTVSPost2010PropOp31
 70
     1
102
RTVSPost2010Prop32
280
     0
102
RTVSPost2010PropOp32
 70
     1
102
RTVSPost2010Prop33
280
     0
102
RTVSPost2010PropOp33
 70
     1
102
RTVSPost2010Prop34
280
     0
102
RTVSPost2010PropOp34
 70
     1
102
RTVSPost2010Prop35
280
     0
102
RTVSPost2010PropOp35
 70
     1
102
RTVSPost2010Prop36
280
     0
102
RTVSPost2010PropOp36
 70
     1
102
RTVSPost2010Prop37
 90
       50
102
RTVSPost2010PropOp37
 70
     1
102
RTVSPost2010Prop38
140
0.0
102
RTVSPost2010PropOp38
 70
     1
102
RTVSPost2010Prop39
140
1.0
102
RTVSPost2010PropOp39
 70
     1
102
RTVSPost2010Prop40
 90
        0
102
RTVSPost2010PropOp40
 70
     1
102
RTVSPost2010Prop41ColorIndex
 90
       18
102
RTVSPost2010Prop41ColorRGB
 90
        0
102
RTVSPost2010PropOp41
 70
     1
102
RTVSPost2010Prop42
 90
       50
102
RTVSPost2010PropOp42
 70
     1
102
RTVSPost2010Prop43
 90
        3
102
RTVSPost2010PropOp43
 70
     1
102
RTVSPost2010Prop44ColorIndex
 90
        5
102
RTVSPost2010Prop44ColorRGB
 90
      255
102
RTVSPost2010PropOp44
 70
     1
102
RTVSPost2010Prop45
280
     0
102
RTVSPost2010PropOp45
 70
     1
102
RTVSPost2010Prop46
 90
       50
102
RTVSPost2010PropOp46
 70
     1
102
RTVSPost2010Prop47
 90
       50
102
RTVSPost2010PropOp47
 70
     1
102
RTVSPost2010Prop48
 90
       50
102
RTVSPost2010PropOp48
 70
     1
102
RTVSPost2010Prop49
280
     0
102
RTVSPost2010PropOp49
 70
     1
102
RTVSPost2010Prop50
 90
       50
102
RTVSPost2010PropOp50
 70
     1
102
RTVSPost2010Prop51ColorIndex
 90
      256
102
RTVSPost2010Prop51ColorRGB
 90
-16777216
102
RTVSPost2010PropOp51
 70
     0
102
RTVSPost2010Prop52
140
1.0
102
RTVSPost2010PropOp52
 70
     0
102
RTVSPost2010Prop53
 90
        2
102
RTVSPost2010PropOp53
 70
     1
102
RTVSPost2010Prop54
  1
strokes_ogs.tif
102
RTVSPost2010PropOp54
 70
     1
102
RTVSPost2010Prop55
280
     0
102
RTVSPost2010PropOp55
 70
     1
102
RTVSPost2010Prop56
140
1.0
102
RTVSPost2010PropOp56
 70
     1
102
RTVSPost2010Prop57
140
1.0
102
RTVSPost2010PropOp57
 70
     1
  0
ENDSEC
  0
EOF
