  0
SECTION
  2
HEADER
  9
$ACADVER
  1
AC1018
  9
$ACADMAINTVER
 70
   104
  9
$DWGCODEPAGE
  3
ANSI_932
  9
$LASTSAVEDBY
  1
0803015
  9
$INSBASE
 10
0.0
 20
0.0
 30
0.0
  9
$EXTMIN
 10
-1.96261317
 20
-1.22064724
 30
-0.00000003
  9
$EXTMAX
 10
27501.51622514
 20
20001.22083351
 30
0.00000008
  9
$LIMMIN
 10
0.0
 20
0.0
  9
$LIMMAX
 10
1189.0
 20
841.0
  9
$ORTHOMODE
 70
     1
  9
$REGENMODE
 70
     1
  9
$FILLMODE
 70
     1
  9
$QTEXTMODE
 70
     0
  9
$MIRRTEXT
 70
     0
  9
$LTSCALE
 40
1.0
  9
$ATTMODE
 70
     1
  9
$TEXTSIZE
 40
0.2
  9
$TRACEWID
 40
0.05
  9
$TEXTSTYLE
  7
STANDARD
  9
$CLAYER
  8
0
  9
$CELTYPE
  6
ByLayer
  9
$CECOLOR
 62
   256
  9
$CELTSCALE
 40
1.0
  9
$DISPSILH
 70
     1
  9
$DIMSCALE
 40
1.0
  9
$DIMASZ
 40
1.5
  9
$DIMEXO
 40
1.5
  9
$DIMDLI
 40
10.0
  9
$DIMRND
 40
0.0
  9
$DIMDLE
 40
0.0
  9
$DIMEXE
 40
0.5
  9
$DIMTP
 40
0.0
  9
$DIMTM
 40
0.0
  9
$DIMTXT
 40
4.35000038
  9
$DIMCEN
 40
0.09
  9
$DIMTSZ
 40
0.0
  9
$DIMTOL
 70
     0
  9
$DIMLIM
 70
     0
  9
$DIMTIH
 70
     0
  9
$DIMTOH
 70
     0
  9
$DIMSE1
 70
     0
  9
$DIMSE2
 70
     0
  9
$DIMTAD
 70
     3
  9
$DIMZIN
 70
     8
  9
$DIMBLK
  1

  9
$DIMASO
 70
     1
  9
$DIMSHO
 70
     1
  9
$DIMPOST
  1

  9
$DIMAPOST
  1

  9
$DIMALT
 70
     0
  9
$DIMALTD
 70
     2
  9
$DIMALTF
 40
0.03937008
  9
$DIMLFAC
 40
1.0
  9
$DIMTOFL
 70
     0
  9
$DIMTVP
 40
0.0
  9
$DIMTIX
 70
     0
  9
$DIMSOXD
 70
     0
  9
$DIMSAH
 70
     1
  9
$DIMBLK1
  1

  9
$DIMBLK2
  1

  9
$DIMSTYLE
  2
STANDARD
  9
$DIMCLRD
 70
     0
  9
$DIMCLRE
 70
     0
  9
$DIMCLRT
 70
     0
  9
$DIMTFAC
 40
1.0
  9
$DIMGAP
 40
0.89999998
  9
$DIMJUST
 70
     0
  9
$DIMSD1
 70
     0
  9
$DIMSD2
 70
     0
  9
$DIMTOLJ
 70
     1
  9
$DIMTZIN
 70
     0
  9
$DIMALTZ
 70
     0
  9
$DIMALTTZ
 70
     0
  9
$DIMUPT
 70
     0
  9
$DIMDEC
 70
     4
  9
$DIMTDEC
 70
     4
  9
$DIMALTU
 70
     2
  9
$DIMALTTD
 70
     4
  9
$DIMTXSTY
  7
STANDARD
  9
$DIMAUNIT
 70
     0
  9
$DIMADEC
 70
     0
  9
$DIMALTRND
 40
0.0
  9
$DIMAZIN
 70
     0
  9
$DIMDSEP
 70
    46
  9
$DIMATFIT
 70
     3
  9
$DIMFRAC
 70
     0
  9
$DIMLDRBLK
  1

  9
$DIMLUNIT
 70
     2
  9
$DIMLWD
 70
    -2
  9
$DIMLWE
 70
    -2
  9
$DIMTMOVE
 70
     2
  9
$LUNITS
 70
     2
  9
$LUPREC
 70
     4
  9
$SKETCHINC
 40
0.1
  9
$FILLETRAD
 40
0.0
  9
$AUNITS
 70
     0
  9
$AUPREC
 70
     0
  9
$MENU
  1
ACAD
  9
$ELEVATION
 40
0.0
  9
$PELEVATION
 40
0.0
  9
$THICKNESS
 40
0.0
  9
$LIMCHECK
 70
     0
  9
$CHAMFERA
 40
0.0
  9
$CHAMFERB
 40
0.0
  9
$CHAMFERC
 40
0.0
  9
$CHAMFERD
 40
0.0
  9
$SKPOLY
 70
     0
  9
$TDCREATE
 40
2456304.688229167
  9
$TDUCREATE
 40
2456304.313232558
  9
$TDUPDATE
 40
2459482.654398148
  9
$TDUUPDATE
 40
2459482.279398148
  9
$TDINDWG
 40
1.6792325694
  9
$TDUSRTIMER
 40
1.6792325694
  9
$USRTIMER
 70
     1
  9
$ANGBASE
 50
0.0
  9
$ANGDIR
 70
     0
  9
$PDMODE
 70
     0
  9
$PDSIZE
 40
0.0
  9
$PLINEWID
 40
0.0
  9
$SPLFRAME
 70
     0
  9
$SPLINETYPE
 70
     6
  9
$SPLINESEGS
 70
     8
  9
$HANDSEED
  5
1F333
  9
$SURFTAB1
 70
     6
  9
$SURFTAB2
 70
     6
  9
$SURFTYPE
 70
     6
  9
$SURFU
 70
     6
  9
$SURFV
 70
     6
  9
$UCSBASE
  2

  9
$UCSNAME
  2

  9
$UCSORG
 10
0.0
 20
0.0
 30
0.0
  9
$UCSXDIR
 10
1.0
 20
0.0
 30
0.0
  9
$UCSYDIR
 10
0.0
 20
1.0
 30
0.0
  9
$UCSORTHOREF
  2

  9
$UCSORTHOVIEW
 70
     0
  9
$UCSORGTOP
 10
0.0
 20
0.0
 30
0.0
  9
$UCSORGBOTTOM
 10
0.0
 20
0.0
 30
0.0
  9
$UCSORGLEFT
 10
0.0
 20
0.0
 30
0.0
  9
$UCSORGRIGHT
 10
0.0
 20
0.0
 30
0.0
  9
$UCSORGFRONT
 10
0.0
 20
0.0
 30
0.0
  9
$UCSORGBACK
 10
0.0
 20
0.0
 30
0.0
  9
$PUCSBASE
  2

  9
$PUCSNAME
  2

  9
$PUCSORG
 10
0.0
 20
0.0
 30
0.0
  9
$PUCSXDIR
 10
1.0
 20
0.0
 30
0.0
  9
$PUCSYDIR
 10
0.0
 20
1.0
 30
0.0
  9
$PUCSORTHOREF
  2

  9
$PUCSORTHOVIEW
 70
     0
  9
$PUCSORGTOP
 10
0.0
 20
0.0
 30
0.0
  9
$PUCSORGBOTTOM
 10
0.0
 20
0.0
 30
0.0
  9
$PUCSORGLEFT
 10
0.0
 20
0.0
 30
0.0
  9
$PUCSORGRIGHT
 10
0.0
 20
0.0
 30
0.0
  9
$PUCSORGFRONT
 10
0.0
 20
0.0
 30
0.0
  9
$PUCSORGBACK
 10
0.0
 20
0.0
 30
0.0
  9
$USERI1
 70
     0
  9
$USERI2
 70
     0
  9
$USERI3
 70
     0
  9
$USERI4
 70
     0
  9
$USERI5
 70
     0
  9
$USERR1
 40
0.0
  9
$USERR2
 40
0.0
  9
$USERR3
 40
0.0
  9
$USERR4
 40
0.0
  9
$USERR5
 40
0.0
  9
$WORLDVIEW
 70
     1
  9
$SHADEDGE
 70
     3
  9
$SHADEDIF
 70
    70
  9
$TILEMODE
 70
     1
  9
$MAXACTVP
 70
    48
  9
$PINSBASE
 10
0.0
 20
0.0
 30
0.0
  9
$PLIMCHECK
 70
     0
  9
$PEXTMIN
 10
1.00000000E+20
 20
1.00000000E+20
 30
1.00000000E+20
  9
$PEXTMAX
 10
-1.00000000E+20
 20
-1.00000000E+20
 30
-1.00000000E+20
  9
$PLIMMIN
 10
0.0
 20
0.0
  9
$PLIMMAX
 10
420.0
 20
297.0
  9
$UNITMODE
 70
     0
  9
$VISRETAIN
 70
     1
  9
$PLINEGEN
 70
     0
  9
$PSLTSCALE
 70
     1
  9
$TREEDEPTH
 70
  3020
  9
$CMLSTYLE
  2
Standard
  9
$CMLJUST
 70
     0
  9
$CMLSCALE
 40
1.0
  9
$PROXYGRAPHICS
 70
     1
  9
$MEASUREMENT
 70
     1
  9
$CELWEIGHT
370
    -1
  9
$ENDCAPS
280
     0
  9
$JOINSTYLE
280
     0
  9
$LWDISPLAY
290
     0
  9
$INSUNITS
 70
     0
  9
$HYPERLINKBASE
  1

  9
$STYLESHEET
  1

  9
$XEDIT
290
     1
  9
$CEPSNTYPE
380
     0
  9
$PSTYLEMODE
290
     1
  9
$FINGERPRINTGUID
  2
{B0AB752B-EF01-4444-B181-1B874317DB65}
  9
$VERSIONGUID
  2
{EBB2C9ED-FF5C-7243-9429-CF77AFBD390A}
  9
$EXTNAMES
290
     1
  9
$PSVPSCALE
 40
0.0
  9
$OLESTARTUP
290
     0
  9
$SORTENTS
280
   127
  9
$INDEXCTL
280
     0
  9
$HIDETEXT
280
     1
  9
$XCLIPFRAME
290
     0
  9
$HALOGAP
280
     0
  9
$OBSCOLOR
 70
   257
  9
$OBSLTYPE
280
     0
  9
$INTERSECTIONDISPLAY
280
     0
  9
$INTERSECTIONCOLOR
 70
   257
  9
$DIMASSOC
280
     2
  9
$PROJECTNAME
  1

  0
ENDSEC
  0
SECTION
  2
CLASSES
  0
CLASS
  1
ACDBDICTIONARYWDFLT
  2
AcDbDictionaryWithDefault
  3
ObjectDBX Classes
 90
        0
 91
        1
280
     0
281
     0
  0
CLASS
  1
MATERIAL
  2
AcDbMaterial
  3
ObjectDBX Classes
 90
     1153
 91
        3
280
     0
281
     0
  0
CLASS
  1
VISUALSTYLE
  2
AcDbVisualStyle
  3
ObjectDBX Classes
 90
     4095
 91
       24
280
     0
281
     0
  0
CLASS
  1
SCALE
  2
AcDbScale
  3
ObjectDBX Classes
 90
     1153
 91
       17
280
     0
281
     0
  0
CLASS
  1
TABLESTYLE
  2
AcDbTableStyle
  3
ObjectDBX Classes
 90
     4095
 91
        1
280
     0
281
     0
  0
CLASS
  1
MLEADERSTYLE
  2
AcDbMLeaderStyle
  3
ACDB_MLEADERSTYLE_CLASS
 90
     4095
 91
        1
280
     0
281
     0
  0
CLASS
  1
ACDBSECTIONVIEWSTYLE
  2
AcDbSectionViewStyle
  3
ObjectDBX Classes
 90
     1025
 91
        2
280
     0
281
     0
  0
CLASS
  1
ACDBDETAILVIEWSTYLE
  2
AcDbDetailViewStyle
  3
ObjectDBX Classes
 90
     1025
 91
        2
280
     0
281
     0
  0
CLASS
  1
CELLSTYLEMAP
  2
AcDbCellStyleMap
  3
ObjectDBX Classes
 90
     1152
 91
        2
280
     0
281
     0
  0
CLASS
  1
DICTIONARYVAR
  2
AcDbDictionaryVar
  3
ObjectDBX Classes
 90
        0
 91
       11
280
     0
281
     0
  0
CLASS
  1
SORTENTSTABLE
  2
AcDbSortentsTable
  3
ObjectDBX Classes
 90
        0
 91
        1
280
     0
281
     0
  0
CLASS
  1
RAPIDRTRENDERSETTINGS
  2
AcDbRapidRTRenderSettings
  3
ObjectDBX Classes
 90
     1024
 91
        1
280
     0
281
     0
  0
CLASS
  1
MENTALRAYRENDERSETTINGS
  2
AcDbMentalRayRenderSettings
  3
SCENEOE
 90
     1024
 91
        1
280
     0
281
     0
  0
CLASS
  1
RENDERGLOBAL
  2
AcDbRenderGlobal
  3
SCENEOE
 90
     1024
 91
        1
280
     0
281
     0
  0
CLASS
  1
DIMASSOC
  2
AcDbDimAssoc
  3
"AcDbDimAssoc|Product Desc:     AcDim ARX App For Dimension|Company:          Autodesk, Inc.|WEB Address:      www.autodesk.com"
 90
        0
 91
        0
280
     0
281
     0
  0
ENDSEC
  0
SECTION
  2
TABLES
  0
TABLE
  2
VPORT
  5
3094
102
{ACAD_XDICTIONARY
360
7C3B
102
}
330
0
100
AcDbSymbolTable
 70
     1
  0
VPORT
  5
3100
330
3094
100
AcDbSymbolTableRecord
100
AcDbViewportTableRecord
  2
*ACTIVE
 70
     0
 10
0.0
 20
0.0
 11
1.0
 21
1.0
 12
13749.77680599
 22
10000.00009314
 13
0.0
 23
0.0
 14
1.0
 24
1.0
 15
0.0
 25
0.0
 16
0.0
 26
0.0
 36
1.0
 17
0.0
 27
0.0
 37
0.0
 40
20222.65184568
 41
2.14522059
 42
50.0
 43
0.0
 44
0.0
 50
0.0
 51
0.0
 71
     0
 72
   100
 73
     1
 74
     1
 75
     0
 76
     0
 77
     0
 78
     0
281
     0
 65
     1
110
0.0
120
0.0
130
0.0
111
1.0
121
0.0
131
0.0
112
0.0
122
1.0
132
0.0
 79
     0
146
0.0
1001
ACAD_NAV_VCDISPLAY
1070
     1
  0
ENDTAB
  0
TABLE
  2
LTYPE
  5
3091
330
0
100
AcDbSymbolTable
 70
     1
  0
LTYPE
  5
30E6
330
3091
100
AcDbSymbolTableRecord
100
AcDbLinetypeTableRecord
  2
ByBlock
 70
     0
  3

 72
    65
 73
     0
 40
0.0
  0
LTYPE
  5
30E7
330
3091
100
AcDbSymbolTableRecord
100
AcDbLinetypeTableRecord
  2
ByLayer
 70
     0
  3

 72
    65
 73
     0
 40
0.0
  0
LTYPE
  5
30E8
330
3091
100
AcDbSymbolTableRecord
100
AcDbLinetypeTableRecord
  2
CONTINUOUS
 70
     0
  3
Solid line
 72
    65
 73
     0
 40
0.0
  0
ENDTAB
  0
TABLE
  2
LAYER
  5
308E
102
{ACAD_XDICTIONARY
360
312A
102
}
330
0
100
AcDbSymbolTable
 70
     6
  0
LAYER
  5
30E0
330
308E
100
AcDbSymbolTableRecord
100
AcDbLayerTableRecord
  2
0
 70
     0
 62
     7
  6
CONTINUOUS
370
    -3
390
309B
  0
LAYER
  5
310D
330
308E
100
AcDbSymbolTableRecord
100
AcDbLayerTableRecord
  2
YKK_IN
 70
     0
 62
     1
  6
CONTINUOUS
370
    -3
390
309B
  0
LAYER
  5
310E
330
308E
100
AcDbSymbolTableRecord
100
AcDbLayerTableRecord
  2
YKK_A1
 70
     0
 62
     4
  6
CONTINUOUS
370
    -3
390
309B
  0
LAYER
  5
3112
330
308E
100
AcDbSymbolTableRecord
100
AcDbLayerTableRecord
  2
YKK_N1
 70
     0
 62
     2
  6
CONTINUOUS
370
    -3
390
309B
  0
LAYER
  5
3116
330
308E
100
AcDbSymbolTableRecord
100
AcDbLayerTableRecord
  2
YKK_F1
 70
     0
 62
     7
  6
CONTINUOUS
370
    -3
390
309B
  0
LAYER
  5
670F
330
308E
100
AcDbSymbolTableRecord
100
AcDbLayerTableRecord
  2
YKK_C1
 70
     0
 62
     4
  6
CONTINUOUS
370
    -3
390
309B
  0
ENDTAB
  0
TABLE
  2
STYLE
  5
308F
330
0
100
AcDbSymbolTable
 70
     2
  0
STYLE
  5
30E1
330
308F
100
AcDbSymbolTableRecord
100
AcDbTextStyleTableRecord
  2
STANDARD
 70
     0
 40
0.0
 41
1.0
 50
0.0
 71
     0
 42
0.2
  3
txt
  4
BIGFONT
  0
STYLE
  5
30E5
330
308F
100
AcDbSymbolTableRecord
100
AcDbTextStyleTableRecord
  2
EXTFONT
 70
     0
 40
60.0
 41
1.0
 50
0.0
 71
     0
 42
60.0
  3
txt.shx
  4
EXTFONT
1001
AcadAnnotative
1000
AnnotativeData
1002
{
1070
     1
1070
     1
1002
}
  0
ENDTAB
  0
TABLE
  2
VIEW
  5
3092
330
0
100
AcDbSymbolTable
 70
     0
  0
ENDTAB
  0
TABLE
  2
UCS
  5
3093
330
0
100
AcDbSymbolTable
 70
     0
  0
ENDTAB
  0
TABLE
  2
APPID
  5
3095
330
0
100
AcDbSymbolTable
 70
    28
  0
APPID
  5
30E2
330
3095
100
AcDbSymbolTableRecord
100
AcDbRegAppTableRecord
  2
ACAD
 70
     0
  0
APPID
  5
3101
330
3095
100
AcDbSymbolTableRecord
100
AcDbRegAppTableRecord
  2
GENIUS_GENREC_14
 70
     0
  0
APPID
  5
3102
330
3095
100
AcDbSymbolTableRecord
100
AcDbRegAppTableRecord
  2
GENIUS_GENOBJ-N-REC_13
 70
     0
  0
APPID
  5
3103
330
3095
100
AcDbSymbolTableRecord
100
AcDbRegAppTableRecord
  2
GENIUS_GENODEF_13
 70
     0
  0
APPID
  5
3104
330
3095
100
AcDbSymbolTableRecord
100
AcDbRegAppTableRecord
  2
YOBJCUT11010103259
 70
     0
  0
APPID
  5
3105
330
3095
100
AcDbSymbolTableRecord
100
AcDbRegAppTableRecord
  2
YOBJCUT11019140319
 70
     0
  0
APPID
  5
3106
330
3095
100
AcDbSymbolTableRecord
100
AcDbRegAppTableRecord
  2
CONTENTTABDATA
 70
     0
  0
APPID
  5
3107
330
3095
100
AcDbSymbolTableRecord
100
AcDbRegAppTableRecord
  2
CONTENTCURRENTTAB
 70
     0
  0
APPID
  5
3108
330
3095
100
AcDbSymbolTableRecord
100
AcDbRegAppTableRecord
  2
YKK_AP_LOCKLAYER
 70
     0
  0
APPID
  5
3109
330
3095
100
AcDbSymbolTableRecord
100
AcDbRegAppTableRecord
  2
YTEXT_INFOMATION
 70
     0
  0
APPID
  5
310A
330
3095
100
AcDbSymbolTableRecord
100
AcDbRegAppTableRecord
  2
ACAD_EXEMPT_FROM_CAD_STANDARDS
 70
     0
  0
APPID
  5
310B
330
3095
100
AcDbSymbolTableRecord
100
AcDbRegAppTableRecord
  2
YGROUPINFO
 70
     0
  0
APPID
  5
310C
330
3095
100
AcDbSymbolTableRecord
100
AcDbRegAppTableRecord
  2
ACAD_MLEADERVER
 70
     0
  0
APPID
  5
30E9
330
3095
100
AcDbSymbolTableRecord
100
AcDbRegAppTableRecord
  2
AcadAnnotative
 70
     0
  0
APPID
  5
3120
330
3095
100
AcDbSymbolTableRecord
100
AcDbRegAppTableRecord
  2
ACAD_NAV_VCDISPLAY
 70
     0
  0
APPID
  5
334B
330
3095
100
AcDbSymbolTableRecord
100
AcDbRegAppTableRecord
  2
AcAecLayerStandard
 70
     0
  0
APPID
  5
66EA
330
3095
100
AcDbSymbolTableRecord
100
AcDbRegAppTableRecord
  2
AcLayerTools
 70
     0
  0
APPID
  5
66EE
330
3095
100
AcDbSymbolTableRecord
100
AcDbRegAppTableRecord
  2
AcCmTransparency
 70
     0
  0
APPID
  5
7C92
330
3095
100
AcDbSymbolTableRecord
100
AcDbRegAppTableRecord
  2
ACAD_PSEXT
 70
     0
  0
APPID
  5
7E6F
330
3095
100
AcDbSymbolTableRecord
100
AcDbRegAppTableRecord
  2
YALIB
 70
     0
  0
APPID
  5
7E70
330
3095
100
AcDbSymbolTableRecord
100
AcDbRegAppTableRecord
  2
YOBJCUT11026135946
 70
     0
  0
APPID
  5
7E71
330
3095
100
AcDbSymbolTableRecord
100
AcDbRegAppTableRecord
  2
YOBJCUT10801135416
 70
     0
  0
APPID
  5
7E72
330
3095
100
AcDbSymbolTableRecord
100
AcDbRegAppTableRecord
  2
YOBJCUT10801135700
 70
     0
  0
APPID
  5
7E73
330
3095
100
AcDbSymbolTableRecord
100
AcDbRegAppTableRecord
  2
YOBJCUT10801135723
 70
     0
  0
APPID
  5
7E74
330
3095
100
AcDbSymbolTableRecord
100
AcDbRegAppTableRecord
  2
YOBJCUT10801135735
 70
     0
  0
APPID
  5
1454D
330
3095
100
AcDbSymbolTableRecord
100
AcDbRegAppTableRecord
  2
YGROUP_INFOMATION
 70
     0
  0
APPID
  5
1DBA6
330
3095
100
AcDbSymbolTableRecord
100
AcDbRegAppTableRecord
  2
GENIUS_GENOBJ-N-HTC_13
 70
     0
  0
APPID
  5
1DBA7
330
3095
100
AcDbSymbolTableRecord
100
AcDbRegAppTableRecord
  2
GENIUS_GENHATCH_13
 70
     0
  0
ENDTAB
  0
TABLE
  2
DIMSTYLE
  5
3096
330
0
100
AcDbSymbolTable
 70
     1
100
AcDbDimStyleTable
 71
     1
340
30E3
  0
DIMSTYLE
105
30E3
330
3096
100
AcDbSymbolTableRecord
100
AcDbDimStyleTableRecord
  2
STANDARD
 70
     0
 41
1.5
 42
1.5
 43
10.0
 44
0.5
 73
     0
 74
     0
 77
     3
 78
     8
140
4.35000038
143
0.03937008
147
0.89999998
173
     1
274
     4
279
     2
340
30E1
  0
ENDTAB
  0
TABLE
  2
BLOCK_RECORD
  5
308D
330
0
100
AcDbSymbolTable
 70
     0
  0
BLOCK_RECORD
  5
30FB
102
{ACAD_XDICTIONARY
360
BC34
102
}
330
308D
100
AcDbSymbolTableRecord
100
AcDbBlockTableRecord
  2
*Model_Space
340
30FE
  0
BLOCK_RECORD
  5
30F7
330
308D
100
AcDbSymbolTableRecord
100
AcDbBlockTableRecord
  2
*Paper_Space
340
30FA
  0
ENDTAB
  0
ENDSEC
  0
SECTION
  2
BLOCKS
  0
BLOCK
  5
3119
330
30FB
100
AcDbEntity
  8
0
100
AcDbBlockBegin
  2
*Model_Space
 70
     0
 10
0.0
 20
0.0
 30
0.0
  3
*Model_Space
  1

  0
ENDBLK
  5
311A
330
30FB
100
AcDbEntity
  8
0
100
AcDbBlockEnd
  0
BLOCK
  5
3117
330
30F7
100
AcDbEntity
 67
     1
  8
0
100
AcDbBlockBegin
  2
*Paper_Space
 70
     0
 10
0.0
 20
0.0
 30
0.0
  3
*Paper_Space
  1

  0
ENDBLK
  5
3118
330
30F7
100
AcDbEntity
 67
     1
  8
0
100
AcDbBlockEnd
  0
ENDSEC
  0
SECTION
  2
ENTITIES
  0
LINE
  5
1D3CD
330
30FB
100
AcDbEntity
  8
YKK_A1
100
AcDbLine
 10
2593.5
 20
8622.43904592
 30
0.0
 11
2206.5
 21
8622.43904592
 31
0.0
  0
LINE
  5
1D3CE
330
30FB
100
AcDbEntity
  8
YKK_A1
100
AcDbLine
 10
6511.0
 20
8622.43904592
 30
0.0
 11
5889.0
 21
8622.43904592
 31
0.0
  0
LINE
  5
1D3CF
330
30FB
100
AcDbEntity
  8
YKK_A1
100
AcDbLine
 10
2593.5
 20
12422.43904592
 30
0.0
 11
2206.5
 21
12422.43904592
 31
0.0
  0
LINE
  5
1D3D0
330
30FB
100
AcDbEntity
  8
YKK_A1
100
AcDbLine
 10
6511.0
 20
12422.43904592
 30
0.0
 11
5889.0
 21
12422.43904592
 31
0.0
  0
LINE
  5
1D3D1
330
30FB
100
AcDbEntity
  8
YKK_A1
100
AcDbLine
 10
2593.5
 20
16222.43904592
 30
0.0
 11
2206.5
 21
16222.43904592
 31
0.0
  0
LINE
  5
1D3D2
330
30FB
100
AcDbEntity
  8
YKK_A1
100
AcDbLine
 10
6511.0
 20
16222.43904592
 30
0.0
 11
5889.0
 21
16222.43904592
 31
0.0
  0
LINE
  5
1D3D3
330
30FB
100
AcDbEntity
  8
YKK_A1
100
AcDbLine
 10
10355.99999999
 20
16222.43904592
 30
0.0
 11
9644.0
 21
16222.43904592
 31
0.0
  0
LINE
  5
1D504
330
30FB
100
AcDbEntity
  8
YKK_A1
100
AcDbLine
 10
5889.0
 20
10878.43905408
 30
0.0
 11
5889.0
 21
8616.43904592
 31
0.0
  0
LINE
  5
1D505
330
30FB
100
AcDbEntity
  8
YKK_A1
100
AcDbLine
 10
6510.99999999
 20
10878.43905408
 30
0.0
 11
6510.99999999
 21
8616.43904592
 31
0.0
  0
LINE
  5
1D506
330
30FB
100
AcDbEntity
  8
YKK_A1
100
AcDbLine
 10
6510.99999999
 20
10870.93904386
 30
0.0
 11
5889.0
 21
10870.93904386
 31
0.0
  0
TEXT
  5
1D507
330
30FB
100
AcDbEntity
  8
YKK_N1
100
AcDbText
 10
6055.0
 20
8436.43904592
 30
0.0
 40
60.0
  1
W=640
100
AcDbText
  0
LINE
  5
1D508
330
30FB
100
AcDbEntity
  8
YKK_N1
  6
Continuous
100
AcDbLine
 10
5880.0
 20
8416.43904592
 30
0.0
 11
6520.0
 21
8416.43904592
 31
0.0
  0
LINE
  5
1D509
330
30FB
100
AcDbEntity
  8
YKK_N1
  6
Continuous
100
AcDbLine
 10
6520.0
 20
8534.81714386
 30
0.0
 11
6520.0
 21
8415.93904592
 31
0.0
  0
LINE
  5
1D50A
330
30FB
100
AcDbEntity
  8
YKK_N1
  6
Continuous
100
AcDbLine
 10
5880.0
 20
8534.81714386
 30
0.0
 11
5880.0
 21
8415.93904592
 31
0.0
  0
LINE
  5
1D50B
330
30FB
100
AcDbEntity
  8
YKK_A1
100
AcDbLine
 10
6484.0
 20
8669.43904386
 30
0.0
 11
5916.0
 21
8669.43904386
 31
0.0
  0
LINE
  5
1D50C
330
30FB
100
AcDbEntity
  8
YKK_N1
  6
Continuous
100
AcDbLine
 10
6670.0
 20
10791.83650348
 30
0.0
 11
6770.0
 21
10791.83650348
 31
0.0
  0
LINE
  5
1D50D
330
30FB
100
AcDbEntity
  8
YKK_N1
  6
Continuous
100
AcDbLine
 10
6770.0
 20
10791.83650348
 30
0.0
 11
6720.0
 21
10878.43904386
 31
0.0
  0
LINE
  5
1D50E
330
30FB
100
AcDbEntity
  8
YKK_N1
  6
Continuous
100
AcDbLine
 10
6670.0
 20
10791.83650348
 30
0.0
 11
6720.0
 21
10878.43904386
 31
0.0
  0
LINE
  5
1D50F
330
30FB
100
AcDbEntity
  8
YKK_N1
  6
Continuous
100
AcDbLine
 10
6720.0
 20
8633.43904386
 30
0.0
 11
6770.0
 21
8720.04158424
 31
0.0
  0
LINE
  5
1D510
330
30FB
100
AcDbEntity
  8
YKK_N1
  6
Continuous
100
AcDbLine
 10
6670.0
 20
8720.04158424
 30
0.0
 11
6770.0
 21
8720.04158424
 31
0.0
  0
LINE
  5
1D511
330
30FB
100
AcDbEntity
  8
YKK_N1
  6
Continuous
100
AcDbLine
 10
6670.0
 20
8720.04158424
 30
0.0
 11
6720.0
 21
8633.43904386
 31
0.0
  0
LINE
  5
1D512
330
30FB
100
AcDbEntity
  8
YKK_N1
  6
Continuous
100
AcDbLine
 10
6433.39745962
 20
8366.43904592
 30
0.0
 11
6520.0
 21
8416.43904592
 31
0.0
  0
LINE
  5
1D513
330
30FB
100
AcDbEntity
  8
YKK_N1
  6
Continuous
100
AcDbLine
 10
6520.0
 20
8416.43904592
 30
0.0
 11
6433.39745962
 21
8466.43904592
 31
0.0
  0
LINE
  5
1D514
330
30FB
100
AcDbEntity
  8
YKK_N1
  6
Continuous
100
AcDbLine
 10
6433.39745962
 20
8366.43904592
 30
0.0
 11
6433.39745962
 21
8466.43904592
 31
0.0
  0
LINE
  5
1D515
330
30FB
100
AcDbEntity
  8
YKK_N1
  6
Continuous
100
AcDbLine
 10
5966.60254038
 20
8366.43904592
 30
0.0
 11
5880.0
 21
8416.43904592
 31
0.0
  0
LINE
  5
1D516
330
30FB
100
AcDbEntity
  8
YKK_N1
  6
Continuous
100
AcDbLine
 10
5880.0
 20
8416.43904592
 30
0.0
 11
5966.60254038
 21
8466.43904592
 31
0.0
  0
LINE
  5
1D517
330
30FB
100
AcDbEntity
  8
YKK_N1
  6
Continuous
100
AcDbLine
 10
5966.60254038
 20
8366.43904592
 30
0.0
 11
5966.60254038
 21
8466.43904592
 31
0.0
  0
CIRCLE
  5
1D518
330
30FB
100
AcDbEntity
  8
YKK_IN
  6
Continuous
100
AcDbCircle
 10
6199.99998754
 20
8633.4390314
 30
0.0
 40
25.0
  0
LINE
  5
1D519
330
30FB
100
AcDbEntity
  8
YKK_IN
  6
Continuous
100
AcDbLine
 10
6164.64464848
 20
8668.79437046
 30
0.0
 11
6235.3553266
 21
8598.08369234
 31
0.0
  0
LINE
  5
1D51A
330
30FB
100
AcDbEntity
  8
YKK_IN
  6
Continuous
100
AcDbLine
 10
6164.64464848
 20
8598.08369234
 30
0.0
 11
6235.3553266
 21
8668.79437046
 31
0.0
  0
LINE
  5
1D51B
330
30FB
100
AcDbEntity
  8
YKK_A1
100
AcDbLine
 10
5880.0
 20
10878.43905408
 30
0.0
 11
5880.0
 21
8616.43904592
 31
0.0
  0
LINE
  5
1D51C
330
30FB
100
AcDbEntity
  8
YKK_A1
100
AcDbLine
 10
5916.0
 20
10832.43904386
 30
0.0
 11
5916.0
 21
8669.43904386
 31
0.0
  0
LINE
  5
1D51D
330
30FB
100
AcDbEntity
  8
YKK_A1
100
AcDbLine
 10
6484.0
 20
10832.43904386
 30
0.0
 11
6484.0
 21
8669.43904386
 31
0.0
  0
LINE
  5
1D51E
330
30FB
100
AcDbEntity
  8
YKK_A1
100
AcDbLine
 10
6520.0
 20
10878.43905408
 30
0.0
 11
6520.0
 21
8616.43904592
 31
0.0
  0
LINE
  5
1D51F
330
30FB
100
AcDbEntity
  8
YKK_A1
100
AcDbLine
 10
6520.0
 20
8616.43904592
 30
0.0
 11
5880.0
 21
8616.43904592
 31
0.0
  0
LINE
  5
1D520
330
30FB
100
AcDbEntity
  8
YKK_A1
100
AcDbLine
 10
5916.00000001
 20
10832.43904386
 30
0.0
 11
6484.0
 21
10832.43904386
 31
0.0
  0
LINE
  5
1D521
330
30FB
100
AcDbEntity
  8
YKK_A1
100
AcDbLine
 10
5880.0
 20
10878.43905408
 30
0.0
 11
6520.0
 21
10878.43905408
 31
0.0
  0
TEXT
  5
1D522
330
30FB
100
AcDbEntity
  8
YKK_N1
100
AcDbText
 10
6700.50188053
 20
9585.93904386
 30
0.0
 40
60.0
  1
H=2245
 50
90.0
100
AcDbText
  0
LINE
  5
1D523
330
30FB
100
AcDbEntity
  8
YKK_N1
  6
Continuous
100
AcDbLine
 10
6720.0
 20
10878.43904386
 30
0.0
 11
6720.0
 21
8633.43904386
 31
0.0
  0
LINE
  5
1D524
330
30FB
100
AcDbEntity
  8
YKK_N1
  6
Continuous
100
AcDbLine
 10
6596.5
 20
8633.43904386
 30
0.0
 11
6720.5
 21
8633.43904386
 31
0.0
  0
LINE
  5
1D525
330
30FB
100
AcDbEntity
  8
YKK_N1
  6
Continuous
100
AcDbLine
 10
6596.5
 20
10878.43904386
 30
0.0
 11
6720.5
 21
10878.43904386
 31
0.0
  0
LINE
  5
1D526
330
30FB
100
AcDbEntity
  8
YKK_A1
100
AcDbLine
 10
2206.5
 20
10878.43905408
 30
0.0
 11
2206.5
 21
8616.43904592
 31
0.0
  0
LINE
  5
1D527
330
30FB
100
AcDbEntity
  8
YKK_A1
100
AcDbLine
 10
2593.49999999
 20
10878.43905408
 30
0.0
 11
2593.49999999
 21
8616.43904592
 31
0.0
  0
LINE
  5
1D528
330
30FB
100
AcDbEntity
  8
YKK_A1
100
AcDbLine
 10
2593.49999999
 20
10870.93904386
 30
0.0
 11
2206.5
 21
10870.93904386
 31
0.0
  0
TEXT
  5
1D529
330
30FB
100
AcDbEntity
  8
YKK_N1
100
AcDbText
 10
2255.0
 20
8291.2302652
 30
0.0
 40
60.0
  1
W=405
100
AcDbText
  0
LINE
  5
1D52A
330
30FB
100
AcDbEntity
  8
YKK_N1
  6
Continuous
100
AcDbLine
 10
2197.5
 20
8416.43904592
 30
0.0
 11
2602.5
 21
8416.43904592
 31
0.0
  0
LINE
  5
1D52B
330
30FB
100
AcDbEntity
  8
YKK_N1
  6
Continuous
100
AcDbLine
 10
2602.5
 20
8534.81714386
 30
0.0
 11
2602.5
 21
8415.93904592
 31
0.0
  0
LINE
  5
1D52C
330
30FB
100
AcDbEntity
  8
YKK_N1
  6
Continuous
100
AcDbLine
 10
2197.5
 20
8534.81714386
 30
0.0
 11
2197.5
 21
8415.93904592
 31
0.0
  0
LINE
  5
1D52D
330
30FB
100
AcDbEntity
  8
YKK_A1
100
AcDbLine
 10
2566.5
 20
8669.43904386
 30
0.0
 11
2233.5
 21
8669.43904386
 31
0.0
  0
LINE
  5
1D52E
330
30FB
100
AcDbEntity
  8
YKK_N1
  6
Continuous
100
AcDbLine
 10
2752.5
 20
10791.83650348
 30
0.0
 11
2852.5
 21
10791.83650348
 31
0.0
  0
LINE
  5
1D52F
330
30FB
100
AcDbEntity
  8
YKK_N1
  6
Continuous
100
AcDbLine
 10
2852.5
 20
10791.83650348
 30
0.0
 11
2802.5
 21
10878.43904386
 31
0.0
  0
LINE
  5
1D530
330
30FB
100
AcDbEntity
  8
YKK_N1
  6
Continuous
100
AcDbLine
 10
2752.5
 20
10791.83650348
 30
0.0
 11
2802.5
 21
10878.43904386
 31
0.0
  0
LINE
  5
1D531
330
30FB
100
AcDbEntity
  8
YKK_N1
  6
Continuous
100
AcDbLine
 10
2802.5
 20
8633.43904386
 30
0.0
 11
2852.5
 21
8720.04158424
 31
0.0
  0
LINE
  5
1D532
330
30FB
100
AcDbEntity
  8
YKK_N1
  6
Continuous
100
AcDbLine
 10
2752.5
 20
8720.04158424
 30
0.0
 11
2852.5
 21
8720.04158424
 31
0.0
  0
LINE
  5
1D533
330
30FB
100
AcDbEntity
  8
YKK_N1
  6
Continuous
100
AcDbLine
 10
2752.5
 20
8720.04158424
 30
0.0
 11
2802.5
 21
8633.43904386
 31
0.0
  0
LINE
  5
1D534
330
30FB
100
AcDbEntity
  8
YKK_N1
  6
Continuous
100
AcDbLine
 10
2515.89745962
 20
8366.43904592
 30
0.0
 11
2602.5
 21
8416.43904592
 31
0.0
  0
LINE
  5
1D535
330
30FB
100
AcDbEntity
  8
YKK_N1
  6
Continuous
100
AcDbLine
 10
2602.5
 20
8416.43904592
 30
0.0
 11
2515.89745962
 21
8466.43904592
 31
0.0
  0
LINE
  5
1D536
330
30FB
100
AcDbEntity
  8
YKK_N1
  6
Continuous
100
AcDbLine
 10
2515.89745962
 20
8366.43904592
 30
0.0
 11
2515.89745962
 21
8466.43904592
 31
0.0
  0
LINE
  5
1D537
330
30FB
100
AcDbEntity
  8
YKK_N1
  6
Continuous
100
AcDbLine
 10
2284.10254038
 20
8366.43904592
 30
0.0
 11
2197.5
 21
8416.43904592
 31
0.0
  0
LINE
  5
1D538
330
30FB
100
AcDbEntity
  8
YKK_N1
  6
Continuous
100
AcDbLine
 10
2197.5
 20
8416.43904592
 30
0.0
 11
2284.10254038
 21
8466.43904592
 31
0.0
  0
LINE
  5
1D539
330
30FB
100
AcDbEntity
  8
YKK_N1
  6
Continuous
100
AcDbLine
 10
2284.10254038
 20
8366.43904592
 30
0.0
 11
2284.10254038
 21
8466.43904592
 31
0.0
  0
CIRCLE
  5
1D53A
330
30FB
100
AcDbEntity
  8
YKK_IN
  6
Continuous
100
AcDbCircle
 10
2399.99998754
 20
8633.4390314
 30
0.0
 40
25.0
  0
LINE
  5
1D53B
330
30FB
100
AcDbEntity
  8
YKK_IN
  6
Continuous
100
AcDbLine
 10
2364.64464848
 20
8668.79437046
 30
0.0
 11
2435.3553266
 21
8598.08369234
 31
0.0
  0
LINE
  5
1D53C
330
30FB
100
AcDbEntity
  8
YKK_IN
  6
Continuous
100
AcDbLine
 10
2364.64464848
 20
8598.08369234
 30
0.0
 11
2435.3553266
 21
8668.79437046
 31
0.0
  0
LINE
  5
1D53D
330
30FB
100
AcDbEntity
  8
YKK_A1
100
AcDbLine
 10
2197.5
 20
10878.43905408
 30
0.0
 11
2197.5
 21
8616.43904592
 31
0.0
  0
LINE
  5
1D53E
330
30FB
100
AcDbEntity
  8
YKK_A1
100
AcDbLine
 10
2233.5
 20
10832.43904386
 30
0.0
 11
2233.5
 21
8669.43904386
 31
0.0
  0
LINE
  5
1D53F
330
30FB
100
AcDbEntity
  8
YKK_A1
100
AcDbLine
 10
2566.5
 20
10832.43904386
 30
0.0
 11
2566.5
 21
8669.43904386
 31
0.0
  0
LINE
  5
1D540
330
30FB
100
AcDbEntity
  8
YKK_A1
100
AcDbLine
 10
2602.5
 20
10878.43905408
 30
0.0
 11
2602.5
 21
8616.43904592
 31
0.0
  0
LINE
  5
1D541
330
30FB
100
AcDbEntity
  8
YKK_A1
100
AcDbLine
 10
2602.5
 20
8616.43904592
 30
0.0
 11
2197.5
 21
8616.43904592
 31
0.0
  0
LINE
  5
1D542
330
30FB
100
AcDbEntity
  8
YKK_A1
100
AcDbLine
 10
2233.50000001
 20
10832.43904386
 30
0.0
 11
2566.5
 21
10832.43904386
 31
0.0
  0
LINE
  5
1D543
330
30FB
100
AcDbEntity
  8
YKK_A1
100
AcDbLine
 10
2197.5
 20
10878.43905408
 30
0.0
 11
2602.5
 21
10878.43905408
 31
0.0
  0
TEXT
  5
1D544
330
30FB
100
AcDbEntity
  8
YKK_N1
100
AcDbText
 10
2783.00188053
 20
9585.93904386
 30
0.0
 40
60.0
  1
H=2245
 50
90.0
100
AcDbText
  0
LINE
  5
1D545
330
30FB
100
AcDbEntity
  8
YKK_N1
  6
Continuous
100
AcDbLine
 10
2802.5
 20
10878.43904386
 30
0.0
 11
2802.5
 21
8633.43904386
 31
0.0
  0
LINE
  5
1D546
330
30FB
100
AcDbEntity
  8
YKK_N1
  6
Continuous
100
AcDbLine
 10
2679.0
 20
8633.43904386
 30
0.0
 11
2803.0
 21
8633.43904386
 31
0.0
  0
LINE
  5
1D547
330
30FB
100
AcDbEntity
  8
YKK_N1
  6
Continuous
100
AcDbLine
 10
2679.0
 20
10878.43904386
 30
0.0
 11
2803.0
 21
10878.43904386
 31
0.0
  0
LINE
  5
1D548
330
30FB
100
AcDbEntity
  8
YKK_A1
100
AcDbLine
 10
5889.0
 20
14478.43905408
 30
0.0
 11
5889.0
 21
12416.43904592
 31
0.0
  0
LINE
  5
1D549
330
30FB
100
AcDbEntity
  8
YKK_A1
100
AcDbLine
 10
6510.99999999
 20
14478.43905408
 30
0.0
 11
6510.99999999
 21
12416.43904592
 31
0.0
  0
LINE
  5
1D54A
330
30FB
100
AcDbEntity
  8
YKK_A1
100
AcDbLine
 10
6510.99999999
 20
14470.93904386
 30
0.0
 11
5889.0
 21
14470.93904386
 31
0.0
  0
TEXT
  5
1D54B
330
30FB
100
AcDbEntity
  8
YKK_N1
100
AcDbText
 10
6055.0
 20
12236.43904592
 30
0.0
 40
60.0
  1
W=640
100
AcDbText
  0
LINE
  5
1D54C
330
30FB
100
AcDbEntity
  8
YKK_N1
  6
Continuous
100
AcDbLine
 10
5880.0
 20
12216.43904592
 30
0.0
 11
6520.0
 21
12216.43904592
 31
0.0
  0
LINE
  5
1D54D
330
30FB
100
AcDbEntity
  8
YKK_N1
  6
Continuous
100
AcDbLine
 10
6520.0
 20
12334.81714386
 30
0.0
 11
6520.0
 21
12215.93904592
 31
0.0
  0
LINE
  5
1D54E
330
30FB
100
AcDbEntity
  8
YKK_N1
  6
Continuous
100
AcDbLine
 10
5880.0
 20
12334.81714386
 30
0.0
 11
5880.0
 21
12215.93904592
 31
0.0
  0
LINE
  5
1D54F
330
30FB
100
AcDbEntity
  8
YKK_A1
100
AcDbLine
 10
6484.0
 20
12469.43904386
 30
0.0
 11
5916.0
 21
12469.43904386
 31
0.0
  0
LINE
  5
1D550
330
30FB
100
AcDbEntity
  8
YKK_N1
  6
Continuous
100
AcDbLine
 10
6670.0
 20
14391.83650348
 30
0.0
 11
6770.0
 21
14391.83650348
 31
0.0
  0
LINE
  5
1D551
330
30FB
100
AcDbEntity
  8
YKK_N1
  6
Continuous
100
AcDbLine
 10
6770.0
 20
14391.83650348
 30
0.0
 11
6720.0
 21
14478.43904386
 31
0.0
  0
LINE
  5
1D552
330
30FB
100
AcDbEntity
  8
YKK_N1
  6
Continuous
100
AcDbLine
 10
6670.0
 20
14391.83650348
 30
0.0
 11
6720.0
 21
14478.43904386
 31
0.0
  0
LINE
  5
1D553
330
30FB
100
AcDbEntity
  8
YKK_N1
  6
Continuous
100
AcDbLine
 10
6720.0
 20
12433.43904386
 30
0.0
 11
6770.0
 21
12520.04158424
 31
0.0
  0
LINE
  5
1D554
330
30FB
100
AcDbEntity
  8
YKK_N1
  6
Continuous
100
AcDbLine
 10
6670.0
 20
12520.04158424
 30
0.0
 11
6770.0
 21
12520.04158424
 31
0.0
  0
LINE
  5
1D555
330
30FB
100
AcDbEntity
  8
YKK_N1
  6
Continuous
100
AcDbLine
 10
6670.0
 20
12520.04158424
 30
0.0
 11
6720.0
 21
12433.43904386
 31
0.0
  0
LINE
  5
1D556
330
30FB
100
AcDbEntity
  8
YKK_N1
  6
Continuous
100
AcDbLine
 10
6433.39745962
 20
12166.43904592
 30
0.0
 11
6520.0
 21
12216.43904592
 31
0.0
  0
LINE
  5
1D557
330
30FB
100
AcDbEntity
  8
YKK_N1
  6
Continuous
100
AcDbLine
 10
6520.0
 20
12216.43904592
 30
0.0
 11
6433.39745962
 21
12266.43904592
 31
0.0
  0
LINE
  5
1D558
330
30FB
100
AcDbEntity
  8
YKK_N1
  6
Continuous
100
AcDbLine
 10
6433.39745962
 20
12166.43904592
 30
0.0
 11
6433.39745962
 21
12266.43904592
 31
0.0
  0
LINE
  5
1D559
330
30FB
100
AcDbEntity
  8
YKK_N1
  6
Continuous
100
AcDbLine
 10
5966.60254038
 20
12166.43904592
 30
0.0
 11
5880.0
 21
12216.43904592
 31
0.0
  0
LINE
  5
1D55A
330
30FB
100
AcDbEntity
  8
YKK_N1
  6
Continuous
100
AcDbLine
 10
5880.0
 20
12216.43904592
 30
0.0
 11
5966.60254038
 21
12266.43904592
 31
0.0
  0
LINE
  5
1D55B
330
30FB
100
AcDbEntity
  8
YKK_N1
  6
Continuous
100
AcDbLine
 10
5966.60254038
 20
12166.43904592
 30
0.0
 11
5966.60254038
 21
12266.43904592
 31
0.0
  0
CIRCLE
  5
1D55C
330
30FB
100
AcDbEntity
  8
YKK_IN
  6
Continuous
100
AcDbCircle
 10
6199.99998754
 20
12433.4390314
 30
0.0
 40
25.0
  0
LINE
  5
1D55D
330
30FB
100
AcDbEntity
  8
YKK_IN
  6
Continuous
100
AcDbLine
 10
6164.64464848
 20
12468.79437046
 30
0.0
 11
6235.3553266
 21
12398.08369234
 31
0.0
  0
LINE
  5
1D55E
330
30FB
100
AcDbEntity
  8
YKK_IN
  6
Continuous
100
AcDbLine
 10
6164.64464848
 20
12398.08369234
 30
0.0
 11
6235.3553266
 21
12468.79437046
 31
0.0
  0
LINE
  5
1D55F
330
30FB
100
AcDbEntity
  8
YKK_A1
100
AcDbLine
 10
5880.0
 20
14478.43905408
 30
0.0
 11
5880.0
 21
12416.43904592
 31
0.0
  0
LINE
  5
1D560
330
30FB
100
AcDbEntity
  8
YKK_A1
100
AcDbLine
 10
5916.0
 20
14432.43904386
 30
0.0
 11
5916.0
 21
12469.43904386
 31
0.0
  0
LINE
  5
1D561
330
30FB
100
AcDbEntity
  8
YKK_A1
100
AcDbLine
 10
6484.0
 20
14432.43904386
 30
0.0
 11
6484.0
 21
12469.43904386
 31
0.0
  0
LINE
  5
1D562
330
30FB
100
AcDbEntity
  8
YKK_A1
100
AcDbLine
 10
6520.0
 20
14478.43905408
 30
0.0
 11
6520.0
 21
12416.43904592
 31
0.0
  0
LINE
  5
1D563
330
30FB
100
AcDbEntity
  8
YKK_A1
100
AcDbLine
 10
6520.0
 20
12416.43904592
 30
0.0
 11
5880.0
 21
12416.43904592
 31
0.0
  0
LINE
  5
1D564
330
30FB
100
AcDbEntity
  8
YKK_A1
100
AcDbLine
 10
5916.00000001
 20
14432.43904386
 30
0.0
 11
6484.0
 21
14432.43904386
 31
0.0
  0
LINE
  5
1D565
330
30FB
100
AcDbEntity
  8
YKK_A1
100
AcDbLine
 10
5880.0
 20
14478.43905408
 30
0.0
 11
6520.0
 21
14478.43905408
 31
0.0
  0
TEXT
  5
1D566
330
30FB
100
AcDbEntity
  8
YKK_N1
100
AcDbText
 10
6700.50188053
 20
13290.93904386
 30
0.0
 40
60.0
  1
H=2045
 50
90.0
100
AcDbText
  0
LINE
  5
1D567
330
30FB
100
AcDbEntity
  8
YKK_N1
  6
Continuous
100
AcDbLine
 10
6720.0
 20
14478.43904386
 30
0.0
 11
6720.0
 21
12433.43904386
 31
0.0
  0
LINE
  5
1D568
330
30FB
100
AcDbEntity
  8
YKK_N1
  6
Continuous
100
AcDbLine
 10
6596.5
 20
12433.43904386
 30
0.0
 11
6720.5
 21
12433.43904386
 31
0.0
  0
LINE
  5
1D569
330
30FB
100
AcDbEntity
  8
YKK_N1
  6
Continuous
100
AcDbLine
 10
6596.5
 20
14478.43904386
 30
0.0
 11
6720.5
 21
14478.43904386
 31
0.0
  0
LINE
  5
1D56A
330
30FB
100
AcDbEntity
  8
YKK_A1
100
AcDbLine
 10
2206.5
 20
14478.43905408
 30
0.0
 11
2206.5
 21
12416.43904592
 31
0.0
  0
LINE
  5
1D56B
330
30FB
100
AcDbEntity
  8
YKK_A1
100
AcDbLine
 10
2593.49999999
 20
14478.43905408
 30
0.0
 11
2593.49999999
 21
12416.43904592
 31
0.0
  0
LINE
  5
1D56C
330
30FB
100
AcDbEntity
  8
YKK_A1
100
AcDbLine
 10
2593.49999999
 20
14470.93904386
 30
0.0
 11
2206.5
 21
14470.93904386
 31
0.0
  0
TEXT
  5
1D56D
330
30FB
100
AcDbEntity
  8
YKK_N1
100
AcDbText
 10
2255.0
 20
12091.2302652
 30
0.0
 40
60.0
  1
W=405
100
AcDbText
  0
LINE
  5
1D56E
330
30FB
100
AcDbEntity
  8
YKK_N1
  6
Continuous
100
AcDbLine
 10
2197.5
 20
12216.43904592
 30
0.0
 11
2602.5
 21
12216.43904592
 31
0.0
  0
LINE
  5
1D56F
330
30FB
100
AcDbEntity
  8
YKK_N1
  6
Continuous
100
AcDbLine
 10
2602.5
 20
12334.81714386
 30
0.0
 11
2602.5
 21
12215.93904592
 31
0.0
  0
LINE
  5
1D570
330
30FB
100
AcDbEntity
  8
YKK_N1
  6
Continuous
100
AcDbLine
 10
2197.5
 20
12334.81714386
 30
0.0
 11
2197.5
 21
12215.93904592
 31
0.0
  0
LINE
  5
1D571
330
30FB
100
AcDbEntity
  8
YKK_A1
100
AcDbLine
 10
2566.5
 20
12469.43904386
 30
0.0
 11
2233.5
 21
12469.43904386
 31
0.0
  0
LINE
  5
1D572
330
30FB
100
AcDbEntity
  8
YKK_N1
  6
Continuous
100
AcDbLine
 10
2752.5
 20
14391.83650348
 30
0.0
 11
2852.5
 21
14391.83650348
 31
0.0
  0
LINE
  5
1D573
330
30FB
100
AcDbEntity
  8
YKK_N1
  6
Continuous
100
AcDbLine
 10
2852.5
 20
14391.83650348
 30
0.0
 11
2802.5
 21
14478.43904386
 31
0.0
  0
LINE
  5
1D574
330
30FB
100
AcDbEntity
  8
YKK_N1
  6
Continuous
100
AcDbLine
 10
2752.5
 20
14391.83650348
 30
0.0
 11
2802.5
 21
14478.43904386
 31
0.0
  0
LINE
  5
1D575
330
30FB
100
AcDbEntity
  8
YKK_N1
  6
Continuous
100
AcDbLine
 10
2802.5
 20
12433.43904386
 30
0.0
 11
2852.5
 21
12520.04158424
 31
0.0
  0
LINE
  5
1D576
330
30FB
100
AcDbEntity
  8
YKK_N1
  6
Continuous
100
AcDbLine
 10
2752.5
 20
12520.04158424
 30
0.0
 11
2852.5
 21
12520.04158424
 31
0.0
  0
LINE
  5
1D577
330
30FB
100
AcDbEntity
  8
YKK_N1
  6
Continuous
100
AcDbLine
 10
2752.5
 20
12520.04158424
 30
0.0
 11
2802.5
 21
12433.43904386
 31
0.0
  0
LINE
  5
1D578
330
30FB
100
AcDbEntity
  8
YKK_N1
  6
Continuous
100
AcDbLine
 10
2515.89745962
 20
12166.43904592
 30
0.0
 11
2602.5
 21
12216.43904592
 31
0.0
  0
LINE
  5
1D579
330
30FB
100
AcDbEntity
  8
YKK_N1
  6
Continuous
100
AcDbLine
 10
2602.5
 20
12216.43904592
 30
0.0
 11
2515.89745962
 21
12266.43904592
 31
0.0
  0
LINE
  5
1D57A
330
30FB
100
AcDbEntity
  8
YKK_N1
  6
Continuous
100
AcDbLine
 10
2515.89745962
 20
12166.43904592
 30
0.0
 11
2515.89745962
 21
12266.43904592
 31
0.0
  0
LINE
  5
1D57B
330
30FB
100
AcDbEntity
  8
YKK_N1
  6
Continuous
100
AcDbLine
 10
2284.10254038
 20
12166.43904592
 30
0.0
 11
2197.5
 21
12216.43904592
 31
0.0
  0
LINE
  5
1D57C
330
30FB
100
AcDbEntity
  8
YKK_N1
  6
Continuous
100
AcDbLine
 10
2197.5
 20
12216.43904592
 30
0.0
 11
2284.10254038
 21
12266.43904592
 31
0.0
  0
LINE
  5
1D57D
330
30FB
100
AcDbEntity
  8
YKK_N1
  6
Continuous
100
AcDbLine
 10
2284.10254038
 20
12166.43904592
 30
0.0
 11
2284.10254038
 21
12266.43904592
 31
0.0
  0
CIRCLE
  5
1D57E
330
30FB
100
AcDbEntity
  8
YKK_IN
  6
Continuous
100
AcDbCircle
 10
2399.99998754
 20
12433.4390314
 30
0.0
 40
25.0
  0
LINE
  5
1D57F
330
30FB
100
AcDbEntity
  8
YKK_IN
  6
Continuous
100
AcDbLine
 10
2364.64464848
 20
12468.79437046
 30
0.0
 11
2435.3553266
 21
12398.08369234
 31
0.0
  0
LINE
  5
1D580
330
30FB
100
AcDbEntity
  8
YKK_IN
  6
Continuous
100
AcDbLine
 10
2364.64464848
 20
12398.08369234
 30
0.0
 11
2435.3553266
 21
12468.79437046
 31
0.0
  0
LINE
  5
1D581
330
30FB
100
AcDbEntity
  8
YKK_A1
100
AcDbLine
 10
2197.5
 20
14478.43905408
 30
0.0
 11
2197.5
 21
12416.43904592
 31
0.0
  0
LINE
  5
1D582
330
30FB
100
AcDbEntity
  8
YKK_A1
100
AcDbLine
 10
2233.5
 20
14432.43904386
 30
0.0
 11
2233.5
 21
12469.43904386
 31
0.0
  0
LINE
  5
1D583
330
30FB
100
AcDbEntity
  8
YKK_A1
100
AcDbLine
 10
2566.5
 20
14432.43904386
 30
0.0
 11
2566.5
 21
12469.43904386
 31
0.0
  0
LINE
  5
1D584
330
30FB
100
AcDbEntity
  8
YKK_A1
100
AcDbLine
 10
2602.5
 20
14478.43905408
 30
0.0
 11
2602.5
 21
12416.43904592
 31
0.0
  0
LINE
  5
1D585
330
30FB
100
AcDbEntity
  8
YKK_A1
100
AcDbLine
 10
2602.5
 20
12416.43904592
 30
0.0
 11
2197.5
 21
12416.43904592
 31
0.0
  0
LINE
  5
1D586
330
30FB
100
AcDbEntity
  8
YKK_A1
100
AcDbLine
 10
2233.50000001
 20
14432.43904386
 30
0.0
 11
2566.5
 21
14432.43904386
 31
0.0
  0
LINE
  5
1D587
330
30FB
100
AcDbEntity
  8
YKK_A1
100
AcDbLine
 10
2197.5
 20
14478.43905408
 30
0.0
 11
2602.5
 21
14478.43905408
 31
0.0
  0
TEXT
  5
1D588
330
30FB
100
AcDbEntity
  8
YKK_N1
100
AcDbText
 10
2783.00188053
 20
13290.93904386
 30
0.0
 40
60.0
  1
H=2045
 50
90.0
100
AcDbText
  0
LINE
  5
1D589
330
30FB
100
AcDbEntity
  8
YKK_N1
  6
Continuous
100
AcDbLine
 10
2802.5
 20
14478.43904386
 30
0.0
 11
2802.5
 21
12433.43904386
 31
0.0
  0
LINE
  5
1D58A
330
30FB
100
AcDbEntity
  8
YKK_N1
  6
Continuous
100
AcDbLine
 10
2679.0
 20
12433.43904386
 30
0.0
 11
2803.0
 21
12433.43904386
 31
0.0
  0
LINE
  5
1D58B
330
30FB
100
AcDbEntity
  8
YKK_N1
  6
Continuous
100
AcDbLine
 10
2679.0
 20
14478.43904386
 30
0.0
 11
2803.0
 21
14478.43904386
 31
0.0
  0
LINE
  5
1D58C
330
30FB
100
AcDbEntity
  8
YKK_A1
100
AcDbLine
 10
9644.0
 20
18078.43905408
 30
0.0
 11
9644.0
 21
16216.43904592
 31
0.0
  0
LINE
  5
1D58D
330
30FB
100
AcDbEntity
  8
YKK_A1
100
AcDbLine
 10
10355.99999999
 20
18078.43905408
 30
0.0
 11
10355.99999999
 21
16216.43904592
 31
0.0
  0
LINE
  5
1D58E
330
30FB
100
AcDbEntity
  8
YKK_A1
100
AcDbLine
 10
10355.99999999
 20
18070.93904386
 30
0.0
 11
9644.0
 21
18070.93904386
 31
0.0
  0
TEXT
  5
1D58F
330
30FB
100
AcDbEntity
  8
YKK_N1
100
AcDbText
 10
9855.0
 20
16036.43904592
 30
0.0
 40
60.0
  1
W=730
100
AcDbText
  0
LINE
  5
1D590
330
30FB
100
AcDbEntity
  8
YKK_N1
  6
Continuous
100
AcDbLine
 10
9635.0
 20
16016.43904592
 30
0.0
 11
10365.0
 21
16016.43904592
 31
0.0
  0
LINE
  5
1D591
330
30FB
100
AcDbEntity
  8
YKK_N1
  6
Continuous
100
AcDbLine
 10
10365.0
 20
16134.81714386
 30
0.0
 11
10365.0
 21
16015.93904592
 31
0.0
  0
LINE
  5
1D592
330
30FB
100
AcDbEntity
  8
YKK_N1
  6
Continuous
100
AcDbLine
 10
9635.0
 20
16134.81714386
 30
0.0
 11
9635.0
 21
16015.93904592
 31
0.0
  0
LINE
  5
1D593
330
30FB
100
AcDbEntity
  8
YKK_A1
100
AcDbLine
 10
10329.0
 20
16269.43904386
 30
0.0
 11
9671.0
 21
16269.43904386
 31
0.0
  0
LINE
  5
1D594
330
30FB
100
AcDbEntity
  8
YKK_N1
  6
Continuous
100
AcDbLine
 10
10515.0
 20
17991.83650348
 30
0.0
 11
10615.0
 21
17991.83650348
 31
0.0
  0
LINE
  5
1D595
330
30FB
100
AcDbEntity
  8
YKK_N1
  6
Continuous
100
AcDbLine
 10
10615.0
 20
17991.83650348
 30
0.0
 11
10565.0
 21
18078.43904386
 31
0.0
  0
LINE
  5
1D596
330
30FB
100
AcDbEntity
  8
YKK_N1
  6
Continuous
100
AcDbLine
 10
10515.0
 20
17991.83650348
 30
0.0
 11
10565.0
 21
18078.43904386
 31
0.0
  0
LINE
  5
1D597
330
30FB
100
AcDbEntity
  8
YKK_N1
  6
Continuous
100
AcDbLine
 10
10565.0
 20
16233.43904386
 30
0.0
 11
10615.0
 21
16320.04158424
 31
0.0
  0
LINE
  5
1D598
330
30FB
100
AcDbEntity
  8
YKK_N1
  6
Continuous
100
AcDbLine
 10
10515.0
 20
16320.04158424
 30
0.0
 11
10615.0
 21
16320.04158424
 31
0.0
  0
LINE
  5
1D599
330
30FB
100
AcDbEntity
  8
YKK_N1
  6
Continuous
100
AcDbLine
 10
10515.0
 20
16320.04158424
 30
0.0
 11
10565.0
 21
16233.43904386
 31
0.0
  0
LINE
  5
1D59A
330
30FB
100
AcDbEntity
  8
YKK_N1
  6
Continuous
100
AcDbLine
 10
10278.39745962
 20
15966.43904592
 30
0.0
 11
10365.0
 21
16016.43904592
 31
0.0
  0
LINE
  5
1D59B
330
30FB
100
AcDbEntity
  8
YKK_N1
  6
Continuous
100
AcDbLine
 10
10365.0
 20
16016.43904592
 30
0.0
 11
10278.39745962
 21
16066.43904592
 31
0.0
  0
LINE
  5
1D59C
330
30FB
100
AcDbEntity
  8
YKK_N1
  6
Continuous
100
AcDbLine
 10
10278.39745962
 20
15966.43904592
 30
0.0
 11
10278.39745962
 21
16066.43904592
 31
0.0
  0
LINE
  5
1D59D
330
30FB
100
AcDbEntity
  8
YKK_N1
  6
Continuous
100
AcDbLine
 10
9721.60254038
 20
15966.43904592
 30
0.0
 11
9635.0
 21
16016.43904592
 31
0.0
  0
LINE
  5
1D59E
330
30FB
100
AcDbEntity
  8
YKK_N1
  6
Continuous
100
AcDbLine
 10
9635.0
 20
16016.43904592
 30
0.0
 11
9721.60254038
 21
16066.43904592
 31
0.0
  0
LINE
  5
1D59F
330
30FB
100
AcDbEntity
  8
YKK_N1
  6
Continuous
100
AcDbLine
 10
9721.60254038
 20
15966.43904592
 30
0.0
 11
9721.60254038
 21
16066.43904592
 31
0.0
  0
CIRCLE
  5
1D5A0
330
30FB
100
AcDbEntity
  8
YKK_IN
  6
Continuous
100
AcDbCircle
 10
9999.99998754
 20
16233.4390314
 30
0.0
 40
25.0
  0
LINE
  5
1D5A1
330
30FB
100
AcDbEntity
  8
YKK_IN
  6
Continuous
100
AcDbLine
 10
9964.64464848
 20
16268.79437046
 30
0.0
 11
10035.3553266
 21
16198.08369234
 31
0.0
  0
LINE
  5
1D5A2
330
30FB
100
AcDbEntity
  8
YKK_IN
  6
Continuous
100
AcDbLine
 10
9964.64464848
 20
16198.08369234
 30
0.0
 11
10035.3553266
 21
16268.79437046
 31
0.0
  0
LINE
  5
1D5A3
330
30FB
100
AcDbEntity
  8
YKK_A1
100
AcDbLine
 10
9635.0
 20
18078.43905408
 30
0.0
 11
9635.0
 21
16216.43904592
 31
0.0
  0
LINE
  5
1D5A4
330
30FB
100
AcDbEntity
  8
YKK_A1
100
AcDbLine
 10
9671.0
 20
18032.43904386
 30
0.0
 11
9671.0
 21
16269.43904386
 31
0.0
  0
LINE
  5
1D5A5
330
30FB
100
AcDbEntity
  8
YKK_A1
100
AcDbLine
 10
10329.0
 20
18032.43904386
 30
0.0
 11
10329.0
 21
16269.43904386
 31
0.0
  0
LINE
  5
1D5A6
330
30FB
100
AcDbEntity
  8
YKK_A1
100
AcDbLine
 10
10365.0
 20
18078.43905408
 30
0.0
 11
10365.0
 21
16216.43904592
 31
0.0
  0
LINE
  5
1D5A7
330
30FB
100
AcDbEntity
  8
YKK_A1
100
AcDbLine
 10
10365.0
 20
16216.43904592
 30
0.0
 11
9635.0
 21
16216.43904592
 31
0.0
  0
LINE
  5
1D5A8
330
30FB
100
AcDbEntity
  8
YKK_A1
100
AcDbLine
 10
9671.00000001
 20
18032.43904386
 30
0.0
 11
10329.0
 21
18032.43904386
 31
0.0
  0
LINE
  5
1D5A9
330
30FB
100
AcDbEntity
  8
YKK_A1
100
AcDbLine
 10
9635.0
 20
18078.43905408
 30
0.0
 11
10365.0
 21
18078.43905408
 31
0.0
  0
TEXT
  5
1D5AA
330
30FB
100
AcDbEntity
  8
YKK_N1
100
AcDbText
 10
10545.50188053
 20
16995.93904386
 30
0.0
 40
60.0
  1
H=1845
 50
90.0
100
AcDbText
  0
LINE
  5
1D5AB
330
30FB
100
AcDbEntity
  8
YKK_N1
  6
Continuous
100
AcDbLine
 10
10565.0
 20
18078.43904386
 30
0.0
 11
10565.0
 21
16233.43904386
 31
0.0
  0
LINE
  5
1D5AC
330
30FB
100
AcDbEntity
  8
YKK_N1
  6
Continuous
100
AcDbLine
 10
10441.5
 20
16233.43904386
 30
0.0
 11
10565.5
 21
16233.43904386
 31
0.0
  0
LINE
  5
1D5AD
330
30FB
100
AcDbEntity
  8
YKK_N1
  6
Continuous
100
AcDbLine
 10
10441.5
 20
18078.43904386
 30
0.0
 11
10565.5
 21
18078.43904386
 31
0.0
  0
LINE
  5
1D5AE
330
30FB
100
AcDbEntity
  8
YKK_A1
100
AcDbLine
 10
5889.0
 20
18078.43905408
 30
0.0
 11
5889.0
 21
16216.43904592
 31
0.0
  0
LINE
  5
1D5AF
330
30FB
100
AcDbEntity
  8
YKK_A1
100
AcDbLine
 10
6510.99999999
 20
18078.43905408
 30
0.0
 11
6510.99999999
 21
16216.43904592
 31
0.0
  0
LINE
  5
1D5B0
330
30FB
100
AcDbEntity
  8
YKK_A1
100
AcDbLine
 10
6510.99999999
 20
18070.93904386
 30
0.0
 11
5889.0
 21
18070.93904386
 31
0.0
  0
TEXT
  5
1D5B1
330
30FB
100
AcDbEntity
  8
YKK_N1
100
AcDbText
 10
6055.0
 20
16036.43904592
 30
0.0
 40
60.0
  1
W=640
100
AcDbText
  0
LINE
  5
1D5B2
330
30FB
100
AcDbEntity
  8
YKK_N1
  6
Continuous
100
AcDbLine
 10
5880.0
 20
16016.43904592
 30
0.0
 11
6520.0
 21
16016.43904592
 31
0.0
  0
LINE
  5
1D5B3
330
30FB
100
AcDbEntity
  8
YKK_N1
  6
Continuous
100
AcDbLine
 10
6520.0
 20
16134.81714386
 30
0.0
 11
6520.0
 21
16015.93904592
 31
0.0
  0
LINE
  5
1D5B4
330
30FB
100
AcDbEntity
  8
YKK_N1
  6
Continuous
100
AcDbLine
 10
5880.0
 20
16134.81714386
 30
0.0
 11
5880.0
 21
16015.93904592
 31
0.0
  0
LINE
  5
1D5B5
330
30FB
100
AcDbEntity
  8
YKK_A1
100
AcDbLine
 10
6484.0
 20
16269.43904386
 30
0.0
 11
5916.0
 21
16269.43904386
 31
0.0
  0
LINE
  5
1D5B6
330
30FB
100
AcDbEntity
  8
YKK_N1
  6
Continuous
100
AcDbLine
 10
6670.0
 20
17991.83650348
 30
0.0
 11
6770.0
 21
17991.83650348
 31
0.0
  0
LINE
  5
1D5B7
330
30FB
100
AcDbEntity
  8
YKK_N1
  6
Continuous
100
AcDbLine
 10
6770.0
 20
17991.83650348
 30
0.0
 11
6720.0
 21
18078.43904386
 31
0.0
  0
LINE
  5
1D5B8
330
30FB
100
AcDbEntity
  8
YKK_N1
  6
Continuous
100
AcDbLine
 10
6670.0
 20
17991.83650348
 30
0.0
 11
6720.0
 21
18078.43904386
 31
0.0
  0
LINE
  5
1D5B9
330
30FB
100
AcDbEntity
  8
YKK_N1
  6
Continuous
100
AcDbLine
 10
6720.0
 20
16233.43904386
 30
0.0
 11
6770.0
 21
16320.04158424
 31
0.0
  0
LINE
  5
1D5BA
330
30FB
100
AcDbEntity
  8
YKK_N1
  6
Continuous
100
AcDbLine
 10
6670.0
 20
16320.04158424
 30
0.0
 11
6770.0
 21
16320.04158424
 31
0.0
  0
LINE
  5
1D5BB
330
30FB
100
AcDbEntity
  8
YKK_N1
  6
Continuous
100
AcDbLine
 10
6670.0
 20
16320.04158424
 30
0.0
 11
6720.0
 21
16233.43904386
 31
0.0
  0
LINE
  5
1D5BC
330
30FB
100
AcDbEntity
  8
YKK_N1
  6
Continuous
100
AcDbLine
 10
6433.39745962
 20
15966.43904592
 30
0.0
 11
6520.0
 21
16016.43904592
 31
0.0
  0
LINE
  5
1D5BD
330
30FB
100
AcDbEntity
  8
YKK_N1
  6
Continuous
100
AcDbLine
 10
6520.0
 20
16016.43904592
 30
0.0
 11
6433.39745962
 21
16066.43904592
 31
0.0
  0
LINE
  5
1D5BE
330
30FB
100
AcDbEntity
  8
YKK_N1
  6
Continuous
100
AcDbLine
 10
6433.39745962
 20
15966.43904592
 30
0.0
 11
6433.39745962
 21
16066.43904592
 31
0.0
  0
LINE
  5
1D5BF
330
30FB
100
AcDbEntity
  8
YKK_N1
  6
Continuous
100
AcDbLine
 10
5966.60254038
 20
15966.43904592
 30
0.0
 11
5880.0
 21
16016.43904592
 31
0.0
  0
LINE
  5
1D5C0
330
30FB
100
AcDbEntity
  8
YKK_N1
  6
Continuous
100
AcDbLine
 10
5880.0
 20
16016.43904592
 30
0.0
 11
5966.60254038
 21
16066.43904592
 31
0.0
  0
LINE
  5
1D5C1
330
30FB
100
AcDbEntity
  8
YKK_N1
  6
Continuous
100
AcDbLine
 10
5966.60254038
 20
15966.43904592
 30
0.0
 11
5966.60254038
 21
16066.43904592
 31
0.0
  0
CIRCLE
  5
1D5C2
330
30FB
100
AcDbEntity
  8
YKK_IN
  6
Continuous
100
AcDbCircle
 10
6199.99998754
 20
16233.4390314
 30
0.0
 40
25.0
  0
LINE
  5
1D5C3
330
30FB
100
AcDbEntity
  8
YKK_IN
  6
Continuous
100
AcDbLine
 10
6164.64464848
 20
16268.79437046
 30
0.0
 11
6235.3553266
 21
16198.08369234
 31
0.0
  0
LINE
  5
1D5C4
330
30FB
100
AcDbEntity
  8
YKK_IN
  6
Continuous
100
AcDbLine
 10
6164.64464848
 20
16198.08369234
 30
0.0
 11
6235.3553266
 21
16268.79437046
 31
0.0
  0
LINE
  5
1D5C5
330
30FB
100
AcDbEntity
  8
YKK_A1
100
AcDbLine
 10
5880.0
 20
18078.43905408
 30
0.0
 11
5880.0
 21
16216.43904592
 31
0.0
  0
LINE
  5
1D5C6
330
30FB
100
AcDbEntity
  8
YKK_A1
100
AcDbLine
 10
5916.0
 20
18032.43904386
 30
0.0
 11
5916.0
 21
16269.43904386
 31
0.0
  0
LINE
  5
1D5C7
330
30FB
100
AcDbEntity
  8
YKK_A1
100
AcDbLine
 10
6484.0
 20
18032.43904386
 30
0.0
 11
6484.0
 21
16269.43904386
 31
0.0
  0
LINE
  5
1D5C8
330
30FB
100
AcDbEntity
  8
YKK_A1
100
AcDbLine
 10
6520.0
 20
18078.43905408
 30
0.0
 11
6520.0
 21
16216.43904592
 31
0.0
  0
LINE
  5
1D5C9
330
30FB
100
AcDbEntity
  8
YKK_A1
100
AcDbLine
 10
6520.0
 20
16216.43904592
 30
0.0
 11
5880.0
 21
16216.43904592
 31
0.0
  0
LINE
  5
1D5CA
330
30FB
100
AcDbEntity
  8
YKK_A1
100
AcDbLine
 10
5916.00000001
 20
18032.43904386
 30
0.0
 11
6484.0
 21
18032.43904386
 31
0.0
  0
LINE
  5
1D5CB
330
30FB
100
AcDbEntity
  8
YKK_A1
100
AcDbLine
 10
5880.0
 20
18078.43905408
 30
0.0
 11
6520.0
 21
18078.43905408
 31
0.0
  0
TEXT
  5
1D5CC
330
30FB
100
AcDbEntity
  8
YKK_N1
100
AcDbText
 10
6700.50188053
 20
16995.93904386
 30
0.0
 40
60.0
  1
H=1845
 50
90.0
100
AcDbText
  0
LINE
  5
1D5CD
330
30FB
100
AcDbEntity
  8
YKK_N1
  6
Continuous
100
AcDbLine
 10
6720.0
 20
18078.43904386
 30
0.0
 11
6720.0
 21
16233.43904386
 31
0.0
  0
LINE
  5
1D5CE
330
30FB
100
AcDbEntity
  8
YKK_N1
  6
Continuous
100
AcDbLine
 10
6596.5
 20
16233.43904386
 30
0.0
 11
6720.5
 21
16233.43904386
 31
0.0
  0
LINE
  5
1D5CF
330
30FB
100
AcDbEntity
  8
YKK_N1
  6
Continuous
100
AcDbLine
 10
6596.5
 20
18078.43904386
 30
0.0
 11
6720.5
 21
18078.43904386
 31
0.0
  0
LINE
  5
1D5F6
330
30FB
100
AcDbEntity
  8
YKK_A1
100
AcDbLine
 10
2206.5
 20
18078.43905408
 30
0.0
 11
2206.5
 21
16216.43904592
 31
0.0
  0
LINE
  5
1D5F7
330
30FB
100
AcDbEntity
  8
YKK_A1
100
AcDbLine
 10
2593.49999999
 20
18078.43905408
 30
0.0
 11
2593.49999999
 21
16216.43904592
 31
0.0
  0
TEXT
  5
1D5F8
330
30FB
100
AcDbEntity
  8
0
100
AcDbText
 10
9665.0
 20
18654.23306139
 30
0.0
 40
60.0
  1
CXFX-06918-T
  7
EXTFONT
 72
     4
 11
10000.0
 21
18684.23306139
 31
0.0
100
AcDbText
1001
YTEXT_INFOMATION
1002
{
1000
AHT-06003-AVB、AHT-06003-NVB
1002
}
1000
BL
1010
0.0
1020
0.0
1030
0.0
1040
65.0
1070
     0
1002
{
1000
TEXTOBJECTS
1000
1B1BA
1002
}
  0
TEXT
  5
1D5F9
330
30FB
100
AcDbEntity
  8
0
100
AcDbText
 10
5860.0
 20
11254.23306139
 30
0.0
 40
60.0
  1
CXFX-06022-T
  7
EXTFONT
 72
     4
 11
6200.0
 21
11284.23306139
 31
0.0
100
AcDbText
1001
YTEXT_INFOMATION
1002
{
1000
AHT-06003-AVB、AHT-06003-NVB
1002
}
1000
BL
1010
0.0
1020
0.0
1030
0.0
1040
65.0
1070
     0
1002
{
1000
TEXTOBJECTS
1000
1B1B0
1002
}
  0
TEXT
  5
1D5FA
330
30FB
100
AcDbEntity
  8
0
100
AcDbText
 10
5865.0
 20
14954.23306139
 30
0.0
 40
60.0
  1
CXFX-06020-T
  7
EXTFONT
 72
     4
 11
6200.0
 21
14984.23306139
 31
0.0
100
AcDbText
1001
YTEXT_INFOMATION
1002
{
1000
AHT-06003-AVB、AHT-06003-NVB
1002
}
1000
BL
1010
0.0
1020
0.0
1030
0.0
1040
65.0
1070
     0
1002
{
1000
TEXTOBJECTS
1000
1B1AF
1002
}
  0
TEXT
  5
1D5FB
330
30FB
100
AcDbEntity
  8
0
100
AcDbText
 10
5870.0
 20
18654.23306139
 30
0.0
 40
60.0
  1
CXFX-06018-T
  7
EXTFONT
 72
     4
 11
6200.0
 21
18684.23306139
 31
0.0
100
AcDbText
1001
YTEXT_INFOMATION
1002
{
1000
AHT-06003-AVB、AHT-06003-NVB
1002
}
1000
BL
1010
0.0
1020
0.0
1030
0.0
1040
65.0
1070
     0
1002
{
1000
TEXTOBJECTS
1000
1B1AE
1002
}
  0
TEXT
  5
1D5FC
330
30FB
100
AcDbEntity
  8
0
100
AcDbText
 10
2055.0
 20
11254.23306139
 30
0.0
 40
60.0
  1
CXFX-03622-T
  7
EXTFONT
 72
     4
 11
2400.0
 21
11284.23306139
 31
0.0
100
AcDbText
1001
YTEXT_INFOMATION
1002
{
1000
AHT-06003-AVB、AHT-06003-NVB
1002
}
1000
BL
1010
0.0
1020
0.0
1030
0.0
1040
65.0
1070
     0
1002
{
1000
TEXTOBJECTS
1000
1B1AD
1002
}
  0
TEXT
  5
1D5FD
330
30FB
100
AcDbEntity
  8
0
100
AcDbText
 10
2060.0
 20
14954.23306139
 30
0.0
 40
60.0
  1
CXFX-03620-T
  7
EXTFONT
 72
     4
 11
2400.0
 21
14984.23306139
 31
0.0
100
AcDbText
1001
YTEXT_INFOMATION
1002
{
1000
AHT-06003-AVB、AHT-06003-NVB
1002
}
1000
BL
1010
0.0
1020
0.0
1030
0.0
1040
65.0
1070
     0
1002
{
1000
TEXTOBJECTS
1000
1B1AC
1002
}
  0
TEXT
  5
1D5FE
330
30FB
100
AcDbEntity
  8
0
100
AcDbText
 10
2065.0
 20
18654.23306139
 30
0.0
 40
60.0
  1
CXFX-03618-T
  7
EXTFONT
 72
     4
 11
2400.0
 21
18684.23306139
 31
0.0
100
AcDbText
1001
YTEXT_INFOMATION
1002
{
1000
AHT-06003-AVB、AHT-06003-NVB
1002
}
1000
BL
1010
0.0
1020
0.0
1030
0.0
1040
65.0
1070
     0
1002
{
1000
TEXTOBJECTS
1000
1B1AB
1002
}
  0
TEXT
  5
1D5FF
330
30FB
100
AcDbEntity
  8
0
 62
     3
100
AcDbText
 10
9065.0
 20
19165.0
 30
0.0
 40
170.0
  1
W=730(w=690)
  7
EXTFONT
 72
     1
 11
10000.0
 21
19250.0
 31
0.0
100
AcDbText
 73
     2
  0
TEXT
  5
1D600
330
30FB
100
AcDbEntity
  8
0
 62
     3
100
AcDbText
 10
5279.16666667
 20
19165.0
 30
0.0
 40
170.0
  1
W=640(w=600)
  7
EXTFONT
 72
     1
 11
6200.0
 21
19250.0
 31
0.0
100
AcDbText
 73
     2
  0
TEXT
  5
1D601
330
30FB
100
AcDbEntity
  8
0
 62
     3
100
AcDbText
 10
339.95356542
 20
8673.33333333
 30
0.0
 40
170.0
  1
H=2245(h=2200)
 50
90.0
  7
EXTFONT
 72
     4
 11
254.95356542
 21
9750.0
 31
0.0
100
AcDbText
  0
TEXT
  5
1D602
330
30FB
100
AcDbEntity
  8
0
 62
     3
100
AcDbText
 10
1450.83333333
 20
19165.0
 30
0.0
 40
170.0
  1
W=405(w=365)
  7
EXTFONT
 72
     1
 11
2400.0
 21
19250.0
 31
0.0
100
AcDbText
 73
     2
  0
TEXT
  5
1D603
330
30FB
100
AcDbEntity
  8
0
 62
     3
100
AcDbText
 10
339.95356542
 20
12401.66666667
 30
0.0
 40
170.0
  1
H=2045(h=2000)
 50
90.0
  7
EXTFONT
 72
     4
 11
254.95356542
 21
13450.0
 31
0.0
100
AcDbText
  0
TEXT
  5
1D604
330
30FB
100
AcDbEntity
  8
0
 62
     3
100
AcDbText
 10
339.95356542
 20
16130.0
 30
0.0
 40
170.0
  1
H=1845(h=1800)
 50
90.0
  7
EXTFONT
 72
     4
 11
254.95356542
 21
17150.0
 31
0.0
100
AcDbText
  0
LINE
  5
1D606
330
30FB
100
AcDbEntity
  8
YKK_A1
100
AcDbLine
 10
2593.49999999
 20
18070.93904386
 30
0.0
 11
2206.5
 21
18070.93904386
 31
0.0
  0
TEXT
  5
1D607
330
30FB
100
AcDbEntity
  8
YKK_N1
100
AcDbText
 10
2255.0
 20
15891.2302652
 30
0.0
 40
60.0
  1
W=405
100
AcDbText
  0
LINE
  5
1D608
330
30FB
100
AcDbEntity
  8
YKK_N1
  6
Continuous
100
AcDbLine
 10
2197.5
 20
16016.43904592
 30
0.0
 11
2602.5
 21
16016.43904592
 31
0.0
  0
LINE
  5
1D609
330
30FB
100
AcDbEntity
  8
YKK_N1
  6
Continuous
100
AcDbLine
 10
2602.5
 20
16134.81714386
 30
0.0
 11
2602.5
 21
16015.93904592
 31
0.0
  0
LINE
  5
1D60A
330
30FB
100
AcDbEntity
  8
YKK_N1
  6
Continuous
100
AcDbLine
 10
2197.5
 20
16134.81714386
 30
0.0
 11
2197.5
 21
16015.93904592
 31
0.0
  0
LINE
  5
1D60B
330
30FB
100
AcDbEntity
  8
YKK_A1
100
AcDbLine
 10
2566.5
 20
16269.43904386
 30
0.0
 11
2233.5
 21
16269.43904386
 31
0.0
  0
LINE
  5
1D652
330
30FB
100
AcDbEntity
  8
YKK_N1
  6
Continuous
100
AcDbLine
 10
2752.5
 20
17991.83650348
 30
0.0
 11
2852.5
 21
17991.83650348
 31
0.0
  0
LINE
  5
1D653
330
30FB
100
AcDbEntity
  8
YKK_N1
  6
Continuous
100
AcDbLine
 10
2852.5
 20
17991.83650348
 30
0.0
 11
2802.5
 21
18078.43904386
 31
0.0
  0
LINE
  5
1D654
330
30FB
100
AcDbEntity
  8
YKK_N1
  6
Continuous
100
AcDbLine
 10
2752.5
 20
17991.83650348
 30
0.0
 11
2802.5
 21
18078.43904386
 31
0.0
  0
LINE
  5
1D655
330
30FB
100
AcDbEntity
  8
YKK_N1
  6
Continuous
100
AcDbLine
 10
2802.5
 20
16233.43904386
 30
0.0
 11
2852.5
 21
16320.04158424
 31
0.0
  0
LINE
  5
1D656
330
30FB
100
AcDbEntity
  8
YKK_N1
  6
Continuous
100
AcDbLine
 10
2752.5
 20
16320.04158424
 30
0.0
 11
2852.5
 21
16320.04158424
 31
0.0
  0
LINE
  5
1D657
330
30FB
100
AcDbEntity
  8
YKK_N1
  6
Continuous
100
AcDbLine
 10
2752.5
 20
16320.04158424
 30
0.0
 11
2802.5
 21
16233.43904386
 31
0.0
  0
LINE
  5
1D658
330
30FB
100
AcDbEntity
  8
YKK_N1
  6
Continuous
100
AcDbLine
 10
2515.89745962
 20
15966.43904592
 30
0.0
 11
2602.5
 21
16016.43904592
 31
0.0
  0
LINE
  5
1D659
330
30FB
100
AcDbEntity
  8
YKK_N1
  6
Continuous
100
AcDbLine
 10
2602.5
 20
16016.43904592
 30
0.0
 11
2515.89745962
 21
16066.43904592
 31
0.0
  0
LINE
  5
1D65A
330
30FB
100
AcDbEntity
  8
YKK_N1
  6
Continuous
100
AcDbLine
 10
2515.89745962
 20
15966.43904592
 30
0.0
 11
2515.89745962
 21
16066.43904592
 31
0.0
  0
LINE
  5
1D65B
330
30FB
100
AcDbEntity
  8
YKK_N1
  6
Continuous
100
AcDbLine
 10
2284.10254038
 20
15966.43904592
 30
0.0
 11
2197.5
 21
16016.43904592
 31
0.0
  0
LINE
  5
1D65C
330
30FB
100
AcDbEntity
  8
YKK_N1
  6
Continuous
100
AcDbLine
 10
2197.5
 20
16016.43904592
 30
0.0
 11
2284.10254038
 21
16066.43904592
 31
0.0
  0
LINE
  5
1D65D
330
30FB
100
AcDbEntity
  8
YKK_N1
  6
Continuous
100
AcDbLine
 10
2284.10254038
 20
15966.43904592
 30
0.0
 11
2284.10254038
 21
16066.43904592
 31
0.0
  0
CIRCLE
  5
1D66B
330
30FB
100
AcDbEntity
  8
YKK_IN
  6
Continuous
100
AcDbCircle
 10
2399.99998754
 20
16233.4390314
 30
0.0
 40
25.0
  0
LINE
  5
1D66C
330
30FB
100
AcDbEntity
  8
YKK_IN
  6
Continuous
100
AcDbLine
 10
2364.64464848
 20
16268.79437046
 30
0.0
 11
2435.3553266
 21
16198.08369234
 31
0.0
  0
LINE
  5
1D66D
330
30FB
100
AcDbEntity
  8
YKK_IN
  6
Continuous
100
AcDbLine
 10
2364.64464848
 20
16198.08369234
 30
0.0
 11
2435.3553266
 21
16268.79437046
 31
0.0
  0
LINE
  5
1D671
330
30FB
100
AcDbEntity
  8
YKK_A1
100
AcDbLine
 10
2197.5
 20
18078.43905408
 30
0.0
 11
2197.5
 21
16216.43904592
 31
0.0
  0
LINE
  5
1D672
330
30FB
100
AcDbEntity
  8
YKK_A1
100
AcDbLine
 10
2233.5
 20
18032.43904386
 30
0.0
 11
2233.5
 21
16269.43904386
 31
0.0
  0
LINE
  5
1D673
330
30FB
100
AcDbEntity
  8
YKK_A1
100
AcDbLine
 10
2566.5
 20
18032.43904386
 30
0.0
 11
2566.5
 21
16269.43904386
 31
0.0
  0
LINE
  5
1D674
330
30FB
100
AcDbEntity
  8
YKK_A1
100
AcDbLine
 10
2602.5
 20
18078.43905408
 30
0.0
 11
2602.5
 21
16216.43904592
 31
0.0
  0
LINE
  5
1D675
330
30FB
100
AcDbEntity
  8
YKK_A1
100
AcDbLine
 10
2602.5
 20
16216.43904592
 30
0.0
 11
2197.5
 21
16216.43904592
 31
0.0
  0
LINE
  5
1D676
330
30FB
100
AcDbEntity
  8
YKK_A1
100
AcDbLine
 10
2233.50000001
 20
18032.43904386
 30
0.0
 11
2566.5
 21
18032.43904386
 31
0.0
  0
LINE
  5
1D677
330
30FB
100
AcDbEntity
  8
YKK_A1
100
AcDbLine
 10
2197.5
 20
18078.43905408
 30
0.0
 11
2602.5
 21
18078.43905408
 31
0.0
  0
TEXT
  5
1D688
330
30FB
100
AcDbEntity
  8
YKK_N1
100
AcDbText
 10
2783.00188053
 20
16995.93904386
 30
0.0
 40
60.0
  1
H=1845
 50
90.0
100
AcDbText
  0
LINE
  5
1D689
330
30FB
100
AcDbEntity
  8
YKK_N1
  6
Continuous
100
AcDbLine
 10
2802.5
 20
18078.43904386
 30
0.0
 11
2802.5
 21
16233.43904386
 31
0.0
  0
LINE
  5
1D68A
330
30FB
100
AcDbEntity
  8
YKK_N1
  6
Continuous
100
AcDbLine
 10
2679.0
 20
16233.43904386
 30
0.0
 11
2803.0
 21
16233.43904386
 31
0.0
  0
LINE
  5
1D68B
330
30FB
100
AcDbEntity
  8
YKK_N1
  6
Continuous
100
AcDbLine
 10
2679.0
 20
18078.43904386
 30
0.0
 11
2803.0
 21
18078.43904386
 31
0.0
  0
TEXT
  5
1D68C
330
30FB
100
AcDbEntity
  8
0
100
AcDbText
 10
17069.4175458
 20
19625.0
 30
0.0
 40
200.0
  1
※図面を簡略化しております。詳細につきましては、詳細図（納まり図）をご参照ください。
  7
EXTFONT
 72
     2
 11
26971.3223077
 21
19625.0
 31
0.0
100
AcDbText
  0
LINE
  5
1D692
330
30FB
100
AcDbEntity
  8
YKK_F1
 62
     7
100
AcDbLine
 10
27000.0
 20
0.0
 30
0.0
 11
27000.0
 21
19500.0
 31
0.0
  0
LINE
  5
1D693
330
30FB
100
AcDbEntity
  8
YKK_F1
 62
     7
100
AcDbLine
 10
27500.0
 20
0.0
 30
0.0
 11
27500.0
 21
20000.0
 31
0.0
  0
LINE
  5
1D698
330
30FB
100
AcDbEntity
  8
YKK_F1
 62
     7
100
AcDbLine
 10
0.0
 20
0.0
 30
0.0
 11
0.0
 21
20000.0
 31
0.0
  0
LINE
  5
1D699
330
30FB
100
AcDbEntity
  8
YKK_F1
 62
     7
100
AcDbLine
 10
4300.0
 20
0.0
 30
0.0
 11
4300.0
 21
19500.0
 31
0.0
  0
LINE
  5
1D69A
330
30FB
100
AcDbEntity
  8
YKK_F1
 62
     7
100
AcDbLine
 10
11900.0
 20
0.0
 30
0.0
 11
11900.0
 21
19500.0
 31
0.0
  0
LINE
  5
1D69B
330
30FB
100
AcDbEntity
  8
YKK_F1
 62
     7
100
AcDbLine
 10
8100.0
 20
0.0
 30
0.0
 11
8100.0
 21
19500.0
 31
0.0
  0
LINE
  5
1D69C
330
30FB
100
AcDbEntity
  8
YKK_F1
 62
     7
100
AcDbLine
 10
500.0
 20
0.0
 30
0.0
 11
500.0
 21
19500.0
 31
0.0
  0
LINE
  5
1D69D
330
30FB
100
AcDbEntity
  8
YKK_F1
 62
     7
100
AcDbLine
 10
0.0
 20
20000.0
 30
0.0
 11
27500.0
 21
20000.0
 31
0.0
  0
LINE
  5
1D69E
330
30FB
100
AcDbEntity
  8
YKK_F1
 62
     7
100
AcDbLine
 10
0.0
 20
3700.0
 30
0.0
 11
27000.0
 21
3700.0
 31
0.0
  0
LINE
  5
1D6A0
330
30FB
100
AcDbEntity
  8
YKK_F1
 62
     7
100
AcDbLine
 10
0.0
 20
7900.0
 30
0.0
 11
27000.0
 21
7900.0
 31
0.0
  0
LINE
  5
1D6A1
330
30FB
100
AcDbEntity
  8
YKK_F1
 62
     7
100
AcDbLine
 10
0.0
 20
11600.0
 30
0.0
 11
27000.0
 21
11600.0
 31
0.0
  0
LINE
  5
1D6A2
330
30FB
100
AcDbEntity
  8
YKK_F1
 62
     7
100
AcDbLine
 10
0.0
 20
15300.0
 30
0.0
 11
27000.0
 21
15300.0
 31
0.0
  0
LINE
  5
1D6A3
330
30FB
100
AcDbEntity
  8
YKK_F1
 62
     7
100
AcDbLine
 10
0.0
 20
19000.0
 30
0.0
 11
27000.0
 21
19000.0
 31
0.0
  0
LINE
  5
1D6A4
330
30FB
100
AcDbEntity
  8
YKK_F1
 62
     7
100
AcDbLine
 10
0.0
 20
19500.0
 30
0.0
 11
27000.0
 21
19500.0
 31
0.0
  0
LINE
  5
1D6A5
330
30FB
100
AcDbEntity
  8
YKK_F1
 62
     7
100
AcDbLine
 10
0.0
 20
0.0
 30
0.0
 11
27500.0
 21
0.0
 31
0.0
  0
TEXT
  5
1D6A6
330
30FB
100
AcDbEntity
  8
0
100
AcDbText
 10
309.23360854
 20
19625.0
 30
0.0
 40
250.0
  1
E2NRCXF03　2×4 エピソードII NEO-R FIX窓 テラスタイプ
  7
EXTFONT
100
AcDbText
  0
TEXT
  5
1D7F3
330
30FB
100
AcDbEntity
  8
YKK_N1
100
AcDbText
 10
13603.16822613
 20
10684.42664448
 30
0.0
 40
60.0
  1
86
100
AcDbText
  0
LINE
  5
1D7F4
330
30FB
100
AcDbEntity
  8
YKK_N1
  6
Continuous
100
AcDbLine
 10
13719.49999911
 20
10672.42664448
 30
0.0
 11
13805.50000501
 21
10672.42664448
 31
0.0
  0
LINE
  5
1D7F5
330
30FB
100
AcDbEntity
  8
YKK_N1
  6
Continuous
100
AcDbLine
 10
13805.50000501
 20
10548.92664448
 30
0.0
 11
13805.50000501
 21
10672.92664448
 31
0.0
  0
LINE
  5
1D7F6
330
30FB
100
AcDbEntity
  8
YKK_N1
  6
Continuous
100
AcDbLine
 10
13719.49999911
 20
10548.92664448
 30
0.0
 11
13719.49999911
 21
10672.92664448
 31
0.0
  0
CIRCLE
  5
1D7F7
330
30FB
100
AcDbEntity
  8
YKK_N1
  6
Continuous
100
AcDbCircle
 10
13719.5000003
 20
10672.42664448
 30
0.0
 40
5.0
  0
CIRCLE
  5
1D7F8
330
30FB
100
AcDbEntity
  8
YKK_N1
  6
Continuous
100
AcDbCircle
 10
13805.5000003
 20
10672.42664448
 30
0.0
 40
5.0
  0
TEXT
  5
1D7F9
330
30FB
100
AcDbEntity
  8
YKK_N1
100
AcDbText
 10
13603.16822613
 20
14284.42664448
 30
0.0
 40
60.0
  1
86
100
AcDbText
  0
LINE
  5
1D7FA
330
30FB
100
AcDbEntity
  8
YKK_N1
  6
Continuous
100
AcDbLine
 10
13719.49999911
 20
14272.42664448
 30
0.0
 11
13805.50000501
 21
14272.42664448
 31
0.0
  0
LINE
  5
1D7FB
330
30FB
100
AcDbEntity
  8
YKK_N1
  6
Continuous
100
AcDbLine
 10
13805.50000501
 20
14148.92664448
 30
0.0
 11
13805.50000501
 21
14272.92664448
 31
0.0
  0
LINE
  5
1D7FC
330
30FB
100
AcDbEntity
  8
YKK_N1
  6
Continuous
100
AcDbLine
 10
13719.49999911
 20
14148.92664448
 30
0.0
 11
13719.49999911
 21
14272.92664448
 31
0.0
  0
CIRCLE
  5
1D7FD
330
30FB
100
AcDbEntity
  8
YKK_N1
  6
Continuous
100
AcDbCircle
 10
13719.5000003
 20
14272.42664448
 30
0.0
 40
5.0
  0
CIRCLE
  5
1D7FE
330
30FB
100
AcDbEntity
  8
YKK_N1
  6
Continuous
100
AcDbCircle
 10
13805.5000003
 20
14272.42664448
 30
0.0
 40
5.0
  0
TEXT
  5
1D7FF
330
30FB
100
AcDbEntity
  8
YKK_N1
100
AcDbText
 10
13603.16822613
 20
17884.42664448
 30
0.0
 40
60.0
  1
86
100
AcDbText
  0
LINE
  5
1D800
330
30FB
100
AcDbEntity
  8
YKK_N1
  6
Continuous
100
AcDbLine
 10
13719.49999911
 20
17872.42664448
 30
0.0
 11
13805.50000501
 21
17872.42664448
 31
0.0
  0
LINE
  5
1D801
330
30FB
100
AcDbEntity
  8
YKK_N1
  6
Continuous
100
AcDbLine
 10
13805.50000501
 20
17748.92664448
 30
0.0
 11
13805.50000501
 21
17872.92664448
 31
0.0
  0
LINE
  5
1D802
330
30FB
100
AcDbEntity
  8
YKK_N1
  6
Continuous
100
AcDbLine
 10
13719.49999911
 20
17748.92664448
 30
0.0
 11
13719.49999911
 21
17872.92664448
 31
0.0
  0
CIRCLE
  5
1D803
330
30FB
100
AcDbEntity
  8
YKK_N1
  6
Continuous
100
AcDbCircle
 10
13719.5000003
 20
17872.42664448
 30
0.0
 40
5.0
  0
CIRCLE
  5
1D804
330
30FB
100
AcDbEntity
  8
YKK_N1
  6
Continuous
100
AcDbCircle
 10
13805.5000003
 20
17872.42664448
 30
0.0
 40
5.0
  0
LINE
  5
1D805
330
30FB
100
AcDbEntity
  8
YKK_C1
100
AcDbLine
 10
13719.50000029
 20
8632.43904397
 30
0.0
 11
13719.49999912
 21
10860.93904386
 31
0.0
  0
LINE
  5
1D806
330
30FB
100
AcDbEntity
  8
YKK_C1
100
AcDbLine
 10
13805.50000501
 20
10838.43904363
 30
0.0
 11
13805.50000501
 21
8683.43904386
 31
0.0
  0
LINE
  5
1D807
330
30FB
100
AcDbEntity
  8
YKK_C1
100
AcDbLine
 10
13748.5000003
 20
8622.43904397
 30
0.0
 11
13748.5000003
 21
8669.43904386
 31
0.0
  0
LINE
  5
1D808
330
30FB
100
AcDbEntity
  8
YKK_C1
100
AcDbLine
 10
13802.4999991
 20
10831.38987385
 30
0.0
 11
13802.49999911
 21
10859.43904386
 31
0.0
  0
LINE
  5
1D809
330
30FB
100
AcDbEntity
  8
YKK_C1
100
AcDbLine
 10
13719.50000027
 20
8622.43904397
 30
0.0
 11
13778.50000044
 21
8622.43904397
 31
0.0
  0
LINE
  5
1D80A
330
30FB
100
AcDbEntity
  8
YKK_C1
100
AcDbLine
 10
13766.49999719
 20
10844.43904386
 30
0.0
 11
13766.492823
 21
8657.43913982
 31
0.0
  0
LINE
  5
1D80B
330
30FB
100
AcDbEntity
  8
YKK_C1
100
AcDbLine
 10
13748.49999911
 20
10878.43905408
 30
0.0
 11
13748.49999911
 21
10832.43904386
 31
0.0
  0
LINE
  5
1D80C
330
30FB
100
AcDbEntity
  8
YKK_C1
100
AcDbLine
 10
13805.49999911
 20
10859.43904386
 30
0.0
 11
13748.49999911
 21
10859.43904386
 31
0.0
  0
LINE
  5
1D80D
330
30FB
100
AcDbEntity
  8
YKK_C1
100
AcDbLine
 10
13748.5000003
 20
8646.43904386
 30
0.0
 11
13805.49999769
 21
8646.43904386
 31
0.0
  0
LINE
  5
1D80E
330
30FB
100
AcDbEntity
  8
YKK_C1
100
AcDbLine
 10
13778.50000046
 20
8601.43904386
 30
0.0
 11
13778.50000107
 21
8633.43904386
 31
0.0
  0
LINE
  5
1D80F
330
30FB
100
AcDbEntity
  8
YKK_C1
100
AcDbLine
 10
13805.5000003
 20
8633.43904386
 30
0.0
 11
13805.5000003
 21
8673.43904386
 31
0.0
  0
LINE
  5
1D810
330
30FB
100
AcDbEntity
  8
YKK_C1
100
AcDbLine
 10
13778.50000107
 20
8633.43904386
 30
0.0
 11
13805.50000046
 21
8633.43904386
 31
0.0
  0
LINE
  5
1D811
330
30FB
100
AcDbEntity
  8
YKK_C1
100
AcDbLine
 10
13719.50000046
 20
8616.43904386
 30
0.0
 11
13719.5000003
 21
8622.43904397
 31
0.0
  0
LINE
  5
1D812
330
30FB
100
AcDbEntity
  8
YKK_C1
100
AcDbLine
 10
13778.49999911
 20
10878.43905408
 30
0.0
 11
13778.49999911
 21
10903.43904386
 31
0.0
  0
LINE
  5
1D813
330
30FB
100
AcDbEntity
  8
YKK_C1
100
AcDbLine
 10
13719.49999911
 20
10878.43905408
 30
0.0
 11
13719.49999911
 21
10870.93904386
 31
0.0
  0
LINE
  5
1D814
330
30FB
100
AcDbEntity
  8
YKK_C1
100
AcDbLine
 10
13805.50000501
 20
10878.43905408
 30
0.0
 11
13719.49999911
 21
10878.43905408
 31
0.0
  0
LINE
  5
1D815
330
30FB
100
AcDbEntity
  8
YKK_C1
100
AcDbLine
 10
13805.50000501
 20
10848.43904363
 30
0.0
 11
13805.50000501
 21
10878.43905408
 31
0.0
  0
TEXT
  5
1D816
330
30FB
100
AcDbEntity
  8
YKK_N1
100
AcDbText
 10
13859.83411152
 20
8338.43904386
 30
0.0
 40
60.0
  1
15
100
AcDbText
  0
LINE
  5
1D817
330
30FB
100
AcDbEntity
  8
YKK_N1
  6
Continuous
100
AcDbLine
 10
13805.49999911
 20
8326.43904386
 30
0.0
 11
13820.49999911
 21
8326.43904386
 31
0.0
  0
LINE
  5
1D818
330
30FB
100
AcDbEntity
  8
YKK_N1
  6
Continuous
100
AcDbLine
 10
13820.49999911
 20
8449.93904386
 30
0.0
 11
13820.49999911
 21
8325.93904386
 31
0.0
  0
LINE
  5
1D819
330
30FB
100
AcDbEntity
  8
YKK_N1
  6
Continuous
100
AcDbLine
 10
13805.49999911
 20
8449.93904386
 30
0.0
 11
13805.49999911
 21
8325.93904386
 31
0.0
  0
TEXT
  5
1D81A
330
30FB
100
AcDbEntity
  8
YKK_N1
100
AcDbText
 10
13741.18561626
 20
8254.43904386
 30
0.0
 40
60.0
  1
27
100
AcDbText
  0
LINE
  5
1D81B
330
30FB
100
AcDbEntity
  8
YKK_N1
  6
Continuous
100
AcDbLine
 10
13805.49999911
 20
8326.43904386
 30
0.0
 11
13778.49999911
 21
8326.43904386
 31
0.0
  0
LINE
  5
1D81C
330
30FB
100
AcDbEntity
  8
YKK_N1
  6
Continuous
100
AcDbLine
 10
13778.49999911
 20
8449.93904386
 30
0.0
 11
13778.49999911
 21
8325.93904386
 31
0.0
  0
LINE
  5
1D81D
330
30FB
100
AcDbEntity
  8
YKK_N1
  6
Continuous
100
AcDbLine
 10
13805.49999911
 20
8449.93904386
 30
0.0
 11
13805.49999911
 21
8325.93904386
 31
0.0
  0
TEXT
  5
1D81E
330
30FB
100
AcDbEntity
  8
YKK_N1
100
AcDbText
 10
13606.26252653
 20
8338.43904386
 30
0.0
 40
60.0
  1
59
100
AcDbText
  0
LINE
  5
1D81F
330
30FB
100
AcDbEntity
  8
YKK_N1
  6
Continuous
100
AcDbLine
 10
13719.49999911
 20
8326.43904386
 30
0.0
 11
13778.49999911
 21
8326.43904386
 31
0.0
  0
LINE
  5
1D820
330
30FB
100
AcDbEntity
  8
YKK_N1
  6
Continuous
100
AcDbLine
 10
13778.49999911
 20
8449.93904386
 30
0.0
 11
13778.49999911
 21
8325.93904386
 31
0.0
  0
LINE
  5
1D821
330
30FB
100
AcDbEntity
  8
YKK_N1
  6
Continuous
100
AcDbLine
 10
13719.49999911
 20
8449.93904386
 30
0.0
 11
13719.49999911
 21
8325.93904386
 31
0.0
  0
CIRCLE
  5
1D822
330
30FB
100
AcDbEntity
  8
YKK_N1
  6
Continuous
100
AcDbCircle
 10
14280.5000003
 20
8601.43904386
 30
0.0
 40
5.0
  0
CIRCLE
  5
1D823
330
30FB
100
AcDbEntity
  8
YKK_N1
  6
Continuous
100
AcDbCircle
 10
14080.5000003
 20
8633.43904386
 30
0.0
 40
5.0
  0
CIRCLE
  5
1D824
330
30FB
100
AcDbEntity
  8
YKK_N1
  6
Continuous
100
AcDbCircle
 10
14080.5000003
 20
8648.43904386
 30
0.0
 40
5.0
  0
CIRCLE
  5
1D825
330
30FB
100
AcDbEntity
  8
YKK_N1
  6
Continuous
100
AcDbCircle
 10
14080.5000003
 20
10878.43904386
 30
0.0
 40
5.0
  0
CIRCLE
  5
1D826
330
30FB
100
AcDbEntity
  8
YKK_N1
  6
Continuous
100
AcDbCircle
 10
14080.5000003
 20
10848.43904386
 30
0.0
 40
5.0
  0
CIRCLE
  5
1D827
330
30FB
100
AcDbEntity
  8
YKK_N1
  6
Continuous
100
AcDbCircle
 10
14280.5000003
 20
10903.43904386
 30
0.0
 40
5.0
  0
TEXT
  5
1D828
330
30FB
100
AcDbEntity
  8
YKK_N1
100
AcDbText
 10
14268.5000003
 20
8471.28071934
 30
0.0
 40
60.0
  1
32
 50
90.0
100
AcDbText
  0
LINE
  5
1D829
330
30FB
100
AcDbEntity
  8
YKK_N1
  6
Continuous
100
AcDbLine
 10
14280.5000003
 20
8633.43904386
 30
0.0
 11
14280.5000003
 21
8601.43904339
 31
0.0
  0
LINE
  5
1D82A
330
30FB
100
AcDbEntity
  8
YKK_N1
  6
Continuous
100
AcDbLine
 10
13957.0000003
 20
8601.43904339
 30
0.0
 11
14281.0000003
 21
8601.43904339
 31
0.0
  0
LINE
  5
1D82B
330
30FB
100
AcDbEntity
  8
YKK_N1
  6
Continuous
100
AcDbLine
 10
13957.0000003
 20
8633.43904386
 30
0.0
 11
14281.0000003
 21
8633.43904386
 31
0.0
  0
TEXT
  5
1D82C
330
30FB
100
AcDbEntity
  8
YKK_N1
100
AcDbText
 10
14068.5000003
 20
8674.3083494
 30
0.0
 40
60.0
  1
15
 50
90.0
100
AcDbText
  0
LINE
  5
1D82D
330
30FB
100
AcDbEntity
  8
YKK_N1
  6
Continuous
100
AcDbLine
 10
14080.5000003
 20
8648.43904385
 30
0.0
 11
14080.5000003
 21
8633.43904386
 31
0.0
  0
LINE
  5
1D82E
330
30FB
100
AcDbEntity
  8
YKK_N1
  6
Continuous
100
AcDbLine
 10
13957.0000003
 20
8633.43904386
 30
0.0
 11
14081.0000003
 21
8633.43904386
 31
0.0
  0
LINE
  5
1D82F
330
30FB
100
AcDbEntity
  8
YKK_N1
  6
Continuous
100
AcDbLine
 10
13957.0000003
 20
8648.43904385
 30
0.0
 11
14081.0000003
 21
8648.43904385
 31
0.0
  0
TEXT
  5
1D830
330
30FB
100
AcDbEntity
  8
YKK_N1
100
AcDbText
 10
14263.5000003
 20
9585.93904386
 30
0.0
 40
60.0
  1
H=2245
 50
90.0
100
AcDbText
  0
LINE
  5
1D831
330
30FB
100
AcDbEntity
  8
YKK_N1
  6
Continuous
100
AcDbLine
 10
14280.5000003
 20
10878.43904386
 30
0.0
 11
14280.5000003
 21
8633.43904386
 31
0.0
  0
LINE
  5
1D832
330
30FB
100
AcDbEntity
  8
YKK_N1
  6
Continuous
100
AcDbLine
 10
13957.0000003
 20
8633.43904386
 30
0.0
 11
14281.0000003
 21
8633.43904386
 31
0.0
  0
LINE
  5
1D833
330
30FB
100
AcDbEntity
  8
YKK_N1
  6
Continuous
100
AcDbLine
 10
13957.0000003
 20
10878.43904386
 30
0.0
 11
14281.0000003
 21
10878.43904386
 31
0.0
  0
TEXT
  5
1D834
330
30FB
100
AcDbEntity
  8
YKK_N1
100
AcDbText
 10
14268.5000003
 20
10933.69557744
 30
0.0
 40
60.0
  1
25
 50
90.0
100
AcDbText
  0
LINE
  5
1D835
330
30FB
100
AcDbEntity
  8
YKK_N1
  6
Continuous
100
AcDbLine
 10
14280.5000003
 20
10903.43904386
 30
0.0
 11
14280.5000003
 21
10878.43904386
 31
0.0
  0
LINE
  5
1D836
330
30FB
100
AcDbEntity
  8
YKK_N1
  6
Continuous
100
AcDbLine
 10
13957.0000003
 20
10878.43904386
 30
0.0
 11
14281.0000003
 21
10878.43904386
 31
0.0
  0
LINE
  5
1D837
330
30FB
100
AcDbEntity
  8
YKK_N1
  6
Continuous
100
AcDbLine
 10
13957.0000003
 20
10903.43904386
 30
0.0
 11
14281.0000003
 21
10903.43904386
 31
0.0
  0
TEXT
  5
1D838
330
30FB
100
AcDbEntity
  8
YKK_N1
100
AcDbText
 10
14068.5000003
 20
10736.44017328
 30
0.0
 40
60.0
  1
30
 50
90.0
100
AcDbText
  0
LINE
  5
1D839
330
30FB
100
AcDbEntity
  8
YKK_N1
  6
Continuous
100
AcDbLine
 10
14080.5000003
 20
10878.43904386
 30
0.0
 11
14080.5000003
 21
10848.43904386
 31
0.0
  0
LINE
  5
1D83A
330
30FB
100
AcDbEntity
  8
YKK_N1
  6
Continuous
100
AcDbLine
 10
13957.0000003
 20
10848.43904386
 30
0.0
 11
14081.0000003
 21
10848.43904386
 31
0.0
  0
LINE
  5
1D83B
330
30FB
100
AcDbEntity
  8
YKK_N1
  6
Continuous
100
AcDbLine
 10
13957.0000003
 20
10878.43904386
 30
0.0
 11
14081.0000003
 21
10878.43904386
 31
0.0
  0
LINE
  5
1D83C
330
30FB
100
AcDbEntity
  8
YKK_N1
  6
Continuous
100
AcDbLine
 10
14230.5000003
 20
10791.83650348
 30
0.0
 11
14280.5000003
 21
10878.43904386
 31
0.0
  0
LINE
  5
1D83D
330
30FB
100
AcDbEntity
  8
YKK_N1
  6
Continuous
100
AcDbLine
 10
14330.5000003
 20
10791.83650348
 30
0.0
 11
14280.5000003
 21
10878.43904386
 31
0.0
  0
LINE
  5
1D83E
330
30FB
100
AcDbEntity
  8
YKK_N1
  6
Continuous
100
AcDbLine
 10
14230.5000003
 20
10791.83650348
 30
0.0
 11
14330.5000003
 21
10791.83650348
 31
0.0
  0
LINE
  5
1D83F
330
30FB
100
AcDbEntity
  8
YKK_N1
  6
Continuous
100
AcDbLine
 10
14280.5000003
 20
8633.43904386
 30
0.0
 11
14330.5000003
 21
8720.04158424
 31
0.0
  0
LINE
  5
1D840
330
30FB
100
AcDbEntity
  8
YKK_N1
  6
Continuous
100
AcDbLine
 10
14230.5000003
 20
8720.04158424
 30
0.0
 11
14280.5000003
 21
8633.43904386
 31
0.0
  0
LINE
  5
1D841
330
30FB
100
AcDbEntity
  8
YKK_N1
  6
Continuous
100
AcDbLine
 10
14230.5000003
 20
8720.04158424
 30
0.0
 11
14330.5000003
 21
8720.04158424
 31
0.0
  0
LINE
  5
1D842
330
30FB
100
AcDbEntity
  8
YKK_N1
  6
Continuous
100
AcDbLine
 10
13778.49999911
 20
8326.43904386
 30
0.0
 11
13719.49999911
 21
8326.43904386
 31
0.0
  0
CIRCLE
  5
1D843
330
30FB
100
AcDbEntity
  8
YKK_N1
  6
Continuous
100
AcDbCircle
 10
13719.49999911
 20
8326.43904386
 30
0.0
 40
5.0
  0
CIRCLE
  5
1D844
330
30FB
100
AcDbEntity
  8
YKK_N1
  6
Continuous
100
AcDbCircle
 10
13820.49999911
 20
8326.43904386
 30
0.0
 40
5.0
  0
CIRCLE
  5
1D845
330
30FB
100
AcDbEntity
  8
YKK_N1
  6
Continuous
100
AcDbCircle
 10
13805.49999911
 20
8326.43904386
 30
0.0
 40
5.0
  0
CIRCLE
  5
1D846
330
30FB
100
AcDbEntity
  8
YKK_N1
  6
Continuous
100
AcDbCircle
 10
13778.49999911
 20
8326.43904386
 30
0.0
 40
5.0
  0
LINE
  5
1D847
330
30FB
100
AcDbEntity
  8
YKK_N1
  6
Continuous
100
AcDbLine
 10
13778.49999911
 20
8326.43904386
 30
0.0
 11
13805.49999911
 21
8326.43904386
 31
0.0
  0
LINE
  5
1D848
330
30FB
100
AcDbEntity
  8
YKK_N1
  6
Continuous
100
AcDbLine
 10
13805.49999911
 20
8326.43904386
 30
0.0
 11
13820.49999911
 21
8326.43904386
 31
0.0
  0
CIRCLE
  5
1D849
330
30FB
100
AcDbEntity
  8
YKK_IN
  6
Continuous
100
AcDbCircle
 10
13778.50000107
 20
8633.43904386
 30
0.0
 40
25.0
  0
LINE
  5
1D84A
330
30FB
100
AcDbEntity
  8
YKK_IN
  6
Continuous
100
AcDbLine
 10
13743.14466201
 20
8668.79438292
 30
0.0
 11
13813.85534013
 21
8598.0837048
 31
0.0
  0
LINE
  5
1D84B
330
30FB
100
AcDbEntity
  8
YKK_IN
  6
Continuous
100
AcDbLine
 10
13743.14466201
 20
8598.0837048
 30
0.0
 11
13813.85534013
 21
8668.79438292
 31
0.0
  0
LINE
  5
1D84C
330
30FB
100
AcDbEntity
  8
YKK_C1
100
AcDbLine
 10
13719.50000029
 20
12432.43904397
 30
0.0
 11
13719.49999912
 21
14460.93904386
 31
0.0
  0
LINE
  5
1D84D
330
30FB
100
AcDbEntity
  8
YKK_C1
100
AcDbLine
 10
13805.50000501
 20
14438.43904363
 30
0.0
 11
13805.50000501
 21
12483.43904386
 31
0.0
  0
LINE
  5
1D84E
330
30FB
100
AcDbEntity
  8
YKK_C1
100
AcDbLine
 10
13748.5000003
 20
12422.43904397
 30
0.0
 11
13748.5000003
 21
12469.43904386
 31
0.0
  0
LINE
  5
1D84F
330
30FB
100
AcDbEntity
  8
YKK_C1
100
AcDbLine
 10
13802.4999991
 20
14431.38987385
 30
0.0
 11
13802.49999911
 21
14459.43904386
 31
0.0
  0
LINE
  5
1D850
330
30FB
100
AcDbEntity
  8
YKK_C1
100
AcDbLine
 10
13719.50000027
 20
12422.43904397
 30
0.0
 11
13778.50000044
 21
12422.43904397
 31
0.0
  0
LINE
  5
1D851
330
30FB
100
AcDbEntity
  8
YKK_C1
100
AcDbLine
 10
13766.49999719
 20
14444.43904386
 30
0.0
 11
13766.492823
 21
12457.43913982
 31
0.0
  0
LINE
  5
1D852
330
30FB
100
AcDbEntity
  8
YKK_C1
100
AcDbLine
 10
13748.49999911
 20
14478.43905408
 30
0.0
 11
13748.49999911
 21
14432.43904386
 31
0.0
  0
LINE
  5
1D853
330
30FB
100
AcDbEntity
  8
YKK_C1
100
AcDbLine
 10
13805.49999911
 20
14459.43904386
 30
0.0
 11
13748.49999911
 21
14459.43904386
 31
0.0
  0
LINE
  5
1D854
330
30FB
100
AcDbEntity
  8
YKK_C1
100
AcDbLine
 10
13748.5000003
 20
12446.43904386
 30
0.0
 11
13805.49999769
 21
12446.43904386
 31
0.0
  0
LINE
  5
1D855
330
30FB
100
AcDbEntity
  8
YKK_C1
100
AcDbLine
 10
13778.50000046
 20
12401.43904386
 30
0.0
 11
13778.50000107
 21
12433.43904386
 31
0.0
  0
LINE
  5
1D856
330
30FB
100
AcDbEntity
  8
YKK_C1
100
AcDbLine
 10
13805.5000003
 20
12433.43904386
 30
0.0
 11
13805.5000003
 21
12473.43904386
 31
0.0
  0
LINE
  5
1D857
330
30FB
100
AcDbEntity
  8
YKK_C1
100
AcDbLine
 10
13778.50000107
 20
12433.43904386
 30
0.0
 11
13805.50000046
 21
12433.43904386
 31
0.0
  0
LINE
  5
1D858
330
30FB
100
AcDbEntity
  8
YKK_C1
100
AcDbLine
 10
13719.50000046
 20
12416.43904386
 30
0.0
 11
13719.5000003
 21
12422.43904397
 31
0.0
  0
LINE
  5
1D859
330
30FB
100
AcDbEntity
  8
YKK_C1
100
AcDbLine
 10
13778.49999911
 20
14478.43905408
 30
0.0
 11
13778.49999911
 21
14503.43904386
 31
0.0
  0
LINE
  5
1D85A
330
30FB
100
AcDbEntity
  8
YKK_C1
100
AcDbLine
 10
13719.49999911
 20
14478.43905408
 30
0.0
 11
13719.49999911
 21
14470.93904386
 31
0.0
  0
LINE
  5
1D85B
330
30FB
100
AcDbEntity
  8
YKK_C1
100
AcDbLine
 10
13805.50000501
 20
14478.43905408
 30
0.0
 11
13719.49999911
 21
14478.43905408
 31
0.0
  0
LINE
  5
1D85C
330
30FB
100
AcDbEntity
  8
YKK_C1
100
AcDbLine
 10
13805.50000501
 20
14448.43904363
 30
0.0
 11
13805.50000501
 21
14478.43905408
 31
0.0
  0
TEXT
  5
1D85D
330
30FB
100
AcDbEntity
  8
YKK_N1
100
AcDbText
 10
13859.83411152
 20
12138.43904386
 30
0.0
 40
60.0
  1
15
100
AcDbText
  0
LINE
  5
1D85E
330
30FB
100
AcDbEntity
  8
YKK_N1
  6
Continuous
100
AcDbLine
 10
13805.49999911
 20
12126.43904386
 30
0.0
 11
13820.49999911
 21
12126.43904386
 31
0.0
  0
LINE
  5
1D85F
330
30FB
100
AcDbEntity
  8
YKK_N1
  6
Continuous
100
AcDbLine
 10
13820.49999911
 20
12249.93904386
 30
0.0
 11
13820.49999911
 21
12125.93904386
 31
0.0
  0
LINE
  5
1D860
330
30FB
100
AcDbEntity
  8
YKK_N1
  6
Continuous
100
AcDbLine
 10
13805.49999911
 20
12249.93904386
 30
0.0
 11
13805.49999911
 21
12125.93904386
 31
0.0
  0
TEXT
  5
1D861
330
30FB
100
AcDbEntity
  8
YKK_N1
100
AcDbText
 10
13741.18561626
 20
12054.43904386
 30
0.0
 40
60.0
  1
27
100
AcDbText
  0
LINE
  5
1D862
330
30FB
100
AcDbEntity
  8
YKK_N1
  6
Continuous
100
AcDbLine
 10
13805.49999911
 20
12126.43904386
 30
0.0
 11
13778.49999911
 21
12126.43904386
 31
0.0
  0
LINE
  5
1D863
330
30FB
100
AcDbEntity
  8
YKK_N1
  6
Continuous
100
AcDbLine
 10
13778.49999911
 20
12249.93904386
 30
0.0
 11
13778.49999911
 21
12125.93904386
 31
0.0
  0
LINE
  5
1D864
330
30FB
100
AcDbEntity
  8
YKK_N1
  6
Continuous
100
AcDbLine
 10
13805.49999911
 20
12249.93904386
 30
0.0
 11
13805.49999911
 21
12125.93904386
 31
0.0
  0
TEXT
  5
1D865
330
30FB
100
AcDbEntity
  8
YKK_N1
100
AcDbText
 10
13606.26252653
 20
12138.43904386
 30
0.0
 40
60.0
  1
59
100
AcDbText
  0
LINE
  5
1D866
330
30FB
100
AcDbEntity
  8
YKK_N1
  6
Continuous
100
AcDbLine
 10
13719.49999911
 20
12126.43904386
 30
0.0
 11
13778.49999911
 21
12126.43904386
 31
0.0
  0
LINE
  5
1D867
330
30FB
100
AcDbEntity
  8
YKK_N1
  6
Continuous
100
AcDbLine
 10
13778.49999911
 20
12249.93904386
 30
0.0
 11
13778.49999911
 21
12125.93904386
 31
0.0
  0
LINE
  5
1D868
330
30FB
100
AcDbEntity
  8
YKK_N1
  6
Continuous
100
AcDbLine
 10
13719.49999911
 20
12249.93904386
 30
0.0
 11
13719.49999911
 21
12125.93904386
 31
0.0
  0
CIRCLE
  5
1D869
330
30FB
100
AcDbEntity
  8
YKK_N1
  6
Continuous
100
AcDbCircle
 10
14280.5000003
 20
12401.43904386
 30
0.0
 40
5.0
  0
CIRCLE
  5
1D86A
330
30FB
100
AcDbEntity
  8
YKK_N1
  6
Continuous
100
AcDbCircle
 10
14080.5000003
 20
12433.43904386
 30
0.0
 40
5.0
  0
CIRCLE
  5
1D86B
330
30FB
100
AcDbEntity
  8
YKK_N1
  6
Continuous
100
AcDbCircle
 10
14080.5000003
 20
12448.43904386
 30
0.0
 40
5.0
  0
CIRCLE
  5
1D86C
330
30FB
100
AcDbEntity
  8
YKK_N1
  6
Continuous
100
AcDbCircle
 10
14080.5000003
 20
14478.43904386
 30
0.0
 40
5.0
  0
CIRCLE
  5
1D86D
330
30FB
100
AcDbEntity
  8
YKK_N1
  6
Continuous
100
AcDbCircle
 10
14080.5000003
 20
14448.43904386
 30
0.0
 40
5.0
  0
CIRCLE
  5
1D86E
330
30FB
100
AcDbEntity
  8
YKK_N1
  6
Continuous
100
AcDbCircle
 10
14280.5000003
 20
14503.43904386
 30
0.0
 40
5.0
  0
TEXT
  5
1D86F
330
30FB
100
AcDbEntity
  8
YKK_N1
100
AcDbText
 10
14268.5000003
 20
12271.28071934
 30
0.0
 40
60.0
  1
32
 50
90.0
100
AcDbText
  0
LINE
  5
1D870
330
30FB
100
AcDbEntity
  8
YKK_N1
  6
Continuous
100
AcDbLine
 10
14280.5000003
 20
12433.43904386
 30
0.0
 11
14280.5000003
 21
12401.43904339
 31
0.0
  0
LINE
  5
1D871
330
30FB
100
AcDbEntity
  8
YKK_N1
  6
Continuous
100
AcDbLine
 10
13957.0000003
 20
12401.43904339
 30
0.0
 11
14281.0000003
 21
12401.43904339
 31
0.0
  0
LINE
  5
1D872
330
30FB
100
AcDbEntity
  8
YKK_N1
  6
Continuous
100
AcDbLine
 10
13957.0000003
 20
12433.43904386
 30
0.0
 11
14281.0000003
 21
12433.43904386
 31
0.0
  0
TEXT
  5
1D873
330
30FB
100
AcDbEntity
  8
YKK_N1
100
AcDbText
 10
14068.5000003
 20
12474.3083494
 30
0.0
 40
60.0
  1
15
 50
90.0
100
AcDbText
  0
LINE
  5
1D874
330
30FB
100
AcDbEntity
  8
YKK_N1
  6
Continuous
100
AcDbLine
 10
14080.5000003
 20
12448.43904385
 30
0.0
 11
14080.5000003
 21
12433.43904386
 31
0.0
  0
LINE
  5
1D875
330
30FB
100
AcDbEntity
  8
YKK_N1
  6
Continuous
100
AcDbLine
 10
13957.0000003
 20
12433.43904386
 30
0.0
 11
14081.0000003
 21
12433.43904386
 31
0.0
  0
LINE
  5
1D876
330
30FB
100
AcDbEntity
  8
YKK_N1
  6
Continuous
100
AcDbLine
 10
13957.0000003
 20
12448.43904385
 30
0.0
 11
14081.0000003
 21
12448.43904385
 31
0.0
  0
TEXT
  5
1D877
330
30FB
100
AcDbEntity
  8
YKK_N1
100
AcDbText
 10
14263.5000003
 20
13290.93904386
 30
0.0
 40
60.0
  1
H=2045
 50
90.0
100
AcDbText
  0
LINE
  5
1D878
330
30FB
100
AcDbEntity
  8
YKK_N1
  6
Continuous
100
AcDbLine
 10
14280.5000003
 20
14478.43904386
 30
0.0
 11
14280.5000003
 21
12433.43904386
 31
0.0
  0
LINE
  5
1D879
330
30FB
100
AcDbEntity
  8
YKK_N1
  6
Continuous
100
AcDbLine
 10
13957.0000003
 20
12433.43904386
 30
0.0
 11
14281.0000003
 21
12433.43904386
 31
0.0
  0
LINE
  5
1D87A
330
30FB
100
AcDbEntity
  8
YKK_N1
  6
Continuous
100
AcDbLine
 10
13957.0000003
 20
14478.43904386
 30
0.0
 11
14281.0000003
 21
14478.43904386
 31
0.0
  0
TEXT
  5
1D87B
330
30FB
100
AcDbEntity
  8
YKK_N1
100
AcDbText
 10
14268.5000003
 20
14533.69557744
 30
0.0
 40
60.0
  1
25
 50
90.0
100
AcDbText
  0
LINE
  5
1D87C
330
30FB
100
AcDbEntity
  8
YKK_N1
  6
Continuous
100
AcDbLine
 10
14280.5000003
 20
14503.43904386
 30
0.0
 11
14280.5000003
 21
14478.43904386
 31
0.0
  0
LINE
  5
1D87D
330
30FB
100
AcDbEntity
  8
YKK_N1
  6
Continuous
100
AcDbLine
 10
13957.0000003
 20
14478.43904386
 30
0.0
 11
14281.0000003
 21
14478.43904386
 31
0.0
  0
LINE
  5
1D87E
330
30FB
100
AcDbEntity
  8
YKK_N1
  6
Continuous
100
AcDbLine
 10
13957.0000003
 20
14503.43904386
 30
0.0
 11
14281.0000003
 21
14503.43904386
 31
0.0
  0
TEXT
  5
1D87F
330
30FB
100
AcDbEntity
  8
YKK_N1
100
AcDbText
 10
14068.5000003
 20
14336.44017328
 30
0.0
 40
60.0
  1
30
 50
90.0
100
AcDbText
  0
LINE
  5
1D880
330
30FB
100
AcDbEntity
  8
YKK_N1
  6
Continuous
100
AcDbLine
 10
14080.5000003
 20
14478.43904386
 30
0.0
 11
14080.5000003
 21
14448.43904386
 31
0.0
  0
LINE
  5
1D881
330
30FB
100
AcDbEntity
  8
YKK_N1
  6
Continuous
100
AcDbLine
 10
13957.0000003
 20
14448.43904386
 30
0.0
 11
14081.0000003
 21
14448.43904386
 31
0.0
  0
LINE
  5
1D882
330
30FB
100
AcDbEntity
  8
YKK_N1
  6
Continuous
100
AcDbLine
 10
13957.0000003
 20
14478.43904386
 30
0.0
 11
14081.0000003
 21
14478.43904386
 31
0.0
  0
LINE
  5
1D883
330
30FB
100
AcDbEntity
  8
YKK_N1
  6
Continuous
100
AcDbLine
 10
14230.5000003
 20
14391.83650348
 30
0.0
 11
14280.5000003
 21
14478.43904386
 31
0.0
  0
LINE
  5
1D884
330
30FB
100
AcDbEntity
  8
YKK_N1
  6
Continuous
100
AcDbLine
 10
14330.5000003
 20
14391.83650348
 30
0.0
 11
14280.5000003
 21
14478.43904386
 31
0.0
  0
LINE
  5
1D885
330
30FB
100
AcDbEntity
  8
YKK_N1
  6
Continuous
100
AcDbLine
 10
14230.5000003
 20
14391.83650348
 30
0.0
 11
14330.5000003
 21
14391.83650348
 31
0.0
  0
LINE
  5
1D886
330
30FB
100
AcDbEntity
  8
YKK_N1
  6
Continuous
100
AcDbLine
 10
14280.5000003
 20
12433.43904386
 30
0.0
 11
14330.5000003
 21
12520.04158424
 31
0.0
  0
LINE
  5
1D887
330
30FB
100
AcDbEntity
  8
YKK_N1
  6
Continuous
100
AcDbLine
 10
14230.5000003
 20
12520.04158424
 30
0.0
 11
14280.5000003
 21
12433.43904386
 31
0.0
  0
LINE
  5
1D888
330
30FB
100
AcDbEntity
  8
YKK_N1
  6
Continuous
100
AcDbLine
 10
14230.5000003
 20
12520.04158424
 30
0.0
 11
14330.5000003
 21
12520.04158424
 31
0.0
  0
LINE
  5
1D889
330
30FB
100
AcDbEntity
  8
YKK_N1
  6
Continuous
100
AcDbLine
 10
13778.49999911
 20
12126.43904386
 30
0.0
 11
13719.49999911
 21
12126.43904386
 31
0.0
  0
CIRCLE
  5
1D88A
330
30FB
100
AcDbEntity
  8
YKK_N1
  6
Continuous
100
AcDbCircle
 10
13719.49999911
 20
12126.43904386
 30
0.0
 40
5.0
  0
CIRCLE
  5
1D88B
330
30FB
100
AcDbEntity
  8
YKK_N1
  6
Continuous
100
AcDbCircle
 10
13820.49999911
 20
12126.43904386
 30
0.0
 40
5.0
  0
CIRCLE
  5
1D88C
330
30FB
100
AcDbEntity
  8
YKK_N1
  6
Continuous
100
AcDbCircle
 10
13805.49999911
 20
12126.43904386
 30
0.0
 40
5.0
  0
CIRCLE
  5
1D88D
330
30FB
100
AcDbEntity
  8
YKK_N1
  6
Continuous
100
AcDbCircle
 10
13778.49999911
 20
12126.43904386
 30
0.0
 40
5.0
  0
LINE
  5
1D88E
330
30FB
100
AcDbEntity
  8
YKK_N1
  6
Continuous
100
AcDbLine
 10
13778.49999911
 20
12126.43904386
 30
0.0
 11
13805.49999911
 21
12126.43904386
 31
0.0
  0
LINE
  5
1D88F
330
30FB
100
AcDbEntity
  8
YKK_N1
  6
Continuous
100
AcDbLine
 10
13805.49999911
 20
12126.43904386
 30
0.0
 11
13820.49999911
 21
12126.43904386
 31
0.0
  0
CIRCLE
  5
1D890
330
30FB
100
AcDbEntity
  8
YKK_IN
  6
Continuous
100
AcDbCircle
 10
13778.50000107
 20
12433.43904386
 30
0.0
 40
25.0
  0
LINE
  5
1D891
330
30FB
100
AcDbEntity
  8
YKK_IN
  6
Continuous
100
AcDbLine
 10
13743.14466201
 20
12468.79438292
 30
0.0
 11
13813.85534013
 21
12398.0837048
 31
0.0
  0
LINE
  5
1D892
330
30FB
100
AcDbEntity
  8
YKK_IN
  6
Continuous
100
AcDbLine
 10
13743.14466201
 20
12398.0837048
 30
0.0
 11
13813.85534013
 21
12468.79438292
 31
0.0
  0
TEXT
  5
1D893
330
30FB
100
AcDbEntity
  8
0
 62
     3
100
AcDbText
 10
12239.95356542
 20
8673.33333333
 30
0.0
 40
170.0
  1
H=2245(h=2200)
 50
90.0
  7
EXTFONT
 72
     4
 11
12154.95356542
 21
9750.0
 31
0.0
100
AcDbText
  0
TEXT
  5
1D894
330
30FB
100
AcDbEntity
  8
0
 62
     3
100
AcDbText
 10
12239.95356542
 20
12401.66666667
 30
0.0
 40
170.0
  1
H=2045(h=2000)
 50
90.0
  7
EXTFONT
 72
     4
 11
12154.95356542
 21
13450.0
 31
0.0
100
AcDbText
  0
TEXT
  5
1D895
330
30FB
100
AcDbEntity
  8
0
 62
     3
100
AcDbText
 10
12239.95356542
 20
16130.0
 30
0.0
 40
170.0
  1
H=1845(h=1800)
 50
90.0
  7
EXTFONT
 72
     4
 11
12154.95356542
 21
17150.0
 31
0.0
100
AcDbText
  0
LINE
  5
1D896
330
30FB
100
AcDbEntity
  8
YKK_C1
100
AcDbLine
 10
13719.50000029
 20
16232.43904397
 30
0.0
 11
13719.49999912
 21
18060.93904386
 31
0.0
  0
LINE
  5
1D897
330
30FB
100
AcDbEntity
  8
YKK_C1
100
AcDbLine
 10
13805.50000501
 20
18038.43904363
 30
0.0
 11
13805.50000501
 21
16283.43904386
 31
0.0
  0
LINE
  5
1D898
330
30FB
100
AcDbEntity
  8
YKK_C1
100
AcDbLine
 10
13748.5000003
 20
16222.43904397
 30
0.0
 11
13748.5000003
 21
16269.43904386
 31
0.0
  0
LINE
  5
1D899
330
30FB
100
AcDbEntity
  8
YKK_C1
100
AcDbLine
 10
13802.4999991
 20
18031.38987385
 30
0.0
 11
13802.49999911
 21
18059.43904386
 31
0.0
  0
LINE
  5
1D89A
330
30FB
100
AcDbEntity
  8
YKK_C1
100
AcDbLine
 10
13719.50000027
 20
16222.43904397
 30
0.0
 11
13778.50000044
 21
16222.43904397
 31
0.0
  0
LINE
  5
1D89B
330
30FB
100
AcDbEntity
  8
YKK_C1
100
AcDbLine
 10
13766.49999719
 20
18044.43904386
 30
0.0
 11
13766.492823
 21
16257.43913982
 31
0.0
  0
LINE
  5
1D89C
330
30FB
100
AcDbEntity
  8
YKK_C1
100
AcDbLine
 10
13748.49999911
 20
18078.43905408
 30
0.0
 11
13748.49999911
 21
18032.43904386
 31
0.0
  0
LINE
  5
1D89D
330
30FB
100
AcDbEntity
  8
YKK_C1
100
AcDbLine
 10
13805.49999911
 20
18059.43904386
 30
0.0
 11
13748.49999911
 21
18059.43904386
 31
0.0
  0
LINE
  5
1D89E
330
30FB
100
AcDbEntity
  8
YKK_C1
100
AcDbLine
 10
13748.5000003
 20
16246.43904386
 30
0.0
 11
13805.49999769
 21
16246.43904386
 31
0.0
  0
LINE
  5
1D89F
330
30FB
100
AcDbEntity
  8
YKK_C1
100
AcDbLine
 10
13778.50000046
 20
16201.43904386
 30
0.0
 11
13778.50000107
 21
16233.43904386
 31
0.0
  0
LINE
  5
1D8A0
330
30FB
100
AcDbEntity
  8
YKK_C1
100
AcDbLine
 10
13805.5000003
 20
16233.43904386
 30
0.0
 11
13805.5000003
 21
16273.43904386
 31
0.0
  0
LINE
  5
1D8A1
330
30FB
100
AcDbEntity
  8
YKK_C1
100
AcDbLine
 10
13778.50000107
 20
16233.43904386
 30
0.0
 11
13805.50000046
 21
16233.43904386
 31
0.0
  0
LINE
  5
1D8A2
330
30FB
100
AcDbEntity
  8
YKK_C1
100
AcDbLine
 10
13719.50000046
 20
16216.43904386
 30
0.0
 11
13719.5000003
 21
16222.43904397
 31
0.0
  0
LINE
  5
1D8A3
330
30FB
100
AcDbEntity
  8
YKK_C1
100
AcDbLine
 10
13778.49999911
 20
18078.43905408
 30
0.0
 11
13778.49999911
 21
18103.43904386
 31
0.0
  0
LINE
  5
1D8A4
330
30FB
100
AcDbEntity
  8
YKK_C1
100
AcDbLine
 10
13719.49999911
 20
18078.43905408
 30
0.0
 11
13719.49999911
 21
18070.93904386
 31
0.0
  0
LINE
  5
1D8A5
330
30FB
100
AcDbEntity
  8
YKK_C1
100
AcDbLine
 10
13805.50000501
 20
18078.43905408
 30
0.0
 11
13719.49999911
 21
18078.43905408
 31
0.0
  0
LINE
  5
1D8A6
330
30FB
100
AcDbEntity
  8
YKK_C1
100
AcDbLine
 10
13805.50000501
 20
18048.43904363
 30
0.0
 11
13805.50000501
 21
18078.43905408
 31
0.0
  0
TEXT
  5
1D8A7
330
30FB
100
AcDbEntity
  8
YKK_N1
100
AcDbText
 10
13859.83411152
 20
15938.43904386
 30
0.0
 40
60.0
  1
15
100
AcDbText
  0
LINE
  5
1D8A8
330
30FB
100
AcDbEntity
  8
YKK_N1
  6
Continuous
100
AcDbLine
 10
13805.49999911
 20
15926.43904386
 30
0.0
 11
13820.49999911
 21
15926.43904386
 31
0.0
  0
LINE
  5
1D8A9
330
30FB
100
AcDbEntity
  8
YKK_N1
  6
Continuous
100
AcDbLine
 10
13820.49999911
 20
16049.93904386
 30
0.0
 11
13820.49999911
 21
15925.93904386
 31
0.0
  0
LINE
  5
1D8AA
330
30FB
100
AcDbEntity
  8
YKK_N1
  6
Continuous
100
AcDbLine
 10
13805.49999911
 20
16049.93904386
 30
0.0
 11
13805.49999911
 21
15925.93904386
 31
0.0
  0
TEXT
  5
1D8AB
330
30FB
100
AcDbEntity
  8
YKK_N1
100
AcDbText
 10
13741.18561626
 20
15854.43904386
 30
0.0
 40
60.0
  1
27
100
AcDbText
  0
LINE
  5
1D8AC
330
30FB
100
AcDbEntity
  8
YKK_N1
  6
Continuous
100
AcDbLine
 10
13805.49999911
 20
15926.43904386
 30
0.0
 11
13778.49999911
 21
15926.43904386
 31
0.0
  0
LINE
  5
1D8AD
330
30FB
100
AcDbEntity
  8
YKK_N1
  6
Continuous
100
AcDbLine
 10
13778.49999911
 20
16049.93904386
 30
0.0
 11
13778.49999911
 21
15925.93904386
 31
0.0
  0
LINE
  5
1D8AE
330
30FB
100
AcDbEntity
  8
YKK_N1
  6
Continuous
100
AcDbLine
 10
13805.49999911
 20
16049.93904386
 30
0.0
 11
13805.49999911
 21
15925.93904386
 31
0.0
  0
TEXT
  5
1D8AF
330
30FB
100
AcDbEntity
  8
YKK_N1
100
AcDbText
 10
13606.26252653
 20
15938.43904386
 30
0.0
 40
60.0
  1
59
100
AcDbText
  0
LINE
  5
1D8B0
330
30FB
100
AcDbEntity
  8
YKK_N1
  6
Continuous
100
AcDbLine
 10
13719.49999911
 20
15926.43904386
 30
0.0
 11
13778.49999911
 21
15926.43904386
 31
0.0
  0
LINE
  5
1D8B1
330
30FB
100
AcDbEntity
  8
YKK_N1
  6
Continuous
100
AcDbLine
 10
13778.49999911
 20
16049.93904386
 30
0.0
 11
13778.49999911
 21
15925.93904386
 31
0.0
  0
LINE
  5
1D8B2
330
30FB
100
AcDbEntity
  8
YKK_N1
  6
Continuous
100
AcDbLine
 10
13719.49999911
 20
16049.93904386
 30
0.0
 11
13719.49999911
 21
15925.93904386
 31
0.0
  0
CIRCLE
  5
1D8B3
330
30FB
100
AcDbEntity
  8
YKK_N1
  6
Continuous
100
AcDbCircle
 10
14280.5000003
 20
16201.43904386
 30
0.0
 40
5.0
  0
CIRCLE
  5
1D8B4
330
30FB
100
AcDbEntity
  8
YKK_N1
  6
Continuous
100
AcDbCircle
 10
14080.5000003
 20
16233.43904386
 30
0.0
 40
5.0
  0
CIRCLE
  5
1D8B5
330
30FB
100
AcDbEntity
  8
YKK_N1
  6
Continuous
100
AcDbCircle
 10
14080.5000003
 20
16248.43904386
 30
0.0
 40
5.0
  0
CIRCLE
  5
1D8B6
330
30FB
100
AcDbEntity
  8
YKK_N1
  6
Continuous
100
AcDbCircle
 10
14080.5000003
 20
18078.43904386
 30
0.0
 40
5.0
  0
CIRCLE
  5
1D8B7
330
30FB
100
AcDbEntity
  8
YKK_N1
  6
Continuous
100
AcDbCircle
 10
14080.5000003
 20
18048.43904386
 30
0.0
 40
5.0
  0
CIRCLE
  5
1D8B8
330
30FB
100
AcDbEntity
  8
YKK_N1
  6
Continuous
100
AcDbCircle
 10
14280.5000003
 20
18103.43904386
 30
0.0
 40
5.0
  0
TEXT
  5
1D8B9
330
30FB
100
AcDbEntity
  8
YKK_N1
100
AcDbText
 10
14268.5000003
 20
16071.28071934
 30
0.0
 40
60.0
  1
32
 50
90.0
100
AcDbText
  0
LINE
  5
1D8BA
330
30FB
100
AcDbEntity
  8
YKK_N1
  6
Continuous
100
AcDbLine
 10
14280.5000003
 20
16233.43904386
 30
0.0
 11
14280.5000003
 21
16201.43904339
 31
0.0
  0
LINE
  5
1D8BB
330
30FB
100
AcDbEntity
  8
YKK_N1
  6
Continuous
100
AcDbLine
 10
13957.0000003
 20
16201.43904339
 30
0.0
 11
14281.0000003
 21
16201.43904339
 31
0.0
  0
LINE
  5
1D8BC
330
30FB
100
AcDbEntity
  8
YKK_N1
  6
Continuous
100
AcDbLine
 10
13957.0000003
 20
16233.43904386
 30
0.0
 11
14281.0000003
 21
16233.43904386
 31
0.0
  0
TEXT
  5
1D8BD
330
30FB
100
AcDbEntity
  8
YKK_N1
100
AcDbText
 10
14068.5000003
 20
16274.3083494
 30
0.0
 40
60.0
  1
15
 50
90.0
100
AcDbText
  0
LINE
  5
1D8BE
330
30FB
100
AcDbEntity
  8
YKK_N1
  6
Continuous
100
AcDbLine
 10
14080.5000003
 20
16248.43904385
 30
0.0
 11
14080.5000003
 21
16233.43904386
 31
0.0
  0
LINE
  5
1D8BF
330
30FB
100
AcDbEntity
  8
YKK_N1
  6
Continuous
100
AcDbLine
 10
13957.0000003
 20
16233.43904386
 30
0.0
 11
14081.0000003
 21
16233.43904386
 31
0.0
  0
LINE
  5
1D8C0
330
30FB
100
AcDbEntity
  8
YKK_N1
  6
Continuous
100
AcDbLine
 10
13957.0000003
 20
16248.43904385
 30
0.0
 11
14081.0000003
 21
16248.43904385
 31
0.0
  0
TEXT
  5
1D8C1
330
30FB
100
AcDbEntity
  8
YKK_N1
100
AcDbText
 10
14263.5000003
 20
16995.93904386
 30
0.0
 40
60.0
  1
H=1845
 50
90.0
100
AcDbText
  0
LINE
  5
1D8C2
330
30FB
100
AcDbEntity
  8
YKK_N1
  6
Continuous
100
AcDbLine
 10
14280.5000003
 20
18078.43904386
 30
0.0
 11
14280.5000003
 21
16233.43904386
 31
0.0
  0
LINE
  5
1D8C3
330
30FB
100
AcDbEntity
  8
YKK_N1
  6
Continuous
100
AcDbLine
 10
13957.0000003
 20
16233.43904386
 30
0.0
 11
14281.0000003
 21
16233.43904386
 31
0.0
  0
LINE
  5
1D8C4
330
30FB
100
AcDbEntity
  8
YKK_N1
  6
Continuous
100
AcDbLine
 10
13957.0000003
 20
18078.43904386
 30
0.0
 11
14281.0000003
 21
18078.43904386
 31
0.0
  0
TEXT
  5
1D8C5
330
30FB
100
AcDbEntity
  8
YKK_N1
100
AcDbText
 10
14268.5000003
 20
18133.69557744
 30
0.0
 40
60.0
  1
25
 50
90.0
100
AcDbText
  0
LINE
  5
1D8C6
330
30FB
100
AcDbEntity
  8
YKK_N1
  6
Continuous
100
AcDbLine
 10
14280.5000003
 20
18103.43904386
 30
0.0
 11
14280.5000003
 21
18078.43904386
 31
0.0
  0
LINE
  5
1D8C7
330
30FB
100
AcDbEntity
  8
YKK_N1
  6
Continuous
100
AcDbLine
 10
13957.0000003
 20
18078.43904386
 30
0.0
 11
14281.0000003
 21
18078.43904386
 31
0.0
  0
LINE
  5
1D8C8
330
30FB
100
AcDbEntity
  8
YKK_N1
  6
Continuous
100
AcDbLine
 10
13957.0000003
 20
18103.43904386
 30
0.0
 11
14281.0000003
 21
18103.43904386
 31
0.0
  0
TEXT
  5
1D8C9
330
30FB
100
AcDbEntity
  8
YKK_N1
100
AcDbText
 10
14068.5000003
 20
17936.44017328
 30
0.0
 40
60.0
  1
30
 50
90.0
100
AcDbText
  0
LINE
  5
1D8CA
330
30FB
100
AcDbEntity
  8
YKK_N1
  6
Continuous
100
AcDbLine
 10
14080.5000003
 20
18078.43904386
 30
0.0
 11
14080.5000003
 21
18048.43904386
 31
0.0
  0
LINE
  5
1D8CB
330
30FB
100
AcDbEntity
  8
YKK_N1
  6
Continuous
100
AcDbLine
 10
13957.0000003
 20
18048.43904386
 30
0.0
 11
14081.0000003
 21
18048.43904386
 31
0.0
  0
LINE
  5
1D8CC
330
30FB
100
AcDbEntity
  8
YKK_N1
  6
Continuous
100
AcDbLine
 10
13957.0000003
 20
18078.43904386
 30
0.0
 11
14081.0000003
 21
18078.43904386
 31
0.0
  0
LINE
  5
1D8CD
330
30FB
100
AcDbEntity
  8
YKK_N1
  6
Continuous
100
AcDbLine
 10
14230.5000003
 20
17991.83650348
 30
0.0
 11
14280.5000003
 21
18078.43904386
 31
0.0
  0
LINE
  5
1D8CE
330
30FB
100
AcDbEntity
  8
YKK_N1
  6
Continuous
100
AcDbLine
 10
14330.5000003
 20
17991.83650348
 30
0.0
 11
14280.5000003
 21
18078.43904386
 31
0.0
  0
LINE
  5
1D8CF
330
30FB
100
AcDbEntity
  8
YKK_N1
  6
Continuous
100
AcDbLine
 10
14230.5000003
 20
17991.83650348
 30
0.0
 11
14330.5000003
 21
17991.83650348
 31
0.0
  0
LINE
  5
1D8D0
330
30FB
100
AcDbEntity
  8
YKK_N1
  6
Continuous
100
AcDbLine
 10
14280.5000003
 20
16233.43904386
 30
0.0
 11
14330.5000003
 21
16320.04158424
 31
0.0
  0
LINE
  5
1D8D1
330
30FB
100
AcDbEntity
  8
YKK_N1
  6
Continuous
100
AcDbLine
 10
14230.5000003
 20
16320.04158424
 30
0.0
 11
14280.5000003
 21
16233.43904386
 31
0.0
  0
LINE
  5
1D8D2
330
30FB
100
AcDbEntity
  8
YKK_N1
  6
Continuous
100
AcDbLine
 10
14230.5000003
 20
16320.04158424
 30
0.0
 11
14330.5000003
 21
16320.04158424
 31
0.0
  0
LINE
  5
1D8D3
330
30FB
100
AcDbEntity
  8
YKK_N1
  6
Continuous
100
AcDbLine
 10
13778.49999911
 20
15926.43904386
 30
0.0
 11
13719.49999911
 21
15926.43904386
 31
0.0
  0
CIRCLE
  5
1D8D4
330
30FB
100
AcDbEntity
  8
YKK_N1
  6
Continuous
100
AcDbCircle
 10
13719.49999911
 20
15926.43904386
 30
0.0
 40
5.0
  0
CIRCLE
  5
1D8D5
330
30FB
100
AcDbEntity
  8
YKK_N1
  6
Continuous
100
AcDbCircle
 10
13820.49999911
 20
15926.43904386
 30
0.0
 40
5.0
  0
CIRCLE
  5
1D8D6
330
30FB
100
AcDbEntity
  8
YKK_N1
  6
Continuous
100
AcDbCircle
 10
13805.49999911
 20
15926.43904386
 30
0.0
 40
5.0
  0
CIRCLE
  5
1D8D7
330
30FB
100
AcDbEntity
  8
YKK_N1
  6
Continuous
100
AcDbCircle
 10
13778.49999911
 20
15926.43904386
 30
0.0
 40
5.0
  0
LINE
  5
1D8D8
330
30FB
100
AcDbEntity
  8
YKK_N1
  6
Continuous
100
AcDbLine
 10
13778.49999911
 20
15926.43904386
 30
0.0
 11
13805.49999911
 21
15926.43904386
 31
0.0
  0
LINE
  5
1D8D9
330
30FB
100
AcDbEntity
  8
YKK_N1
  6
Continuous
100
AcDbLine
 10
13805.49999911
 20
15926.43904386
 30
0.0
 11
13820.49999911
 21
15926.43904386
 31
0.0
  0
CIRCLE
  5
1D8DA
330
30FB
100
AcDbEntity
  8
YKK_IN
  6
Continuous
100
AcDbCircle
 10
13778.50000107
 20
16233.43904386
 30
0.0
 40
25.0
  0
LINE
  5
1D8DB
330
30FB
100
AcDbEntity
  8
YKK_IN
  6
Continuous
100
AcDbLine
 10
13743.14466201
 20
16268.79438292
 30
0.0
 11
13813.85534013
 21
16198.0837048
 31
0.0
  0
LINE
  5
1D8DC
330
30FB
100
AcDbEntity
  8
YKK_IN
  6
Continuous
100
AcDbLine
 10
13743.14466201
 20
16198.0837048
 30
0.0
 11
13813.85534013
 21
16268.79438292
 31
0.0
  0
TEXT
  5
1D8DD
330
30FB
100
AcDbEntity
  8
0
 62
     3
100
AcDbText
 10
13546.66666667
 20
19150.0
 30
0.0
 40
200.0
  1
縦断面図
  7
EXTFONT
 72
     1
 11
13993.33333333
 21
19250.0
 31
0.0
100
AcDbText
 73
     2
  0
LINE
  5
1D8DE
330
30FB
100
AcDbEntity
  8
YKK_F1
 62
     7
100
AcDbLine
 10
12400.0
 20
0.0
 30
0.0
 11
12400.0
 21
19500.0
 31
0.0
  0
LINE
  5
1D8E0
330
30FB
100
AcDbEntity
  8
YKK_F1
 62
     7
100
AcDbLine
 10
15600.0
 20
0.0
 30
0.0
 11
15600.0
 21
19500.0
 31
0.0
  0
TEXT
  5
1D9BF
330
30FB
100
AcDbEntity
  8
YKK_N1
100
AcDbText
 10
10241.07529086
 20
5857.10330815
 30
0.0
 40
60.0
  1
86
 50
90.0
100
AcDbText
  0
LINE
  5
1D9C0
330
30FB
100
AcDbEntity
  8
YKK_N1
  6
Continuous
100
AcDbLine
 10
10253.46680696
 20
5830.50110829
 30
0.0
 11
10253.46680696
 21
5744.50110829
 31
0.0
  0
LINE
  5
1D9C1
330
30FB
100
AcDbEntity
  8
YKK_N1
  6
Continuous
100
AcDbLine
 10
10129.96680696
 20
5744.50110829
 30
0.0
 11
10253.96680696
 21
5744.50110829
 31
0.0
  0
LINE
  5
1D9C2
330
30FB
100
AcDbEntity
  8
YKK_N1
  6
Continuous
100
AcDbLine
 10
10129.96680696
 20
5830.50110829
 30
0.0
 11
10253.96680696
 21
5830.50110829
 31
0.0
  0
CIRCLE
  5
1D9C3
330
30FB
100
AcDbEntity
  8
YKK_N1
  6
Continuous
100
AcDbCircle
 10
10253.46680696
 20
5744.50346708
 30
0.0
 40
5.0
  0
CIRCLE
  5
1D9C4
330
30FB
100
AcDbEntity
  8
YKK_N1
  6
Continuous
100
AcDbCircle
 10
10253.46680696
 20
5830.50346708
 30
0.0
 40
5.0
  0
TEXT
  5
1D9C5
330
30FB
100
AcDbEntity
  8
YKK_N1
100
AcDbText
 10
6396.07529086
 20
5857.10330815
 30
0.0
 40
60.0
  1
86
 50
90.0
100
AcDbText
  0
LINE
  5
1D9C6
330
30FB
100
AcDbEntity
  8
YKK_N1
  6
Continuous
100
AcDbLine
 10
6408.46680696
 20
5830.50110829
 30
0.0
 11
6408.46680696
 21
5744.50110829
 31
0.0
  0
LINE
  5
1D9C7
330
30FB
100
AcDbEntity
  8
YKK_N1
  6
Continuous
100
AcDbLine
 10
6284.96680696
 20
5744.50110829
 30
0.0
 11
6408.96680696
 21
5744.50110829
 31
0.0
  0
LINE
  5
1D9C8
330
30FB
100
AcDbEntity
  8
YKK_N1
  6
Continuous
100
AcDbLine
 10
6284.96680696
 20
5830.50110829
 30
0.0
 11
6408.96680696
 21
5830.50110829
 31
0.0
  0
CIRCLE
  5
1D9C9
330
30FB
100
AcDbEntity
  8
YKK_N1
  6
Continuous
100
AcDbCircle
 10
6408.46680696
 20
5744.50346708
 30
0.0
 40
5.0
  0
CIRCLE
  5
1D9CA
330
30FB
100
AcDbEntity
  8
YKK_N1
  6
Continuous
100
AcDbCircle
 10
6408.46680696
 20
5830.50346708
 30
0.0
 40
5.0
  0
TEXT
  5
1D9CB
330
30FB
100
AcDbEntity
  8
YKK_N1
100
AcDbText
 10
2478.57529086
 20
5857.10330815
 30
0.0
 40
60.0
  1
86
 50
90.0
100
AcDbText
  0
LINE
  5
1D9CC
330
30FB
100
AcDbEntity
  8
YKK_N1
  6
Continuous
100
AcDbLine
 10
2490.96680696
 20
5830.50110829
 30
0.0
 11
2490.96680696
 21
5744.50110829
 31
0.0
  0
LINE
  5
1D9CD
330
30FB
100
AcDbEntity
  8
YKK_N1
  6
Continuous
100
AcDbLine
 10
2367.46680696
 20
5744.50110829
 30
0.0
 11
2491.46680696
 21
5744.50110829
 31
0.0
  0
LINE
  5
1D9CE
330
30FB
100
AcDbEntity
  8
YKK_N1
  6
Continuous
100
AcDbLine
 10
2367.46680696
 20
5830.50110829
 30
0.0
 11
2491.46680696
 21
5830.50110829
 31
0.0
  0
CIRCLE
  5
1D9CF
330
30FB
100
AcDbEntity
  8
YKK_N1
  6
Continuous
100
AcDbCircle
 10
2490.96680696
 20
5744.50346708
 30
0.0
 40
5.0
  0
CIRCLE
  5
1D9D0
330
30FB
100
AcDbEntity
  8
YKK_N1
  6
Continuous
100
AcDbCircle
 10
2490.96680696
 20
5830.50346708
 30
0.0
 40
5.0
  0
LINE
  5
1D9D1
330
30FB
100
AcDbEntity
  8
YKK_C1
100
AcDbLine
 10
10346.0
 20
5830.5
 30
0.0
 11
9654.0
 21
5830.5
 31
0.0
  0
LINE
  5
1D9D2
330
30FB
100
AcDbEntity
  8
YKK_C1
100
AcDbLine
 10
9665.000011
 20
5744.5
 30
0.0
 11
10334.999989
 21
5744.5
 31
0.0
  0
LINE
  5
1D9D3
330
30FB
100
AcDbEntity
  8
YKK_C1
100
AcDbLine
 10
10330.50000099
 20
5749.00000001
 30
0.0
 11
10365.0
 21
5749.00000001
 31
0.0
  0
LINE
  5
1D9D4
330
30FB
100
AcDbEntity
  8
YKK_C1
100
AcDbLine
 10
10329.0
 20
5803.0
 30
0.0
 11
10365.0
 21
5803.0
 31
0.0
  0
LINE
  5
1D9D5
330
30FB
100
AcDbEntity
  8
YKK_C1
100
AcDbLine
 10
9669.49999901
 20
5749.00000001
 30
0.0
 11
9635.0
 21
5749.00000001
 31
0.0
  0
LINE
  5
1D9D6
330
30FB
100
AcDbEntity
  8
YKK_C1
100
AcDbLine
 10
9659.00085823
 20
5783.50020027
 30
0.0
 11
10340.99914176
 21
5783.50020027
 31
0.0
  0
LINE
  5
1D9D7
330
30FB
100
AcDbEntity
  8
YKK_C1
100
AcDbLine
 10
9671.0
 20
5803.0
 30
0.0
 11
9635.0
 21
5803.0
 31
0.0
  0
LINE
  5
1D9D8
330
30FB
100
AcDbEntity
  8
YKK_C1
100
AcDbLine
 10
10365.0
 20
5830.5
 30
0.0
 11
10365.0
 21
5744.5
 31
0.0
  0
LINE
  5
1D9D9
330
30FB
100
AcDbEntity
  8
YKK_C1
100
AcDbLine
 10
10392.0
 20
5771.5
 30
0.0
 11
10365.0
 21
5771.5
 31
0.0
  0
LINE
  5
1D9DA
330
30FB
100
AcDbEntity
  8
YKK_C1
100
AcDbLine
 10
10356.0
 20
5830.5
 30
0.0
 11
10365.0
 21
5830.5
 31
0.0
  0
LINE
  5
1D9DB
330
30FB
100
AcDbEntity
  8
YKK_C1
100
AcDbLine
 10
10365.0
 20
5744.5
 30
0.0
 11
10344.999989
 21
5744.5
 31
0.0
  0
LINE
  5
1D9DC
330
30FB
100
AcDbEntity
  8
YKK_C1
100
AcDbLine
 10
9608.0
 20
5771.50110829
 30
0.0
 11
9635.0
 21
5771.50110829
 31
0.0
  0
LINE
  5
1D9DD
330
30FB
100
AcDbEntity
  8
YKK_C1
100
AcDbLine
 10
9635.0
 20
5830.50110829
 30
0.0
 11
9635.0
 21
5744.5
 31
0.0
  0
LINE
  5
1D9DE
330
30FB
100
AcDbEntity
  8
YKK_C1
100
AcDbLine
 10
9644.0
 20
5830.5
 30
0.0
 11
9635.0
 21
5830.50110829
 31
0.0
  0
LINE
  5
1D9DF
330
30FB
100
AcDbEntity
  8
YKK_C1
100
AcDbLine
 10
9635.0
 20
5744.5
 30
0.0
 11
9655.000011
 21
5744.5
 31
0.0
  0
TEXT
  5
1D9E0
330
30FB
100
AcDbEntity
  8
YKK_N1
100
AcDbText
 10
10654.99984307
 20
5604.41934682
 30
0.0
 40
60.0
  1
15
 50
90.0
100
AcDbText
  0
LINE
  5
1D9E1
330
30FB
100
AcDbEntity
  8
YKK_N1
  6
Continuous
100
AcDbLine
 10
10667.0
 20
5744.5
 30
0.0
 11
10667.0
 21
5729.5
 31
0.0
  0
LINE
  5
1D9E2
330
30FB
100
AcDbEntity
  8
YKK_N1
  6
Continuous
100
AcDbLine
 10
10543.5
 20
5729.5
 30
0.0
 11
10667.5
 21
5729.5
 31
0.0
  0
LINE
  5
1D9E3
330
30FB
100
AcDbEntity
  8
YKK_N1
  6
Continuous
100
AcDbLine
 10
10543.5
 20
5744.5
 30
0.0
 11
10667.5
 21
5744.5
 31
0.0
  0
TEXT
  5
1D9E4
330
30FB
100
AcDbEntity
  8
YKK_N1
100
AcDbText
 10
10738.59147997
 20
5710.74718814
 30
0.0
 40
60.0
  1
27
 50
90.0
100
AcDbText
  0
LINE
  5
1D9E5
330
30FB
100
AcDbEntity
  8
YKK_N1
  6
Continuous
100
AcDbLine
 10
10667.0
 20
5771.5
 30
0.0
 11
10667.0
 21
5744.5
 31
0.0
  0
LINE
  5
1D9E6
330
30FB
100
AcDbEntity
  8
YKK_N1
  6
Continuous
100
AcDbLine
 10
10543.5
 20
5744.5
 30
0.0
 11
10667.5
 21
5744.5
 31
0.0
  0
LINE
  5
1D9E7
330
30FB
100
AcDbEntity
  8
YKK_N1
  6
Continuous
100
AcDbLine
 10
10543.5
 20
5771.5
 30
0.0
 11
10667.5
 21
5771.5
 31
0.0
  0
TEXT
  5
1D9E8
330
30FB
100
AcDbEntity
  8
YKK_N1
100
AcDbText
 10
10655.05019777
 20
5845.3777702
 30
0.0
 40
60.0
  1
59
 50
90.0
100
AcDbText
  0
LINE
  5
1D9E9
330
30FB
100
AcDbEntity
  8
YKK_N1
  6
Continuous
100
AcDbLine
 10
10667.0
 20
5830.5
 30
0.0
 11
10667.0
 21
5771.5
 31
0.0
  0
LINE
  5
1D9EA
330
30FB
100
AcDbEntity
  8
YKK_N1
  6
Continuous
100
AcDbLine
 10
10543.5
 20
5771.5
 30
0.0
 11
10667.5
 21
5771.5
 31
0.0
  0
LINE
  5
1D9EB
330
30FB
100
AcDbEntity
  8
YKK_N1
  6
Continuous
100
AcDbLine
 10
10543.5
 20
5830.5
 30
0.0
 11
10667.5
 21
5830.5
 31
0.0
  0
TEXT
  5
1D9EC
330
30FB
100
AcDbEntity
  8
YKK_N1
100
AcDbText
 10
10241.0743071
 20
5487.00622261
 30
0.0
 40
60.0
  1
20
100
AcDbText
  0
LINE
  5
1D9ED
330
30FB
100
AcDbEntity
  8
YKK_N1
  6
Continuous
100
AcDbLine
 10
10345.0
 20
5469.5
 30
0.0
 11
10365.0
 21
5469.5
 31
0.0
  0
LINE
  5
1D9EE
330
30FB
100
AcDbEntity
  8
YKK_N1
  6
Continuous
100
AcDbLine
 10
10365.0
 20
5593.0
 30
0.0
 11
10365.0
 21
5469.0
 31
0.0
  0
LINE
  5
1D9EF
330
30FB
100
AcDbEntity
  8
YKK_N1
  6
Continuous
100
AcDbLine
 10
10345.0
 20
5593.0
 30
0.0
 11
10345.0
 21
5469.0
 31
0.0
  0
TEXT
  5
1D9F0
330
30FB
100
AcDbEntity
  8
YKK_N1
100
AcDbText
 10
10418.09579001
 20
5284.5
 30
0.0
 40
60.0
  1
27
100
AcDbText
  0
LINE
  5
1D9F1
330
30FB
100
AcDbEntity
  8
YKK_N1
  6
Continuous
100
AcDbLine
 10
10365.0
 20
5269.5
 30
0.0
 11
10392.0
 21
5269.5
 31
0.0
  0
LINE
  5
1D9F2
330
30FB
100
AcDbEntity
  8
YKK_N1
  6
Continuous
100
AcDbLine
 10
10392.0
 20
5593.0
 30
0.0
 11
10392.0
 21
5269.0
 31
0.0
  0
LINE
  5
1D9F3
330
30FB
100
AcDbEntity
  8
YKK_N1
  6
Continuous
100
AcDbLine
 10
10365.0
 20
5593.0
 30
0.0
 11
10365.0
 21
5269.0
 31
0.0
  0
TEXT
  5
1D9F4
330
30FB
100
AcDbEntity
  8
YKK_N1
100
AcDbText
 10
9479.72334909
 20
5284.5
 30
0.0
 40
60.0
  1
27
100
AcDbText
  0
LINE
  5
1D9F5
330
30FB
100
AcDbEntity
  8
YKK_N1
  6
Continuous
100
AcDbLine
 10
9608.0
 20
5269.5
 30
0.0
 11
9635.0
 21
5269.5
 31
0.0
  0
LINE
  5
1D9F6
330
30FB
100
AcDbEntity
  8
YKK_N1
  6
Continuous
100
AcDbLine
 10
9635.0
 20
5593.0
 30
0.0
 11
9635.0
 21
5269.0
 31
0.0
  0
LINE
  5
1D9F7
330
30FB
100
AcDbEntity
  8
YKK_N1
  6
Continuous
100
AcDbLine
 10
9608.0
 20
5593.0
 30
0.0
 11
9608.0
 21
5269.0
 31
0.0
  0
TEXT
  5
1D9F8
330
30FB
100
AcDbEntity
  8
YKK_N1
100
AcDbText
 10
9855.0
 20
5289.5
 30
0.0
 40
60.0
  1
W=730
100
AcDbText
  0
LINE
  5
1D9F9
330
30FB
100
AcDbEntity
  8
YKK_N1
  6
Continuous
100
AcDbLine
 10
9635.0
 20
5269.5
 30
0.0
 11
10365.0
 21
5269.5
 31
0.0
  0
LINE
  5
1D9FA
330
30FB
100
AcDbEntity
  8
YKK_N1
  6
Continuous
100
AcDbLine
 10
10365.0
 20
5593.0
 30
0.0
 11
10365.0
 21
5269.0
 31
0.0
  0
LINE
  5
1D9FB
330
30FB
100
AcDbEntity
  8
YKK_N1
  6
Continuous
100
AcDbLine
 10
9635.0
 20
5593.0
 30
0.0
 11
9635.0
 21
5269.0
 31
0.0
  0
TEXT
  5
1D9FC
330
30FB
100
AcDbEntity
  8
YKK_N1
100
AcDbText
 10
9667.7539225
 20
5487.00622261
 30
0.0
 40
60.0
  1
20
100
AcDbText
  0
LINE
  5
1D9FD
330
30FB
100
AcDbEntity
  8
YKK_N1
  6
Continuous
100
AcDbLine
 10
9635.0
 20
5469.5
 30
0.0
 11
9655.0
 21
5469.5
 31
0.0
  0
LINE
  5
1D9FE
330
30FB
100
AcDbEntity
  8
YKK_N1
  6
Continuous
100
AcDbLine
 10
9655.0
 20
5593.0
 30
0.0
 11
9655.0
 21
5469.0
 31
0.0
  0
LINE
  5
1D9FF
330
30FB
100
AcDbEntity
  8
YKK_N1
  6
Continuous
100
AcDbLine
 10
9635.0
 20
5593.0
 30
0.0
 11
9635.0
 21
5469.0
 31
0.0
  0
CIRCLE
  5
1DA00
330
30FB
100
AcDbEntity
  8
YKK_N1
  6
Continuous
100
AcDbCircle
 10
10667.0
 20
5744.50223711
 30
0.0
 40
5.0
  0
CIRCLE
  5
1DA01
330
30FB
100
AcDbEntity
  8
YKK_N1
  6
Continuous
100
AcDbCircle
 10
10667.0
 20
5729.50223711
 30
0.0
 40
5.0
  0
CIRCLE
  5
1DA02
330
30FB
100
AcDbEntity
  8
YKK_N1
  6
Continuous
100
AcDbCircle
 10
10667.0
 20
5771.50223711
 30
0.0
 40
5.0
  0
CIRCLE
  5
1DA03
330
30FB
100
AcDbEntity
  8
YKK_N1
  6
Continuous
100
AcDbCircle
 10
10667.0
 20
5830.50223711
 30
0.0
 40
5.0
  0
CIRCLE
  5
1DA04
330
30FB
100
AcDbEntity
  8
YKK_N1
  6
Continuous
100
AcDbCircle
 10
10365.0
 20
5469.5
 30
0.0
 40
5.0
  0
CIRCLE
  5
1DA05
330
30FB
100
AcDbEntity
  8
YKK_N1
  6
Continuous
100
AcDbCircle
 10
10345.0
 20
5469.5
 30
0.0
 40
5.0
  0
LINE
  5
1DA06
330
30FB
100
AcDbEntity
  8
YKK_N1
  6
Continuous
100
AcDbLine
 10
10365.0
 20
5269.5
 30
0.0
 11
10278.39745962
 21
5219.5
 31
0.0
  0
CIRCLE
  5
1DA07
330
30FB
100
AcDbEntity
  8
YKK_N1
  6
Continuous
100
AcDbCircle
 10
10392.0
 20
5269.5
 30
0.0
 40
5.0
  0
LINE
  5
1DA08
330
30FB
100
AcDbEntity
  8
YKK_N1
  6
Continuous
100
AcDbLine
 10
10278.39745962
 20
5319.5
 30
0.0
 11
10365.0
 21
5269.5
 31
0.0
  0
LINE
  5
1DA09
330
30FB
100
AcDbEntity
  8
YKK_N1
  6
Continuous
100
AcDbLine
 10
10278.39745962
 20
5319.5
 30
0.0
 11
10278.39745962
 21
5219.5
 31
0.0
  0
CIRCLE
  5
1DA0A
330
30FB
100
AcDbEntity
  8
YKK_N1
  6
Continuous
100
AcDbCircle
 10
9635.0
 20
5469.5
 30
0.0
 40
5.0
  0
CIRCLE
  5
1DA0B
330
30FB
100
AcDbEntity
  8
YKK_N1
  6
Continuous
100
AcDbCircle
 10
9655.0
 20
5469.5
 30
0.0
 40
5.0
  0
LINE
  5
1DA0C
330
30FB
100
AcDbEntity
  8
YKK_N1
  6
Continuous
100
AcDbLine
 10
9635.0
 20
5269.5
 30
0.0
 11
9721.60254038
 21
5219.5
 31
0.0
  0
CIRCLE
  5
1DA0D
330
30FB
100
AcDbEntity
  8
YKK_N1
  6
Continuous
100
AcDbCircle
 10
9608.0
 20
5269.5
 30
0.0
 40
5.0
  0
LINE
  5
1DA0E
330
30FB
100
AcDbEntity
  8
YKK_N1
  6
Continuous
100
AcDbLine
 10
9721.60254038
 20
5319.5
 30
0.0
 11
9721.60254038
 21
5219.5
 31
0.0
  0
LINE
  5
1DA0F
330
30FB
100
AcDbEntity
  8
YKK_N1
  6
Continuous
100
AcDbLine
 10
9721.60254038
 20
5319.5
 30
0.0
 11
9635.0
 21
5269.5
 31
0.0
  0
LINE
  5
1DA10
330
30FB
100
AcDbEntity
  8
YKK_C1
100
AcDbLine
 10
6501.0
 20
5830.5
 30
0.0
 11
5899.0
 21
5830.5
 31
0.0
  0
LINE
  5
1DA11
330
30FB
100
AcDbEntity
  8
YKK_C1
100
AcDbLine
 10
5910.000011
 20
5744.5
 30
0.0
 11
6489.999989
 21
5744.5
 31
0.0
  0
LINE
  5
1DA12
330
30FB
100
AcDbEntity
  8
YKK_C1
100
AcDbLine
 10
6485.50000099
 20
5749.00000001
 30
0.0
 11
6520.0
 21
5749.00000001
 31
0.0
  0
LINE
  5
1DA13
330
30FB
100
AcDbEntity
  8
YKK_C1
100
AcDbLine
 10
6484.0
 20
5803.0
 30
0.0
 11
6520.0
 21
5803.0
 31
0.0
  0
LINE
  5
1DA14
330
30FB
100
AcDbEntity
  8
YKK_C1
100
AcDbLine
 10
5914.49999901
 20
5749.00000001
 30
0.0
 11
5880.0
 21
5749.00000001
 31
0.0
  0
LINE
  5
1DA15
330
30FB
100
AcDbEntity
  8
YKK_C1
100
AcDbLine
 10
5904.00085823
 20
5783.50020027
 30
0.0
 11
6495.99914176
 21
5783.50020027
 31
0.0
  0
LINE
  5
1DA16
330
30FB
100
AcDbEntity
  8
YKK_C1
100
AcDbLine
 10
5916.0
 20
5803.0
 30
0.0
 11
5880.0
 21
5803.0
 31
0.0
  0
LINE
  5
1DA17
330
30FB
100
AcDbEntity
  8
YKK_C1
100
AcDbLine
 10
6520.0
 20
5830.5
 30
0.0
 11
6520.0
 21
5744.5
 31
0.0
  0
LINE
  5
1DA18
330
30FB
100
AcDbEntity
  8
YKK_C1
100
AcDbLine
 10
6547.0
 20
5771.5
 30
0.0
 11
6520.0
 21
5771.5
 31
0.0
  0
LINE
  5
1DA19
330
30FB
100
AcDbEntity
  8
YKK_C1
100
AcDbLine
 10
6511.0
 20
5830.5
 30
0.0
 11
6520.0
 21
5830.5
 31
0.0
  0
LINE
  5
1DA1A
330
30FB
100
AcDbEntity
  8
YKK_C1
100
AcDbLine
 10
6520.0
 20
5744.5
 30
0.0
 11
6499.999989
 21
5744.5
 31
0.0
  0
LINE
  5
1DA1B
330
30FB
100
AcDbEntity
  8
YKK_C1
100
AcDbLine
 10
5853.0
 20
5771.50110829
 30
0.0
 11
5880.0
 21
5771.50110829
 31
0.0
  0
LINE
  5
1DA1C
330
30FB
100
AcDbEntity
  8
YKK_C1
100
AcDbLine
 10
5880.0
 20
5830.50110829
 30
0.0
 11
5880.0
 21
5744.5
 31
0.0
  0
LINE
  5
1DA1D
330
30FB
100
AcDbEntity
  8
YKK_C1
100
AcDbLine
 10
5889.0
 20
5830.5
 30
0.0
 11
5880.0
 21
5830.50110829
 31
0.0
  0
LINE
  5
1DA1E
330
30FB
100
AcDbEntity
  8
YKK_C1
100
AcDbLine
 10
5880.0
 20
5744.5
 30
0.0
 11
5900.000011
 21
5744.5
 31
0.0
  0
TEXT
  5
1DA1F
330
30FB
100
AcDbEntity
  8
YKK_N1
100
AcDbText
 10
6809.99984307
 20
5604.41934682
 30
0.0
 40
60.0
  1
15
 50
90.0
100
AcDbText
  0
LINE
  5
1DA20
330
30FB
100
AcDbEntity
  8
YKK_N1
  6
Continuous
100
AcDbLine
 10
6822.0
 20
5744.5
 30
0.0
 11
6822.0
 21
5729.5
 31
0.0
  0
LINE
  5
1DA21
330
30FB
100
AcDbEntity
  8
YKK_N1
  6
Continuous
100
AcDbLine
 10
6698.5
 20
5729.5
 30
0.0
 11
6822.5
 21
5729.5
 31
0.0
  0
LINE
  5
1DA22
330
30FB
100
AcDbEntity
  8
YKK_N1
  6
Continuous
100
AcDbLine
 10
6698.5
 20
5744.5
 30
0.0
 11
6822.5
 21
5744.5
 31
0.0
  0
TEXT
  5
1DA23
330
30FB
100
AcDbEntity
  8
YKK_N1
100
AcDbText
 10
6893.59147997
 20
5710.74718814
 30
0.0
 40
60.0
  1
27
 50
90.0
100
AcDbText
  0
LINE
  5
1DA24
330
30FB
100
AcDbEntity
  8
YKK_N1
  6
Continuous
100
AcDbLine
 10
6822.0
 20
5771.5
 30
0.0
 11
6822.0
 21
5744.5
 31
0.0
  0
LINE
  5
1DA25
330
30FB
100
AcDbEntity
  8
YKK_N1
  6
Continuous
100
AcDbLine
 10
6698.5
 20
5744.5
 30
0.0
 11
6822.5
 21
5744.5
 31
0.0
  0
LINE
  5
1DA26
330
30FB
100
AcDbEntity
  8
YKK_N1
  6
Continuous
100
AcDbLine
 10
6698.5
 20
5771.5
 30
0.0
 11
6822.5
 21
5771.5
 31
0.0
  0
TEXT
  5
1DA27
330
30FB
100
AcDbEntity
  8
YKK_N1
100
AcDbText
 10
6810.05019777
 20
5845.3777702
 30
0.0
 40
60.0
  1
59
 50
90.0
100
AcDbText
  0
LINE
  5
1DA28
330
30FB
100
AcDbEntity
  8
YKK_N1
  6
Continuous
100
AcDbLine
 10
6822.0
 20
5830.5
 30
0.0
 11
6822.0
 21
5771.5
 31
0.0
  0
LINE
  5
1DA29
330
30FB
100
AcDbEntity
  8
YKK_N1
  6
Continuous
100
AcDbLine
 10
6698.5
 20
5771.5
 30
0.0
 11
6822.5
 21
5771.5
 31
0.0
  0
LINE
  5
1DA2A
330
30FB
100
AcDbEntity
  8
YKK_N1
  6
Continuous
100
AcDbLine
 10
6698.5
 20
5830.5
 30
0.0
 11
6822.5
 21
5830.5
 31
0.0
  0
TEXT
  5
1DA2B
330
30FB
100
AcDbEntity
  8
YKK_N1
100
AcDbText
 10
6396.0743071
 20
5487.00622261
 30
0.0
 40
60.0
  1
20
100
AcDbText
  0
LINE
  5
1DA2C
330
30FB
100
AcDbEntity
  8
YKK_N1
  6
Continuous
100
AcDbLine
 10
6500.0
 20
5469.5
 30
0.0
 11
6520.0
 21
5469.5
 31
0.0
  0
LINE
  5
1DA2D
330
30FB
100
AcDbEntity
  8
YKK_N1
  6
Continuous
100
AcDbLine
 10
6520.0
 20
5593.0
 30
0.0
 11
6520.0
 21
5469.0
 31
0.0
  0
LINE
  5
1DA2E
330
30FB
100
AcDbEntity
  8
YKK_N1
  6
Continuous
100
AcDbLine
 10
6500.0
 20
5593.0
 30
0.0
 11
6500.0
 21
5469.0
 31
0.0
  0
TEXT
  5
1DA2F
330
30FB
100
AcDbEntity
  8
YKK_N1
100
AcDbText
 10
6573.09579001
 20
5284.5
 30
0.0
 40
60.0
  1
27
100
AcDbText
  0
LINE
  5
1DA30
330
30FB
100
AcDbEntity
  8
YKK_N1
  6
Continuous
100
AcDbLine
 10
6520.0
 20
5269.5
 30
0.0
 11
6547.0
 21
5269.5
 31
0.0
  0
LINE
  5
1DA31
330
30FB
100
AcDbEntity
  8
YKK_N1
  6
Continuous
100
AcDbLine
 10
6547.0
 20
5593.0
 30
0.0
 11
6547.0
 21
5269.0
 31
0.0
  0
LINE
  5
1DA32
330
30FB
100
AcDbEntity
  8
YKK_N1
  6
Continuous
100
AcDbLine
 10
6520.0
 20
5593.0
 30
0.0
 11
6520.0
 21
5269.0
 31
0.0
  0
TEXT
  5
1DA33
330
30FB
100
AcDbEntity
  8
YKK_N1
100
AcDbText
 10
5724.72334909
 20
5284.5
 30
0.0
 40
60.0
  1
27
100
AcDbText
  0
LINE
  5
1DA34
330
30FB
100
AcDbEntity
  8
YKK_N1
  6
Continuous
100
AcDbLine
 10
5853.0
 20
5269.5
 30
0.0
 11
5880.0
 21
5269.5
 31
0.0
  0
LINE
  5
1DA35
330
30FB
100
AcDbEntity
  8
YKK_N1
  6
Continuous
100
AcDbLine
 10
5880.0
 20
5593.0
 30
0.0
 11
5880.0
 21
5269.0
 31
0.0
  0
LINE
  5
1DA36
330
30FB
100
AcDbEntity
  8
YKK_N1
  6
Continuous
100
AcDbLine
 10
5853.0
 20
5593.0
 30
0.0
 11
5853.0
 21
5269.0
 31
0.0
  0
TEXT
  5
1DA37
330
30FB
100
AcDbEntity
  8
YKK_N1
100
AcDbText
 10
6055.0
 20
5289.5
 30
0.0
 40
60.0
  1
W=640
100
AcDbText
  0
LINE
  5
1DA38
330
30FB
100
AcDbEntity
  8
YKK_N1
  6
Continuous
100
AcDbLine
 10
5880.0
 20
5269.5
 30
0.0
 11
6520.0
 21
5269.5
 31
0.0
  0
LINE
  5
1DA39
330
30FB
100
AcDbEntity
  8
YKK_N1
  6
Continuous
100
AcDbLine
 10
6520.0
 20
5593.0
 30
0.0
 11
6520.0
 21
5269.0
 31
0.0
  0
LINE
  5
1DA3A
330
30FB
100
AcDbEntity
  8
YKK_N1
  6
Continuous
100
AcDbLine
 10
5880.0
 20
5593.0
 30
0.0
 11
5880.0
 21
5269.0
 31
0.0
  0
TEXT
  5
1DA3B
330
30FB
100
AcDbEntity
  8
YKK_N1
100
AcDbText
 10
5912.7539225
 20
5487.00622261
 30
0.0
 40
60.0
  1
20
100
AcDbText
  0
LINE
  5
1DA3C
330
30FB
100
AcDbEntity
  8
YKK_N1
  6
Continuous
100
AcDbLine
 10
5880.0
 20
5469.5
 30
0.0
 11
5900.0
 21
5469.5
 31
0.0
  0
LINE
  5
1DA3D
330
30FB
100
AcDbEntity
  8
YKK_N1
  6
Continuous
100
AcDbLine
 10
5900.0
 20
5593.0
 30
0.0
 11
5900.0
 21
5469.0
 31
0.0
  0
LINE
  5
1DA3E
330
30FB
100
AcDbEntity
  8
YKK_N1
  6
Continuous
100
AcDbLine
 10
5880.0
 20
5593.0
 30
0.0
 11
5880.0
 21
5469.0
 31
0.0
  0
CIRCLE
  5
1DA3F
330
30FB
100
AcDbEntity
  8
YKK_N1
  6
Continuous
100
AcDbCircle
 10
6822.0
 20
5744.50223711
 30
0.0
 40
5.0
  0
CIRCLE
  5
1DA40
330
30FB
100
AcDbEntity
  8
YKK_N1
  6
Continuous
100
AcDbCircle
 10
6822.0
 20
5729.50223711
 30
0.0
 40
5.0
  0
CIRCLE
  5
1DA41
330
30FB
100
AcDbEntity
  8
YKK_N1
  6
Continuous
100
AcDbCircle
 10
6822.0
 20
5771.50223711
 30
0.0
 40
5.0
  0
CIRCLE
  5
1DA42
330
30FB
100
AcDbEntity
  8
YKK_N1
  6
Continuous
100
AcDbCircle
 10
6822.0
 20
5830.50223711
 30
0.0
 40
5.0
  0
CIRCLE
  5
1DA43
330
30FB
100
AcDbEntity
  8
YKK_N1
  6
Continuous
100
AcDbCircle
 10
6520.0
 20
5469.5
 30
0.0
 40
5.0
  0
CIRCLE
  5
1DA44
330
30FB
100
AcDbEntity
  8
YKK_N1
  6
Continuous
100
AcDbCircle
 10
6500.0
 20
5469.5
 30
0.0
 40
5.0
  0
LINE
  5
1DA45
330
30FB
100
AcDbEntity
  8
YKK_N1
  6
Continuous
100
AcDbLine
 10
6520.0
 20
5269.5
 30
0.0
 11
6433.39745962
 21
5219.5
 31
0.0
  0
CIRCLE
  5
1DA46
330
30FB
100
AcDbEntity
  8
YKK_N1
  6
Continuous
100
AcDbCircle
 10
6547.0
 20
5269.5
 30
0.0
 40
5.0
  0
LINE
  5
1DA47
330
30FB
100
AcDbEntity
  8
YKK_N1
  6
Continuous
100
AcDbLine
 10
6433.39745962
 20
5319.5
 30
0.0
 11
6520.0
 21
5269.5
 31
0.0
  0
LINE
  5
1DA48
330
30FB
100
AcDbEntity
  8
YKK_N1
  6
Continuous
100
AcDbLine
 10
6433.39745962
 20
5319.5
 30
0.0
 11
6433.39745962
 21
5219.5
 31
0.0
  0
CIRCLE
  5
1DA49
330
30FB
100
AcDbEntity
  8
YKK_N1
  6
Continuous
100
AcDbCircle
 10
5880.0
 20
5469.5
 30
0.0
 40
5.0
  0
CIRCLE
  5
1DA4A
330
30FB
100
AcDbEntity
  8
YKK_N1
  6
Continuous
100
AcDbCircle
 10
5900.0
 20
5469.5
 30
0.0
 40
5.0
  0
LINE
  5
1DA4B
330
30FB
100
AcDbEntity
  8
YKK_N1
  6
Continuous
100
AcDbLine
 10
5880.0
 20
5269.5
 30
0.0
 11
5966.60254038
 21
5219.5
 31
0.0
  0
CIRCLE
  5
1DA4C
330
30FB
100
AcDbEntity
  8
YKK_N1
  6
Continuous
100
AcDbCircle
 10
5853.0
 20
5269.5
 30
0.0
 40
5.0
  0
LINE
  5
1DA4D
330
30FB
100
AcDbEntity
  8
YKK_N1
  6
Continuous
100
AcDbLine
 10
5966.60254038
 20
5319.5
 30
0.0
 11
5966.60254038
 21
5219.5
 31
0.0
  0
LINE
  5
1DA4E
330
30FB
100
AcDbEntity
  8
YKK_N1
  6
Continuous
100
AcDbLine
 10
5966.60254038
 20
5319.5
 30
0.0
 11
5880.0
 21
5269.5
 31
0.0
  0
TEXT
  5
1DA4F
330
30FB
100
AcDbEntity
  8
0
 62
     3
100
AcDbText
 10
9065.0
 20
7565.0
 30
0.0
 40
170.0
  1
W=730(w=690)
  7
EXTFONT
 72
     1
 11
10000.0
 21
7650.0
 31
0.0
100
AcDbText
 73
     2
  0
TEXT
  5
1DA50
330
30FB
100
AcDbEntity
  8
0
 62
     3
100
AcDbText
 10
5279.16666667
 20
7565.0
 30
0.0
 40
170.0
  1
W=640(w=600)
  7
EXTFONT
 72
     1
 11
6200.0
 21
7650.0
 31
0.0
100
AcDbText
 73
     2
  0
TEXT
  5
1DA51
330
30FB
100
AcDbEntity
  8
0
 62
     3
100
AcDbText
 10
1450.83333333
 20
7565.0
 30
0.0
 40
170.0
  1
W=405(w=365)
  7
EXTFONT
 72
     1
 11
2400.0
 21
7650.0
 31
0.0
100
AcDbText
 73
     2
  0
LINE
  5
1DA52
330
30FB
100
AcDbEntity
  8
YKK_C1
100
AcDbLine
 10
2583.5
 20
5830.5
 30
0.0
 11
2216.5
 21
5830.5
 31
0.0
  0
LINE
  5
1DA53
330
30FB
100
AcDbEntity
  8
YKK_C1
100
AcDbLine
 10
2227.500011
 20
5744.5
 30
0.0
 11
2572.499989
 21
5744.5
 31
0.0
  0
LINE
  5
1DA54
330
30FB
100
AcDbEntity
  8
YKK_C1
100
AcDbLine
 10
2568.00000099
 20
5749.00000001
 30
0.0
 11
2602.5
 21
5749.00000001
 31
0.0
  0
LINE
  5
1DA55
330
30FB
100
AcDbEntity
  8
YKK_C1
100
AcDbLine
 10
2566.5
 20
5803.0
 30
0.0
 11
2602.5
 21
5803.0
 31
0.0
  0
LINE
  5
1DA56
330
30FB
100
AcDbEntity
  8
YKK_C1
100
AcDbLine
 10
2231.99999901
 20
5749.00000001
 30
0.0
 11
2197.5
 21
5749.00000001
 31
0.0
  0
LINE
  5
1DA57
330
30FB
100
AcDbEntity
  8
YKK_C1
100
AcDbLine
 10
2221.50085823
 20
5783.50020027
 30
0.0
 11
2578.49914176
 21
5783.50020027
 31
0.0
  0
LINE
  5
1DA58
330
30FB
100
AcDbEntity
  8
YKK_C1
100
AcDbLine
 10
2233.5
 20
5803.0
 30
0.0
 11
2197.5
 21
5803.0
 31
0.0
  0
LINE
  5
1DA59
330
30FB
100
AcDbEntity
  8
YKK_C1
100
AcDbLine
 10
2602.5
 20
5830.5
 30
0.0
 11
2602.5
 21
5744.5
 31
0.0
  0
LINE
  5
1DA5A
330
30FB
100
AcDbEntity
  8
YKK_C1
100
AcDbLine
 10
2629.5
 20
5771.5
 30
0.0
 11
2602.5
 21
5771.5
 31
0.0
  0
LINE
  5
1DA5B
330
30FB
100
AcDbEntity
  8
YKK_C1
100
AcDbLine
 10
2593.5
 20
5830.5
 30
0.0
 11
2602.5
 21
5830.5
 31
0.0
  0
LINE
  5
1DA5C
330
30FB
100
AcDbEntity
  8
YKK_C1
100
AcDbLine
 10
2602.5
 20
5744.5
 30
0.0
 11
2582.499989
 21
5744.5
 31
0.0
  0
LINE
  5
1DA5D
330
30FB
100
AcDbEntity
  8
YKK_C1
100
AcDbLine
 10
2170.5
 20
5771.50110829
 30
0.0
 11
2197.5
 21
5771.50110829
 31
0.0
  0
LINE
  5
1DA5E
330
30FB
100
AcDbEntity
  8
YKK_C1
100
AcDbLine
 10
2197.5
 20
5830.50110829
 30
0.0
 11
2197.5
 21
5744.5
 31
0.0
  0
LINE
  5
1DA5F
330
30FB
100
AcDbEntity
  8
YKK_C1
100
AcDbLine
 10
2206.5
 20
5830.5
 30
0.0
 11
2197.5
 21
5830.50110829
 31
0.0
  0
LINE
  5
1DA60
330
30FB
100
AcDbEntity
  8
YKK_C1
100
AcDbLine
 10
2197.5
 20
5744.5
 30
0.0
 11
2217.500011
 21
5744.5
 31
0.0
  0
TEXT
  5
1DA61
330
30FB
100
AcDbEntity
  8
0
 62
     3
100
AcDbText
 10
354.95356542
 20
5103.33333333
 30
0.0
 40
200.0
  1
横断面図
 50
90.0
  7
EXTFONT
 72
     4
 11
254.95356542
 21
5550.0
 31
0.0
100
AcDbText
  0
TEXT
  5
1DA62
330
30FB
100
AcDbEntity
  8
YKK_N1
100
AcDbText
 10
2892.49984307
 20
5604.41934682
 30
0.0
 40
60.0
  1
15
 50
90.0
100
AcDbText
  0
LINE
  5
1DA63
330
30FB
100
AcDbEntity
  8
YKK_N1
  6
Continuous
100
AcDbLine
 10
2904.5
 20
5744.5
 30
0.0
 11
2904.5
 21
5729.5
 31
0.0
  0
LINE
  5
1DA64
330
30FB
100
AcDbEntity
  8
YKK_N1
  6
Continuous
100
AcDbLine
 10
2781.0
 20
5729.5
 30
0.0
 11
2905.0
 21
5729.5
 31
0.0
  0
LINE
  5
1DA65
330
30FB
100
AcDbEntity
  8
YKK_N1
  6
Continuous
100
AcDbLine
 10
2781.0
 20
5744.5
 30
0.0
 11
2905.0
 21
5744.5
 31
0.0
  0
TEXT
  5
1DA66
330
30FB
100
AcDbEntity
  8
YKK_N1
100
AcDbText
 10
2976.09147997
 20
5710.74718814
 30
0.0
 40
60.0
  1
27
 50
90.0
100
AcDbText
  0
LINE
  5
1DA67
330
30FB
100
AcDbEntity
  8
YKK_N1
  6
Continuous
100
AcDbLine
 10
2904.5
 20
5771.5
 30
0.0
 11
2904.5
 21
5744.5
 31
0.0
  0
LINE
  5
1DA68
330
30FB
100
AcDbEntity
  8
YKK_N1
  6
Continuous
100
AcDbLine
 10
2781.0
 20
5744.5
 30
0.0
 11
2905.0
 21
5744.5
 31
0.0
  0
LINE
  5
1DA69
330
30FB
100
AcDbEntity
  8
YKK_N1
  6
Continuous
100
AcDbLine
 10
2781.0
 20
5771.5
 30
0.0
 11
2905.0
 21
5771.5
 31
0.0
  0
TEXT
  5
1DA6A
330
30FB
100
AcDbEntity
  8
YKK_N1
100
AcDbText
 10
2892.55019777
 20
5845.3777702
 30
0.0
 40
60.0
  1
59
 50
90.0
100
AcDbText
  0
LINE
  5
1DA6B
330
30FB
100
AcDbEntity
  8
YKK_N1
  6
Continuous
100
AcDbLine
 10
2904.5
 20
5830.5
 30
0.0
 11
2904.5
 21
5771.5
 31
0.0
  0
LINE
  5
1DA6C
330
30FB
100
AcDbEntity
  8
YKK_N1
  6
Continuous
100
AcDbLine
 10
2781.0
 20
5771.5
 30
0.0
 11
2905.0
 21
5771.5
 31
0.0
  0
LINE
  5
1DA6D
330
30FB
100
AcDbEntity
  8
YKK_N1
  6
Continuous
100
AcDbLine
 10
2781.0
 20
5830.5
 30
0.0
 11
2905.0
 21
5830.5
 31
0.0
  0
TEXT
  5
1DA6E
330
30FB
100
AcDbEntity
  8
YKK_N1
100
AcDbText
 10
2478.5743071
 20
5487.00622261
 30
0.0
 40
60.0
  1
20
100
AcDbText
  0
LINE
  5
1DA6F
330
30FB
100
AcDbEntity
  8
YKK_N1
  6
Continuous
100
AcDbLine
 10
2582.5
 20
5469.5
 30
0.0
 11
2602.5
 21
5469.5
 31
0.0
  0
LINE
  5
1DA70
330
30FB
100
AcDbEntity
  8
YKK_N1
  6
Continuous
100
AcDbLine
 10
2602.5
 20
5593.0
 30
0.0
 11
2602.5
 21
5469.0
 31
0.0
  0
LINE
  5
1DA71
330
30FB
100
AcDbEntity
  8
YKK_N1
  6
Continuous
100
AcDbLine
 10
2582.5
 20
5593.0
 30
0.0
 11
2582.5
 21
5469.0
 31
0.0
  0
TEXT
  5
1DA72
330
30FB
100
AcDbEntity
  8
YKK_N1
100
AcDbText
 10
2655.59579001
 20
5284.5
 30
0.0
 40
60.0
  1
27
100
AcDbText
  0
LINE
  5
1DA73
330
30FB
100
AcDbEntity
  8
YKK_N1
  6
Continuous
100
AcDbLine
 10
2602.5
 20
5269.5
 30
0.0
 11
2629.5
 21
5269.5
 31
0.0
  0
LINE
  5
1DA74
330
30FB
100
AcDbEntity
  8
YKK_N1
  6
Continuous
100
AcDbLine
 10
2629.5
 20
5593.0
 30
0.0
 11
2629.5
 21
5269.0
 31
0.0
  0
LINE
  5
1DA75
330
30FB
100
AcDbEntity
  8
YKK_N1
  6
Continuous
100
AcDbLine
 10
2602.5
 20
5593.0
 30
0.0
 11
2602.5
 21
5269.0
 31
0.0
  0
TEXT
  5
1DA76
330
30FB
100
AcDbEntity
  8
YKK_N1
100
AcDbText
 10
2042.22334909
 20
5284.5
 30
0.0
 40
60.0
  1
27
100
AcDbText
  0
LINE
  5
1DA77
330
30FB
100
AcDbEntity
  8
YKK_N1
  6
Continuous
100
AcDbLine
 10
2170.5
 20
5269.5
 30
0.0
 11
2197.5
 21
5269.5
 31
0.0
  0
LINE
  5
1DA78
330
30FB
100
AcDbEntity
  8
YKK_N1
  6
Continuous
100
AcDbLine
 10
2197.5
 20
5593.0
 30
0.0
 11
2197.5
 21
5269.0
 31
0.0
  0
LINE
  5
1DA79
330
30FB
100
AcDbEntity
  8
YKK_N1
  6
Continuous
100
AcDbLine
 10
2170.5
 20
5593.0
 30
0.0
 11
2170.5
 21
5269.0
 31
0.0
  0
TEXT
  5
1DA7A
330
30FB
100
AcDbEntity
  8
YKK_N1
100
AcDbText
 10
2255.0
 20
5136.24337132
 30
0.0
 40
60.0
  1
W=405
100
AcDbText
  0
LINE
  5
1DA7B
330
30FB
100
AcDbEntity
  8
YKK_N1
  6
Continuous
100
AcDbLine
 10
2197.5
 20
5269.5
 30
0.0
 11
2602.5
 21
5269.5
 31
0.0
  0
LINE
  5
1DA7C
330
30FB
100
AcDbEntity
  8
YKK_N1
  6
Continuous
100
AcDbLine
 10
2602.5
 20
5593.0
 30
0.0
 11
2602.5
 21
5269.0
 31
0.0
  0
LINE
  5
1DA7D
330
30FB
100
AcDbEntity
  8
YKK_N1
  6
Continuous
100
AcDbLine
 10
2197.5
 20
5593.0
 30
0.0
 11
2197.5
 21
5269.0
 31
0.0
  0
TEXT
  5
1DA7E
330
30FB
100
AcDbEntity
  8
YKK_N1
100
AcDbText
 10
2230.2539225
 20
5487.00622261
 30
0.0
 40
60.0
  1
20
100
AcDbText
  0
LINE
  5
1DA7F
330
30FB
100
AcDbEntity
  8
YKK_N1
  6
Continuous
100
AcDbLine
 10
2197.5
 20
5469.5
 30
0.0
 11
2217.5
 21
5469.5
 31
0.0
  0
LINE
  5
1DA80
330
30FB
100
AcDbEntity
  8
YKK_N1
  6
Continuous
100
AcDbLine
 10
2217.5
 20
5593.0
 30
0.0
 11
2217.5
 21
5469.0
 31
0.0
  0
LINE
  5
1DA81
330
30FB
100
AcDbEntity
  8
YKK_N1
  6
Continuous
100
AcDbLine
 10
2197.5
 20
5593.0
 30
0.0
 11
2197.5
 21
5469.0
 31
0.0
  0
CIRCLE
  5
1DA82
330
30FB
100
AcDbEntity
  8
YKK_N1
  6
Continuous
100
AcDbCircle
 10
2904.5
 20
5744.50223711
 30
0.0
 40
5.0
  0
CIRCLE
  5
1DA83
330
30FB
100
AcDbEntity
  8
YKK_N1
  6
Continuous
100
AcDbCircle
 10
2904.5
 20
5729.50223711
 30
0.0
 40
5.0
  0
CIRCLE
  5
1DA84
330
30FB
100
AcDbEntity
  8
YKK_N1
  6
Continuous
100
AcDbCircle
 10
2904.5
 20
5771.50223711
 30
0.0
 40
5.0
  0
CIRCLE
  5
1DA85
330
30FB
100
AcDbEntity
  8
YKK_N1
  6
Continuous
100
AcDbCircle
 10
2904.5
 20
5830.50223711
 30
0.0
 40
5.0
  0
CIRCLE
  5
1DA86
330
30FB
100
AcDbEntity
  8
YKK_N1
  6
Continuous
100
AcDbCircle
 10
2602.5
 20
5469.5
 30
0.0
 40
5.0
  0
CIRCLE
  5
1DA87
330
30FB
100
AcDbEntity
  8
YKK_N1
  6
Continuous
100
AcDbCircle
 10
2582.5
 20
5469.5
 30
0.0
 40
5.0
  0
LINE
  5
1DA88
330
30FB
100
AcDbEntity
  8
YKK_N1
  6
Continuous
100
AcDbLine
 10
2602.5
 20
5269.5
 30
0.0
 11
2515.89745962
 21
5219.5
 31
0.0
  0
CIRCLE
  5
1DA89
330
30FB
100
AcDbEntity
  8
YKK_N1
  6
Continuous
100
AcDbCircle
 10
2629.5
 20
5269.5
 30
0.0
 40
5.0
  0
LINE
  5
1DA8A
330
30FB
100
AcDbEntity
  8
YKK_N1
  6
Continuous
100
AcDbLine
 10
2515.89745962
 20
5319.5
 30
0.0
 11
2602.5
 21
5269.5
 31
0.0
  0
LINE
  5
1DA8B
330
30FB
100
AcDbEntity
  8
YKK_N1
  6
Continuous
100
AcDbLine
 10
2515.89745962
 20
5319.5
 30
0.0
 11
2515.89745962
 21
5219.5
 31
0.0
  0
CIRCLE
  5
1DA8C
330
30FB
100
AcDbEntity
  8
YKK_N1
  6
Continuous
100
AcDbCircle
 10
2197.5
 20
5469.5
 30
0.0
 40
5.0
  0
CIRCLE
  5
1DA8D
330
30FB
100
AcDbEntity
  8
YKK_N1
  6
Continuous
100
AcDbCircle
 10
2217.5
 20
5469.5
 30
0.0
 40
5.0
  0
LINE
  5
1DA8E
330
30FB
100
AcDbEntity
  8
YKK_N1
  6
Continuous
100
AcDbLine
 10
2197.5
 20
5269.5
 30
0.0
 11
2284.10254038
 21
5219.5
 31
0.0
  0
CIRCLE
  5
1DA8F
330
30FB
100
AcDbEntity
  8
YKK_N1
  6
Continuous
100
AcDbCircle
 10
2170.5
 20
5269.5
 30
0.0
 40
5.0
  0
LINE
  5
1DA90
330
30FB
100
AcDbEntity
  8
YKK_N1
  6
Continuous
100
AcDbLine
 10
2284.10254038
 20
5319.5
 30
0.0
 11
2284.10254038
 21
5219.5
 31
0.0
  0
LINE
  5
1DA91
330
30FB
100
AcDbEntity
  8
YKK_N1
  6
Continuous
100
AcDbLine
 10
2284.10254038
 20
5319.5
 30
0.0
 11
2197.5
 21
5269.5
 31
0.0
  0
LINE
  5
1DA92
330
30FB
100
AcDbEntity
  8
YKK_F1
 62
     7
100
AcDbLine
 10
0.0
 20
7400.0
 30
0.0
 11
27000.0
 21
7400.0
 31
0.0
  0
LINE
  5
1DA94
330
30FB
100
AcDbEntity
  8
YKK_F1
 62
     7
100
AcDbLine
 10
0.0
 20
3700.0
 30
0.0
 11
27000.0
 21
3700.0
 31
0.0
  0
ENDSEC
  0
SECTION
  2
OBJECTS
  0
DICTIONARY
  5
3098
330
0
100
AcDbDictionary
281
     1
  3
ACAD_CIP_PREVIOUS_PRODUCT_INFO
350
311F
  3
ACAD_COLOR
350
30EE
  3
ACAD_DETAILVIEWSTYLE
350
30F5
  3
ACAD_DGNDEFINITIONS
350
6708
  3
ACAD_DWFDEFINITIONS
350
6707
  3
ACAD_GROUP
350
3099
  3
ACAD_LAYOUT
350
30ED
  3
ACAD_MATERIAL
350
309C
  3
ACAD_MLEADERSTYLE
350
30F1
  3
ACAD_MLINESTYLE
350
30EA
  3
ACAD_PDFDEFINITIONS
350
6706
  3
ACAD_PLOTSETTINGS
350
30EC
  3
ACAD_PLOTSTYLENAME
350
309A
  3
ACAD_RENDER_ACTIVE_RAPIDRT_SETTINGS
350
7C8A
  3
ACAD_RENDER_ACTIVE_SETTINGS
350
7DB6
  3
ACAD_RENDER_GLOBAL
350
1AF8A
  3
ACAD_SCALELIST
350
30CE
  3
ACAD_SECTIONVIEWSTYLE
350
30F3
  3
ACAD_TABLESTYLE
350
30EF
  3
ACAD_VISUALSTYLE
350
30B5
  3
ACDB_RECOMPOSE_DATA
350
1F2F1
  3
AcDbVariableDictionary
350
3179
  0
DICTIONARY
  5
7C3B
330
3094
100
AcDbDictionary
280
     1
281
     1
  0
DICTIONARY
  5
312A
330
308E
100
AcDbDictionary
280
     1
281
     1
  3
ACAD_LAYERSTATES
360
312B
  3
ACLYDICTIONARY
360
66F0
  0
DICTIONARY
  5
BC34
330
30FB
100
AcDbDictionary
280
     1
281
     1
  3
ACAD_SORTENTS
360
BC35
  0
XRECORD
  5
311F
102
{ACAD_REACTORS
330
3098
102
}
330
3098
100
AcDbXrecord
280
     1
300
ACD
300
2018
300
86830ACD_2018_0F
  0
DICTIONARY
  5
30EE
102
{ACAD_REACTORS
330
3098
102
}
330
3098
100
AcDbDictionary
281
     1
  0
DICTIONARY
  5
30F5
102
{ACAD_REACTORS
330
3098
102
}
330
3098
100
AcDbDictionary
281
     1
  3
Imperial24
350
30F6
  3
Metric50
350
3186
  0
DICTIONARY
  5
6708
102
{ACAD_REACTORS
330
3098
102
}
330
3098
100
AcDbDictionary
281
     1
  0
DICTIONARY
  5
6707
102
{ACAD_REACTORS
330
3098
102
}
330
3098
100
AcDbDictionary
281
     1
  0
DICTIONARY
  5
3099
102
{ACAD_REACTORS
330
3098
102
}
330
3098
100
AcDbDictionary
281
     1
  0
DICTIONARY
  5
30ED
102
{ACAD_REACTORS
330
3098
102
}
330
3098
100
AcDbDictionary
281
     1
  3
Model
350
30FE
  3
レイアウト1
350
30FA
  0
DICTIONARY
  5
309C
102
{ACAD_REACTORS
330
3098
102
}
330
3098
100
AcDbDictionary
281
     1
  3
ByBlock
350
30A5
  3
ByLayer
350
309D
  3
Global
350
30AD
  0
DICTIONARY
  5
30F1
102
{ACAD_REACTORS
330
3098
102
}
330
3098
100
AcDbDictionary
281
     1
  3
Standard
350
30F2
  0
DICTIONARY
  5
30EA
102
{ACAD_REACTORS
330
3098
102
}
330
3098
100
AcDbDictionary
281
     1
  3
Standard
350
30EB
  0
DICTIONARY
  5
6706
102
{ACAD_REACTORS
330
3098
102
}
330
3098
100
AcDbDictionary
281
     1
  0
DICTIONARY
  5
30EC
102
{ACAD_REACTORS
330
3098
102
}
330
3098
100
AcDbDictionary
281
     1
  0
ACDBDICTIONARYWDFLT
  5
309A
102
{ACAD_REACTORS
330
3098
102
}
330
3098
100
AcDbDictionary
281
     1
  3
Normal
350
309B
100
AcDbDictionaryWithDefault
340
309B
  0
RAPIDRTRENDERSETTINGS
  5
7C8A
102
{ACAD_REACTORS
330
3098
102
}
330
3098
100
AcDbRenderSettings
 90
        2
  1
中
290
     1
290
     0
290
     1
290
     1
  1

  1
5 レンダリング レベルを適用
 90
        0
100
AcDbRapidRTRenderSettings
 90
        3
 70
     0
 90
        5
 90
        1
 70
     1
 70
     2
 40
3.0
 40
3.0
290
     1
  0
MENTALRAYRENDERSETTINGS
  5
7DB6
102
{ACAD_XDICTIONARY
360
7DB7
102
}
102
{ACAD_REACTORS
330
3098
102
}
330
3098
100
AcDbRenderSettings
 90
        2
  1
中間
290
     1
290
     1
290
     1
290
     1
  1

  1

 90
        0
100
AcDbMentalRayRenderSettings
 90
        2
 90
        0
 90
        1
 70
     2
 40
3.0
 40
3.0
 40
0.05
 40
0.05
 40
0.05
 40
0.05
 70
     0
290
     0
290
     1
 90
        5
 90
        5
 90
        5
290
     0
 90
      500
290
     0
 40
1.0
 90
    10000
 90
        5
 90
        5
 90
        5
290
     0
 90
      200
290
     0
290
     0
290
     0
 40
1.0
 40
1.0
 40
1500.0
 70
     0
 70
     0
 40
10.0
 70
     0
 70
     0
290
     0
  1

 90
       32
 70
     0
 90
     1048
290
     0
 40
1.0
  0
RENDERGLOBAL
  5
1AF8A
102
{ACAD_REACTORS
330
3098
102
}
330
3098
100
AcDbRenderGlobal
 90
        2
 90
        0
 90
        0
290
     0
  1

 90
      800
 90
      600
290
     1
290
     1
  0
DICTIONARY
  5
30CE
102
{ACAD_REACTORS
330
3098
102
}
330
3098
100
AcDbDictionary
281
     1
  3
A0
350
30CF
  3
A1
350
30D0
  3
A2
350
30D1
  3
A3
350
30D2
  3
A4
350
30D3
  3
A5
350
30D4
  3
A6
350
30D5
  3
A7
350
30D6
  3
A8
350
30D7
  3
A9
350
30D8
  3
B0
350
30D9
  3
B1
350
30DA
  3
B2
350
30DB
  3
B3
350
30DC
  3
B4
350
30DD
  3
B5
350
30DE
  3
B6
350
30DF
  0
DICTIONARY
  5
30F3
102
{ACAD_REACTORS
330
3098
102
}
330
3098
100
AcDbDictionary
281
     1
  3
Imperial24
350
30F4
  3
Metric50
350
3185
  0
DICTIONARY
  5
30EF
102
{ACAD_REACTORS
330
3098
102
}
330
3098
100
AcDbDictionary
281
     1
  3
Standard
350
30F0
  0
DICTIONARY
  5
30B5
102
{ACAD_REACTORS
330
3098
102
}
330
3098
100
AcDbDictionary
281
     1
  3
2dWireframe
350
30BB
  3
Basic
350
30BA
  3
Brighten
350
30C1
  3
ColorChange
350
30C5
  3
Conceptual
350
30BE
  3
Dim
350
30C0
  3
EdgeColorOff
350
30CD
  3
Facepattern
350
30C4
  3
Flat
350
30B6
  3
FlatWithEdges
350
30B7
  3
Gouraud
350
30B8
  3
GouraudWithEdges
350
30B9
  3
Hidden
350
30BD
  3
JitterOff
350
30CB
  3
Linepattern
350
30C3
  3
OverhangOff
350
30CC
  3
Realistic
350
30BF
  3
Shaded
350
30CA
  3
Shaded with edges
350
30C9
  3
Shades of Gray
350
30C6
  3
Sketchy
350
30C7
  3
Thicken
350
30C2
  3
Wireframe
350
30BC
  3
X-Ray
350
30C8
  0
XRECORD
  5
1F2F1
102
{ACAD_REACTORS
330
3098
102
}
330
3098
100
AcDbXrecord
280
     1
 90
        1
330
30F0
  0
DICTIONARY
  5
3179
102
{ACAD_REACTORS
330
3098
102
}
330
3098
100
AcDbDictionary
281
     1
  3
CANNOSCALE
350
317F
  3
CMLEADERSTYLE
350
317B
  3
CTABLESTYLE
350
317A
  3
CVIEWDETAILSTYLE
350
317C
  3
CVIEWSECTIONSTYLE
350
317D
  3
LAYEREVAL
350
3181
  3
LAYERNOTIFY
350
3182
  3
LIGHTINGUNITS
350
3180
  3
MSLTSCALE
350
317E
  3
XCLIPFRAME
350
1F2EF
  0
DICTIONARY
  5
312B
102
{ACAD_REACTORS
330
312A
102
}
330
312A
100
AcDbDictionary
281
     1
  3
_LAYISO_STATE
350
7C26
1001
AcLayerTools
1000
30FE
1000
0
  0
DICTIONARY
  5
66F0
102
{ACAD_REACTORS
330
312A
102
}
330
312A
100
AcDbDictionary
281
     1
1001
ACAD
1000
All
  0
SORTENTSTABLE
  5
BC35
102
{ACAD_REACTORS
330
BC34
102
}
330
BC34
100
AcDbSortentsTable
330
30FB
  0
ACDBDETAILVIEWSTYLE
  5
30F6
102
{ACAD_XDICTIONARY
360
1F32D
102
}
102
{ACAD_REACTORS
330
30F5
102
}
330
30F5
100
AcDbModelDocViewStyle
 70
     0
  3
Imperial24
290
     0
100
AcDbDetailViewStyle
 70
     0
 71
     0
 90
        3
 71
     1
340
30E1
 62
   256
 40
0.24
340
0
 62
   256
 40
0.24
300

 40
0.36
280
     3
 71
     2
340
30E8
 90
       25
 62
   256
 71
     3
340
30E1
 62
   256
 40
0.24
 90
        1
 40
0.75
 90
        1
300
%<\AcVar ViewType \f "%tc1">% %<\AcVar ViewDetailId>%\PSCALE %<\AcVar ViewScale \f "%sn">%
 71
     4
340
30E8
 90
       25
 62
   256
340
30E8
 90
       25
 62
   256
280
     0
  0
ACDBDETAILVIEWSTYLE
  5
3186
102
{ACAD_XDICTIONARY
360
1F331
102
}
102
{ACAD_REACTORS
330
30F5
102
}
330
30F5
100
AcDbModelDocViewStyle
 70
     0
  3
Metric50
290
     0
100
AcDbDetailViewStyle
 70
     0
 71
     0
 90
        3
 71
     1
340
30E1
 62
   256
 40
5.0
340
0
 62
   256
 40
5.0
300

 40
0.0
280
     1
 71
     2
340
30E8
 90
       25
 62
   256
 71
     3
340
30E1
 62
   256
 40
5.0
 90
        0
 40
15.0
 90
        1
300
%<\AcVar ViewDetailId>% (%<\AcVar ViewScale \f "%sn">%)
 71
     4
340
30E8
 90
       25
 62
   256
340
30E8
 90
       25
 62
   256
280
     0
  0
LAYOUT
  5
30FE
102
{ACAD_XDICTIONARY
360
3177
102
}
102
{ACAD_REACTORS
330
30ED
102
}
330
30ED
100
AcDbPlotSettings
  1

  2
C:\ACAD-I\support\plotters\Default Windows System Printer.pc3
  4
A4
  6

 40
4.90008307
 41
4.90005732
 42
4.90008545
 43
4.90008545
 44
210.01567078
 45
297.01065063
 46
0.0
 47
0.0
 48
0.0
 49
0.0
140
0.0
141
0.0
142
1.0
143
4506.5560995
 70
  1712
 72
     0
 73
     0
 74
     0
  7
monochrome.ctb
 75
     0
147
0.0002219
 76
     0
 77
     2
 78
   300
148
101906.5772872
149
2478.29621297
100
AcDbLayout
  1
Model
 70
     1
 71
     0
 10
0.0
 20
0.0
 11
12.0
 21
9.0
 12
0.0
 22
0.0
 32
0.0
 14
0.0
 24
0.0
 34
0.0
 15
27500.0
 25
20000.0
 35
0.0
146
0.0
 13
0.0
 23
0.0
 33
0.0
 16
1.0
 26
0.0
 36
0.0
 17
0.0
 27
1.0
 37
0.0
 76
     0
330
30FB
331
3100
  0
LAYOUT
  5
30FA
102
{ACAD_REACTORS
330
30ED
102
}
330
30ED
100
AcDbPlotSettings
  1

  2
C:\ACAD-I\support\plotters\Default Windows System Printer.pc3
  4
A4
  6

 40
4.90008307
 41
4.90005732
 42
4.90008545
 43
4.90008545
 44
210.01567078
 45
297.01065063
 46
0.0
 47
0.0
 48
0.0
 49
0.0
140
0.0
141
0.0
142
1.0
143
1.0
 70
   688
 72
     0
 73
     0
 74
     5
  7
monochrome.ctb
 75
    16
147
1.0
 76
     0
 77
     2
 78
   300
148
0.0
149
0.0
100
AcDbLayout
  1
レイアウト1
 70
     1
 71
     1
 10
0.0
 20
0.0
 11
420.0
 21
297.0
 12
0.0
 22
0.0
 32
0.0
 14
1.00000000E+20
 24
1.00000000E+20
 34
1.00000000E+20
 15
-1.00000000E+20
 25
-1.00000000E+20
 35
-1.00000000E+20
146
0.0
 13
0.0
 23
0.0
 33
0.0
 16
1.0
 26
0.0
 36
0.0
 17
0.0
 27
1.0
 37
0.0
 76
     0
330
30F7
  0
MATERIAL
  5
30A5
102
{ACAD_XDICTIONARY
360
1F2F4
102
}
102
{ACAD_REACTORS
330
309C
102
}
330
309C
100
AcDbMaterial
  1
ByBlock
 72
     0
 43
0.02083333
 43
0.0
 43
0.0
 43
0.0
 43
0.0
 43
0.02083333
 43
0.0
 43
0.0
 43
0.0
 43
0.0
 43
1.0
 43
0.0
 43
0.0
 43
0.0
 43
0.0
 43
1.0
 77
     0
 47
0.02083333
 47
0.0
 47
0.0
 47
0.0
 47
0.0
 47
0.02083333
 47
0.0
 47
0.0
 47
0.0
 47
0.0
 47
1.0
 47
0.0
 47
0.0
 47
0.0
 47
0.0
 47
1.0
171
     0
 49
0.02083333
 49
0.0
 49
0.0
 49
0.0
 49
0.0
 49
0.02083333
 49
0.0
 49
0.0
 49
0.0
 49
0.0
 49
1.0
 49
0.0
 49
0.0
 49
0.0
 49
0.0
 49
1.0
175
     0
142
0.02083333
142
0.0
142
0.0
142
0.0
142
0.0
142
0.02083333
142
0.0
142
0.0
142
0.0
142
0.0
142
1.0
142
0.0
142
0.0
142
0.0
142
0.0
142
1.0
179
     0
144
0.02083333
144
0.0
144
0.0
144
0.0
144
0.0
144
0.02083333
144
0.0
144
0.0
144
0.0
144
0.0
144
1.0
144
0.0
144
0.0
144
0.0
144
0.0
144
1.0
147
0.02083333
147
0.0
147
0.0
147
0.0
147
0.0
147
0.02083333
147
0.0
147
0.0
147
0.0
147
0.0
147
1.0
147
0.0
147
0.0
147
0.0
147
0.0
147
1.0
  0
MATERIAL
  5
309D
102
{ACAD_XDICTIONARY
360
1F2F2
102
}
102
{ACAD_REACTORS
330
309C
102
}
330
309C
100
AcDbMaterial
  1
ByLayer
 72
     0
 43
0.02083333
 43
0.0
 43
0.0
 43
0.0
 43
0.0
 43
0.02083333
 43
0.0
 43
0.0
 43
0.0
 43
0.0
 43
1.0
 43
0.0
 43
0.0
 43
0.0
 43
0.0
 43
1.0
 77
     0
 47
0.02083333
 47
0.0
 47
0.0
 47
0.0
 47
0.0
 47
0.02083333
 47
0.0
 47
0.0
 47
0.0
 47
0.0
 47
1.0
 47
0.0
 47
0.0
 47
0.0
 47
0.0
 47
1.0
171
     0
 49
0.02083333
 49
0.0
 49
0.0
 49
0.0
 49
0.0
 49
0.02083333
 49
0.0
 49
0.0
 49
0.0
 49
0.0
 49
1.0
 49
0.0
 49
0.0
 49
0.0
 49
0.0
 49
1.0
175
     0
142
0.02083333
142
0.0
142
0.0
142
0.0
142
0.0
142
0.02083333
142
0.0
142
0.0
142
0.0
142
0.0
142
1.0
142
0.0
142
0.0
142
0.0
142
0.0
142
1.0
179
     0
144
0.02083333
144
0.0
144
0.0
144
0.0
144
0.0
144
0.02083333
144
0.0
144
0.0
144
0.0
144
0.0
144
1.0
144
0.0
144
0.0
144
0.0
144
0.0
144
1.0
147
0.02083333
147
0.0
147
0.0
147
0.0
147
0.0
147
0.02083333
147
0.0
147
0.0
147
0.0
147
0.0
147
1.0
147
0.0
147
0.0
147
0.0
147
0.0
147
1.0
  0
MATERIAL
  5
30AD
102
{ACAD_XDICTIONARY
360
1F2F6
102
}
102
{ACAD_REACTORS
330
309C
102
}
330
309C
100
AcDbMaterial
  1
Global
 72
     0
 43
0.02083333
 43
0.0
 43
0.0
 43
0.0
 43
0.0
 43
0.02083333
 43
0.0
 43
0.0
 43
0.0
 43
0.0
 43
1.0
 43
0.0
 43
0.0
 43
0.0
 43
0.0
 43
1.0
 77
     0
 47
0.02083333
 47
0.0
 47
0.0
 47
0.0
 47
0.0
 47
0.02083333
 47
0.0
 47
0.0
 47
0.0
 47
0.0
 47
1.0
 47
0.0
 47
0.0
 47
0.0
 47
0.0
 47
1.0
171
     0
 49
0.02083333
 49
0.0
 49
0.0
 49
0.0
 49
0.0
 49
0.02083333
 49
0.0
 49
0.0
 49
0.0
 49
0.0
 49
1.0
 49
0.0
 49
0.0
 49
0.0
 49
0.0
 49
1.0
175
     0
142
0.02083333
142
0.0
142
0.0
142
0.0
142
0.0
142
0.02083333
142
0.0
142
0.0
142
0.0
142
0.0
142
1.0
142
0.0
142
0.0
142
0.0
142
0.0
142
1.0
179
     0
144
0.02083333
144
0.0
144
0.0
144
0.0
144
0.0
144
0.02083333
144
0.0
144
0.0
144
0.0
144
0.0
144
1.0
144
0.0
144
0.0
144
0.0
144
0.0
144
1.0
147
0.02083333
147
0.0
147
0.0
147
0.0
147
0.0
147
0.02083333
147
0.0
147
0.0
147
0.0
147
0.0
147
1.0
147
0.0
147
0.0
147
0.0
147
0.0
147
1.0
  0
MLEADERSTYLE
  5
30F2
102
{ACAD_XDICTIONARY
360
1F329
102
}
102
{ACAD_REACTORS
330
30F1
102
}
330
30F1
100
AcDbMLeaderStyle
170
     2
171
     1
172
     0
 90
        2
 40
0.0
 41
0.0
173
     1
 91
-1056964608
340
30E6
 92
       -2
290
     1
 42
0.09
291
     1
 43
0.36
  3
Standard
 44
0.18
300

342
30E1
174
     1
178
     6
175
     1
176
     0
 93
-1056964608
 45
0.18
292
     0
297
     0
 46
0.18
 94
-1056964608
 47
1.0
 49
1.0
140
1.0
293
     1
141
0.0
294
     1
177
     0
142
1.0
295
     0
296
     0
143
0.125
1001
ACAD_MLEADERVER
1070
     2
  0
MLINESTYLE
  5
30EB
102
{ACAD_REACTORS
330
30EA
102
}
330
30EA
100
AcDbMlineStyle
  2
STANDARD
 70
     0
  3

 62
   256
 51
90.0
 52
90.0
 71
     2
 49
0.5
 62
   256
  6
BYLAYER
 49
-0.5
 62
   256
  6
BYLAYER
  0
ACDBPLACEHOLDER
  5
309B
102
{ACAD_REACTORS
330
309A
102
}
330
309A
  0
DICTIONARY
  5
7DB7
330
7DB6
100
AcDbDictionary
280
     1
281
     1
  3
ADSK_XREC_MENTALRAYSETTINGSINFO
360
7DB8
  0
SCALE
  5
30CF
102
{ACAD_REACTORS
330
30CE
102
}
330
30CE
100
AcDbScale
 70
     0
300
1:1
140
1.0
141
1.0
290
     1
  0
SCALE
  5
30D0
102
{ACAD_REACTORS
330
30CE
102
}
330
30CE
100
AcDbScale
 70
     0
300
1/128" = 1'-0"
140
0.0078125
141
12.0
290
     0
  0
SCALE
  5
30D1
102
{ACAD_REACTORS
330
30CE
102
}
330
30CE
100
AcDbScale
 70
     0
300
1/64" = 1'-0"
140
0.015625
141
12.0
290
     0
  0
SCALE
  5
30D2
102
{ACAD_REACTORS
330
30CE
102
}
330
30CE
100
AcDbScale
 70
     0
300
1/32" = 1'-0"
140
0.03125
141
12.0
290
     0
  0
SCALE
  5
30D3
102
{ACAD_REACTORS
330
30CE
102
}
330
30CE
100
AcDbScale
 70
     0
300
1/16" = 1'-0"
140
0.0625
141
12.0
290
     0
  0
SCALE
  5
30D4
102
{ACAD_REACTORS
330
30CE
102
}
330
30CE
100
AcDbScale
 70
     0
300
3/32" = 1'-0"
140
0.09375
141
12.0
290
     0
  0
SCALE
  5
30D5
102
{ACAD_REACTORS
330
30CE
102
}
330
30CE
100
AcDbScale
 70
     0
300
1/8" = 1'-0"
140
0.125
141
12.0
290
     0
  0
SCALE
  5
30D6
102
{ACAD_REACTORS
330
30CE
102
}
330
30CE
100
AcDbScale
 70
     0
300
3/16" = 1'-0"
140
0.1875
141
12.0
290
     0
  0
SCALE
  5
30D7
102
{ACAD_REACTORS
330
30CE
102
}
330
30CE
100
AcDbScale
 70
     0
300
1/4" = 1'-0"
140
0.25
141
12.0
290
     0
  0
SCALE
  5
30D8
102
{ACAD_REACTORS
330
30CE
102
}
330
30CE
100
AcDbScale
 70
     0
300
3/8" = 1'-0"
140
0.375
141
12.0
290
     0
  0
SCALE
  5
30D9
102
{ACAD_REACTORS
330
30CE
102
}
330
30CE
100
AcDbScale
 70
     0
300
1/2" = 1'-0"
140
0.5
141
12.0
290
     0
  0
SCALE
  5
30DA
102
{ACAD_REACTORS
330
30CE
102
}
330
30CE
100
AcDbScale
 70
     0
300
3/4" = 1'-0"
140
0.75
141
12.0
290
     0
  0
SCALE
  5
30DB
102
{ACAD_REACTORS
330
30CE
102
}
330
30CE
100
AcDbScale
 70
     0
300
1" = 1'-0"
140
1.0
141
12.0
290
     0
  0
SCALE
  5
30DC
102
{ACAD_REACTORS
330
30CE
102
}
330
30CE
100
AcDbScale
 70
     0
300
1-1/2" = 1'-0"
140
1.5
141
12.0
290
     0
  0
SCALE
  5
30DD
102
{ACAD_REACTORS
330
30CE
102
}
330
30CE
100
AcDbScale
 70
     0
300
3" = 1'-0"
140
3.0
141
12.0
290
     0
  0
SCALE
  5
30DE
102
{ACAD_REACTORS
330
30CE
102
}
330
30CE
100
AcDbScale
 70
     0
300
6" = 1'-0"
140
6.0
141
12.0
290
     0
  0
SCALE
  5
30DF
102
{ACAD_REACTORS
330
30CE
102
}
330
30CE
100
AcDbScale
 70
     0
300
1'-0" = 1'-0"
140
12.0
141
12.0
290
     0
  0
ACDBSECTIONVIEWSTYLE
  5
30F4
102
{ACAD_XDICTIONARY
360
1F32B
102
}
102
{ACAD_REACTORS
330
30F3
102
}
330
30F3
100
AcDbModelDocViewStyle
 70
     0
  3
Imperial24
290
     0
100
AcDbSectionViewStyle
 70
     0
 71
     0
 90
       78
 71
     1
340
30E1
 62
   256
 40
0.24
340
0
340
0
 62
   256
 40
0.24
300
I, O, Q, S, X, Z
 40
0.48
 90
        3
 40
0.18
 90
        1
 71
     2
340
30E8
 90
       25
 62
   256
340
30E8
 90
       50
 62
   256
 40
0.24
 40
0.0
 40
0.24
 71
     3
340
30E1
 62
   256
 40
0.24
 90
        1
 40
0.75
 90
        1
300
%<\AcVar ViewType \f "%tc1">% %<\AcVar ViewSectionStartId>%-%<\AcVar ViewSectionEndId>%\PSCALE %<\AcVar ViewScale \f "%sn">%
 71
     4
 62
   256
 62
   257
300
ANSI31
 40
1.0
 90
        0
290
     0
290
     0
 90
        6
 40
0.0
 40
1.57079633
 40
0.26179939
 40
1.30899694
 40
-0.26179939
 40
1.83259571
  0
ACDBSECTIONVIEWSTYLE
  5
3185
102
{ACAD_XDICTIONARY
360
1F32F
102
}
102
{ACAD_REACTORS
330
30F3
102
}
330
30F3
100
AcDbModelDocViewStyle
 70
     0
  3
Metric50
290
     0
100
AcDbSectionViewStyle
 70
     0
 71
     0
 90
      102
 71
     1
340
30E1
 62
   256
 40
5.0
340
0
340
0
 62
   256
 40
5.0
300
I, O, Q, S, X, Z
 40
10.0
 90
        0
 40
2.5
 90
        0
 71
     2
340
30E8
 90
       25
 62
   256
340
30E8
 90
       50
 62
   256
 40
5.0
 40
2.5
 40
5.0
 71
     3
340
30E1
 62
   256
 40
5.0
 90
        0
 40
15.0
 90
        1
300
%<\AcVar ViewSectionStartId>%-%<\AcVar ViewSectionEndId>% (%<\AcVar ViewScale \f "%sn">%)
 71
     4
 62
   256
 62
   257
300
ANSI31
 40
1.0
 90
        0
290
     0
290
     0
 90
        6
 40
0.0
 40
1.57079633
 40
0.26179939
 40
1.30899694
 40
-0.26179939
 40
1.83259571
  0
TABLESTYLE
  5
30F0
102
{ACAD_XDICTIONARY
360
7C49
102
}
102
{ACAD_REACTORS
330
30EF
102
}
330
30EF
100
AcDbTableStyle
  3
Standard
 70
     0
 71
     0
 40
0.06
 41
0.06
280
     0
281
     0
  7
STANDARD
140
0.18
170
     2
 62
     0
 63
     7
283
     0
274
    -2
284
     1
 64
     0
275
    -2
285
     1
 65
     0
276
    -2
286
     1
 66
     0
277
    -2
287
     1
 67
     0
278
    -2
288
     1
 68
     0
279
    -2
289
     1
 69
     0
  7
STANDARD
140
0.25
170
     5
 62
     0
 63
     7
283
     0
274
    -2
284
     1
 64
     0
275
    -2
285
     1
 65
     0
276
    -2
286
     1
 66
     0
277
    -2
287
     1
 67
     0
278
    -2
288
     1
 68
     0
279
    -2
289
     1
 69
     0
  7
STANDARD
140
0.18
170
     5
 62
     0
 63
     7
283
     0
274
    -2
284
     1
 64
     0
275
    -2
285
     1
 65
     0
276
    -2
286
     1
 66
     0
277
    -2
287
     1
 67
     0
278
    -2
288
     1
 68
     0
279
    -2
289
     1
 69
     0
  0
VISUALSTYLE
  5
30BB
102
{ACAD_XDICTIONARY
360
1F302
102
}
102
{ACAD_REACTORS
330
30B5
102
}
330
30B5
100
AcDbVisualStyle
  2
2dWireframe
 70
     4
 71
     0
 72
     2
 73
     0
 90
        0
 40
-0.6
 41
-30.0
 62
     5
 63
     7
421
 16777215
 74
     1
 91
        4
 64
     7
 65
   257
 75
     1
175
     1
 42
1.0
 92
        0
 66
   257
 43
1.0
 76
     1
 77
     6
 78
     2
 67
     7
 79
     5
170
     0
171
     0
290
     0
174
     0
 93
        1
 44
0.0
173
     0
291
     0
 45
0.0
1001
ACAD
1000
AcDbSavedByObjectVersion
1070
     0
  0
VISUALSTYLE
  5
30BA
102
{ACAD_XDICTIONARY
360
1F300
102
}
102
{ACAD_REACTORS
330
30B5
102
}
330
30B5
100
AcDbVisualStyle
  2
Basic
 70
     7
 71
     1
 72
     0
 73
     1
 90
        0
 40
-0.6
 41
-30.0
 62
     5
 63
     7
421
 16777215
 74
     0
 91
        4
 64
     7
 65
   257
 75
     1
175
     1
 42
1.0
 92
        8
 66
     7
 43
1.0
 76
     1
 77
     6
 78
     2
 67
     7
 79
     5
170
     0
171
     0
290
     0
174
     0
 93
        1
 44
0.0
173
     0
291
     1
 45
0.0
1001
ACAD
1000
AcDbSavedByObjectVersion
1070
     0
  0
VISUALSTYLE
  5
30C1
102
{ACAD_XDICTIONARY
360
1F30E
102
}
102
{ACAD_REACTORS
330
30B5
102
}
330
30B5
100
AcDbVisualStyle
  2
Brighten
 70
    12
 71
     2
 72
     2
 73
     0
 90
        0
 40
-0.6
 41
-30.0
 62
     5
 63
     7
421
 16777215
 74
     1
 91
        4
 64
     7
 65
   257
 75
     1
175
     1
 42
1.0
 92
        8
 66
     7
 43
1.0
 76
     1
 77
     6
 78
     2
 67
     7
 79
     5
170
     0
171
     0
290
     0
174
     0
 93
        1
 44
50.0
173
     0
291
     1
 45
0.0
1001
ACAD
1000
AcDbSavedByObjectVersion
1070
     0
  0
VISUALSTYLE
  5
30C5
102
{ACAD_XDICTIONARY
360
1F316
102
}
102
{ACAD_REACTORS
330
30B5
102
}
330
30B5
100
AcDbVisualStyle
  2
ColorChange
 70
    16
 71
     2
 72
     2
 73
     3
 90
        0
 40
-0.6
 41
-30.0
 62
     5
 63
     8
421
  8421504
 74
     1
 91
        4
 64
     7
 65
   257
 75
     1
175
     1
 42
1.0
 92
        8
 66
     8
424
  8421504
 43
1.0
 76
     1
 77
     6
 78
     2
 67
     7
 79
     5
170
     0
171
     0
290
     0
174
     0
 93
        1
 44
0.0
173
     0
291
     1
 45
0.0
1001
ACAD
1000
AcDbSavedByObjectVersion
1070
     0
  0
VISUALSTYLE
  5
30BE
102
{ACAD_XDICTIONARY
360
1F308
102
}
102
{ACAD_REACTORS
330
30B5
102
}
330
30B5
100
AcDbVisualStyle
  2
Conceptual
 70
     9
 71
     3
 72
     2
 73
     0
 90
        0
 40
-0.6
 41
-30.0
 62
     5
 63
     7
421
 16777215
 74
     2
 91
        2
 64
     7
 65
   257
 75
     1
175
     1
 42
179.0
 92
        8
 66
     7
 43
1.0
 76
     1
 77
     6
 78
     2
 67
     7
 79
     3
170
     0
171
     0
290
     0
174
     0
 93
        1
 44
0.0
173
     0
291
     0
 45
0.0
1001
ACAD
1000
AcDbSavedByObjectVersion
1070
     0
  0
VISUALSTYLE
  5
30C0
102
{ACAD_XDICTIONARY
360
1F30C
102
}
102
{ACAD_REACTORS
330
30B5
102
}
330
30B5
100
AcDbVisualStyle
  2
Dim
 70
    11
 71
     2
 72
     2
 73
     0
 90
        0
 40
-0.6
 41
-30.0
 62
     5
 63
     7
421
 16777215
 74
     1
 91
        4
 64
     7
 65
   257
 75
     1
175
     1
 42
1.0
 92
        8
 66
     7
 43
1.0
 76
     1
 77
     6
 78
     2
 67
     7
 79
     5
170
     0
171
     0
290
     0
174
     0
 93
        1
 44
-50.0
173
     0
291
     1
 45
0.0
1001
ACAD
1000
AcDbSavedByObjectVersion
1070
     0
  0
VISUALSTYLE
  5
30CD
102
{ACAD_XDICTIONARY
360
1F326
102
}
102
{ACAD_REACTORS
330
30B5
102
}
330
30B5
100
AcDbVisualStyle
  2
EdgeColorOff
 70
    22
 71
     2
 72
     2
 73
     0
 90
        0
 40
-0.6
 41
-30.0
 62
     5
 63
     7
421
 16777215
 74
     1
 91
        4
 64
     7
 65
   257
 75
     1
175
     1
 42
1.0
 92
        8
 66
     7
 43
1.0
 76
     1
 77
     6
 78
     2
 67
     7
 79
     5
170
     0
171
     0
290
     0
174
     0
 93
        1
 44
0.0
173
     0
291
     1
 45
0.0
1001
ACAD
1000
AcDbSavedByObjectVersion
1070
     0
  0
VISUALSTYLE
  5
30C4
102
{ACAD_XDICTIONARY
360
1F314
102
}
102
{ACAD_REACTORS
330
30B5
102
}
330
30B5
100
AcDbVisualStyle
  2
Facepattern
 70
    15
 71
     2
 72
     2
 73
     0
 90
        0
 40
-0.6
 41
-30.0
 62
     5
 63
     7
421
 16777215
 74
     1
 91
        4
 64
     7
 65
   257
 75
     1
175
     1
 42
1.0
 92
        8
 66
     7
 43
1.0
 76
     1
 77
     6
 78
     2
 67
     7
 79
     5
170
     0
171
     0
290
     0
174
     0
 93
        1
 44
0.0
173
     0
291
     1
 45
0.0
1001
ACAD
1000
AcDbSavedByObjectVersion
1070
     0
  0
VISUALSTYLE
  5
30B6
102
{ACAD_XDICTIONARY
360
1F2F8
102
}
102
{ACAD_REACTORS
330
30B5
102
}
330
30B5
100
AcDbVisualStyle
  2
Flat
 70
     0
 71
     2
 72
     1
 73
     1
 90
        2
 40
-0.6
 41
30.0
 62
     5
 63
     7
421
 16777215
 74
     0
 91
        0
 64
     7
 65
   257
 75
     1
175
     1
 42
1.0
 92
        8
 66
     7
 43
1.0
 76
     1
 77
     6
 78
     2
 67
     7
 79
     5
170
     0
171
     0
290
     0
174
     0
 93
       13
 44
0.0
173
     0
291
     1
 45
0.0
1001
ACAD
1000
AcDbSavedByObjectVersion
1070
     0
  0
VISUALSTYLE
  5
30B7
102
{ACAD_XDICTIONARY
360
1F2FA
102
}
102
{ACAD_REACTORS
330
30B5
102
}
330
30B5
100
AcDbVisualStyle
  2
FlatWithEdges
 70
     1
 71
     2
 72
     1
 73
     1
 90
        2
 40
-0.6
 41
30.0
 62
     5
 63
     7
421
 16777215
 74
     1
 91
        0
 64
     7
 65
   257
 75
     1
175
     1
 42
1.0
 92
        0
 66
   257
 43
1.0
 76
     1
 77
     6
 78
     2
 67
     7
 79
     5
170
     0
171
     0
290
     0
174
     0
 93
       13
 44
0.0
173
     0
291
     1
 45
0.0
1001
ACAD
1000
AcDbSavedByObjectVersion
1070
     0
  0
VISUALSTYLE
  5
30B8
102
{ACAD_XDICTIONARY
360
1F2FC
102
}
102
{ACAD_REACTORS
330
30B5
102
}
330
30B5
100
AcDbVisualStyle
  2
Gouraud
 70
     2
 71
     2
 72
     2
 73
     1
 90
        2
 40
-0.6
 41
30.0
 62
     5
 63
     7
421
 16777215
 74
     0
 91
        0
 64
     7
 65
   257
 75
     1
175
     1
 42
1.0
 92
        0
 66
     7
 43
1.0
 76
     1
 77
     6
 78
     2
 67
     7
 79
     5
170
     0
171
     0
290
     0
174
     0
 93
       13
 44
0.0
173
     0
291
     1
 45
0.0
1001
ACAD
1000
AcDbSavedByObjectVersion
1070
     0
  0
VISUALSTYLE
  5
30B9
102
{ACAD_XDICTIONARY
360
1F2FE
102
}
102
{ACAD_REACTORS
330
30B5
102
}
330
30B5
100
AcDbVisualStyle
  2
GouraudWithEdges
 70
     3
 71
     2
 72
     2
 73
     1
 90
        2
 40
-0.6
 41
30.0
 62
     5
 63
     7
421
 16777215
 74
     1
 91
        0
 64
     7
 65
   257
 75
     1
175
     1
 42
1.0
 92
        0
 66
   257
 43
1.0
 76
     1
 77
     6
 78
     2
 67
     7
 79
     5
170
     0
171
     0
290
     0
174
     0
 93
       13
 44
0.0
173
     0
291
     1
 45
0.0
1001
ACAD
1000
AcDbSavedByObjectVersion
1070
     0
  0
VISUALSTYLE
  5
30BD
102
{ACAD_XDICTIONARY
360
1F306
102
}
102
{ACAD_REACTORS
330
30B5
102
}
330
30B5
100
AcDbVisualStyle
  2
Hidden
 70
     6
 71
     1
 72
     2
 73
     2
 90
        0
 40
-0.6
 41
-30.0
 62
     5
 63
     7
421
 16777215
 74
     2
 91
        2
 64
     7
 65
   257
 75
     2
175
     1
 42
40.0
 92
        0
 66
   257
 43
1.0
 76
     1
 77
     6
 78
     2
 67
     7
 79
     3
170
     0
171
     0
290
     0
174
     0
 93
        1
 44
0.0
173
     0
291
     0
 45
0.0
1001
ACAD
1000
AcDbSavedByObjectVersion
1070
     0
  0
VISUALSTYLE
  5
30CB
102
{ACAD_XDICTIONARY
360
1F322
102
}
102
{ACAD_REACTORS
330
30B5
102
}
330
30B5
100
AcDbVisualStyle
  2
JitterOff
 70
    20
 71
     2
 72
     2
 73
     0
 90
        0
 40
-0.6
 41
-30.0
 62
     5
 63
     7
421
 16777215
 74
     1
 91
        4
 64
     7
 65
   257
 75
     1
175
     1
 42
1.0
 92
       10
 66
     7
 43
1.0
 76
     1
 77
     6
 78
     2
 67
     7
 79
     5
170
     0
171
     0
290
     0
174
     0
 93
        1
 44
0.0
173
     0
291
     1
 45
0.0
1001
ACAD
1000
AcDbSavedByObjectVersion
1070
     0
  0
VISUALSTYLE
  5
30C3
102
{ACAD_XDICTIONARY
360
1F312
102
}
102
{ACAD_REACTORS
330
30B5
102
}
330
30B5
100
AcDbVisualStyle
  2
Linepattern
 70
    14
 71
     2
 72
     2
 73
     0
 90
        0
 40
-0.6
 41
-30.0
 62
     5
 63
     7
421
 16777215
 74
     1
 91
        4
 64
     7
 65
   257
 75
     7
175
     7
 42
1.0
 92
        8
 66
     7
 43
1.0
 76
     1
 77
     6
 78
     2
 67
     7
 79
     5
170
     0
171
     0
290
     0
174
     0
 93
        1
 44
0.0
173
     0
291
     1
 45
0.0
1001
ACAD
1000
AcDbSavedByObjectVersion
1070
     0
  0
VISUALSTYLE
  5
30CC
102
{ACAD_XDICTIONARY
360
1F324
102
}
102
{ACAD_REACTORS
330
30B5
102
}
330
30B5
100
AcDbVisualStyle
  2
OverhangOff
 70
    21
 71
     2
 72
     2
 73
     0
 90
        0
 40
-0.6
 41
-30.0
 62
     5
 63
     7
421
 16777215
 74
     1
 91
        4
 64
     7
 65
   257
 75
     1
175
     1
 42
1.0
 92
        9
 66
     7
 43
1.0
 76
     1
 77
     6
 78
     2
 67
     7
 79
     5
170
     0
171
     0
290
     0
174
     0
 93
        1
 44
0.0
173
     0
291
     1
 45
0.0
1001
ACAD
1000
AcDbSavedByObjectVersion
1070
     0
  0
VISUALSTYLE
  5
30BF
102
{ACAD_XDICTIONARY
360
1F30A
102
}
102
{ACAD_REACTORS
330
30B5
102
}
330
30B5
100
AcDbVisualStyle
  2
Realistic
 70
     8
 71
     2
 72
     2
 73
     0
 90
        2
 40
-0.6
 41
30.0
 62
     5
 63
     7
421
 16777215
 74
     0
 91
        0
 64
     7
 65
   257
 75
     1
175
     1
 42
1.0
 92
        8
 66
   257
 43
1.0
 76
     1
 77
     6
 78
     2
 67
     7
 79
     3
170
     0
171
     0
290
     0
174
     0
 93
       13
 44
0.0
173
     0
291
     0
 45
0.0
1001
ACAD
1000
AcDbSavedByObjectVersion
1070
     0
  0
VISUALSTYLE
  5
30CA
102
{ACAD_XDICTIONARY
360
1F320
102
}
102
{ACAD_REACTORS
330
30B5
102
}
330
30B5
100
AcDbVisualStyle
  2
Shaded
 70
    27
 71
     2
 72
     2
 73
     1
 90
        2
 40
-0.6
 41
30.0
 62
     5
 63
     7
421
 16777215
 74
     0
 91
        4
 64
     7
 65
   257
 75
     1
175
     1
 42
1.0
 92
        8
 66
   257
 43
1.0
 76
     1
 77
     6
 78
     2
 67
     8
425
  7895160
 79
     3
170
     0
171
     0
290
     0
174
     0
 93
        5
 44
0.0
173
     0
291
     0
 45
0.0
1001
ACAD
1000
AcDbSavedByObjectVersion
1070
     0
  0
VISUALSTYLE
  5
30C9
102
{ACAD_XDICTIONARY
360
1F31E
102
}
102
{ACAD_REACTORS
330
30B5
102
}
330
30B5
100
AcDbVisualStyle
  2
Shaded with edges
 70
    26
 71
     2
 72
     2
 73
     1
 90
        2
 40
-0.6
 41
30.0
 62
     5
 63
     7
421
 16777215
 74
     1
 91
        2
 64
     7
 65
   257
 75
     2
175
     1
 42
1.0
 92
        8
 66
   257
 43
1.0
 76
     1
 77
     6
 78
     2
 67
     7
 79
     3
170
     0
171
     0
290
     0
174
     0
 93
        5
 44
0.0
173
     0
291
     0
 45
0.0
1001
ACAD
1000
AcDbSavedByObjectVersion
1070
     0
  0
VISUALSTYLE
  5
30C6
102
{ACAD_XDICTIONARY
360
1F318
102
}
102
{ACAD_REACTORS
330
30B5
102
}
330
30B5
100
AcDbVisualStyle
  2
Shades of Gray
 70
    23
 71
     2
 72
     2
 73
     3
 90
        0
 40
-0.6
 41
-30.0
 62
     5
 63
     7
421
 16777215
 74
     2
 91
        2
 64
     7
 65
     7
 75
     1
175
     1
 42
40.0
 92
        8
 66
     7
 43
1.0
 76
     1
 77
     6
 78
     2
 67
     7
 79
     3
170
     0
171
     0
290
     0
174
     0
 93
        1
 44
0.0
173
     0
291
     0
 45
0.0
1001
ACAD
1000
AcDbSavedByObjectVersion
1070
     0
  0
VISUALSTYLE
  5
30C7
102
{ACAD_XDICTIONARY
360
1F31A
102
}
102
{ACAD_REACTORS
330
30B5
102
}
330
30B5
100
AcDbVisualStyle
  2
Sketchy
 70
    24
 71
     1
 72
     2
 73
     2
 90
        0
 40
-0.6
 41
-30.0
 62
     5
 63
     7
421
 16777215
 74
     2
 91
        2
 64
     7
 65
     7
 75
     1
175
     1
 42
40.0
 92
       11
 66
     7
 43
1.0
 76
     1
 77
     6
 78
     2
 67
     7
 79
     6
170
     0
171
     0
290
     0
174
     0
 93
        1
 44
0.0
173
     0
291
     0
 45
0.0
1001
ACAD
1000
AcDbSavedByObjectVersion
1070
     0
  0
VISUALSTYLE
  5
30C2
102
{ACAD_XDICTIONARY
360
1F310
102
}
102
{ACAD_REACTORS
330
30B5
102
}
330
30B5
100
AcDbVisualStyle
  2
Thicken
 70
    13
 71
     2
 72
     2
 73
     0
 90
        0
 40
-0.6
 41
-30.0
 62
     5
 63
     7
421
 16777215
 74
     1
 91
        4
 64
     7
 65
   257
 75
     1
175
     1
 42
1.0
 92
       12
 66
     7
 43
1.0
 76
     1
 77
     6
 78
     2
 67
     7
 79
     5
170
     0
171
     0
290
     0
174
     0
 93
        1
 44
0.0
173
     0
291
     1
 45
0.0
1001
ACAD
1000
AcDbSavedByObjectVersion
1070
     0
  0
VISUALSTYLE
  5
30BC
102
{ACAD_XDICTIONARY
360
1F304
102
}
102
{ACAD_REACTORS
330
30B5
102
}
330
30B5
100
AcDbVisualStyle
  2
Wireframe
 70
     5
 71
     0
 72
     2
 73
     0
 90
        0
 40
-0.6
 41
-30.0
 62
     5
 63
     7
421
 16777215
 74
     1
 91
        4
 64
     7
 65
   257
 75
     1
175
     1
 42
1.0
 92
        0
 66
   257
 43
1.0
 76
     1
 77
     6
 78
     2
 67
     7
 79
     3
170
     0
171
     0
290
     0
174
     0
 93
        1
 44
0.0
173
     0
291
     0
 45
0.0
1001
ACAD
1000
AcDbSavedByObjectVersion
1070
     0
  0
VISUALSTYLE
  5
30C8
102
{ACAD_XDICTIONARY
360
1F31C
102
}
102
{ACAD_REACTORS
330
30B5
102
}
330
30B5
100
AcDbVisualStyle
  2
X-Ray
 70
    25
 71
     2
 72
     2
 73
     1
 90
        1
 40
0.5
 41
-30.0
 62
     5
 63
     7
421
 16777215
 74
     1
 91
        0
 64
     7
 65
   257
 75
     1
175
     1
 42
1.0
 92
        8
 66
     7
 43
1.0
 76
     1
 77
     6
 78
     2
 67
     7
 79
     3
170
     0
171
     0
290
     0
174
     0
 93
       13
 44
0.0
173
     0
291
     0
 45
0.0
1001
ACAD
1000
AcDbSavedByObjectVersion
1070
     0
  0
DICTIONARYVAR
  5
317F
102
{ACAD_REACTORS
330
3179
102
}
330
3179
100
DictionaryVariables
280
     0
  1
1:1
  0
DICTIONARYVAR
  5
317B
102
{ACAD_REACTORS
330
3179
102
}
330
3179
100
DictionaryVariables
280
     0
  1
STANDARD
  0
DICTIONARYVAR
  5
317A
102
{ACAD_REACTORS
330
3179
102
}
330
3179
100
DictionaryVariables
280
     0
  1
STANDARD
  0
DICTIONARYVAR
  5
317C
102
{ACAD_REACTORS
330
3179
102
}
330
3179
100
DictionaryVariables
280
     0
  1
Imperial24
  0
DICTIONARYVAR
  5
317D
102
{ACAD_REACTORS
330
3179
102
}
330
3179
100
DictionaryVariables
280
     0
  1
Imperial24
  0
DICTIONARYVAR
  5
3181
102
{ACAD_REACTORS
330
3179
102
}
330
3179
100
DictionaryVariables
280
     0
  1
0
  0
DICTIONARYVAR
  5
3182
102
{ACAD_REACTORS
330
3179
102
}
330
3179
100
DictionaryVariables
280
     0
  1
0
  0
DICTIONARYVAR
  5
3180
102
{ACAD_REACTORS
330
3179
102
}
330
3179
100
DictionaryVariables
280
     0
  1
2
  0
DICTIONARYVAR
  5
317E
102
{ACAD_REACTORS
330
3179
102
}
330
3179
100
DictionaryVariables
280
     0
  1
1
  0
DICTIONARYVAR
  5
1F2EF
102
{ACAD_REACTORS
330
3179
102
}
330
3179
100
DictionaryVariables
280
     0
  1
2
  0
XRECORD
  5
7C26
102
{ACAD_REACTORS
330
312B
102
}
330
312B
100
AcDbXrecord
280
     1
 91
      535
301

290
     0
302
0
330
30E0
 90
        8
 62
     7
370
    -3
331
30E8
  1
色_7
440
 33554687
330
310D
 90
        8
 62
     1
370
    -3
331
30E8
  1
色_1
440
 33554687
330
310E
 90
        8
 62
     4
370
    -3
331
30E8
  1
色_4
440
 33554687
330
0
 90
        8
 62
     4
370
    -3
331
30E8
  1
色_4
440
 33554687
330
0
 90
        8
 62
     3
370
    -3
331
30E8
  1
色_3
440
 33554687
330
3112
 90
        8
 62
     2
370
    -3
331
30E8
  1
色_2
440
 33554687
330
0
 90
        8
 62
     7
370
    -3
331
30E8
  1
色_7
440
 33554687
330
0
 90
        8
 62
     5
370
    -3
331
30E8
  1
色_5
440
 33554687
330
3116
 90
        8
 62
     7
370
    -3
331
30E8
  1
色_7
440
 33554687
330
0
 90
        8
 62
     6
370
    -3
331
30E8
  1
色_6
440
 33554687
330
0
 90
        8
 62
     6
370
    13
331
30E8
  1
色_6
440
 33554687
330
670F
 90
        8
 62
     4
370
    -3
331
30E8
  1
色_4
440
 33554687
  0
DICTIONARY
  5
1F32D
330
30F6
100
AcDbDictionary
280
     1
281
     1
  3
ACAD_XREC_ROUNDTRIP
360
1F32E
  0
DICTIONARY
  5
1F331
330
3186
100
AcDbDictionary
280
     1
281
     1
  3
ACAD_XREC_ROUNDTRIP
360
1F332
  0
DICTIONARY
  5
3177
330
30FE
100
AcDbDictionary
280
     1
281
     1
  3
ADSK_XREC_LAYOUTTHUMBNAIL
360
1B067
  0
DICTIONARY
  5
1F2F4
330
30A5
100
AcDbDictionary
280
     1
281
     1
  3
ACAD_XREC_ROUNDTRIP
360
1F2F5
  0
DICTIONARY
  5
1F2F2
330
309D
100
AcDbDictionary
280
     1
281
     1
  3
ACAD_XREC_ROUNDTRIP
360
1F2F3
  0
DICTIONARY
  5
1F2F6
330
30AD
100
AcDbDictionary
280
     1
281
     1
  3
ACAD_XREC_ROUNDTRIP
360
1F2F7
  0
DICTIONARY
  5
1F329
330
30F2
100
AcDbDictionary
280
     1
281
     1
  3
ACAD_XREC_ROUNDTRIP
360
1F32A
  0
XRECORD
  5
7DB8
102
{ACAD_REACTORS
330
7DB7
102
}
330
7DB7
100
AcDbXrecord
280
     1
 70
     2
 71
     3
 72
     0
  0
DICTIONARY
  5
1F32B
330
30F4
100
AcDbDictionary
280
     1
281
     1
  3
ACAD_XREC_ROUNDTRIP
360
1F32C
  0
DICTIONARY
  5
1F32F
330
3185
100
AcDbDictionary
280
     1
281
     1
  3
ACAD_XREC_ROUNDTRIP
360
1F330
  0
DICTIONARY
  5
7C49
330
30F0
100
AcDbDictionary
280
     1
281
     1
  3
ACAD_ROUNDTRIP_2008_TABLESTYLE_CELLSTYLEMAP
360
1F2F0
  3
ACAD_XREC_ROUNDTRIP
360
1F328
  0
DICTIONARY
  5
1F302
330
30BB
100
AcDbDictionary
280
     1
281
     1
  3
ACAD_XREC_ROUNDTRIP
360
1F303
  0
DICTIONARY
  5
1F300
330
30BA
100
AcDbDictionary
280
     1
281
     1
  3
ACAD_XREC_ROUNDTRIP
360
1F301
  0
DICTIONARY
  5
1F30E
330
30C1
100
AcDbDictionary
280
     1
281
     1
  3
ACAD_XREC_ROUNDTRIP
360
1F30F
  0
DICTIONARY
  5
1F316
330
30C5
100
AcDbDictionary
280
     1
281
     1
  3
ACAD_XREC_ROUNDTRIP
360
1F317
  0
DICTIONARY
  5
1F308
330
30BE
100
AcDbDictionary
280
     1
281
     1
  3
ACAD_XREC_ROUNDTRIP
360
1F309
  0
DICTIONARY
  5
1F30C
330
30C0
100
AcDbDictionary
280
     1
281
     1
  3
ACAD_XREC_ROUNDTRIP
360
1F30D
  0
DICTIONARY
  5
1F326
330
30CD
100
AcDbDictionary
280
     1
281
     1
  3
ACAD_XREC_ROUNDTRIP
360
1F327
  0
DICTIONARY
  5
1F314
330
30C4
100
AcDbDictionary
280
     1
281
     1
  3
ACAD_XREC_ROUNDTRIP
360
1F315
  0
DICTIONARY
  5
1F2F8
330
30B6
100
AcDbDictionary
280
     1
281
     1
  3
ACAD_XREC_ROUNDTRIP
360
1F2F9
  0
DICTIONARY
  5
1F2FA
330
30B7
100
AcDbDictionary
280
     1
281
     1
  3
ACAD_XREC_ROUNDTRIP
360
1F2FB
  0
DICTIONARY
  5
1F2FC
330
30B8
100
AcDbDictionary
280
     1
281
     1
  3
ACAD_XREC_ROUNDTRIP
360
1F2FD
  0
DICTIONARY
  5
1F2FE
330
30B9
100
AcDbDictionary
280
     1
281
     1
  3
ACAD_XREC_ROUNDTRIP
360
1F2FF
  0
DICTIONARY
  5
1F306
330
30BD
100
AcDbDictionary
280
     1
281
     1
  3
ACAD_XREC_ROUNDTRIP
360
1F307
  0
DICTIONARY
  5
1F322
330
30CB
100
AcDbDictionary
280
     1
281
     1
  3
ACAD_XREC_ROUNDTRIP
360
1F323
  0
DICTIONARY
  5
1F312
330
30C3
100
AcDbDictionary
280
     1
281
     1
  3
ACAD_XREC_ROUNDTRIP
360
1F313
  0
DICTIONARY
  5
1F324
330
30CC
100
AcDbDictionary
280
     1
281
     1
  3
ACAD_XREC_ROUNDTRIP
360
1F325
  0
DICTIONARY
  5
1F30A
330
30BF
100
AcDbDictionary
280
     1
281
     1
  3
ACAD_XREC_ROUNDTRIP
360
1F30B
  0
DICTIONARY
  5
1F320
330
30CA
100
AcDbDictionary
280
     1
281
     1
  3
ACAD_XREC_ROUNDTRIP
360
1F321
  0
DICTIONARY
  5
1F31E
330
30C9
100
AcDbDictionary
280
     1
281
     1
  3
ACAD_XREC_ROUNDTRIP
360
1F31F
  0
DICTIONARY
  5
1F318
330
30C6
100
AcDbDictionary
280
     1
281
     1
  3
ACAD_XREC_ROUNDTRIP
360
1F319
  0
DICTIONARY
  5
1F31A
330
30C7
100
AcDbDictionary
280
     1
281
     1
  3
ACAD_XREC_ROUNDTRIP
360
1F31B
  0
DICTIONARY
  5
1F310
330
30C2
100
AcDbDictionary
280
     1
281
     1
  3
ACAD_XREC_ROUNDTRIP
360
1F311
  0
DICTIONARY
  5
1F304
330
30BC
100
AcDbDictionary
280
     1
281
     1
  3
ACAD_XREC_ROUNDTRIP
360
1F305
  0
DICTIONARY
  5
1F31C
330
30C8
100
AcDbDictionary
280
     1
281
     1
  3
ACAD_XREC_ROUNDTRIP
360
1F31D
  0
XRECORD
  5
1F32E
102
{ACAD_REACTORS
330
1F32D
102
}
330
1F32D
100
AcDbXrecord
280
     1
102
DISPLAYNAME
  1
Imperial24
102
FLAGS
 90
        0
  0
XRECORD
  5
1F332
102
{ACAD_REACTORS
330
1F331
102
}
330
1F331
100
AcDbXrecord
280
     1
102
DISPLAYNAME
  1
Metric50
102
FLAGS
 90
        0
  0
XRECORD
  5
1B067
102
{ACAD_REACTORS
330
3177
102
}
330
3177
100
AcDbXrecord
280
     1
310
2800000000010000730000000100080000000000007300000100000001000000000100000000000000000000FFFFFF52000000FF000000FF000000FF000000FF000000FF000000FF000000FF000000FF000000FF330000FF660000FF990000FFCC0000FFFF0000FF003300FF333300FF663300FF993300FFCC3300FFFF3300
310
FF006600FF336600FF666600FF996600FFCC6600FFFF6600FF009900FF339900FF669900FF999900FFCC9900FFFF9900FF00CC00FF33CC00FF66CC00FF99CC00FFCCCC00FFFFCC00FF00FF00FF33FF00FF66FF00FF99FF00FFCCFF00FFFFFF00FF000033FF330033FF660033FF990033FFCC0033FFFF0033FF003333FF3333
310
33FF663333FF993333FFCC3333FFFF3333FF006633FF336633FF666633FF996633FFCC6633FFFF6633FF009933FF339933FF669933FF999933FFCC9933FFFF9933FF00CC33FF33CC33FF66CC33FF99CC33FFCCCC33FFFFCC33FF00FF33FF33FF33FF66FF33FF99FF33FFCCFF33FFFFFF33FF000066FF330066FF660066FF99
310
0066FFCC0066FFFF0066FF003366FF333366FF663366FF993366FFCC3366FFFF3366FF006666FF336666FF666666FF996666FFCC6666FFFF6666FF009966FF339966FF669966FF999966FFCC9966FFFF9966FF00CC66FF33CC66FF66CC66FF99CC66FFCCCC66FFFFCC66FF00FF66FF33FF66FF66FF66FF99FF66FFCCFF66FF
310
FFFF66FF000099FF330099FF660099FF990099FFCC0099FFFF0099FF003399FF333399FF663399FF993399FFCC3399FFFF3399FF006699FF336699FF666699FF996699FFCC6699FFFF6699FF009999FF339999FF669999FF999999FFCC9999FFFF9999FF00CC99FF33CC99FF66CC99FF99CC99FFCCCC99FFFFCC99FF00FF99
310
FF33FF99FF66FF99FF99FF99FFCCFF99FFFFFF99FF0000CCFF3300CCFF6600CCFF9900CCFFCC00CCFFFF00CCFF0033CCFF3333CCFF6633CCFF9933CCFFCC33CCFFFF33CCFF0066CCFF3366CCFF6666CCFF9966CCFFCC66CCFFFF66CCFF0099CCFF3399CCFF6699CCFF9999CCFFCC99CCFFFF99CCFF00CCCCFF33CCCCFF66CC
310
CCFF99CCCCFFCCCCCCFFFFCCCCFF00FFCCFF33FFCCFF66FFCCFF99FFCCFFCCFFCCFFFFFFCCFF0000FFFF3300FFFF6600FFFF9900FFFFCC00FFFFFF00FFFF0033FFFF3333FFFF6633FFFF9933FFFFCC33FFFFFF33FFFF0066FFFF3366FFFF6666FFFF9966FFFFCC66FFFFFF66FFFF0099FFFF3399FFFF6699FFFF9999FFFFCC
310
99FFFFFF99FFFF00CCFFFF33CCFFFF66CCFFFF99CCFFFFCCCCFFFFFFCCFFFF00FFFFFF33FFFFFF66FFFFFF99FFFFFFCCFFFFFFFFFFFFFF000000FF0D0D0DFF1A1A1AFF282828FF353535FF434343FF505050FF5D5D5DFF6B6B6BFF787878FF868686FF939393FFA1A1A1FFAEAEAEFFBBBBBBFFC9C9C9FFD6D6D6FFE4E4E4FF
310
F1F1F1FFFFFFFFFF000000FF000000FF000000FF000000FF000000FF000000FF000000FF000000FF000000FF000000FF00000000000000000000000000000000000000000000000000000000000000000000000000000000000000000000000000000000000000000000000000000000000000000000000000000000000000
310
00000000000000000000000000000000000000000000000000000000000000000000000000000000000000000000000000000000000000000000000000000000000000000000000000000000000000000000000000000000000000000000000000000000000000000000000000000000000000000000000000000000000000
310
00000000000000000000000000000000000000000000000000000000000000000000000000000000000000000000000000000000000000000000000000000000000000000000000000000000000000000000000000000000000000000000000000000000F5F5F5F5F5F5F5F5F5F5F5F5F5F5F5F5F5F5F5F5F5F5F5F5F5F5F5
310
F5F5F5F5F5F5F5F5F5F5F5F5F5F5F5F5F5F5F5F5F5F5F5F5F5F5F5F5F5F5F5F5F5F5F5F5F5F5F5F5F5F5F5F5F5F5F5F5F5F5F5F5F5F5F5F5F5F5F5F5F5F5F5F5F5F5F5F5F5F5F5F5F5F5F5F5F5F5F5F5F5F5F5F5F5F5F5F5F5F5F5F5F5F5F5F5F5F5F5F5F5F5F5F5F5F5F5F5F5F5F5F5F5F5F5F5F5F5F5F5F5F5F5F5F5F5F5
310
F5F500000000000000000000000000000000000000000000000000000000000000000000000000000000000000000000000000000000000000000000000000000000000000000000000000000000000000000000000000000000000000000000000000000000F500F5000000000000000000000000000000000000000000F5
310
0000000000000000000000000000000000000000F5000000000000000000000000000000000000000000F50000F50000000000000000000000000000000000F5000000000000000000000000000000000000000000000000000000000000000000000000000000000000000000000000000000000000000000000000000000
310
00F500F500000000000000000000000000000000000000000000000000000000000000000000000000000000000000000000000000000000000000000000000000000000000000000000000000000000000000000000000000000000000000000000000000000000F500F50000000000000000000000000000000000000000
310
00F50000000000000000000000000000000000000000F5000000000000000000000000000000000000000000F50000F50000000000000000000000000000000000F500000000000000000000000000000000000000000000000000000000000000000000000000000000000000000000000000000000000000000000000000
310
000000F500F500000000000000000000000000000000000000000000000000000000000000000000000000000000000000000000000000000000000000000000000000000000000000000000000000000000000000000000000000000000000000000000000000000000F500F5000000000000000000000000000000000000
310
000000F50000000000000000000000000000000000000000F5000000000000000000000000000000000000000000F50000F50000000000000000000000000000000000F50000000000000000000000000000000000000000000000000000000000000000000000000000000000000000000000000000000000000000000000
310
0000000000F500F500000000000000000000000000000000000000000000000000000000000000000000000000000000000000000000000000000000000000000000000000000000000000000000000000000000000000000000000000000000000000000000000000000000F500F500000000000000000000000000000000
310
0000000000F50000000000000000000000000000000000000000F5000000000000000000000000000000000000000000F50000F50000000000000000000000000000000000F5000000000000000000000000000000000000000000000000000000000000000000000000000000000000000000000000000000000000000000
310
00000000000000F500F500000000000000000000000000000000000000000000000000000000000000000000000000000000000000000000000000000000000000000000000000000000000000000000000000000000000000000000000000000000000000000000000000000000F500F50000000000000000000000000000
310
00000000000000F50000000000000000000000000000000000000000F5000000000000000000000000000000000000000000F50000F50000000000000000000000000000000000F500000000000000000000000000000000000000000000000000000000000000000000000000000000000000000000000000000000000000
310
000000000000000000F500F500000000000000000000000000000000000000000000000000000000000000000000000000000000000000000000000000000000000000000000000000000000000000000000000000000000000000000000000000000000000000000000000000000000F500F5000000000000000000000000
310
000000000000000000F50000000000000000000000000000000000000000F5000000000000000000000000000000000000000000F50000F50000000000000000000000000000000000F50000000000000000000000000000000000000000000000000000000000000000000000000000000000000000000000000000000000
310
0000000000000000000000F500F500000000000000000000000000000000000000000000000000000000000000000000000000000000000000000000000000000000000000000000000000000000000000000000000000000000000000000000000000000000000000000000000000000000F500F500000000000000000000
310
0000000000000000000000F50000000000000000000000000000000000000000F5000000000000000000000000000000000000000000F50000F50000000000000000000000000000000000F5000000000000000000000000000000000000000000000000000000000000000000000000000000000000000000000000000000
310
00000000000000000000000000F500F500000000000000000000000000000000000000000000000000000000000000000000000000000000000000000000000000000000000000000000000000000000000000000000000000000000000000000000000000000000000000000000000000000000F500F50000000000000000
310
00000000000000000000000000F50000000000000000000000000000000000000000F5000000000000000000000000000000000000000000F50000F50000000000000000000000000000000000F500000000000000000000000000000000000000000000000000000000000000000000000000000000000000000000000000
310
000000000000000000000000000000F500F500000000000000000000000000000000000000000000000000000000000000000000000000000000000000000000000000000000000000000000000000000000000000000000000000000000000000000000000000000000000000000000000000000000F500F5000000000000
310
000000000000000000000000000000F50000000000000000000000000000000000000000F5000000000000000000000000000000000000000000F50000F50000000000000000000000000000000000F50000000000000000000000000000000000000000000000000000000000000000000000000000000000000000000000
310
0000000000000000000000000000000000F500F500000000000000000000000000000000000000000000000000000000000000000000000000000000000000000000000000000000000000000000000000000000000000000000000000000000000000000000000000000000000000000000000000000000F500F500000000
310
0000000000000000000000000000000000F50000000000000000000000000000000000000000F5000000000000000000000000000000000000000000F50000F50000000000000000000000000000000000F5000000000000000000000000000000000000000000000000000000000000000000000000000000000000000000
310
00000000000000000000000000000000000000F500F500000000000000000000000000000000000000000000000000000000000000000000000000000000000000000000000000000000000000000000000000000000000000000000000000000000000000000000000000000000000000000000000000000000F500F50000
310
00000000000000000000000000000000000000F50000000000000000000000000000000000000000F5000000000000000000000000000000000000000000F50000F50000000000000000000000000000000000F500000000000000000000000000000000000000000000000000000000000000000000000000000000000000
310
000000000000000000000000000000000000000000F500F500000000000000000000000000000000000000000000000000000000000000000000000000000000000000000000000000000000000000000000000000000000000000000000000000000000000000000000000000000000000000000000000000000000F500F5
310
000000000000000000000000000000000000000000F50000000000000000000000000000000000000000F5000000000000000000000000000000000000000000F50000F50000000000000000000000000000000000F50000000000000000000000000000000000000000000000000000000000000000000000000000000000
310
0000000000000000000000000000000000000000000000F500F500000000000000000000000000000000000000000000000000000000000000000000000000000000000000000000000000000000000000000000000000000000000000000000000000000000000000000000000000000000000000000000000000000000F5
310
00F5000000000000000000000000000000000000000000F50000000000000000000000000000000000000000F5000000000000000000000000000000000000000000F50000F50000000000000000000000000000000000F5000000000000000000000000000000000000000000000000000000000000000000000000000000
310
00000000000000000000000000000000000000000000000000F500F5000000000000000000000000000000000000000000000000000000000000000000000000000000000000000000000000000000000000000000000000000000000000000000000000000000000000000000000000000000000000000000000000000000
310
00F500F5000000000000000000000000000000000000000000F50000000000000000000000000000000000000000F5000000000000000000000000000000000000000000F50000F50000000000000000000000000000000000F500000000000000000000000000000000000000000000000000000000000000000000000000
310
000000000000000000000000000000000000000000000000000000F500F500000000000000000000000000000000000000000000000000000000000000000000000000000000000000000000000000000000000000000000000000000000000000000000000000000000000000000000000000000000000000000000000000
310
000000F500F5000000000000000000000000000000000000000000F50000000000000000000000000000000000000000F5000000000000000000000000000000000000000000F50000F50000000000000000000000000000000000F50000000000000000000000000000000000000000000000000000000000000000000000
310
0000000000000000000000000000000000000000000000000000000000F500F50000000000000000000000000000000000000000000000000000000000000000000000000000000000000000000000000000000000000000000000000000000000000000000000000000000000000000000000000000000000000000000000
310
0000000000F500F5000000000000000000000000000000000000000000F50000000000000000000000000000000000000000F5000000000000000000000000000000000000000000F50000F50000000000000000000000000000000000F5000000000000000000000000000000000000000000000000000000000000000000
310
00000000000000000000000000000000000000000000000000000000000000F500F5000000000000000000000000000000000000000000000000000000000000000000000000000000000000000000000000000000000000000000000000000000000000000000000000000000000000000000000000000000000000000000
310
00000000000000F500F5000000000000000000000000000000000000000000F50000000000000000000000000000000000000000F5000000000000000000000000000000000000000000F50000F50000000000000000000000000000000000F500000000000000000000000000000000000000000000000000000000000000
310
000000000000000000000000000000000000000000000000000000000000000000F500F500000000000000000000000000000000000000000000000000000000000000000000000000000000000000000000000000000000000000000000000000000000000000000000000000000000000000000000000000000000000000
310
000000000000000000F500F5000000000000000000000000000000000000000000F50000000000000000000000000000000000000000F5000000000000000000000000000000000000000000F50000F50000000000000000000000000000000000F50000000000000000000000000000000000000000000000000000000000
310
0000000000000000000000000000000000000000000000000000000000000000000000F500F50000000000000000000000000000000000000000000000000000000000000000000000000000000000000000000000000000000000000000000000000000000000000000000000000000000000000000000000000000000000
310
0000000000000000000000F500F5000000000000000000000000000000000000000000F50000000000000000000000000000000000000000F5000000000000000000000000000000000000000000F50000F50000000000000000000000000000000000F5000000000000000000000000000000000000000000000000000000
310
00000000000000000000000000000000000000000000000000000000000000000000000000F500F5000000000000000000000000000000000000000000000000000000000000000000000000000000000000000000000000000000000000000000000000000000000000000000000000000000000000000000000000000000
310
00000000000000000000000000F5F5F5F5F5F5F5F5F5F5F5F5F5F5F5F5F5F5F5F5F5F5F5F5F5F5F5F5F5F5F5F5F5F5F5F5F5F5F5F5F5F5F5F5F5F5F5F5F5F5F5F5F5F5F5F5F5F5F5F5F5F5F5F5F5F5F5F5F5F5F5F5F5F5F5F5F5F5F5F5F5F5F5F5F5F5F5F5F5F5F5F5F5F5F5F5F5F5F5F5F5F5F5F5F5F5F5F5F5F5F5F5F5F5
310
F5F5F5F5F5F5F5F5F5F5F5F5F5F5F5F5F5F5F5F5F5F5F5F5F5F5F5F5F5F5F5F5F5F5F5F5F5F5F5F500F500000000000000000000000000000000000000000000000000000000000000000000000000000000000000000000000000000000000000000000000000000000000000000000000000000000000000000000000000
310
000000000000000000000000000000F500F5000000000000000000000000000000000000000000F50000000000000000000000000000000000000000F5000000000000000000000000000000000000000000F50000F50000000000000000000000000000000000F50000000000000000000000000000000000000000000000
310
0000000000000000000000000000000000000000000000000000000000000000000000000000000000F500F50000000000000000000000000000000000000000000000000000000000000000000000000000000000000000000000000000000000000000000000000000000000000000000000000000000000000000000000
310
0000000000000000000000000000000000F500F5000000000000000000000000000000000000000000F50000000000000000000000000000000000000000F5000000000000000000000000000000000000000000F50000F50000000000000000000000000000000000F5000000000000000000000000000000000000000000
310
00000000000000000000000000000000000000000000000000000000000000000000000000000000000000F500F5000000000000000000000000000000000000000000000000000000000000000000000000000000000000000000000000000000000000000000000000000000000000000000000000000000000000000000
310
00000000000000000000000000000000000000F500F5000000000000000000000000000000000000000000F50000000000000000000000000000000000000000F5000000000000000000000000000000000000000000F50000F50000000000000000000000000000000000F500000000000000000000000000000000000000
310
000000000000000000000000000000000000000000000000000000000000000000000000000000000000000000F500F500000000000000000000000000000000000000000000000000000000000000000000000000000000000000000000000000000000000000000000000000000000000000000000000000000000000000
310
000000000000000000000000000000000000000000F500F5000000000000000000000000000000000000000000F50000000000000000000000000000000000000000F5000000000000000000000000000000000000000000F50000F50000000000000000000000000000000000F50000000000000000000000000000000000
310
0000000000000000000000000000000000000000000000000000000000000000000000000000000000000000000000F500F50000000000000000000000000000000000000000000000000000000000000000000000000000000000000000000000000000000000000000000000000000000000000000000000000000000000
310
0000000000000000000000000000000000000000000000F500F5000000000000000000000000000000000000000000F50000000000000000000000000000000000000000F5000000000000000000000000000000000000000000F50000F50000000000000000000000000000000000F5000000000000000000000000000000
310
00000000000000000000000000000000000000000000000000000000000000000000000000000000000000000000000000F500F5000000000000000000000000000000000000000000000000000000000000000000000000000000000000000000000000000000000000000000000000000000000000000000000000000000
310
00000000000000000000000000000000000000000000000000F500F5000000000000000000000000000000000000000000F50000000000000000000000000000000000000000F5000000000000000000000000000000000000000000F50000F50000000000000000000000000000000000F500000000000000000000000000
310
000000000000000000000000000000000000000000000000000000000000000000000000000000000000000000000000000000F500F500000000000000000000000000000000000000000000000000000000000000000000000000000000000000000000000000000000000000000000000000000000000000000000000000
310
000000000000000000000000000000000000000000000000000000F500F5000000000000000000000000000000000000000000F50000000000000000000000000000000000000000F5000000000000000000000000000000000000000000F50000F50000000000000000000000000000000000F50000000000000000000000
310
0000000000000000000000000000000000000000000000000000000000000000000000000000000000000000000000000000000000F500F50000000000000000000000000000000000000000000000000000000000000000000000000000000000000000000000000000000000000000000000000000000000000000000000
310
0000000000000000000000000000000000000000000000000000000000F528F5000000000000000000000000000000000000000000F50000000000000000000000000000000000000000F5000000000000000000000000000000000000000000F50000F50000000000000000000000000000000000F5000000000000000000
310
00000000000000000000000000000000000000000000000000000000000000000000000000000000000000000000000000000000000000F500F5000000000000000000000000000000000000000000000000000000000000000000000000000000000000000000000000000000000000000000000000000000000000000000
310
000000000000000000000000000000000000000000000000000000000000002828280000000000000000DCDCDCDCDC0000000000000000F500000000000000DCDCDCDCDCDC00000000000000F500000000000000DCDCDCDCDCDCDC00000000000000F50000F50000000000000000000000000000000000F500000000000000
310
000000000000000000000000000000000000000000000000000000000000000000000000000000000000000000000000000000000000000000F500F500000000000000000000000000000000000000000000000000000000000000000000000000000000000000000000000000000000000000000000000000000000000000
310
0000000000000000000000000000000000000000000000000000000000000000002828F50000000000000000DCDC00DCDC0000000000000000F500000000000000DCDCDCDCDCDC00000000000000F500000000000000DCDCDCDCDCDCDC00000000000000F50000F50000000000000000000000000000000000F50000000000
310
0000000000000000000000000000000000000000000000000000000000000000000000000000000000000000000000000000000000000000000000F500F50000000000000000000000000000000000000000000000000000000000000000000000000000000000000000000000000000000000000000000000000000000000
310
0000000000000000000000000000000000000000000000000000000000000000000000282828000000000000000000DCDCDC00DC00000000000000F50000000000000000DCDC00DCDCDC000000000000F50000000000000000DCDC0000DC00DC000000000000F50000F50000000000000000000000000000000000F5000000
310
00000000000000000000000000000000000000000000000000000000000000000000000000000000000000000000000000000000000000000000000000F500F5000000000000000000000000000000000000000000000000000000000000000000000000000000000000000000000000000000000000000000000000000000
310
000000000000000000000000000000000000000000000000000000000000000000000000002828280000000000000000002D2D2DDCDC00000000000000F500000000000000002D2D2D2D2DDCDC0000000000F500000000000000002D2D2D2D2DDCDC000000000000F50000F50000000000000000000000000000000000F500
310
000000000000000000000000000000000000000000000000000000000000000000000000000000000000000000000000000000000000000000000000000000F500F500000000000000000000000000000000000000000000000000000000000000000000000000000000000000000000000000000000000000000000000000
310
0000000000000000000000000000000000000000000000000000000000000000000000000000002828280000000000000000002D2D2DDCDC00000000000000F500000000000000002D2D2D2D00DC000000000000F500000000000000002D2D2D2D2DDCDC000000000000F50000F50000000000000000000000000000000000
310
F500000000000000000000000000000000000000000000000000000000000000000000000000000000000000000000000000000000000000000000000000000000F500F50000000000000000000000000000000000000000000000000000000000000000000000000000000000000000000000000000000000000000000000
310
0000000000000000000000000000000000000000000000000000000000000000000000000000000000F500F5000000000000000000000000000000000000000000F50000000000000000000000000000000000000000F5000000000000000000000000000000000000000000F50000F5000000000000000000000000000000
310
0000F500000000000000000000000000000000000000000000000000000000000000000000000000000000000000000000000000000000000000000000000000000000F500F5000000000000000000000000000000000000000000000000000000000000000000000000000000000000000000000000000000000000000000
310
00000000000000000000000000000000000000000000000000000000000000000000000000000000000000F500F5000000000000000000000000000000000000000000F50000000000000000000000000000000000000000F5000000000000000000000000000000000000000000F50000F500000000000000000000000000
310
00000000F500000000000000000000000000000000000000000000000000000000000000000000000000000000000000000000000000000000000000000000000000000000F500F500000000000000000000000000000000000000000000000000000000000000000000000000000000000000000000000000000000000000
310
000000000000000000000000000000000000000000000000000000000000000000000000000000000000000000F500F5000000000000000000000000000000000000000000F50000000000000000000000000000000000000000F5000000000000000000000000000000000000000000F50000F50000000000000000000000
310
000000000000F500000000000000000000000000000000000000000000000000000000000000000000000000000000000000000000000000000000000000000000000000000000F500F50000000000000000000000000000000000000000000000000000000000000000000000000000000000000000000000000000000000
310
0000000000000000000000000000000000000000000000000000000000000000000000000000000000000000000000F500F5000000000000000000000000000000000000000000F50000000000000000000000000000000000000000F5000000000000000000000000000000000000000000F50000F5000000000000000000
310
0000000000000000F500000000000000000000000000000000000000000000000000000000000000000000000000000000000000000000000000000000000000000000000000000000F500F5000000000000000000000000000000000000000000000000000000000000000000000000000000000000000000000000000000
310
00000000000000000000000000000000000000000000000000000000000000000000000000000000000000000000000000F500F5000000000000000000000000000000000000000000F50000000000000000000000000000000000000000F5000000000000000000000000000000000000000000F50000F500000000000000
310
00000000000000000000F500000000000000000000000000000000000000000000000000000000000000000000000000000000000000000000000000000000000000000000000000000000F500F500000000000000000000000000000000000000000000000000000000000000000000000000000000000000000000000000
310
000000000000000000000000000000000000000000000000000000000000000000000000000000000000000000000000000000F500F5000000000000000000000000000000000000000000F50000000000000000000000000000000000000000F5000000000000000000000000000000000000000000F50000F50000000000
310
000000000000000000000000F500000000000000000000000000000000000000000000000000000000000000000000000000000000000000000000000000000000000000000000000000000000F500F50000000000000000000000000000000000000000000000000000000000000000000000000000000000000000000000
310
0000000000000000000000000000000000000000000000000000000000000000000000000000000000000000000000000000000000F500F5000000000000000000000000000000000000000000F50000000000000000000000000000000000000000F5000000000000000000000000000000000000000000F50000F5000000
310
0000000000000000000000000000F500000000000000000000000000000000000000000000000000000000000000000000000000000000000000000000000000000000000000000000000000000000F500F5000000000000000000000000000000000000000000000000000000000000000000000000000000000000000000
310
00000000000000000000000000000000000000000000000000000000000000000000000000000000000000000000000000000000000000F5F5F5F5F5F5F5F5F5F5F5F5F5F5F5F5F5F5F5F5F5F5F5F5F5F5F5F5F5F5F5F5F5F5F5F5F5F5F5F5F5F5F5F5F5F5F5F5F5F5F5F5F5F5F5F5F5F5F5F5F5F5F5F5F5F5F5F5F5F5F5F5
310
F5F5F5F5F5F5F5F5F5F5F5F5F5F5F5F5F5F5F5F5F5F5F5F5F5F5F5F5F5F5F5F5F5F5F5F5F5F5F5F5F5F5F5F5F5F5F5F5F5F5F5F5F5F5F5F5F5F5F5F5F5F5F5F5F5F5F5F5F5F5F5F5F5F5F5F5F5F5F5F5F5F500F500000000000000000000000000000000000000000000000000000000000000000000000000000000000000
310
000000000000000000000000000000000000000000000000000000000000000000000000000000000000000000000000000000000000000000F500F5000000000028002828282828282828280000000000F50000000000280028282828282828282800000000F5000000000028282828282828282828280000000000F50000
310
F50000000000000000000000000000000000F500000000000000000000000000000000000000000000000000000000000000000000000000000000000000000000000000000000000000000000000000000000F500F50000000000000000000000000000000000000000000000000000000000000000000000000000000000
310
0000000000000000000000000000000000000000000000000000000000000000000000000000000000000000000000000000000000000000000000F500F5000000000028282828282828282828282800000000F50000000028282828282828282828282800000000F5000000000028282828282828282828282800000000F5
310
0000F50000000000000000000000000000000000F500000000000000000000000000000000000000000000000000000000000000000000000000000000000000000000000000000000000000000000000000000000F500F5000000000000000000000000000000000000000000000000000000000000000000000000000000
310
00000000000000000000000000000000000000000000000000000000000000000000000000000000000000000000000000000000000000000000000000F5F5F5F5F5F5F5F5F5F5F5F5F5F5F5F5F5F5F5F5F5F5F5F5F5F5F5F5F5F5F5F5F5F5F5F5F5F5F5F5F5F5F5F5F5F5F5F5F5F5F5F5F5F5F5F5F5F5F5F5F5F5F5F5F5F5
310
F5F5F5F5F5F5F5F5F5F5F5F5F5F5F5F5F5F5F5F5F5F5F5F5F5F5F5F5F5F5F5F5F5F5F5F5F5F5F5F5F5F5F5F5F5F5F5F5F5F5F5F5F5F5F5F5F5F5F5F5F5F5F5F5F5F5F5F5F5F5F5F5F5F5F5F5F5F5F5F5F5F5F5F5F5F5F5F500F500000000000000000000000000000000000000000000000000000000000000000000000000
310
000000000000000000000000000000000000000000000000000000000000000000000000000000000000000000000000000000000000000000000000000000F500F5000000000000000000000000000000000000000000F50000000000000000000000000000000000000000F5000000000000000000000000000000000000
310
000000F50000F50000000000000000000000000000000000F500000000000000000000000000000000000000000000000000000000000000000000000000000000000000000000000000000000000000000000000000000000F500F50000000000000000000000000000000000000000000000000000000000000000000000
310
0000000000000000000000000000000000000000000000000000000000000000000000000000000000000000000000000000000000000000000000000000000000F500F5000000000000000000DCDCDC000000000000000000F50000000000000000000000000000000000000000F500000000000000000000000000000000
310
0000000000F50000F5000000000000DCDC000000000000000000F500000000000000000000000000000000000000000000000000000000000000000000000000000000000000000000000000000000000000000000000000000000F500F5000000000000000000000000000000000000000000000000000000000000000000
310
00000000000000000000000000000000000000000000000000000000000000000000000000000000000000000000000000000000000000000000000000000000000000F500F5000000000000000000DCDCDC000000000000000000F50000000000000000DCDCDCDC0000000000000000F50000000000000000000000000000
310
00000000000000F50000F5000000000000DCDCDCDC00000000000000F500000000000000000000000000000000000000000000000000000000000000000000000000000000000000000000000000000000000000000000000000000000F500F500000000000000000000000000000000000000000000000000000000000000
310
000000000000000000000000000000000000000000000000000000000000000000000000000000000000000000000000000000000000000000000000000000000000000000F500F50000000000000000002D2D2DDC0000000000000000F500000000000000002D2D2D2DDCDC000000000000F5000000000000000000000000
310
000000000000000000F50000F5000000000000BEBEDCDCDC000000000000F500000000000000000000000000000000000000000000000000000000000000000000000000000000000000000000000000000000000000000000000000000000F500F50000000000000000000000000000000000000000000000000000000000
310
0000000000000000000000000000000000000000000000000000000000000000000000000000000000000000000000000000000000000000000000000000000000000000000000F528F50000000000000000002D2D2DDCDC00000000000000F500000000000000002D2D2D2DDCDC000000000000F500000000000000000000
310
0000000000000000000000F52828F50000000000002D2DDCDCDC000000000000F500000000000000000000000000000000000000000000000000000000000000000000000000000000000000000000000000000000000000000000000000000000F500F5000000000000000000000000000000000000000000000000000000
310
00000000000000000000000000000000000000000000000000000000000000000000000000000000000000000000000000000000000000000000000000000000000000000000000000F528F50000000000000000002D002DDC0000000000000000F500000000000000002D00002D00DC000000000000F50000000000000000
310
00000000000000000000000000F52828F50000000000002D2D0000DC000000000000F500000000000000000000000000000000000000000000000000000000000000000000000000000000000000000000000000000000000000000000000000000000F500F500000000000000000000000000000000000000000000000000
310
000000000000000000000000000000000000000000000000000000000000000000000000000000000000000000000000000000000000000000000000000000000000000000000000000000F528F50000000000000000002D002DDC0000000000000000F500000000000000002D00002D00DC000000000000F5000000000000
310
000000000000000000000000000000F52828F50000000000002D2D0000DC000000000000F500000000000000000000000000000000000000000000000000000000000000000000000000000000000000000000000000000000000000000000000000000000F500F50000000000000000000000000000000000000000000000
310
0000000000000000000000000000000000000000000000000000000000000000000000000000000000000000000000000000000000000000000000000000000000000000000000000000000000F528F50000000000000000002D002DDC0000000000000000F500000000000000002D00002D00DC000000000000F500000000
310
0000000000000000000000000000000000F52828F50000000000002D2D0000DC000000000000F500000000000000000000000000000000000000000000000000000000000000000000000000000000000000000000000000000000000000000000000000000000F500F5000000000000000000000000000000000000000000
310
00000000000000000000000000000000000000000000000000000000000000000000000000000000000000000000000000000000000000000000000000000000000000000000000000000000000000F528F50000000000000000002D002DDC0000000000000000F500000000000000002D00002D00DC000000000000F50000
310
00000000000000000000000000000000000000F52828F50000000000002D2D0000DC000000000000F500000000000000000000000000000000000000000000000000000000000000000000000000000000000000000000000000000000000000000000000000000000F500F500000000000000000000000000000000000000
310
000000000000000000000000000000000000000000000000000000000000000000000000000000000000000000000000000000000000000000000000000000000000000000000000000000000000000000F528F50000000000000000002D002DDC0000000000000000F500000000000000002D00002DDCDC000000000000F5
310
000000000000000000000000000000000000000000F52828F50000000000002D2D00DCDC000000000000F500000000000000000000000000000000000000000000000000000000000000000000000000000000000000000000000000000000000000000000000000000000F500F50000000000000000000000000000000000
310
0000000000000000000000000000000000000000000000000000000000000000000000000000000000000000000000000000000000000000000000000000000000000000000000000000000000000000000000F528F50000000000000000002D002DDC0000000000000000F500000000000000002D00002DDCDC0000000000
310
00F5000000000000000000000000000000000000000000F52828F50000000000002D2D00DCDC000000000000F500000000000000000000000000000000000000000000000000000000000000000000000000000000000000000000000000000000000000000000000000000000F500F5000000000000000000000000000000
310
00000000000000000000000000000000000000000000000000000000000000000000000000000000000000000000000000000000000000000000000000000000000000000000000000000000000000000000000000F528F50000000000000000002D002DDC0000000000000000F500000000000000002D00002DDCDC000000
310
000000F5000000000000000000000000000000000000000000F52828F50000000000002D2D00DCDC000000000000F500000000000000000000000000000000000000000000000000000000000000000000000000000000000000000000000000000000000000000000000000000000F500F500000000000000000000000000
310
000000000000000000000000000000000000000000000000000000000000000000000000000000000000000000000000000000000000000000000000000000000000000000000000000000000000000000000000000000F528F50000000000000000002D002DDC0000000000000000F500000000000000002D00002D00DC00
310
0000000000F5000000000000000000000000000000000000000000F52828F50000000000002D2D0000DC000000000000F500000000000000000000000000000000000000000000000000000000000000000000000000000000000000000000000000000000000000000000000000000000F500F50000000000000000000000
310
0000000000000000000000000000000000000000000000000000000000000000000000000000000000000000000000000000000000000000000000000000000000000000000000000000000000000000000000000000000000F528F50000000000000000002D002DDC0000000000000000F500000000000000002D00002D00
310
DC000000000000F5000000000000000000000000000000000000000000F52828F50000000000002D2D0000DC000000000000F500000000000000000000000000000000000000000000000000000000000000000000000000000000000000000000000000000000000000000000000000000000F500F5000000000000000000
310
00000000000000000000000000000000000000000000000000000000000000000000000000000000000000000000000000000000000000000000000000000000000000000000000000000000000000000000000000000000000000F528F50000000000000000002D002DDC0000000000000000F500000000000000002D0000
310
2D00DC000000000000F5000000000000000000000000000000000000000000F52828F50000000000002D2D0000DC000000000000F500000000000000000000000000000000000000000000000000000000000000000000000000000000000000000000000000000000000000000000000000000000F500F500000000000000
310
000000000000000000000000000000000000000000000000000000000000000000000000000000000000000000000000000000000000000000000000000000000000000000000000000000000000000000000000000000000000000000F528F50000000000000000002D002DDCDC00000000000000F500000000000000002D
310
00002DDCDC000000000000F5000000000000000000000000000000000000000000F52828F50000000000002D2DDCDCDC000000000000F500000000000000000000000000000000000000000000000000000000000000000000000000000000000000000000000000000000000000000000000000000000F500F50000000000
310
0000000000000000000000000000000000000000000000000000000000000000000000000000000000000000000000000000000000000000000000000000000000000000000000000000000000000000000000000000000000000000000000F528F50000000000000000002D2D2DDC0000000000000000F500000000000000
310
002D2D2D2DDCDC000000000000F5000000000000000000000000000000000000000000F52828F50000000000002D2DDCDCDC000000000000F500000000000000000000000000000000000000000000000000000000000000000000000000000000000000000000000000000000000000000000000000000000F500F5000000
310
00000000000000000000000000000000000000000000000000000000000000000000000000000000000000000000000000000000000000000000000000000000000000000000000000000000000000000000000000000000000000000000000000F500F5000000000000000000000000000000000000000000F50000000000
310
000000000000000000000000000000F5000000000000000000000000000000000000000000F50000F5000000000000000000DC00000000000000F500000000000000000000000000000000000000000000000000000000000000000000000000000000000000000000000000000000000000000000000000000000F500F500
310
000000000000000000000000000000000000000000000000000000000000000000000000000000000000000000000000000000000000000000000000000000000000000000000000000000000000000000000000000000000000000000000000000000F500F50000000000000000F5F5F5F5F50000000000000000F5000000
310
0000000000F5F5F5F5F500000000000000F5000000000000000000000000000000000000000000F50000F50000000000000000000000000000000000F500000000000000000000000000000000000000000000000000000000000000000000000000000000000000000000000000000000000000000000000000000000F500
310
F500000000000000000000000000000000000000000000000000000000000000000000000000000000000000000000000000000000000000000000000000000000000000000000000000000000000000000000000000000000000000000000000000000000F500F5000000000000000000000000000000000000000000F500
310
00000000000000000000000000000000000000F5000000000000000000000000000000000000000000F50000F50000000000000000000000000000000000F500000000000000000000000000000000000000000000000000000000000000000000000000000000000000000000000000000000000000000000000000000000
310
F500F500000000000000000000000000000000000000000000000000000000000000000000000000000000000000000000000000000000000000000000000000000000000000000000000000000000000000000000000000000000000000000000000000000000F5F5F5F5F5F5F5F5F5F5F5F5F5F5F5F5F5F5F5F5F5F5F5F5
310
F5F5F5F5F5F5F5F5F5F5F5F5F5F5F5F5F5F5F5F5F5F5F5F5F5F5F5F5F5F5F5F5F5F5F5F5F5F5F5F5F5F5F5F5F5F5F5F5F5F5F5F5F5F5F5F5F5F5F5F5F5F5F5F5F5F5F5F5F5F5F5F5F5F5F5F5F5F5F5F5F5F5F5F5F5F5F5F5F5F5F5F5F5F5F5F5F5F5F5F5F5F5F5F5F5F5F5F5F5F5F5F5F5F5F5F5F5F5F5F5F5F5F5F5F5F5F5
310
F5F5F500F500000000000000000000000000000000000000000000000000000000000000000000000000000000000000000000000000000000000000000000000000000000000000000000000000000000000000000000000000000000000000000000000000000000F500F500000000000000000000000000000000000000
310
0000F50000000000000000000000000000000000000000F5000000000000000000000000000000000000000000F50000F50000000000000000000000000000000000F5000000000000000000000000000000000000000000000000000000000000000000000000000000000000000000000000000000000000000000000000
310
00000000F500F500000000000000000000000000000000000000000000000000000000000000000000000000000000000000000000000000000000000000000000000000000000000000000000000000000000000000000000000000000000000000000000000000000000F500F50000000000000000000000000000000000
310
00000000F50000000000000000000000000000000000000000F5000000000000000000000000000000000000000000F50000F50000000000000000000000000000000000F500000000000000000000000000000000000000000000000000000000000000000000000000000000000000000000000000000000000000000000
310
000000000000F500F500000000000000000000000000000000000000000000000000000000000000000000000000000000000000000000000000000000000000000000000000000000000000000000000000000000000000000000000000000000000000000000000000000000F500F5000000000000000000DCDCDC000000
310
000000000000F50000000000000000DCDCDCDC0000000000000000F5000000000000000000000000000000000000000000F50000F5000000000000DCDCDC0000000000000000F50000000000000000000000000000000000000000000000000000000000000000000000000000000000000000000000000000000000000000
310
0000000000000000F500F500000000000000000000000000000000000000000000000000000000000000000000000000000000000000000000000000000000000000000000000000000000000000000000000000000000000000000000000000000000000000000000000000000000F500F5000000000000000000DC00DC00
310
0000000000000000F50000000000000000DCDCDCDC0000000000000000F5000000000000000000000000000000000000000000F50000F5000000000000DCDC00DC00000000000000F5000000000000000000000000000000000000000000000000000000000000000000000000000000000000000000000000000000000000
310
00000000000000000000F500F500000000000000000000000000000000000000000000000000000000000000000000000000000000000000000000000000000000000000000000000000000000000000000000000000000000000000000000000000000000000000000000000000000000F528F50000000000000000002D2D
310
2DDCDC00000000000000F500000000000000002D2D2D2DDCDC000000000000F5000000000000000000000000000000000000000000F52828F5000000000000BEBEDCDCDC000000000000F500000000000000000000000000000000000000000000000000000000000000000000000000000000000000000000000000000000
310
000000000000000000000000F500F500000000000000000000000000000000000000000000000000000000000000000000000000000000000000000000000000000000000000000000000000000000000000000000000000000000000000000000000000000000000000000000000000000000F528F5000000000000000000
310
2D002DDC0000000000000000F500000000000000002D00002D00DC000000000000F5000000000000000000000000000000000000000000F52828F50000000000002D2D0000DC000000000000F50000000000000000000000000000000000000000000000000000000000000000000000000000000000000000000000000000
310
0000000000000000000000000000F500F500000000000000000000000000000000000000000000000000000000000000000000000000000000000000000000000000000000000000000000000000000000000000000000000000000000000000000000000000000000000000000000000000000000F528F500000000000000
310
00002D002DDC0000000000000000F500000000000000002D00002D00DC000000000000F5000000000000000000000000000000000000000000F52828F50000000000002D2D0000DC000000000000F5000000000000000000000000000000000000000000000000000000000000000000000000000000000000000000000000
310
00000000000000000000000000000000F500F500000000000000000000000000000000000000000000000000000000000000000000000000000000000000000000000000000000000000000000000000000000000000000000000000000000000000000000000000000000000000000000000000000000F528F50000000000
310
000000002D002DDC0000000000000000F500000000000000002D00002D00DC000000000000F5000000000000000000000000000000000000000000F52828F50000000000002D2D0000DC000000000000F500000000000000000000000000000000000000000000000000000000000000000000000000000000000000000000
310
000000000000000000000000000000000000F500F500000000000000000000000000000000000000000000000000000000000000000000000000000000000000000000000000000000000000000000000000000000000000000000000000000000000000000000000000000000000000000000000000000000F528F5000000
310
0000000000002D002DDC0000000000000000F500000000000000002D00002D00DC000000000000F5000000000000000000000000000000000000000000F52828F50000000000002D2D0000DC000000000000F50000000000000000000000000000000000000000000000000000000000000000000000000000000000000000
310
0000000000000000000000000000000000000000F500F500000000000000000000000000000000000000000000000000000000000000000000000000000000000000000000000000000000000000000000000000000000000000000000000000000000000000000000000000000000000000000000000000000000F528F500
310
00000000000000002D002DDC0000000000000000F500000000000000002D00002DDCDC000000000000F5000000000000000000000000000000000000000000F52828F50000000000002D2D00DCDC000000000000F5000000000000000000000000000000000000000000000000000000000000000000000000000000000000
310
00000000000000000000000000000000000000000000F500F500000000000000000000000000000000000000000000000000000000000000000000000000000000000000000000000000000000000000000000000000000000000000000000000000000000000000000000000000000000000000000000000000000000F528
310
F50000000000000000002D002DDC0000000000000000F500000000000000002D00002DDCDC000000000000F5000000000000000000000000000000000000000000F52828F50000000000002D2D00DCDC000000000000F500000000000000000000000000000000000000000000000000000000000000000000000000000000
310
000000000000000000000000000000000000000000000000F500F500000000000000000000000000000000000000000000000000000000000000000000000000000000000000000000000000000000000000000000000000000000000000000000000000000000000000000000000000000000000000000000000000000000
310
F528F50000000000000000002D002DDC0000000000000000F500000000000000002D00002D00DC000000000000F5000000000000000000000000000000000000000000F52828F50000000000002D2D0000DC000000000000F50000000000000000000000000000000000000000000000000000000000000000000000000000
310
0000000000000000000000000000000000000000000000000000F500F50000000000000000000000000000000000000000000000000000000000000000000000000000000000000000000000000000000000000000000000000000000000000000000000000000000000000000000000000000000000000000000000000000
310
0000F528F50000000000000000002D002DDC0000000000000000F500000000000000002D00002D00DC000000000000F5000000000000000000000000000000000000000000F52828F50000000000002D2D0000DC000000000000F5000000000000000000000000000000000000000000000000000000000000000000000000
310
00000000000000000000000000000000000000000000000000000000F500F5000000000000000000000000000000000000000000000000000000000000000000000000000000000000000000000000000000000000000000000000000000000000000000000000000000000000000000000000000000000000000000000000
310
00000000F528F50000000000000000002D002DDC0000000000000000F500000000000000002D00002D00DC000000000000F5000000000000000000000000000000000000000000F52828F50000000000002D2D0000DC000000000000F500000000000000000000000000000000000000000000000000000000000000000000
310
000000000000000000000000000000000000000000000000000000000000F500F500000000000000000000000000000000000000000000000000000000000000000000000000000000000000000000000000000000000000000000000000000000000000000000000000000000000000000000000000000000000000000000
310
000000000000F528F50000000000000000002D002DDC0000000000000000F500000000000000002D00002D00DC000000000000F5000000000000000000000000000000000000000000F52828F50000000000002D2DDC00DC000000000000F50000000000000000000000000000000000000000000000000000000000000000
310
0000000000000000000000000000000000000000000000000000000000000000F500F50000000000000000000000000000000000000000000000000000000000000000000000000000000000000000000000000000000000000000000000000000000000000000000000000000000000000000000000000000000000000000
310
0000000000000000F528F50000000000000000002D2D2DDCDC00000000000000F500000000000000002D2D2D2DDCDC000000000000F5000000000000000000000000000000000000000000F52828F50000000000002D2DDCDCDC000000000000F5000000000000000000000000000000000000000000000000000000000000
310
00000000000000000000000000000000000000000000000000000000000000000000F500F5000000000000000000000000000000000000000000000000000000000000000000000000000000000000000000000000000000000000000000000000000000000000000000000000000000000000000000000000000000000000
310
00000000000000000000F500F5000000000000000000000000000000000000000000F50000000000000000000000000000000000000000F5000000000000000000000000000000000000000000F50000F5000000000000000000DC00000000000000F500000000000000000000000000000000000000000000000000000000
310
000000000000000000000000000000000000000000000000000000000000000000000000F500F500000000000000000000000000000000000000000000000000000000000000000000000000000000000000000000000000000000000000000000000000000000000000000000000000000000000000000000000000000000
310
000000000000000000000000F500F5000000000000000000000000000000000000000000F50000000000000000000000000000000000000000F5000000000000000000000000000000000000000000F50000F50000000000000000000000000000000000F50000000000000000000000000000000000000000000000000000
310
0000000000000000000000000000000000000000000000000000000000000000000000000000F500F50000000000000000000000000000000000000000000000000000000000000000000000000000000000000000000000000000000000000000000000000000000000000000000000000000000000000000000000000000
310
0000000000000000000000000000F500F50000000000000000F5F5F5F5F50000000000000000F50000000000000000F5F5F5F5F500000000000000F5000000000000000000000000000000000000000000F50000F50000000000000000000000000000000000F5000000000000000000000000000000000000000000000000
310
00000000000000000000000000000000000000000000000000000000000000000000000000000000F500F5000000000000000000000000000000000000000000000000000000000000000000000000000000000000000000000000000000000000000000000000000000000000000000000000000000000000000000000000
310
00000000000000000000000000000000F500F5000000000000000000000000000000000000000000F50000000000000000000000000000000000000000F5000000000000000000000000000000000000000000F50000F50000000000000000000000000000000000F500000000000000000000000000000000000000000000
310
000000000000000000000000000000000000000000000000000000000000000000000000000000000000F500F500000000000000000000000000000000000000000000000000000000000000000000000000000000000000000000000000000000000000000000000000000000000000000000000000000000000000000000
310
000000000000000000000000000000000000F5F5F5F5F5F5F5F5F5F5F5F5F5F5F5F5F5F5F5F5F5F5F5F5F5F5F5F5F5F5F5F5F5F5F5F5F5F5F5F5F5F5F5F5F5F5F5F5F5F5F5F5F5F5F5F5F5F5F5F5F5F5F5F5F5F5F5F5F5F5F5F5F5F5F5F5F5F5F5F5F5F5F5F5F5F5F5F5F5F5F5F5F5F5F5F5F5F5F5F5F5F5F5F5F5F5F5F5F5
310
F5F5F5F5F5F5F5F5F5F5F5F5F5F5F5F5F5F5F5F5F5F5F5F5F5F5F5F5F5F5F5F5F5F5F5F5F5F5F5F5F5F5F5F5F500F50000000000000000000000000000000000000000000000000000000000000000000000000000000000000000000000000000000000000000000000000000000000000000000000000000000000000000
310
0000000000000000000000000000000000000000F500F5000000000000000000000000000000000000000000F50000000000000000000000000000000000000000F5000000000000000000000000000000000000000000F50000F50000000000000000000000000000000000F5000000000000000000000000000000000000
310
00000000000000000000000000000000000000000000000000000000000000000000000000000000000000000000F500F5000000000000000000000000000000000000000000000000000000000000000000000000000000000000000000000000000000000000000000000000000000000000000000000000000000000000
310
00000000000000000000000000000000000000000000F500F5000000000000000000000000000000000000000000F50000000000000000000000000000000000000000F5000000000000000000000000000000000000000000F50000F50000000000000000000000000000000000F500000000000000000000000000000000
310
000000000000000000000000000000000000000000000000000000000000000000000000000000000000000000000000F500F500000000000000000000000000000000000000000000000000000000000000000000000000000000000000000000000000000000000000000000000000000000000000000000000000000000
310
000000000000000000000000000000000000000000000000F500F5000000000000000000DCDCDC000000000000000000F50000000000000000000000000000000000000000F5000000000000000000000000000000000000000000F50000F5000000000000DCDCDC0000000000000000F50000000000000000000000000000
310
0000000000000000000000000000000000000000000000000000000000000000000000000000000000000000000000000000F500F50000000000000000000000000000000000000000000000000000000000000000000000000000000000000000000000000000000000000000000000000000000000000000000000000000
310
0000000000000000000000000000000000000000000000000000F500F5000000000000000000DCDCDC000000000000000000F50000000000000000DCDCDCDC0000000000000000F50000000000000000DCDCDCDCDC0000000000000000F50000F5000000000000DCDCDCDC00000000000000F5000000000000000000000000
310
00000000000000000000000000000000000000000000000000000000000000000000000000000000000000000000000000000000F500F5000000000000000000000000000000000000000000000000000000000000000000000000000000000000000000000000000000000000000000000000000000000000000000000000
310
00000000000000000000000000000000000000000000000000000000F528F50000000000000000002D2D2DDC0000000000000000F500000000000000002D2D2D2DDCDC000000000000F500000000000000002D2D2D2D2DDC00000000000000F52828F5000000000000BEBEDCDCDC000000000000F500000000000000000000
310
000000000000000000000000000000000000000000000000000000000000000000000000000000000000000000000000000000000000F500F500000000000000000000000000000000000000000000000000000000000000000000000000000000000000000000000000000000000000000000000000000000000000000000
310
000000000000000000000000000000000000000000000000000000000000F528F50000000000000000002D002DDCDC00000000000000F500000000000000002D00002DDCDC000000000000F500000000000000002D0000002DDCDC000000000000F52828F50000000000002D2DDCDCDC000000000000F50000000000000000
310
0000000000000000000000000000000000000000000000000000000000000000000000000000000000000000000000000000000000000000F500F50000000000000000000000000000000000000000000000000000000000000000000000000000000000000000000000000000000000000000000000000000000000000000
310
0000000000000000000000000000000000000000000000000000000000000000F528F50000000000000000002D002DDC0000000000000000F500000000000000002D00002D00DC000000000000F500000000000000002D0000002DDC00000000000000F52828F50000000000002D2D0000DC000000000000F5000000000000
310
00000000000000000000000000000000000000000000000000000000000000000000000000000000000000000000000000000000000000000000F500F5000000000000000000000000000000000000000000000000000000000000000000000000000000000000000000000000000000000000000000000000000000000000
310
00000000000000000000000000000000000000000000000000000000000000000000F528F50000000000000000002D002DDC0000000000000000F500000000000000002D00002D00DC000000000000F500000000000000002D0000002DDC00000000000000F52828F50000000000002D2D0000DC000000000000F500000000
310
000000000000000000000000000000000000000000000000000000000000000000000000000000000000000000000000000000000000000000000000F500F500000000000000000000000000000000000000000000000000000000000000000000000000000000000000000000000000000000000000000000000000000000
310
000000000000000000000000000000000000000000000000000000000000000000000000F528F50000000000000000002D002DDC0000000000000000F500000000000000002D00002DDCDC000000000000F500000000000000002D0000002DDC00000000000000F52828F50000000000002D2D00DCDC000000000000F50000
310
0000000000000000000000000000000000000000000000000000000000000000000000000000000000000000000000000000000000000000000000000000F500F50000000000000000000000000000000000000000000000000000000000000000000000000000000000000000000000000000000000000000000000000000
310
0000000000000000000000000000000000000000000000000000000000000000000000000000F528F50000000000000000002D002DDC0000000000000000F500000000000000002D00002DDCDC000000000000F500000000000000002D0000002DDC00000000000000F52828F50000000000002D2D00DCDC000000000000F5
310
00000000000000000000000000000000000000000000000000000000000000000000000000000000000000000000000000000000000000000000000000000000F500F5000000000000000000000000000000000000000000000000000000000000000000000000000000000000000000000000000000000000000000000000
310
00000000000000000000000000000000000000000000000000000000000000000000000000000000F528F50000000000000000002D002DDC0000000000000000F500000000000000002D00002DDCDC000000000000F500000000000000002D0000002DDC00000000000000F52828F50000000000002D2D00DCDC0000000000
310
00F500000000000000000000000000000000000000000000000000000000000000000000000000000000000000000000000000000000000000000000000000000000F500F500000000000000000000000000000000000000000000000000000000000000000000000000000000000000000000000000000000000000000000
310
000000000000000000000000000000000000000000000000000000000000000000000000000000000000F528F50000000000000000002D002DDC0000000000000000F500000000000000002D00002D00DC000000000000F500000000000000002D0000002DDC00000000000000F52828F50000000000002D2D0000DC000000
310
000000F500000000000000000000000000000000000000000000000000000000000000000000000000000000000000000000000000000000000000000000000000000000F500F50000000000000000000000000000000000000000000000000000000000000000000000000000000000000000000000000000000000000000
310
0000000000000000000000000000000000000000000000000000000000000000000000000000000000000000F528F50000000000000000002D002DDC0000000000000000F500000000000000002D00002D00DC000000000000F500000000000000002D0000002DDC00000000000000F52828F50000000000002D2D0000DC00
310
0000000000F500000000000000000000000000000000000000000000000000000000000000000000000000000000000000000000000000000000000000000000000000000000F500F5000000000000000000000000000000000000000000000000000000000000000000000000000000000000000000000000000000000000
310
00000000000000000000000000000000000000000000000000000000000000000000000000000000000000000000F528F50000000000000000002D002DDC0000000000000000F500000000000000002D00002D00DC000000000000F500000000000000002D0000002DDC00000000000000F52828F50000000000002D2D0000
310
DC000000000000F500000000000000000000000000000000000000000000000000000000000000000000000000000000000000000000000000000000000000000000000000000000F500F500000000000000000000000000000000000000000000000000000000000000000000000000000000000000000000000000000000
310
000000000000000000000000000000000000000000000000000000000000000000000000000000000000000000000000F528F50000000000000000002D2D2DDCDC00000000000000F500000000000000002D2D2D2DDCDC000000000000F500000000000000002D2D2D2D2DDCDC000000000000F52828F50000000000002D2D
310
DCDCDC000000000000F500000000000000000000000000000000000000000000000000000000000000000000000000000000000000000000000000000000000000000000000000000000F500F50000000000000000000000000000000000000000000000000000000000000000000000000000000000000000000000000000
310
0000000000000000000000000000000000000000000000000000000000000000000000000000000000000000000000000000F528F50000000000000000002D2D2DDC0000000000000000F500000000000000002D2D2D2DDCDC000000000000F500000000000000002D2D2D2D2DDC00000000000000F52828F5000000000000
310
2D2DDCDCDC000000000000F500000000000000000000000000000000000000000000000000000000000000000000000000000000000000000000000000000000000000000000000000000000F500F5000000000000000000000000000000000000000000000000000000000000000000000000000000000000000000000000
310
00000000000000000000000000000000000000000000000000000000000000000000000000000000000000000000000000000000F500F5000000000000000000000000000000000000000000F50000000000000000000000000000000000000000F5000000000000000000000000000000000000000000F50000F500000000
310
00000000000000000000000000F500000000000000000000000000000000000000000000000000000000000000000000000000000000000000000000000000000000000000000000000000000000F500F500000000000000000000000000000000000000000000000000000000000000000000000000000000000000000000
310
000000000000000000000000000000000000000000000000000000000000000000000000000000000000000000000000000000000000F500F5000000000000000000000000000000000000000000F50000000000000000000000000000000000000000F5000000000000000000000000000000000000000000F50000F50000
310
000000000000000000000000000000F500000000000000000000000000000000000000000000000000000000000000000000000000000000000000000000000000000000000000000000000000000000F500F50000000000000000000000000000000000000000000000000000000000000000000000000000000000000000
310
0000000000000000000000000000000000000000000000000000000000000000000000000000000000000000000000000000000000000000F500F50000000000000000F5F5F5F5F50000000000000000F50000000000000000F5F5F5F5F500000000000000F50000000000000000F5F5F5F5F50000000000000000F50000F5
310
0000000000000000000000000000000000F500000000000000000000000000000000000000000000000000000000000000000000000000000000000000000000000000000000000000000000000000000000F500F5000000000000000000000000000000000000000000000000000000000000000000000000000000000000
310
00000000000000000000000000000000000000000000000000000000000000000000000000000000000000000000000000000000000000000000F500F5000000000000000000000000000000000000000000F50000000000000000000000000000000000000000F5000000000000000000000000000000000000000000F500
310
00F50000000000000000000000000000000000F500000000000000000000000000000000000000000000000000000000000000000000000000000000000000000000000000000000000000000000000000000000F500F500000000000000000000000000000000000000000000000000000000000000000000000000000000
310
000000000000000000000000000000000000000000000000000000000000000000000000000000000000000000000000000000000000000000000000F5F5F5F5F5F5F5F5F5F5F5F5F5F5F5F5F5F5F5F5F5F5F5F5F5F5F5F5F5F5F5F5F5F5F5F5F5F5F5F5F5F5F5F5F5F5F5F5F5F5F5F5F5F5F5F5F5F5F5F5F5F5F5F5F5F5F5
310
F5F5F5F5F5F5F5F5F5F5F5F5F5F5F5F5F5F5F5F5F5F5F5F5F5F5F5F5F5F5F5F5F5F5F5F5F5F5F5F5F5F5F5F5F5F5F5F5F5F5F5F5F5F5F5F5F5F5F5F5F5F5F5F5F5F5F5F5F5F5F5F5F5F5F5F5F5F5F5F5F5F5F5F5F5F5F500F50000000000000000000000000000000000000000000000000000000000000000000000000000
310
0000000000000000000000000000000000000000000000000000000000000000000000000000000000000000000000000000000000000000000000000000F500F5000000000028282828282828282828282800000000F50000000000282828282828282828282800000000F500000000002828282828282828282828280000
310
0000F50000F50000000000282828282828000000000000F500000000000000000000000000000000000000000000000000000000000000000000000000000000000000000000000000000000000000000000000000000000F500F5000000000000000000000000000000000000000000000000000000000000000000000000
310
00000000000000000000000000000000000000000000000000000000000000000000000000000000000000000000000000000000000000000000000000000000F500F5000000000028282828282800282828280000000000F50000000028280028282828002828282800000000F50000000000282828282828000028282800
310
00000000F50000F50000000000002828282828000000000000F500000000000000000000000000000000000000000000000000000000000000000000000000000000000000000000000000000000000000000000000000000000F500F500000000000000000000000000000000000000000000000000000000000000000000
310
000000000000000000000000000000000000000000000000000000000000000000000000000000000000000000000000000000000000000000000000000000000000F5F5F5F5F5F5F5F5F5F5F5F5F5F5F5F5F5F5F5F5F5F5F5F5F5F5F5F5F5F5F5F5F5F5F5F5F5F5F5F5F5F5F5F5F5F5F5F5F5F5F5F5F5F5F5F5F5F5F5F5F5
310
F5F5F5F5F5F5F5F5F5F5F5F5F5F5F5F5F5F5F5F5F5F5F5F5F5F5F5F5F5F5F5F5F5F5F5F5F5F5F5F5F5F5F5F5F5F5F5F5F5F5F5F5F5F5F5F5F5F5F5F5F5F5F5F5F5F5F5F5F5F5F5F5F5F5F5F5F5F5F5F5F5F5F5F5F5F5F5F5F5F5F5F5F500F50000000000000000000000000000000000000000000000000000000000000000
310
0000000000000000000000000000000000000000000000000000000000000000000000000000000000000000000000000000000000000000000000000000000000000000F5F5F5F5F5F5F5F5F5F5F5F5F5F500F5F5F5F5F5F5F5F5F5F5F5F5F5F5F5F5F5F5F5F5F5F5F5F5F5F5F5F5F5F5F500F5F5F5F5F5F5F5F5F5F50000
310
0000000000000000000000000000000000000000000000000000000000000000000000000000F5F5F5F5F5F5F5F5F5F5F5F5F5F5F5F5F5F5F5F5F5F5F5F5F5F5F5F5F5F5F500F5F5F5F5F5F5F5F5F5F5F5F5F5F5F5F5F5F5F5F5F5F5F5F50000F5000000000000000000000000000000000000000000000000000000000000
310
00000000000000000000000000000000000000000000000000000000000000000000000000000000000000000000000000000000000000000000000000000000000000000000F5F5F5F5F5F5F5F5F5F5F5F5F5F5F5F5F5F5F5F5F5F5F5F5F5F5F5F5F5F5F5F5F5F5F5F5F5F5F5F5F5F5F5F5F5F5F5F5F5F5F5F5F5F5F5F5F5
310
F5F5F5F5F5F5F5F5F5F5F5F5F5F5F5F5F5F5F5F5F5F5F5F5F5F5F5F5F5F5F5F5F5F5F5F5F5F5F5F5F5F5F5F5F5F5F5F5F5F5F5F5F5F5F5F5F5F5F5F5F5F5F5F5F5F5F5F5F5F5F5F5F5F5F5F5F5F5F5F5F5F5F5F5F5F5F5F5F5F5F5F5F5F5F5F5F5F5F500000000000000000000000000000000000000000000000000000000
310
00000000000000000000000000000000000000000000000000000000000000000000000000000000000000000000000000000000000000000000000000000000000000000000000000000000000000000000000000000000000000000000000000000000000000000000000000000000000000000000000000000000000000
310
00000000000000000000000000000000000000000000000000000000000000000000000000000000000000000000000000000000000000000000000000000000000000000000000000000000000000000000000000000000000000000000000000000000000000000000000000000000000000000000000000000000000000
310
000000000000000000000000000000000000000000000000
  0
XRECORD
  5
1F2F5
102
{ACAD_REACTORS
330
1F2F4
102
}
330
1F2F4
100
AcDbXrecord
280
     1
102
MATERIAL
148
0.0
149
0.0
149
0.0
 93
        0
 94
      127
282
     0
 72
     0
 77
     0
171
     0
175
     0
179
     0
273
     0
  0
XRECORD
  5
1F2F3
102
{ACAD_REACTORS
330
1F2F2
102
}
330
1F2F2
100
AcDbXrecord
280
     1
102
MATERIAL
148
0.0
149
0.0
149
0.0
 93
        0
 94
      127
282
     0
 72
     0
 77
     0
171
     0
175
     0
179
     0
273
     0
  0
XRECORD
  5
1F2F7
102
{ACAD_REACTORS
330
1F2F6
102
}
330
1F2F6
100
AcDbXrecord
280
     1
102
MATERIAL
148
0.0
149
0.0
149
0.0
 93
        0
 94
      127
282
     0
 72
     0
 77
     0
171
     0
175
     0
179
     0
273
     0
  0
XRECORD
  5
1F32A
102
{ACAD_REACTORS
330
1F329
102
}
330
1F329
100
AcDbXrecord
280
     1
102
ACAD_ROUNDTRIP_2012_MLEADER_STYLE
298
     1
  0
XRECORD
  5
1F32C
102
{ACAD_REACTORS
330
1F32B
102
}
330
1F32B
100
AcDbXrecord
280
     1
102
DISPLAYNAME
  1
Imperial24
102
FLAGS
 90
        0
  0
XRECORD
  5
1F330
102
{ACAD_REACTORS
330
1F32F
102
}
330
1F32F
100
AcDbXrecord
280
     1
102
DISPLAYNAME
  1
Metric50
102
FLAGS
 90
        0
  0
CELLSTYLEMAP
  5
1F2F0
102
{ACAD_REACTORS
330
7C49
102
}
330
7C49
100
AcDbCellStyleMap
 90
        3
300
CELLSTYLE
  1
TABLEFORMAT_BEGIN
 90
        5
170
     1
 91
        0
 92
    32768
 62
   257
 93
        1
300
CONTENTFORMAT
  1
CONTENTFORMAT_BEGIN
 90
        0
 91
        0
 92
      512
 93
        0
300

 40
0.0
140
1.0
 94
        5
 62
     0
340
30E1
144
0.25
309
CONTENTFORMAT_END
171
     0
 94
        0
309
TABLEFORMAT_END
  1
CELLSTYLE_BEGIN
 90
        1
 91
        1
300
_TITLE
309
CELLSTYLE_END
300
CELLSTYLE
  1
TABLEFORMAT_BEGIN
 90
        5
170
     1
 91
        0
 92
        0
 62
   257
 93
        1
300
CONTENTFORMAT
  1
CONTENTFORMAT_BEGIN
 90
        0
 91
        0
 92
      512
 93
        0
300

 40
0.0
140
1.0
 94
        5
 62
     0
340
30E1
144
0.18
309
CONTENTFORMAT_END
171
     0
 94
        0
309
TABLEFORMAT_END
  1
CELLSTYLE_BEGIN
 90
        2
 91
        1
300
_HEADER
309
CELLSTYLE_END
300
CELLSTYLE
  1
TABLEFORMAT_BEGIN
 90
        5
170
     1
 91
        0
 92
        0
 62
   257
 93
        1
300
CONTENTFORMAT
  1
CONTENTFORMAT_BEGIN
 90
        0
 91
        0
 92
      512
 93
        0
300

 40
0.0
140
1.0
 94
        2
 62
     0
340
30E1
144
0.18
309
CONTENTFORMAT_END
171
     0
 94
        0
309
TABLEFORMAT_END
  1
CELLSTYLE_BEGIN
 90
        3
 91
        2
300
_DATA
309
CELLSTYLE_END
  0
XRECORD
  5
1F328
102
{ACAD_REACTORS
330
7C49
102
}
330
7C49
100
AcDbXrecord
280
     1
102
ACAD_ROUNDTRIP_PRE2007_TABLESTYLE
 90
      512
 91
        0
  1

 92
      512
 93
        0
  2

 94
      512
 95
        0
  3

  0
XRECORD
  5
1F303
102
{ACAD_REACTORS
330
1F302
102
}
330
1F302
100
AcDbXrecord
280
     1
102
RTVSPost2010Prop28
280
     1
102
RTVSPost2010PropOp28
 70
     1
102
RTVSPost2010Prop29
280
     1
102
RTVSPost2010PropOp29
 70
     1
102
RTVSPost2010Prop30
280
     0
102
RTVSPost2010PropOp30
 70
     1
102
RTVSPost2010Prop31
280
     0
102
RTVSPost2010PropOp31
 70
     1
102
RTVSPost2010Prop32
280
     0
102
RTVSPost2010PropOp32
 70
     1
102
RTVSPost2010Prop33
280
     0
102
RTVSPost2010PropOp33
 70
     1
102
RTVSPost2010Prop34
280
     0
102
RTVSPost2010PropOp34
 70
     1
102
RTVSPost2010Prop35
280
     0
102
RTVSPost2010PropOp35
 70
     1
102
RTVSPost2010Prop36
280
     0
102
RTVSPost2010PropOp36
 70
     1
102
RTVSPost2010Prop37
 90
       50
102
RTVSPost2010PropOp37
 70
     1
102
RTVSPost2010Prop38
140
0.0
102
RTVSPost2010PropOp38
 70
     1
102
RTVSPost2010Prop39
140
1.0
102
RTVSPost2010PropOp39
 70
     1
102
RTVSPost2010Prop40
 90
        0
102
RTVSPost2010PropOp40
 70
     1
102
RTVSPost2010Prop41ColorIndex
 90
       18
102
RTVSPost2010Prop41ColorRGB
 90
        0
102
RTVSPost2010PropOp41
 70
     1
102
RTVSPost2010Prop42
 90
       50
102
RTVSPost2010PropOp42
 70
     1
102
RTVSPost2010Prop43
 90
        3
102
RTVSPost2010PropOp43
 70
     1
102
RTVSPost2010Prop44ColorIndex
 90
        5
102
RTVSPost2010Prop44ColorRGB
 90
      255
102
RTVSPost2010PropOp44
 70
     1
102
RTVSPost2010Prop45
280
     0
102
RTVSPost2010PropOp45
 70
     1
102
RTVSPost2010Prop46
 90
       50
102
RTVSPost2010PropOp46
 70
     1
102
RTVSPost2010Prop47
 90
       50
102
RTVSPost2010PropOp47
 70
     1
102
RTVSPost2010Prop48
 90
       50
102
RTVSPost2010PropOp48
 70
     1
102
RTVSPost2010Prop49
280
     0
102
RTVSPost2010PropOp49
 70
     1
102
RTVSPost2010Prop50
 90
       50
102
RTVSPost2010PropOp50
 70
     1
102
RTVSPost2010Prop51ColorIndex
 90
      256
102
RTVSPost2010Prop51ColorRGB
 90
-16777216
102
RTVSPost2010PropOp51
 70
     0
102
RTVSPost2010Prop52
140
1.0
102
RTVSPost2010PropOp52
 70
     0
102
RTVSPost2010Prop53
 90
        2
102
RTVSPost2010PropOp53
 70
     1
102
RTVSPost2010Prop54
  1
strokes_ogs.tif
102
RTVSPost2010PropOp54
 70
     1
102
RTVSPost2010Prop55
280
     0
102
RTVSPost2010PropOp55
 70
     1
102
RTVSPost2010Prop56
140
1.0
102
RTVSPost2010PropOp56
 70
     1
102
RTVSPost2010Prop57
140
1.0
102
RTVSPost2010PropOp57
 70
     1
102
RTVSPropertyOp0
 70
     1
102
RTVSPropertyOp1
 70
     1
102
RTVSPropertyOp2
 70
     1
102
RTVSPropertyOp3
 70
     1
102
RTVSPropertyOp4
 70
     1
102
RTVSPropertyOp5
 70
     1
102
RTVSPropertyOp6
 70
     1
102
RTVSPropertyOp7
 70
     1
102
RTVSPropertyOp8
 70
     1
102
RTVSPropertyOp9
 70
     1
102
RTVSPropertyOp10
 70
     1
102
RTVSPropertyOp11
 70
     1
102
RTVSPropertyOp12
 70
     1
102
RTVSPropertyOp13
 70
     1
102
RTVSPropertyOp14
 70
     1
102
RTVSPropertyOp15
 70
     1
102
RTVSPropertyOp16
 70
     1
102
RTVSPropertyOp17
 70
     1
102
RTVSPropertyOp18
 70
     1
102
RTVSPropertyOp19
 70
     1
102
RTVSPropertyOp20
 70
     1
102
RTVSPropertyOp21
 70
     1
102
RTVSPropertyOp22
 70
     1
102
RTVSPropertyOp23
 70
     1
102
RTVSPropertyOp24
 70
     1
102
RTVSPropertyOp25
 70
     1
102
RTVSPropertyOp26
 70
     1
102
RTVSPropertyOp27
 70
     1
102
RTVSPropertyOp28
 70
     1
102
RTVSPropertyOp29
 70
     1
102
RTVSPropertyOp30
 70
     1
102
RTVSPropertyOp31
 70
     1
102
RTVSPropertyOp32
 70
     1
102
RTVSPropertyOp33
 70
     1
102
RTVSPropertyOp34
 70
     1
102
RTVSPropertyOp35
 70
     1
102
RTVSPropertyOp36
 70
     1
102
RTVSPropertyOp37
 70
     1
102
RTVSPropertyOp38
 70
     1
102
RTVSPropertyOp39
 70
     1
102
RTVSPropertyOp40
 70
     1
102
RTVSPropertyOp41
 70
     1
102
RTVSPropertyOp42
 70
     1
102
RTVSPropertyOp43
 70
     1
102
RTVSPropertyOp44
 70
     1
102
RTVSPropertyOp45
 70
     1
102
RTVSPropertyOp46
 70
     1
102
RTVSPropertyOp47
 70
     1
102
RTVSPropertyOp48
 70
     1
102
RTVSPropertyOp49
 70
     1
102
RTVSPropertyOp50
 70
     1
102
RTVSPropertyOp51
 70
     0
102
RTVSPropertyOp52
 70
     0
102
RTVSPropertyOp53
 70
     1
102
RTVSPropertyOp54
 70
     1
102
RTVSPropertyOp55
 70
     1
102
RTVSPropertyOp56
 70
     1
102
RTVSPropertyOp57
 70
     1
102
RTVSPropertyOp58
 70
     1
102
RTVSPropertyOp59
 70
     1
102
RTVSPropertyOp60
 70
     1
102
RTVSPropertyOp61
 70
     1
102
RTVSPropertyOp62
 70
     1
  0
XRECORD
  5
1F301
102
{ACAD_REACTORS
330
1F300
102
}
330
1F300
100
AcDbXrecord
280
     1
102
RTVSPost2010Prop28
280
     0
102
RTVSPost2010PropOp28
 70
     1
102
RTVSPost2010Prop29
280
     1
102
RTVSPost2010PropOp29
 70
     1
102
RTVSPost2010Prop30
280
     1
102
RTVSPost2010PropOp30
 70
     1
102
RTVSPost2010Prop31
280
     0
102
RTVSPost2010PropOp31
 70
     1
102
RTVSPost2010Prop32
280
     0
102
RTVSPost2010PropOp32
 70
     1
102
RTVSPost2010Prop33
280
     0
102
RTVSPost2010PropOp33
 70
     1
102
RTVSPost2010Prop34
280
     0
102
RTVSPost2010PropOp34
 70
     1
102
RTVSPost2010Prop35
280
     0
102
RTVSPost2010PropOp35
 70
     1
102
RTVSPost2010Prop36
280
     0
102
RTVSPost2010PropOp36
 70
     1
102
RTVSPost2010Prop37
 90
       50
102
RTVSPost2010PropOp37
 70
     1
102
RTVSPost2010Prop38
140
0.0
102
RTVSPost2010PropOp38
 70
     1
102
RTVSPost2010Prop39
140
1.0
102
RTVSPost2010PropOp39
 70
     1
102
RTVSPost2010Prop40
 90
        0
102
RTVSPost2010PropOp40
 70
     1
102
RTVSPost2010Prop41ColorIndex
 90
       18
102
RTVSPost2010Prop41ColorRGB
 90
        0
102
RTVSPost2010PropOp41
 70
     1
102
RTVSPost2010Prop42
 90
       50
102
RTVSPost2010PropOp42
 70
     1
102
RTVSPost2010Prop43
 90
        3
102
RTVSPost2010PropOp43
 70
     1
102
RTVSPost2010Prop44ColorIndex
 90
        5
102
RTVSPost2010Prop44ColorRGB
 90
      255
102
RTVSPost2010PropOp44
 70
     1
102
RTVSPost2010Prop45
280
     0
102
RTVSPost2010PropOp45
 70
     1
102
RTVSPost2010Prop46
 90
       50
102
RTVSPost2010PropOp46
 70
     1
102
RTVSPost2010Prop47
 90
       50
102
RTVSPost2010PropOp47
 70
     1
102
RTVSPost2010Prop48
 90
       50
102
RTVSPost2010PropOp48
 70
     1
102
RTVSPost2010Prop49
280
     0
102
RTVSPost2010PropOp49
 70
     1
102
RTVSPost2010Prop50
 90
       50
102
RTVSPost2010PropOp50
 70
     1
102
RTVSPost2010Prop51ColorIndex
 90
      256
102
RTVSPost2010Prop51ColorRGB
 90
-16777216
102
RTVSPost2010PropOp51
 70
     0
102
RTVSPost2010Prop52
140
1.0
102
RTVSPost2010PropOp52
 70
     0
102
RTVSPost2010Prop53
 90
        2
102
RTVSPost2010PropOp53
 70
     1
102
RTVSPost2010Prop54
  1
strokes_ogs.tif
102
RTVSPost2010PropOp54
 70
     1
102
RTVSPost2010Prop55
280
     0
102
RTVSPost2010PropOp55
 70
     1
102
RTVSPost2010Prop56
140
1.0
102
RTVSPost2010PropOp56
 70
     1
102
RTVSPost2010Prop57
140
1.0
102
RTVSPost2010PropOp57
 70
     1
102
RTVSPropertyOp0
 70
     1
102
RTVSPropertyOp1
 70
     1
102
RTVSPropertyOp2
 70
     1
102
RTVSPropertyOp3
 70
     1
102
RTVSPropertyOp4
 70
     1
102
RTVSPropertyOp5
 70
     1
102
RTVSPropertyOp6
 70
     1
102
RTVSPropertyOp7
 70
     1
102
RTVSPropertyOp8
 70
     1
102
RTVSPropertyOp9
 70
     1
102
RTVSPropertyOp10
 70
     1
102
RTVSPropertyOp11
 70
     1
102
RTVSPropertyOp12
 70
     1
102
RTVSPropertyOp13
 70
     1
102
RTVSPropertyOp14
 70
     1
102
RTVSPropertyOp15
 70
     1
102
RTVSPropertyOp16
 70
     1
102
RTVSPropertyOp17
 70
     1
102
RTVSPropertyOp18
 70
     1
102
RTVSPropertyOp19
 70
     1
102
RTVSPropertyOp20
 70
     1
102
RTVSPropertyOp21
 70
     1
102
RTVSPropertyOp22
 70
     1
102
RTVSPropertyOp23
 70
     1
102
RTVSPropertyOp24
 70
     1
102
RTVSPropertyOp25
 70
     1
102
RTVSPropertyOp26
 70
     1
102
RTVSPropertyOp27
 70
     1
102
RTVSPropertyOp28
 70
     1
102
RTVSPropertyOp29
 70
     1
102
RTVSPropertyOp30
 70
     1
102
RTVSPropertyOp31
 70
     1
102
RTVSPropertyOp32
 70
     1
102
RTVSPropertyOp33
 70
     1
102
RTVSPropertyOp34
 70
     1
102
RTVSPropertyOp35
 70
     1
102
RTVSPropertyOp36
 70
     1
102
RTVSPropertyOp37
 70
     1
102
RTVSPropertyOp38
 70
     1
102
RTVSPropertyOp39
 70
     1
102
RTVSPropertyOp40
 70
     1
102
RTVSPropertyOp41
 70
     1
102
RTVSPropertyOp42
 70
     1
102
RTVSPropertyOp43
 70
     1
102
RTVSPropertyOp44
 70
     1
102
RTVSPropertyOp45
 70
     1
102
RTVSPropertyOp46
 70
     1
102
RTVSPropertyOp47
 70
     1
102
RTVSPropertyOp48
 70
     1
102
RTVSPropertyOp49
 70
     1
102
RTVSPropertyOp50
 70
     1
102
RTVSPropertyOp51
 70
     0
102
RTVSPropertyOp52
 70
     0
102
RTVSPropertyOp53
 70
     1
102
RTVSPropertyOp54
 70
     1
102
RTVSPropertyOp55
 70
     1
102
RTVSPropertyOp56
 70
     1
102
RTVSPropertyOp57
 70
     1
102
RTVSPropertyOp58
 70
     1
102
RTVSPropertyOp59
 70
     1
102
RTVSPropertyOp60
 70
     1
102
RTVSPropertyOp61
 70
     1
102
RTVSPropertyOp62
 70
     1
  0
XRECORD
  5
1F30F
102
{ACAD_REACTORS
330
1F30E
102
}
330
1F30E
100
AcDbXrecord
280
     1
102
RTVSPost2010Prop28
280
     0
102
RTVSPost2010PropOp28
 70
     1
102
RTVSPost2010Prop29
280
     1
102
RTVSPost2010PropOp29
 70
     1
102
RTVSPost2010Prop30
280
     1
102
RTVSPost2010PropOp30
 70
     1
102
RTVSPost2010Prop31
280
     0
102
RTVSPost2010PropOp31
 70
     1
102
RTVSPost2010Prop32
280
     0
102
RTVSPost2010PropOp32
 70
     1
102
RTVSPost2010Prop33
280
     0
102
RTVSPost2010PropOp33
 70
     1
102
RTVSPost2010Prop34
280
     0
102
RTVSPost2010PropOp34
 70
     1
102
RTVSPost2010Prop35
280
     0
102
RTVSPost2010PropOp35
 70
     1
102
RTVSPost2010Prop36
280
     0
102
RTVSPost2010PropOp36
 70
     1
102
RTVSPost2010Prop37
 90
       50
102
RTVSPost2010PropOp37
 70
     1
102
RTVSPost2010Prop38
140
0.0
102
RTVSPost2010PropOp38
 70
     1
102
RTVSPost2010Prop39
140
1.0
102
RTVSPost2010PropOp39
 70
     1
102
RTVSPost2010Prop40
 90
        0
102
RTVSPost2010PropOp40
 70
     1
102
RTVSPost2010Prop41ColorIndex
 90
       18
102
RTVSPost2010Prop41ColorRGB
 90
        0
102
RTVSPost2010PropOp41
 70
     1
102
RTVSPost2010Prop42
 90
       50
102
RTVSPost2010PropOp42
 70
     1
102
RTVSPost2010Prop43
 90
        3
102
RTVSPost2010PropOp43
 70
     1
102
RTVSPost2010Prop44ColorIndex
 90
        5
102
RTVSPost2010Prop44ColorRGB
 90
      255
102
RTVSPost2010PropOp44
 70
     1
102
RTVSPost2010Prop45
280
     0
102
RTVSPost2010PropOp45
 70
     1
102
RTVSPost2010Prop46
 90
       50
102
RTVSPost2010PropOp46
 70
     1
102
RTVSPost2010Prop47
 90
       50
102
RTVSPost2010PropOp47
 70
     1
102
RTVSPost2010Prop48
 90
       50
102
RTVSPost2010PropOp48
 70
     1
102
RTVSPost2010Prop49
280
     0
102
RTVSPost2010PropOp49
 70
     1
102
RTVSPost2010Prop50
 90
       50
102
RTVSPost2010PropOp50
 70
     1
102
RTVSPost2010Prop51ColorIndex
 90
      256
102
RTVSPost2010Prop51ColorRGB
 90
-16777216
102
RTVSPost2010PropOp51
 70
     0
102
RTVSPost2010Prop52
140
1.0
102
RTVSPost2010PropOp52
 70
     0
102
RTVSPost2010Prop53
 90
        2
102
RTVSPost2010PropOp53
 70
     1
102
RTVSPost2010Prop54
  1
strokes_ogs.tif
102
RTVSPost2010PropOp54
 70
     1
102
RTVSPost2010Prop55
280
     0
102
RTVSPost2010PropOp55
 70
     1
102
RTVSPost2010Prop56
140
1.0
102
RTVSPost2010PropOp56
 70
     1
102
RTVSPost2010Prop57
140
1.0
102
RTVSPost2010PropOp57
 70
     1
102
RTVSPropertyOp0
 70
     1
102
RTVSPropertyOp1
 70
     1
102
RTVSPropertyOp2
 70
     1
102
RTVSPropertyOp3
 70
     1
102
RTVSPropertyOp4
 70
     1
102
RTVSPropertyOp5
 70
     1
102
RTVSPropertyOp6
 70
     1
102
RTVSPropertyOp7
 70
     1
102
RTVSPropertyOp8
 70
     1
102
RTVSPropertyOp9
 70
     1
102
RTVSPropertyOp10
 70
     1
102
RTVSPropertyOp11
 70
     1
102
RTVSPropertyOp12
 70
     1
102
RTVSPropertyOp13
 70
     1
102
RTVSPropertyOp14
 70
     1
102
RTVSPropertyOp15
 70
     1
102
RTVSPropertyOp16
 70
     1
102
RTVSPropertyOp17
 70
     1
102
RTVSPropertyOp18
 70
     1
102
RTVSPropertyOp19
 70
     1
102
RTVSPropertyOp20
 70
     1
102
RTVSPropertyOp21
 70
     1
102
RTVSPropertyOp22
 70
     1
102
RTVSPropertyOp23
 70
     1
102
RTVSPropertyOp24
 70
     1
102
RTVSPropertyOp25
 70
     1
102
RTVSPropertyOp26
 70
     1
102
RTVSPropertyOp27
 70
     1
102
RTVSPropertyOp28
 70
     1
102
RTVSPropertyOp29
 70
     1
102
RTVSPropertyOp30
 70
     1
102
RTVSPropertyOp31
 70
     1
102
RTVSPropertyOp32
 70
     1
102
RTVSPropertyOp33
 70
     1
102
RTVSPropertyOp34
 70
     1
102
RTVSPropertyOp35
 70
     1
102
RTVSPropertyOp36
 70
     1
102
RTVSPropertyOp37
 70
     1
102
RTVSPropertyOp38
 70
     1
102
RTVSPropertyOp39
 70
     1
102
RTVSPropertyOp40
 70
     1
102
RTVSPropertyOp41
 70
     1
102
RTVSPropertyOp42
 70
     1
102
RTVSPropertyOp43
 70
     1
102
RTVSPropertyOp44
 70
     1
102
RTVSPropertyOp45
 70
     1
102
RTVSPropertyOp46
 70
     1
102
RTVSPropertyOp47
 70
     1
102
RTVSPropertyOp48
 70
     1
102
RTVSPropertyOp49
 70
     1
102
RTVSPropertyOp50
 70
     1
102
RTVSPropertyOp51
 70
     0
102
RTVSPropertyOp52
 70
     0
102
RTVSPropertyOp53
 70
     1
102
RTVSPropertyOp54
 70
     1
102
RTVSPropertyOp55
 70
     1
102
RTVSPropertyOp56
 70
     1
102
RTVSPropertyOp57
 70
     1
102
RTVSPropertyOp58
 70
     1
102
RTVSPropertyOp59
 70
     1
102
RTVSPropertyOp60
 70
     1
102
RTVSPropertyOp61
 70
     1
102
RTVSPropertyOp62
 70
     1
  0
XRECORD
  5
1F317
102
{ACAD_REACTORS
330
1F316
102
}
330
1F316
100
AcDbXrecord
280
     1
102
RTVSPost2010Prop28
280
     0
102
RTVSPost2010PropOp28
 70
     1
102
RTVSPost2010Prop29
280
     1
102
RTVSPost2010PropOp29
 70
     1
102
RTVSPost2010Prop30
280
     1
102
RTVSPost2010PropOp30
 70
     1
102
RTVSPost2010Prop31
280
     0
102
RTVSPost2010PropOp31
 70
     1
102
RTVSPost2010Prop32
280
     0
102
RTVSPost2010PropOp32
 70
     1
102
RTVSPost2010Prop33
280
     0
102
RTVSPost2010PropOp33
 70
     1
102
RTVSPost2010Prop34
280
     0
102
RTVSPost2010PropOp34
 70
     1
102
RTVSPost2010Prop35
280
     0
102
RTVSPost2010PropOp35
 70
     1
102
RTVSPost2010Prop36
280
     0
102
RTVSPost2010PropOp36
 70
     1
102
RTVSPost2010Prop37
 90
       50
102
RTVSPost2010PropOp37
 70
     1
102
RTVSPost2010Prop38
140
0.0
102
RTVSPost2010PropOp38
 70
     1
102
RTVSPost2010Prop39
140
1.0
102
RTVSPost2010PropOp39
 70
     1
102
RTVSPost2010Prop40
 90
        0
102
RTVSPost2010PropOp40
 70
     1
102
RTVSPost2010Prop41ColorIndex
 90
       18
102
RTVSPost2010Prop41ColorRGB
 90
        0
102
RTVSPost2010PropOp41
 70
     1
102
RTVSPost2010Prop42
 90
       50
102
RTVSPost2010PropOp42
 70
     1
102
RTVSPost2010Prop43
 90
        3
102
RTVSPost2010PropOp43
 70
     1
102
RTVSPost2010Prop44ColorIndex
 90
        5
102
RTVSPost2010Prop44ColorRGB
 90
      255
102
RTVSPost2010PropOp44
 70
     1
102
RTVSPost2010Prop45
280
     0
102
RTVSPost2010PropOp45
 70
     1
102
RTVSPost2010Prop46
 90
       50
102
RTVSPost2010PropOp46
 70
     1
102
RTVSPost2010Prop47
 90
       50
102
RTVSPost2010PropOp47
 70
     1
102
RTVSPost2010Prop48
 90
       50
102
RTVSPost2010PropOp48
 70
     1
102
RTVSPost2010Prop49
280
     0
102
RTVSPost2010PropOp49
 70
     1
102
RTVSPost2010Prop50
 90
       50
102
RTVSPost2010PropOp50
 70
     1
102
RTVSPost2010Prop51ColorIndex
 90
      256
102
RTVSPost2010Prop51ColorRGB
 90
-16777216
102
RTVSPost2010PropOp51
 70
     0
102
RTVSPost2010Prop52
140
1.0
102
RTVSPost2010PropOp52
 70
     0
102
RTVSPost2010Prop53
 90
        2
102
RTVSPost2010PropOp53
 70
     1
102
RTVSPost2010Prop54
  1
strokes_ogs.tif
102
RTVSPost2010PropOp54
 70
     1
102
RTVSPost2010Prop55
280
     0
102
RTVSPost2010PropOp55
 70
     1
102
RTVSPost2010Prop56
140
1.0
102
RTVSPost2010PropOp56
 70
     1
102
RTVSPost2010Prop57
140
1.0
102
RTVSPost2010PropOp57
 70
     1
102
RTVSPropertyOp0
 70
     1
102
RTVSPropertyOp1
 70
     1
102
RTVSPropertyOp2
 70
     1
102
RTVSPropertyOp3
 70
     1
102
RTVSPropertyOp4
 70
     1
102
RTVSPropertyOp5
 70
     1
102
RTVSPropertyOp6
 70
     1
102
RTVSPropertyOp7
 70
     1
102
RTVSPropertyOp8
 70
     1
102
RTVSPropertyOp9
 70
     1
102
RTVSPropertyOp10
 70
     1
102
RTVSPropertyOp11
 70
     1
102
RTVSPropertyOp12
 70
     1
102
RTVSPropertyOp13
 70
     1
102
RTVSPropertyOp14
 70
     1
102
RTVSPropertyOp15
 70
     1
102
RTVSPropertyOp16
 70
     1
102
RTVSPropertyOp17
 70
     1
102
RTVSPropertyOp18
 70
     1
102
RTVSPropertyOp19
 70
     1
102
RTVSPropertyOp20
 70
     1
102
RTVSPropertyOp21
 70
     1
102
RTVSPropertyOp22
 70
     1
102
RTVSPropertyOp23
 70
     1
102
RTVSPropertyOp24
 70
     1
102
RTVSPropertyOp25
 70
     1
102
RTVSPropertyOp26
 70
     1
102
RTVSPropertyOp27
 70
     1
102
RTVSPropertyOp28
 70
     1
102
RTVSPropertyOp29
 70
     1
102
RTVSPropertyOp30
 70
     1
102
RTVSPropertyOp31
 70
     1
102
RTVSPropertyOp32
 70
     1
102
RTVSPropertyOp33
 70
     1
102
RTVSPropertyOp34
 70
     1
102
RTVSPropertyOp35
 70
     1
102
RTVSPropertyOp36
 70
     1
102
RTVSPropertyOp37
 70
     1
102
RTVSPropertyOp38
 70
     1
102
RTVSPropertyOp39
 70
     1
102
RTVSPropertyOp40
 70
     1
102
RTVSPropertyOp41
 70
     1
102
RTVSPropertyOp42
 70
     1
102
RTVSPropertyOp43
 70
     1
102
RTVSPropertyOp44
 70
     1
102
RTVSPropertyOp45
 70
     1
102
RTVSPropertyOp46
 70
     1
102
RTVSPropertyOp47
 70
     1
102
RTVSPropertyOp48
 70
     1
102
RTVSPropertyOp49
 70
     1
102
RTVSPropertyOp50
 70
     1
102
RTVSPropertyOp51
 70
     0
102
RTVSPropertyOp52
 70
     0
102
RTVSPropertyOp53
 70
     1
102
RTVSPropertyOp54
 70
     1
102
RTVSPropertyOp55
 70
     1
102
RTVSPropertyOp56
 70
     1
102
RTVSPropertyOp57
 70
     1
102
RTVSPropertyOp58
 70
     1
102
RTVSPropertyOp59
 70
     1
102
RTVSPropertyOp60
 70
     1
102
RTVSPropertyOp61
 70
     1
102
RTVSPropertyOp62
 70
     1
  0
XRECORD
  5
1F309
102
{ACAD_REACTORS
330
1F308
102
}
330
1F308
100
AcDbXrecord
280
     1
102
RTVSPost2010Prop28
280
     0
102
RTVSPost2010PropOp28
 70
     1
102
RTVSPost2010Prop29
280
     1
102
RTVSPost2010PropOp29
 70
     1
102
RTVSPost2010Prop30
280
     1
102
RTVSPost2010PropOp30
 70
     1
102
RTVSPost2010Prop31
280
     0
102
RTVSPost2010PropOp31
 70
     1
102
RTVSPost2010Prop32
280
     0
102
RTVSPost2010PropOp32
 70
     1
102
RTVSPost2010Prop33
280
     0
102
RTVSPost2010PropOp33
 70
     1
102
RTVSPost2010Prop34
280
     0
102
RTVSPost2010PropOp34
 70
     1
102
RTVSPost2010Prop35
280
     0
102
RTVSPost2010PropOp35
 70
     1
102
RTVSPost2010Prop36
280
     0
102
RTVSPost2010PropOp36
 70
     1
102
RTVSPost2010Prop37
 90
       50
102
RTVSPost2010PropOp37
 70
     1
102
RTVSPost2010Prop38
140
0.0
102
RTVSPost2010PropOp38
 70
     1
102
RTVSPost2010Prop39
140
1.0
102
RTVSPost2010PropOp39
 70
     1
102
RTVSPost2010Prop40
 90
        0
102
RTVSPost2010PropOp40
 70
     1
102
RTVSPost2010Prop41ColorIndex
 90
       18
102
RTVSPost2010Prop41ColorRGB
 90
        0
102
RTVSPost2010PropOp41
 70
     1
102
RTVSPost2010Prop42
 90
       50
102
RTVSPost2010PropOp42
 70
     1
102
RTVSPost2010Prop43
 90
        3
102
RTVSPost2010PropOp43
 70
     1
102
RTVSPost2010Prop44ColorIndex
 90
        5
102
RTVSPost2010Prop44ColorRGB
 90
      255
102
RTVSPost2010PropOp44
 70
     1
102
RTVSPost2010Prop45
280
     0
102
RTVSPost2010PropOp45
 70
     1
102
RTVSPost2010Prop46
 90
       50
102
RTVSPost2010PropOp46
 70
     1
102
RTVSPost2010Prop47
 90
       50
102
RTVSPost2010PropOp47
 70
     1
102
RTVSPost2010Prop48
 90
       50
102
RTVSPost2010PropOp48
 70
     1
102
RTVSPost2010Prop49
280
     0
102
RTVSPost2010PropOp49
 70
     1
102
RTVSPost2010Prop50
 90
       50
102
RTVSPost2010PropOp50
 70
     1
102
RTVSPost2010Prop51ColorIndex
 90
      256
102
RTVSPost2010Prop51ColorRGB
 90
-16777216
102
RTVSPost2010PropOp51
 70
     0
102
RTVSPost2010Prop52
140
1.0
102
RTVSPost2010PropOp52
 70
     0
102
RTVSPost2010Prop53
 90
        2
102
RTVSPost2010PropOp53
 70
     1
102
RTVSPost2010Prop54
  1
strokes_ogs.tif
102
RTVSPost2010PropOp54
 70
     1
102
RTVSPost2010Prop55
280
     0
102
RTVSPost2010PropOp55
 70
     1
102
RTVSPost2010Prop56
140
1.0
102
RTVSPost2010PropOp56
 70
     1
102
RTVSPost2010Prop57
140
1.0
102
RTVSPost2010PropOp57
 70
     1
102
RTVSPropertyOp0
 70
     1
102
RTVSPropertyOp1
 70
     1
102
RTVSPropertyOp2
 70
     1
102
RTVSPropertyOp3
 70
     1
102
RTVSPropertyOp4
 70
     1
102
RTVSPropertyOp5
 70
     1
102
RTVSPropertyOp6
 70
     1
102
RTVSPropertyOp7
 70
     1
102
RTVSPropertyOp8
 70
     1
102
RTVSPropertyOp9
 70
     1
102
RTVSPropertyOp10
 70
     1
102
RTVSPropertyOp11
 70
     1
102
RTVSPropertyOp12
 70
     1
102
RTVSPropertyOp13
 70
     1
102
RTVSPropertyOp14
 70
     1
102
RTVSPropertyOp15
 70
     1
102
RTVSPropertyOp16
 70
     1
102
RTVSPropertyOp17
 70
     1
102
RTVSPropertyOp18
 70
     1
102
RTVSPropertyOp19
 70
     1
102
RTVSPropertyOp20
 70
     1
102
RTVSPropertyOp21
 70
     1
102
RTVSPropertyOp22
 70
     1
102
RTVSPropertyOp23
 70
     1
102
RTVSPropertyOp24
 70
     1
102
RTVSPropertyOp25
 70
     1
102
RTVSPropertyOp26
 70
     1
102
RTVSPropertyOp27
 70
     1
102
RTVSPropertyOp28
 70
     1
102
RTVSPropertyOp29
 70
     1
102
RTVSPropertyOp30
 70
     1
102
RTVSPropertyOp31
 70
     1
102
RTVSPropertyOp32
 70
     1
102
RTVSPropertyOp33
 70
     1
102
RTVSPropertyOp34
 70
     1
102
RTVSPropertyOp35
 70
     1
102
RTVSPropertyOp36
 70
     1
102
RTVSPropertyOp37
 70
     1
102
RTVSPropertyOp38
 70
     1
102
RTVSPropertyOp39
 70
     1
102
RTVSPropertyOp40
 70
     1
102
RTVSPropertyOp41
 70
     1
102
RTVSPropertyOp42
 70
     1
102
RTVSPropertyOp43
 70
     1
102
RTVSPropertyOp44
 70
     1
102
RTVSPropertyOp45
 70
     1
102
RTVSPropertyOp46
 70
     1
102
RTVSPropertyOp47
 70
     1
102
RTVSPropertyOp48
 70
     1
102
RTVSPropertyOp49
 70
     1
102
RTVSPropertyOp50
 70
     1
102
RTVSPropertyOp51
 70
     0
102
RTVSPropertyOp52
 70
     0
102
RTVSPropertyOp53
 70
     1
102
RTVSPropertyOp54
 70
     1
102
RTVSPropertyOp55
 70
     1
102
RTVSPropertyOp56
 70
     1
102
RTVSPropertyOp57
 70
     1
102
RTVSPropertyOp58
 70
     1
102
RTVSPropertyOp59
 70
     1
102
RTVSPropertyOp60
 70
     1
102
RTVSPropertyOp61
 70
     1
102
RTVSPropertyOp62
 70
     1
  0
XRECORD
  5
1F30D
102
{ACAD_REACTORS
330
1F30C
102
}
330
1F30C
100
AcDbXrecord
280
     1
102
RTVSPost2010Prop28
280
     0
102
RTVSPost2010PropOp28
 70
     1
102
RTVSPost2010Prop29
280
     1
102
RTVSPost2010PropOp29
 70
     1
102
RTVSPost2010Prop30
280
     1
102
RTVSPost2010PropOp30
 70
     1
102
RTVSPost2010Prop31
280
     0
102
RTVSPost2010PropOp31
 70
     1
102
RTVSPost2010Prop32
280
     0
102
RTVSPost2010PropOp32
 70
     1
102
RTVSPost2010Prop33
280
     0
102
RTVSPost2010PropOp33
 70
     1
102
RTVSPost2010Prop34
280
     0
102
RTVSPost2010PropOp34
 70
     1
102
RTVSPost2010Prop35
280
     0
102
RTVSPost2010PropOp35
 70
     1
102
RTVSPost2010Prop36
280
     0
102
RTVSPost2010PropOp36
 70
     1
102
RTVSPost2010Prop37
 90
       50
102
RTVSPost2010PropOp37
 70
     1
102
RTVSPost2010Prop38
140
0.0
102
RTVSPost2010PropOp38
 70
     1
102
RTVSPost2010Prop39
140
1.0
102
RTVSPost2010PropOp39
 70
     1
102
RTVSPost2010Prop40
 90
        0
102
RTVSPost2010PropOp40
 70
     1
102
RTVSPost2010Prop41ColorIndex
 90
       18
102
RTVSPost2010Prop41ColorRGB
 90
        0
102
RTVSPost2010PropOp41
 70
     1
102
RTVSPost2010Prop42
 90
       50
102
RTVSPost2010PropOp42
 70
     1
102
RTVSPost2010Prop43
 90
        3
102
RTVSPost2010PropOp43
 70
     1
102
RTVSPost2010Prop44ColorIndex
 90
        5
102
RTVSPost2010Prop44ColorRGB
 90
      255
102
RTVSPost2010PropOp44
 70
     1
102
RTVSPost2010Prop45
280
     0
102
RTVSPost2010PropOp45
 70
     1
102
RTVSPost2010Prop46
 90
       50
102
RTVSPost2010PropOp46
 70
     1
102
RTVSPost2010Prop47
 90
       50
102
RTVSPost2010PropOp47
 70
     1
102
RTVSPost2010Prop48
 90
       50
102
RTVSPost2010PropOp48
 70
     1
102
RTVSPost2010Prop49
280
     0
102
RTVSPost2010PropOp49
 70
     1
102
RTVSPost2010Prop50
 90
       50
102
RTVSPost2010PropOp50
 70
     1
102
RTVSPost2010Prop51ColorIndex
 90
      256
102
RTVSPost2010Prop51ColorRGB
 90
-16777216
102
RTVSPost2010PropOp51
 70
     0
102
RTVSPost2010Prop52
140
1.0
102
RTVSPost2010PropOp52
 70
     0
102
RTVSPost2010Prop53
 90
        2
102
RTVSPost2010PropOp53
 70
     1
102
RTVSPost2010Prop54
  1
strokes_ogs.tif
102
RTVSPost2010PropOp54
 70
     1
102
RTVSPost2010Prop55
280
     0
102
RTVSPost2010PropOp55
 70
     1
102
RTVSPost2010Prop56
140
1.0
102
RTVSPost2010PropOp56
 70
     1
102
RTVSPost2010Prop57
140
1.0
102
RTVSPost2010PropOp57
 70
     1
102
RTVSPropertyOp0
 70
     1
102
RTVSPropertyOp1
 70
     1
102
RTVSPropertyOp2
 70
     1
102
RTVSPropertyOp3
 70
     1
102
RTVSPropertyOp4
 70
     1
102
RTVSPropertyOp5
 70
     1
102
RTVSPropertyOp6
 70
     1
102
RTVSPropertyOp7
 70
     1
102
RTVSPropertyOp8
 70
     1
102
RTVSPropertyOp9
 70
     1
102
RTVSPropertyOp10
 70
     1
102
RTVSPropertyOp11
 70
     1
102
RTVSPropertyOp12
 70
     1
102
RTVSPropertyOp13
 70
     1
102
RTVSPropertyOp14
 70
     1
102
RTVSPropertyOp15
 70
     1
102
RTVSPropertyOp16
 70
     1
102
RTVSPropertyOp17
 70
     1
102
RTVSPropertyOp18
 70
     1
102
RTVSPropertyOp19
 70
     1
102
RTVSPropertyOp20
 70
     1
102
RTVSPropertyOp21
 70
     1
102
RTVSPropertyOp22
 70
     1
102
RTVSPropertyOp23
 70
     1
102
RTVSPropertyOp24
 70
     1
102
RTVSPropertyOp25
 70
     1
102
RTVSPropertyOp26
 70
     1
102
RTVSPropertyOp27
 70
     1
102
RTVSPropertyOp28
 70
     1
102
RTVSPropertyOp29
 70
     1
102
RTVSPropertyOp30
 70
     1
102
RTVSPropertyOp31
 70
     1
102
RTVSPropertyOp32
 70
     1
102
RTVSPropertyOp33
 70
     1
102
RTVSPropertyOp34
 70
     1
102
RTVSPropertyOp35
 70
     1
102
RTVSPropertyOp36
 70
     1
102
RTVSPropertyOp37
 70
     1
102
RTVSPropertyOp38
 70
     1
102
RTVSPropertyOp39
 70
     1
102
RTVSPropertyOp40
 70
     1
102
RTVSPropertyOp41
 70
     1
102
RTVSPropertyOp42
 70
     1
102
RTVSPropertyOp43
 70
     1
102
RTVSPropertyOp44
 70
     1
102
RTVSPropertyOp45
 70
     1
102
RTVSPropertyOp46
 70
     1
102
RTVSPropertyOp47
 70
     1
102
RTVSPropertyOp48
 70
     1
102
RTVSPropertyOp49
 70
     1
102
RTVSPropertyOp50
 70
     1
102
RTVSPropertyOp51
 70
     0
102
RTVSPropertyOp52
 70
     0
102
RTVSPropertyOp53
 70
     1
102
RTVSPropertyOp54
 70
     1
102
RTVSPropertyOp55
 70
     1
102
RTVSPropertyOp56
 70
     1
102
RTVSPropertyOp57
 70
     1
102
RTVSPropertyOp58
 70
     1
102
RTVSPropertyOp59
 70
     1
102
RTVSPropertyOp60
 70
     1
102
RTVSPropertyOp61
 70
     1
102
RTVSPropertyOp62
 70
     1
  0
XRECORD
  5
1F327
102
{ACAD_REACTORS
330
1F326
102
}
330
1F326
100
AcDbXrecord
280
     1
102
RTVSPost2010Prop28
280
     0
102
RTVSPost2010PropOp28
 70
     0
102
RTVSPost2010Prop29
280
     1
102
RTVSPost2010PropOp29
 70
     0
102
RTVSPost2010Prop30
280
     1
102
RTVSPost2010PropOp30
 70
     0
102
RTVSPost2010Prop31
280
     0
102
RTVSPost2010PropOp31
 70
     0
102
RTVSPost2010Prop32
280
     0
102
RTVSPost2010PropOp32
 70
     0
102
RTVSPost2010Prop33
280
     0
102
RTVSPost2010PropOp33
 70
     0
102
RTVSPost2010Prop34
280
     0
102
RTVSPost2010PropOp34
 70
     0
102
RTVSPost2010Prop35
280
     0
102
RTVSPost2010PropOp35
 70
     0
102
RTVSPost2010Prop36
280
     0
102
RTVSPost2010PropOp36
 70
     0
102
RTVSPost2010Prop37
 90
       50
102
RTVSPost2010PropOp37
 70
     0
102
RTVSPost2010Prop38
140
0.0
102
RTVSPost2010PropOp38
 70
     0
102
RTVSPost2010Prop39
140
1.0
102
RTVSPost2010PropOp39
 70
     0
102
RTVSPost2010Prop40
 90
        0
102
RTVSPost2010PropOp40
 70
     0
102
RTVSPost2010Prop41ColorIndex
 90
       18
102
RTVSPost2010Prop41ColorRGB
 90
        0
102
RTVSPost2010PropOp41
 70
     0
102
RTVSPost2010Prop42
 90
       50
102
RTVSPost2010PropOp42
 70
     0
102
RTVSPost2010Prop43
 90
        3
102
RTVSPost2010PropOp43
 70
     0
102
RTVSPost2010Prop44ColorIndex
 90
        5
102
RTVSPost2010Prop44ColorRGB
 90
      255
102
RTVSPost2010PropOp44
 70
     0
102
RTVSPost2010Prop45
280
     0
102
RTVSPost2010PropOp45
 70
     0
102
RTVSPost2010Prop46
 90
       50
102
RTVSPost2010PropOp46
 70
     0
102
RTVSPost2010Prop47
 90
       50
102
RTVSPost2010PropOp47
 70
     0
102
RTVSPost2010Prop48
 90
       50
102
RTVSPost2010PropOp48
 70
     0
102
RTVSPost2010Prop49
280
     0
102
RTVSPost2010PropOp49
 70
     0
102
RTVSPost2010Prop50
 90
       50
102
RTVSPost2010PropOp50
 70
     0
102
RTVSPost2010Prop51ColorIndex
 90
      256
102
RTVSPost2010Prop51ColorRGB
 90
-16777216
102
RTVSPost2010PropOp51
 70
     0
102
RTVSPost2010Prop52
140
1.0
102
RTVSPost2010PropOp52
 70
     0
102
RTVSPost2010Prop53
 90
        2
102
RTVSPost2010PropOp53
 70
     0
102
RTVSPost2010Prop54
  1
strokes_ogs.tif
102
RTVSPost2010PropOp54
 70
     0
102
RTVSPost2010Prop55
280
     0
102
RTVSPost2010PropOp55
 70
     0
102
RTVSPost2010Prop56
140
1.0
102
RTVSPost2010PropOp56
 70
     0
102
RTVSPost2010Prop57
140
1.0
102
RTVSPost2010PropOp57
 70
     0
102
RTVSPropertyOp0
 70
     0
102
RTVSPropertyOp1
 70
     0
102
RTVSPropertyOp2
 70
     0
102
RTVSPropertyOp3
 70
     0
102
RTVSPropertyOp4
 70
     0
102
RTVSPropertyOp5
 70
     0
102
RTVSPropertyOp6
 70
     0
102
RTVSPropertyOp7
 70
     0
102
RTVSPropertyOp8
 70
     0
102
RTVSPropertyOp9
 70
     0
102
RTVSPropertyOp10
 70
     0
102
RTVSPropertyOp11
 70
     0
102
RTVSPropertyOp12
 70
     0
102
RTVSPropertyOp13
 70
     0
102
RTVSPropertyOp14
 70
     2
102
RTVSPropertyOp15
 70
     0
102
RTVSPropertyOp16
 70
     0
102
RTVSPropertyOp17
 70
     0
102
RTVSPropertyOp18
 70
     0
102
RTVSPropertyOp19
 70
     0
102
RTVSPropertyOp20
 70
     0
102
RTVSPropertyOp21
 70
     0
102
RTVSPropertyOp22
 70
     0
102
RTVSPropertyOp23
 70
     0
102
RTVSPropertyOp24
 70
     0
102
RTVSPropertyOp25
 70
     0
102
RTVSPropertyOp26
 70
     0
102
RTVSPropertyOp27
 70
     0
102
RTVSPropertyOp28
 70
     0
102
RTVSPropertyOp29
 70
     0
102
RTVSPropertyOp30
 70
     0
102
RTVSPropertyOp31
 70
     0
102
RTVSPropertyOp32
 70
     0
102
RTVSPropertyOp33
 70
     0
102
RTVSPropertyOp34
 70
     0
102
RTVSPropertyOp35
 70
     0
102
RTVSPropertyOp36
 70
     0
102
RTVSPropertyOp37
 70
     0
102
RTVSPropertyOp38
 70
     0
102
RTVSPropertyOp39
 70
     0
102
RTVSPropertyOp40
 70
     0
102
RTVSPropertyOp41
 70
     0
102
RTVSPropertyOp42
 70
     0
102
RTVSPropertyOp43
 70
     0
102
RTVSPropertyOp44
 70
     0
102
RTVSPropertyOp45
 70
     0
102
RTVSPropertyOp46
 70
     0
102
RTVSPropertyOp47
 70
     0
102
RTVSPropertyOp48
 70
     0
102
RTVSPropertyOp49
 70
     0
102
RTVSPropertyOp50
 70
     0
102
RTVSPropertyOp51
 70
     0
102
RTVSPropertyOp52
 70
     0
102
RTVSPropertyOp53
 70
     0
102
RTVSPropertyOp54
 70
     0
102
RTVSPropertyOp55
 70
     0
102
RTVSPropertyOp56
 70
     0
102
RTVSPropertyOp57
 70
     0
102
RTVSPropertyOp58
 70
     1
102
RTVSPropertyOp59
 70
     1
102
RTVSPropertyOp60
 70
     1
102
RTVSPropertyOp61
 70
     1
102
RTVSPropertyOp62
 70
     1
  0
XRECORD
  5
1F315
102
{ACAD_REACTORS
330
1F314
102
}
330
1F314
100
AcDbXrecord
280
     1
102
RTVSPost2010Prop28
280
     0
102
RTVSPost2010PropOp28
 70
     1
102
RTVSPost2010Prop29
280
     1
102
RTVSPost2010PropOp29
 70
     1
102
RTVSPost2010Prop30
280
     1
102
RTVSPost2010PropOp30
 70
     1
102
RTVSPost2010Prop31
280
     0
102
RTVSPost2010PropOp31
 70
     1
102
RTVSPost2010Prop32
280
     0
102
RTVSPost2010PropOp32
 70
     1
102
RTVSPost2010Prop33
280
     0
102
RTVSPost2010PropOp33
 70
     1
102
RTVSPost2010Prop34
280
     0
102
RTVSPost2010PropOp34
 70
     1
102
RTVSPost2010Prop35
280
     0
102
RTVSPost2010PropOp35
 70
     1
102
RTVSPost2010Prop36
280
     0
102
RTVSPost2010PropOp36
 70
     1
102
RTVSPost2010Prop37
 90
       50
102
RTVSPost2010PropOp37
 70
     1
102
RTVSPost2010Prop38
140
0.0
102
RTVSPost2010PropOp38
 70
     1
102
RTVSPost2010Prop39
140
1.0
102
RTVSPost2010PropOp39
 70
     1
102
RTVSPost2010Prop40
 90
        0
102
RTVSPost2010PropOp40
 70
     1
102
RTVSPost2010Prop41ColorIndex
 90
       18
102
RTVSPost2010Prop41ColorRGB
 90
        0
102
RTVSPost2010PropOp41
 70
     1
102
RTVSPost2010Prop42
 90
       50
102
RTVSPost2010PropOp42
 70
     1
102
RTVSPost2010Prop43
 90
        3
102
RTVSPost2010PropOp43
 70
     1
102
RTVSPost2010Prop44ColorIndex
 90
        5
102
RTVSPost2010Prop44ColorRGB
 90
      255
102
RTVSPost2010PropOp44
 70
     1
102
RTVSPost2010Prop45
280
     0
102
RTVSPost2010PropOp45
 70
     1
102
RTVSPost2010Prop46
 90
       50
102
RTVSPost2010PropOp46
 70
     1
102
RTVSPost2010Prop47
 90
       50
102
RTVSPost2010PropOp47
 70
     1
102
RTVSPost2010Prop48
 90
       50
102
RTVSPost2010PropOp48
 70
     1
102
RTVSPost2010Prop49
280
     0
102
RTVSPost2010PropOp49
 70
     1
102
RTVSPost2010Prop50
 90
       50
102
RTVSPost2010PropOp50
 70
     1
102
RTVSPost2010Prop51ColorIndex
 90
      256
102
RTVSPost2010Prop51ColorRGB
 90
-16777216
102
RTVSPost2010PropOp51
 70
     0
102
RTVSPost2010Prop52
140
1.0
102
RTVSPost2010PropOp52
 70
     0
102
RTVSPost2010Prop53
 90
        2
102
RTVSPost2010PropOp53
 70
     1
102
RTVSPost2010Prop54
  1
strokes_ogs.tif
102
RTVSPost2010PropOp54
 70
     1
102
RTVSPost2010Prop55
280
     0
102
RTVSPost2010PropOp55
 70
     1
102
RTVSPost2010Prop56
140
1.0
102
RTVSPost2010PropOp56
 70
     1
102
RTVSPost2010Prop57
140
1.0
102
RTVSPost2010PropOp57
 70
     1
102
RTVSPropertyOp0
 70
     1
102
RTVSPropertyOp1
 70
     1
102
RTVSPropertyOp2
 70
     1
102
RTVSPropertyOp3
 70
     1
102
RTVSPropertyOp4
 70
     1
102
RTVSPropertyOp5
 70
     1
102
RTVSPropertyOp6
 70
     1
102
RTVSPropertyOp7
 70
     1
102
RTVSPropertyOp8
 70
     1
102
RTVSPropertyOp9
 70
     1
102
RTVSPropertyOp10
 70
     1
102
RTVSPropertyOp11
 70
     1
102
RTVSPropertyOp12
 70
     1
102
RTVSPropertyOp13
 70
     1
102
RTVSPropertyOp14
 70
     1
102
RTVSPropertyOp15
 70
     1
102
RTVSPropertyOp16
 70
     1
102
RTVSPropertyOp17
 70
     1
102
RTVSPropertyOp18
 70
     1
102
RTVSPropertyOp19
 70
     1
102
RTVSPropertyOp20
 70
     1
102
RTVSPropertyOp21
 70
     1
102
RTVSPropertyOp22
 70
     1
102
RTVSPropertyOp23
 70
     1
102
RTVSPropertyOp24
 70
     1
102
RTVSPropertyOp25
 70
     1
102
RTVSPropertyOp26
 70
     1
102
RTVSPropertyOp27
 70
     1
102
RTVSPropertyOp28
 70
     1
102
RTVSPropertyOp29
 70
     1
102
RTVSPropertyOp30
 70
     1
102
RTVSPropertyOp31
 70
     1
102
RTVSPropertyOp32
 70
     1
102
RTVSPropertyOp33
 70
     1
102
RTVSPropertyOp34
 70
     1
102
RTVSPropertyOp35
 70
     1
102
RTVSPropertyOp36
 70
     1
102
RTVSPropertyOp37
 70
     1
102
RTVSPropertyOp38
 70
     1
102
RTVSPropertyOp39
 70
     1
102
RTVSPropertyOp40
 70
     1
102
RTVSPropertyOp41
 70
     1
102
RTVSPropertyOp42
 70
     1
102
RTVSPropertyOp43
 70
     1
102
RTVSPropertyOp44
 70
     1
102
RTVSPropertyOp45
 70
     1
102
RTVSPropertyOp46
 70
     1
102
RTVSPropertyOp47
 70
     1
102
RTVSPropertyOp48
 70
     1
102
RTVSPropertyOp49
 70
     1
102
RTVSPropertyOp50
 70
     1
102
RTVSPropertyOp51
 70
     0
102
RTVSPropertyOp52
 70
     0
102
RTVSPropertyOp53
 70
     1
102
RTVSPropertyOp54
 70
     1
102
RTVSPropertyOp55
 70
     1
102
RTVSPropertyOp56
 70
     1
102
RTVSPropertyOp57
 70
     1
102
RTVSPropertyOp58
 70
     1
102
RTVSPropertyOp59
 70
     1
102
RTVSPropertyOp60
 70
     1
102
RTVSPropertyOp61
 70
     1
102
RTVSPropertyOp62
 70
     1
  0
XRECORD
  5
1F2F9
102
{ACAD_REACTORS
330
1F2F8
102
}
330
1F2F8
100
AcDbXrecord
280
     1
102
RTVSPost2010Prop28
280
     0
102
RTVSPost2010PropOp28
 70
     1
102
RTVSPost2010Prop29
280
     1
102
RTVSPost2010PropOp29
 70
     1
102
RTVSPost2010Prop30
280
     1
102
RTVSPost2010PropOp30
 70
     1
102
RTVSPost2010Prop31
280
     0
102
RTVSPost2010PropOp31
 70
     1
102
RTVSPost2010Prop32
280
     0
102
RTVSPost2010PropOp32
 70
     1
102
RTVSPost2010Prop33
280
     0
102
RTVSPost2010PropOp33
 70
     1
102
RTVSPost2010Prop34
280
     0
102
RTVSPost2010PropOp34
 70
     1
102
RTVSPost2010Prop35
280
     0
102
RTVSPost2010PropOp35
 70
     1
102
RTVSPost2010Prop36
280
     0
102
RTVSPost2010PropOp36
 70
     1
102
RTVSPost2010Prop37
 90
       50
102
RTVSPost2010PropOp37
 70
     1
102
RTVSPost2010Prop38
140
0.0
102
RTVSPost2010PropOp38
 70
     1
102
RTVSPost2010Prop39
140
1.0
102
RTVSPost2010PropOp39
 70
     1
102
RTVSPost2010Prop40
 90
        0
102
RTVSPost2010PropOp40
 70
     1
102
RTVSPost2010Prop41ColorIndex
 90
       18
102
RTVSPost2010Prop41ColorRGB
 90
        0
102
RTVSPost2010PropOp41
 70
     1
102
RTVSPost2010Prop42
 90
       50
102
RTVSPost2010PropOp42
 70
     1
102
RTVSPost2010Prop43
 90
        3
102
RTVSPost2010PropOp43
 70
     1
102
RTVSPost2010Prop44ColorIndex
 90
        5
102
RTVSPost2010Prop44ColorRGB
 90
      255
102
RTVSPost2010PropOp44
 70
     1
102
RTVSPost2010Prop45
280
     0
102
RTVSPost2010PropOp45
 70
     1
102
RTVSPost2010Prop46
 90
       50
102
RTVSPost2010PropOp46
 70
     1
102
RTVSPost2010Prop47
 90
       50
102
RTVSPost2010PropOp47
 70
     1
102
RTVSPost2010Prop48
 90
       50
102
RTVSPost2010PropOp48
 70
     1
102
RTVSPost2010Prop49
280
     0
102
RTVSPost2010PropOp49
 70
     1
102
RTVSPost2010Prop50
 90
       50
102
RTVSPost2010PropOp50
 70
     1
102
RTVSPost2010Prop51ColorIndex
 90
      256
102
RTVSPost2010Prop51ColorRGB
 90
-16777216
102
RTVSPost2010PropOp51
 70
     0
102
RTVSPost2010Prop52
140
1.0
102
RTVSPost2010PropOp52
 70
     0
102
RTVSPost2010Prop53
 90
        2
102
RTVSPost2010PropOp53
 70
     1
102
RTVSPost2010Prop54
  1
strokes_ogs.tif
102
RTVSPost2010PropOp54
 70
     1
102
RTVSPost2010Prop55
280
     0
102
RTVSPost2010PropOp55
 70
     1
102
RTVSPost2010Prop56
140
1.0
102
RTVSPost2010PropOp56
 70
     1
102
RTVSPost2010Prop57
140
1.0
102
RTVSPost2010PropOp57
 70
     1
102
RTVSPropertyOp0
 70
     1
102
RTVSPropertyOp1
 70
     1
102
RTVSPropertyOp2
 70
     1
102
RTVSPropertyOp3
 70
     1
102
RTVSPropertyOp4
 70
     1
102
RTVSPropertyOp5
 70
     1
102
RTVSPropertyOp6
 70
     1
102
RTVSPropertyOp7
 70
     1
102
RTVSPropertyOp8
 70
     1
102
RTVSPropertyOp9
 70
     1
102
RTVSPropertyOp10
 70
     1
102
RTVSPropertyOp11
 70
     1
102
RTVSPropertyOp12
 70
     1
102
RTVSPropertyOp13
 70
     1
102
RTVSPropertyOp14
 70
     1
102
RTVSPropertyOp15
 70
     1
102
RTVSPropertyOp16
 70
     1
102
RTVSPropertyOp17
 70
     1
102
RTVSPropertyOp18
 70
     1
102
RTVSPropertyOp19
 70
     1
102
RTVSPropertyOp20
 70
     1
102
RTVSPropertyOp21
 70
     1
102
RTVSPropertyOp22
 70
     1
102
RTVSPropertyOp23
 70
     1
102
RTVSPropertyOp24
 70
     1
102
RTVSPropertyOp25
 70
     1
102
RTVSPropertyOp26
 70
     1
102
RTVSPropertyOp27
 70
     1
102
RTVSPropertyOp28
 70
     1
102
RTVSPropertyOp29
 70
     1
102
RTVSPropertyOp30
 70
     1
102
RTVSPropertyOp31
 70
     1
102
RTVSPropertyOp32
 70
     1
102
RTVSPropertyOp33
 70
     1
102
RTVSPropertyOp34
 70
     1
102
RTVSPropertyOp35
 70
     1
102
RTVSPropertyOp36
 70
     1
102
RTVSPropertyOp37
 70
     1
102
RTVSPropertyOp38
 70
     1
102
RTVSPropertyOp39
 70
     1
102
RTVSPropertyOp40
 70
     1
102
RTVSPropertyOp41
 70
     1
102
RTVSPropertyOp42
 70
     1
102
RTVSPropertyOp43
 70
     1
102
RTVSPropertyOp44
 70
     1
102
RTVSPropertyOp45
 70
     1
102
RTVSPropertyOp46
 70
     1
102
RTVSPropertyOp47
 70
     1
102
RTVSPropertyOp48
 70
     1
102
RTVSPropertyOp49
 70
     1
102
RTVSPropertyOp50
 70
     1
102
RTVSPropertyOp51
 70
     0
102
RTVSPropertyOp52
 70
     0
102
RTVSPropertyOp53
 70
     1
102
RTVSPropertyOp54
 70
     1
102
RTVSPropertyOp55
 70
     1
102
RTVSPropertyOp56
 70
     1
102
RTVSPropertyOp57
 70
     1
102
RTVSPropertyOp58
 70
     1
102
RTVSPropertyOp59
 70
     1
102
RTVSPropertyOp60
 70
     1
102
RTVSPropertyOp61
 70
     1
102
RTVSPropertyOp62
 70
     1
  0
XRECORD
  5
1F2FB
102
{ACAD_REACTORS
330
1F2FA
102
}
330
1F2FA
100
AcDbXrecord
280
     1
102
RTVSPost2010Prop28
280
     0
102
RTVSPost2010PropOp28
 70
     1
102
RTVSPost2010Prop29
280
     1
102
RTVSPost2010PropOp29
 70
     1
102
RTVSPost2010Prop30
280
     1
102
RTVSPost2010PropOp30
 70
     1
102
RTVSPost2010Prop31
280
     0
102
RTVSPost2010PropOp31
 70
     1
102
RTVSPost2010Prop32
280
     0
102
RTVSPost2010PropOp32
 70
     1
102
RTVSPost2010Prop33
280
     0
102
RTVSPost2010PropOp33
 70
     1
102
RTVSPost2010Prop34
280
     0
102
RTVSPost2010PropOp34
 70
     1
102
RTVSPost2010Prop35
280
     0
102
RTVSPost2010PropOp35
 70
     1
102
RTVSPost2010Prop36
280
     0
102
RTVSPost2010PropOp36
 70
     1
102
RTVSPost2010Prop37
 90
       50
102
RTVSPost2010PropOp37
 70
     1
102
RTVSPost2010Prop38
140
0.0
102
RTVSPost2010PropOp38
 70
     1
102
RTVSPost2010Prop39
140
1.0
102
RTVSPost2010PropOp39
 70
     1
102
RTVSPost2010Prop40
 90
        0
102
RTVSPost2010PropOp40
 70
     1
102
RTVSPost2010Prop41ColorIndex
 90
       18
102
RTVSPost2010Prop41ColorRGB
 90
        0
102
RTVSPost2010PropOp41
 70
     1
102
RTVSPost2010Prop42
 90
       50
102
RTVSPost2010PropOp42
 70
     1
102
RTVSPost2010Prop43
 90
        3
102
RTVSPost2010PropOp43
 70
     1
102
RTVSPost2010Prop44ColorIndex
 90
        5
102
RTVSPost2010Prop44ColorRGB
 90
      255
102
RTVSPost2010PropOp44
 70
     1
102
RTVSPost2010Prop45
280
     0
102
RTVSPost2010PropOp45
 70
     1
102
RTVSPost2010Prop46
 90
       50
102
RTVSPost2010PropOp46
 70
     1
102
RTVSPost2010Prop47
 90
       50
102
RTVSPost2010PropOp47
 70
     1
102
RTVSPost2010Prop48
 90
       50
102
RTVSPost2010PropOp48
 70
     1
102
RTVSPost2010Prop49
280
     0
102
RTVSPost2010PropOp49
 70
     1
102
RTVSPost2010Prop50
 90
       50
102
RTVSPost2010PropOp50
 70
     1
102
RTVSPost2010Prop51ColorIndex
 90
      256
102
RTVSPost2010Prop51ColorRGB
 90
-16777216
102
RTVSPost2010PropOp51
 70
     0
102
RTVSPost2010Prop52
140
1.0
102
RTVSPost2010PropOp52
 70
     0
102
RTVSPost2010Prop53
 90
        2
102
RTVSPost2010PropOp53
 70
     1
102
RTVSPost2010Prop54
  1
strokes_ogs.tif
102
RTVSPost2010PropOp54
 70
     1
102
RTVSPost2010Prop55
280
     0
102
RTVSPost2010PropOp55
 70
     1
102
RTVSPost2010Prop56
140
1.0
102
RTVSPost2010PropOp56
 70
     1
102
RTVSPost2010Prop57
140
1.0
102
RTVSPost2010PropOp57
 70
     1
102
RTVSPropertyOp0
 70
     1
102
RTVSPropertyOp1
 70
     1
102
RTVSPropertyOp2
 70
     1
102
RTVSPropertyOp3
 70
     1
102
RTVSPropertyOp4
 70
     1
102
RTVSPropertyOp5
 70
     1
102
RTVSPropertyOp6
 70
     1
102
RTVSPropertyOp7
 70
     1
102
RTVSPropertyOp8
 70
     1
102
RTVSPropertyOp9
 70
     1
102
RTVSPropertyOp10
 70
     1
102
RTVSPropertyOp11
 70
     1
102
RTVSPropertyOp12
 70
     1
102
RTVSPropertyOp13
 70
     1
102
RTVSPropertyOp14
 70
     1
102
RTVSPropertyOp15
 70
     1
102
RTVSPropertyOp16
 70
     1
102
RTVSPropertyOp17
 70
     1
102
RTVSPropertyOp18
 70
     1
102
RTVSPropertyOp19
 70
     1
102
RTVSPropertyOp20
 70
     1
102
RTVSPropertyOp21
 70
     1
102
RTVSPropertyOp22
 70
     1
102
RTVSPropertyOp23
 70
     1
102
RTVSPropertyOp24
 70
     1
102
RTVSPropertyOp25
 70
     1
102
RTVSPropertyOp26
 70
     1
102
RTVSPropertyOp27
 70
     1
102
RTVSPropertyOp28
 70
     1
102
RTVSPropertyOp29
 70
     1
102
RTVSPropertyOp30
 70
     1
102
RTVSPropertyOp31
 70
     1
102
RTVSPropertyOp32
 70
     1
102
RTVSPropertyOp33
 70
     1
102
RTVSPropertyOp34
 70
     1
102
RTVSPropertyOp35
 70
     1
102
RTVSPropertyOp36
 70
     1
102
RTVSPropertyOp37
 70
     1
102
RTVSPropertyOp38
 70
     1
102
RTVSPropertyOp39
 70
     1
102
RTVSPropertyOp40
 70
     1
102
RTVSPropertyOp41
 70
     1
102
RTVSPropertyOp42
 70
     1
102
RTVSPropertyOp43
 70
     1
102
RTVSPropertyOp44
 70
     1
102
RTVSPropertyOp45
 70
     1
102
RTVSPropertyOp46
 70
     1
102
RTVSPropertyOp47
 70
     1
102
RTVSPropertyOp48
 70
     1
102
RTVSPropertyOp49
 70
     1
102
RTVSPropertyOp50
 70
     1
102
RTVSPropertyOp51
 70
     0
102
RTVSPropertyOp52
 70
     0
102
RTVSPropertyOp53
 70
     1
102
RTVSPropertyOp54
 70
     1
102
RTVSPropertyOp55
 70
     1
102
RTVSPropertyOp56
 70
     1
102
RTVSPropertyOp57
 70
     1
102
RTVSPropertyOp58
 70
     1
102
RTVSPropertyOp59
 70
     1
102
RTVSPropertyOp60
 70
     1
102
RTVSPropertyOp61
 70
     1
102
RTVSPropertyOp62
 70
     1
  0
XRECORD
  5
1F2FD
102
{ACAD_REACTORS
330
1F2FC
102
}
330
1F2FC
100
AcDbXrecord
280
     1
102
RTVSPost2010Prop28
280
     0
102
RTVSPost2010PropOp28
 70
     1
102
RTVSPost2010Prop29
280
     1
102
RTVSPost2010PropOp29
 70
     1
102
RTVSPost2010Prop30
280
     1
102
RTVSPost2010PropOp30
 70
     1
102
RTVSPost2010Prop31
280
     0
102
RTVSPost2010PropOp31
 70
     1
102
RTVSPost2010Prop32
280
     0
102
RTVSPost2010PropOp32
 70
     1
102
RTVSPost2010Prop33
280
     0
102
RTVSPost2010PropOp33
 70
     1
102
RTVSPost2010Prop34
280
     0
102
RTVSPost2010PropOp34
 70
     1
102
RTVSPost2010Prop35
280
     0
102
RTVSPost2010PropOp35
 70
     1
102
RTVSPost2010Prop36
280
     0
102
RTVSPost2010PropOp36
 70
     1
102
RTVSPost2010Prop37
 90
       50
102
RTVSPost2010PropOp37
 70
     1
102
RTVSPost2010Prop38
140
0.0
102
RTVSPost2010PropOp38
 70
     1
102
RTVSPost2010Prop39
140
1.0
102
RTVSPost2010PropOp39
 70
     1
102
RTVSPost2010Prop40
 90
        0
102
RTVSPost2010PropOp40
 70
     1
102
RTVSPost2010Prop41ColorIndex
 90
       18
102
RTVSPost2010Prop41ColorRGB
 90
        0
102
RTVSPost2010PropOp41
 70
     1
102
RTVSPost2010Prop42
 90
       50
102
RTVSPost2010PropOp42
 70
     1
102
RTVSPost2010Prop43
 90
        3
102
RTVSPost2010PropOp43
 70
     1
102
RTVSPost2010Prop44ColorIndex
 90
        5
102
RTVSPost2010Prop44ColorRGB
 90
      255
102
RTVSPost2010PropOp44
 70
     1
102
RTVSPost2010Prop45
280
     0
102
RTVSPost2010PropOp45
 70
     1
102
RTVSPost2010Prop46
 90
       50
102
RTVSPost2010PropOp46
 70
     1
102
RTVSPost2010Prop47
 90
       50
102
RTVSPost2010PropOp47
 70
     1
102
RTVSPost2010Prop48
 90
       50
102
RTVSPost2010PropOp48
 70
     1
102
RTVSPost2010Prop49
280
     0
102
RTVSPost2010PropOp49
 70
     1
102
RTVSPost2010Prop50
 90
       50
102
RTVSPost2010PropOp50
 70
     1
102
RTVSPost2010Prop51ColorIndex
 90
      256
102
RTVSPost2010Prop51ColorRGB
 90
-16777216
102
RTVSPost2010PropOp51
 70
     0
102
RTVSPost2010Prop52
140
1.0
102
RTVSPost2010PropOp52
 70
     0
102
RTVSPost2010Prop53
 90
        2
102
RTVSPost2010PropOp53
 70
     1
102
RTVSPost2010Prop54
  1
strokes_ogs.tif
102
RTVSPost2010PropOp54
 70
     1
102
RTVSPost2010Prop55
280
     0
102
RTVSPost2010PropOp55
 70
     1
102
RTVSPost2010Prop56
140
1.0
102
RTVSPost2010PropOp56
 70
     1
102
RTVSPost2010Prop57
140
1.0
102
RTVSPost2010PropOp57
 70
     1
102
RTVSPropertyOp0
 70
     1
102
RTVSPropertyOp1
 70
     1
102
RTVSPropertyOp2
 70
     1
102
RTVSPropertyOp3
 70
     1
102
RTVSPropertyOp4
 70
     1
102
RTVSPropertyOp5
 70
     1
102
RTVSPropertyOp6
 70
     1
102
RTVSPropertyOp7
 70
     1
102
RTVSPropertyOp8
 70
     1
102
RTVSPropertyOp9
 70
     1
102
RTVSPropertyOp10
 70
     1
102
RTVSPropertyOp11
 70
     1
102
RTVSPropertyOp12
 70
     1
102
RTVSPropertyOp13
 70
     1
102
RTVSPropertyOp14
 70
     1
102
RTVSPropertyOp15
 70
     1
102
RTVSPropertyOp16
 70
     1
102
RTVSPropertyOp17
 70
     1
102
RTVSPropertyOp18
 70
     1
102
RTVSPropertyOp19
 70
     1
102
RTVSPropertyOp20
 70
     1
102
RTVSPropertyOp21
 70
     1
102
RTVSPropertyOp22
 70
     1
102
RTVSPropertyOp23
 70
     1
102
RTVSPropertyOp24
 70
     1
102
RTVSPropertyOp25
 70
     1
102
RTVSPropertyOp26
 70
     1
102
RTVSPropertyOp27
 70
     1
102
RTVSPropertyOp28
 70
     1
102
RTVSPropertyOp29
 70
     1
102
RTVSPropertyOp30
 70
     1
102
RTVSPropertyOp31
 70
     1
102
RTVSPropertyOp32
 70
     1
102
RTVSPropertyOp33
 70
     1
102
RTVSPropertyOp34
 70
     1
102
RTVSPropertyOp35
 70
     1
102
RTVSPropertyOp36
 70
     1
102
RTVSPropertyOp37
 70
     1
102
RTVSPropertyOp38
 70
     1
102
RTVSPropertyOp39
 70
     1
102
RTVSPropertyOp40
 70
     1
102
RTVSPropertyOp41
 70
     1
102
RTVSPropertyOp42
 70
     1
102
RTVSPropertyOp43
 70
     1
102
RTVSPropertyOp44
 70
     1
102
RTVSPropertyOp45
 70
     1
102
RTVSPropertyOp46
 70
     1
102
RTVSPropertyOp47
 70
     1
102
RTVSPropertyOp48
 70
     1
102
RTVSPropertyOp49
 70
     1
102
RTVSPropertyOp50
 70
     1
102
RTVSPropertyOp51
 70
     0
102
RTVSPropertyOp52
 70
     0
102
RTVSPropertyOp53
 70
     1
102
RTVSPropertyOp54
 70
     1
102
RTVSPropertyOp55
 70
     1
102
RTVSPropertyOp56
 70
     1
102
RTVSPropertyOp57
 70
     1
102
RTVSPropertyOp58
 70
     1
102
RTVSPropertyOp59
 70
     1
102
RTVSPropertyOp60
 70
     1
102
RTVSPropertyOp61
 70
     1
102
RTVSPropertyOp62
 70
     1
  0
XRECORD
  5
1F2FF
102
{ACAD_REACTORS
330
1F2FE
102
}
330
1F2FE
100
AcDbXrecord
280
     1
102
RTVSPost2010Prop28
280
     0
102
RTVSPost2010PropOp28
 70
     1
102
RTVSPost2010Prop29
280
     1
102
RTVSPost2010PropOp29
 70
     1
102
RTVSPost2010Prop30
280
     1
102
RTVSPost2010PropOp30
 70
     1
102
RTVSPost2010Prop31
280
     0
102
RTVSPost2010PropOp31
 70
     1
102
RTVSPost2010Prop32
280
     0
102
RTVSPost2010PropOp32
 70
     1
102
RTVSPost2010Prop33
280
     0
102
RTVSPost2010PropOp33
 70
     1
102
RTVSPost2010Prop34
280
     0
102
RTVSPost2010PropOp34
 70
     1
102
RTVSPost2010Prop35
280
     0
102
RTVSPost2010PropOp35
 70
     1
102
RTVSPost2010Prop36
280
     0
102
RTVSPost2010PropOp36
 70
     1
102
RTVSPost2010Prop37
 90
       50
102
RTVSPost2010PropOp37
 70
     1
102
RTVSPost2010Prop38
140
0.0
102
RTVSPost2010PropOp38
 70
     1
102
RTVSPost2010Prop39
140
1.0
102
RTVSPost2010PropOp39
 70
     1
102
RTVSPost2010Prop40
 90
        0
102
RTVSPost2010PropOp40
 70
     1
102
RTVSPost2010Prop41ColorIndex
 90
       18
102
RTVSPost2010Prop41ColorRGB
 90
        0
102
RTVSPost2010PropOp41
 70
     1
102
RTVSPost2010Prop42
 90
       50
102
RTVSPost2010PropOp42
 70
     1
102
RTVSPost2010Prop43
 90
        3
102
RTVSPost2010PropOp43
 70
     1
102
RTVSPost2010Prop44ColorIndex
 90
        5
102
RTVSPost2010Prop44ColorRGB
 90
      255
102
RTVSPost2010PropOp44
 70
     1
102
RTVSPost2010Prop45
280
     0
102
RTVSPost2010PropOp45
 70
     1
102
RTVSPost2010Prop46
 90
       50
102
RTVSPost2010PropOp46
 70
     1
102
RTVSPost2010Prop47
 90
       50
102
RTVSPost2010PropOp47
 70
     1
102
RTVSPost2010Prop48
 90
       50
102
RTVSPost2010PropOp48
 70
     1
102
RTVSPost2010Prop49
280
     0
102
RTVSPost2010PropOp49
 70
     1
102
RTVSPost2010Prop50
 90
       50
102
RTVSPost2010PropOp50
 70
     1
102
RTVSPost2010Prop51ColorIndex
 90
      256
102
RTVSPost2010Prop51ColorRGB
 90
-16777216
102
RTVSPost2010PropOp51
 70
     0
102
RTVSPost2010Prop52
140
1.0
102
RTVSPost2010PropOp52
 70
     0
102
RTVSPost2010Prop53
 90
        2
102
RTVSPost2010PropOp53
 70
     1
102
RTVSPost2010Prop54
  1
strokes_ogs.tif
102
RTVSPost2010PropOp54
 70
     1
102
RTVSPost2010Prop55
280
     0
102
RTVSPost2010PropOp55
 70
     1
102
RTVSPost2010Prop56
140
1.0
102
RTVSPost2010PropOp56
 70
     1
102
RTVSPost2010Prop57
140
1.0
102
RTVSPost2010PropOp57
 70
     1
102
RTVSPropertyOp0
 70
     1
102
RTVSPropertyOp1
 70
     1
102
RTVSPropertyOp2
 70
     1
102
RTVSPropertyOp3
 70
     1
102
RTVSPropertyOp4
 70
     1
102
RTVSPropertyOp5
 70
     1
102
RTVSPropertyOp6
 70
     1
102
RTVSPropertyOp7
 70
     1
102
RTVSPropertyOp8
 70
     1
102
RTVSPropertyOp9
 70
     1
102
RTVSPropertyOp10
 70
     1
102
RTVSPropertyOp11
 70
     1
102
RTVSPropertyOp12
 70
     1
102
RTVSPropertyOp13
 70
     1
102
RTVSPropertyOp14
 70
     1
102
RTVSPropertyOp15
 70
     1
102
RTVSPropertyOp16
 70
     1
102
RTVSPropertyOp17
 70
     1
102
RTVSPropertyOp18
 70
     1
102
RTVSPropertyOp19
 70
     1
102
RTVSPropertyOp20
 70
     1
102
RTVSPropertyOp21
 70
     1
102
RTVSPropertyOp22
 70
     1
102
RTVSPropertyOp23
 70
     1
102
RTVSPropertyOp24
 70
     1
102
RTVSPropertyOp25
 70
     1
102
RTVSPropertyOp26
 70
     1
102
RTVSPropertyOp27
 70
     1
102
RTVSPropertyOp28
 70
     1
102
RTVSPropertyOp29
 70
     1
102
RTVSPropertyOp30
 70
     1
102
RTVSPropertyOp31
 70
     1
102
RTVSPropertyOp32
 70
     1
102
RTVSPropertyOp33
 70
     1
102
RTVSPropertyOp34
 70
     1
102
RTVSPropertyOp35
 70
     1
102
RTVSPropertyOp36
 70
     1
102
RTVSPropertyOp37
 70
     1
102
RTVSPropertyOp38
 70
     1
102
RTVSPropertyOp39
 70
     1
102
RTVSPropertyOp40
 70
     1
102
RTVSPropertyOp41
 70
     1
102
RTVSPropertyOp42
 70
     1
102
RTVSPropertyOp43
 70
     1
102
RTVSPropertyOp44
 70
     1
102
RTVSPropertyOp45
 70
     1
102
RTVSPropertyOp46
 70
     1
102
RTVSPropertyOp47
 70
     1
102
RTVSPropertyOp48
 70
     1
102
RTVSPropertyOp49
 70
     1
102
RTVSPropertyOp50
 70
     1
102
RTVSPropertyOp51
 70
     0
102
RTVSPropertyOp52
 70
     0
102
RTVSPropertyOp53
 70
     1
102
RTVSPropertyOp54
 70
     1
102
RTVSPropertyOp55
 70
     1
102
RTVSPropertyOp56
 70
     1
102
RTVSPropertyOp57
 70
     1
102
RTVSPropertyOp58
 70
     1
102
RTVSPropertyOp59
 70
     1
102
RTVSPropertyOp60
 70
     1
102
RTVSPropertyOp61
 70
     1
102
RTVSPropertyOp62
 70
     1
  0
XRECORD
  5
1F307
102
{ACAD_REACTORS
330
1F306
102
}
330
1F306
100
AcDbXrecord
280
     1
102
RTVSPost2010Prop28
280
     0
102
RTVSPost2010PropOp28
 70
     1
102
RTVSPost2010Prop29
280
     1
102
RTVSPost2010PropOp29
 70
     1
102
RTVSPost2010Prop30
280
     1
102
RTVSPost2010PropOp30
 70
     1
102
RTVSPost2010Prop31
280
     0
102
RTVSPost2010PropOp31
 70
     1
102
RTVSPost2010Prop32
280
     0
102
RTVSPost2010PropOp32
 70
     1
102
RTVSPost2010Prop33
280
     0
102
RTVSPost2010PropOp33
 70
     1
102
RTVSPost2010Prop34
280
     0
102
RTVSPost2010PropOp34
 70
     1
102
RTVSPost2010Prop35
280
     0
102
RTVSPost2010PropOp35
 70
     1
102
RTVSPost2010Prop36
280
     0
102
RTVSPost2010PropOp36
 70
     1
102
RTVSPost2010Prop37
 90
       50
102
RTVSPost2010PropOp37
 70
     1
102
RTVSPost2010Prop38
140
0.0
102
RTVSPost2010PropOp38
 70
     1
102
RTVSPost2010Prop39
140
1.0
102
RTVSPost2010PropOp39
 70
     1
102
RTVSPost2010Prop40
 90
        0
102
RTVSPost2010PropOp40
 70
     1
102
RTVSPost2010Prop41ColorIndex
 90
       18
102
RTVSPost2010Prop41ColorRGB
 90
        0
102
RTVSPost2010PropOp41
 70
     1
102
RTVSPost2010Prop42
 90
       50
102
RTVSPost2010PropOp42
 70
     1
102
RTVSPost2010Prop43
 90
        3
102
RTVSPost2010PropOp43
 70
     1
102
RTVSPost2010Prop44ColorIndex
 90
        5
102
RTVSPost2010Prop44ColorRGB
 90
      255
102
RTVSPost2010PropOp44
 70
     1
102
RTVSPost2010Prop45
280
     0
102
RTVSPost2010PropOp45
 70
     1
102
RTVSPost2010Prop46
 90
       50
102
RTVSPost2010PropOp46
 70
     1
102
RTVSPost2010Prop47
 90
       50
102
RTVSPost2010PropOp47
 70
     1
102
RTVSPost2010Prop48
 90
       50
102
RTVSPost2010PropOp48
 70
     1
102
RTVSPost2010Prop49
280
     0
102
RTVSPost2010PropOp49
 70
     1
102
RTVSPost2010Prop50
 90
       50
102
RTVSPost2010PropOp50
 70
     1
102
RTVSPost2010Prop51ColorIndex
 90
      256
102
RTVSPost2010Prop51ColorRGB
 90
-16777216
102
RTVSPost2010PropOp51
 70
     0
102
RTVSPost2010Prop52
140
1.0
102
RTVSPost2010PropOp52
 70
     0
102
RTVSPost2010Prop53
 90
        2
102
RTVSPost2010PropOp53
 70
     1
102
RTVSPost2010Prop54
  1
strokes_ogs.tif
102
RTVSPost2010PropOp54
 70
     1
102
RTVSPost2010Prop55
280
     0
102
RTVSPost2010PropOp55
 70
     1
102
RTVSPost2010Prop56
140
1.0
102
RTVSPost2010PropOp56
 70
     1
102
RTVSPost2010Prop57
140
1.0
102
RTVSPost2010PropOp57
 70
     1
102
RTVSPropertyOp0
 70
     1
102
RTVSPropertyOp1
 70
     1
102
RTVSPropertyOp2
 70
     1
102
RTVSPropertyOp3
 70
     1
102
RTVSPropertyOp4
 70
     1
102
RTVSPropertyOp5
 70
     1
102
RTVSPropertyOp6
 70
     1
102
RTVSPropertyOp7
 70
     1
102
RTVSPropertyOp8
 70
     1
102
RTVSPropertyOp9
 70
     1
102
RTVSPropertyOp10
 70
     1
102
RTVSPropertyOp11
 70
     1
102
RTVSPropertyOp12
 70
     1
102
RTVSPropertyOp13
 70
     1
102
RTVSPropertyOp14
 70
     1
102
RTVSPropertyOp15
 70
     1
102
RTVSPropertyOp16
 70
     1
102
RTVSPropertyOp17
 70
     1
102
RTVSPropertyOp18
 70
     1
102
RTVSPropertyOp19
 70
     1
102
RTVSPropertyOp20
 70
     1
102
RTVSPropertyOp21
 70
     1
102
RTVSPropertyOp22
 70
     1
102
RTVSPropertyOp23
 70
     1
102
RTVSPropertyOp24
 70
     1
102
RTVSPropertyOp25
 70
     1
102
RTVSPropertyOp26
 70
     1
102
RTVSPropertyOp27
 70
     1
102
RTVSPropertyOp28
 70
     1
102
RTVSPropertyOp29
 70
     1
102
RTVSPropertyOp30
 70
     1
102
RTVSPropertyOp31
 70
     1
102
RTVSPropertyOp32
 70
     1
102
RTVSPropertyOp33
 70
     1
102
RTVSPropertyOp34
 70
     1
102
RTVSPropertyOp35
 70
     1
102
RTVSPropertyOp36
 70
     1
102
RTVSPropertyOp37
 70
     1
102
RTVSPropertyOp38
 70
     1
102
RTVSPropertyOp39
 70
     1
102
RTVSPropertyOp40
 70
     1
102
RTVSPropertyOp41
 70
     1
102
RTVSPropertyOp42
 70
     1
102
RTVSPropertyOp43
 70
     1
102
RTVSPropertyOp44
 70
     1
102
RTVSPropertyOp45
 70
     1
102
RTVSPropertyOp46
 70
     1
102
RTVSPropertyOp47
 70
     1
102
RTVSPropertyOp48
 70
     1
102
RTVSPropertyOp49
 70
     1
102
RTVSPropertyOp50
 70
     1
102
RTVSPropertyOp51
 70
     0
102
RTVSPropertyOp52
 70
     0
102
RTVSPropertyOp53
 70
     1
102
RTVSPropertyOp54
 70
     1
102
RTVSPropertyOp55
 70
     1
102
RTVSPropertyOp56
 70
     1
102
RTVSPropertyOp57
 70
     1
102
RTVSPropertyOp58
 70
     1
102
RTVSPropertyOp59
 70
     1
102
RTVSPropertyOp60
 70
     1
102
RTVSPropertyOp61
 70
     1
102
RTVSPropertyOp62
 70
     1
  0
XRECORD
  5
1F323
102
{ACAD_REACTORS
330
1F322
102
}
330
1F322
100
AcDbXrecord
280
     1
102
RTVSPost2010Prop28
280
     0
102
RTVSPost2010PropOp28
 70
     0
102
RTVSPost2010Prop29
280
     1
102
RTVSPost2010PropOp29
 70
     0
102
RTVSPost2010Prop30
280
     1
102
RTVSPost2010PropOp30
 70
     0
102
RTVSPost2010Prop31
280
     0
102
RTVSPost2010PropOp31
 70
     0
102
RTVSPost2010Prop32
280
     0
102
RTVSPost2010PropOp32
 70
     0
102
RTVSPost2010Prop33
280
     0
102
RTVSPost2010PropOp33
 70
     0
102
RTVSPost2010Prop34
280
     0
102
RTVSPost2010PropOp34
 70
     0
102
RTVSPost2010Prop35
280
     0
102
RTVSPost2010PropOp35
 70
     0
102
RTVSPost2010Prop36
280
     0
102
RTVSPost2010PropOp36
 70
     0
102
RTVSPost2010Prop37
 90
       50
102
RTVSPost2010PropOp37
 70
     0
102
RTVSPost2010Prop38
140
0.0
102
RTVSPost2010PropOp38
 70
     0
102
RTVSPost2010Prop39
140
1.0
102
RTVSPost2010PropOp39
 70
     0
102
RTVSPost2010Prop40
 90
        0
102
RTVSPost2010PropOp40
 70
     0
102
RTVSPost2010Prop41ColorIndex
 90
       18
102
RTVSPost2010Prop41ColorRGB
 90
        0
102
RTVSPost2010PropOp41
 70
     0
102
RTVSPost2010Prop42
 90
       50
102
RTVSPost2010PropOp42
 70
     0
102
RTVSPost2010Prop43
 90
        3
102
RTVSPost2010PropOp43
 70
     0
102
RTVSPost2010Prop44ColorIndex
 90
        5
102
RTVSPost2010Prop44ColorRGB
 90
      255
102
RTVSPost2010PropOp44
 70
     0
102
RTVSPost2010Prop45
280
     0
102
RTVSPost2010PropOp45
 70
     0
102
RTVSPost2010Prop46
 90
       50
102
RTVSPost2010PropOp46
 70
     0
102
RTVSPost2010Prop47
 90
       50
102
RTVSPost2010PropOp47
 70
     0
102
RTVSPost2010Prop48
 90
       50
102
RTVSPost2010PropOp48
 70
     0
102
RTVSPost2010Prop49
280
     0
102
RTVSPost2010PropOp49
 70
     0
102
RTVSPost2010Prop50
 90
       50
102
RTVSPost2010PropOp50
 70
     0
102
RTVSPost2010Prop51ColorIndex
 90
      256
102
RTVSPost2010Prop51ColorRGB
 90
-16777216
102
RTVSPost2010PropOp51
 70
     0
102
RTVSPost2010Prop52
140
1.0
102
RTVSPost2010PropOp52
 70
     0
102
RTVSPost2010Prop53
 90
        2
102
RTVSPost2010PropOp53
 70
     0
102
RTVSPost2010Prop54
  1
strokes_ogs.tif
102
RTVSPost2010PropOp54
 70
     0
102
RTVSPost2010Prop55
280
     0
102
RTVSPost2010PropOp55
 70
     0
102
RTVSPost2010Prop56
140
1.0
102
RTVSPost2010PropOp56
 70
     0
102
RTVSPost2010Prop57
140
1.0
102
RTVSPost2010PropOp57
 70
     0
102
RTVSPropertyOp0
 70
     0
102
RTVSPropertyOp1
 70
     0
102
RTVSPropertyOp2
 70
     0
102
RTVSPropertyOp3
 70
     0
102
RTVSPropertyOp4
 70
     0
102
RTVSPropertyOp5
 70
     0
102
RTVSPropertyOp6
 70
     0
102
RTVSPropertyOp7
 70
     0
102
RTVSPropertyOp8
 70
     0
102
RTVSPropertyOp9
 70
     0
102
RTVSPropertyOp10
 70
     0
102
RTVSPropertyOp11
 70
     0
102
RTVSPropertyOp12
 70
     0
102
RTVSPropertyOp13
 70
     0
102
RTVSPropertyOp14
 70
     2
102
RTVSPropertyOp15
 70
     0
102
RTVSPropertyOp16
 70
     0
102
RTVSPropertyOp17
 70
     0
102
RTVSPropertyOp18
 70
     0
102
RTVSPropertyOp19
 70
     0
102
RTVSPropertyOp20
 70
     0
102
RTVSPropertyOp21
 70
     0
102
RTVSPropertyOp22
 70
     0
102
RTVSPropertyOp23
 70
     0
102
RTVSPropertyOp24
 70
     0
102
RTVSPropertyOp25
 70
     0
102
RTVSPropertyOp26
 70
     0
102
RTVSPropertyOp27
 70
     0
102
RTVSPropertyOp28
 70
     0
102
RTVSPropertyOp29
 70
     0
102
RTVSPropertyOp30
 70
     0
102
RTVSPropertyOp31
 70
     0
102
RTVSPropertyOp32
 70
     0
102
RTVSPropertyOp33
 70
     0
102
RTVSPropertyOp34
 70
     0
102
RTVSPropertyOp35
 70
     0
102
RTVSPropertyOp36
 70
     0
102
RTVSPropertyOp37
 70
     0
102
RTVSPropertyOp38
 70
     0
102
RTVSPropertyOp39
 70
     0
102
RTVSPropertyOp40
 70
     0
102
RTVSPropertyOp41
 70
     0
102
RTVSPropertyOp42
 70
     0
102
RTVSPropertyOp43
 70
     0
102
RTVSPropertyOp44
 70
     0
102
RTVSPropertyOp45
 70
     0
102
RTVSPropertyOp46
 70
     0
102
RTVSPropertyOp47
 70
     0
102
RTVSPropertyOp48
 70
     0
102
RTVSPropertyOp49
 70
     0
102
RTVSPropertyOp50
 70
     0
102
RTVSPropertyOp51
 70
     0
102
RTVSPropertyOp52
 70
     0
102
RTVSPropertyOp53
 70
     0
102
RTVSPropertyOp54
 70
     0
102
RTVSPropertyOp55
 70
     0
102
RTVSPropertyOp56
 70
     0
102
RTVSPropertyOp57
 70
     0
102
RTVSPropertyOp58
 70
     1
102
RTVSPropertyOp59
 70
     1
102
RTVSPropertyOp60
 70
     1
102
RTVSPropertyOp61
 70
     1
102
RTVSPropertyOp62
 70
     1
  0
XRECORD
  5
1F313
102
{ACAD_REACTORS
330
1F312
102
}
330
1F312
100
AcDbXrecord
280
     1
102
RTVSPost2010Prop28
280
     0
102
RTVSPost2010PropOp28
 70
     1
102
RTVSPost2010Prop29
280
     1
102
RTVSPost2010PropOp29
 70
     1
102
RTVSPost2010Prop30
280
     1
102
RTVSPost2010PropOp30
 70
     1
102
RTVSPost2010Prop31
280
     0
102
RTVSPost2010PropOp31
 70
     1
102
RTVSPost2010Prop32
280
     0
102
RTVSPost2010PropOp32
 70
     1
102
RTVSPost2010Prop33
280
     0
102
RTVSPost2010PropOp33
 70
     1
102
RTVSPost2010Prop34
280
     0
102
RTVSPost2010PropOp34
 70
     1
102
RTVSPost2010Prop35
280
     0
102
RTVSPost2010PropOp35
 70
     1
102
RTVSPost2010Prop36
280
     0
102
RTVSPost2010PropOp36
 70
     1
102
RTVSPost2010Prop37
 90
       50
102
RTVSPost2010PropOp37
 70
     1
102
RTVSPost2010Prop38
140
0.0
102
RTVSPost2010PropOp38
 70
     1
102
RTVSPost2010Prop39
140
1.0
102
RTVSPost2010PropOp39
 70
     1
102
RTVSPost2010Prop40
 90
        0
102
RTVSPost2010PropOp40
 70
     1
102
RTVSPost2010Prop41ColorIndex
 90
       18
102
RTVSPost2010Prop41ColorRGB
 90
        0
102
RTVSPost2010PropOp41
 70
     1
102
RTVSPost2010Prop42
 90
       50
102
RTVSPost2010PropOp42
 70
     1
102
RTVSPost2010Prop43
 90
        3
102
RTVSPost2010PropOp43
 70
     1
102
RTVSPost2010Prop44ColorIndex
 90
        5
102
RTVSPost2010Prop44ColorRGB
 90
      255
102
RTVSPost2010PropOp44
 70
     1
102
RTVSPost2010Prop45
280
     0
102
RTVSPost2010PropOp45
 70
     1
102
RTVSPost2010Prop46
 90
       50
102
RTVSPost2010PropOp46
 70
     1
102
RTVSPost2010Prop47
 90
       50
102
RTVSPost2010PropOp47
 70
     1
102
RTVSPost2010Prop48
 90
       50
102
RTVSPost2010PropOp48
 70
     1
102
RTVSPost2010Prop49
280
     0
102
RTVSPost2010PropOp49
 70
     1
102
RTVSPost2010Prop50
 90
       50
102
RTVSPost2010PropOp50
 70
     1
102
RTVSPost2010Prop51ColorIndex
 90
      256
102
RTVSPost2010Prop51ColorRGB
 90
-16777216
102
RTVSPost2010PropOp51
 70
     0
102
RTVSPost2010Prop52
140
1.0
102
RTVSPost2010PropOp52
 70
     0
102
RTVSPost2010Prop53
 90
        2
102
RTVSPost2010PropOp53
 70
     1
102
RTVSPost2010Prop54
  1
strokes_ogs.tif
102
RTVSPost2010PropOp54
 70
     1
102
RTVSPost2010Prop55
280
     0
102
RTVSPost2010PropOp55
 70
     1
102
RTVSPost2010Prop56
140
1.0
102
RTVSPost2010PropOp56
 70
     1
102
RTVSPost2010Prop57
140
1.0
102
RTVSPost2010PropOp57
 70
     1
102
RTVSPropertyOp0
 70
     1
102
RTVSPropertyOp1
 70
     1
102
RTVSPropertyOp2
 70
     1
102
RTVSPropertyOp3
 70
     1
102
RTVSPropertyOp4
 70
     1
102
RTVSPropertyOp5
 70
     1
102
RTVSPropertyOp6
 70
     1
102
RTVSPropertyOp7
 70
     1
102
RTVSPropertyOp8
 70
     1
102
RTVSPropertyOp9
 70
     1
102
RTVSPropertyOp10
 70
     1
102
RTVSPropertyOp11
 70
     1
102
RTVSPropertyOp12
 70
     1
102
RTVSPropertyOp13
 70
     1
102
RTVSPropertyOp14
 70
     1
102
RTVSPropertyOp15
 70
     1
102
RTVSPropertyOp16
 70
     1
102
RTVSPropertyOp17
 70
     1
102
RTVSPropertyOp18
 70
     1
102
RTVSPropertyOp19
 70
     1
102
RTVSPropertyOp20
 70
     1
102
RTVSPropertyOp21
 70
     1
102
RTVSPropertyOp22
 70
     1
102
RTVSPropertyOp23
 70
     1
102
RTVSPropertyOp24
 70
     1
102
RTVSPropertyOp25
 70
     1
102
RTVSPropertyOp26
 70
     1
102
RTVSPropertyOp27
 70
     1
102
RTVSPropertyOp28
 70
     1
102
RTVSPropertyOp29
 70
     1
102
RTVSPropertyOp30
 70
     1
102
RTVSPropertyOp31
 70
     1
102
RTVSPropertyOp32
 70
     1
102
RTVSPropertyOp33
 70
     1
102
RTVSPropertyOp34
 70
     1
102
RTVSPropertyOp35
 70
     1
102
RTVSPropertyOp36
 70
     1
102
RTVSPropertyOp37
 70
     1
102
RTVSPropertyOp38
 70
     1
102
RTVSPropertyOp39
 70
     1
102
RTVSPropertyOp40
 70
     1
102
RTVSPropertyOp41
 70
     1
102
RTVSPropertyOp42
 70
     1
102
RTVSPropertyOp43
 70
     1
102
RTVSPropertyOp44
 70
     1
102
RTVSPropertyOp45
 70
     1
102
RTVSPropertyOp46
 70
     1
102
RTVSPropertyOp47
 70
     1
102
RTVSPropertyOp48
 70
     1
102
RTVSPropertyOp49
 70
     1
102
RTVSPropertyOp50
 70
     1
102
RTVSPropertyOp51
 70
     0
102
RTVSPropertyOp52
 70
     0
102
RTVSPropertyOp53
 70
     1
102
RTVSPropertyOp54
 70
     1
102
RTVSPropertyOp55
 70
     1
102
RTVSPropertyOp56
 70
     1
102
RTVSPropertyOp57
 70
     1
102
RTVSPropertyOp58
 70
     1
102
RTVSPropertyOp59
 70
     1
102
RTVSPropertyOp60
 70
     1
102
RTVSPropertyOp61
 70
     1
102
RTVSPropertyOp62
 70
     1
  0
XRECORD
  5
1F325
102
{ACAD_REACTORS
330
1F324
102
}
330
1F324
100
AcDbXrecord
280
     1
102
RTVSPost2010Prop28
280
     0
102
RTVSPost2010PropOp28
 70
     0
102
RTVSPost2010Prop29
280
     1
102
RTVSPost2010PropOp29
 70
     0
102
RTVSPost2010Prop30
280
     1
102
RTVSPost2010PropOp30
 70
     0
102
RTVSPost2010Prop31
280
     0
102
RTVSPost2010PropOp31
 70
     0
102
RTVSPost2010Prop32
280
     0
102
RTVSPost2010PropOp32
 70
     0
102
RTVSPost2010Prop33
280
     0
102
RTVSPost2010PropOp33
 70
     0
102
RTVSPost2010Prop34
280
     0
102
RTVSPost2010PropOp34
 70
     0
102
RTVSPost2010Prop35
280
     0
102
RTVSPost2010PropOp35
 70
     0
102
RTVSPost2010Prop36
280
     0
102
RTVSPost2010PropOp36
 70
     0
102
RTVSPost2010Prop37
 90
       50
102
RTVSPost2010PropOp37
 70
     0
102
RTVSPost2010Prop38
140
0.0
102
RTVSPost2010PropOp38
 70
     0
102
RTVSPost2010Prop39
140
1.0
102
RTVSPost2010PropOp39
 70
     0
102
RTVSPost2010Prop40
 90
        0
102
RTVSPost2010PropOp40
 70
     0
102
RTVSPost2010Prop41ColorIndex
 90
       18
102
RTVSPost2010Prop41ColorRGB
 90
        0
102
RTVSPost2010PropOp41
 70
     0
102
RTVSPost2010Prop42
 90
       50
102
RTVSPost2010PropOp42
 70
     0
102
RTVSPost2010Prop43
 90
        3
102
RTVSPost2010PropOp43
 70
     0
102
RTVSPost2010Prop44ColorIndex
 90
        5
102
RTVSPost2010Prop44ColorRGB
 90
      255
102
RTVSPost2010PropOp44
 70
     0
102
RTVSPost2010Prop45
280
     0
102
RTVSPost2010PropOp45
 70
     0
102
RTVSPost2010Prop46
 90
       50
102
RTVSPost2010PropOp46
 70
     0
102
RTVSPost2010Prop47
 90
       50
102
RTVSPost2010PropOp47
 70
     0
102
RTVSPost2010Prop48
 90
       50
102
RTVSPost2010PropOp48
 70
     0
102
RTVSPost2010Prop49
280
     0
102
RTVSPost2010PropOp49
 70
     0
102
RTVSPost2010Prop50
 90
       50
102
RTVSPost2010PropOp50
 70
     0
102
RTVSPost2010Prop51ColorIndex
 90
      256
102
RTVSPost2010Prop51ColorRGB
 90
-16777216
102
RTVSPost2010PropOp51
 70
     0
102
RTVSPost2010Prop52
140
1.0
102
RTVSPost2010PropOp52
 70
     0
102
RTVSPost2010Prop53
 90
        2
102
RTVSPost2010PropOp53
 70
     0
102
RTVSPost2010Prop54
  1
strokes_ogs.tif
102
RTVSPost2010PropOp54
 70
     0
102
RTVSPost2010Prop55
280
     0
102
RTVSPost2010PropOp55
 70
     0
102
RTVSPost2010Prop56
140
1.0
102
RTVSPost2010PropOp56
 70
     0
102
RTVSPost2010Prop57
140
1.0
102
RTVSPost2010PropOp57
 70
     0
102
RTVSPropertyOp0
 70
     0
102
RTVSPropertyOp1
 70
     0
102
RTVSPropertyOp2
 70
     0
102
RTVSPropertyOp3
 70
     0
102
RTVSPropertyOp4
 70
     0
102
RTVSPropertyOp5
 70
     0
102
RTVSPropertyOp6
 70
     0
102
RTVSPropertyOp7
 70
     0
102
RTVSPropertyOp8
 70
     0
102
RTVSPropertyOp9
 70
     0
102
RTVSPropertyOp10
 70
     0
102
RTVSPropertyOp11
 70
     0
102
RTVSPropertyOp12
 70
     0
102
RTVSPropertyOp13
 70
     0
102
RTVSPropertyOp14
 70
     2
102
RTVSPropertyOp15
 70
     0
102
RTVSPropertyOp16
 70
     0
102
RTVSPropertyOp17
 70
     0
102
RTVSPropertyOp18
 70
     0
102
RTVSPropertyOp19
 70
     0
102
RTVSPropertyOp20
 70
     0
102
RTVSPropertyOp21
 70
     0
102
RTVSPropertyOp22
 70
     0
102
RTVSPropertyOp23
 70
     0
102
RTVSPropertyOp24
 70
     0
102
RTVSPropertyOp25
 70
     0
102
RTVSPropertyOp26
 70
     0
102
RTVSPropertyOp27
 70
     0
102
RTVSPropertyOp28
 70
     0
102
RTVSPropertyOp29
 70
     0
102
RTVSPropertyOp30
 70
     0
102
RTVSPropertyOp31
 70
     0
102
RTVSPropertyOp32
 70
     0
102
RTVSPropertyOp33
 70
     0
102
RTVSPropertyOp34
 70
     0
102
RTVSPropertyOp35
 70
     0
102
RTVSPropertyOp36
 70
     0
102
RTVSPropertyOp37
 70
     0
102
RTVSPropertyOp38
 70
     0
102
RTVSPropertyOp39
 70
     0
102
RTVSPropertyOp40
 70
     0
102
RTVSPropertyOp41
 70
     0
102
RTVSPropertyOp42
 70
     0
102
RTVSPropertyOp43
 70
     0
102
RTVSPropertyOp44
 70
     0
102
RTVSPropertyOp45
 70
     0
102
RTVSPropertyOp46
 70
     0
102
RTVSPropertyOp47
 70
     0
102
RTVSPropertyOp48
 70
     0
102
RTVSPropertyOp49
 70
     0
102
RTVSPropertyOp50
 70
     0
102
RTVSPropertyOp51
 70
     0
102
RTVSPropertyOp52
 70
     0
102
RTVSPropertyOp53
 70
     0
102
RTVSPropertyOp54
 70
     0
102
RTVSPropertyOp55
 70
     0
102
RTVSPropertyOp56
 70
     0
102
RTVSPropertyOp57
 70
     0
102
RTVSPropertyOp58
 70
     1
102
RTVSPropertyOp59
 70
     1
102
RTVSPropertyOp60
 70
     1
102
RTVSPropertyOp61
 70
     1
102
RTVSPropertyOp62
 70
     1
  0
XRECORD
  5
1F30B
102
{ACAD_REACTORS
330
1F30A
102
}
330
1F30A
100
AcDbXrecord
280
     1
102
RTVSPost2010Prop28
280
     0
102
RTVSPost2010PropOp28
 70
     1
102
RTVSPost2010Prop29
280
     1
102
RTVSPost2010PropOp29
 70
     1
102
RTVSPost2010Prop30
280
     1
102
RTVSPost2010PropOp30
 70
     1
102
RTVSPost2010Prop31
280
     0
102
RTVSPost2010PropOp31
 70
     1
102
RTVSPost2010Prop32
280
     0
102
RTVSPost2010PropOp32
 70
     1
102
RTVSPost2010Prop33
280
     0
102
RTVSPost2010PropOp33
 70
     1
102
RTVSPost2010Prop34
280
     0
102
RTVSPost2010PropOp34
 70
     1
102
RTVSPost2010Prop35
280
     0
102
RTVSPost2010PropOp35
 70
     1
102
RTVSPost2010Prop36
280
     0
102
RTVSPost2010PropOp36
 70
     1
102
RTVSPost2010Prop37
 90
       50
102
RTVSPost2010PropOp37
 70
     1
102
RTVSPost2010Prop38
140
0.0
102
RTVSPost2010PropOp38
 70
     1
102
RTVSPost2010Prop39
140
1.0
102
RTVSPost2010PropOp39
 70
     1
102
RTVSPost2010Prop40
 90
        0
102
RTVSPost2010PropOp40
 70
     1
102
RTVSPost2010Prop41ColorIndex
 90
       18
102
RTVSPost2010Prop41ColorRGB
 90
        0
102
RTVSPost2010PropOp41
 70
     1
102
RTVSPost2010Prop42
 90
       50
102
RTVSPost2010PropOp42
 70
     1
102
RTVSPost2010Prop43
 90
        3
102
RTVSPost2010PropOp43
 70
     1
102
RTVSPost2010Prop44ColorIndex
 90
        5
102
RTVSPost2010Prop44ColorRGB
 90
      255
102
RTVSPost2010PropOp44
 70
     1
102
RTVSPost2010Prop45
280
     0
102
RTVSPost2010PropOp45
 70
     1
102
RTVSPost2010Prop46
 90
       50
102
RTVSPost2010PropOp46
 70
     1
102
RTVSPost2010Prop47
 90
       50
102
RTVSPost2010PropOp47
 70
     1
102
RTVSPost2010Prop48
 90
       50
102
RTVSPost2010PropOp48
 70
     1
102
RTVSPost2010Prop49
280
     0
102
RTVSPost2010PropOp49
 70
     1
102
RTVSPost2010Prop50
 90
       50
102
RTVSPost2010PropOp50
 70
     1
102
RTVSPost2010Prop51ColorIndex
 90
      256
102
RTVSPost2010Prop51ColorRGB
 90
-16777216
102
RTVSPost2010PropOp51
 70
     0
102
RTVSPost2010Prop52
140
1.0
102
RTVSPost2010PropOp52
 70
     0
102
RTVSPost2010Prop53
 90
        2
102
RTVSPost2010PropOp53
 70
     1
102
RTVSPost2010Prop54
  1
strokes_ogs.tif
102
RTVSPost2010PropOp54
 70
     1
102
RTVSPost2010Prop55
280
     0
102
RTVSPost2010PropOp55
 70
     1
102
RTVSPost2010Prop56
140
1.0
102
RTVSPost2010PropOp56
 70
     1
102
RTVSPost2010Prop57
140
1.0
102
RTVSPost2010PropOp57
 70
     1
102
RTVSPropertyOp0
 70
     1
102
RTVSPropertyOp1
 70
     1
102
RTVSPropertyOp2
 70
     1
102
RTVSPropertyOp3
 70
     1
102
RTVSPropertyOp4
 70
     1
102
RTVSPropertyOp5
 70
     1
102
RTVSPropertyOp6
 70
     1
102
RTVSPropertyOp7
 70
     1
102
RTVSPropertyOp8
 70
     1
102
RTVSPropertyOp9
 70
     1
102
RTVSPropertyOp10
 70
     1
102
RTVSPropertyOp11
 70
     1
102
RTVSPropertyOp12
 70
     1
102
RTVSPropertyOp13
 70
     1
102
RTVSPropertyOp14
 70
     1
102
RTVSPropertyOp15
 70
     1
102
RTVSPropertyOp16
 70
     1
102
RTVSPropertyOp17
 70
     1
102
RTVSPropertyOp18
 70
     1
102
RTVSPropertyOp19
 70
     1
102
RTVSPropertyOp20
 70
     1
102
RTVSPropertyOp21
 70
     1
102
RTVSPropertyOp22
 70
     1
102
RTVSPropertyOp23
 70
     1
102
RTVSPropertyOp24
 70
     1
102
RTVSPropertyOp25
 70
     1
102
RTVSPropertyOp26
 70
     1
102
RTVSPropertyOp27
 70
     1
102
RTVSPropertyOp28
 70
     1
102
RTVSPropertyOp29
 70
     1
102
RTVSPropertyOp30
 70
     1
102
RTVSPropertyOp31
 70
     1
102
RTVSPropertyOp32
 70
     1
102
RTVSPropertyOp33
 70
     1
102
RTVSPropertyOp34
 70
     1
102
RTVSPropertyOp35
 70
     1
102
RTVSPropertyOp36
 70
     1
102
RTVSPropertyOp37
 70
     1
102
RTVSPropertyOp38
 70
     1
102
RTVSPropertyOp39
 70
     1
102
RTVSPropertyOp40
 70
     1
102
RTVSPropertyOp41
 70
     1
102
RTVSPropertyOp42
 70
     1
102
RTVSPropertyOp43
 70
     1
102
RTVSPropertyOp44
 70
     1
102
RTVSPropertyOp45
 70
     1
102
RTVSPropertyOp46
 70
     1
102
RTVSPropertyOp47
 70
     1
102
RTVSPropertyOp48
 70
     1
102
RTVSPropertyOp49
 70
     1
102
RTVSPropertyOp50
 70
     1
102
RTVSPropertyOp51
 70
     0
102
RTVSPropertyOp52
 70
     0
102
RTVSPropertyOp53
 70
     1
102
RTVSPropertyOp54
 70
     1
102
RTVSPropertyOp55
 70
     1
102
RTVSPropertyOp56
 70
     1
102
RTVSPropertyOp57
 70
     1
102
RTVSPropertyOp58
 70
     1
102
RTVSPropertyOp59
 70
     1
102
RTVSPropertyOp60
 70
     1
102
RTVSPropertyOp61
 70
     1
102
RTVSPropertyOp62
 70
     1
  0
XRECORD
  5
1F321
102
{ACAD_REACTORS
330
1F320
102
}
330
1F320
100
AcDbXrecord
280
     1
102
RTVSPost2010Prop28
280
     0
102
RTVSPost2010PropOp28
 70
     1
102
RTVSPost2010Prop29
280
     1
102
RTVSPost2010PropOp29
 70
     1
102
RTVSPost2010Prop30
280
     1
102
RTVSPost2010PropOp30
 70
     1
102
RTVSPost2010Prop31
280
     0
102
RTVSPost2010PropOp31
 70
     1
102
RTVSPost2010Prop32
280
     0
102
RTVSPost2010PropOp32
 70
     1
102
RTVSPost2010Prop33
280
     0
102
RTVSPost2010PropOp33
 70
     1
102
RTVSPost2010Prop34
280
     0
102
RTVSPost2010PropOp34
 70
     1
102
RTVSPost2010Prop35
280
     0
102
RTVSPost2010PropOp35
 70
     1
102
RTVSPost2010Prop36
280
     0
102
RTVSPost2010PropOp36
 70
     1
102
RTVSPost2010Prop37
 90
       50
102
RTVSPost2010PropOp37
 70
     1
102
RTVSPost2010Prop38
140
0.0
102
RTVSPost2010PropOp38
 70
     1
102
RTVSPost2010Prop39
140
1.0
102
RTVSPost2010PropOp39
 70
     1
102
RTVSPost2010Prop40
 90
        0
102
RTVSPost2010PropOp40
 70
     1
102
RTVSPost2010Prop41ColorIndex
 90
       18
102
RTVSPost2010Prop41ColorRGB
 90
        0
102
RTVSPost2010PropOp41
 70
     1
102
RTVSPost2010Prop42
 90
       50
102
RTVSPost2010PropOp42
 70
     1
102
RTVSPost2010Prop43
 90
        3
102
RTVSPost2010PropOp43
 70
     1
102
RTVSPost2010Prop44ColorIndex
 90
        5
102
RTVSPost2010Prop44ColorRGB
 90
      255
102
RTVSPost2010PropOp44
 70
     1
102
RTVSPost2010Prop45
280
     0
102
RTVSPost2010PropOp45
 70
     1
102
RTVSPost2010Prop46
 90
       50
102
RTVSPost2010PropOp46
 70
     1
102
RTVSPost2010Prop47
 90
       50
102
RTVSPost2010PropOp47
 70
     1
102
RTVSPost2010Prop48
 90
       50
102
RTVSPost2010PropOp48
 70
     1
102
RTVSPost2010Prop49
280
     0
102
RTVSPost2010PropOp49
 70
     1
102
RTVSPost2010Prop50
 90
       50
102
RTVSPost2010PropOp50
 70
     1
102
RTVSPost2010Prop51ColorIndex
 90
      256
102
RTVSPost2010Prop51ColorRGB
 90
-16777216
102
RTVSPost2010PropOp51
 70
     0
102
RTVSPost2010Prop52
140
1.0
102
RTVSPost2010PropOp52
 70
     0
102
RTVSPost2010Prop53
 90
        2
102
RTVSPost2010PropOp53
 70
     1
102
RTVSPost2010Prop54
  1
strokes_ogs.tif
102
RTVSPost2010PropOp54
 70
     1
102
RTVSPost2010Prop55
280
     0
102
RTVSPost2010PropOp55
 70
     1
102
RTVSPost2010Prop56
140
1.0
102
RTVSPost2010PropOp56
 70
     1
102
RTVSPost2010Prop57
140
1.0
102
RTVSPost2010PropOp57
 70
     1
102
RTVSPropertyOp0
 70
     1
102
RTVSPropertyOp1
 70
     1
102
RTVSPropertyOp2
 70
     1
102
RTVSPropertyOp3
 70
     1
102
RTVSPropertyOp4
 70
     1
102
RTVSPropertyOp5
 70
     1
102
RTVSPropertyOp6
 70
     1
102
RTVSPropertyOp7
 70
     1
102
RTVSPropertyOp8
 70
     1
102
RTVSPropertyOp9
 70
     1
102
RTVSPropertyOp10
 70
     1
102
RTVSPropertyOp11
 70
     1
102
RTVSPropertyOp12
 70
     1
102
RTVSPropertyOp13
 70
     1
102
RTVSPropertyOp14
 70
     1
102
RTVSPropertyOp15
 70
     1
102
RTVSPropertyOp16
 70
     1
102
RTVSPropertyOp17
 70
     1
102
RTVSPropertyOp18
 70
     1
102
RTVSPropertyOp19
 70
     1
102
RTVSPropertyOp20
 70
     1
102
RTVSPropertyOp21
 70
     1
102
RTVSPropertyOp22
 70
     1
102
RTVSPropertyOp23
 70
     1
102
RTVSPropertyOp24
 70
     1
102
RTVSPropertyOp25
 70
     1
102
RTVSPropertyOp26
 70
     1
102
RTVSPropertyOp27
 70
     1
102
RTVSPropertyOp28
 70
     1
102
RTVSPropertyOp29
 70
     1
102
RTVSPropertyOp30
 70
     1
102
RTVSPropertyOp31
 70
     1
102
RTVSPropertyOp32
 70
     1
102
RTVSPropertyOp33
 70
     1
102
RTVSPropertyOp34
 70
     1
102
RTVSPropertyOp35
 70
     1
102
RTVSPropertyOp36
 70
     1
102
RTVSPropertyOp37
 70
     1
102
RTVSPropertyOp38
 70
     1
102
RTVSPropertyOp39
 70
     1
102
RTVSPropertyOp40
 70
     1
102
RTVSPropertyOp41
 70
     1
102
RTVSPropertyOp42
 70
     1
102
RTVSPropertyOp43
 70
     1
102
RTVSPropertyOp44
 70
     1
102
RTVSPropertyOp45
 70
     1
102
RTVSPropertyOp46
 70
     1
102
RTVSPropertyOp47
 70
     1
102
RTVSPropertyOp48
 70
     1
102
RTVSPropertyOp49
 70
     1
102
RTVSPropertyOp50
 70
     1
102
RTVSPropertyOp51
 70
     0
102
RTVSPropertyOp52
 70
     0
102
RTVSPropertyOp53
 70
     1
102
RTVSPropertyOp54
 70
     1
102
RTVSPropertyOp55
 70
     1
102
RTVSPropertyOp56
 70
     1
102
RTVSPropertyOp57
 70
     1
102
RTVSPropertyOp58
 70
     1
102
RTVSPropertyOp59
 70
     1
102
RTVSPropertyOp60
 70
     1
102
RTVSPropertyOp61
 70
     1
102
RTVSPropertyOp62
 70
     1
  0
XRECORD
  5
1F31F
102
{ACAD_REACTORS
330
1F31E
102
}
330
1F31E
100
AcDbXrecord
280
     1
102
RTVSPost2010Prop28
280
     0
102
RTVSPost2010PropOp28
 70
     1
102
RTVSPost2010Prop29
280
     1
102
RTVSPost2010PropOp29
 70
     1
102
RTVSPost2010Prop30
280
     1
102
RTVSPost2010PropOp30
 70
     1
102
RTVSPost2010Prop31
280
     0
102
RTVSPost2010PropOp31
 70
     1
102
RTVSPost2010Prop32
280
     0
102
RTVSPost2010PropOp32
 70
     1
102
RTVSPost2010Prop33
280
     0
102
RTVSPost2010PropOp33
 70
     1
102
RTVSPost2010Prop34
280
     0
102
RTVSPost2010PropOp34
 70
     1
102
RTVSPost2010Prop35
280
     0
102
RTVSPost2010PropOp35
 70
     1
102
RTVSPost2010Prop36
280
     0
102
RTVSPost2010PropOp36
 70
     1
102
RTVSPost2010Prop37
 90
       50
102
RTVSPost2010PropOp37
 70
     1
102
RTVSPost2010Prop38
140
0.0
102
RTVSPost2010PropOp38
 70
     1
102
RTVSPost2010Prop39
140
1.0
102
RTVSPost2010PropOp39
 70
     1
102
RTVSPost2010Prop40
 90
        0
102
RTVSPost2010PropOp40
 70
     1
102
RTVSPost2010Prop41ColorIndex
 90
       18
102
RTVSPost2010Prop41ColorRGB
 90
        0
102
RTVSPost2010PropOp41
 70
     1
102
RTVSPost2010Prop42
 90
       50
102
RTVSPost2010PropOp42
 70
     1
102
RTVSPost2010Prop43
 90
        3
102
RTVSPost2010PropOp43
 70
     1
102
RTVSPost2010Prop44ColorIndex
 90
        5
102
RTVSPost2010Prop44ColorRGB
 90
      255
102
RTVSPost2010PropOp44
 70
     1
102
RTVSPost2010Prop45
280
     0
102
RTVSPost2010PropOp45
 70
     1
102
RTVSPost2010Prop46
 90
       50
102
RTVSPost2010PropOp46
 70
     1
102
RTVSPost2010Prop47
 90
       50
102
RTVSPost2010PropOp47
 70
     1
102
RTVSPost2010Prop48
 90
       50
102
RTVSPost2010PropOp48
 70
     1
102
RTVSPost2010Prop49
280
     0
102
RTVSPost2010PropOp49
 70
     1
102
RTVSPost2010Prop50
 90
       50
102
RTVSPost2010PropOp50
 70
     1
102
RTVSPost2010Prop51ColorIndex
 90
      256
102
RTVSPost2010Prop51ColorRGB
 90
-16777216
102
RTVSPost2010PropOp51
 70
     0
102
RTVSPost2010Prop52
140
1.0
102
RTVSPost2010PropOp52
 70
     0
102
RTVSPost2010Prop53
 90
        2
102
RTVSPost2010PropOp53
 70
     1
102
RTVSPost2010Prop54
  1
strokes_ogs.tif
102
RTVSPost2010PropOp54
 70
     1
102
RTVSPost2010Prop55
280
     0
102
RTVSPost2010PropOp55
 70
     1
102
RTVSPost2010Prop56
140
1.0
102
RTVSPost2010PropOp56
 70
     1
102
RTVSPost2010Prop57
140
1.0
102
RTVSPost2010PropOp57
 70
     1
102
RTVSPropertyOp0
 70
     1
102
RTVSPropertyOp1
 70
     1
102
RTVSPropertyOp2
 70
     1
102
RTVSPropertyOp3
 70
     1
102
RTVSPropertyOp4
 70
     1
102
RTVSPropertyOp5
 70
     1
102
RTVSPropertyOp6
 70
     1
102
RTVSPropertyOp7
 70
     1
102
RTVSPropertyOp8
 70
     1
102
RTVSPropertyOp9
 70
     1
102
RTVSPropertyOp10
 70
     1
102
RTVSPropertyOp11
 70
     1
102
RTVSPropertyOp12
 70
     1
102
RTVSPropertyOp13
 70
     1
102
RTVSPropertyOp14
 70
     1
102
RTVSPropertyOp15
 70
     1
102
RTVSPropertyOp16
 70
     1
102
RTVSPropertyOp17
 70
     1
102
RTVSPropertyOp18
 70
     1
102
RTVSPropertyOp19
 70
     1
102
RTVSPropertyOp20
 70
     1
102
RTVSPropertyOp21
 70
     1
102
RTVSPropertyOp22
 70
     1
102
RTVSPropertyOp23
 70
     1
102
RTVSPropertyOp24
 70
     1
102
RTVSPropertyOp25
 70
     1
102
RTVSPropertyOp26
 70
     1
102
RTVSPropertyOp27
 70
     1
102
RTVSPropertyOp28
 70
     1
102
RTVSPropertyOp29
 70
     1
102
RTVSPropertyOp30
 70
     1
102
RTVSPropertyOp31
 70
     1
102
RTVSPropertyOp32
 70
     1
102
RTVSPropertyOp33
 70
     1
102
RTVSPropertyOp34
 70
     1
102
RTVSPropertyOp35
 70
     1
102
RTVSPropertyOp36
 70
     1
102
RTVSPropertyOp37
 70
     1
102
RTVSPropertyOp38
 70
     1
102
RTVSPropertyOp39
 70
     1
102
RTVSPropertyOp40
 70
     1
102
RTVSPropertyOp41
 70
     1
102
RTVSPropertyOp42
 70
     1
102
RTVSPropertyOp43
 70
     1
102
RTVSPropertyOp44
 70
     1
102
RTVSPropertyOp45
 70
     1
102
RTVSPropertyOp46
 70
     1
102
RTVSPropertyOp47
 70
     1
102
RTVSPropertyOp48
 70
     1
102
RTVSPropertyOp49
 70
     1
102
RTVSPropertyOp50
 70
     1
102
RTVSPropertyOp51
 70
     0
102
RTVSPropertyOp52
 70
     0
102
RTVSPropertyOp53
 70
     1
102
RTVSPropertyOp54
 70
     1
102
RTVSPropertyOp55
 70
     1
102
RTVSPropertyOp56
 70
     1
102
RTVSPropertyOp57
 70
     1
102
RTVSPropertyOp58
 70
     1
102
RTVSPropertyOp59
 70
     1
102
RTVSPropertyOp60
 70
     1
102
RTVSPropertyOp61
 70
     1
102
RTVSPropertyOp62
 70
     1
  0
XRECORD
  5
1F319
102
{ACAD_REACTORS
330
1F318
102
}
330
1F318
100
AcDbXrecord
280
     1
102
RTVSPost2010Prop28
280
     0
102
RTVSPost2010PropOp28
 70
     1
102
RTVSPost2010Prop29
280
     1
102
RTVSPost2010PropOp29
 70
     1
102
RTVSPost2010Prop30
280
     1
102
RTVSPost2010PropOp30
 70
     1
102
RTVSPost2010Prop31
280
     0
102
RTVSPost2010PropOp31
 70
     1
102
RTVSPost2010Prop32
280
     0
102
RTVSPost2010PropOp32
 70
     1
102
RTVSPost2010Prop33
280
     0
102
RTVSPost2010PropOp33
 70
     1
102
RTVSPost2010Prop34
280
     0
102
RTVSPost2010PropOp34
 70
     1
102
RTVSPost2010Prop35
280
     0
102
RTVSPost2010PropOp35
 70
     1
102
RTVSPost2010Prop36
280
     0
102
RTVSPost2010PropOp36
 70
     1
102
RTVSPost2010Prop37
 90
       50
102
RTVSPost2010PropOp37
 70
     1
102
RTVSPost2010Prop38
140
0.0
102
RTVSPost2010PropOp38
 70
     1
102
RTVSPost2010Prop39
140
1.0
102
RTVSPost2010PropOp39
 70
     1
102
RTVSPost2010Prop40
 90
        0
102
RTVSPost2010PropOp40
 70
     1
102
RTVSPost2010Prop41ColorIndex
 90
       18
102
RTVSPost2010Prop41ColorRGB
 90
        0
102
RTVSPost2010PropOp41
 70
     1
102
RTVSPost2010Prop42
 90
       50
102
RTVSPost2010PropOp42
 70
     1
102
RTVSPost2010Prop43
 90
        3
102
RTVSPost2010PropOp43
 70
     1
102
RTVSPost2010Prop44ColorIndex
 90
        5
102
RTVSPost2010Prop44ColorRGB
 90
      255
102
RTVSPost2010PropOp44
 70
     1
102
RTVSPost2010Prop45
280
     0
102
RTVSPost2010PropOp45
 70
     1
102
RTVSPost2010Prop46
 90
       50
102
RTVSPost2010PropOp46
 70
     1
102
RTVSPost2010Prop47
 90
       50
102
RTVSPost2010PropOp47
 70
     1
102
RTVSPost2010Prop48
 90
       50
102
RTVSPost2010PropOp48
 70
     1
102
RTVSPost2010Prop49
280
     0
102
RTVSPost2010PropOp49
 70
     1
102
RTVSPost2010Prop50
 90
       50
102
RTVSPost2010PropOp50
 70
     1
102
RTVSPost2010Prop51ColorIndex
 90
      256
102
RTVSPost2010Prop51ColorRGB
 90
-16777216
102
RTVSPost2010PropOp51
 70
     0
102
RTVSPost2010Prop52
140
1.0
102
RTVSPost2010PropOp52
 70
     0
102
RTVSPost2010Prop53
 90
        2
102
RTVSPost2010PropOp53
 70
     1
102
RTVSPost2010Prop54
  1
strokes_ogs.tif
102
RTVSPost2010PropOp54
 70
     1
102
RTVSPost2010Prop55
280
     0
102
RTVSPost2010PropOp55
 70
     1
102
RTVSPost2010Prop56
140
1.0
102
RTVSPost2010PropOp56
 70
     1
102
RTVSPost2010Prop57
140
1.0
102
RTVSPost2010PropOp57
 70
     1
102
RTVSPropertyOp0
 70
     1
102
RTVSPropertyOp1
 70
     1
102
RTVSPropertyOp2
 70
     1
102
RTVSPropertyOp3
 70
     1
102
RTVSPropertyOp4
 70
     1
102
RTVSPropertyOp5
 70
     1
102
RTVSPropertyOp6
 70
     1
102
RTVSPropertyOp7
 70
     1
102
RTVSPropertyOp8
 70
     1
102
RTVSPropertyOp9
 70
     1
102
RTVSPropertyOp10
 70
     1
102
RTVSPropertyOp11
 70
     1
102
RTVSPropertyOp12
 70
     1
102
RTVSPropertyOp13
 70
     1
102
RTVSPropertyOp14
 70
     1
102
RTVSPropertyOp15
 70
     1
102
RTVSPropertyOp16
 70
     1
102
RTVSPropertyOp17
 70
     1
102
RTVSPropertyOp18
 70
     1
102
RTVSPropertyOp19
 70
     1
102
RTVSPropertyOp20
 70
     1
102
RTVSPropertyOp21
 70
     1
102
RTVSPropertyOp22
 70
     1
102
RTVSPropertyOp23
 70
     1
102
RTVSPropertyOp24
 70
     1
102
RTVSPropertyOp25
 70
     1
102
RTVSPropertyOp26
 70
     1
102
RTVSPropertyOp27
 70
     1
102
RTVSPropertyOp28
 70
     1
102
RTVSPropertyOp29
 70
     1
102
RTVSPropertyOp30
 70
     1
102
RTVSPropertyOp31
 70
     1
102
RTVSPropertyOp32
 70
     1
102
RTVSPropertyOp33
 70
     1
102
RTVSPropertyOp34
 70
     1
102
RTVSPropertyOp35
 70
     1
102
RTVSPropertyOp36
 70
     1
102
RTVSPropertyOp37
 70
     1
102
RTVSPropertyOp38
 70
     1
102
RTVSPropertyOp39
 70
     1
102
RTVSPropertyOp40
 70
     1
102
RTVSPropertyOp41
 70
     1
102
RTVSPropertyOp42
 70
     1
102
RTVSPropertyOp43
 70
     1
102
RTVSPropertyOp44
 70
     1
102
RTVSPropertyOp45
 70
     1
102
RTVSPropertyOp46
 70
     1
102
RTVSPropertyOp47
 70
     1
102
RTVSPropertyOp48
 70
     1
102
RTVSPropertyOp49
 70
     1
102
RTVSPropertyOp50
 70
     1
102
RTVSPropertyOp51
 70
     0
102
RTVSPropertyOp52
 70
     0
102
RTVSPropertyOp53
 70
     1
102
RTVSPropertyOp54
 70
     1
102
RTVSPropertyOp55
 70
     1
102
RTVSPropertyOp56
 70
     1
102
RTVSPropertyOp57
 70
     1
102
RTVSPropertyOp58
 70
     1
102
RTVSPropertyOp59
 70
     1
102
RTVSPropertyOp60
 70
     1
102
RTVSPropertyOp61
 70
     1
102
RTVSPropertyOp62
 70
     1
  0
XRECORD
  5
1F31B
102
{ACAD_REACTORS
330
1F31A
102
}
330
1F31A
100
AcDbXrecord
280
     1
102
RTVSPost2010Prop28
280
     0
102
RTVSPost2010PropOp28
 70
     1
102
RTVSPost2010Prop29
280
     1
102
RTVSPost2010PropOp29
 70
     1
102
RTVSPost2010Prop30
280
     1
102
RTVSPost2010PropOp30
 70
     1
102
RTVSPost2010Prop31
280
     0
102
RTVSPost2010PropOp31
 70
     1
102
RTVSPost2010Prop32
280
     0
102
RTVSPost2010PropOp32
 70
     1
102
RTVSPost2010Prop33
280
     0
102
RTVSPost2010PropOp33
 70
     1
102
RTVSPost2010Prop34
280
     0
102
RTVSPost2010PropOp34
 70
     1
102
RTVSPost2010Prop35
280
     0
102
RTVSPost2010PropOp35
 70
     1
102
RTVSPost2010Prop36
280
     0
102
RTVSPost2010PropOp36
 70
     1
102
RTVSPost2010Prop37
 90
       50
102
RTVSPost2010PropOp37
 70
     1
102
RTVSPost2010Prop38
140
0.0
102
RTVSPost2010PropOp38
 70
     1
102
RTVSPost2010Prop39
140
1.0
102
RTVSPost2010PropOp39
 70
     1
102
RTVSPost2010Prop40
 90
        0
102
RTVSPost2010PropOp40
 70
     1
102
RTVSPost2010Prop41ColorIndex
 90
       18
102
RTVSPost2010Prop41ColorRGB
 90
        0
102
RTVSPost2010PropOp41
 70
     1
102
RTVSPost2010Prop42
 90
       50
102
RTVSPost2010PropOp42
 70
     1
102
RTVSPost2010Prop43
 90
        3
102
RTVSPost2010PropOp43
 70
     1
102
RTVSPost2010Prop44ColorIndex
 90
        5
102
RTVSPost2010Prop44ColorRGB
 90
      255
102
RTVSPost2010PropOp44
 70
     1
102
RTVSPost2010Prop45
280
     0
102
RTVSPost2010PropOp45
 70
     1
102
RTVSPost2010Prop46
 90
       50
102
RTVSPost2010PropOp46
 70
     1
102
RTVSPost2010Prop47
 90
       50
102
RTVSPost2010PropOp47
 70
     1
102
RTVSPost2010Prop48
 90
       50
102
RTVSPost2010PropOp48
 70
     1
102
RTVSPost2010Prop49
280
     0
102
RTVSPost2010PropOp49
 70
     1
102
RTVSPost2010Prop50
 90
       50
102
RTVSPost2010PropOp50
 70
     1
102
RTVSPost2010Prop51ColorIndex
 90
      256
102
RTVSPost2010Prop51ColorRGB
 90
-16777216
102
RTVSPost2010PropOp51
 70
     0
102
RTVSPost2010Prop52
140
1.0
102
RTVSPost2010PropOp52
 70
     0
102
RTVSPost2010Prop53
 90
        2
102
RTVSPost2010PropOp53
 70
     1
102
RTVSPost2010Prop54
  1
strokes_ogs.tif
102
RTVSPost2010PropOp54
 70
     1
102
RTVSPost2010Prop55
280
     0
102
RTVSPost2010PropOp55
 70
     1
102
RTVSPost2010Prop56
140
1.0
102
RTVSPost2010PropOp56
 70
     1
102
RTVSPost2010Prop57
140
1.0
102
RTVSPost2010PropOp57
 70
     1
102
RTVSPropertyOp0
 70
     1
102
RTVSPropertyOp1
 70
     1
102
RTVSPropertyOp2
 70
     1
102
RTVSPropertyOp3
 70
     1
102
RTVSPropertyOp4
 70
     1
102
RTVSPropertyOp5
 70
     1
102
RTVSPropertyOp6
 70
     1
102
RTVSPropertyOp7
 70
     1
102
RTVSPropertyOp8
 70
     1
102
RTVSPropertyOp9
 70
     1
102
RTVSPropertyOp10
 70
     1
102
RTVSPropertyOp11
 70
     1
102
RTVSPropertyOp12
 70
     1
102
RTVSPropertyOp13
 70
     1
102
RTVSPropertyOp14
 70
     1
102
RTVSPropertyOp15
 70
     1
102
RTVSPropertyOp16
 70
     1
102
RTVSPropertyOp17
 70
     1
102
RTVSPropertyOp18
 70
     1
102
RTVSPropertyOp19
 70
     1
102
RTVSPropertyOp20
 70
     1
102
RTVSPropertyOp21
 70
     1
102
RTVSPropertyOp22
 70
     1
102
RTVSPropertyOp23
 70
     1
102
RTVSPropertyOp24
 70
     1
102
RTVSPropertyOp25
 70
     1
102
RTVSPropertyOp26
 70
     1
102
RTVSPropertyOp27
 70
     1
102
RTVSPropertyOp28
 70
     1
102
RTVSPropertyOp29
 70
     1
102
RTVSPropertyOp30
 70
     1
102
RTVSPropertyOp31
 70
     1
102
RTVSPropertyOp32
 70
     1
102
RTVSPropertyOp33
 70
     1
102
RTVSPropertyOp34
 70
     1
102
RTVSPropertyOp35
 70
     1
102
RTVSPropertyOp36
 70
     1
102
RTVSPropertyOp37
 70
     1
102
RTVSPropertyOp38
 70
     1
102
RTVSPropertyOp39
 70
     1
102
RTVSPropertyOp40
 70
     1
102
RTVSPropertyOp41
 70
     1
102
RTVSPropertyOp42
 70
     1
102
RTVSPropertyOp43
 70
     1
102
RTVSPropertyOp44
 70
     1
102
RTVSPropertyOp45
 70
     1
102
RTVSPropertyOp46
 70
     1
102
RTVSPropertyOp47
 70
     1
102
RTVSPropertyOp48
 70
     1
102
RTVSPropertyOp49
 70
     1
102
RTVSPropertyOp50
 70
     1
102
RTVSPropertyOp51
 70
     0
102
RTVSPropertyOp52
 70
     0
102
RTVSPropertyOp53
 70
     1
102
RTVSPropertyOp54
 70
     1
102
RTVSPropertyOp55
 70
     1
102
RTVSPropertyOp56
 70
     1
102
RTVSPropertyOp57
 70
     1
102
RTVSPropertyOp58
 70
     1
102
RTVSPropertyOp59
 70
     1
102
RTVSPropertyOp60
 70
     1
102
RTVSPropertyOp61
 70
     1
102
RTVSPropertyOp62
 70
     1
  0
XRECORD
  5
1F311
102
{ACAD_REACTORS
330
1F310
102
}
330
1F310
100
AcDbXrecord
280
     1
102
RTVSPost2010Prop28
280
     0
102
RTVSPost2010PropOp28
 70
     1
102
RTVSPost2010Prop29
280
     1
102
RTVSPost2010PropOp29
 70
     1
102
RTVSPost2010Prop30
280
     1
102
RTVSPost2010PropOp30
 70
     1
102
RTVSPost2010Prop31
280
     0
102
RTVSPost2010PropOp31
 70
     1
102
RTVSPost2010Prop32
280
     0
102
RTVSPost2010PropOp32
 70
     1
102
RTVSPost2010Prop33
280
     0
102
RTVSPost2010PropOp33
 70
     1
102
RTVSPost2010Prop34
280
     0
102
RTVSPost2010PropOp34
 70
     1
102
RTVSPost2010Prop35
280
     0
102
RTVSPost2010PropOp35
 70
     1
102
RTVSPost2010Prop36
280
     0
102
RTVSPost2010PropOp36
 70
     1
102
RTVSPost2010Prop37
 90
       50
102
RTVSPost2010PropOp37
 70
     1
102
RTVSPost2010Prop38
140
0.0
102
RTVSPost2010PropOp38
 70
     1
102
RTVSPost2010Prop39
140
1.0
102
RTVSPost2010PropOp39
 70
     1
102
RTVSPost2010Prop40
 90
        0
102
RTVSPost2010PropOp40
 70
     1
102
RTVSPost2010Prop41ColorIndex
 90
       18
102
RTVSPost2010Prop41ColorRGB
 90
        0
102
RTVSPost2010PropOp41
 70
     1
102
RTVSPost2010Prop42
 90
       50
102
RTVSPost2010PropOp42
 70
     1
102
RTVSPost2010Prop43
 90
        3
102
RTVSPost2010PropOp43
 70
     1
102
RTVSPost2010Prop44ColorIndex
 90
        5
102
RTVSPost2010Prop44ColorRGB
 90
      255
102
RTVSPost2010PropOp44
 70
     1
102
RTVSPost2010Prop45
280
     0
102
RTVSPost2010PropOp45
 70
     1
102
RTVSPost2010Prop46
 90
       50
102
RTVSPost2010PropOp46
 70
     1
102
RTVSPost2010Prop47
 90
       50
102
RTVSPost2010PropOp47
 70
     1
102
RTVSPost2010Prop48
 90
       50
102
RTVSPost2010PropOp48
 70
     1
102
RTVSPost2010Prop49
280
     0
102
RTVSPost2010PropOp49
 70
     1
102
RTVSPost2010Prop50
 90
       50
102
RTVSPost2010PropOp50
 70
     1
102
RTVSPost2010Prop51ColorIndex
 90
      256
102
RTVSPost2010Prop51ColorRGB
 90
-16777216
102
RTVSPost2010PropOp51
 70
     0
102
RTVSPost2010Prop52
140
1.0
102
RTVSPost2010PropOp52
 70
     0
102
RTVSPost2010Prop53
 90
        2
102
RTVSPost2010PropOp53
 70
     1
102
RTVSPost2010Prop54
  1
strokes_ogs.tif
102
RTVSPost2010PropOp54
 70
     1
102
RTVSPost2010Prop55
280
     0
102
RTVSPost2010PropOp55
 70
     1
102
RTVSPost2010Prop56
140
1.0
102
RTVSPost2010PropOp56
 70
     1
102
RTVSPost2010Prop57
140
1.0
102
RTVSPost2010PropOp57
 70
     1
102
RTVSPropertyOp0
 70
     1
102
RTVSPropertyOp1
 70
     1
102
RTVSPropertyOp2
 70
     1
102
RTVSPropertyOp3
 70
     1
102
RTVSPropertyOp4
 70
     1
102
RTVSPropertyOp5
 70
     1
102
RTVSPropertyOp6
 70
     1
102
RTVSPropertyOp7
 70
     1
102
RTVSPropertyOp8
 70
     1
102
RTVSPropertyOp9
 70
     1
102
RTVSPropertyOp10
 70
     1
102
RTVSPropertyOp11
 70
     1
102
RTVSPropertyOp12
 70
     1
102
RTVSPropertyOp13
 70
     1
102
RTVSPropertyOp14
 70
     1
102
RTVSPropertyOp15
 70
     1
102
RTVSPropertyOp16
 70
     1
102
RTVSPropertyOp17
 70
     1
102
RTVSPropertyOp18
 70
     1
102
RTVSPropertyOp19
 70
     1
102
RTVSPropertyOp20
 70
     1
102
RTVSPropertyOp21
 70
     1
102
RTVSPropertyOp22
 70
     1
102
RTVSPropertyOp23
 70
     1
102
RTVSPropertyOp24
 70
     1
102
RTVSPropertyOp25
 70
     1
102
RTVSPropertyOp26
 70
     1
102
RTVSPropertyOp27
 70
     1
102
RTVSPropertyOp28
 70
     1
102
RTVSPropertyOp29
 70
     1
102
RTVSPropertyOp30
 70
     1
102
RTVSPropertyOp31
 70
     1
102
RTVSPropertyOp32
 70
     1
102
RTVSPropertyOp33
 70
     1
102
RTVSPropertyOp34
 70
     1
102
RTVSPropertyOp35
 70
     1
102
RTVSPropertyOp36
 70
     1
102
RTVSPropertyOp37
 70
     1
102
RTVSPropertyOp38
 70
     1
102
RTVSPropertyOp39
 70
     1
102
RTVSPropertyOp40
 70
     1
102
RTVSPropertyOp41
 70
     1
102
RTVSPropertyOp42
 70
     1
102
RTVSPropertyOp43
 70
     1
102
RTVSPropertyOp44
 70
     1
102
RTVSPropertyOp45
 70
     1
102
RTVSPropertyOp46
 70
     1
102
RTVSPropertyOp47
 70
     1
102
RTVSPropertyOp48
 70
     1
102
RTVSPropertyOp49
 70
     1
102
RTVSPropertyOp50
 70
     1
102
RTVSPropertyOp51
 70
     0
102
RTVSPropertyOp52
 70
     0
102
RTVSPropertyOp53
 70
     1
102
RTVSPropertyOp54
 70
     1
102
RTVSPropertyOp55
 70
     1
102
RTVSPropertyOp56
 70
     1
102
RTVSPropertyOp57
 70
     1
102
RTVSPropertyOp58
 70
     1
102
RTVSPropertyOp59
 70
     1
102
RTVSPropertyOp60
 70
     1
102
RTVSPropertyOp61
 70
     1
102
RTVSPropertyOp62
 70
     1
  0
XRECORD
  5
1F305
102
{ACAD_REACTORS
330
1F304
102
}
330
1F304
100
AcDbXrecord
280
     1
102
RTVSPost2010Prop28
280
     0
102
RTVSPost2010PropOp28
 70
     1
102
RTVSPost2010Prop29
280
     1
102
RTVSPost2010PropOp29
 70
     1
102
RTVSPost2010Prop30
280
     1
102
RTVSPost2010PropOp30
 70
     1
102
RTVSPost2010Prop31
280
     0
102
RTVSPost2010PropOp31
 70
     1
102
RTVSPost2010Prop32
280
     0
102
RTVSPost2010PropOp32
 70
     1
102
RTVSPost2010Prop33
280
     0
102
RTVSPost2010PropOp33
 70
     1
102
RTVSPost2010Prop34
280
     0
102
RTVSPost2010PropOp34
 70
     1
102
RTVSPost2010Prop35
280
     0
102
RTVSPost2010PropOp35
 70
     1
102
RTVSPost2010Prop36
280
     0
102
RTVSPost2010PropOp36
 70
     1
102
RTVSPost2010Prop37
 90
       50
102
RTVSPost2010PropOp37
 70
     1
102
RTVSPost2010Prop38
140
0.0
102
RTVSPost2010PropOp38
 70
     1
102
RTVSPost2010Prop39
140
1.0
102
RTVSPost2010PropOp39
 70
     1
102
RTVSPost2010Prop40
 90
        0
102
RTVSPost2010PropOp40
 70
     1
102
RTVSPost2010Prop41ColorIndex
 90
       18
102
RTVSPost2010Prop41ColorRGB
 90
        0
102
RTVSPost2010PropOp41
 70
     1
102
RTVSPost2010Prop42
 90
       50
102
RTVSPost2010PropOp42
 70
     1
102
RTVSPost2010Prop43
 90
        3
102
RTVSPost2010PropOp43
 70
     1
102
RTVSPost2010Prop44ColorIndex
 90
        5
102
RTVSPost2010Prop44ColorRGB
 90
      255
102
RTVSPost2010PropOp44
 70
     1
102
RTVSPost2010Prop45
280
     0
102
RTVSPost2010PropOp45
 70
     1
102
RTVSPost2010Prop46
 90
       50
102
RTVSPost2010PropOp46
 70
     1
102
RTVSPost2010Prop47
 90
       50
102
RTVSPost2010PropOp47
 70
     1
102
RTVSPost2010Prop48
 90
       50
102
RTVSPost2010PropOp48
 70
     1
102
RTVSPost2010Prop49
280
     0
102
RTVSPost2010PropOp49
 70
     1
102
RTVSPost2010Prop50
 90
       50
102
RTVSPost2010PropOp50
 70
     1
102
RTVSPost2010Prop51ColorIndex
 90
      256
102
RTVSPost2010Prop51ColorRGB
 90
-16777216
102
RTVSPost2010PropOp51
 70
     0
102
RTVSPost2010Prop52
140
1.0
102
RTVSPost2010PropOp52
 70
     0
102
RTVSPost2010Prop53
 90
        2
102
RTVSPost2010PropOp53
 70
     1
102
RTVSPost2010Prop54
  1
strokes_ogs.tif
102
RTVSPost2010PropOp54
 70
     1
102
RTVSPost2010Prop55
280
     0
102
RTVSPost2010PropOp55
 70
     1
102
RTVSPost2010Prop56
140
1.0
102
RTVSPost2010PropOp56
 70
     1
102
RTVSPost2010Prop57
140
1.0
102
RTVSPost2010PropOp57
 70
     1
102
RTVSPropertyOp0
 70
     1
102
RTVSPropertyOp1
 70
     1
102
RTVSPropertyOp2
 70
     1
102
RTVSPropertyOp3
 70
     1
102
RTVSPropertyOp4
 70
     1
102
RTVSPropertyOp5
 70
     1
102
RTVSPropertyOp6
 70
     1
102
RTVSPropertyOp7
 70
     1
102
RTVSPropertyOp8
 70
     1
102
RTVSPropertyOp9
 70
     1
102
RTVSPropertyOp10
 70
     1
102
RTVSPropertyOp11
 70
     1
102
RTVSPropertyOp12
 70
     1
102
RTVSPropertyOp13
 70
     1
102
RTVSPropertyOp14
 70
     1
102
RTVSPropertyOp15
 70
     1
102
RTVSPropertyOp16
 70
     1
102
RTVSPropertyOp17
 70
     1
102
RTVSPropertyOp18
 70
     1
102
RTVSPropertyOp19
 70
     1
102
RTVSPropertyOp20
 70
     1
102
RTVSPropertyOp21
 70
     1
102
RTVSPropertyOp22
 70
     1
102
RTVSPropertyOp23
 70
     1
102
RTVSPropertyOp24
 70
     1
102
RTVSPropertyOp25
 70
     1
102
RTVSPropertyOp26
 70
     1
102
RTVSPropertyOp27
 70
     1
102
RTVSPropertyOp28
 70
     1
102
RTVSPropertyOp29
 70
     1
102
RTVSPropertyOp30
 70
     1
102
RTVSPropertyOp31
 70
     1
102
RTVSPropertyOp32
 70
     1
102
RTVSPropertyOp33
 70
     1
102
RTVSPropertyOp34
 70
     1
102
RTVSPropertyOp35
 70
     1
102
RTVSPropertyOp36
 70
     1
102
RTVSPropertyOp37
 70
     1
102
RTVSPropertyOp38
 70
     1
102
RTVSPropertyOp39
 70
     1
102
RTVSPropertyOp40
 70
     1
102
RTVSPropertyOp41
 70
     1
102
RTVSPropertyOp42
 70
     1
102
RTVSPropertyOp43
 70
     1
102
RTVSPropertyOp44
 70
     1
102
RTVSPropertyOp45
 70
     1
102
RTVSPropertyOp46
 70
     1
102
RTVSPropertyOp47
 70
     1
102
RTVSPropertyOp48
 70
     1
102
RTVSPropertyOp49
 70
     1
102
RTVSPropertyOp50
 70
     1
102
RTVSPropertyOp51
 70
     0
102
RTVSPropertyOp52
 70
     0
102
RTVSPropertyOp53
 70
     1
102
RTVSPropertyOp54
 70
     1
102
RTVSPropertyOp55
 70
     1
102
RTVSPropertyOp56
 70
     1
102
RTVSPropertyOp57
 70
     1
102
RTVSPropertyOp58
 70
     1
102
RTVSPropertyOp59
 70
     1
102
RTVSPropertyOp60
 70
     1
102
RTVSPropertyOp61
 70
     1
102
RTVSPropertyOp62
 70
     1
  0
XRECORD
  5
1F31D
102
{ACAD_REACTORS
330
1F31C
102
}
330
1F31C
100
AcDbXrecord
280
     1
102
RTVSPost2010Prop28
280
     0
102
RTVSPost2010PropOp28
 70
     1
102
RTVSPost2010Prop29
280
     1
102
RTVSPost2010PropOp29
 70
     1
102
RTVSPost2010Prop30
280
     1
102
RTVSPost2010PropOp30
 70
     1
102
RTVSPost2010Prop31
280
     0
102
RTVSPost2010PropOp31
 70
     1
102
RTVSPost2010Prop32
280
     0
102
RTVSPost2010PropOp32
 70
     1
102
RTVSPost2010Prop33
280
     0
102
RTVSPost2010PropOp33
 70
     1
102
RTVSPost2010Prop34
280
     0
102
RTVSPost2010PropOp34
 70
     1
102
RTVSPost2010Prop35
280
     0
102
RTVSPost2010PropOp35
 70
     1
102
RTVSPost2010Prop36
280
     0
102
RTVSPost2010PropOp36
 70
     1
102
RTVSPost2010Prop37
 90
       50
102
RTVSPost2010PropOp37
 70
     1
102
RTVSPost2010Prop38
140
0.0
102
RTVSPost2010PropOp38
 70
     1
102
RTVSPost2010Prop39
140
1.0
102
RTVSPost2010PropOp39
 70
     1
102
RTVSPost2010Prop40
 90
        0
102
RTVSPost2010PropOp40
 70
     1
102
RTVSPost2010Prop41ColorIndex
 90
       18
102
RTVSPost2010Prop41ColorRGB
 90
        0
102
RTVSPost2010PropOp41
 70
     1
102
RTVSPost2010Prop42
 90
       50
102
RTVSPost2010PropOp42
 70
     1
102
RTVSPost2010Prop43
 90
        3
102
RTVSPost2010PropOp43
 70
     1
102
RTVSPost2010Prop44ColorIndex
 90
        5
102
RTVSPost2010Prop44ColorRGB
 90
      255
102
RTVSPost2010PropOp44
 70
     1
102
RTVSPost2010Prop45
280
     0
102
RTVSPost2010PropOp45
 70
     1
102
RTVSPost2010Prop46
 90
       50
102
RTVSPost2010PropOp46
 70
     1
102
RTVSPost2010Prop47
 90
       50
102
RTVSPost2010PropOp47
 70
     1
102
RTVSPost2010Prop48
 90
       50
102
RTVSPost2010PropOp48
 70
     1
102
RTVSPost2010Prop49
280
     0
102
RTVSPost2010PropOp49
 70
     1
102
RTVSPost2010Prop50
 90
       50
102
RTVSPost2010PropOp50
 70
     1
102
RTVSPost2010Prop51ColorIndex
 90
      256
102
RTVSPost2010Prop51ColorRGB
 90
-16777216
102
RTVSPost2010PropOp51
 70
     0
102
RTVSPost2010Prop52
140
1.0
102
RTVSPost2010PropOp52
 70
     0
102
RTVSPost2010Prop53
 90
        2
102
RTVSPost2010PropOp53
 70
     1
102
RTVSPost2010Prop54
  1
strokes_ogs.tif
102
RTVSPost2010PropOp54
 70
     1
102
RTVSPost2010Prop55
280
     0
102
RTVSPost2010PropOp55
 70
     1
102
RTVSPost2010Prop56
140
1.0
102
RTVSPost2010PropOp56
 70
     1
102
RTVSPost2010Prop57
140
1.0
102
RTVSPost2010PropOp57
 70
     1
102
RTVSPropertyOp0
 70
     1
102
RTVSPropertyOp1
 70
     1
102
RTVSPropertyOp2
 70
     1
102
RTVSPropertyOp3
 70
     1
102
RTVSPropertyOp4
 70
     1
102
RTVSPropertyOp5
 70
     1
102
RTVSPropertyOp6
 70
     1
102
RTVSPropertyOp7
 70
     1
102
RTVSPropertyOp8
 70
     1
102
RTVSPropertyOp9
 70
     1
102
RTVSPropertyOp10
 70
     1
102
RTVSPropertyOp11
 70
     1
102
RTVSPropertyOp12
 70
     1
102
RTVSPropertyOp13
 70
     1
102
RTVSPropertyOp14
 70
     1
102
RTVSPropertyOp15
 70
     1
102
RTVSPropertyOp16
 70
     1
102
RTVSPropertyOp17
 70
     1
102
RTVSPropertyOp18
 70
     1
102
RTVSPropertyOp19
 70
     1
102
RTVSPropertyOp20
 70
     1
102
RTVSPropertyOp21
 70
     1
102
RTVSPropertyOp22
 70
     1
102
RTVSPropertyOp23
 70
     1
102
RTVSPropertyOp24
 70
     1
102
RTVSPropertyOp25
 70
     1
102
RTVSPropertyOp26
 70
     1
102
RTVSPropertyOp27
 70
     1
102
RTVSPropertyOp28
 70
     1
102
RTVSPropertyOp29
 70
     1
102
RTVSPropertyOp30
 70
     1
102
RTVSPropertyOp31
 70
     1
102
RTVSPropertyOp32
 70
     1
102
RTVSPropertyOp33
 70
     1
102
RTVSPropertyOp34
 70
     1
102
RTVSPropertyOp35
 70
     1
102
RTVSPropertyOp36
 70
     1
102
RTVSPropertyOp37
 70
     1
102
RTVSPropertyOp38
 70
     1
102
RTVSPropertyOp39
 70
     1
102
RTVSPropertyOp40
 70
     1
102
RTVSPropertyOp41
 70
     1
102
RTVSPropertyOp42
 70
     1
102
RTVSPropertyOp43
 70
     1
102
RTVSPropertyOp44
 70
     1
102
RTVSPropertyOp45
 70
     1
102
RTVSPropertyOp46
 70
     1
102
RTVSPropertyOp47
 70
     1
102
RTVSPropertyOp48
 70
     1
102
RTVSPropertyOp49
 70
     1
102
RTVSPropertyOp50
 70
     1
102
RTVSPropertyOp51
 70
     0
102
RTVSPropertyOp52
 70
     0
102
RTVSPropertyOp53
 70
     1
102
RTVSPropertyOp54
 70
     1
102
RTVSPropertyOp55
 70
     1
102
RTVSPropertyOp56
 70
     1
102
RTVSPropertyOp57
 70
     1
102
RTVSPropertyOp58
 70
     1
102
RTVSPropertyOp59
 70
     1
102
RTVSPropertyOp60
 70
     1
102
RTVSPropertyOp61
 70
     1
102
RTVSPropertyOp62
 70
     1
  0
ENDSEC
  0
EOF
