  0
SECTION
  2
HEADER
  9
$ACADVER
  1
AC1018
  9
$ACADMAINTVER
 70
   104
  9
$DWGCODEPAGE
  3
ANSI_932
  9
$LASTSAVEDBY
  1
0803015
  9
$INSBASE
 10
0.0
 20
0.0
 30
0.0
  9
$EXTMIN
 10
-0.21894944
 20
-1.22064724
 30
0.0
  9
$EXTMAX
 10
27501.78785173
 20
20001.22083351
 30
0.0
  9
$LIMMIN
 10
0.0
 20
0.0
  9
$LIMMAX
 10
1189.0
 20
841.0
  9
$ORTHOMODE
 70
     1
  9
$REGENMODE
 70
     1
  9
$FILLMODE
 70
     1
  9
$QTEXTMODE
 70
     0
  9
$MIRRTEXT
 70
     0
  9
$LTSCALE
 40
1.0
  9
$ATTMODE
 70
     1
  9
$TEXTSIZE
 40
0.2
  9
$TRACEWID
 40
0.05
  9
$TEXTSTYLE
  7
STANDARD
  9
$CLAYER
  8
0
  9
$CELTYPE
  6
ByLayer
  9
$CECOLOR
 62
   256
  9
$CELTSCALE
 40
1.0
  9
$DISPSILH
 70
     1
  9
$DIMSCALE
 40
1.0
  9
$DIMASZ
 40
0.18
  9
$DIMEXO
 40
0.0625
  9
$DIMDLI
 40
0.38
  9
$DIMRND
 40
0.0
  9
$DIMDLE
 40
0.0
  9
$DIMEXE
 40
0.18
  9
$DIMTP
 40
0.0
  9
$DIMTM
 40
0.0
  9
$DIMTXT
 40
0.18
  9
$DIMCEN
 40
0.09
  9
$DIMTSZ
 40
0.0
  9
$DIMTOL
 70
     0
  9
$DIMLIM
 70
     0
  9
$DIMTIH
 70
     1
  9
$DIMTOH
 70
     1
  9
$DIMSE1
 70
     0
  9
$DIMSE2
 70
     0
  9
$DIMTAD
 70
     0
  9
$DIMZIN
 70
     0
  9
$DIMBLK
  1

  9
$DIMASO
 70
     1
  9
$DIMSHO
 70
     1
  9
$DIMPOST
  1

  9
$DIMAPOST
  1

  9
$DIMALT
 70
     0
  9
$DIMALTD
 70
     4
  9
$DIMALTF
 40
0.0394
  9
$DIMLFAC
 40
1.0
  9
$DIMTOFL
 70
     1
  9
$DIMTVP
 40
0.0
  9
$DIMTIX
 70
     0
  9
$DIMSOXD
 70
     0
  9
$DIMSAH
 70
     0
  9
$DIMBLK1
  1

  9
$DIMBLK2
  1

  9
$DIMSTYLE
  2
STANDARD
  9
$DIMCLRD
 70
     0
  9
$DIMCLRE
 70
     0
  9
$DIMCLRT
 70
     0
  9
$DIMTFAC
 40
1.0
  9
$DIMGAP
 40
0.625
  9
$DIMJUST
 70
     0
  9
$DIMSD1
 70
     0
  9
$DIMSD2
 70
     0
  9
$DIMTOLJ
 70
     1
  9
$DIMTZIN
 70
     0
  9
$DIMALTZ
 70
     0
  9
$DIMALTTZ
 70
     0
  9
$DIMUPT
 70
     0
  9
$DIMDEC
 70
     4
  9
$DIMTDEC
 70
     4
  9
$DIMALTU
 70
     2
  9
$DIMALTTD
 70
     4
  9
$DIMTXSTY
  7
STANDARD
  9
$DIMAUNIT
 70
     0
  9
$DIMADEC
 70
     0
  9
$DIMALTRND
 40
0.0
  9
$DIMAZIN
 70
     0
  9
$DIMDSEP
 70
    46
  9
$DIMATFIT
 70
     3
  9
$DIMFRAC
 70
     0
  9
$DIMLDRBLK
  1

  9
$DIMLUNIT
 70
     2
  9
$DIMLWD
 70
    -2
  9
$DIMLWE
 70
    -2
  9
$DIMTMOVE
 70
     2
  9
$LUNITS
 70
     2
  9
$LUPREC
 70
     4
  9
$SKETCHINC
 40
0.1
  9
$FILLETRAD
 40
0.0
  9
$AUNITS
 70
     0
  9
$AUPREC
 70
     0
  9
$MENU
  1
ACAD
  9
$ELEVATION
 40
0.0
  9
$PELEVATION
 40
0.0
  9
$THICKNESS
 40
0.0
  9
$LIMCHECK
 70
     0
  9
$CHAMFERA
 40
0.0
  9
$CHAMFERB
 40
0.0
  9
$CHAMFERC
 40
0.0
  9
$CHAMFERD
 40
0.0
  9
$SKPOLY
 70
     0
  9
$TDCREATE
 40
2456793.769872685
  9
$TDUCREATE
 40
2456793.394873322
  9
$TDUPDATE
 40
2459486.768136574
  9
$TDUUPDATE
 40
2459486.393136574
  9
$TDINDWG
 40
0.1741187500
  9
$TDUSRTIMER
 40
0.1741187500
  9
$USRTIMER
 70
     1
  9
$ANGBASE
 50
0.0
  9
$ANGDIR
 70
     0
  9
$PDMODE
 70
     0
  9
$PDSIZE
 40
0.0
  9
$PLINEWID
 40
0.0
  9
$SPLFRAME
 70
     0
  9
$SPLINETYPE
 70
     6
  9
$SPLINESEGS
 70
     8
  9
$HANDSEED
  5
B6E9
  9
$SURFTAB1
 70
     6
  9
$SURFTAB2
 70
     6
  9
$SURFTYPE
 70
     6
  9
$SURFU
 70
     6
  9
$SURFV
 70
     6
  9
$UCSBASE
  2

  9
$UCSNAME
  2

  9
$UCSORG
 10
0.0
 20
0.0
 30
0.0
  9
$UCSXDIR
 10
1.0
 20
0.0
 30
0.0
  9
$UCSYDIR
 10
0.0
 20
1.0
 30
0.0
  9
$UCSORTHOREF
  2

  9
$UCSORTHOVIEW
 70
     0
  9
$UCSORGTOP
 10
0.0
 20
0.0
 30
0.0
  9
$UCSORGBOTTOM
 10
0.0
 20
0.0
 30
0.0
  9
$UCSORGLEFT
 10
0.0
 20
0.0
 30
0.0
  9
$UCSORGRIGHT
 10
0.0
 20
0.0
 30
0.0
  9
$UCSORGFRONT
 10
0.0
 20
0.0
 30
0.0
  9
$UCSORGBACK
 10
0.0
 20
0.0
 30
0.0
  9
$PUCSBASE
  2

  9
$PUCSNAME
  2

  9
$PUCSORG
 10
0.0
 20
0.0
 30
0.0
  9
$PUCSXDIR
 10
1.0
 20
0.0
 30
0.0
  9
$PUCSYDIR
 10
0.0
 20
1.0
 30
0.0
  9
$PUCSORTHOREF
  2

  9
$PUCSORTHOVIEW
 70
     0
  9
$PUCSORGTOP
 10
0.0
 20
0.0
 30
0.0
  9
$PUCSORGBOTTOM
 10
0.0
 20
0.0
 30
0.0
  9
$PUCSORGLEFT
 10
0.0
 20
0.0
 30
0.0
  9
$PUCSORGRIGHT
 10
0.0
 20
0.0
 30
0.0
  9
$PUCSORGFRONT
 10
0.0
 20
0.0
 30
0.0
  9
$PUCSORGBACK
 10
0.0
 20
0.0
 30
0.0
  9
$USERI1
 70
     0
  9
$USERI2
 70
     0
  9
$USERI3
 70
     0
  9
$USERI4
 70
     0
  9
$USERI5
 70
     0
  9
$USERR1
 40
0.0
  9
$USERR2
 40
0.0
  9
$USERR3
 40
0.0
  9
$USERR4
 40
0.0
  9
$USERR5
 40
0.0
  9
$WORLDVIEW
 70
     1
  9
$SHADEDGE
 70
     3
  9
$SHADEDIF
 70
    70
  9
$TILEMODE
 70
     1
  9
$MAXACTVP
 70
    48
  9
$PINSBASE
 10
0.0
 20
0.0
 30
0.0
  9
$PLIMCHECK
 70
     0
  9
$PEXTMIN
 10
1.00000000E+20
 20
1.00000000E+20
 30
1.00000000E+20
  9
$PEXTMAX
 10
-1.00000000E+20
 20
-1.00000000E+20
 30
-1.00000000E+20
  9
$PLIMMIN
 10
0.0
 20
0.0
  9
$PLIMMAX
 10
420.0
 20
297.0
  9
$UNITMODE
 70
     0
  9
$VISRETAIN
 70
     1
  9
$PLINEGEN
 70
     0
  9
$PSLTSCALE
 70
     1
  9
$TREEDEPTH
 70
  3020
  9
$CMLSTYLE
  2
Standard
  9
$CMLJUST
 70
     0
  9
$CMLSCALE
 40
1.0
  9
$PROXYGRAPHICS
 70
     1
  9
$MEASUREMENT
 70
     1
  9
$CELWEIGHT
370
    -1
  9
$ENDCAPS
280
     0
  9
$JOINSTYLE
280
     0
  9
$LWDISPLAY
290
     0
  9
$INSUNITS
 70
     0
  9
$HYPERLINKBASE
  1

  9
$STYLESHEET
  1

  9
$XEDIT
290
     1
  9
$CEPSNTYPE
380
     0
  9
$PSTYLEMODE
290
     1
  9
$FINGERPRINTGUID
  2
{C0D806B7-3515-422D-AD52-6D955B536B12}
  9
$VERSIONGUID
  2
{DBDA9954-CCF9-3F48-ACE9-B26331D5848A}
  9
$EXTNAMES
290
     1
  9
$PSVPSCALE
 40
0.0
  9
$OLESTARTUP
290
     0
  9
$SORTENTS
280
   127
  9
$INDEXCTL
280
     0
  9
$HIDETEXT
280
     1
  9
$XCLIPFRAME
290
     0
  9
$HALOGAP
280
     0
  9
$OBSCOLOR
 70
   257
  9
$OBSLTYPE
280
     0
  9
$INTERSECTIONDISPLAY
280
     0
  9
$INTERSECTIONCOLOR
 70
   257
  9
$DIMASSOC
280
     2
  9
$PROJECTNAME
  1

  0
ENDSEC
  0
SECTION
  2
CLASSES
  0
CLASS
  1
ACDBDICTIONARYWDFLT
  2
AcDbDictionaryWithDefault
  3
ObjectDBX Classes
 90
        0
 91
        1
280
     0
281
     0
  0
CLASS
  1
MATERIAL
  2
AcDbMaterial
  3
ObjectDBX Classes
 90
     1153
 91
        3
280
     0
281
     0
  0
CLASS
  1
VISUALSTYLE
  2
AcDbVisualStyle
  3
ObjectDBX Classes
 90
     4095
 91
       24
280
     0
281
     0
  0
CLASS
  1
SCALE
  2
AcDbScale
  3
ObjectDBX Classes
 90
     1153
 91
       33
280
     0
281
     0
  0
CLASS
  1
TABLESTYLE
  2
AcDbTableStyle
  3
ObjectDBX Classes
 90
     4095
 91
        1
280
     0
281
     0
  0
CLASS
  1
MLEADERSTYLE
  2
AcDbMLeaderStyle
  3
ACDB_MLEADERSTYLE_CLASS
 90
     4095
 91
        1
280
     0
281
     0
  0
CLASS
  1
ACDBSECTIONVIEWSTYLE
  2
AcDbSectionViewStyle
  3
ObjectDBX Classes
 90
     1025
 91
        2
280
     0
281
     0
  0
CLASS
  1
ACDBDETAILVIEWSTYLE
  2
AcDbDetailViewStyle
  3
ObjectDBX Classes
 90
     1025
 91
        2
280
     0
281
     0
  0
CLASS
  1
CELLSTYLEMAP
  2
AcDbCellStyleMap
  3
ObjectDBX Classes
 90
     1152
 91
        2
280
     0
281
     0
  0
CLASS
  1
DICTIONARYVAR
  2
AcDbDictionaryVar
  3
ObjectDBX Classes
 90
        0
 91
       11
280
     0
281
     0
  0
CLASS
  1
SORTENTSTABLE
  2
AcDbSortentsTable
  3
ObjectDBX Classes
 90
        0
 91
        1
280
     0
281
     0
  0
CLASS
  1
RAPIDRTRENDERSETTINGS
  2
AcDbRapidRTRenderSettings
  3
ObjectDBX Classes
 90
     1024
 91
        1
280
     0
281
     0
  0
CLASS
  1
MENTALRAYRENDERSETTINGS
  2
AcDbMentalRayRenderSettings
  3
SCENEOE
 90
     1024
 91
        1
280
     0
281
     0
  0
ENDSEC
  0
SECTION
  2
TABLES
  0
TABLE
  2
VPORT
  5
52BF
102
{ACAD_XDICTIONARY
360
73FF
102
}
330
0
100
AcDbSymbolTable
 70
     1
  0
VPORT
  5
532B
330
52BF
100
AcDbSymbolTableRecord
100
AcDbViewportTableRecord
  2
*ACTIVE
 70
     0
 10
0.0
 20
0.0
 11
1.0
 21
1.0
 12
13750.78445115
 22
10000.00009314
 13
0.0
 23
0.0
 14
1.0
 24
1.0
 15
0.0
 25
0.0
 16
0.0
 26
0.0
 36
1.0
 17
0.0
 27
0.0
 37
0.0
 40
20203.13487354
 41
2.04355109
 42
50.0
 43
0.0
 44
0.0
 50
0.0
 51
0.0
 71
     0
 72
   100
 73
     1
 74
     1
 75
     0
 76
     0
 77
     0
 78
     0
281
     0
 65
     1
110
0.0
120
0.0
130
0.0
111
1.0
121
0.0
131
0.0
112
0.0
122
1.0
132
0.0
 79
     0
146
0.0
1001
ACAD_NAV_VCDISPLAY
1070
     1
  0
ENDTAB
  0
TABLE
  2
LTYPE
  5
52BC
330
0
100
AcDbSymbolTable
 70
     1
  0
LTYPE
  5
5311
330
52BC
100
AcDbSymbolTableRecord
100
AcDbLinetypeTableRecord
  2
ByBlock
 70
     0
  3

 72
    65
 73
     0
 40
0.0
  0
LTYPE
  5
5312
330
52BC
100
AcDbSymbolTableRecord
100
AcDbLinetypeTableRecord
  2
ByLayer
 70
     0
  3

 72
    65
 73
     0
 40
0.0
  0
LTYPE
  5
5313
330
52BC
100
AcDbSymbolTableRecord
100
AcDbLinetypeTableRecord
  2
CONTINUOUS
 70
     0
  3
Solid line
 72
    65
 73
     0
 40
0.0
  0
ENDTAB
  0
TABLE
  2
LAYER
  5
52B9
102
{ACAD_XDICTIONARY
360
53DC
102
}
330
0
100
AcDbSymbolTable
 70
     8
  0
LAYER
  5
530B
330
52B9
100
AcDbSymbolTableRecord
100
AcDbLayerTableRecord
  2
0
 70
     0
 62
     7
  6
CONTINUOUS
370
    -3
390
52C6
1001
AcAecLayerStandard
1000

1000

1001
AcCmTransparency
1071
 33554687
  0
LAYER
  5
533B
330
52B9
100
AcDbSymbolTableRecord
100
AcDbLayerTableRecord
  2
YKK_IN
 70
     0
 62
     1
  6
CONTINUOUS
370
    -3
390
52C6
1001
AcAecLayerStandard
1000

1000

1001
AcCmTransparency
1071
 33554687
  0
LAYER
  5
533C
330
52B9
100
AcDbSymbolTableRecord
100
AcDbLayerTableRecord
  2
YKK_A1
 70
     0
 62
     4
  6
CONTINUOUS
370
    -3
390
52C6
1001
AcAecLayerStandard
1000

1000

1001
AcCmTransparency
1071
 33554687
  0
LAYER
  5
533D
330
52B9
100
AcDbSymbolTableRecord
100
AcDbLayerTableRecord
  2
YKK_B1
 70
     0
 62
     4
  6
CONTINUOUS
370
    -3
390
52C6
1001
AcAecLayerStandard
1000

1000

1001
AcCmTransparency
1071
 33554687
  0
LAYER
  5
533E
330
52B9
100
AcDbSymbolTableRecord
100
AcDbLayerTableRecord
  2
YKK_C1
 70
     0
 62
     4
  6
CONTINUOUS
370
    -3
390
52C6
1001
AcAecLayerStandard
1000

1000

1001
AcCmTransparency
1071
 33554687
  0
LAYER
  5
533F
330
52B9
100
AcDbSymbolTableRecord
100
AcDbLayerTableRecord
  2
YKK_A2
 70
     0
 62
     3
  6
CONTINUOUS
370
    -3
390
52C6
1001
AcAecLayerStandard
1000

1000

1001
AcCmTransparency
1071
 33554687
  0
LAYER
  5
5340
330
52B9
100
AcDbSymbolTableRecord
100
AcDbLayerTableRecord
  2
YKK_N1
 70
     0
 62
     2
  6
CONTINUOUS
370
    -3
390
52C6
1001
AcAecLayerStandard
1000

1000

1001
AcCmTransparency
1071
 33554687
  0
LAYER
  5
5344
330
52B9
100
AcDbSymbolTableRecord
100
AcDbLayerTableRecord
  2
YKK_F1
 70
     0
 62
     7
  6
CONTINUOUS
370
    -3
390
52C6
1001
AcAecLayerStandard
1000

1000

1001
AcCmTransparency
1071
 33554687
  0
ENDTAB
  0
TABLE
  2
STYLE
  5
52BA
330
0
100
AcDbSymbolTable
 70
     2
  0
STYLE
  5
530C
330
52BA
100
AcDbSymbolTableRecord
100
AcDbTextStyleTableRecord
  2
STANDARD
 70
     0
 40
0.0
 41
1.0
 50
0.0
 71
     0
 42
0.2
  3
txt
  4
BIGFONT
  0
STYLE
  5
5310
330
52BA
100
AcDbSymbolTableRecord
100
AcDbTextStyleTableRecord
  2
EXTFONT
 70
     0
 40
60.0
 41
1.0
 50
0.0
 71
     0
 42
60.0
  3
txt.shx
  4
EXTFONT
1001
AUDIT_D_160831140635-227
1000
AnnotativeData
1002
{
1070
     1
1070
     1
1002
}
  0
ENDTAB
  0
TABLE
  2
VIEW
  5
52BD
330
0
100
AcDbSymbolTable
 70
     0
  0
ENDTAB
  0
TABLE
  2
UCS
  5
52BE
330
0
100
AcDbSymbolTable
 70
     0
  0
ENDTAB
  0
TABLE
  2
APPID
  5
52C0
330
0
100
AcDbSymbolTable
 70
    39
  0
APPID
  5
530D
330
52C0
100
AcDbSymbolTableRecord
100
AcDbRegAppTableRecord
  2
ACAD
 70
     0
  0
APPID
  5
532C
330
52C0
100
AcDbSymbolTableRecord
100
AcDbRegAppTableRecord
  2
GENIUS_GENREC_14
 70
     0
  0
APPID
  5
532D
330
52C0
100
AcDbSymbolTableRecord
100
AcDbRegAppTableRecord
  2
GENIUS_GENOBJ-N-REC_13
 70
     0
  0
APPID
  5
532E
330
52C0
100
AcDbSymbolTableRecord
100
AcDbRegAppTableRecord
  2
GENIUS_GENODEF_13
 70
     0
  0
APPID
  5
532F
330
52C0
100
AcDbSymbolTableRecord
100
AcDbRegAppTableRecord
  2
YOBJCUT11010103259
 70
     0
  0
APPID
  5
5330
330
52C0
100
AcDbSymbolTableRecord
100
AcDbRegAppTableRecord
  2
YOBJCUT11019140319
 70
     0
  0
APPID
  5
5331
330
52C0
100
AcDbSymbolTableRecord
100
AcDbRegAppTableRecord
  2
CONTENTTABDATA
 70
     0
  0
APPID
  5
5332
330
52C0
100
AcDbSymbolTableRecord
100
AcDbRegAppTableRecord
  2
CONTENTCURRENTTAB
 70
     0
  0
APPID
  5
5333
330
52C0
100
AcDbSymbolTableRecord
100
AcDbRegAppTableRecord
  2
YKK_AP_LOCKLAYER
 70
     0
  0
APPID
  5
5334
330
52C0
100
AcDbSymbolTableRecord
100
AcDbRegAppTableRecord
  2
YTEXT_INFOMATION
 70
     0
  0
APPID
  5
5335
330
52C0
100
AcDbSymbolTableRecord
100
AcDbRegAppTableRecord
  2
ACAD_EXEMPT_FROM_CAD_STANDARDS
 70
     0
  0
APPID
  5
5336
330
52C0
100
AcDbSymbolTableRecord
100
AcDbRegAppTableRecord
  2
YGROUPINFO
 70
     0
  0
APPID
  5
5337
330
52C0
100
AcDbSymbolTableRecord
100
AcDbRegAppTableRecord
  2
ACAD_MLEADERVER
 70
     0
  0
APPID
  5
5338
330
52C0
100
AcDbSymbolTableRecord
100
AcDbRegAppTableRecord
  2
ACADANNOTATIVE
 70
     0
  0
APPID
  5
5339
330
52C0
100
AcDbSymbolTableRecord
100
AcDbRegAppTableRecord
  2
ACDBBLOCKREPETAG
 70
     0
  0
APPID
  5
533A
330
52C0
100
AcDbSymbolTableRecord
100
AcDbRegAppTableRecord
  2
ACAD_PSEXT
 70
     0
  0
APPID
  5
5314
330
52C0
100
AcDbSymbolTableRecord
100
AcDbRegAppTableRecord
  2
AUDIT_D_160831140635-227
 70
     0
  0
APPID
  5
539B
330
52C0
100
AcDbSymbolTableRecord
100
AcDbRegAppTableRecord
  2
ACAD_NAV_VCDISPLAY
 70
     0
  0
APPID
  5
6247
330
52C0
100
AcDbSymbolTableRecord
100
AcDbRegAppTableRecord
  2
AcAecLayerStandard
 70
     0
  0
APPID
  5
6248
330
52C0
100
AcDbSymbolTableRecord
100
AcDbRegAppTableRecord
  2
AcCmTransparency
 70
     0
  0
APPID
  5
626D
330
52C0
100
AcDbSymbolTableRecord
100
AcDbRegAppTableRecord
  2
ACAD_DSTYLE_DIMJAG
 70
     0
  0
APPID
  5
626E
330
52C0
100
AcDbSymbolTableRecord
100
AcDbRegAppTableRecord
  2
ACAD_DSTYLE_DIMTALN
 70
     0
  0
APPID
  5
6270
330
52C0
100
AcDbSymbolTableRecord
100
AcDbRegAppTableRecord
  2
AcadAnnoPO
 70
     0
  0
APPID
  5
6274
330
52C0
100
AcDbSymbolTableRecord
100
AcDbRegAppTableRecord
  2
YALIB
 70
     0
  0
APPID
  5
6278
330
52C0
100
AcDbSymbolTableRecord
100
AcDbRegAppTableRecord
  2
AcLayerTools
 70
     0
  0
APPID
  5
6279
330
52C0
100
AcDbSymbolTableRecord
100
AcDbRegAppTableRecord
  2
ACAD_DSTYLE_DIMRADIAL_EXTENSION
 70
     0
  0
APPID
  5
627E
330
52C0
100
AcDbSymbolTableRecord
100
AcDbRegAppTableRecord
  2
GENIUS_GENOBJ-N-FIL_13
 70
     0
  0
APPID
  5
627F
330
52C0
100
AcDbSymbolTableRecord
100
AcDbRegAppTableRecord
  2
YOBJCUT10801135416
 70
     0
  0
APPID
  5
6280
330
52C0
100
AcDbSymbolTableRecord
100
AcDbRegAppTableRecord
  2
YOBJCUT10801135700
 70
     0
  0
APPID
  5
6281
330
52C0
100
AcDbSymbolTableRecord
100
AcDbRegAppTableRecord
  2
YOBJCUT10801135723
 70
     0
  0
APPID
  5
6282
330
52C0
100
AcDbSymbolTableRecord
100
AcDbRegAppTableRecord
  2
YOBJCUT10801135735
 70
     0
  0
APPID
  5
6283
330
52C0
100
AcDbSymbolTableRecord
100
AcDbRegAppTableRecord
  2
YOBJCUT10817103553
 70
     0
  0
APPID
  5
6284
330
52C0
100
AcDbSymbolTableRecord
100
AcDbRegAppTableRecord
  2
YOBJCUT10817103610
 70
     0
  0
APPID
  5
6285
330
52C0
100
AcDbSymbolTableRecord
100
AcDbRegAppTableRecord
  2
YOBJCUT10817104219
 70
     0
  0
APPID
  5
6286
330
52C0
100
AcDbSymbolTableRecord
100
AcDbRegAppTableRecord
  2
YOBJCUT10817104306
 70
     0
  0
APPID
  5
6288
330
52C0
100
AcDbSymbolTableRecord
100
AcDbRegAppTableRecord
  2
YOBJCUT11026135946
 70
     0
  0
APPID
  5
774A
330
52C0
100
AcDbSymbolTableRecord
100
AcDbRegAppTableRecord
  2
GENIUS_GENOBJ-N-CEN_13
 70
     0
  0
APPID
  5
774B
330
52C0
100
AcDbSymbolTableRecord
100
AcDbRegAppTableRecord
  2
GENIUS_GENCEN_19
 70
     0
  0
APPID
  5
774C
330
52C0
100
AcDbSymbolTableRecord
100
AcDbRegAppTableRecord
  2
YOBJCUT20830110222
 70
     0
  0
ENDTAB
  0
TABLE
  2
DIMSTYLE
  5
52C1
330
0
100
AcDbSymbolTable
 70
     1
100
AcDbDimStyleTable
 71
     1
340
530E
  0
DIMSTYLE
105
530E
330
52C1
100
AcDbSymbolTableRecord
100
AcDbDimStyleTableRecord
  2
STANDARD
 70
     0
 41
1.5
 42
1.5
 43
10.0
 44
0.5
 73
     0
 74
     0
 77
     3
 78
     8
140
4.35000038
143
0.03937008
147
0.89999998
173
     1
274
     4
279
     2
340
530C
  0
ENDTAB
  0
TABLE
  2
BLOCK_RECORD
  5
52B8
330
0
100
AcDbSymbolTable
 70
     0
  0
BLOCK_RECORD
  5
5326
102
{ACAD_XDICTIONARY
360
B473
102
}
330
52B8
100
AcDbSymbolTableRecord
100
AcDbBlockTableRecord
  2
*Model_Space
340
5329
  0
BLOCK_RECORD
  5
5322
330
52B8
100
AcDbSymbolTableRecord
100
AcDbBlockTableRecord
  2
*Paper_Space
340
5325
  0
ENDTAB
  0
ENDSEC
  0
SECTION
  2
BLOCKS
  0
BLOCK
  5
5347
330
5326
100
AcDbEntity
  8
0
100
AcDbBlockBegin
  2
*Model_Space
 70
     0
 10
0.0
 20
0.0
 30
0.0
  3
*Model_Space
  1

  0
ENDBLK
  5
5348
330
5326
100
AcDbEntity
  8
0
100
AcDbBlockEnd
  0
BLOCK
  5
5345
330
5322
100
AcDbEntity
 67
     1
  8
0
100
AcDbBlockBegin
  2
*Paper_Space
 70
     0
 10
0.0
 20
0.0
 30
0.0
  3
*Paper_Space
  1

  0
ENDBLK
  5
5346
330
5322
100
AcDbEntity
 67
     1
  8
0
100
AcDbBlockEnd
  0
ENDSEC
  0
SECTION
  2
ENTITIES
  0
TEXT
  5
69
330
5326
100
AcDbEntity
  8
0
 62
     3
100
AcDbText
 10
5212.00096545
 20
19144.80791789
 30
0.0
 40
170.0
  1
W=1690(w=1650)
  7
EXTFONT
 72
     1
 11
6260.33429878
 21
19144.80791789
 31
0.0
100
AcDbText
  0
TEXT
  5
70
330
5326
100
AcDbEntity
  8
0
 62
     3
100
AcDbText
 10
5212.00096545
 20
11044.80791789
 30
0.0
 40
170.0
  1
W=1690(w=1650)
  7
EXTFONT
 72
     1
 11
6260.33429878
 21
11044.80791789
 31
0.0
100
AcDbText
  0
LINE
  5
71
330
5326
100
AcDbEntity
  8
YKK_F1
 62
     7
100
AcDbLine
 10
0.0
 20
10900.0
 30
0.0
 11
27000.0
 21
10900.0
 31
0.0
  0
LINE
  5
73
330
5326
100
AcDbEntity
  8
YKK_F1
 62
     7
100
AcDbLine
 10
0.0
 20
7600.0
 30
0.0
 11
27000.0
 21
7600.0
 31
0.0
  0
LINE
  5
75
330
5326
100
AcDbEntity
  8
YKK_F1
 62
     7
100
AcDbLine
 10
0.0
 20
0.0
 30
0.0
 11
27500.0
 21
0.0
 31
0.0
  0
LINE
  5
76
330
5326
100
AcDbEntity
  8
YKK_F1
 62
     7
100
AcDbLine
 10
0.0
 20
19000.0
 30
0.0
 11
27000.0
 21
19000.0
 31
0.0
  0
LINE
  5
77
330
5326
100
AcDbEntity
  8
YKK_F1
 62
     7
100
AcDbLine
 10
0.0
 20
19500.0
 30
0.0
 11
27000.0
 21
19500.0
 31
0.0
  0
LINE
  5
78
330
5326
100
AcDbEntity
  8
YKK_F1
 62
     7
100
AcDbLine
 10
0.0
 20
20000.0
 30
0.0
 11
27500.0
 21
20000.0
 31
0.0
  0
LINE
  5
7B
330
5326
100
AcDbEntity
  8
YKK_F1
 62
     7
100
AcDbLine
 10
0.0
 20
11400.0
 30
0.0
 11
27000.0
 21
11400.0
 31
0.0
  0
LINE
  5
91
330
5326
100
AcDbEntity
  8
YKK_F1
 62
     7
100
AcDbLine
 10
500.0
 20
0.0
 30
0.0
 11
500.0
 21
19500.0
 31
0.0
  0
LINE
  5
92
330
5326
100
AcDbEntity
  8
YKK_F1
 62
     7
100
AcDbLine
 10
8100.0
 20
0.0
 30
0.0
 11
8100.0
 21
19500.0
 31
0.0
  0
LINE
  5
94
330
5326
100
AcDbEntity
  8
YKK_F1
 62
     7
100
AcDbLine
 10
4300.0
 20
0.0
 30
0.0
 11
4300.0
 21
19500.0
 31
0.0
  0
LINE
  5
95
330
5326
100
AcDbEntity
  8
YKK_F1
 62
     7
100
AcDbLine
 10
0.0
 20
0.0
 30
0.0
 11
0.0
 21
20000.0
 31
0.0
  0
TEXT
  5
96
330
5326
100
AcDbEntity
  8
0
 62
     3
100
AcDbText
 10
339.95356542
 20
12289.91401022
 30
0.0
 40
170.0
  1
H=2230(h=2200)
 50
90.0
  7
EXTFONT
 72
     4
 11
254.95356542
 21
13352.41401022
 31
0.0
100
AcDbText
  0
LINE
  5
99
330
5326
100
AcDbEntity
  8
YKK_F1
 62
     7
100
AcDbLine
 10
0.0
 20
11400.0
 30
0.0
 11
12778.0
 21
11400.0
 31
0.0
  0
POINT
  5
9E
330
5326
100
AcDbEntity
  8
YKK_C1
100
AcDbPoint
 10
0.0
 20
0.0
 30
0.0
  0
POINT
  5
A0
330
5326
100
AcDbEntity
  8
YKK_B1
100
AcDbPoint
 10
0.0
 20
0.0
 30
0.0
  0
POINT
  5
A1
330
5326
100
AcDbEntity
  8
YKK_A2
100
AcDbPoint
 10
0.0
 20
0.0
 30
0.0
  0
POINT
  5
A3
330
5326
100
AcDbEntity
  8
YKK_A1
100
AcDbPoint
 10
0.0
 20
0.0
 30
0.0
  0
POINT
  5
A6
330
5326
100
AcDbEntity
  8
YKK_N1
100
AcDbPoint
 10
0.0
 20
0.0
 30
0.0
  0
POINT
  5
A7
330
5326
100
AcDbEntity
  8
YKK_F1
100
AcDbPoint
 10
0.0
 20
0.0
 30
0.0
  0
POINT
  5
A8
330
5326
100
AcDbEntity
  8
YKK_IN
100
AcDbPoint
 10
0.0
 20
0.0
 30
0.0
  0
TEXT
  5
AA
330
5326
100
AcDbEntity
  8
0
 62
     3
100
AcDbText
 10
354.95356542
 20
8910.63273655
 30
0.0
 40
200.0
  1
横断面図
 50
90.0
  7
EXTFONT
 72
     4
 11
254.95356542
 21
9357.29940321
 31
0.0
100
AcDbText
  0
TEXT
  5
33C
330
5326
100
AcDbEntity
  8
0
 62
     3
100
AcDbText
 10
1405.16763211
 20
11044.80791789
 30
0.0
 40
170.0
  1
W=1640(w=1600)
  7
EXTFONT
 72
     1
 11
2439.33429878
 21
11044.80791789
 31
0.0
100
AcDbText
  0
TEXT
  5
A25
330
5326
100
AcDbEntity
  8
0
 62
     3
100
AcDbText
 10
339.95356542
 20
16118.24734355
 30
0.0
 40
170.0
  1
H=2030(h=2000)
 50
90.0
  7
EXTFONT
 72
     4
 11
254.95356542
 21
17152.41401022
 31
0.0
100
AcDbText
  0
TEXT
  5
B93
330
5326
100
AcDbEntity
  8
0
 62
     3
100
AcDbText
 10
1405.16763211
 20
19144.80791789
 30
0.0
 40
170.0
  1
W=1640(w=1600)
  7
EXTFONT
 72
     1
 11
2439.33429878
 21
19144.80791789
 31
0.0
100
AcDbText
  0
LINE
  5
C0D
330
5326
100
AcDbEntity
  8
YKK_F1
 62
     7
100
AcDbLine
 10
27500.0
 20
0.0
 30
0.0
 11
27500.0
 21
20000.0
 31
0.0
  0
LINE
  5
C0E
330
5326
100
AcDbEntity
  8
YKK_F1
 62
     7
100
AcDbLine
 10
27000.0
 20
0.0
 30
0.0
 11
27000.0
 21
19500.0
 31
0.0
  0
LINE
  5
C10
330
5326
100
AcDbEntity
  8
YKK_F1
 62
     7
100
AcDbLine
 10
8600.0
 20
0.0
 30
0.0
 11
8600.0
 21
19500.0
 31
0.0
  0
TEXT
  5
C13
330
5326
100
AcDbEntity
  8
0
 62
     3
100
AcDbText
 10
8439.95356542
 20
12289.91401022
 30
0.0
 40
170.0
  1
H=2230(h=2200)
 50
90.0
  7
EXTFONT
 72
     4
 11
8354.95356542
 21
13352.41401022
 31
0.0
100
AcDbText
  0
TEXT
  5
1D60
330
5326
100
AcDbEntity
  8
0
 62
     3
100
AcDbText
 10
8439.95356542
 20
16118.24734355
 30
0.0
 40
170.0
  1
H=2030(h=2000)
 50
90.0
  7
EXTFONT
 72
     4
 11
8354.95356542
 21
17152.41401022
 31
0.0
100
AcDbText
  0
TEXT
  5
28CE
330
5326
100
AcDbEntity
  8
0
 62
     3
100
AcDbText
 10
9753.89100337
 20
19144.80791789
 30
0.0
 40
200.0
  1
縦断面図
  7
EXTFONT
 72
     1
 11
10200.55767003
 21
19144.80791789
 31
0.0
100
AcDbText
  0
TEXT
  5
31BB
330
5326
100
AcDbEntity
  8
0
100
AcDbText
 10
309.23360854
 20
19625.0
 30
0.0
 40
250.0
  1
ＧＡ２ＨＴＮＥＯ＿０３　エピソードＩＩ 防火窓 ＧＮＥＯ 下枠フラット引違い窓 半外付型
  7
EXTFONT
100
AcDbText
1001
YTEXT_INFOMATION
1002
{
1000
ＧＨＴ＿０２  防火窓Ｇ シリーズ  アルミ樹脂複合  引違い窓  半外付型  ２枚建  テラスタイプ  【新寸法体系サッシ（在来用）】  在来工法\U+0102\U+0200\U+4200\U+4C00\U+0A00\U+AAA8\U+AAAA\U+AAAA\U+C040誄\U+CA8A\U+6267\U+3CF2\U+0102\U+0200\U+4200\U+4C00\U+0A00\U+AAA8\U+AAAA\U+AAAA\U+C040誄\U+CA8A\U+6267\U+3CF2
1002
}
1000
BL
1010
-33.33333333
1020
0.0
1030
0.0
1040
250.0
1070
     0
1002
{
1000
TEXTOBJECTS
1000
31BB
1002
}
  0
LINE
  5
31C2
330
5326
100
AcDbEntity
  8
YKK_F1
 62
     7
100
AcDbLine
 10
11800.0
 20
0.0
 30
0.0
 11
11800.0
 21
19500.0
 31
0.0
  0
TEXT
  5
51F5
330
5326
100
AcDbEntity
  8
0
100
AcDbText
 10
1368.96057227
 20
18696.78078877
 30
0.0
 40
80.0
  1
GHT-16020-C-C□(B3)
  7
EXTFONT
100
AcDbText
1001
YTEXT_INFOMATION
1002
{
1000
GHT-16020-A-A(F)B1
1002
}
1000
BL
1010
0.0
1020
0.0
1030
0.0
1040
80.0
1070
     0
1002
{
1000
TEXTOBJECTS
1000
51F5
1002
}
  0
TEXT
  5
5202
330
5326
100
AcDbEntity
  8
0
100
AcDbText
 10
1368.96057227
 20
14896.78078877
 30
0.0
 40
80.0
  1
GHT-16022-C-C□(B3)
  7
EXTFONT
100
AcDbText
1001
YTEXT_INFOMATION
1002
{
1000
GHT-16022-A-A(F)B1
1002
}
1000
BL
1010
0.0
1020
0.0
1030
0.0
1040
80.0
1070
     0
1002
{
1000
TEXTOBJECTS
1000
5202
1002
}
  0
TEXT
  5
521C
330
5326
100
AcDbEntity
  8
0
100
AcDbText
 10
5168.96057227
 20
18696.78078877
 30
0.0
 40
80.0
  1
GHT-16520-C-C□(B3)
  7
EXTFONT
100
AcDbText
1001
YTEXT_INFOMATION
1002
{
1000
GHT-16520-A-A(F)B1
1002
}
1000
BL
1010
0.0
1020
0.0
1030
0.0
1040
80.0
1070
     0
1002
{
1000
TEXTOBJECTS
1000
521C
1002
}
  0
TEXT
  5
5229
330
5326
100
AcDbEntity
  8
0
100
AcDbText
 10
5168.96057227
 20
14896.78078877
 30
0.0
 40
80.0
  1
GHT-16522-C-C□(B3)
  7
EXTFONT
100
AcDbText
1001
YTEXT_INFOMATION
1002
{
1000
GHT-16522-A-A(F)B1
1002
}
1000
BL
1010
0.0
1020
0.0
1030
0.0
1040
80.0
1070
     0
1002
{
1000
TEXTOBJECTS
1000
5229
1002
}
  0
LINE
  5
B297
330
5326
100
AcDbEntity
  8
YKK_C1
100
AcDbLine
 10
9998.0
 20
18143.49999999
 30
0.0
 11
9998.0
 21
18113.49999999
 31
0.0
  0
LINE
  5
B298
330
5326
100
AcDbEntity
  8
YKK_C1
100
AcDbLine
 10
9971.0
 20
18168.49999999
 30
0.0
 11
9971.0
 21
18135.49999999
 31
0.0
  0
LINE
  5
B29A
330
5326
100
AcDbEntity
  8
YKK_C1
100
AcDbLine
 10
9912.0
 20
18112.50000015
 30
0.0
 11
9912.0
 21
18143.49999999
 31
0.0
  0
LINE
  5
B29B
330
5326
100
AcDbEntity
  8
YKK_C1
100
AcDbLine
 10
9912.0
 20
18143.49999999
 30
0.0
 11
9971.0
 21
18143.49999999
 31
0.0
  0
LINE
  5
B29C
330
5326
100
AcDbEntity
  8
YKK_C1
100
AcDbLine
 10
9912.0
 20
18135.49999999
 30
0.0
 11
9998.0
 21
18135.49999999
 31
0.0
  0
LINE
  5
B29D
330
5326
100
AcDbEntity
  8
YKK_C1
100
AcDbLine
 10
9933.9
 20
18108.49999999
 30
0.0
 11
9933.9
 21
18135.49999999
 31
0.0
  0
LINE
  5
B29E
330
5326
100
AcDbEntity
  8
YKK_C1
100
AcDbLine
 10
9974.9
 20
18108.49999999
 30
0.0
 11
9974.9
 21
18135.49999999
 31
0.0
  0
LINE
  5
B29F
330
5326
100
AcDbEntity
  8
YKK_C1
100
AcDbLine
 10
9921.50275862
 20
18116.50060267
 30
0.0
 11
9921.50275862
 21
18063.50060267
 31
0.0
  0
LINE
  5
B2A0
330
5326
100
AcDbEntity
  8
YKK_C1
100
AcDbLine
 10
9951.40275862
 20
18063.50060269
 30
0.0
 11
9951.40275862
 21
18116.50060269
 31
0.0
  0
LINE
  5
B2A1
330
5326
100
AcDbEntity
  8
YKK_C1
100
AcDbLine
 10
9921.50275862
 20
18095.30060267
 30
0.0
 11
9951.40275862
 21
18095.30060267
 31
0.0
  0
LINE
  5
B2A2
330
5326
100
AcDbEntity
  8
YKK_C1
100
AcDbLine
 10
9951.40275862
 20
18079.50060267
 30
0.0
 11
9921.50275862
 21
18079.50060267
 31
0.0
  0
LINE
  5
B2A3
330
5326
100
AcDbEntity
  8
YKK_C1
100
AcDbLine
 10
9962.50275862
 20
18116.50060267
 30
0.0
 11
9962.50275862
 21
18063.50060267
 31
0.0
  0
LINE
  5
B2A4
330
5326
100
AcDbEntity
  8
YKK_C1
100
AcDbLine
 10
9992.40275862
 20
18063.50060269
 30
0.0
 11
9992.40275862
 21
18116.50060269
 31
0.0
  0
LINE
  5
B2A5
330
5326
100
AcDbEntity
  8
YKK_C1
100
AcDbLine
 10
9992.40275862
 20
18095.30060267
 30
0.0
 11
9962.50275862
 21
18095.30060267
 31
0.0
  0
LINE
  5
B2A6
330
5326
100
AcDbEntity
  8
YKK_C1
100
AcDbLine
 10
9962.50275862
 20
18079.50060267
 30
0.0
 11
9992.40275862
 21
18079.50060267
 31
0.0
  0
LINE
  5
B2DE
330
5326
100
AcDbEntity
  8
YKK_C1
100
AcDbLine
 10
9998.00000001
 20
16113.50079524
 30
0.0
 11
9998.00000001
 21
16073.50079524
 31
0.0
  0
LINE
  5
B2DF
330
5326
100
AcDbEntity
  8
YKK_C1
100
AcDbLine
 10
9998.00000001
 20
16073.50079524
 30
0.0
 11
9899.00011306
 21
16073.50079524
 31
0.0
  0
LINE
  5
B2E0
330
5326
100
AcDbEntity
  8
YKK_C1
100
AcDbLine
 10
9971.00010742
 20
16041.50079524
 30
0.0
 11
9971.00010742
 21
16073.50004021
 31
0.0
  0
LINE
  5
B2E1
330
5326
100
AcDbEntity
  8
YKK_C1
100
AcDbLine
 10
9899.00000001
 20
16113.49986352
 30
0.0
 11
9899.00019587
 21
16056.50003903
 31
0.0
  0
LINE
  5
B2E2
330
5326
100
AcDbEntity
  8
YKK_C1
100
AcDbLine
 10
9899.00006358
 20
16095.00079524
 30
0.0
 11
9998.00000001
 21
16095.00079524
 31
0.0
  0
LINE
  5
B2E3
330
5326
100
AcDbEntity
  8
YKK_C1
100
AcDbLine
 10
9934.00000001
 20
16113.50079554
 30
0.0
 11
9934.00000001
 21
16095.00079524
 31
0.0
  0
LINE
  5
B2E4
330
5326
100
AcDbEntity
  8
YKK_C1
100
AcDbLine
 10
9975.00000001
 20
16113.50079554
 30
0.0
 11
9975.00000001
 21
16095.00079524
 31
0.0
  0
LINE
  5
B2E5
330
5326
100
AcDbEntity
  8
YKK_C1
100
AcDbLine
 10
9921.50000001
 20
16180.50079524
 30
0.0
 11
9921.50000001
 21
16105.00079524
 31
0.0
  0
LINE
  5
B2E7
330
5326
100
AcDbEntity
  8
YKK_C1
100
AcDbLine
 10
9951.40000001
 20
16180.50079524
 30
0.0
 11
9951.40000001
 21
16116.50079524
 31
0.0
  0
LINE
  5
B2E8
330
5326
100
AcDbEntity
  8
YKK_C1
100
AcDbLine
 10
9921.50000001
 20
16158.90079524
 30
0.0
 11
9951.40000001
 21
16158.90079524
 31
0.0
  0
LINE
  5
B2E9
330
5326
100
AcDbEntity
  8
YKK_C1
100
AcDbLine
 10
9921.50000001
 20
16123.60079524
 30
0.0
 11
9951.40000001
 21
16123.60079524
 31
0.0
  0
LINE
  5
B2EA
330
5326
100
AcDbEntity
  8
YKK_C1
100
AcDbLine
 10
9962.50000001
 20
16180.50079524
 30
0.0
 11
9962.50000001
 21
16105.00079524
 31
0.0
  0
LINE
  5
B2EB
330
5326
100
AcDbEntity
  8
YKK_C1
100
AcDbLine
 10
9992.40000001
 20
16180.50079524
 30
0.0
 11
9992.40000001
 21
16116.50079524
 31
0.0
  0
LINE
  5
B2EC
330
5326
100
AcDbEntity
  8
YKK_C1
100
AcDbLine
 10
9962.50000001
 20
16158.90079524
 30
0.0
 11
9992.40000001
 21
16158.90079524
 31
0.0
  0
LINE
  5
B2ED
330
5326
100
AcDbEntity
  8
YKK_C1
100
AcDbLine
 10
9962.50000001
 20
16123.60079524
 30
0.0
 11
9992.40000001
 21
16123.60079524
 31
0.0
  0
LINE
  5
B2EE
330
5326
100
AcDbEntity
  8
YKK_C1
100
AcDbLine
 10
9936.10000001
 20
18075.5
 30
0.0
 11
9936.10000001
 21
16168.50079507
 31
0.0
  0
LINE
  5
B2F5
330
5326
100
AcDbEntity
  8
YKK_IN
  6
Continuous
100
AcDbLine
 10
9935.64466095
 20
16108.8561343
 30
0.0
 11
10006.35533907
 21
16038.14545618
 31
0.0
  0
CIRCLE
  5
B2F6
330
5326
100
AcDbEntity
  8
YKK_IN
  6
Continuous
100
AcDbCircle
 10
9971.00000001
 20
16073.50079524
 30
0.0
 40
25.0
  0
LINE
  5
B2F7
330
5326
100
AcDbEntity
  8
YKK_IN
  6
Continuous
100
AcDbLine
 10
9935.64466095
 20
16038.14545618
 30
0.0
 11
10006.35533907
 21
16108.8561343
 31
0.0
  0
LINE
  5
B2FB
330
5326
100
AcDbEntity
  8
YKK_C1
100
AcDbLine
 10
9912.00000001
 20
18102.50000015
 30
0.0
 11
9912.00000001
 21
16123.49986352
 31
0.0
  0
LINE
  5
B2FC
330
5326
100
AcDbEntity
  8
YKK_C1
100
AcDbLine
 10
9998.0
 20
18113.49999999
 30
0.0
 11
9998.0
 21
18103.49999999
 31
0.0
  0
LINE
  5
B2FD
330
5326
100
AcDbEntity
  8
YKK_C1
100
AcDbLine
 10
9977.10000001
 20
18075.5
 30
0.0
 11
9977.10000001
 21
16168.50079507
 31
0.0
  0
LINE
  5
B2FF
330
5326
100
AcDbEntity
  8
YKK_C1
100
AcDbLine
 10
9998.0
 20
18103.49999999
 30
0.0
 11
9998.0
 21
16123.50079524
 31
0.0
  0
LINE
  5
B300
330
5326
100
AcDbEntity
  8
YKK_B1
100
AcDbLine
 10
5374.99999988
 20
9452.00112557
 30
0.0
 11
5354.99999988
 21
9452.00112518
 31
0.0
  0
LINE
  5
B301
330
5326
100
AcDbEntity
  8
YKK_B1
100
AcDbLine
 10
5354.99999988
 20
9452.00112518
 30
0.0
 11
5354.99999988
 21
9538.00112518
 31
0.0
  0
LINE
  5
B302
330
5326
100
AcDbEntity
  8
YKK_B1
100
AcDbLine
 10
5374.99999988
 20
9538.00112518
 30
0.0
 11
5354.99999988
 21
9538.00112518
 31
0.0
  0
LINE
  5
B303
330
5326
100
AcDbEntity
  8
YKK_B1
100
AcDbLine
 10
5374.99999988
 20
9518.35112518
 30
0.0
 11
5354.99999988
 21
9518.35112518
 31
0.0
  0
LINE
  5
B304
330
5326
100
AcDbEntity
  8
YKK_B1
100
AcDbLine
 10
5327.99999988
 20
9479.00112518
 30
0.0
 11
5354.99999988
 21
9479.00112518
 31
0.0
  0
LINE
  5
B305
330
5326
100
AcDbEntity
  8
YKK_B1
100
AcDbLine
 10
5368.99999988
 20
9528.50114196
 30
0.0
 11
5433.99999988
 21
9528.50114196
 31
0.0
  0
LINE
  5
B306
330
5326
100
AcDbEntity
  8
YKK_B1
100
AcDbLine
 10
5368.99999988
 20
9497.20114196
 30
0.0
 11
5433.99999988
 21
9497.20114196
 31
0.0
  0
TEXT
  5
B312
330
5326
100
AcDbEntity
  8
0
100
AcDbText
 10
17069.4175458
 20
19625.0
 30
0.0
 40
200.0
  1
※図面を簡略化しております。詳細につきましては、詳細図（納まり図）をご参照ください。
  7
EXTFONT
 72
     2
 11
26971.3223077
 21
19625.0
 31
0.0
100
AcDbText
  0
LINE
  5
B317
330
5326
100
AcDbEntity
  8
YKK_B1
100
AcDbLine
 10
5382.49999988
 20
9528.50114196
 30
0.0
 11
5382.49999988
 21
9497.20114196
 31
0.0
  0
LINE
  5
B318
330
5326
100
AcDbEntity
  8
YKK_B1
100
AcDbLine
 10
5417.99999988
 20
9528.50114196
 30
0.0
 11
5417.99999988
 21
9497.20114196
 31
0.0
  0
LINE
  5
B31C
330
5326
100
AcDbEntity
  8
YKK_B1
100
AcDbLine
 10
6175.0001847
 20
9496.80112518
 30
0.0
 11
6225.0001847
 21
9496.80112518
 31
0.0
  0
LINE
  5
B31D
330
5326
100
AcDbEntity
  8
YKK_B1
100
AcDbLine
 10
6225.0001847
 20
9496.80112518
 30
0.0
 11
6225.0001847
 21
9528.50112518
 31
0.0
  0
LINE
  5
B31E
330
5326
100
AcDbEntity
  8
YKK_B1
100
AcDbLine
 10
6225.0001847
 20
9528.50112518
 30
0.0
 11
6175.0001847
 21
9528.50112518
 31
0.0
  0
LINE
  5
B31F
330
5326
100
AcDbEntity
  8
YKK_B1
100
AcDbLine
 10
6191.0001847
 20
9528.50112518
 30
0.0
 11
6191.0001847
 21
9496.80112518
 31
0.0
  0
LINE
  5
B320
330
5326
100
AcDbEntity
  8
YKK_B1
100
AcDbLine
 10
6225.0001847
 20
9487.52060276
 30
0.0
 11
6175.0001847
 21
9487.52060276
 31
0.0
  0
LINE
  5
B321
330
5326
100
AcDbEntity
  8
YKK_B1
100
AcDbLine
 10
6175.0001847
 20
9487.52060276
 30
0.0
 11
6175.0001847
 21
9431.00112518
 31
0.0
  0
LINE
  5
B322
330
5326
100
AcDbEntity
  8
YKK_B1
100
AcDbLine
 10
6175.0001847
 20
9457.62060276
 30
0.0
 11
6225.0001847
 21
9457.62060276
 31
0.0
  0
LINE
  5
B323
330
5326
100
AcDbEntity
  8
YKK_B1
100
AcDbLine
 10
6225.0001847
 20
9457.62060276
 30
0.0
 11
6225.0001847
 21
9431.00112518
 31
0.0
  0
LINE
  5
B324
330
5326
100
AcDbEntity
  8
YKK_B1
100
AcDbLine
 10
6225.0001847
 20
9431.00112518
 30
0.0
 11
6175.0001847
 21
9431.00112518
 31
0.0
  0
LINE
  5
B325
330
5326
100
AcDbEntity
  8
YKK_B1
100
AcDbLine
 10
6209.0001847
 20
9487.52060276
 30
0.0
 11
6209.0001847
 21
9457.62060276
 31
0.0
  0
LINE
  5
B326
330
5326
100
AcDbEntity
  8
YKK_B1
100
AcDbLine
 10
7024.99994013
 20
9452.00112557
 30
0.0
 11
7044.99994013
 21
9452.00112518
 31
0.0
  0
LINE
  5
B327
330
5326
100
AcDbEntity
  8
YKK_B1
100
AcDbLine
 10
7044.99994013
 20
9452.00112518
 30
0.0
 11
7044.99994013
 21
9538.00112518
 31
0.0
  0
LINE
  5
B328
330
5326
100
AcDbEntity
  8
YKK_B1
100
AcDbLine
 10
7024.99994013
 20
9538.00112518
 30
0.0
 11
7044.99994013
 21
9538.00112518
 31
0.0
  0
LINE
  5
B329
330
5326
100
AcDbEntity
  8
YKK_B1
100
AcDbLine
 10
7024.99994015
 20
9477.3511084
 30
0.0
 11
7044.99994015
 21
9477.3511084
 31
0.0
  0
LINE
  5
B32A
330
5326
100
AcDbEntity
  8
YKK_B1
100
AcDbLine
 10
7071.99994013
 20
9479.00112518
 30
0.0
 11
7044.99994013
 21
9479.00112518
 31
0.0
  0
LINE
  5
B32B
330
5326
100
AcDbEntity
  8
YKK_B1
100
AcDbLine
 10
7030.99994015
 20
9487.50112518
 30
0.0
 11
6965.99994015
 21
9487.50112518
 31
0.0
  0
LINE
  5
B32C
330
5326
100
AcDbEntity
  8
YKK_B1
100
AcDbLine
 10
7030.99994015
 20
9456.20112518
 30
0.0
 11
6965.99994015
 21
9456.20112518
 31
0.0
  0
LINE
  5
B32D
330
5326
100
AcDbEntity
  8
YKK_B1
100
AcDbLine
 10
7017.49994015
 20
9487.50112518
 30
0.0
 11
7017.49994015
 21
9456.20112518
 31
0.0
  0
LINE
  5
B32E
330
5326
100
AcDbEntity
  8
YKK_B1
100
AcDbLine
 10
6981.99994015
 20
9487.50112518
 30
0.0
 11
6981.99994015
 21
9456.20112518
 31
0.0
  0
LINE
  5
B32F
330
5326
100
AcDbEntity
  8
YKK_B1
100
AcDbLine
 10
5421.99999971
 20
9513.90112519
 30
0.0
 11
6187.00018471
 21
9513.90112519
 31
0.0
  0
LINE
  5
B330
330
5326
100
AcDbEntity
  8
YKK_B1
100
AcDbLine
 10
6213.00018453
 20
9472.90112519
 30
0.0
 11
6977.99994014
 21
9472.90112519
 31
0.0
  0
LINE
  5
B333
330
5326
100
AcDbEntity
  8
YKK_B1
100
AcDbLine
 10
5385.00003441
 20
9452.00112557
 30
0.0
 11
6165.0001847
 21
9452.00112557
 31
0.0
  0
LINE
  5
B338
330
5326
100
AcDbEntity
  8
YKK_B1
100
AcDbLine
 10
7014.99994013
 20
9452.00112557
 30
0.0
 11
6235.0001847
 21
9452.00112557
 31
0.0
  0
LINE
  5
B33B
330
5326
100
AcDbEntity
  8
YKK_B1
100
AcDbLine
 10
5384.99999988
 20
9538.00112519
 30
0.0
 11
7015.00287612
 21
9538.00112519
 31
0.0
  0
LINE
  5
B390
330
5326
100
AcDbEntity
  8
YKK_N1
  6
Continuous
100
AcDbLine
 10
7044.99999988
 20
8977.00112518
 30
0.0
 11
5354.99999988
 21
8977.00112518
 31
0.0
  0
LINE
  5
B391
330
5326
100
AcDbEntity
  8
YKK_N1
  6
Continuous
100
AcDbLine
 10
5441.60254026
 20
9027.00112518
 30
0.0
 11
5354.99999988
 21
8977.00112518
 31
0.0
  0
LINE
  5
B392
330
5326
100
AcDbEntity
  8
YKK_N1
  6
Continuous
100
AcDbLine
 10
5354.99999988
 20
9302.00112518
 30
0.0
 11
5354.99999988
 21
8977.00112518
 31
0.0
  0
LINE
  5
B393
330
5326
100
AcDbEntity
  8
YKK_N1
  6
Continuous
100
AcDbLine
 10
5327.99999988
 20
9302.00112518
 30
0.0
 11
5327.99999988
 21
8977.00112518
 31
0.0
  0
LINE
  5
B394
330
5326
100
AcDbEntity
  8
YKK_N1
  6
Continuous
100
AcDbLine
 10
5441.60254026
 20
9027.00112518
 30
0.0
 11
5441.60254026
 21
8927.00112518
 31
0.0
  0
CIRCLE
  5
B395
330
5326
100
AcDbEntity
  8
YKK_N1
  6
Continuous
100
AcDbCircle
 10
5327.99999988
 20
8977.00112518
 30
0.0
 40
5.0
  0
LINE
  5
B396
330
5326
100
AcDbEntity
  8
YKK_N1
  6
Continuous
100
AcDbLine
 10
5327.99999988
 20
8977.00112518
 30
0.0
 11
5354.99999988
 21
8977.00112518
 31
0.0
  0
LINE
  5
B397
330
5326
100
AcDbEntity
  8
YKK_N1
  6
Continuous
100
AcDbLine
 10
5354.99999988
 20
8977.00112518
 30
0.0
 11
5441.60254026
 21
8927.00112518
 31
0.0
  0
TEXT
  5
B398
330
5326
100
AcDbEntity
  8
YKK_N1
  6
Continuous
100
AcDbText
 10
5212.06563287
 20
8984.44843625
 30
0.0
 40
60.0
  1
27
100
AcDbText
  0
TEXT
  5
B399
330
5326
100
AcDbEntity
  8
YKK_N1
  6
Continuous
100
AcDbText
 10
5407.99999988
 20
9189.00112518
 30
0.0
 40
60.0
  1
20
100
AcDbText
  0
LINE
  5
B39A
330
5326
100
AcDbEntity
  8
YKK_N1
  6
Continuous
100
AcDbLine
 10
5374.9999999
 20
9302.00112518
 30
0.0
 11
5374.9999999
 21
9177.00112518
 31
0.0
  0
CIRCLE
  5
B39B
330
5326
100
AcDbEntity
  8
YKK_N1
  6
Continuous
100
AcDbCircle
 10
5374.9999999
 20
9177.00112518
 30
0.0
 40
5.0
  0
LINE
  5
B39C
330
5326
100
AcDbEntity
  8
YKK_N1
  6
Continuous
100
AcDbLine
 10
5374.99999988
 20
9177.00112518
 30
0.0
 11
5354.99999988
 21
9177.00112518
 31
0.0
  0
CIRCLE
  5
B39D
330
5326
100
AcDbEntity
  8
YKK_N1
  6
Continuous
100
AcDbCircle
 10
5354.99999988
 20
9177.00112518
 30
0.0
 40
5.0
  0
TEXT
  5
B39E
330
5326
100
AcDbEntity
  8
YKK_N1
  6
Continuous
100
AcDbText
 10
6029.99999988
 20
8989.00112518
 30
0.0
 40
60.0
  1
W=1690
100
AcDbText
  0
LINE
  5
B39F
330
5326
100
AcDbEntity
  8
YKK_N1
  6
Continuous
100
AcDbLine
 10
7071.99999988
 20
9302.00112518
 30
0.0
 11
7071.99999988
 21
8977.00112518
 31
0.0
  0
LINE
  5
B3A0
330
5326
100
AcDbEntity
  8
YKK_N1
  6
Continuous
100
AcDbLine
 10
7044.99999988
 20
9302.00112518
 30
0.0
 11
7044.99999988
 21
8977.00112518
 31
0.0
  0
LINE
  5
B3A1
330
5326
100
AcDbEntity
  8
YKK_N1
  6
Continuous
100
AcDbLine
 10
6958.39745951
 20
9027.00112518
 30
0.0
 11
6958.39745951
 21
8927.00112518
 31
0.0
  0
LINE
  5
B3A2
330
5326
100
AcDbEntity
  8
YKK_N1
  6
Continuous
100
AcDbLine
 10
6958.39745951
 20
9027.00112518
 30
0.0
 11
7044.99999988
 21
8977.00112518
 31
0.0
  0
LINE
  5
B3A3
330
5326
100
AcDbEntity
  8
YKK_N1
  6
Continuous
100
AcDbLine
 10
7044.99999988
 20
8977.00112518
 30
0.0
 11
7071.99999988
 21
8977.00112518
 31
0.0
  0
CIRCLE
  5
B3A4
330
5326
100
AcDbEntity
  8
YKK_N1
  6
Continuous
100
AcDbCircle
 10
7071.99999988
 20
8977.00112518
 30
0.0
 40
5.0
  0
LINE
  5
B3A5
330
5326
100
AcDbEntity
  8
YKK_N1
  6
Continuous
100
AcDbLine
 10
7044.99999988
 20
8977.00112518
 30
0.0
 11
6958.39745951
 21
8927.00112518
 31
0.0
  0
TEXT
  5
B3A6
330
5326
100
AcDbEntity
  8
YKK_N1
  6
Continuous
100
AcDbText
 10
7090.62683212
 20
8989.60902788
 30
0.0
 40
60.0
  1
27
100
AcDbText
  0
LINE
  5
B3A7
330
5326
100
AcDbEntity
  8
YKK_N1
  6
Continuous
100
AcDbLine
 10
7024.99999988
 20
9302.00112518
 30
0.0
 11
7024.99999988
 21
9177.00112518
 31
0.0
  0
LINE
  5
B3A8
330
5326
100
AcDbEntity
  8
YKK_N1
  6
Continuous
100
AcDbLine
 10
7044.99999988
 20
9177.00112518
 30
0.0
 11
7024.99999988
 21
9177.00112518
 31
0.0
  0
CIRCLE
  5
B3A9
330
5326
100
AcDbEntity
  8
YKK_N1
  6
Continuous
100
AcDbCircle
 10
7024.99999988
 20
9177.00112518
 30
0.0
 40
5.0
  0
CIRCLE
  5
B3AA
330
5326
100
AcDbEntity
  8
YKK_N1
  6
Continuous
100
AcDbCircle
 10
7044.99999988
 20
9177.00112518
 30
0.0
 40
5.0
  0
TEXT
  5
B3AB
330
5326
100
AcDbEntity
  8
YKK_N1
  6
Continuous
100
AcDbText
 10
6901.99999988
 20
9189.00112518
 30
0.0
 40
60.0
  1
20
100
AcDbText
  0
TEXT
  5
B3B7
330
5326
100
AcDbEntity
  8
YKK_N1
  6
Continuous
100
AcDbText
 10
6660.18075948
 20
9565.00124181
 30
0.0
 40
60.0
  1
86
 50
90.0
100
AcDbText
  0
CIRCLE
  5
B3B8
330
5326
100
AcDbEntity
  8
YKK_N1
  6
Continuous
100
AcDbCircle
 10
6672.18075948
 20
9538.00124181
 30
0.0
 40
5.0
  0
CIRCLE
  5
B3B9
330
5326
100
AcDbEntity
  8
YKK_N1
  6
Continuous
100
AcDbCircle
 10
6672.18075948
 20
9452.00124181
 30
0.0
 40
5.0
  0
LINE
  5
B3BA
330
5326
100
AcDbEntity
  8
YKK_N1
  6
Continuous
100
AcDbLine
 10
6672.18075959
 20
9452.00124181
 30
0.0
 11
6672.18075959
 21
9538.00124181
 31
0.0
  0
LINE
  5
B3BB
330
5326
100
AcDbEntity
  8
YKK_N1
  6
Continuous
100
AcDbLine
 10
6797.18075948
 20
9538.00112519
 30
0.0
 11
6672.18075948
 21
9538.00124181
 31
0.0
  0
LINE
  5
B3BC
330
5326
100
AcDbEntity
  8
YKK_N1
  6
Continuous
100
AcDbLine
 10
6797.18075948
 20
9452.00112519
 30
0.0
 11
6672.18075948
 21
9452.00124181
 31
0.0
  0
TEXT
  5
B3BD
330
5326
100
AcDbEntity
  8
YKK_N1
  6
Continuous
100
AcDbText
 10
10461.00000001
 20
15909.91936463
 30
0.0
 40
60.0
  1
32
 50
90.0
 72
     4
 11
10431.00000001
 21
15959.91936463
 31
0.0
100
AcDbText
  0
LINE
  5
B3BE
330
5326
100
AcDbEntity
  8
YKK_N1
  6
Continuous
100
AcDbLine
 10
10148.00000001
 20
16073.5
 30
0.0
 11
10473.00000001
 21
16073.5
 31
0.0
  0
LINE
  5
B3BF
330
5326
100
AcDbEntity
  8
YKK_N1
  6
Continuous
100
AcDbLine
 10
10148.00000001
 20
16041.5
 30
0.0
 11
10473.00000001
 21
16041.5
 31
0.0
  0
LINE
  5
B3C0
330
5326
100
AcDbEntity
  8
YKK_N1
  6
Continuous
100
AcDbLine
 10
10148.00000001
 20
18143.5
 30
0.0
 11
10473.00000001
 21
18143.5
 31
0.0
  0
LINE
  5
B3C1
330
5326
100
AcDbEntity
  8
YKK_N1
  6
Continuous
100
AcDbLine
 10
10148.00000001
 20
18168.5
 30
0.0
 11
10473.00000001
 21
18168.5
 31
0.0
  0
TEXT
  5
B3C2
330
5326
100
AcDbEntity
  8
YKK_N1
  6
Continuous
100
AcDbText
 10
10560.97517334
 20
16050.47455174
 30
0.0
 40
60.0
  1
40
 50
90.0
 72
     4
 11
10530.97517334
 21
16095.47455174
 31
0.0
100
AcDbText
  0
LINE
  5
B3C3
330
5326
100
AcDbEntity
  8
YKK_N1
  6
Continuous
100
AcDbLine
 10
10473.00000001
 20
16073.49999998
 30
0.0
 11
10473.00000001
 21
16113.49999998
 31
0.0
  0
CIRCLE
  5
B3C4
330
5326
100
AcDbEntity
  8
YKK_N1
  6
Continuous
100
AcDbCircle
 10
10473.00000001
 20
16073.49999998
 30
0.0
 40
5.0
  0
TEXT
  5
B3C5
330
5326
100
AcDbEntity
  8
YKK_N1
  6
Continuous
100
AcDbText
 10
10261.00000001
 20
17995.41734582
 30
0.0
 40
60.0
  1
30
 50
90.0
 72
     4
 11
10231.00000001
 21
18040.41734582
 31
0.0
100
AcDbText
  0
CIRCLE
  5
B3C6
330
5326
100
AcDbEntity
  8
YKK_N1
  6
Continuous
100
AcDbCircle
 10
10273.00000001
 20
18143.5
 30
0.0
 40
5.0
  0
CIRCLE
  5
B3C7
330
5326
100
AcDbEntity
  8
YKK_N1
  6
Continuous
100
AcDbCircle
 10
10273.00000001
 20
18113.5
 30
0.0
 40
5.0
  0
LINE
  5
B3C8
330
5326
100
AcDbEntity
  8
YKK_N1
  6
Continuous
100
AcDbLine
 10
10148.00000001
 20
18113.5
 30
0.0
 11
10273.00000001
 21
18113.5
 31
0.0
  0
LINE
  5
B3C9
330
5326
100
AcDbEntity
  8
YKK_N1
  6
Continuous
100
AcDbLine
 10
10273.00000001
 20
18113.5
 30
0.0
 11
10273.00000001
 21
18143.5
 31
0.0
  0
TEXT
  5
B3CA
330
5326
100
AcDbEntity
  8
YKK_N1
  6
Continuous
100
AcDbText
 10
10461.00000001
 20
16919.88906438
 30
0.0
 40
60.0
  1
H=2030
 50
90.0
 72
     4
 11
10431.00000001
 21
17079.88906438
 31
0.0
100
AcDbText
  0
LINE
  5
B3CB
330
5326
100
AcDbEntity
  8
YKK_N1
  6
Continuous
100
AcDbLine
 10
10473.00000001
 20
16113.5
 30
0.0
 11
10473.00000001
 21
18143.5
 31
0.0
  0
LINE
  5
B3CC
330
5326
100
AcDbEntity
  8
YKK_N1
  6
Continuous
100
AcDbLine
 10
10423.0
 20
16200.10254037
 30
0.0
 11
10523.0
 21
16200.10254037
 31
0.0
  0
LINE
  5
B3CD
330
5326
100
AcDbEntity
  8
YKK_N1
  6
Continuous
100
AcDbLine
 10
10473.00000001
 20
16073.5
 30
0.0
 11
10473.00000001
 21
16041.5
 31
0.0
  0
CIRCLE
  5
B3CE
330
5326
100
AcDbEntity
  8
YKK_N1
  6
Continuous
100
AcDbCircle
 10
10473.00000001
 20
16041.5
 30
0.0
 40
5.0
  0
LINE
  5
B3CF
330
5326
100
AcDbEntity
  8
YKK_N1
  6
Continuous
100
AcDbLine
 10
10423.0
 20
16200.10254037
 30
0.0
 11
10473.0
 21
16113.49999999
 31
0.0
  0
LINE
  5
B3D0
330
5326
100
AcDbEntity
  8
YKK_N1
  6
Continuous
100
AcDbLine
 10
10473.0
 20
16113.49999999
 30
0.0
 11
10523.0
 21
16200.10254037
 31
0.0
  0
LINE
  5
B3D1
330
5326
100
AcDbEntity
  8
YKK_N1
  6
Continuous
100
AcDbLine
 10
10473.00000001
 20
18143.5
 30
0.0
 11
10473.00000001
 21
18168.5
 31
0.0
  0
CIRCLE
  5
B3D2
330
5326
100
AcDbEntity
  8
YKK_N1
  6
Continuous
100
AcDbCircle
 10
10473.00000001
 20
18168.5
 30
0.0
 40
5.0
  0
TEXT
  5
B3D3
330
5326
100
AcDbEntity
  8
YKK_N1
  6
Continuous
100
AcDbText
 10
10461.00000001
 20
18203.47982785
 30
0.0
 40
60.0
  1
25
 50
90.0
 72
     4
 11
10431.00000001
 21
18253.47982785
 31
0.0
100
AcDbText
  0
LINE
  5
B3D4
330
5326
100
AcDbEntity
  8
YKK_N1
  6
Continuous
100
AcDbLine
 10
10423.00000001
 20
18056.89745962
 30
0.0
 11
10523.00000001
 21
18056.89745962
 31
0.0
  0
LINE
  5
B3D5
330
5326
100
AcDbEntity
  8
YKK_N1
  6
Continuous
100
AcDbLine
 10
10523.00000001
 20
18056.89745962
 30
0.0
 11
10473.00000001
 21
18143.5
 31
0.0
  0
LINE
  5
B3D6
330
5326
100
AcDbEntity
  8
YKK_N1
  6
Continuous
100
AcDbLine
 10
10423.00000001
 20
18056.89745962
 30
0.0
 11
10473.00000001
 21
18143.5
 31
0.0
  0
TEXT
  5
B3E5
330
5326
100
AcDbEntity
  8
YKK_N1
  6
Continuous
100
AcDbText
 10
9795.66822583
 20
17199.50623101
 30
0.0
 40
60.0
  1
86
 72
     4
 11
9845.66822583
 21
17229.50623101
 31
0.0
100
AcDbText
  0
CIRCLE
  5
B3E6
330
5326
100
AcDbEntity
  8
YKK_N1
  6
Continuous
100
AcDbCircle
 10
9998.0
 20
17187.50623101
 30
0.0
 40
5.0
  0
CIRCLE
  5
B3E7
330
5326
100
AcDbEntity
  8
YKK_N1
  6
Continuous
100
AcDbCircle
 10
9912.0
 20
17187.50623101
 30
0.0
 40
5.0
  0
LINE
  5
B3E8
330
5326
100
AcDbEntity
  8
YKK_N1
  6
Continuous
100
AcDbLine
 10
9912.0
 20
17187.50623101
 30
0.0
 11
9998.0
 21
17187.50623101
 31
0.0
  0
LINE
  5
B3E9
330
5326
100
AcDbEntity
  8
YKK_N1
  6
Continuous
100
AcDbLine
 10
9998.0
 20
17187.50623101
 30
0.0
 11
9998.0
 21
17062.50623101
 31
0.0
  0
LINE
  5
B3EA
330
5326
100
AcDbEntity
  8
YKK_N1
  6
Continuous
100
AcDbLine
 10
10148.00000001
 20
16113.5
 30
0.0
 11
10473.00000001
 21
16113.5
 31
0.0
  0
LINE
  5
B3EB
330
5326
100
AcDbEntity
  8
YKK_N1
  6
Continuous
100
AcDbLine
 10
9912.0
 20
17187.50623101
 30
0.0
 11
9912.0
 21
17062.50623101
 31
0.0
  0
CIRCLE
  5
B43A
330
5326
100
AcDbEntity
  8
YKK_N1
  6
Continuous
100
AcDbCircle
 10
9899.00011306
 20
15768.00079524
 30
0.0
 40
5.0
  0
TEXT
  5
B43B
330
5326
100
AcDbEntity
  8
YKK_N1
100
AcDbText
 10
9797.68398149
 20
15780.76187198
 30
0.0
 40
60.0
  1
13
100
AcDbText
  0
LINE
  5
B43C
330
5326
100
AcDbEntity
  8
YKK_N1
  6
Continuous
100
AcDbLine
 10
9899.00011306
 20
15768.00079524
 30
0.0
 11
9912.00011306
 21
15768.00079524
 31
0.0
  0
LINE
  5
B43D
330
5326
100
AcDbEntity
  8
YKK_N1
  6
Continuous
100
AcDbLine
 10
9912.00011306
 20
15891.50079524
 30
0.0
 11
9912.00011306
 21
15767.50079524
 31
0.0
  0
LINE
  5
B43E
330
5326
100
AcDbEntity
  8
YKK_N1
  6
Continuous
100
AcDbLine
 10
9899.00011306
 20
15891.50079524
 30
0.0
 11
9899.00011306
 21
15767.50079524
 31
0.0
  0
TEXT
  5
B43F
330
5326
100
AcDbEntity
  8
YKK_N1
100
AcDbText
 10
10027.03861235
 20
15786.04434266
 30
0.0
 40
60.0
  1
15
100
AcDbText
  0
LINE
  5
B440
330
5326
100
AcDbEntity
  8
YKK_N1
  6
Continuous
100
AcDbLine
 10
9998.00011306
 20
15768.00079524
 30
0.0
 11
10013.00011306
 21
15768.00079524
 31
0.0
  0
LINE
  5
B441
330
5326
100
AcDbEntity
  8
YKK_N1
  6
Continuous
100
AcDbLine
 10
10013.00011306
 20
15891.50079524
 30
0.0
 11
10013.00011306
 21
15767.50079524
 31
0.0
  0
LINE
  5
B442
330
5326
100
AcDbEntity
  8
YKK_N1
  6
Continuous
100
AcDbLine
 10
9998.00011306
 20
15891.50079524
 30
0.0
 11
9998.00011306
 21
15767.50079524
 31
0.0
  0
TEXT
  5
B443
330
5326
100
AcDbEntity
  8
YKK_N1
100
AcDbText
 10
9993.68996365
 20
15682.91436207
 30
0.0
 40
60.0
  1
27
100
AcDbText
  0
LINE
  5
B444
330
5326
100
AcDbEntity
  8
YKK_N1
  6
Continuous
100
AcDbLine
 10
9971.00011306
 20
15768.00079524
 30
0.0
 11
9998.00011306
 21
15768.00079524
 31
0.0
  0
LINE
  5
B445
330
5326
100
AcDbEntity
  8
YKK_N1
  6
Continuous
100
AcDbLine
 10
9998.00011306
 20
15891.50079524
 30
0.0
 11
9998.00011306
 21
15767.50079524
 31
0.0
  0
LINE
  5
B446
330
5326
100
AcDbEntity
  8
YKK_N1
  6
Continuous
100
AcDbLine
 10
9971.00011306
 20
15891.50079524
 30
0.0
 11
9971.00011306
 21
15767.50079524
 31
0.0
  0
TEXT
  5
B447
330
5326
100
AcDbEntity
  8
YKK_N1
100
AcDbText
 10
9799.15401107
 20
15683.77071857
 30
0.0
 40
60.0
  1
59
100
AcDbText
  0
LINE
  5
B448
330
5326
100
AcDbEntity
  8
YKK_N1
  6
Continuous
100
AcDbLine
 10
9912.00011306
 20
15768.00079524
 30
0.0
 11
9971.00011306
 21
15768.00079524
 31
0.0
  0
LINE
  5
B449
330
5326
100
AcDbEntity
  8
YKK_N1
  6
Continuous
100
AcDbLine
 10
9971.00011306
 20
15891.50079524
 30
0.0
 11
9971.00011306
 21
15767.50079524
 31
0.0
  0
LINE
  5
B44A
330
5326
100
AcDbEntity
  8
YKK_N1
  6
Continuous
100
AcDbLine
 10
9912.00011306
 20
15891.50079524
 30
0.0
 11
9912.00011306
 21
15767.50079524
 31
0.0
  0
CIRCLE
  5
B44B
330
5326
100
AcDbEntity
  8
YKK_N1
  6
Continuous
100
AcDbCircle
 10
9912.00011306
 20
15768.00079524
 30
0.0
 40
5.0
  0
CIRCLE
  5
B44C
330
5326
100
AcDbEntity
  8
YKK_N1
  6
Continuous
100
AcDbCircle
 10
10013.00011306
 20
15768.00079524
 30
0.0
 40
5.0
  0
CIRCLE
  5
B44D
330
5326
100
AcDbEntity
  8
YKK_N1
  6
Continuous
100
AcDbCircle
 10
9998.00011306
 20
15768.00079524
 30
0.0
 40
5.0
  0
CIRCLE
  5
B44E
330
5326
100
AcDbEntity
  8
YKK_N1
  6
Continuous
100
AcDbCircle
 10
9971.00011306
 20
15768.00079524
 30
0.0
 40
5.0
  0
LINE
  5
B450
330
5326
100
AcDbEntity
  8
YKK_N1
100
AcDbLine
 10
9941.50011306
 20
15768.00079524
 30
0.0
 11
9906.42342092
 21
15667.36354404
 31
0.0
  0
LINE
  5
B451
330
5326
100
AcDbEntity
  8
YKK_N1
100
AcDbLine
 10
9906.42342092
 20
15667.36354404
 30
0.0
 11
9788.01937459
 21
15667.36354404
 31
0.0
  0
TEXT
  5
B452
330
5326
100
AcDbEntity
  8
YKK_N1
  6
Continuous
100
AcDbText
 10
7334.99994013
 20
9312.26042826
 30
0.0
 40
60.0
  1
15
 50
90.0
100
AcDbText
  0
TEXT
  5
B453
330
5326
100
AcDbEntity
  8
YKK_N1
  6
Continuous
100
AcDbText
 10
7334.99994013
 20
9552.36518766
 30
0.0
 40
60.0
  1
59
 50
90.0
100
AcDbText
  0
LINE
  5
B454
330
5326
100
AcDbEntity
  8
YKK_N1
  6
Continuous
100
AcDbLine
 10
7221.99994013
 20
9478.9999998
 30
0.0
 11
7346.99994013
 21
9478.9999998
 31
0.0
  0
LINE
  5
B455
330
5326
100
AcDbEntity
  8
YKK_N1
  6
Continuous
100
AcDbLine
 10
7221.99994013
 20
9537.9999998
 30
0.0
 11
7346.99994013
 21
9537.9999998
 31
0.0
  0
LINE
  5
B456
330
5326
100
AcDbEntity
  8
YKK_N1
  6
Continuous
100
AcDbLine
 10
7221.99994013
 20
9451.9999998
 30
0.0
 11
7346.99994013
 21
9451.9999998
 31
0.0
  0
LINE
  5
B457
330
5326
100
AcDbEntity
  8
YKK_N1
  6
Continuous
100
AcDbLine
 10
7221.99994013
 20
9436.9999998
 30
0.0
 11
7346.99994013
 21
9436.9999998
 31
0.0
  0
TEXT
  5
B458
330
5326
100
AcDbEntity
  8
YKK_N1
  6
Continuous
100
AcDbText
 10
7418.99994013
 20
9418.05996301
 30
0.0
 40
60.0
  1
27
 50
90.0
100
AcDbText
  0
CIRCLE
  5
B459
330
5326
100
AcDbEntity
  8
YKK_N1
  6
Continuous
100
AcDbCircle
 10
7346.99994013
 20
9537.9999998
 30
0.0
 40
5.0
  0
CIRCLE
  5
B45A
330
5326
100
AcDbEntity
  8
YKK_N1
  6
Continuous
100
AcDbCircle
 10
7346.99994013
 20
9478.9999998
 30
0.0
 40
5.0
  0
CIRCLE
  5
B45B
330
5326
100
AcDbEntity
  8
YKK_N1
  6
Continuous
100
AcDbCircle
 10
7346.99994013
 20
9436.9999998
 30
0.0
 40
5.0
  0
CIRCLE
  5
B45C
330
5326
100
AcDbEntity
  8
YKK_N1
  6
Continuous
100
AcDbCircle
 10
7346.99994013
 20
9451.9999998
 30
0.0
 40
5.0
  0
LINE
  5
B45D
330
5326
100
AcDbEntity
  8
YKK_N1
  6
Continuous
100
AcDbLine
 10
7346.99994013
 20
9451.9999998
 30
0.0
 11
7346.99994013
 21
9436.9999998
 31
0.0
  0
LINE
  5
B45E
330
5326
100
AcDbEntity
  8
YKK_N1
  6
Continuous
100
AcDbLine
 10
7346.99994013
 20
9478.9999998
 30
0.0
 11
7346.99994013
 21
9451.9999998
 31
0.0
  0
LINE
  5
B45F
330
5326
100
AcDbEntity
  8
YKK_N1
  6
Continuous
100
AcDbLine
 10
7346.99994013
 20
9537.9999998
 30
0.0
 11
7346.99994013
 21
9478.9999998
 31
0.0
  0
LINE
  5
B464
330
5326
100
AcDbEntity
  8
YKK_A1
100
AcDbLine
 10
5354.99999988
 20
18143.49999999
 30
0.0
 11
7044.99994013
 21
18143.49999999
 31
0.0
  0
LINE
  5
B465
330
5326
100
AcDbEntity
  8
YKK_A1
100
AcDbLine
 10
5354.99999988
 20
18112.50000015
 30
0.0
 11
7044.99994013
 21
18112.50000015
 31
0.0
  0
LINE
  5
B466
330
5326
100
AcDbEntity
  8
YKK_A1
100
AcDbLine
 10
6225.0001847
 20
18063.50060267
 30
0.0
 11
6965.99994015
 21
18063.50060267
 31
0.0
  0
LINE
  5
B467
330
5326
100
AcDbEntity
  8
YKK_A1
100
AcDbLine
 10
6225.0001847
 20
16180.50079524
 30
0.0
 11
6965.99994015
 21
16180.50079524
 31
0.0
  0
LINE
  5
B468
330
5326
100
AcDbEntity
  8
YKK_A1
100
AcDbLine
 10
5354.99999988
 20
16113.49986352
 30
0.0
 11
7044.99994013
 21
16113.49986352
 31
0.0
  0
LINE
  5
B469
330
5326
100
AcDbEntity
  8
YKK_A1
100
AcDbLine
 10
5354.99999988
 20
16056.50003903
 30
0.0
 11
7044.99994013
 21
16056.50003903
 31
0.0
  0
LINE
  5
B46A
330
5326
100
AcDbEntity
  8
YKK_A1
100
AcDbLine
 10
5354.99999988
 20
16056.50003903
 30
0.0
 11
5354.99999988
 21
18143.49999999
 31
0.0
  0
LINE
  5
B46B
330
5326
100
AcDbEntity
  8
YKK_A1
100
AcDbLine
 10
5374.99999988
 20
16113.49986352
 30
0.0
 11
5374.99999988
 21
18112.50000015
 31
0.0
  0
LINE
  5
B46C
330
5326
100
AcDbEntity
  8
YKK_A1
100
AcDbLine
 10
5433.99999988
 20
18063.50060267
 30
0.0
 11
5433.99999988
 21
16180.50079524
 31
0.0
  0
LINE
  5
B46D
330
5326
100
AcDbEntity
  8
YKK_A1
100
AcDbLine
 10
6175.0001847
 20
18112.50000015
 30
0.0
 11
6175.0001847
 21
16113.49986352
 31
0.0
  0
LINE
  5
B46E
330
5326
100
AcDbEntity
  8
YKK_A1
100
AcDbLine
 10
6225.0001847
 20
16180.50079524
 30
0.0
 11
6225.0001847
 21
18063.50060267
 31
0.0
  0
LINE
  5
B46F
330
5326
100
AcDbEntity
  8
YKK_A1
100
AcDbLine
 10
6965.99994015
 20
16180.50079524
 30
0.0
 11
6965.99994015
 21
18063.50060267
 31
0.0
  0
LINE
  5
B470
330
5326
100
AcDbEntity
  8
YKK_A1
100
AcDbLine
 10
7024.99994013
 20
18112.50000015
 30
0.0
 11
7024.99994013
 21
16113.49986352
 31
0.0
  0
LINE
  5
B471
330
5326
100
AcDbEntity
  8
YKK_A1
100
AcDbLine
 10
7044.99994013
 20
18143.49999999
 30
0.0
 11
7044.99994013
 21
16056.50003903
 31
0.0
  0
LINE
  5
B472
330
5326
100
AcDbEntity
  8
YKK_A1
100
AcDbLine
 10
6175.0001847
 20
18063.50060267
 30
0.0
 11
5433.99999988
 21
18063.50060267
 31
0.0
  0
LINE
  5
B475
330
5326
100
AcDbEntity
  8
YKK_A1
100
AcDbLine
 10
6175.0001847
 20
16180.50079524
 30
0.0
 11
5433.99999988
 21
16180.50079524
 31
0.0
  0
LINE
  5
B477
330
5326
100
AcDbEntity
  8
YKK_IN
  6
Continuous
100
AcDbLine
 10
6164.64466083
 20
16108.8561343
 30
0.0
 11
6235.35533894
 21
16038.14545618
 31
0.0
  0
CIRCLE
  5
B478
330
5326
100
AcDbEntity
  8
YKK_IN
  6
Continuous
100
AcDbCircle
 10
6199.99999988
 20
16073.50079524
 30
0.0
 40
25.0
  0
LINE
  5
B479
330
5326
100
AcDbEntity
  8
YKK_IN
  6
Continuous
100
AcDbLine
 10
6164.64466083
 20
16038.14545618
 30
0.0
 11
6235.35533894
 21
16108.8561343
 31
0.0
  0
LINE
  5
B47A
330
5326
100
AcDbEntity
  8
YKK_A1
  6
Continuous
 48
0.5
100
AcDbLine
 10
6503.83135558
 20
17218.85003477
 30
0.0
 11
6473.83526361
 21
17198.85125666
 31
0.0
  0
LINE
  5
B47B
330
5326
100
AcDbEntity
  8
YKK_A1
  6
Continuous
 48
0.5
100
AcDbLine
 10
6503.83135558
 20
17218.85003477
 30
0.0
 11
6503.83135558
 21
17206.35491833
 31
0.0
  0
LINE
  5
B47C
330
5326
100
AcDbEntity
  8
YKK_A1
  6
Continuous
 48
0.5
100
AcDbLine
 10
6503.83526183
 20
17191.35369852
 30
0.0
 11
6503.83526183
 21
17178.85247856
 31
0.0
  0
LINE
  5
B47D
330
5326
100
AcDbEntity
  8
YKK_A1
  6
Continuous
 48
0.5
100
AcDbLine
 10
6687.16858423
 20
17206.36102184
 30
0.0
 11
6503.83135558
 21
17206.35491833
 31
0.0
  0
LINE
  5
B47E
330
5326
100
AcDbEntity
  8
YKK_A1
  6
Continuous
 48
0.5
100
AcDbLine
 10
6503.83526183
 20
17178.85247856
 30
0.0
 11
6473.83526361
 21
17198.85125666
 31
0.0
  0
LINE
  5
B47F
330
5326
100
AcDbEntity
  8
YKK_A1
  6
Continuous
 48
0.5
100
AcDbLine
 10
5895.05329274
 20
17518.84964333
 30
0.0
 11
5925.0493847
 21
17498.85086523
 31
0.0
  0
LINE
  5
B480
330
5326
100
AcDbEntity
  8
YKK_A1
  6
Continuous
 48
0.5
100
AcDbLine
 10
5895.05329274
 20
17518.84964333
 30
0.0
 11
5895.05329274
 21
17506.35452689
 31
0.0
  0
LINE
  5
B481
330
5326
100
AcDbEntity
  8
YKK_A1
  6
Continuous
 48
0.5
100
AcDbLine
 10
5895.04938649
 20
17491.35330708
 30
0.0
 11
5895.04938649
 21
17478.85208712
 31
0.0
  0
LINE
  5
B482
330
5326
100
AcDbEntity
  8
YKK_A1
  6
Continuous
 48
0.5
100
AcDbLine
 10
5713.71606397
 20
17506.3606304
 30
0.0
 11
5895.05329274
 21
17506.35452689
 31
0.0
  0
LINE
  5
B483
330
5326
100
AcDbEntity
  8
YKK_A1
  6
Continuous
 48
0.5
100
AcDbLine
 10
5713.70825147
 20
17491.36258442
 30
0.0
 11
5895.04938649
 21
17491.35330708
 31
0.0
  0
LINE
  5
B484
330
5326
100
AcDbEntity
  8
YKK_A1
  6
Continuous
 48
0.5
100
AcDbLine
 10
5895.04938649
 20
17478.85208712
 30
0.0
 11
5925.0493847
 21
17498.85086523
 31
0.0
  0
LINE
  5
B485
330
5326
100
AcDbEntity
  8
YKK_A1
  6
Continuous
 48
0.5
100
AcDbLine
 10
5713.71606397
 20
17506.3606304
 30
0.0
 11
5713.71606397
 21
17491.36258442
 31
0.0
  0
LINE
  5
B486
330
5326
100
AcDbEntity
  8
YKK_A1
100
AcDbLine
 10
6503.83526183
 20
17191.35369852
 30
0.0
 11
6687.16858423
 21
17191.35369852
 31
0.0
  0
LINE
  5
B487
330
5326
100
AcDbEntity
  8
YKK_A1
100
AcDbLine
 10
6687.16858423
 20
17206.36102184
 30
0.0
 11
6687.16858423
 21
17191.35369852
 31
0.0
  0
LINE
  5
B488
330
5326
100
AcDbEntity
  8
YKK_N1
  6
Continuous
100
AcDbLine
 10
5354.99999988
 20
15856.50003903
 30
0.0
 11
7044.99999988
 21
15856.50003903
 31
0.0
  0
LINE
  5
B489
330
5326
100
AcDbEntity
  8
YKK_N1
  6
Continuous
100
AcDbLine
 10
5441.60069115
 20
15806.50110661
 30
0.0
 11
5441.60069115
 21
15906.50110661
 31
0.0
  0
LINE
  5
B48A
330
5326
100
AcDbEntity
  8
YKK_N1
  6
Continuous
100
AcDbLine
 10
5354.99815077
 20
15856.50110661
 30
0.0
 11
5441.60069115
 21
15906.50110661
 31
0.0
  0
LINE
  5
B48B
330
5326
100
AcDbEntity
  8
YKK_N1
  6
Continuous
100
AcDbLine
 10
5441.60069115
 20
15806.50110661
 30
0.0
 11
5354.99815077
 21
15856.50110661
 31
0.0
  0
TEXT
  5
B48C
330
5326
100
AcDbEntity
  8
YKK_N1
  6
Continuous
100
AcDbText
 10
6029.99815077
 20
15868.50003903
 30
0.0
 40
60.0
  1
W=1690
100
AcDbText
  0
LINE
  5
B48D
330
5326
100
AcDbEntity
  8
YKK_N1
  6
Continuous
100
AcDbLine
 10
7044.99999988
 20
15981.50003903
 30
0.0
 11
7044.99999988
 21
15856.50003903
 31
0.0
  0
LINE
  5
B48E
330
5326
100
AcDbEntity
  8
YKK_N1
  6
Continuous
100
AcDbLine
 10
6958.39745951
 20
15806.50003903
 30
0.0
 11
6958.39745951
 21
15906.50003903
 31
0.0
  0
LINE
  5
B48F
330
5326
100
AcDbEntity
  8
YKK_N1
  6
Continuous
100
AcDbLine
 10
7044.99999988
 20
15856.50003903
 30
0.0
 11
6958.39745951
 21
15906.50003903
 31
0.0
  0
LINE
  5
B490
330
5326
100
AcDbEntity
  8
YKK_N1
  6
Continuous
100
AcDbLine
 10
6958.39745951
 20
15806.50003903
 30
0.0
 11
7044.99999988
 21
15856.50003903
 31
0.0
  0
LINE
  5
B491
330
5326
100
AcDbEntity
  8
YKK_N1
  6
Continuous
100
AcDbLine
 10
7244.99994013
 20
18143.5
 30
0.0
 11
7244.99994013
 21
16113.5
 31
0.0
  0
TEXT
  5
B492
330
5326
100
AcDbEntity
  8
YKK_N1
  6
Continuous
100
AcDbText
 10
7239.49868958
 20
16956.46062921
 30
0.0
 40
60.0
  1
H=2030
 50
90.0
100
AcDbText
  0
LINE
  5
B493
330
5326
100
AcDbEntity
  8
YKK_N1
  6
Continuous
100
AcDbLine
 10
7119.99994013
 20
16113.5
 30
0.0
 11
7244.99994013
 21
16113.5
 31
0.0
  0
LINE
  5
B494
330
5326
100
AcDbEntity
  8
YKK_N1
  6
Continuous
100
AcDbLine
 10
7194.99994013
 20
16200.10254037
 30
0.0
 11
7244.99994013
 21
16113.49999999
 31
0.0
  0
LINE
  5
B495
330
5326
100
AcDbEntity
  8
YKK_N1
  6
Continuous
100
AcDbLine
 10
7194.99994013
 20
16200.10254037
 30
0.0
 11
7294.99994013
 21
16200.10254037
 31
0.0
  0
LINE
  5
B496
330
5326
100
AcDbEntity
  8
YKK_N1
  6
Continuous
100
AcDbLine
 10
7244.99994013
 20
16113.49999999
 30
0.0
 11
7294.99994013
 21
16200.10254037
 31
0.0
  0
LINE
  5
B497
330
5326
100
AcDbEntity
  8
YKK_N1
  6
Continuous
100
AcDbLine
 10
7124.99994013
 20
18143.5
 30
0.0
 11
7244.99994013
 21
18143.5
 31
0.0
  0
LINE
  5
B498
330
5326
100
AcDbEntity
  8
YKK_N1
  6
Continuous
100
AcDbLine
 10
7194.99994013
 20
18056.89745962
 30
0.0
 11
7244.99994013
 21
18143.5
 31
0.0
  0
LINE
  5
B499
330
5326
100
AcDbEntity
  8
YKK_N1
  6
Continuous
100
AcDbLine
 10
7294.99994013
 20
18056.89745962
 30
0.0
 11
7244.99994013
 21
18143.5
 31
0.0
  0
LINE
  5
B49A
330
5326
100
AcDbEntity
  8
YKK_N1
  6
Continuous
100
AcDbLine
 10
7194.99994013
 20
18056.89745962
 30
0.0
 11
7294.99994013
 21
18056.89745962
 31
0.0
  0
LINE
  5
B49B
330
5326
100
AcDbEntity
  8
YKK_N1
  6
Continuous
100
AcDbLine
 10
5354.99999988
 20
15981.50003903
 30
0.0
 11
5354.99999988
 21
15856.50003903
 31
0.0
  0
LINE
  5
B4A0
330
5326
100
AcDbEntity
  8
YKK_F1
 62
     7
100
AcDbLine
 10
0.0
 20
15200.0
 30
0.0
 11
27000.0
 21
15200.0
 31
0.0
  0
LINE
  5
B4F8
330
5326
100
AcDbEntity
  8
YKK_C1
100
AcDbLine
 10
9998.0
 20
14443.49999999
 30
0.0
 11
9998.0
 21
14413.49999999
 31
0.0
  0
LINE
  5
B4F9
330
5326
100
AcDbEntity
  8
YKK_C1
100
AcDbLine
 10
9971.0
 20
14468.49999999
 30
0.0
 11
9971.0
 21
14435.49999999
 31
0.0
  0
LINE
  5
B4FA
330
5326
100
AcDbEntity
  8
YKK_C1
100
AcDbLine
 10
9912.0
 20
14412.50000015
 30
0.0
 11
9912.0
 21
14443.49999999
 31
0.0
  0
LINE
  5
B4FB
330
5326
100
AcDbEntity
  8
YKK_C1
100
AcDbLine
 10
9912.0
 20
14443.49999999
 30
0.0
 11
9971.0
 21
14443.49999999
 31
0.0
  0
LINE
  5
B4FC
330
5326
100
AcDbEntity
  8
YKK_C1
100
AcDbLine
 10
9912.0
 20
14435.49999999
 30
0.0
 11
9998.0
 21
14435.49999999
 31
0.0
  0
LINE
  5
B4FD
330
5326
100
AcDbEntity
  8
YKK_C1
100
AcDbLine
 10
9933.9
 20
14408.49999999
 30
0.0
 11
9933.9
 21
14435.49999999
 31
0.0
  0
LINE
  5
B4FE
330
5326
100
AcDbEntity
  8
YKK_C1
100
AcDbLine
 10
9974.9
 20
14408.49999999
 30
0.0
 11
9974.9
 21
14435.49999999
 31
0.0
  0
LINE
  5
B4FF
330
5326
100
AcDbEntity
  8
YKK_C1
100
AcDbLine
 10
9921.50275862
 20
14416.50060267
 30
0.0
 11
9921.50275862
 21
14363.50060267
 31
0.0
  0
LINE
  5
B500
330
5326
100
AcDbEntity
  8
YKK_C1
100
AcDbLine
 10
9951.40275862
 20
14363.50060269
 30
0.0
 11
9951.40275862
 21
14416.50060269
 31
0.0
  0
LINE
  5
B501
330
5326
100
AcDbEntity
  8
YKK_C1
100
AcDbLine
 10
9921.50275862
 20
14395.30060267
 30
0.0
 11
9951.40275862
 21
14395.30060267
 31
0.0
  0
LINE
  5
B502
330
5326
100
AcDbEntity
  8
YKK_C1
100
AcDbLine
 10
9951.40275862
 20
14379.50060267
 30
0.0
 11
9921.50275862
 21
14379.50060267
 31
0.0
  0
LINE
  5
B503
330
5326
100
AcDbEntity
  8
YKK_C1
100
AcDbLine
 10
9962.50275862
 20
14416.50060267
 30
0.0
 11
9962.50275862
 21
14363.50060267
 31
0.0
  0
LINE
  5
B504
330
5326
100
AcDbEntity
  8
YKK_C1
100
AcDbLine
 10
9992.40275862
 20
14363.50060269
 30
0.0
 11
9992.40275862
 21
14416.50060269
 31
0.0
  0
LINE
  5
B505
330
5326
100
AcDbEntity
  8
YKK_C1
100
AcDbLine
 10
9992.40275862
 20
14395.30060267
 30
0.0
 11
9962.50275862
 21
14395.30060267
 31
0.0
  0
LINE
  5
B506
330
5326
100
AcDbEntity
  8
YKK_C1
100
AcDbLine
 10
9962.50275862
 20
14379.50060267
 30
0.0
 11
9992.40275862
 21
14379.50060267
 31
0.0
  0
LINE
  5
B507
330
5326
100
AcDbEntity
  8
YKK_C1
100
AcDbLine
 10
9998.00000001
 20
12213.50079524
 30
0.0
 11
9998.00000001
 21
12173.50079524
 31
0.0
  0
LINE
  5
B508
330
5326
100
AcDbEntity
  8
YKK_C1
100
AcDbLine
 10
9998.00000001
 20
12173.50079524
 30
0.0
 11
9899.00011306
 21
12173.50079524
 31
0.0
  0
LINE
  5
B509
330
5326
100
AcDbEntity
  8
YKK_C1
100
AcDbLine
 10
9971.00010742
 20
12141.50079524
 30
0.0
 11
9971.00010742
 21
12173.50004021
 31
0.0
  0
LINE
  5
B50A
330
5326
100
AcDbEntity
  8
YKK_C1
100
AcDbLine
 10
9899.00000001
 20
12213.49986352
 30
0.0
 11
9899.00019587
 21
12156.50003903
 31
0.0
  0
LINE
  5
B50B
330
5326
100
AcDbEntity
  8
YKK_C1
100
AcDbLine
 10
9899.00006358
 20
12195.00079524
 30
0.0
 11
9998.00000001
 21
12195.00079524
 31
0.0
  0
LINE
  5
B50C
330
5326
100
AcDbEntity
  8
YKK_C1
100
AcDbLine
 10
9934.00000001
 20
12213.50079554
 30
0.0
 11
9934.00000001
 21
12195.00079524
 31
0.0
  0
LINE
  5
B50D
330
5326
100
AcDbEntity
  8
YKK_C1
100
AcDbLine
 10
9975.00000001
 20
12213.50079554
 30
0.0
 11
9975.00000001
 21
12195.00079524
 31
0.0
  0
LINE
  5
B50E
330
5326
100
AcDbEntity
  8
YKK_C1
100
AcDbLine
 10
9921.50000001
 20
12280.50079524
 30
0.0
 11
9921.50000001
 21
12205.00079524
 31
0.0
  0
LINE
  5
B50F
330
5326
100
AcDbEntity
  8
YKK_C1
100
AcDbLine
 10
9951.40000001
 20
12280.50079524
 30
0.0
 11
9951.40000001
 21
12216.50079524
 31
0.0
  0
LINE
  5
B510
330
5326
100
AcDbEntity
  8
YKK_C1
100
AcDbLine
 10
9921.50000001
 20
12258.90079524
 30
0.0
 11
9951.40000001
 21
12258.90079524
 31
0.0
  0
LINE
  5
B511
330
5326
100
AcDbEntity
  8
YKK_C1
100
AcDbLine
 10
9921.50000001
 20
12223.60079524
 30
0.0
 11
9951.40000001
 21
12223.60079524
 31
0.0
  0
LINE
  5
B512
330
5326
100
AcDbEntity
  8
YKK_C1
100
AcDbLine
 10
9962.50000001
 20
12280.50079524
 30
0.0
 11
9962.50000001
 21
12205.00079524
 31
0.0
  0
LINE
  5
B513
330
5326
100
AcDbEntity
  8
YKK_C1
100
AcDbLine
 10
9992.40000001
 20
12280.50079524
 30
0.0
 11
9992.40000001
 21
12216.50079524
 31
0.0
  0
LINE
  5
B514
330
5326
100
AcDbEntity
  8
YKK_C1
100
AcDbLine
 10
9962.50000001
 20
12258.90079524
 30
0.0
 11
9992.40000001
 21
12258.90079524
 31
0.0
  0
LINE
  5
B515
330
5326
100
AcDbEntity
  8
YKK_C1
100
AcDbLine
 10
9962.50000001
 20
12223.60079524
 30
0.0
 11
9992.40000001
 21
12223.60079524
 31
0.0
  0
LINE
  5
B516
330
5326
100
AcDbEntity
  8
YKK_C1
100
AcDbLine
 10
9936.10000001
 20
14375.5
 30
0.0
 11
9936.10000001
 21
12268.50079507
 31
0.0
  0
LINE
  5
B517
330
5326
100
AcDbEntity
  8
YKK_IN
  6
Continuous
100
AcDbLine
 10
9935.64466095
 20
12208.8561343
 30
0.0
 11
10006.35533907
 21
12138.14545618
 31
0.0
  0
CIRCLE
  5
B518
330
5326
100
AcDbEntity
  8
YKK_IN
  6
Continuous
100
AcDbCircle
 10
9971.00000001
 20
12173.50079524
 30
0.0
 40
25.0
  0
LINE
  5
B519
330
5326
100
AcDbEntity
  8
YKK_IN
  6
Continuous
100
AcDbLine
 10
9935.64466095
 20
12138.14545618
 30
0.0
 11
10006.35533907
 21
12208.8561343
 31
0.0
  0
LINE
  5
B51A
330
5326
100
AcDbEntity
  8
YKK_C1
100
AcDbLine
 10
9912.00000001
 20
14402.50000015
 30
0.0
 11
9912.00000001
 21
12223.49986352
 31
0.0
  0
LINE
  5
B51B
330
5326
100
AcDbEntity
  8
YKK_C1
100
AcDbLine
 10
9998.0
 20
14413.49999999
 30
0.0
 11
9998.0
 21
14403.49999999
 31
0.0
  0
LINE
  5
B51C
330
5326
100
AcDbEntity
  8
YKK_C1
100
AcDbLine
 10
9977.10000001
 20
14375.5
 30
0.0
 11
9977.10000001
 21
12268.50079507
 31
0.0
  0
LINE
  5
B51D
330
5326
100
AcDbEntity
  8
YKK_C1
100
AcDbLine
 10
9998.0
 20
14403.49999999
 30
0.0
 11
9998.0
 21
12223.50079524
 31
0.0
  0
TEXT
  5
B51E
330
5326
100
AcDbEntity
  8
YKK_N1
  6
Continuous
100
AcDbText
 10
10461.00000001
 20
12009.91936463
 30
0.0
 40
60.0
  1
32
 50
90.0
 72
     4
 11
10431.00000001
 21
12059.91936463
 31
0.0
100
AcDbText
  0
LINE
  5
B51F
330
5326
100
AcDbEntity
  8
YKK_N1
  6
Continuous
100
AcDbLine
 10
10148.00000001
 20
12173.5
 30
0.0
 11
10473.00000001
 21
12173.5
 31
0.0
  0
LINE
  5
B520
330
5326
100
AcDbEntity
  8
YKK_N1
  6
Continuous
100
AcDbLine
 10
10148.00000001
 20
12141.5
 30
0.0
 11
10473.00000001
 21
12141.5
 31
0.0
  0
LINE
  5
B521
330
5326
100
AcDbEntity
  8
YKK_N1
  6
Continuous
100
AcDbLine
 10
10148.00000001
 20
14443.5
 30
0.0
 11
10473.00000001
 21
14443.5
 31
0.0
  0
LINE
  5
B522
330
5326
100
AcDbEntity
  8
YKK_N1
  6
Continuous
100
AcDbLine
 10
10148.00000001
 20
14468.5
 30
0.0
 11
10473.00000001
 21
14468.5
 31
0.0
  0
TEXT
  5
B523
330
5326
100
AcDbEntity
  8
YKK_N1
  6
Continuous
100
AcDbText
 10
10560.97517334
 20
12150.47455174
 30
0.0
 40
60.0
  1
40
 50
90.0
 72
     4
 11
10530.97517334
 21
12195.47455174
 31
0.0
100
AcDbText
  0
LINE
  5
B524
330
5326
100
AcDbEntity
  8
YKK_N1
  6
Continuous
100
AcDbLine
 10
10473.00000001
 20
12173.49999998
 30
0.0
 11
10473.00000001
 21
12213.49999998
 31
0.0
  0
CIRCLE
  5
B525
330
5326
100
AcDbEntity
  8
YKK_N1
  6
Continuous
100
AcDbCircle
 10
10473.00000001
 20
12173.49999998
 30
0.0
 40
5.0
  0
TEXT
  5
B526
330
5326
100
AcDbEntity
  8
YKK_N1
  6
Continuous
100
AcDbText
 10
10261.00000001
 20
14295.41734582
 30
0.0
 40
60.0
  1
30
 50
90.0
 72
     4
 11
10231.00000001
 21
14340.41734582
 31
0.0
100
AcDbText
  0
CIRCLE
  5
B527
330
5326
100
AcDbEntity
  8
YKK_N1
  6
Continuous
100
AcDbCircle
 10
10273.00000001
 20
14443.5
 30
0.0
 40
5.0
  0
CIRCLE
  5
B528
330
5326
100
AcDbEntity
  8
YKK_N1
  6
Continuous
100
AcDbCircle
 10
10273.00000001
 20
14413.5
 30
0.0
 40
5.0
  0
LINE
  5
B529
330
5326
100
AcDbEntity
  8
YKK_N1
  6
Continuous
100
AcDbLine
 10
10148.00000001
 20
14413.5
 30
0.0
 11
10273.00000001
 21
14413.5
 31
0.0
  0
LINE
  5
B52A
330
5326
100
AcDbEntity
  8
YKK_N1
  6
Continuous
100
AcDbLine
 10
10273.00000001
 20
14413.5
 30
0.0
 11
10273.00000001
 21
14443.5
 31
0.0
  0
TEXT
  5
B52B
330
5326
100
AcDbEntity
  8
YKK_N1
  6
Continuous
100
AcDbText
 10
10461.00000001
 20
13114.88906438
 30
0.0
 40
60.0
  1
H=2230
 50
90.0
 72
     4
 11
10431.00000001
 21
13279.88906438
 31
0.0
100
AcDbText
  0
LINE
  5
B52C
330
5326
100
AcDbEntity
  8
YKK_N1
  6
Continuous
100
AcDbLine
 10
10473.00000001
 20
12213.5
 30
0.0
 11
10473.00000001
 21
14443.5
 31
0.0
  0
LINE
  5
B52D
330
5326
100
AcDbEntity
  8
YKK_N1
  6
Continuous
100
AcDbLine
 10
10423.0
 20
12300.10254037
 30
0.0
 11
10523.0
 21
12300.10254037
 31
0.0
  0
LINE
  5
B52E
330
5326
100
AcDbEntity
  8
YKK_N1
  6
Continuous
100
AcDbLine
 10
10473.00000001
 20
12173.5
 30
0.0
 11
10473.00000001
 21
12141.5
 31
0.0
  0
CIRCLE
  5
B52F
330
5326
100
AcDbEntity
  8
YKK_N1
  6
Continuous
100
AcDbCircle
 10
10473.00000001
 20
12141.5
 30
0.0
 40
5.0
  0
LINE
  5
B530
330
5326
100
AcDbEntity
  8
YKK_N1
  6
Continuous
100
AcDbLine
 10
10423.0
 20
12300.10254037
 30
0.0
 11
10473.0
 21
12213.49999999
 31
0.0
  0
LINE
  5
B531
330
5326
100
AcDbEntity
  8
YKK_N1
  6
Continuous
100
AcDbLine
 10
10473.0
 20
12213.49999999
 30
0.0
 11
10523.0
 21
12300.10254037
 31
0.0
  0
LINE
  5
B532
330
5326
100
AcDbEntity
  8
YKK_N1
  6
Continuous
100
AcDbLine
 10
10473.00000001
 20
14443.5
 30
0.0
 11
10473.00000001
 21
14468.5
 31
0.0
  0
CIRCLE
  5
B533
330
5326
100
AcDbEntity
  8
YKK_N1
  6
Continuous
100
AcDbCircle
 10
10473.00000001
 20
14468.5
 30
0.0
 40
5.0
  0
TEXT
  5
B534
330
5326
100
AcDbEntity
  8
YKK_N1
  6
Continuous
100
AcDbText
 10
10461.00000001
 20
14503.47982785
 30
0.0
 40
60.0
  1
25
 50
90.0
 72
     4
 11
10431.00000001
 21
14553.47982785
 31
0.0
100
AcDbText
  0
LINE
  5
B535
330
5326
100
AcDbEntity
  8
YKK_N1
  6
Continuous
100
AcDbLine
 10
10423.00000001
 20
14356.89745962
 30
0.0
 11
10523.00000001
 21
14356.89745962
 31
0.0
  0
LINE
  5
B536
330
5326
100
AcDbEntity
  8
YKK_N1
  6
Continuous
100
AcDbLine
 10
10523.00000001
 20
14356.89745962
 30
0.0
 11
10473.00000001
 21
14443.5
 31
0.0
  0
LINE
  5
B537
330
5326
100
AcDbEntity
  8
YKK_N1
  6
Continuous
100
AcDbLine
 10
10423.00000001
 20
14356.89745962
 30
0.0
 11
10473.00000001
 21
14443.5
 31
0.0
  0
TEXT
  5
B538
330
5326
100
AcDbEntity
  8
YKK_N1
  6
Continuous
100
AcDbText
 10
9795.66822583
 20
13399.50623101
 30
0.0
 40
60.0
  1
86
 72
     4
 11
9845.66822583
 21
13429.50623101
 31
0.0
100
AcDbText
  0
CIRCLE
  5
B539
330
5326
100
AcDbEntity
  8
YKK_N1
  6
Continuous
100
AcDbCircle
 10
9998.0
 20
13387.50623101
 30
0.0
 40
5.0
  0
CIRCLE
  5
B53A
330
5326
100
AcDbEntity
  8
YKK_N1
  6
Continuous
100
AcDbCircle
 10
9912.0
 20
13387.50623101
 30
0.0
 40
5.0
  0
LINE
  5
B53B
330
5326
100
AcDbEntity
  8
YKK_N1
  6
Continuous
100
AcDbLine
 10
9912.0
 20
13387.50623101
 30
0.0
 11
9998.0
 21
13387.50623101
 31
0.0
  0
LINE
  5
B53C
330
5326
100
AcDbEntity
  8
YKK_N1
  6
Continuous
100
AcDbLine
 10
9998.0
 20
13387.50623101
 30
0.0
 11
9998.0
 21
13262.50623101
 31
0.0
  0
LINE
  5
B53D
330
5326
100
AcDbEntity
  8
YKK_N1
  6
Continuous
100
AcDbLine
 10
10148.00000001
 20
12213.5
 30
0.0
 11
10473.00000001
 21
12213.5
 31
0.0
  0
LINE
  5
B53E
330
5326
100
AcDbEntity
  8
YKK_N1
  6
Continuous
100
AcDbLine
 10
9912.0
 20
13387.50623101
 30
0.0
 11
9912.0
 21
13262.50623101
 31
0.0
  0
CIRCLE
  5
B53F
330
5326
100
AcDbEntity
  8
YKK_N1
  6
Continuous
100
AcDbCircle
 10
9899.00011306
 20
11868.00079524
 30
0.0
 40
5.0
  0
TEXT
  5
B540
330
5326
100
AcDbEntity
  8
YKK_N1
100
AcDbText
 10
9797.68398149
 20
11880.76187198
 30
0.0
 40
60.0
  1
13
100
AcDbText
  0
LINE
  5
B541
330
5326
100
AcDbEntity
  8
YKK_N1
  6
Continuous
100
AcDbLine
 10
9899.00011306
 20
11868.00079524
 30
0.0
 11
9912.00011306
 21
11868.00079524
 31
0.0
  0
LINE
  5
B542
330
5326
100
AcDbEntity
  8
YKK_N1
  6
Continuous
100
AcDbLine
 10
9912.00011306
 20
11991.50079524
 30
0.0
 11
9912.00011306
 21
11867.50079524
 31
0.0
  0
LINE
  5
B543
330
5326
100
AcDbEntity
  8
YKK_N1
  6
Continuous
100
AcDbLine
 10
9899.00011306
 20
11991.50079524
 30
0.0
 11
9899.00011306
 21
11867.50079524
 31
0.0
  0
TEXT
  5
B544
330
5326
100
AcDbEntity
  8
YKK_N1
100
AcDbText
 10
10027.03861235
 20
11886.04434266
 30
0.0
 40
60.0
  1
15
100
AcDbText
  0
LINE
  5
B545
330
5326
100
AcDbEntity
  8
YKK_N1
  6
Continuous
100
AcDbLine
 10
9998.00011306
 20
11868.00079524
 30
0.0
 11
10013.00011306
 21
11868.00079524
 31
0.0
  0
LINE
  5
B546
330
5326
100
AcDbEntity
  8
YKK_N1
  6
Continuous
100
AcDbLine
 10
10013.00011306
 20
11991.50079524
 30
0.0
 11
10013.00011306
 21
11867.50079524
 31
0.0
  0
LINE
  5
B547
330
5326
100
AcDbEntity
  8
YKK_N1
  6
Continuous
100
AcDbLine
 10
9998.00011306
 20
11991.50079524
 30
0.0
 11
9998.00011306
 21
11867.50079524
 31
0.0
  0
TEXT
  5
B548
330
5326
100
AcDbEntity
  8
YKK_N1
100
AcDbText
 10
9993.68996365
 20
11782.91436207
 30
0.0
 40
60.0
  1
27
100
AcDbText
  0
LINE
  5
B549
330
5326
100
AcDbEntity
  8
YKK_N1
  6
Continuous
100
AcDbLine
 10
9971.00011306
 20
11868.00079524
 30
0.0
 11
9998.00011306
 21
11868.00079524
 31
0.0
  0
LINE
  5
B54A
330
5326
100
AcDbEntity
  8
YKK_N1
  6
Continuous
100
AcDbLine
 10
9998.00011306
 20
11991.50079524
 30
0.0
 11
9998.00011306
 21
11867.50079524
 31
0.0
  0
LINE
  5
B54B
330
5326
100
AcDbEntity
  8
YKK_N1
  6
Continuous
100
AcDbLine
 10
9971.00011306
 20
11991.50079524
 30
0.0
 11
9971.00011306
 21
11867.50079524
 31
0.0
  0
TEXT
  5
B54C
330
5326
100
AcDbEntity
  8
YKK_N1
100
AcDbText
 10
9799.15401107
 20
11783.77071857
 30
0.0
 40
60.0
  1
59
100
AcDbText
  0
LINE
  5
B54D
330
5326
100
AcDbEntity
  8
YKK_N1
  6
Continuous
100
AcDbLine
 10
9912.00011306
 20
11868.00079524
 30
0.0
 11
9971.00011306
 21
11868.00079524
 31
0.0
  0
LINE
  5
B54E
330
5326
100
AcDbEntity
  8
YKK_N1
  6
Continuous
100
AcDbLine
 10
9971.00011306
 20
11991.50079524
 30
0.0
 11
9971.00011306
 21
11867.50079524
 31
0.0
  0
LINE
  5
B54F
330
5326
100
AcDbEntity
  8
YKK_N1
  6
Continuous
100
AcDbLine
 10
9912.00011306
 20
11991.50079524
 30
0.0
 11
9912.00011306
 21
11867.50079524
 31
0.0
  0
CIRCLE
  5
B550
330
5326
100
AcDbEntity
  8
YKK_N1
  6
Continuous
100
AcDbCircle
 10
9912.00011306
 20
11868.00079524
 30
0.0
 40
5.0
  0
CIRCLE
  5
B551
330
5326
100
AcDbEntity
  8
YKK_N1
  6
Continuous
100
AcDbCircle
 10
10013.00011306
 20
11868.00079524
 30
0.0
 40
5.0
  0
CIRCLE
  5
B552
330
5326
100
AcDbEntity
  8
YKK_N1
  6
Continuous
100
AcDbCircle
 10
9998.00011306
 20
11868.00079524
 30
0.0
 40
5.0
  0
CIRCLE
  5
B553
330
5326
100
AcDbEntity
  8
YKK_N1
  6
Continuous
100
AcDbCircle
 10
9971.00011306
 20
11868.00079524
 30
0.0
 40
5.0
  0
LINE
  5
B554
330
5326
100
AcDbEntity
  8
YKK_N1
100
AcDbLine
 10
9941.50011306
 20
11868.00079524
 30
0.0
 11
9906.42342092
 21
11767.36354404
 31
0.0
  0
LINE
  5
B555
330
5326
100
AcDbEntity
  8
YKK_N1
100
AcDbLine
 10
9906.42342092
 20
11767.36354404
 30
0.0
 11
9788.01937459
 21
11767.36354404
 31
0.0
  0
LINE
  5
B556
330
5326
100
AcDbEntity
  8
YKK_A1
100
AcDbLine
 10
5354.99999988
 20
14443.49999999
 30
0.0
 11
7044.99994013
 21
14443.49999999
 31
0.0
  0
LINE
  5
B557
330
5326
100
AcDbEntity
  8
YKK_A1
100
AcDbLine
 10
5354.99999988
 20
14412.50000015
 30
0.0
 11
7044.99994013
 21
14412.50000015
 31
0.0
  0
LINE
  5
B558
330
5326
100
AcDbEntity
  8
YKK_A1
100
AcDbLine
 10
6225.0001847
 20
14363.50060267
 30
0.0
 11
6965.99994015
 21
14363.50060267
 31
0.0
  0
LINE
  5
B559
330
5326
100
AcDbEntity
  8
YKK_A1
100
AcDbLine
 10
6175.0001847
 20
14363.50060267
 30
0.0
 11
5433.99999988
 21
14363.50060267
 31
0.0
  0
LINE
  5
B55A
330
5326
100
AcDbEntity
  8
YKK_A1
100
AcDbLine
 10
6225.0001847
 20
12280.50079524
 30
0.0
 11
6965.99994015
 21
12280.50079524
 31
0.0
  0
LINE
  5
B55B
330
5326
100
AcDbEntity
  8
YKK_A1
100
AcDbLine
 10
6175.0001847
 20
12280.50079524
 30
0.0
 11
5433.99999988
 21
12280.50079524
 31
0.0
  0
LINE
  5
B55C
330
5326
100
AcDbEntity
  8
YKK_A1
100
AcDbLine
 10
5354.99999988
 20
12213.49986352
 30
0.0
 11
7044.99994013
 21
12213.49986352
 31
0.0
  0
LINE
  5
B55D
330
5326
100
AcDbEntity
  8
YKK_A1
100
AcDbLine
 10
5354.99999988
 20
12156.50003903
 30
0.0
 11
7044.99994013
 21
12156.50003903
 31
0.0
  0
LINE
  5
B55E
330
5326
100
AcDbEntity
  8
YKK_A1
100
AcDbLine
 10
5354.99999988
 20
12156.50003903
 30
0.0
 11
5354.99999988
 21
14443.49999999
 31
0.0
  0
LINE
  5
B55F
330
5326
100
AcDbEntity
  8
YKK_A1
100
AcDbLine
 10
5374.99999988
 20
12213.49986352
 30
0.0
 11
5374.99999988
 21
14412.50000015
 31
0.0
  0
LINE
  5
B560
330
5326
100
AcDbEntity
  8
YKK_A1
100
AcDbLine
 10
5433.99999988
 20
14363.50060267
 30
0.0
 11
5433.99999988
 21
12280.50079524
 31
0.0
  0
LINE
  5
B561
330
5326
100
AcDbEntity
  8
YKK_A1
100
AcDbLine
 10
6175.0001847
 20
14412.50000015
 30
0.0
 11
6175.0001847
 21
12213.49986352
 31
0.0
  0
LINE
  5
B562
330
5326
100
AcDbEntity
  8
YKK_A1
100
AcDbLine
 10
6225.0001847
 20
12280.50079524
 30
0.0
 11
6225.0001847
 21
14363.50060267
 31
0.0
  0
LINE
  5
B563
330
5326
100
AcDbEntity
  8
YKK_A1
100
AcDbLine
 10
6965.99994015
 20
12280.50079524
 30
0.0
 11
6965.99994015
 21
14363.50060267
 31
0.0
  0
LINE
  5
B564
330
5326
100
AcDbEntity
  8
YKK_A1
100
AcDbLine
 10
7024.99994013
 20
14412.50000015
 30
0.0
 11
7024.99994013
 21
12213.49986352
 31
0.0
  0
LINE
  5
B565
330
5326
100
AcDbEntity
  8
YKK_A1
100
AcDbLine
 10
7044.99994013
 20
14443.49999999
 30
0.0
 11
7044.99994013
 21
12156.50003903
 31
0.0
  0
LINE
  5
B566
330
5326
100
AcDbEntity
  8
YKK_IN
  6
Continuous
100
AcDbLine
 10
6164.64466083
 20
12208.8561343
 30
0.0
 11
6235.35533894
 21
12138.14545618
 31
0.0
  0
CIRCLE
  5
B567
330
5326
100
AcDbEntity
  8
YKK_IN
  6
Continuous
100
AcDbCircle
 10
6199.99999988
 20
12173.50079524
 30
0.0
 40
25.0
  0
LINE
  5
B568
330
5326
100
AcDbEntity
  8
YKK_IN
  6
Continuous
100
AcDbLine
 10
6164.64466083
 20
12138.14545618
 30
0.0
 11
6235.35533894
 21
12208.8561343
 31
0.0
  0
LINE
  5
B569
330
5326
100
AcDbEntity
  8
YKK_A1
  6
Continuous
 48
0.5
100
AcDbLine
 10
6503.83135558
 20
13418.85003477
 30
0.0
 11
6473.83526361
 21
13398.85125666
 31
0.0
  0
LINE
  5
B56A
330
5326
100
AcDbEntity
  8
YKK_A1
  6
Continuous
 48
0.5
100
AcDbLine
 10
6503.83135558
 20
13418.85003477
 30
0.0
 11
6503.83135558
 21
13406.35491833
 31
0.0
  0
LINE
  5
B56B
330
5326
100
AcDbEntity
  8
YKK_A1
  6
Continuous
 48
0.5
100
AcDbLine
 10
6503.83526183
 20
13391.35369852
 30
0.0
 11
6503.83526183
 21
13378.85247856
 31
0.0
  0
LINE
  5
B56C
330
5326
100
AcDbEntity
  8
YKK_A1
  6
Continuous
 48
0.5
100
AcDbLine
 10
6687.16858423
 20
13406.36102184
 30
0.0
 11
6503.83135558
 21
13406.35491833
 31
0.0
  0
LINE
  5
B56D
330
5326
100
AcDbEntity
  8
YKK_A1
  6
Continuous
 48
0.5
100
AcDbLine
 10
6503.83526183
 20
13378.85247856
 30
0.0
 11
6473.83526361
 21
13398.85125666
 31
0.0
  0
LINE
  5
B56E
330
5326
100
AcDbEntity
  8
YKK_A1
  6
Continuous
 48
0.5
100
AcDbLine
 10
5895.05329274
 20
13718.84964333
 30
0.0
 11
5925.0493847
 21
13698.85086523
 31
0.0
  0
LINE
  5
B56F
330
5326
100
AcDbEntity
  8
YKK_A1
  6
Continuous
 48
0.5
100
AcDbLine
 10
5895.05329274
 20
13718.84964333
 30
0.0
 11
5895.05329274
 21
13706.35452689
 31
0.0
  0
LINE
  5
B570
330
5326
100
AcDbEntity
  8
YKK_A1
  6
Continuous
 48
0.5
100
AcDbLine
 10
5895.04938649
 20
13691.35330708
 30
0.0
 11
5895.04938649
 21
13678.85208712
 31
0.0
  0
LINE
  5
B571
330
5326
100
AcDbEntity
  8
YKK_A1
  6
Continuous
 48
0.5
100
AcDbLine
 10
5713.71606397
 20
13706.3606304
 30
0.0
 11
5895.05329274
 21
13706.35452689
 31
0.0
  0
LINE
  5
B572
330
5326
100
AcDbEntity
  8
YKK_A1
  6
Continuous
 48
0.5
100
AcDbLine
 10
5713.70825147
 20
13691.36258442
 30
0.0
 11
5895.04938649
 21
13691.35330708
 31
0.0
  0
LINE
  5
B573
330
5326
100
AcDbEntity
  8
YKK_A1
  6
Continuous
 48
0.5
100
AcDbLine
 10
5895.04938649
 20
13678.85208712
 30
0.0
 11
5925.0493847
 21
13698.85086523
 31
0.0
  0
LINE
  5
B574
330
5326
100
AcDbEntity
  8
YKK_A1
  6
Continuous
 48
0.5
100
AcDbLine
 10
5713.71606397
 20
13706.3606304
 30
0.0
 11
5713.71606397
 21
13691.36258442
 31
0.0
  0
LINE
  5
B575
330
5326
100
AcDbEntity
  8
YKK_A1
100
AcDbLine
 10
6503.83526183
 20
13391.35369852
 30
0.0
 11
6687.16858423
 21
13391.35369852
 31
0.0
  0
LINE
  5
B576
330
5326
100
AcDbEntity
  8
YKK_A1
100
AcDbLine
 10
6687.16858423
 20
13406.36102184
 30
0.0
 11
6687.16858423
 21
13391.35369852
 31
0.0
  0
LINE
  5
B577
330
5326
100
AcDbEntity
  8
YKK_N1
  6
Continuous
100
AcDbLine
 10
5354.99999988
 20
11956.50003903
 30
0.0
 11
7044.99999988
 21
11956.50003903
 31
0.0
  0
LINE
  5
B578
330
5326
100
AcDbEntity
  8
YKK_N1
  6
Continuous
100
AcDbLine
 10
5441.60069115
 20
11906.50110661
 30
0.0
 11
5441.60069115
 21
12006.50110661
 31
0.0
  0
LINE
  5
B579
330
5326
100
AcDbEntity
  8
YKK_N1
  6
Continuous
100
AcDbLine
 10
5354.99815077
 20
11956.50110661
 30
0.0
 11
5441.60069115
 21
12006.50110661
 31
0.0
  0
LINE
  5
B57A
330
5326
100
AcDbEntity
  8
YKK_N1
  6
Continuous
100
AcDbLine
 10
5441.60069115
 20
11906.50110661
 30
0.0
 11
5354.99815077
 21
11956.50110661
 31
0.0
  0
TEXT
  5
B57B
330
5326
100
AcDbEntity
  8
YKK_N1
  6
Continuous
100
AcDbText
 10
6029.99815077
 20
11968.50003903
 30
0.0
 40
60.0
  1
W=1690
100
AcDbText
  0
LINE
  5
B57C
330
5326
100
AcDbEntity
  8
YKK_N1
  6
Continuous
100
AcDbLine
 10
7044.99999988
 20
12081.50003903
 30
0.0
 11
7044.99999988
 21
11956.50003903
 31
0.0
  0
LINE
  5
B57D
330
5326
100
AcDbEntity
  8
YKK_N1
  6
Continuous
100
AcDbLine
 10
6958.39745951
 20
11906.50003903
 30
0.0
 11
6958.39745951
 21
12006.50003903
 31
0.0
  0
LINE
  5
B57E
330
5326
100
AcDbEntity
  8
YKK_N1
  6
Continuous
100
AcDbLine
 10
7044.99999988
 20
11956.50003903
 30
0.0
 11
6958.39745951
 21
12006.50003903
 31
0.0
  0
LINE
  5
B57F
330
5326
100
AcDbEntity
  8
YKK_N1
  6
Continuous
100
AcDbLine
 10
6958.39745951
 20
11906.50003903
 30
0.0
 11
7044.99999988
 21
11956.50003903
 31
0.0
  0
LINE
  5
B580
330
5326
100
AcDbEntity
  8
YKK_N1
  6
Continuous
100
AcDbLine
 10
7244.99994013
 20
14443.5
 30
0.0
 11
7244.99994013
 21
12213.5
 31
0.0
  0
TEXT
  5
B581
330
5326
100
AcDbEntity
  8
YKK_N1
  6
Continuous
100
AcDbText
 10
7239.49868958
 20
13156.46062921
 30
0.0
 40
60.0
  1
H=2230
 50
90.0
100
AcDbText
  0
LINE
  5
B582
330
5326
100
AcDbEntity
  8
YKK_N1
  6
Continuous
100
AcDbLine
 10
7119.99994013
 20
12213.5
 30
0.0
 11
7244.99994013
 21
12213.5
 31
0.0
  0
LINE
  5
B583
330
5326
100
AcDbEntity
  8
YKK_N1
  6
Continuous
100
AcDbLine
 10
7194.99994013
 20
12300.10254037
 30
0.0
 11
7244.99994013
 21
12213.49999999
 31
0.0
  0
LINE
  5
B584
330
5326
100
AcDbEntity
  8
YKK_N1
  6
Continuous
100
AcDbLine
 10
7194.99994013
 20
12300.10254037
 30
0.0
 11
7294.99994013
 21
12300.10254037
 31
0.0
  0
LINE
  5
B585
330
5326
100
AcDbEntity
  8
YKK_N1
  6
Continuous
100
AcDbLine
 10
7244.99994013
 20
12213.49999999
 30
0.0
 11
7294.99994013
 21
12300.10254037
 31
0.0
  0
LINE
  5
B586
330
5326
100
AcDbEntity
  8
YKK_N1
  6
Continuous
100
AcDbLine
 10
7124.99994013
 20
14443.5
 30
0.0
 11
7244.99994013
 21
14443.5
 31
0.0
  0
LINE
  5
B587
330
5326
100
AcDbEntity
  8
YKK_N1
  6
Continuous
100
AcDbLine
 10
7194.99994013
 20
14356.89745962
 30
0.0
 11
7244.99994013
 21
14443.5
 31
0.0
  0
LINE
  5
B588
330
5326
100
AcDbEntity
  8
YKK_N1
  6
Continuous
100
AcDbLine
 10
7294.99994013
 20
14356.89745962
 30
0.0
 11
7244.99994013
 21
14443.5
 31
0.0
  0
LINE
  5
B589
330
5326
100
AcDbEntity
  8
YKK_N1
  6
Continuous
100
AcDbLine
 10
7194.99994013
 20
14356.89745962
 30
0.0
 11
7294.99994013
 21
14356.89745962
 31
0.0
  0
LINE
  5
B58A
330
5326
100
AcDbEntity
  8
YKK_N1
  6
Continuous
100
AcDbLine
 10
5354.99999988
 20
12081.50003903
 30
0.0
 11
5354.99999988
 21
11956.50003903
 31
0.0
  0
LINE
  5
B58B
330
5326
100
AcDbEntity
  8
YKK_B1
100
AcDbLine
 10
1599.99999988
 20
9452.00112557
 30
0.0
 11
1579.99999988
 21
9452.00112518
 31
0.0
  0
LINE
  5
B58C
330
5326
100
AcDbEntity
  8
YKK_B1
100
AcDbLine
 10
1579.99999988
 20
9452.00112518
 30
0.0
 11
1579.99999988
 21
9538.00112518
 31
0.0
  0
LINE
  5
B58D
330
5326
100
AcDbEntity
  8
YKK_B1
100
AcDbLine
 10
1599.99999988
 20
9538.00112518
 30
0.0
 11
1579.99999988
 21
9538.00112518
 31
0.0
  0
LINE
  5
B58E
330
5326
100
AcDbEntity
  8
YKK_B1
100
AcDbLine
 10
1599.99999988
 20
9518.35112518
 30
0.0
 11
1579.99999988
 21
9518.35112518
 31
0.0
  0
LINE
  5
B58F
330
5326
100
AcDbEntity
  8
YKK_B1
100
AcDbLine
 10
1552.99999988
 20
9479.00112518
 30
0.0
 11
1579.99999988
 21
9479.00112518
 31
0.0
  0
LINE
  5
B590
330
5326
100
AcDbEntity
  8
YKK_B1
100
AcDbLine
 10
1593.99999988
 20
9528.50114196
 30
0.0
 11
1658.99999988
 21
9528.50114196
 31
0.0
  0
LINE
  5
B591
330
5326
100
AcDbEntity
  8
YKK_B1
100
AcDbLine
 10
1593.99999988
 20
9497.20114196
 30
0.0
 11
1658.99999988
 21
9497.20114196
 31
0.0
  0
LINE
  5
B592
330
5326
100
AcDbEntity
  8
YKK_B1
100
AcDbLine
 10
1607.49999988
 20
9528.50114196
 30
0.0
 11
1607.49999988
 21
9497.20114196
 31
0.0
  0
LINE
  5
B593
330
5326
100
AcDbEntity
  8
YKK_B1
100
AcDbLine
 10
1642.99999988
 20
9528.50114196
 30
0.0
 11
1642.99999988
 21
9497.20114196
 31
0.0
  0
LINE
  5
B594
330
5326
100
AcDbEntity
  8
YKK_B1
100
AcDbLine
 10
2375.0001847
 20
9496.80112518
 30
0.0
 11
2425.0001847
 21
9496.80112518
 31
0.0
  0
LINE
  5
B595
330
5326
100
AcDbEntity
  8
YKK_B1
100
AcDbLine
 10
2425.0001847
 20
9496.80112518
 30
0.0
 11
2425.0001847
 21
9528.50112518
 31
0.0
  0
LINE
  5
B596
330
5326
100
AcDbEntity
  8
YKK_B1
100
AcDbLine
 10
2425.0001847
 20
9528.50112518
 30
0.0
 11
2375.0001847
 21
9528.50112518
 31
0.0
  0
LINE
  5
B597
330
5326
100
AcDbEntity
  8
YKK_B1
100
AcDbLine
 10
2391.0001847
 20
9528.50112518
 30
0.0
 11
2391.0001847
 21
9496.80112518
 31
0.0
  0
LINE
  5
B598
330
5326
100
AcDbEntity
  8
YKK_B1
100
AcDbLine
 10
2425.0001847
 20
9487.52060276
 30
0.0
 11
2375.0001847
 21
9487.52060276
 31
0.0
  0
LINE
  5
B599
330
5326
100
AcDbEntity
  8
YKK_B1
100
AcDbLine
 10
2375.0001847
 20
9487.52060276
 30
0.0
 11
2375.0001847
 21
9431.00112518
 31
0.0
  0
LINE
  5
B59A
330
5326
100
AcDbEntity
  8
YKK_B1
100
AcDbLine
 10
2375.0001847
 20
9457.62060276
 30
0.0
 11
2425.0001847
 21
9457.62060276
 31
0.0
  0
LINE
  5
B59B
330
5326
100
AcDbEntity
  8
YKK_B1
100
AcDbLine
 10
2425.0001847
 20
9457.62060276
 30
0.0
 11
2425.0001847
 21
9431.00112518
 31
0.0
  0
LINE
  5
B59C
330
5326
100
AcDbEntity
  8
YKK_B1
100
AcDbLine
 10
2425.0001847
 20
9431.00112518
 30
0.0
 11
2375.0001847
 21
9431.00112518
 31
0.0
  0
LINE
  5
B59D
330
5326
100
AcDbEntity
  8
YKK_B1
100
AcDbLine
 10
2409.0001847
 20
9487.52060276
 30
0.0
 11
2409.0001847
 21
9457.62060276
 31
0.0
  0
LINE
  5
B59E
330
5326
100
AcDbEntity
  8
YKK_B1
100
AcDbLine
 10
3199.99994013
 20
9452.00112557
 30
0.0
 11
3219.99994013
 21
9452.00112518
 31
0.0
  0
LINE
  5
B59F
330
5326
100
AcDbEntity
  8
YKK_B1
100
AcDbLine
 10
3219.99994013
 20
9452.00112518
 30
0.0
 11
3219.99994013
 21
9538.00112518
 31
0.0
  0
LINE
  5
B5A0
330
5326
100
AcDbEntity
  8
YKK_B1
100
AcDbLine
 10
3199.99994013
 20
9538.00112518
 30
0.0
 11
3219.99994013
 21
9538.00112518
 31
0.0
  0
LINE
  5
B5A1
330
5326
100
AcDbEntity
  8
YKK_B1
100
AcDbLine
 10
3199.99994015
 20
9477.3511084
 30
0.0
 11
3219.99994015
 21
9477.3511084
 31
0.0
  0
LINE
  5
B5A2
330
5326
100
AcDbEntity
  8
YKK_B1
100
AcDbLine
 10
3246.99994013
 20
9479.00112518
 30
0.0
 11
3219.99994013
 21
9479.00112518
 31
0.0
  0
LINE
  5
B5A3
330
5326
100
AcDbEntity
  8
YKK_B1
100
AcDbLine
 10
3205.99994015
 20
9487.50112518
 30
0.0
 11
3140.99994015
 21
9487.50112518
 31
0.0
  0
LINE
  5
B5A4
330
5326
100
AcDbEntity
  8
YKK_B1
100
AcDbLine
 10
3205.99994015
 20
9456.20112518
 30
0.0
 11
3140.99994015
 21
9456.20112518
 31
0.0
  0
LINE
  5
B5A5
330
5326
100
AcDbEntity
  8
YKK_B1
100
AcDbLine
 10
3192.49994015
 20
9487.50112518
 30
0.0
 11
3192.49994015
 21
9456.20112518
 31
0.0
  0
LINE
  5
B5A6
330
5326
100
AcDbEntity
  8
YKK_B1
100
AcDbLine
 10
3156.99994015
 20
9487.50112518
 30
0.0
 11
3156.99994015
 21
9456.20112518
 31
0.0
  0
LINE
  5
B5A7
330
5326
100
AcDbEntity
  8
YKK_B1
100
AcDbLine
 10
1646.99999971
 20
9513.90112519
 30
0.0
 11
2387.00018471
 21
9513.90112519
 31
0.0
  0
LINE
  5
B5A8
330
5326
100
AcDbEntity
  8
YKK_B1
100
AcDbLine
 10
2413.00018453
 20
9472.90112519
 30
0.0
 11
3152.99994014
 21
9472.90112519
 31
0.0
  0
LINE
  5
B5A9
330
5326
100
AcDbEntity
  8
YKK_B1
100
AcDbLine
 10
1610.00003441
 20
9452.00112557
 30
0.0
 11
2365.0001847
 21
9452.00112557
 31
0.0
  0
LINE
  5
B5AA
330
5326
100
AcDbEntity
  8
YKK_B1
100
AcDbLine
 10
3189.99994013
 20
9452.00112557
 30
0.0
 11
2435.0001847
 21
9452.00112557
 31
0.0
  0
LINE
  5
B5AB
330
5326
100
AcDbEntity
  8
YKK_B1
100
AcDbLine
 10
1609.99999988
 20
9538.00112519
 30
0.0
 11
3190.00287612
 21
9538.00112519
 31
0.0
  0
LINE
  5
B5AC
330
5326
100
AcDbEntity
  8
YKK_N1
  6
Continuous
100
AcDbLine
 10
3219.99999988
 20
8977.00112518
 30
0.0
 11
1579.99999988
 21
8977.00112518
 31
0.0
  0
LINE
  5
B5AD
330
5326
100
AcDbEntity
  8
YKK_N1
  6
Continuous
100
AcDbLine
 10
1666.60254026
 20
9027.00112518
 30
0.0
 11
1579.99999988
 21
8977.00112518
 31
0.0
  0
LINE
  5
B5AE
330
5326
100
AcDbEntity
  8
YKK_N1
  6
Continuous
100
AcDbLine
 10
1579.99999988
 20
9302.00112518
 30
0.0
 11
1579.99999988
 21
8977.00112518
 31
0.0
  0
LINE
  5
B5AF
330
5326
100
AcDbEntity
  8
YKK_N1
  6
Continuous
100
AcDbLine
 10
1552.99999988
 20
9302.00112518
 30
0.0
 11
1552.99999988
 21
8977.00112518
 31
0.0
  0
LINE
  5
B5B0
330
5326
100
AcDbEntity
  8
YKK_N1
  6
Continuous
100
AcDbLine
 10
1666.60254026
 20
9027.00112518
 30
0.0
 11
1666.60254026
 21
8927.00112518
 31
0.0
  0
CIRCLE
  5
B5B1
330
5326
100
AcDbEntity
  8
YKK_N1
  6
Continuous
100
AcDbCircle
 10
1552.99999988
 20
8977.00112518
 30
0.0
 40
5.0
  0
LINE
  5
B5B2
330
5326
100
AcDbEntity
  8
YKK_N1
  6
Continuous
100
AcDbLine
 10
1552.99999988
 20
8977.00112518
 30
0.0
 11
1579.99999988
 21
8977.00112518
 31
0.0
  0
LINE
  5
B5B3
330
5326
100
AcDbEntity
  8
YKK_N1
  6
Continuous
100
AcDbLine
 10
1579.99999988
 20
8977.00112518
 30
0.0
 11
1666.60254026
 21
8927.00112518
 31
0.0
  0
TEXT
  5
B5B4
330
5326
100
AcDbEntity
  8
YKK_N1
  6
Continuous
100
AcDbText
 10
1437.06563287
 20
8984.44843625
 30
0.0
 40
60.0
  1
27
100
AcDbText
  0
TEXT
  5
B5B5
330
5326
100
AcDbEntity
  8
YKK_N1
  6
Continuous
100
AcDbText
 10
1632.99999988
 20
9189.00112518
 30
0.0
 40
60.0
  1
20
100
AcDbText
  0
LINE
  5
B5B6
330
5326
100
AcDbEntity
  8
YKK_N1
  6
Continuous
100
AcDbLine
 10
1599.9999999
 20
9302.00112518
 30
0.0
 11
1599.9999999
 21
9177.00112518
 31
0.0
  0
CIRCLE
  5
B5B7
330
5326
100
AcDbEntity
  8
YKK_N1
  6
Continuous
100
AcDbCircle
 10
1599.9999999
 20
9177.00112518
 30
0.0
 40
5.0
  0
LINE
  5
B5B8
330
5326
100
AcDbEntity
  8
YKK_N1
  6
Continuous
100
AcDbLine
 10
1599.99999988
 20
9177.00112518
 30
0.0
 11
1579.99999988
 21
9177.00112518
 31
0.0
  0
CIRCLE
  5
B5B9
330
5326
100
AcDbEntity
  8
YKK_N1
  6
Continuous
100
AcDbCircle
 10
1579.99999988
 20
9177.00112518
 30
0.0
 40
5.0
  0
TEXT
  5
B5BA
330
5326
100
AcDbEntity
  8
YKK_N1
  6
Continuous
100
AcDbText
 10
2229.99999988
 20
8989.00112518
 30
0.0
 40
60.0
  1
W=1640
100
AcDbText
  0
LINE
  5
B5BB
330
5326
100
AcDbEntity
  8
YKK_N1
  6
Continuous
100
AcDbLine
 10
3246.99999988
 20
9302.00112518
 30
0.0
 11
3246.99999988
 21
8977.00112518
 31
0.0
  0
LINE
  5
B5BC
330
5326
100
AcDbEntity
  8
YKK_N1
  6
Continuous
100
AcDbLine
 10
3219.99999988
 20
9302.00112518
 30
0.0
 11
3219.99999988
 21
8977.00112518
 31
0.0
  0
LINE
  5
B5BD
330
5326
100
AcDbEntity
  8
YKK_N1
  6
Continuous
100
AcDbLine
 10
3133.39745951
 20
9027.00112518
 30
0.0
 11
3133.39745951
 21
8927.00112518
 31
0.0
  0
LINE
  5
B5BE
330
5326
100
AcDbEntity
  8
YKK_N1
  6
Continuous
100
AcDbLine
 10
3133.39745951
 20
9027.00112518
 30
0.0
 11
3219.99999988
 21
8977.00112518
 31
0.0
  0
LINE
  5
B5BF
330
5326
100
AcDbEntity
  8
YKK_N1
  6
Continuous
100
AcDbLine
 10
3219.99999988
 20
8977.00112518
 30
0.0
 11
3246.99999988
 21
8977.00112518
 31
0.0
  0
CIRCLE
  5
B5C0
330
5326
100
AcDbEntity
  8
YKK_N1
  6
Continuous
100
AcDbCircle
 10
3246.99999988
 20
8977.00112518
 30
0.0
 40
5.0
  0
LINE
  5
B5C1
330
5326
100
AcDbEntity
  8
YKK_N1
  6
Continuous
100
AcDbLine
 10
3219.99999988
 20
8977.00112518
 30
0.0
 11
3133.39745951
 21
8927.00112518
 31
0.0
  0
TEXT
  5
B5C2
330
5326
100
AcDbEntity
  8
YKK_N1
  6
Continuous
100
AcDbText
 10
3265.62683212
 20
8989.60902788
 30
0.0
 40
60.0
  1
27
100
AcDbText
  0
LINE
  5
B5C3
330
5326
100
AcDbEntity
  8
YKK_N1
  6
Continuous
100
AcDbLine
 10
3199.99999988
 20
9302.00112518
 30
0.0
 11
3199.99999988
 21
9177.00112518
 31
0.0
  0
LINE
  5
B5C4
330
5326
100
AcDbEntity
  8
YKK_N1
  6
Continuous
100
AcDbLine
 10
3219.99999988
 20
9177.00112518
 30
0.0
 11
3199.99999988
 21
9177.00112518
 31
0.0
  0
CIRCLE
  5
B5C5
330
5326
100
AcDbEntity
  8
YKK_N1
  6
Continuous
100
AcDbCircle
 10
3199.99999988
 20
9177.00112518
 30
0.0
 40
5.0
  0
CIRCLE
  5
B5C6
330
5326
100
AcDbEntity
  8
YKK_N1
  6
Continuous
100
AcDbCircle
 10
3219.99999988
 20
9177.00112518
 30
0.0
 40
5.0
  0
TEXT
  5
B5C7
330
5326
100
AcDbEntity
  8
YKK_N1
  6
Continuous
100
AcDbText
 10
3076.99999988
 20
9189.00112518
 30
0.0
 40
60.0
  1
20
100
AcDbText
  0
TEXT
  5
B5C8
330
5326
100
AcDbEntity
  8
YKK_N1
  6
Continuous
100
AcDbText
 10
2835.18075948
 20
9565.00124181
 30
0.0
 40
60.0
  1
86
 50
90.0
100
AcDbText
  0
CIRCLE
  5
B5C9
330
5326
100
AcDbEntity
  8
YKK_N1
  6
Continuous
100
AcDbCircle
 10
2847.18075948
 20
9538.00124181
 30
0.0
 40
5.0
  0
CIRCLE
  5
B5CA
330
5326
100
AcDbEntity
  8
YKK_N1
  6
Continuous
100
AcDbCircle
 10
2847.18075948
 20
9452.00124181
 30
0.0
 40
5.0
  0
LINE
  5
B5CB
330
5326
100
AcDbEntity
  8
YKK_N1
  6
Continuous
100
AcDbLine
 10
2847.18075959
 20
9452.00124181
 30
0.0
 11
2847.18075959
 21
9538.00124181
 31
0.0
  0
LINE
  5
B5CC
330
5326
100
AcDbEntity
  8
YKK_N1
  6
Continuous
100
AcDbLine
 10
2972.18075948
 20
9538.00112519
 30
0.0
 11
2847.18075948
 21
9538.00124181
 31
0.0
  0
LINE
  5
B5CD
330
5326
100
AcDbEntity
  8
YKK_N1
  6
Continuous
100
AcDbLine
 10
2972.18075948
 20
9452.00112519
 30
0.0
 11
2847.18075948
 21
9452.00124181
 31
0.0
  0
TEXT
  5
B5CE
330
5326
100
AcDbEntity
  8
YKK_N1
  6
Continuous
100
AcDbText
 10
3509.99994013
 20
9312.26042826
 30
0.0
 40
60.0
  1
15
 50
90.0
100
AcDbText
  0
TEXT
  5
B5CF
330
5326
100
AcDbEntity
  8
YKK_N1
  6
Continuous
100
AcDbText
 10
3509.99994013
 20
9552.36518766
 30
0.0
 40
60.0
  1
59
 50
90.0
100
AcDbText
  0
LINE
  5
B5D0
330
5326
100
AcDbEntity
  8
YKK_N1
  6
Continuous
100
AcDbLine
 10
3396.99994013
 20
9478.9999998
 30
0.0
 11
3521.99994013
 21
9478.9999998
 31
0.0
  0
LINE
  5
B5D1
330
5326
100
AcDbEntity
  8
YKK_N1
  6
Continuous
100
AcDbLine
 10
3396.99994013
 20
9537.9999998
 30
0.0
 11
3521.99994013
 21
9537.9999998
 31
0.0
  0
LINE
  5
B5D2
330
5326
100
AcDbEntity
  8
YKK_N1
  6
Continuous
100
AcDbLine
 10
3396.99994013
 20
9451.9999998
 30
0.0
 11
3521.99994013
 21
9451.9999998
 31
0.0
  0
LINE
  5
B5D3
330
5326
100
AcDbEntity
  8
YKK_N1
  6
Continuous
100
AcDbLine
 10
3396.99994013
 20
9436.9999998
 30
0.0
 11
3521.99994013
 21
9436.9999998
 31
0.0
  0
TEXT
  5
B5D4
330
5326
100
AcDbEntity
  8
YKK_N1
  6
Continuous
100
AcDbText
 10
3593.99994013
 20
9418.05996301
 30
0.0
 40
60.0
  1
27
 50
90.0
100
AcDbText
  0
CIRCLE
  5
B5D5
330
5326
100
AcDbEntity
  8
YKK_N1
  6
Continuous
100
AcDbCircle
 10
3521.99994013
 20
9537.9999998
 30
0.0
 40
5.0
  0
CIRCLE
  5
B5D6
330
5326
100
AcDbEntity
  8
YKK_N1
  6
Continuous
100
AcDbCircle
 10
3521.99994013
 20
9478.9999998
 30
0.0
 40
5.0
  0
CIRCLE
  5
B5D7
330
5326
100
AcDbEntity
  8
YKK_N1
  6
Continuous
100
AcDbCircle
 10
3521.99994013
 20
9436.9999998
 30
0.0
 40
5.0
  0
CIRCLE
  5
B5D8
330
5326
100
AcDbEntity
  8
YKK_N1
  6
Continuous
100
AcDbCircle
 10
3521.99994013
 20
9451.9999998
 30
0.0
 40
5.0
  0
LINE
  5
B5D9
330
5326
100
AcDbEntity
  8
YKK_N1
  6
Continuous
100
AcDbLine
 10
3521.99994013
 20
9451.9999998
 30
0.0
 11
3521.99994013
 21
9436.9999998
 31
0.0
  0
LINE
  5
B5DA
330
5326
100
AcDbEntity
  8
YKK_N1
  6
Continuous
100
AcDbLine
 10
3521.99994013
 20
9478.9999998
 30
0.0
 11
3521.99994013
 21
9451.9999998
 31
0.0
  0
LINE
  5
B5DB
330
5326
100
AcDbEntity
  8
YKK_N1
  6
Continuous
100
AcDbLine
 10
3521.99994013
 20
9537.9999998
 30
0.0
 11
3521.99994013
 21
9478.9999998
 31
0.0
  0
LINE
  5
B5DC
330
5326
100
AcDbEntity
  8
YKK_A1
100
AcDbLine
 10
1579.99999988
 20
18143.49999999
 30
0.0
 11
3219.99994013
 21
18143.49999999
 31
0.0
  0
LINE
  5
B5DD
330
5326
100
AcDbEntity
  8
YKK_A1
100
AcDbLine
 10
1579.99999988
 20
18112.50000015
 30
0.0
 11
3219.99994013
 21
18112.50000015
 31
0.0
  0
LINE
  5
B5DE
330
5326
100
AcDbEntity
  8
YKK_A1
100
AcDbLine
 10
2425.0001847
 20
18063.50060267
 30
0.0
 11
3140.99994015
 21
18063.50060267
 31
0.0
  0
LINE
  5
B5DF
330
5326
100
AcDbEntity
  8
YKK_A1
100
AcDbLine
 10
2375.0001847
 20
18063.50060267
 30
0.0
 11
1658.99999988
 21
18063.50060267
 31
0.0
  0
LINE
  5
B5E0
330
5326
100
AcDbEntity
  8
YKK_A1
100
AcDbLine
 10
2425.0001847
 20
16180.50079524
 30
0.0
 11
3140.99994015
 21
16180.50079524
 31
0.0
  0
LINE
  5
B5E1
330
5326
100
AcDbEntity
  8
YKK_A1
100
AcDbLine
 10
2375.0001847
 20
16180.50079524
 30
0.0
 11
1658.99999988
 21
16180.50079524
 31
0.0
  0
LINE
  5
B5E2
330
5326
100
AcDbEntity
  8
YKK_A1
100
AcDbLine
 10
1579.99999988
 20
16113.49986352
 30
0.0
 11
3219.99994013
 21
16113.49986352
 31
0.0
  0
LINE
  5
B5E3
330
5326
100
AcDbEntity
  8
YKK_A1
100
AcDbLine
 10
1579.99999988
 20
16056.50003903
 30
0.0
 11
3219.99994013
 21
16056.50003903
 31
0.0
  0
LINE
  5
B5E4
330
5326
100
AcDbEntity
  8
YKK_A1
100
AcDbLine
 10
1579.99999988
 20
16056.50003903
 30
0.0
 11
1579.99999988
 21
18143.49999999
 31
0.0
  0
LINE
  5
B5E5
330
5326
100
AcDbEntity
  8
YKK_A1
100
AcDbLine
 10
1599.99999988
 20
16113.49986352
 30
0.0
 11
1599.99999988
 21
18112.50000015
 31
0.0
  0
LINE
  5
B5E6
330
5326
100
AcDbEntity
  8
YKK_A1
100
AcDbLine
 10
1658.99999988
 20
18063.50060267
 30
0.0
 11
1658.99999988
 21
16180.50079524
 31
0.0
  0
LINE
  5
B5E7
330
5326
100
AcDbEntity
  8
YKK_A1
100
AcDbLine
 10
2375.0001847
 20
18112.50000015
 30
0.0
 11
2375.0001847
 21
16113.49986352
 31
0.0
  0
LINE
  5
B5E8
330
5326
100
AcDbEntity
  8
YKK_A1
100
AcDbLine
 10
2425.0001847
 20
16180.50079524
 30
0.0
 11
2425.0001847
 21
18063.50060267
 31
0.0
  0
LINE
  5
B5E9
330
5326
100
AcDbEntity
  8
YKK_A1
100
AcDbLine
 10
3140.99994015
 20
16180.50079524
 30
0.0
 11
3140.99994015
 21
18063.50060267
 31
0.0
  0
LINE
  5
B5EA
330
5326
100
AcDbEntity
  8
YKK_A1
100
AcDbLine
 10
3199.99994013
 20
18112.50000015
 30
0.0
 11
3199.99994013
 21
16113.49986352
 31
0.0
  0
LINE
  5
B5EB
330
5326
100
AcDbEntity
  8
YKK_A1
100
AcDbLine
 10
3219.99994013
 20
18143.49999999
 30
0.0
 11
3219.99994013
 21
16056.50003903
 31
0.0
  0
LINE
  5
B5EC
330
5326
100
AcDbEntity
  8
YKK_IN
  6
Continuous
100
AcDbLine
 10
2364.64466083
 20
16108.8561343
 30
0.0
 11
2435.35533894
 21
16038.14545618
 31
0.0
  0
CIRCLE
  5
B5ED
330
5326
100
AcDbEntity
  8
YKK_IN
  6
Continuous
100
AcDbCircle
 10
2399.99999988
 20
16073.50079524
 30
0.0
 40
25.0
  0
LINE
  5
B5EE
330
5326
100
AcDbEntity
  8
YKK_IN
  6
Continuous
100
AcDbLine
 10
2364.64466083
 20
16038.14545618
 30
0.0
 11
2435.35533894
 21
16108.8561343
 31
0.0
  0
LINE
  5
B5EF
330
5326
100
AcDbEntity
  8
YKK_A1
  6
Continuous
 48
0.5
100
AcDbLine
 10
2703.83135558
 20
17218.85003477
 30
0.0
 11
2673.83526361
 21
17198.85125666
 31
0.0
  0
LINE
  5
B5F0
330
5326
100
AcDbEntity
  8
YKK_A1
  6
Continuous
 48
0.5
100
AcDbLine
 10
2703.83135558
 20
17218.85003477
 30
0.0
 11
2703.83135558
 21
17206.35491833
 31
0.0
  0
LINE
  5
B5F1
330
5326
100
AcDbEntity
  8
YKK_A1
  6
Continuous
 48
0.5
100
AcDbLine
 10
2703.83526183
 20
17191.35369852
 30
0.0
 11
2703.83526183
 21
17178.85247856
 31
0.0
  0
LINE
  5
B5F2
330
5326
100
AcDbEntity
  8
YKK_A1
  6
Continuous
 48
0.5
100
AcDbLine
 10
2887.16858423
 20
17206.36102184
 30
0.0
 11
2703.83135558
 21
17206.35491833
 31
0.0
  0
LINE
  5
B5F3
330
5326
100
AcDbEntity
  8
YKK_A1
  6
Continuous
 48
0.5
100
AcDbLine
 10
2703.83526183
 20
17178.85247856
 30
0.0
 11
2673.83526361
 21
17198.85125666
 31
0.0
  0
LINE
  5
B5F4
330
5326
100
AcDbEntity
  8
YKK_A1
  6
Continuous
 48
0.5
100
AcDbLine
 10
2095.05329274
 20
17518.84964333
 30
0.0
 11
2125.0493847
 21
17498.85086523
 31
0.0
  0
LINE
  5
B5F5
330
5326
100
AcDbEntity
  8
YKK_A1
  6
Continuous
 48
0.5
100
AcDbLine
 10
2095.05329274
 20
17518.84964333
 30
0.0
 11
2095.05329274
 21
17506.35452689
 31
0.0
  0
LINE
  5
B5F6
330
5326
100
AcDbEntity
  8
YKK_A1
  6
Continuous
 48
0.5
100
AcDbLine
 10
2095.04938649
 20
17491.35330708
 30
0.0
 11
2095.04938649
 21
17478.85208712
 31
0.0
  0
LINE
  5
B5F7
330
5326
100
AcDbEntity
  8
YKK_A1
  6
Continuous
 48
0.5
100
AcDbLine
 10
1913.71606397
 20
17506.3606304
 30
0.0
 11
2095.05329274
 21
17506.35452689
 31
0.0
  0
LINE
  5
B5F8
330
5326
100
AcDbEntity
  8
YKK_A1
  6
Continuous
 48
0.5
100
AcDbLine
 10
1913.70825147
 20
17491.36258442
 30
0.0
 11
2095.04938649
 21
17491.35330708
 31
0.0
  0
LINE
  5
B5F9
330
5326
100
AcDbEntity
  8
YKK_A1
  6
Continuous
 48
0.5
100
AcDbLine
 10
2095.04938649
 20
17478.85208712
 30
0.0
 11
2125.0493847
 21
17498.85086523
 31
0.0
  0
LINE
  5
B5FA
330
5326
100
AcDbEntity
  8
YKK_A1
  6
Continuous
 48
0.5
100
AcDbLine
 10
1913.71606397
 20
17506.3606304
 30
0.0
 11
1913.71606397
 21
17491.36258442
 31
0.0
  0
LINE
  5
B5FB
330
5326
100
AcDbEntity
  8
YKK_A1
100
AcDbLine
 10
2703.83526183
 20
17191.35369852
 30
0.0
 11
2887.16858423
 21
17191.35369852
 31
0.0
  0
LINE
  5
B5FC
330
5326
100
AcDbEntity
  8
YKK_A1
100
AcDbLine
 10
2887.16858423
 20
17206.36102184
 30
0.0
 11
2887.16858423
 21
17191.35369852
 31
0.0
  0
LINE
  5
B5FD
330
5326
100
AcDbEntity
  8
YKK_N1
  6
Continuous
100
AcDbLine
 10
1579.99999988
 20
15856.50003903
 30
0.0
 11
3219.99999988
 21
15856.50003903
 31
0.0
  0
LINE
  5
B5FE
330
5326
100
AcDbEntity
  8
YKK_N1
  6
Continuous
100
AcDbLine
 10
1666.60069115
 20
15806.50110661
 30
0.0
 11
1666.60069115
 21
15906.50110661
 31
0.0
  0
LINE
  5
B5FF
330
5326
100
AcDbEntity
  8
YKK_N1
  6
Continuous
100
AcDbLine
 10
1579.99815077
 20
15856.50110661
 30
0.0
 11
1666.60069115
 21
15906.50110661
 31
0.0
  0
LINE
  5
B600
330
5326
100
AcDbEntity
  8
YKK_N1
  6
Continuous
100
AcDbLine
 10
1666.60069115
 20
15806.50110661
 30
0.0
 11
1579.99815077
 21
15856.50110661
 31
0.0
  0
TEXT
  5
B601
330
5326
100
AcDbEntity
  8
YKK_N1
  6
Continuous
100
AcDbText
 10
2229.99815077
 20
15868.50003903
 30
0.0
 40
60.0
  1
W=1640
100
AcDbText
  0
LINE
  5
B602
330
5326
100
AcDbEntity
  8
YKK_N1
  6
Continuous
100
AcDbLine
 10
3219.99999988
 20
15981.50003903
 30
0.0
 11
3219.99999988
 21
15856.50003903
 31
0.0
  0
LINE
  5
B603
330
5326
100
AcDbEntity
  8
YKK_N1
  6
Continuous
100
AcDbLine
 10
3133.39745951
 20
15806.50003903
 30
0.0
 11
3133.39745951
 21
15906.50003903
 31
0.0
  0
LINE
  5
B604
330
5326
100
AcDbEntity
  8
YKK_N1
  6
Continuous
100
AcDbLine
 10
3219.99999988
 20
15856.50003903
 30
0.0
 11
3133.39745951
 21
15906.50003903
 31
0.0
  0
LINE
  5
B605
330
5326
100
AcDbEntity
  8
YKK_N1
  6
Continuous
100
AcDbLine
 10
3133.39745951
 20
15806.50003903
 30
0.0
 11
3219.99999988
 21
15856.50003903
 31
0.0
  0
LINE
  5
B606
330
5326
100
AcDbEntity
  8
YKK_N1
  6
Continuous
100
AcDbLine
 10
3419.99994013
 20
18143.5
 30
0.0
 11
3419.99994013
 21
16113.5
 31
0.0
  0
TEXT
  5
B607
330
5326
100
AcDbEntity
  8
YKK_N1
  6
Continuous
100
AcDbText
 10
3414.49868958
 20
16956.46062921
 30
0.0
 40
60.0
  1
H=2030
 50
90.0
100
AcDbText
  0
LINE
  5
B608
330
5326
100
AcDbEntity
  8
YKK_N1
  6
Continuous
100
AcDbLine
 10
3294.99994013
 20
16113.5
 30
0.0
 11
3419.99994013
 21
16113.5
 31
0.0
  0
LINE
  5
B609
330
5326
100
AcDbEntity
  8
YKK_N1
  6
Continuous
100
AcDbLine
 10
3369.99994013
 20
16200.10254037
 30
0.0
 11
3419.99994013
 21
16113.49999999
 31
0.0
  0
LINE
  5
B60A
330
5326
100
AcDbEntity
  8
YKK_N1
  6
Continuous
100
AcDbLine
 10
3369.99994013
 20
16200.10254037
 30
0.0
 11
3469.99994013
 21
16200.10254037
 31
0.0
  0
LINE
  5
B60B
330
5326
100
AcDbEntity
  8
YKK_N1
  6
Continuous
100
AcDbLine
 10
3419.99994013
 20
16113.49999999
 30
0.0
 11
3469.99994013
 21
16200.10254037
 31
0.0
  0
LINE
  5
B60C
330
5326
100
AcDbEntity
  8
YKK_N1
  6
Continuous
100
AcDbLine
 10
3299.99994013
 20
18143.5
 30
0.0
 11
3419.99994013
 21
18143.5
 31
0.0
  0
LINE
  5
B60D
330
5326
100
AcDbEntity
  8
YKK_N1
  6
Continuous
100
AcDbLine
 10
3369.99994013
 20
18056.89745962
 30
0.0
 11
3419.99994013
 21
18143.5
 31
0.0
  0
LINE
  5
B60E
330
5326
100
AcDbEntity
  8
YKK_N1
  6
Continuous
100
AcDbLine
 10
3469.99994013
 20
18056.89745962
 30
0.0
 11
3419.99994013
 21
18143.5
 31
0.0
  0
LINE
  5
B60F
330
5326
100
AcDbEntity
  8
YKK_N1
  6
Continuous
100
AcDbLine
 10
3369.99994013
 20
18056.89745962
 30
0.0
 11
3469.99994013
 21
18056.89745962
 31
0.0
  0
LINE
  5
B610
330
5326
100
AcDbEntity
  8
YKK_N1
  6
Continuous
100
AcDbLine
 10
1579.99999988
 20
15981.50003903
 30
0.0
 11
1579.99999988
 21
15856.50003903
 31
0.0
  0
LINE
  5
B611
330
5326
100
AcDbEntity
  8
YKK_A1
100
AcDbLine
 10
1579.99999988
 20
14443.49999999
 30
0.0
 11
3219.99994013
 21
14443.49999999
 31
0.0
  0
LINE
  5
B612
330
5326
100
AcDbEntity
  8
YKK_A1
100
AcDbLine
 10
1579.99999988
 20
14412.50000015
 30
0.0
 11
3219.99994013
 21
14412.50000015
 31
0.0
  0
LINE
  5
B613
330
5326
100
AcDbEntity
  8
YKK_A1
100
AcDbLine
 10
2425.0001847
 20
14363.50060267
 30
0.0
 11
3140.99994015
 21
14363.50060267
 31
0.0
  0
LINE
  5
B614
330
5326
100
AcDbEntity
  8
YKK_A1
100
AcDbLine
 10
2375.0001847
 20
14363.50060267
 30
0.0
 11
1658.99999988
 21
14363.50060267
 31
0.0
  0
LINE
  5
B615
330
5326
100
AcDbEntity
  8
YKK_A1
100
AcDbLine
 10
2425.0001847
 20
12280.50079524
 30
0.0
 11
3140.99994015
 21
12280.50079524
 31
0.0
  0
LINE
  5
B616
330
5326
100
AcDbEntity
  8
YKK_A1
100
AcDbLine
 10
2375.0001847
 20
12280.50079524
 30
0.0
 11
1658.99999988
 21
12280.50079524
 31
0.0
  0
LINE
  5
B617
330
5326
100
AcDbEntity
  8
YKK_A1
100
AcDbLine
 10
1579.99999988
 20
12213.49986352
 30
0.0
 11
3219.99994013
 21
12213.49986352
 31
0.0
  0
LINE
  5
B618
330
5326
100
AcDbEntity
  8
YKK_A1
100
AcDbLine
 10
1579.99999988
 20
12156.50003903
 30
0.0
 11
3219.99994013
 21
12156.50003903
 31
0.0
  0
LINE
  5
B619
330
5326
100
AcDbEntity
  8
YKK_A1
100
AcDbLine
 10
1579.99999988
 20
12156.50003903
 30
0.0
 11
1579.99999988
 21
14443.49999999
 31
0.0
  0
LINE
  5
B61A
330
5326
100
AcDbEntity
  8
YKK_A1
100
AcDbLine
 10
1599.99999988
 20
12213.49986352
 30
0.0
 11
1599.99999988
 21
14412.50000015
 31
0.0
  0
LINE
  5
B61B
330
5326
100
AcDbEntity
  8
YKK_A1
100
AcDbLine
 10
1658.99999988
 20
14363.50060267
 30
0.0
 11
1658.99999988
 21
12280.50079524
 31
0.0
  0
LINE
  5
B61C
330
5326
100
AcDbEntity
  8
YKK_A1
100
AcDbLine
 10
2375.0001847
 20
14412.50000015
 30
0.0
 11
2375.0001847
 21
12213.49986352
 31
0.0
  0
LINE
  5
B61D
330
5326
100
AcDbEntity
  8
YKK_A1
100
AcDbLine
 10
2425.0001847
 20
12280.50079524
 30
0.0
 11
2425.0001847
 21
14363.50060267
 31
0.0
  0
LINE
  5
B61E
330
5326
100
AcDbEntity
  8
YKK_A1
100
AcDbLine
 10
3140.99994015
 20
12280.50079524
 30
0.0
 11
3140.99994015
 21
14363.50060267
 31
0.0
  0
LINE
  5
B61F
330
5326
100
AcDbEntity
  8
YKK_A1
100
AcDbLine
 10
3199.99994013
 20
14412.50000015
 30
0.0
 11
3199.99994013
 21
12213.49986352
 31
0.0
  0
LINE
  5
B620
330
5326
100
AcDbEntity
  8
YKK_A1
100
AcDbLine
 10
3219.99994013
 20
14443.49999999
 30
0.0
 11
3219.99994013
 21
12156.50003903
 31
0.0
  0
LINE
  5
B621
330
5326
100
AcDbEntity
  8
YKK_IN
  6
Continuous
100
AcDbLine
 10
2364.64466083
 20
12208.8561343
 30
0.0
 11
2435.35533894
 21
12138.14545618
 31
0.0
  0
CIRCLE
  5
B622
330
5326
100
AcDbEntity
  8
YKK_IN
  6
Continuous
100
AcDbCircle
 10
2399.99999988
 20
12173.50079524
 30
0.0
 40
25.0
  0
LINE
  5
B623
330
5326
100
AcDbEntity
  8
YKK_IN
  6
Continuous
100
AcDbLine
 10
2364.64466083
 20
12138.14545618
 30
0.0
 11
2435.35533894
 21
12208.8561343
 31
0.0
  0
LINE
  5
B624
330
5326
100
AcDbEntity
  8
YKK_A1
  6
Continuous
 48
0.5
100
AcDbLine
 10
2703.83135558
 20
13418.85003477
 30
0.0
 11
2673.83526361
 21
13398.85125666
 31
0.0
  0
LINE
  5
B625
330
5326
100
AcDbEntity
  8
YKK_A1
  6
Continuous
 48
0.5
100
AcDbLine
 10
2703.83135558
 20
13418.85003477
 30
0.0
 11
2703.83135558
 21
13406.35491833
 31
0.0
  0
LINE
  5
B626
330
5326
100
AcDbEntity
  8
YKK_A1
  6
Continuous
 48
0.5
100
AcDbLine
 10
2703.83526183
 20
13391.35369852
 30
0.0
 11
2703.83526183
 21
13378.85247856
 31
0.0
  0
LINE
  5
B627
330
5326
100
AcDbEntity
  8
YKK_A1
  6
Continuous
 48
0.5
100
AcDbLine
 10
2887.16858423
 20
13406.36102184
 30
0.0
 11
2703.83135558
 21
13406.35491833
 31
0.0
  0
LINE
  5
B628
330
5326
100
AcDbEntity
  8
YKK_A1
  6
Continuous
 48
0.5
100
AcDbLine
 10
2703.83526183
 20
13378.85247856
 30
0.0
 11
2673.83526361
 21
13398.85125666
 31
0.0
  0
LINE
  5
B629
330
5326
100
AcDbEntity
  8
YKK_A1
  6
Continuous
 48
0.5
100
AcDbLine
 10
2095.05329274
 20
13718.84964333
 30
0.0
 11
2125.0493847
 21
13698.85086523
 31
0.0
  0
LINE
  5
B62A
330
5326
100
AcDbEntity
  8
YKK_A1
  6
Continuous
 48
0.5
100
AcDbLine
 10
2095.05329274
 20
13718.84964333
 30
0.0
 11
2095.05329274
 21
13706.35452689
 31
0.0
  0
LINE
  5
B62B
330
5326
100
AcDbEntity
  8
YKK_A1
  6
Continuous
 48
0.5
100
AcDbLine
 10
2095.04938649
 20
13691.35330708
 30
0.0
 11
2095.04938649
 21
13678.85208712
 31
0.0
  0
LINE
  5
B62C
330
5326
100
AcDbEntity
  8
YKK_A1
  6
Continuous
 48
0.5
100
AcDbLine
 10
1913.71606397
 20
13706.3606304
 30
0.0
 11
2095.05329274
 21
13706.35452689
 31
0.0
  0
LINE
  5
B62D
330
5326
100
AcDbEntity
  8
YKK_A1
  6
Continuous
 48
0.5
100
AcDbLine
 10
1913.70825147
 20
13691.36258442
 30
0.0
 11
2095.04938649
 21
13691.35330708
 31
0.0
  0
LINE
  5
B62E
330
5326
100
AcDbEntity
  8
YKK_A1
  6
Continuous
 48
0.5
100
AcDbLine
 10
2095.04938649
 20
13678.85208712
 30
0.0
 11
2125.0493847
 21
13698.85086523
 31
0.0
  0
LINE
  5
B62F
330
5326
100
AcDbEntity
  8
YKK_A1
  6
Continuous
 48
0.5
100
AcDbLine
 10
1913.71606397
 20
13706.3606304
 30
0.0
 11
1913.71606397
 21
13691.36258442
 31
0.0
  0
LINE
  5
B630
330
5326
100
AcDbEntity
  8
YKK_A1
100
AcDbLine
 10
2703.83526183
 20
13391.35369852
 30
0.0
 11
2887.16858423
 21
13391.35369852
 31
0.0
  0
LINE
  5
B631
330
5326
100
AcDbEntity
  8
YKK_A1
100
AcDbLine
 10
2887.16858423
 20
13406.36102184
 30
0.0
 11
2887.16858423
 21
13391.35369852
 31
0.0
  0
LINE
  5
B632
330
5326
100
AcDbEntity
  8
YKK_N1
  6
Continuous
100
AcDbLine
 10
1579.99999988
 20
11956.50003903
 30
0.0
 11
3219.99999988
 21
11956.50003903
 31
0.0
  0
LINE
  5
B633
330
5326
100
AcDbEntity
  8
YKK_N1
  6
Continuous
100
AcDbLine
 10
1666.60069115
 20
11906.50110661
 30
0.0
 11
1666.60069115
 21
12006.50110661
 31
0.0
  0
LINE
  5
B634
330
5326
100
AcDbEntity
  8
YKK_N1
  6
Continuous
100
AcDbLine
 10
1579.99815077
 20
11956.50110661
 30
0.0
 11
1666.60069115
 21
12006.50110661
 31
0.0
  0
LINE
  5
B635
330
5326
100
AcDbEntity
  8
YKK_N1
  6
Continuous
100
AcDbLine
 10
1666.60069115
 20
11906.50110661
 30
0.0
 11
1579.99815077
 21
11956.50110661
 31
0.0
  0
TEXT
  5
B636
330
5326
100
AcDbEntity
  8
YKK_N1
  6
Continuous
100
AcDbText
 10
2229.99815077
 20
11968.50003903
 30
0.0
 40
60.0
  1
W=1640
100
AcDbText
  0
LINE
  5
B637
330
5326
100
AcDbEntity
  8
YKK_N1
  6
Continuous
100
AcDbLine
 10
3219.99999988
 20
12081.50003903
 30
0.0
 11
3219.99999988
 21
11956.50003903
 31
0.0
  0
LINE
  5
B638
330
5326
100
AcDbEntity
  8
YKK_N1
  6
Continuous
100
AcDbLine
 10
3133.39745951
 20
11906.50003903
 30
0.0
 11
3133.39745951
 21
12006.50003903
 31
0.0
  0
LINE
  5
B639
330
5326
100
AcDbEntity
  8
YKK_N1
  6
Continuous
100
AcDbLine
 10
3219.99999988
 20
11956.50003903
 30
0.0
 11
3133.39745951
 21
12006.50003903
 31
0.0
  0
LINE
  5
B63A
330
5326
100
AcDbEntity
  8
YKK_N1
  6
Continuous
100
AcDbLine
 10
3133.39745951
 20
11906.50003903
 30
0.0
 11
3219.99999988
 21
11956.50003903
 31
0.0
  0
LINE
  5
B63B
330
5326
100
AcDbEntity
  8
YKK_N1
  6
Continuous
100
AcDbLine
 10
3419.99994013
 20
14443.5
 30
0.0
 11
3419.99994013
 21
12213.5
 31
0.0
  0
TEXT
  5
B63C
330
5326
100
AcDbEntity
  8
YKK_N1
  6
Continuous
100
AcDbText
 10
3414.49868958
 20
13156.46062921
 30
0.0
 40
60.0
  1
H=2230
 50
90.0
100
AcDbText
  0
LINE
  5
B63D
330
5326
100
AcDbEntity
  8
YKK_N1
  6
Continuous
100
AcDbLine
 10
3294.99994013
 20
12213.5
 30
0.0
 11
3419.99994013
 21
12213.5
 31
0.0
  0
LINE
  5
B63E
330
5326
100
AcDbEntity
  8
YKK_N1
  6
Continuous
100
AcDbLine
 10
3369.99994013
 20
12300.10254037
 30
0.0
 11
3419.99994013
 21
12213.49999999
 31
0.0
  0
LINE
  5
B63F
330
5326
100
AcDbEntity
  8
YKK_N1
  6
Continuous
100
AcDbLine
 10
3369.99994013
 20
12300.10254037
 30
0.0
 11
3469.99994013
 21
12300.10254037
 31
0.0
  0
LINE
  5
B640
330
5326
100
AcDbEntity
  8
YKK_N1
  6
Continuous
100
AcDbLine
 10
3419.99994013
 20
12213.49999999
 30
0.0
 11
3469.99994013
 21
12300.10254037
 31
0.0
  0
LINE
  5
B641
330
5326
100
AcDbEntity
  8
YKK_N1
  6
Continuous
100
AcDbLine
 10
3299.99994013
 20
14443.5
 30
0.0
 11
3419.99994013
 21
14443.5
 31
0.0
  0
LINE
  5
B642
330
5326
100
AcDbEntity
  8
YKK_N1
  6
Continuous
100
AcDbLine
 10
3369.99994013
 20
14356.89745962
 30
0.0
 11
3419.99994013
 21
14443.5
 31
0.0
  0
LINE
  5
B643
330
5326
100
AcDbEntity
  8
YKK_N1
  6
Continuous
100
AcDbLine
 10
3469.99994013
 20
14356.89745962
 30
0.0
 11
3419.99994013
 21
14443.5
 31
0.0
  0
LINE
  5
B644
330
5326
100
AcDbEntity
  8
YKK_N1
  6
Continuous
100
AcDbLine
 10
3369.99994013
 20
14356.89745962
 30
0.0
 11
3469.99994013
 21
14356.89745962
 31
0.0
  0
LINE
  5
B645
330
5326
100
AcDbEntity
  8
YKK_N1
  6
Continuous
100
AcDbLine
 10
1579.99999988
 20
12081.50003903
 30
0.0
 11
1579.99999988
 21
11956.50003903
 31
0.0
  0
ENDSEC
  0
SECTION
  2
OBJECTS
  0
DICTIONARY
  5
52C3
330
0
100
AcDbDictionary
281
     1
  3
ACAD_CIP_PREVIOUS_PRODUCT_INFO
350
539A
  3
ACAD_COLOR
350
5319
  3
ACAD_DETAILVIEWSTYLE
350
5320
  3
ACAD_DGNDEFINITIONS
350
625D
  3
ACAD_DWFDEFINITIONS
350
625C
  3
ACAD_GROUP
350
52C4
  3
ACAD_LAYOUT
350
5318
  3
ACAD_MATERIAL
350
52C7
  3
ACAD_MLEADERSTYLE
350
531C
  3
ACAD_MLINESTYLE
350
5315
  3
ACAD_PDFDEFINITIONS
350
625B
  3
ACAD_PLOTSETTINGS
350
5317
  3
ACAD_PLOTSTYLENAME
350
52C5
  3
ACAD_RENDER_ACTIVE_RAPIDRT_SETTINGS
350
75F1
  3
ACAD_RENDER_ACTIVE_SETTINGS
350
7648
  3
ACAD_SCALELIST
350
52F9
  3
ACAD_SECTIONVIEWSTYLE
350
531E
  3
ACAD_TABLESTYLE
350
531A
  3
ACAD_VISUALSTYLE
350
52E0
  3
ACDB_RECOMPOSE_DATA
350
B6A7
  3
AcDbVariableDictionary
350
5389
  0
DICTIONARY
  5
73FF
330
52BF
100
AcDbDictionary
280
     1
281
     1
  0
DICTIONARY
  5
53DC
330
52B9
100
AcDbDictionary
280
     1
281
     1
  3
ACAD_LAYERSTATES
360
53DD
  3
ACLYDICTIONARY
360
73E4
  0
DICTIONARY
  5
B473
330
5326
100
AcDbDictionary
280
     1
281
     1
  3
ACAD_SORTENTS
360
B474
  0
XRECORD
  5
539A
102
{ACAD_REACTORS
330
52C3
102
}
330
52C3
100
AcDbXrecord
280
     1
300
ACD
300
2018
300
86830ACD_2018_0F
  0
DICTIONARY
  5
5319
102
{ACAD_REACTORS
330
52C3
102
}
330
52C3
100
AcDbDictionary
281
     1
  0
DICTIONARY
  5
5320
102
{ACAD_REACTORS
330
52C3
102
}
330
52C3
100
AcDbDictionary
281
     1
  3
Imperial24
350
5321
  3
Metric50
350
542C
  0
DICTIONARY
  5
625D
102
{ACAD_REACTORS
330
52C3
102
}
330
52C3
100
AcDbDictionary
281
     1
  0
DICTIONARY
  5
625C
102
{ACAD_REACTORS
330
52C3
102
}
330
52C3
100
AcDbDictionary
281
     1
  0
DICTIONARY
  5
52C4
102
{ACAD_REACTORS
330
52C3
102
}
330
52C3
100
AcDbDictionary
281
     1
  0
DICTIONARY
  5
5318
102
{ACAD_REACTORS
330
52C3
102
}
330
52C3
100
AcDbDictionary
281
     1
  3
Model
350
5329
  3
レイアウト1
350
5325
  0
DICTIONARY
  5
52C7
102
{ACAD_REACTORS
330
52C3
102
}
330
52C3
100
AcDbDictionary
281
     1
  3
ByBlock
350
52D0
  3
ByLayer
350
52C8
  3
Global
350
52D8
  0
DICTIONARY
  5
531C
102
{ACAD_REACTORS
330
52C3
102
}
330
52C3
100
AcDbDictionary
281
     1
  3
Standard
350
531D
  0
DICTIONARY
  5
5315
102
{ACAD_REACTORS
330
52C3
102
}
330
52C3
100
AcDbDictionary
281
     1
  3
Standard
350
5316
  0
DICTIONARY
  5
625B
102
{ACAD_REACTORS
330
52C3
102
}
330
52C3
100
AcDbDictionary
281
     1
  0
DICTIONARY
  5
5317
102
{ACAD_REACTORS
330
52C3
102
}
330
52C3
100
AcDbDictionary
281
     1
  0
ACDBDICTIONARYWDFLT
  5
52C5
102
{ACAD_REACTORS
330
52C3
102
}
330
52C3
100
AcDbDictionary
281
     1
  3
Normal
350
52C6
100
AcDbDictionaryWithDefault
340
52C6
  0
RAPIDRTRENDERSETTINGS
  5
75F1
102
{ACAD_REACTORS
330
52C3
102
}
330
52C3
100
AcDbRenderSettings
 90
        2
  1
中
290
     1
290
     0
290
     1
290
     1
  1

  1
5 レンダリング レベルを適用
 90
        0
100
AcDbRapidRTRenderSettings
 90
        3
 70
     0
 90
        5
 90
        1
 70
     1
 70
     2
 40
3.0
 40
3.0
290
     1
  0
MENTALRAYRENDERSETTINGS
  5
7648
102
{ACAD_XDICTIONARY
360
7649
102
}
102
{ACAD_REACTORS
330
52C3
102
}
330
52C3
100
AcDbRenderSettings
 90
        2
  1
中間
290
     1
290
     1
290
     1
290
     1
  1

  1

 90
        0
100
AcDbMentalRayRenderSettings
 90
        2
 90
        0
 90
        1
 70
     2
 40
3.0
 40
3.0
 40
0.05
 40
0.05
 40
0.05
 40
0.05
 70
     0
290
     0
290
     1
 90
        5
 90
        5
 90
        5
290
     0
 90
      500
290
     0
 40
1.0
 90
    10000
 90
        5
 90
        5
 90
        5
290
     0
 90
      200
290
     0
290
     0
290
     0
 40
1.0
 40
1.0
 40
1500.0
 70
     0
 70
     0
 40
10.0
 70
     0
 70
     0
290
     0
  1

 90
       32
 70
     0
 90
     1048
290
     0
 40
1.0
  0
DICTIONARY
  5
52F9
102
{ACAD_REACTORS
330
52C3
102
}
330
52C3
100
AcDbDictionary
281
     1
  3
*A1
350
6294
  3
*A10
350
6298
  3
*A11
350
6299
  3
*A12
350
629A
  3
*A13
350
629B
  3
*A14
350
629C
  3
*A15
350
629D
  3
*A16
350
629E
  3
*A2
350
629F
  3
*A3
350
62A0
  3
*A4
350
62A1
  3
*A5
350
62A2
  3
*A6
350
62A3
  3
*A7
350
6295
  3
*A8
350
6296
  3
*A9
350
6297
  3
A0
350
52FA
  3
A1
350
52FB
  3
A2
350
52FC
  3
A3
350
52FD
  3
A4
350
52FE
  3
A5
350
52FF
  3
A6
350
5300
  3
A7
350
5301
  3
A8
350
5302
  3
A9
350
5303
  3
B0
350
5304
  3
B1
350
5305
  3
B2
350
5306
  3
B3
350
5307
  3
B4
350
5308
  3
B5
350
5309
  3
B6
350
530A
  0
DICTIONARY
  5
531E
102
{ACAD_REACTORS
330
52C3
102
}
330
52C3
100
AcDbDictionary
281
     1
  3
Imperial24
350
531F
  3
Metric50
350
542B
  0
DICTIONARY
  5
531A
102
{ACAD_REACTORS
330
52C3
102
}
330
52C3
100
AcDbDictionary
281
     1
  3
Standard
350
531B
  0
DICTIONARY
  5
52E0
102
{ACAD_REACTORS
330
52C3
102
}
330
52C3
100
AcDbDictionary
281
     1
  3
2dWireframe
350
52E6
  3
Basic
350
52E5
  3
Brighten
350
52EC
  3
ColorChange
350
52F0
  3
Conceptual
350
52E9
  3
Dim
350
52EB
  3
EdgeColorOff
350
52F8
  3
Facepattern
350
52EF
  3
Flat
350
52E1
  3
FlatWithEdges
350
52E2
  3
Gouraud
350
52E3
  3
GouraudWithEdges
350
52E4
  3
Hidden
350
52E8
  3
JitterOff
350
52F6
  3
Linepattern
350
52EE
  3
OverhangOff
350
52F7
  3
Realistic
350
52EA
  3
Shaded
350
52F5
  3
Shaded with edges
350
52F4
  3
Shades of Gray
350
52F1
  3
Sketchy
350
52F2
  3
Thicken
350
52ED
  3
Wireframe
350
52E7
  3
X-Ray
350
52F3
  0
XRECORD
  5
B6A7
102
{ACAD_REACTORS
330
52C3
102
}
330
52C3
100
AcDbXrecord
280
     1
 90
        1
330
531B
  0
DICTIONARY
  5
5389
102
{ACAD_REACTORS
330
52C3
102
}
330
52C3
100
AcDbDictionary
281
     1
  3
CANNOSCALE
350
538F
  3
CMLEADERSTYLE
350
538B
  3
CTABLESTYLE
350
538A
  3
CVIEWDETAILSTYLE
350
538C
  3
CVIEWSECTIONSTYLE
350
538D
  3
LAYEREVAL
350
5391
  3
LAYERNOTIFY
350
5392
  3
LIGHTINGUNITS
350
5390
  3
MSLTSCALE
350
538E
  3
XCLIPFRAME
350
B6A5
  0
DICTIONARY
  5
53DD
102
{ACAD_REACTORS
330
53DC
102
}
330
53DC
100
AcDbDictionary
281
     1
  0
DICTIONARY
  5
73E4
102
{ACAD_REACTORS
330
53DC
102
}
330
53DC
100
AcDbDictionary
281
     1
1001
ACAD
1000
All
  0
SORTENTSTABLE
  5
B474
102
{ACAD_REACTORS
330
B473
102
}
330
B473
100
AcDbSortentsTable
330
5326
331
75
  5
75
331
B3C8
  5
B3C8
331
B396
  5
B396
331
B31E
  5
B31E
331
B29F
  5
B29F
331
B2A4
  5
B2A4
331
B3BD
  5
B3BD
331
B2FD
  5
B2FD
331
B3C2
  5
B3C2
331
B302
  5
B302
331
B43B
  5
B43B
331
B3A9
  5
B3A9
331
B440
  5
B440
331
B2F7
  5
B2F7
331
92
  5
92
331
B39E
  5
B39E
331
B457
  5
B457
331
B32D
  5
B32D
331
B2DE
  5
B2DE
331
B3A3
  5
B3A3
331
B45C
  5
B45C
331
B2E3
  5
B2E3
331
69
  5
69
331
B3CC
  5
B3CC
331
B3D1
  5
B3D1
331
B312
  5
B312
331
B298
  5
B298
331
B448
  5
B448
331
B3C6
  5
B3C6
331
B306
  5
B306
331
B43F
  5
B43F
331
A1
  5
A1
331
B444
  5
B444
331
521C
  5
521C
331
B464
  5
B464
331
B2EB
  5
B2EB
331
B469
  5
B46B
331
96
  5
96
331
B321
  5
B321
331
B3A7
  5
B3A7
331
B450
  5
B450
331
B2E7
  5
B2E7
331
B3D5
  5
B3D5
331
31BB
  5
31BB
331
B393
  5
B393
331
B29C
  5
B29C
331
B44C
  5
B44C
331
B2A1
  5
B2A1
331
B3BA
  5
B3BA
331
B46D
  5
B46F
331
B3E5
  5
B3E5
331
B325
  5
B325
331
B39B
  5
B39B
331
B3EA
  5
B3EA
331
B454
  5
B454
331
B32A
  5
B32A
331
B3A0
  5
B3A0
331
B459
  5
B459
331
B2E0
  5
B2E0
331
76
  5
76
331
B3C9
  5
B3C9
331
B397
  5
B397
331
B31F
  5
B31F
331
B2A5
  5
B2A5
331
B3BE
  5
B3BE
331
B3C3
  5
B3C3
331
B303
  5
B303
331
99
  5
99
331
B43C
  5
B43C
331
B441
  5
B441
331
B3AA
  5
B3AA
331
B2E8
  5
B2E8
331
B39F
  5
B39F
331
B32E
  5
B32E
331
B2DF
  5
B2DF
331
B3A4
  5
B3A4
331
B45D
  5
B45D
331
B2E4
  5
B2E4
331
B3CD
  5
B3CD
331
B3D2
  5
B3D2
331
B33B
  5
B33B
331
B390
  5
B390
331
B318
  5
B318
331
B449
  5
B449
331
B3C7
  5
B3C7
331
B470
  5
B472
331
B445
  5
B445
331
B465
  5
B465
331
B2EC
  5
B2EC
331
B46A
  5
B46C
331
B322
  5
B322
331
B398
  5
B398
331
B451
  5
B451
331
73
  5
73
331
B3D6
  5
B3D6
331
B317
  5
B317
331
B394
  5
B394
331
B31C
  5
B31C
331
B29D
  5
B29D
331
AA
  5
AA
331
B44D
  5
B44D
331
B2A2
  5
B2A2
331
B3BB
  5
B3BB
331
B2FB
  5
B2FB
331
1D60
  5
1D60
331
B3C0
  5
B3C0
331
B300
  5
B300
331
A6
  5
A6
331
B3B7
  5
B3B7
331
C0D
  5
C0D
331
B46E
  5
B470
331
B2F5
  5
B2F5
331
7B
  5
7B
331
B3E6
  5
B3E6
331
51F5
  5
51F5
331
B326
  5
B326
331
B39C
  5
B39C
331
B3EB
  5
B3EB
331
B455
  5
B455
331
B32B
  5
B32B
331
B3A1
  5
B3A1
331
B45A
  5
B45A
331
B2E1
  5
B2E1
331
77
  5
77
331
B3CA
  5
B3CA
331
B338
  5
B338
331
B2A6
  5
B2A6
331
B3BF
  5
B3BF
331
B2FF
  5
B2FF
331
B3C4
  5
B3C4
331
B304
  5
B304
331
B43D
  5
B43D
331
B442
  5
B442
331
B3AB
  5
B3AB
331
B333
  5
B333
331
B2E9
  5
B2E9
331
94
  5
94
331
B32F
  5
B32F
331
A25
  5
A25
331
B3A5
  5
B3A5
331
B45E
  5
B45E
331
B2E5
  5
B2E5
331
B3CE
  5
B3CE
331
70
  5
70
331
B3D3
  5
B3D3
331
B391
  5
B391
331
B29A
  5
B29A
331
B44A
  5
B44A
331
B3B8
  5
B3B8
331
B471
  5
B475
331
9E
  5
9E
331
A3
  5
A3
331
B446
  5
B446
331
B466
  5
B466
331
B2ED
  5
B2ED
331
B46B
  5
B46D
331
78
  5
78
331
B323
  5
B323
331
B399
  5
B399
331
B3E8
  5
B3E8
331
B452
  5
B452
331
B328
  5
B328
331
B395
  5
B395
331
B31D
  5
B31D
331
B29E
  5
B29E
331
B44E
  5
B44E
331
B2A3
  5
B2A3
331
B3BC
  5
B3BC
331
B475
  5
B469
331
B2FC
  5
B2FC
331
B3C1
  5
B3C1
331
B301
  5
B301
331
A7
  5
A7
331
B43A
  5
B43A
331
5202
  5
5202
331
B3A8
  5
B3A8
331
B330
  5
B330
331
C0E
  5
C0E
331
B46F
  5
B471
331
B2F6
  5
B2F6
331
C13
  5
C13
331
B3E7
  5
B3E7
331
B327
  5
B327
331
91
  5
91
331
B39D
  5
B39D
331
B456
  5
B456
331
B32C
  5
B32C
331
B3A2
  5
B3A2
331
B45B
  5
B45B
331
B2E2
  5
B2E2
331
B3CB
  5
B3CB
331
B3D0
  5
B3D0
331
5229
  5
5229
331
33C
  5
33C
331
B3C5
  5
B3C5
331
B305
  5
B305
331
B43E
  5
B43E
331
A0
  5
A0
331
B443
  5
B443
331
B2EA
  5
B2EA
331
31C2
  5
31C2
331
B468
  5
B46A
331
95
  5
95
331
B320
  5
B320
331
B3A6
  5
B3A6
331
B45F
  5
B45F
331
B93
  5
B93
331
B3CF
  5
B3CF
331
71
  5
71
331
B3D4
  5
B3D4
331
B392
  5
B392
331
B29B
  5
B29B
331
A8
  5
A8
331
B44B
  5
B44B
331
B2A0
  5
B2A0
331
B3B9
  5
B3B9
331
B472
  5
B467
331
28CE
  5
28CE
331
B297
  5
B297
331
B447
  5
B447
331
B467
  5
B468
331
B2EE
  5
B2EE
331
B46C
  5
B46E
331
C10
  5
C10
331
B324
  5
B324
331
B39A
  5
B39A
331
B3E9
  5
B3E9
331
B453
  5
B453
331
B329
  5
B329
331
B458
  5
B458
  0
ACDBDETAILVIEWSTYLE
  5
5321
102
{ACAD_XDICTIONARY
360
B6E3
102
}
102
{ACAD_REACTORS
330
5320
102
}
330
5320
100
AcDbModelDocViewStyle
 70
     0
  3
Imperial24
290
     0
100
AcDbDetailViewStyle
 70
     0
 71
     0
 90
        3
 71
     1
340
530C
 62
   256
 40
0.24
340
0
 62
   256
 40
0.24
300

 40
0.36
280
     3
 71
     2
340
5313
 90
       25
 62
   256
 71
     3
340
530C
 62
   256
 40
0.24
 90
        1
 40
0.75
 90
        1
300
%<\AcVar ViewType \f "%tc1">% %<\AcVar ViewDetailId>%\PSCALE %<\AcVar ViewScale \f "%sn">%
 71
     4
340
5313
 90
       25
 62
   256
340
5313
 90
       25
 62
   256
280
     0
  0
ACDBDETAILVIEWSTYLE
  5
542C
102
{ACAD_XDICTIONARY
360
B6E7
102
}
102
{ACAD_REACTORS
330
5320
102
}
330
5320
100
AcDbModelDocViewStyle
 70
     0
  3
Metric50
290
     0
100
AcDbDetailViewStyle
 70
     0
 71
     0
 90
        3
 71
     1
340
530C
 62
   256
 40
5.0
340
0
 62
   256
 40
5.0
300

 40
0.0
280
     1
 71
     2
340
5313
 90
       25
 62
   256
 71
     3
340
530C
 62
   256
 40
5.0
 90
        0
 40
15.0
 90
        1
300
%<\AcVar ViewDetailId>% (%<\AcVar ViewScale \f "%sn">%)
 71
     4
340
5313
 90
       25
 62
   256
340
5313
 90
       25
 62
   256
280
     0
  0
LAYOUT
  5
5329
102
{ACAD_XDICTIONARY
360
5428
102
}
102
{ACAD_REACTORS
330
5318
102
}
330
5318
100
AcDbPlotSettings
  1

  2
C:\ACAD-I\support\plotters\Default Windows System Printer.pc3
  4
A4
  6

 40
4.90008307
 41
4.90005732
 42
4.90008545
 43
4.90008545
 44
210.01567078
 45
297.01065063
 46
0.0
 47
0.0
 48
0.0
 49
0.0
140
0.0
141
0.0
142
1.0
143
3419.22605046
 70
 11952
 72
     0
 73
     1
 74
     0
  7
monochrome.ctb
 75
     0
147
0.00029246
 76
     0
 77
     2
 78
   300
148
55757.41426091
149
2047.96891189
100
AcDbLayout
  1
Model
 70
     1
 71
     0
 10
0.0
 20
0.0
 11
12.0
 21
9.0
 12
0.0
 22
0.0
 32
0.0
 14
0.0
 24
0.0
 34
0.0
 15
27500.0
 25
20000.0
 35
0.0
146
0.0
 13
0.0
 23
0.0
 33
0.0
 16
1.0
 26
0.0
 36
0.0
 17
0.0
 27
1.0
 37
0.0
 76
     0
330
5326
331
532B
1001
ACAD_PSEXT
1000
C:\ACAD-I\support\plotters\Default Windows System Printer.pc3
1000
FX ApeosPort-IV C4475
1000
IP_10.230.204.203
1000

1070
     0
  0
LAYOUT
  5
5325
102
{ACAD_REACTORS
330
5318
102
}
330
5318
100
AcDbPlotSettings
  1

  2
C:\ACAD-I\support\plotters\Default Windows System Printer.pc3
  4
A4
  6

 40
4.90008307
 41
4.90005732
 42
4.90008545
 43
4.90008545
 44
210.01567078
 45
297.01065063
 46
0.0
 47
0.0
 48
0.0
 49
0.0
140
0.0
141
0.0
142
1.0
143
1.0
 70
 15024
 72
     0
 73
     1
 74
     5
  7
monochrome.ctb
 75
    16
147
1.0
 76
     0
 77
     2
 78
   300
148
0.0
149
0.0
100
AcDbLayout
  1
レイアウト1
 70
     1
 71
     1
 10
0.0
 20
0.0
 11
420.0
 21
297.0
 12
0.0
 22
0.0
 32
0.0
 14
1.00000000E+20
 24
1.00000000E+20
 34
1.00000000E+20
 15
-1.00000000E+20
 25
-1.00000000E+20
 35
-1.00000000E+20
146
0.0
 13
0.0
 23
0.0
 33
0.0
 16
1.0
 26
0.0
 36
0.0
 17
0.0
 27
1.0
 37
0.0
 76
     0
330
5322
1001
ACAD_PSEXT
1000
C:\ACAD-I\support\plotters\Default Windows System Printer.pc3
1000
FX ApeosPort-IV C4475
1000
IP_10.230.204.203
1000

1070
     0
  0
MATERIAL
  5
52D0
102
{ACAD_XDICTIONARY
360
B6AA
102
}
102
{ACAD_REACTORS
330
52C7
102
}
330
52C7
100
AcDbMaterial
  1
ByBlock
 72
     0
 43
0.02083333
 43
0.0
 43
0.0
 43
0.0
 43
0.0
 43
0.02083333
 43
0.0
 43
0.0
 43
0.0
 43
0.0
 43
1.0
 43
0.0
 43
0.0
 43
0.0
 43
0.0
 43
1.0
 77
     0
 47
0.02083333
 47
0.0
 47
0.0
 47
0.0
 47
0.0
 47
0.02083333
 47
0.0
 47
0.0
 47
0.0
 47
0.0
 47
1.0
 47
0.0
 47
0.0
 47
0.0
 47
0.0
 47
1.0
171
     0
 49
0.02083333
 49
0.0
 49
0.0
 49
0.0
 49
0.0
 49
0.02083333
 49
0.0
 49
0.0
 49
0.0
 49
0.0
 49
1.0
 49
0.0
 49
0.0
 49
0.0
 49
0.0
 49
1.0
175
     0
142
0.02083333
142
0.0
142
0.0
142
0.0
142
0.0
142
0.02083333
142
0.0
142
0.0
142
0.0
142
0.0
142
1.0
142
0.0
142
0.0
142
0.0
142
0.0
142
1.0
179
     0
144
0.02083333
144
0.0
144
0.0
144
0.0
144
0.0
144
0.02083333
144
0.0
144
0.0
144
0.0
144
0.0
144
1.0
144
0.0
144
0.0
144
0.0
144
0.0
144
1.0
147
0.02083333
147
0.0
147
0.0
147
0.0
147
0.0
147
0.02083333
147
0.0
147
0.0
147
0.0
147
0.0
147
1.0
147
0.0
147
0.0
147
0.0
147
0.0
147
1.0
  0
MATERIAL
  5
52C8
102
{ACAD_XDICTIONARY
360
B6A8
102
}
102
{ACAD_REACTORS
330
52C7
102
}
330
52C7
100
AcDbMaterial
  1
ByLayer
 72
     0
 43
0.02083333
 43
0.0
 43
0.0
 43
0.0
 43
0.0
 43
0.02083333
 43
0.0
 43
0.0
 43
0.0
 43
0.0
 43
1.0
 43
0.0
 43
0.0
 43
0.0
 43
0.0
 43
1.0
 77
     0
 47
0.02083333
 47
0.0
 47
0.0
 47
0.0
 47
0.0
 47
0.02083333
 47
0.0
 47
0.0
 47
0.0
 47
0.0
 47
1.0
 47
0.0
 47
0.0
 47
0.0
 47
0.0
 47
1.0
171
     0
 49
0.02083333
 49
0.0
 49
0.0
 49
0.0
 49
0.0
 49
0.02083333
 49
0.0
 49
0.0
 49
0.0
 49
0.0
 49
1.0
 49
0.0
 49
0.0
 49
0.0
 49
0.0
 49
1.0
175
     0
142
0.02083333
142
0.0
142
0.0
142
0.0
142
0.0
142
0.02083333
142
0.0
142
0.0
142
0.0
142
0.0
142
1.0
142
0.0
142
0.0
142
0.0
142
0.0
142
1.0
179
     0
144
0.02083333
144
0.0
144
0.0
144
0.0
144
0.0
144
0.02083333
144
0.0
144
0.0
144
0.0
144
0.0
144
1.0
144
0.0
144
0.0
144
0.0
144
0.0
144
1.0
147
0.02083333
147
0.0
147
0.0
147
0.0
147
0.0
147
0.02083333
147
0.0
147
0.0
147
0.0
147
0.0
147
1.0
147
0.0
147
0.0
147
0.0
147
0.0
147
1.0
  0
MATERIAL
  5
52D8
102
{ACAD_XDICTIONARY
360
B6AC
102
}
102
{ACAD_REACTORS
330
52C7
102
}
330
52C7
100
AcDbMaterial
  1
Global
 72
     0
 43
0.02083333
 43
0.0
 43
0.0
 43
0.0
 43
0.0
 43
0.02083333
 43
0.0
 43
0.0
 43
0.0
 43
0.0
 43
1.0
 43
0.0
 43
0.0
 43
0.0
 43
0.0
 43
1.0
 77
     0
 47
0.02083333
 47
0.0
 47
0.0
 47
0.0
 47
0.0
 47
0.02083333
 47
0.0
 47
0.0
 47
0.0
 47
0.0
 47
1.0
 47
0.0
 47
0.0
 47
0.0
 47
0.0
 47
1.0
171
     0
 49
0.02083333
 49
0.0
 49
0.0
 49
0.0
 49
0.0
 49
0.02083333
 49
0.0
 49
0.0
 49
0.0
 49
0.0
 49
1.0
 49
0.0
 49
0.0
 49
0.0
 49
0.0
 49
1.0
175
     0
142
0.02083333
142
0.0
142
0.0
142
0.0
142
0.0
142
0.02083333
142
0.0
142
0.0
142
0.0
142
0.0
142
1.0
142
0.0
142
0.0
142
0.0
142
0.0
142
1.0
179
     0
144
0.02083333
144
0.0
144
0.0
144
0.0
144
0.0
144
0.02083333
144
0.0
144
0.0
144
0.0
144
0.0
144
1.0
144
0.0
144
0.0
144
0.0
144
0.0
144
1.0
147
0.02083333
147
0.0
147
0.0
147
0.0
147
0.0
147
0.02083333
147
0.0
147
0.0
147
0.0
147
0.0
147
1.0
147
0.0
147
0.0
147
0.0
147
0.0
147
1.0
  0
MLEADERSTYLE
  5
531D
102
{ACAD_XDICTIONARY
360
B6DF
102
}
102
{ACAD_REACTORS
330
531C
102
}
330
531C
100
AcDbMLeaderStyle
170
     2
171
     1
172
     0
 90
        2
 40
0.0
 41
0.0
173
     1
 91
-1056964608
340
5311
 92
       -2
290
     1
 42
0.09
291
     1
 43
0.36
  3
Standard
 44
0.18
300

342
530C
174
     1
178
     6
175
     1
176
     0
 93
-1056964608
 45
0.18
292
     0
297
     0
 46
0.18
 94
-1056964608
 47
1.0
 49
1.0
140
1.0
293
     1
141
0.0
294
     1
177
     0
142
1.0
295
     0
296
     0
143
0.125
1001
ACAD_MLEADERVER
1070
     2
  0
MLINESTYLE
  5
5316
102
{ACAD_REACTORS
330
5315
102
}
330
5315
100
AcDbMlineStyle
  2
STANDARD
 70
     0
  3

 62
   256
 51
90.0
 52
90.0
 71
     2
 49
0.5
 62
   256
  6
BYLAYER
 49
-0.5
 62
   256
  6
BYLAYER
  0
ACDBPLACEHOLDER
  5
52C6
102
{ACAD_REACTORS
330
52C5
102
}
330
52C5
  0
DICTIONARY
  5
7649
330
7648
100
AcDbDictionary
280
     1
281
     1
  3
ADSK_XREC_MENTALRAYSETTINGSINFO
360
764A
  0
SCALE
  5
6294
102
{ACAD_REACTORS
330
52F9
102
}
330
52F9
100
AcDbScale
 70
     0
300
1:2
140
1.0
141
2.0
290
     0
  0
SCALE
  5
6298
102
{ACAD_REACTORS
330
52F9
102
}
330
52F9
100
AcDbScale
 70
     0
300
1:10
140
1.0
141
10.0
290
     0
  0
SCALE
  5
6299
102
{ACAD_REACTORS
330
52F9
102
}
330
52F9
100
AcDbScale
 70
     0
300
1:16
140
1.0
141
16.0
290
     0
  0
SCALE
  5
629A
102
{ACAD_REACTORS
330
52F9
102
}
330
52F9
100
AcDbScale
 70
     0
300
1:20
140
1.0
141
20.0
290
     0
  0
SCALE
  5
629B
102
{ACAD_REACTORS
330
52F9
102
}
330
52F9
100
AcDbScale
 70
     0
300
1:30
140
1.0
141
30.0
290
     0
  0
SCALE
  5
629C
102
{ACAD_REACTORS
330
52F9
102
}
330
52F9
100
AcDbScale
 70
     0
300
1:40
140
1.0
141
40.0
290
     0
  0
SCALE
  5
629D
102
{ACAD_REACTORS
330
52F9
102
}
330
52F9
100
AcDbScale
 70
     0
300
1:50
140
1.0
141
50.0
290
     0
  0
SCALE
  5
629E
102
{ACAD_REACTORS
330
52F9
102
}
330
52F9
100
AcDbScale
 70
     0
300
1:100
140
1.0
141
100.0
290
     0
  0
SCALE
  5
629F
102
{ACAD_REACTORS
330
52F9
102
}
330
52F9
100
AcDbScale
 70
     0
300
2:1
140
2.0
141
1.0
290
     0
  0
SCALE
  5
62A0
102
{ACAD_REACTORS
330
52F9
102
}
330
52F9
100
AcDbScale
 70
     0
300
4:1
140
4.0
141
1.0
290
     0
  0
SCALE
  5
62A1
102
{ACAD_REACTORS
330
52F9
102
}
330
52F9
100
AcDbScale
 70
     0
300
8:1
140
8.0
141
1.0
290
     0
  0
SCALE
  5
62A2
102
{ACAD_REACTORS
330
52F9
102
}
330
52F9
100
AcDbScale
 70
     0
300
10:1
140
10.0
141
1.0
290
     0
  0
SCALE
  5
62A3
102
{ACAD_REACTORS
330
52F9
102
}
330
52F9
100
AcDbScale
 70
     0
300
100:1
140
100.0
141
1.0
290
     0
  0
SCALE
  5
6295
102
{ACAD_REACTORS
330
52F9
102
}
330
52F9
100
AcDbScale
 70
     0
300
1:4
140
1.0
141
4.0
290
     0
  0
SCALE
  5
6296
102
{ACAD_REACTORS
330
52F9
102
}
330
52F9
100
AcDbScale
 70
     0
300
1:5
140
1.0
141
5.0
290
     0
  0
SCALE
  5
6297
102
{ACAD_REACTORS
330
52F9
102
}
330
52F9
100
AcDbScale
 70
     0
300
1:8
140
1.0
141
8.0
290
     0
  0
SCALE
  5
52FA
102
{ACAD_REACTORS
330
52F9
102
}
330
52F9
100
AcDbScale
 70
     0
300
1:1
140
1.0
141
1.0
290
     1
  0
SCALE
  5
52FB
102
{ACAD_REACTORS
330
52F9
102
}
330
52F9
100
AcDbScale
 70
     0
300
1/128" = 1'-0"
140
0.0078125
141
12.0
290
     0
  0
SCALE
  5
52FC
102
{ACAD_REACTORS
330
52F9
102
}
330
52F9
100
AcDbScale
 70
     0
300
1/64" = 1'-0"
140
0.015625
141
12.0
290
     0
  0
SCALE
  5
52FD
102
{ACAD_REACTORS
330
52F9
102
}
330
52F9
100
AcDbScale
 70
     0
300
1/32" = 1'-0"
140
0.03125
141
12.0
290
     0
  0
SCALE
  5
52FE
102
{ACAD_REACTORS
330
52F9
102
}
330
52F9
100
AcDbScale
 70
     0
300
1/16" = 1'-0"
140
0.0625
141
12.0
290
     0
  0
SCALE
  5
52FF
102
{ACAD_REACTORS
330
52F9
102
}
330
52F9
100
AcDbScale
 70
     0
300
3/32" = 1'-0"
140
0.09375
141
12.0
290
     0
  0
SCALE
  5
5300
102
{ACAD_REACTORS
330
52F9
102
}
330
52F9
100
AcDbScale
 70
     0
300
1/8" = 1'-0"
140
0.125
141
12.0
290
     0
  0
SCALE
  5
5301
102
{ACAD_REACTORS
330
52F9
102
}
330
52F9
100
AcDbScale
 70
     0
300
3/16" = 1'-0"
140
0.1875
141
12.0
290
     0
  0
SCALE
  5
5302
102
{ACAD_REACTORS
330
52F9
102
}
330
52F9
100
AcDbScale
 70
     0
300
1/4" = 1'-0"
140
0.25
141
12.0
290
     0
  0
SCALE
  5
5303
102
{ACAD_REACTORS
330
52F9
102
}
330
52F9
100
AcDbScale
 70
     0
300
3/8" = 1'-0"
140
0.375
141
12.0
290
     0
  0
SCALE
  5
5304
102
{ACAD_REACTORS
330
52F9
102
}
330
52F9
100
AcDbScale
 70
     0
300
1/2" = 1'-0"
140
0.5
141
12.0
290
     0
  0
SCALE
  5
5305
102
{ACAD_REACTORS
330
52F9
102
}
330
52F9
100
AcDbScale
 70
     0
300
3/4" = 1'-0"
140
0.75
141
12.0
290
     0
  0
SCALE
  5
5306
102
{ACAD_REACTORS
330
52F9
102
}
330
52F9
100
AcDbScale
 70
     0
300
1" = 1'-0"
140
1.0
141
12.0
290
     0
  0
SCALE
  5
5307
102
{ACAD_REACTORS
330
52F9
102
}
330
52F9
100
AcDbScale
 70
     0
300
1-1/2" = 1'-0"
140
1.5
141
12.0
290
     0
  0
SCALE
  5
5308
102
{ACAD_REACTORS
330
52F9
102
}
330
52F9
100
AcDbScale
 70
     0
300
3" = 1'-0"
140
3.0
141
12.0
290
     0
  0
SCALE
  5
5309
102
{ACAD_REACTORS
330
52F9
102
}
330
52F9
100
AcDbScale
 70
     0
300
6" = 1'-0"
140
6.0
141
12.0
290
     0
  0
SCALE
  5
530A
102
{ACAD_REACTORS
330
52F9
102
}
330
52F9
100
AcDbScale
 70
     0
300
1'-0" = 1'-0"
140
12.0
141
12.0
290
     0
  0
ACDBSECTIONVIEWSTYLE
  5
531F
102
{ACAD_XDICTIONARY
360
B6E1
102
}
102
{ACAD_REACTORS
330
531E
102
}
330
531E
100
AcDbModelDocViewStyle
 70
     0
  3
Imperial24
290
     0
100
AcDbSectionViewStyle
 70
     0
 71
     0
 90
      102
 71
     1
340
530C
 62
   256
 40
5.0
340
0
340
0
 62
   256
 40
5.0
300
I, O, Q, S, X, Z
 40
10.0
 90
        0
 40
2.5
 90
        0
 71
     2
340
5313
 90
       25
 62
   256
340
5313
 90
       50
 62
   256
 40
5.0
 40
2.5
 40
5.0
 71
     3
340
530C
 62
   256
 40
5.0
 90
        0
 40
15.0
 90
        1
300
%<\AcVar ViewSectionStartId>%-%<\AcVar ViewSectionEndId>% (%<\AcVar ViewScale \f "%sn">%)
 71
     4
 62
   256
 62
   257
300
ANSI31
 40
1.0
 90
        0
290
     0
290
     0
 90
        6
 40
0.0
 40
1.57079633
 40
0.26179939
 40
1.30899694
 40
-0.26179939
 40
1.83259571
  0
ACDBSECTIONVIEWSTYLE
  5
542B
102
{ACAD_XDICTIONARY
360
B6E5
102
}
102
{ACAD_REACTORS
330
531E
102
}
330
531E
100
AcDbModelDocViewStyle
 70
     0
  3
Metric50
290
     0
100
AcDbSectionViewStyle
 70
     0
 71
     0
 90
      102
 71
     1
340
530C
 62
   256
 40
5.0
340
0
340
0
 62
   256
 40
5.0
300
I, O, Q, S, X, Z
 40
10.0
 90
        0
 40
2.5
 90
        0
 71
     2
340
5313
 90
       25
 62
   256
340
5313
 90
       50
 62
   256
 40
5.0
 40
2.5
 40
5.0
 71
     3
340
530C
 62
   256
 40
5.0
 90
        0
 40
15.0
 90
        1
300
%<\AcVar ViewSectionStartId>%-%<\AcVar ViewSectionEndId>% (%<\AcVar ViewScale \f "%sn">%)
 71
     4
 62
   256
 62
   257
300
ANSI31
 40
1.0
 90
        0
290
     0
290
     0
 90
        6
 40
0.0
 40
1.57079633
 40
0.26179939
 40
1.30899694
 40
-0.26179939
 40
1.83259571
  0
TABLESTYLE
  5
531B
102
{ACAD_XDICTIONARY
360
740D
102
}
102
{ACAD_REACTORS
330
531A
102
}
330
531A
100
AcDbTableStyle
  3
Standard
 70
     0
 71
     0
 40
0.06
 41
0.06
280
     0
281
     0
  7
STANDARD
140
0.18
170
     2
 62
     0
 63
     7
283
     0
274
    -2
284
     1
 64
     0
275
    -2
285
     1
 65
     0
276
    -2
286
     1
 66
     0
277
    -2
287
     1
 67
     0
278
    -2
288
     1
 68
     0
279
    -2
289
     1
 69
     0
  7
STANDARD
140
0.25
170
     5
 62
     0
 63
     7
283
     0
274
    -2
284
     1
 64
     0
275
    -2
285
     1
 65
     0
276
    -2
286
     1
 66
     0
277
    -2
287
     1
 67
     0
278
    -2
288
     1
 68
     0
279
    -2
289
     1
 69
     0
  7
STANDARD
140
0.18
170
     5
 62
     0
 63
     7
283
     0
274
    -2
284
     1
 64
     0
275
    -2
285
     1
 65
     0
276
    -2
286
     1
 66
     0
277
    -2
287
     1
 67
     0
278
    -2
288
     1
 68
     0
279
    -2
289
     1
 69
     0
  0
VISUALSTYLE
  5
52E6
102
{ACAD_XDICTIONARY
360
B6B8
102
}
102
{ACAD_REACTORS
330
52E0
102
}
330
52E0
100
AcDbVisualStyle
  2
2dWireframe
 70
     4
 71
     0
 72
     2
 73
     0
 90
        0
 40
-0.6
 41
-30.0
 62
     5
 63
     7
421
 16777215
 74
     1
 91
        4
 64
     7
 65
   257
 75
     1
175
     1
 42
1.0
 92
        0
 66
   257
 43
1.0
 76
     1
 77
     6
 78
     2
 67
     7
 79
     5
170
     0
171
     0
290
     0
174
     0
 93
        1
 44
0.0
173
     0
291
     0
 45
0.0
1001
ACAD
1000
AcDbSavedByObjectVersion
1070
     0
  0
VISUALSTYLE
  5
52E5
102
{ACAD_XDICTIONARY
360
B6B6
102
}
102
{ACAD_REACTORS
330
52E0
102
}
330
52E0
100
AcDbVisualStyle
  2
Basic
 70
     7
 71
     1
 72
     0
 73
     1
 90
        0
 40
-0.6
 41
-30.0
 62
     5
 63
     7
421
 16777215
 74
     0
 91
        4
 64
     7
 65
   257
 75
     1
175
     1
 42
1.0
 92
        8
 66
     7
 43
1.0
 76
     1
 77
     6
 78
     2
 67
     7
 79
     5
170
     0
171
     0
290
     0
174
     0
 93
        1
 44
0.0
173
     0
291
     1
 45
0.0
1001
ACAD
1000
AcDbSavedByObjectVersion
1070
     0
  0
VISUALSTYLE
  5
52EC
102
{ACAD_XDICTIONARY
360
B6C4
102
}
102
{ACAD_REACTORS
330
52E0
102
}
330
52E0
100
AcDbVisualStyle
  2
Brighten
 70
    12
 71
     2
 72
     2
 73
     0
 90
        0
 40
-0.6
 41
-30.0
 62
     5
 63
     7
421
 16777215
 74
     1
 91
        4
 64
     7
 65
   257
 75
     1
175
     1
 42
1.0
 92
        8
 66
     7
 43
1.0
 76
     1
 77
     6
 78
     2
 67
     7
 79
     5
170
     0
171
     0
290
     0
174
     0
 93
        1
 44
50.0
173
     0
291
     1
 45
0.0
1001
ACAD
1000
AcDbSavedByObjectVersion
1070
     0
  0
VISUALSTYLE
  5
52F0
102
{ACAD_XDICTIONARY
360
B6CC
102
}
102
{ACAD_REACTORS
330
52E0
102
}
330
52E0
100
AcDbVisualStyle
  2
ColorChange
 70
    16
 71
     2
 72
     2
 73
     3
 90
        0
 40
-0.6
 41
-30.0
 62
     5
 63
     8
421
  8421504
 74
     1
 91
        4
 64
     7
 65
   257
 75
     1
175
     1
 42
1.0
 92
        8
 66
     8
424
  8421504
 43
1.0
 76
     1
 77
     6
 78
     2
 67
     7
 79
     5
170
     0
171
     0
290
     0
174
     0
 93
        1
 44
0.0
173
     0
291
     1
 45
0.0
1001
ACAD
1000
AcDbSavedByObjectVersion
1070
     0
  0
VISUALSTYLE
  5
52E9
102
{ACAD_XDICTIONARY
360
B6BE
102
}
102
{ACAD_REACTORS
330
52E0
102
}
330
52E0
100
AcDbVisualStyle
  2
Conceptual
 70
     9
 71
     3
 72
     2
 73
     0
 90
        0
 40
-0.6
 41
-30.0
 62
     5
 63
     7
421
 16777215
 74
     2
 91
        2
 64
     7
 65
   257
 75
     1
175
     1
 42
179.0
 92
        8
 66
     7
 43
1.0
 76
     1
 77
     6
 78
     2
 67
     7
 79
     3
170
     0
171
     0
290
     0
174
     0
 93
        1
 44
0.0
173
     0
291
     0
 45
0.0
1001
ACAD
1000
AcDbSavedByObjectVersion
1070
     0
  0
VISUALSTYLE
  5
52EB
102
{ACAD_XDICTIONARY
360
B6C2
102
}
102
{ACAD_REACTORS
330
52E0
102
}
330
52E0
100
AcDbVisualStyle
  2
Dim
 70
    11
 71
     2
 72
     2
 73
     0
 90
        0
 40
-0.6
 41
-30.0
 62
     5
 63
     7
421
 16777215
 74
     1
 91
        4
 64
     7
 65
   257
 75
     1
175
     1
 42
1.0
 92
        8
 66
     7
 43
1.0
 76
     1
 77
     6
 78
     2
 67
     7
 79
     5
170
     0
171
     0
290
     0
174
     0
 93
        1
 44
-50.0
173
     0
291
     1
 45
0.0
1001
ACAD
1000
AcDbSavedByObjectVersion
1070
     0
  0
VISUALSTYLE
  5
52F8
102
{ACAD_XDICTIONARY
360
B6DC
102
}
102
{ACAD_REACTORS
330
52E0
102
}
330
52E0
100
AcDbVisualStyle
  2
EdgeColorOff
 70
    22
 71
     2
 72
     2
 73
     0
 90
        0
 40
-0.6
 41
-30.0
 62
     5
 63
     7
421
 16777215
 74
     1
 91
        4
 64
     7
 65
   257
 75
     1
175
     1
 42
1.0
 92
        8
 66
     7
 43
1.0
 76
     1
 77
     6
 78
     2
 67
     7
 79
     5
170
     0
171
     0
290
     0
174
     0
 93
        1
 44
0.0
173
     0
291
     1
 45
0.0
1001
ACAD
1000
AcDbSavedByObjectVersion
1070
     0
  0
VISUALSTYLE
  5
52EF
102
{ACAD_XDICTIONARY
360
B6CA
102
}
102
{ACAD_REACTORS
330
52E0
102
}
330
52E0
100
AcDbVisualStyle
  2
Facepattern
 70
    15
 71
     2
 72
     2
 73
     0
 90
        0
 40
-0.6
 41
-30.0
 62
     5
 63
     7
421
 16777215
 74
     1
 91
        4
 64
     7
 65
   257
 75
     1
175
     1
 42
1.0
 92
        8
 66
     7
 43
1.0
 76
     1
 77
     6
 78
     2
 67
     7
 79
     5
170
     0
171
     0
290
     0
174
     0
 93
        1
 44
0.0
173
     0
291
     1
 45
0.0
1001
ACAD
1000
AcDbSavedByObjectVersion
1070
     0
  0
VISUALSTYLE
  5
52E1
102
{ACAD_XDICTIONARY
360
B6AE
102
}
102
{ACAD_REACTORS
330
52E0
102
}
330
52E0
100
AcDbVisualStyle
  2
Flat
 70
     0
 71
     2
 72
     1
 73
     1
 90
        2
 40
-0.6
 41
30.0
 62
     5
 63
     7
421
 16777215
 74
     0
 91
        0
 64
     7
 65
   257
 75
     1
175
     1
 42
1.0
 92
        8
 66
     7
 43
1.0
 76
     1
 77
     6
 78
     2
 67
     7
 79
     5
170
     0
171
     0
290
     0
174
     0
 93
       13
 44
0.0
173
     0
291
     1
 45
0.0
1001
ACAD
1000
AcDbSavedByObjectVersion
1070
     0
  0
VISUALSTYLE
  5
52E2
102
{ACAD_XDICTIONARY
360
B6B0
102
}
102
{ACAD_REACTORS
330
52E0
102
}
330
52E0
100
AcDbVisualStyle
  2
FlatWithEdges
 70
     1
 71
     2
 72
     1
 73
     1
 90
        2
 40
-0.6
 41
30.0
 62
     5
 63
     7
421
 16777215
 74
     1
 91
        0
 64
     7
 65
   257
 75
     1
175
     1
 42
1.0
 92
        0
 66
   257
 43
1.0
 76
     1
 77
     6
 78
     2
 67
     7
 79
     5
170
     0
171
     0
290
     0
174
     0
 93
       13
 44
0.0
173
     0
291
     1
 45
0.0
1001
ACAD
1000
AcDbSavedByObjectVersion
1070
     0
  0
VISUALSTYLE
  5
52E3
102
{ACAD_XDICTIONARY
360
B6B2
102
}
102
{ACAD_REACTORS
330
52E0
102
}
330
52E0
100
AcDbVisualStyle
  2
Gouraud
 70
     2
 71
     2
 72
     2
 73
     1
 90
        2
 40
-0.6
 41
30.0
 62
     5
 63
     7
421
 16777215
 74
     0
 91
        0
 64
     7
 65
   257
 75
     1
175
     1
 42
1.0
 92
        0
 66
     7
 43
1.0
 76
     1
 77
     6
 78
     2
 67
     7
 79
     5
170
     0
171
     0
290
     0
174
     0
 93
       13
 44
0.0
173
     0
291
     1
 45
0.0
1001
ACAD
1000
AcDbSavedByObjectVersion
1070
     0
  0
VISUALSTYLE
  5
52E4
102
{ACAD_XDICTIONARY
360
B6B4
102
}
102
{ACAD_REACTORS
330
52E0
102
}
330
52E0
100
AcDbVisualStyle
  2
GouraudWithEdges
 70
     3
 71
     2
 72
     2
 73
     1
 90
        2
 40
-0.6
 41
30.0
 62
     5
 63
     7
421
 16777215
 74
     1
 91
        0
 64
     7
 65
   257
 75
     1
175
     1
 42
1.0
 92
        0
 66
   257
 43
1.0
 76
     1
 77
     6
 78
     2
 67
     7
 79
     5
170
     0
171
     0
290
     0
174
     0
 93
       13
 44
0.0
173
     0
291
     1
 45
0.0
1001
ACAD
1000
AcDbSavedByObjectVersion
1070
     0
  0
VISUALSTYLE
  5
52E8
102
{ACAD_XDICTIONARY
360
B6BC
102
}
102
{ACAD_REACTORS
330
52E0
102
}
330
52E0
100
AcDbVisualStyle
  2
Hidden
 70
     6
 71
     1
 72
     2
 73
     2
 90
        0
 40
-0.6
 41
-30.0
 62
     5
 63
     7
421
 16777215
 74
     2
 91
        2
 64
     7
 65
   257
 75
     2
175
     1
 42
40.0
 92
        0
 66
   257
 43
1.0
 76
     1
 77
     6
 78
     2
 67
     7
 79
     3
170
     0
171
     0
290
     0
174
     0
 93
        1
 44
0.0
173
     0
291
     0
 45
0.0
1001
ACAD
1000
AcDbSavedByObjectVersion
1070
     0
  0
VISUALSTYLE
  5
52F6
102
{ACAD_XDICTIONARY
360
B6D8
102
}
102
{ACAD_REACTORS
330
52E0
102
}
330
52E0
100
AcDbVisualStyle
  2
JitterOff
 70
    20
 71
     2
 72
     2
 73
     0
 90
        0
 40
-0.6
 41
-30.0
 62
     5
 63
     7
421
 16777215
 74
     1
 91
        4
 64
     7
 65
   257
 75
     1
175
     1
 42
1.0
 92
       10
 66
     7
 43
1.0
 76
     1
 77
     6
 78
     2
 67
     7
 79
     5
170
     0
171
     0
290
     0
174
     0
 93
        1
 44
0.0
173
     0
291
     1
 45
0.0
1001
ACAD
1000
AcDbSavedByObjectVersion
1070
     0
  0
VISUALSTYLE
  5
52EE
102
{ACAD_XDICTIONARY
360
B6C8
102
}
102
{ACAD_REACTORS
330
52E0
102
}
330
52E0
100
AcDbVisualStyle
  2
Linepattern
 70
    14
 71
     2
 72
     2
 73
     0
 90
        0
 40
-0.6
 41
-30.0
 62
     5
 63
     7
421
 16777215
 74
     1
 91
        4
 64
     7
 65
   257
 75
     7
175
     7
 42
1.0
 92
        8
 66
     7
 43
1.0
 76
     1
 77
     6
 78
     2
 67
     7
 79
     5
170
     0
171
     0
290
     0
174
     0
 93
        1
 44
0.0
173
     0
291
     1
 45
0.0
1001
ACAD
1000
AcDbSavedByObjectVersion
1070
     0
  0
VISUALSTYLE
  5
52F7
102
{ACAD_XDICTIONARY
360
B6DA
102
}
102
{ACAD_REACTORS
330
52E0
102
}
330
52E0
100
AcDbVisualStyle
  2
OverhangOff
 70
    21
 71
     2
 72
     2
 73
     0
 90
        0
 40
-0.6
 41
-30.0
 62
     5
 63
     7
421
 16777215
 74
     1
 91
        4
 64
     7
 65
   257
 75
     1
175
     1
 42
1.0
 92
        9
 66
     7
 43
1.0
 76
     1
 77
     6
 78
     2
 67
     7
 79
     5
170
     0
171
     0
290
     0
174
     0
 93
        1
 44
0.0
173
     0
291
     1
 45
0.0
1001
ACAD
1000
AcDbSavedByObjectVersion
1070
     0
  0
VISUALSTYLE
  5
52EA
102
{ACAD_XDICTIONARY
360
B6C0
102
}
102
{ACAD_REACTORS
330
52E0
102
}
330
52E0
100
AcDbVisualStyle
  2
Realistic
 70
     8
 71
     2
 72
     2
 73
     0
 90
        2
 40
-0.6
 41
30.0
 62
     5
 63
     7
421
 16777215
 74
     0
 91
        0
 64
     7
 65
   257
 75
     1
175
     1
 42
1.0
 92
        8
 66
   257
 43
1.0
 76
     1
 77
     6
 78
     2
 67
     7
 79
     3
170
     0
171
     0
290
     0
174
     0
 93
       13
 44
0.0
173
     0
291
     0
 45
0.0
1001
ACAD
1000
AcDbSavedByObjectVersion
1070
     0
  0
VISUALSTYLE
  5
52F5
102
{ACAD_XDICTIONARY
360
B6D6
102
}
102
{ACAD_REACTORS
330
52E0
102
}
330
52E0
100
AcDbVisualStyle
  2
Shaded
 70
    27
 71
     2
 72
     2
 73
     1
 90
        2
 40
-0.6
 41
30.0
 62
     5
 63
     7
421
 16777215
 74
     0
 91
        4
 64
     7
 65
   257
 75
     1
175
     1
 42
1.0
 92
        8
 66
   257
 43
1.0
 76
     1
 77
     6
 78
     2
 67
     8
425
  7895160
 79
     3
170
     0
171
     0
290
     0
174
     0
 93
        5
 44
0.0
173
     0
291
     0
 45
0.0
1001
ACAD
1000
AcDbSavedByObjectVersion
1070
     0
  0
VISUALSTYLE
  5
52F4
102
{ACAD_XDICTIONARY
360
B6D4
102
}
102
{ACAD_REACTORS
330
52E0
102
}
330
52E0
100
AcDbVisualStyle
  2
Shaded with edges
 70
    26
 71
     2
 72
     2
 73
     1
 90
        2
 40
-0.6
 41
30.0
 62
     5
 63
     7
421
 16777215
 74
     1
 91
        2
 64
     7
 65
   257
 75
     2
175
     1
 42
1.0
 92
        8
 66
   257
 43
1.0
 76
     1
 77
     6
 78
     2
 67
     7
 79
     3
170
     0
171
     0
290
     0
174
     0
 93
        5
 44
0.0
173
     0
291
     0
 45
0.0
1001
ACAD
1000
AcDbSavedByObjectVersion
1070
     0
  0
VISUALSTYLE
  5
52F1
102
{ACAD_XDICTIONARY
360
B6CE
102
}
102
{ACAD_REACTORS
330
52E0
102
}
330
52E0
100
AcDbVisualStyle
  2
Shades of Gray
 70
    23
 71
     2
 72
     2
 73
     3
 90
        0
 40
-0.6
 41
-30.0
 62
     5
 63
     7
421
 16777215
 74
     2
 91
        2
 64
     7
 65
     7
 75
     1
175
     1
 42
40.0
 92
        8
 66
     7
 43
1.0
 76
     1
 77
     6
 78
     2
 67
     7
 79
     3
170
     0
171
     0
290
     0
174
     0
 93
        1
 44
0.0
173
     0
291
     0
 45
0.0
1001
ACAD
1000
AcDbSavedByObjectVersion
1070
     0
  0
VISUALSTYLE
  5
52F2
102
{ACAD_XDICTIONARY
360
B6D0
102
}
102
{ACAD_REACTORS
330
52E0
102
}
330
52E0
100
AcDbVisualStyle
  2
Sketchy
 70
    24
 71
     1
 72
     2
 73
     2
 90
        0
 40
-0.6
 41
-30.0
 62
     5
 63
     7
421
 16777215
 74
     2
 91
        2
 64
     7
 65
     7
 75
     1
175
     1
 42
40.0
 92
       11
 66
     7
 43
1.0
 76
     1
 77
     6
 78
     2
 67
     7
 79
     6
170
     0
171
     0
290
     0
174
     0
 93
        1
 44
0.0
173
     0
291
     0
 45
0.0
1001
ACAD
1000
AcDbSavedByObjectVersion
1070
     0
  0
VISUALSTYLE
  5
52ED
102
{ACAD_XDICTIONARY
360
B6C6
102
}
102
{ACAD_REACTORS
330
52E0
102
}
330
52E0
100
AcDbVisualStyle
  2
Thicken
 70
    13
 71
     2
 72
     2
 73
     0
 90
        0
 40
-0.6
 41
-30.0
 62
     5
 63
     7
421
 16777215
 74
     1
 91
        4
 64
     7
 65
   257
 75
     1
175
     1
 42
1.0
 92
       12
 66
     7
 43
1.0
 76
     1
 77
     6
 78
     2
 67
     7
 79
     5
170
     0
171
     0
290
     0
174
     0
 93
        1
 44
0.0
173
     0
291
     1
 45
0.0
1001
ACAD
1000
AcDbSavedByObjectVersion
1070
     0
  0
VISUALSTYLE
  5
52E7
102
{ACAD_XDICTIONARY
360
B6BA
102
}
102
{ACAD_REACTORS
330
52E0
102
}
330
52E0
100
AcDbVisualStyle
  2
Wireframe
 70
     5
 71
     0
 72
     2
 73
     0
 90
        0
 40
-0.6
 41
-30.0
 62
     5
 63
     7
421
 16777215
 74
     1
 91
        4
 64
     7
 65
   257
 75
     1
175
     1
 42
1.0
 92
        0
 66
   257
 43
1.0
 76
     1
 77
     6
 78
     2
 67
     7
 79
     3
170
     0
171
     0
290
     0
174
     0
 93
        1
 44
0.0
173
     0
291
     0
 45
0.0
1001
ACAD
1000
AcDbSavedByObjectVersion
1070
     0
  0
VISUALSTYLE
  5
52F3
102
{ACAD_XDICTIONARY
360
B6D2
102
}
102
{ACAD_REACTORS
330
52E0
102
}
330
52E0
100
AcDbVisualStyle
  2
X-Ray
 70
    25
 71
     2
 72
     2
 73
     1
 90
        1
 40
0.5
 41
-30.0
 62
     5
 63
     7
421
 16777215
 74
     1
 91
        0
 64
     7
 65
   257
 75
     1
175
     1
 42
1.0
 92
        8
 66
     7
 43
1.0
 76
     1
 77
     6
 78
     2
 67
     7
 79
     3
170
     0
171
     0
290
     0
174
     0
 93
       13
 44
0.0
173
     0
291
     0
 45
0.0
1001
ACAD
1000
AcDbSavedByObjectVersion
1070
     0
  0
DICTIONARYVAR
  5
538F
102
{ACAD_REACTORS
330
5389
102
}
330
5389
100
DictionaryVariables
280
     0
  1
1:1
  0
DICTIONARYVAR
  5
538B
102
{ACAD_REACTORS
330
5389
102
}
330
5389
100
DictionaryVariables
280
     0
  1
STANDARD
  0
DICTIONARYVAR
  5
538A
102
{ACAD_REACTORS
330
5389
102
}
330
5389
100
DictionaryVariables
280
     0
  1
STANDARD
  0
DICTIONARYVAR
  5
538C
102
{ACAD_REACTORS
330
5389
102
}
330
5389
100
DictionaryVariables
280
     0
  1
Imperial24
  0
DICTIONARYVAR
  5
538D
102
{ACAD_REACTORS
330
5389
102
}
330
5389
100
DictionaryVariables
280
     0
  1
Imperial24
  0
DICTIONARYVAR
  5
5391
102
{ACAD_REACTORS
330
5389
102
}
330
5389
100
DictionaryVariables
280
     0
  1
0
  0
DICTIONARYVAR
  5
5392
102
{ACAD_REACTORS
330
5389
102
}
330
5389
100
DictionaryVariables
280
     0
  1
0
  0
DICTIONARYVAR
  5
5390
102
{ACAD_REACTORS
330
5389
102
}
330
5389
100
DictionaryVariables
280
     0
  1
2
  0
DICTIONARYVAR
  5
538E
102
{ACAD_REACTORS
330
5389
102
}
330
5389
100
DictionaryVariables
280
     0
  1
1
  0
DICTIONARYVAR
  5
B6A5
102
{ACAD_REACTORS
330
5389
102
}
330
5389
100
DictionaryVariables
280
     0
  1
2
  0
DICTIONARY
  5
B6E3
330
5321
100
AcDbDictionary
280
     1
281
     1
  3
ACAD_XREC_ROUNDTRIP
360
B6E4
  0
DICTIONARY
  5
B6E7
330
542C
100
AcDbDictionary
280
     1
281
     1
  3
ACAD_XREC_ROUNDTRIP
360
B6E8
  0
DICTIONARY
  5
5428
330
5329
100
AcDbDictionary
280
     1
281
     1
  3
ADSK_XREC_LAYOUTTHUMBNAIL
360
5429
  0
DICTIONARY
  5
B6AA
330
52D0
100
AcDbDictionary
280
     1
281
     1
  3
ACAD_XREC_ROUNDTRIP
360
B6AB
  0
DICTIONARY
  5
B6A8
330
52C8
100
AcDbDictionary
280
     1
281
     1
  3
ACAD_XREC_ROUNDTRIP
360
B6A9
  0
DICTIONARY
  5
B6AC
330
52D8
100
AcDbDictionary
280
     1
281
     1
  3
ACAD_XREC_ROUNDTRIP
360
B6AD
  0
DICTIONARY
  5
B6DF
330
531D
100
AcDbDictionary
280
     1
281
     1
  3
ACAD_XREC_ROUNDTRIP
360
B6E0
  0
XRECORD
  5
764A
102
{ACAD_REACTORS
330
7649
102
}
330
7649
100
AcDbXrecord
280
     1
 70
     2
 71
     3
 72
     0
  0
DICTIONARY
  5
B6E1
330
531F
100
AcDbDictionary
280
     1
281
     1
  3
ACAD_XREC_ROUNDTRIP
360
B6E2
  0
DICTIONARY
  5
B6E5
330
542B
100
AcDbDictionary
280
     1
281
     1
  3
ACAD_XREC_ROUNDTRIP
360
B6E6
  0
DICTIONARY
  5
740D
330
531B
100
AcDbDictionary
280
     1
281
     1
  3
ACAD_ROUNDTRIP_2008_TABLESTYLE_CELLSTYLEMAP
360
B6A6
  3
ACAD_XREC_ROUNDTRIP
360
B6DE
  0
DICTIONARY
  5
B6B8
330
52E6
100
AcDbDictionary
280
     1
281
     1
  3
ACAD_XREC_ROUNDTRIP
360
B6B9
  0
DICTIONARY
  5
B6B6
330
52E5
100
AcDbDictionary
280
     1
281
     1
  3
ACAD_XREC_ROUNDTRIP
360
B6B7
  0
DICTIONARY
  5
B6C4
330
52EC
100
AcDbDictionary
280
     1
281
     1
  3
ACAD_XREC_ROUNDTRIP
360
B6C5
  0
DICTIONARY
  5
B6CC
330
52F0
100
AcDbDictionary
280
     1
281
     1
  3
ACAD_XREC_ROUNDTRIP
360
B6CD
  0
DICTIONARY
  5
B6BE
330
52E9
100
AcDbDictionary
280
     1
281
     1
  3
ACAD_XREC_ROUNDTRIP
360
B6BF
  0
DICTIONARY
  5
B6C2
330
52EB
100
AcDbDictionary
280
     1
281
     1
  3
ACAD_XREC_ROUNDTRIP
360
B6C3
  0
DICTIONARY
  5
B6DC
330
52F8
100
AcDbDictionary
280
     1
281
     1
  3
ACAD_XREC_ROUNDTRIP
360
B6DD
  0
DICTIONARY
  5
B6CA
330
52EF
100
AcDbDictionary
280
     1
281
     1
  3
ACAD_XREC_ROUNDTRIP
360
B6CB
  0
DICTIONARY
  5
B6AE
330
52E1
100
AcDbDictionary
280
     1
281
     1
  3
ACAD_XREC_ROUNDTRIP
360
B6AF
  0
DICTIONARY
  5
B6B0
330
52E2
100
AcDbDictionary
280
     1
281
     1
  3
ACAD_XREC_ROUNDTRIP
360
B6B1
  0
DICTIONARY
  5
B6B2
330
52E3
100
AcDbDictionary
280
     1
281
     1
  3
ACAD_XREC_ROUNDTRIP
360
B6B3
  0
DICTIONARY
  5
B6B4
330
52E4
100
AcDbDictionary
280
     1
281
     1
  3
ACAD_XREC_ROUNDTRIP
360
B6B5
  0
DICTIONARY
  5
B6BC
330
52E8
100
AcDbDictionary
280
     1
281
     1
  3
ACAD_XREC_ROUNDTRIP
360
B6BD
  0
DICTIONARY
  5
B6D8
330
52F6
100
AcDbDictionary
280
     1
281
     1
  3
ACAD_XREC_ROUNDTRIP
360
B6D9
  0
DICTIONARY
  5
B6C8
330
52EE
100
AcDbDictionary
280
     1
281
     1
  3
ACAD_XREC_ROUNDTRIP
360
B6C9
  0
DICTIONARY
  5
B6DA
330
52F7
100
AcDbDictionary
280
     1
281
     1
  3
ACAD_XREC_ROUNDTRIP
360
B6DB
  0
DICTIONARY
  5
B6C0
330
52EA
100
AcDbDictionary
280
     1
281
     1
  3
ACAD_XREC_ROUNDTRIP
360
B6C1
  0
DICTIONARY
  5
B6D6
330
52F5
100
AcDbDictionary
280
     1
281
     1
  3
ACAD_XREC_ROUNDTRIP
360
B6D7
  0
DICTIONARY
  5
B6D4
330
52F4
100
AcDbDictionary
280
     1
281
     1
  3
ACAD_XREC_ROUNDTRIP
360
B6D5
  0
DICTIONARY
  5
B6CE
330
52F1
100
AcDbDictionary
280
     1
281
     1
  3
ACAD_XREC_ROUNDTRIP
360
B6CF
  0
DICTIONARY
  5
B6D0
330
52F2
100
AcDbDictionary
280
     1
281
     1
  3
ACAD_XREC_ROUNDTRIP
360
B6D1
  0
DICTIONARY
  5
B6C6
330
52ED
100
AcDbDictionary
280
     1
281
     1
  3
ACAD_XREC_ROUNDTRIP
360
B6C7
  0
DICTIONARY
  5
B6BA
330
52E7
100
AcDbDictionary
280
     1
281
     1
  3
ACAD_XREC_ROUNDTRIP
360
B6BB
  0
DICTIONARY
  5
B6D2
330
52F3
100
AcDbDictionary
280
     1
281
     1
  3
ACAD_XREC_ROUNDTRIP
360
B6D3
  0
XRECORD
  5
B6E4
102
{ACAD_REACTORS
330
B6E3
102
}
330
B6E3
100
AcDbXrecord
280
     1
102
DISPLAYNAME
  1
Imperial24
102
FLAGS
 90
        0
  0
XRECORD
  5
B6E8
102
{ACAD_REACTORS
330
B6E7
102
}
330
B6E7
100
AcDbXrecord
280
     1
102
DISPLAYNAME
  1
Metric50
102
FLAGS
 90
        0
  0
XRECORD
  5
5429
102
{ACAD_REACTORS
330
5428
102
}
330
5428
100
AcDbXrecord
280
     1
310
2800000000010000620000000100080000000000006200000100000001000000000100000000000000000000FFFFFF52000000FF000000FF000000FF000000FF000000FF000000FF000000FF000000FF000000FF330000FF660000FF990000FFCC0000FFFF0000FF003300FF333300FF663300FF993300FFCC3300FFFF3300
310
FF006600FF336600FF666600FF996600FFCC6600FFFF6600FF009900FF339900FF669900FF999900FFCC9900FFFF9900FF00CC00FF33CC00FF66CC00FF99CC00FFCCCC00FFFFCC00FF00FF00FF33FF00FF66FF00FF99FF00FFCCFF00FFFFFF00FF000033FF330033FF660033FF990033FFCC0033FFFF0033FF003333FF3333
310
33FF663333FF993333FFCC3333FFFF3333FF006633FF336633FF666633FF996633FFCC6633FFFF6633FF009933FF339933FF669933FF999933FFCC9933FFFF9933FF00CC33FF33CC33FF66CC33FF99CC33FFCCCC33FFFFCC33FF00FF33FF33FF33FF66FF33FF99FF33FFCCFF33FFFFFF33FF000066FF330066FF660066FF99
310
0066FFCC0066FFFF0066FF003366FF333366FF663366FF993366FFCC3366FFFF3366FF006666FF336666FF666666FF996666FFCC6666FFFF6666FF009966FF339966FF669966FF999966FFCC9966FFFF9966FF00CC66FF33CC66FF66CC66FF99CC66FFCCCC66FFFFCC66FF00FF66FF33FF66FF66FF66FF99FF66FFCCFF66FF
310
FFFF66FF000099FF330099FF660099FF990099FFCC0099FFFF0099FF003399FF333399FF663399FF993399FFCC3399FFFF3399FF006699FF336699FF666699FF996699FFCC6699FFFF6699FF009999FF339999FF669999FF999999FFCC9999FFFF9999FF00CC99FF33CC99FF66CC99FF99CC99FFCCCC99FFFFCC99FF00FF99
310
FF33FF99FF66FF99FF99FF99FFCCFF99FFFFFF99FF0000CCFF3300CCFF6600CCFF9900CCFFCC00CCFFFF00CCFF0033CCFF3333CCFF6633CCFF9933CCFFCC33CCFFFF33CCFF0066CCFF3366CCFF6666CCFF9966CCFFCC66CCFFFF66CCFF0099CCFF3399CCFF6699CCFF9999CCFFCC99CCFFFF99CCFF00CCCCFF33CCCCFF66CC
310
CCFF99CCCCFFCCCCCCFFFFCCCCFF00FFCCFF33FFCCFF66FFCCFF99FFCCFFCCFFCCFFFFFFCCFF0000FFFF3300FFFF6600FFFF9900FFFFCC00FFFFFF00FFFF0033FFFF3333FFFF6633FFFF9933FFFFCC33FFFFFF33FFFF0066FFFF3366FFFF6666FFFF9966FFFFCC66FFFFFF66FFFF0099FFFF3399FFFF6699FFFF9999FFFFCC
310
99FFFFFF99FFFF00CCFFFF33CCFFFF66CCFFFF99CCFFFFCCCCFFFFFFCCFFFF00FFFFFF33FFFFFF66FFFFFF99FFFFFFCCFFFFFFFFFFFFFF000000FF0D0D0DFF1A1A1AFF282828FF353535FF434343FF505050FF5D5D5DFF6B6B6BFF787878FF868686FF939393FFA1A1A1FFAEAEAEFFBBBBBBFFC9C9C9FFD6D6D6FFE4E4E4FF
310
F1F1F1FFFFFFFFFF000000FF000000FF000000FF000000FF000000FF000000FF000000FF000000FF000000FF000000FF00000000000000000000000000000000000000000000000000000000000000000000000000000000000000000000000000000000000000000000000000000000000000000000000000000000000000
310
00000000000000000000000000000000000000000000000000000000000000000000000000000000000000000000000000000000000000000000000000000000000000000000000000000000000000000000000000000000000000000000000000000000000000000000000000000000000000000000000000000000000000
310
000000000000000000000000000000000000000000000000000000000000000000000000000000000000000000000000000000000000000000000000000000000000000000000000000000000000000000000000000000000000000000000000000000000000000000000000000000BEF5F5F5F5F5F5F5F5F5F5F5F5F5F5F5
310
F5F5F5F5F5F5F5F5F5F5F5F5F5F5F5F5F5F5F5F5F5F5F5F5F5F5F5F5F5F5F5F5F5F5F5F5F5F5F5F5F5F5F5F5F5F5F5F5F5F5F5F5F5F5F5F5F5F5F5F5F5F5F5F5F5F5F5F5F5F5F5F5F5F5F5F5F5F5F5F5F5F5F5F5F5F5F5F5F5F5F5F5F5F5F5F5F5F5F5F5F5F5F5F5F5F5F5F5F5F5F5F5F5F5F5F5F5F5000000000000000000
310
0000000000000000000000000000000000000000000000000000000000000000000000000000000000000000000000000000000000000000000000000000000000000000000000000000000000000000000000000000000000000000000000000000000000000000000000000000000000F500F50000000000000000000000
310
00000000000000F50000000000000000000000000000000000F500F5000000000000000000000000000000F500000000000000000000000000000000000000000000000000000000000000000000000000000000000000000000000000000000000000000000000000000000000000000000000000F500F500000000000000
310
00000000000000000000000000000000000000000000000000000000000000000000000000000000000000000000000000000000000000000000000000000000000000000000000000000000000000000000000000000000000000000000000000000000000000000000000000000000000000F500F5000000000000000000
310
000000000000000000F50000000000000000000000000000000000F500F5000000000000000000000000000000F500000000000000000000000000000000000000000000000000000000000000000000000000000000000000000000000000000000000000000000000000000000000000000000000000F500F50000000000
310
000000000000000000000000000000000000000000000000000000000000000000000000000000000000000000000000000000000000000000000000000000000000000000000000000000000000000000000000000000000000000000000000000000000000000000000000000000000000000000F500F500000000000000
310
0000000000000000000000F50000000000000000000000000000000000F500F5000000000000000000000000000000F500000000000000000000000000000000000000000000000000000000000000000000000000000000000000000000000000000000000000000000000000000000000000000000000000F500F5000000
310
0000000000000000000000000000000000000000000000000000000000000000000000000000000000000000000000000000000000000000000000000000000000000000000000000000000000000000000000000000000000000000000000000000000000000000000000000000000000000000000000F500F50000000000
310
00000000000000000000000000F50000000000000000000000000000000000F500F5000000000000000000000000000000F500000000000000000000000000000000000000000000000000000000000000000000000000000000000000000000000000000000000000000000000000000000000000000000000000F500F500
310
00000000000000000000000000000000000000000000000000000000000000000000000000000000000000000000000000000000000000000000000000000000000000000000000000000000000000000000000000000000000000000000000000000000000000000000000000000000000000000000000000F500F5000000
310
000000000000000000000000000000F50000000000000000000000000000000000F500F5000000000000000000000000000000F500000000000000000000000000000000000000000000000000000000000000000000000000000000000000000000000000000000000000000000000000000000000000000000000000F500
310
F50000000000000000000000000000000000000000000000000000000000000000000000000000000000000000000000000000000000000000000000000000000000000000000000000000000000000000000000000000000000000000000000000000000000000000000000000000000000000000000000000000F500F500
310
0000000000000000000000000000000000F50000000000000000000000000000000000F500F5000000000000000000000000000000F500000000000000000000000000000000000000000000000000000000000000000000000000000000000000000000000000000000000000000000000000000000000000000000000000
310
F500F50000000000000000000000000000000000000000000000000000000000000000000000000000000000000000000000000000000000000000000000000000000000000000000000000000000000000000000000000000000000000000000000000000000000000000000000000000000000000000000000000000F500
310
F5000000000000000000000000000000000000F50000000000000000000000000000000000F500F5000000000000000000000000000000F50000000000000000000000000000000000000000000000000000000000000000000000000000000000000000000000000000000000000000000000000000000000000000000000
310
0000F500F50000000000000000000000000000000000000000000000000000000000000000000000000000000000000000000000000000000000000000000000000000000000000000000000000000000000000000000000000000000000000000000000000000000000000000000000000000000000000000000000000000
310
F500F5000000000000000000000000000000000000F50000000000000000000000000000000000F500F5000000000000000000000000000000F5000000000000000000000000000000000000000000000000000000000000000000000000000000000000000000000000000000000000000000000000000000000000000000
310
00000000F500F5000000000000000000000000000000000000000000000000000000000000000000000000000000000000000000000000000000000000000000000000000000000000000000000000000000000000000000000000000000000000000000000000000000000000000000000000000000000000000000000000
310
0000F500F5000000000000000000000000000000000000F50000000000000000000000000000000000F500F5000000000000000000000000000000F500000000000000000000000000000000000000000000000000000000000000000000000000000000000000000000000000000000000000000000000000000000000000
310
000000000000F500F500000000000000000000000000000000000000000000000000000000000000000000000000000000000000000000000000000000000000000000000000000000000000000000000000000000000000000000000000000000000000000000000000000000000000000000000000000000000000000000
310
00000000F500F5000000000000000000000000000000000000F50000000000000000000000000000000000F500F5000000000000000000000000000000F50000000000000000000000000000000000000000000000000000000000000000000000000000000000000000000000000000000000000000000000000000000000
310
0000000000000000F500F50000000000000000000000000000000000000000000000000000000000000000000000000000000000000000000000000000000000000000000000000000000000000000000000000000000000000000000000000000000000000000000000000000000000000000000000000000000000000000
310
000000000000F500F5000000000000000000000000000000000000F50000000000000000000000000000000000F500F5000000000000000000000000000000F5000000000000000000000000000000000000000000000000000000000000000000000000000000000000000000000000000000000000000000000000000000
310
00000000000000000000F500F5000000000000000000000000000000000000000000000000000000000000000000000000000000000000000000000000000000000000000000000000000000000000000000000000000000000000000000000000000000000000000000000000000000000000000000000000000000000000
310
0000000000000000F500F5000000000000000000000000000000000000F50000000000000000000000000000000000F500F5000000000000000000000000000000F500000000000000000000000000000000000000000000000000000000000000000000000000000000000000000000000000000000000000000000000000
310
000000000000000000000000F500F500000000000000000000000000000000000000000000000000000000000000000000000000000000000000000000000000000000000000000000000000000000000000000000000000000000000000000000000000000000000000000000000000000000000000000000000000000000
310
00000000000000000000F500F5000000000000000000000000000000000000F50000000000000000000000000000000000F500F5000000000000000000000000000000F50000000000000000000000000000000000000000000000000000000000000000000000000000000000000000000000000000000000000000000000
310
0000000000000000000000000000F500F50000000000000000000000000000000000000000000000000000000000000000000000000000000000000000000000000000000000000000000000000000000000000000000000000000000000000000000000000000000000000000000000000000000000000000000000000000
310
000000000000000000000000F500F5000000000000000000000000000000000000F50000000000000000000000000000000000F500F5000000000000000000000000000000F5000000000000000000000000000000000000000000000000000000000000000000000000000000000000000000000000000000000000000000
310
00000000000000000000000000000000F500F5000000000000000000000000000000000000000000000000000000000000000000000000000000000000000000000000000000000000000000000000000000000000000000000000000000000000000000000000000000000000000000000000000000000000000000000000
310
0000000000000000000000000000F500F5000000000000000000000000000000000000F50000000000000000000000000000000000F500F5000000000000000000000000000000F500000000000000000000000000000000000000000000000000000000000000000000000000000000000000000000000000000000000000
310
000000000000000000000000000000000000F500F500000000000000000000000000000000000000000000000000000000000000000000000000000000000000000000000000000000000000000000000000000000000000000000000000000000000000000000000000000000000000000000000000000000000000000000
310
00000000000000000000000000000000F500F5000000000000000000000000000000000000F50000000000000000000000000000000000F500F5000000000000000000000000000000F50000000000000000000000000000000000000000000000000000000000000000000000000000000000000000000000000000000000
310
0000000000000000000000000000000000000000F500F50000000000000000000000000000000000000000000000000000000000000000000000000000000000000000000000000000000000000000000000000000000000000000000000000000000000000000000000000000000000000000000000000000000000000000
310
000000000000000000000000000000000000F500F5000000000000000000000000000000000000F50000000000000000000000000000000000F500F5000000000000000000000000000000F5000000000000000000000000000000000000000000000000000000000000000000000000000000000000000000000000000000
310
00000000000000000000000000000000000000000000F500F5000000000000000000000000000000000000000000000000000000000000000000000000000000000000000000000000000000000000000000000000000000000000000000000000000000000000000000000000000000000000000000000000000000000000
310
0000000000000000000000000000000000000000F500F5000000000000000000000000000000000000F50000000000000000000000000000000000F500F5000000000000000000000000000000F500000000000000000000000000000000000000000000000000000000000000000000000000000000000000000000000000
310
000000000000000000000000000000000000000000000000F500F500000000000000000000000000000000000000000000000000000000000000000000000000000000000000000000000000000000000000000000000000000000000000000000000000000000000000000000000000000000000000000000000000000000
310
00000000000000000000000000000000000000000000F500F5000000000000000000000000000000000000F50000000000000000000000000000000000F500F5000000000000000000000000000000F50000000000000000000000000000000000000000000000000000000000000000000000000000000000000000000000
310
0000000000000000000000000000000000000000000000000000F500F50000000000000000000000000000000000000000000000000000000000000000000000000000000000000000000000000000000000000000000000000000000000000000000000000000000000000000000000000000000000000000000000000000
310
000000000000000000000000000000000000000000000000F500F5000000000000000000000000000000000000F50000000000000000000000000000000000F500F5000000000000000000000000000000F5000000000000000000000000000000000000000000000000000000000000000000000000000000000000000000
310
00000000000000000000000000000000000000000000000000000000F500F5000000000000000000000000000000000000000000000000000000000000000000000000000000000000000000000000000000000000000000000000000000000000000000000000000000000000000000000000000000000000000000000000
310
0000000000000000000000000000000000000000000000000000F500F5000000000000000000000000000000000000F50000000000000000000000000000000000F500F5000000000000000000000000000000F500000000000000000000000000000000000000000000000000000000000000000000000000000000000000
310
000000000000000000000000000000000000000000000000000000000000F500F500000000000000000000000000000000000000000000000000000000000000000000000000000000000000000000000000000000000000000000000000000000000000000000000000000000000000000000000000000000000000000000
310
00000000000000000000000000000000000000000000000000000000F500F5000000000000000000000000000000000000F50000000000000000000000000000000000F500F5000000000000000000000000000000F50000000000000000000000000000000000000000000000000000000000000000000000000000000000
310
0000000000000000000000000000000000000000000000000000000000000000F500F50000000000000000000000000000000000000000000000000000000000000000000000000000000000000000000000000000000000000000000000000000000000000000000000000000000000000000000000000000000000000000
310
000000000000000000000000000000000000000000000000000000000000F500F5000000000000000000000000000000000000F50000000000000000000000000000000000F500F5000000000000000000000000000000F5000000000000000000000000000000000000000000000000000000000000000000000000000000
310
00000000000000000000000000000000000000000000000000000000000000000000F500F5000000000000000000000000000000000000000000000000000000000000000000000000000000000000000000000000000000000000000000000000000000000000000000000000000000000000000000000000000000000000
310
0000000000000000000000000000000000000000000000000000000000000000F500F5000000000000000000000000000000000000F50000000000000000000000000000000000F500F5000000000000000000000000000000F500000000000000000000000000000000000000000000000000000000000000000000000000
310
000000000000000000000000000000000000000000000000000000000000000000000000F500F500000000000000000000000000000000000000000000000000000000000000000000000000000000000000000000000000000000000000000000000000000000000000000000000000000000000000000000000000000000
310
00000000000000000000000000000000000000000000000000000000000000000000F500F5000000000000000000000000000000000000F50000000000000000000000000000000000F500F5000000000000000000000000000000F50000000000000000000000000000000000000000000000000000000000000000000000
310
0000000000000000000000000000000000000000000000000000000000000000000000000000F500F50000000000000000000000000000000000000000000000000000000000000000000000000000000000000000000000000000000000000000000000000000000000000000000000000000000000000000000000000000
310
000000000000000000000000000000000000000000000000000000000000000000000000F500F5000000000000000000000000000000000000F50000000000000000000000000000000000F500F5000000000000000000000000000000F5000000000000000000000000000000000000000000000000000000000000000000
310
00000000000000000000000000000000000000000000000000000000000000000000000000000000F500F5000000000000000000000000000000000000000000000000000000000000000000000000000000000000000000000000000000000000000000000000000000000000000000000000000000000000000000000000
310
0000000000000000000000000000000000000000000000000000000000000000000000000000F500F5000000000000000000000000000000000000F50000000000000000000000000000000000F500F5000000000000000000000000000000F500000000000000000000000000000000000000000000000000000000000000
310
000000000000000000000000000000000000000000000000000000000000000000000000000000000000F500F500000000000000000000000000000000000000000000000000000000000000000000000000000000000000000000000000000000000000000000000000000000000000000000000000000000000000000000
310
00000000000000000000000000000000000000000000000000000000000000000000000000000000F500F5000000000000000000000000000000000000F50000000000000000000000000000000000F500F5000000000000000000000000000000F50000000000000000000000000000000000000000000000000000000000
310
0000000000000000000000000000000000000000000000000000000000000000000000000000000000000000F500F50000000000000000000000000000000000000000000000000000000000000000000000000000000000000000000000000000000000000000000000000000000000000000000000000000000000000000
310
000000000000000000000000000000000000000000000000000000000000000000000000000000000000F500F5000000000000000000000000000000000000F50000000000000000000000000000000000F500F5000000000000000000000000000000F5000000000000000000000000000000000000000000000000000000
310
00000000000000000000000000000000000000000000000000000000000000000000000000000000000000000000F500F5000000000000000000000000000000000000000000000000000000000000000000000000000000000000000000000000000000000000000000000000000000000000000000000000000000000000
310
0000000000000000000000000000000000000000000000000000000000000000000000000000000000000000F500F5000000000000000000000000000000000000F50000000000000000000000000000000000F500F5000000000000000000000000000000F500000000000000000000000000000000000000000000000000
310
000000000000000000000000000000000000000000000000000000000000000000000000000000000000000000000000F500F500000000000000000000000000000000000000000000000000000000000000000000000000000000000000000000000000000000000000000000000000000000000000000000000000000000
310
00000000000000000000000000000000000000000000000000000000000000000000000000000000000000000000F500F5000000000000000000000000000000000000F50000000000000000000000000000000000F500F5000000000000000000000000000000F50000000000000000000000000000000000000000000000
310
0000000000000000000000000000000000000000000000000000000000000000000000000000000000000000000000000000F500F50000000000000000000000000000000000000000000000000000000000000000000000000000000000000000000000000000000000000000000000000000000000000000000000000000
310
000000000000000000000000000000000000000000000000000000000000000000000000000000000000000000000000F500F5000000000000000000000000000000000000F50000000000000000000000000000000000F500F5000000000000000000000000000000F5000000000000000000000000000000000000000000
310
00000000000000000000000000000000000000000000000000000000000000000000000000000000000000000000000000000000F500F5000000000000000000000000000000000000000000000000000000000000000000000000000000000000000000000000000000000000000000000000000000000000000000000000
310
0000000000000000000000000000000000000000000000000000000000000000000000000000000000000000000000000000F500F5000000000000000000000000000000000000F50000000000000000000000000000000000F500F5000000000000000000000000000000F500000000000000000000000000000000000000
310
000000000000000000000000000000000000000000000000000000000000000000000000000000000000000000000000000000000000F500F500000000000000000000000000000000000000000000000000000000000000000000000000000000000000000000000000000000000000000000000000000000000000000000
310
00000000000000000000000000000000000000000000000000000000000000000000000000000000000000000000000000000000F500F5000000000000000000000000000000000000F50000000000000000000000000000000000F500F5000000000000000000000000000000F50000000000000000000000000000000000
310
0000000000000000000000000000000000000000000000000000000000000000000000000000000000000000000000000000000000000000F500F50000000000000000000000000000000000000000000000000000000000000000000000000000000000000000000000000000000000000000000000000000000000000000
310
000000000000000000000000000000000000000000000000000000000000000000000000000000000000000000000000000000000000F500F5000000000000000000000000000000000000F50000000000000000000000000000000000F500F5000000000000000000000000000000F5000000000000000000000000000000
310
00000000000000000000000000000000000000000000000000000000000000000000000000000000000000000000000000000000000000000000F500F5000000000000000000000000000000000000000000000000000000000000000000000000000000000000000000000000000000000000000000000000000000000000
310
0000000000000000000000000000000000000000000000000000000000000000000000000000000000000000000000000000000000000000F5F5F5F5F5F5F5F5F5F5F5F5F5F5F5F5F5F5F5F5F5F5F5F5F5F5F5F5F5F5F5F5F5F5F5F5F5F5F5F5F5F5F5F5F5F5F5F5F5F5F5F5F5F5F5F5F5F5F5F5F5F5F5F5F5F5F5F5F5F5F5
310
F5F5F5F5F5F5F5F5F5F5F5F5F5F5F5F5F5F5F5F5F5F5F5F5F5F5F5F5F5F5F5F5F5F5F5F5F5F5F5F5F5F5F5F5F5F5F5F5F5F5F5F5F5F5F5F5F5F5F5F5F500F500000000000000000000000000000000000000000000000000000000000000000000000000000000000000000000000000000000000000000000000000000000
310
00000000000000000000000000000000000000000000000000000000000000000000000000000000000000000000000000000000000000000000F500F5000000000000000000000000000000000000F50000000000000000000000000000000000F500F5000000000000000000000000000000F50000000000000000000000
310
0000000000000000000000000000000000000000000000000000000000000000000000000000000000000000000000000000000000000000000000000000F500F50000000000000000000000000000000000000000000000000000000000000000000000000000000000000000000000000000000000000000000000000000
310
000000000000000000000000000000000000000000000000000000000000000000000000000000000000000000000000000000000000000000000000F500F5000000000000000000000000000000000000F50000000000000000000000000000000000F500F5000000000000000000000000000000F5000000000000000000
310
00000000000000000000000000000000000000000000000000000000000000000000000000000000000000000000000000000000000000000000000000000000F500F5000000000000000000000000000000000000000000000000000000000000000000000000000000000000000000000000000000000000000000000000
310
0000000000000000000000000000000000000000000000000000000000000000000000000000000000000000000000000000000000000000000000000000F500F5000000000000000000000000000000000000F50000000000000000000000000000000000F500F5000000000000000000000000000000F500000000000000
310
000000000000000000000000000000000000000000000000000000000000000000000000000000000000000000000000000000000000000000000000000000000000F500F500000000000000000000000000000000000000000000000000000000000000000000000000000000000000000000000000000000000000000000
310
00000000000000000000000000000000000000000000000000000000000000000000000000000000000000000000000000000000000000000000000000000000F500F5000000000000000000000000000000000000F50000000000000000000000000000000000F500F5000000000000000000000000000000F50000000000
310
0000000000000000000000000000000000000000000000000000000000000000000000000000000000000000000000000000000000000000000000000000000000000000F500F50000000000000000000000000000000000000000000000000000000000000000000000000000000000000000000000000000000000000000
310
000000000000000000000000000000000000000000000000000000000000000000000000000000000000000000000000000000000000000000000000000000000000F500F5000000000000000000000000000000000000F50000000000000000000000000000000000F500F5000000000000000000000000000000F5000000
310
00000000000000000000000000000000000000000000000000000000000000000000000000000000000000000000000000000000000000000000000000000000000000000000F500F5000000000000000000000000000000000000000000000000000000000000000000000000000000000000000000000000000000000000
310
00000000000000000000000000000000000000000000000000000000000000000000000000000000000000000000000000000000000000000000000000000000000000002828F50000000000DC000000000000DC0000000000F500000000DC000000000000DC0000000000F500F5000000000000000000000000000000F500
310
000000000000000000000000000000000000000000000000000000000000000000000000000000000000000000000000000000000000000000000000000000000000000000000000F500F500000000000000000000000000000000000000000000000000000000000000000000000000000000000000000000000000000000
310
000000000000000000000000000000000000000000000000000000000000000000000000000000000000000000000000000000000000000000000000000000000000000000002828F500000000DCDCDCDCDCDCDCDCDCDC00000000F5000000DCDCDCDCDCDCDCDCDCDCDC000000F500F5000000000000000000000000000000
310
F500000000000000000000000000000000000000000000000000000000000000000000000000000000000000000000000000000000000000000000000000000000000000000000000000F500F50000000000000000000000000000000000000000000000000000000000000000000000000000000000000000000000000000
310
0000000000000000000000000000000000000000000000000000000000000000000000000000000000000000000000000000000000000000000000000000000000000000000000002828F500000000DCDC000000000000DCDCDC000000F500000000DC000000000000DCDCDC000000F500F500000000000000000000000000
310
0000F500000000000000000000000000000000000000000000000000000000000000000000000000000000000000000000000000000000000000000000000000000000000000000000000000F500F5000000000000000000000000000000000000000000000000000000000000000000000000000000000000000000000000
310
00000000000000000000000000000000000000000000000000000000000000000000000000000000000000000000000000000000000000000000000000000000000000000000000000002828F5000000002D2D2D2D2D2DDCDC2DDCDC000000F5000000002D2D2D2D2D2DDCDC2DDCDC0000F500F50000000000000000000000
310
00000000F500000000000000000000000000000000000000000000000000000000000000000000000000000000000000000000000000000000000000000000000000000000000000000000000000F500F500000000000000000000000000000000000000000000000000000000000000000000000000000000000000000000
310
000000000000000000000000000000000000000000000000000000000000000000000000000000000000000000000000000000000000000000000000000000000000000000000000000000002828F500000000000000000000DC0000DCDC000000F500000000000000000000DC0000DC000000F500F5000000000000000000
310
000000000000F500000000000000000000000000000000000000000000000000000000000000000000000000000000000000000000000000000000000000000000000000000000000000000000000000F500F50000000000000000000000000000000000000000000000000000000000000000000000000000000000000000
310
0000000000000000000000000000000000000000000000000000000000000000000000000000000000000000000000000000000000000000000000000000000000000000000000000000000000002828F5000000000000000000000000000000000000F50000000000000000000000000000000000F500F500000000000000
310
0000000000000000F500000000000000000000000000000000000000000000000000000000000000000000000000000000000000000000000000000000000000000000000000000000000000000000000000F500F5000000000000000000000000000000000000000000000000000000000000000000000000000000000000
310
0000000000000000000000000000000000000000000000000000000000000000000000000000000000000000000000000000000000000000000000000000000000000000000000000000000000000000F500F5000000000000000000000000000000000000F50000000000000000000000000000000000F500F50000000000
310
00000000000000000000F500000000000000000000000000000000000000000000000000000000000000000000000000000000000000000000000000000000000000000000000000000000000000000000000000F500F500000000000000000000000000000000000000000000000000000000000000000000000000000000
310
00000000000000000000000000000000000000000000000000000000000000000000000000000000000000000000000000000000000000000000000000000000000000000000000000000000000000000000F500F5000000000000000000000000000000000000F50000000000000000000000000000000000F500F5000000
310
000000000000000000000000F500000000000000000000000000000000000000000000000000000000000000000000000000000000000000000000000000000000000000000000000000000000000000000000000000F500F50000000000000000000000000000000000000000000000000000000000000000000000000000
310
000000000000000000000000000000000000000000000000000000000000000000000000000000000000000000000000000000000000000000000000000000000000000000000000000000000000000000000000F500F5000000000000000000000000000000000000F50000000000000000000000000000000000F500F500
310
0000000000000000000000000000F500000000000000000000000000000000000000000000000000000000000000000000000000000000000000000000000000000000000000000000000000000000000000000000000000F500F5000000000000000000000000000000000000000000000000000000000000000000000000
310
0000000000000000000000000000000000000000000000000000000000000000000000000000000000000000000000000000000000000000000000000000000000000000000000000000000000000000000000000000F500F5000000000000000000000000000000000000F50000000000000000000000000000000000F500
310
F5000000000000000000000000000000F500000000000000000000000000000000000000000000000000000000000000000000000000000000000000000000000000000000000000000000000000000000000000000000000000F500F500000000000000000000000000000000000000000000000000000000000000000000
310
00000000000000000000000000000000000000000000000000000000000000000000000000000000000000000000000000000000000000000000000000000000000000000000000000000000000000000000000000000000F5F5F5F5F5F5F5F5F5F5F5F5F5F5F5F5F5F5F5F5F5F5F5F5F5F5F5F5F5F5F5F5F5F5F5F5F5F5F5
310
F5F5F5F5F5F5F5F5F5F5F5F5F5F5F5F5F5F5F5F5F5F5F5F5F5F5F5F5F5F5F5F5F5F5F5F5F5F5F5F5F5F5F5F5F5F5F5F5F5F5F5F5F5F5F5F5F5F5F5F5F5F5F5F5F5F5F5F5F5F5F5F5F5F5F5F5F5F5F5F5F5F5F5F5F5F5F5F5F5F5F5F5F500F50000000000000000000000000000000000000000000000000000000000000000
310
000000000000000000000000000000000000000000000000000000000000000000000000000000000000000000000000000000000000000000000000000000000000000000000000000000000000000000000000000000000000F500F5000000282828282828282828282828000000F5000000282828282828282828282800
310
0000F500F5000000000000000000000000000000F500000000000000000000000000000000000000000000000000000000000000000000000000000000000000000000000000000000000000000000000000000000000000000000000000F500F5000000000000000000000000000000000000000000000000000000000000
310
0000000000000000000000000000000000000000000000000000000000000000000000000000000000000000000000000000000000000000000000000000000000000000000000000000000000000000000000000000000000000000F5F5F5F5F5F5F5F5F5F5F5F5F5F5F5F5F5F5F5F5F5F5F5F5F5F5F5F5F5F5F5F5F5F5F5
310
F5F5F5F5F5F5F5F5F5F5F5F5F5F5F5F5F5F5F5F5F5F5F5F5F5F5F5F5F5F5F5F5F5F5F5F5F5F5F5F5F5F5F5F5F5F5F5F5F5F5F5F5F5F5F5F5F5F5F5F5F5F5F5F5F5F5F5F5F5F5F5F5F5F5F5F5F5F5F5F5F5F5F5F5F5F5F5F5F5F5F5F5F5F5F5F5F500F500000000000000000000000000000000000000000000000000000000
310
00000000000000000000000000000000000000000000000000000000000000000000000000000000000000000000000000000000000000000000000000000000000000000000000000000000000000000000000000000000000000000000F500F5000000000000000000000000000000000000F50000000000000000000000
310
000000000000F500F5000000000000000000000000000000F500000000000000000000000000000000000000000000000000000000000000000000000000000000000000000000000000000000000000000000000000000000000000000000000000F500F50000000000000000000000000000000000000000000000000000
310
000000000000000000000000000000000000000000000000000000000000000000000000000000000000000000000000000000000000000000000000000000000000000000000000000000000000000000000000000000000000000000000000F500F5000000000000000000000000000000000000F5000000000000000000
310
0000000000000000F500F50000000000DCDCDC00000000000000F500000000000000000000000000000000000000000000000000000000000000000000000000000000000000000000000000000000000000000000000000000000000000000000000000F500F5000000000000000000000000000000000000000000000000
310
0000000000000000000000000000000000000000000000000000000000000000000000000000000000000000000000000000000000000000000000000000000000000000000000000000000000000000000000000000000000000000000000000000F500F500000000DCDCDCDCDCDCDCDCDC0000000000F500000000DCDCDC
310
DCDCDCDCDCDC00000000F500F50000000000DCDCDCDCDC0000000000F500000000000000000000000000000000000000000000000000000000000000000000000000000000000000000000000000000000000000000000000000000000000000000000000000F500F500000000000000000000000000000000000000000000
310
000000000000000000000000000000000000000000000000000000000000000000000000000000000000000000000000000000000000000000000000000000000000000000000000000000000000000000000000000000000000000000000000000000002828F5000000002D2D2D2DBE2D2D2D2DDC00000000F5000000002D
310
2D2D2DBE2D2D2DDCDC000000F528280000000000002DDCDCDC0000000000F500000000000000000000000000000000000000000000000000000000000000000000000000000000000000000000000000000000000000000000000000000000000000000000000000F500F50000000000000000000000000000000000000000
310
0000000000000000000000000000000000000000000000000000000000000000000000000000000000000000000000000000000000000000000000000000000000000000000000000000000000000000000000000000000000000000000000000000000000002828F5000000002D2D00002D0000002DDCDC000000F5000000
310
002D0000002D0000002DDC000000F528280000000000002D00DCDC0000000000F500000000000000000000000000000000000000000000000000000000000000000000000000000000000000000000000000000000000000000000000000000000000000000000000000F500F5000000000000000000000000000000000000
310
00000000000000000000000000000000000000000000000000000000000000000000000000000000000000000000000000000000000000000000000000000000000000000000000000000000000000000000000000000000000000000000000000000000000000002828F5000000002D2D00002D0000002DDC00000000F500
310
0000002D0000002D0000002DDC000000F528280000000000002D0000DC0000000000F500000000000000000000000000000000000000000000000000000000000000000000000000000000000000000000000000000000000000000000000000000000000000000000000000F500F500000000000000000000000000000000
310
000000000000000000000000000000000000000000000000000000000000000000000000000000000000000000000000000000000000000000000000000000000000000000000000000000000000000000000000000000000000000000000000000000000000000000002828F5000000002D2D00002D0000002DDC00000000
310
F5000000002D0000002D0000002DDC000000F528280000000000002D0000DC0000000000F500000000000000000000000000000000000000000000000000000000000000000000000000000000000000000000000000000000000000000000000000000000000000000000000000F500F50000000000000000000000000000
310
0000000000000000000000000000000000000000000000000000000000000000000000000000000000000000000000000000000000000000000000000000000000000000000000000000000000000000000000000000000000000000000000000000000000000000000000002828F5000000002D2D00002D0000002DDC0000
310
0000F5000000002D0000002D0000002DDC000000F528280000000000002D00DCDC0000000000F500000000000000000000000000000000000000000000000000000000000000000000000000000000000000000000000000000000000000000000000000000000000000000000000000F500F5000000000000000000000000
310
00000000000000000000000000000000000000000000000000000000000000000000000000000000000000000000000000000000000000000000000000000000000000000000000000000000000000000000000000000000000000000000000000000000000000000000000000002828F5000000002D2D00002D0000002DDC
310
00000000F5000000002D0000002D0000002DDC000000F52828000000000000DC00DCDC0000000000F500000000000000000000000000000000000000000000000000000000000000000000000000000000000000000000000000000000000000000000000000000000000000000000000000F500F500000000000000000000
310
000000000000000000000000000000000000000000000000000000000000000000000000000000000000000000000000000000000000000000000000000000000000000000000000000000000000000000000000000000000000000000000000000000000000000000000000000000002828F5000000002D2D00002D002D2D
310
2DDC00000000F5000000002D0000002D2D2D002DDC000000F528280000000000DCDC00DCDC0000000000F500000000000000000000000000000000000000000000000000000000000000000000000000000000000000000000000000000000000000000000000000000000000000000000000000F500F50000000000000000
310
000000000000000000000000000000000000000000000000000000000000000000000000000000000000000000000000000000000000000000000000000000000000000000000000000000000000000000000000000000000000000000000000000000000000000000000000000000000000F528F5000000002D2D2D2D2D00
310
00002DDC00000000F5000000002D2D2D002D0000002DDC000000F528280000000000002D0000DC0000000000F500000000000000000000000000000000000000000000000000000000000000000000000000000000000000000000000000000000000000000000000000000000000000000000000000F500F5000000000000
310
00000000000000000000000000000000000000000000000000000000000000000000000000000000000000000000000000000000000000000000000000000000000000000000000000000000000000000000000000000000000000000000000000000000000000000000000000000000000000002828F5000000002D2D0000
310
2D0000002DDC00000000F5000000002D0000002D0000002DDC000000F528280000000000002D0000DC0000000000F500000000000000000000000000000000000000000000000000000000000000000000000000000000000000000000000000000000000000000000000000000000000000000000000000F500F500000000
310
000000000000000000000000000000000000000000000000000000000000000000000000000000000000000000000000000000000000000000000000000000000000000000000000000000000000000000000000000000000000000000000000000000000000000000000000000000000000000000002828F5000000002D2D
310
00002D0000002DDC00000000F5000000002D0000002D0000002DDC000000F528280000000000002D0000DC0000000000F500000000000000000000000000000000000000000000000000000000000000000000000000000000000000000000000000000000000000000000000000000000000000000000000000F500F50000
310
0000000000000000000000000000000000000000000000000000000000000000000000000000000000000000000000000000000000000000000000000000000000000000000000000000000000000000000000000000000000000000000000000000000000000000000000000000000000000000000000002828F500000000
310
2D2D2D2D2D2D2D2D2DDCDC000000F5000000002D2D2D2D2D2D2D2D2DDC000000F528280000000000002DDCDCDC0000000000F500000000000000000000000000000000000000000000000000000000000000000000000000000000000000000000000000000000000000000000000000000000000000000000000000F500F5
310
0000000000000000000000000000000000000000000000000000000000000000000000000000000000000000000000000000000000000000000000000000000000000000000000000000000000000000000000000000000000000000000000000000000000000000000000000000000000000000000000000000F528F50000
310
00002D2D2D2D2D2D2D2D2DDC00000000F5000000002D2D2D2D2D2D2D2DDCDC000000F528F50000000000002DDCDCDC0000000000F500000000000000000000000000000000000000000000000000000000000000000000000000000000000000000000000000000000000000000000000000000000000000000000000000F5
310
00F50000000000000000000000000000000000000000000000000000000000000000000000000000000000000000000000000000000000000000000000000000000000000000000000000000000000000000000000000000000000000000000000000000000000000000000000000000000000000000000000000000F500F5
310
000000000000000000000000000000000000F50000000000000000000000000000000000F500F50000000000000000DCDC0000000000F5000000000000000000000000000000000000000000000000000000000000000000000000000000000000000000000000000000000000000000000000000000000000000000000000
310
00F500F50000000000000000000000000000000000000000000000000000000000000000000000000000000000000000000000000000000000000000000000000000000000000000000000000000000000000000000000000000000000000000000000000000000000000000000000000000000000000000000000000000F5
310
00F5000000F5F5F5F5F5F5F5F500000000000000F5000000F5F5F5F5F5F5F500000000000000F500F5000000000000000000000000000000F500000000000000000000000000000000000000000000000000000000000000000000000000000000000000000000000000000000000000000000000000000000000000000000
310
000000F500F500000000000000000000000000000000000000000000000000000000000000000000000000000000000000000000000000000000000000000000000000000000000000000000000000000000000000000000000000000000000000000000000000000000000000000000000000000000000000000000000000
310
00F5F5F5F5F5F5F5F5F5F5F5F5F5F5F5F5F5F5F5F5F5F5F5F5F5F5F5F5F5F5F5F5F5F5F5F5F5F5F5F5F5F5F5F5F5F5F5F5F5F5F5F5F5F5F5F5F5F5F5F5F5F5F5F5F5F5F5F5F5F5F5F5F5F5F5F5F5F5F5F5F5F5F5F5F5F5F5F5F5F5F5F5F5F5F5F5F5F5F5F5F5F5F5F5F5F5F5F5F5F5F5F5F5F5F5F5F5F5F5F5F5F5F5F5F5F5
310
F5F5F5F5F5F500F50000000000000000000000000000000000000000000000000000000000000000000000000000000000000000000000000000000000000000000000000000000000000000000000000000000000000000000000000000000000000000000000000000000000000000000000000000000000000000000000
310
000000F500F5000000000000000000000000000000000000F50000000000000000000000000000000000F500F5000000000000000000000000000000F5000000000000000000000000000000000000000000000000000000000000000000000000000000000000000000000000000000000000000000000000000000000000
310
00000000000000F500F5000000000000000000000000000000000000000000000000000000000000000000000000000000000000000000000000000000000000000000000000000000000000000000000000000000000000000000000000000000000000000000000000000000000000000000000000000000000000000000
310
0000000000F500F5000000000000000000000000000000000000F50000000000000000000000000000000000F500F5000000000000000000000000000000F500000000000000000000000000000000000000000000000000000000000000000000000000000000000000000000000000000000000000000000000000000000
310
000000000000000000F500F500000000000000000000000000000000000000000000000000000000000000000000000000000000000000000000000000000000000000000000000000000000000000000000000000000000000000000000000000000000000000000000000000000000000000000000000000000000000000
310
00000000000000F500F50000000000DC000000000000DC0000000000F500000000DC000000000000DC0000000000F500F50000000000DCDCDC00000000000000F50000000000000000000000000000000000000000000000000000000000000000000000000000000000000000000000000000000000000000000000000000
310
0000000000000000000000F500F50000000000000000000000000000000000000000000000000000000000000000000000000000000000000000000000000000000000000000000000000000000000000000000000000000000000000000000000000000000000000000000000000000000000000000000000000000000000
310
000000000000000000F500F500000000DCDCDCDCDCDCDCDCDC0000000000F500000000DCDCDCDCDCDCDCDCDC00000000F500F50000000000DCDCDCDCDC0000000000F5000000000000000000000000000000000000000000000000000000000000000000000000000000000000000000000000000000000000000000000000
310
00000000000000000000000000F500F5000000000000000000000000000000000000000000000000000000000000000000000000000000000000000000000000000000000000000000000000000000000000000000000000000000000000000000000000000000000000000000000000000000000000000000000000000000
310
00000000000000000000002828F5000000002D2D2D2DBE2D2D2D2DDCDC000000F5000000002D2D2D2DBE2D2D2DDCDC000000F528280000000000002DDCDCDC0000000000F500000000000000000000000000000000000000000000000000000000000000000000000000000000000000000000000000000000000000000000
310
000000000000000000000000000000F500F500000000000000000000000000000000000000000000000000000000000000000000000000000000000000000000000000000000000000000000000000000000000000000000000000000000000000000000000000000000000000000000000000000000000000000000000000
310
00000000000000000000000000F528F5000000002D2D00002D0000002DDC00000000F5000000002D0000002D0000002DDC000000F528280000000000002D0000DC0000000000F50000000000000000000000000000000000000000000000000000000000000000000000000000000000000000000000000000000000000000
310
0000000000000000000000000000000000F500F50000000000000000000000000000000000000000000000000000000000000000000000000000000000000000000000000000000000000000000000000000000000000000000000000000000000000000000000000000000000000000000000000000000000000000000000
310
0000000000000000000000000000002828F5000000002D2D00002D0000002DDC00000000F5000000002D0000002D0000002DDC000000F528280000000000002D0000DC0000000000F5000000000000000000000000000000000000000000000000000000000000000000000000000000000000000000000000000000000000
310
00000000000000000000000000000000000000F500F5000000000000000000000000000000000000000000000000000000000000000000000000000000000000000000000000000000000000000000000000000000000000000000000000000000000000000000000000000000000000000000000000000000000000000000
310
00000000000000000000000000000000002828F5000000002D2D00002D0000002DDC00000000F5000000002D0000002D0000002DDC000000F528280000000000002D0000DC0000000000F500000000000000000000000000000000000000000000000000000000000000000000000000000000000000000000000000000000
310
000000000000000000000000000000000000000000F500F500000000000000000000000000000000000000000000000000000000000000000000000000000000000000000000000000000000000000000000000000000000000000000000000000000000000000000000000000000000000000000000000000000000000000
310
000000000000000000000000000000000000002828F5000000002D2D00002D0000002DDC00000000F5000000002D0000002D0000002DDC000000F52828000000000000DC00DCDC0000000000F50000000000000000000000000000000000000000000000000000000000000000000000000000000000000000000000000000
310
0000000000000000000000000000000000000000000000F500F50000000000000000000000000000000000000000000000000000000000000000000000000000000000000000000000000000000000000000000000000000000000000000000000000000000000000000000000000000000000000000000000000000000000
310
0000000000000000000000000000000000000000002828F5000000002D2D00002D002D2D2DDC00000000F5000000002D0000002D2D2D002DDC000000F528280000000000DCDC00DCDC0000000000F5000000000000000000000000000000000000000000000000000000000000000000000000000000000000000000000000
310
00000000000000000000000000000000000000000000000000F500F5000000000000000000000000000000000000000000000000000000000000000000000000000000000000000000000000000000000000000000000000000000000000000000000000000000000000000000000000000000000000000000000000000000
310
0000000000000000000000000000000000000000000000F528F5000000002D2D2D2D2D0000002DDC00000000F5000000002D2D2D002D0000002DDC000000F528280000000000002D0000DC0000000000F500000000000000000000000000000000000000000000000000000000000000000000000000000000000000000000
310
000000000000000000000000000000000000000000000000000000F500F500000000000000000000000000000000000000000000000000000000000000000000000000000000000000000000000000000000000000000000000000000000000000000000000000000000000000000000000000000000000000000000000000
310
000000000000000000000000000000000000000000000000002828F5000000002D2D2D2D2D0000002DDC00000000F5000000002D2D2D002D0000002DDC000000F528280000000000002D0000DC0000000000F50000000000000000000000000000000000000000000000000000000000000000000000000000000000000000
310
0000000000000000000000000000000000000000000000000000000000F500F50000000000000000000000000000000000000000000000000000000000000000000000000000000000000000000000000000000000000000000000000000000000000000000000000000000000000000000000000000000000000000000000
310
0000000000000000000000000000000000000000000000000000002828F5000000002D2D00002D0000002DDC00000000F5000000002D0000002D0000002DDC000000F528280000000000002D0000DC0000000000F5000000000000000000000000000000000000000000000000000000000000000000000000000000000000
310
00000000000000000000000000000000000000000000000000000000000000F500F5000000000000000000000000000000000000000000000000000000000000000000000000000000000000000000000000000000000000000000000000000000000000000000000000000000000000000000000000000000000000000000
310
00000000000000000000000000000000000000000000000000000000002828F5000000002D2D2D2D2D2D2D2D2DDCDC000000F5000000002D2D2D2D2D2D2D2D2DDC000000F528280000000000002DDCDCDC0000000000F500000000000000000000000000000000000000000000000000000000000000000000000000000000
310
000000000000000000000000000000000000000000000000000000000000000000F500F500000000000000000000000000000000000000000000000000000000000000000000000000000000000000000000000000000000000000000000000000000000000000000000000000000000000000000000000000000000000000
310
000000000000000000000000000000000000000000000000000000000000002828F5000000002D2D2D2D2D2D2D2D2DDC00000000F5000000002D2D2D2D2D2D2D2DDCDC000000F528280000000000002DDCDCDC0000000000F50000000000000000000000000000000000000000000000000000000000000000000000000000
310
0000000000000000000000000000000000000000000000000000000000000000000000F500F50000000000000000000000000000000000000000000000000000000000000000000000000000000000000000000000000000000000000000000000000000000000000000000000000000000000000000000000000000000000
310
000000000000000000000000000000000000000000000000000000000000000000F500F5000000000000000000000000000000000000F50000000000000000000000000000000000F500F5000000000000000000000000000000F5000000000000000000000000000000000000000000000000000000000000000000000000
310
00000000000000000000000000000000000000000000000000000000000000000000000000F500F5000000000000000000000000000000000000000000000000000000000000000000000000000000000000000000000000000000000000000000000000000000000000000000000000000000000000000000000000000000
310
0000000000000000000000000000000000000000000000000000000000000000000000F500F5000000F5F5F5F5F5F5F5F500000000000000F5000000F5F5F5F5F5F5F500000000000000F500F5000000000000000000000000000000F500000000000000000000000000000000000000000000000000000000000000000000
310
000000000000000000000000000000000000000000000000000000000000000000000000000000F500F500000000000000000000000000000000000000000000000000000000000000000000000000000000000000000000000000000000000000000000000000000000000000000000000000000000000000000000000000
310
00000000000000000000000000000000000000000000000000000000000000000000000000F500F5000000F5F5F5F5F5F5F5F500000000000000F5000000F5F5F5F5F5F5F500000000000000F500F5000000000000000000000000000000F50000000000000000000000000000000000000000000000000000000000000000
310
0000000000000000000000000000000000000000000000000000000000000000000000000000000000F500F50000000000000000000000000000000000000000000000000000000000000000000000000000000000000000000000000000000000000000000000000000000000000000000000000000000000000000000000
310
000000000000000000000000000000000000000000000000000000000000000000000000000000F5F5F5F5F5F5F528282828282828282828F5F5F5F5F5F5F5F5F5F5F5F5F5F5F5F5F5F5F5F5F5F5F5F5F5F5F5F5F5F52828282828F5F5F5F5F5F5F5F5F5F5F5F5F5F5F5F5F5F5F5F5F5F5F5F5F5F5F5F5F5F5F5F5F5F5F5F5
310
F5F5F5F5F5F5F5F5F5F5F5F5F5F5F5F5F5F5F5F5F5F5F5F5F5F5F5F5F5F5F5F5F5F5F5F5F5F5F5F5F5F5F5F500F5000000000000000000000000000000000000000000000000000000000000000000000000000000000000000000000000000000000000000000000000000000000000000000000000000000000000000000
310
0000000000000000000000000000000000000000000000000000000000000000000000000000000000F500F5000000282828282828282828282828000000F50000002828282828282828282828000000F500F5000000000028282828280000000000F500000000000000000000000000000000000000000000000000000000
310
000000000000000000000000000000000000000000000000000000000000000000000000000000000000000000F500F500000000000000000000000000000000000000000000000000000000000000000000000000000000000000000000000000000000000000000000000000000000000000000000000000000000000000
310
00000000000000000000000000000000000000000000000000000000000000000000000000000000000000F5F5F5F5F5F5F5F5F5F5F5F5F5F5F5F5F5F5F5F5F5F5F5F5F5F5F5F5F5F5F5F5F5F5F5F5F5F5F5F5F5F5F5F5F5F5F5F5F5F5F5F5F5F5F5F5F5F5F5F5F5F5F5F5F5F5F5F5F5F5F5F5F5F5F5F5F5F5F5F5F5F5F5F5
310
F5F5F5F5F5F5F5F5F5F5F5F5F5F5F5F5F5F5F5F5F5F5F5F5F5F5F5F5F5F5F5F5F5F5F5F5F5F5F5F5F5F5F5F5F5F5F5F500F50000000000000000000000000000000000000000000000000000000000000000000000000000000000000000000000000000000000000000000000000000000000000000000000000000000000
310
000000000000000000000000000000000000000000000000000000000000000000000000000000000000000000F5F5F5F5F5F5F500F5F5F5F5F5F5F5F5F5F500F5F5F5F5F5F5F5F5F5F500F5F5F5F5F500F5F5F5F5F5F500F5F5F5F5F5F5F5F5F5F5F5F5F5F5F500F5F5F5F5F5F50000000000000000000000000000000000
310
00F5F5F5F5F5F5F5F5F5F5F5F5F5F5F5F5F5F5F5F5F5F5F5F5F5F5F5F5F5F5F5F5F5F5F5F5F5F5F5F5F5F5F5F5F5F5F5F5F500F5000000000000000000000000000000000000000000000000000000000000000000000000000000000000000000000000000000000000000000000000000000000000000000000000000000
310
0000000000000000000000000000000000000000000000000000000000000000000000000000000000000000000000F5F5F5F5F5F5F5F5F5F5F5F5F5F5F5F5F5F5F5F5F5F5F5F5F5F5F5F5F5F5F5F5F5F5F5F5F5F5F5F5F5F5F5F5F5F5F5F5F5F5F5F5F5F5F5F5F5F5F5F5F5F5F5F5F5F5F5F5F5F5F5F5F5F5F5F5F5F5F5F5
310
F5F5F5F5F5F5F5F5F5F5F5F5F5F5F5F5F5F5F5F5F5F5F5F5F5F5F5F5F5F5F5F5F5F5F5F5F5F5F5F5F5F5F5F5F5F5F5F5F5F5F5F5F5F500000000000000000000000000000000000000000000000000000000000000000000000000000000000000000000000000000000000000000000000000000000000000000000000000
310
00000000000000000000000000000000000000000000000000000000000000000000000000000000000000000000000000000000000000000000000000000000000000000000000000000000000000000000000000000000000000000000000000000000000000000000000000000000000000000000000000000000000000
310
000000000000000000000000000000000000000000000000000000000000000000000000000000000000000000000000000000000000000000000000000000000000000000000000000000000000000000000000000000000000000000000000000000000000000000000000000000000000000000
  0
XRECORD
  5
B6AB
102
{ACAD_REACTORS
330
B6AA
102
}
330
B6AA
100
AcDbXrecord
280
     1
102
MATERIAL
148
0.0
149
0.0
149
0.0
 93
        0
 94
      127
282
     0
 72
     0
 77
     0
171
     0
175
     0
179
     0
273
     0
  0
XRECORD
  5
B6A9
102
{ACAD_REACTORS
330
B6A8
102
}
330
B6A8
100
AcDbXrecord
280
     1
102
MATERIAL
148
0.0
149
0.0
149
0.0
 93
        0
 94
      127
282
     0
 72
     0
 77
     0
171
     0
175
     0
179
     0
273
     0
  0
XRECORD
  5
B6AD
102
{ACAD_REACTORS
330
B6AC
102
}
330
B6AC
100
AcDbXrecord
280
     1
102
MATERIAL
148
0.0
149
0.0
149
0.0
 93
        0
 94
      127
282
     0
 72
     0
 77
     0
171
     0
175
     0
179
     0
273
     0
  0
XRECORD
  5
B6E0
102
{ACAD_REACTORS
330
B6DF
102
}
330
B6DF
100
AcDbXrecord
280
     1
102
ACAD_ROUNDTRIP_2012_MLEADER_STYLE
298
     1
  0
XRECORD
  5
B6E2
102
{ACAD_REACTORS
330
B6E1
102
}
330
B6E1
100
AcDbXrecord
280
     1
102
DISPLAYNAME
  1
Imperial24
102
FLAGS
 90
        0
  0
XRECORD
  5
B6E6
102
{ACAD_REACTORS
330
B6E5
102
}
330
B6E5
100
AcDbXrecord
280
     1
102
DISPLAYNAME
  1
Metric50
102
FLAGS
 90
        0
  0
CELLSTYLEMAP
  5
B6A6
102
{ACAD_REACTORS
330
740D
102
}
330
740D
100
AcDbCellStyleMap
 90
        3
300
CELLSTYLE
  1
TABLEFORMAT_BEGIN
 90
        5
170
     1
 91
        0
 92
    32768
 62
   257
 93
        1
300
CONTENTFORMAT
  1
CONTENTFORMAT_BEGIN
 90
        0
 91
        0
 92
      512
 93
        0
300

 40
0.0
140
1.0
 94
        5
 62
     0
340
530C
144
0.25
309
CONTENTFORMAT_END
171
     0
 94
        0
309
TABLEFORMAT_END
  1
CELLSTYLE_BEGIN
 90
        1
 91
        1
300
_TITLE
309
CELLSTYLE_END
300
CELLSTYLE
  1
TABLEFORMAT_BEGIN
 90
        5
170
     1
 91
        0
 92
        0
 62
   257
 93
        1
300
CONTENTFORMAT
  1
CONTENTFORMAT_BEGIN
 90
        0
 91
        0
 92
      512
 93
        0
300

 40
0.0
140
1.0
 94
        5
 62
     0
340
530C
144
0.18
309
CONTENTFORMAT_END
171
     0
 94
        0
309
TABLEFORMAT_END
  1
CELLSTYLE_BEGIN
 90
        2
 91
        1
300
_HEADER
309
CELLSTYLE_END
300
CELLSTYLE
  1
TABLEFORMAT_BEGIN
 90
        5
170
     1
 91
        0
 92
        0
 62
   257
 93
        1
300
CONTENTFORMAT
  1
CONTENTFORMAT_BEGIN
 90
        0
 91
        0
 92
      512
 93
        0
300

 40
0.0
140
1.0
 94
        2
 62
     0
340
530C
144
0.18
309
CONTENTFORMAT_END
171
     0
 94
        0
309
TABLEFORMAT_END
  1
CELLSTYLE_BEGIN
 90
        3
 91
        2
300
_DATA
309
CELLSTYLE_END
  0
XRECORD
  5
B6DE
102
{ACAD_REACTORS
330
740D
102
}
330
740D
100
AcDbXrecord
280
     1
102
ACAD_ROUNDTRIP_PRE2007_TABLESTYLE
 90
      512
 91
        0
  1

 92
      512
 93
        0
  2

 94
      512
 95
        0
  3

  0
XRECORD
  5
B6B9
102
{ACAD_REACTORS
330
B6B8
102
}
330
B6B8
100
AcDbXrecord
280
     1
102
RTVSPost2010Prop28
280
     1
102
RTVSPost2010PropOp28
 70
     1
102
RTVSPost2010Prop29
280
     1
102
RTVSPost2010PropOp29
 70
     1
102
RTVSPost2010Prop30
280
     0
102
RTVSPost2010PropOp30
 70
     1
102
RTVSPost2010Prop31
280
     0
102
RTVSPost2010PropOp31
 70
     1
102
RTVSPost2010Prop32
280
     0
102
RTVSPost2010PropOp32
 70
     1
102
RTVSPost2010Prop33
280
     0
102
RTVSPost2010PropOp33
 70
     1
102
RTVSPost2010Prop34
280
     0
102
RTVSPost2010PropOp34
 70
     1
102
RTVSPost2010Prop35
280
     0
102
RTVSPost2010PropOp35
 70
     1
102
RTVSPost2010Prop36
280
     0
102
RTVSPost2010PropOp36
 70
     1
102
RTVSPost2010Prop37
 90
       50
102
RTVSPost2010PropOp37
 70
     1
102
RTVSPost2010Prop38
140
0.0
102
RTVSPost2010PropOp38
 70
     1
102
RTVSPost2010Prop39
140
1.0
102
RTVSPost2010PropOp39
 70
     1
102
RTVSPost2010Prop40
 90
        0
102
RTVSPost2010PropOp40
 70
     1
102
RTVSPost2010Prop41ColorIndex
 90
       18
102
RTVSPost2010Prop41ColorRGB
 90
        0
102
RTVSPost2010PropOp41
 70
     1
102
RTVSPost2010Prop42
 90
       50
102
RTVSPost2010PropOp42
 70
     1
102
RTVSPost2010Prop43
 90
        3
102
RTVSPost2010PropOp43
 70
     1
102
RTVSPost2010Prop44ColorIndex
 90
        5
102
RTVSPost2010Prop44ColorRGB
 90
      255
102
RTVSPost2010PropOp44
 70
     1
102
RTVSPost2010Prop45
280
     0
102
RTVSPost2010PropOp45
 70
     1
102
RTVSPost2010Prop46
 90
       50
102
RTVSPost2010PropOp46
 70
     1
102
RTVSPost2010Prop47
 90
       50
102
RTVSPost2010PropOp47
 70
     1
102
RTVSPost2010Prop48
 90
       50
102
RTVSPost2010PropOp48
 70
     1
102
RTVSPost2010Prop49
280
     0
102
RTVSPost2010PropOp49
 70
     1
102
RTVSPost2010Prop50
 90
       50
102
RTVSPost2010PropOp50
 70
     1
102
RTVSPost2010Prop51ColorIndex
 90
      256
102
RTVSPost2010Prop51ColorRGB
 90
-16777216
102
RTVSPost2010PropOp51
 70
     0
102
RTVSPost2010Prop52
140
1.0
102
RTVSPost2010PropOp52
 70
     0
102
RTVSPost2010Prop53
 90
        2
102
RTVSPost2010PropOp53
 70
     1
102
RTVSPost2010Prop54
  1
strokes_ogs.tif
102
RTVSPost2010PropOp54
 70
     1
102
RTVSPost2010Prop55
280
     0
102
RTVSPost2010PropOp55
 70
     1
102
RTVSPost2010Prop56
140
1.0
102
RTVSPost2010PropOp56
 70
     1
102
RTVSPost2010Prop57
140
1.0
102
RTVSPost2010PropOp57
 70
     1
102
RTVSPropertyOp0
 70
     1
102
RTVSPropertyOp1
 70
     1
102
RTVSPropertyOp2
 70
     1
102
RTVSPropertyOp3
 70
     1
102
RTVSPropertyOp4
 70
     1
102
RTVSPropertyOp5
 70
     1
102
RTVSPropertyOp6
 70
     1
102
RTVSPropertyOp7
 70
     1
102
RTVSPropertyOp8
 70
     1
102
RTVSPropertyOp9
 70
     1
102
RTVSPropertyOp10
 70
     1
102
RTVSPropertyOp11
 70
     1
102
RTVSPropertyOp12
 70
     1
102
RTVSPropertyOp13
 70
     1
102
RTVSPropertyOp14
 70
     1
102
RTVSPropertyOp15
 70
     1
102
RTVSPropertyOp16
 70
     1
102
RTVSPropertyOp17
 70
     1
102
RTVSPropertyOp18
 70
     1
102
RTVSPropertyOp19
 70
     1
102
RTVSPropertyOp20
 70
     1
102
RTVSPropertyOp21
 70
     1
102
RTVSPropertyOp22
 70
     1
102
RTVSPropertyOp23
 70
     1
102
RTVSPropertyOp24
 70
     1
102
RTVSPropertyOp25
 70
     1
102
RTVSPropertyOp26
 70
     1
102
RTVSPropertyOp27
 70
     1
102
RTVSPropertyOp28
 70
     1
102
RTVSPropertyOp29
 70
     1
102
RTVSPropertyOp30
 70
     1
102
RTVSPropertyOp31
 70
     1
102
RTVSPropertyOp32
 70
     1
102
RTVSPropertyOp33
 70
     1
102
RTVSPropertyOp34
 70
     1
102
RTVSPropertyOp35
 70
     1
102
RTVSPropertyOp36
 70
     1
102
RTVSPropertyOp37
 70
     1
102
RTVSPropertyOp38
 70
     1
102
RTVSPropertyOp39
 70
     1
102
RTVSPropertyOp40
 70
     1
102
RTVSPropertyOp41
 70
     1
102
RTVSPropertyOp42
 70
     1
102
RTVSPropertyOp43
 70
     1
102
RTVSPropertyOp44
 70
     1
102
RTVSPropertyOp45
 70
     1
102
RTVSPropertyOp46
 70
     1
102
RTVSPropertyOp47
 70
     1
102
RTVSPropertyOp48
 70
     1
102
RTVSPropertyOp49
 70
     1
102
RTVSPropertyOp50
 70
     1
102
RTVSPropertyOp51
 70
     0
102
RTVSPropertyOp52
 70
     0
102
RTVSPropertyOp53
 70
     1
102
RTVSPropertyOp54
 70
     1
102
RTVSPropertyOp55
 70
     1
102
RTVSPropertyOp56
 70
     1
102
RTVSPropertyOp57
 70
     1
102
RTVSPropertyOp58
 70
     1
102
RTVSPropertyOp59
 70
     1
102
RTVSPropertyOp60
 70
     1
102
RTVSPropertyOp61
 70
     1
102
RTVSPropertyOp62
 70
     1
  0
XRECORD
  5
B6B7
102
{ACAD_REACTORS
330
B6B6
102
}
330
B6B6
100
AcDbXrecord
280
     1
102
RTVSPost2010Prop28
280
     0
102
RTVSPost2010PropOp28
 70
     1
102
RTVSPost2010Prop29
280
     1
102
RTVSPost2010PropOp29
 70
     1
102
RTVSPost2010Prop30
280
     1
102
RTVSPost2010PropOp30
 70
     1
102
RTVSPost2010Prop31
280
     0
102
RTVSPost2010PropOp31
 70
     1
102
RTVSPost2010Prop32
280
     0
102
RTVSPost2010PropOp32
 70
     1
102
RTVSPost2010Prop33
280
     0
102
RTVSPost2010PropOp33
 70
     1
102
RTVSPost2010Prop34
280
     0
102
RTVSPost2010PropOp34
 70
     1
102
RTVSPost2010Prop35
280
     0
102
RTVSPost2010PropOp35
 70
     1
102
RTVSPost2010Prop36
280
     0
102
RTVSPost2010PropOp36
 70
     1
102
RTVSPost2010Prop37
 90
       50
102
RTVSPost2010PropOp37
 70
     1
102
RTVSPost2010Prop38
140
0.0
102
RTVSPost2010PropOp38
 70
     1
102
RTVSPost2010Prop39
140
1.0
102
RTVSPost2010PropOp39
 70
     1
102
RTVSPost2010Prop40
 90
        0
102
RTVSPost2010PropOp40
 70
     1
102
RTVSPost2010Prop41ColorIndex
 90
       18
102
RTVSPost2010Prop41ColorRGB
 90
        0
102
RTVSPost2010PropOp41
 70
     1
102
RTVSPost2010Prop42
 90
       50
102
RTVSPost2010PropOp42
 70
     1
102
RTVSPost2010Prop43
 90
        3
102
RTVSPost2010PropOp43
 70
     1
102
RTVSPost2010Prop44ColorIndex
 90
        5
102
RTVSPost2010Prop44ColorRGB
 90
      255
102
RTVSPost2010PropOp44
 70
     1
102
RTVSPost2010Prop45
280
     0
102
RTVSPost2010PropOp45
 70
     1
102
RTVSPost2010Prop46
 90
       50
102
RTVSPost2010PropOp46
 70
     1
102
RTVSPost2010Prop47
 90
       50
102
RTVSPost2010PropOp47
 70
     1
102
RTVSPost2010Prop48
 90
       50
102
RTVSPost2010PropOp48
 70
     1
102
RTVSPost2010Prop49
280
     0
102
RTVSPost2010PropOp49
 70
     1
102
RTVSPost2010Prop50
 90
       50
102
RTVSPost2010PropOp50
 70
     1
102
RTVSPost2010Prop51ColorIndex
 90
      256
102
RTVSPost2010Prop51ColorRGB
 90
-16777216
102
RTVSPost2010PropOp51
 70
     0
102
RTVSPost2010Prop52
140
1.0
102
RTVSPost2010PropOp52
 70
     0
102
RTVSPost2010Prop53
 90
        2
102
RTVSPost2010PropOp53
 70
     1
102
RTVSPost2010Prop54
  1
strokes_ogs.tif
102
RTVSPost2010PropOp54
 70
     1
102
RTVSPost2010Prop55
280
     0
102
RTVSPost2010PropOp55
 70
     1
102
RTVSPost2010Prop56
140
1.0
102
RTVSPost2010PropOp56
 70
     1
102
RTVSPost2010Prop57
140
1.0
102
RTVSPost2010PropOp57
 70
     1
102
RTVSPropertyOp0
 70
     1
102
RTVSPropertyOp1
 70
     1
102
RTVSPropertyOp2
 70
     1
102
RTVSPropertyOp3
 70
     1
102
RTVSPropertyOp4
 70
     1
102
RTVSPropertyOp5
 70
     1
102
RTVSPropertyOp6
 70
     1
102
RTVSPropertyOp7
 70
     1
102
RTVSPropertyOp8
 70
     1
102
RTVSPropertyOp9
 70
     1
102
RTVSPropertyOp10
 70
     1
102
RTVSPropertyOp11
 70
     1
102
RTVSPropertyOp12
 70
     1
102
RTVSPropertyOp13
 70
     1
102
RTVSPropertyOp14
 70
     1
102
RTVSPropertyOp15
 70
     1
102
RTVSPropertyOp16
 70
     1
102
RTVSPropertyOp17
 70
     1
102
RTVSPropertyOp18
 70
     1
102
RTVSPropertyOp19
 70
     1
102
RTVSPropertyOp20
 70
     1
102
RTVSPropertyOp21
 70
     1
102
RTVSPropertyOp22
 70
     1
102
RTVSPropertyOp23
 70
     1
102
RTVSPropertyOp24
 70
     1
102
RTVSPropertyOp25
 70
     1
102
RTVSPropertyOp26
 70
     1
102
RTVSPropertyOp27
 70
     1
102
RTVSPropertyOp28
 70
     1
102
RTVSPropertyOp29
 70
     1
102
RTVSPropertyOp30
 70
     1
102
RTVSPropertyOp31
 70
     1
102
RTVSPropertyOp32
 70
     1
102
RTVSPropertyOp33
 70
     1
102
RTVSPropertyOp34
 70
     1
102
RTVSPropertyOp35
 70
     1
102
RTVSPropertyOp36
 70
     1
102
RTVSPropertyOp37
 70
     1
102
RTVSPropertyOp38
 70
     1
102
RTVSPropertyOp39
 70
     1
102
RTVSPropertyOp40
 70
     1
102
RTVSPropertyOp41
 70
     1
102
RTVSPropertyOp42
 70
     1
102
RTVSPropertyOp43
 70
     1
102
RTVSPropertyOp44
 70
     1
102
RTVSPropertyOp45
 70
     1
102
RTVSPropertyOp46
 70
     1
102
RTVSPropertyOp47
 70
     1
102
RTVSPropertyOp48
 70
     1
102
RTVSPropertyOp49
 70
     1
102
RTVSPropertyOp50
 70
     1
102
RTVSPropertyOp51
 70
     0
102
RTVSPropertyOp52
 70
     0
102
RTVSPropertyOp53
 70
     1
102
RTVSPropertyOp54
 70
     1
102
RTVSPropertyOp55
 70
     1
102
RTVSPropertyOp56
 70
     1
102
RTVSPropertyOp57
 70
     1
102
RTVSPropertyOp58
 70
     1
102
RTVSPropertyOp59
 70
     1
102
RTVSPropertyOp60
 70
     1
102
RTVSPropertyOp61
 70
     1
102
RTVSPropertyOp62
 70
     1
  0
XRECORD
  5
B6C5
102
{ACAD_REACTORS
330
B6C4
102
}
330
B6C4
100
AcDbXrecord
280
     1
102
RTVSPost2010Prop28
280
     0
102
RTVSPost2010PropOp28
 70
     1
102
RTVSPost2010Prop29
280
     1
102
RTVSPost2010PropOp29
 70
     1
102
RTVSPost2010Prop30
280
     1
102
RTVSPost2010PropOp30
 70
     1
102
RTVSPost2010Prop31
280
     0
102
RTVSPost2010PropOp31
 70
     1
102
RTVSPost2010Prop32
280
     0
102
RTVSPost2010PropOp32
 70
     1
102
RTVSPost2010Prop33
280
     0
102
RTVSPost2010PropOp33
 70
     1
102
RTVSPost2010Prop34
280
     0
102
RTVSPost2010PropOp34
 70
     1
102
RTVSPost2010Prop35
280
     0
102
RTVSPost2010PropOp35
 70
     1
102
RTVSPost2010Prop36
280
     0
102
RTVSPost2010PropOp36
 70
     1
102
RTVSPost2010Prop37
 90
       50
102
RTVSPost2010PropOp37
 70
     1
102
RTVSPost2010Prop38
140
0.0
102
RTVSPost2010PropOp38
 70
     1
102
RTVSPost2010Prop39
140
1.0
102
RTVSPost2010PropOp39
 70
     1
102
RTVSPost2010Prop40
 90
        0
102
RTVSPost2010PropOp40
 70
     1
102
RTVSPost2010Prop41ColorIndex
 90
       18
102
RTVSPost2010Prop41ColorRGB
 90
        0
102
RTVSPost2010PropOp41
 70
     1
102
RTVSPost2010Prop42
 90
       50
102
RTVSPost2010PropOp42
 70
     1
102
RTVSPost2010Prop43
 90
        3
102
RTVSPost2010PropOp43
 70
     1
102
RTVSPost2010Prop44ColorIndex
 90
        5
102
RTVSPost2010Prop44ColorRGB
 90
      255
102
RTVSPost2010PropOp44
 70
     1
102
RTVSPost2010Prop45
280
     0
102
RTVSPost2010PropOp45
 70
     1
102
RTVSPost2010Prop46
 90
       50
102
RTVSPost2010PropOp46
 70
     1
102
RTVSPost2010Prop47
 90
       50
102
RTVSPost2010PropOp47
 70
     1
102
RTVSPost2010Prop48
 90
       50
102
RTVSPost2010PropOp48
 70
     1
102
RTVSPost2010Prop49
280
     0
102
RTVSPost2010PropOp49
 70
     1
102
RTVSPost2010Prop50
 90
       50
102
RTVSPost2010PropOp50
 70
     1
102
RTVSPost2010Prop51ColorIndex
 90
      256
102
RTVSPost2010Prop51ColorRGB
 90
-16777216
102
RTVSPost2010PropOp51
 70
     0
102
RTVSPost2010Prop52
140
1.0
102
RTVSPost2010PropOp52
 70
     0
102
RTVSPost2010Prop53
 90
        2
102
RTVSPost2010PropOp53
 70
     1
102
RTVSPost2010Prop54
  1
strokes_ogs.tif
102
RTVSPost2010PropOp54
 70
     1
102
RTVSPost2010Prop55
280
     0
102
RTVSPost2010PropOp55
 70
     1
102
RTVSPost2010Prop56
140
1.0
102
RTVSPost2010PropOp56
 70
     1
102
RTVSPost2010Prop57
140
1.0
102
RTVSPost2010PropOp57
 70
     1
102
RTVSPropertyOp0
 70
     1
102
RTVSPropertyOp1
 70
     1
102
RTVSPropertyOp2
 70
     1
102
RTVSPropertyOp3
 70
     1
102
RTVSPropertyOp4
 70
     1
102
RTVSPropertyOp5
 70
     1
102
RTVSPropertyOp6
 70
     1
102
RTVSPropertyOp7
 70
     1
102
RTVSPropertyOp8
 70
     1
102
RTVSPropertyOp9
 70
     1
102
RTVSPropertyOp10
 70
     1
102
RTVSPropertyOp11
 70
     1
102
RTVSPropertyOp12
 70
     1
102
RTVSPropertyOp13
 70
     1
102
RTVSPropertyOp14
 70
     1
102
RTVSPropertyOp15
 70
     1
102
RTVSPropertyOp16
 70
     1
102
RTVSPropertyOp17
 70
     1
102
RTVSPropertyOp18
 70
     1
102
RTVSPropertyOp19
 70
     1
102
RTVSPropertyOp20
 70
     1
102
RTVSPropertyOp21
 70
     1
102
RTVSPropertyOp22
 70
     1
102
RTVSPropertyOp23
 70
     1
102
RTVSPropertyOp24
 70
     1
102
RTVSPropertyOp25
 70
     1
102
RTVSPropertyOp26
 70
     1
102
RTVSPropertyOp27
 70
     1
102
RTVSPropertyOp28
 70
     1
102
RTVSPropertyOp29
 70
     1
102
RTVSPropertyOp30
 70
     1
102
RTVSPropertyOp31
 70
     1
102
RTVSPropertyOp32
 70
     1
102
RTVSPropertyOp33
 70
     1
102
RTVSPropertyOp34
 70
     1
102
RTVSPropertyOp35
 70
     1
102
RTVSPropertyOp36
 70
     1
102
RTVSPropertyOp37
 70
     1
102
RTVSPropertyOp38
 70
     1
102
RTVSPropertyOp39
 70
     1
102
RTVSPropertyOp40
 70
     1
102
RTVSPropertyOp41
 70
     1
102
RTVSPropertyOp42
 70
     1
102
RTVSPropertyOp43
 70
     1
102
RTVSPropertyOp44
 70
     1
102
RTVSPropertyOp45
 70
     1
102
RTVSPropertyOp46
 70
     1
102
RTVSPropertyOp47
 70
     1
102
RTVSPropertyOp48
 70
     1
102
RTVSPropertyOp49
 70
     1
102
RTVSPropertyOp50
 70
     1
102
RTVSPropertyOp51
 70
     0
102
RTVSPropertyOp52
 70
     0
102
RTVSPropertyOp53
 70
     1
102
RTVSPropertyOp54
 70
     1
102
RTVSPropertyOp55
 70
     1
102
RTVSPropertyOp56
 70
     1
102
RTVSPropertyOp57
 70
     1
102
RTVSPropertyOp58
 70
     1
102
RTVSPropertyOp59
 70
     1
102
RTVSPropertyOp60
 70
     1
102
RTVSPropertyOp61
 70
     1
102
RTVSPropertyOp62
 70
     1
  0
XRECORD
  5
B6CD
102
{ACAD_REACTORS
330
B6CC
102
}
330
B6CC
100
AcDbXrecord
280
     1
102
RTVSPost2010Prop28
280
     0
102
RTVSPost2010PropOp28
 70
     1
102
RTVSPost2010Prop29
280
     1
102
RTVSPost2010PropOp29
 70
     1
102
RTVSPost2010Prop30
280
     1
102
RTVSPost2010PropOp30
 70
     1
102
RTVSPost2010Prop31
280
     0
102
RTVSPost2010PropOp31
 70
     1
102
RTVSPost2010Prop32
280
     0
102
RTVSPost2010PropOp32
 70
     1
102
RTVSPost2010Prop33
280
     0
102
RTVSPost2010PropOp33
 70
     1
102
RTVSPost2010Prop34
280
     0
102
RTVSPost2010PropOp34
 70
     1
102
RTVSPost2010Prop35
280
     0
102
RTVSPost2010PropOp35
 70
     1
102
RTVSPost2010Prop36
280
     0
102
RTVSPost2010PropOp36
 70
     1
102
RTVSPost2010Prop37
 90
       50
102
RTVSPost2010PropOp37
 70
     1
102
RTVSPost2010Prop38
140
0.0
102
RTVSPost2010PropOp38
 70
     1
102
RTVSPost2010Prop39
140
1.0
102
RTVSPost2010PropOp39
 70
     1
102
RTVSPost2010Prop40
 90
        0
102
RTVSPost2010PropOp40
 70
     1
102
RTVSPost2010Prop41ColorIndex
 90
       18
102
RTVSPost2010Prop41ColorRGB
 90
        0
102
RTVSPost2010PropOp41
 70
     1
102
RTVSPost2010Prop42
 90
       50
102
RTVSPost2010PropOp42
 70
     1
102
RTVSPost2010Prop43
 90
        3
102
RTVSPost2010PropOp43
 70
     1
102
RTVSPost2010Prop44ColorIndex
 90
        5
102
RTVSPost2010Prop44ColorRGB
 90
      255
102
RTVSPost2010PropOp44
 70
     1
102
RTVSPost2010Prop45
280
     0
102
RTVSPost2010PropOp45
 70
     1
102
RTVSPost2010Prop46
 90
       50
102
RTVSPost2010PropOp46
 70
     1
102
RTVSPost2010Prop47
 90
       50
102
RTVSPost2010PropOp47
 70
     1
102
RTVSPost2010Prop48
 90
       50
102
RTVSPost2010PropOp48
 70
     1
102
RTVSPost2010Prop49
280
     0
102
RTVSPost2010PropOp49
 70
     1
102
RTVSPost2010Prop50
 90
       50
102
RTVSPost2010PropOp50
 70
     1
102
RTVSPost2010Prop51ColorIndex
 90
      256
102
RTVSPost2010Prop51ColorRGB
 90
-16777216
102
RTVSPost2010PropOp51
 70
     0
102
RTVSPost2010Prop52
140
1.0
102
RTVSPost2010PropOp52
 70
     0
102
RTVSPost2010Prop53
 90
        2
102
RTVSPost2010PropOp53
 70
     1
102
RTVSPost2010Prop54
  1
strokes_ogs.tif
102
RTVSPost2010PropOp54
 70
     1
102
RTVSPost2010Prop55
280
     0
102
RTVSPost2010PropOp55
 70
     1
102
RTVSPost2010Prop56
140
1.0
102
RTVSPost2010PropOp56
 70
     1
102
RTVSPost2010Prop57
140
1.0
102
RTVSPost2010PropOp57
 70
     1
102
RTVSPropertyOp0
 70
     1
102
RTVSPropertyOp1
 70
     1
102
RTVSPropertyOp2
 70
     1
102
RTVSPropertyOp3
 70
     1
102
RTVSPropertyOp4
 70
     1
102
RTVSPropertyOp5
 70
     1
102
RTVSPropertyOp6
 70
     1
102
RTVSPropertyOp7
 70
     1
102
RTVSPropertyOp8
 70
     1
102
RTVSPropertyOp9
 70
     1
102
RTVSPropertyOp10
 70
     1
102
RTVSPropertyOp11
 70
     1
102
RTVSPropertyOp12
 70
     1
102
RTVSPropertyOp13
 70
     1
102
RTVSPropertyOp14
 70
     1
102
RTVSPropertyOp15
 70
     1
102
RTVSPropertyOp16
 70
     1
102
RTVSPropertyOp17
 70
     1
102
RTVSPropertyOp18
 70
     1
102
RTVSPropertyOp19
 70
     1
102
RTVSPropertyOp20
 70
     1
102
RTVSPropertyOp21
 70
     1
102
RTVSPropertyOp22
 70
     1
102
RTVSPropertyOp23
 70
     1
102
RTVSPropertyOp24
 70
     1
102
RTVSPropertyOp25
 70
     1
102
RTVSPropertyOp26
 70
     1
102
RTVSPropertyOp27
 70
     1
102
RTVSPropertyOp28
 70
     1
102
RTVSPropertyOp29
 70
     1
102
RTVSPropertyOp30
 70
     1
102
RTVSPropertyOp31
 70
     1
102
RTVSPropertyOp32
 70
     1
102
RTVSPropertyOp33
 70
     1
102
RTVSPropertyOp34
 70
     1
102
RTVSPropertyOp35
 70
     1
102
RTVSPropertyOp36
 70
     1
102
RTVSPropertyOp37
 70
     1
102
RTVSPropertyOp38
 70
     1
102
RTVSPropertyOp39
 70
     1
102
RTVSPropertyOp40
 70
     1
102
RTVSPropertyOp41
 70
     1
102
RTVSPropertyOp42
 70
     1
102
RTVSPropertyOp43
 70
     1
102
RTVSPropertyOp44
 70
     1
102
RTVSPropertyOp45
 70
     1
102
RTVSPropertyOp46
 70
     1
102
RTVSPropertyOp47
 70
     1
102
RTVSPropertyOp48
 70
     1
102
RTVSPropertyOp49
 70
     1
102
RTVSPropertyOp50
 70
     1
102
RTVSPropertyOp51
 70
     0
102
RTVSPropertyOp52
 70
     0
102
RTVSPropertyOp53
 70
     1
102
RTVSPropertyOp54
 70
     1
102
RTVSPropertyOp55
 70
     1
102
RTVSPropertyOp56
 70
     1
102
RTVSPropertyOp57
 70
     1
102
RTVSPropertyOp58
 70
     1
102
RTVSPropertyOp59
 70
     1
102
RTVSPropertyOp60
 70
     1
102
RTVSPropertyOp61
 70
     1
102
RTVSPropertyOp62
 70
     1
  0
XRECORD
  5
B6BF
102
{ACAD_REACTORS
330
B6BE
102
}
330
B6BE
100
AcDbXrecord
280
     1
102
RTVSPost2010Prop28
280
     0
102
RTVSPost2010PropOp28
 70
     1
102
RTVSPost2010Prop29
280
     1
102
RTVSPost2010PropOp29
 70
     1
102
RTVSPost2010Prop30
280
     1
102
RTVSPost2010PropOp30
 70
     1
102
RTVSPost2010Prop31
280
     0
102
RTVSPost2010PropOp31
 70
     1
102
RTVSPost2010Prop32
280
     0
102
RTVSPost2010PropOp32
 70
     1
102
RTVSPost2010Prop33
280
     0
102
RTVSPost2010PropOp33
 70
     1
102
RTVSPost2010Prop34
280
     0
102
RTVSPost2010PropOp34
 70
     1
102
RTVSPost2010Prop35
280
     0
102
RTVSPost2010PropOp35
 70
     1
102
RTVSPost2010Prop36
280
     0
102
RTVSPost2010PropOp36
 70
     1
102
RTVSPost2010Prop37
 90
       50
102
RTVSPost2010PropOp37
 70
     1
102
RTVSPost2010Prop38
140
0.0
102
RTVSPost2010PropOp38
 70
     1
102
RTVSPost2010Prop39
140
1.0
102
RTVSPost2010PropOp39
 70
     1
102
RTVSPost2010Prop40
 90
        0
102
RTVSPost2010PropOp40
 70
     1
102
RTVSPost2010Prop41ColorIndex
 90
       18
102
RTVSPost2010Prop41ColorRGB
 90
        0
102
RTVSPost2010PropOp41
 70
     1
102
RTVSPost2010Prop42
 90
       50
102
RTVSPost2010PropOp42
 70
     1
102
RTVSPost2010Prop43
 90
        3
102
RTVSPost2010PropOp43
 70
     1
102
RTVSPost2010Prop44ColorIndex
 90
        5
102
RTVSPost2010Prop44ColorRGB
 90
      255
102
RTVSPost2010PropOp44
 70
     1
102
RTVSPost2010Prop45
280
     0
102
RTVSPost2010PropOp45
 70
     1
102
RTVSPost2010Prop46
 90
       50
102
RTVSPost2010PropOp46
 70
     1
102
RTVSPost2010Prop47
 90
       50
102
RTVSPost2010PropOp47
 70
     1
102
RTVSPost2010Prop48
 90
       50
102
RTVSPost2010PropOp48
 70
     1
102
RTVSPost2010Prop49
280
     0
102
RTVSPost2010PropOp49
 70
     1
102
RTVSPost2010Prop50
 90
       50
102
RTVSPost2010PropOp50
 70
     1
102
RTVSPost2010Prop51ColorIndex
 90
      256
102
RTVSPost2010Prop51ColorRGB
 90
-16777216
102
RTVSPost2010PropOp51
 70
     0
102
RTVSPost2010Prop52
140
1.0
102
RTVSPost2010PropOp52
 70
     0
102
RTVSPost2010Prop53
 90
        2
102
RTVSPost2010PropOp53
 70
     1
102
RTVSPost2010Prop54
  1
strokes_ogs.tif
102
RTVSPost2010PropOp54
 70
     1
102
RTVSPost2010Prop55
280
     0
102
RTVSPost2010PropOp55
 70
     1
102
RTVSPost2010Prop56
140
1.0
102
RTVSPost2010PropOp56
 70
     1
102
RTVSPost2010Prop57
140
1.0
102
RTVSPost2010PropOp57
 70
     1
102
RTVSPropertyOp0
 70
     1
102
RTVSPropertyOp1
 70
     1
102
RTVSPropertyOp2
 70
     1
102
RTVSPropertyOp3
 70
     1
102
RTVSPropertyOp4
 70
     1
102
RTVSPropertyOp5
 70
     1
102
RTVSPropertyOp6
 70
     1
102
RTVSPropertyOp7
 70
     1
102
RTVSPropertyOp8
 70
     1
102
RTVSPropertyOp9
 70
     1
102
RTVSPropertyOp10
 70
     1
102
RTVSPropertyOp11
 70
     1
102
RTVSPropertyOp12
 70
     1
102
RTVSPropertyOp13
 70
     1
102
RTVSPropertyOp14
 70
     1
102
RTVSPropertyOp15
 70
     1
102
RTVSPropertyOp16
 70
     1
102
RTVSPropertyOp17
 70
     1
102
RTVSPropertyOp18
 70
     1
102
RTVSPropertyOp19
 70
     1
102
RTVSPropertyOp20
 70
     1
102
RTVSPropertyOp21
 70
     1
102
RTVSPropertyOp22
 70
     1
102
RTVSPropertyOp23
 70
     1
102
RTVSPropertyOp24
 70
     1
102
RTVSPropertyOp25
 70
     1
102
RTVSPropertyOp26
 70
     1
102
RTVSPropertyOp27
 70
     1
102
RTVSPropertyOp28
 70
     1
102
RTVSPropertyOp29
 70
     1
102
RTVSPropertyOp30
 70
     1
102
RTVSPropertyOp31
 70
     1
102
RTVSPropertyOp32
 70
     1
102
RTVSPropertyOp33
 70
     1
102
RTVSPropertyOp34
 70
     1
102
RTVSPropertyOp35
 70
     1
102
RTVSPropertyOp36
 70
     1
102
RTVSPropertyOp37
 70
     1
102
RTVSPropertyOp38
 70
     1
102
RTVSPropertyOp39
 70
     1
102
RTVSPropertyOp40
 70
     1
102
RTVSPropertyOp41
 70
     1
102
RTVSPropertyOp42
 70
     1
102
RTVSPropertyOp43
 70
     1
102
RTVSPropertyOp44
 70
     1
102
RTVSPropertyOp45
 70
     1
102
RTVSPropertyOp46
 70
     1
102
RTVSPropertyOp47
 70
     1
102
RTVSPropertyOp48
 70
     1
102
RTVSPropertyOp49
 70
     1
102
RTVSPropertyOp50
 70
     1
102
RTVSPropertyOp51
 70
     0
102
RTVSPropertyOp52
 70
     0
102
RTVSPropertyOp53
 70
     1
102
RTVSPropertyOp54
 70
     1
102
RTVSPropertyOp55
 70
     1
102
RTVSPropertyOp56
 70
     1
102
RTVSPropertyOp57
 70
     1
102
RTVSPropertyOp58
 70
     1
102
RTVSPropertyOp59
 70
     1
102
RTVSPropertyOp60
 70
     1
102
RTVSPropertyOp61
 70
     1
102
RTVSPropertyOp62
 70
     1
  0
XRECORD
  5
B6C3
102
{ACAD_REACTORS
330
B6C2
102
}
330
B6C2
100
AcDbXrecord
280
     1
102
RTVSPost2010Prop28
280
     0
102
RTVSPost2010PropOp28
 70
     1
102
RTVSPost2010Prop29
280
     1
102
RTVSPost2010PropOp29
 70
     1
102
RTVSPost2010Prop30
280
     1
102
RTVSPost2010PropOp30
 70
     1
102
RTVSPost2010Prop31
280
     0
102
RTVSPost2010PropOp31
 70
     1
102
RTVSPost2010Prop32
280
     0
102
RTVSPost2010PropOp32
 70
     1
102
RTVSPost2010Prop33
280
     0
102
RTVSPost2010PropOp33
 70
     1
102
RTVSPost2010Prop34
280
     0
102
RTVSPost2010PropOp34
 70
     1
102
RTVSPost2010Prop35
280
     0
102
RTVSPost2010PropOp35
 70
     1
102
RTVSPost2010Prop36
280
     0
102
RTVSPost2010PropOp36
 70
     1
102
RTVSPost2010Prop37
 90
       50
102
RTVSPost2010PropOp37
 70
     1
102
RTVSPost2010Prop38
140
0.0
102
RTVSPost2010PropOp38
 70
     1
102
RTVSPost2010Prop39
140
1.0
102
RTVSPost2010PropOp39
 70
     1
102
RTVSPost2010Prop40
 90
        0
102
RTVSPost2010PropOp40
 70
     1
102
RTVSPost2010Prop41ColorIndex
 90
       18
102
RTVSPost2010Prop41ColorRGB
 90
        0
102
RTVSPost2010PropOp41
 70
     1
102
RTVSPost2010Prop42
 90
       50
102
RTVSPost2010PropOp42
 70
     1
102
RTVSPost2010Prop43
 90
        3
102
RTVSPost2010PropOp43
 70
     1
102
RTVSPost2010Prop44ColorIndex
 90
        5
102
RTVSPost2010Prop44ColorRGB
 90
      255
102
RTVSPost2010PropOp44
 70
     1
102
RTVSPost2010Prop45
280
     0
102
RTVSPost2010PropOp45
 70
     1
102
RTVSPost2010Prop46
 90
       50
102
RTVSPost2010PropOp46
 70
     1
102
RTVSPost2010Prop47
 90
       50
102
RTVSPost2010PropOp47
 70
     1
102
RTVSPost2010Prop48
 90
       50
102
RTVSPost2010PropOp48
 70
     1
102
RTVSPost2010Prop49
280
     0
102
RTVSPost2010PropOp49
 70
     1
102
RTVSPost2010Prop50
 90
       50
102
RTVSPost2010PropOp50
 70
     1
102
RTVSPost2010Prop51ColorIndex
 90
      256
102
RTVSPost2010Prop51ColorRGB
 90
-16777216
102
RTVSPost2010PropOp51
 70
     0
102
RTVSPost2010Prop52
140
1.0
102
RTVSPost2010PropOp52
 70
     0
102
RTVSPost2010Prop53
 90
        2
102
RTVSPost2010PropOp53
 70
     1
102
RTVSPost2010Prop54
  1
strokes_ogs.tif
102
RTVSPost2010PropOp54
 70
     1
102
RTVSPost2010Prop55
280
     0
102
RTVSPost2010PropOp55
 70
     1
102
RTVSPost2010Prop56
140
1.0
102
RTVSPost2010PropOp56
 70
     1
102
RTVSPost2010Prop57
140
1.0
102
RTVSPost2010PropOp57
 70
     1
102
RTVSPropertyOp0
 70
     1
102
RTVSPropertyOp1
 70
     1
102
RTVSPropertyOp2
 70
     1
102
RTVSPropertyOp3
 70
     1
102
RTVSPropertyOp4
 70
     1
102
RTVSPropertyOp5
 70
     1
102
RTVSPropertyOp6
 70
     1
102
RTVSPropertyOp7
 70
     1
102
RTVSPropertyOp8
 70
     1
102
RTVSPropertyOp9
 70
     1
102
RTVSPropertyOp10
 70
     1
102
RTVSPropertyOp11
 70
     1
102
RTVSPropertyOp12
 70
     1
102
RTVSPropertyOp13
 70
     1
102
RTVSPropertyOp14
 70
     1
102
RTVSPropertyOp15
 70
     1
102
RTVSPropertyOp16
 70
     1
102
RTVSPropertyOp17
 70
     1
102
RTVSPropertyOp18
 70
     1
102
RTVSPropertyOp19
 70
     1
102
RTVSPropertyOp20
 70
     1
102
RTVSPropertyOp21
 70
     1
102
RTVSPropertyOp22
 70
     1
102
RTVSPropertyOp23
 70
     1
102
RTVSPropertyOp24
 70
     1
102
RTVSPropertyOp25
 70
     1
102
RTVSPropertyOp26
 70
     1
102
RTVSPropertyOp27
 70
     1
102
RTVSPropertyOp28
 70
     1
102
RTVSPropertyOp29
 70
     1
102
RTVSPropertyOp30
 70
     1
102
RTVSPropertyOp31
 70
     1
102
RTVSPropertyOp32
 70
     1
102
RTVSPropertyOp33
 70
     1
102
RTVSPropertyOp34
 70
     1
102
RTVSPropertyOp35
 70
     1
102
RTVSPropertyOp36
 70
     1
102
RTVSPropertyOp37
 70
     1
102
RTVSPropertyOp38
 70
     1
102
RTVSPropertyOp39
 70
     1
102
RTVSPropertyOp40
 70
     1
102
RTVSPropertyOp41
 70
     1
102
RTVSPropertyOp42
 70
     1
102
RTVSPropertyOp43
 70
     1
102
RTVSPropertyOp44
 70
     1
102
RTVSPropertyOp45
 70
     1
102
RTVSPropertyOp46
 70
     1
102
RTVSPropertyOp47
 70
     1
102
RTVSPropertyOp48
 70
     1
102
RTVSPropertyOp49
 70
     1
102
RTVSPropertyOp50
 70
     1
102
RTVSPropertyOp51
 70
     0
102
RTVSPropertyOp52
 70
     0
102
RTVSPropertyOp53
 70
     1
102
RTVSPropertyOp54
 70
     1
102
RTVSPropertyOp55
 70
     1
102
RTVSPropertyOp56
 70
     1
102
RTVSPropertyOp57
 70
     1
102
RTVSPropertyOp58
 70
     1
102
RTVSPropertyOp59
 70
     1
102
RTVSPropertyOp60
 70
     1
102
RTVSPropertyOp61
 70
     1
102
RTVSPropertyOp62
 70
     1
  0
XRECORD
  5
B6DD
102
{ACAD_REACTORS
330
B6DC
102
}
330
B6DC
100
AcDbXrecord
280
     1
102
RTVSPost2010Prop28
280
     0
102
RTVSPost2010PropOp28
 70
     0
102
RTVSPost2010Prop29
280
     1
102
RTVSPost2010PropOp29
 70
     0
102
RTVSPost2010Prop30
280
     1
102
RTVSPost2010PropOp30
 70
     0
102
RTVSPost2010Prop31
280
     0
102
RTVSPost2010PropOp31
 70
     0
102
RTVSPost2010Prop32
280
     0
102
RTVSPost2010PropOp32
 70
     0
102
RTVSPost2010Prop33
280
     0
102
RTVSPost2010PropOp33
 70
     0
102
RTVSPost2010Prop34
280
     0
102
RTVSPost2010PropOp34
 70
     0
102
RTVSPost2010Prop35
280
     0
102
RTVSPost2010PropOp35
 70
     0
102
RTVSPost2010Prop36
280
     0
102
RTVSPost2010PropOp36
 70
     0
102
RTVSPost2010Prop37
 90
       50
102
RTVSPost2010PropOp37
 70
     0
102
RTVSPost2010Prop38
140
0.0
102
RTVSPost2010PropOp38
 70
     0
102
RTVSPost2010Prop39
140
1.0
102
RTVSPost2010PropOp39
 70
     0
102
RTVSPost2010Prop40
 90
        0
102
RTVSPost2010PropOp40
 70
     0
102
RTVSPost2010Prop41ColorIndex
 90
       18
102
RTVSPost2010Prop41ColorRGB
 90
        0
102
RTVSPost2010PropOp41
 70
     0
102
RTVSPost2010Prop42
 90
       50
102
RTVSPost2010PropOp42
 70
     0
102
RTVSPost2010Prop43
 90
        3
102
RTVSPost2010PropOp43
 70
     0
102
RTVSPost2010Prop44ColorIndex
 90
        5
102
RTVSPost2010Prop44ColorRGB
 90
      255
102
RTVSPost2010PropOp44
 70
     0
102
RTVSPost2010Prop45
280
     0
102
RTVSPost2010PropOp45
 70
     0
102
RTVSPost2010Prop46
 90
       50
102
RTVSPost2010PropOp46
 70
     0
102
RTVSPost2010Prop47
 90
       50
102
RTVSPost2010PropOp47
 70
     0
102
RTVSPost2010Prop48
 90
       50
102
RTVSPost2010PropOp48
 70
     0
102
RTVSPost2010Prop49
280
     0
102
RTVSPost2010PropOp49
 70
     0
102
RTVSPost2010Prop50
 90
       50
102
RTVSPost2010PropOp50
 70
     0
102
RTVSPost2010Prop51ColorIndex
 90
      256
102
RTVSPost2010Prop51ColorRGB
 90
-16777216
102
RTVSPost2010PropOp51
 70
     0
102
RTVSPost2010Prop52
140
1.0
102
RTVSPost2010PropOp52
 70
     0
102
RTVSPost2010Prop53
 90
        2
102
RTVSPost2010PropOp53
 70
     0
102
RTVSPost2010Prop54
  1
strokes_ogs.tif
102
RTVSPost2010PropOp54
 70
     0
102
RTVSPost2010Prop55
280
     0
102
RTVSPost2010PropOp55
 70
     0
102
RTVSPost2010Prop56
140
1.0
102
RTVSPost2010PropOp56
 70
     0
102
RTVSPost2010Prop57
140
1.0
102
RTVSPost2010PropOp57
 70
     0
102
RTVSPropertyOp0
 70
     0
102
RTVSPropertyOp1
 70
     0
102
RTVSPropertyOp2
 70
     0
102
RTVSPropertyOp3
 70
     0
102
RTVSPropertyOp4
 70
     0
102
RTVSPropertyOp5
 70
     0
102
RTVSPropertyOp6
 70
     0
102
RTVSPropertyOp7
 70
     0
102
RTVSPropertyOp8
 70
     0
102
RTVSPropertyOp9
 70
     0
102
RTVSPropertyOp10
 70
     0
102
RTVSPropertyOp11
 70
     0
102
RTVSPropertyOp12
 70
     0
102
RTVSPropertyOp13
 70
     0
102
RTVSPropertyOp14
 70
     2
102
RTVSPropertyOp15
 70
     0
102
RTVSPropertyOp16
 70
     0
102
RTVSPropertyOp17
 70
     0
102
RTVSPropertyOp18
 70
     0
102
RTVSPropertyOp19
 70
     0
102
RTVSPropertyOp20
 70
     0
102
RTVSPropertyOp21
 70
     0
102
RTVSPropertyOp22
 70
     0
102
RTVSPropertyOp23
 70
     0
102
RTVSPropertyOp24
 70
     0
102
RTVSPropertyOp25
 70
     0
102
RTVSPropertyOp26
 70
     0
102
RTVSPropertyOp27
 70
     0
102
RTVSPropertyOp28
 70
     0
102
RTVSPropertyOp29
 70
     0
102
RTVSPropertyOp30
 70
     0
102
RTVSPropertyOp31
 70
     0
102
RTVSPropertyOp32
 70
     0
102
RTVSPropertyOp33
 70
     0
102
RTVSPropertyOp34
 70
     0
102
RTVSPropertyOp35
 70
     0
102
RTVSPropertyOp36
 70
     0
102
RTVSPropertyOp37
 70
     0
102
RTVSPropertyOp38
 70
     0
102
RTVSPropertyOp39
 70
     0
102
RTVSPropertyOp40
 70
     0
102
RTVSPropertyOp41
 70
     0
102
RTVSPropertyOp42
 70
     0
102
RTVSPropertyOp43
 70
     0
102
RTVSPropertyOp44
 70
     0
102
RTVSPropertyOp45
 70
     0
102
RTVSPropertyOp46
 70
     0
102
RTVSPropertyOp47
 70
     0
102
RTVSPropertyOp48
 70
     0
102
RTVSPropertyOp49
 70
     0
102
RTVSPropertyOp50
 70
     0
102
RTVSPropertyOp51
 70
     0
102
RTVSPropertyOp52
 70
     0
102
RTVSPropertyOp53
 70
     0
102
RTVSPropertyOp54
 70
     0
102
RTVSPropertyOp55
 70
     0
102
RTVSPropertyOp56
 70
     0
102
RTVSPropertyOp57
 70
     0
102
RTVSPropertyOp58
 70
     1
102
RTVSPropertyOp59
 70
     1
102
RTVSPropertyOp60
 70
     1
102
RTVSPropertyOp61
 70
     1
102
RTVSPropertyOp62
 70
     1
  0
XRECORD
  5
B6CB
102
{ACAD_REACTORS
330
B6CA
102
}
330
B6CA
100
AcDbXrecord
280
     1
102
RTVSPost2010Prop28
280
     0
102
RTVSPost2010PropOp28
 70
     1
102
RTVSPost2010Prop29
280
     1
102
RTVSPost2010PropOp29
 70
     1
102
RTVSPost2010Prop30
280
     1
102
RTVSPost2010PropOp30
 70
     1
102
RTVSPost2010Prop31
280
     0
102
RTVSPost2010PropOp31
 70
     1
102
RTVSPost2010Prop32
280
     0
102
RTVSPost2010PropOp32
 70
     1
102
RTVSPost2010Prop33
280
     0
102
RTVSPost2010PropOp33
 70
     1
102
RTVSPost2010Prop34
280
     0
102
RTVSPost2010PropOp34
 70
     1
102
RTVSPost2010Prop35
280
     0
102
RTVSPost2010PropOp35
 70
     1
102
RTVSPost2010Prop36
280
     0
102
RTVSPost2010PropOp36
 70
     1
102
RTVSPost2010Prop37
 90
       50
102
RTVSPost2010PropOp37
 70
     1
102
RTVSPost2010Prop38
140
0.0
102
RTVSPost2010PropOp38
 70
     1
102
RTVSPost2010Prop39
140
1.0
102
RTVSPost2010PropOp39
 70
     1
102
RTVSPost2010Prop40
 90
        0
102
RTVSPost2010PropOp40
 70
     1
102
RTVSPost2010Prop41ColorIndex
 90
       18
102
RTVSPost2010Prop41ColorRGB
 90
        0
102
RTVSPost2010PropOp41
 70
     1
102
RTVSPost2010Prop42
 90
       50
102
RTVSPost2010PropOp42
 70
     1
102
RTVSPost2010Prop43
 90
        3
102
RTVSPost2010PropOp43
 70
     1
102
RTVSPost2010Prop44ColorIndex
 90
        5
102
RTVSPost2010Prop44ColorRGB
 90
      255
102
RTVSPost2010PropOp44
 70
     1
102
RTVSPost2010Prop45
280
     0
102
RTVSPost2010PropOp45
 70
     1
102
RTVSPost2010Prop46
 90
       50
102
RTVSPost2010PropOp46
 70
     1
102
RTVSPost2010Prop47
 90
       50
102
RTVSPost2010PropOp47
 70
     1
102
RTVSPost2010Prop48
 90
       50
102
RTVSPost2010PropOp48
 70
     1
102
RTVSPost2010Prop49
280
     0
102
RTVSPost2010PropOp49
 70
     1
102
RTVSPost2010Prop50
 90
       50
102
RTVSPost2010PropOp50
 70
     1
102
RTVSPost2010Prop51ColorIndex
 90
      256
102
RTVSPost2010Prop51ColorRGB
 90
-16777216
102
RTVSPost2010PropOp51
 70
     0
102
RTVSPost2010Prop52
140
1.0
102
RTVSPost2010PropOp52
 70
     0
102
RTVSPost2010Prop53
 90
        2
102
RTVSPost2010PropOp53
 70
     1
102
RTVSPost2010Prop54
  1
strokes_ogs.tif
102
RTVSPost2010PropOp54
 70
     1
102
RTVSPost2010Prop55
280
     0
102
RTVSPost2010PropOp55
 70
     1
102
RTVSPost2010Prop56
140
1.0
102
RTVSPost2010PropOp56
 70
     1
102
RTVSPost2010Prop57
140
1.0
102
RTVSPost2010PropOp57
 70
     1
102
RTVSPropertyOp0
 70
     1
102
RTVSPropertyOp1
 70
     1
102
RTVSPropertyOp2
 70
     1
102
RTVSPropertyOp3
 70
     1
102
RTVSPropertyOp4
 70
     1
102
RTVSPropertyOp5
 70
     1
102
RTVSPropertyOp6
 70
     1
102
RTVSPropertyOp7
 70
     1
102
RTVSPropertyOp8
 70
     1
102
RTVSPropertyOp9
 70
     1
102
RTVSPropertyOp10
 70
     1
102
RTVSPropertyOp11
 70
     1
102
RTVSPropertyOp12
 70
     1
102
RTVSPropertyOp13
 70
     1
102
RTVSPropertyOp14
 70
     1
102
RTVSPropertyOp15
 70
     1
102
RTVSPropertyOp16
 70
     1
102
RTVSPropertyOp17
 70
     1
102
RTVSPropertyOp18
 70
     1
102
RTVSPropertyOp19
 70
     1
102
RTVSPropertyOp20
 70
     1
102
RTVSPropertyOp21
 70
     1
102
RTVSPropertyOp22
 70
     1
102
RTVSPropertyOp23
 70
     1
102
RTVSPropertyOp24
 70
     1
102
RTVSPropertyOp25
 70
     1
102
RTVSPropertyOp26
 70
     1
102
RTVSPropertyOp27
 70
     1
102
RTVSPropertyOp28
 70
     1
102
RTVSPropertyOp29
 70
     1
102
RTVSPropertyOp30
 70
     1
102
RTVSPropertyOp31
 70
     1
102
RTVSPropertyOp32
 70
     1
102
RTVSPropertyOp33
 70
     1
102
RTVSPropertyOp34
 70
     1
102
RTVSPropertyOp35
 70
     1
102
RTVSPropertyOp36
 70
     1
102
RTVSPropertyOp37
 70
     1
102
RTVSPropertyOp38
 70
     1
102
RTVSPropertyOp39
 70
     1
102
RTVSPropertyOp40
 70
     1
102
RTVSPropertyOp41
 70
     1
102
RTVSPropertyOp42
 70
     1
102
RTVSPropertyOp43
 70
     1
102
RTVSPropertyOp44
 70
     1
102
RTVSPropertyOp45
 70
     1
102
RTVSPropertyOp46
 70
     1
102
RTVSPropertyOp47
 70
     1
102
RTVSPropertyOp48
 70
     1
102
RTVSPropertyOp49
 70
     1
102
RTVSPropertyOp50
 70
     1
102
RTVSPropertyOp51
 70
     0
102
RTVSPropertyOp52
 70
     0
102
RTVSPropertyOp53
 70
     1
102
RTVSPropertyOp54
 70
     1
102
RTVSPropertyOp55
 70
     1
102
RTVSPropertyOp56
 70
     1
102
RTVSPropertyOp57
 70
     1
102
RTVSPropertyOp58
 70
     1
102
RTVSPropertyOp59
 70
     1
102
RTVSPropertyOp60
 70
     1
102
RTVSPropertyOp61
 70
     1
102
RTVSPropertyOp62
 70
     1
  0
XRECORD
  5
B6AF
102
{ACAD_REACTORS
330
B6AE
102
}
330
B6AE
100
AcDbXrecord
280
     1
102
RTVSPost2010Prop28
280
     0
102
RTVSPost2010PropOp28
 70
     1
102
RTVSPost2010Prop29
280
     1
102
RTVSPost2010PropOp29
 70
     1
102
RTVSPost2010Prop30
280
     1
102
RTVSPost2010PropOp30
 70
     1
102
RTVSPost2010Prop31
280
     0
102
RTVSPost2010PropOp31
 70
     1
102
RTVSPost2010Prop32
280
     0
102
RTVSPost2010PropOp32
 70
     1
102
RTVSPost2010Prop33
280
     0
102
RTVSPost2010PropOp33
 70
     1
102
RTVSPost2010Prop34
280
     0
102
RTVSPost2010PropOp34
 70
     1
102
RTVSPost2010Prop35
280
     0
102
RTVSPost2010PropOp35
 70
     1
102
RTVSPost2010Prop36
280
     0
102
RTVSPost2010PropOp36
 70
     1
102
RTVSPost2010Prop37
 90
       50
102
RTVSPost2010PropOp37
 70
     1
102
RTVSPost2010Prop38
140
0.0
102
RTVSPost2010PropOp38
 70
     1
102
RTVSPost2010Prop39
140
1.0
102
RTVSPost2010PropOp39
 70
     1
102
RTVSPost2010Prop40
 90
        0
102
RTVSPost2010PropOp40
 70
     1
102
RTVSPost2010Prop41ColorIndex
 90
       18
102
RTVSPost2010Prop41ColorRGB
 90
        0
102
RTVSPost2010PropOp41
 70
     1
102
RTVSPost2010Prop42
 90
       50
102
RTVSPost2010PropOp42
 70
     1
102
RTVSPost2010Prop43
 90
        3
102
RTVSPost2010PropOp43
 70
     1
102
RTVSPost2010Prop44ColorIndex
 90
        5
102
RTVSPost2010Prop44ColorRGB
 90
      255
102
RTVSPost2010PropOp44
 70
     1
102
RTVSPost2010Prop45
280
     0
102
RTVSPost2010PropOp45
 70
     1
102
RTVSPost2010Prop46
 90
       50
102
RTVSPost2010PropOp46
 70
     1
102
RTVSPost2010Prop47
 90
       50
102
RTVSPost2010PropOp47
 70
     1
102
RTVSPost2010Prop48
 90
       50
102
RTVSPost2010PropOp48
 70
     1
102
RTVSPost2010Prop49
280
     0
102
RTVSPost2010PropOp49
 70
     1
102
RTVSPost2010Prop50
 90
       50
102
RTVSPost2010PropOp50
 70
     1
102
RTVSPost2010Prop51ColorIndex
 90
      256
102
RTVSPost2010Prop51ColorRGB
 90
-16777216
102
RTVSPost2010PropOp51
 70
     0
102
RTVSPost2010Prop52
140
1.0
102
RTVSPost2010PropOp52
 70
     0
102
RTVSPost2010Prop53
 90
        2
102
RTVSPost2010PropOp53
 70
     1
102
RTVSPost2010Prop54
  1
strokes_ogs.tif
102
RTVSPost2010PropOp54
 70
     1
102
RTVSPost2010Prop55
280
     0
102
RTVSPost2010PropOp55
 70
     1
102
RTVSPost2010Prop56
140
1.0
102
RTVSPost2010PropOp56
 70
     1
102
RTVSPost2010Prop57
140
1.0
102
RTVSPost2010PropOp57
 70
     1
102
RTVSPropertyOp0
 70
     1
102
RTVSPropertyOp1
 70
     1
102
RTVSPropertyOp2
 70
     1
102
RTVSPropertyOp3
 70
     1
102
RTVSPropertyOp4
 70
     1
102
RTVSPropertyOp5
 70
     1
102
RTVSPropertyOp6
 70
     1
102
RTVSPropertyOp7
 70
     1
102
RTVSPropertyOp8
 70
     1
102
RTVSPropertyOp9
 70
     1
102
RTVSPropertyOp10
 70
     1
102
RTVSPropertyOp11
 70
     1
102
RTVSPropertyOp12
 70
     1
102
RTVSPropertyOp13
 70
     1
102
RTVSPropertyOp14
 70
     1
102
RTVSPropertyOp15
 70
     1
102
RTVSPropertyOp16
 70
     1
102
RTVSPropertyOp17
 70
     1
102
RTVSPropertyOp18
 70
     1
102
RTVSPropertyOp19
 70
     1
102
RTVSPropertyOp20
 70
     1
102
RTVSPropertyOp21
 70
     1
102
RTVSPropertyOp22
 70
     1
102
RTVSPropertyOp23
 70
     1
102
RTVSPropertyOp24
 70
     1
102
RTVSPropertyOp25
 70
     1
102
RTVSPropertyOp26
 70
     1
102
RTVSPropertyOp27
 70
     1
102
RTVSPropertyOp28
 70
     1
102
RTVSPropertyOp29
 70
     1
102
RTVSPropertyOp30
 70
     1
102
RTVSPropertyOp31
 70
     1
102
RTVSPropertyOp32
 70
     1
102
RTVSPropertyOp33
 70
     1
102
RTVSPropertyOp34
 70
     1
102
RTVSPropertyOp35
 70
     1
102
RTVSPropertyOp36
 70
     1
102
RTVSPropertyOp37
 70
     1
102
RTVSPropertyOp38
 70
     1
102
RTVSPropertyOp39
 70
     1
102
RTVSPropertyOp40
 70
     1
102
RTVSPropertyOp41
 70
     1
102
RTVSPropertyOp42
 70
     1
102
RTVSPropertyOp43
 70
     1
102
RTVSPropertyOp44
 70
     1
102
RTVSPropertyOp45
 70
     1
102
RTVSPropertyOp46
 70
     1
102
RTVSPropertyOp47
 70
     1
102
RTVSPropertyOp48
 70
     1
102
RTVSPropertyOp49
 70
     1
102
RTVSPropertyOp50
 70
     1
102
RTVSPropertyOp51
 70
     0
102
RTVSPropertyOp52
 70
     0
102
RTVSPropertyOp53
 70
     1
102
RTVSPropertyOp54
 70
     1
102
RTVSPropertyOp55
 70
     1
102
RTVSPropertyOp56
 70
     1
102
RTVSPropertyOp57
 70
     1
102
RTVSPropertyOp58
 70
     1
102
RTVSPropertyOp59
 70
     1
102
RTVSPropertyOp60
 70
     1
102
RTVSPropertyOp61
 70
     1
102
RTVSPropertyOp62
 70
     1
  0
XRECORD
  5
B6B1
102
{ACAD_REACTORS
330
B6B0
102
}
330
B6B0
100
AcDbXrecord
280
     1
102
RTVSPost2010Prop28
280
     0
102
RTVSPost2010PropOp28
 70
     1
102
RTVSPost2010Prop29
280
     1
102
RTVSPost2010PropOp29
 70
     1
102
RTVSPost2010Prop30
280
     1
102
RTVSPost2010PropOp30
 70
     1
102
RTVSPost2010Prop31
280
     0
102
RTVSPost2010PropOp31
 70
     1
102
RTVSPost2010Prop32
280
     0
102
RTVSPost2010PropOp32
 70
     1
102
RTVSPost2010Prop33
280
     0
102
RTVSPost2010PropOp33
 70
     1
102
RTVSPost2010Prop34
280
     0
102
RTVSPost2010PropOp34
 70
     1
102
RTVSPost2010Prop35
280
     0
102
RTVSPost2010PropOp35
 70
     1
102
RTVSPost2010Prop36
280
     0
102
RTVSPost2010PropOp36
 70
     1
102
RTVSPost2010Prop37
 90
       50
102
RTVSPost2010PropOp37
 70
     1
102
RTVSPost2010Prop38
140
0.0
102
RTVSPost2010PropOp38
 70
     1
102
RTVSPost2010Prop39
140
1.0
102
RTVSPost2010PropOp39
 70
     1
102
RTVSPost2010Prop40
 90
        0
102
RTVSPost2010PropOp40
 70
     1
102
RTVSPost2010Prop41ColorIndex
 90
       18
102
RTVSPost2010Prop41ColorRGB
 90
        0
102
RTVSPost2010PropOp41
 70
     1
102
RTVSPost2010Prop42
 90
       50
102
RTVSPost2010PropOp42
 70
     1
102
RTVSPost2010Prop43
 90
        3
102
RTVSPost2010PropOp43
 70
     1
102
RTVSPost2010Prop44ColorIndex
 90
        5
102
RTVSPost2010Prop44ColorRGB
 90
      255
102
RTVSPost2010PropOp44
 70
     1
102
RTVSPost2010Prop45
280
     0
102
RTVSPost2010PropOp45
 70
     1
102
RTVSPost2010Prop46
 90
       50
102
RTVSPost2010PropOp46
 70
     1
102
RTVSPost2010Prop47
 90
       50
102
RTVSPost2010PropOp47
 70
     1
102
RTVSPost2010Prop48
 90
       50
102
RTVSPost2010PropOp48
 70
     1
102
RTVSPost2010Prop49
280
     0
102
RTVSPost2010PropOp49
 70
     1
102
RTVSPost2010Prop50
 90
       50
102
RTVSPost2010PropOp50
 70
     1
102
RTVSPost2010Prop51ColorIndex
 90
      256
102
RTVSPost2010Prop51ColorRGB
 90
-16777216
102
RTVSPost2010PropOp51
 70
     0
102
RTVSPost2010Prop52
140
1.0
102
RTVSPost2010PropOp52
 70
     0
102
RTVSPost2010Prop53
 90
        2
102
RTVSPost2010PropOp53
 70
     1
102
RTVSPost2010Prop54
  1
strokes_ogs.tif
102
RTVSPost2010PropOp54
 70
     1
102
RTVSPost2010Prop55
280
     0
102
RTVSPost2010PropOp55
 70
     1
102
RTVSPost2010Prop56
140
1.0
102
RTVSPost2010PropOp56
 70
     1
102
RTVSPost2010Prop57
140
1.0
102
RTVSPost2010PropOp57
 70
     1
102
RTVSPropertyOp0
 70
     1
102
RTVSPropertyOp1
 70
     1
102
RTVSPropertyOp2
 70
     1
102
RTVSPropertyOp3
 70
     1
102
RTVSPropertyOp4
 70
     1
102
RTVSPropertyOp5
 70
     1
102
RTVSPropertyOp6
 70
     1
102
RTVSPropertyOp7
 70
     1
102
RTVSPropertyOp8
 70
     1
102
RTVSPropertyOp9
 70
     1
102
RTVSPropertyOp10
 70
     1
102
RTVSPropertyOp11
 70
     1
102
RTVSPropertyOp12
 70
     1
102
RTVSPropertyOp13
 70
     1
102
RTVSPropertyOp14
 70
     1
102
RTVSPropertyOp15
 70
     1
102
RTVSPropertyOp16
 70
     1
102
RTVSPropertyOp17
 70
     1
102
RTVSPropertyOp18
 70
     1
102
RTVSPropertyOp19
 70
     1
102
RTVSPropertyOp20
 70
     1
102
RTVSPropertyOp21
 70
     1
102
RTVSPropertyOp22
 70
     1
102
RTVSPropertyOp23
 70
     1
102
RTVSPropertyOp24
 70
     1
102
RTVSPropertyOp25
 70
     1
102
RTVSPropertyOp26
 70
     1
102
RTVSPropertyOp27
 70
     1
102
RTVSPropertyOp28
 70
     1
102
RTVSPropertyOp29
 70
     1
102
RTVSPropertyOp30
 70
     1
102
RTVSPropertyOp31
 70
     1
102
RTVSPropertyOp32
 70
     1
102
RTVSPropertyOp33
 70
     1
102
RTVSPropertyOp34
 70
     1
102
RTVSPropertyOp35
 70
     1
102
RTVSPropertyOp36
 70
     1
102
RTVSPropertyOp37
 70
     1
102
RTVSPropertyOp38
 70
     1
102
RTVSPropertyOp39
 70
     1
102
RTVSPropertyOp40
 70
     1
102
RTVSPropertyOp41
 70
     1
102
RTVSPropertyOp42
 70
     1
102
RTVSPropertyOp43
 70
     1
102
RTVSPropertyOp44
 70
     1
102
RTVSPropertyOp45
 70
     1
102
RTVSPropertyOp46
 70
     1
102
RTVSPropertyOp47
 70
     1
102
RTVSPropertyOp48
 70
     1
102
RTVSPropertyOp49
 70
     1
102
RTVSPropertyOp50
 70
     1
102
RTVSPropertyOp51
 70
     0
102
RTVSPropertyOp52
 70
     0
102
RTVSPropertyOp53
 70
     1
102
RTVSPropertyOp54
 70
     1
102
RTVSPropertyOp55
 70
     1
102
RTVSPropertyOp56
 70
     1
102
RTVSPropertyOp57
 70
     1
102
RTVSPropertyOp58
 70
     1
102
RTVSPropertyOp59
 70
     1
102
RTVSPropertyOp60
 70
     1
102
RTVSPropertyOp61
 70
     1
102
RTVSPropertyOp62
 70
     1
  0
XRECORD
  5
B6B3
102
{ACAD_REACTORS
330
B6B2
102
}
330
B6B2
100
AcDbXrecord
280
     1
102
RTVSPost2010Prop28
280
     0
102
RTVSPost2010PropOp28
 70
     1
102
RTVSPost2010Prop29
280
     1
102
RTVSPost2010PropOp29
 70
     1
102
RTVSPost2010Prop30
280
     1
102
RTVSPost2010PropOp30
 70
     1
102
RTVSPost2010Prop31
280
     0
102
RTVSPost2010PropOp31
 70
     1
102
RTVSPost2010Prop32
280
     0
102
RTVSPost2010PropOp32
 70
     1
102
RTVSPost2010Prop33
280
     0
102
RTVSPost2010PropOp33
 70
     1
102
RTVSPost2010Prop34
280
     0
102
RTVSPost2010PropOp34
 70
     1
102
RTVSPost2010Prop35
280
     0
102
RTVSPost2010PropOp35
 70
     1
102
RTVSPost2010Prop36
280
     0
102
RTVSPost2010PropOp36
 70
     1
102
RTVSPost2010Prop37
 90
       50
102
RTVSPost2010PropOp37
 70
     1
102
RTVSPost2010Prop38
140
0.0
102
RTVSPost2010PropOp38
 70
     1
102
RTVSPost2010Prop39
140
1.0
102
RTVSPost2010PropOp39
 70
     1
102
RTVSPost2010Prop40
 90
        0
102
RTVSPost2010PropOp40
 70
     1
102
RTVSPost2010Prop41ColorIndex
 90
       18
102
RTVSPost2010Prop41ColorRGB
 90
        0
102
RTVSPost2010PropOp41
 70
     1
102
RTVSPost2010Prop42
 90
       50
102
RTVSPost2010PropOp42
 70
     1
102
RTVSPost2010Prop43
 90
        3
102
RTVSPost2010PropOp43
 70
     1
102
RTVSPost2010Prop44ColorIndex
 90
        5
102
RTVSPost2010Prop44ColorRGB
 90
      255
102
RTVSPost2010PropOp44
 70
     1
102
RTVSPost2010Prop45
280
     0
102
RTVSPost2010PropOp45
 70
     1
102
RTVSPost2010Prop46
 90
       50
102
RTVSPost2010PropOp46
 70
     1
102
RTVSPost2010Prop47
 90
       50
102
RTVSPost2010PropOp47
 70
     1
102
RTVSPost2010Prop48
 90
       50
102
RTVSPost2010PropOp48
 70
     1
102
RTVSPost2010Prop49
280
     0
102
RTVSPost2010PropOp49
 70
     1
102
RTVSPost2010Prop50
 90
       50
102
RTVSPost2010PropOp50
 70
     1
102
RTVSPost2010Prop51ColorIndex
 90
      256
102
RTVSPost2010Prop51ColorRGB
 90
-16777216
102
RTVSPost2010PropOp51
 70
     0
102
RTVSPost2010Prop52
140
1.0
102
RTVSPost2010PropOp52
 70
     0
102
RTVSPost2010Prop53
 90
        2
102
RTVSPost2010PropOp53
 70
     1
102
RTVSPost2010Prop54
  1
strokes_ogs.tif
102
RTVSPost2010PropOp54
 70
     1
102
RTVSPost2010Prop55
280
     0
102
RTVSPost2010PropOp55
 70
     1
102
RTVSPost2010Prop56
140
1.0
102
RTVSPost2010PropOp56
 70
     1
102
RTVSPost2010Prop57
140
1.0
102
RTVSPost2010PropOp57
 70
     1
102
RTVSPropertyOp0
 70
     1
102
RTVSPropertyOp1
 70
     1
102
RTVSPropertyOp2
 70
     1
102
RTVSPropertyOp3
 70
     1
102
RTVSPropertyOp4
 70
     1
102
RTVSPropertyOp5
 70
     1
102
RTVSPropertyOp6
 70
     1
102
RTVSPropertyOp7
 70
     1
102
RTVSPropertyOp8
 70
     1
102
RTVSPropertyOp9
 70
     1
102
RTVSPropertyOp10
 70
     1
102
RTVSPropertyOp11
 70
     1
102
RTVSPropertyOp12
 70
     1
102
RTVSPropertyOp13
 70
     1
102
RTVSPropertyOp14
 70
     1
102
RTVSPropertyOp15
 70
     1
102
RTVSPropertyOp16
 70
     1
102
RTVSPropertyOp17
 70
     1
102
RTVSPropertyOp18
 70
     1
102
RTVSPropertyOp19
 70
     1
102
RTVSPropertyOp20
 70
     1
102
RTVSPropertyOp21
 70
     1
102
RTVSPropertyOp22
 70
     1
102
RTVSPropertyOp23
 70
     1
102
RTVSPropertyOp24
 70
     1
102
RTVSPropertyOp25
 70
     1
102
RTVSPropertyOp26
 70
     1
102
RTVSPropertyOp27
 70
     1
102
RTVSPropertyOp28
 70
     1
102
RTVSPropertyOp29
 70
     1
102
RTVSPropertyOp30
 70
     1
102
RTVSPropertyOp31
 70
     1
102
RTVSPropertyOp32
 70
     1
102
RTVSPropertyOp33
 70
     1
102
RTVSPropertyOp34
 70
     1
102
RTVSPropertyOp35
 70
     1
102
RTVSPropertyOp36
 70
     1
102
RTVSPropertyOp37
 70
     1
102
RTVSPropertyOp38
 70
     1
102
RTVSPropertyOp39
 70
     1
102
RTVSPropertyOp40
 70
     1
102
RTVSPropertyOp41
 70
     1
102
RTVSPropertyOp42
 70
     1
102
RTVSPropertyOp43
 70
     1
102
RTVSPropertyOp44
 70
     1
102
RTVSPropertyOp45
 70
     1
102
RTVSPropertyOp46
 70
     1
102
RTVSPropertyOp47
 70
     1
102
RTVSPropertyOp48
 70
     1
102
RTVSPropertyOp49
 70
     1
102
RTVSPropertyOp50
 70
     1
102
RTVSPropertyOp51
 70
     0
102
RTVSPropertyOp52
 70
     0
102
RTVSPropertyOp53
 70
     1
102
RTVSPropertyOp54
 70
     1
102
RTVSPropertyOp55
 70
     1
102
RTVSPropertyOp56
 70
     1
102
RTVSPropertyOp57
 70
     1
102
RTVSPropertyOp58
 70
     1
102
RTVSPropertyOp59
 70
     1
102
RTVSPropertyOp60
 70
     1
102
RTVSPropertyOp61
 70
     1
102
RTVSPropertyOp62
 70
     1
  0
XRECORD
  5
B6B5
102
{ACAD_REACTORS
330
B6B4
102
}
330
B6B4
100
AcDbXrecord
280
     1
102
RTVSPost2010Prop28
280
     0
102
RTVSPost2010PropOp28
 70
     1
102
RTVSPost2010Prop29
280
     1
102
RTVSPost2010PropOp29
 70
     1
102
RTVSPost2010Prop30
280
     1
102
RTVSPost2010PropOp30
 70
     1
102
RTVSPost2010Prop31
280
     0
102
RTVSPost2010PropOp31
 70
     1
102
RTVSPost2010Prop32
280
     0
102
RTVSPost2010PropOp32
 70
     1
102
RTVSPost2010Prop33
280
     0
102
RTVSPost2010PropOp33
 70
     1
102
RTVSPost2010Prop34
280
     0
102
RTVSPost2010PropOp34
 70
     1
102
RTVSPost2010Prop35
280
     0
102
RTVSPost2010PropOp35
 70
     1
102
RTVSPost2010Prop36
280
     0
102
RTVSPost2010PropOp36
 70
     1
102
RTVSPost2010Prop37
 90
       50
102
RTVSPost2010PropOp37
 70
     1
102
RTVSPost2010Prop38
140
0.0
102
RTVSPost2010PropOp38
 70
     1
102
RTVSPost2010Prop39
140
1.0
102
RTVSPost2010PropOp39
 70
     1
102
RTVSPost2010Prop40
 90
        0
102
RTVSPost2010PropOp40
 70
     1
102
RTVSPost2010Prop41ColorIndex
 90
       18
102
RTVSPost2010Prop41ColorRGB
 90
        0
102
RTVSPost2010PropOp41
 70
     1
102
RTVSPost2010Prop42
 90
       50
102
RTVSPost2010PropOp42
 70
     1
102
RTVSPost2010Prop43
 90
        3
102
RTVSPost2010PropOp43
 70
     1
102
RTVSPost2010Prop44ColorIndex
 90
        5
102
RTVSPost2010Prop44ColorRGB
 90
      255
102
RTVSPost2010PropOp44
 70
     1
102
RTVSPost2010Prop45
280
     0
102
RTVSPost2010PropOp45
 70
     1
102
RTVSPost2010Prop46
 90
       50
102
RTVSPost2010PropOp46
 70
     1
102
RTVSPost2010Prop47
 90
       50
102
RTVSPost2010PropOp47
 70
     1
102
RTVSPost2010Prop48
 90
       50
102
RTVSPost2010PropOp48
 70
     1
102
RTVSPost2010Prop49
280
     0
102
RTVSPost2010PropOp49
 70
     1
102
RTVSPost2010Prop50
 90
       50
102
RTVSPost2010PropOp50
 70
     1
102
RTVSPost2010Prop51ColorIndex
 90
      256
102
RTVSPost2010Prop51ColorRGB
 90
-16777216
102
RTVSPost2010PropOp51
 70
     0
102
RTVSPost2010Prop52
140
1.0
102
RTVSPost2010PropOp52
 70
     0
102
RTVSPost2010Prop53
 90
        2
102
RTVSPost2010PropOp53
 70
     1
102
RTVSPost2010Prop54
  1
strokes_ogs.tif
102
RTVSPost2010PropOp54
 70
     1
102
RTVSPost2010Prop55
280
     0
102
RTVSPost2010PropOp55
 70
     1
102
RTVSPost2010Prop56
140
1.0
102
RTVSPost2010PropOp56
 70
     1
102
RTVSPost2010Prop57
140
1.0
102
RTVSPost2010PropOp57
 70
     1
102
RTVSPropertyOp0
 70
     1
102
RTVSPropertyOp1
 70
     1
102
RTVSPropertyOp2
 70
     1
102
RTVSPropertyOp3
 70
     1
102
RTVSPropertyOp4
 70
     1
102
RTVSPropertyOp5
 70
     1
102
RTVSPropertyOp6
 70
     1
102
RTVSPropertyOp7
 70
     1
102
RTVSPropertyOp8
 70
     1
102
RTVSPropertyOp9
 70
     1
102
RTVSPropertyOp10
 70
     1
102
RTVSPropertyOp11
 70
     1
102
RTVSPropertyOp12
 70
     1
102
RTVSPropertyOp13
 70
     1
102
RTVSPropertyOp14
 70
     1
102
RTVSPropertyOp15
 70
     1
102
RTVSPropertyOp16
 70
     1
102
RTVSPropertyOp17
 70
     1
102
RTVSPropertyOp18
 70
     1
102
RTVSPropertyOp19
 70
     1
102
RTVSPropertyOp20
 70
     1
102
RTVSPropertyOp21
 70
     1
102
RTVSPropertyOp22
 70
     1
102
RTVSPropertyOp23
 70
     1
102
RTVSPropertyOp24
 70
     1
102
RTVSPropertyOp25
 70
     1
102
RTVSPropertyOp26
 70
     1
102
RTVSPropertyOp27
 70
     1
102
RTVSPropertyOp28
 70
     1
102
RTVSPropertyOp29
 70
     1
102
RTVSPropertyOp30
 70
     1
102
RTVSPropertyOp31
 70
     1
102
RTVSPropertyOp32
 70
     1
102
RTVSPropertyOp33
 70
     1
102
RTVSPropertyOp34
 70
     1
102
RTVSPropertyOp35
 70
     1
102
RTVSPropertyOp36
 70
     1
102
RTVSPropertyOp37
 70
     1
102
RTVSPropertyOp38
 70
     1
102
RTVSPropertyOp39
 70
     1
102
RTVSPropertyOp40
 70
     1
102
RTVSPropertyOp41
 70
     1
102
RTVSPropertyOp42
 70
     1
102
RTVSPropertyOp43
 70
     1
102
RTVSPropertyOp44
 70
     1
102
RTVSPropertyOp45
 70
     1
102
RTVSPropertyOp46
 70
     1
102
RTVSPropertyOp47
 70
     1
102
RTVSPropertyOp48
 70
     1
102
RTVSPropertyOp49
 70
     1
102
RTVSPropertyOp50
 70
     1
102
RTVSPropertyOp51
 70
     0
102
RTVSPropertyOp52
 70
     0
102
RTVSPropertyOp53
 70
     1
102
RTVSPropertyOp54
 70
     1
102
RTVSPropertyOp55
 70
     1
102
RTVSPropertyOp56
 70
     1
102
RTVSPropertyOp57
 70
     1
102
RTVSPropertyOp58
 70
     1
102
RTVSPropertyOp59
 70
     1
102
RTVSPropertyOp60
 70
     1
102
RTVSPropertyOp61
 70
     1
102
RTVSPropertyOp62
 70
     1
  0
XRECORD
  5
B6BD
102
{ACAD_REACTORS
330
B6BC
102
}
330
B6BC
100
AcDbXrecord
280
     1
102
RTVSPost2010Prop28
280
     0
102
RTVSPost2010PropOp28
 70
     1
102
RTVSPost2010Prop29
280
     1
102
RTVSPost2010PropOp29
 70
     1
102
RTVSPost2010Prop30
280
     1
102
RTVSPost2010PropOp30
 70
     1
102
RTVSPost2010Prop31
280
     0
102
RTVSPost2010PropOp31
 70
     1
102
RTVSPost2010Prop32
280
     0
102
RTVSPost2010PropOp32
 70
     1
102
RTVSPost2010Prop33
280
     0
102
RTVSPost2010PropOp33
 70
     1
102
RTVSPost2010Prop34
280
     0
102
RTVSPost2010PropOp34
 70
     1
102
RTVSPost2010Prop35
280
     0
102
RTVSPost2010PropOp35
 70
     1
102
RTVSPost2010Prop36
280
     0
102
RTVSPost2010PropOp36
 70
     1
102
RTVSPost2010Prop37
 90
       50
102
RTVSPost2010PropOp37
 70
     1
102
RTVSPost2010Prop38
140
0.0
102
RTVSPost2010PropOp38
 70
     1
102
RTVSPost2010Prop39
140
1.0
102
RTVSPost2010PropOp39
 70
     1
102
RTVSPost2010Prop40
 90
        0
102
RTVSPost2010PropOp40
 70
     1
102
RTVSPost2010Prop41ColorIndex
 90
       18
102
RTVSPost2010Prop41ColorRGB
 90
        0
102
RTVSPost2010PropOp41
 70
     1
102
RTVSPost2010Prop42
 90
       50
102
RTVSPost2010PropOp42
 70
     1
102
RTVSPost2010Prop43
 90
        3
102
RTVSPost2010PropOp43
 70
     1
102
RTVSPost2010Prop44ColorIndex
 90
        5
102
RTVSPost2010Prop44ColorRGB
 90
      255
102
RTVSPost2010PropOp44
 70
     1
102
RTVSPost2010Prop45
280
     0
102
RTVSPost2010PropOp45
 70
     1
102
RTVSPost2010Prop46
 90
       50
102
RTVSPost2010PropOp46
 70
     1
102
RTVSPost2010Prop47
 90
       50
102
RTVSPost2010PropOp47
 70
     1
102
RTVSPost2010Prop48
 90
       50
102
RTVSPost2010PropOp48
 70
     1
102
RTVSPost2010Prop49
280
     0
102
RTVSPost2010PropOp49
 70
     1
102
RTVSPost2010Prop50
 90
       50
102
RTVSPost2010PropOp50
 70
     1
102
RTVSPost2010Prop51ColorIndex
 90
      256
102
RTVSPost2010Prop51ColorRGB
 90
-16777216
102
RTVSPost2010PropOp51
 70
     0
102
RTVSPost2010Prop52
140
1.0
102
RTVSPost2010PropOp52
 70
     0
102
RTVSPost2010Prop53
 90
        2
102
RTVSPost2010PropOp53
 70
     1
102
RTVSPost2010Prop54
  1
strokes_ogs.tif
102
RTVSPost2010PropOp54
 70
     1
102
RTVSPost2010Prop55
280
     0
102
RTVSPost2010PropOp55
 70
     1
102
RTVSPost2010Prop56
140
1.0
102
RTVSPost2010PropOp56
 70
     1
102
RTVSPost2010Prop57
140
1.0
102
RTVSPost2010PropOp57
 70
     1
102
RTVSPropertyOp0
 70
     1
102
RTVSPropertyOp1
 70
     1
102
RTVSPropertyOp2
 70
     1
102
RTVSPropertyOp3
 70
     1
102
RTVSPropertyOp4
 70
     1
102
RTVSPropertyOp5
 70
     1
102
RTVSPropertyOp6
 70
     1
102
RTVSPropertyOp7
 70
     1
102
RTVSPropertyOp8
 70
     1
102
RTVSPropertyOp9
 70
     1
102
RTVSPropertyOp10
 70
     1
102
RTVSPropertyOp11
 70
     1
102
RTVSPropertyOp12
 70
     1
102
RTVSPropertyOp13
 70
     1
102
RTVSPropertyOp14
 70
     1
102
RTVSPropertyOp15
 70
     1
102
RTVSPropertyOp16
 70
     1
102
RTVSPropertyOp17
 70
     1
102
RTVSPropertyOp18
 70
     1
102
RTVSPropertyOp19
 70
     1
102
RTVSPropertyOp20
 70
     1
102
RTVSPropertyOp21
 70
     1
102
RTVSPropertyOp22
 70
     1
102
RTVSPropertyOp23
 70
     1
102
RTVSPropertyOp24
 70
     1
102
RTVSPropertyOp25
 70
     1
102
RTVSPropertyOp26
 70
     1
102
RTVSPropertyOp27
 70
     1
102
RTVSPropertyOp28
 70
     1
102
RTVSPropertyOp29
 70
     1
102
RTVSPropertyOp30
 70
     1
102
RTVSPropertyOp31
 70
     1
102
RTVSPropertyOp32
 70
     1
102
RTVSPropertyOp33
 70
     1
102
RTVSPropertyOp34
 70
     1
102
RTVSPropertyOp35
 70
     1
102
RTVSPropertyOp36
 70
     1
102
RTVSPropertyOp37
 70
     1
102
RTVSPropertyOp38
 70
     1
102
RTVSPropertyOp39
 70
     1
102
RTVSPropertyOp40
 70
     1
102
RTVSPropertyOp41
 70
     1
102
RTVSPropertyOp42
 70
     1
102
RTVSPropertyOp43
 70
     1
102
RTVSPropertyOp44
 70
     1
102
RTVSPropertyOp45
 70
     1
102
RTVSPropertyOp46
 70
     1
102
RTVSPropertyOp47
 70
     1
102
RTVSPropertyOp48
 70
     1
102
RTVSPropertyOp49
 70
     1
102
RTVSPropertyOp50
 70
     1
102
RTVSPropertyOp51
 70
     0
102
RTVSPropertyOp52
 70
     0
102
RTVSPropertyOp53
 70
     1
102
RTVSPropertyOp54
 70
     1
102
RTVSPropertyOp55
 70
     1
102
RTVSPropertyOp56
 70
     1
102
RTVSPropertyOp57
 70
     1
102
RTVSPropertyOp58
 70
     1
102
RTVSPropertyOp59
 70
     1
102
RTVSPropertyOp60
 70
     1
102
RTVSPropertyOp61
 70
     1
102
RTVSPropertyOp62
 70
     1
  0
XRECORD
  5
B6D9
102
{ACAD_REACTORS
330
B6D8
102
}
330
B6D8
100
AcDbXrecord
280
     1
102
RTVSPost2010Prop28
280
     0
102
RTVSPost2010PropOp28
 70
     0
102
RTVSPost2010Prop29
280
     1
102
RTVSPost2010PropOp29
 70
     0
102
RTVSPost2010Prop30
280
     1
102
RTVSPost2010PropOp30
 70
     0
102
RTVSPost2010Prop31
280
     0
102
RTVSPost2010PropOp31
 70
     0
102
RTVSPost2010Prop32
280
     0
102
RTVSPost2010PropOp32
 70
     0
102
RTVSPost2010Prop33
280
     0
102
RTVSPost2010PropOp33
 70
     0
102
RTVSPost2010Prop34
280
     0
102
RTVSPost2010PropOp34
 70
     0
102
RTVSPost2010Prop35
280
     0
102
RTVSPost2010PropOp35
 70
     0
102
RTVSPost2010Prop36
280
     0
102
RTVSPost2010PropOp36
 70
     0
102
RTVSPost2010Prop37
 90
       50
102
RTVSPost2010PropOp37
 70
     0
102
RTVSPost2010Prop38
140
0.0
102
RTVSPost2010PropOp38
 70
     0
102
RTVSPost2010Prop39
140
1.0
102
RTVSPost2010PropOp39
 70
     0
102
RTVSPost2010Prop40
 90
        0
102
RTVSPost2010PropOp40
 70
     0
102
RTVSPost2010Prop41ColorIndex
 90
       18
102
RTVSPost2010Prop41ColorRGB
 90
        0
102
RTVSPost2010PropOp41
 70
     0
102
RTVSPost2010Prop42
 90
       50
102
RTVSPost2010PropOp42
 70
     0
102
RTVSPost2010Prop43
 90
        3
102
RTVSPost2010PropOp43
 70
     0
102
RTVSPost2010Prop44ColorIndex
 90
        5
102
RTVSPost2010Prop44ColorRGB
 90
      255
102
RTVSPost2010PropOp44
 70
     0
102
RTVSPost2010Prop45
280
     0
102
RTVSPost2010PropOp45
 70
     0
102
RTVSPost2010Prop46
 90
       50
102
RTVSPost2010PropOp46
 70
     0
102
RTVSPost2010Prop47
 90
       50
102
RTVSPost2010PropOp47
 70
     0
102
RTVSPost2010Prop48
 90
       50
102
RTVSPost2010PropOp48
 70
     0
102
RTVSPost2010Prop49
280
     0
102
RTVSPost2010PropOp49
 70
     0
102
RTVSPost2010Prop50
 90
       50
102
RTVSPost2010PropOp50
 70
     0
102
RTVSPost2010Prop51ColorIndex
 90
      256
102
RTVSPost2010Prop51ColorRGB
 90
-16777216
102
RTVSPost2010PropOp51
 70
     0
102
RTVSPost2010Prop52
140
1.0
102
RTVSPost2010PropOp52
 70
     0
102
RTVSPost2010Prop53
 90
        2
102
RTVSPost2010PropOp53
 70
     0
102
RTVSPost2010Prop54
  1
strokes_ogs.tif
102
RTVSPost2010PropOp54
 70
     0
102
RTVSPost2010Prop55
280
     0
102
RTVSPost2010PropOp55
 70
     0
102
RTVSPost2010Prop56
140
1.0
102
RTVSPost2010PropOp56
 70
     0
102
RTVSPost2010Prop57
140
1.0
102
RTVSPost2010PropOp57
 70
     0
102
RTVSPropertyOp0
 70
     0
102
RTVSPropertyOp1
 70
     0
102
RTVSPropertyOp2
 70
     0
102
RTVSPropertyOp3
 70
     0
102
RTVSPropertyOp4
 70
     0
102
RTVSPropertyOp5
 70
     0
102
RTVSPropertyOp6
 70
     0
102
RTVSPropertyOp7
 70
     0
102
RTVSPropertyOp8
 70
     0
102
RTVSPropertyOp9
 70
     0
102
RTVSPropertyOp10
 70
     0
102
RTVSPropertyOp11
 70
     0
102
RTVSPropertyOp12
 70
     0
102
RTVSPropertyOp13
 70
     0
102
RTVSPropertyOp14
 70
     2
102
RTVSPropertyOp15
 70
     0
102
RTVSPropertyOp16
 70
     0
102
RTVSPropertyOp17
 70
     0
102
RTVSPropertyOp18
 70
     0
102
RTVSPropertyOp19
 70
     0
102
RTVSPropertyOp20
 70
     0
102
RTVSPropertyOp21
 70
     0
102
RTVSPropertyOp22
 70
     0
102
RTVSPropertyOp23
 70
     0
102
RTVSPropertyOp24
 70
     0
102
RTVSPropertyOp25
 70
     0
102
RTVSPropertyOp26
 70
     0
102
RTVSPropertyOp27
 70
     0
102
RTVSPropertyOp28
 70
     0
102
RTVSPropertyOp29
 70
     0
102
RTVSPropertyOp30
 70
     0
102
RTVSPropertyOp31
 70
     0
102
RTVSPropertyOp32
 70
     0
102
RTVSPropertyOp33
 70
     0
102
RTVSPropertyOp34
 70
     0
102
RTVSPropertyOp35
 70
     0
102
RTVSPropertyOp36
 70
     0
102
RTVSPropertyOp37
 70
     0
102
RTVSPropertyOp38
 70
     0
102
RTVSPropertyOp39
 70
     0
102
RTVSPropertyOp40
 70
     0
102
RTVSPropertyOp41
 70
     0
102
RTVSPropertyOp42
 70
     0
102
RTVSPropertyOp43
 70
     0
102
RTVSPropertyOp44
 70
     0
102
RTVSPropertyOp45
 70
     0
102
RTVSPropertyOp46
 70
     0
102
RTVSPropertyOp47
 70
     0
102
RTVSPropertyOp48
 70
     0
102
RTVSPropertyOp49
 70
     0
102
RTVSPropertyOp50
 70
     0
102
RTVSPropertyOp51
 70
     0
102
RTVSPropertyOp52
 70
     0
102
RTVSPropertyOp53
 70
     0
102
RTVSPropertyOp54
 70
     0
102
RTVSPropertyOp55
 70
     0
102
RTVSPropertyOp56
 70
     0
102
RTVSPropertyOp57
 70
     0
102
RTVSPropertyOp58
 70
     1
102
RTVSPropertyOp59
 70
     1
102
RTVSPropertyOp60
 70
     1
102
RTVSPropertyOp61
 70
     1
102
RTVSPropertyOp62
 70
     1
  0
XRECORD
  5
B6C9
102
{ACAD_REACTORS
330
B6C8
102
}
330
B6C8
100
AcDbXrecord
280
     1
102
RTVSPost2010Prop28
280
     0
102
RTVSPost2010PropOp28
 70
     1
102
RTVSPost2010Prop29
280
     1
102
RTVSPost2010PropOp29
 70
     1
102
RTVSPost2010Prop30
280
     1
102
RTVSPost2010PropOp30
 70
     1
102
RTVSPost2010Prop31
280
     0
102
RTVSPost2010PropOp31
 70
     1
102
RTVSPost2010Prop32
280
     0
102
RTVSPost2010PropOp32
 70
     1
102
RTVSPost2010Prop33
280
     0
102
RTVSPost2010PropOp33
 70
     1
102
RTVSPost2010Prop34
280
     0
102
RTVSPost2010PropOp34
 70
     1
102
RTVSPost2010Prop35
280
     0
102
RTVSPost2010PropOp35
 70
     1
102
RTVSPost2010Prop36
280
     0
102
RTVSPost2010PropOp36
 70
     1
102
RTVSPost2010Prop37
 90
       50
102
RTVSPost2010PropOp37
 70
     1
102
RTVSPost2010Prop38
140
0.0
102
RTVSPost2010PropOp38
 70
     1
102
RTVSPost2010Prop39
140
1.0
102
RTVSPost2010PropOp39
 70
     1
102
RTVSPost2010Prop40
 90
        0
102
RTVSPost2010PropOp40
 70
     1
102
RTVSPost2010Prop41ColorIndex
 90
       18
102
RTVSPost2010Prop41ColorRGB
 90
        0
102
RTVSPost2010PropOp41
 70
     1
102
RTVSPost2010Prop42
 90
       50
102
RTVSPost2010PropOp42
 70
     1
102
RTVSPost2010Prop43
 90
        3
102
RTVSPost2010PropOp43
 70
     1
102
RTVSPost2010Prop44ColorIndex
 90
        5
102
RTVSPost2010Prop44ColorRGB
 90
      255
102
RTVSPost2010PropOp44
 70
     1
102
RTVSPost2010Prop45
280
     0
102
RTVSPost2010PropOp45
 70
     1
102
RTVSPost2010Prop46
 90
       50
102
RTVSPost2010PropOp46
 70
     1
102
RTVSPost2010Prop47
 90
       50
102
RTVSPost2010PropOp47
 70
     1
102
RTVSPost2010Prop48
 90
       50
102
RTVSPost2010PropOp48
 70
     1
102
RTVSPost2010Prop49
280
     0
102
RTVSPost2010PropOp49
 70
     1
102
RTVSPost2010Prop50
 90
       50
102
RTVSPost2010PropOp50
 70
     1
102
RTVSPost2010Prop51ColorIndex
 90
      256
102
RTVSPost2010Prop51ColorRGB
 90
-16777216
102
RTVSPost2010PropOp51
 70
     0
102
RTVSPost2010Prop52
140
1.0
102
RTVSPost2010PropOp52
 70
     0
102
RTVSPost2010Prop53
 90
        2
102
RTVSPost2010PropOp53
 70
     1
102
RTVSPost2010Prop54
  1
strokes_ogs.tif
102
RTVSPost2010PropOp54
 70
     1
102
RTVSPost2010Prop55
280
     0
102
RTVSPost2010PropOp55
 70
     1
102
RTVSPost2010Prop56
140
1.0
102
RTVSPost2010PropOp56
 70
     1
102
RTVSPost2010Prop57
140
1.0
102
RTVSPost2010PropOp57
 70
     1
102
RTVSPropertyOp0
 70
     1
102
RTVSPropertyOp1
 70
     1
102
RTVSPropertyOp2
 70
     1
102
RTVSPropertyOp3
 70
     1
102
RTVSPropertyOp4
 70
     1
102
RTVSPropertyOp5
 70
     1
102
RTVSPropertyOp6
 70
     1
102
RTVSPropertyOp7
 70
     1
102
RTVSPropertyOp8
 70
     1
102
RTVSPropertyOp9
 70
     1
102
RTVSPropertyOp10
 70
     1
102
RTVSPropertyOp11
 70
     1
102
RTVSPropertyOp12
 70
     1
102
RTVSPropertyOp13
 70
     1
102
RTVSPropertyOp14
 70
     1
102
RTVSPropertyOp15
 70
     1
102
RTVSPropertyOp16
 70
     1
102
RTVSPropertyOp17
 70
     1
102
RTVSPropertyOp18
 70
     1
102
RTVSPropertyOp19
 70
     1
102
RTVSPropertyOp20
 70
     1
102
RTVSPropertyOp21
 70
     1
102
RTVSPropertyOp22
 70
     1
102
RTVSPropertyOp23
 70
     1
102
RTVSPropertyOp24
 70
     1
102
RTVSPropertyOp25
 70
     1
102
RTVSPropertyOp26
 70
     1
102
RTVSPropertyOp27
 70
     1
102
RTVSPropertyOp28
 70
     1
102
RTVSPropertyOp29
 70
     1
102
RTVSPropertyOp30
 70
     1
102
RTVSPropertyOp31
 70
     1
102
RTVSPropertyOp32
 70
     1
102
RTVSPropertyOp33
 70
     1
102
RTVSPropertyOp34
 70
     1
102
RTVSPropertyOp35
 70
     1
102
RTVSPropertyOp36
 70
     1
102
RTVSPropertyOp37
 70
     1
102
RTVSPropertyOp38
 70
     1
102
RTVSPropertyOp39
 70
     1
102
RTVSPropertyOp40
 70
     1
102
RTVSPropertyOp41
 70
     1
102
RTVSPropertyOp42
 70
     1
102
RTVSPropertyOp43
 70
     1
102
RTVSPropertyOp44
 70
     1
102
RTVSPropertyOp45
 70
     1
102
RTVSPropertyOp46
 70
     1
102
RTVSPropertyOp47
 70
     1
102
RTVSPropertyOp48
 70
     1
102
RTVSPropertyOp49
 70
     1
102
RTVSPropertyOp50
 70
     1
102
RTVSPropertyOp51
 70
     0
102
RTVSPropertyOp52
 70
     0
102
RTVSPropertyOp53
 70
     1
102
RTVSPropertyOp54
 70
     1
102
RTVSPropertyOp55
 70
     1
102
RTVSPropertyOp56
 70
     1
102
RTVSPropertyOp57
 70
     1
102
RTVSPropertyOp58
 70
     1
102
RTVSPropertyOp59
 70
     1
102
RTVSPropertyOp60
 70
     1
102
RTVSPropertyOp61
 70
     1
102
RTVSPropertyOp62
 70
     1
  0
XRECORD
  5
B6DB
102
{ACAD_REACTORS
330
B6DA
102
}
330
B6DA
100
AcDbXrecord
280
     1
102
RTVSPost2010Prop28
280
     0
102
RTVSPost2010PropOp28
 70
     0
102
RTVSPost2010Prop29
280
     1
102
RTVSPost2010PropOp29
 70
     0
102
RTVSPost2010Prop30
280
     1
102
RTVSPost2010PropOp30
 70
     0
102
RTVSPost2010Prop31
280
     0
102
RTVSPost2010PropOp31
 70
     0
102
RTVSPost2010Prop32
280
     0
102
RTVSPost2010PropOp32
 70
     0
102
RTVSPost2010Prop33
280
     0
102
RTVSPost2010PropOp33
 70
     0
102
RTVSPost2010Prop34
280
     0
102
RTVSPost2010PropOp34
 70
     0
102
RTVSPost2010Prop35
280
     0
102
RTVSPost2010PropOp35
 70
     0
102
RTVSPost2010Prop36
280
     0
102
RTVSPost2010PropOp36
 70
     0
102
RTVSPost2010Prop37
 90
       50
102
RTVSPost2010PropOp37
 70
     0
102
RTVSPost2010Prop38
140
0.0
102
RTVSPost2010PropOp38
 70
     0
102
RTVSPost2010Prop39
140
1.0
102
RTVSPost2010PropOp39
 70
     0
102
RTVSPost2010Prop40
 90
        0
102
RTVSPost2010PropOp40
 70
     0
102
RTVSPost2010Prop41ColorIndex
 90
       18
102
RTVSPost2010Prop41ColorRGB
 90
        0
102
RTVSPost2010PropOp41
 70
     0
102
RTVSPost2010Prop42
 90
       50
102
RTVSPost2010PropOp42
 70
     0
102
RTVSPost2010Prop43
 90
        3
102
RTVSPost2010PropOp43
 70
     0
102
RTVSPost2010Prop44ColorIndex
 90
        5
102
RTVSPost2010Prop44ColorRGB
 90
      255
102
RTVSPost2010PropOp44
 70
     0
102
RTVSPost2010Prop45
280
     0
102
RTVSPost2010PropOp45
 70
     0
102
RTVSPost2010Prop46
 90
       50
102
RTVSPost2010PropOp46
 70
     0
102
RTVSPost2010Prop47
 90
       50
102
RTVSPost2010PropOp47
 70
     0
102
RTVSPost2010Prop48
 90
       50
102
RTVSPost2010PropOp48
 70
     0
102
RTVSPost2010Prop49
280
     0
102
RTVSPost2010PropOp49
 70
     0
102
RTVSPost2010Prop50
 90
       50
102
RTVSPost2010PropOp50
 70
     0
102
RTVSPost2010Prop51ColorIndex
 90
      256
102
RTVSPost2010Prop51ColorRGB
 90
-16777216
102
RTVSPost2010PropOp51
 70
     0
102
RTVSPost2010Prop52
140
1.0
102
RTVSPost2010PropOp52
 70
     0
102
RTVSPost2010Prop53
 90
        2
102
RTVSPost2010PropOp53
 70
     0
102
RTVSPost2010Prop54
  1
strokes_ogs.tif
102
RTVSPost2010PropOp54
 70
     0
102
RTVSPost2010Prop55
280
     0
102
RTVSPost2010PropOp55
 70
     0
102
RTVSPost2010Prop56
140
1.0
102
RTVSPost2010PropOp56
 70
     0
102
RTVSPost2010Prop57
140
1.0
102
RTVSPost2010PropOp57
 70
     0
102
RTVSPropertyOp0
 70
     0
102
RTVSPropertyOp1
 70
     0
102
RTVSPropertyOp2
 70
     0
102
RTVSPropertyOp3
 70
     0
102
RTVSPropertyOp4
 70
     0
102
RTVSPropertyOp5
 70
     0
102
RTVSPropertyOp6
 70
     0
102
RTVSPropertyOp7
 70
     0
102
RTVSPropertyOp8
 70
     0
102
RTVSPropertyOp9
 70
     0
102
RTVSPropertyOp10
 70
     0
102
RTVSPropertyOp11
 70
     0
102
RTVSPropertyOp12
 70
     0
102
RTVSPropertyOp13
 70
     0
102
RTVSPropertyOp14
 70
     2
102
RTVSPropertyOp15
 70
     0
102
RTVSPropertyOp16
 70
     0
102
RTVSPropertyOp17
 70
     0
102
RTVSPropertyOp18
 70
     0
102
RTVSPropertyOp19
 70
     0
102
RTVSPropertyOp20
 70
     0
102
RTVSPropertyOp21
 70
     0
102
RTVSPropertyOp22
 70
     0
102
RTVSPropertyOp23
 70
     0
102
RTVSPropertyOp24
 70
     0
102
RTVSPropertyOp25
 70
     0
102
RTVSPropertyOp26
 70
     0
102
RTVSPropertyOp27
 70
     0
102
RTVSPropertyOp28
 70
     0
102
RTVSPropertyOp29
 70
     0
102
RTVSPropertyOp30
 70
     0
102
RTVSPropertyOp31
 70
     0
102
RTVSPropertyOp32
 70
     0
102
RTVSPropertyOp33
 70
     0
102
RTVSPropertyOp34
 70
     0
102
RTVSPropertyOp35
 70
     0
102
RTVSPropertyOp36
 70
     0
102
RTVSPropertyOp37
 70
     0
102
RTVSPropertyOp38
 70
     0
102
RTVSPropertyOp39
 70
     0
102
RTVSPropertyOp40
 70
     0
102
RTVSPropertyOp41
 70
     0
102
RTVSPropertyOp42
 70
     0
102
RTVSPropertyOp43
 70
     0
102
RTVSPropertyOp44
 70
     0
102
RTVSPropertyOp45
 70
     0
102
RTVSPropertyOp46
 70
     0
102
RTVSPropertyOp47
 70
     0
102
RTVSPropertyOp48
 70
     0
102
RTVSPropertyOp49
 70
     0
102
RTVSPropertyOp50
 70
     0
102
RTVSPropertyOp51
 70
     0
102
RTVSPropertyOp52
 70
     0
102
RTVSPropertyOp53
 70
     0
102
RTVSPropertyOp54
 70
     0
102
RTVSPropertyOp55
 70
     0
102
RTVSPropertyOp56
 70
     0
102
RTVSPropertyOp57
 70
     0
102
RTVSPropertyOp58
 70
     1
102
RTVSPropertyOp59
 70
     1
102
RTVSPropertyOp60
 70
     1
102
RTVSPropertyOp61
 70
     1
102
RTVSPropertyOp62
 70
     1
  0
XRECORD
  5
B6C1
102
{ACAD_REACTORS
330
B6C0
102
}
330
B6C0
100
AcDbXrecord
280
     1
102
RTVSPost2010Prop28
280
     0
102
RTVSPost2010PropOp28
 70
     1
102
RTVSPost2010Prop29
280
     1
102
RTVSPost2010PropOp29
 70
     1
102
RTVSPost2010Prop30
280
     1
102
RTVSPost2010PropOp30
 70
     1
102
RTVSPost2010Prop31
280
     0
102
RTVSPost2010PropOp31
 70
     1
102
RTVSPost2010Prop32
280
     0
102
RTVSPost2010PropOp32
 70
     1
102
RTVSPost2010Prop33
280
     0
102
RTVSPost2010PropOp33
 70
     1
102
RTVSPost2010Prop34
280
     0
102
RTVSPost2010PropOp34
 70
     1
102
RTVSPost2010Prop35
280
     0
102
RTVSPost2010PropOp35
 70
     1
102
RTVSPost2010Prop36
280
     0
102
RTVSPost2010PropOp36
 70
     1
102
RTVSPost2010Prop37
 90
       50
102
RTVSPost2010PropOp37
 70
     1
102
RTVSPost2010Prop38
140
0.0
102
RTVSPost2010PropOp38
 70
     1
102
RTVSPost2010Prop39
140
1.0
102
RTVSPost2010PropOp39
 70
     1
102
RTVSPost2010Prop40
 90
        0
102
RTVSPost2010PropOp40
 70
     1
102
RTVSPost2010Prop41ColorIndex
 90
       18
102
RTVSPost2010Prop41ColorRGB
 90
        0
102
RTVSPost2010PropOp41
 70
     1
102
RTVSPost2010Prop42
 90
       50
102
RTVSPost2010PropOp42
 70
     1
102
RTVSPost2010Prop43
 90
        3
102
RTVSPost2010PropOp43
 70
     1
102
RTVSPost2010Prop44ColorIndex
 90
        5
102
RTVSPost2010Prop44ColorRGB
 90
      255
102
RTVSPost2010PropOp44
 70
     1
102
RTVSPost2010Prop45
280
     0
102
RTVSPost2010PropOp45
 70
     1
102
RTVSPost2010Prop46
 90
       50
102
RTVSPost2010PropOp46
 70
     1
102
RTVSPost2010Prop47
 90
       50
102
RTVSPost2010PropOp47
 70
     1
102
RTVSPost2010Prop48
 90
       50
102
RTVSPost2010PropOp48
 70
     1
102
RTVSPost2010Prop49
280
     0
102
RTVSPost2010PropOp49
 70
     1
102
RTVSPost2010Prop50
 90
       50
102
RTVSPost2010PropOp50
 70
     1
102
RTVSPost2010Prop51ColorIndex
 90
      256
102
RTVSPost2010Prop51ColorRGB
 90
-16777216
102
RTVSPost2010PropOp51
 70
     0
102
RTVSPost2010Prop52
140
1.0
102
RTVSPost2010PropOp52
 70
     0
102
RTVSPost2010Prop53
 90
        2
102
RTVSPost2010PropOp53
 70
     1
102
RTVSPost2010Prop54
  1
strokes_ogs.tif
102
RTVSPost2010PropOp54
 70
     1
102
RTVSPost2010Prop55
280
     0
102
RTVSPost2010PropOp55
 70
     1
102
RTVSPost2010Prop56
140
1.0
102
RTVSPost2010PropOp56
 70
     1
102
RTVSPost2010Prop57
140
1.0
102
RTVSPost2010PropOp57
 70
     1
102
RTVSPropertyOp0
 70
     1
102
RTVSPropertyOp1
 70
     1
102
RTVSPropertyOp2
 70
     1
102
RTVSPropertyOp3
 70
     1
102
RTVSPropertyOp4
 70
     1
102
RTVSPropertyOp5
 70
     1
102
RTVSPropertyOp6
 70
     1
102
RTVSPropertyOp7
 70
     1
102
RTVSPropertyOp8
 70
     1
102
RTVSPropertyOp9
 70
     1
102
RTVSPropertyOp10
 70
     1
102
RTVSPropertyOp11
 70
     1
102
RTVSPropertyOp12
 70
     1
102
RTVSPropertyOp13
 70
     1
102
RTVSPropertyOp14
 70
     1
102
RTVSPropertyOp15
 70
     1
102
RTVSPropertyOp16
 70
     1
102
RTVSPropertyOp17
 70
     1
102
RTVSPropertyOp18
 70
     1
102
RTVSPropertyOp19
 70
     1
102
RTVSPropertyOp20
 70
     1
102
RTVSPropertyOp21
 70
     1
102
RTVSPropertyOp22
 70
     1
102
RTVSPropertyOp23
 70
     1
102
RTVSPropertyOp24
 70
     1
102
RTVSPropertyOp25
 70
     1
102
RTVSPropertyOp26
 70
     1
102
RTVSPropertyOp27
 70
     1
102
RTVSPropertyOp28
 70
     1
102
RTVSPropertyOp29
 70
     1
102
RTVSPropertyOp30
 70
     1
102
RTVSPropertyOp31
 70
     1
102
RTVSPropertyOp32
 70
     1
102
RTVSPropertyOp33
 70
     1
102
RTVSPropertyOp34
 70
     1
102
RTVSPropertyOp35
 70
     1
102
RTVSPropertyOp36
 70
     1
102
RTVSPropertyOp37
 70
     1
102
RTVSPropertyOp38
 70
     1
102
RTVSPropertyOp39
 70
     1
102
RTVSPropertyOp40
 70
     1
102
RTVSPropertyOp41
 70
     1
102
RTVSPropertyOp42
 70
     1
102
RTVSPropertyOp43
 70
     1
102
RTVSPropertyOp44
 70
     1
102
RTVSPropertyOp45
 70
     1
102
RTVSPropertyOp46
 70
     1
102
RTVSPropertyOp47
 70
     1
102
RTVSPropertyOp48
 70
     1
102
RTVSPropertyOp49
 70
     1
102
RTVSPropertyOp50
 70
     1
102
RTVSPropertyOp51
 70
     0
102
RTVSPropertyOp52
 70
     0
102
RTVSPropertyOp53
 70
     1
102
RTVSPropertyOp54
 70
     1
102
RTVSPropertyOp55
 70
     1
102
RTVSPropertyOp56
 70
     1
102
RTVSPropertyOp57
 70
     1
102
RTVSPropertyOp58
 70
     1
102
RTVSPropertyOp59
 70
     1
102
RTVSPropertyOp60
 70
     1
102
RTVSPropertyOp61
 70
     1
102
RTVSPropertyOp62
 70
     1
  0
XRECORD
  5
B6D7
102
{ACAD_REACTORS
330
B6D6
102
}
330
B6D6
100
AcDbXrecord
280
     1
102
RTVSPost2010Prop28
280
     0
102
RTVSPost2010PropOp28
 70
     1
102
RTVSPost2010Prop29
280
     1
102
RTVSPost2010PropOp29
 70
     1
102
RTVSPost2010Prop30
280
     1
102
RTVSPost2010PropOp30
 70
     1
102
RTVSPost2010Prop31
280
     0
102
RTVSPost2010PropOp31
 70
     1
102
RTVSPost2010Prop32
280
     0
102
RTVSPost2010PropOp32
 70
     1
102
RTVSPost2010Prop33
280
     0
102
RTVSPost2010PropOp33
 70
     1
102
RTVSPost2010Prop34
280
     0
102
RTVSPost2010PropOp34
 70
     1
102
RTVSPost2010Prop35
280
     0
102
RTVSPost2010PropOp35
 70
     1
102
RTVSPost2010Prop36
280
     0
102
RTVSPost2010PropOp36
 70
     1
102
RTVSPost2010Prop37
 90
       50
102
RTVSPost2010PropOp37
 70
     1
102
RTVSPost2010Prop38
140
0.0
102
RTVSPost2010PropOp38
 70
     1
102
RTVSPost2010Prop39
140
1.0
102
RTVSPost2010PropOp39
 70
     1
102
RTVSPost2010Prop40
 90
        0
102
RTVSPost2010PropOp40
 70
     1
102
RTVSPost2010Prop41ColorIndex
 90
       18
102
RTVSPost2010Prop41ColorRGB
 90
        0
102
RTVSPost2010PropOp41
 70
     1
102
RTVSPost2010Prop42
 90
       50
102
RTVSPost2010PropOp42
 70
     1
102
RTVSPost2010Prop43
 90
        3
102
RTVSPost2010PropOp43
 70
     1
102
RTVSPost2010Prop44ColorIndex
 90
        5
102
RTVSPost2010Prop44ColorRGB
 90
      255
102
RTVSPost2010PropOp44
 70
     1
102
RTVSPost2010Prop45
280
     0
102
RTVSPost2010PropOp45
 70
     1
102
RTVSPost2010Prop46
 90
       50
102
RTVSPost2010PropOp46
 70
     1
102
RTVSPost2010Prop47
 90
       50
102
RTVSPost2010PropOp47
 70
     1
102
RTVSPost2010Prop48
 90
       50
102
RTVSPost2010PropOp48
 70
     1
102
RTVSPost2010Prop49
280
     0
102
RTVSPost2010PropOp49
 70
     1
102
RTVSPost2010Prop50
 90
       50
102
RTVSPost2010PropOp50
 70
     1
102
RTVSPost2010Prop51ColorIndex
 90
      256
102
RTVSPost2010Prop51ColorRGB
 90
-16777216
102
RTVSPost2010PropOp51
 70
     0
102
RTVSPost2010Prop52
140
1.0
102
RTVSPost2010PropOp52
 70
     0
102
RTVSPost2010Prop53
 90
        2
102
RTVSPost2010PropOp53
 70
     1
102
RTVSPost2010Prop54
  1
strokes_ogs.tif
102
RTVSPost2010PropOp54
 70
     1
102
RTVSPost2010Prop55
280
     0
102
RTVSPost2010PropOp55
 70
     1
102
RTVSPost2010Prop56
140
1.0
102
RTVSPost2010PropOp56
 70
     1
102
RTVSPost2010Prop57
140
1.0
102
RTVSPost2010PropOp57
 70
     1
102
RTVSPropertyOp0
 70
     1
102
RTVSPropertyOp1
 70
     1
102
RTVSPropertyOp2
 70
     1
102
RTVSPropertyOp3
 70
     1
102
RTVSPropertyOp4
 70
     1
102
RTVSPropertyOp5
 70
     1
102
RTVSPropertyOp6
 70
     1
102
RTVSPropertyOp7
 70
     1
102
RTVSPropertyOp8
 70
     1
102
RTVSPropertyOp9
 70
     1
102
RTVSPropertyOp10
 70
     1
102
RTVSPropertyOp11
 70
     1
102
RTVSPropertyOp12
 70
     1
102
RTVSPropertyOp13
 70
     1
102
RTVSPropertyOp14
 70
     1
102
RTVSPropertyOp15
 70
     1
102
RTVSPropertyOp16
 70
     1
102
RTVSPropertyOp17
 70
     1
102
RTVSPropertyOp18
 70
     1
102
RTVSPropertyOp19
 70
     1
102
RTVSPropertyOp20
 70
     1
102
RTVSPropertyOp21
 70
     1
102
RTVSPropertyOp22
 70
     1
102
RTVSPropertyOp23
 70
     1
102
RTVSPropertyOp24
 70
     1
102
RTVSPropertyOp25
 70
     1
102
RTVSPropertyOp26
 70
     1
102
RTVSPropertyOp27
 70
     1
102
RTVSPropertyOp28
 70
     1
102
RTVSPropertyOp29
 70
     1
102
RTVSPropertyOp30
 70
     1
102
RTVSPropertyOp31
 70
     1
102
RTVSPropertyOp32
 70
     1
102
RTVSPropertyOp33
 70
     1
102
RTVSPropertyOp34
 70
     1
102
RTVSPropertyOp35
 70
     1
102
RTVSPropertyOp36
 70
     1
102
RTVSPropertyOp37
 70
     1
102
RTVSPropertyOp38
 70
     1
102
RTVSPropertyOp39
 70
     1
102
RTVSPropertyOp40
 70
     1
102
RTVSPropertyOp41
 70
     1
102
RTVSPropertyOp42
 70
     1
102
RTVSPropertyOp43
 70
     1
102
RTVSPropertyOp44
 70
     1
102
RTVSPropertyOp45
 70
     1
102
RTVSPropertyOp46
 70
     1
102
RTVSPropertyOp47
 70
     1
102
RTVSPropertyOp48
 70
     1
102
RTVSPropertyOp49
 70
     1
102
RTVSPropertyOp50
 70
     1
102
RTVSPropertyOp51
 70
     0
102
RTVSPropertyOp52
 70
     0
102
RTVSPropertyOp53
 70
     1
102
RTVSPropertyOp54
 70
     1
102
RTVSPropertyOp55
 70
     1
102
RTVSPropertyOp56
 70
     1
102
RTVSPropertyOp57
 70
     1
102
RTVSPropertyOp58
 70
     1
102
RTVSPropertyOp59
 70
     1
102
RTVSPropertyOp60
 70
     1
102
RTVSPropertyOp61
 70
     1
102
RTVSPropertyOp62
 70
     1
  0
XRECORD
  5
B6D5
102
{ACAD_REACTORS
330
B6D4
102
}
330
B6D4
100
AcDbXrecord
280
     1
102
RTVSPost2010Prop28
280
     0
102
RTVSPost2010PropOp28
 70
     1
102
RTVSPost2010Prop29
280
     1
102
RTVSPost2010PropOp29
 70
     1
102
RTVSPost2010Prop30
280
     1
102
RTVSPost2010PropOp30
 70
     1
102
RTVSPost2010Prop31
280
     0
102
RTVSPost2010PropOp31
 70
     1
102
RTVSPost2010Prop32
280
     0
102
RTVSPost2010PropOp32
 70
     1
102
RTVSPost2010Prop33
280
     0
102
RTVSPost2010PropOp33
 70
     1
102
RTVSPost2010Prop34
280
     0
102
RTVSPost2010PropOp34
 70
     1
102
RTVSPost2010Prop35
280
     0
102
RTVSPost2010PropOp35
 70
     1
102
RTVSPost2010Prop36
280
     0
102
RTVSPost2010PropOp36
 70
     1
102
RTVSPost2010Prop37
 90
       50
102
RTVSPost2010PropOp37
 70
     1
102
RTVSPost2010Prop38
140
0.0
102
RTVSPost2010PropOp38
 70
     1
102
RTVSPost2010Prop39
140
1.0
102
RTVSPost2010PropOp39
 70
     1
102
RTVSPost2010Prop40
 90
        0
102
RTVSPost2010PropOp40
 70
     1
102
RTVSPost2010Prop41ColorIndex
 90
       18
102
RTVSPost2010Prop41ColorRGB
 90
        0
102
RTVSPost2010PropOp41
 70
     1
102
RTVSPost2010Prop42
 90
       50
102
RTVSPost2010PropOp42
 70
     1
102
RTVSPost2010Prop43
 90
        3
102
RTVSPost2010PropOp43
 70
     1
102
RTVSPost2010Prop44ColorIndex
 90
        5
102
RTVSPost2010Prop44ColorRGB
 90
      255
102
RTVSPost2010PropOp44
 70
     1
102
RTVSPost2010Prop45
280
     0
102
RTVSPost2010PropOp45
 70
     1
102
RTVSPost2010Prop46
 90
       50
102
RTVSPost2010PropOp46
 70
     1
102
RTVSPost2010Prop47
 90
       50
102
RTVSPost2010PropOp47
 70
     1
102
RTVSPost2010Prop48
 90
       50
102
RTVSPost2010PropOp48
 70
     1
102
RTVSPost2010Prop49
280
     0
102
RTVSPost2010PropOp49
 70
     1
102
RTVSPost2010Prop50
 90
       50
102
RTVSPost2010PropOp50
 70
     1
102
RTVSPost2010Prop51ColorIndex
 90
      256
102
RTVSPost2010Prop51ColorRGB
 90
-16777216
102
RTVSPost2010PropOp51
 70
     0
102
RTVSPost2010Prop52
140
1.0
102
RTVSPost2010PropOp52
 70
     0
102
RTVSPost2010Prop53
 90
        2
102
RTVSPost2010PropOp53
 70
     1
102
RTVSPost2010Prop54
  1
strokes_ogs.tif
102
RTVSPost2010PropOp54
 70
     1
102
RTVSPost2010Prop55
280
     0
102
RTVSPost2010PropOp55
 70
     1
102
RTVSPost2010Prop56
140
1.0
102
RTVSPost2010PropOp56
 70
     1
102
RTVSPost2010Prop57
140
1.0
102
RTVSPost2010PropOp57
 70
     1
102
RTVSPropertyOp0
 70
     1
102
RTVSPropertyOp1
 70
     1
102
RTVSPropertyOp2
 70
     1
102
RTVSPropertyOp3
 70
     1
102
RTVSPropertyOp4
 70
     1
102
RTVSPropertyOp5
 70
     1
102
RTVSPropertyOp6
 70
     1
102
RTVSPropertyOp7
 70
     1
102
RTVSPropertyOp8
 70
     1
102
RTVSPropertyOp9
 70
     1
102
RTVSPropertyOp10
 70
     1
102
RTVSPropertyOp11
 70
     1
102
RTVSPropertyOp12
 70
     1
102
RTVSPropertyOp13
 70
     1
102
RTVSPropertyOp14
 70
     1
102
RTVSPropertyOp15
 70
     1
102
RTVSPropertyOp16
 70
     1
102
RTVSPropertyOp17
 70
     1
102
RTVSPropertyOp18
 70
     1
102
RTVSPropertyOp19
 70
     1
102
RTVSPropertyOp20
 70
     1
102
RTVSPropertyOp21
 70
     1
102
RTVSPropertyOp22
 70
     1
102
RTVSPropertyOp23
 70
     1
102
RTVSPropertyOp24
 70
     1
102
RTVSPropertyOp25
 70
     1
102
RTVSPropertyOp26
 70
     1
102
RTVSPropertyOp27
 70
     1
102
RTVSPropertyOp28
 70
     1
102
RTVSPropertyOp29
 70
     1
102
RTVSPropertyOp30
 70
     1
102
RTVSPropertyOp31
 70
     1
102
RTVSPropertyOp32
 70
     1
102
RTVSPropertyOp33
 70
     1
102
RTVSPropertyOp34
 70
     1
102
RTVSPropertyOp35
 70
     1
102
RTVSPropertyOp36
 70
     1
102
RTVSPropertyOp37
 70
     1
102
RTVSPropertyOp38
 70
     1
102
RTVSPropertyOp39
 70
     1
102
RTVSPropertyOp40
 70
     1
102
RTVSPropertyOp41
 70
     1
102
RTVSPropertyOp42
 70
     1
102
RTVSPropertyOp43
 70
     1
102
RTVSPropertyOp44
 70
     1
102
RTVSPropertyOp45
 70
     1
102
RTVSPropertyOp46
 70
     1
102
RTVSPropertyOp47
 70
     1
102
RTVSPropertyOp48
 70
     1
102
RTVSPropertyOp49
 70
     1
102
RTVSPropertyOp50
 70
     1
102
RTVSPropertyOp51
 70
     0
102
RTVSPropertyOp52
 70
     0
102
RTVSPropertyOp53
 70
     1
102
RTVSPropertyOp54
 70
     1
102
RTVSPropertyOp55
 70
     1
102
RTVSPropertyOp56
 70
     1
102
RTVSPropertyOp57
 70
     1
102
RTVSPropertyOp58
 70
     1
102
RTVSPropertyOp59
 70
     1
102
RTVSPropertyOp60
 70
     1
102
RTVSPropertyOp61
 70
     1
102
RTVSPropertyOp62
 70
     1
  0
XRECORD
  5
B6CF
102
{ACAD_REACTORS
330
B6CE
102
}
330
B6CE
100
AcDbXrecord
280
     1
102
RTVSPost2010Prop28
280
     0
102
RTVSPost2010PropOp28
 70
     1
102
RTVSPost2010Prop29
280
     1
102
RTVSPost2010PropOp29
 70
     1
102
RTVSPost2010Prop30
280
     1
102
RTVSPost2010PropOp30
 70
     1
102
RTVSPost2010Prop31
280
     0
102
RTVSPost2010PropOp31
 70
     1
102
RTVSPost2010Prop32
280
     0
102
RTVSPost2010PropOp32
 70
     1
102
RTVSPost2010Prop33
280
     0
102
RTVSPost2010PropOp33
 70
     1
102
RTVSPost2010Prop34
280
     0
102
RTVSPost2010PropOp34
 70
     1
102
RTVSPost2010Prop35
280
     0
102
RTVSPost2010PropOp35
 70
     1
102
RTVSPost2010Prop36
280
     0
102
RTVSPost2010PropOp36
 70
     1
102
RTVSPost2010Prop37
 90
       50
102
RTVSPost2010PropOp37
 70
     1
102
RTVSPost2010Prop38
140
0.0
102
RTVSPost2010PropOp38
 70
     1
102
RTVSPost2010Prop39
140
1.0
102
RTVSPost2010PropOp39
 70
     1
102
RTVSPost2010Prop40
 90
        0
102
RTVSPost2010PropOp40
 70
     1
102
RTVSPost2010Prop41ColorIndex
 90
       18
102
RTVSPost2010Prop41ColorRGB
 90
        0
102
RTVSPost2010PropOp41
 70
     1
102
RTVSPost2010Prop42
 90
       50
102
RTVSPost2010PropOp42
 70
     1
102
RTVSPost2010Prop43
 90
        3
102
RTVSPost2010PropOp43
 70
     1
102
RTVSPost2010Prop44ColorIndex
 90
        5
102
RTVSPost2010Prop44ColorRGB
 90
      255
102
RTVSPost2010PropOp44
 70
     1
102
RTVSPost2010Prop45
280
     0
102
RTVSPost2010PropOp45
 70
     1
102
RTVSPost2010Prop46
 90
       50
102
RTVSPost2010PropOp46
 70
     1
102
RTVSPost2010Prop47
 90
       50
102
RTVSPost2010PropOp47
 70
     1
102
RTVSPost2010Prop48
 90
       50
102
RTVSPost2010PropOp48
 70
     1
102
RTVSPost2010Prop49
280
     0
102
RTVSPost2010PropOp49
 70
     1
102
RTVSPost2010Prop50
 90
       50
102
RTVSPost2010PropOp50
 70
     1
102
RTVSPost2010Prop51ColorIndex
 90
      256
102
RTVSPost2010Prop51ColorRGB
 90
-16777216
102
RTVSPost2010PropOp51
 70
     0
102
RTVSPost2010Prop52
140
1.0
102
RTVSPost2010PropOp52
 70
     0
102
RTVSPost2010Prop53
 90
        2
102
RTVSPost2010PropOp53
 70
     1
102
RTVSPost2010Prop54
  1
strokes_ogs.tif
102
RTVSPost2010PropOp54
 70
     1
102
RTVSPost2010Prop55
280
     0
102
RTVSPost2010PropOp55
 70
     1
102
RTVSPost2010Prop56
140
1.0
102
RTVSPost2010PropOp56
 70
     1
102
RTVSPost2010Prop57
140
1.0
102
RTVSPost2010PropOp57
 70
     1
102
RTVSPropertyOp0
 70
     1
102
RTVSPropertyOp1
 70
     1
102
RTVSPropertyOp2
 70
     1
102
RTVSPropertyOp3
 70
     1
102
RTVSPropertyOp4
 70
     1
102
RTVSPropertyOp5
 70
     1
102
RTVSPropertyOp6
 70
     1
102
RTVSPropertyOp7
 70
     1
102
RTVSPropertyOp8
 70
     1
102
RTVSPropertyOp9
 70
     1
102
RTVSPropertyOp10
 70
     1
102
RTVSPropertyOp11
 70
     1
102
RTVSPropertyOp12
 70
     1
102
RTVSPropertyOp13
 70
     1
102
RTVSPropertyOp14
 70
     1
102
RTVSPropertyOp15
 70
     1
102
RTVSPropertyOp16
 70
     1
102
RTVSPropertyOp17
 70
     1
102
RTVSPropertyOp18
 70
     1
102
RTVSPropertyOp19
 70
     1
102
RTVSPropertyOp20
 70
     1
102
RTVSPropertyOp21
 70
     1
102
RTVSPropertyOp22
 70
     1
102
RTVSPropertyOp23
 70
     1
102
RTVSPropertyOp24
 70
     1
102
RTVSPropertyOp25
 70
     1
102
RTVSPropertyOp26
 70
     1
102
RTVSPropertyOp27
 70
     1
102
RTVSPropertyOp28
 70
     1
102
RTVSPropertyOp29
 70
     1
102
RTVSPropertyOp30
 70
     1
102
RTVSPropertyOp31
 70
     1
102
RTVSPropertyOp32
 70
     1
102
RTVSPropertyOp33
 70
     1
102
RTVSPropertyOp34
 70
     1
102
RTVSPropertyOp35
 70
     1
102
RTVSPropertyOp36
 70
     1
102
RTVSPropertyOp37
 70
     1
102
RTVSPropertyOp38
 70
     1
102
RTVSPropertyOp39
 70
     1
102
RTVSPropertyOp40
 70
     1
102
RTVSPropertyOp41
 70
     1
102
RTVSPropertyOp42
 70
     1
102
RTVSPropertyOp43
 70
     1
102
RTVSPropertyOp44
 70
     1
102
RTVSPropertyOp45
 70
     1
102
RTVSPropertyOp46
 70
     1
102
RTVSPropertyOp47
 70
     1
102
RTVSPropertyOp48
 70
     1
102
RTVSPropertyOp49
 70
     1
102
RTVSPropertyOp50
 70
     1
102
RTVSPropertyOp51
 70
     0
102
RTVSPropertyOp52
 70
     0
102
RTVSPropertyOp53
 70
     1
102
RTVSPropertyOp54
 70
     1
102
RTVSPropertyOp55
 70
     1
102
RTVSPropertyOp56
 70
     1
102
RTVSPropertyOp57
 70
     1
102
RTVSPropertyOp58
 70
     1
102
RTVSPropertyOp59
 70
     1
102
RTVSPropertyOp60
 70
     1
102
RTVSPropertyOp61
 70
     1
102
RTVSPropertyOp62
 70
     1
  0
XRECORD
  5
B6D1
102
{ACAD_REACTORS
330
B6D0
102
}
330
B6D0
100
AcDbXrecord
280
     1
102
RTVSPost2010Prop28
280
     0
102
RTVSPost2010PropOp28
 70
     1
102
RTVSPost2010Prop29
280
     1
102
RTVSPost2010PropOp29
 70
     1
102
RTVSPost2010Prop30
280
     1
102
RTVSPost2010PropOp30
 70
     1
102
RTVSPost2010Prop31
280
     0
102
RTVSPost2010PropOp31
 70
     1
102
RTVSPost2010Prop32
280
     0
102
RTVSPost2010PropOp32
 70
     1
102
RTVSPost2010Prop33
280
     0
102
RTVSPost2010PropOp33
 70
     1
102
RTVSPost2010Prop34
280
     0
102
RTVSPost2010PropOp34
 70
     1
102
RTVSPost2010Prop35
280
     0
102
RTVSPost2010PropOp35
 70
     1
102
RTVSPost2010Prop36
280
     0
102
RTVSPost2010PropOp36
 70
     1
102
RTVSPost2010Prop37
 90
       50
102
RTVSPost2010PropOp37
 70
     1
102
RTVSPost2010Prop38
140
0.0
102
RTVSPost2010PropOp38
 70
     1
102
RTVSPost2010Prop39
140
1.0
102
RTVSPost2010PropOp39
 70
     1
102
RTVSPost2010Prop40
 90
        0
102
RTVSPost2010PropOp40
 70
     1
102
RTVSPost2010Prop41ColorIndex
 90
       18
102
RTVSPost2010Prop41ColorRGB
 90
        0
102
RTVSPost2010PropOp41
 70
     1
102
RTVSPost2010Prop42
 90
       50
102
RTVSPost2010PropOp42
 70
     1
102
RTVSPost2010Prop43
 90
        3
102
RTVSPost2010PropOp43
 70
     1
102
RTVSPost2010Prop44ColorIndex
 90
        5
102
RTVSPost2010Prop44ColorRGB
 90
      255
102
RTVSPost2010PropOp44
 70
     1
102
RTVSPost2010Prop45
280
     0
102
RTVSPost2010PropOp45
 70
     1
102
RTVSPost2010Prop46
 90
       50
102
RTVSPost2010PropOp46
 70
     1
102
RTVSPost2010Prop47
 90
       50
102
RTVSPost2010PropOp47
 70
     1
102
RTVSPost2010Prop48
 90
       50
102
RTVSPost2010PropOp48
 70
     1
102
RTVSPost2010Prop49
280
     0
102
RTVSPost2010PropOp49
 70
     1
102
RTVSPost2010Prop50
 90
       50
102
RTVSPost2010PropOp50
 70
     1
102
RTVSPost2010Prop51ColorIndex
 90
      256
102
RTVSPost2010Prop51ColorRGB
 90
-16777216
102
RTVSPost2010PropOp51
 70
     0
102
RTVSPost2010Prop52
140
1.0
102
RTVSPost2010PropOp52
 70
     0
102
RTVSPost2010Prop53
 90
        2
102
RTVSPost2010PropOp53
 70
     1
102
RTVSPost2010Prop54
  1
strokes_ogs.tif
102
RTVSPost2010PropOp54
 70
     1
102
RTVSPost2010Prop55
280
     0
102
RTVSPost2010PropOp55
 70
     1
102
RTVSPost2010Prop56
140
1.0
102
RTVSPost2010PropOp56
 70
     1
102
RTVSPost2010Prop57
140
1.0
102
RTVSPost2010PropOp57
 70
     1
102
RTVSPropertyOp0
 70
     1
102
RTVSPropertyOp1
 70
     1
102
RTVSPropertyOp2
 70
     1
102
RTVSPropertyOp3
 70
     1
102
RTVSPropertyOp4
 70
     1
102
RTVSPropertyOp5
 70
     1
102
RTVSPropertyOp6
 70
     1
102
RTVSPropertyOp7
 70
     1
102
RTVSPropertyOp8
 70
     1
102
RTVSPropertyOp9
 70
     1
102
RTVSPropertyOp10
 70
     1
102
RTVSPropertyOp11
 70
     1
102
RTVSPropertyOp12
 70
     1
102
RTVSPropertyOp13
 70
     1
102
RTVSPropertyOp14
 70
     1
102
RTVSPropertyOp15
 70
     1
102
RTVSPropertyOp16
 70
     1
102
RTVSPropertyOp17
 70
     1
102
RTVSPropertyOp18
 70
     1
102
RTVSPropertyOp19
 70
     1
102
RTVSPropertyOp20
 70
     1
102
RTVSPropertyOp21
 70
     1
102
RTVSPropertyOp22
 70
     1
102
RTVSPropertyOp23
 70
     1
102
RTVSPropertyOp24
 70
     1
102
RTVSPropertyOp25
 70
     1
102
RTVSPropertyOp26
 70
     1
102
RTVSPropertyOp27
 70
     1
102
RTVSPropertyOp28
 70
     1
102
RTVSPropertyOp29
 70
     1
102
RTVSPropertyOp30
 70
     1
102
RTVSPropertyOp31
 70
     1
102
RTVSPropertyOp32
 70
     1
102
RTVSPropertyOp33
 70
     1
102
RTVSPropertyOp34
 70
     1
102
RTVSPropertyOp35
 70
     1
102
RTVSPropertyOp36
 70
     1
102
RTVSPropertyOp37
 70
     1
102
RTVSPropertyOp38
 70
     1
102
RTVSPropertyOp39
 70
     1
102
RTVSPropertyOp40
 70
     1
102
RTVSPropertyOp41
 70
     1
102
RTVSPropertyOp42
 70
     1
102
RTVSPropertyOp43
 70
     1
102
RTVSPropertyOp44
 70
     1
102
RTVSPropertyOp45
 70
     1
102
RTVSPropertyOp46
 70
     1
102
RTVSPropertyOp47
 70
     1
102
RTVSPropertyOp48
 70
     1
102
RTVSPropertyOp49
 70
     1
102
RTVSPropertyOp50
 70
     1
102
RTVSPropertyOp51
 70
     0
102
RTVSPropertyOp52
 70
     0
102
RTVSPropertyOp53
 70
     1
102
RTVSPropertyOp54
 70
     1
102
RTVSPropertyOp55
 70
     1
102
RTVSPropertyOp56
 70
     1
102
RTVSPropertyOp57
 70
     1
102
RTVSPropertyOp58
 70
     1
102
RTVSPropertyOp59
 70
     1
102
RTVSPropertyOp60
 70
     1
102
RTVSPropertyOp61
 70
     1
102
RTVSPropertyOp62
 70
     1
  0
XRECORD
  5
B6C7
102
{ACAD_REACTORS
330
B6C6
102
}
330
B6C6
100
AcDbXrecord
280
     1
102
RTVSPost2010Prop28
280
     0
102
RTVSPost2010PropOp28
 70
     1
102
RTVSPost2010Prop29
280
     1
102
RTVSPost2010PropOp29
 70
     1
102
RTVSPost2010Prop30
280
     1
102
RTVSPost2010PropOp30
 70
     1
102
RTVSPost2010Prop31
280
     0
102
RTVSPost2010PropOp31
 70
     1
102
RTVSPost2010Prop32
280
     0
102
RTVSPost2010PropOp32
 70
     1
102
RTVSPost2010Prop33
280
     0
102
RTVSPost2010PropOp33
 70
     1
102
RTVSPost2010Prop34
280
     0
102
RTVSPost2010PropOp34
 70
     1
102
RTVSPost2010Prop35
280
     0
102
RTVSPost2010PropOp35
 70
     1
102
RTVSPost2010Prop36
280
     0
102
RTVSPost2010PropOp36
 70
     1
102
RTVSPost2010Prop37
 90
       50
102
RTVSPost2010PropOp37
 70
     1
102
RTVSPost2010Prop38
140
0.0
102
RTVSPost2010PropOp38
 70
     1
102
RTVSPost2010Prop39
140
1.0
102
RTVSPost2010PropOp39
 70
     1
102
RTVSPost2010Prop40
 90
        0
102
RTVSPost2010PropOp40
 70
     1
102
RTVSPost2010Prop41ColorIndex
 90
       18
102
RTVSPost2010Prop41ColorRGB
 90
        0
102
RTVSPost2010PropOp41
 70
     1
102
RTVSPost2010Prop42
 90
       50
102
RTVSPost2010PropOp42
 70
     1
102
RTVSPost2010Prop43
 90
        3
102
RTVSPost2010PropOp43
 70
     1
102
RTVSPost2010Prop44ColorIndex
 90
        5
102
RTVSPost2010Prop44ColorRGB
 90
      255
102
RTVSPost2010PropOp44
 70
     1
102
RTVSPost2010Prop45
280
     0
102
RTVSPost2010PropOp45
 70
     1
102
RTVSPost2010Prop46
 90
       50
102
RTVSPost2010PropOp46
 70
     1
102
RTVSPost2010Prop47
 90
       50
102
RTVSPost2010PropOp47
 70
     1
102
RTVSPost2010Prop48
 90
       50
102
RTVSPost2010PropOp48
 70
     1
102
RTVSPost2010Prop49
280
     0
102
RTVSPost2010PropOp49
 70
     1
102
RTVSPost2010Prop50
 90
       50
102
RTVSPost2010PropOp50
 70
     1
102
RTVSPost2010Prop51ColorIndex
 90
      256
102
RTVSPost2010Prop51ColorRGB
 90
-16777216
102
RTVSPost2010PropOp51
 70
     0
102
RTVSPost2010Prop52
140
1.0
102
RTVSPost2010PropOp52
 70
     0
102
RTVSPost2010Prop53
 90
        2
102
RTVSPost2010PropOp53
 70
     1
102
RTVSPost2010Prop54
  1
strokes_ogs.tif
102
RTVSPost2010PropOp54
 70
     1
102
RTVSPost2010Prop55
280
     0
102
RTVSPost2010PropOp55
 70
     1
102
RTVSPost2010Prop56
140
1.0
102
RTVSPost2010PropOp56
 70
     1
102
RTVSPost2010Prop57
140
1.0
102
RTVSPost2010PropOp57
 70
     1
102
RTVSPropertyOp0
 70
     1
102
RTVSPropertyOp1
 70
     1
102
RTVSPropertyOp2
 70
     1
102
RTVSPropertyOp3
 70
     1
102
RTVSPropertyOp4
 70
     1
102
RTVSPropertyOp5
 70
     1
102
RTVSPropertyOp6
 70
     1
102
RTVSPropertyOp7
 70
     1
102
RTVSPropertyOp8
 70
     1
102
RTVSPropertyOp9
 70
     1
102
RTVSPropertyOp10
 70
     1
102
RTVSPropertyOp11
 70
     1
102
RTVSPropertyOp12
 70
     1
102
RTVSPropertyOp13
 70
     1
102
RTVSPropertyOp14
 70
     1
102
RTVSPropertyOp15
 70
     1
102
RTVSPropertyOp16
 70
     1
102
RTVSPropertyOp17
 70
     1
102
RTVSPropertyOp18
 70
     1
102
RTVSPropertyOp19
 70
     1
102
RTVSPropertyOp20
 70
     1
102
RTVSPropertyOp21
 70
     1
102
RTVSPropertyOp22
 70
     1
102
RTVSPropertyOp23
 70
     1
102
RTVSPropertyOp24
 70
     1
102
RTVSPropertyOp25
 70
     1
102
RTVSPropertyOp26
 70
     1
102
RTVSPropertyOp27
 70
     1
102
RTVSPropertyOp28
 70
     1
102
RTVSPropertyOp29
 70
     1
102
RTVSPropertyOp30
 70
     1
102
RTVSPropertyOp31
 70
     1
102
RTVSPropertyOp32
 70
     1
102
RTVSPropertyOp33
 70
     1
102
RTVSPropertyOp34
 70
     1
102
RTVSPropertyOp35
 70
     1
102
RTVSPropertyOp36
 70
     1
102
RTVSPropertyOp37
 70
     1
102
RTVSPropertyOp38
 70
     1
102
RTVSPropertyOp39
 70
     1
102
RTVSPropertyOp40
 70
     1
102
RTVSPropertyOp41
 70
     1
102
RTVSPropertyOp42
 70
     1
102
RTVSPropertyOp43
 70
     1
102
RTVSPropertyOp44
 70
     1
102
RTVSPropertyOp45
 70
     1
102
RTVSPropertyOp46
 70
     1
102
RTVSPropertyOp47
 70
     1
102
RTVSPropertyOp48
 70
     1
102
RTVSPropertyOp49
 70
     1
102
RTVSPropertyOp50
 70
     1
102
RTVSPropertyOp51
 70
     0
102
RTVSPropertyOp52
 70
     0
102
RTVSPropertyOp53
 70
     1
102
RTVSPropertyOp54
 70
     1
102
RTVSPropertyOp55
 70
     1
102
RTVSPropertyOp56
 70
     1
102
RTVSPropertyOp57
 70
     1
102
RTVSPropertyOp58
 70
     1
102
RTVSPropertyOp59
 70
     1
102
RTVSPropertyOp60
 70
     1
102
RTVSPropertyOp61
 70
     1
102
RTVSPropertyOp62
 70
     1
  0
XRECORD
  5
B6BB
102
{ACAD_REACTORS
330
B6BA
102
}
330
B6BA
100
AcDbXrecord
280
     1
102
RTVSPost2010Prop28
280
     0
102
RTVSPost2010PropOp28
 70
     1
102
RTVSPost2010Prop29
280
     1
102
RTVSPost2010PropOp29
 70
     1
102
RTVSPost2010Prop30
280
     1
102
RTVSPost2010PropOp30
 70
     1
102
RTVSPost2010Prop31
280
     0
102
RTVSPost2010PropOp31
 70
     1
102
RTVSPost2010Prop32
280
     0
102
RTVSPost2010PropOp32
 70
     1
102
RTVSPost2010Prop33
280
     0
102
RTVSPost2010PropOp33
 70
     1
102
RTVSPost2010Prop34
280
     0
102
RTVSPost2010PropOp34
 70
     1
102
RTVSPost2010Prop35
280
     0
102
RTVSPost2010PropOp35
 70
     1
102
RTVSPost2010Prop36
280
     0
102
RTVSPost2010PropOp36
 70
     1
102
RTVSPost2010Prop37
 90
       50
102
RTVSPost2010PropOp37
 70
     1
102
RTVSPost2010Prop38
140
0.0
102
RTVSPost2010PropOp38
 70
     1
102
RTVSPost2010Prop39
140
1.0
102
RTVSPost2010PropOp39
 70
     1
102
RTVSPost2010Prop40
 90
        0
102
RTVSPost2010PropOp40
 70
     1
102
RTVSPost2010Prop41ColorIndex
 90
       18
102
RTVSPost2010Prop41ColorRGB
 90
        0
102
RTVSPost2010PropOp41
 70
     1
102
RTVSPost2010Prop42
 90
       50
102
RTVSPost2010PropOp42
 70
     1
102
RTVSPost2010Prop43
 90
        3
102
RTVSPost2010PropOp43
 70
     1
102
RTVSPost2010Prop44ColorIndex
 90
        5
102
RTVSPost2010Prop44ColorRGB
 90
      255
102
RTVSPost2010PropOp44
 70
     1
102
RTVSPost2010Prop45
280
     0
102
RTVSPost2010PropOp45
 70
     1
102
RTVSPost2010Prop46
 90
       50
102
RTVSPost2010PropOp46
 70
     1
102
RTVSPost2010Prop47
 90
       50
102
RTVSPost2010PropOp47
 70
     1
102
RTVSPost2010Prop48
 90
       50
102
RTVSPost2010PropOp48
 70
     1
102
RTVSPost2010Prop49
280
     0
102
RTVSPost2010PropOp49
 70
     1
102
RTVSPost2010Prop50
 90
       50
102
RTVSPost2010PropOp50
 70
     1
102
RTVSPost2010Prop51ColorIndex
 90
      256
102
RTVSPost2010Prop51ColorRGB
 90
-16777216
102
RTVSPost2010PropOp51
 70
     0
102
RTVSPost2010Prop52
140
1.0
102
RTVSPost2010PropOp52
 70
     0
102
RTVSPost2010Prop53
 90
        2
102
RTVSPost2010PropOp53
 70
     1
102
RTVSPost2010Prop54
  1
strokes_ogs.tif
102
RTVSPost2010PropOp54
 70
     1
102
RTVSPost2010Prop55
280
     0
102
RTVSPost2010PropOp55
 70
     1
102
RTVSPost2010Prop56
140
1.0
102
RTVSPost2010PropOp56
 70
     1
102
RTVSPost2010Prop57
140
1.0
102
RTVSPost2010PropOp57
 70
     1
102
RTVSPropertyOp0
 70
     1
102
RTVSPropertyOp1
 70
     1
102
RTVSPropertyOp2
 70
     1
102
RTVSPropertyOp3
 70
     1
102
RTVSPropertyOp4
 70
     1
102
RTVSPropertyOp5
 70
     1
102
RTVSPropertyOp6
 70
     1
102
RTVSPropertyOp7
 70
     1
102
RTVSPropertyOp8
 70
     1
102
RTVSPropertyOp9
 70
     1
102
RTVSPropertyOp10
 70
     1
102
RTVSPropertyOp11
 70
     1
102
RTVSPropertyOp12
 70
     1
102
RTVSPropertyOp13
 70
     1
102
RTVSPropertyOp14
 70
     1
102
RTVSPropertyOp15
 70
     1
102
RTVSPropertyOp16
 70
     1
102
RTVSPropertyOp17
 70
     1
102
RTVSPropertyOp18
 70
     1
102
RTVSPropertyOp19
 70
     1
102
RTVSPropertyOp20
 70
     1
102
RTVSPropertyOp21
 70
     1
102
RTVSPropertyOp22
 70
     1
102
RTVSPropertyOp23
 70
     1
102
RTVSPropertyOp24
 70
     1
102
RTVSPropertyOp25
 70
     1
102
RTVSPropertyOp26
 70
     1
102
RTVSPropertyOp27
 70
     1
102
RTVSPropertyOp28
 70
     1
102
RTVSPropertyOp29
 70
     1
102
RTVSPropertyOp30
 70
     1
102
RTVSPropertyOp31
 70
     1
102
RTVSPropertyOp32
 70
     1
102
RTVSPropertyOp33
 70
     1
102
RTVSPropertyOp34
 70
     1
102
RTVSPropertyOp35
 70
     1
102
RTVSPropertyOp36
 70
     1
102
RTVSPropertyOp37
 70
     1
102
RTVSPropertyOp38
 70
     1
102
RTVSPropertyOp39
 70
     1
102
RTVSPropertyOp40
 70
     1
102
RTVSPropertyOp41
 70
     1
102
RTVSPropertyOp42
 70
     1
102
RTVSPropertyOp43
 70
     1
102
RTVSPropertyOp44
 70
     1
102
RTVSPropertyOp45
 70
     1
102
RTVSPropertyOp46
 70
     1
102
RTVSPropertyOp47
 70
     1
102
RTVSPropertyOp48
 70
     1
102
RTVSPropertyOp49
 70
     1
102
RTVSPropertyOp50
 70
     1
102
RTVSPropertyOp51
 70
     0
102
RTVSPropertyOp52
 70
     0
102
RTVSPropertyOp53
 70
     1
102
RTVSPropertyOp54
 70
     1
102
RTVSPropertyOp55
 70
     1
102
RTVSPropertyOp56
 70
     1
102
RTVSPropertyOp57
 70
     1
102
RTVSPropertyOp58
 70
     1
102
RTVSPropertyOp59
 70
     1
102
RTVSPropertyOp60
 70
     1
102
RTVSPropertyOp61
 70
     1
102
RTVSPropertyOp62
 70
     1
  0
XRECORD
  5
B6D3
102
{ACAD_REACTORS
330
B6D2
102
}
330
B6D2
100
AcDbXrecord
280
     1
102
RTVSPost2010Prop28
280
     0
102
RTVSPost2010PropOp28
 70
     1
102
RTVSPost2010Prop29
280
     1
102
RTVSPost2010PropOp29
 70
     1
102
RTVSPost2010Prop30
280
     1
102
RTVSPost2010PropOp30
 70
     1
102
RTVSPost2010Prop31
280
     0
102
RTVSPost2010PropOp31
 70
     1
102
RTVSPost2010Prop32
280
     0
102
RTVSPost2010PropOp32
 70
     1
102
RTVSPost2010Prop33
280
     0
102
RTVSPost2010PropOp33
 70
     1
102
RTVSPost2010Prop34
280
     0
102
RTVSPost2010PropOp34
 70
     1
102
RTVSPost2010Prop35
280
     0
102
RTVSPost2010PropOp35
 70
     1
102
RTVSPost2010Prop36
280
     0
102
RTVSPost2010PropOp36
 70
     1
102
RTVSPost2010Prop37
 90
       50
102
RTVSPost2010PropOp37
 70
     1
102
RTVSPost2010Prop38
140
0.0
102
RTVSPost2010PropOp38
 70
     1
102
RTVSPost2010Prop39
140
1.0
102
RTVSPost2010PropOp39
 70
     1
102
RTVSPost2010Prop40
 90
        0
102
RTVSPost2010PropOp40
 70
     1
102
RTVSPost2010Prop41ColorIndex
 90
       18
102
RTVSPost2010Prop41ColorRGB
 90
        0
102
RTVSPost2010PropOp41
 70
     1
102
RTVSPost2010Prop42
 90
       50
102
RTVSPost2010PropOp42
 70
     1
102
RTVSPost2010Prop43
 90
        3
102
RTVSPost2010PropOp43
 70
     1
102
RTVSPost2010Prop44ColorIndex
 90
        5
102
RTVSPost2010Prop44ColorRGB
 90
      255
102
RTVSPost2010PropOp44
 70
     1
102
RTVSPost2010Prop45
280
     0
102
RTVSPost2010PropOp45
 70
     1
102
RTVSPost2010Prop46
 90
       50
102
RTVSPost2010PropOp46
 70
     1
102
RTVSPost2010Prop47
 90
       50
102
RTVSPost2010PropOp47
 70
     1
102
RTVSPost2010Prop48
 90
       50
102
RTVSPost2010PropOp48
 70
     1
102
RTVSPost2010Prop49
280
     0
102
RTVSPost2010PropOp49
 70
     1
102
RTVSPost2010Prop50
 90
       50
102
RTVSPost2010PropOp50
 70
     1
102
RTVSPost2010Prop51ColorIndex
 90
      256
102
RTVSPost2010Prop51ColorRGB
 90
-16777216
102
RTVSPost2010PropOp51
 70
     0
102
RTVSPost2010Prop52
140
1.0
102
RTVSPost2010PropOp52
 70
     0
102
RTVSPost2010Prop53
 90
        2
102
RTVSPost2010PropOp53
 70
     1
102
RTVSPost2010Prop54
  1
strokes_ogs.tif
102
RTVSPost2010PropOp54
 70
     1
102
RTVSPost2010Prop55
280
     0
102
RTVSPost2010PropOp55
 70
     1
102
RTVSPost2010Prop56
140
1.0
102
RTVSPost2010PropOp56
 70
     1
102
RTVSPost2010Prop57
140
1.0
102
RTVSPost2010PropOp57
 70
     1
102
RTVSPropertyOp0
 70
     1
102
RTVSPropertyOp1
 70
     1
102
RTVSPropertyOp2
 70
     1
102
RTVSPropertyOp3
 70
     1
102
RTVSPropertyOp4
 70
     1
102
RTVSPropertyOp5
 70
     1
102
RTVSPropertyOp6
 70
     1
102
RTVSPropertyOp7
 70
     1
102
RTVSPropertyOp8
 70
     1
102
RTVSPropertyOp9
 70
     1
102
RTVSPropertyOp10
 70
     1
102
RTVSPropertyOp11
 70
     1
102
RTVSPropertyOp12
 70
     1
102
RTVSPropertyOp13
 70
     1
102
RTVSPropertyOp14
 70
     1
102
RTVSPropertyOp15
 70
     1
102
RTVSPropertyOp16
 70
     1
102
RTVSPropertyOp17
 70
     1
102
RTVSPropertyOp18
 70
     1
102
RTVSPropertyOp19
 70
     1
102
RTVSPropertyOp20
 70
     1
102
RTVSPropertyOp21
 70
     1
102
RTVSPropertyOp22
 70
     1
102
RTVSPropertyOp23
 70
     1
102
RTVSPropertyOp24
 70
     1
102
RTVSPropertyOp25
 70
     1
102
RTVSPropertyOp26
 70
     1
102
RTVSPropertyOp27
 70
     1
102
RTVSPropertyOp28
 70
     1
102
RTVSPropertyOp29
 70
     1
102
RTVSPropertyOp30
 70
     1
102
RTVSPropertyOp31
 70
     1
102
RTVSPropertyOp32
 70
     1
102
RTVSPropertyOp33
 70
     1
102
RTVSPropertyOp34
 70
     1
102
RTVSPropertyOp35
 70
     1
102
RTVSPropertyOp36
 70
     1
102
RTVSPropertyOp37
 70
     1
102
RTVSPropertyOp38
 70
     1
102
RTVSPropertyOp39
 70
     1
102
RTVSPropertyOp40
 70
     1
102
RTVSPropertyOp41
 70
     1
102
RTVSPropertyOp42
 70
     1
102
RTVSPropertyOp43
 70
     1
102
RTVSPropertyOp44
 70
     1
102
RTVSPropertyOp45
 70
     1
102
RTVSPropertyOp46
 70
     1
102
RTVSPropertyOp47
 70
     1
102
RTVSPropertyOp48
 70
     1
102
RTVSPropertyOp49
 70
     1
102
RTVSPropertyOp50
 70
     1
102
RTVSPropertyOp51
 70
     0
102
RTVSPropertyOp52
 70
     0
102
RTVSPropertyOp53
 70
     1
102
RTVSPropertyOp54
 70
     1
102
RTVSPropertyOp55
 70
     1
102
RTVSPropertyOp56
 70
     1
102
RTVSPropertyOp57
 70
     1
102
RTVSPropertyOp58
 70
     1
102
RTVSPropertyOp59
 70
     1
102
RTVSPropertyOp60
 70
     1
102
RTVSPropertyOp61
 70
     1
102
RTVSPropertyOp62
 70
     1
  0
ENDSEC
  0
EOF
