  0
SECTION
  2
HEADER
  9
$ACADVER
  1
AC1018
  9
$ACADMAINTVER
 70
   104
  9
$DWGCODEPAGE
  3
ANSI_932
  9
$LASTSAVEDBY
  1
0803015
  9
$INSBASE
 10
0.0
 20
0.0
 30
0.0
  9
$EXTMIN
 10
-1.25851713
 20
-0.91528518
 30
0.0
  9
$EXTMAX
 10
27501.25902938
 20
20000.91565773
 30
0.0
  9
$LIMMIN
 10
0.0
 20
0.0
  9
$LIMMAX
 10
420.0
 20
297.0
  9
$ORTHOMODE
 70
     1
  9
$REGENMODE
 70
     1
  9
$FILLMODE
 70
     1
  9
$QTEXTMODE
 70
     0
  9
$MIRRTEXT
 70
     0
  9
$LTSCALE
 40
1.0
  9
$ATTMODE
 70
     1
  9
$TEXTSIZE
 40
250.0
  9
$TRACEWID
 40
1.0
  9
$TEXTSTYLE
  7
STANDARD
  9
$CLAYER
  8
0
  9
$CELTYPE
  6
BYLAYER
  9
$CECOLOR
 62
   256
  9
$CELTSCALE
 40
1.0
  9
$DISPSILH
 70
     1
  9
$DIMSCALE
 40
1.0
  9
$DIMASZ
 40
2.5
  9
$DIMEXO
 40
0.625
  9
$DIMDLI
 40
3.75
  9
$DIMRND
 40
0.0
  9
$DIMDLE
 40
0.0
  9
$DIMEXE
 40
1.25
  9
$DIMTP
 40
0.0
  9
$DIMTM
 40
0.0
  9
$DIMTXT
 40
2.5
  9
$DIMCEN
 40
2.5
  9
$DIMTSZ
 40
0.0
  9
$DIMTOL
 70
     0
  9
$DIMLIM
 70
     0
  9
$DIMTIH
 70
     1
  9
$DIMTOH
 70
     0
  9
$DIMSE1
 70
     0
  9
$DIMSE2
 70
     0
  9
$DIMTAD
 70
     1
  9
$DIMZIN
 70
     0
  9
$DIMBLK
  1

  9
$DIMASO
 70
     1
  9
$DIMSHO
 70
     1
  9
$DIMPOST
  1

  9
$DIMAPOST
  1

  9
$DIMALT
 70
     0
  9
$DIMALTD
 70
     2
  9
$DIMALTF
 40
0.0394
  9
$DIMLFAC
 40
1.0
  9
$DIMTOFL
 70
     1
  9
$DIMTVP
 40
1.0
  9
$DIMTIX
 70
     0
  9
$DIMSOXD
 70
     0
  9
$DIMSAH
 70
     0
  9
$DIMBLK1
  1

  9
$DIMBLK2
  1

  9
$DIMSTYLE
  2
STANDARD
  9
$DIMCLRD
 70
     0
  9
$DIMCLRE
 70
     0
  9
$DIMCLRT
 70
     0
  9
$DIMTFAC
 40
1.0
  9
$DIMGAP
 40
0.625
  9
$DIMJUST
 70
     0
  9
$DIMSD1
 70
     0
  9
$DIMSD2
 70
     0
  9
$DIMTOLJ
 70
     1
  9
$DIMTZIN
 70
     0
  9
$DIMALTZ
 70
     0
  9
$DIMALTTZ
 70
     0
  9
$DIMUPT
 70
     0
  9
$DIMDEC
 70
     4
  9
$DIMTDEC
 70
     4
  9
$DIMALTU
 70
     2
  9
$DIMALTTD
 70
     2
  9
$DIMTXSTY
  7
STANDARD
  9
$DIMAUNIT
 70
     0
  9
$DIMADEC
 70
     0
  9
$DIMALTRND
 40
0.0
  9
$DIMAZIN
 70
     0
  9
$DIMDSEP
 70
    46
  9
$DIMATFIT
 70
     3
  9
$DIMFRAC
 70
     0
  9
$DIMLDRBLK
  1

  9
$DIMLUNIT
 70
     2
  9
$DIMLWD
 70
    -2
  9
$DIMLWE
 70
    -2
  9
$DIMTMOVE
 70
     2
  9
$LUNITS
 70
     2
  9
$LUPREC
 70
     4
  9
$SKETCHINC
 40
1.0
  9
$FILLETRAD
 40
0.0
  9
$AUNITS
 70
     0
  9
$AUPREC
 70
     0
  9
$MENU
  1
acad
  9
$ELEVATION
 40
0.0
  9
$PELEVATION
 40
0.0
  9
$THICKNESS
 40
0.0
  9
$LIMCHECK
 70
     0
  9
$CHAMFERA
 40
10.0
  9
$CHAMFERB
 40
10.0
  9
$CHAMFERC
 40
0.0
  9
$CHAMFERD
 40
0.0
  9
$SKPOLY
 70
     0
  9
$TDCREATE
 40
2450576.679432870
  9
$TDUCREATE
 40
2450576.304432871
  9
$TDUPDATE
 40
2459569.417233796
  9
$TDUUPDATE
 40
2459569.042233797
  9
$TDINDWG
 40
0.7071156019
  9
$TDUSRTIMER
 40
0.7071156019
  9
$USRTIMER
 70
     1
  9
$ANGBASE
 50
0.0
  9
$ANGDIR
 70
     0
  9
$PDMODE
 70
     0
  9
$PDSIZE
 40
0.0
  9
$PLINEWID
 40
0.0
  9
$SPLFRAME
 70
     0
  9
$SPLINETYPE
 70
     6
  9
$SPLINESEGS
 70
     8
  9
$HANDSEED
  5
3138
  9
$SURFTAB1
 70
     6
  9
$SURFTAB2
 70
     6
  9
$SURFTYPE
 70
     6
  9
$SURFU
 70
     6
  9
$SURFV
 70
     6
  9
$UCSBASE
  2

  9
$UCSNAME
  2

  9
$UCSORG
 10
0.0
 20
0.0
 30
0.0
  9
$UCSXDIR
 10
1.0
 20
0.0
 30
0.0
  9
$UCSYDIR
 10
0.0
 20
1.0
 30
0.0
  9
$UCSORTHOREF
  2

  9
$UCSORTHOVIEW
 70
     0
  9
$UCSORGTOP
 10
0.0
 20
0.0
 30
0.0
  9
$UCSORGBOTTOM
 10
0.0
 20
0.0
 30
0.0
  9
$UCSORGLEFT
 10
0.0
 20
0.0
 30
0.0
  9
$UCSORGRIGHT
 10
0.0
 20
0.0
 30
0.0
  9
$UCSORGFRONT
 10
0.0
 20
0.0
 30
0.0
  9
$UCSORGBACK
 10
0.0
 20
0.0
 30
0.0
  9
$PUCSBASE
  2

  9
$PUCSNAME
  2

  9
$PUCSORG
 10
0.0
 20
0.0
 30
0.0
  9
$PUCSXDIR
 10
1.0
 20
0.0
 30
0.0
  9
$PUCSYDIR
 10
0.0
 20
1.0
 30
0.0
  9
$PUCSORTHOREF
  2

  9
$PUCSORTHOVIEW
 70
     0
  9
$PUCSORGTOP
 10
0.0
 20
0.0
 30
0.0
  9
$PUCSORGBOTTOM
 10
0.0
 20
0.0
 30
0.0
  9
$PUCSORGLEFT
 10
0.0
 20
0.0
 30
0.0
  9
$PUCSORGRIGHT
 10
0.0
 20
0.0
 30
0.0
  9
$PUCSORGFRONT
 10
0.0
 20
0.0
 30
0.0
  9
$PUCSORGBACK
 10
0.0
 20
0.0
 30
0.0
  9
$USERI1
 70
     0
  9
$USERI2
 70
     0
  9
$USERI3
 70
     0
  9
$USERI4
 70
     0
  9
$USERI5
 70
     0
  9
$USERR1
 40
0.0
  9
$USERR2
 40
0.0
  9
$USERR3
 40
0.0
  9
$USERR4
 40
0.0
  9
$USERR5
 40
0.0
  9
$WORLDVIEW
 70
     1
  9
$SHADEDGE
 70
     3
  9
$SHADEDIF
 70
    70
  9
$TILEMODE
 70
     1
  9
$MAXACTVP
 70
    16
  9
$PINSBASE
 10
0.0
 20
0.0
 30
0.0
  9
$PLIMCHECK
 70
     0
  9
$PEXTMIN
 10
1.00000000E+20
 20
1.00000000E+20
 30
1.00000000E+20
  9
$PEXTMAX
 10
-1.00000000E+20
 20
-1.00000000E+20
 30
-1.00000000E+20
  9
$PLIMMIN
 10
0.0
 20
0.0
  9
$PLIMMAX
 10
420.0
 20
297.0
  9
$UNITMODE
 70
     0
  9
$VISRETAIN
 70
     0
  9
$PLINEGEN
 70
     0
  9
$PSLTSCALE
 70
     1
  9
$TREEDEPTH
 70
  3020
  9
$CMLSTYLE
  2
STANDARD
  9
$CMLJUST
 70
     0
  9
$CMLSCALE
 40
1.0
  9
$PROXYGRAPHICS
 70
     1
  9
$MEASUREMENT
 70
     1
  9
$CELWEIGHT
370
    -1
  9
$ENDCAPS
280
     0
  9
$JOINSTYLE
280
     0
  9
$LWDISPLAY
290
     0
  9
$INSUNITS
 70
     0
  9
$HYPERLINKBASE
  1

  9
$STYLESHEET
  1

  9
$XEDIT
290
     1
  9
$CEPSNTYPE
380
     0
  9
$PSTYLEMODE
290
     1
  9
$FINGERPRINTGUID
  2
{85684939-C764-4A99-B6FB-F976704AAE2E}
  9
$VERSIONGUID
  2
{D7246AE5-EB79-C243-A1B6-865ED9F40510}
  9
$EXTNAMES
290
     1
  9
$PSVPSCALE
 40
0.0
  9
$OLESTARTUP
290
     0
  9
$SORTENTS
280
   127
  9
$INDEXCTL
280
     0
  9
$HIDETEXT
280
     0
  9
$XCLIPFRAME
290
     0
  9
$HALOGAP
280
     0
  9
$OBSCOLOR
 70
   257
  9
$OBSLTYPE
280
     0
  9
$INTERSECTIONDISPLAY
280
     0
  9
$INTERSECTIONCOLOR
 70
   257
  9
$DIMASSOC
280
     1
  9
$PROJECTNAME
  1

  0
ENDSEC
  0
SECTION
  2
CLASSES
  0
CLASS
  1
DICTIONARYVAR
  2
AcDbDictionaryVar
  3
ObjectDBX Classes
 90
        0
 91
        8
280
     0
281
     0
  0
CLASS
  1
ACDBDICTIONARYWDFLT
  2
AcDbDictionaryWithDefault
  3
ObjectDBX Classes
 90
        0
 91
        1
280
     0
281
     0
  0
CLASS
  1
MATERIAL
  2
AcDbMaterial
  3
ObjectDBX Classes
 90
     1153
 91
        3
280
     0
281
     0
  0
CLASS
  1
VISUALSTYLE
  2
AcDbVisualStyle
  3
ObjectDBX Classes
 90
     4095
 91
       24
280
     0
281
     0
  0
CLASS
  1
TABLESTYLE
  2
AcDbTableStyle
  3
ObjectDBX Classes
 90
     4095
 91
        1
280
     0
281
     0
  0
CLASS
  1
SCALE
  2
AcDbScale
  3
ObjectDBX Classes
 90
     1153
 91
       17
280
     0
281
     0
  0
CLASS
  1
MLEADERSTYLE
  2
AcDbMLeaderStyle
  3
ACDB_MLEADERSTYLE_CLASS
 90
     4095
 91
        1
280
     0
281
     0
  0
CLASS
  1
ACDBSECTIONVIEWSTYLE
  2
AcDbSectionViewStyle
  3
ObjectDBX Classes
 90
     1025
 91
        2
280
     0
281
     0
  0
CLASS
  1
ACDBDETAILVIEWSTYLE
  2
AcDbDetailViewStyle
  3
ObjectDBX Classes
 90
     1025
 91
        2
280
     0
281
     0
  0
CLASS
  1
CELLSTYLEMAP
  2
AcDbCellStyleMap
  3
ObjectDBX Classes
 90
     1152
 91
        2
280
     0
281
     0
  0
CLASS
  1
RAPIDRTRENDERSETTINGS
  2
AcDbRapidRTRenderSettings
  3
ObjectDBX Classes
 90
     1024
 91
        1
280
     0
281
     0
  0
CLASS
  1
MENTALRAYRENDERSETTINGS
  2
AcDbMentalRayRenderSettings
  3
SCENEOE
 90
     1024
 91
        1
280
     0
281
     0
  0
CLASS
  1
SORTENTSTABLE
  2
AcDbSortentsTable
  3
ObjectDBX Classes
 90
        0
 91
        0
280
     0
281
     0
  0
ENDSEC
  0
SECTION
  2
TABLES
  0
TABLE
  2
VPORT
  5
122E
102
{ACAD_XDICTIONARY
360
2423
102
}
330
0
100
AcDbSymbolTable
 70
     1
  0
VPORT
  5
2319
330
122E
100
AcDbSymbolTableRecord
100
AcDbViewportTableRecord
  2
*ACTIVE
 70
     0
 10
0.0
 20
0.0
 11
1.0
 21
1.0
 12
13750.00025613
 22
10000.00018627
 13
0.0
 23
0.0
 14
10.0
 24
10.0
 15
10.0
 25
10.0
 16
0.0
 26
0.0
 36
1.0
 17
0.0
 27
0.0
 37
0.0
 40
20202.85436948
 41
2.20805369
 42
50.0
 43
0.0
 44
0.0
 50
0.0
 51
0.0
 71
     0
 72
   100
 73
     1
 74
     0
 75
     0
 76
     0
 77
     0
 78
     0
281
     0
 65
     1
110
0.0
120
0.0
130
0.0
111
1.0
121
0.0
131
0.0
112
0.0
122
1.0
132
0.0
 79
     0
146
0.0
1001
ACAD_NAV_VCDISPLAY
1070
     1
  0
ENDTAB
  0
TABLE
  2
LTYPE
  5
122B
330
0
100
AcDbSymbolTable
 70
     1
  0
LTYPE
  5
1237
330
122B
100
AcDbSymbolTableRecord
100
AcDbLinetypeTableRecord
  2
BYBLOCK
 70
     0
  3

 72
    65
 73
     0
 40
0.0
  0
LTYPE
  5
1238
330
122B
100
AcDbSymbolTableRecord
100
AcDbLinetypeTableRecord
  2
BYLAYER
 70
     0
  3

 72
    65
 73
     0
 40
0.0
  0
LTYPE
  5
1239
330
122B
100
AcDbSymbolTableRecord
100
AcDbLinetypeTableRecord
  2
CONTINUOUS
 70
     0
  3
Solid line
 72
    65
 73
     0
 40
0.0
  0
ENDTAB
  0
TABLE
  2
LAYER
  5
1228
102
{ACAD_XDICTIONARY
360
2413
102
}
330
0
100
AcDbSymbolTable
 70
    11
  0
LAYER
  5
1234
102
{ACAD_XDICTIONARY
360
23FA
102
}
330
1228
100
AcDbSymbolTableRecord
100
AcDbLayerTableRecord
  2
0
 70
     0
 62
     7
  6
CONTINUOUS
370
    -3
390
231C
  0
LAYER
  5
1245
102
{ACAD_XDICTIONARY
360
23FC
102
}
330
1228
100
AcDbSymbolTableRecord
100
AcDbLayerTableRecord
  2
YKK_F1
 70
     0
 62
     7
  6
CONTINUOUS
370
    -3
390
231C
  0
LAYER
  5
1247
102
{ACAD_XDICTIONARY
360
2400
102
}
330
1228
100
AcDbSymbolTableRecord
100
AcDbLayerTableRecord
  2
YKK_A1
 70
     0
 62
     4
  6
CONTINUOUS
370
    -3
390
231C
  0
LAYER
  5
1248
102
{ACAD_XDICTIONARY
360
2402
102
}
330
1228
100
AcDbSymbolTableRecord
100
AcDbLayerTableRecord
  2
YKK_B1
 70
     0
 62
     4
  6
CONTINUOUS
370
    -3
390
231C
  0
LAYER
  5
1249
102
{ACAD_XDICTIONARY
360
2404
102
}
330
1228
100
AcDbSymbolTableRecord
100
AcDbLayerTableRecord
  2
YKK_C1
 70
     0
 62
     4
  6
CONTINUOUS
370
    -3
390
231C
  0
LAYER
  5
124A
102
{ACAD_XDICTIONARY
360
2406
102
}
330
1228
100
AcDbSymbolTableRecord
100
AcDbLayerTableRecord
  2
YKK_A2
 70
     0
 62
     3
  6
CONTINUOUS
370
    -3
390
231C
  0
LAYER
  5
124B
102
{ACAD_XDICTIONARY
360
2408
102
}
330
1228
100
AcDbSymbolTableRecord
100
AcDbLayerTableRecord
  2
YKK_N1
 70
     0
 62
     2
  6
CONTINUOUS
370
    -3
390
231C
  0
LAYER
  5
124C
102
{ACAD_XDICTIONARY
360
240A
102
}
330
1228
100
AcDbSymbolTableRecord
100
AcDbLayerTableRecord
  2
YKK_Z1
 70
     0
 62
     7
  6
CONTINUOUS
370
    -3
390
231C
  0
LAYER
  5
124D
102
{ACAD_XDICTIONARY
360
240C
102
}
330
1228
100
AcDbSymbolTableRecord
100
AcDbLayerTableRecord
  2
YKK_B2
 70
     0
 62
     5
  6
CONTINUOUS
370
    -3
390
231C
  0
LAYER
  5
124E
102
{ACAD_XDICTIONARY
360
240E
102
}
330
1228
100
AcDbSymbolTableRecord
100
AcDbLayerTableRecord
  2
YKK_C2
 70
     0
 62
     5
  6
CONTINUOUS
370
    -3
390
231C
  0
LAYER
  5
2AC7
102
{ACAD_XDICTIONARY
360
2AC8
102
}
330
1228
100
AcDbSymbolTableRecord
100
AcDbLayerTableRecord
  2
YKK_IN
 70
     0
 62
     1
  6
CONTINUOUS
370
    -3
390
231C
  0
ENDTAB
  0
TABLE
  2
STYLE
  5
1229
330
0
100
AcDbSymbolTable
 70
     1
  0
STYLE
  5
1235
330
1229
100
AcDbSymbolTableRecord
100
AcDbTextStyleTableRecord
  2
STANDARD
 70
     0
 40
0.0
 41
1.0
 50
0.0
 71
     0
 42
250.0
  3
txt
  4
bigfont
  0
ENDTAB
  0
TABLE
  2
VIEW
  5
122C
330
0
100
AcDbSymbolTable
 70
     0
  0
ENDTAB
  0
TABLE
  2
UCS
  5
122D
330
0
100
AcDbSymbolTable
 70
     0
  0
ENDTAB
  0
TABLE
  2
APPID
  5
122F
330
0
100
AcDbSymbolTable
 70
    15
  0
APPID
  5
1236
330
122F
100
AcDbSymbolTableRecord
100
AcDbRegAppTableRecord
  2
ACAD
 70
     0
  0
APPID
  5
1260
330
122F
100
AcDbSymbolTableRecord
100
AcDbRegAppTableRecord
  2
GENIUS_GENODEF_13
 70
     0
  0
APPID
  5
1261
330
122F
100
AcDbSymbolTableRecord
100
AcDbRegAppTableRecord
  2
ACAECLAYERSTANDARD
 70
     0
  0
APPID
  5
1262
330
122F
100
AcDbSymbolTableRecord
100
AcDbRegAppTableRecord
  2
GENIUS_GENOBJ-N-CEN_13
 70
     0
  0
APPID
  5
1263
330
122F
100
AcDbSymbolTableRecord
100
AcDbRegAppTableRecord
  2
GENIUS_GENCEN_19
 70
     0
  0
APPID
  5
1264
330
122F
100
AcDbSymbolTableRecord
100
AcDbRegAppTableRecord
  2
YOBJCUT10403155321
 70
     0
  0
APPID
  5
23A7
330
122F
100
AcDbSymbolTableRecord
100
AcDbRegAppTableRecord
  2
ACAD_MLEADERVER
 70
     0
  0
APPID
  5
23BA
330
122F
100
AcDbSymbolTableRecord
100
AcDbRegAppTableRecord
  2
ACAD_PSEXT
 70
     0
  0
APPID
  5
23BB
330
122F
100
AcDbSymbolTableRecord
100
AcDbRegAppTableRecord
  2
ACAD_NAV_VCDISPLAY
 70
     0
  0
APPID
  5
23BC
330
122F
100
AcDbSymbolTableRecord
100
AcDbRegAppTableRecord
  2
YKK_AP_LOCKLAYER
 70
     0
  0
APPID
  5
24C3
330
122F
100
AcDbSymbolTableRecord
100
AcDbRegAppTableRecord
  2
ACAD_EXEMPT_FROM_CAD_STANDARDS
 70
     0
  0
APPID
  5
24C5
330
122F
100
AcDbSymbolTableRecord
100
AcDbRegAppTableRecord
  2
YGROUPINFO
 70
     0
  0
APPID
  5
24C7
330
122F
100
AcDbSymbolTableRecord
100
AcDbRegAppTableRecord
  2
GENIUS_GENREC_14
 70
     0
  0
APPID
  5
24C8
330
122F
100
AcDbSymbolTableRecord
100
AcDbRegAppTableRecord
  2
GENIUS_GENOBJ-N-REC_13
 70
     0
  0
APPID
  5
2AC9
330
122F
100
AcDbSymbolTableRecord
100
AcDbRegAppTableRecord
  2
ACDBBLOCKREPETAG
 70
     0
  0
ENDTAB
  0
TABLE
  2
DIMSTYLE
  5
1230
330
0
100
AcDbSymbolTable
 70
     1
100
AcDbDimStyleTable
 71
     1
340
1244
  0
DIMSTYLE
105
1244
330
1230
100
AcDbSymbolTableRecord
100
AcDbDimStyleTableRecord
  2
STANDARD
 70
     0
279
     2
340
1235
  0
ENDTAB
  0
TABLE
  2
BLOCK_RECORD
  5
1227
330
0
100
AcDbSymbolTable
 70
     0
  0
BLOCK_RECORD
  5
123D
330
1227
100
AcDbSymbolTableRecord
100
AcDbBlockTableRecord
  2
*MODEL_SPACE
340
236E
  0
BLOCK_RECORD
  5
123A
330
1227
100
AcDbSymbolTableRecord
100
AcDbBlockTableRecord
  2
*PAPER_SPACE
340
236F
  0
ENDTAB
  0
ENDSEC
  0
SECTION
  2
BLOCKS
  0
BLOCK
  5
1251
330
123D
100
AcDbEntity
  8
0
100
AcDbBlockBegin
  2
*MODEL_SPACE
 70
     0
 10
0.0
 20
0.0
 30
0.0
  3
*MODEL_SPACE
  1

  0
ENDBLK
  5
1252
330
123D
100
AcDbEntity
  8
0
100
AcDbBlockEnd
  0
BLOCK
  5
124F
330
123A
100
AcDbEntity
 67
     1
  8
0
100
AcDbBlockBegin
  2
*PAPER_SPACE
 70
     0
 10
0.0
 20
0.0
 30
0.0
  3
*PAPER_SPACE
  1

  0
ENDBLK
  5
1250
330
123A
100
AcDbEntity
 67
     1
  8
0
100
AcDbBlockEnd
  0
ENDSEC
  0
SECTION
  2
ENTITIES
  0
LINE
  5
1D
330
123D
100
AcDbEntity
  8
YKK_F1
 62
     7
100
AcDbLine
 10
19500.0
 20
0.0
 30
0.0
 11
19500.0
 21
19500.0
 31
0.0
  0
LINE
  5
1F
330
123D
100
AcDbEntity
  8
YKK_F1
 62
     7
100
AcDbLine
 10
23400.0
 20
0.0
 30
0.0
 11
23400.0
 21
19500.0
 31
0.0
  0
LINE
  5
20
330
123D
100
AcDbEntity
  8
YKK_F1
 62
     7
100
AcDbLine
 10
11700.0
 20
0.0
 30
0.0
 11
11700.0
 21
19500.0
 31
0.0
  0
LINE
  5
21
330
123D
100
AcDbEntity
  8
YKK_F1
 62
     7
100
AcDbLine
 10
15600.0
 20
0.0
 30
0.0
 11
15600.0
 21
19500.0
 31
0.0
  0
LINE
  5
22
330
123D
100
AcDbEntity
  8
YKK_F1
 62
     7
100
AcDbLine
 10
7800.0
 20
0.0
 30
0.0
 11
7800.0
 21
19500.0
 31
0.0
  0
LINE
  5
23
330
123D
100
AcDbEntity
  8
YKK_F1
 62
     7
100
AcDbLine
 10
27000.0
 20
0.0
 30
0.0
 11
27000.0
 21
19500.0
 31
0.0
  0
LINE
  5
24
330
123D
100
AcDbEntity
  8
YKK_F1
 62
     7
100
AcDbLine
 10
3900.0
 20
0.0
 30
0.0
 11
3900.0
 21
11700.0
 31
0.0
  0
LINE
  5
25
330
123D
100
AcDbEntity
  8
YKK_F1
 62
     7
100
AcDbLine
 10
27500.0
 20
0.0
 30
0.0
 11
27500.0
 21
20000.0
 31
0.0
  0
LINE
  5
26
330
123D
100
AcDbEntity
  8
YKK_F1
 62
     7
100
AcDbLine
 10
27500.0
 20
0.0
 30
0.0
 11
27500.0
 21
20000.0
 31
0.0
  0
LINE
  5
27
330
123D
100
AcDbEntity
  8
YKK_F1
 62
     7
100
AcDbLine
 10
0.0
 20
0.0
 30
0.0
 11
0.0
 21
20000.0
 31
0.0
  0
LINE
  5
28
330
123D
100
AcDbEntity
  8
YKK_F1
 62
     7
100
AcDbLine
 10
0.0
 20
3550.0
 30
0.0
 11
27000.0
 21
3550.0
 31
0.0
  0
LINE
  5
29
330
123D
100
AcDbEntity
  8
YKK_F1
 62
     7
100
AcDbLine
 10
0.0
 20
3200.0
 30
0.0
 11
27000.0
 21
3200.0
 31
0.0
  0
LINE
  5
2A
330
123D
100
AcDbEntity
  8
YKK_F1
 62
     7
100
AcDbLine
 10
0.0
 20
0.0
 30
0.0
 11
27500.0
 21
0.0
 31
0.0
  0
LINE
  5
2B
330
123D
100
AcDbEntity
  8
YKK_F1
 62
     7
100
AcDbLine
 10
0.0
 20
0.0
 30
0.0
 11
27500.0
 21
0.0
 31
0.0
  0
LINE
  5
2F
330
123D
100
AcDbEntity
  8
YKK_F1
 62
     7
100
AcDbLine
 10
0.0
 20
7100.0
 30
0.0
 11
27000.0
 21
7100.0
 31
0.0
  0
LINE
  5
30
330
123D
100
AcDbEntity
  8
YKK_F1
 62
     7
100
AcDbLine
 10
0.0
 20
7450.0
 30
0.0
 11
27000.0
 21
7450.0
 31
0.0
  0
LINE
  5
31
330
123D
100
AcDbEntity
  8
YKK_F1
 62
     7
100
AcDbLine
 10
0.0
 20
7800.0
 30
0.0
 11
27000.0
 21
7800.0
 31
0.0
  0
LINE
  5
32
330
123D
100
AcDbEntity
  8
YKK_F1
 62
     7
100
AcDbLine
 10
0.0
 20
3900.0
 30
0.0
 11
27000.0
 21
3900.0
 31
0.0
  0
LINE
  5
33
330
123D
100
AcDbEntity
  8
YKK_F1
 62
     7
100
AcDbLine
 10
0.0
 20
11000.0
 30
0.0
 11
27000.0
 21
11000.0
 31
0.0
  0
LINE
  5
34
330
123D
100
AcDbEntity
  8
YKK_F1
 62
     7
100
AcDbLine
 10
0.0
 20
11350.0
 30
0.0
 11
27000.0
 21
11350.0
 31
0.0
  0
LINE
  5
35
330
123D
100
AcDbEntity
  8
YKK_F1
 62
     7
100
AcDbLine
 10
0.0
 20
11700.0
 30
0.0
 11
27000.0
 21
11700.0
 31
0.0
  0
LINE
  5
36
330
123D
100
AcDbEntity
  8
YKK_F1
 62
     7
100
AcDbLine
 10
7800.0
 20
15600.0
 30
0.0
 11
27000.0
 21
15600.0
 31
0.0
  0
LINE
  5
37
330
123D
100
AcDbEntity
  8
YKK_F1
 62
     7
100
AcDbLine
 10
7800.0
 20
15250.0
 30
0.0
 11
27000.0
 21
15250.0
 31
0.0
  0
LINE
  5
38
330
123D
100
AcDbEntity
  8
YKK_F1
 62
     7
100
AcDbLine
 10
7800.0
 20
14900.0
 30
0.0
 11
27000.0
 21
14900.0
 31
0.0
  0
LINE
  5
39
330
123D
100
AcDbEntity
  8
YKK_F1
100
AcDbLine
 10
0.0
 20
20000.0
 30
0.0
 11
27500.0
 21
20000.0
 31
0.0
  0
LINE
  5
3A
330
123D
100
AcDbEntity
  8
YKK_F1
 62
     7
100
AcDbLine
 10
0.0
 20
18800.0
 30
0.0
 11
27000.0
 21
18800.0
 31
0.0
  0
LINE
  5
3B
330
123D
100
AcDbEntity
  8
YKK_F1
 62
     7
100
AcDbLine
 10
0.0
 20
19150.0
 30
0.0
 11
27000.0
 21
19150.0
 31
0.0
  0
LINE
  5
3C
330
123D
100
AcDbEntity
  8
YKK_F1
 62
     7
100
AcDbLine
 10
0.0
 20
19500.0
 30
0.0
 11
27000.0
 21
19500.0
 31
0.0
  0
TEXT
  5
932
330
123D
100
AcDbEntity
  8
0
100
AcDbText
 10
500.0
 20
19600.0
 30
0.0
 40
250.0
  1
ＫＤＹＫＳＴ０１　かんたんドアリモ　浴室ドア　折戸　内付枠(カバー枠)(下枠アングル付枠)　新築・枠ごと交換
100
AcDbText
  0
TEXT
  5
933
330
123D
100
AcDbEntity
  8
0
100
AcDbText
 10
50.0
 20
18900.0
 30
0.0
 40
175.0
  1
W=750 H=1834
100
AcDbText
  0
TEXT
  5
934
330
123D
100
AcDbEntity
  8
0
100
AcDbText
 10
50.0
 20
19250.0
 30
0.0
 40
175.0
  1
4ND-U-07518
100
AcDbText
  0
LINE
  5
2D59
330
123D
100
AcDbEntity
  8
YKK_Z1
  6
Continuous
 48
1.5
370
    13
100
AcDbLine
 10
4823.78452342
 20
15213.9450005
 30
0.0
 11
4872.50687506
 21
15213.9450005
 31
0.0
  0
LINE
  5
2D5A
330
123D
100
AcDbEntity
  8
YKK_Z1
  6
Continuous
 48
1.5
100
AcDbLine
 10
4718.7814497
 20
15191.44500713
 30
0.0
 11
4823.78145386
 21
15191.44500713
 31
0.0
  0
LINE
  5
2D5B
330
123D
100
AcDbEntity
  8
YKK_Z1
  6
Continuous
 48
1.5
100
AcDbLine
 10
4823.7814497
 20
15243.94500034
 30
0.0
 11
4718.7814497
 21
15243.94500034
 31
0.0
  0
LINE
  5
2D5C
330
123D
100
AcDbEntity
  8
YKK_Z1
  6
Continuous
 48
1.5
100
AcDbLine
 10
4766.35336636
 20
15215.23096238
 30
0.0
 11
4784.94791873
 21
15224.52823737
 31
0.0
  0
LINE
  5
2D5D
330
123D
100
AcDbEntity
  8
YKK_Z1
  6
Continuous
 48
1.5
100
AcDbLine
 10
4798.17641125
 20
15231.14248277
 30
0.0
 11
4823.7814497
 21
15243.94500034
 31
0.0
  0
LINE
  5
2D5E
330
123D
100
AcDbEntity
  8
YKK_C2
  6
Continuous
 48
0.5
370
    30
100
AcDbLine
 10
4856.28976371
 20
17097.94797423
 30
0.0
 11
4844.28976371
 21
17097.94797423
 31
0.0
  0
ARC
  5
2D5F
330
123D
100
AcDbEntity
  8
YKK_C2
  6
Continuous
 48
0.5
370
    30
100
AcDbCircle
 10
4856.28976338
 20
17095.9479739
 30
0.0
 40
2.000000326795
100
AcDbArc
 50
0.00000936
 51
89.99999064
  0
LINE
  5
2D60
330
123D
100
AcDbEntity
  8
YKK_C2
  6
Continuous
 48
0.5
370
    30
100
AcDbLine
 10
4858.28976371
 20
17085.94797423
 30
0.0
 11
4858.28976371
 21
17095.94797423
 31
0.0
  0
ARC
  5
2D61
330
123D
100
AcDbEntity
  8
YKK_C2
  6
Continuous
 48
0.5
370
    30
100
AcDbCircle
 10
4856.28976338
 20
17085.94797456
 30
0.0
 40
2.000000326795
100
AcDbArc
 50
270.00000936
 51
359.99999064
  0
LINE
  5
2D62
330
123D
100
AcDbEntity
  8
YKK_C2
  6
Continuous
 48
0.5
370
    30
100
AcDbLine
 10
4855.28976371
 20
17083.94797423
 30
0.0
 11
4856.28976371
 21
17083.94797423
 31
0.0
  0
LINE
  5
2D63
330
123D
100
AcDbEntity
  8
YKK_C2
  6
Continuous
 48
0.5
370
    30
100
AcDbLine
 10
4855.28976371
 20
17078.94797423
 30
0.0
 11
4855.28976371
 21
17083.94797423
 31
0.0
  0
LINE
  5
2D64
330
123D
100
AcDbEntity
  8
YKK_C2
  6
Continuous
 48
0.5
370
    30
100
AcDbLine
 10
4855.04079671
 20
17078.94797423
 30
0.0
 11
4855.28976371
 21
17078.94797423
 31
0.0
  0
ARC
  5
2D65
330
123D
100
AcDbEntity
  8
YKK_C2
  6
Continuous
 48
0.5
370
    30
100
AcDbCircle
 10
4855.04079665
 20
17076.94797413
 30
0.0
 40
2.000000098809015
100
AcDbArc
 50
89.99999847
 51
172.40536687
  0
LINE
  5
2D66
330
123D
100
AcDbEntity
  8
YKK_C2
  6
Continuous
 48
0.5
370
    30
100
AcDbLine
 10
4851.75260971
 20
17067.41931923
 30
0.0
 11
4853.05834071
 21
17077.21230123
 31
0.0
  0
ARC
  5
2D67
330
123D
100
AcDbEntity
  8
YKK_C2
  6
Continuous
 48
0.5
370
    30
100
AcDbCircle
 10
4847.78769839
 20
17067.94797393
 30
0.0
 40
3.999999697618078
100
AcDbArc
 50
269.99999029
 51
352.40535869
  0
LINE
  5
2D68
330
123D
100
AcDbEntity
  8
YKK_C2
  6
Continuous
 48
0.5
370
    30
100
AcDbLine
 10
4830.28976371
 20
17063.94797423
 30
0.0
 11
4847.78769771
 21
17063.94797423
 31
0.0
  0
LINE
  5
2D69
330
123D
100
AcDbEntity
  8
YKK_C2
  6
Continuous
 48
0.5
370
    30
100
AcDbLine
 10
4844.28976371
 20
17071.44797423
 30
0.0
 11
4830.28976371
 21
17071.44797423
 31
0.0
  0
LINE
  5
2D6A
330
123D
100
AcDbEntity
  8
YKK_C2
  6
Continuous
 48
0.5
370
    30
100
AcDbLine
 10
4844.28976371
 20
17097.94797423
 30
0.0
 11
4844.28976371
 21
17071.44797423
 31
0.0
  0
LINE
  5
2D6B
330
123D
100
AcDbEntity
  8
YKK_C2
  6
Continuous
 48
0.5
370
    30
100
AcDbLine
 10
4838.7897729
 20
17071.94798817
 30
0.0
 11
4838.7897729
 21
17077.94798817
 31
0.0
  0
LINE
  5
2D6C
330
123D
100
AcDbEntity
  8
YKK_C2
  6
Continuous
 48
0.5
370
    30
100
AcDbLine
 10
4823.7897729
 20
17071.94798817
 30
0.0
 11
4838.7897729
 21
17071.94798817
 31
0.0
  0
LINE
  5
2D6D
330
123D
100
AcDbEntity
  8
YKK_C2
  6
Continuous
 48
0.5
370
    30
100
AcDbLine
 10
4823.7897729
 20
17063.94798817
 30
0.0
 11
4823.7897729
 21
17071.94798817
 31
0.0
  0
LINE
  5
2D6E
330
123D
100
AcDbEntity
  8
YKK_C2
  6
Continuous
 48
0.5
370
    30
100
AcDbLine
 10
4838.7897729
 20
17063.94798817
 30
0.0
 11
4823.7897729
 21
17063.94798817
 31
0.0
  0
LINE
  5
2D6F
330
123D
100
AcDbEntity
  8
YKK_C2
  6
Continuous
 48
0.5
370
    30
100
AcDbLine
 10
4838.7897729
 20
17057.94798817
 30
0.0
 11
4838.7897729
 21
17063.94798817
 31
0.0
  0
LINE
  5
2D70
330
123D
100
AcDbEntity
  8
YKK_Z1
  6
Continuous
 48
1.5
370
    13
100
AcDbLine
 10
4838.78976371
 20
17082.94791601
 30
0.0
 11
4838.78976371
 21
17114.45416432
 31
0.0
  0
LINE
  5
2D71
330
123D
100
AcDbEntity
  8
YKK_Z1
  6
Continuous
 48
1.5
370
    30
100
AcDbLine
 10
4838.78976371
 20
17114.45416432
 30
0.0
 11
4838.78976371
 21
17077.94797409
 31
0.0
  0
LINE
  5
2D72
330
123D
100
AcDbEntity
  8
YKK_Z1
  6
Continuous
 48
1.5
370
    30
100
AcDbLine
 10
4844.28976371
 20
17114.45416432
 30
0.0
 11
4844.28976371
 21
17077.94797409
 31
0.0
  0
LINE
  5
2D73
330
123D
100
AcDbEntity
  8
YKK_Z1
  6
Continuous
 48
1.5
370
    30
100
AcDbLine
 10
4844.28976371
 20
17077.94797409
 30
0.0
 11
4838.78976371
 21
17077.94797409
 31
0.0
  0
LINE
  5
2D74
330
123D
100
AcDbEntity
  8
YKK_Z1
  6
Continuous
 48
1.5
370
    13
100
AcDbLine
 10
4842.28976371
 20
17077.94797409
 30
0.0
 11
4842.28976371
 21
17114.45416432
 31
0.0
  0
LINE
  5
2D75
330
123D
100
AcDbEntity
  8
YKK_Z1
  6
Continuous
 48
1.5
370
    13
100
AcDbLine
 10
4840.28976371
 20
17077.94797409
 30
0.0
 11
4840.28976371
 21
17114.45416432
 31
0.0
  0
LINE
  5
2D76
330
123D
100
AcDbEntity
  8
YKK_C2
  6
Continuous
 48
1.5
370
    13
100
AcDbLine
 10
4832.76032646
 20
17071.44797409
 30
0.0
 11
4840.26032646
 21
17063.94797409
 31
0.0
  0
LINE
  5
2D77
330
123D
100
AcDbEntity
  8
YKK_C2
  6
Continuous
 48
1.5
370
    13
100
AcDbLine
 10
4844.28976371
 20
17076.88909958
 30
0.0
 11
4851.98871965
 21
17069.19014364
 31
0.0
  0
LINE
  5
2D78
330
123D
100
AcDbEntity
  8
YKK_C2
  6
Continuous
 48
1.5
370
    13
100
AcDbLine
 10
4844.28976371
 20
17093.85966233
 30
0.0
 11
4855.28976371
 21
17082.85966233
 31
0.0
  0
LINE
  5
2D79
330
123D
100
AcDbEntity
  8
YKK_Z1
  6
Continuous
 48
1.5
370
    30
100
AcDbLine
 10
4872.50687506
 20
15258.94500034
 30
0.0
 11
4766.78464492
 21
15258.94500034
 31
0.0
  0
LINE
  5
2D7A
330
123D
100
AcDbEntity
  8
YKK_Z1
  6
Continuous
 48
1.5
370
    30
100
AcDbLine
 10
4751.78464492
 20
15258.94500034
 30
0.0
 11
4766.78464492
 21
15258.94500034
 31
0.0
  0
LINE
  5
2D7B
330
123D
100
AcDbEntity
  8
YKK_Z1
  6
Continuous
 48
1.5
370
    30
100
AcDbLine
 10
4751.78464492
 20
15258.94500034
 30
0.0
 11
4751.78464492
 21
15243.94500034
 31
0.0
  0
LINE
  5
2D7C
330
123D
100
AcDbEntity
  8
YKK_Z1
  6
Continuous
 48
1.5
370
    30
100
AcDbLine
 10
4751.78464492
 20
15243.94500034
 30
0.0
 11
4872.50687506
 21
15243.94500034
 31
0.0
  0
LINE
  5
2D7D
330
123D
100
AcDbEntity
  8
YKK_Z1
  6
Continuous
 48
1.5
370
    13
100
AcDbLine
 10
4817.78464446
 20
15243.94491287
 30
0.0
 11
4751.78463946
 21
15243.94491287
 31
0.0
  0
LINE
  5
2D7E
330
123D
100
AcDbEntity
  8
YKK_Z1
100
AcDbLine
 10
4707.79885304
 20
17082.93542819
 30
0.0
 11
4707.82586815
 21
17082.97750174
 31
0.0
  0
LINE
  5
2D7F
330
123D
100
AcDbEntity
  8
YKK_C2
  6
Continuous
 48
0.5
370
    30
100
AcDbLine
 10
4830.28976371
 20
17071.44797423
 30
0.0
 11
4830.28976371
 21
17063.94797423
 31
0.0
  0
LINE
  5
2D80
330
123D
100
AcDbEntity
  8
YKK_C2
  6
Continuous
 48
0.5
370
    30
100
AcDbLine
 10
4751.78471049
 20
17057.94798817
 30
0.0
 11
4838.78471049
 21
17057.94798817
 31
0.0
  0
LINE
  5
2D81
330
123D
100
AcDbEntity
  8
YKK_C2
  6
Continuous
 48
0.5
370
    30
100
AcDbLine
 10
4751.78471049
 20
17077.94798817
 30
0.0
 11
4751.78471049
 21
17057.94798817
 31
0.0
  0
LINE
  5
2D82
330
123D
100
AcDbEntity
  8
YKK_Z1
  6
Continuous
 48
0.5
370
    30
100
AcDbLine
 10
4838.78471049
 20
17077.94798817
 30
0.0
 11
4751.78471049
 21
17077.94798817
 31
0.0
  0
ARC
  5
2D83
330
123D
100
AcDbEntity
  8
YKK_Z1
  6
Continuous
 48
1.5
370
    13
100
AcDbCircle
 10
4708.78468163
 20
17081.9479746
 30
0.0
 40
0.9999999999999431
100
AcDbArc
 50
180.0
 51
270.0
  0
LINE
  5
2D84
330
123D
100
AcDbEntity
  8
YKK_Z1
  6
Continuous
 48
1.5
370
    13
100
AcDbLine
 10
4707.78468163
 20
17084.9479746
 30
0.0
 11
4707.78468163
 21
17081.9479746
 31
0.0
  0
ARC
  5
2D85
330
123D
100
AcDbEntity
  8
YKK_Z1
  6
Continuous
 48
1.5
370
    13
100
AcDbCircle
 10
4708.78468163
 20
17084.9479746
 30
0.0
 40
0.9999999999998864
100
AcDbArc
 50
90.0
 51
180.0
  0
LINE
  5
2D86
330
123D
100
AcDbEntity
  8
YKK_Z1
  6
Continuous
 48
1.5
370
    13
100
AcDbLine
 10
4716.78468163
 20
17085.9479746
 30
0.0
 11
4708.78468163
 21
17085.9479746
 31
0.0
  0
ARC
  5
2D87
330
123D
100
AcDbEntity
  8
YKK_Z1
  6
Continuous
 48
1.5
370
    13
100
AcDbCircle
 10
4716.78468163
 20
17084.9479746
 30
0.0
 40
1.000000000000055
100
AcDbArc
 50
0.0
 51
90.0
  0
LINE
  5
2D88
330
123D
100
AcDbEntity
  8
YKK_Z1
  6
Continuous
 48
1.5
370
    13
100
AcDbLine
 10
4717.78468163
 20
17081.9479746
 30
0.0
 11
4717.78468163
 21
17084.9479746
 31
0.0
  0
ARC
  5
2D89
330
123D
100
AcDbEntity
  8
YKK_Z1
  6
Continuous
 48
1.5
370
    13
100
AcDbCircle
 10
4716.78468163
 20
17081.9479746
 30
0.0
 40
1.0
100
AcDbArc
 50
270.0
 51
0.0
  0
LINE
  5
2D8A
330
123D
100
AcDbEntity
  8
YKK_C2
  6
Continuous
 48
1.5
370
    13
100
AcDbLine
 10
4708.78468163
 20
17080.9479746
 30
0.0
 11
4716.78468163
 21
17080.9479746
 31
0.0
  0
LINE
  5
2D8B
330
123D
100
AcDbEntity
  8
YKK_Z1
  6
Continuous
 48
1.5
370
    30
100
AcDbLine
 10
4691.78468156
 20
17100.4720433
 30
0.0
 11
4685.28468156
 21
17100.4720433
 31
0.0
  0
LINE
  5
2D8C
330
123D
100
AcDbEntity
  8
YKK_Z1
  6
Continuous
 48
1.5
370
    30
100
AcDbLine
 10
4683.78468105
 20
17098.97204068
 30
0.0
 11
4683.78468105
 21
17082.94797409
 31
0.0
  0
LINE
  5
2D8D
330
123D
100
AcDbEntity
  8
YKK_Z1
  6
Continuous
 48
1.5
370
    13
100
AcDbLine
 10
4691.78468156
 20
17090.46981552
 30
0.0
 11
4691.78468156
 21
17100.4720433
 31
0.0
  0
LINE
  5
2D8E
330
123D
100
AcDbEntity
  8
YKK_Z1
  6
Continuous
 48
1.5
370
    13
100
AcDbLine
 10
4691.78468156
 20
17090.46981552
 30
0.0
 11
4690.28468156
 21
17090.46981552
 31
0.0
  0
LINE
  5
2D8F
330
123D
100
AcDbEntity
  8
YKK_Z1
  6
Continuous
 48
1.5
370
    13
100
AcDbLine
 10
4690.28468156
 20
17090.46981552
 30
0.0
 11
4690.28468156
 21
17079.4479746
 31
0.0
  0
ARC
  5
2D90
330
123D
100
AcDbEntity
  8
YKK_Z1
  6
Continuous
 48
1.5
370
    30
100
AcDbCircle
 10
4693.78468105
 20
17082.94797409
 30
0.0
 40
10.0
100
AcDbArc
 50
180.0
 51
270.0
  0
ARC
  5
2D91
330
123D
100
AcDbEntity
  8
YKK_Z1
  6
Continuous
 48
1.5
370
    13
100
AcDbCircle
 10
4682.45625392
 20
17102.47204068
 30
0.0
 40
3.0
100
AcDbArc
 50
308.94244127
 51
51.05755873
  0
ARC
  5
2D92
330
123D
100
AcDbEntity
  8
YKK_Z1
  6
Continuous
 48
1.5
370
    30
100
AcDbCircle
 10
4685.28467434
 20
17098.97204068
 30
0.0
 40
1.5
100
AcDbArc
 50
90.0
 51
180.0
  0
LINE
  5
2D93
330
123D
100
AcDbEntity
  8
YKK_Z1
  6
Continuous
 48
1.5
370
    30
100
AcDbLine
 10
4693.78468105
 20
17072.94797409
 30
0.0
 11
4707.4354537
 21
17072.94797409
 31
0.0
  0
LINE
  5
2D94
330
123D
100
AcDbEntity
  8
YKK_C2
  6
Continuous
 48
1.5
370
    30
100
AcDbLine
 10
4707.4354537
 20
17080.9479746
 30
0.0
 11
4707.4354537
 21
17072.94797409
 31
0.0
  0
LINE
  5
2D95
330
123D
100
AcDbEntity
  8
YKK_Z1
  6
Continuous
 48
1.5
370
    13
100
AcDbLine
 10
4707.4354537
 20
17080.9479746
 30
0.0
 11
4697.43543844
 21
17080.9479746
 31
0.0
  0
LINE
  5
2D96
330
123D
100
AcDbEntity
  8
YKK_Z1
  6
Continuous
 48
1.5
370
    13
100
AcDbLine
 10
4697.43543844
 20
17080.9479746
 30
0.0
 11
4697.43543844
 21
17079.4479746
 31
0.0
  0
LINE
  5
2D97
330
123D
100
AcDbEntity
  8
YKK_Z1
  6
Continuous
 48
1.5
370
    13
100
AcDbLine
 10
4690.28468156
 20
17079.4479746
 30
0.0
 11
4697.43543844
 21
17079.4479746
 31
0.0
  0
LINE
  5
2D98
330
123D
100
AcDbEntity
  8
YKK_C2
  6
Continuous
 48
1.5
370
    13
100
AcDbLine
 10
4707.4354537
 20
17072.94797409
 30
0.0
 11
4717.78464259
 21
17072.94797409
 31
0.0
  0
LINE
  5
2D99
330
123D
100
AcDbEntity
  8
YKK_C2
  6
Continuous
 48
1.5
370
    13
100
AcDbLine
 10
4707.4354537
 20
17080.9479746
 30
0.0
 11
4717.4354537
 21
17080.9479746
 31
0.0
  0
LINE
  5
2D9A
330
123D
100
AcDbEntity
  8
YKK_C2
  6
Continuous
 48
1.5
370
    13
100
AcDbLine
 10
4707.4354537
 20
17078.50088602
 30
0.0
 11
4709.88254228
 21
17080.9479746
 31
0.0
  0
LINE
  5
2D9B
330
123D
100
AcDbEntity
  8
YKK_C2
  6
Continuous
 48
1.5
370
    13
100
AcDbLine
 10
4707.53939602
 20
17072.94797409
 30
0.0
 11
4715.53939653
 21
17080.9479746
 31
0.0
  0
LINE
  5
2D9C
330
123D
100
AcDbEntity
  8
YKK_C2
  6
Continuous
 48
1.5
370
    13
100
AcDbLine
 10
4713.19625027
 20
17072.94797409
 30
0.0
 11
4717.62982701
 21
17077.38155083
 31
0.0
  0
LINE
  5
2D9D
330
123D
100
AcDbEntity
  8
YKK_C2
  6
Continuous
 48
1.5
370
    13
100
AcDbLine
 10
4707.4354537
 20
17080.9479746
 30
0.0
 11
4707.4354537
 21
17072.94797409
 31
0.0
  0
LINE
  5
2D9E
330
123D
100
AcDbEntity
  8
YKK_Z1
  6
Continuous
 48
1.5
370
    30
100
AcDbLine
 10
4683.78468105
 20
17114.45416432
 30
0.0
 11
4683.78468105
 21
17105.97204592
 31
0.0
  0
LINE
  5
2D9F
330
123D
100
AcDbEntity
  8
YKK_Z1
  6
Continuous
 48
1.5
370
    13
100
AcDbLine
 10
4691.78468156
 20
17104.4720433
 30
0.0
 11
4691.78468156
 21
17114.47205856
 31
0.0
  0
LINE
  5
2DA0
330
123D
100
AcDbEntity
  8
YKK_Z1
  6
Continuous
 48
1.5
370
    13
100
AcDbLine
 10
4691.78468156
 20
17114.47205856
 30
0.0
 11
4690.28468156
 21
17114.47205856
 31
0.0
  0
LINE
  5
2DA1
330
123D
100
AcDbEntity
  8
YKK_Z1
  6
Continuous
 48
1.5
370
    30
100
AcDbLine
 10
4691.78468156
 20
17104.4720433
 30
0.0
 11
4685.28468156
 21
17104.4720433
 31
0.0
  0
ARC
  5
2DA2
330
123D
100
AcDbEntity
  8
YKK_Z1
  6
Continuous
 48
1.5
370
    30
100
AcDbCircle
 10
4685.28467434
 20
17105.97204592
 30
0.0
 40
1.5
100
AcDbArc
 50
180.0
 51
270.0
  0
LINE
  5
2DA3
330
123D
100
AcDbEntity
  8
YKK_Z1
  6
Continuous
 48
1.5
370
    30
100
AcDbLine
 10
4832.78468156
 20
17082.94797364
 30
0.0
 11
4832.78468156
 21
17114.45416432
 31
0.0
  0
LINE
  5
2DA4
330
123D
100
AcDbEntity
  8
YKK_Z1
  6
Continuous
 48
1.5
370
    30
100
AcDbLine
 10
4727.78468156
 20
17114.45416432
 30
0.0
 11
4727.78468156
 21
17082.94797364
 31
0.0
  0
LINE
  5
2DA5
330
123D
100
AcDbEntity
  8
YKK_Z1
  6
Continuous
 48
1.5
370
    30
100
AcDbLine
 10
4727.78468156
 20
17082.94797364
 30
0.0
 11
4832.78468156
 21
17082.94797364
 31
0.0
  0
LINE
  5
2DA6
330
123D
100
AcDbEntity
  8
YKK_Z1
  6
Continuous
 48
1.5
370
    13
100
AcDbLine
 10
4727.78468156
 20
17082.94797364
 30
0.0
 11
4801.29912648
 21
17114.45416432
 31
0.0
  0
LINE
  5
2DA7
330
123D
100
AcDbEntity
  8
YKK_Z1
  6
Continuous
 48
1.5
370
    13
100
AcDbLine
 10
4832.78468156
 20
17114.45416432
 30
0.0
 11
4832.78468156
 21
17082.94791601
 31
0.0
  0
LINE
  5
2DA8
330
123D
100
AcDbEntity
  8
YKK_Z1
  6
Continuous
 48
1.5
370
    13
100
AcDbLine
 10
4839.08593122
 20
17114.45416432
 30
0.0
 11
4832.78468156
 21
17082.94791601
 31
0.0
  0
LINE
  5
2DA9
330
123D
100
AcDbEntity
  8
YKK_Z1
  6
Continuous
 48
1.5
370
    13
100
AcDbLine
 10
4838.7847013
 20
17082.94791601
 30
0.0
 11
4826.7847013
 21
17082.94791601
 31
0.0
  0
LINE
  5
2DAA
330
123D
100
AcDbEntity
  8
YKK_Z1
  6
Continuous
 48
1.5
370
    13
100
AcDbLine
 10
4823.78452342
 20
15243.94500034
 30
0.0
 11
4872.50687506
 21
15243.94500034
 31
0.0
  0
LINE
  5
2DAB
330
123D
100
AcDbEntity
  8
YKK_Z1
  6
Continuous
 48
1.5
370
    13
100
AcDbLine
 10
4691.78452342
 20
15221.94500034
 30
0.0
 11
4691.78452342
 21
15211.94277256
 31
0.0
  0
LINE
  5
2DAC
330
123D
100
AcDbEntity
  8
YKK_Z1
  6
Continuous
 48
1.5
370
    13
100
AcDbLine
 10
4757.78451795
 20
15243.94500034
 30
0.0
 11
4823.78452295
 21
15243.94500034
 31
0.0
  0
LINE
  5
2DAD
330
123D
100
AcDbEntity
  8
YKK_Z1
  6
Continuous
 48
1.5
370
    13
100
AcDbLine
 10
4718.78468052
 20
17114.45416432
 30
0.0
 11
4718.78468052
 21
17082.94797319
 31
0.0
  0
LINE
  5
2DAE
330
123D
100
AcDbEntity
  8
YKK_Z1
  6
Continuous
 48
1.5
370
    13
100
AcDbLine
 10
4718.78468052
 20
17082.94797319
 30
0.0
 11
4727.78468052
 21
17082.94797319
 31
0.0
  0
LINE
  5
2DAF
330
123D
100
AcDbEntity
  8
YKK_Z1
  6
Continuous
 48
1.5
370
    13
100
AcDbLine
 10
4727.78468052
 20
17082.94797319
 30
0.0
 11
4727.78468052
 21
17114.45416432
 31
0.0
  0
LINE
  5
2DB0
330
123D
100
AcDbEntity
  8
YKK_Z1
  6
Continuous
 48
1.5
370
    13
100
AcDbLine
 10
4751.78470136
 20
17077.94797319
 30
0.0
 11
4751.78470136
 21
17082.94797319
 31
0.0
  0
LINE
  5
2DB1
330
123D
100
AcDbEntity
  8
YKK_Z1
  6
Continuous
 48
1.5
370
    13
100
AcDbLine
 10
4757.78468163
 20
17082.94797319
 30
0.0
 11
4718.78468163
 21
17082.94797319
 31
0.0
  0
LINE
  5
2DB2
330
123D
100
AcDbEntity
  8
YKK_Z1
  6
Continuous
 48
1.5
370
    13
100
AcDbLine
 10
4718.78468163
 20
17082.94797319
 30
0.0
 11
4718.78468163
 21
17077.94797319
 31
0.0
  0
LINE
  5
2DB3
330
123D
100
AcDbEntity
  8
YKK_Z1
  6
Continuous
 48
1.5
370
    13
100
AcDbLine
 10
4718.78468163
 20
17077.94797319
 30
0.0
 11
4757.78468163
 21
17077.94797319
 31
0.0
  0
LINE
  5
2DB4
330
123D
100
AcDbEntity
  8
YKK_Z1
  6
Continuous
 48
1.5
370
    13
100
AcDbLine
 10
4718.78468163
 20
17077.94797319
 30
0.0
 11
4751.78470998
 21
17082.94797151
 31
0.0
  0
LINE
  5
2DB5
330
123D
100
AcDbEntity
  8
YKK_C2
  6
Continuous
 48
1.5
370
    13
100
AcDbLine
 10
4757.78471609
 20
17077.94803083
 30
0.0
 11
4832.78468163
 21
17077.94803081
 31
0.0
  0
LINE
  5
2DB6
330
123D
100
AcDbEntity
  8
YKK_Z1
  6
Continuous
 48
1.5
370
    13
100
AcDbLine
 10
4826.78470136
 20
17082.94797274
 30
0.0
 11
4751.78473582
 21
17077.94803083
 31
0.0
  0
LINE
  5
2DB7
330
123D
100
AcDbEntity
  8
YKK_Z1
  6
Continuous
 48
1.5
370
    13
100
AcDbLine
 10
4751.78470998
 20
17082.94797274
 30
0.0
 11
4751.784711
 21
17077.94803083
 31
0.0
  0
LINE
  5
2DB8
330
123D
100
AcDbEntity
  8
YKK_Z1
  6
Continuous
 48
1.5
370
    13
100
AcDbLine
 10
4826.78470136
 20
17082.94797274
 30
0.0
 11
4751.78473479
 21
17082.94797274
 31
0.0
  0
LINE
  5
2DB9
330
123D
100
AcDbEntity
  8
YKK_Z1
  6
Continuous
 48
1.5
370
    13
100
AcDbLine
 10
4826.78470136
 20
17077.94803081
 30
0.0
 11
4826.78470136
 21
17082.94797274
 31
0.0
  0
LINE
  5
2DBA
330
123D
100
AcDbEntity
  8
YKK_Z1
  6
Continuous
 48
1.5
370
    13
100
AcDbLine
 10
4691.78468156
 20
17100.4720433
 30
0.0
 11
4691.78468156
 21
17104.4720433
 31
0.0
  0
LINE
  5
2DBB
330
123D
100
AcDbEntity
  8
YKK_Z1
  6
Continuous
 48
1.5
370
    13
100
AcDbLine
 10
4691.78452342
 20
15221.94500034
 30
0.0
 11
4691.78468156
 21
15226.27833106
 31
0.0
  0
LINE
  5
2DBC
330
123D
100
AcDbEntity
  8
YKK_B2
  6
Continuous
 48
0.5
370
    -3
100
AcDbLine
 10
2505.00461075
 20
13452.80240027
 30
0.0
 11
2505.00461075
 21
13464.80240027
 31
0.0
  0
ARC
  5
2DBD
330
123D
100
AcDbEntity
  8
YKK_B2
  6
Continuous
 48
0.5
370
    -3
100
AcDbCircle
 10
2507.00461108
 20
13452.8024006
 30
0.0
 40
2.000000326794972
100
AcDbArc
 50
180.00000936
 51
269.99999064
  0
LINE
  5
2DBE
330
123D
100
AcDbEntity
  8
YKK_B2
  6
Continuous
 48
0.5
370
    -3
100
AcDbLine
 10
2517.00461075
 20
13450.80240027
 30
0.0
 11
2507.00461075
 21
13450.80240027
 31
0.0
  0
ARC
  5
2DBF
330
123D
100
AcDbEntity
  8
YKK_B2
  6
Continuous
 48
0.5
370
    -3
100
AcDbCircle
 10
2517.00461042
 20
13452.8024006
 30
0.0
 40
2.000000326794943
100
AcDbArc
 50
270.00000936
 51
359.99999064
  0
LINE
  5
2DC0
330
123D
100
AcDbEntity
  8
YKK_B2
  6
Continuous
 48
0.5
370
    -3
100
AcDbLine
 10
2519.00461075
 20
13453.80240027
 30
0.0
 11
2519.00461075
 21
13452.80240027
 31
0.0
  0
LINE
  5
2DC1
330
123D
100
AcDbEntity
  8
YKK_B2
  6
Continuous
 48
0.5
370
    -3
100
AcDbLine
 10
2524.00461075
 20
13453.80240027
 30
0.0
 11
2519.00461075
 21
13453.80240027
 31
0.0
  0
LINE
  5
2DC2
330
123D
100
AcDbEntity
  8
YKK_B2
  6
Continuous
 48
0.5
370
    -3
100
AcDbLine
 10
2524.00461075
 20
13454.05136727
 30
0.0
 11
2524.00461075
 21
13453.80240027
 31
0.0
  0
ARC
  5
2DC3
330
123D
100
AcDbEntity
  8
YKK_B2
  6
Continuous
 48
0.5
370
    -3
100
AcDbCircle
 10
2526.00461085
 20
13454.05136733
 30
0.0
 40
2.000000098808988
100
AcDbArc
 50
97.59463313
 51
180.00000153
  0
LINE
  5
2DC4
330
123D
100
AcDbEntity
  8
YKK_B2
  6
Continuous
 48
0.5
370
    -3
100
AcDbLine
 10
2535.53326575
 20
13457.33955427
 30
0.0
 11
2525.74028375
 21
13456.03382327
 31
0.0
  0
ARC
  5
2DC5
330
123D
100
AcDbEntity
  8
YKK_B2
  6
Continuous
 48
0.5
370
    -3
100
AcDbCircle
 10
2535.00461105
 20
13461.3044656
 30
0.0
 40
3.999999697618023
100
AcDbArc
 50
277.59464131
 51
0.00000971
  0
LINE
  5
2DC6
330
123D
100
AcDbEntity
  8
YKK_B2
  6
Continuous
 48
0.5
370
    -3
100
AcDbLine
 10
2539.00461075
 20
13478.80240027
 30
0.0
 11
2539.00461075
 21
13461.30446627
 31
0.0
  0
LINE
  5
2DC7
330
123D
100
AcDbEntity
  8
YKK_B2
  6
Continuous
 48
0.5
370
    -3
100
AcDbLine
 10
2531.50461075
 20
13478.80240027
 30
0.0
 11
2539.00461075
 21
13478.80240027
 31
0.0
  0
LINE
  5
2DC8
330
123D
100
AcDbEntity
  8
YKK_B2
  6
Continuous
 48
0.5
370
    -3
100
AcDbLine
 10
2531.50461075
 20
13464.80240027
 30
0.0
 11
2531.50461075
 21
13478.80240027
 31
0.0
  0
LINE
  5
2DC9
330
123D
100
AcDbEntity
  8
YKK_B2
  6
Continuous
 48
0.5
370
    -3
100
AcDbLine
 10
2505.00461075
 20
13464.80240027
 30
0.0
 11
2531.50461075
 21
13464.80240027
 31
0.0
  0
LINE
  5
2DCA
330
123D
100
AcDbEntity
  8
YKK_B2
  6
Continuous
 48
0.5
370
    -3
100
AcDbLine
 10
2525.00459681
 20
13563.30239108
 30
0.0
 11
2545.00459681
 21
13563.30239108
 31
0.0
  0
LINE
  5
2DCB
330
123D
100
AcDbEntity
  8
YKK_B2
  6
Continuous
 48
0.5
370
    -3
100
AcDbLine
 10
2525.00459681
 20
13470.30239108
 30
0.0
 11
2525.00459681
 21
13557.30239108
 31
0.0
  0
LINE
  5
2DCC
330
123D
100
AcDbEntity
  8
YKK_B2
  6
Continuous
 48
0.5
370
    -3
100
AcDbLine
 10
2531.00459681
 20
13470.30239108
 30
0.0
 11
2525.00459681
 21
13470.30239108
 31
0.0
  0
LINE
  5
2DCD
330
123D
100
AcDbEntity
  8
YKK_B2
  6
Continuous
 48
0.5
370
    -3
100
AcDbLine
 10
2531.00459681
 20
13485.30239108
 30
0.0
 11
2531.00459681
 21
13470.30239108
 31
0.0
  0
LINE
  5
2DCE
330
123D
100
AcDbEntity
  8
YKK_B2
  6
Continuous
 48
0.5
370
    -3
100
AcDbLine
 10
2539.00459681
 20
13485.30239108
 30
0.0
 11
2531.00459681
 21
13485.30239108
 31
0.0
  0
LINE
  5
2DCF
330
123D
100
AcDbEntity
  8
YKK_B2
  6
Continuous
 48
0.5
370
    -3
100
AcDbLine
 10
2539.00459681
 20
13470.30239108
 30
0.0
 11
2539.00459681
 21
13485.30239108
 31
0.0
  0
LINE
  5
2DD0
330
123D
100
AcDbEntity
  8
YKK_B2
  6
Continuous
 48
0.5
370
    -3
100
AcDbLine
 10
2545.00459681
 20
13470.30239108
 30
0.0
 11
2539.00459681
 21
13470.30239108
 31
0.0
  0
LINE
  5
2DD1
330
123D
100
AcDbEntity
  8
YKK_B2
  6
Continuous
 48
0.5
370
    -3
100
AcDbLine
 10
2545.00459681
 20
13563.30239108
 30
0.0
 11
2545.00459681
 21
13470.30239108
 31
0.0
  0
LINE
  5
2DD2
330
123D
100
AcDbEntity
  8
YKK_B2
  6
Continuous
 48
0.5
370
    -3
100
AcDbLine
 10
3295.00462461
 20
13452.80240133
 30
0.0
 11
3295.00462461
 21
13464.80240133
 31
0.0
  0
ARC
  5
2DD3
330
123D
100
AcDbEntity
  8
YKK_B2
  6
Continuous
 48
0.5
370
    -3
100
AcDbCircle
 10
3293.00462428
 20
13452.80240166
 30
0.0
 40
2.000000326794972
100
AcDbArc
 50
270.00000936
 51
359.99999064
  0
LINE
  5
2DD4
330
123D
100
AcDbEntity
  8
YKK_B2
  6
Continuous
 48
0.5
370
    -3
100
AcDbLine
 10
3283.00462461
 20
13450.80240133
 30
0.0
 11
3293.00462461
 21
13450.80240133
 31
0.0
  0
ARC
  5
2DD5
330
123D
100
AcDbEntity
  8
YKK_B2
  6
Continuous
 48
0.5
370
    -3
100
AcDbCircle
 10
3283.00462494
 20
13452.80240166
 30
0.0
 40
2.000000326795
100
AcDbArc
 50
180.00000936
 51
269.99999064
  0
LINE
  5
2DD6
330
123D
100
AcDbEntity
  8
YKK_B2
  6
Continuous
 48
0.5
370
    -3
100
AcDbLine
 10
3281.00462461
 20
13453.80240133
 30
0.0
 11
3281.00462461
 21
13452.80240133
 31
0.0
  0
LINE
  5
2DD7
330
123D
100
AcDbEntity
  8
YKK_B2
  6
Continuous
 48
0.5
370
    -3
100
AcDbLine
 10
3276.00462461
 20
13453.80240133
 30
0.0
 11
3281.00462461
 21
13453.80240133
 31
0.0
  0
LINE
  5
2DD8
330
123D
100
AcDbEntity
  8
YKK_B2
  6
Continuous
 48
0.5
370
    -3
100
AcDbLine
 10
3276.00462461
 20
13454.05136833
 30
0.0
 11
3276.00462461
 21
13453.80240133
 31
0.0
  0
ARC
  5
2DD9
330
123D
100
AcDbEntity
  8
YKK_B2
  6
Continuous
 48
0.5
370
    -3
100
AcDbCircle
 10
3274.00462451
 20
13454.05136838
 30
0.0
 40
2.000000098808988
100
AcDbArc
 50
359.99999847
 51
82.40536687
  0
LINE
  5
2DDA
330
123D
100
AcDbEntity
  8
YKK_B2
  6
Continuous
 48
0.5
370
    -3
100
AcDbLine
 10
3264.47596961
 20
13457.33955533
 30
0.0
 11
3274.26895161
 21
13456.03382433
 31
0.0
  0
ARC
  5
2DDB
330
123D
100
AcDbEntity
  8
YKK_B2
  6
Continuous
 48
0.5
370
    -3
100
AcDbCircle
 10
3265.00462431
 20
13461.30446665
 30
0.0
 40
3.999999697618078
100
AcDbArc
 50
179.99999029
 51
262.40535869
  0
LINE
  5
2DDC
330
123D
100
AcDbEntity
  8
YKK_B2
  6
Continuous
 48
0.5
370
    -3
100
AcDbLine
 10
3261.00462461
 20
13478.80240133
 30
0.0
 11
3261.00462461
 21
13461.30446733
 31
0.0
  0
LINE
  5
2DDD
330
123D
100
AcDbEntity
  8
YKK_B2
  6
Continuous
 48
0.5
370
    -3
100
AcDbLine
 10
3268.50462461
 20
13478.80240133
 30
0.0
 11
3261.00462461
 21
13478.80240133
 31
0.0
  0
LINE
  5
2DDE
330
123D
100
AcDbEntity
  8
YKK_B2
  6
Continuous
 48
0.5
370
    -3
100
AcDbLine
 10
3268.50462461
 20
13464.80240133
 30
0.0
 11
3268.50462461
 21
13478.80240133
 31
0.0
  0
LINE
  5
2DDF
330
123D
100
AcDbEntity
  8
YKK_B2
  6
Continuous
 48
0.5
370
    -3
100
AcDbLine
 10
3295.00462461
 20
13464.80240133
 30
0.0
 11
3268.50462461
 21
13464.80240133
 31
0.0
  0
LINE
  5
2DE0
330
123D
100
AcDbEntity
  8
YKK_B2
  6
Continuous
 48
0.5
370
    -3
100
AcDbLine
 10
3275.00463855
 20
13470.30239213
 30
0.0
 11
3275.00463855
 21
13557.30239213
 31
0.0
  0
LINE
  5
2DE1
330
123D
100
AcDbEntity
  8
YKK_B2
  6
Continuous
370
    -3
100
AcDbLine
 10
3280.50872285
 20
13600.3740302
 30
0.0
 11
3280.53573796
 21
13600.41610375
 31
0.0
  0
LINE
  5
2DE2
330
123D
100
AcDbEntity
  8
YKK_B2
  6
Continuous
370
    -3
100
AcDbLine
 10
2545.00459681
 20
13492.82416776
 30
0.0
 11
2537.48282013
 21
13485.30239108
 31
0.0
  0
LINE
  5
2DE3
330
123D
100
AcDbEntity
  8
YKK_B2
  6
Continuous
370
    -3
100
AcDbLine
 10
2531.00459681
 20
13478.82416776
 30
0.0
 11
2525.00461089
 21
13472.82418184
 31
0.0
  0
LINE
  5
2DE4
330
123D
100
AcDbEntity
  8
YKK_B2
  6
Continuous
370
    -3
100
AcDbLine
 10
2545.00459681
 20
13515.45158476
 30
0.0
 11
2525.00459681
 21
13495.45158476
 31
0.0
  0
LINE
  5
2DE5
330
123D
100
AcDbEntity
  8
YKK_B2
  6
Continuous
370
    -3
100
AcDbLine
 10
2545.00459681
 20
13538.07900176
 30
0.0
 11
2525.00459681
 21
13518.07900176
 31
0.0
  0
LINE
  5
2DE6
330
123D
100
AcDbEntity
  8
YKK_B2
  6
Continuous
370
    -3
100
AcDbLine
 10
2545.00459681
 20
13560.70641875
 30
0.0
 11
2525.00459681
 21
13540.70641875
 31
0.0
  0
ARC
  5
2DE7
330
123D
100
AcDbEntity
  8
YKK_Z1
  6
Continuous
370
    -3
100
AcDbCircle
 10
2517.0045963
 20
13598.30239107
 30
0.0
 40
1.0
100
AcDbArc
 50
180.0
 51
270.0
  0
LINE
  5
2DE8
330
123D
100
AcDbEntity
  8
YKK_Z1
  6
Continuous
370
    -3
100
AcDbLine
 10
2516.0045963
 20
13606.30239107
 30
0.0
 11
2516.0045963
 21
13598.30239107
 31
0.0
  0
ARC
  5
2DE9
330
123D
100
AcDbEntity
  8
YKK_Z1
  6
Continuous
370
    -3
100
AcDbCircle
 10
2517.0045963
 20
13606.30239107
 30
0.0
 40
0.9999999999998864
100
AcDbArc
 50
90.0
 51
180.0
  0
LINE
  5
2DEA
330
123D
100
AcDbEntity
  8
YKK_Z1
  6
Continuous
370
    -3
100
AcDbLine
 10
2520.0045963
 20
13607.30239107
 30
0.0
 11
2517.0045963
 21
13607.30239107
 31
0.0
  0
ARC
  5
2DEB
330
123D
100
AcDbEntity
  8
YKK_Z1
  6
Continuous
370
    -3
100
AcDbCircle
 10
2520.0045963
 20
13606.30239107
 30
0.0
 40
0.9999999999999431
100
AcDbArc
 50
0.0
 51
90.0
  0
LINE
  5
2DEC
330
123D
100
AcDbEntity
  8
YKK_B2
  6
Continuous
370
    -3
100
AcDbLine
 10
2521.0045963
 20
13598.30239107
 30
0.0
 11
2521.0045963
 21
13606.30239107
 31
0.0
  0
ARC
  5
2DED
330
123D
100
AcDbEntity
  8
YKK_Z1
  6
Continuous
370
    -3
100
AcDbCircle
 10
2520.0045963
 20
13598.30239107
 30
0.0
 40
1.000000000000055
100
AcDbArc
 50
270.0
 51
0.0
  0
LINE
  5
2DEE
330
123D
100
AcDbEntity
  8
YKK_Z1
  6
Continuous
370
    -3
100
AcDbLine
 10
2517.0045963
 20
13597.30239107
 30
0.0
 11
2520.0045963
 21
13597.30239107
 31
0.0
  0
ARC
  5
2DEF
330
123D
100
AcDbEntity
  8
YKK_Z1
  6
Continuous
370
    -3
100
AcDbCircle
 10
3281.50687558
 20
13598.30239213
 30
0.0
 40
1.0
100
AcDbArc
 50
180.0
 51
270.0
  0
LINE
  5
2DF0
330
123D
100
AcDbEntity
  8
YKK_B2
  6
Continuous
370
    -3
100
AcDbLine
 10
3280.50687558
 20
13606.65162
 30
0.0
 11
3280.50687558
 21
13598.30239213
 31
0.0
  0
ARC
  5
2DF1
330
123D
100
AcDbEntity
  8
YKK_Z1
  6
Continuous
370
    -3
100
AcDbCircle
 10
3281.50687558
 20
13606.65162
 30
0.0
 40
1.0
100
AcDbArc
 50
90.0
 51
180.0
  0
LINE
  5
2DF2
330
123D
100
AcDbEntity
  8
YKK_Z1
  6
Continuous
370
    -3
100
AcDbLine
 10
3284.50687558
 20
13607.65162
 30
0.0
 11
3281.50687558
 21
13607.65162
 31
0.0
  0
ARC
  5
2DF3
330
123D
100
AcDbEntity
  8
YKK_Z1
  6
Continuous
370
    -3
100
AcDbCircle
 10
3284.50687558
 20
13606.65162
 30
0.0
 40
0.9999999999998864
100
AcDbArc
 50
0.0
 51
90.0
  0
LINE
  5
2DF4
330
123D
100
AcDbEntity
  8
YKK_Z1
  6
Continuous
370
    -3
100
AcDbLine
 10
3285.50687558
 20
13598.30239213
 30
0.0
 11
3285.50687558
 21
13606.65162
 31
0.0
  0
ARC
  5
2DF5
330
123D
100
AcDbEntity
  8
YKK_Z1
  6
Continuous
370
    -3
100
AcDbCircle
 10
3284.50687558
 20
13598.30239213
 30
0.0
 40
0.9999999999998864
100
AcDbArc
 50
270.0
 51
0.0
  0
LINE
  5
2DF6
330
123D
100
AcDbEntity
  8
YKK_Z1
  6
Continuous
370
    -3
100
AcDbLine
 10
3281.50687558
 20
13597.30239213
 30
0.0
 11
3284.50687558
 21
13597.30239213
 31
0.0
  0
LINE
  5
2DF7
330
123D
100
AcDbEntity
  8
YKK_Z1
  6
Continuous
370
    -3
100
AcDbLine
 10
3300.03094428
 20
13623.30239213
 30
0.0
 11
3300.03094428
 21
13629.80239213
 31
0.0
  0
LINE
  5
2DF8
330
123D
100
AcDbEntity
  8
YKK_Z1
  6
Continuous
370
    -3
100
AcDbLine
 10
3298.53094166
 20
13631.30239265
 30
0.0
 11
3282.50687506
 21
13631.30239265
 31
0.0
  0
LINE
  5
2DF9
330
123D
100
AcDbEntity
  8
YKK_Z1
  6
Continuous
370
    -3
100
AcDbLine
 10
3290.02871649
 20
13623.30239213
 30
0.0
 11
3300.03094428
 21
13623.30239213
 31
0.0
  0
LINE
  5
2DFA
330
123D
100
AcDbEntity
  8
YKK_Z1
  6
Continuous
370
    -3
100
AcDbLine
 10
3290.02871649
 20
13623.30239213
 30
0.0
 11
3290.02871649
 21
13624.80239213
 31
0.0
  0
LINE
  5
2DFB
330
123D
100
AcDbEntity
  8
YKK_Z1
  6
Continuous
370
    -3
100
AcDbLine
 10
3290.02871649
 20
13624.80239213
 30
0.0
 11
3279.00687558
 21
13624.80239213
 31
0.0
  0
ARC
  5
2DFC
330
123D
100
AcDbEntity
  8
YKK_Z1
  6
Continuous
370
    -3
100
AcDbCircle
 10
3282.50687506
 20
13621.30239265
 30
0.0
 40
10.0
100
AcDbArc
 50
90.0
 51
180.0
  0
ARC
  5
2DFD
330
123D
100
AcDbEntity
  8
YKK_Z1
  6
Continuous
370
    -3
100
AcDbCircle
 10
3302.03094166
 20
13632.63081977
 30
0.0
 40
3.0
100
AcDbArc
 50
218.94244127
 51
321.05755873
  0
ARC
  5
2DFE
330
123D
100
AcDbEntity
  8
YKK_Z1
  6
Continuous
370
    -3
100
AcDbCircle
 10
3298.53094166
 20
13629.80239935
 30
0.0
 40
1.5
100
AcDbArc
 50
0.0
 51
90.0
  0
LINE
  5
2DFF
330
123D
100
AcDbEntity
  8
YKK_Z1
  6
Continuous
370
    -3
100
AcDbLine
 10
3272.50687506
 20
13621.30239265
 30
0.0
 11
3272.50687506
 21
13607.65162
 31
0.0
  0
LINE
  5
2E00
330
123D
100
AcDbEntity
  8
YKK_B2
  6
Continuous
370
    -3
100
AcDbLine
 10
3280.50687558
 20
13607.65162
 30
0.0
 11
3272.50687506
 21
13607.65162
 31
0.0
  0
LINE
  5
2E01
330
123D
100
AcDbEntity
  8
YKK_Z1
  6
Continuous
370
    -3
100
AcDbLine
 10
3280.50687558
 20
13607.65162
 30
0.0
 11
3280.50687558
 21
13617.65163526
 31
0.0
  0
LINE
  5
2E02
330
123D
100
AcDbEntity
  8
YKK_Z1
  6
Continuous
370
    -3
100
AcDbLine
 10
3280.50687558
 20
13617.65163526
 30
0.0
 11
3279.00687558
 21
13617.65163526
 31
0.0
  0
LINE
  5
2E03
330
123D
100
AcDbEntity
  8
YKK_Z1
  6
Continuous
370
    -3
100
AcDbLine
 10
3279.00687558
 20
13624.80239213
 30
0.0
 11
3279.00687558
 21
13617.65163526
 31
0.0
  0
LINE
  5
2E04
330
123D
100
AcDbEntity
  8
YKK_B2
  6
Continuous
370
    -3
100
AcDbLine
 10
3272.50687506
 20
13607.65162
 30
0.0
 11
3272.50687506
 21
13597.30243111
 31
0.0
  0
LINE
  5
2E05
330
123D
100
AcDbEntity
  8
YKK_B2
  6
Continuous
370
    -3
100
AcDbLine
 10
3280.50687558
 20
13607.65162
 30
0.0
 11
3280.50687558
 21
13597.30239213
 31
0.0
  0
LINE
  5
2E06
330
123D
100
AcDbEntity
  8
YKK_B2
  6
Continuous
370
    -3
100
AcDbLine
 10
3272.50687506
 20
13602.70453193
 30
0.0
 11
3277.45396313
 21
13607.65162
 31
0.0
  0
LINE
  5
2E07
330
123D
100
AcDbEntity
  8
YKK_B2
  6
Continuous
370
    -3
100
AcDbLine
 10
3272.77084606
 20
13597.31164869
 30
0.0
 11
3280.50687558
 21
13605.0476782
 31
0.0
  0
LINE
  5
2E08
330
123D
100
AcDbEntity
  8
YKK_B2
  6
Continuous
370
    -3
100
AcDbLine
 10
3278.63237851
 20
13597.51632688
 30
0.0
 11
3280.50687558
 21
13599.39082395
 31
0.0
  0
LINE
  5
2E09
330
123D
100
AcDbEntity
  8
YKK_B2
  6
Continuous
370
    -3
100
AcDbLine
 10
3280.50687558
 20
13607.65162
 30
0.0
 11
3272.50687506
 21
13607.65162
 31
0.0
  0
LINE
  5
2E0A
330
123D
100
AcDbEntity
  8
YKK_Z1
  6
Continuous
370
    -3
100
AcDbLine
 10
3305.5309469
 20
13631.30239265
 30
0.0
 11
3321.60463484
 21
13631.30239265
 31
0.0
  0
LINE
  5
2E0B
330
123D
100
AcDbEntity
  8
YKK_Z1
  6
Continuous
370
    -3
100
AcDbLine
 10
3304.03094428
 20
13623.30239213
 30
0.0
 11
3304.03094428
 21
13629.80239213
 31
0.0
  0
LINE
  5
2E0C
330
123D
100
AcDbEntity
  8
YKK_Z1
  6
Continuous
370
    -3
100
AcDbLine
 10
3321.60463484
 20
13623.30239213
 30
0.0
 11
3319.03317206
 21
13623.30239213
 31
0.0
  0
LINE
  5
2E0D
330
123D
100
AcDbEntity
  8
YKK_Z1
  6
Continuous
370
    -3
100
AcDbLine
 10
3319.03317206
 20
13623.30239213
 30
0.0
 11
3319.03317206
 21
13624.80239213
 31
0.0
  0
LINE
  5
2E0E
330
123D
100
AcDbEntity
  8
YKK_Z1
  6
Continuous
370
    -3
100
AcDbLine
 10
3309.03317206
 20
13624.80239213
 30
0.0
 11
3319.03317206
 21
13624.80239213
 31
0.0
  0
LINE
  5
2E0F
330
123D
100
AcDbEntity
  8
YKK_Z1
  6
Continuous
370
    -3
100
AcDbLine
 10
3309.03317206
 20
13623.30239213
 30
0.0
 11
3309.03317206
 21
13624.80239213
 31
0.0
  0
LINE
  5
2E10
330
123D
100
AcDbEntity
  8
YKK_Z1
  6
Continuous
370
    -3
100
AcDbLine
 10
3309.03317206
 20
13623.30239213
 30
0.0
 11
3304.03094428
 21
13623.30239213
 31
0.0
  0
ARC
  5
2E11
330
123D
100
AcDbEntity
  8
YKK_Z1
  6
Continuous
370
    -3
100
AcDbCircle
 10
3305.5309469
 20
13629.80239935
 30
0.0
 40
1.5
100
AcDbArc
 50
90.0
 51
180.0
  0
LINE
  5
2E12
330
123D
100
AcDbEntity
  8
YKK_Z1
  6
Continuous
370
    -3
100
AcDbLine
 10
3321.60463484
 20
13587.30239213
 30
0.0
 11
3279.00463855
 21
13587.30239213
 31
0.0
  0
LINE
  5
2E13
330
123D
100
AcDbEntity
  8
YKK_Z1
  6
Continuous
370
    -3
100
AcDbLine
 10
3279.00463855
 20
13587.30239213
 30
0.0
 11
3279.00463855
 21
13482.30239213
 31
0.0
  0
LINE
  5
2E14
330
123D
100
AcDbEntity
  8
YKK_Z1
  6
Continuous
370
    -3
100
AcDbLine
 10
3279.00463855
 20
13482.30239213
 30
0.0
 11
3321.60463484
 21
13482.30239213
 31
0.0
  0
LINE
  5
2E15
330
123D
100
AcDbEntity
  8
YKK_Z1
  6
Continuous
370
    -3
100
AcDbLine
 10
3279.00463855
 20
13482.30239213
 30
0.0
 11
3321.60463484
 21
13524.90238842
 31
0.0
  0
LINE
  5
2E16
330
123D
100
AcDbEntity
  8
YKK_Z1
  6
Continuous
370
    -3
100
AcDbLine
 10
3279.00463855
 20
13587.30239213
 30
0.0
 11
3321.60463484
 21
13544.70239584
 31
0.0
  0
LINE
  5
2E17
330
123D
100
AcDbEntity
  8
YKK_Z1
  6
Continuous
370
    -3
100
AcDbLine
 10
2459.48459681
 20
13470.30239092
 30
0.0
 11
2525.00459681
 21
13470.30239092
 31
0.0
  0
LINE
  5
2E18
330
123D
100
AcDbEntity
  8
YKK_Z1
  6
Continuous
370
    -3
100
AcDbLine
 10
2459.48459681
 20
13464.80239092
 30
0.0
 11
2525.00460052
 21
13464.80239092
 31
0.0
  0
LINE
  5
2E19
330
123D
100
AcDbEntity
  8
YKK_Z1
  6
Continuous
370
    -3
100
AcDbLine
 10
2525.00460052
 20
13464.80239092
 30
0.0
 11
2525.00460052
 21
13470.30239092
 31
0.0
  0
LINE
  5
2E1A
330
123D
100
AcDbEntity
  8
YKK_B2
  6
Continuous
370
    -3
100
AcDbLine
 10
2525.00459681
 20
13482.30239092
 30
0.0
 11
2525.00459681
 21
13470.30239092
 31
0.0
  0
LINE
  5
2E1B
330
123D
100
AcDbEntity
  8
YKK_Z1
  6
Continuous
370
    -3
100
AcDbLine
 10
2459.48459681
 20
13470.30239092
 30
0.0
 11
2525.00459681
 21
13470.30239092
 31
0.0
  0
LINE
  5
2E1C
330
123D
100
AcDbEntity
  8
YKK_Z1
  6
Continuous
370
    -3
100
AcDbLine
 10
2525.00460052
 20
13470.30239092
 30
0.0
 11
2459.48459681
 21
13470.30239092
 31
0.0
  0
LINE
  5
2E1D
330
123D
100
AcDbEntity
  8
YKK_Z1
  6
Continuous
370
    -3
100
AcDbLine
 10
3279.00464831
 20
13557.30239213
 30
0.0
 11
3275.00464831
 21
13557.30239213
 31
0.0
  0
LINE
  5
2E1E
330
123D
100
AcDbEntity
  8
YKK_Z1
  6
Continuous
370
    -3
100
AcDbLine
 10
3279.00463855
 20
13482.30239197
 30
0.0
 11
3275.00463855
 21
13482.30239197
 31
0.0
  0
LINE
  5
2E1F
330
123D
100
AcDbEntity
  8
YKK_Z1
  6
Continuous
370
    -3
100
AcDbLine
 10
3279.00463855
 20
13482.30239197
 30
0.0
 11
3279.00463855
 21
13587.30239197
 31
0.0
  0
LINE
  5
2E20
330
123D
100
AcDbEntity
  8
YKK_Z1
  6
Continuous
370
    -3
100
AcDbLine
 10
3275.00463855
 20
13482.30239197
 30
0.0
 11
3275.00463855
 21
13596.30239213
 31
0.0
  0
LINE
  5
2E21
330
123D
100
AcDbEntity
  8
YKK_Z1
  6
Continuous
370
    -3
100
AcDbLine
 10
3279.00463855
 20
13557.30239213
 30
0.0
 11
3275.00463855
 21
13482.30239197
 31
0.0
  0
LINE
  5
2E22
330
123D
100
AcDbEntity
  8
YKK_Z1
  6
Continuous
370
    -3
100
AcDbLine
 10
2459.48459681
 20
13587.30239168
 30
0.0
 11
2485.00459681
 21
13587.30239168
 31
0.0
  0
LINE
  5
2E23
330
123D
100
AcDbEntity
  8
YKK_Z1
  6
Continuous
370
    -3
100
AcDbLine
 10
2485.00459681
 20
13581.30239108
 30
0.0
 11
2485.00459681
 21
13482.30239168
 31
0.0
  0
LINE
  5
2E24
330
123D
100
AcDbEntity
  8
YKK_Z1
  6
Continuous
370
    -3
100
AcDbLine
 10
2485.00459681
 20
13482.30239168
 30
0.0
 11
2459.48459681
 21
13482.30239168
 31
0.0
  0
LINE
  5
2E25
330
123D
100
AcDbEntity
  8
YKK_Z1
  6
Continuous
370
    -3
100
AcDbLine
 10
2485.00459681
 20
13482.30239168
 30
0.0
 11
2459.48459681
 21
13507.82239168
 31
0.0
  0
LINE
  5
2E26
330
123D
100
AcDbEntity
  8
YKK_Z1
  6
Continuous
370
    -3
100
AcDbLine
 10
2485.00459681
 20
13587.30239168
 30
0.0
 11
2459.48459681
 21
13561.78239168
 31
0.0
  0
LINE
  5
2E27
330
123D
100
AcDbEntity
  8
YKK_Z1
  6
Continuous
370
    -3
100
AcDbLine
 10
2485.00459681
 20
13482.30239168
 30
0.0
 11
2485.00459681
 21
13587.30239168
 31
0.0
  0
LINE
  5
2E28
330
123D
100
AcDbEntity
  8
YKK_Z1
  6
Continuous
370
    -3
100
AcDbLine
 10
2485.00459681
 20
13587.30239168
 30
0.0
 11
2525.00459681
 21
13587.30239168
 31
0.0
  0
LINE
  5
2E29
330
123D
100
AcDbEntity
  8
YKK_Z1
  6
Continuous
370
    -3
100
AcDbLine
 10
2525.00459681
 20
13587.30239168
 30
0.0
 11
2525.00459681
 21
13482.30239168
 31
0.0
  0
LINE
  5
2E2A
330
123D
100
AcDbEntity
  8
YKK_Z1
  6
Continuous
370
    -3
100
AcDbLine
 10
2525.00459681
 20
13482.30239168
 30
0.0
 11
2485.00459681
 21
13482.30239168
 31
0.0
  0
LINE
  5
2E2B
330
123D
100
AcDbEntity
  8
YKK_Z1
  6
Continuous
370
    -3
100
AcDbLine
 10
2525.00459681
 20
13482.30239168
 30
0.0
 11
2485.00459681
 21
13587.30239168
 31
0.0
  0
LINE
  5
2E2C
330
123D
100
AcDbEntity
  8
YKK_Z1
  6
Continuous
370
    -3
100
AcDbLine
 10
2529.00459681
 20
13662.8023937
 30
0.0
 11
2529.00459681
 21
13677.30238779
 31
0.0
  0
LINE
  5
2E2D
330
123D
100
AcDbEntity
  8
YKK_Z1
  6
Continuous
370
    -3
100
AcDbLine
 10
2521.0045963
 20
13661.30239108
 30
0.0
 11
2527.5045963
 21
13661.30239108
 31
0.0
  0
LINE
  5
2E2E
330
123D
100
AcDbEntity
  8
YKK_Z1
  6
Continuous
370
    -3
100
AcDbLine
 10
2521.0045963
 20
13677.30238779
 30
0.0
 11
2521.0045963
 21
13676.30461886
 31
0.0
  0
LINE
  5
2E2F
330
123D
100
AcDbEntity
  8
YKK_Z1
  6
Continuous
370
    -3
100
AcDbLine
 10
2521.0045963
 20
13676.30461886
 30
0.0
 11
2522.5045963
 21
13676.30461886
 31
0.0
  0
LINE
  5
2E30
330
123D
100
AcDbEntity
  8
YKK_Z1
  6
Continuous
370
    -3
100
AcDbLine
 10
2522.5045963
 20
13666.30461886
 30
0.0
 11
2522.5045963
 21
13676.30461886
 31
0.0
  0
LINE
  5
2E31
330
123D
100
AcDbEntity
  8
YKK_Z1
  6
Continuous
370
    -3
100
AcDbLine
 10
2521.0045963
 20
13666.30461886
 30
0.0
 11
2522.5045963
 21
13666.30461886
 31
0.0
  0
LINE
  5
2E32
330
123D
100
AcDbEntity
  8
YKK_Z1
  6
Continuous
370
    -3
100
AcDbLine
 10
2521.0045963
 20
13666.30461886
 30
0.0
 11
2521.0045963
 21
13661.30239108
 31
0.0
  0
ARC
  5
2E33
330
123D
100
AcDbEntity
  8
YKK_Z1
  6
Continuous
370
    -3
100
AcDbCircle
 10
2527.50460352
 20
13662.8023937
 30
0.0
 40
1.5
100
AcDbArc
 50
270.0
 51
0.0
  0
LINE
  5
2E34
330
123D
100
AcDbEntity
  8
YKK_Z1
  6
Continuous
370
    -3
100
AcDbLine
 10
2529.00459681
 20
13655.80238846
 30
0.0
 11
2529.00459681
 21
13607.30239108
 31
0.0
  0
LINE
  5
2E35
330
123D
100
AcDbEntity
  8
YKK_Z1
  6
Continuous
370
    -3
100
AcDbLine
 10
2521.0045963
 20
13657.30239108
 30
0.0
 11
2527.5045963
 21
13657.30239108
 31
0.0
  0
LINE
  5
2E36
330
123D
100
AcDbEntity
  8
YKK_B2
  6
Continuous
370
    -3
100
AcDbLine
 10
2521.0045963
 20
13607.30239108
 30
0.0
 11
2529.00459681
 21
13607.30239108
 31
0.0
  0
LINE
  5
2E37
330
123D
100
AcDbEntity
  8
YKK_Z1
  6
Continuous
370
    -3
100
AcDbLine
 10
2521.0045963
 20
13607.30239108
 30
0.0
 11
2521.0045963
 21
13617.30240634
 31
0.0
  0
LINE
  5
2E38
330
123D
100
AcDbEntity
  8
YKK_Z1
  6
Continuous
370
    -3
100
AcDbLine
 10
2521.0045963
 20
13617.30240634
 30
0.0
 11
2522.5045963
 21
13617.30240634
 31
0.0
  0
LINE
  5
2E39
330
123D
100
AcDbEntity
  8
YKK_Z1
  6
Continuous
370
    -3
100
AcDbLine
 10
2522.5045963
 20
13627.30240634
 30
0.0
 11
2522.5045963
 21
13617.30240634
 31
0.0
  0
LINE
  5
2E3A
330
123D
100
AcDbEntity
  8
YKK_Z1
  6
Continuous
370
    -3
100
AcDbLine
 10
2521.0045963
 20
13627.30240634
 30
0.0
 11
2522.5045963
 21
13627.30240634
 31
0.0
  0
LINE
  5
2E3B
330
123D
100
AcDbEntity
  8
YKK_Z1
  6
Continuous
370
    -3
100
AcDbLine
 10
2521.0045963
 20
13627.30240634
 30
0.0
 11
2521.0045963
 21
13637.30016329
 31
0.0
  0
LINE
  5
2E3C
330
123D
100
AcDbEntity
  8
YKK_Z1
  6
Continuous
370
    -3
100
AcDbLine
 10
2521.0045963
 20
13637.30016329
 30
0.0
 11
2522.5045963
 21
13637.30016329
 31
0.0
  0
LINE
  5
2E3D
330
123D
100
AcDbEntity
  8
YKK_Z1
  6
Continuous
370
    -3
100
AcDbLine
 10
2522.5045963
 20
13647.30016329
 30
0.0
 11
2522.5045963
 21
13637.30016329
 31
0.0
  0
LINE
  5
2E3E
330
123D
100
AcDbEntity
  8
YKK_Z1
  6
Continuous
370
    -3
100
AcDbLine
 10
2521.0045963
 20
13647.30016329
 30
0.0
 11
2522.5045963
 21
13647.30016329
 31
0.0
  0
LINE
  5
2E3F
330
123D
100
AcDbEntity
  8
YKK_Z1
  6
Continuous
370
    -3
100
AcDbLine
 10
2521.0045963
 20
13647.30016329
 30
0.0
 11
2521.0045963
 21
13657.30239108
 31
0.0
  0
ARC
  5
2E40
330
123D
100
AcDbEntity
  8
YKK_Z1
  6
Continuous
370
    -3
100
AcDbCircle
 10
2527.50460352
 20
13655.80238846
 30
0.0
 40
1.5
100
AcDbArc
 50
0.0
 51
90.0
  0
LINE
  5
2E41
330
123D
100
AcDbEntity
  8
YKK_Z1
  6
Continuous
370
    -3
100
AcDbLine
 10
2521.0045963
 20
13661.30239108
 30
0.0
 11
2521.0045963
 21
13657.30239108
 31
0.0
  0
ARC
  5
2E42
330
123D
100
AcDbEntity
  8
YKK_Z1
  6
Continuous
370
    -3
100
AcDbCircle
 10
2530.33302394
 20
13659.30238846
 30
0.0
 40
3.0
100
AcDbArc
 50
128.94244127
 51
231.05755873
  0
LINE
  5
2E43
330
123D
100
AcDbEntity
  8
YKK_Z1
  6
Continuous
370
    -3
100
AcDbLine
 10
2529.00459681
 20
13662.8023937
 30
0.0
 11
2529.00459681
 21
13716.30239108
 31
0.0
  0
LINE
  5
2E44
330
123D
100
AcDbEntity
  8
YKK_Z1
  6
Continuous
370
    -3
100
AcDbLine
 10
2521.0045963
 20
13661.30239108
 30
0.0
 11
2527.5045963
 21
13661.30239108
 31
0.0
  0
LINE
  5
2E45
330
123D
100
AcDbEntity
  8
YKK_Z1
  6
Continuous
370
    -3
100
AcDbLine
 10
2522.5045963
 20
13706.30239108
 30
0.0
 11
2522.5045963
 21
13716.30239108
 31
0.0
  0
LINE
  5
2E46
330
123D
100
AcDbEntity
  8
YKK_Z1
  6
Continuous
370
    -3
100
AcDbLine
 10
2521.0045963
 20
13706.30239108
 30
0.0
 11
2522.5045963
 21
13706.30239108
 31
0.0
  0
LINE
  5
2E47
330
123D
100
AcDbEntity
  8
YKK_Z1
  6
Continuous
370
    -3
100
AcDbLine
 10
2521.0045963
 20
13706.30239108
 30
0.0
 11
2521.0045963
 21
13696.30237582
 31
0.0
  0
LINE
  5
2E48
330
123D
100
AcDbEntity
  8
YKK_Z1
  6
Continuous
370
    -3
100
AcDbLine
 10
2521.0045963
 20
13696.30237582
 30
0.0
 11
2522.5045963
 21
13696.30237582
 31
0.0
  0
LINE
  5
2E49
330
123D
100
AcDbEntity
  8
YKK_Z1
  6
Continuous
370
    -3
100
AcDbLine
 10
2522.5045963
 20
13686.30237582
 30
0.0
 11
2522.5045963
 21
13696.30237582
 31
0.0
  0
LINE
  5
2E4A
330
123D
100
AcDbEntity
  8
YKK_Z1
  6
Continuous
370
    -3
100
AcDbLine
 10
2521.0045963
 20
13686.30237582
 30
0.0
 11
2522.5045963
 21
13686.30237582
 31
0.0
  0
LINE
  5
2E4B
330
123D
100
AcDbEntity
  8
YKK_Z1
  6
Continuous
370
    -3
100
AcDbLine
 10
2521.0045963
 20
13686.30237582
 30
0.0
 11
2521.0045963
 21
13676.30461886
 31
0.0
  0
LINE
  5
2E4C
330
123D
100
AcDbEntity
  8
YKK_Z1
  6
Continuous
370
    -3
100
AcDbLine
 10
2521.0045963
 20
13676.30461886
 30
0.0
 11
2522.5045963
 21
13676.30461886
 31
0.0
  0
LINE
  5
2E4D
330
123D
100
AcDbEntity
  8
YKK_Z1
  6
Continuous
370
    -3
100
AcDbLine
 10
2522.5045963
 20
13666.30461886
 30
0.0
 11
2522.5045963
 21
13676.30461886
 31
0.0
  0
LINE
  5
2E4E
330
123D
100
AcDbEntity
  8
YKK_Z1
  6
Continuous
370
    -3
100
AcDbLine
 10
2521.0045963
 20
13666.30461886
 30
0.0
 11
2522.5045963
 21
13666.30461886
 31
0.0
  0
LINE
  5
2E4F
330
123D
100
AcDbEntity
  8
YKK_Z1
  6
Continuous
370
    -3
100
AcDbLine
 10
2521.0045963
 20
13666.30461886
 30
0.0
 11
2521.0045963
 21
13661.30239108
 31
0.0
  0
ARC
  5
2E50
330
123D
100
AcDbEntity
  8
YKK_Z1
  6
Continuous
370
    -3
100
AcDbCircle
 10
2527.50460352
 20
13662.8023937
 30
0.0
 40
1.5
100
AcDbArc
 50
270.0
 51
0.0
  0
LINE
  5
2E51
330
123D
100
AcDbEntity
  8
YKK_B2
  6
Continuous
370
    -3
100
AcDbLine
 10
2521.0045963
 20
13607.30239108
 30
0.0
 11
2521.0045963
 21
13597.30239108
 31
0.0
  0
LINE
  5
2E52
330
123D
100
AcDbEntity
  8
YKK_B2
  6
Continuous
370
    -3
100
AcDbLine
 10
2529.00459681
 20
13607.30239108
 30
0.0
 11
2529.00459681
 21
13597.30239108
 31
0.0
  0
LINE
  5
2E53
330
123D
100
AcDbEntity
  8
YKK_B2
  6
Continuous
370
    -3
100
AcDbLine
 10
2521.0045963
 20
13607.18372962
 30
0.0
 11
2521.12325776
 21
13607.30239108
 31
0.0
  0
LINE
  5
2E54
330
123D
100
AcDbEntity
  8
YKK_B2
  6
Continuous
370
    -3
100
AcDbLine
 10
2521.0045963
 20
13601.52687537
 30
0.0
 11
2526.780112
 21
13607.30239108
 31
0.0
  0
LINE
  5
2E55
330
123D
100
AcDbEntity
  8
YKK_B2
  6
Continuous
370
    -3
100
AcDbLine
 10
2522.43696625
 20
13597.30239108
 30
0.0
 11
2529.00459681
 21
13603.87002164
 31
0.0
  0
LINE
  5
2E56
330
123D
100
AcDbEntity
  8
YKK_B2
  6
Continuous
370
    -3
100
AcDbLine
 10
2528.06086649
 20
13597.26943706
 30
0.0
 11
2529.00459681
 21
13598.21316739
 31
0.0
  0
LINE
  5
2E57
330
123D
100
AcDbEntity
  8
YKK_B2
  6
Continuous
370
    -3
100
AcDbLine
 10
2529.00459681
 20
13607.30239108
 30
0.0
 11
2521.0045963
 21
13607.30239108
 31
0.0
  0
LINE
  5
2E58
330
123D
100
AcDbEntity
  8
YKK_Z1
  6
Continuous
370
    -3
100
AcDbLine
 10
3321.60463484
 20
13470.30239197
 30
0.0
 11
3275.00463855
 21
13470.30239197
 31
0.0
  0
LINE
  5
2E59
330
123D
100
AcDbEntity
  8
YKK_Z1
  6
Continuous
370
    -3
100
AcDbLine
 10
3321.60463484
 20
13464.80239197
 30
0.0
 11
3275.00463484
 21
13464.80239197
 31
0.0
  0
LINE
  5
2E5A
330
123D
100
AcDbEntity
  8
YKK_Z1
  6
Continuous
370
    -3
100
AcDbLine
 10
3275.00463484
 20
13464.80239197
 30
0.0
 11
3275.00463484
 21
13470.30239197
 31
0.0
  0
LINE
  5
2E5B
330
123D
100
AcDbEntity
  8
YKK_B2
  6
Continuous
370
    -3
100
AcDbLine
 10
3275.00463855
 20
13482.30239197
 30
0.0
 11
3275.00463855
 21
13470.30239197
 31
0.0
  0
LINE
  5
2E5C
330
123D
100
AcDbEntity
  8
YKK_Z1
  6
Continuous
370
    -3
100
AcDbLine
 10
3321.60463484
 20
13482.30239197
 30
0.0
 11
3275.00463855
 21
13482.30239197
 31
0.0
  0
LINE
  5
2E5D
330
123D
100
AcDbEntity
  8
YKK_Z1
  6
Continuous
370
    -3
100
AcDbLine
 10
3275.00463484
 20
13470.30239197
 30
0.0
 11
3321.60463484
 21
13470.30239197
 31
0.0
  0
LINE
  5
2E5E
330
123D
100
AcDbEntity
  8
YKK_B2
  6
Continuous
370
    -3
100
AcDbLine
 10
3268.50462447
 20
13476.33183858
 30
0.0
 11
3261.00462447
 21
13468.83183858
 31
0.0
  0
LINE
  5
2E5F
330
123D
100
AcDbEntity
  8
YKK_B2
  6
Continuous
370
    -3
100
AcDbLine
 10
3273.94574996
 20
13464.80240133
 30
0.0
 11
3266.24679402
 21
13457.10344539
 31
0.0
  0
LINE
  5
2E60
330
123D
100
AcDbEntity
  8
YKK_B2
  6
Continuous
370
    -3
100
AcDbLine
 10
3290.91631271
 20
13464.80240133
 30
0.0
 11
3279.91631271
 21
13453.80240133
 31
0.0
  0
LINE
  5
2E61
330
123D
100
AcDbEntity
  8
YKK_B2
  6
Continuous
370
    -3
100
AcDbLine
 10
2531.50461089
 20
13470.67498328
 30
0.0
 11
2539.00461089
 21
13463.17498328
 31
0.0
  0
LINE
  5
2E62
330
123D
100
AcDbEntity
  8
YKK_B2
  6
Continuous
370
    -3
100
AcDbLine
 10
2520.40663115
 20
13464.80240027
 30
0.0
 11
2528.77109935
 21
13456.43793207
 31
0.0
  0
LINE
  5
2E63
330
123D
100
AcDbEntity
  8
YKK_B2
  6
Continuous
370
    -3
100
AcDbLine
 10
2505.00461089
 20
13463.23385778
 30
0.0
 11
2517.3971653
 21
13450.84130338
 31
0.0
  0
LINE
  5
2E64
330
123D
100
AcDbEntity
  8
YKK_Z1
  6
Continuous
370
    -3
100
AcDbLine
 10
3321.60463484
 20
13596.30239197
 30
0.0
 11
3279.00464831
 21
13596.30239197
 31
0.0
  0
LINE
  5
2E65
330
123D
100
AcDbEntity
  8
YKK_Z1
  6
Continuous
370
    -3
100
AcDbLine
 10
3279.00464831
 20
13596.30239197
 30
0.0
 11
3279.00464831
 21
13587.30239197
 31
0.0
  0
LINE
  5
2E66
330
123D
100
AcDbEntity
  8
YKK_Z1
  6
Continuous
370
    -3
100
AcDbLine
 10
3279.00464831
 20
13587.30239197
 30
0.0
 11
3321.60463484
 21
13587.30239197
 31
0.0
  0
LINE
  5
2E67
330
123D
100
AcDbEntity
  8
YKK_Z1
  6
Continuous
370
    -3
100
AcDbLine
 10
3279.00464831
 20
13596.30239197
 30
0.0
 11
3321.60463484
 21
13588.99953714
 31
0.0
  0
LINE
  5
2E68
330
123D
100
AcDbEntity
  8
YKK_Z1
  6
Continuous
370
    -3
100
AcDbLine
 10
2485.00459681
 20
13725.30239197
 30
0.0
 11
2485.00459681
 21
13587.30239168
 31
0.0
  0
LINE
  5
2E69
330
123D
100
AcDbEntity
  8
YKK_Z1
  6
Continuous
370
    -3
100
AcDbLine
 10
2494.00459681
 20
13596.30239197
 30
0.0
 11
2494.00459681
 21
13725.30239197
 31
0.0
  0
LINE
  5
2E6A
330
123D
100
AcDbEntity
  8
YKK_Z1
  6
Continuous
370
    -3
100
AcDbLine
 10
2494.00459681
 20
13587.30239168
 30
0.0
 11
2523.00459681
 21
13587.30239168
 31
0.0
  0
LINE
  5
2E6B
330
123D
100
AcDbEntity
  8
YKK_Z1
  6
Continuous
370
    -3
100
AcDbLine
 10
3279.30464831
 20
13596.30239213
 30
0.0
 11
3275.30464831
 21
13596.30239213
 31
0.0
  0
LINE
  5
2E6C
330
123D
100
AcDbEntity
  8
YKK_Z1
  6
Continuous
370
    -3
100
AcDbLine
 10
3275.00463855
 20
13557.30239213
 30
0.0
 11
3279.00463855
 21
13596.30239213
 31
0.0
  0
LINE
  5
2E6D
330
123D
100
AcDbEntity
  8
YKK_Z1
  6
Continuous
370
    -3
100
AcDbLine
 10
3300.03094428
 20
13623.30239213
 30
0.0
 11
3304.03094428
 21
13623.30239213
 31
0.0
  0
LINE
  5
2E6E
330
123D
100
AcDbEntity
  8
YKK_Z1
  6
Continuous
370
    -3
100
AcDbLine
 10
2484.97200775
 20
13587.30239168
 30
0.0
 11
2524.97200775
 21
13587.30239168
 31
0.0
  0
LINE
  5
2E6F
330
123D
100
AcDbEntity
  8
YKK_Z1
  6
Continuous
370
    -3
100
AcDbLine
 10
2493.97200775
 20
13587.30239168
 30
0.0
 11
2522.97200775
 21
13587.30239168
 31
0.0
  0
LINE
  5
2E70
330
123D
100
AcDbEntity
  8
YKK_Z1
  6
Continuous
370
    -3
100
AcDbLine
 10
2524.97200775
 20
13587.30239168
 30
0.0
 11
2524.97200775
 21
13596.22936436
 31
0.0
  0
LINE
  5
2E71
330
123D
100
AcDbEntity
  8
YKK_Z1
  6
Continuous
370
    -3
100
AcDbLine
 10
2493.97200775
 20
13596.22936688
 30
0.0
 11
2493.97200775
 21
13587.30239168
 31
0.0
  0
LINE
  5
2E72
330
123D
100
AcDbEntity
  8
YKK_Z1
  6
Continuous
370
    -3
100
AcDbLine
 10
2522.97200775
 20
13596.30239153
 30
0.0
 11
2493.97200775
 21
13596.30239406
 31
0.0
  0
LINE
  5
2E73
330
123D
100
AcDbEntity
  8
YKK_Z1
  6
Continuous
370
    -3
100
AcDbLine
 10
2493.97200775
 20
13596.30239406
 30
0.0
 11
2524.97200775
 21
13587.30239168
 31
0.0
  0
LINE
  5
2E74
330
123D
100
AcDbEntity
  8
YKK_B2
  6
Continuous
 48
0.5
370
    -3
100
AcDbLine
 10
3255.00463484
 20
13563.30239108
 30
0.0
 11
3275.00463484
 21
13563.30239108
 31
0.0
  0
LINE
  5
2E75
330
123D
100
AcDbEntity
  8
YKK_B2
  6
Continuous
 48
0.5
370
    -3
100
AcDbLine
 10
3261.00463484
 20
13470.30239108
 30
0.0
 11
3255.00463484
 21
13470.30239108
 31
0.0
  0
LINE
  5
2E76
330
123D
100
AcDbEntity
  8
YKK_B2
  6
Continuous
 48
0.5
370
    -3
100
AcDbLine
 10
3261.00463484
 20
13485.30239108
 30
0.0
 11
3261.00463484
 21
13470.30239108
 31
0.0
  0
LINE
  5
2E77
330
123D
100
AcDbEntity
  8
YKK_B2
  6
Continuous
 48
0.5
370
    -3
100
AcDbLine
 10
3269.00463484
 20
13485.30239108
 30
0.0
 11
3261.00463484
 21
13485.30239108
 31
0.0
  0
LINE
  5
2E78
330
123D
100
AcDbEntity
  8
YKK_B2
  6
Continuous
 48
0.5
370
    -3
100
AcDbLine
 10
3269.00463484
 20
13470.30239108
 30
0.0
 11
3269.00463484
 21
13485.30239108
 31
0.0
  0
LINE
  5
2E79
330
123D
100
AcDbEntity
  8
YKK_B2
  6
Continuous
 48
0.5
370
    -3
100
AcDbLine
 10
3275.00463484
 20
13470.30239108
 30
0.0
 11
3269.00463484
 21
13470.30239108
 31
0.0
  0
LINE
  5
2E7A
330
123D
100
AcDbEntity
  8
YKK_B2
  6
Continuous
 48
0.5
370
    -3
100
AcDbLine
 10
3275.00463484
 20
13563.30239108
 30
0.0
 11
3275.00463484
 21
13470.30239108
 31
0.0
  0
LINE
  5
2E7B
330
123D
100
AcDbEntity
  8
YKK_B2
  6
Continuous
370
    -3
100
AcDbLine
 10
3275.00463484
 20
13475.85360501
 30
0.0
 11
3269.4534209
 21
13470.30239108
 31
0.0
  0
LINE
  5
2E7C
330
123D
100
AcDbEntity
  8
YKK_B2
  6
Continuous
370
    -3
100
AcDbLine
 10
3275.00463484
 20
13498.48102201
 30
0.0
 11
3261.82600391
 21
13485.30239108
 31
0.0
  0
LINE
  5
2E7D
330
123D
100
AcDbEntity
  8
YKK_B2
  6
Continuous
370
    -3
100
AcDbLine
 10
3261.00463484
 20
13484.48102201
 30
0.0
 11
3255.00464892
 21
13478.48103609
 31
0.0
  0
LINE
  5
2E7E
330
123D
100
AcDbEntity
  8
YKK_B2
  6
Continuous
370
    -3
100
AcDbLine
 10
3275.00463484
 20
13521.10843901
 30
0.0
 11
3255.00463484
 21
13501.10843901
 31
0.0
  0
LINE
  5
2E7F
330
123D
100
AcDbEntity
  8
YKK_B2
  6
Continuous
370
    -3
100
AcDbLine
 10
3275.00463484
 20
13543.73585601
 30
0.0
 11
3255.00463484
 21
13523.73585601
 31
0.0
  0
LINE
  5
2E80
330
123D
100
AcDbEntity
  8
YKK_B2
  6
Continuous
370
    -3
100
AcDbLine
 10
3271.94375291
 20
13563.30239108
 30
0.0
 11
3255.00463484
 21
13546.363273
 31
0.0
  0
LINE
  5
2E81
330
123D
100
AcDbEntity
  8
YKK_B2
  6
Continuous
370
    -3
100
AcDbLine
 10
3255.00463484
 20
13563.30239108
 30
0.0
 11
3255.00463484
 21
13470.30239108
 31
0.0
  0
LINE
  5
2E82
330
123D
100
AcDbEntity
  8
YKK_Z1
 48
1.5
100
AcDbLine
 10
4691.78160784
 20
15225.27833106
 30
0.0
 11
4685.28160784
 21
15225.27833106
 31
0.0
  0
LINE
  5
2E83
330
123D
100
AcDbEntity
  8
YKK_Z1
 48
1.5
100
AcDbLine
 10
4683.78160732
 20
15226.77833368
 30
0.0
 11
4683.78160732
 21
15240.80240027
 31
0.0
  0
LINE
  5
2E84
330
123D
100
AcDbEntity
  8
YKK_Z1
 48
1.5
100
AcDbLine
 10
4691.78160784
 20
15235.28055884
 30
0.0
 11
4691.78160784
 21
15225.27833106
 31
0.0
  0
LINE
  5
2E85
330
123D
100
AcDbEntity
  8
YKK_Z1
 48
1.5
100
AcDbLine
 10
4691.78160784
 20
15235.28055884
 30
0.0
 11
4690.28160784
 21
15235.28055884
 31
0.0
  0
LINE
  5
2E86
330
123D
100
AcDbEntity
  8
YKK_Z1
 48
1.5
100
AcDbLine
 10
4690.28160784
 20
15235.28055884
 30
0.0
 11
4690.28160784
 21
15244.30239976
 31
0.0
  0
ARC
  5
2E87
330
123D
100
AcDbEntity
  8
YKK_Z1
 48
1.5
100
AcDbCircle
 10
4693.78160732
 20
15240.80240027
 30
0.0
 40
10.0
100
AcDbArc
 50
90.0
 51
180.0
  0
ARC
  5
2E88
330
123D
100
AcDbEntity
  8
YKK_Z1
 48
1.5
100
AcDbCircle
 10
4682.4531802
 20
15223.27833368
 30
0.0
 40
3.0
100
AcDbArc
 50
308.94244127
 51
51.05755873
  0
ARC
  5
2E89
330
123D
100
AcDbEntity
  8
YKK_Z1
 48
1.5
100
AcDbCircle
 10
4685.28160062
 20
15226.77833368
 30
0.0
 40
1.5
100
AcDbArc
 50
180.0
 51
270.0
  0
LINE
  5
2E8A
330
123D
100
AcDbEntity
  8
YKK_Z1
 48
1.5
100
AcDbLine
 10
4693.78160732
 20
15250.80240027
 30
0.0
 11
4707.43237998
 21
15250.80240027
 31
0.0
  0
LINE
  5
2E8B
330
123D
100
AcDbEntity
  8
YKK_Z1
 48
1.5
100
AcDbLine
 10
4707.43237998
 20
15242.80239976
 30
0.0
 11
4697.43236472
 21
15242.80239976
 31
0.0
  0
LINE
  5
2E8C
330
123D
100
AcDbEntity
  8
YKK_Z1
 48
1.5
100
AcDbLine
 10
4697.43236472
 20
15242.80239976
 30
0.0
 11
4697.43236472
 21
15244.30239976
 31
0.0
  0
LINE
  5
2E8D
330
123D
100
AcDbEntity
  8
YKK_Z1
 48
1.5
100
AcDbLine
 10
4690.28160784
 20
15244.30239976
 30
0.0
 11
4697.43236472
 21
15244.30239976
 31
0.0
  0
LINE
  5
2E8E
330
123D
100
AcDbEntity
  8
YKK_Z1
 48
1.5
100
AcDbLine
 10
4829.78144589
 20
15169.94500034
 30
0.0
 11
4712.7814497
 21
15169.94500034
 31
0.0
  0
LINE
  5
2E8F
330
123D
100
AcDbEntity
  8
YKK_Z1
 48
1.5
100
AcDbLine
 10
4831.28144589
 20
15171.44500034
 30
0.0
 11
4711.2814497
 21
15171.44500034
 31
0.0
  0
LINE
  5
2E90
330
123D
100
AcDbEntity
  8
YKK_Z1
 48
1.5
100
AcDbLine
 10
4670.12353753
 20
15102.44499226
 30
0.0
 11
4680.12353753
 21
15112.44499226
 31
0.0
  0
LINE
  5
2E91
330
123D
100
AcDbEntity
  8
YKK_Z1
 48
1.5
100
AcDbLine
 10
4668.00221719
 20
15102.44499226
 30
0.0
 11
4678.00221719
 21
15112.44499226
 31
0.0
  0
LINE
  5
2E92
330
123D
100
AcDbEntity
  8
YKK_Z1
 48
1.5
100
AcDbLine
 10
4665.88089684
 20
15102.44499226
 30
0.0
 11
4675.88089684
 21
15112.44499226
 31
0.0
  0
LINE
  5
2E93
330
123D
100
AcDbEntity
  8
YKK_Z1
 48
1.5
100
AcDbLine
 10
4797.40275815
 20
15102.44499226
 30
0.0
 11
4829.78144589
 21
15134.82368
 31
0.0
  0
LINE
  5
2E94
330
123D
100
AcDbEntity
  8
YKK_Z1
 48
1.5
100
AcDbLine
 10
4795.2814378
 20
15102.44499226
 30
0.0
 11
4829.78144589
 21
15136.94500034
 31
0.0
  0
LINE
  5
2E95
330
123D
100
AcDbEntity
  8
YKK_Z1
 48
1.5
100
AcDbLine
 10
4793.16011746
 20
15102.44499226
 30
0.0
 11
4829.78144589
 21
15139.06632069
 31
0.0
  0
LINE
  5
2E96
330
123D
100
AcDbEntity
  8
YKK_Z1
 48
1.5
100
AcDbLine
 10
4712.7814497
 20
15145.10290443
 30
0.0
 11
4737.62354562
 21
15169.94500034
 31
0.0
  0
LINE
  5
2E97
330
123D
100
AcDbEntity
  8
YKK_Z1
 48
1.5
100
AcDbLine
 10
4712.7814497
 20
15147.22422477
 30
0.0
 11
4735.50222527
 21
15169.94500034
 31
0.0
  0
LINE
  5
2E98
330
123D
100
AcDbEntity
  8
YKK_Z1
 48
1.5
100
AcDbLine
 10
4712.7814497
 20
15149.34554512
 30
0.0
 11
4733.38090493
 21
15169.94500034
 31
0.0
  0
LINE
  5
2E99
330
123D
100
AcDbEntity
  8
YKK_Z1
 48
1.5
100
AcDbLine
 10
4627.69713066
 20
15102.44499226
 30
0.0
 11
4637.69713066
 21
15112.44499226
 31
0.0
  0
LINE
  5
2E9A
330
123D
100
AcDbEntity
  8
YKK_Z1
 48
1.5
100
AcDbLine
 10
4625.57581032
 20
15102.44499226
 30
0.0
 11
4635.57581032
 21
15112.44499226
 31
0.0
  0
LINE
  5
2E9B
330
123D
100
AcDbEntity
  8
YKK_Z1
 48
1.5
100
AcDbLine
 10
4623.45448997
 20
15102.44499226
 30
0.0
 11
4633.45448997
 21
15112.44499226
 31
0.0
  0
LINE
  5
2E9C
330
123D
100
AcDbEntity
  8
YKK_Z1
 48
1.5
100
AcDbLine
 10
4621.2814497
 20
15112.44499226
 30
0.0
 11
4712.7814497
 21
15112.44499226
 31
0.0
  0
LINE
  5
2E9D
330
123D
100
AcDbEntity
  8
YKK_Z1
 48
1.5
100
AcDbLine
 10
4711.2814497
 20
15113.94499226
 30
0.0
 11
4621.2814497
 21
15113.94499226
 31
0.0
  0
LINE
  5
2E9E
330
123D
100
AcDbEntity
  8
YKK_Z1
 48
1.5
100
AcDbLine
 10
4691.7814497
 20
15220.94500034
 30
0.0
 11
4691.7814497
 21
15210.94277256
 31
0.0
  0
LINE
  5
2E9F
330
123D
100
AcDbEntity
  8
YKK_Z1
 48
1.5
100
AcDbLine
 10
4691.7814497
 20
15210.94277256
 30
0.0
 11
4690.2814497
 21
15210.94277256
 31
0.0
  0
LINE
  5
2EA0
330
123D
100
AcDbEntity
  8
YKK_Z1
 48
1.5
100
AcDbLine
 10
4691.7814497
 20
15200.94277256
 30
0.0
 11
4690.2814497
 21
15200.94277256
 31
0.0
  0
LINE
  5
2EA1
330
123D
100
AcDbEntity
  8
YKK_Z1
 48
1.5
100
AcDbLine
 10
4691.7814497
 20
15200.94277256
 30
0.0
 11
4691.7814497
 21
15190.9427573
 31
0.0
  0
LINE
  5
2EA2
330
123D
100
AcDbEntity
  8
YKK_Z1
 48
1.5
100
AcDbLine
 10
4691.7814497
 20
15190.9427573
 30
0.0
 11
4690.2814497
 21
15190.9427573
 31
0.0
  0
LINE
  5
2EA3
330
123D
100
AcDbEntity
  8
YKK_Z1
 48
1.5
100
AcDbLine
 10
4690.2814497
 20
15180.9427573
 30
0.0
 11
4690.2814497
 21
15190.9427573
 31
0.0
  0
LINE
  5
2EA4
330
123D
100
AcDbEntity
  8
YKK_Z1
 48
1.5
100
AcDbLine
 10
4691.7814497
 20
15180.9427573
 30
0.0
 11
4690.2814497
 21
15180.9427573
 31
0.0
  0
LINE
  5
2EA5
330
123D
100
AcDbEntity
  8
YKK_Z1
 48
1.5
100
AcDbLine
 10
4691.7814497
 20
15180.9427573
 30
0.0
 11
4691.7814497
 21
15170.94500034
 31
0.0
  0
LINE
  5
2EA6
330
123D
100
AcDbEntity
  8
YKK_Z1
 48
1.5
100
AcDbLine
 10
4691.7814497
 20
15170.94500034
 30
0.0
 11
4685.2814497
 21
15170.94500034
 31
0.0
  0
LINE
  5
2EA7
330
123D
100
AcDbEntity
  8
YKK_Z1
 48
1.5
100
AcDbLine
 10
4691.7814497
 20
15220.94500034
 30
0.0
 11
4684.78144918
 21
15220.94500034
 31
0.0
  0
ARC
  5
2EA8
330
123D
100
AcDbEntity
  8
YKK_Z1
 48
1.5
100
AcDbCircle
 10
4685.28144248
 20
15172.44500297
 30
0.0
 40
1.5
100
AcDbArc
 50
180.0
 51
270.0
  0
ARC
  5
2EA9
330
123D
100
AcDbEntity
  8
YKK_Z1
 48
1.5
100
AcDbCircle
 10
4684.78144918
 20
15219.94500034
 30
0.0
 40
1.0
100
AcDbArc
 50
90.0
 51
180.0
  0
LINE
  5
2EAA
330
123D
100
AcDbEntity
  8
YKK_Z1
 48
1.5
100
AcDbLine
 10
4621.3029267
 20
15168.94500034
 30
0.0
 11
4680.28143884
 21
15168.94500034
 31
0.0
  0
LINE
  5
2EAB
330
123D
100
AcDbEntity
  8
YKK_Z1
 48
1.5
100
AcDbLine
 10
4681.78145826
 20
15160.94498548
 30
0.0
 11
4676.77923047
 21
15160.94498548
 31
0.0
  0
LINE
  5
2EAC
330
123D
100
AcDbEntity
  8
YKK_Z1
 48
1.5
100
AcDbLine
 10
4676.77923047
 20
15160.94498548
 30
0.0
 11
4676.77923047
 21
15162.44498548
 31
0.0
  0
LINE
  5
2EAD
330
123D
100
AcDbEntity
  8
YKK_Z1
 48
1.5
100
AcDbLine
 10
4666.77923047
 20
15162.44498548
 30
0.0
 11
4676.77923047
 21
15162.44498548
 31
0.0
  0
LINE
  5
2EAE
330
123D
100
AcDbEntity
  8
YKK_Z1
 48
1.5
100
AcDbLine
 10
4666.77923047
 20
15160.94498548
 30
0.0
 11
4666.77923047
 21
15162.44498548
 31
0.0
  0
LINE
  5
2EAF
330
123D
100
AcDbEntity
  8
YKK_Z1
 48
1.5
100
AcDbLine
 10
4666.77923047
 20
15160.94498548
 30
0.0
 11
4656.77919995
 21
15160.94498548
 31
0.0
  0
LINE
  5
2EB0
330
123D
100
AcDbEntity
  8
YKK_Z1
 48
1.5
100
AcDbLine
 10
4656.77919995
 20
15160.94498548
 30
0.0
 11
4656.77919995
 21
15162.44498548
 31
0.0
  0
LINE
  5
2EB1
330
123D
100
AcDbEntity
  8
YKK_Z1
 48
1.5
100
AcDbLine
 10
4646.77919995
 20
15162.44498548
 30
0.0
 11
4656.77919995
 21
15162.44498548
 31
0.0
  0
LINE
  5
2EB2
330
123D
100
AcDbEntity
  8
YKK_Z1
 48
1.5
100
AcDbLine
 10
4646.77919995
 20
15160.94498548
 30
0.0
 11
4646.77919995
 21
15162.44498548
 31
0.0
  0
LINE
  5
2EB3
330
123D
100
AcDbEntity
  8
YKK_Z1
 48
1.5
100
AcDbLine
 10
4646.77919995
 20
15160.94498548
 30
0.0
 11
4636.78145826
 21
15160.94498548
 31
0.0
  0
LINE
  5
2EB4
330
123D
100
AcDbEntity
  8
YKK_Z1
 48
1.5
100
AcDbLine
 10
4681.78144918
 20
15160.94499983
 30
0.0
 11
4681.78144918
 21
15167.44499983
 31
0.0
  0
LINE
  5
2EB5
330
123D
100
AcDbEntity
  8
YKK_Z1
 48
1.5
100
AcDbLine
 10
4636.78145826
 20
15160.94498548
 30
0.0
 11
4636.78145826
 21
15162.44498548
 31
0.0
  0
LINE
  5
2EB6
330
123D
100
AcDbEntity
  8
YKK_Z1
 48
1.5
100
AcDbLine
 10
4626.78145826
 20
15162.44498548
 30
0.0
 11
4636.78145826
 21
15162.44498548
 31
0.0
  0
LINE
  5
2EB7
330
123D
100
AcDbEntity
  8
YKK_Z1
 48
1.5
100
AcDbLine
 10
4626.78145826
 20
15160.94498548
 30
0.0
 11
4626.78145826
 21
15162.44498548
 31
0.0
  0
LINE
  5
2EB8
330
123D
100
AcDbEntity
  8
YKK_Z1
 48
1.5
100
AcDbLine
 10
4626.78145826
 20
15160.94498548
 30
0.0
 11
4621.3029267
 21
15160.94498548
 31
0.0
  0
ARC
  5
2EB9
330
123D
100
AcDbEntity
  8
YKK_Z1
 48
1.5
100
AcDbCircle
 10
4680.28143884
 20
15167.44500034
 30
0.0
 40
1.5
100
AcDbArc
 50
0.0
 51
90.0
  0
LINE
  5
2EBA
330
123D
100
AcDbEntity
  8
YKK_Z1
 48
1.5
100
AcDbLine
 10
4691.7814497
 20
15170.94500034
 30
0.0
 11
4691.7814497
 21
15164.44498548
 31
0.0
  0
LINE
  5
2EBB
330
123D
100
AcDbEntity
  8
YKK_Z1
 48
1.5
100
AcDbLine
 10
4681.6300825
 20
15160.94498548
 30
0.0
 11
4688.2814497
 21
15160.94498548
 31
0.0
  0
ARC
  5
2EBC
330
123D
100
AcDbEntity
  8
YKK_Z1
 48
1.5
100
AcDbCircle
 10
4688.2814497
 20
15164.44498548
 30
0.0
 40
3.5
100
AcDbArc
 50
270.0
 51
0.0
  0
ARC
  5
2EBD
330
123D
100
AcDbEntity
  8
YKK_Z1
 48
1.5
100
AcDbCircle
 10
4680.28144248
 20
15172.44500034
 30
0.0
 40
3.5
100
AcDbArc
 50
270.0
 51
0.00003004
  0
LINE
  5
2EBE
330
123D
100
AcDbEntity
  8
YKK_Z1
 48
1.5
100
AcDbLine
 10
4680.78165159
 20
15250.80240027
 30
0.0
 11
4621.05956523
 21
15250.80240027
 31
0.0
  0
LINE
  5
2EBF
330
123D
100
AcDbEntity
  8
YKK_Z1
 48
1.5
100
AcDbLine
 10
4680.78165159
 20
15230.80240027
 30
0.0
 11
4621.05956523
 21
15230.80240027
 31
0.0
  0
LINE
  5
2EC0
330
123D
100
AcDbEntity
  8
YKK_Z1
 48
1.5
100
AcDbLine
 10
4680.78165159
 20
15250.80240027
 30
0.0
 11
4680.78165159
 21
15230.80240027
 31
0.0
  0
LINE
  5
2EC1
330
123D
100
AcDbEntity
  8
YKK_Z1
 48
1.5
100
AcDbLine
 10
4670.78165159
 20
15230.80240027
 30
0.0
 11
4670.78165159
 21
15168.94500034
 31
0.0
  0
LINE
  5
2EC2
330
123D
100
AcDbEntity
  8
YKK_Z1
 48
1.5
100
AcDbLine
 10
4630.78165159
 20
15168.94500034
 30
0.0
 11
4630.78165159
 21
15230.80240027
 31
0.0
  0
LINE
  5
2EC3
330
123D
100
AcDbEntity
  8
YKK_Z1
 48
1.5
100
AcDbLine
 10
4691.7814497
 20
15220.94500034
 30
0.0
 11
4691.78160784
 21
15225.27833106
 31
0.0
  0
ARC
  5
2EC4
330
123D
100
AcDbEntity
  8
YKK_Z1
 48
1.5
100
AcDbCircle
 10
4708.43237997
 20
15236.7375635
 30
0.0
 40
0.9999999999999431
100
AcDbArc
 50
180.0
 51
270.0
  0
LINE
  5
2EC5
330
123D
100
AcDbEntity
  8
YKK_Z1
 48
1.5
100
AcDbLine
 10
4707.43237997
 20
15239.80240027
 30
0.0
 11
4707.43237997
 21
15236.7375635
 31
0.0
  0
ARC
  5
2EC6
330
123D
100
AcDbEntity
  8
YKK_Z1
 48
1.5
100
AcDbCircle
 10
4708.43237997
 20
15239.80240027
 30
0.0
 40
1.0
100
AcDbArc
 50
90.0
 51
180.0
  0
LINE
  5
2EC7
330
123D
100
AcDbEntity
  8
YKK_C2
 48
1.5
100
AcDbLine
 10
4716.78145312
 20
15240.80240027
 30
0.0
 11
4708.43237997
 21
15240.80240027
 31
0.0
  0
ARC
  5
2EC8
330
123D
100
AcDbEntity
  8
YKK_Z1
 48
1.5
100
AcDbCircle
 10
4716.78145312
 20
15239.80240027
 30
0.0
 40
0.9999999999998864
100
AcDbArc
 50
0.0
 51
90.0
  0
LINE
  5
2EC9
330
123D
100
AcDbEntity
  8
YKK_Z1
 48
1.5
100
AcDbLine
 10
4717.78145312
 20
15236.7375635
 30
0.0
 11
4717.78145312
 21
15239.80240027
 31
0.0
  0
ARC
  5
2ECA
330
123D
100
AcDbEntity
  8
YKK_Z1
 48
1.5
100
AcDbCircle
 10
4716.78145312
 20
15236.7375635
 30
0.0
 40
0.9999999999998577
100
AcDbArc
 50
270.0
 51
0.0
  0
LINE
  5
2ECB
330
123D
100
AcDbEntity
  8
YKK_Z1
 48
1.5
100
AcDbLine
 10
4708.43237997
 20
15235.7375635
 30
0.0
 11
4716.78145312
 21
15235.7375635
 31
0.0
  0
LINE
  5
2ECC
330
123D
100
AcDbEntity
  8
YKK_C2
 48
1.5
100
AcDbLine
 10
4707.43237998
 20
15250.80240027
 30
0.0
 11
4717.78156886
 21
15250.80240027
 31
0.0
  0
LINE
  5
2ECD
330
123D
100
AcDbEntity
  8
YKK_C2
 48
1.5
100
AcDbLine
 10
4707.43237998
 20
15240.80240027
 30
0.0
 11
4717.43237998
 21
15240.80240027
 31
0.0
  0
LINE
  5
2ECE
330
123D
100
AcDbEntity
  8
YKK_C2
 48
1.5
100
AcDbLine
 10
4709.55104092
 20
15250.80240027
 30
0.0
 11
4707.43237998
 21
15248.68373933
 31
0.0
  0
LINE
  5
2ECF
330
123D
100
AcDbEntity
  8
YKK_C2
 48
1.5
100
AcDbLine
 10
4715.20789517
 20
15250.80240027
 30
0.0
 11
4707.43237998
 21
15243.02688508
 31
0.0
  0
LINE
  5
2ED0
330
123D
100
AcDbEntity
  8
YKK_C2
 48
1.5
100
AcDbLine
 10
4717.67001219
 20
15247.60766305
 30
0.0
 11
4710.86474942
 21
15240.80240027
 31
0.0
  0
LINE
  5
2ED1
330
123D
100
AcDbEntity
  8
YKK_C2
 48
1.5
100
AcDbLine
 10
4717.46533399
 20
15241.7461306
 30
0.0
 11
4716.52160367
 21
15240.80240027
 31
0.0
  0
LINE
  5
2ED2
330
123D
100
AcDbEntity
  8
YKK_C2
 48
1.5
100
AcDbLine
 10
4707.43237998
 20
15240.80240027
 30
0.0
 11
4707.43237998
 21
15250.80240027
 31
0.0
  0
LINE
  5
2ED3
330
123D
100
AcDbEntity
  8
YKK_C2
 48
1.5
100
AcDbLine
 10
4707.43237998
 20
15242.80239976
 30
0.0
 11
4707.43237998
 21
15250.80240027
 31
0.0
  0
LINE
  5
2ED4
330
123D
100
AcDbEntity
  8
YKK_Z1
  6
Continuous
 48
1.5
100
AcDbLine
 10
4823.78145386
 20
15171.44500713
 30
0.0
 11
4823.78145386
 21
15191.44500713
 31
0.0
  0
LINE
  5
2ED5
330
123D
100
AcDbEntity
  8
YKK_Z1
  6
Continuous
 48
1.5
100
AcDbLine
 10
4823.78145386
 20
15191.44500713
 30
0.0
 11
4718.78145386
 21
15191.44500713
 31
0.0
  0
LINE
  5
2ED6
330
123D
100
AcDbEntity
  8
YKK_Z1
  6
Continuous
 48
1.5
100
AcDbLine
 10
4718.78145386
 20
15191.44500713
 30
0.0
 11
4718.78145386
 21
15171.44500713
 31
0.0
  0
LINE
  5
2ED7
330
123D
100
AcDbEntity
  8
YKK_Z1
  6
Continuous
 48
1.5
100
AcDbLine
 10
4718.78145386
 20
15171.44500713
 30
0.0
 11
4823.78145386
 21
15171.44500713
 31
0.0
  0
LINE
  5
2ED8
330
123D
100
AcDbEntity
  8
YKK_C2
  6
Continuous
 48
1.5
370
    13
100
AcDbLine
 10
4837.81339537
 20
17063.94798817
 30
0.0
 11
4838.7897729
 21
17062.97161063
 31
0.0
  0
LINE
  5
2ED9
330
123D
100
AcDbEntity
  8
YKK_C2
  6
Continuous
 48
1.5
370
    13
100
AcDbLine
 10
4818.15654112
 20
17077.94798817
 30
0.0
 11
4824.15654112
 21
17071.94798817
 31
0.0
  0
LINE
  5
2EDA
330
123D
100
AcDbEntity
  8
YKK_C2
  6
Continuous
 48
1.5
370
    13
100
AcDbLine
 10
4832.15654112
 20
17063.94798817
 30
0.0
 11
4838.15654112
 21
17057.94798817
 31
0.0
  0
LINE
  5
2EDB
330
123D
100
AcDbEntity
  8
YKK_C2
  6
Continuous
 48
1.5
370
    13
100
AcDbLine
 10
4795.52912412
 20
17077.94798817
 30
0.0
 11
4815.52912412
 21
17057.94798817
 31
0.0
  0
LINE
  5
2EDC
330
123D
100
AcDbEntity
  8
YKK_C2
  6
Continuous
 48
1.5
370
    13
100
AcDbLine
 10
4772.90170712
 20
17077.94798817
 30
0.0
 11
4792.90170712
 21
17057.94798817
 31
0.0
  0
LINE
  5
2EDD
330
123D
100
AcDbEntity
  8
YKK_C2
  6
Continuous
 48
1.5
370
    13
100
AcDbLine
 10
4751.78467562
 20
17076.43760267
 30
0.0
 11
4770.27429012
 21
17057.94798817
 31
0.0
  0
LINE
  5
2EDE
330
123D
100
AcDbEntity
  8
YKK_Z1
 48
1.5
100
AcDbLine
 10
4712.7814497
 20
15112.44499226
 30
0.0
 11
4712.7814497
 21
15141.1949963
 31
0.0
  0
LINE
  5
2EDF
330
123D
100
AcDbEntity
  8
YKK_Z1
 48
1.5
100
AcDbLine
 10
4712.7814497
 20
15144.1949963
 30
0.0
 11
4712.7814497
 21
15169.94500034
 31
0.0
  0
LINE
  5
2EE0
330
123D
100
AcDbEntity
  8
YKK_Z1
 48
1.5
100
AcDbLine
 10
4829.78144589
 20
15102.44499226
 30
0.0
 11
4829.78144589
 21
15141.1949963
 31
0.0
  0
LINE
  5
2EE1
330
123D
100
AcDbEntity
  8
YKK_Z1
 48
1.5
100
AcDbLine
 10
4829.78144589
 20
15144.1949963
 30
0.0
 11
4829.78144589
 21
15169.94500034
 31
0.0
  0
LINE
  5
2EE2
330
123D
100
AcDbEntity
  8
YKK_Z1
 48
1.5
100
AcDbLine
 10
4831.28144589
 20
15102.44499226
 30
0.0
 11
4831.28144589
 21
15141.1949963
 31
0.0
  0
LINE
  5
2EE3
330
123D
100
AcDbEntity
  8
YKK_Z1
 48
1.5
100
AcDbLine
 10
4831.28144589
 20
15144.1949963
 30
0.0
 11
4831.28144589
 21
15171.44500713
 31
0.0
  0
LINE
  5
2EE4
330
123D
100
AcDbEntity
  8
YKK_Z1
 48
1.5
100
AcDbLine
 10
4711.2814497
 20
15171.44500034
 30
0.0
 11
4711.2814497
 21
15144.1949963
 31
0.0
  0
LINE
  5
2EE5
330
123D
100
AcDbEntity
  8
YKK_Z1
 48
1.5
100
AcDbLine
 10
4711.2814497
 20
15141.1949963
 30
0.0
 11
4711.2814497
 21
15113.94499226
 31
0.0
  0
LINE
  5
2EE6
330
123D
100
AcDbEntity
  8
YKK_Z1
 48
1.5
100
AcDbLine
 10
4754.97635127
 20
15102.44499226
 30
0.0
 11
4793.72635532
 21
15141.1949963
 31
0.0
  0
LINE
  5
2EE7
330
123D
100
AcDbEntity
  8
YKK_Z1
 48
1.5
100
AcDbLine
 10
4796.72635532
 20
15144.1949963
 30
0.0
 11
4822.47635936
 21
15169.94500034
 31
0.0
  0
LINE
  5
2EE8
330
123D
100
AcDbEntity
  8
YKK_Z1
 48
1.5
100
AcDbLine
 10
4752.85503093
 20
15102.44499226
 30
0.0
 11
4791.60503497
 21
15141.1949963
 31
0.0
  0
LINE
  5
2EE9
330
123D
100
AcDbEntity
  8
YKK_Z1
 48
1.5
100
AcDbLine
 10
4794.60503497
 20
15144.1949963
 30
0.0
 11
4820.35503901
 21
15169.94500034
 31
0.0
  0
LINE
  5
2EEA
330
123D
100
AcDbEntity
  8
YKK_Z1
 48
1.5
100
AcDbLine
 10
4750.73371059
 20
15102.44499226
 30
0.0
 11
4789.48371463
 21
15141.1949963
 31
0.0
  0
LINE
  5
2EEB
330
123D
100
AcDbEntity
  8
YKK_Z1
 48
1.5
100
AcDbLine
 10
4792.48371463
 20
15144.1949963
 30
0.0
 11
4818.23371867
 21
15169.94500034
 31
0.0
  0
LINE
  5
2EEC
330
123D
100
AcDbEntity
  8
YKK_Z1
 48
1.5
100
AcDbLine
 10
4780.04995249
 20
15169.94500034
 30
0.0
 11
4754.29994844
 21
15144.1949963
 31
0.0
  0
LINE
  5
2EED
330
123D
100
AcDbEntity
  8
YKK_Z1
 48
1.5
100
AcDbLine
 10
4751.29994844
 20
15141.1949963
 30
0.0
 11
4712.5499444
 21
15102.44499226
 31
0.0
  0
LINE
  5
2EEE
330
123D
100
AcDbEntity
  8
YKK_Z1
 48
1.5
100
AcDbLine
 10
4775.8073118
 20
15169.94500034
 30
0.0
 11
4750.05730776
 21
15144.1949963
 31
0.0
  0
LINE
  5
2EEF
330
123D
100
AcDbEntity
  8
YKK_Z1
 48
1.5
100
AcDbLine
 10
4747.05730776
 20
15141.1949963
 30
0.0
 11
4708.30730372
 21
15102.44499226
 31
0.0
  0
LINE
  5
2EF0
330
123D
100
AcDbEntity
  8
YKK_Z1
 48
1.5
100
AcDbLine
 10
4710.42862406
 20
15102.44499226
 30
0.0
 11
4749.1786281
 21
15141.1949963
 31
0.0
  0
LINE
  5
2EF1
330
123D
100
AcDbEntity
  8
YKK_Z1
 48
1.5
100
AcDbLine
 10
4752.1786281
 20
15144.1949963
 30
0.0
 11
4777.92863214
 21
15169.94500034
 31
0.0
  0
LINE
  5
2EF2
330
123D
100
AcDbEntity
  8
YKK_Z1
 48
1.5
100
AcDbLine
 10
4711.2814497
 20
15117.94499226
 30
0.0
 11
4711.2814497
 21
15141.1949963
 31
0.0
  0
LINE
  5
2EF3
330
123D
100
AcDbEntity
  8
YKK_Z1
 48
1.5
100
AcDbLine
 10
4711.2814497
 20
15144.1949963
 30
0.0
 11
4711.2814497
 21
15171.44500713
 31
0.0
  0
LINE
  5
2EF4
330
123D
100
AcDbEntity
  8
YKK_Z1
  6
Continuous
 48
1.5
100
AcDbLine
 10
4718.7814497
 20
15243.94500034
 30
0.0
 11
4718.7814497
 21
15207.13243875
 31
0.0
  0
LINE
  5
2EF5
330
123D
100
AcDbEntity
  8
YKK_Z1
  6
Continuous
 48
1.5
100
AcDbLine
 10
4718.7814497
 20
15204.13243875
 30
0.0
 11
4718.7814497
 21
15191.44500713
 31
0.0
  0
LINE
  5
2EF6
330
123D
100
AcDbEntity
  8
YKK_Z1
  6
Continuous
 48
1.5
100
AcDbLine
 10
4823.7814497
 20
15191.44500713
 30
0.0
 11
4823.7814497
 21
15204.13243875
 31
0.0
  0
LINE
  5
2EF7
330
123D
100
AcDbEntity
  8
YKK_Z1
  6
Continuous
 48
1.5
100
AcDbLine
 10
4823.7814497
 20
15207.13243875
 30
0.0
 11
4823.7814497
 21
15243.94500034
 31
0.0
  0
LINE
  5
2EF8
330
123D
100
AcDbEntity
  8
YKK_Z1
  6
Continuous
 48
1.5
100
AcDbLine
 10
4718.7814497
 20
15191.44500713
 30
0.0
 11
4744.15631623
 21
15204.13243875
 31
0.0
  0
LINE
  5
2EF9
330
123D
100
AcDbEntity
  8
YKK_Z1
  6
Continuous
 48
1.5
100
AcDbLine
 10
4750.156317
 20
15207.13243875
 30
0.0
 11
4758.28505993
 21
15211.19680969
 31
0.0
  0
LINE
  5
2EFA
330
123D
100
AcDbEntity
  8
YKK_Z1
 48
1.5
100
AcDbLine
 10
4683.78144918
 20
15172.44499
 30
0.0
 11
4683.78144918
 21
15204.13243875
 31
0.0
  0
LINE
  5
2EFB
330
123D
100
AcDbEntity
  8
YKK_Z1
 48
1.5
100
AcDbLine
 10
4683.78144918
 20
15207.13243875
 30
0.0
 11
4683.78144918
 21
15219.94500034
 31
0.0
  0
LINE
  5
2EFC
330
123D
100
AcDbEntity
  8
YKK_Z1
 48
1.5
100
AcDbLine
 10
4690.2814497
 20
15200.94277256
 30
0.0
 11
4690.2814497
 21
15204.13243875
 31
0.0
  0
LINE
  5
2EFD
330
123D
100
AcDbEntity
  8
YKK_Z1
 48
1.5
100
AcDbLine
 10
4690.2814497
 20
15207.13243875
 30
0.0
 11
4690.2814497
 21
15210.94277256
 31
0.0
  0
LINE
  5
2EFE
330
123D
100
AcDbEntity
  8
YKK_C2
  6
Continuous
 48
1.5
370
    13
100
AcDbLine
 10
4838.7897729
 20
17057.94797409
 30
0.0
 11
4838.7897729
 21
15258.94500034
 31
0.0
  0
LINE
  5
2EFF
330
123D
100
AcDbEntity
  8
YKK_C2
  6
Continuous
 48
1.5
370
    13
100
AcDbLine
 10
4858.28976371
 20
17086.5796968
 30
0.0
 11
4858.28976371
 21
15258.94500034
 31
0.0
  0
LINE
  5
2F00
330
123D
100
AcDbEntity
  8
YKK_B1
  6
ByBlock
 48
0.5
370
    -2
100
AcDbLine
 10
2566.00459776
 20
13594.30239039
 30
0.0
 11
2546.00459776
 21
13594.30239039
 31
0.0
  0
ARC
  5
2F01
330
123D
100
AcDbEntity
  8
YKK_B1
  6
ByBlock
 48
0.5
370
    -2
100
AcDbCircle
 10
2546.00459569
 20
13582.30239039
 30
0.0
 40
12.00000000000018
100
AcDbArc
 50
89.99999008
 51
270.00000992
  0
LINE
  5
2F02
330
123D
100
AcDbEntity
  8
YKK_B1
  6
ByBlock
 48
0.5
370
    -2
100
AcDbLine
 10
2896.9242331
 20
13585.70239039
 30
0.0
 11
2895.4231231
 21
13588.30239039
 31
0.0
  0
ARC
  5
2F03
330
123D
100
AcDbEntity
  8
YKK_B1
  6
ByBlock
 48
0.5
370
    -2
100
AcDbCircle
 10
2885.03082087
 20
13582.30239492
 30
0.0
 40
11.99999546977621
100
AcDbArc
 50
29.99998751
 51
90.00001323
  0
LINE
  5
2F04
330
123D
100
AcDbEntity
  8
YKK_B1
  6
ByBlock
 48
0.5
370
    -2
100
AcDbLine
 10
2885.0308181
 20
13594.30239039
 30
0.0
 11
2865.0046181
 21
13594.30239039
 31
0.0
  0
LINE
  5
2F05
330
123D
100
AcDbEntity
  8
YKK_B1
  6
ByBlock
 48
0.5
370
    -2
100
AcDbLine
 10
2885.40461873
 20
13571.4809342
 30
0.0
 11
2885.40461873
 21
13573.3809342
 31
0.0
  0
ARC
  5
2F06
330
123D
100
AcDbEntity
  8
YKK_B1
  6
ByBlock
 48
0.5
370
    -2
100
AcDbCircle
 10
2896.2046205
 20
13573.38093244
 30
0.0
 40
10.80000176469289
100
AcDbArc
 50
90.00000936
 51
179.99999064
  0
LINE
  5
2F07
330
123D
100
AcDbEntity
  8
YKK_B1
  6
ByBlock
 48
0.5
370
    -2
100
AcDbLine
 10
2896.20461873
 20
13584.1809342
 30
0.0
 11
2903.80461873
 21
13584.1809342
 31
0.0
  0
ARC
  5
2F08
330
123D
100
AcDbEntity
  8
YKK_B1
  6
ByBlock
 48
0.5
370
    -2
100
AcDbCircle
 10
2903.80461697
 20
13573.38093244
 30
0.0
 40
10.80000176469289
100
AcDbArc
 50
0.00000936
 51
89.99999064
  0
LINE
  5
2F09
330
123D
100
AcDbEntity
  8
YKK_B1
  6
ByBlock
 48
0.5
370
    -2
100
AcDbLine
 10
2914.60461873
 20
13573.3809342
 30
0.0
 11
2914.60461873
 21
13571.4809342
 31
0.0
  0
LINE
  5
2F0A
330
123D
100
AcDbEntity
  8
YKK_C1
100
AcDbLine
 10
4747.7846789
 20
17077.94556967
 30
0.0
 11
4751.7846789
 21
17077.94556967
 31
0.0
  0
LINE
  5
2F0B
330
123D
100
AcDbEntity
  8
YKK_C1
100
AcDbLine
 10
4751.7846789
 20
17077.94556967
 30
0.0
 11
4751.7846789
 21
17046.94556967
 31
0.0
  0
LINE
  5
2F0C
330
123D
100
AcDbEntity
  8
YKK_C1
100
AcDbLine
 10
4717.7846789
 20
17092.94556967
 30
0.0
 11
4717.7846789
 21
17067.94556967
 31
0.0
  0
LINE
  5
2F0D
330
123D
100
AcDbEntity
  8
YKK_C1
100
AcDbLine
 10
4717.7846789
 20
17067.94556967
 30
0.0
 11
4751.7846789
 21
17067.94556967
 31
0.0
  0
LINE
  5
2F0E
330
123D
100
AcDbEntity
  8
YKK_C1
100
AcDbLine
 10
4721.7846789
 20
17077.94556967
 30
0.0
 11
4717.7846789
 21
17077.94556967
 31
0.0
  0
LINE
  5
2F0F
330
123D
100
AcDbEntity
  8
YKK_C1
100
AcDbLine
 10
4721.08467889
 20
17054.94556971
 30
0.0
 11
4721.08467889
 21
17024.94556971
 31
0.0
  0
LINE
  5
2F10
330
123D
100
AcDbEntity
  8
YKK_C1
100
AcDbLine
 10
4721.08467889
 20
17031.94556971
 30
0.0
 11
4725.28467889
 21
17031.94556971
 31
0.0
  0
LINE
  5
2F11
330
123D
100
AcDbEntity
  8
YKK_C1
100
AcDbLine
 10
4725.28467889
 20
17031.94556971
 30
0.0
 11
4725.28467889
 21
17024.94556971
 31
0.0
  0
LINE
  5
2F12
330
123D
100
AcDbEntity
  8
YKK_C1
100
AcDbLine
 10
4725.28467889
 20
17024.94556971
 30
0.0
 11
4744.78467889
 21
17024.94556971
 31
0.0
  0
LINE
  5
2F13
330
123D
100
AcDbEntity
  8
YKK_C1
100
AcDbLine
 10
4744.78467889
 20
17024.94556971
 30
0.0
 11
4744.78467889
 21
17054.94556971
 31
0.0
  0
LINE
  5
2F14
330
123D
100
AcDbEntity
  8
YKK_C1
100
AcDbLine
 10
4721.08467889
 20
17047.94556971
 30
0.0
 11
4744.78467889
 21
17047.94556971
 31
0.0
  0
LINE
  5
2F15
330
123D
100
AcDbEntity
  8
YKK_C1
100
AcDbLine
 10
4721.08464715
 20
15262.94218002
 30
0.0
 11
4721.08464715
 21
15291.34218054
 31
0.0
  0
LINE
  5
2F16
330
123D
100
AcDbEntity
  8
YKK_C1
100
AcDbLine
 10
4744.48464714
 20
15352.9421803
 30
0.0
 11
4744.48464714
 21
15262.94218002
 31
0.0
  0
LINE
  5
2F17
330
123D
100
AcDbEntity
  8
YKK_C1
100
AcDbLine
 10
4721.08452442
 20
15387.94218001
 30
0.0
 11
4721.08452442
 21
15313.94217973
 31
0.0
  0
LINE
  5
2F18
330
123D
100
AcDbEntity
  8
YKK_C1
100
AcDbLine
 10
4721.08452442
 20
15380.94218001
 30
0.0
 11
4725.28452442
 21
15380.94218001
 31
0.0
  0
LINE
  5
2F19
330
123D
100
AcDbEntity
  8
YKK_C1
100
AcDbLine
 10
4725.28452442
 20
15380.94218001
 30
0.0
 11
4725.28452442
 21
15387.94218001
 31
0.0
  0
LINE
  5
2F1A
330
123D
100
AcDbEntity
  8
YKK_C1
100
AcDbLine
 10
4725.28452442
 20
15387.94218001
 30
0.0
 11
4744.48452442
 21
15387.94218001
 31
0.0
  0
LINE
  5
2F1B
330
123D
100
AcDbEntity
  8
YKK_C1
100
AcDbLine
 10
4744.48452442
 20
15387.94218001
 30
0.0
 11
4744.48452442
 21
15372.94218001
 31
0.0
  0
LINE
  5
2F1C
330
123D
100
AcDbEntity
  8
YKK_C1
100
AcDbLine
 10
4744.48452442
 20
15372.94218001
 30
0.0
 11
4721.08452442
 21
15372.94218001
 31
0.0
  0
LINE
  5
2F1D
330
123D
100
AcDbEntity
  8
YKK_C1
100
AcDbLine
 10
4721.08464715
 20
15271.94218001
 30
0.0
 11
4744.48464715
 21
15271.94218001
 31
0.0
  0
LINE
  5
2F1E
330
123D
100
AcDbEntity
  8
YKK_C1
100
AcDbLine
 10
4721.08464715
 20
15291.34218054
 30
0.0
 11
4744.48464715
 21
15293.38941439
 31
0.0
  0
LINE
  5
2F1F
330
123D
100
AcDbEntity
  8
YKK_C1
100
AcDbLine
 10
4747.78451795
 20
15243.94500034
 30
0.0
 11
4751.78451795
 21
15243.94500034
 31
0.0
  0
LINE
  5
2F20
330
123D
100
AcDbEntity
  8
YKK_C1
100
AcDbLine
 10
4751.78451795
 20
15243.94500034
 30
0.0
 11
4751.78451795
 21
15261.94500034
 31
0.0
  0
LINE
  5
2F21
330
123D
100
AcDbEntity
  8
YKK_C1
100
AcDbLine
 10
4751.78451795
 20
15261.94500034
 30
0.0
 11
4772.78451795
 21
15261.94500034
 31
0.0
  0
LINE
  5
2F22
330
123D
100
AcDbEntity
  8
YKK_C1
100
AcDbLine
 10
4772.78451795
 20
15261.94500034
 30
0.0
 11
4772.78451795
 21
15258.94500034
 31
0.0
  0
LINE
  5
2F23
330
123D
100
AcDbEntity
  8
YKK_C1
100
AcDbLine
 10
4721.78451795
 20
15243.94500034
 30
0.0
 11
4717.78451795
 21
15243.94500034
 31
0.0
  0
LINE
  5
2F24
330
123D
100
AcDbEntity
  8
YKK_C1
100
AcDbLine
 10
4717.78451795
 20
15228.94500034
 30
0.0
 11
4717.78451795
 21
15253.94500034
 31
0.0
  0
LINE
  5
2F25
330
123D
100
AcDbEntity
  8
YKK_C1
100
AcDbLine
 10
4717.78451795
 20
15253.94500034
 30
0.0
 11
4751.78451795
 21
15253.94500034
 31
0.0
  0
LINE
  5
2F26
330
123D
100
AcDbEntity
  8
YKK_C1
100
AcDbLine
 10
4732.78451795
 20
15258.94500034
 30
0.0
 11
4732.78451795
 21
15253.94500034
 31
0.0
  0
LINE
  5
2F27
330
123D
100
AcDbEntity
  8
YKK_C1
100
AcDbLine
 10
4723.0846789
 20
17028.94556972
 30
0.0
 11
4723.0846789
 21
15380.94218001
 31
0.0
  0
LINE
  5
2F28
330
123D
100
AcDbEntity
  8
YKK_C1
100
AcDbLine
 10
4717.7846789
 20
17057.94556967
 30
0.0
 11
4717.7846789
 21
15263.94500034
 31
0.0
  0
LINE
  5
2F29
330
123D
100
AcDbEntity
  8
YKK_C1
100
AcDbLine
 10
4717.7846789
 20
16209.59220839
 30
0.0
 11
4673.83451842
 21
16209.59220839
 31
0.0
  0
LINE
  5
2F2A
330
123D
100
AcDbEntity
  8
YKK_C1
100
AcDbLine
 10
4673.83451842
 20
16209.59220839
 30
0.0
 11
4673.83451842
 21
16176.29220839
 31
0.0
  0
LINE
  5
2F2B
330
123D
100
AcDbEntity
  8
YKK_C1
100
AcDbLine
 10
4673.83451842
 20
16176.29220839
 30
0.0
 11
4717.7846789
 21
16176.29220839
 31
0.0
  0
LINE
  5
2F2C
330
123D
100
AcDbEntity
  8
YKK_B1
100
AcDbLine
 10
2510.00459681
 20
13597.30239197
 30
0.0
 11
2531.00459681
 21
13597.30239197
 31
0.0
  0
LINE
  5
2F2D
330
123D
100
AcDbEntity
  8
YKK_B1
100
AcDbLine
 10
2531.00459681
 20
13597.30239197
 30
0.0
 11
2531.00459681
 21
13563.30239197
 31
0.0
  0
LINE
  5
2F2E
330
123D
100
AcDbEntity
  8
YKK_B1
100
AcDbLine
 10
2525.00459681
 20
13567.30239197
 30
0.0
 11
2525.00459681
 21
13563.30239197
 31
0.0
  0
LINE
  5
2F2F
330
123D
100
AcDbEntity
  8
YKK_B1
100
AcDbLine
 10
2525.00459681
 20
13563.30239197
 30
0.0
 11
2546.00459681
 21
13563.30239197
 31
0.0
  0
LINE
  5
2F30
330
123D
100
AcDbEntity
  8
YKK_B1
100
AcDbLine
 10
2546.00459776
 20
13570.30239039
 30
0.0
 11
2566.00459776
 21
13570.30239039
 31
0.0
  0
LINE
  5
2F31
330
123D
100
AcDbEntity
  8
YKK_B1
100
AcDbLine
 10
2566.00459776
 20
13570.30239039
 30
0.0
 11
2566.00459776
 21
13589.80239039
 31
0.0
  0
LINE
  5
2F32
330
123D
100
AcDbEntity
  8
YKK_B1
100
AcDbLine
 10
2566.00459776
 20
13589.80239039
 30
0.0
 11
2559.00459776
 21
13589.80239039
 31
0.0
  0
LINE
  5
2F33
330
123D
100
AcDbEntity
  8
YKK_B1
100
AcDbLine
 10
2559.00459776
 20
13589.80239039
 30
0.0
 11
2559.00459776
 21
13594.30239039
 31
0.0
  0
LINE
  5
2F34
330
123D
100
AcDbEntity
  8
YKK_B1
100
AcDbLine
 10
2865.0046181
 20
13570.30239039
 30
0.0
 11
2898.8046181
 21
13570.30239039
 31
0.0
  0
LINE
  5
2F35
330
123D
100
AcDbEntity
  8
YKK_B1
100
AcDbLine
 10
2898.8046181
 20
13574.40239039
 30
0.0
 11
2898.8046181
 21
13570.30239039
 31
0.0
  0
LINE
  5
2F36
330
123D
100
AcDbEntity
  8
YKK_B1
100
AcDbLine
 10
2884.5046181
 20
13594.30239039
 30
0.0
 11
2884.5046181
 21
13570.30239039
 31
0.0
  0
LINE
  5
2F37
330
123D
100
AcDbEntity
  8
YKK_B1
100
AcDbLine
 10
2865.0046181
 20
13570.30239039
 30
0.0
 11
2865.0046181
 21
13589.80239039
 31
0.0
  0
LINE
  5
2F38
330
123D
100
AcDbEntity
  8
YKK_B1
100
AcDbLine
 10
2865.0046181
 20
13589.80239039
 30
0.0
 11
2872.0046181
 21
13589.80239039
 31
0.0
  0
LINE
  5
2F39
330
123D
100
AcDbEntity
  8
YKK_B1
100
AcDbLine
 10
2872.0046181
 20
13589.80239039
 30
0.0
 11
2872.0046181
 21
13594.30239039
 31
0.0
  0
LINE
  5
2F3A
330
123D
100
AcDbEntity
  8
YKK_B1
100
AcDbLine
 10
2559.50459777
 20
13592.0023904
 30
0.0
 11
2871.50461811
 21
13592.0023904
 31
0.0
  0
LINE
  5
2F3B
330
123D
100
AcDbEntity
  8
YKK_B1
  6
ByBlock
 48
0.5
370
    -2
100
AcDbLine
 10
3234.00464057
 20
13594.30239039
 30
0.0
 11
3254.00464057
 21
13594.30239039
 31
0.0
  0
ARC
  5
2F3C
330
123D
100
AcDbEntity
  8
YKK_B1
  6
ByBlock
 48
0.5
370
    -2
100
AcDbCircle
 10
3254.00464265
 20
13582.30239039
 30
0.0
 40
12.00000000000018
100
AcDbArc
 50
269.99999008
 51
90.00000992
  0
LINE
  5
2F3D
330
123D
100
AcDbEntity
  8
YKK_B1
  6
ByBlock
 48
0.5
370
    -2
100
AcDbLine
 10
2903.08500524
 20
13585.70239039
 30
0.0
 11
2904.58611524
 21
13588.30239039
 31
0.0
  0
ARC
  5
2F3E
330
123D
100
AcDbEntity
  8
YKK_B1
  6
ByBlock
 48
0.5
370
    -2
100
AcDbCircle
 10
2914.97841747
 20
13582.30239492
 30
0.0
 40
11.99999546977621
100
AcDbArc
 50
89.99998677
 51
150.00001249
  0
LINE
  5
2F3F
330
123D
100
AcDbEntity
  8
YKK_B1
  6
ByBlock
 48
0.5
370
    -2
100
AcDbLine
 10
2914.97842024
 20
13594.30239039
 30
0.0
 11
2935.00462024
 21
13594.30239039
 31
0.0
  0
LINE
  5
2F40
330
123D
100
AcDbEntity
  8
YKK_B1
100
AcDbLine
 10
3290.00464152
 20
13597.30239197
 30
0.0
 11
3269.00464152
 21
13597.30239197
 31
0.0
  0
LINE
  5
2F41
330
123D
100
AcDbEntity
  8
YKK_B1
100
AcDbLine
 10
3269.00464152
 20
13597.30239197
 30
0.0
 11
3269.00464152
 21
13563.30239197
 31
0.0
  0
LINE
  5
2F42
330
123D
100
AcDbEntity
  8
YKK_B1
100
AcDbLine
 10
3275.00464152
 20
13567.30239197
 30
0.0
 11
3275.00464152
 21
13563.30239197
 31
0.0
  0
LINE
  5
2F43
330
123D
100
AcDbEntity
  8
YKK_B1
100
AcDbLine
 10
3275.00464152
 20
13563.30239197
 30
0.0
 11
3254.00464152
 21
13563.30239197
 31
0.0
  0
LINE
  5
2F44
330
123D
100
AcDbEntity
  8
YKK_B1
100
AcDbLine
 10
3254.00464057
 20
13570.30239039
 30
0.0
 11
3234.00464057
 21
13570.30239039
 31
0.0
  0
LINE
  5
2F45
330
123D
100
AcDbEntity
  8
YKK_B1
100
AcDbLine
 10
3234.00464057
 20
13570.30239039
 30
0.0
 11
3234.00464057
 21
13589.80239039
 31
0.0
  0
LINE
  5
2F46
330
123D
100
AcDbEntity
  8
YKK_B1
100
AcDbLine
 10
3234.00464057
 20
13589.80239039
 30
0.0
 11
3241.00464057
 21
13589.80239039
 31
0.0
  0
LINE
  5
2F47
330
123D
100
AcDbEntity
  8
YKK_B1
100
AcDbLine
 10
3241.00464057
 20
13589.80239039
 30
0.0
 11
3241.00464057
 21
13594.30239039
 31
0.0
  0
LINE
  5
2F48
330
123D
100
AcDbEntity
  8
YKK_B1
100
AcDbLine
 10
2935.00462024
 20
13570.30239039
 30
0.0
 11
2901.20462024
 21
13570.30239039
 31
0.0
  0
LINE
  5
2F49
330
123D
100
AcDbEntity
  8
YKK_B1
100
AcDbLine
 10
2901.20462024
 20
13574.40239039
 30
0.0
 11
2901.20462024
 21
13570.30239039
 31
0.0
  0
LINE
  5
2F4A
330
123D
100
AcDbEntity
  8
YKK_B1
100
AcDbLine
 10
2915.50462024
 20
13594.30239039
 30
0.0
 11
2915.50462024
 21
13570.30239039
 31
0.0
  0
LINE
  5
2F4B
330
123D
100
AcDbEntity
  8
YKK_B1
100
AcDbLine
 10
2935.00462024
 20
13570.30239039
 30
0.0
 11
2935.00462024
 21
13589.80239039
 31
0.0
  0
LINE
  5
2F4C
330
123D
100
AcDbEntity
  8
YKK_B1
100
AcDbLine
 10
2935.00462024
 20
13589.80239039
 30
0.0
 11
2928.00462024
 21
13589.80239039
 31
0.0
  0
LINE
  5
2F4D
330
123D
100
AcDbEntity
  8
YKK_B1
100
AcDbLine
 10
2928.00462024
 20
13589.80239039
 30
0.0
 11
2928.00462024
 21
13594.30239039
 31
0.0
  0
LINE
  5
2F4E
330
123D
100
AcDbEntity
  8
YKK_B1
100
AcDbLine
 10
3240.50464056
 20
13592.0023904
 30
0.0
 11
2928.50462023
 21
13592.0023904
 31
0.0
  0
LINE
  5
2F4F
330
123D
100
AcDbEntity
  8
YKK_B1
100
AcDbLine
 10
2555.00459681
 20
13542.30238483
 30
0.0
 11
3245.00463484
 21
13542.30238483
 31
0.0
  0
LINE
  5
2F50
330
123D
100
AcDbEntity
  8
YKK_B1
100
AcDbLine
 10
2541.00459681
 20
13597.30239197
 30
0.0
 11
3259.00464152
 21
13597.30239197
 31
0.0
  0
LINE
  5
2F51
330
123D
100
AcDbEntity
  8
YKK_B1
100
AcDbLine
 10
2556.00459681
 20
13563.30669895
 30
0.0
 11
3244.00464152
 21
13563.30669895
 31
0.0
  0
LINE
  5
2F52
330
123D
100
AcDbEntity
  8
YKK_C1
100
AcDbLine
 10
4751.78465116
 20
17036.94507998
 30
0.0
 11
4751.78464565
 21
15271.94500034
 31
0.0
  0
LINE
  5
2F53
330
123D
100
AcDbEntity
  8
YKK_A2
  6
Continuous
100
AcDbLine
 10
3269.00461025
 20
17072.94797409
 30
0.0
 11
3269.00461025
 21
15250.80240027
 31
0.0
  0
LINE
  5
2F54
330
123D
100
AcDbEntity
  8
YKK_A2
  6
Continuous
100
AcDbLine
 10
2531.00459895
 20
17072.94797409
 30
0.0
 11
2531.00459895
 21
15250.80240027
 31
0.0
  0
LINE
  5
2F55
330
123D
100
AcDbEntity
  8
YKK_A2
  6
Continuous
100
AcDbLine
 10
2531.00459895
 20
17067.9450585
 30
0.0
 11
3269.00461025
 21
17067.9450585
 31
0.0
  0
LINE
  5
2F56
330
123D
100
AcDbEntity
  8
YKK_A2
  6
Continuous
100
AcDbLine
 10
2531.00459895
 20
15253.94503135
 30
0.0
 11
3269.00461025
 21
15253.94503135
 31
0.0
  0
LINE
  5
2F57
330
123D
100
AcDbEntity
  8
YKK_A1
  6
Continuous
100
AcDbLine
 10
3266.00460959
 20
15262.94221065
 30
0.0
 11
2534.00459693
 21
15262.94221065
 31
0.0
  0
LINE
  5
2F58
330
123D
100
AcDbEntity
  8
YKK_A1
  6
Continuous
100
AcDbLine
 10
2534.00459693
 20
17054.94556972
 30
0.0
 11
3266.00460959
 21
17054.94556972
 31
0.0
  0
LINE
  5
2F59
330
123D
100
AcDbEntity
  8
YKK_A1
  6
Continuous
100
AcDbLine
 10
3234.00460959
 20
17024.94556972
 30
0.0
 11
2935.00460538
 21
17024.94556972
 31
0.0
  0
LINE
  5
2F5A
330
123D
100
AcDbEntity
  8
YKK_A1
  6
Continuous
100
AcDbLine
 10
3266.00460959
 20
17054.94556972
 30
0.0
 11
3266.00460959
 21
15262.94221065
 31
0.0
  0
LINE
  5
2F5B
330
123D
100
AcDbEntity
  8
YKK_A1
  6
Continuous
100
AcDbLine
 10
2534.00459693
 20
17054.94556972
 30
0.0
 11
2534.00459693
 21
15262.94221065
 31
0.0
  0
LINE
  5
2F5C
330
123D
100
AcDbEntity
  8
YKK_A1
  6
Continuous
100
AcDbLine
 10
2566.00459693
 20
15262.94221065
 30
0.0
 11
2566.00459693
 21
16176.19221041
 31
0.0
  0
LINE
  5
2F5D
330
123D
100
AcDbEntity
  8
YKK_A1
  6
Continuous
100
AcDbLine
 10
2566.00459693
 20
16209.6922109
 30
0.0
 11
2566.00459693
 21
17054.94556972
 31
0.0
  0
LINE
  5
2F5E
330
123D
100
AcDbEntity
  8
YKK_A1
  6
Continuous
100
AcDbLine
 10
3234.00460959
 20
15262.94221065
 30
0.0
 11
3234.00460959
 21
17054.94556972
 31
0.0
  0
LINE
  5
2F5F
330
123D
100
AcDbEntity
  8
YKK_A1
  6
Continuous
100
AcDbLine
 10
2903.00460479
 20
17054.94556972
 30
0.0
 11
2903.00460479
 21
15262.94221065
 31
0.0
  0
LINE
  5
2F60
330
123D
100
AcDbEntity
  8
YKK_A1
  6
Continuous
100
AcDbLine
 10
2897.0046047
 20
17054.94556972
 30
0.0
 11
2897.0046047
 21
15262.94221065
 31
0.0
  0
LINE
  5
2F61
330
123D
100
AcDbEntity
  8
YKK_A1
  6
Continuous
100
AcDbLine
 10
2935.00460538
 20
17054.94556972
 30
0.0
 11
2935.00460538
 21
15262.94221065
 31
0.0
  0
LINE
  5
2F62
330
123D
100
AcDbEntity
  8
YKK_A1
  6
Continuous
100
AcDbLine
 10
2865.00460326
 20
17054.94556972
 30
0.0
 11
2865.00460326
 21
16209.6922109
 31
0.0
  0
LINE
  5
2F63
330
123D
100
AcDbEntity
  8
YKK_A1
  6
Continuous
100
AcDbLine
 10
2865.00460326
 20
16176.19221041
 30
0.0
 11
2865.00460326
 21
15262.94221065
 31
0.0
  0
LINE
  5
2F64
330
123D
100
AcDbEntity
  8
YKK_A1
  6
Continuous
100
AcDbLine
 10
2865.00460326
 20
17024.94556972
 30
0.0
 11
2566.00459693
 21
17024.94556972
 31
0.0
  0
LINE
  5
2F65
330
123D
100
AcDbEntity
  8
YKK_A1
  6
Continuous
100
AcDbLine
 10
2566.00459693
 20
15387.94221065
 30
0.0
 11
2865.00460326
 21
15387.94221065
 31
0.0
  0
LINE
  5
2F66
330
123D
100
AcDbEntity
  8
YKK_A1
  6
Continuous
100
AcDbLine
 10
2935.00460538
 20
15387.94221065
 30
0.0
 11
3234.00460959
 21
15387.94221065
 31
0.0
  0
LINE
  5
2F67
330
123D
100
AcDbEntity
  8
YKK_A1
  6
Continuous
100
AcDbLine
 10
2935.00460538
 20
15313.94503224
 30
0.0
 11
3234.00460959
 21
15313.94503224
 31
0.0
  0
LINE
  5
2F68
330
123D
100
AcDbEntity
  8
YKK_A1
  6
Continuous
100
AcDbLine
 10
2566.00459693
 20
15313.94503224
 30
0.0
 11
2865.00460326
 21
15313.94503224
 31
0.0
  0
LINE
  5
2F69
330
123D
100
AcDbEntity
  8
YKK_A2
  6
Continuous
100
AcDbLine
 10
2531.00459895
 20
17061.94505841
 30
0.0
 11
3269.00461025
 21
17061.94505841
 31
0.0
  0
LINE
  5
2F6A
330
123D
100
AcDbEntity
  8
YKK_A2
  6
Continuous
100
AcDbLine
 10
2531.00459895
 20
15258.94503098
 30
0.0
 11
3269.00461025
 21
15258.94503098
 31
0.0
  0
ARC
  5
2F6B
330
123D
100
AcDbEntity
  8
YKK_A2
  6
Continuous
100
AcDbCircle
 10
2878.14927941
 20
16203.69221081
 30
0.0
 40
6.000000089406626
100
AcDbArc
 50
0.0
 51
90.0
  0
ARC
  5
2F6C
330
123D
100
AcDbEntity
  8
YKK_A2
  6
Continuous
100
AcDbCircle
 10
2855.99300607
 20
16178.19221044
 30
0.0
 40
2.000000029802208
100
AcDbArc
 50
180.0
 51
270.0
  0
LINE
  5
2F6D
330
123D
100
AcDbEntity
  8
YKK_A2
  6
Continuous
100
AcDbLine
 10
2575.01619413
 20
16209.6922109
 30
0.0
 11
2552.87017905
 21
16209.6922109
 31
0.0
  0
ARC
  5
2F6E
330
123D
100
AcDbEntity
  8
YKK_A2
  6
Continuous
100
AcDbCircle
 10
2878.14927941
 20
16182.19221049
 30
0.0
 40
6.000000089406626
100
AcDbArc
 50
270.0
 51
0.0
  0
LINE
  5
2F6F
330
123D
100
AcDbEntity
  8
YKK_A2
  6
Continuous
100
AcDbLine
 10
2552.87017905
 20
16176.19221041
 30
0.0
 11
2575.01619413
 21
16176.19221041
 31
0.0
  0
ARC
  5
2F70
330
123D
100
AcDbEntity
  8
YKK_A2
  6
Continuous
100
AcDbCircle
 10
2575.01619413
 20
16178.19221044
 30
0.0
 40
2.000000029802208
100
AcDbArc
 50
270.0
 51
0.0
  0
ARC
  5
2F71
330
123D
100
AcDbEntity
  8
YKK_A2
  6
Continuous
100
AcDbCircle
 10
2575.01619413
 20
16207.69221087
 30
0.0
 40
2.000000029802208
100
AcDbArc
 50
0.0
 51
90.0
  0
ARC
  5
2F72
330
123D
100
AcDbEntity
  8
YKK_A2
  6
Continuous
100
AcDbCircle
 10
2552.87017905
 20
16182.19221049
 30
0.0
 40
6.000000089406626
100
AcDbArc
 50
180.0
 51
270.0
  0
ARC
  5
2F73
330
123D
100
AcDbEntity
  8
YKK_A2
  6
Continuous
100
AcDbCircle
 10
2552.87017905
 20
16203.69221081
 30
0.0
 40
6.000000089406626
100
AcDbArc
 50
90.0
 51
180.0
  0
LINE
  5
2F74
330
123D
100
AcDbEntity
  8
YKK_A2
  6
Continuous
100
AcDbLine
 10
2853.99300604
 20
16178.19221044
 30
0.0
 11
2853.99300604
 21
16207.69221087
 31
0.0
  0
LINE
  5
2F75
330
123D
100
AcDbEntity
  8
YKK_A2
  6
Continuous
100
AcDbLine
 10
2884.1492795
 20
16203.69221081
 30
0.0
 11
2884.1492795
 21
16182.19221049
 31
0.0
  0
LINE
  5
2F76
330
123D
100
AcDbEntity
  8
YKK_A2
  6
Continuous
100
AcDbLine
 10
2577.01619416
 20
16177.94221043
 30
0.0
 11
2853.99300604
 21
16177.94221043
 31
0.0
  0
LINE
  5
2F77
330
123D
100
AcDbEntity
  8
YKK_A2
  6
Continuous
100
AcDbLine
 10
2577.01619416
 20
16207.94221088
 30
0.0
 11
2853.99300604
 21
16207.94221088
 31
0.0
  0
LINE
  5
2F78
330
123D
100
AcDbEntity
  8
YKK_A2
  6
Continuous
100
AcDbLine
 10
2546.87017896
 20
16203.69221081
 30
0.0
 11
2546.87017896
 21
16182.19221049
 31
0.0
  0
ARC
  5
2F79
330
123D
100
AcDbEntity
  8
YKK_A2
  6
Continuous
100
AcDbCircle
 10
2855.99300607
 20
16207.69221087
 30
0.0
 40
2.000000029802208
100
AcDbArc
 50
90.0
 51
180.0
  0
LINE
  5
2F7A
330
123D
100
AcDbEntity
  8
YKK_A2
  6
Continuous
100
AcDbLine
 10
2855.99300607
 20
16209.6922109
 30
0.0
 11
2878.14927941
 21
16209.6922109
 31
0.0
  0
LINE
  5
2F7B
330
123D
100
AcDbEntity
  8
YKK_A2
  6
Continuous
100
AcDbLine
 10
2577.01619416
 20
16178.19221044
 30
0.0
 11
2577.01619416
 21
16207.69221087
 31
0.0
  0
LINE
  5
2F7C
330
123D
100
AcDbEntity
  8
YKK_A2
  6
Continuous
100
AcDbLine
 10
2878.14927941
 20
16176.19221041
 30
0.0
 11
2855.99300607
 21
16176.19221041
 31
0.0
  0
LINE
  5
2F7D
330
123D
100
AcDbEntity
  8
YKK_A1
  6
Continuous
100
AcDbLine
 10
2566.00459693
 20
15291.2930905
 30
0.0
 11
2865.00460326
 21
15291.2930905
 31
0.0
  0
LINE
  5
2F7E
330
123D
100
AcDbEntity
  8
YKK_A1
  6
Continuous
100
AcDbLine
 10
2935.00460538
 20
15291.2930905
 30
0.0
 11
3234.00460959
 21
15291.2930905
 31
0.0
  0
LINE
  5
2F7F
330
123D
100
AcDbEntity
  8
YKK_A1
  6
Continuous
100
AcDbLine
 10
2871.49303836
 20
16758.94556978
 30
0.0
 11
2885.49303857
 21
16758.94556978
 31
0.0
1001
ACDBBLOCKREPETAG
1070
     1
1071
       54
1005
0
  0
LINE
  5
2F80
330
123D
100
AcDbEntity
  8
YKK_A1
  6
Continuous
100
AcDbLine
 10
2871.49303836
 20
16750.94556966
 30
0.0
 11
2885.49303857
 21
16750.94556966
 31
0.0
1001
ACDBBLOCKREPETAG
1070
     1
1071
       55
1005
0
  0
LINE
  5
2F81
330
123D
100
AcDbEntity
  8
YKK_A1
  6
Continuous
100
AcDbLine
 10
2872.49303838
 20
16732.44556748
 30
0.0
 11
2884.49303856
 21
16732.44556748
 31
0.0
1001
ACDBBLOCKREPETAG
1070
     1
1071
       56
1005
0
  0
LINE
  5
2F82
330
123D
100
AcDbEntity
  8
YKK_A1
  6
Continuous
100
AcDbLine
 10
2885.49303857
 20
16733.44556749
 30
0.0
 11
2885.49303857
 21
16776.44556813
 31
0.0
1001
ACDBBLOCKREPETAG
1070
     1
1071
       57
1005
0
  0
LINE
  5
2F83
330
123D
100
AcDbEntity
  8
YKK_A1
  6
Continuous
100
AcDbLine
 10
2884.49303856
 20
16777.44556815
 30
0.0
 11
2872.49303838
 21
16777.44556815
 31
0.0
1001
ACDBBLOCKREPETAG
1070
     1
1071
       58
1005
0
  0
LINE
  5
2F84
330
123D
100
AcDbEntity
  8
YKK_A1
  6
Continuous
100
AcDbLine
 10
2871.49303836
 20
16733.44556749
 30
0.0
 11
2871.49303836
 21
16776.44556813
 31
0.0
1001
ACDBBLOCKREPETAG
1070
     1
1071
       59
1005
0
  0
ARC
  5
2F85
330
123D
100
AcDbEntity
  8
YKK_A1
  6
Continuous
100
AcDbCircle
 10
2872.49303838
 20
16733.44556749
 30
0.0
 40
1.000000014901103
100
AcDbArc
 50
180.0
 51
270.0
1001
ACDBBLOCKREPETAG
1070
     1
1071
       60
1005
0
  0
ARC
  5
2F86
330
123D
100
AcDbEntity
  8
YKK_A1
  6
Continuous
100
AcDbCircle
 10
2884.49303856
 20
16733.44556749
 30
0.0
 40
1.000000014901103
100
AcDbArc
 50
270.0
 51
0.0
1001
ACDBBLOCKREPETAG
1070
     1
1071
       61
1005
0
  0
ARC
  5
2F87
330
123D
100
AcDbEntity
  8
YKK_A1
  6
Continuous
100
AcDbCircle
 10
2884.49303856
 20
16776.44556813
 30
0.0
 40
1.000000014901103
100
AcDbArc
 50
0.0
 51
90.0
1001
ACDBBLOCKREPETAG
1070
     1
1071
       62
1005
0
  0
ARC
  5
2F88
330
123D
100
AcDbEntity
  8
YKK_A1
  6
Continuous
100
AcDbCircle
 10
2872.49303838
 20
16776.44556813
 30
0.0
 40
1.000000014901103
100
AcDbArc
 50
90.0
 51
180.0
1001
ACDBBLOCKREPETAG
1070
     1
1071
       63
1005
0
  0
LINE
  5
2F89
330
123D
100
AcDbEntity
  8
YKK_A2
100
AcDbLine
 10
2529.00459681
 20
17072.94797409
 30
0.0
 11
3272.50687506
 21
17072.94797409
 31
0.0
  0
LINE
  5
2F8A
330
123D
100
AcDbEntity
  8
YKK_A2
100
AcDbLine
 10
2529.00459681
 20
15250.80240027
 30
0.0
 11
3272.50687506
 21
15250.80240027
 31
0.0
  0
LINE
  5
2F8B
330
123D
100
AcDbEntity
  8
YKK_A2
100
AcDbLine
 10
2529.00459681
 20
17072.94797409
 30
0.0
 11
2529.00459681
 21
15250.80240027
 31
0.0
  0
LINE
  5
2F8C
330
123D
100
AcDbEntity
  8
YKK_A2
100
AcDbLine
 10
3272.50687506
 20
17072.94797409
 30
0.0
 11
3272.50687506
 21
15250.80240027
 31
0.0
  0
LINE
  5
2F8D
330
123D
100
AcDbEntity
  8
YKK_C1
100
AcDbLine
 10
4732.7846789
 20
17067.94556967
 30
0.0
 11
4732.7846789
 21
17061.94556967
 31
0.0
  0
TEXT
  5
2F8E
330
123D
100
AcDbEntity
  8
YKK_N1
100
AcDbText
 10
2771.92617141
 20
15062.80240027
 30
0.0
 40
60.0
  1
W=750
100
AcDbText
  0
LINE
  5
2F8F
330
123D
100
AcDbEntity
  8
YKK_N1
  6
Continuous
100
AcDbLine
 10
2525.00459681
 20
15050.80240027
 30
0.0
 11
3275.00459681
 21
15050.80240027
 31
0.0
  0
LINE
  5
2F90
330
123D
100
AcDbEntity
  8
YKK_N1
  6
Continuous
100
AcDbLine
 10
2525.00459681
 20
15050.80240027
 30
0.0
 11
2611.60713719
 21
15100.80240027
 31
0.0
  0
LINE
  5
2F91
330
123D
100
AcDbEntity
  8
YKK_N1
  6
Continuous
100
AcDbLine
 10
2525.00459681
 20
15175.80240027
 30
0.0
 11
2525.00459681
 21
15050.80240027
 31
0.0
  0
LINE
  5
2F92
330
123D
100
AcDbEntity
  8
YKK_N1
  6
Continuous
100
AcDbLine
 10
2611.60713719
 20
15100.80240027
 30
0.0
 11
2611.60713719
 21
15000.80240027
 31
0.0
  0
LINE
  5
2F93
330
123D
100
AcDbEntity
  8
YKK_N1
  6
Continuous
100
AcDbLine
 10
2525.00459681
 20
15050.80240027
 30
0.0
 11
2611.60713719
 21
15000.80240027
 31
0.0
  0
LINE
  5
2F94
330
123D
100
AcDbEntity
  8
YKK_N1
  6
Continuous
100
AcDbLine
 10
3188.40205644
 20
15100.80240027
 30
0.0
 11
3275.00459681
 21
15050.80240027
 31
0.0
  0
LINE
  5
2F95
330
123D
100
AcDbEntity
  8
YKK_N1
  6
Continuous
100
AcDbLine
 10
3188.40205644
 20
15100.80240027
 30
0.0
 11
3188.40205644
 21
15000.80240027
 31
0.0
  0
LINE
  5
2F96
330
123D
100
AcDbEntity
  8
YKK_N1
  6
Continuous
100
AcDbLine
 10
3275.00459681
 20
15175.80240027
 30
0.0
 11
3275.00459681
 21
15050.80240027
 31
0.0
  0
LINE
  5
2F97
330
123D
100
AcDbEntity
  8
YKK_N1
  6
Continuous
100
AcDbLine
 10
3188.40205644
 20
15000.80240027
 30
0.0
 11
3275.00459681
 21
15050.80240027
 31
0.0
  0
TEXT
  5
2F98
330
123D
100
AcDbEntity
  8
YKK_N1
100
AcDbText
 10
3460.50687506
 20
15991.0222717
 30
0.0
 40
60.0
  1
H=1834
 50
90.0
100
AcDbText
  0
LINE
  5
2F99
330
123D
100
AcDbEntity
  8
YKK_N1
  6
Continuous
100
AcDbLine
 10
3472.50687506
 20
17077.94803082
 30
0.0
 11
3472.50687506
 21
15243.94802336
 31
0.0
  0
LINE
  5
2F9A
330
123D
100
AcDbEntity
  8
YKK_N1
  6
Continuous
100
AcDbLine
 10
3347.50687506
 20
15243.94802336
 30
0.0
 11
3472.50687506
 21
15243.94802336
 31
0.0
  0
LINE
  5
2F9B
330
123D
100
AcDbEntity
  8
YKK_N1
  6
Continuous
100
AcDbLine
 10
3422.50687506
 20
15330.55056374
 30
0.0
 11
3472.50687506
 21
15243.94802336
 31
0.0
  0
LINE
  5
2F9C
330
123D
100
AcDbEntity
  8
YKK_N1
  6
Continuous
100
AcDbLine
 10
3422.50687506
 20
15330.55056374
 30
0.0
 11
3522.50687506
 21
15330.55056374
 31
0.0
  0
LINE
  5
2F9D
330
123D
100
AcDbEntity
  8
YKK_N1
  6
Continuous
100
AcDbLine
 10
3472.50687506
 20
15243.94802336
 30
0.0
 11
3522.50687506
 21
15330.55056374
 31
0.0
  0
LINE
  5
2F9E
330
123D
100
AcDbEntity
  8
YKK_N1
  6
Continuous
100
AcDbLine
 10
3347.50687506
 20
17077.94803082
 30
0.0
 11
3472.50687506
 21
17077.94803082
 31
0.0
  0
LINE
  5
2F9F
330
123D
100
AcDbEntity
  8
YKK_N1
  6
Continuous
100
AcDbLine
 10
3422.50687506
 20
16991.34549045
 30
0.0
 11
3522.50687506
 21
16991.34549045
 31
0.0
  0
LINE
  5
2FA0
330
123D
100
AcDbEntity
  8
YKK_N1
  6
Continuous
100
AcDbLine
 10
3422.50687506
 20
16991.34549045
 30
0.0
 11
3472.50687506
 21
17077.94803082
 31
0.0
  0
LINE
  5
2FA1
330
123D
100
AcDbEntity
  8
YKK_N1
  6
Continuous
100
AcDbLine
 10
3472.50687506
 20
17077.94803082
 30
0.0
 11
3522.50687506
 21
16991.34549045
 31
0.0
  0
TEXT
  5
2FA2
330
123D
100
AcDbEntity
  8
YKK_N1
100
AcDbText
 10
5260.50687506
 20
15964.61869403
 30
0.0
 40
60.0
  1
H=1834
 50
90.0
100
AcDbText
  0
LINE
  5
2FA3
330
123D
100
AcDbEntity
  8
YKK_N1
  6
Continuous
100
AcDbLine
 10
5272.50687506
 20
17077.94500781
 30
0.0
 11
5272.50687506
 21
15243.94500034
 31
0.0
  0
LINE
  5
2FA4
330
123D
100
AcDbEntity
  8
YKK_N1
  6
Continuous
100
AcDbLine
 10
4947.50687506
 20
15243.94500034
 30
0.0
 11
5272.50687506
 21
15243.94500034
 31
0.0
  0
LINE
  5
2FA5
330
123D
100
AcDbEntity
  8
YKK_N1
  6
Continuous
100
AcDbLine
 10
4717.78451841
 20
14902.44499226
 30
0.0
 11
4751.78451841
 21
14902.44499226
 31
0.0
  0
CIRCLE
  5
2FA6
330
123D
100
AcDbEntity
  8
YKK_N1
  6
Continuous
100
AcDbCircle
 10
4717.78451841
 20
14902.44499226
 30
0.0
 40
5.0
  0
CIRCLE
  5
2FA7
330
123D
100
AcDbEntity
  8
YKK_N1
  6
Continuous
100
AcDbCircle
 10
4751.78451841
 20
14902.44499226
 30
0.0
 40
5.0
  0
LINE
  5
2FA8
330
123D
100
AcDbEntity
  8
YKK_N1
  6
Continuous
100
AcDbLine
 10
4751.78451841
 20
14902.44499226
 30
0.0
 11
4772.78451841
 21
14902.44499226
 31
0.0
  0
CIRCLE
  5
2FA9
330
123D
100
AcDbEntity
  8
YKK_N1
  6
Continuous
100
AcDbCircle
 10
4772.78451841
 20
14902.44499226
 30
0.0
 40
5.0
  0
LINE
  5
2FAA
330
123D
100
AcDbEntity
  8
YKK_N1
  6
Continuous
100
AcDbLine
 10
4772.78451841
 20
15027.44499226
 30
0.0
 11
4772.78451841
 21
14902.44499226
 31
0.0
  0
LINE
  5
2FAB
330
123D
100
AcDbEntity
  8
YKK_N1
  6
Continuous
100
AcDbLine
 10
4751.78451841
 20
15027.44499226
 30
0.0
 11
4751.78451841
 21
14902.44499226
 31
0.0
  0
TEXT
  5
2FAC
330
123D
100
AcDbEntity
  8
YKK_N1
100
AcDbText
 10
4586.78451841
 20
14914.44499226
 30
0.0
 40
60.0
  1
34
100
AcDbText
  0
LINE
  5
2FAD
330
123D
100
AcDbEntity
  8
YKK_N1
  6
Continuous
100
AcDbLine
 10
4717.78451841
 20
15027.44499226
 30
0.0
 11
4717.78451841
 21
14902.44499226
 31
0.0
  0
TEXT
  5
2FAE
330
123D
100
AcDbEntity
  8
YKK_N1
100
AcDbText
 10
4802.89160763
 20
14914.44499226
 30
0.0
 40
60.0
  1
21
100
AcDbText
  0
LINE
  5
2FAF
330
123D
100
AcDbEntity
  8
YKK_N1
  6
Continuous
100
AcDbLine
 10
5222.50687506
 20
15330.54754072
 30
0.0
 11
5322.50687506
 21
15330.54754072
 31
0.0
  0
LINE
  5
2FB0
330
123D
100
AcDbEntity
  8
YKK_N1
  6
Continuous
100
AcDbLine
 10
5222.50687506
 20
15330.54754072
 30
0.0
 11
5272.50687506
 21
15243.94500034
 31
0.0
  0
LINE
  5
2FB1
330
123D
100
AcDbEntity
  8
YKK_N1
  6
Continuous
100
AcDbLine
 10
5272.50687506
 20
15243.94500034
 30
0.0
 11
5322.50687506
 21
15330.54754072
 31
0.0
  0
LINE
  5
2FB2
330
123D
100
AcDbEntity
  8
YKK_N1
  6
Continuous
100
AcDbLine
 10
4947.50687506
 20
17077.94500781
 30
0.0
 11
5272.50687506
 21
17077.94500781
 31
0.0
  0
LINE
  5
2FB3
330
123D
100
AcDbEntity
  8
YKK_N1
  6
Continuous
100
AcDbLine
 10
4947.50687506
 20
17046.94500781
 30
0.0
 11
5072.50687506
 21
17046.94500781
 31
0.0
  0
LINE
  5
2FB4
330
123D
100
AcDbEntity
  8
YKK_N1
  6
Continuous
100
AcDbLine
 10
5222.50687506
 20
16991.34246743
 30
0.0
 11
5322.50687506
 21
16991.34246743
 31
0.0
  0
LINE
  5
2FB5
330
123D
100
AcDbEntity
  8
YKK_N1
  6
Continuous
100
AcDbLine
 10
5222.50687506
 20
16991.34246743
 30
0.0
 11
5272.50687506
 21
17077.94500781
 31
0.0
  0
CIRCLE
  5
2FB6
330
123D
100
AcDbEntity
  8
YKK_N1
  6
Continuous
100
AcDbCircle
 10
5072.50687506
 20
17077.94500781
 30
0.0
 40
5.0
  0
CIRCLE
  5
2FB7
330
123D
100
AcDbEntity
  8
YKK_N1
  6
Continuous
100
AcDbCircle
 10
5072.50687506
 20
17046.94500781
 30
0.0
 40
5.0
  0
LINE
  5
2FB8
330
123D
100
AcDbEntity
  8
YKK_N1
  6
Continuous
100
AcDbLine
 10
5072.50687506
 20
17077.94500781
 30
0.0
 11
5072.50687506
 21
17046.94500781
 31
0.0
  0
TEXT
  5
2FB9
330
123D
100
AcDbEntity
  8
YKK_N1
100
AcDbText
 10
5060.50687506
 20
16943.64956218
 30
0.0
 40
60.0
  1
31
 50
90.0
100
AcDbText
  0
LINE
  5
2FBA
330
123D
100
AcDbEntity
  8
YKK_N1
  6
Continuous
100
AcDbLine
 10
5272.50687506
 20
17077.94500781
 30
0.0
 11
5322.50687506
 21
16991.34246743
 31
0.0
  0
LINE
  5
2FBB
330
123D
100
AcDbEntity
  8
YKK_N1
  6
Continuous
100
AcDbLine
 10
4947.50687506
 20
15261.94500034
 30
0.0
 11
5072.50687506
 21
15261.94500034
 31
0.0
  0
CIRCLE
  5
2FBC
330
123D
100
AcDbEntity
  8
YKK_N1
  6
Continuous
100
AcDbCircle
 10
5072.50687506
 20
15258.94500034
 30
0.0
 40
5.0
  0
CIRCLE
  5
2FBD
330
123D
100
AcDbEntity
  8
YKK_N1
  6
Continuous
100
AcDbCircle
 10
5072.50687506
 20
15261.94500034
 30
0.0
 40
5.0
  0
LINE
  5
2FBE
330
123D
100
AcDbEntity
  8
YKK_N1
  6
Continuous
100
AcDbLine
 10
5072.50687506
 20
15258.94500034
 30
0.0
 11
5072.50687506
 21
15261.94500034
 31
0.0
  0
TEXT
  5
2FBF
330
123D
100
AcDbEntity
  8
YKK_N1
100
AcDbText
 10
5060.50687506
 20
15294.03333653
 30
0.0
 40
60.0
  1
3
 50
90.0
100
AcDbText
  0
LINE
  5
2FC0
330
123D
100
AcDbEntity
  8
YKK_N1
  6
Continuous
100
AcDbLine
 10
4947.50687506
 20
15258.94500034
 30
0.0
 11
5072.50687506
 21
15258.94500034
 31
0.0
  0
LINE
  5
2FC1
330
123D
100
AcDbEntity
  8
YKK_N1
100
AcDbLine
 10
5072.50687506
 20
15258.94500034
 30
0.0
 11
5072.50687506
 21
15243.94500034
 31
0.0
  0
CIRCLE
  5
2FC2
330
123D
100
AcDbEntity
  8
YKK_N1
  6
Continuous
100
AcDbCircle
 10
5072.50687506
 20
15243.94500034
 30
0.0
 40
5.0
  0
TEXT
  5
2FC3
330
123D
100
AcDbEntity
  8
YKK_N1
100
AcDbText
 10
5060.50687506
 20
15136.93621715
 30
0.0
 40
60.0
  1
15
 50
90.0
100
AcDbText
  0
LINE
  5
2FC4
330
123D
100
AcDbEntity
  8
YKK_N1
  6
Continuous
100
AcDbLine
 10
2525.00459681
 20
13250.80240027
 30
0.0
 11
3275.00459681
 21
13250.80240027
 31
0.0
  0
LINE
  5
2FC5
330
123D
100
AcDbEntity
  8
YKK_N1
  6
Continuous
100
AcDbLine
 10
2611.60713719
 20
13300.80240027
 30
0.0
 11
2611.60713719
 21
13200.80240027
 31
0.0
  0
CIRCLE
  5
2FC6
330
123D
100
AcDbEntity
  8
YKK_N1
  6
Continuous
100
AcDbCircle
 10
2510.00459681
 20
13250.80240027
 30
0.0
 40
5.0
  0
LINE
  5
2FC7
330
123D
100
AcDbEntity
  8
YKK_N1
  6
Continuous
100
AcDbLine
 10
2525.00459681
 20
13250.80240027
 30
0.0
 11
2611.60713719
 21
13300.80240027
 31
0.0
  0
LINE
  5
2FC8
330
123D
100
AcDbEntity
  8
YKK_N1
  6
Continuous
100
AcDbLine
 10
2510.00459681
 20
13375.80240027
 30
0.0
 11
2510.00459681
 21
13250.80240027
 31
0.0
  0
LINE
  5
2FC9
330
123D
100
AcDbEntity
  8
YKK_N1
  6
Continuous
100
AcDbLine
 10
2525.00459681
 20
13375.80240027
 30
0.0
 11
2525.00459681
 21
13250.80240027
 31
0.0
  0
LINE
  5
2FCA
330
123D
100
AcDbEntity
  8
YKK_N1
  6
Continuous
100
AcDbLine
 10
2510.00459681
 20
13250.80240027
 30
0.0
 11
2525.00459681
 21
13250.80240027
 31
0.0
  0
LINE
  5
2FCB
330
123D
100
AcDbEntity
  8
YKK_N1
  6
Continuous
100
AcDbLine
 10
2525.00459681
 20
13250.80240027
 30
0.0
 11
2611.60713719
 21
13200.80240027
 31
0.0
  0
TEXT
  5
2FCC
330
123D
100
AcDbEntity
  8
YKK_N1
100
AcDbText
 10
2397.77563486
 20
13262.80240027
 30
0.0
 40
60.0
  1
15
100
AcDbText
  0
TEXT
  5
2FCD
330
123D
100
AcDbEntity
  8
YKK_N1
100
AcDbText
 10
2759.03822482
 20
13262.80240027
 30
0.0
 40
60.0
  1
W=750
100
AcDbText
  0
LINE
  5
2FCE
330
123D
100
AcDbEntity
  8
YKK_N1
  6
Continuous
100
AcDbLine
 10
3355.60463484
 20
13563.30237672
 30
0.0
 11
3480.60463484
 21
13563.30237672
 31
0.0
  0
LINE
  5
2FCF
330
123D
100
AcDbEntity
  8
YKK_N1
  6
Continuous
100
AcDbLine
 10
3355.60463484
 20
13597.30239197
 30
0.0
 11
3480.60463484
 21
13597.30239197
 31
0.0
  0
CIRCLE
  5
2FD0
330
123D
100
AcDbEntity
  8
YKK_N1
  6
Continuous
100
AcDbCircle
 10
3290.00459681
 20
13250.80240027
 30
0.0
 40
5.0
  0
LINE
  5
2FD1
330
123D
100
AcDbEntity
  8
YKK_N1
  6
Continuous
100
AcDbLine
 10
3188.40205644
 20
13300.80240027
 30
0.0
 11
3275.00459681
 21
13250.80240027
 31
0.0
  0
LINE
  5
2FD2
330
123D
100
AcDbEntity
  8
YKK_N1
  6
Continuous
100
AcDbLine
 10
3188.40205644
 20
13300.80240027
 30
0.0
 11
3188.40205644
 21
13200.80240027
 31
0.0
  0
LINE
  5
2FD3
330
123D
100
AcDbEntity
  8
YKK_N1
  6
Continuous
100
AcDbLine
 10
3275.00459681
 20
13375.80240027
 30
0.0
 11
3275.00459681
 21
13250.80240027
 31
0.0
  0
LINE
  5
2FD4
330
123D
100
AcDbEntity
  8
YKK_N1
  6
Continuous
100
AcDbLine
 10
3290.00459681
 20
13375.80240027
 30
0.0
 11
3290.00459681
 21
13250.80240027
 31
0.0
  0
LINE
  5
2FD5
330
123D
100
AcDbEntity
  8
YKK_N1
  6
Continuous
100
AcDbLine
 10
3188.40205644
 20
13200.80240027
 30
0.0
 11
3275.00459681
 21
13250.80240027
 31
0.0
  0
LINE
  5
2FD6
330
123D
100
AcDbEntity
  8
YKK_N1
  6
Continuous
100
AcDbLine
 10
3275.00459681
 20
13250.80240027
 30
0.0
 11
3290.00459681
 21
13250.80240027
 31
0.0
  0
TEXT
  5
2FD7
330
123D
100
AcDbEntity
  8
YKK_N1
100
AcDbText
 10
3322.78395804
 20
13262.80240027
 30
0.0
 40
60.0
  1
15
100
AcDbText
  0
CIRCLE
  5
2FD8
330
123D
100
AcDbEntity
  8
YKK_N1
  6
Continuous
100
AcDbCircle
 10
3480.60463484
 20
13563.30237672
 30
0.0
 40
5.0
  0
TEXT
  5
2FD9
330
123D
100
AcDbEntity
  8
YKK_N1
100
AcDbText
 10
3468.60463484
 20
13627.2324287
 30
0.0
 40
60.0
  1
34
 50
90.0
100
AcDbText
  0
LINE
  5
2FDA
330
123D
100
AcDbEntity
  8
YKK_N1
  6
Continuous
100
AcDbLine
 10
3480.60463484
 20
13597.30239197
 30
0.0
 11
3480.60463484
 21
13563.30237672
 31
0.0
  0
CIRCLE
  5
2FDB
330
123D
100
AcDbEntity
  8
YKK_N1
  6
Continuous
100
AcDbCircle
 10
3480.60463484
 20
13597.30239197
 30
0.0
 40
5.0
  0
LINE
  5
2FDC
330
123D
100
AcDbEntity
  8
YKK_IN
  6
Continuous
100
AcDbLine
 10
4716.4291789
 20
15208.58966128
 30
0.0
 11
4787.13985701
 21
15279.3003394
 31
0.0
  0
LINE
  5
2FDD
330
123D
100
AcDbEntity
  8
YKK_IN
  6
Continuous
100
AcDbLine
 10
4716.4291789
 20
15279.3003394
 30
0.0
 11
4787.13985701
 21
15208.58966128
 31
0.0
  0
CIRCLE
  5
2FDE
330
123D
100
AcDbEntity
  8
YKK_IN
  6
Continuous
100
AcDbCircle
 10
4751.78451795
 20
15243.94500034
 30
0.0
 40
25.0
  0
LINE
  5
2FDF
330
123D
100
AcDbEntity
  8
YKK_IN
  6
Continuous
100
AcDbLine
 10
2864.64925775
 20
15208.58966128
 30
0.0
 11
2935.35993587
 21
15279.3003394
 31
0.0
  0
LINE
  5
2FE0
330
123D
100
AcDbEntity
  8
YKK_IN
  6
Continuous
100
AcDbLine
 10
2864.64925775
 20
15279.3003394
 30
0.0
 11
2935.35993587
 21
15208.58966128
 31
0.0
  0
CIRCLE
  5
2FE1
330
123D
100
AcDbEntity
  8
YKK_IN
  6
Continuous
100
AcDbCircle
 10
2900.00459681
 20
15243.94500034
 30
0.0
 40
25.0
  0
ENDSEC
  0
SECTION
  2
OBJECTS
  0
DICTIONARY
  5
1232
330
0
100
AcDbDictionary
281
     1
  3
ACAD_CIP_PREVIOUS_PRODUCT_INFO
350
23B9
  3
ACAD_COLOR
350
234F
  3
ACAD_DETAILVIEWSTYLE
350
2368
  3
ACAD_GROUP
350
1233
  3
ACAD_LAYOUT
350
236D
  3
ACAD_MATERIAL
350
231D
  3
ACAD_MLEADERSTYLE
350
2364
  3
ACAD_MLINESTYLE
350
1240
  3
ACAD_PLOTSETTINGS
350
236C
  3
ACAD_PLOTSTYLENAME
350
231B
  3
ACAD_RENDER_ACTIVE_RAPIDRT_SETTINGS
350
246F
  3
ACAD_RENDER_ACTIVE_SETTINGS
350
2AB6
  3
ACAD_SCALELIST
350
2352
  3
ACAD_SECTIONVIEWSTYLE
350
2366
  3
ACAD_TABLESTYLE
350
2350
  3
ACAD_VISUALSTYLE
350
2336
  3
ACDB_RECOMPOSE_DATA
350
30F9
  3
ACDBVARIABLEDICTIONARY
350
1253
  0
DICTIONARY
  5
2423
330
122E
100
AcDbDictionary
280
     1
281
     1
  0
DICTIONARY
  5
2413
330
1228
100
AcDbDictionary
280
     1
281
     1
  3
ACAD_LAYERSTATES
360
2414
  0
DICTIONARY
  5
23FA
330
1234
100
AcDbDictionary
280
     1
281
     1
  3
ADSK_XREC_LAYER_RECONCILED
360
23FB
  0
DICTIONARY
  5
23FC
330
1245
100
AcDbDictionary
280
     1
281
     1
  3
ADSK_XREC_LAYER_RECONCILED
360
23FD
  0
DICTIONARY
  5
2400
330
1247
100
AcDbDictionary
280
     1
281
     1
  3
ADSK_XREC_LAYER_RECONCILED
360
2401
  0
DICTIONARY
  5
2402
330
1248
100
AcDbDictionary
280
     1
281
     1
  3
ADSK_XREC_LAYER_RECONCILED
360
2403
  0
DICTIONARY
  5
2404
330
1249
100
AcDbDictionary
280
     1
281
     1
  3
ADSK_XREC_LAYER_RECONCILED
360
2405
  0
DICTIONARY
  5
2406
330
124A
100
AcDbDictionary
280
     1
281
     1
  3
ADSK_XREC_LAYER_RECONCILED
360
2407
  0
DICTIONARY
  5
2408
330
124B
100
AcDbDictionary
280
     1
281
     1
  3
ADSK_XREC_LAYER_RECONCILED
360
2409
  0
DICTIONARY
  5
240A
330
124C
100
AcDbDictionary
280
     1
281
     1
  3
ADSK_XREC_LAYER_RECONCILED
360
240B
  0
DICTIONARY
  5
240C
330
124D
100
AcDbDictionary
280
     1
281
     1
  3
ADSK_XREC_LAYER_RECONCILED
360
240D
  0
DICTIONARY
  5
240E
330
124E
100
AcDbDictionary
280
     1
281
     1
  3
ADSK_XREC_LAYER_RECONCILED
360
240F
  0
DICTIONARY
  5
2AC8
330
2AC7
100
AcDbDictionary
280
     1
281
     1
  0
XRECORD
  5
23B9
102
{ACAD_REACTORS
330
1232
102
}
330
1232
100
AcDbXrecord
280
     1
300
ACD
300
2018
300
86830ACD_2018_0F
  0
DICTIONARY
  5
234F
102
{ACAD_REACTORS
330
1232
102
}
330
1232
100
AcDbDictionary
281
     1
  0
DICTIONARY
  5
2368
102
{ACAD_REACTORS
330
1232
102
}
330
1232
100
AcDbDictionary
281
     1
  3
Imperial24
350
2369
  3
Metric50
350
2463
  0
DICTIONARY
  5
1233
102
{ACAD_REACTORS
330
1232
102
}
330
1232
100
AcDbDictionary
281
     1
  0
DICTIONARY
  5
236D
102
{ACAD_REACTORS
330
1232
102
}
330
1232
100
AcDbDictionary
281
     1
  3
Model
350
236E
  3
レイアウト1
350
236F
  0
DICTIONARY
  5
231D
102
{ACAD_REACTORS
330
1232
102
}
330
1232
100
AcDbDictionary
281
     1
  3
ByBlock
350
2326
  3
ByLayer
350
231E
  3
Global
350
232E
  0
DICTIONARY
  5
2364
102
{ACAD_REACTORS
330
1232
102
}
330
1232
100
AcDbDictionary
281
     1
  3
Standard
350
2365
  0
DICTIONARY
  5
1240
102
{ACAD_REACTORS
330
1232
102
}
330
1232
100
AcDbDictionary
281
     1
  3
STANDARD
350
1241
  0
DICTIONARY
  5
236C
102
{ACAD_REACTORS
330
1232
102
}
330
1232
100
AcDbDictionary
281
     1
  0
ACDBDICTIONARYWDFLT
  5
231B
102
{ACAD_REACTORS
330
1232
102
}
330
1232
100
AcDbDictionary
281
     1
  3
Normal
350
231C
100
AcDbDictionaryWithDefault
340
231C
  0
RAPIDRTRENDERSETTINGS
  5
246F
102
{ACAD_REACTORS
330
1232
102
}
330
1232
100
AcDbRenderSettings
 90
        2
  1
中
290
     1
290
     0
290
     1
290
     1
  1

  1
5 レンダリング レベルを適用
 90
        0
100
AcDbRapidRTRenderSettings
 90
        3
 70
     0
 90
        5
 90
        1
 70
     1
 70
     2
 40
3.0
 40
3.0
290
     1
  0
MENTALRAYRENDERSETTINGS
  5
2AB6
102
{ACAD_XDICTIONARY
360
2AB7
102
}
102
{ACAD_REACTORS
330
1232
102
}
330
1232
100
AcDbRenderSettings
 90
        2
  1
中間
290
     1
290
     1
290
     1
290
     1
  1

  1

 90
        0
100
AcDbMentalRayRenderSettings
 90
        2
 90
        0
 90
        1
 70
     2
 40
3.0
 40
3.0
 40
0.05
 40
0.05
 40
0.05
 40
0.05
 70
     0
290
     0
290
     1
 90
        5
 90
        5
 90
        5
290
     0
 90
      500
290
     0
 40
1.0
 90
    10000
 90
        5
 90
        5
 90
        5
290
     0
 90
      200
290
     0
290
     0
290
     0
 40
1.0
 40
1.0
 40
1500.0
 70
     0
 70
     0
 40
10.0
 70
     0
 70
     0
290
     0
  1

 90
       32
 70
     0
 90
     1048
290
     0
 40
1.0
  0
DICTIONARY
  5
2352
102
{ACAD_REACTORS
330
1232
102
}
330
1232
100
AcDbDictionary
281
     1
  3
A0
350
2353
  3
A1
350
2354
  3
A2
350
2355
  3
A3
350
2356
  3
A4
350
2357
  3
A5
350
2358
  3
A6
350
2359
  3
A7
350
235A
  3
A8
350
235B
  3
A9
350
235C
  3
B0
350
235D
  3
B1
350
235E
  3
B2
350
235F
  3
B3
350
2360
  3
B4
350
2361
  3
B5
350
2362
  3
B6
350
2363
  0
DICTIONARY
  5
2366
102
{ACAD_REACTORS
330
1232
102
}
330
1232
100
AcDbDictionary
281
     1
  3
Imperial24
350
2367
  3
Metric50
350
2462
  0
DICTIONARY
  5
2350
102
{ACAD_REACTORS
330
1232
102
}
330
1232
100
AcDbDictionary
281
     1
  3
Standard
350
2351
  0
DICTIONARY
  5
2336
102
{ACAD_REACTORS
330
1232
102
}
330
1232
100
AcDbDictionary
281
     1
  3
2dWireframe
350
233C
  3
Basic
350
233B
  3
Brighten
350
2342
  3
ColorChange
350
2346
  3
Conceptual
350
233F
  3
Dim
350
2341
  3
EdgeColorOff
350
234E
  3
Facepattern
350
2345
  3
Flat
350
2337
  3
FlatWithEdges
350
2338
  3
Gouraud
350
2339
  3
GouraudWithEdges
350
233A
  3
Hidden
350
233E
  3
JitterOff
350
234C
  3
Linepattern
350
2344
  3
OverhangOff
350
234D
  3
Realistic
350
2340
  3
Shaded
350
234B
  3
Shaded with edges
350
234A
  3
Shades of Gray
350
2347
  3
Sketchy
350
2348
  3
Thicken
350
2343
  3
Wireframe
350
233D
  3
X-Ray
350
2349
  0
XRECORD
  5
30F9
102
{ACAD_REACTORS
330
1232
102
}
330
1232
100
AcDbXrecord
280
     1
 90
        1
330
2351
  0
DICTIONARY
  5
1253
102
{ACAD_REACTORS
330
1232
102
}
330
1232
100
AcDbDictionary
281
     1
  3
CANNOSCALE
350
23B2
  3
CMLEADERSTYLE
350
23AF
  3
CTABLESTYLE
350
23AE
  3
CVIEWDETAILSTYLE
350
23B0
  3
CVIEWSECTIONSTYLE
350
23B1
  3
DIMADEC
350
1254
  3
XCLIPFRAME
350
30F7
  0
DICTIONARY
  5
2414
102
{ACAD_REACTORS
330
2413
102
}
330
2413
100
AcDbDictionary
281
     1
  0
XRECORD
  5
23FB
102
{ACAD_REACTORS
330
23FA
102
}
330
23FA
100
AcDbXrecord
280
     1
290
     1
  0
XRECORD
  5
23FD
102
{ACAD_REACTORS
330
23FC
102
}
330
23FC
100
AcDbXrecord
280
     1
290
     1
  0
XRECORD
  5
2401
102
{ACAD_REACTORS
330
2400
102
}
330
2400
100
AcDbXrecord
280
     1
290
     1
  0
XRECORD
  5
2403
102
{ACAD_REACTORS
330
2402
102
}
330
2402
100
AcDbXrecord
280
     1
290
     1
  0
XRECORD
  5
2405
102
{ACAD_REACTORS
330
2404
102
}
330
2404
100
AcDbXrecord
280
     1
290
     1
  0
XRECORD
  5
2407
102
{ACAD_REACTORS
330
2406
102
}
330
2406
100
AcDbXrecord
280
     1
290
     1
  0
XRECORD
  5
2409
102
{ACAD_REACTORS
330
2408
102
}
330
2408
100
AcDbXrecord
280
     1
290
     1
  0
XRECORD
  5
240B
102
{ACAD_REACTORS
330
240A
102
}
330
240A
100
AcDbXrecord
280
     1
290
     1
  0
XRECORD
  5
240D
102
{ACAD_REACTORS
330
240C
102
}
330
240C
100
AcDbXrecord
280
     1
290
     1
  0
XRECORD
  5
240F
102
{ACAD_REACTORS
330
240E
102
}
330
240E
100
AcDbXrecord
280
     1
290
     1
  0
ACDBDETAILVIEWSTYLE
  5
2369
102
{ACAD_XDICTIONARY
360
3132
102
}
102
{ACAD_REACTORS
330
2368
102
}
330
2368
100
AcDbModelDocViewStyle
 70
     0
  3
Imperial24
290
     0
100
AcDbDetailViewStyle
 70
     0
 71
     0
 90
        3
 71
     1
340
1235
 62
   256
 40
0.24
340
0
 62
   256
 40
0.24
300

 40
0.36
280
     3
 71
     2
340
1239
 90
       25
 62
   256
 71
     3
340
1235
 62
   256
 40
0.24
 90
        1
 40
0.75
 90
        1
300
%<\AcVar ViewType \f "%tc1">% %<\AcVar ViewDetailId>%\PSCALE %<\AcVar ViewScale \f "%sn">%
 71
     4
340
1239
 90
       25
 62
   256
340
1239
 90
       25
 62
   256
280
     0
  0
ACDBDETAILVIEWSTYLE
  5
2463
102
{ACAD_XDICTIONARY
360
3136
102
}
102
{ACAD_REACTORS
330
2368
102
}
330
2368
100
AcDbModelDocViewStyle
 70
     0
  3
Metric50
290
     0
100
AcDbDetailViewStyle
 70
     0
 71
     0
 90
        3
 71
     1
340
1235
 62
   256
 40
5.0
340
0
 62
   256
 40
5.0
300

 40
0.0
280
     1
 71
     2
340
1239
 90
       25
 62
   256
 71
     3
340
1235
 62
   256
 40
5.0
 90
        0
 40
15.0
 90
        1
300
%<\AcVar ViewDetailId>% (%<\AcVar ViewScale \f "%sn">%)
 71
     4
340
1239
 90
       25
 62
   256
340
1239
 90
       25
 62
   256
280
     0
  0
LAYOUT
  5
236E
102
{ACAD_XDICTIONARY
360
245F
102
}
102
{ACAD_REACTORS
330
236D
102
}
330
236D
100
AcDbPlotSettings
  1

  2
C:\ACAD-I\support\plotters\Default Windows System Printer.pc3
  4
A4
  6

 40
4.90008307
 41
4.90005732
 42
4.90008545
 43
4.90008545
 44
210.01567078
 45
297.01065063
 46
0.0
 47
0.0
 48
0.0
 49
0.0
140
0.0
141
0.0
142
1.0
143
3417.49363313
 70
 11952
 72
     0
 73
     1
 74
     0
  7
monochrome.ctb
 75
     0
147
0.00029261
 76
     0
 77
     2
 78
   300
148
14793.69588233
149
1918.23959659
100
AcDbLayout
  1
Model
 70
     1
 71
     0
 10
0.0
 20
0.0
 11
12.0
 21
9.0
 12
0.0
 22
0.0
 32
0.0
 14
0.0
 24
0.0
 34
0.0
 15
0.0
 25
0.0
 35
0.0
146
0.0
 13
0.0
 23
0.0
 33
0.0
 16
1.0
 26
0.0
 36
0.0
 17
0.0
 27
1.0
 37
0.0
 76
     0
330
123D
331
2319
1001
ACAD_PSEXT
1000
C:\ACAD-I\support\plotters\Default Windows System Printer.pc3
1000
FX ApeosPort-IV C4475
1000
IP_10.230.204.203
1000

1070
     0
  0
LAYOUT
  5
236F
102
{ACAD_REACTORS
330
236D
102
}
330
236D
100
AcDbPlotSettings
  1

  2
C:\ACAD-I\support\plotters\Default Windows System Printer.pc3
  4
A4
  6

 40
4.90008307
 41
4.90005732
 42
4.90008545
 43
4.90008545
 44
210.01567078
 45
297.01065063
 46
0.0
 47
0.0
 48
0.0
 49
0.0
140
0.0
141
0.0
142
1.0
143
1.0
 70
 15024
 72
     0
 73
     1
 74
     5
  7
monochrome.ctb
 75
    16
147
1.0
 76
     0
 77
     2
 78
   300
148
0.0
149
0.0
100
AcDbLayout
  1
レイアウト1
 70
     1
 71
     1
 10
0.0
 20
0.0
 11
420.0
 21
297.0
 12
0.0
 22
0.0
 32
0.0
 14
1.00000000E+20
 24
1.00000000E+20
 34
1.00000000E+20
 15
-1.00000000E+20
 25
-1.00000000E+20
 35
-1.00000000E+20
146
0.0
 13
0.0
 23
0.0
 33
0.0
 16
1.0
 26
0.0
 36
0.0
 17
0.0
 27
1.0
 37
0.0
 76
     0
330
123A
1001
ACAD_PSEXT
1000
C:\ACAD-I\support\plotters\Default Windows System Printer.pc3
1000
FX ApeosPort-IV C4475
1000
IP_10.230.204.203
1000

1070
     0
  0
MATERIAL
  5
2326
102
{ACAD_XDICTIONARY
360
2327
102
}
102
{ACAD_REACTORS
330
231D
102
}
330
231D
100
AcDbMaterial
  1
ByBlock
 72
     0
 43
0.02083333
 43
0.0
 43
0.0
 43
0.0
 43
0.0
 43
0.02083333
 43
0.0
 43
0.0
 43
0.0
 43
0.0
 43
1.0
 43
0.0
 43
0.0
 43
0.0
 43
0.0
 43
1.0
 77
     0
 47
0.02083333
 47
0.0
 47
0.0
 47
0.0
 47
0.0
 47
0.02083333
 47
0.0
 47
0.0
 47
0.0
 47
0.0
 47
1.0
 47
0.0
 47
0.0
 47
0.0
 47
0.0
 47
1.0
171
     0
 49
0.02083333
 49
0.0
 49
0.0
 49
0.0
 49
0.0
 49
0.02083333
 49
0.0
 49
0.0
 49
0.0
 49
0.0
 49
1.0
 49
0.0
 49
0.0
 49
0.0
 49
0.0
 49
1.0
175
     0
142
0.02083333
142
0.0
142
0.0
142
0.0
142
0.0
142
0.02083333
142
0.0
142
0.0
142
0.0
142
0.0
142
1.0
142
0.0
142
0.0
142
0.0
142
0.0
142
1.0
179
     0
144
0.02083333
144
0.0
144
0.0
144
0.0
144
0.0
144
0.02083333
144
0.0
144
0.0
144
0.0
144
0.0
144
1.0
144
0.0
144
0.0
144
0.0
144
0.0
144
1.0
147
0.02083333
147
0.0
147
0.0
147
0.0
147
0.0
147
0.02083333
147
0.0
147
0.0
147
0.0
147
0.0
147
1.0
147
0.0
147
0.0
147
0.0
147
0.0
147
1.0
  0
MATERIAL
  5
231E
102
{ACAD_XDICTIONARY
360
231F
102
}
102
{ACAD_REACTORS
330
231D
102
}
330
231D
100
AcDbMaterial
  1
ByLayer
 72
     0
 43
0.02083333
 43
0.0
 43
0.0
 43
0.0
 43
0.0
 43
0.02083333
 43
0.0
 43
0.0
 43
0.0
 43
0.0
 43
1.0
 43
0.0
 43
0.0
 43
0.0
 43
0.0
 43
1.0
 77
     0
 47
0.02083333
 47
0.0
 47
0.0
 47
0.0
 47
0.0
 47
0.02083333
 47
0.0
 47
0.0
 47
0.0
 47
0.0
 47
1.0
 47
0.0
 47
0.0
 47
0.0
 47
0.0
 47
1.0
171
     0
 49
0.02083333
 49
0.0
 49
0.0
 49
0.0
 49
0.0
 49
0.02083333
 49
0.0
 49
0.0
 49
0.0
 49
0.0
 49
1.0
 49
0.0
 49
0.0
 49
0.0
 49
0.0
 49
1.0
175
     0
142
0.02083333
142
0.0
142
0.0
142
0.0
142
0.0
142
0.02083333
142
0.0
142
0.0
142
0.0
142
0.0
142
1.0
142
0.0
142
0.0
142
0.0
142
0.0
142
1.0
179
     0
144
0.02083333
144
0.0
144
0.0
144
0.0
144
0.0
144
0.02083333
144
0.0
144
0.0
144
0.0
144
0.0
144
1.0
144
0.0
144
0.0
144
0.0
144
0.0
144
1.0
147
0.02083333
147
0.0
147
0.0
147
0.0
147
0.0
147
0.02083333
147
0.0
147
0.0
147
0.0
147
0.0
147
1.0
147
0.0
147
0.0
147
0.0
147
0.0
147
1.0
  0
MATERIAL
  5
232E
102
{ACAD_XDICTIONARY
360
232F
102
}
102
{ACAD_REACTORS
330
231D
102
}
330
231D
100
AcDbMaterial
  1
Global
 72
     0
 43
0.02083333
 43
0.0
 43
0.0
 43
0.0
 43
0.0
 43
0.02083333
 43
0.0
 43
0.0
 43
0.0
 43
0.0
 43
1.0
 43
0.0
 43
0.0
 43
0.0
 43
0.0
 43
1.0
 77
     0
 47
0.02083333
 47
0.0
 47
0.0
 47
0.0
 47
0.0
 47
0.02083333
 47
0.0
 47
0.0
 47
0.0
 47
0.0
 47
1.0
 47
0.0
 47
0.0
 47
0.0
 47
0.0
 47
1.0
171
     0
 49
0.02083333
 49
0.0
 49
0.0
 49
0.0
 49
0.0
 49
0.02083333
 49
0.0
 49
0.0
 49
0.0
 49
0.0
 49
1.0
 49
0.0
 49
0.0
 49
0.0
 49
0.0
 49
1.0
175
     0
142
0.02083333
142
0.0
142
0.0
142
0.0
142
0.0
142
0.02083333
142
0.0
142
0.0
142
0.0
142
0.0
142
1.0
142
0.0
142
0.0
142
0.0
142
0.0
142
1.0
179
     0
144
0.02083333
144
0.0
144
0.0
144
0.0
144
0.0
144
0.02083333
144
0.0
144
0.0
144
0.0
144
0.0
144
1.0
144
0.0
144
0.0
144
0.0
144
0.0
144
1.0
147
0.02083333
147
0.0
147
0.0
147
0.0
147
0.0
147
0.02083333
147
0.0
147
0.0
147
0.0
147
0.0
147
1.0
147
0.0
147
0.0
147
0.0
147
0.0
147
1.0
  0
MLEADERSTYLE
  5
2365
102
{ACAD_XDICTIONARY
360
312E
102
}
102
{ACAD_REACTORS
330
2364
102
}
330
2364
100
AcDbMLeaderStyle
170
     2
171
     1
172
     0
 90
        2
 40
0.0
 41
0.0
173
     1
 91
-1056964608
340
1237
 92
       -2
290
     1
 42
0.09
291
     1
 43
0.36
  3
Standard
 44
0.18
300

342
1235
174
     1
178
     6
175
     1
176
     0
 93
-1056964608
 45
0.18
292
     0
297
     0
 46
0.18
 94
-1056964608
 47
1.0
 49
1.0
140
1.0
293
     1
141
0.0
294
     1
177
     0
142
1.0
295
     0
296
     0
143
0.125
1001
ACAD_MLEADERVER
1070
     2
  0
MLINESTYLE
  5
1241
102
{ACAD_REACTORS
330
1240
102
}
330
1240
100
AcDbMlineStyle
  2
STANDARD
 70
     0
  3

 62
   256
 51
90.0
 52
90.0
 71
     2
 49
0.5
 62
   256
  6
BYLAYER
 49
-0.5
 62
   256
  6
BYLAYER
  0
ACDBPLACEHOLDER
  5
231C
102
{ACAD_REACTORS
330
231B
102
}
330
231B
  0
DICTIONARY
  5
2AB7
330
2AB6
100
AcDbDictionary
280
     1
281
     1
  3
ADSK_XREC_MENTALRAYSETTINGSINFO
360
2AB8
  0
SCALE
  5
2353
102
{ACAD_REACTORS
330
2352
102
}
330
2352
100
AcDbScale
 70
     0
300
1:1
140
1.0
141
1.0
290
     1
  0
SCALE
  5
2354
102
{ACAD_REACTORS
330
2352
102
}
330
2352
100
AcDbScale
 70
     0
300
1/128" = 1'-0"
140
0.0078125
141
12.0
290
     0
  0
SCALE
  5
2355
102
{ACAD_REACTORS
330
2352
102
}
330
2352
100
AcDbScale
 70
     0
300
1/64" = 1'-0"
140
0.015625
141
12.0
290
     0
  0
SCALE
  5
2356
102
{ACAD_REACTORS
330
2352
102
}
330
2352
100
AcDbScale
 70
     0
300
1/32" = 1'-0"
140
0.03125
141
12.0
290
     0
  0
SCALE
  5
2357
102
{ACAD_REACTORS
330
2352
102
}
330
2352
100
AcDbScale
 70
     0
300
1/16" = 1'-0"
140
0.0625
141
12.0
290
     0
  0
SCALE
  5
2358
102
{ACAD_REACTORS
330
2352
102
}
330
2352
100
AcDbScale
 70
     0
300
3/32" = 1'-0"
140
0.09375
141
12.0
290
     0
  0
SCALE
  5
2359
102
{ACAD_REACTORS
330
2352
102
}
330
2352
100
AcDbScale
 70
     0
300
1/8" = 1'-0"
140
0.125
141
12.0
290
     0
  0
SCALE
  5
235A
102
{ACAD_REACTORS
330
2352
102
}
330
2352
100
AcDbScale
 70
     0
300
3/16" = 1'-0"
140
0.1875
141
12.0
290
     0
  0
SCALE
  5
235B
102
{ACAD_REACTORS
330
2352
102
}
330
2352
100
AcDbScale
 70
     0
300
1/4" = 1'-0"
140
0.25
141
12.0
290
     0
  0
SCALE
  5
235C
102
{ACAD_REACTORS
330
2352
102
}
330
2352
100
AcDbScale
 70
     0
300
3/8" = 1'-0"
140
0.375
141
12.0
290
     0
  0
SCALE
  5
235D
102
{ACAD_REACTORS
330
2352
102
}
330
2352
100
AcDbScale
 70
     0
300
1/2" = 1'-0"
140
0.5
141
12.0
290
     0
  0
SCALE
  5
235E
102
{ACAD_REACTORS
330
2352
102
}
330
2352
100
AcDbScale
 70
     0
300
3/4" = 1'-0"
140
0.75
141
12.0
290
     0
  0
SCALE
  5
235F
102
{ACAD_REACTORS
330
2352
102
}
330
2352
100
AcDbScale
 70
     0
300
1" = 1'-0"
140
1.0
141
12.0
290
     0
  0
SCALE
  5
2360
102
{ACAD_REACTORS
330
2352
102
}
330
2352
100
AcDbScale
 70
     0
300
1-1/2" = 1'-0"
140
1.5
141
12.0
290
     0
  0
SCALE
  5
2361
102
{ACAD_REACTORS
330
2352
102
}
330
2352
100
AcDbScale
 70
     0
300
3" = 1'-0"
140
3.0
141
12.0
290
     0
  0
SCALE
  5
2362
102
{ACAD_REACTORS
330
2352
102
}
330
2352
100
AcDbScale
 70
     0
300
6" = 1'-0"
140
6.0
141
12.0
290
     0
  0
SCALE
  5
2363
102
{ACAD_REACTORS
330
2352
102
}
330
2352
100
AcDbScale
 70
     0
300
1'-0" = 1'-0"
140
12.0
141
12.0
290
     0
  0
ACDBSECTIONVIEWSTYLE
  5
2367
102
{ACAD_XDICTIONARY
360
3130
102
}
102
{ACAD_REACTORS
330
2366
102
}
330
2366
100
AcDbModelDocViewStyle
 70
     0
  3
Imperial24
290
     0
100
AcDbSectionViewStyle
 70
     0
 71
     0
 90
      102
 71
     1
340
1235
 62
   256
 40
5.0
340
0
340
0
 62
   256
 40
5.0
300
I, O, Q, S, X, Z
 40
10.0
 90
        0
 40
2.5
 90
        0
 71
     2
340
1239
 90
       25
 62
   256
340
1239
 90
       50
 62
   256
 40
5.0
 40
2.5
 40
5.0
 71
     3
340
1235
 62
   256
 40
5.0
 90
        0
 40
15.0
 90
        1
300
%<\AcVar ViewSectionStartId>%-%<\AcVar ViewSectionEndId>% (%<\AcVar ViewScale \f "%sn">%)
 71
     4
 62
   256
 62
   257
300
ANSI31
 40
1.0
 90
        0
290
     0
290
     0
 90
        6
 40
0.0
 40
1.57079633
 40
0.26179939
 40
1.30899694
 40
-0.26179939
 40
1.83259571
  0
ACDBSECTIONVIEWSTYLE
  5
2462
102
{ACAD_XDICTIONARY
360
3134
102
}
102
{ACAD_REACTORS
330
2366
102
}
330
2366
100
AcDbModelDocViewStyle
 70
     0
  3
Metric50
290
     0
100
AcDbSectionViewStyle
 70
     0
 71
     0
 90
      102
 71
     1
340
1235
 62
   256
 40
5.0
340
0
340
0
 62
   256
 40
5.0
300
I, O, Q, S, X, Z
 40
10.0
 90
        0
 40
2.5
 90
        0
 71
     2
340
1239
 90
       25
 62
   256
340
1239
 90
       50
 62
   256
 40
5.0
 40
2.5
 40
5.0
 71
     3
340
1235
 62
   256
 40
5.0
 90
        0
 40
15.0
 90
        1
300
%<\AcVar ViewSectionStartId>%-%<\AcVar ViewSectionEndId>% (%<\AcVar ViewScale \f "%sn">%)
 71
     4
 62
   256
 62
   257
300
ANSI31
 40
1.0
 90
        0
290
     0
290
     0
 90
        6
 40
0.0
 40
1.57079633
 40
0.26179939
 40
1.30899694
 40
-0.26179939
 40
1.83259571
  0
TABLESTYLE
  5
2351
102
{ACAD_XDICTIONARY
360
2370
102
}
102
{ACAD_REACTORS
330
2350
102
}
330
2350
100
AcDbTableStyle
  3
Standard
 70
     0
 71
     0
 40
0.06
 41
0.06
280
     0
281
     0
  7
STANDARD
140
0.18
170
     2
 62
     0
 63
     7
283
     0
274
    -2
284
     1
 64
     0
275
    -2
285
     1
 65
     0
276
    -2
286
     1
 66
     0
277
    -2
287
     1
 67
     0
278
    -2
288
     1
 68
     0
279
    -2
289
     1
 69
     0
  7
STANDARD
140
0.25
170
     5
 62
     0
 63
     7
283
     0
274
    -2
284
     1
 64
     0
275
    -2
285
     1
 65
     0
276
    -2
286
     1
 66
     0
277
    -2
287
     1
 67
     0
278
    -2
288
     1
 68
     0
279
    -2
289
     1
 69
     0
  7
STANDARD
140
0.18
170
     5
 62
     0
 63
     7
283
     0
274
    -2
284
     1
 64
     0
275
    -2
285
     1
 65
     0
276
    -2
286
     1
 66
     0
277
    -2
287
     1
 67
     0
278
    -2
288
     1
 68
     0
279
    -2
289
     1
 69
     0
  0
VISUALSTYLE
  5
233C
102
{ACAD_XDICTIONARY
360
3107
102
}
102
{ACAD_REACTORS
330
2336
102
}
330
2336
100
AcDbVisualStyle
  2
2dWireframe
 70
     4
 71
     0
 72
     2
 73
     0
 90
        0
 40
-0.6
 41
-30.0
 62
     5
 63
     7
421
 16777215
 74
     1
 91
        4
 64
     7
 65
   257
 75
     1
175
     1
 42
1.0
 92
        0
 66
   257
 43
1.0
 76
     1
 77
     6
 78
     2
 67
     7
 79
     5
170
     0
171
     0
290
     0
174
     0
 93
        1
 44
0.0
173
     0
291
     0
 45
0.0
1001
ACAD
1000
AcDbSavedByObjectVersion
1070
     0
  0
VISUALSTYLE
  5
233B
102
{ACAD_XDICTIONARY
360
3105
102
}
102
{ACAD_REACTORS
330
2336
102
}
330
2336
100
AcDbVisualStyle
  2
Basic
 70
     7
 71
     1
 72
     0
 73
     1
 90
        0
 40
-0.6
 41
-30.0
 62
     5
 63
     7
421
 16777215
 74
     0
 91
        4
 64
     7
 65
   257
 75
     1
175
     1
 42
1.0
 92
        8
 66
     7
 43
1.0
 76
     1
 77
     6
 78
     2
 67
     7
 79
     5
170
     0
171
     0
290
     0
174
     0
 93
        1
 44
0.0
173
     0
291
     1
 45
0.0
1001
ACAD
1000
AcDbSavedByObjectVersion
1070
     0
  0
VISUALSTYLE
  5
2342
102
{ACAD_XDICTIONARY
360
3113
102
}
102
{ACAD_REACTORS
330
2336
102
}
330
2336
100
AcDbVisualStyle
  2
Brighten
 70
    12
 71
     2
 72
     2
 73
     0
 90
        0
 40
-0.6
 41
-30.0
 62
     5
 63
     7
421
 16777215
 74
     1
 91
        4
 64
     7
 65
   257
 75
     1
175
     1
 42
1.0
 92
        8
 66
     7
 43
1.0
 76
     1
 77
     6
 78
     2
 67
     7
 79
     5
170
     0
171
     0
290
     0
174
     0
 93
        1
 44
50.0
173
     0
291
     1
 45
0.0
1001
ACAD
1000
AcDbSavedByObjectVersion
1070
     0
  0
VISUALSTYLE
  5
2346
102
{ACAD_XDICTIONARY
360
311B
102
}
102
{ACAD_REACTORS
330
2336
102
}
330
2336
100
AcDbVisualStyle
  2
ColorChange
 70
    16
 71
     2
 72
     2
 73
     3
 90
        0
 40
-0.6
 41
-30.0
 62
     5
 63
     8
421
  8421504
 74
     1
 91
        4
 64
     7
 65
   257
 75
     1
175
     1
 42
1.0
 92
        8
 66
     8
424
  8421504
 43
1.0
 76
     1
 77
     6
 78
     2
 67
     7
 79
     5
170
     0
171
     0
290
     0
174
     0
 93
        1
 44
0.0
173
     0
291
     1
 45
0.0
1001
ACAD
1000
AcDbSavedByObjectVersion
1070
     0
  0
VISUALSTYLE
  5
233F
102
{ACAD_XDICTIONARY
360
310D
102
}
102
{ACAD_REACTORS
330
2336
102
}
330
2336
100
AcDbVisualStyle
  2
Conceptual
 70
     9
 71
     3
 72
     2
 73
     0
 90
        0
 40
-0.6
 41
-30.0
 62
     5
 63
     7
421
 16777215
 74
     2
 91
        2
 64
     7
 65
   257
 75
     1
175
     1
 42
179.0
 92
        8
 66
     7
 43
1.0
 76
     1
 77
     6
 78
     2
 67
     7
 79
     3
170
     0
171
     0
290
     0
174
     0
 93
        1
 44
0.0
173
     0
291
     0
 45
0.0
1001
ACAD
1000
AcDbSavedByObjectVersion
1070
     0
  0
VISUALSTYLE
  5
2341
102
{ACAD_XDICTIONARY
360
3111
102
}
102
{ACAD_REACTORS
330
2336
102
}
330
2336
100
AcDbVisualStyle
  2
Dim
 70
    11
 71
     2
 72
     2
 73
     0
 90
        0
 40
-0.6
 41
-30.0
 62
     5
 63
     7
421
 16777215
 74
     1
 91
        4
 64
     7
 65
   257
 75
     1
175
     1
 42
1.0
 92
        8
 66
     7
 43
1.0
 76
     1
 77
     6
 78
     2
 67
     7
 79
     5
170
     0
171
     0
290
     0
174
     0
 93
        1
 44
-50.0
173
     0
291
     1
 45
0.0
1001
ACAD
1000
AcDbSavedByObjectVersion
1070
     0
  0
VISUALSTYLE
  5
234E
102
{ACAD_XDICTIONARY
360
312B
102
}
102
{ACAD_REACTORS
330
2336
102
}
330
2336
100
AcDbVisualStyle
  2
EdgeColorOff
 70
    22
 71
     2
 72
     2
 73
     0
 90
        0
 40
-0.6
 41
-30.0
 62
     5
 63
     7
421
 16777215
 74
     1
 91
        4
 64
     7
 65
   257
 75
     1
175
     1
 42
1.0
 92
        8
 66
     7
 43
1.0
 76
     1
 77
     6
 78
     2
 67
     7
 79
     5
170
     0
171
     0
290
     0
174
     0
 93
        1
 44
0.0
173
     0
291
     1
 45
0.0
1001
ACAD
1000
AcDbSavedByObjectVersion
1070
     0
  0
VISUALSTYLE
  5
2345
102
{ACAD_XDICTIONARY
360
3119
102
}
102
{ACAD_REACTORS
330
2336
102
}
330
2336
100
AcDbVisualStyle
  2
Facepattern
 70
    15
 71
     2
 72
     2
 73
     0
 90
        0
 40
-0.6
 41
-30.0
 62
     5
 63
     7
421
 16777215
 74
     1
 91
        4
 64
     7
 65
   257
 75
     1
175
     1
 42
1.0
 92
        8
 66
     7
 43
1.0
 76
     1
 77
     6
 78
     2
 67
     7
 79
     5
170
     0
171
     0
290
     0
174
     0
 93
        1
 44
0.0
173
     0
291
     1
 45
0.0
1001
ACAD
1000
AcDbSavedByObjectVersion
1070
     0
  0
VISUALSTYLE
  5
2337
102
{ACAD_XDICTIONARY
360
30FD
102
}
102
{ACAD_REACTORS
330
2336
102
}
330
2336
100
AcDbVisualStyle
  2
Flat
 70
     0
 71
     2
 72
     1
 73
     1
 90
        2
 40
-0.6
 41
30.0
 62
     5
 63
     7
421
 16777215
 74
     0
 91
        0
 64
     7
 65
   257
 75
     1
175
     1
 42
1.0
 92
        8
 66
     7
 43
1.0
 76
     1
 77
     6
 78
     2
 67
     7
 79
     5
170
     0
171
     0
290
     0
174
     0
 93
       13
 44
0.0
173
     0
291
     1
 45
0.0
1001
ACAD
1000
AcDbSavedByObjectVersion
1070
     0
  0
VISUALSTYLE
  5
2338
102
{ACAD_XDICTIONARY
360
30FF
102
}
102
{ACAD_REACTORS
330
2336
102
}
330
2336
100
AcDbVisualStyle
  2
FlatWithEdges
 70
     1
 71
     2
 72
     1
 73
     1
 90
        2
 40
-0.6
 41
30.0
 62
     5
 63
     7
421
 16777215
 74
     1
 91
        0
 64
     7
 65
   257
 75
     1
175
     1
 42
1.0
 92
        0
 66
   257
 43
1.0
 76
     1
 77
     6
 78
     2
 67
     7
 79
     5
170
     0
171
     0
290
     0
174
     0
 93
       13
 44
0.0
173
     0
291
     1
 45
0.0
1001
ACAD
1000
AcDbSavedByObjectVersion
1070
     0
  0
VISUALSTYLE
  5
2339
102
{ACAD_XDICTIONARY
360
3101
102
}
102
{ACAD_REACTORS
330
2336
102
}
330
2336
100
AcDbVisualStyle
  2
Gouraud
 70
     2
 71
     2
 72
     2
 73
     1
 90
        2
 40
-0.6
 41
30.0
 62
     5
 63
     7
421
 16777215
 74
     0
 91
        0
 64
     7
 65
   257
 75
     1
175
     1
 42
1.0
 92
        0
 66
     7
 43
1.0
 76
     1
 77
     6
 78
     2
 67
     7
 79
     5
170
     0
171
     0
290
     0
174
     0
 93
       13
 44
0.0
173
     0
291
     1
 45
0.0
1001
ACAD
1000
AcDbSavedByObjectVersion
1070
     0
  0
VISUALSTYLE
  5
233A
102
{ACAD_XDICTIONARY
360
3103
102
}
102
{ACAD_REACTORS
330
2336
102
}
330
2336
100
AcDbVisualStyle
  2
GouraudWithEdges
 70
     3
 71
     2
 72
     2
 73
     1
 90
        2
 40
-0.6
 41
30.0
 62
     5
 63
     7
421
 16777215
 74
     1
 91
        0
 64
     7
 65
   257
 75
     1
175
     1
 42
1.0
 92
        0
 66
   257
 43
1.0
 76
     1
 77
     6
 78
     2
 67
     7
 79
     5
170
     0
171
     0
290
     0
174
     0
 93
       13
 44
0.0
173
     0
291
     1
 45
0.0
1001
ACAD
1000
AcDbSavedByObjectVersion
1070
     0
  0
VISUALSTYLE
  5
233E
102
{ACAD_XDICTIONARY
360
310B
102
}
102
{ACAD_REACTORS
330
2336
102
}
330
2336
100
AcDbVisualStyle
  2
Hidden
 70
     6
 71
     1
 72
     2
 73
     2
 90
        0
 40
-0.6
 41
-30.0
 62
     5
 63
     7
421
 16777215
 74
     2
 91
        2
 64
     7
 65
   257
 75
     2
175
     1
 42
40.0
 92
        0
 66
   257
 43
1.0
 76
     1
 77
     6
 78
     2
 67
     7
 79
     3
170
     0
171
     0
290
     0
174
     0
 93
        1
 44
0.0
173
     0
291
     0
 45
0.0
1001
ACAD
1000
AcDbSavedByObjectVersion
1070
     0
  0
VISUALSTYLE
  5
234C
102
{ACAD_XDICTIONARY
360
3127
102
}
102
{ACAD_REACTORS
330
2336
102
}
330
2336
100
AcDbVisualStyle
  2
JitterOff
 70
    20
 71
     2
 72
     2
 73
     0
 90
        0
 40
-0.6
 41
-30.0
 62
     5
 63
     7
421
 16777215
 74
     1
 91
        4
 64
     7
 65
   257
 75
     1
175
     1
 42
1.0
 92
       10
 66
     7
 43
1.0
 76
     1
 77
     6
 78
     2
 67
     7
 79
     5
170
     0
171
     0
290
     0
174
     0
 93
        1
 44
0.0
173
     0
291
     1
 45
0.0
1001
ACAD
1000
AcDbSavedByObjectVersion
1070
     0
  0
VISUALSTYLE
  5
2344
102
{ACAD_XDICTIONARY
360
3117
102
}
102
{ACAD_REACTORS
330
2336
102
}
330
2336
100
AcDbVisualStyle
  2
Linepattern
 70
    14
 71
     2
 72
     2
 73
     0
 90
        0
 40
-0.6
 41
-30.0
 62
     5
 63
     7
421
 16777215
 74
     1
 91
        4
 64
     7
 65
   257
 75
     7
175
     7
 42
1.0
 92
        8
 66
     7
 43
1.0
 76
     1
 77
     6
 78
     2
 67
     7
 79
     5
170
     0
171
     0
290
     0
174
     0
 93
        1
 44
0.0
173
     0
291
     1
 45
0.0
1001
ACAD
1000
AcDbSavedByObjectVersion
1070
     0
  0
VISUALSTYLE
  5
234D
102
{ACAD_XDICTIONARY
360
3129
102
}
102
{ACAD_REACTORS
330
2336
102
}
330
2336
100
AcDbVisualStyle
  2
OverhangOff
 70
    21
 71
     2
 72
     2
 73
     0
 90
        0
 40
-0.6
 41
-30.0
 62
     5
 63
     7
421
 16777215
 74
     1
 91
        4
 64
     7
 65
   257
 75
     1
175
     1
 42
1.0
 92
        9
 66
     7
 43
1.0
 76
     1
 77
     6
 78
     2
 67
     7
 79
     5
170
     0
171
     0
290
     0
174
     0
 93
        1
 44
0.0
173
     0
291
     1
 45
0.0
1001
ACAD
1000
AcDbSavedByObjectVersion
1070
     0
  0
VISUALSTYLE
  5
2340
102
{ACAD_XDICTIONARY
360
310F
102
}
102
{ACAD_REACTORS
330
2336
102
}
330
2336
100
AcDbVisualStyle
  2
Realistic
 70
     8
 71
     2
 72
     2
 73
     0
 90
        2
 40
-0.6
 41
30.0
 62
     5
 63
     7
421
 16777215
 74
     0
 91
        0
 64
     7
 65
   257
 75
     1
175
     1
 42
1.0
 92
        8
 66
   257
 43
1.0
 76
     1
 77
     6
 78
     2
 67
     7
 79
     3
170
     0
171
     0
290
     0
174
     0
 93
       13
 44
0.0
173
     0
291
     0
 45
0.0
1001
ACAD
1000
AcDbSavedByObjectVersion
1070
     0
  0
VISUALSTYLE
  5
234B
102
{ACAD_XDICTIONARY
360
3125
102
}
102
{ACAD_REACTORS
330
2336
102
}
330
2336
100
AcDbVisualStyle
  2
Shaded
 70
    27
 71
     2
 72
     2
 73
     1
 90
        2
 40
-0.6
 41
30.0
 62
     5
 63
     7
421
 16777215
 74
     0
 91
        4
 64
     7
 65
   257
 75
     1
175
     1
 42
1.0
 92
        8
 66
   257
 43
1.0
 76
     1
 77
     6
 78
     2
 67
     8
425
  7895160
 79
     3
170
     0
171
     0
290
     0
174
     0
 93
        5
 44
0.0
173
     0
291
     0
 45
0.0
1001
ACAD
1000
AcDbSavedByObjectVersion
1070
     0
  0
VISUALSTYLE
  5
234A
102
{ACAD_XDICTIONARY
360
3123
102
}
102
{ACAD_REACTORS
330
2336
102
}
330
2336
100
AcDbVisualStyle
  2
Shaded with edges
 70
    26
 71
     2
 72
     2
 73
     1
 90
        2
 40
-0.6
 41
30.0
 62
     5
 63
     7
421
 16777215
 74
     1
 91
        2
 64
     7
 65
   257
 75
     2
175
     1
 42
1.0
 92
        8
 66
   257
 43
1.0
 76
     1
 77
     6
 78
     2
 67
     7
 79
     3
170
     0
171
     0
290
     0
174
     0
 93
        5
 44
0.0
173
     0
291
     0
 45
0.0
1001
ACAD
1000
AcDbSavedByObjectVersion
1070
     0
  0
VISUALSTYLE
  5
2347
102
{ACAD_XDICTIONARY
360
311D
102
}
102
{ACAD_REACTORS
330
2336
102
}
330
2336
100
AcDbVisualStyle
  2
Shades of Gray
 70
    23
 71
     2
 72
     2
 73
     3
 90
        0
 40
-0.6
 41
-30.0
 62
     5
 63
     7
421
 16777215
 74
     2
 91
        2
 64
     7
 65
     7
 75
     1
175
     1
 42
40.0
 92
        8
 66
     7
 43
1.0
 76
     1
 77
     6
 78
     2
 67
     7
 79
     3
170
     0
171
     0
290
     0
174
     0
 93
        1
 44
0.0
173
     0
291
     0
 45
0.0
1001
ACAD
1000
AcDbSavedByObjectVersion
1070
     0
  0
VISUALSTYLE
  5
2348
102
{ACAD_XDICTIONARY
360
311F
102
}
102
{ACAD_REACTORS
330
2336
102
}
330
2336
100
AcDbVisualStyle
  2
Sketchy
 70
    24
 71
     1
 72
     2
 73
     2
 90
        0
 40
-0.6
 41
-30.0
 62
     5
 63
     7
421
 16777215
 74
     2
 91
        2
 64
     7
 65
     7
 75
     1
175
     1
 42
40.0
 92
       11
 66
     7
 43
1.0
 76
     1
 77
     6
 78
     2
 67
     7
 79
     6
170
     0
171
     0
290
     0
174
     0
 93
        1
 44
0.0
173
     0
291
     0
 45
0.0
1001
ACAD
1000
AcDbSavedByObjectVersion
1070
     0
  0
VISUALSTYLE
  5
2343
102
{ACAD_XDICTIONARY
360
3115
102
}
102
{ACAD_REACTORS
330
2336
102
}
330
2336
100
AcDbVisualStyle
  2
Thicken
 70
    13
 71
     2
 72
     2
 73
     0
 90
        0
 40
-0.6
 41
-30.0
 62
     5
 63
     7
421
 16777215
 74
     1
 91
        4
 64
     7
 65
   257
 75
     1
175
     1
 42
1.0
 92
       12
 66
     7
 43
1.0
 76
     1
 77
     6
 78
     2
 67
     7
 79
     5
170
     0
171
     0
290
     0
174
     0
 93
        1
 44
0.0
173
     0
291
     1
 45
0.0
1001
ACAD
1000
AcDbSavedByObjectVersion
1070
     0
  0
VISUALSTYLE
  5
233D
102
{ACAD_XDICTIONARY
360
3109
102
}
102
{ACAD_REACTORS
330
2336
102
}
330
2336
100
AcDbVisualStyle
  2
Wireframe
 70
     5
 71
     0
 72
     2
 73
     0
 90
        0
 40
-0.6
 41
-30.0
 62
     5
 63
     7
421
 16777215
 74
     1
 91
        4
 64
     7
 65
   257
 75
     1
175
     1
 42
1.0
 92
        0
 66
   257
 43
1.0
 76
     1
 77
     6
 78
     2
 67
     7
 79
     3
170
     0
171
     0
290
     0
174
     0
 93
        1
 44
0.0
173
     0
291
     0
 45
0.0
1001
ACAD
1000
AcDbSavedByObjectVersion
1070
     0
  0
VISUALSTYLE
  5
2349
102
{ACAD_XDICTIONARY
360
3121
102
}
102
{ACAD_REACTORS
330
2336
102
}
330
2336
100
AcDbVisualStyle
  2
X-Ray
 70
    25
 71
     2
 72
     2
 73
     1
 90
        1
 40
0.5
 41
-30.0
 62
     5
 63
     7
421
 16777215
 74
     1
 91
        0
 64
     7
 65
   257
 75
     1
175
     1
 42
1.0
 92
        8
 66
     7
 43
1.0
 76
     1
 77
     6
 78
     2
 67
     7
 79
     3
170
     0
171
     0
290
     0
174
     0
 93
       13
 44
0.0
173
     0
291
     0
 45
0.0
1001
ACAD
1000
AcDbSavedByObjectVersion
1070
     0
  0
DICTIONARYVAR
  5
23B2
102
{ACAD_REACTORS
330
1253
102
}
330
1253
100
DictionaryVariables
280
     0
  1
1:1
  0
DICTIONARYVAR
  5
23AF
102
{ACAD_REACTORS
330
1253
102
}
330
1253
100
DictionaryVariables
280
     0
  1
STANDARD
  0
DICTIONARYVAR
  5
23AE
102
{ACAD_REACTORS
330
1253
102
}
330
1253
100
DictionaryVariables
280
     0
  1
STANDARD
  0
DICTIONARYVAR
  5
23B0
102
{ACAD_REACTORS
330
1253
102
}
330
1253
100
DictionaryVariables
280
     0
  1
Imperial24
  0
DICTIONARYVAR
  5
23B1
102
{ACAD_REACTORS
330
1253
102
}
330
1253
100
DictionaryVariables
280
     0
  1
Imperial24
  0
DICTIONARYVAR
  5
1254
102
{ACAD_REACTORS
330
1253
102
}
330
1253
100
DictionaryVariables
280
     0
  1
0
  0
DICTIONARYVAR
  5
30F7
102
{ACAD_REACTORS
330
1253
102
}
330
1253
100
DictionaryVariables
280
     0
  1
2
  0
DICTIONARY
  5
3132
330
2369
100
AcDbDictionary
280
     1
281
     1
  3
ACAD_XREC_ROUNDTRIP
360
3133
  0
DICTIONARY
  5
3136
330
2463
100
AcDbDictionary
280
     1
281
     1
  3
ACAD_XREC_ROUNDTRIP
360
3137
  0
DICTIONARY
  5
245F
330
236E
100
AcDbDictionary
280
     1
281
     1
  3
ADSK_XREC_LAYOUTTHUMBNAIL
360
2460
  0
DICTIONARY
  5
2327
330
2326
100
AcDbDictionary
280
     1
281
     1
  3
ACAD_XREC_ROUNDTRIP
360
30FB
  3
BUMPTILE
360
2329
  3
DIFFUSETILE
360
2328
  3
OPACITYTILE
360
232C
  3
REFLECTIONTILE
360
232B
  3
REFRACTIONTILE
360
232D
  3
SPECULARTILE
360
232A
  0
DICTIONARY
  5
231F
330
231E
100
AcDbDictionary
280
     1
281
     1
  3
ACAD_XREC_ROUNDTRIP
360
30FA
  3
BUMPTILE
360
2321
  3
DIFFUSETILE
360
2320
  3
OPACITYTILE
360
2324
  3
REFLECTIONTILE
360
2323
  3
REFRACTIONTILE
360
2325
  3
SPECULARTILE
360
2322
  0
DICTIONARY
  5
232F
330
232E
100
AcDbDictionary
280
     1
281
     1
  3
ACAD_XREC_ROUNDTRIP
360
30FC
  3
BUMPTILE
360
2331
  3
DIFFUSETILE
360
2330
  3
OPACITYTILE
360
2334
  3
REFLECTIONTILE
360
2333
  3
REFRACTIONTILE
360
2335
  3
SPECULARTILE
360
2332
  0
DICTIONARY
  5
312E
330
2365
100
AcDbDictionary
280
     1
281
     1
  3
ACAD_XREC_ROUNDTRIP
360
312F
  0
XRECORD
  5
2AB8
102
{ACAD_REACTORS
330
2AB7
102
}
330
2AB7
100
AcDbXrecord
280
     1
 70
     2
 71
     3
 72
     0
  0
DICTIONARY
  5
3130
330
2367
100
AcDbDictionary
280
     1
281
     1
  3
ACAD_XREC_ROUNDTRIP
360
3131
  0
DICTIONARY
  5
3134
330
2462
100
AcDbDictionary
280
     1
281
     1
  3
ACAD_XREC_ROUNDTRIP
360
3135
  0
DICTIONARY
  5
2370
330
2351
100
AcDbDictionary
280
     1
281
     1
  3
ACAD_ROUNDTRIP_2008_TABLESTYLE_CELLSTYLEMAP
360
30F8
  3
ACAD_XREC_ROUNDTRIP
360
312D
  0
DICTIONARY
  5
3107
330
233C
100
AcDbDictionary
280
     1
281
     1
  3
ACAD_XREC_ROUNDTRIP
360
3108
  0
DICTIONARY
  5
3105
330
233B
100
AcDbDictionary
280
     1
281
     1
  3
ACAD_XREC_ROUNDTRIP
360
3106
  0
DICTIONARY
  5
3113
330
2342
100
AcDbDictionary
280
     1
281
     1
  3
ACAD_XREC_ROUNDTRIP
360
3114
  0
DICTIONARY
  5
311B
330
2346
100
AcDbDictionary
280
     1
281
     1
  3
ACAD_XREC_ROUNDTRIP
360
311C
  0
DICTIONARY
  5
310D
330
233F
100
AcDbDictionary
280
     1
281
     1
  3
ACAD_XREC_ROUNDTRIP
360
310E
  0
DICTIONARY
  5
3111
330
2341
100
AcDbDictionary
280
     1
281
     1
  3
ACAD_XREC_ROUNDTRIP
360
3112
  0
DICTIONARY
  5
312B
330
234E
100
AcDbDictionary
280
     1
281
     1
  3
ACAD_XREC_ROUNDTRIP
360
312C
  0
DICTIONARY
  5
3119
330
2345
100
AcDbDictionary
280
     1
281
     1
  3
ACAD_XREC_ROUNDTRIP
360
311A
  0
DICTIONARY
  5
30FD
330
2337
100
AcDbDictionary
280
     1
281
     1
  3
ACAD_XREC_ROUNDTRIP
360
30FE
  0
DICTIONARY
  5
30FF
330
2338
100
AcDbDictionary
280
     1
281
     1
  3
ACAD_XREC_ROUNDTRIP
360
3100
  0
DICTIONARY
  5
3101
330
2339
100
AcDbDictionary
280
     1
281
     1
  3
ACAD_XREC_ROUNDTRIP
360
3102
  0
DICTIONARY
  5
3103
330
233A
100
AcDbDictionary
280
     1
281
     1
  3
ACAD_XREC_ROUNDTRIP
360
3104
  0
DICTIONARY
  5
310B
330
233E
100
AcDbDictionary
280
     1
281
     1
  3
ACAD_XREC_ROUNDTRIP
360
310C
  0
DICTIONARY
  5
3127
330
234C
100
AcDbDictionary
280
     1
281
     1
  3
ACAD_XREC_ROUNDTRIP
360
3128
  0
DICTIONARY
  5
3117
330
2344
100
AcDbDictionary
280
     1
281
     1
  3
ACAD_XREC_ROUNDTRIP
360
3118
  0
DICTIONARY
  5
3129
330
234D
100
AcDbDictionary
280
     1
281
     1
  3
ACAD_XREC_ROUNDTRIP
360
312A
  0
DICTIONARY
  5
310F
330
2340
100
AcDbDictionary
280
     1
281
     1
  3
ACAD_XREC_ROUNDTRIP
360
3110
  0
DICTIONARY
  5
3125
330
234B
100
AcDbDictionary
280
     1
281
     1
  3
ACAD_XREC_ROUNDTRIP
360
3126
  0
DICTIONARY
  5
3123
330
234A
100
AcDbDictionary
280
     1
281
     1
  3
ACAD_XREC_ROUNDTRIP
360
3124
  0
DICTIONARY
  5
311D
330
2347
100
AcDbDictionary
280
     1
281
     1
  3
ACAD_XREC_ROUNDTRIP
360
311E
  0
DICTIONARY
  5
311F
330
2348
100
AcDbDictionary
280
     1
281
     1
  3
ACAD_XREC_ROUNDTRIP
360
3120
  0
DICTIONARY
  5
3115
330
2343
100
AcDbDictionary
280
     1
281
     1
  3
ACAD_XREC_ROUNDTRIP
360
3116
  0
DICTIONARY
  5
3109
330
233D
100
AcDbDictionary
280
     1
281
     1
  3
ACAD_XREC_ROUNDTRIP
360
310A
  0
DICTIONARY
  5
3121
330
2349
100
AcDbDictionary
280
     1
281
     1
  3
ACAD_XREC_ROUNDTRIP
360
3122
  0
XRECORD
  5
3133
102
{ACAD_REACTORS
330
3132
102
}
330
3132
100
AcDbXrecord
280
     1
102
DISPLAYNAME
  1
Imperial24
102
FLAGS
 90
        0
  0
XRECORD
  5
3137
102
{ACAD_REACTORS
330
3136
102
}
330
3136
100
AcDbXrecord
280
     1
102
DISPLAYNAME
  1
Metric50
102
FLAGS
 90
        0
  0
XRECORD
  5
2460
102
{ACAD_REACTORS
330
245F
102
}
330
245F
100
AcDbXrecord
280
     1
310
2800000000010000740000000100080000000000007400000100000001000000000100000000000000000000FFFFFF00000000FF000000FF000000FF000000FF000000FF000000FF000000FF000000FF000000FF330000FF660000FF990000FFCC0000FFFF0000FF003300FF333300FF663300FF993300FFCC3300FFFF3300
310
FF006600FF336600FF666600FF996600FFCC6600FFFF6600FF009900FF339900FF669900FF999900FFCC9900FFFF9900FF00CC00FF33CC00FF66CC00FF99CC00FFCCCC00FFFFCC00FF00FF00FF33FF00FF66FF00FF99FF00FFCCFF00FFFFFF00FF000033FF330033FF660033FF990033FFCC0033FFFF0033FF003333FF3333
310
33FF663333FF993333FFCC3333FFFF3333FF006633FF336633FF666633FF996633FFCC6633FFFF6633FF009933FF339933FF669933FF999933FFCC9933FFFF9933FF00CC33FF33CC33FF66CC33FF99CC33FFCCCC33FFFFCC33FF00FF33FF33FF33FF66FF33FF99FF33FFCCFF33FFFFFF33FF000066FF330066FF660066FF99
310
0066FFCC0066FFFF0066FF003366FF333366FF663366FF993366FFCC3366FFFF3366FF006666FF336666FF666666FF996666FFCC6666FFFF6666FF009966FF339966FF669966FF999966FFCC9966FFFF9966FF00CC66FF33CC66FF66CC66FF99CC66FFCCCC66FFFFCC66FF00FF66FF33FF66FF66FF66FF99FF66FFCCFF66FF
310
FFFF66FF000099FF330099FF660099FF990099FFCC0099FFFF0099FF003399FF333399FF663399FF993399FFCC3399FFFF3399FF006699FF336699FF666699FF996699FFCC6699FFFF6699FF009999FF339999FF669999FF999999FFCC9999FFFF9999FF00CC99FF33CC99FF66CC99FF99CC99FFCCCC99FFFFCC99FF00FF99
310
FF33FF99FF66FF99FF99FF99FFCCFF99FFFFFF99FF0000CCFF3300CCFF6600CCFF9900CCFFCC00CCFFFF00CCFF0033CCFF3333CCFF6633CCFF9933CCFFCC33CCFFFF33CCFF0066CCFF3366CCFF6666CCFF9966CCFFCC66CCFFFF66CCFF0099CCFF3399CCFF6699CCFF9999CCFFCC99CCFFFF99CCFF00CCCCFF33CCCCFF66CC
310
CCFF99CCCCFFCCCCCCFFFFCCCCFF00FFCCFF33FFCCFF66FFCCFF99FFCCFFCCFFCCFFFFFFCCFF0000FFFF3300FFFF6600FFFF9900FFFFCC00FFFFFF00FFFF0033FFFF3333FFFF6633FFFF9933FFFFCC33FFFFFF33FFFF0066FFFF3366FFFF6666FFFF9966FFFFCC66FFFFFF66FFFF0099FFFF3399FFFF6699FFFF9999FFFFCC
310
99FFFFFF99FFFF00CCFFFF33CCFFFF66CCFFFF99CCFFFFCCCCFFFFFFCCFFFF00FFFFFF33FFFFFF66FFFFFF99FFFFFFCCFFFFFFFFFFFFFF000000FF0D0D0DFF1A1A1AFF282828FF353535FF434343FF505050FF5D5D5DFF6B6B6BFF787878FF868686FF939393FFA1A1A1FFAEAEAEFFBBBBBBFFC9C9C9FFD6D6D6FFE4E4E4FF
310
F1F1F1FFFFFFFFFF000000FF000000FF000000FF000000FF000000FF000000FF000000FF000000FF000000FF000000FF00000000000000000000000000000000000000000000000000000000000000000000000000000000000000000000000000000000000000000000000000000000000000000000000000000000000000
310
00000000000000000000000000000000000000000000000000000000000000000000000000000000000000000000000000000000000000000000000000000000000000000000000000000000000000000000000000000000000000000000000000000000000000000000000000000000000000000000000000000000000000
310
000000000000000000000000000000000000000000000000000000000000000000000000000000000000000000000000000000000000000000000000000000000000000000000000000000000000000000000000000000000000000000000000000000F5F5F5F5F5F5F5F5F5F5F5F5F5F5F5F5F5F5F5F5F5F5F5F5F5F5F5F5
310
F5F5F5F5F5F5F5F5F5F5F5F5F5F5F5F5F5F5F5F5F5F5F5F5F5F5F5F5F5F5F5F5F5F5F5F5F5F5F5F5F5F5F5F5F5F5F5F5F5F5F5F5F5F5F5F5F5F5F5F5F5F5F5F5F5F5F5F5F5F5F5F5F5F5F5F5F5F5F5F5F5F5F5F5F5F5F5F5F5F5F5F5F5F5F5F5F5F5F5F5F5F5F5F5F5F5F5F5F5F5F5F5F5F5F5F5F5F5F5F5F5F5F5F5F5F5F5
310
F5F5F50000000000000000000000000000000000000000000000000000000000000000000000000000000000000000000000000000000000000000000000000000000000000000000000000000000000000000000000000000000000000000000000000000F5000000000000000000000000000000000000000000F5000000
310
000000000000000000000000000000000000F500000000000000000000000000000000000000000000F5000000000000000000000000000000000000000000F5000000000000000000000000000000000000000000F500000000000000000000000000000000000000000000F5000000000000000000000000000000000000
310
00F50000F50000000000000000000000000000000000000000000000000000000000000000000000000000000000000000000000000000000000000000000000000000000000000000000000000000000000000000000000000000000000000000000000000000F5000000000000000000000000000000000000000000F500
310
0000000000000000000000000000000000000000F500000000000000000000000000000000000000000000F5000000000000000000000000000000000000000000F5000000000000000000000000000000000000000000F500000000000000000000000000000000000000000000F500000000000000000000000000000000
310
000000F50000F50000000000000000000000000000000000000000000000000000000000000000000000000000000000000000000000000000000000000000000000000000000000000000000000000000000000000000000000000000000000000000000000000000F5000000000000000000000000000000000000000000
310
F5000000000000000000000000000000000000000000F500000000000000000000000000000000000000000000F5000000000000000000000000000000000000000000F5000000000000000000000000000000000000000000F500000000000000000000000000000000000000000000F50000000000000000000000000000
310
0000000000F50000F50000000000000000000000000000000000000000000000000000000000000000000000000000000000000000000000000000000000000000000000000000000000000000000000000000000000000000000000000000000000000000000000000000F500000000000000000000000000000000000000
310
0000F5000000000000000000000000000000000000000000F500000000000000000000000000000000000000000000F5000000000000000000000000000000000000000000F5000000000000000000000000000000000000000000F500000000000000000000000000000000000000000000F5000000000000000000000000
310
00000000000000F50000F50000000000000000000000000000000000000000000000000000000000000000000000000000000000000000000000000000000000000000000000000000000000000000000000000000000000000000000000000000000000000000000000000000F50000000000000000000000000000000000
310
00000000F5000000000000000000000000000000000000000000F500000000000000000000000000000000000000000000F5000000000000000000000000000000000000000000F5000000000000000000000000000000000000000000F500000000000000000000000000000000000000000000F500000000000000000000
310
000000000000000000F50000F50000000000000000000000000000000000000000000000000000000000000000000000000000000000000000000000000000000000000000000000000000000000000000000000000000000000000000000000000000000000000000000000000000F5000000000000000000000000000000
310
000000000000F5000000000000000000000000000000000000000000F500000000000000000000000000000000000000000000F5000000000000000000000000000000000000000000F5000000000000000000000000000000000000000000F500000000000000000000000000000000000000000000F50000000000000000
310
0000000000000000000000F50000F50000000000000000000000000000000000000000000000000000000000000000000000000000000000000000000000000000000000000000000000000000000000000000000000000000000000000000000000000000000000000000000000000000F500000000000000000000000000
310
0000000000000000F5000000000000000000000000000000000000000000F500000000000000000000000000000000000000000000F5000000000000000000000000000000000000000000F5000000000000000000000000000000000000000000F500000000000000000000000000000000000000000000F5000000000000
310
00000000000000000000000000F50000F50000000000000000000000000000000000000000000000000000000000000000000000000000000000000000000000000000000000000000000000000000000000000000000000000000000000000000000000000000000000000000000000000000F50000000000000000000000
310
00000000000000000000F5000000000000000000000000000000000000000000F500000000000000000000000000000000000000000000F5000000000000000000000000000000000000000000F5000000000000000000000000000000000000000000F500000000000000000000000000000000000000000000F500000000
310
000000000000000000000000000000F50000F50000000000000000000000000000000000000000000000000000000000000000000000000000000000000000000000000000000000000000000000000000000000000000000000000000000000000000000000000000000000000000000000000000F5000000000000000000
310
000000000000000000000000F5000000000000000000000000000000000000000000F500000000000000000000000000000000000000000000F5000000000000000000000000000000000000000000F5000000000000000000000000000000000000000000F500000000000000000000000000000000000000000000F50000
310
0000000000000000000000000000000000F50000F50000000000000000000000000000000000000000000000000000000000000000000000000000000000000000000000000000000000000000000000000000000000000000000000000000000000000000000000000000000000000000000000000000F500000000000000
310
0000000000000000000000000000F5000000000000000000000000000000000000000000F500000000000000000000000000000000000000000000F5000000000000000000000000000000000000000000F5000000000000000000000000000000000000000000F500000000000000000000000000000000000000000000F5
310
00000000000000000000000000000000000000F50000F50000000000000000000000000000000000000000000000000000000000000000000000000000000000000000000000000000000000000000000000000000000000000000000000000000000000000000000000000000000000000000000000000000F50000000000
310
00000000000000000000000000000000F5000000000000000000000000000000000000000000F500000000000000000000000000000000000000000000F5000000000000000000000000000000000000000000F5000000000000000000000000000000000000000000F5000000000000000000000000000000000000000000
310
00F500000000000000000000000000000000000000F50000F50000000000000000000000000000000000000000000000000000000000000000000000000000000000000000000000000000000000000000000000000000000000000000000000000000000000000000000000000000000000000000000000000000F5000000
310
000000000000000000000000000000000000F5000000000000000000000000000000000000000000F500000000000000000000000000000000000000000000F5000000000000000000000000000000000000000000F5000000000000000000000000000000000000000000F500000000000000000000000000000000000000
310
000000F500000000000000000000000000000000000000F50000F50000000000000000000000000000000000000000000000000000000000000000000000000000000000000000000000000000000000000000000000000000000000000000000000000000000000000000000000000000000000000000000000000000F500
310
0000000000000000000000000000000000000000F5000000000000000000000000000000000000000000F500000000000000000000000000000000000000000000F5000000000000000000000000000000000000000000F5000000000000000000000000000000000000000000F50000000000000000000000000000000000
310
0000000000F500000000000000000000000000000000000000F50000F50000000000000000000000000000000000000000000000000000000000000000000000000000000000000000000000000000000000000000000000000000000000000000000000000000000000000000000000000000000000000000000000000000
310
F5000000000000000000000000000000000000000000F5000000000000000000000000000000000000000000F500000000000000000000000000000000000000000000F5000000000000000000000000000000000000000000F5000000000000000000000000000000000000000000F5000000000000000000000000000000
310
00000000000000F500000000000000000000000000000000000000F50000F5000000000000000000000000000000000000000000000000000000000000000000000000000000000000000000000000000000000000000000000000000000000000000000000000000000000000000000000000000000000000000000000000
310
0000F5000000000000000000000000000000000000000000F5000000000000000000000000000000000000000000F500000000000000000000000000000000000000000000F5000000000000000000000000000000000000000000F5000000000000000000000000000000000000000000F500000000000000000000000000
310
000000000000000000F500000000000000000000000000000000000000F50000F500000000000000000000000000000000000000000000000000000000000000000000000000000000000000000000000000000000000000000000000000000000000000000000000000000000000000000000000000000000000000000000
310
00000000F5000000000000000000000000000000000000000000F5000000000000000000000000000000000000000000F500000000000000000000000000000000000000000000F5000000000000000000000000000000000000000000F5000000000000000000000000000000000000000000F50000000000000000000000
310
0000000000000000000000F500000000000000000000000000000000000000F50000F50000000000000000000000000000000000000000000000000000000000000000000000000000000000000000000000000000000000000000000000000000000000000000000000000000000000000000000000000000000000000000
310
000000000000F5000000000000000000000000000000000000000000F5000000000000000000000000000000000000000000F500000000000000000000000000000000000000000000F5000000000000000000000000000000000000000000F5000000000000000000000000000000000000000000F5000000000000000000
310
00000000000000000000000000F500000000000000000000000000000000000000F50000F5000000000000000000000000000000000000000000000000000000000000000000000000000000000000000000000000000000000000000000000000000000000000000000000000000000000000000000000000000000000000
310
0000000000000000F5F5F5F5F5F5F5F5F5F5F5F5F5F5F5F5F5F5F5F5F5F5F5F5F5F5F5F5F5F5F5F5F5F5F5F5F5F5F5F5F5F5F5F5F5F5F5F5F5F5F5F5F5F5F5F5F5F5F5F5F5F5F5F5F5F5F5F5F5F5F5F5F5F5F5F5F5F5F5F5F5F5F5F5F5F5F5F5F5F5F5F5F5F5F5F5F5F5F5F5F5F5F5F5F5F5F5F5F5F5F5F5F5F5F5F5F5F5F5
310
F5F5F5F5F5F5F5F5F5F5F5F5F5F5F5F5F5F5F5F5F5F5F5F5F5F5F5F5F5F5F5F5F5F5F5F50000F500000000000000000000000000000000000000000000000000000000000000000000000000000000000000000000000000000000000000000000000000000000000000000000000000000000000000000000000000000000
310
00000000000000000000F5000000000000000000000000000000000000000000F5000000000000000000000000000000000000000000F500000000000000000000000000000000000000000000F5000000000000000000000000000000000000000000F5000000000000000000000000000000000000000000F50000000000
310
0000000000000000000000000000000000F500000000000000000000000000000000000000F50000F50000000000000000000000000000000000000000000000000000000000000000000000000000000000000000000000000000000000000000000000000000000000000000000000000000000000000000000000000000
310
000000000000000000000000F5F5F5F5F5F5F5F5F5F5F5F5F5F5F5F5F5F5F5F5F5F5F5F5F5F5F5F5F5F5F5F5F5F5F5F5F5F5F5F5F5F5F5F5F5F5F5F5F5F5F5F5F5F5F5F5F5F5F5F5F5F5F5F5F5F5F5F5F5F5F5F5F5F5F5F5F5F5F5F5F5F5F5F5F5F5F5F5F5F5F5F5F5F5F5F5F5F5F5F5F5F5F5F5F5F5F5F5F5F5F5F5F5F5F5
310
F5F5F5F5F5F5F5F5F5F5F5F5F5F5F5F5F5F5F5F5F5F5F5F5F5F5F5F5F5F5F5F5F5F5F5F5F5F5F5F50000F5000000000000000000000000000000000000000000000000000000000000000000000000000000000000000000000000000000000000000000000000000000000000000000000000000000000000000000000000
310
0000000000000000000000000000F5000000000000000000000000000000000000000000F5000000000000000000000000000000000000000000F500000000000000000000000000000000000000000000F5000000000000000000000000000000000000000000F5000000000000000000000000000000000000000000F500
310
000000000000000000000000000000000000000000F500000000000000000000000000000000000000F50000F500000000000000000000000000000000000000000000000000000000000000000000000000000000000000000000000000000000000000000000000000000000000000000000000000000000000000000000
310
00000000000000000000000000000000F5F5F5F5F5F5F5F5F5F5F5F5F5F5F5F5F5F5F5F5F5F5F5F5F5F5F5F5F5F5F5F5F5F5F5F5F5F5F5F5F5F5F5F5F5F5F5F5F5F5F5F5F5F5F5F5F5F5F5F5F5F5F5F5F5F5F5F5F5F5F5F5F5F5F5F5F5F5F5F5F5F5F5F5F5F5F5F5F5F5F5F5F5F5F5F5F5F5F5F5F5F5F5F5F5F5F5F5F5F5F5
310
F5F5F5F5F5F5F5F5F5F5F5F5F5F5F5F5F5F5F5F5F5F5F5F5F5F5F5F5F5F5F5F5F5F5F5F5F5F5F5F5F5F5F5F50000F50000000000000000000000000000000000000000000000000000000000000000000000000000000000000000000000000000000000000000000000000000000000000000000000000000000000000000
310
000000000000000000000000000000000000F5000000000000000000000000000000000000000000F5000000000000000000000000000000000000000000F500000000000000000000000000000000000000000000F5000000000000000000000000000000000000000000F500000000000000000000000000000000000000
310
0000F500000000000000000000000000000000000000000000F500000000000000000000000000000000000000F50000F5000000000000000000000000000000000000000000000000000000000000000000000000000000000000000000000000000000000000000000000000000000000000000000000000000000000000
310
0000000000000000000000000000000000000000F5000000000000000000000000000000000000000000F5000000000000000000000000000000000000000000F500000000000000000000000000000000000000000000F5000000000000000000000000000000000000000000F50000000000000000000000000000000000
310
00000000F500000000000000000000000000000000000000000000F500000000000000000000000000000000000000F50000F500000000000000000000000000000000000000000000000000000000000000000000000000000000000000000000000000000000000000000000000000000000000000000000000000000000
310
00000000000000000000000000000000000000000000F5000000000000000000000000000000000000000000F5000000000000000000000000000000000000000000F500000000000000000000000000000000000000000000F5000000000000000000000000000000000000000000F5000000000000000000000000000000
310
000000000000F500000000000000000000000000000000000000000000F500000000000000000000000000000000000000F50000F50000000000000000000000000000000000000000000000000000000000000000000000000000000000000000000000000000000000000000000000000000000000000000000000000000
310
000000000000000000000000000000000000000000000000F5000000000000000000000000000000000000000000F5000000000000000000000000000000000000000000F500000000000000000000000000000000000000000000F5000000000000000000000000000000000000000000F500000000000000000000000000
310
0000000000000000F500000000000000000000000000000000000000000000F500000000000000000000000000000000000000F50000F5000000000000000000000000000000000000000000000000000000000000000000000000000000000000000000000000000000000000000000000000000000000000000000000000
310
0000000000000000000000000000000000000000000000000000F5000000000000000000000000000000000000000000F5000000000000000000000000000000000000000000F500000000000000000000000000000000000000000000F5000000000000000000000000000000000000000000F50000000000000000000000
310
00000000000000000000F500000000000000000000000000000000000000000000F500000000000000000000000000000000000000F50000F500000000000000000000000000000000000000000000000000000000000000000000000000000000000000000000000000000000000000000000000000000000000000000000
310
00000000000000000000000000000000000000000000000000000000F5000000000000000000000000000000000000000000F5000000000000000000000000000000000000000000F500000000000000000000000000000000000000000000F5000000000000000000000000000000000000000000F5000000000000000000
310
000000000000000000000000F500000000000000000000000000000000000000000000F500000000000000000000000000000000000000F50000F50000000000000000000000000000000000000000000000000000000000000000000000000000000000000000000000000000000000000000000000000000000000000000
310
000000000000000000000000000000000000000000000000000000000000F5000000000000000000000000000000000000000000F5000000000000000000000000000000000000000000F500000000000000000000000000000000000000000000F5000000000000000000000000000000000000000000F500000000000000
310
0000000000000000000000000000F500000000000000000000000000000000000000000000F500000000000000000000000000000000000000F50000F5000000000000000000000000000000000000000000000000000000000000000000000000000000000000000000000000000000000000000000000000000000000000
310
0000000000000000000000000000000000000000000000000000000000000000F5000000000000000000000000000000000000000000F5000000000000000000000000000000000000000000F500000000000000000000000000000000000000000000F5000000000000000000000000000000000000000000F50000000000
310
00000000000000000000000000000000F500000000000000000000000000000000000000000000F500000000000000000000000000000000000000F50000F500000000000000000000000000000000000000000000000000000000000000000000000000000000000000000000000000000000000000000000000000000000
310
00000000000000000000000000000000000000000000000000000000000000000000F5000000000000000000000000000000000000000000F5000000000000000000000000000000000000000000F500000000000000000000000000000000000000000000F5000000000000000000000000000000000000000000F5000000
310
000000000000000000000000000000000000F500000000000000000000000000000000000000000000F500000000000000000000000000000000000000F50000F50000000000000000000000000000000000000000000000000000000000000000000000000000000000000000000000000000000000000000000000000000
310
000000000000000000000000000000000000000000000000000000000000000000000000F5000000000000000000000000000000000000000000F5000000000000000000000000000000000000000000F500000000000000000000000000000000000000000000F5000000000000000000000000000000000000000000F500
310
0000000000000000000000000000000000000000F500000000000000000000000000000000000000000000F500000000000000000000000000000000000000F50000F5000000000000000000000000000000000000000000000000000000000000000000000000000000000000000000000000000000000000000000000000
310
0000000000000000000000000000000000000000000000000000000000000000000000000000F5000000000000000000000000000000000000000000F5000000000000000000000000000000000000000000F500000000000000000000000000000000000000000000F5000000000000000000000000000000000000000000
310
F5000000000000000000000000000000000000000000F500000000000000000000000000000000000000000000F500000000000000000000000000000000000000F50000F500000000000000000000000000000000000000000000000000000000000000000000000000000000000000000000000000000000000000000000
310
00000000000000000000000000000000000000000000000000000000000000000000000000000000F5000000000000000000000000000000000000000000F5000000000000000000000000000000000000000000F500000000000000000000000000000000000000000000F500000000000000000000000000000000000000
310
0000F5000000000000000000000000000000000000000000F500000000000000000000000000000000000000000000F500000000000000000000000000000000000000F50000F50000000000000000000000000000000000000000000000000000000000000000000000000000000000000000000000000000000000000000
310
000000000000000000000000000000000000000000000000000000000000000000000000000000000000F5000000000000000000000000000000000000000000F5000000000000000000000000000000000000000000F500000000000000000000000000000000000000000000F50000000000000000000000000000000000
310
00000000F5000000000000000000000000000000000000000000F500000000000000000000000000000000000000000000F500000000000000000000000000000000000000F50000F5000000000000000000000000000000000000000000000000000000000000000000000000000000000000000000000000000000000000
310
0000000000000000000000000000000000000000000000000000000000000000000000000000000000000000F5000000000000000000000000000000000000000000F5000000000000000000000000000000000000000000F500000000000000000000000000000000000000000000F5000000000000000000000000000000
310
000000000000F5000000000000000000000000000000000000000000F500000000000000000000000000000000000000000000F500000000000000000000000000000000000000F50000F500000000000000000000000000000000000000000000000000000000000000000000000000000000000000000000000000000000
310
00000000000000000000000000000000000000000000000000000000000000000000000000000000000000000000F5000000000000000000000000000000000000000000F5000000000000000000000000000000000000000000F500000000000000000000000000000000000000000000F500000000000000000000000000
310
0000000000000000F5000000000000000000000000000000000000000000F500000000000000000000000000000000000000000000F500000000000000000000000000000000000000F50000F50000000000000000000000000000000000000000000000000000000000000000000000000000000000000000000000000000
310
000000000000000000000000000000000000000000000000000000000000000000000000000000000000000000000000F5000000000000000000000000000000000000000000F5000000000000000000000000000000000000000000F500000000000000000000000000000000000000000000F50000000000000000000000
310
00000000000000000000F5000000000000000000000000000000000000000000F500000000000000000000000000000000000000000000F500000000000000000000000000000000000000F50000F5000000000000000000000000000000000000000000000000000000000000000000000000000000000000000000000000
310
0000000000000000000000000000000000000000000000000000000000000000000000000000000000000000000000000000F5000000000000000000000000000000000000000000F5000000000000000000000000000000000000000000F500000000000000000000000000000000000000000000F5000000000000000000
310
000000000000000000000000F5000000000000000000000000000000000000000000F500000000000000000000000000000000000000000000F500000000000000000000000000000000000000F50000F500000000000000000000000000000000000000000000000000000000000000000000000000000000000000000000
310
00000000000000000000000000000000000000000000000000000000000000000000000000000000000000000000000000000000F5F5F5F5F5F5F5F5F5F5F5F5F5F5F5F5F5F5F5F5F5F5F5F5F5F5F5F5F5F5F5F5F5F5F5F5F5F5F5F5F5F5F5F5F5F5F5F5F5F5F5F5F5F5F5F5F5F5F5F5F5F5F5F5F5F5F5F5F5F5F5F5F5F5F5
310
F5F5F5F5F5F5F5F5F5F5F5F5F5F5F5F5F5F5F5F5F5F5F5F5F5F5F5F5F5F5F5F5F5F5F5F5F5F5F5F5F5F5F5F5F5F5F5F5F5F5F5F5F5F5F5F5F5F5F5F5F5F5F5F5F5F5F5F5F5F5F5F5F5F5F5F5F5F5F5F50000F50000000000000000000000000000000000000000000000000000000000000000000000000000000000000000
310
000000000000000000000000000000000000000000000000000000000000000000000000000000000000000000000000000000000000F5000000000000000000000000000000000000000000F5000000000000000000000000000000000000000000F500000000000000000000000000000000000000000000F50000000000
310
00000000000000000000000000000000F5000000000000000000000000000000000000000000F500000000000000000000000000000000000000000000F500000000000000000000000000000000000000F50000F5000000000000000000000000000000000000000000000000000000000000000000000000000000000000
310
0000000000000000000000000000000000000000000000000000000000000000000000000000000000000000000000000000000000000000F5F5F5F5F5F5F5F5F5F5F5F5F5F5F5F5F5F5F5F5F5F5F5F5F5F5F5F5F5F5F5F5F5F5F5F5F5F5F5F5F5F5F5F5F5F5F5F5F5F5F5F5F5F5F5F5F5F5F5F5F5F5F5F5F5F5F5F5F5F5F5
310
F5F5F5F5F5F5F5F5F5F5F5F5F5F5F5F5F5F5F5F5F5F5F5F5F5F5F5F5F5F5F5F5F5F5F5F5F5F5F5F5F5F5F5F5F5F5F5F5F5F5F5F5F5F5F5F5F5F5F5F5F5F5F5F5F5F5F5F5F5F5F5F5F5F5F5F5F5F5F5F5F5F5F5F50000F500000000000000000000000000000000000000000000000000000000000000000000000000000000
310
00000000000000000000000000000000000000000000000000000000000000000000000000000000000000000000000000000000000000000000F5000000000000000000000000000000000000000000F5000000000000000000000000000000000000000000F500000000000000000000000000000000000000000000F500
310
0000000000000000000000000000000000000000F5000000000000000000000000000000000000000000F500000000000000000000000000000000000000000000F500000000000000000000000000000000000000F50000F50000000000000000000000000000000000000000000000000000000000000000000000000000
310
000000000000000000000000000000000000000000000000000000000000000000000000000000000000000000000000000000000000000000000000F5F5F5F5F5F5F5F5F5F5F5F5F5F5F5F5F5F5F5F5F5F5F5F5F5F5F5F5F5F5F5F5F5F5F5F5F5F5F5F5F5F5F5F5F5F5F5F5F5F5F5F5F5F5F5F5F5F5F5F5F5F5F5F5F5F5F5
310
F5F5F5F5F5F5F5F5F5F5F5F5F5F5F5F5F5F5F5F5F5F5F5F5F5F5F5F5F5F5F5F5F5F5F5F5F5F5F5F5F5F5F5F5F5F5F5F5F5F5F5F5F5F5F5F5F5F5F5F5F5F5F5F5F5F5F5F5F5F5F5F5F5F5F5F5F5F5F5F5F5F5F5F5F5F5F5F50000F5000000000000000000000000000000000000000000000000000000000000000000000000
310
0000000000000000000000000000000000000000000000000000000000000000000000000000000000000000000000000000000000000000000000000000F5000000000000000000000000000000000000000000F5000000000000000000000000000000000000000000F50000000000000000000000000000000000000000
310
0000F5000000000000000000000000000000000000000000F5000000000000000000000000000000000000000000F500000000000000000000000000000000000000000000F500000000000000000000000000000000000000F50000F500000000000000000000000000000000000000000000000000000000000000000000
310
00000000000000000000000000000000000000000000000000000000000000000000000000000000000000000000000000000000000000000000000000000000F5000000000000000000000000000000000000000000F5000000000000000000000000000000000000000000F5000000000000000000000000000000000000
310
00000000F5000000000000000000000000000000000000000000F5000000000000000000000000000000000000000000F500000000000000000000000000000000000000000000F500000000000000000000000000000000000000F50000F50000000000000000000000000000000000000000000000000000000000000000
310
000000000000000000000000000000000000000000000000000000000000000000000000000000000000000000000000000000000000000000000000000000000000F5000000000000000000000000000000000000000000F5000000000000000000000000000000000000000000F500000000000000000000000000000000
310
000000000000F5000000000000000000000000000000000000000000F5000000000000000000000000000000000000000000F500000000000000000000000000000000000000000000F500000000000000000000000000000000000000F50000F5000000000000000000000000000000000000000000000000000000000000
310
0000000000000000000000000000000000000000000000000000000000000000000000000000000000000000000000000000000000000000000000000000000000000000F5000000000000000000000000000000000000000000F5000000000000000000000000000000000000000000F50000000000000000000000000000
310
0000000000000000F5000000000000000000000000000000000000000000F5000000000000000000000000000000000000000000F500000000000000000000000000000000000000000000F500000000000000000000000000000000000000F50000F500000000000000000000000000000000000000000000000000000000
310
00000000000000000000000000000000000000000000000000000000000000000000000000000000000000000000000000000000000000000000000000000000000000000000F5000000000000000000000000000000000000000000F5000000000000000000000000000000000000000000F5000000000000000000000000
310
00000000000000000000F5000000000000000000000000000000000000000000F5000000000000000000000000000000000000000000F500000000000000000000000000000000000000000000F500000000000000000000000000000000000000F50000F50000000000000000000000000000000000000000000000000000
310
000000000000000000000000000000000000000000000000000000000000000000000000000000000000000000000000000000000000000000000000000000000000000000000000F5000000000000000000000000000000000000000000F5000000000000000000000000000000000000000000F500000000000000000000
310
000000000000000000000000F5000000000000000000000000000000000000000000F5000000000000000000000000000000000000000000F500000000000000000000000000000000000000000000F500000000000000000000000000000000000000F50000F5000000000000000000000000000000000000000000000000
310
0000000000000000000000000000000000000000000000000000000000000000000000000000000000000000000000000000000000000000000000000000000000000000000000000000F5000000000000000000000000000000000000000000F5000000000000000000000000000000000000000000F50000000000000000
310
0000000000000000000000000000F5000000000000000000000000000000000000000000F5000000000000000000000000000000000000000000F500000000000000000000000000000000000000000000F500000000000000000000000000000000000000F50000F500000000000000000000000000000000000000000000
310
00000000000000000000000000000000000000000000000000000000000000000000000000000000000000000000000000000000000000000000000000000000000000000000000000000000F5000000000000000000000000000000000000000000F5000000000000000000000000000000000000000000F5000000000000
310
00000000000000000000000000000000F5000000000000000000000000000000000000000000F5000000000000000000000000000000000000000000F500000000000000000000000000000000000000000000F500000000000000000000000000000000000000F50000F50000000000000000000000000000000000000000
310
000000000000000000000000000000000000000000000000000000000000000000000000000000000000000000000000000000000000000000000000000000000000000000000000000000000000F5000000000000000000000000000000000000000000F5000000000000000000000000000000000000000000F500000000
310
000000000000000000000000000000000000F5000000000000000000000000000000000000000000F5000000000000000000000000000000000000000000F500000000000000000000000000000000000000000000F500000000000000000000000000000000000000F50000F5000000000000000000000000000000000000
310
0000000000000000000000000000000000000000000000000000000000000000000000000000000000000000000000000000000000000000000000000000000000000000000000000000000000000000F5000000000000000000000000000000000000000000F5000000000000000000000000000000000000000000F50000
310
0000000000000000000000000000000000000000F5000000000000000000000000000000000000000000F5000000000000000000000000000000000000000000F500000000000000000000000000000000000000000000F500000000000000000000000000000000000000F50000F500000000000000000000000000000000
310
00000000000000000000000000000000000000000000000000000000000000000000000000000000000000000000000000000000000000000000000000000000000000000000000000000000000000000000F5000000000000000000000000000000000000000000F5000000000000000000000000000000000000000000F5
310
00000000000000000000000000000000000000000000F5000000000000000000000000000000000000000000F5000000000000000000000000000000000000000000F500000000000000000000000000000000000000000000F500000000000000000000000000000000000000F50000F50000000000000000000000000000
310
000000000000000000000000000000000000000000000000000000000000000000000000000000000000000000000000000000000000000000000000000000000000000000000000000000000000000000000000F5000000000000000000000000000000000000000000F50000000000000000000000000000000000000000
310
00F500000000000000000000000000000000000000000000F5000000000000000000000000000000000000000000F5000000000000000000000000000000000000000000F500000000000000000000000000000000000000000000F500000000000000000000000000000000000000F50000F5000000000000000000000000
310
0000000000000000000000000000000000000000000000000000000000000000000000000000000000000000000000000000000000000000000000000000000000000000000000000000000000000000000000000000F5000000000000000000000000000000000000000000F5000000000000000000000000000000000000
310
000000F500000000000000000000000000000000000000000000F5000000000000000000000000000000000000000000F5000000000000000000000000000000000000000000F500000000000000000000000000000000000000000000F500000000000000000000000000000000000000F50000F500000000000000000000
310
00000000000000000000000000000000000000000000000000000000000000000000000000000000000000000000000000000000000000000000000000000000000000000000000000000000000000000000000000000000F5000000000000000000000000000000000000000000F500000000000000000000000000000000
310
0000000000F500000000000000000000000000000000000000000000F5000000000000000000000000000000000000000000F5000000000000000000000000000000000000000000F500000000000000000000000000000000000000000000F500000000000000000000000000000000000000F50000F50000000000000000
310
000000000000000000000000000000000000000000000000000000000000000000000000000000000000000000000000000000000000000000000000000000000000000000000000000000000000000000000000000000000000F5000000000000000000000000000000000000000000F50000000000000000000000000000
310
00000000000000F500000000000000000000000000000000000000000000F5000000000000000000000000000000000000000000F5000000000000000000000000000000000000000000F500000000000000000000000000000000000000000000F500000000000000000000000000000000000000F50000F5000000000000
310
0000000000000000000000000000000000000000000000000000000000000000000000000000000000000000000000000000000000000000000000000000000000000000000000000000000000000000000000000000000000000000F5000000000000000000000000000000000000000000F5000000000000000000000000
310
000000000000000000F500000000000000000000000000000000000000000000F5000000000000000000000000000000000000000000F5000000000000000000000000000000000000000000F500000000000000000000000000000000000000000000F500000000000000000000000000000000000000F50000F500000000
310
00000000000000000000000000000000000000000000000000000000000000000000000000000000000000000000000000000000000000000000000000000000000000000000000000000000000000000000000000000000000000000000F5000000000000000000000000000000000000000000F500000000000000000000
310
0000000000000000000000F500000000000000000000000000000000000000000000F5000000000000000000000000000000000000000000F5000000000000000000000000000000000000000000F500000000000000000000000000000000000000000000F500000000000000000000000000000000000000F50000F50000
310
000000000000000000000000000000000000000000000000000000000000000000000000000000000000000000000000000000000000000000000000000000000000000000000000000000000000000000000000000000000000000000000000F5F5F5F5F5F5F5F5F5F5F5F5F5F5F5F5F5F5F5F5F5F5F5F5F5F5F5F5F5F5F5
310
F5F5F5F5F5F5F5F5F5F5F5F5F5F5F5F5F5F5F5F5F5F5F5F5F5F5F5F5F5F5F5F5F5F5F5F5F5F5F5F5F5F5F5F5F5F5F5F5F5F5F5F5F5F5F5F5F5F5F5F5F5F5F5F5F5F5F5F5F5F5F5F5F5F5F5F5F5F5F5F5F5F5F5F5F5F5F5F5F5F5F5F5F5F5F5F5F5F5F5F5F5F5F5F5F5F5F5F5F5F5F5F5F5F5F5F5F5F5F5F5F5F5F5F50000F5
310
0000000000000000000000000000000000000000000000000000000000000000000000000000000000000000000000000000000000000000000000000000000000000000000000000000000000000000000000000000000000000000000000000000F5000000000000000000000000000000000000000000F5000000000000
310
000000000000000000000000000000F500000000000000000000000000000000000000000000F5000000000000000000000000000000000000000000F5000000000000000000000000000000000000000000F500000000000000000000000000000000000000000000F500000000000000000000000000000000000000F500
310
00F50000000000000000000000000000000000000000000000000000000000000000000000000000000000000000000000000000000000000000000000000000000000000000000000000000000000000000000000000000000000000000000000000000F5F5F5F5F5F5F5F5F5F5F5F5F5F5F5F5F5F5F5F5F5F5F5F5F5F5F5
310
F5F5F5F5F5F5F5F5F5F5F5F5F5F5F5F5F5F5F5F5F5F5F5F5F5F5F5F5F5F5F5F5F5F5F5F5F5F5F5F5F5F5F5F5F5F5F5F5F5F5F5F5F5F5F5F5F5F5F5F5F5F5F5F5F5F5F5F5F5F5F5F5F5F5F5F5F5F5F5F5F5F5F5F5F5F5F5F5F5F5F5F5F5F5F5F5F5F5F5F5F5F5F5F5F5F5F5F5F5F5F5F5F5F5F5F5F5F5F5F5F5F5F5F5F5F5F5
310
F50000F50000000000000000000000000000000000000000000000000000000000000000000000000000000000000000000000000000000000000000000000000000000000000000000000000000000000000000000000000000000000000000000000000000F5000000000000000000000000000000000000000000F50000
310
00000000000000000000000000000000000000F500000000000000000000000000000000000000000000F5000000000000000000000000000000000000000000F5000000000000000000000000000000000000000000F500000000000000000000000000000000000000000000F50000000000000000000000000000000000
310
0000F50000F50000000000000000000000000000000000000000000000000000000000000000000000000000000000000000000000000000000000000000000000000000000000000000000000000000000000000000000000000000000000000000000000000000F5F5F5F5F5F5F5F5F5F5F5F5F5F5F5F5F5F5F5F5F5F5F5
310
F5F5F5F5F5F5F5F5F5F5F5F5F5F5F5F5F5F5F5F5F5F5F5F5F5F5F5F5F5F5F5F5F5F5F5F5F5F5F5F5F5F5F5F5F5F5F5F5F5F5F5F5F5F5F5F5F5F5F5F5F5F5F5F5F5F5F5F5F5F5F5F5F5F5F5F5F5F5F5F5F5F5F5F5F5F5F5F5F5F5F5F5F5F5F5F5F5F5F5F5F5F5F5F5F5F5F5F5F5F5F5F5F5F5F5F5F5F5F5F5F5F5F5F5F5F5F5
310
F5F5F5F5F50000F50000000000000000000000000000000000000000000000000000000000000000000000000000000000000000000000000000000000000000000000000000000000000000000000000000000000000000000000000000000000000000000000000000F50000000000000000000000000000000000000000
310
0000000000000000000000000000000000000000000000F500000000000000000000000000000000000000000000F5000000000000000000000000000000000000000000F5000000000000000000000000000000000000000000F500000000000000000000000000000000000000000000F500000000000000000000000000
310
000000000000F50000F50000000000000000000000000000000000000000000000000000000000000000000000000000000000000000000000000000000000000000000000000000000000000000000000000000000000000000000000000000000000000000000000000000F5000000000000000000000000000000000000
310
00000000000000000000000000000000000000000000000000F500000000000000000000000000000000000000000000F5000000000000000000000000000000000000000000F5000000000000000000000000000000000000000000F500000000000000000000000000000000000000000000F50000000000000000000000
310
0000000000000000F50000F50000000000000000000000000000000000000000000000000000000000000000000000000000000000000000000000000000000000000000000000000000000000000000000000000000000000000000000000000000000000000000000000000000F500000000000000000000000000000000
310
000000000000000000000000000000000000000000000000000000F500000000000000000000000000000000000000000000F5000000000000000000000000000000000000000000F5000000000000000000000000000000000000000000F500000000000000000000000000000000000000000000F5000000000000000000
310
00000000000000000000F50000F50000000000000000000000000000000000000000000000000000000000000000000000000000000000000000000000000000000000000000000000000000000000000000000000000000000000000000000000000000000000000000000000000000F50000000000000000000000000000
310
0000000000000000000000000000000000000000000000000000000000F500000000000000000000000000000000000000000000F5000000000000000000000000000000000000000000F5000000000000000000000000000000000000000000F500000000000000000000000000000000000000000000F500000000000000
310
000000000000000000000000F50000F50000000000000000000000000000000000000000000000000000000000000000000000000000000000000000000000000000000000000000000000000000000000000000000000000000000000000000000000000000000000000000000000000000F5000000000000000000000000
310
00000000000000000000000000000000000000000000000000000000000000F500000000000000000000000000000000000000000000F5000000000000000000000000000000000000000000F5000000000000000000000000000000000000000000F500000000000000000000000000000000000000000000F50000000000
310
0000000000000000000000000000F50000F50000000000000000000000000000000000000000000000000000000000000000000000000000000000000000000000000000000000000000000000000000000000000000000000000000000000000000000000000000000000000000000000000000F500000000000000000000
310
000000000000000000000000000000000000000000000000000000000000000000F500000000000000000000000000000000000000000000F5000000000000000000000000000000000000000000F5000000000000000000000000000000000000000000F500000000000000000000000000000000000000000000F5000000
310
00000000000000000000000000000000F50000F50000000000000000000000000000000000000000000000000000000000000000000000000000000000000000000000000000000000000000000000000000000000000000000000000000000000000000000000000000000000000000000000000000F50000000000000000
310
0000000000000000000000000000000000000000000000000000000000000000000000F500000000000000000000000000000000000000000000F5000000000000000000000000000000000000000000F5000000000000000000000000000000000000000000F500000000000000000000000000000000000000000000F500
310
000000000000000000000000000000000000F50000F50000000000000000000000000000000000000000000000000000000000000000000000000000000000000000000000000000000000000000000000000000000000000000000000000000000000000000000000000000000000000000000000000000F5000000000000
310
00000000000000000000000000000000000000000000000000000000000000000000000000F500000000000000000000000000000000000000000000F5000000000000000000000000000000000000000000F5000000000000000000000000000000000000000000F500000000000000000000000000000000000000000000
310
F500000000000000000000000000000000000000F50000F50000000000000000000000000000000000000000000000000000000000000000000000000000000000000000000000000000000000000000000000000000000000000000000000000000000000000000000000000000000000000000000000000000F500000000
310
000000000000000000DCDCDCDCDCDC000000000000000000000000000000000000000000000000F500000000000000000000000000000000000000000000F5000000000000000000000000000000000000000000F5000000000000000000000000000000000000000000F50000000000000000000000000000000000000000
310
0000F500000000000000000000000000000000000000F50000F50000000000000000000000000000000000000000000000000000000000000000000000000000000000000000000000000000000000000000000000000000000000000000000000000000000000000000000000000000000000000000000000000000F50000
310
0000000000000000000000DC00000000DC000000000000000000000000000000000000000000000000F500000000000000000000000000000000000000000000F5000000000000000000000000000000000000000000F5000000000000000000000000000000000000000000F5000000000000000000000000000000000000
310
00000000F500000000000000000000000000000000000000F50000F50000000000000000000000000000000000000000000000000000000000000000000000000000000000000000000000000000000000000000000000000000000000000000000000000000000000000000000000000000000000000000000000000000F5
310
000000000000000000000000002D2D2D2D2DDCDC0000000000000000000000000000000000000000000000F500000000000000000000000000000000000000000000F5000000000000000000000000000000000000000000F5000000000000000000000000000000000000000000F500000000000000000000000000000000
310
000000000000F500000000000000000000000000000000000000F50000F500000000000000000000000000000000000000000000000000000000000000000000000000000000000000000000000000000000000000000000000000000000000000000000000000000000000000000000000000000000000000000000000000
310
00F500000000000000000000000000F500000000DCDC0000000000000000000000000000000000000000000000F500000000000000000000000000000000000000000000F5000000000000000000000000000000000000000000F5000000000000000000000000000000000000000000F50000000000000000000000000000
310
0000000000000000F500000000000000000000000000000000000000F50000F50000000000000000000000000000000000000000000000000000000000000000000000000000000000000000000000000000000000000000000000000000000000000000000000000000000000000000000000000000000000000000000000
310
000000F500000000000000000000000000000000000000000000000000000000000000000000000000000000000000F500000000000000000000000000000000000000000000F5000000000000000000000000000000000000000000F5000000000000000000000000000000000000000000F5000000000000000000000000
310
00000000000000000000F500000000000000000000000000000000000000F50000F5000000000000000000000000000000000000000000000000000000000000000000000000000000000000000000000000000000000000000000000000000000000000000000000000000000000000000000000000000000000000000000
310
0000000000F500000000000000000000000000000000000000000000000000000000000000000000000000000000000000F500000000000000000000000000000000000000000000F5000000000000000000000000000000000000000000F5000000000000000000000000000000000000000000F500000000000000000000
310
000000000000000000000000F500000000000000000000000000000000000000F50000F500000000000000000000000000000000000000000000000000000000000000000000000000000000000000000000000000000000000000000000000000000000000000000000000000000000000000000000000000000000000000
310
00000000000000F500000000000000000000000000000000000000000000000000000000000000000000000000000000000000F500000000000000000000000000000000000000000000F5000000000000000000000000000000000000000000F5000000000000000000000000000000000000000000F50000000000000000
310
0000000000000000000000000000F500000000000000000000000000000000000000F50000F50000000000000000000000000000000000000000000000000000000000000000000000000000000000000000000000000000000000000000000000000000000000000000000000000000000000000000000000000000000000
310
000000000000000000F500000000000000000000000000000000000000000000000000000000000000000000000000000000000000F500000000000000000000000000000000000000000000F5000000000000000000000000000000000000000000F5000000000000000000000000000000000000000000F5000000000000
310
00000000000000000000000000000000F500000000000000000000000000000000000000F50000F5000000000000000000000000000000000000000000000000000000000000000000000000000000000000000000000000000000000000000000000000000000000000000000000000000000000000000000000000000000
310
0000000000000000000000F500000000000000000000000000000000000000000000000000000000000000000000000000000000000000F500000000000000000000000000000000000000000000F5000000000000000000000000000000000000000000F5000000000000000000000000000000000000000000F500000000
310
000000000000000000000000000000000000F500000000000000000000000000000000000000F50000F500000000000000000000000000000000000000000000000000000000000000000000000000000000000000000000000000000000000000000000000000000000000000000000000000000000000000000000000000
310
00000000000000000000000000F500000000000000000000000000000000000000000000000000DCDCDC000000000000000000000000000000F5F5F5F5F5F5F5F5F5F5F5F5F5F5F5F5F5F5F5F5F5F5F5F5F5F5F5F5F5F5F5F5F5F5F5F5F5F5F5F5F5F5F5F5F5F5F5F5F5F5F5F5F5F5F5F5F5F5F5F5F5F5F5F5F5F5F5F5F5F5
310
F5F5F5F5F5F5F5F5F5F5F5F5F5F5F5F5F5F5F5F5F5F5F5F5F5F5F5F5F5F5F5F5F5F5F5F5F5F5F5F5F50000F50000000000000000000000000000000000000000000000000000000000000000000000000000000000000000000000000000000000000000000000000000000000000000000000000000000000000000000000
310
000000000000000000000000000000F500000000000000000000000000DCDCDCDCDCDC000000000000DCDCDC000000000000000000000000000000F500000000000000000000000000000000000000000000F5000000000000000000000000000000000000000000F5000000000000000000000000000000000000000000F5
310
00000000000000000000000000000000000000000000F500000000000000000000000000000000000000F50000F5000000000000000000000000000000000000000000000000000000000000000000000000000000000000000000000000000000000000000000000000000000000000000000000000000000000000000000
310
0000000000000000000000000000000000F500000000000000000000000000DCDCBEBEDCDCDC0000000000F5BEDCDCDC00000000000000000000000000F5F5F5F5F5F5F5F5F5F5F5F5F5F5F5F5F5F5F5F5F5F5F5F5F5F5F5F5F5F5F5F5F5F5F5F5F5F5F5F5F5F5F5F5F5F5F5F5F5F5F5F5F5F5F5F5F5F5F5F5F5F5F5F5F5F5
310
F5F5F5F5F5F5F5F5F5F5F5F5F5F5F5F5F5F5F5F5F5F5F5F5F5F5F5F5F5F5F5F5F5F5F5F5F5F5F5F5F5F5F5F5F50000F500000000000000000000000000000000000000000000000000000000000000000000000000000000000000000000000000000000000000000000000000000000000000000000000000000000000000
310
00000000000000000000000000000000000000F500000000000000000000000000282DBEBE2DDCDC000000000000BEDCDCDC00000000000000000000000000F500000000000000000000000000000000000000000000F5000000000000000000000000000000000000000000F5000000000000000000000000000000000000
310
000000F500000000000000000000000000000000000000000000F500000000000000000000000000000000000000F50000F50000000000000000000000000000000000000000000000000000000000000000000000000000000000000000000000000000000000000000000000000000000000000000000000000000000000
310
000000000000000000000000000000000000000000F500000000000000000000000000282D2D2D2D28DC0000000000002D0F00DC00000000000000000000000000F5F5F5F5F5F5F5F5F5F5F5F5F5F5F5F5F5F5F5F5F5F5F5F5F5F5F5F5F5F5F5F5F5F5F5F5F5F5F5F5F5F5F5F5F5F5F5F5F5F5F5F5F5F5F5F5F5F5F5F5F5F5
310
F5F5F5F5F5F5F5F5F5F5F5F5F5F5F5F5F5F5F5F5F5F5F5F5F5F5F5F5F5F5F5F5F5F5F5F5F5F5F5F5F5F5F5F5F5F5F5F5F50000F5000000000000000000000000000000000000000000000000000000000000000000000000000000000000000000000000000000000000000000000000000000000000000000000000000000
310
0000000000000000000000000000000000000000000000F500000000000000000000000000282D2D2D2D28DC0000000000002D0F00DC00000000000000000000000000F500000000000000000000000000000000000000000000F5000000000000000000000000000000000000000000F50000000000000000000000000000
310
00000000000000F500000000000000000000000000000000000000000000F500000000000000000000000000000000000000F50000F500000000000000000000000000000000000000000000000000000000000000000000000000000000000000000000000000000000000000000000000000000000000000000000000000
310
00000000000000000000000000000000000000000000000000F500000000000000000000000000282D2D2D2D28DC0000000000002D0F00DC00000000000000000000000000F500000000000000000000000000000000000000000000F5000000000000000000000000000000000000000000F5000000000000000000000000
310
000000000000000000F500000000000000000000000000000000000000000000F500000000000000000000000000000000000000F50000F50000000000000000000000000000000000000000000000000000000000000000000000000000000000000000000000000000000000000000000000000000000000000000000000
310
000000000000000000000000000000000000000000000000000000F500000000000000000000000000282D2D2D2DDCDC0000000000002D0F00DC00000000000000000000000000F500000000000000000000000000000000000000000000F5000000000000000000000000000000000000000000F500000000000000000000
310
0000000000000000000000F500000000000000000000000000000000000000000000F500000000000000000000000000000000000000F50000F5000000000000000000000000000000000000000000000000000000000000000000000000000000000000000000000000000000000000000000000000000000000000000000
310
0000000000000000000000000000000000000000000000000000000000F5000000000000000000000000002828282D2DDCDC0000000000002D0F00DC00000000000000000000000000F500000000000000000000000000000000000000000000F5000000000000000000000000000000000000000000F50000000000000000
310
00000000000000000000000000F500000000000000000000000000000000000000000000F500000000000000000000000000000000000000F50000F500000000000000000000000000000000000000000000000000000000000000000000000000000000000000000000000000000000000000000000000000000000000000
310
00000000000000000000000000000000000000000000000000000000000000F500000000000000000000000000282D2D2D2D28DC0000000000002D0F00DC00000000000000000000000000F500000000000000000000000000000000000000000000F5000000000000000000000000000000000000000000F5000000000000
310
000000000000000000000000000000F500000000000000000000000000000000000000000000F500000000000000000000000000000000000000F50000F50000000000000000000000000000000000000000000000000000000000000000000000000000000000000000000000000000000000000000000000000000000000
310
000000000000000000000000000000000000000000000000000000000000000000F500000000000000000000000000282D2D2D2D28DC0000000000002D0F00DC00000000000000000000000000F500000000000000000000000000000000000000000000F5000000000000000000000000000000000000000000F500000000
310
0000000000000000000000000000000000F500000000000000000000000000000000000000000000F500000000000000000000000000000000000000F50000F5000000000000000000000000000000000000000000000000000000000000000000000000000000000000000000000000000000000000000000000000000000
310
0000000000000000000000000000000000000000000000000000000000000000000000F500000000000000000000000000282D2D2D2D28DC0000000000002D0F00DC00000000000000000000000000F500000000000000000000000000000000000000000000F5000000000000000000000000000000000000000000F50000
310
00000000000000000000000000000000000000F500000000000000000000000000000000000000000000F500000000000000000000000000000000000000F50000F500000000000000000000000000000000000000000000000000000000000000000000000000000000000000000000000000000000000000000000000000
310
00000000000000000000000000000000000000000000000000000000000000000000000000F500000000000000000000000000282D2D2D2DDCDC0000000000002DDCDCDC00000000000000000000000000F500000000000000000000000000000000000000000000F5000000000000000000000000000000000000000000F5
310
000000000000000000000000000000000000000000F500000000000000000000000000000000000000000000F500000000000000000000000000000000000000F50000F50000000000000000000000000000000000000000000000000000000000000000000000000000000000000000000000000000000000000000000000
310
000000000000000000000000000000000000000000000000000000000000000000000000000000F5000000000000000000000000002828282828DCDC0000000000002DDCDCDC00000000000000000000000000F500000000000000000000000000000000000000000000F50000000000000000000000000000000000000000
310
00F5000000000000000000000000000000000000000000F500000000000000000000000000000000000000000000F500000000000000000000000000000000000000F50000F5000000000000000000000000000000000000000000000000000000000000000000000000000000000000000000000000000000000000000000
310
0000000000000000000000000000000000000000000000000000000000000000000000000000000000F500000000000000000000000000000000000000000000000000000000000000000000000000000000000000F500000000000000000000000000000000000000000000F5000000000000000000000000000000000000
310
000000F5000000000000000000000000000000000000000000F500000000000000000000000000000000000000000000F500000000000000000000000000000000000000F50000F500000000000000000000000000000000000000000000000000000000000000000000000000000000000000000000000000000000000000
310
00000000000000000000000000000000000000000000000000000000000000000000000000000000000000F500000000000000000000000000000000000000000000000000000000000000000000000000000000000000F500000000000000000000000000000000000000000000F500000000000000000000000000000000
310
0000000000F5000000000000000000000000000000000000000000F500000000000000000000000000000000000000000000F500000000000000000000000000000000000000F50000F50000000000000000000000000000000000000000000000000000000000000000000000000000000000000000000000000000000000
310
000000000000000000000000000000000000000000000000000000000000000000000000000000000000000000F500000000000000000000000000000000000000000000000000000000000000000000000000000000000000F500000000000000000000000000000000000000000000F50000000000000000000000000000
310
00000000000000F5000000000000000000000000000000000000000000F500000000000000000000000000000000000000000000F500000000000000000000000000000000000000F50000F5000000000000000000000000000000000000000000000000000000000000000000000000000000000000000000000000000000
310
0000000000000000000000000000000000000000000000000000000000000000000000000000000000000000000000F500000000000000000000000000000000000000000000000000000000000000000000000000000000000000F500000000000000000000000000000000000000000000F5000000000000000000000000
310
000000000000000000F5000000000000000000000000000000000000000000F500000000000000000000000000000000000000000000F500000000000000000000000000000000000000F50000F500000000000000000000000000000000000000000000000000000000000000000000000000000000000000000000000000
310
00000000000000000000000000000000000000000000000000000000000000000000000000000000000000000000000000F500000000000000000000000000000000000000000000000000000000000000000000000000000000000000F500000000000000000000000000000000000000000000F500000000000000000000
310
0000000000000000000000F5000000000000000000000000000000000000000000F500000000000000000000000000000000000000000000F500000000000000000000000000000000000000F50000F50000000000000000000000000000000000000000000000000000000000000000000000000000000000000000000000
310
000000000000000000000000000000000000000000000000000000000000000000000000000000000000000000000000000000F500000000000000000000000000000000000000000000000000000000000000000000000000000000000000F500000000000000000000000000000000000000000000F50000000000000000
310
00000000000000000000000000F5000000000000000000000000000000000000000000F500000000000000000000000000000000000000000000F500000000000000000000000000000000000000F50000F5000000000000000000000000000000000000000000000000000000000000000000000000000000000000000000
310
0000000000000000000000000000000000000000000000000000000000000000000000000000000000000000000000000000000000F500000000000000000000000000000000000000000000000000000000000000000000000000000000000000F500000000000000000000000000000000000000000000F5000000000000
310
000000000000000000000000000000F5000000000000000000000000000000000000000000F500000000000000000000000000000000000000000000F500000000000000000000000000000000000000F50000F500000000000000000000000000000000000000000000000000000000000000000000000000000000000000
310
00000000000000000000000000000000000000000000000000000000000000000000000000000000000000000000000000000000000000F500000000000000000000000000000000000000000000000000000000000000000000000000000000000000F500000000000000000000000000000000000000000000F500000000
310
0000000000000000000000000000000000F5000000000000000000000000000000000000000000F500000000000000000000000000000000000000000000F500000000000000000000000000000000000000F50000F50000000000000000000000000000000000000000000000000000000000000000000000000000000000
310
000000000000000000000000000000000000000000000000000000000000000000000000000000000000000000000000000000000000000000F500000000000000000000000000000000000000000000000000000000000000000000000000000000000000F500000000000000000000000000000000000000000000F50000
310
00000000000000000000000000000000000000F5000000000000000000000000000000000000000000F500000000000000000000000000000000000000000000F500000000000000000000000000000000000000F50000F5000000000000000000000000000000000000000000000000000000000000000000000000000000
310
0000000000000000000000000000000000000000000000000000000000000000000000000000000000000000000000000000000000000000000000F5F5F5F5F5F5F5F5F5F5F5F5F5F5F5F5F5F5F5F5F5F5F5F5F5F5F5F5F5F5F5F5F5F5F5F5F5F5F5F5F5F5F5F5F5F5F5F5F5F5F5F5F5F5F5F5F5F5F5F5F5F5F5F5F5F5F5F5
310
F5F5F5F5F5F5F5F5F5F5F5F5F5F5F5F5F5F5F5F5F5F5F5F5F5F5F5F5F5F5F5F5F5F5F5F5F5F5F5F5F5F5F5F5F5F5F5F5F5F5F5F5F5F5F5F5F5F5F5F5F5F5F5F5F5F5F5F5F5F5F5F5F5F5F5F5F5F5F5F5F5F5F5F5F5F5F50000F500000000000000000000000000000000000000000000000000000000000000000000000000
310
00000000000000000000000000000000000000000000000000000000000000000000000000000000000000000000000000000000000000000000000000F5F5F5F5F5F5F5F5F5F5F5F50000000000000000000000000000000000000000000000000000000000000000F5000000000000000000000000000000000000000000
310
00F5000000000000000000000000000000000000000000F5000000000000000000000000000000000000000000F500000000000000000000000000000000000000000000F500000000000000000000000000000000000000F50000F50000000000000000000000000000000000000000000000000000000000000000000000
310
000000000000000000000000000000000000000000000000000000000000000000000000000000000000000000000000000000000000000000000000000000F5F5F5F5F5F5F5F5F5F5F5F5F5F5F5F5F5F5F5F5F5F5F5F5F5F5F5F5F5F5F5F5F5F5F5F5F5F5F5F5F5F5F5F5F5F5F5F5F5F5F5F5F5F5F5F5F5F5F5F5F5F5F5F5
310
F5F5F5F5F5F5F5F5F5F5F5F5F5F5F5F5F5F5F5F5F5F5F5F5F5F5F5F5F5F5F5F5F5F5F5F5F5F5F5F5F5F5F5F5F5F5F5F5F5F5F5F5F5F5F5F5F5F5F5F5F5F5F5F5F5F5F5F5F5F5F5F5F5F5F5F5F5F5F5F5F5F5F5F5F5F5F5F5F5F5F50000F5000000000000000000000000000000000000000000000000000000000000000000
310
0000000000000000000000000000000000000000000000000000000000000000000000000000000000000000000000000000000000000000000000000000000000F5F5F5F5F5F5F5F5F5F5F5000000000000000000000000000000000000000000000000000000000000000000F50000000000000000000000000000000000
310
0000000000F5000000000000000000000000000000000000000000F5000000000000000000000000000000000000000000F500000000000000000000000000000000000000000000F500000000000000000000000000000000000000F50000F500000000000000000000000000000000000000000000000000000000000000
310
00000000000000000000000000000000000000000000000000000000000000000000000000000000000000000000000000000000000000000000000000000000000000F5F5F5F5F5F5F5F5F5F5F5F5F5F5F5F5F5F5F5F5F5F5F5F5F5F5F5F5F5F5F5F5F5F5F5F5F5F5F5F5F5F5F5F5F5F5F5F5F5F5F5F5F5F5F5F5F5F5F5F5
310
F5F5F5F5F5F5F5F5F5F5F5F5F5F5F5F5F5F5F5F5F5F5F5F5F5F5F5F5F5F5F5F5F5F5F5F5F5F5F5F5F5F5F5F5F5F5F5F5F5F5F5F5F5F5F5F5F5F5F5F5F5F5F5F5F5F5F5F5F5F5F5F5F5F5F5F5F5F5F5F5F5F5F5F5F5F5F5F5F5F5F5F5F5F5F50000F50000000000000000000000000000000000000000000000000000000000
310
000000000000000000000000000000000000000000000000000000000000000000000000000000000000000000000000000000000000000000000000000000000000000000F50000F5F5F5F5F5F5F5F5F5F5F5F5F50000F5F5F5F5F5F5F5F5F5F5F5F5F5F50000F5F5F5F5F5F5F500F5F5F5F500F5F5F5F5F5F500F5F5F5F5
310
F5F5F5F5F5F5F5F5F5F5F5F5F5F5F5F5F5F5F50000F5F5F5F5F5F5F5F5F5F5F5F5F5F500000000000000000000000000000000000000000000000000000000000000000000000000000000000000000000000000000000000000000000000000000000F5000000000000000000000000000000000000000000000000000000
310
0000000000000000000000000000000000000000000000000000000000000000000000000000000000000000000000000000000000000000000000000000000000000000000000F5F5F5F5F5F5F5F5F5F5F5F5F5F5F5F5F5F5F5F5F5F5F5F5F5F5F5F5F5F5F5F5F5F5F5F5F5F5F5F5F5F5F5F5F5F5F5F5F5F5F5F5F5F5F5F5
310
F5F5F5F5F5F5F5F5F5F5F5F5F5F5F5F5F5F5F5F5F5F5F5F5F5F5F5F5F5F5F5F5F5F5F5F5F5F5F5F5F5F5F5F5F5F5F5F5F5F5F5F5F5F5F5F5F5F5F5F5F5F5F5F5F5F5F5F5F5F5F5F5F5F5F5F5F5F5F5F5F5F5F5F5F5F5F5F5F5F5F5F5F5F5F5F5F5F5F5F5F5F500000000000000000000000000000000000000000000000000
310
00000000000000000000000000000000000000000000000000000000000000000000000000000000000000000000000000000000000000000000000000000000000000000000000000000000000000000000000000000000000000000000000000000000000000000000000000000000000000000000000000000000000000
310
00000000000000000000000000000000000000000000000000000000000000000000000000000000000000000000000000000000000000000000000000000000000000000000000000000000000000000000000000000000000000000000000000000000000000000000000000000000000000000000000000000000000000
310
0000000000000000000000000000000000000000000000000000
  0
XRECORD
  5
30FB
102
{ACAD_REACTORS
330
2327
102
}
330
2327
100
AcDbXrecord
280
     1
102
MATERIAL
148
0.0
149
0.0
149
0.0
 93
        0
 94
      127
282
     0
 72
     0
 77
     0
171
     0
175
     0
179
     0
273
     0
  0
XRECORD
  5
2329
102
{ACAD_REACTORS
330
2327
102
}
330
2327
100
AcDbXrecord
280
     1
270
     1
271
     1
  0
XRECORD
  5
2328
102
{ACAD_REACTORS
330
2327
102
}
330
2327
100
AcDbXrecord
280
     1
270
     1
271
     1
  0
XRECORD
  5
232C
102
{ACAD_REACTORS
330
2327
102
}
330
2327
100
AcDbXrecord
280
     1
270
     1
271
     1
  0
XRECORD
  5
232B
102
{ACAD_REACTORS
330
2327
102
}
330
2327
100
AcDbXrecord
280
     1
270
     1
271
     1
  0
XRECORD
  5
232D
102
{ACAD_REACTORS
330
2327
102
}
330
2327
100
AcDbXrecord
280
     1
270
     1
271
     1
  0
XRECORD
  5
232A
102
{ACAD_REACTORS
330
2327
102
}
330
2327
100
AcDbXrecord
280
     1
270
     1
271
     1
  0
XRECORD
  5
30FA
102
{ACAD_REACTORS
330
231F
102
}
330
231F
100
AcDbXrecord
280
     1
102
MATERIAL
148
0.0
149
0.0
149
0.0
 93
        0
 94
      127
282
     0
 72
     0
 77
     0
171
     0
175
     0
179
     0
273
     0
  0
XRECORD
  5
2321
102
{ACAD_REACTORS
330
231F
102
}
330
231F
100
AcDbXrecord
280
     1
270
     1
271
     1
  0
XRECORD
  5
2320
102
{ACAD_REACTORS
330
231F
102
}
330
231F
100
AcDbXrecord
280
     1
270
     1
271
     1
  0
XRECORD
  5
2324
102
{ACAD_REACTORS
330
231F
102
}
330
231F
100
AcDbXrecord
280
     1
270
     1
271
     1
  0
XRECORD
  5
2323
102
{ACAD_REACTORS
330
231F
102
}
330
231F
100
AcDbXrecord
280
     1
270
     1
271
     1
  0
XRECORD
  5
2325
102
{ACAD_REACTORS
330
231F
102
}
330
231F
100
AcDbXrecord
280
     1
270
     1
271
     1
  0
XRECORD
  5
2322
102
{ACAD_REACTORS
330
231F
102
}
330
231F
100
AcDbXrecord
280
     1
270
     1
271
     1
  0
XRECORD
  5
30FC
102
{ACAD_REACTORS
330
232F
102
}
330
232F
100
AcDbXrecord
280
     1
102
MATERIAL
148
0.0
149
0.0
149
0.0
 93
        0
 94
      127
282
     0
 72
     0
 77
     0
171
     0
175
     0
179
     0
273
     0
  0
XRECORD
  5
2331
102
{ACAD_REACTORS
330
232F
102
}
330
232F
100
AcDbXrecord
280
     1
270
     1
271
     1
  0
XRECORD
  5
2330
102
{ACAD_REACTORS
330
232F
102
}
330
232F
100
AcDbXrecord
280
     1
270
     1
271
     1
  0
XRECORD
  5
2334
102
{ACAD_REACTORS
330
232F
102
}
330
232F
100
AcDbXrecord
280
     1
270
     1
271
     1
  0
XRECORD
  5
2333
102
{ACAD_REACTORS
330
232F
102
}
330
232F
100
AcDbXrecord
280
     1
270
     1
271
     1
  0
XRECORD
  5
2335
102
{ACAD_REACTORS
330
232F
102
}
330
232F
100
AcDbXrecord
280
     1
270
     1
271
     1
  0
XRECORD
  5
2332
102
{ACAD_REACTORS
330
232F
102
}
330
232F
100
AcDbXrecord
280
     1
270
     1
271
     1
  0
XRECORD
  5
312F
102
{ACAD_REACTORS
330
312E
102
}
330
312E
100
AcDbXrecord
280
     1
102
ACAD_ROUNDTRIP_2012_MLEADER_STYLE
298
     1
  0
XRECORD
  5
3131
102
{ACAD_REACTORS
330
3130
102
}
330
3130
100
AcDbXrecord
280
     1
102
DISPLAYNAME
  1
Imperial24
102
FLAGS
 90
        0
  0
XRECORD
  5
3135
102
{ACAD_REACTORS
330
3134
102
}
330
3134
100
AcDbXrecord
280
     1
102
DISPLAYNAME
  1
Metric50
102
FLAGS
 90
        0
  0
CELLSTYLEMAP
  5
30F8
102
{ACAD_REACTORS
330
2370
102
}
330
2370
100
AcDbCellStyleMap
 90
        3
300
CELLSTYLE
  1
TABLEFORMAT_BEGIN
 90
        5
170
     1
 91
        0
 92
    32768
 62
   257
 93
        1
300
CONTENTFORMAT
  1
CONTENTFORMAT_BEGIN
 90
        0
 91
        0
 92
      512
 93
        0
300

 40
0.0
140
1.0
 94
        5
 62
     0
340
1235
144
0.25
309
CONTENTFORMAT_END
171
     0
 94
        0
309
TABLEFORMAT_END
  1
CELLSTYLE_BEGIN
 90
        1
 91
        1
300
_TITLE
309
CELLSTYLE_END
300
CELLSTYLE
  1
TABLEFORMAT_BEGIN
 90
        5
170
     1
 91
        0
 92
        0
 62
   257
 93
        1
300
CONTENTFORMAT
  1
CONTENTFORMAT_BEGIN
 90
        0
 91
        0
 92
      512
 93
        0
300

 40
0.0
140
1.0
 94
        5
 62
     0
340
1235
144
0.18
309
CONTENTFORMAT_END
171
     0
 94
        0
309
TABLEFORMAT_END
  1
CELLSTYLE_BEGIN
 90
        2
 91
        1
300
_HEADER
309
CELLSTYLE_END
300
CELLSTYLE
  1
TABLEFORMAT_BEGIN
 90
        5
170
     1
 91
        0
 92
        0
 62
   257
 93
        1
300
CONTENTFORMAT
  1
CONTENTFORMAT_BEGIN
 90
        0
 91
        0
 92
      512
 93
        0
300

 40
0.0
140
1.0
 94
        2
 62
     0
340
1235
144
0.18
309
CONTENTFORMAT_END
171
     0
 94
        0
309
TABLEFORMAT_END
  1
CELLSTYLE_BEGIN
 90
        3
 91
        2
300
_DATA
309
CELLSTYLE_END
  0
XRECORD
  5
312D
102
{ACAD_REACTORS
330
2370
102
}
330
2370
100
AcDbXrecord
280
     1
102
ACAD_ROUNDTRIP_PRE2007_TABLESTYLE
 90
      512
 91
        0
  1

 92
      512
 93
        0
  2

 94
      512
 95
        0
  3

  0
XRECORD
  5
3108
102
{ACAD_REACTORS
330
3107
102
}
330
3107
100
AcDbXrecord
280
     1
102
RTVSPost2010Prop28
280
     1
102
RTVSPost2010PropOp28
 70
     1
102
RTVSPost2010Prop29
280
     1
102
RTVSPost2010PropOp29
 70
     1
102
RTVSPost2010Prop30
280
     0
102
RTVSPost2010PropOp30
 70
     1
102
RTVSPost2010Prop31
280
     0
102
RTVSPost2010PropOp31
 70
     1
102
RTVSPost2010Prop32
280
     0
102
RTVSPost2010PropOp32
 70
     1
102
RTVSPost2010Prop33
280
     0
102
RTVSPost2010PropOp33
 70
     1
102
RTVSPost2010Prop34
280
     0
102
RTVSPost2010PropOp34
 70
     1
102
RTVSPost2010Prop35
280
     0
102
RTVSPost2010PropOp35
 70
     1
102
RTVSPost2010Prop36
280
     0
102
RTVSPost2010PropOp36
 70
     1
102
RTVSPost2010Prop37
 90
       50
102
RTVSPost2010PropOp37
 70
     1
102
RTVSPost2010Prop38
140
0.0
102
RTVSPost2010PropOp38
 70
     1
102
RTVSPost2010Prop39
140
1.0
102
RTVSPost2010PropOp39
 70
     1
102
RTVSPost2010Prop40
 90
        0
102
RTVSPost2010PropOp40
 70
     1
102
RTVSPost2010Prop41ColorIndex
 90
       18
102
RTVSPost2010Prop41ColorRGB
 90
        0
102
RTVSPost2010PropOp41
 70
     1
102
RTVSPost2010Prop42
 90
       50
102
RTVSPost2010PropOp42
 70
     1
102
RTVSPost2010Prop43
 90
        3
102
RTVSPost2010PropOp43
 70
     1
102
RTVSPost2010Prop44ColorIndex
 90
        5
102
RTVSPost2010Prop44ColorRGB
 90
      255
102
RTVSPost2010PropOp44
 70
     1
102
RTVSPost2010Prop45
280
     0
102
RTVSPost2010PropOp45
 70
     1
102
RTVSPost2010Prop46
 90
       50
102
RTVSPost2010PropOp46
 70
     1
102
RTVSPost2010Prop47
 90
       50
102
RTVSPost2010PropOp47
 70
     1
102
RTVSPost2010Prop48
 90
       50
102
RTVSPost2010PropOp48
 70
     1
102
RTVSPost2010Prop49
280
     0
102
RTVSPost2010PropOp49
 70
     1
102
RTVSPost2010Prop50
 90
       50
102
RTVSPost2010PropOp50
 70
     1
102
RTVSPost2010Prop51ColorIndex
 90
      256
102
RTVSPost2010Prop51ColorRGB
 90
-16777216
102
RTVSPost2010PropOp51
 70
     0
102
RTVSPost2010Prop52
140
1.0
102
RTVSPost2010PropOp52
 70
     0
102
RTVSPost2010Prop53
 90
        2
102
RTVSPost2010PropOp53
 70
     1
102
RTVSPost2010Prop54
  1
strokes_ogs.tif
102
RTVSPost2010PropOp54
 70
     1
102
RTVSPost2010Prop55
280
     0
102
RTVSPost2010PropOp55
 70
     1
102
RTVSPost2010Prop56
140
1.0
102
RTVSPost2010PropOp56
 70
     1
102
RTVSPost2010Prop57
140
1.0
102
RTVSPost2010PropOp57
 70
     1
102
RTVSPropertyOp0
 70
     1
102
RTVSPropertyOp1
 70
     1
102
RTVSPropertyOp2
 70
     1
102
RTVSPropertyOp3
 70
     1
102
RTVSPropertyOp4
 70
     1
102
RTVSPropertyOp5
 70
     1
102
RTVSPropertyOp6
 70
     1
102
RTVSPropertyOp7
 70
     1
102
RTVSPropertyOp8
 70
     1
102
RTVSPropertyOp9
 70
     1
102
RTVSPropertyOp10
 70
     1
102
RTVSPropertyOp11
 70
     1
102
RTVSPropertyOp12
 70
     1
102
RTVSPropertyOp13
 70
     1
102
RTVSPropertyOp14
 70
     1
102
RTVSPropertyOp15
 70
     1
102
RTVSPropertyOp16
 70
     1
102
RTVSPropertyOp17
 70
     1
102
RTVSPropertyOp18
 70
     1
102
RTVSPropertyOp19
 70
     1
102
RTVSPropertyOp20
 70
     1
102
RTVSPropertyOp21
 70
     1
102
RTVSPropertyOp22
 70
     1
102
RTVSPropertyOp23
 70
     1
102
RTVSPropertyOp24
 70
     1
102
RTVSPropertyOp25
 70
     1
102
RTVSPropertyOp26
 70
     1
102
RTVSPropertyOp27
 70
     1
102
RTVSPropertyOp28
 70
     1
102
RTVSPropertyOp29
 70
     1
102
RTVSPropertyOp30
 70
     1
102
RTVSPropertyOp31
 70
     1
102
RTVSPropertyOp32
 70
     1
102
RTVSPropertyOp33
 70
     1
102
RTVSPropertyOp34
 70
     1
102
RTVSPropertyOp35
 70
     1
102
RTVSPropertyOp36
 70
     1
102
RTVSPropertyOp37
 70
     1
102
RTVSPropertyOp38
 70
     1
102
RTVSPropertyOp39
 70
     1
102
RTVSPropertyOp40
 70
     1
102
RTVSPropertyOp41
 70
     1
102
RTVSPropertyOp42
 70
     1
102
RTVSPropertyOp43
 70
     1
102
RTVSPropertyOp44
 70
     1
102
RTVSPropertyOp45
 70
     1
102
RTVSPropertyOp46
 70
     1
102
RTVSPropertyOp47
 70
     1
102
RTVSPropertyOp48
 70
     1
102
RTVSPropertyOp49
 70
     1
102
RTVSPropertyOp50
 70
     1
102
RTVSPropertyOp51
 70
     0
102
RTVSPropertyOp52
 70
     0
102
RTVSPropertyOp53
 70
     1
102
RTVSPropertyOp54
 70
     1
102
RTVSPropertyOp55
 70
     1
102
RTVSPropertyOp56
 70
     1
102
RTVSPropertyOp57
 70
     1
102
RTVSPropertyOp58
 70
     1
102
RTVSPropertyOp59
 70
     1
102
RTVSPropertyOp60
 70
     1
102
RTVSPropertyOp61
 70
     1
102
RTVSPropertyOp62
 70
     1
  0
XRECORD
  5
3106
102
{ACAD_REACTORS
330
3105
102
}
330
3105
100
AcDbXrecord
280
     1
102
RTVSPost2010Prop28
280
     0
102
RTVSPost2010PropOp28
 70
     1
102
RTVSPost2010Prop29
280
     1
102
RTVSPost2010PropOp29
 70
     1
102
RTVSPost2010Prop30
280
     1
102
RTVSPost2010PropOp30
 70
     1
102
RTVSPost2010Prop31
280
     0
102
RTVSPost2010PropOp31
 70
     1
102
RTVSPost2010Prop32
280
     0
102
RTVSPost2010PropOp32
 70
     1
102
RTVSPost2010Prop33
280
     0
102
RTVSPost2010PropOp33
 70
     1
102
RTVSPost2010Prop34
280
     0
102
RTVSPost2010PropOp34
 70
     1
102
RTVSPost2010Prop35
280
     0
102
RTVSPost2010PropOp35
 70
     1
102
RTVSPost2010Prop36
280
     0
102
RTVSPost2010PropOp36
 70
     1
102
RTVSPost2010Prop37
 90
       50
102
RTVSPost2010PropOp37
 70
     1
102
RTVSPost2010Prop38
140
0.0
102
RTVSPost2010PropOp38
 70
     1
102
RTVSPost2010Prop39
140
1.0
102
RTVSPost2010PropOp39
 70
     1
102
RTVSPost2010Prop40
 90
        0
102
RTVSPost2010PropOp40
 70
     1
102
RTVSPost2010Prop41ColorIndex
 90
       18
102
RTVSPost2010Prop41ColorRGB
 90
        0
102
RTVSPost2010PropOp41
 70
     1
102
RTVSPost2010Prop42
 90
       50
102
RTVSPost2010PropOp42
 70
     1
102
RTVSPost2010Prop43
 90
        3
102
RTVSPost2010PropOp43
 70
     1
102
RTVSPost2010Prop44ColorIndex
 90
        5
102
RTVSPost2010Prop44ColorRGB
 90
      255
102
RTVSPost2010PropOp44
 70
     1
102
RTVSPost2010Prop45
280
     0
102
RTVSPost2010PropOp45
 70
     1
102
RTVSPost2010Prop46
 90
       50
102
RTVSPost2010PropOp46
 70
     1
102
RTVSPost2010Prop47
 90
       50
102
RTVSPost2010PropOp47
 70
     1
102
RTVSPost2010Prop48
 90
       50
102
RTVSPost2010PropOp48
 70
     1
102
RTVSPost2010Prop49
280
     0
102
RTVSPost2010PropOp49
 70
     1
102
RTVSPost2010Prop50
 90
       50
102
RTVSPost2010PropOp50
 70
     1
102
RTVSPost2010Prop51ColorIndex
 90
      256
102
RTVSPost2010Prop51ColorRGB
 90
-16777216
102
RTVSPost2010PropOp51
 70
     0
102
RTVSPost2010Prop52
140
1.0
102
RTVSPost2010PropOp52
 70
     0
102
RTVSPost2010Prop53
 90
        2
102
RTVSPost2010PropOp53
 70
     1
102
RTVSPost2010Prop54
  1
strokes_ogs.tif
102
RTVSPost2010PropOp54
 70
     1
102
RTVSPost2010Prop55
280
     0
102
RTVSPost2010PropOp55
 70
     1
102
RTVSPost2010Prop56
140
1.0
102
RTVSPost2010PropOp56
 70
     1
102
RTVSPost2010Prop57
140
1.0
102
RTVSPost2010PropOp57
 70
     1
102
RTVSPropertyOp0
 70
     1
102
RTVSPropertyOp1
 70
     1
102
RTVSPropertyOp2
 70
     1
102
RTVSPropertyOp3
 70
     1
102
RTVSPropertyOp4
 70
     1
102
RTVSPropertyOp5
 70
     1
102
RTVSPropertyOp6
 70
     1
102
RTVSPropertyOp7
 70
     1
102
RTVSPropertyOp8
 70
     1
102
RTVSPropertyOp9
 70
     1
102
RTVSPropertyOp10
 70
     1
102
RTVSPropertyOp11
 70
     1
102
RTVSPropertyOp12
 70
     1
102
RTVSPropertyOp13
 70
     1
102
RTVSPropertyOp14
 70
     1
102
RTVSPropertyOp15
 70
     1
102
RTVSPropertyOp16
 70
     1
102
RTVSPropertyOp17
 70
     1
102
RTVSPropertyOp18
 70
     1
102
RTVSPropertyOp19
 70
     1
102
RTVSPropertyOp20
 70
     1
102
RTVSPropertyOp21
 70
     1
102
RTVSPropertyOp22
 70
     1
102
RTVSPropertyOp23
 70
     1
102
RTVSPropertyOp24
 70
     1
102
RTVSPropertyOp25
 70
     1
102
RTVSPropertyOp26
 70
     1
102
RTVSPropertyOp27
 70
     1
102
RTVSPropertyOp28
 70
     1
102
RTVSPropertyOp29
 70
     1
102
RTVSPropertyOp30
 70
     1
102
RTVSPropertyOp31
 70
     1
102
RTVSPropertyOp32
 70
     1
102
RTVSPropertyOp33
 70
     1
102
RTVSPropertyOp34
 70
     1
102
RTVSPropertyOp35
 70
     1
102
RTVSPropertyOp36
 70
     1
102
RTVSPropertyOp37
 70
     1
102
RTVSPropertyOp38
 70
     1
102
RTVSPropertyOp39
 70
     1
102
RTVSPropertyOp40
 70
     1
102
RTVSPropertyOp41
 70
     1
102
RTVSPropertyOp42
 70
     1
102
RTVSPropertyOp43
 70
     1
102
RTVSPropertyOp44
 70
     1
102
RTVSPropertyOp45
 70
     1
102
RTVSPropertyOp46
 70
     1
102
RTVSPropertyOp47
 70
     1
102
RTVSPropertyOp48
 70
     1
102
RTVSPropertyOp49
 70
     1
102
RTVSPropertyOp50
 70
     1
102
RTVSPropertyOp51
 70
     0
102
RTVSPropertyOp52
 70
     0
102
RTVSPropertyOp53
 70
     1
102
RTVSPropertyOp54
 70
     1
102
RTVSPropertyOp55
 70
     1
102
RTVSPropertyOp56
 70
     1
102
RTVSPropertyOp57
 70
     1
102
RTVSPropertyOp58
 70
     1
102
RTVSPropertyOp59
 70
     1
102
RTVSPropertyOp60
 70
     1
102
RTVSPropertyOp61
 70
     1
102
RTVSPropertyOp62
 70
     1
  0
XRECORD
  5
3114
102
{ACAD_REACTORS
330
3113
102
}
330
3113
100
AcDbXrecord
280
     1
102
RTVSPost2010Prop28
280
     0
102
RTVSPost2010PropOp28
 70
     1
102
RTVSPost2010Prop29
280
     1
102
RTVSPost2010PropOp29
 70
     1
102
RTVSPost2010Prop30
280
     1
102
RTVSPost2010PropOp30
 70
     1
102
RTVSPost2010Prop31
280
     0
102
RTVSPost2010PropOp31
 70
     1
102
RTVSPost2010Prop32
280
     0
102
RTVSPost2010PropOp32
 70
     1
102
RTVSPost2010Prop33
280
     0
102
RTVSPost2010PropOp33
 70
     1
102
RTVSPost2010Prop34
280
     0
102
RTVSPost2010PropOp34
 70
     1
102
RTVSPost2010Prop35
280
     0
102
RTVSPost2010PropOp35
 70
     1
102
RTVSPost2010Prop36
280
     0
102
RTVSPost2010PropOp36
 70
     1
102
RTVSPost2010Prop37
 90
       50
102
RTVSPost2010PropOp37
 70
     1
102
RTVSPost2010Prop38
140
0.0
102
RTVSPost2010PropOp38
 70
     1
102
RTVSPost2010Prop39
140
1.0
102
RTVSPost2010PropOp39
 70
     1
102
RTVSPost2010Prop40
 90
        0
102
RTVSPost2010PropOp40
 70
     1
102
RTVSPost2010Prop41ColorIndex
 90
       18
102
RTVSPost2010Prop41ColorRGB
 90
        0
102
RTVSPost2010PropOp41
 70
     1
102
RTVSPost2010Prop42
 90
       50
102
RTVSPost2010PropOp42
 70
     1
102
RTVSPost2010Prop43
 90
        3
102
RTVSPost2010PropOp43
 70
     1
102
RTVSPost2010Prop44ColorIndex
 90
        5
102
RTVSPost2010Prop44ColorRGB
 90
      255
102
RTVSPost2010PropOp44
 70
     1
102
RTVSPost2010Prop45
280
     0
102
RTVSPost2010PropOp45
 70
     1
102
RTVSPost2010Prop46
 90
       50
102
RTVSPost2010PropOp46
 70
     1
102
RTVSPost2010Prop47
 90
       50
102
RTVSPost2010PropOp47
 70
     1
102
RTVSPost2010Prop48
 90
       50
102
RTVSPost2010PropOp48
 70
     1
102
RTVSPost2010Prop49
280
     0
102
RTVSPost2010PropOp49
 70
     1
102
RTVSPost2010Prop50
 90
       50
102
RTVSPost2010PropOp50
 70
     1
102
RTVSPost2010Prop51ColorIndex
 90
      256
102
RTVSPost2010Prop51ColorRGB
 90
-16777216
102
RTVSPost2010PropOp51
 70
     0
102
RTVSPost2010Prop52
140
1.0
102
RTVSPost2010PropOp52
 70
     0
102
RTVSPost2010Prop53
 90
        2
102
RTVSPost2010PropOp53
 70
     1
102
RTVSPost2010Prop54
  1
strokes_ogs.tif
102
RTVSPost2010PropOp54
 70
     1
102
RTVSPost2010Prop55
280
     0
102
RTVSPost2010PropOp55
 70
     1
102
RTVSPost2010Prop56
140
1.0
102
RTVSPost2010PropOp56
 70
     1
102
RTVSPost2010Prop57
140
1.0
102
RTVSPost2010PropOp57
 70
     1
102
RTVSPropertyOp0
 70
     1
102
RTVSPropertyOp1
 70
     1
102
RTVSPropertyOp2
 70
     1
102
RTVSPropertyOp3
 70
     1
102
RTVSPropertyOp4
 70
     1
102
RTVSPropertyOp5
 70
     1
102
RTVSPropertyOp6
 70
     1
102
RTVSPropertyOp7
 70
     1
102
RTVSPropertyOp8
 70
     1
102
RTVSPropertyOp9
 70
     1
102
RTVSPropertyOp10
 70
     1
102
RTVSPropertyOp11
 70
     1
102
RTVSPropertyOp12
 70
     1
102
RTVSPropertyOp13
 70
     1
102
RTVSPropertyOp14
 70
     1
102
RTVSPropertyOp15
 70
     1
102
RTVSPropertyOp16
 70
     1
102
RTVSPropertyOp17
 70
     1
102
RTVSPropertyOp18
 70
     1
102
RTVSPropertyOp19
 70
     1
102
RTVSPropertyOp20
 70
     1
102
RTVSPropertyOp21
 70
     1
102
RTVSPropertyOp22
 70
     1
102
RTVSPropertyOp23
 70
     1
102
RTVSPropertyOp24
 70
     1
102
RTVSPropertyOp25
 70
     1
102
RTVSPropertyOp26
 70
     1
102
RTVSPropertyOp27
 70
     1
102
RTVSPropertyOp28
 70
     1
102
RTVSPropertyOp29
 70
     1
102
RTVSPropertyOp30
 70
     1
102
RTVSPropertyOp31
 70
     1
102
RTVSPropertyOp32
 70
     1
102
RTVSPropertyOp33
 70
     1
102
RTVSPropertyOp34
 70
     1
102
RTVSPropertyOp35
 70
     1
102
RTVSPropertyOp36
 70
     1
102
RTVSPropertyOp37
 70
     1
102
RTVSPropertyOp38
 70
     1
102
RTVSPropertyOp39
 70
     1
102
RTVSPropertyOp40
 70
     1
102
RTVSPropertyOp41
 70
     1
102
RTVSPropertyOp42
 70
     1
102
RTVSPropertyOp43
 70
     1
102
RTVSPropertyOp44
 70
     1
102
RTVSPropertyOp45
 70
     1
102
RTVSPropertyOp46
 70
     1
102
RTVSPropertyOp47
 70
     1
102
RTVSPropertyOp48
 70
     1
102
RTVSPropertyOp49
 70
     1
102
RTVSPropertyOp50
 70
     1
102
RTVSPropertyOp51
 70
     0
102
RTVSPropertyOp52
 70
     0
102
RTVSPropertyOp53
 70
     1
102
RTVSPropertyOp54
 70
     1
102
RTVSPropertyOp55
 70
     1
102
RTVSPropertyOp56
 70
     1
102
RTVSPropertyOp57
 70
     1
102
RTVSPropertyOp58
 70
     1
102
RTVSPropertyOp59
 70
     1
102
RTVSPropertyOp60
 70
     1
102
RTVSPropertyOp61
 70
     1
102
RTVSPropertyOp62
 70
     1
  0
XRECORD
  5
311C
102
{ACAD_REACTORS
330
311B
102
}
330
311B
100
AcDbXrecord
280
     1
102
RTVSPost2010Prop28
280
     0
102
RTVSPost2010PropOp28
 70
     1
102
RTVSPost2010Prop29
280
     1
102
RTVSPost2010PropOp29
 70
     1
102
RTVSPost2010Prop30
280
     1
102
RTVSPost2010PropOp30
 70
     1
102
RTVSPost2010Prop31
280
     0
102
RTVSPost2010PropOp31
 70
     1
102
RTVSPost2010Prop32
280
     0
102
RTVSPost2010PropOp32
 70
     1
102
RTVSPost2010Prop33
280
     0
102
RTVSPost2010PropOp33
 70
     1
102
RTVSPost2010Prop34
280
     0
102
RTVSPost2010PropOp34
 70
     1
102
RTVSPost2010Prop35
280
     0
102
RTVSPost2010PropOp35
 70
     1
102
RTVSPost2010Prop36
280
     0
102
RTVSPost2010PropOp36
 70
     1
102
RTVSPost2010Prop37
 90
       50
102
RTVSPost2010PropOp37
 70
     1
102
RTVSPost2010Prop38
140
0.0
102
RTVSPost2010PropOp38
 70
     1
102
RTVSPost2010Prop39
140
1.0
102
RTVSPost2010PropOp39
 70
     1
102
RTVSPost2010Prop40
 90
        0
102
RTVSPost2010PropOp40
 70
     1
102
RTVSPost2010Prop41ColorIndex
 90
       18
102
RTVSPost2010Prop41ColorRGB
 90
        0
102
RTVSPost2010PropOp41
 70
     1
102
RTVSPost2010Prop42
 90
       50
102
RTVSPost2010PropOp42
 70
     1
102
RTVSPost2010Prop43
 90
        3
102
RTVSPost2010PropOp43
 70
     1
102
RTVSPost2010Prop44ColorIndex
 90
        5
102
RTVSPost2010Prop44ColorRGB
 90
      255
102
RTVSPost2010PropOp44
 70
     1
102
RTVSPost2010Prop45
280
     0
102
RTVSPost2010PropOp45
 70
     1
102
RTVSPost2010Prop46
 90
       50
102
RTVSPost2010PropOp46
 70
     1
102
RTVSPost2010Prop47
 90
       50
102
RTVSPost2010PropOp47
 70
     1
102
RTVSPost2010Prop48
 90
       50
102
RTVSPost2010PropOp48
 70
     1
102
RTVSPost2010Prop49
280
     0
102
RTVSPost2010PropOp49
 70
     1
102
RTVSPost2010Prop50
 90
       50
102
RTVSPost2010PropOp50
 70
     1
102
RTVSPost2010Prop51ColorIndex
 90
      256
102
RTVSPost2010Prop51ColorRGB
 90
-16777216
102
RTVSPost2010PropOp51
 70
     0
102
RTVSPost2010Prop52
140
1.0
102
RTVSPost2010PropOp52
 70
     0
102
RTVSPost2010Prop53
 90
        2
102
RTVSPost2010PropOp53
 70
     1
102
RTVSPost2010Prop54
  1
strokes_ogs.tif
102
RTVSPost2010PropOp54
 70
     1
102
RTVSPost2010Prop55
280
     0
102
RTVSPost2010PropOp55
 70
     1
102
RTVSPost2010Prop56
140
1.0
102
RTVSPost2010PropOp56
 70
     1
102
RTVSPost2010Prop57
140
1.0
102
RTVSPost2010PropOp57
 70
     1
102
RTVSPropertyOp0
 70
     1
102
RTVSPropertyOp1
 70
     1
102
RTVSPropertyOp2
 70
     1
102
RTVSPropertyOp3
 70
     1
102
RTVSPropertyOp4
 70
     1
102
RTVSPropertyOp5
 70
     1
102
RTVSPropertyOp6
 70
     1
102
RTVSPropertyOp7
 70
     1
102
RTVSPropertyOp8
 70
     1
102
RTVSPropertyOp9
 70
     1
102
RTVSPropertyOp10
 70
     1
102
RTVSPropertyOp11
 70
     1
102
RTVSPropertyOp12
 70
     1
102
RTVSPropertyOp13
 70
     1
102
RTVSPropertyOp14
 70
     1
102
RTVSPropertyOp15
 70
     1
102
RTVSPropertyOp16
 70
     1
102
RTVSPropertyOp17
 70
     1
102
RTVSPropertyOp18
 70
     1
102
RTVSPropertyOp19
 70
     1
102
RTVSPropertyOp20
 70
     1
102
RTVSPropertyOp21
 70
     1
102
RTVSPropertyOp22
 70
     1
102
RTVSPropertyOp23
 70
     1
102
RTVSPropertyOp24
 70
     1
102
RTVSPropertyOp25
 70
     1
102
RTVSPropertyOp26
 70
     1
102
RTVSPropertyOp27
 70
     1
102
RTVSPropertyOp28
 70
     1
102
RTVSPropertyOp29
 70
     1
102
RTVSPropertyOp30
 70
     1
102
RTVSPropertyOp31
 70
     1
102
RTVSPropertyOp32
 70
     1
102
RTVSPropertyOp33
 70
     1
102
RTVSPropertyOp34
 70
     1
102
RTVSPropertyOp35
 70
     1
102
RTVSPropertyOp36
 70
     1
102
RTVSPropertyOp37
 70
     1
102
RTVSPropertyOp38
 70
     1
102
RTVSPropertyOp39
 70
     1
102
RTVSPropertyOp40
 70
     1
102
RTVSPropertyOp41
 70
     1
102
RTVSPropertyOp42
 70
     1
102
RTVSPropertyOp43
 70
     1
102
RTVSPropertyOp44
 70
     1
102
RTVSPropertyOp45
 70
     1
102
RTVSPropertyOp46
 70
     1
102
RTVSPropertyOp47
 70
     1
102
RTVSPropertyOp48
 70
     1
102
RTVSPropertyOp49
 70
     1
102
RTVSPropertyOp50
 70
     1
102
RTVSPropertyOp51
 70
     0
102
RTVSPropertyOp52
 70
     0
102
RTVSPropertyOp53
 70
     1
102
RTVSPropertyOp54
 70
     1
102
RTVSPropertyOp55
 70
     1
102
RTVSPropertyOp56
 70
     1
102
RTVSPropertyOp57
 70
     1
102
RTVSPropertyOp58
 70
     1
102
RTVSPropertyOp59
 70
     1
102
RTVSPropertyOp60
 70
     1
102
RTVSPropertyOp61
 70
     1
102
RTVSPropertyOp62
 70
     1
  0
XRECORD
  5
310E
102
{ACAD_REACTORS
330
310D
102
}
330
310D
100
AcDbXrecord
280
     1
102
RTVSPost2010Prop28
280
     0
102
RTVSPost2010PropOp28
 70
     1
102
RTVSPost2010Prop29
280
     1
102
RTVSPost2010PropOp29
 70
     1
102
RTVSPost2010Prop30
280
     1
102
RTVSPost2010PropOp30
 70
     1
102
RTVSPost2010Prop31
280
     0
102
RTVSPost2010PropOp31
 70
     1
102
RTVSPost2010Prop32
280
     0
102
RTVSPost2010PropOp32
 70
     1
102
RTVSPost2010Prop33
280
     0
102
RTVSPost2010PropOp33
 70
     1
102
RTVSPost2010Prop34
280
     0
102
RTVSPost2010PropOp34
 70
     1
102
RTVSPost2010Prop35
280
     0
102
RTVSPost2010PropOp35
 70
     1
102
RTVSPost2010Prop36
280
     0
102
RTVSPost2010PropOp36
 70
     1
102
RTVSPost2010Prop37
 90
       50
102
RTVSPost2010PropOp37
 70
     1
102
RTVSPost2010Prop38
140
0.0
102
RTVSPost2010PropOp38
 70
     1
102
RTVSPost2010Prop39
140
1.0
102
RTVSPost2010PropOp39
 70
     1
102
RTVSPost2010Prop40
 90
        0
102
RTVSPost2010PropOp40
 70
     1
102
RTVSPost2010Prop41ColorIndex
 90
       18
102
RTVSPost2010Prop41ColorRGB
 90
        0
102
RTVSPost2010PropOp41
 70
     1
102
RTVSPost2010Prop42
 90
       50
102
RTVSPost2010PropOp42
 70
     1
102
RTVSPost2010Prop43
 90
        3
102
RTVSPost2010PropOp43
 70
     1
102
RTVSPost2010Prop44ColorIndex
 90
        5
102
RTVSPost2010Prop44ColorRGB
 90
      255
102
RTVSPost2010PropOp44
 70
     1
102
RTVSPost2010Prop45
280
     0
102
RTVSPost2010PropOp45
 70
     1
102
RTVSPost2010Prop46
 90
       50
102
RTVSPost2010PropOp46
 70
     1
102
RTVSPost2010Prop47
 90
       50
102
RTVSPost2010PropOp47
 70
     1
102
RTVSPost2010Prop48
 90
       50
102
RTVSPost2010PropOp48
 70
     1
102
RTVSPost2010Prop49
280
     0
102
RTVSPost2010PropOp49
 70
     1
102
RTVSPost2010Prop50
 90
       50
102
RTVSPost2010PropOp50
 70
     1
102
RTVSPost2010Prop51ColorIndex
 90
      256
102
RTVSPost2010Prop51ColorRGB
 90
-16777216
102
RTVSPost2010PropOp51
 70
     0
102
RTVSPost2010Prop52
140
1.0
102
RTVSPost2010PropOp52
 70
     0
102
RTVSPost2010Prop53
 90
        2
102
RTVSPost2010PropOp53
 70
     1
102
RTVSPost2010Prop54
  1
strokes_ogs.tif
102
RTVSPost2010PropOp54
 70
     1
102
RTVSPost2010Prop55
280
     0
102
RTVSPost2010PropOp55
 70
     1
102
RTVSPost2010Prop56
140
1.0
102
RTVSPost2010PropOp56
 70
     1
102
RTVSPost2010Prop57
140
1.0
102
RTVSPost2010PropOp57
 70
     1
102
RTVSPropertyOp0
 70
     1
102
RTVSPropertyOp1
 70
     1
102
RTVSPropertyOp2
 70
     1
102
RTVSPropertyOp3
 70
     1
102
RTVSPropertyOp4
 70
     1
102
RTVSPropertyOp5
 70
     1
102
RTVSPropertyOp6
 70
     1
102
RTVSPropertyOp7
 70
     1
102
RTVSPropertyOp8
 70
     1
102
RTVSPropertyOp9
 70
     1
102
RTVSPropertyOp10
 70
     1
102
RTVSPropertyOp11
 70
     1
102
RTVSPropertyOp12
 70
     1
102
RTVSPropertyOp13
 70
     1
102
RTVSPropertyOp14
 70
     1
102
RTVSPropertyOp15
 70
     1
102
RTVSPropertyOp16
 70
     1
102
RTVSPropertyOp17
 70
     1
102
RTVSPropertyOp18
 70
     1
102
RTVSPropertyOp19
 70
     1
102
RTVSPropertyOp20
 70
     1
102
RTVSPropertyOp21
 70
     1
102
RTVSPropertyOp22
 70
     1
102
RTVSPropertyOp23
 70
     1
102
RTVSPropertyOp24
 70
     1
102
RTVSPropertyOp25
 70
     1
102
RTVSPropertyOp26
 70
     1
102
RTVSPropertyOp27
 70
     1
102
RTVSPropertyOp28
 70
     1
102
RTVSPropertyOp29
 70
     1
102
RTVSPropertyOp30
 70
     1
102
RTVSPropertyOp31
 70
     1
102
RTVSPropertyOp32
 70
     1
102
RTVSPropertyOp33
 70
     1
102
RTVSPropertyOp34
 70
     1
102
RTVSPropertyOp35
 70
     1
102
RTVSPropertyOp36
 70
     1
102
RTVSPropertyOp37
 70
     1
102
RTVSPropertyOp38
 70
     1
102
RTVSPropertyOp39
 70
     1
102
RTVSPropertyOp40
 70
     1
102
RTVSPropertyOp41
 70
     1
102
RTVSPropertyOp42
 70
     1
102
RTVSPropertyOp43
 70
     1
102
RTVSPropertyOp44
 70
     1
102
RTVSPropertyOp45
 70
     1
102
RTVSPropertyOp46
 70
     1
102
RTVSPropertyOp47
 70
     1
102
RTVSPropertyOp48
 70
     1
102
RTVSPropertyOp49
 70
     1
102
RTVSPropertyOp50
 70
     1
102
RTVSPropertyOp51
 70
     0
102
RTVSPropertyOp52
 70
     0
102
RTVSPropertyOp53
 70
     1
102
RTVSPropertyOp54
 70
     1
102
RTVSPropertyOp55
 70
     1
102
RTVSPropertyOp56
 70
     1
102
RTVSPropertyOp57
 70
     1
102
RTVSPropertyOp58
 70
     1
102
RTVSPropertyOp59
 70
     1
102
RTVSPropertyOp60
 70
     1
102
RTVSPropertyOp61
 70
     1
102
RTVSPropertyOp62
 70
     1
  0
XRECORD
  5
3112
102
{ACAD_REACTORS
330
3111
102
}
330
3111
100
AcDbXrecord
280
     1
102
RTVSPost2010Prop28
280
     0
102
RTVSPost2010PropOp28
 70
     1
102
RTVSPost2010Prop29
280
     1
102
RTVSPost2010PropOp29
 70
     1
102
RTVSPost2010Prop30
280
     1
102
RTVSPost2010PropOp30
 70
     1
102
RTVSPost2010Prop31
280
     0
102
RTVSPost2010PropOp31
 70
     1
102
RTVSPost2010Prop32
280
     0
102
RTVSPost2010PropOp32
 70
     1
102
RTVSPost2010Prop33
280
     0
102
RTVSPost2010PropOp33
 70
     1
102
RTVSPost2010Prop34
280
     0
102
RTVSPost2010PropOp34
 70
     1
102
RTVSPost2010Prop35
280
     0
102
RTVSPost2010PropOp35
 70
     1
102
RTVSPost2010Prop36
280
     0
102
RTVSPost2010PropOp36
 70
     1
102
RTVSPost2010Prop37
 90
       50
102
RTVSPost2010PropOp37
 70
     1
102
RTVSPost2010Prop38
140
0.0
102
RTVSPost2010PropOp38
 70
     1
102
RTVSPost2010Prop39
140
1.0
102
RTVSPost2010PropOp39
 70
     1
102
RTVSPost2010Prop40
 90
        0
102
RTVSPost2010PropOp40
 70
     1
102
RTVSPost2010Prop41ColorIndex
 90
       18
102
RTVSPost2010Prop41ColorRGB
 90
        0
102
RTVSPost2010PropOp41
 70
     1
102
RTVSPost2010Prop42
 90
       50
102
RTVSPost2010PropOp42
 70
     1
102
RTVSPost2010Prop43
 90
        3
102
RTVSPost2010PropOp43
 70
     1
102
RTVSPost2010Prop44ColorIndex
 90
        5
102
RTVSPost2010Prop44ColorRGB
 90
      255
102
RTVSPost2010PropOp44
 70
     1
102
RTVSPost2010Prop45
280
     0
102
RTVSPost2010PropOp45
 70
     1
102
RTVSPost2010Prop46
 90
       50
102
RTVSPost2010PropOp46
 70
     1
102
RTVSPost2010Prop47
 90
       50
102
RTVSPost2010PropOp47
 70
     1
102
RTVSPost2010Prop48
 90
       50
102
RTVSPost2010PropOp48
 70
     1
102
RTVSPost2010Prop49
280
     0
102
RTVSPost2010PropOp49
 70
     1
102
RTVSPost2010Prop50
 90
       50
102
RTVSPost2010PropOp50
 70
     1
102
RTVSPost2010Prop51ColorIndex
 90
      256
102
RTVSPost2010Prop51ColorRGB
 90
-16777216
102
RTVSPost2010PropOp51
 70
     0
102
RTVSPost2010Prop52
140
1.0
102
RTVSPost2010PropOp52
 70
     0
102
RTVSPost2010Prop53
 90
        2
102
RTVSPost2010PropOp53
 70
     1
102
RTVSPost2010Prop54
  1
strokes_ogs.tif
102
RTVSPost2010PropOp54
 70
     1
102
RTVSPost2010Prop55
280
     0
102
RTVSPost2010PropOp55
 70
     1
102
RTVSPost2010Prop56
140
1.0
102
RTVSPost2010PropOp56
 70
     1
102
RTVSPost2010Prop57
140
1.0
102
RTVSPost2010PropOp57
 70
     1
102
RTVSPropertyOp0
 70
     1
102
RTVSPropertyOp1
 70
     1
102
RTVSPropertyOp2
 70
     1
102
RTVSPropertyOp3
 70
     1
102
RTVSPropertyOp4
 70
     1
102
RTVSPropertyOp5
 70
     1
102
RTVSPropertyOp6
 70
     1
102
RTVSPropertyOp7
 70
     1
102
RTVSPropertyOp8
 70
     1
102
RTVSPropertyOp9
 70
     1
102
RTVSPropertyOp10
 70
     1
102
RTVSPropertyOp11
 70
     1
102
RTVSPropertyOp12
 70
     1
102
RTVSPropertyOp13
 70
     1
102
RTVSPropertyOp14
 70
     1
102
RTVSPropertyOp15
 70
     1
102
RTVSPropertyOp16
 70
     1
102
RTVSPropertyOp17
 70
     1
102
RTVSPropertyOp18
 70
     1
102
RTVSPropertyOp19
 70
     1
102
RTVSPropertyOp20
 70
     1
102
RTVSPropertyOp21
 70
     1
102
RTVSPropertyOp22
 70
     1
102
RTVSPropertyOp23
 70
     1
102
RTVSPropertyOp24
 70
     1
102
RTVSPropertyOp25
 70
     1
102
RTVSPropertyOp26
 70
     1
102
RTVSPropertyOp27
 70
     1
102
RTVSPropertyOp28
 70
     1
102
RTVSPropertyOp29
 70
     1
102
RTVSPropertyOp30
 70
     1
102
RTVSPropertyOp31
 70
     1
102
RTVSPropertyOp32
 70
     1
102
RTVSPropertyOp33
 70
     1
102
RTVSPropertyOp34
 70
     1
102
RTVSPropertyOp35
 70
     1
102
RTVSPropertyOp36
 70
     1
102
RTVSPropertyOp37
 70
     1
102
RTVSPropertyOp38
 70
     1
102
RTVSPropertyOp39
 70
     1
102
RTVSPropertyOp40
 70
     1
102
RTVSPropertyOp41
 70
     1
102
RTVSPropertyOp42
 70
     1
102
RTVSPropertyOp43
 70
     1
102
RTVSPropertyOp44
 70
     1
102
RTVSPropertyOp45
 70
     1
102
RTVSPropertyOp46
 70
     1
102
RTVSPropertyOp47
 70
     1
102
RTVSPropertyOp48
 70
     1
102
RTVSPropertyOp49
 70
     1
102
RTVSPropertyOp50
 70
     1
102
RTVSPropertyOp51
 70
     0
102
RTVSPropertyOp52
 70
     0
102
RTVSPropertyOp53
 70
     1
102
RTVSPropertyOp54
 70
     1
102
RTVSPropertyOp55
 70
     1
102
RTVSPropertyOp56
 70
     1
102
RTVSPropertyOp57
 70
     1
102
RTVSPropertyOp58
 70
     1
102
RTVSPropertyOp59
 70
     1
102
RTVSPropertyOp60
 70
     1
102
RTVSPropertyOp61
 70
     1
102
RTVSPropertyOp62
 70
     1
  0
XRECORD
  5
312C
102
{ACAD_REACTORS
330
312B
102
}
330
312B
100
AcDbXrecord
280
     1
102
RTVSPost2010Prop28
280
     0
102
RTVSPost2010PropOp28
 70
     0
102
RTVSPost2010Prop29
280
     1
102
RTVSPost2010PropOp29
 70
     0
102
RTVSPost2010Prop30
280
     1
102
RTVSPost2010PropOp30
 70
     0
102
RTVSPost2010Prop31
280
     0
102
RTVSPost2010PropOp31
 70
     0
102
RTVSPost2010Prop32
280
     0
102
RTVSPost2010PropOp32
 70
     0
102
RTVSPost2010Prop33
280
     0
102
RTVSPost2010PropOp33
 70
     0
102
RTVSPost2010Prop34
280
     0
102
RTVSPost2010PropOp34
 70
     0
102
RTVSPost2010Prop35
280
     0
102
RTVSPost2010PropOp35
 70
     0
102
RTVSPost2010Prop36
280
     0
102
RTVSPost2010PropOp36
 70
     0
102
RTVSPost2010Prop37
 90
       50
102
RTVSPost2010PropOp37
 70
     0
102
RTVSPost2010Prop38
140
0.0
102
RTVSPost2010PropOp38
 70
     0
102
RTVSPost2010Prop39
140
1.0
102
RTVSPost2010PropOp39
 70
     0
102
RTVSPost2010Prop40
 90
        0
102
RTVSPost2010PropOp40
 70
     0
102
RTVSPost2010Prop41ColorIndex
 90
       18
102
RTVSPost2010Prop41ColorRGB
 90
        0
102
RTVSPost2010PropOp41
 70
     0
102
RTVSPost2010Prop42
 90
       50
102
RTVSPost2010PropOp42
 70
     0
102
RTVSPost2010Prop43
 90
        3
102
RTVSPost2010PropOp43
 70
     0
102
RTVSPost2010Prop44ColorIndex
 90
        5
102
RTVSPost2010Prop44ColorRGB
 90
      255
102
RTVSPost2010PropOp44
 70
     0
102
RTVSPost2010Prop45
280
     0
102
RTVSPost2010PropOp45
 70
     0
102
RTVSPost2010Prop46
 90
       50
102
RTVSPost2010PropOp46
 70
     0
102
RTVSPost2010Prop47
 90
       50
102
RTVSPost2010PropOp47
 70
     0
102
RTVSPost2010Prop48
 90
       50
102
RTVSPost2010PropOp48
 70
     0
102
RTVSPost2010Prop49
280
     0
102
RTVSPost2010PropOp49
 70
     0
102
RTVSPost2010Prop50
 90
       50
102
RTVSPost2010PropOp50
 70
     0
102
RTVSPost2010Prop51ColorIndex
 90
      256
102
RTVSPost2010Prop51ColorRGB
 90
-16777216
102
RTVSPost2010PropOp51
 70
     0
102
RTVSPost2010Prop52
140
1.0
102
RTVSPost2010PropOp52
 70
     0
102
RTVSPost2010Prop53
 90
        2
102
RTVSPost2010PropOp53
 70
     0
102
RTVSPost2010Prop54
  1
strokes_ogs.tif
102
RTVSPost2010PropOp54
 70
     0
102
RTVSPost2010Prop55
280
     0
102
RTVSPost2010PropOp55
 70
     0
102
RTVSPost2010Prop56
140
1.0
102
RTVSPost2010PropOp56
 70
     0
102
RTVSPost2010Prop57
140
1.0
102
RTVSPost2010PropOp57
 70
     0
102
RTVSPropertyOp0
 70
     0
102
RTVSPropertyOp1
 70
     0
102
RTVSPropertyOp2
 70
     0
102
RTVSPropertyOp3
 70
     0
102
RTVSPropertyOp4
 70
     0
102
RTVSPropertyOp5
 70
     0
102
RTVSPropertyOp6
 70
     0
102
RTVSPropertyOp7
 70
     0
102
RTVSPropertyOp8
 70
     0
102
RTVSPropertyOp9
 70
     0
102
RTVSPropertyOp10
 70
     0
102
RTVSPropertyOp11
 70
     0
102
RTVSPropertyOp12
 70
     0
102
RTVSPropertyOp13
 70
     0
102
RTVSPropertyOp14
 70
     2
102
RTVSPropertyOp15
 70
     0
102
RTVSPropertyOp16
 70
     0
102
RTVSPropertyOp17
 70
     0
102
RTVSPropertyOp18
 70
     0
102
RTVSPropertyOp19
 70
     0
102
RTVSPropertyOp20
 70
     0
102
RTVSPropertyOp21
 70
     0
102
RTVSPropertyOp22
 70
     0
102
RTVSPropertyOp23
 70
     0
102
RTVSPropertyOp24
 70
     0
102
RTVSPropertyOp25
 70
     0
102
RTVSPropertyOp26
 70
     0
102
RTVSPropertyOp27
 70
     0
102
RTVSPropertyOp28
 70
     0
102
RTVSPropertyOp29
 70
     0
102
RTVSPropertyOp30
 70
     0
102
RTVSPropertyOp31
 70
     0
102
RTVSPropertyOp32
 70
     0
102
RTVSPropertyOp33
 70
     0
102
RTVSPropertyOp34
 70
     0
102
RTVSPropertyOp35
 70
     0
102
RTVSPropertyOp36
 70
     0
102
RTVSPropertyOp37
 70
     0
102
RTVSPropertyOp38
 70
     0
102
RTVSPropertyOp39
 70
     0
102
RTVSPropertyOp40
 70
     0
102
RTVSPropertyOp41
 70
     0
102
RTVSPropertyOp42
 70
     0
102
RTVSPropertyOp43
 70
     0
102
RTVSPropertyOp44
 70
     0
102
RTVSPropertyOp45
 70
     0
102
RTVSPropertyOp46
 70
     0
102
RTVSPropertyOp47
 70
     0
102
RTVSPropertyOp48
 70
     0
102
RTVSPropertyOp49
 70
     0
102
RTVSPropertyOp50
 70
     0
102
RTVSPropertyOp51
 70
     0
102
RTVSPropertyOp52
 70
     0
102
RTVSPropertyOp53
 70
     0
102
RTVSPropertyOp54
 70
     0
102
RTVSPropertyOp55
 70
     0
102
RTVSPropertyOp56
 70
     0
102
RTVSPropertyOp57
 70
     0
102
RTVSPropertyOp58
 70
     0
102
RTVSPropertyOp59
 70
     0
102
RTVSPropertyOp60
 70
     0
102
RTVSPropertyOp61
 70
     0
102
RTVSPropertyOp62
 70
     0
  0
XRECORD
  5
311A
102
{ACAD_REACTORS
330
3119
102
}
330
3119
100
AcDbXrecord
280
     1
102
RTVSPost2010Prop28
280
     0
102
RTVSPost2010PropOp28
 70
     1
102
RTVSPost2010Prop29
280
     1
102
RTVSPost2010PropOp29
 70
     1
102
RTVSPost2010Prop30
280
     1
102
RTVSPost2010PropOp30
 70
     1
102
RTVSPost2010Prop31
280
     0
102
RTVSPost2010PropOp31
 70
     1
102
RTVSPost2010Prop32
280
     0
102
RTVSPost2010PropOp32
 70
     1
102
RTVSPost2010Prop33
280
     0
102
RTVSPost2010PropOp33
 70
     1
102
RTVSPost2010Prop34
280
     0
102
RTVSPost2010PropOp34
 70
     1
102
RTVSPost2010Prop35
280
     0
102
RTVSPost2010PropOp35
 70
     1
102
RTVSPost2010Prop36
280
     0
102
RTVSPost2010PropOp36
 70
     1
102
RTVSPost2010Prop37
 90
       50
102
RTVSPost2010PropOp37
 70
     1
102
RTVSPost2010Prop38
140
0.0
102
RTVSPost2010PropOp38
 70
     1
102
RTVSPost2010Prop39
140
1.0
102
RTVSPost2010PropOp39
 70
     1
102
RTVSPost2010Prop40
 90
        0
102
RTVSPost2010PropOp40
 70
     1
102
RTVSPost2010Prop41ColorIndex
 90
       18
102
RTVSPost2010Prop41ColorRGB
 90
        0
102
RTVSPost2010PropOp41
 70
     1
102
RTVSPost2010Prop42
 90
       50
102
RTVSPost2010PropOp42
 70
     1
102
RTVSPost2010Prop43
 90
        3
102
RTVSPost2010PropOp43
 70
     1
102
RTVSPost2010Prop44ColorIndex
 90
        5
102
RTVSPost2010Prop44ColorRGB
 90
      255
102
RTVSPost2010PropOp44
 70
     1
102
RTVSPost2010Prop45
280
     0
102
RTVSPost2010PropOp45
 70
     1
102
RTVSPost2010Prop46
 90
       50
102
RTVSPost2010PropOp46
 70
     1
102
RTVSPost2010Prop47
 90
       50
102
RTVSPost2010PropOp47
 70
     1
102
RTVSPost2010Prop48
 90
       50
102
RTVSPost2010PropOp48
 70
     1
102
RTVSPost2010Prop49
280
     0
102
RTVSPost2010PropOp49
 70
     1
102
RTVSPost2010Prop50
 90
       50
102
RTVSPost2010PropOp50
 70
     1
102
RTVSPost2010Prop51ColorIndex
 90
      256
102
RTVSPost2010Prop51ColorRGB
 90
-16777216
102
RTVSPost2010PropOp51
 70
     0
102
RTVSPost2010Prop52
140
1.0
102
RTVSPost2010PropOp52
 70
     0
102
RTVSPost2010Prop53
 90
        2
102
RTVSPost2010PropOp53
 70
     1
102
RTVSPost2010Prop54
  1
strokes_ogs.tif
102
RTVSPost2010PropOp54
 70
     1
102
RTVSPost2010Prop55
280
     0
102
RTVSPost2010PropOp55
 70
     1
102
RTVSPost2010Prop56
140
1.0
102
RTVSPost2010PropOp56
 70
     1
102
RTVSPost2010Prop57
140
1.0
102
RTVSPost2010PropOp57
 70
     1
102
RTVSPropertyOp0
 70
     1
102
RTVSPropertyOp1
 70
     1
102
RTVSPropertyOp2
 70
     1
102
RTVSPropertyOp3
 70
     1
102
RTVSPropertyOp4
 70
     1
102
RTVSPropertyOp5
 70
     1
102
RTVSPropertyOp6
 70
     1
102
RTVSPropertyOp7
 70
     1
102
RTVSPropertyOp8
 70
     1
102
RTVSPropertyOp9
 70
     1
102
RTVSPropertyOp10
 70
     1
102
RTVSPropertyOp11
 70
     1
102
RTVSPropertyOp12
 70
     1
102
RTVSPropertyOp13
 70
     1
102
RTVSPropertyOp14
 70
     1
102
RTVSPropertyOp15
 70
     1
102
RTVSPropertyOp16
 70
     1
102
RTVSPropertyOp17
 70
     1
102
RTVSPropertyOp18
 70
     1
102
RTVSPropertyOp19
 70
     1
102
RTVSPropertyOp20
 70
     1
102
RTVSPropertyOp21
 70
     1
102
RTVSPropertyOp22
 70
     1
102
RTVSPropertyOp23
 70
     1
102
RTVSPropertyOp24
 70
     1
102
RTVSPropertyOp25
 70
     1
102
RTVSPropertyOp26
 70
     1
102
RTVSPropertyOp27
 70
     1
102
RTVSPropertyOp28
 70
     1
102
RTVSPropertyOp29
 70
     1
102
RTVSPropertyOp30
 70
     1
102
RTVSPropertyOp31
 70
     1
102
RTVSPropertyOp32
 70
     1
102
RTVSPropertyOp33
 70
     1
102
RTVSPropertyOp34
 70
     1
102
RTVSPropertyOp35
 70
     1
102
RTVSPropertyOp36
 70
     1
102
RTVSPropertyOp37
 70
     1
102
RTVSPropertyOp38
 70
     1
102
RTVSPropertyOp39
 70
     1
102
RTVSPropertyOp40
 70
     1
102
RTVSPropertyOp41
 70
     1
102
RTVSPropertyOp42
 70
     1
102
RTVSPropertyOp43
 70
     1
102
RTVSPropertyOp44
 70
     1
102
RTVSPropertyOp45
 70
     1
102
RTVSPropertyOp46
 70
     1
102
RTVSPropertyOp47
 70
     1
102
RTVSPropertyOp48
 70
     1
102
RTVSPropertyOp49
 70
     1
102
RTVSPropertyOp50
 70
     1
102
RTVSPropertyOp51
 70
     0
102
RTVSPropertyOp52
 70
     0
102
RTVSPropertyOp53
 70
     1
102
RTVSPropertyOp54
 70
     1
102
RTVSPropertyOp55
 70
     1
102
RTVSPropertyOp56
 70
     1
102
RTVSPropertyOp57
 70
     1
102
RTVSPropertyOp58
 70
     1
102
RTVSPropertyOp59
 70
     1
102
RTVSPropertyOp60
 70
     1
102
RTVSPropertyOp61
 70
     1
102
RTVSPropertyOp62
 70
     1
  0
XRECORD
  5
30FE
102
{ACAD_REACTORS
330
30FD
102
}
330
30FD
100
AcDbXrecord
280
     1
102
RTVSPost2010Prop28
280
     0
102
RTVSPost2010PropOp28
 70
     1
102
RTVSPost2010Prop29
280
     1
102
RTVSPost2010PropOp29
 70
     1
102
RTVSPost2010Prop30
280
     1
102
RTVSPost2010PropOp30
 70
     1
102
RTVSPost2010Prop31
280
     0
102
RTVSPost2010PropOp31
 70
     1
102
RTVSPost2010Prop32
280
     0
102
RTVSPost2010PropOp32
 70
     1
102
RTVSPost2010Prop33
280
     0
102
RTVSPost2010PropOp33
 70
     1
102
RTVSPost2010Prop34
280
     0
102
RTVSPost2010PropOp34
 70
     1
102
RTVSPost2010Prop35
280
     0
102
RTVSPost2010PropOp35
 70
     1
102
RTVSPost2010Prop36
280
     0
102
RTVSPost2010PropOp36
 70
     1
102
RTVSPost2010Prop37
 90
       50
102
RTVSPost2010PropOp37
 70
     1
102
RTVSPost2010Prop38
140
0.0
102
RTVSPost2010PropOp38
 70
     1
102
RTVSPost2010Prop39
140
1.0
102
RTVSPost2010PropOp39
 70
     1
102
RTVSPost2010Prop40
 90
        0
102
RTVSPost2010PropOp40
 70
     1
102
RTVSPost2010Prop41ColorIndex
 90
       18
102
RTVSPost2010Prop41ColorRGB
 90
        0
102
RTVSPost2010PropOp41
 70
     1
102
RTVSPost2010Prop42
 90
       50
102
RTVSPost2010PropOp42
 70
     1
102
RTVSPost2010Prop43
 90
        3
102
RTVSPost2010PropOp43
 70
     1
102
RTVSPost2010Prop44ColorIndex
 90
        5
102
RTVSPost2010Prop44ColorRGB
 90
      255
102
RTVSPost2010PropOp44
 70
     1
102
RTVSPost2010Prop45
280
     0
102
RTVSPost2010PropOp45
 70
     1
102
RTVSPost2010Prop46
 90
       50
102
RTVSPost2010PropOp46
 70
     1
102
RTVSPost2010Prop47
 90
       50
102
RTVSPost2010PropOp47
 70
     1
102
RTVSPost2010Prop48
 90
       50
102
RTVSPost2010PropOp48
 70
     1
102
RTVSPost2010Prop49
280
     0
102
RTVSPost2010PropOp49
 70
     1
102
RTVSPost2010Prop50
 90
       50
102
RTVSPost2010PropOp50
 70
     1
102
RTVSPost2010Prop51ColorIndex
 90
      256
102
RTVSPost2010Prop51ColorRGB
 90
-16777216
102
RTVSPost2010PropOp51
 70
     0
102
RTVSPost2010Prop52
140
1.0
102
RTVSPost2010PropOp52
 70
     0
102
RTVSPost2010Prop53
 90
        2
102
RTVSPost2010PropOp53
 70
     1
102
RTVSPost2010Prop54
  1
strokes_ogs.tif
102
RTVSPost2010PropOp54
 70
     1
102
RTVSPost2010Prop55
280
     0
102
RTVSPost2010PropOp55
 70
     1
102
RTVSPost2010Prop56
140
1.0
102
RTVSPost2010PropOp56
 70
     1
102
RTVSPost2010Prop57
140
1.0
102
RTVSPost2010PropOp57
 70
     1
102
RTVSPropertyOp0
 70
     1
102
RTVSPropertyOp1
 70
     1
102
RTVSPropertyOp2
 70
     1
102
RTVSPropertyOp3
 70
     1
102
RTVSPropertyOp4
 70
     1
102
RTVSPropertyOp5
 70
     1
102
RTVSPropertyOp6
 70
     1
102
RTVSPropertyOp7
 70
     1
102
RTVSPropertyOp8
 70
     1
102
RTVSPropertyOp9
 70
     1
102
RTVSPropertyOp10
 70
     1
102
RTVSPropertyOp11
 70
     1
102
RTVSPropertyOp12
 70
     1
102
RTVSPropertyOp13
 70
     1
102
RTVSPropertyOp14
 70
     1
102
RTVSPropertyOp15
 70
     1
102
RTVSPropertyOp16
 70
     1
102
RTVSPropertyOp17
 70
     1
102
RTVSPropertyOp18
 70
     1
102
RTVSPropertyOp19
 70
     1
102
RTVSPropertyOp20
 70
     1
102
RTVSPropertyOp21
 70
     1
102
RTVSPropertyOp22
 70
     1
102
RTVSPropertyOp23
 70
     1
102
RTVSPropertyOp24
 70
     1
102
RTVSPropertyOp25
 70
     1
102
RTVSPropertyOp26
 70
     1
102
RTVSPropertyOp27
 70
     1
102
RTVSPropertyOp28
 70
     1
102
RTVSPropertyOp29
 70
     1
102
RTVSPropertyOp30
 70
     1
102
RTVSPropertyOp31
 70
     1
102
RTVSPropertyOp32
 70
     1
102
RTVSPropertyOp33
 70
     1
102
RTVSPropertyOp34
 70
     1
102
RTVSPropertyOp35
 70
     1
102
RTVSPropertyOp36
 70
     1
102
RTVSPropertyOp37
 70
     1
102
RTVSPropertyOp38
 70
     1
102
RTVSPropertyOp39
 70
     1
102
RTVSPropertyOp40
 70
     1
102
RTVSPropertyOp41
 70
     1
102
RTVSPropertyOp42
 70
     1
102
RTVSPropertyOp43
 70
     1
102
RTVSPropertyOp44
 70
     1
102
RTVSPropertyOp45
 70
     1
102
RTVSPropertyOp46
 70
     1
102
RTVSPropertyOp47
 70
     1
102
RTVSPropertyOp48
 70
     1
102
RTVSPropertyOp49
 70
     1
102
RTVSPropertyOp50
 70
     1
102
RTVSPropertyOp51
 70
     0
102
RTVSPropertyOp52
 70
     0
102
RTVSPropertyOp53
 70
     1
102
RTVSPropertyOp54
 70
     1
102
RTVSPropertyOp55
 70
     1
102
RTVSPropertyOp56
 70
     1
102
RTVSPropertyOp57
 70
     1
102
RTVSPropertyOp58
 70
     1
102
RTVSPropertyOp59
 70
     1
102
RTVSPropertyOp60
 70
     1
102
RTVSPropertyOp61
 70
     1
102
RTVSPropertyOp62
 70
     1
  0
XRECORD
  5
3100
102
{ACAD_REACTORS
330
30FF
102
}
330
30FF
100
AcDbXrecord
280
     1
102
RTVSPost2010Prop28
280
     0
102
RTVSPost2010PropOp28
 70
     1
102
RTVSPost2010Prop29
280
     1
102
RTVSPost2010PropOp29
 70
     1
102
RTVSPost2010Prop30
280
     1
102
RTVSPost2010PropOp30
 70
     1
102
RTVSPost2010Prop31
280
     0
102
RTVSPost2010PropOp31
 70
     1
102
RTVSPost2010Prop32
280
     0
102
RTVSPost2010PropOp32
 70
     1
102
RTVSPost2010Prop33
280
     0
102
RTVSPost2010PropOp33
 70
     1
102
RTVSPost2010Prop34
280
     0
102
RTVSPost2010PropOp34
 70
     1
102
RTVSPost2010Prop35
280
     0
102
RTVSPost2010PropOp35
 70
     1
102
RTVSPost2010Prop36
280
     0
102
RTVSPost2010PropOp36
 70
     1
102
RTVSPost2010Prop37
 90
       50
102
RTVSPost2010PropOp37
 70
     1
102
RTVSPost2010Prop38
140
0.0
102
RTVSPost2010PropOp38
 70
     1
102
RTVSPost2010Prop39
140
1.0
102
RTVSPost2010PropOp39
 70
     1
102
RTVSPost2010Prop40
 90
        0
102
RTVSPost2010PropOp40
 70
     1
102
RTVSPost2010Prop41ColorIndex
 90
       18
102
RTVSPost2010Prop41ColorRGB
 90
        0
102
RTVSPost2010PropOp41
 70
     1
102
RTVSPost2010Prop42
 90
       50
102
RTVSPost2010PropOp42
 70
     1
102
RTVSPost2010Prop43
 90
        3
102
RTVSPost2010PropOp43
 70
     1
102
RTVSPost2010Prop44ColorIndex
 90
        5
102
RTVSPost2010Prop44ColorRGB
 90
      255
102
RTVSPost2010PropOp44
 70
     1
102
RTVSPost2010Prop45
280
     0
102
RTVSPost2010PropOp45
 70
     1
102
RTVSPost2010Prop46
 90
       50
102
RTVSPost2010PropOp46
 70
     1
102
RTVSPost2010Prop47
 90
       50
102
RTVSPost2010PropOp47
 70
     1
102
RTVSPost2010Prop48
 90
       50
102
RTVSPost2010PropOp48
 70
     1
102
RTVSPost2010Prop49
280
     0
102
RTVSPost2010PropOp49
 70
     1
102
RTVSPost2010Prop50
 90
       50
102
RTVSPost2010PropOp50
 70
     1
102
RTVSPost2010Prop51ColorIndex
 90
      256
102
RTVSPost2010Prop51ColorRGB
 90
-16777216
102
RTVSPost2010PropOp51
 70
     0
102
RTVSPost2010Prop52
140
1.0
102
RTVSPost2010PropOp52
 70
     0
102
RTVSPost2010Prop53
 90
        2
102
RTVSPost2010PropOp53
 70
     1
102
RTVSPost2010Prop54
  1
strokes_ogs.tif
102
RTVSPost2010PropOp54
 70
     1
102
RTVSPost2010Prop55
280
     0
102
RTVSPost2010PropOp55
 70
     1
102
RTVSPost2010Prop56
140
1.0
102
RTVSPost2010PropOp56
 70
     1
102
RTVSPost2010Prop57
140
1.0
102
RTVSPost2010PropOp57
 70
     1
102
RTVSPropertyOp0
 70
     1
102
RTVSPropertyOp1
 70
     1
102
RTVSPropertyOp2
 70
     1
102
RTVSPropertyOp3
 70
     1
102
RTVSPropertyOp4
 70
     1
102
RTVSPropertyOp5
 70
     1
102
RTVSPropertyOp6
 70
     1
102
RTVSPropertyOp7
 70
     1
102
RTVSPropertyOp8
 70
     1
102
RTVSPropertyOp9
 70
     1
102
RTVSPropertyOp10
 70
     1
102
RTVSPropertyOp11
 70
     1
102
RTVSPropertyOp12
 70
     1
102
RTVSPropertyOp13
 70
     1
102
RTVSPropertyOp14
 70
     1
102
RTVSPropertyOp15
 70
     1
102
RTVSPropertyOp16
 70
     1
102
RTVSPropertyOp17
 70
     1
102
RTVSPropertyOp18
 70
     1
102
RTVSPropertyOp19
 70
     1
102
RTVSPropertyOp20
 70
     1
102
RTVSPropertyOp21
 70
     1
102
RTVSPropertyOp22
 70
     1
102
RTVSPropertyOp23
 70
     1
102
RTVSPropertyOp24
 70
     1
102
RTVSPropertyOp25
 70
     1
102
RTVSPropertyOp26
 70
     1
102
RTVSPropertyOp27
 70
     1
102
RTVSPropertyOp28
 70
     1
102
RTVSPropertyOp29
 70
     1
102
RTVSPropertyOp30
 70
     1
102
RTVSPropertyOp31
 70
     1
102
RTVSPropertyOp32
 70
     1
102
RTVSPropertyOp33
 70
     1
102
RTVSPropertyOp34
 70
     1
102
RTVSPropertyOp35
 70
     1
102
RTVSPropertyOp36
 70
     1
102
RTVSPropertyOp37
 70
     1
102
RTVSPropertyOp38
 70
     1
102
RTVSPropertyOp39
 70
     1
102
RTVSPropertyOp40
 70
     1
102
RTVSPropertyOp41
 70
     1
102
RTVSPropertyOp42
 70
     1
102
RTVSPropertyOp43
 70
     1
102
RTVSPropertyOp44
 70
     1
102
RTVSPropertyOp45
 70
     1
102
RTVSPropertyOp46
 70
     1
102
RTVSPropertyOp47
 70
     1
102
RTVSPropertyOp48
 70
     1
102
RTVSPropertyOp49
 70
     1
102
RTVSPropertyOp50
 70
     1
102
RTVSPropertyOp51
 70
     0
102
RTVSPropertyOp52
 70
     0
102
RTVSPropertyOp53
 70
     1
102
RTVSPropertyOp54
 70
     1
102
RTVSPropertyOp55
 70
     1
102
RTVSPropertyOp56
 70
     1
102
RTVSPropertyOp57
 70
     1
102
RTVSPropertyOp58
 70
     1
102
RTVSPropertyOp59
 70
     1
102
RTVSPropertyOp60
 70
     1
102
RTVSPropertyOp61
 70
     1
102
RTVSPropertyOp62
 70
     1
  0
XRECORD
  5
3102
102
{ACAD_REACTORS
330
3101
102
}
330
3101
100
AcDbXrecord
280
     1
102
RTVSPost2010Prop28
280
     0
102
RTVSPost2010PropOp28
 70
     1
102
RTVSPost2010Prop29
280
     1
102
RTVSPost2010PropOp29
 70
     1
102
RTVSPost2010Prop30
280
     1
102
RTVSPost2010PropOp30
 70
     1
102
RTVSPost2010Prop31
280
     0
102
RTVSPost2010PropOp31
 70
     1
102
RTVSPost2010Prop32
280
     0
102
RTVSPost2010PropOp32
 70
     1
102
RTVSPost2010Prop33
280
     0
102
RTVSPost2010PropOp33
 70
     1
102
RTVSPost2010Prop34
280
     0
102
RTVSPost2010PropOp34
 70
     1
102
RTVSPost2010Prop35
280
     0
102
RTVSPost2010PropOp35
 70
     1
102
RTVSPost2010Prop36
280
     0
102
RTVSPost2010PropOp36
 70
     1
102
RTVSPost2010Prop37
 90
       50
102
RTVSPost2010PropOp37
 70
     1
102
RTVSPost2010Prop38
140
0.0
102
RTVSPost2010PropOp38
 70
     1
102
RTVSPost2010Prop39
140
1.0
102
RTVSPost2010PropOp39
 70
     1
102
RTVSPost2010Prop40
 90
        0
102
RTVSPost2010PropOp40
 70
     1
102
RTVSPost2010Prop41ColorIndex
 90
       18
102
RTVSPost2010Prop41ColorRGB
 90
        0
102
RTVSPost2010PropOp41
 70
     1
102
RTVSPost2010Prop42
 90
       50
102
RTVSPost2010PropOp42
 70
     1
102
RTVSPost2010Prop43
 90
        3
102
RTVSPost2010PropOp43
 70
     1
102
RTVSPost2010Prop44ColorIndex
 90
        5
102
RTVSPost2010Prop44ColorRGB
 90
      255
102
RTVSPost2010PropOp44
 70
     1
102
RTVSPost2010Prop45
280
     0
102
RTVSPost2010PropOp45
 70
     1
102
RTVSPost2010Prop46
 90
       50
102
RTVSPost2010PropOp46
 70
     1
102
RTVSPost2010Prop47
 90
       50
102
RTVSPost2010PropOp47
 70
     1
102
RTVSPost2010Prop48
 90
       50
102
RTVSPost2010PropOp48
 70
     1
102
RTVSPost2010Prop49
280
     0
102
RTVSPost2010PropOp49
 70
     1
102
RTVSPost2010Prop50
 90
       50
102
RTVSPost2010PropOp50
 70
     1
102
RTVSPost2010Prop51ColorIndex
 90
      256
102
RTVSPost2010Prop51ColorRGB
 90
-16777216
102
RTVSPost2010PropOp51
 70
     0
102
RTVSPost2010Prop52
140
1.0
102
RTVSPost2010PropOp52
 70
     0
102
RTVSPost2010Prop53
 90
        2
102
RTVSPost2010PropOp53
 70
     1
102
RTVSPost2010Prop54
  1
strokes_ogs.tif
102
RTVSPost2010PropOp54
 70
     1
102
RTVSPost2010Prop55
280
     0
102
RTVSPost2010PropOp55
 70
     1
102
RTVSPost2010Prop56
140
1.0
102
RTVSPost2010PropOp56
 70
     1
102
RTVSPost2010Prop57
140
1.0
102
RTVSPost2010PropOp57
 70
     1
102
RTVSPropertyOp0
 70
     1
102
RTVSPropertyOp1
 70
     1
102
RTVSPropertyOp2
 70
     1
102
RTVSPropertyOp3
 70
     1
102
RTVSPropertyOp4
 70
     1
102
RTVSPropertyOp5
 70
     1
102
RTVSPropertyOp6
 70
     1
102
RTVSPropertyOp7
 70
     1
102
RTVSPropertyOp8
 70
     1
102
RTVSPropertyOp9
 70
     1
102
RTVSPropertyOp10
 70
     1
102
RTVSPropertyOp11
 70
     1
102
RTVSPropertyOp12
 70
     1
102
RTVSPropertyOp13
 70
     1
102
RTVSPropertyOp14
 70
     1
102
RTVSPropertyOp15
 70
     1
102
RTVSPropertyOp16
 70
     1
102
RTVSPropertyOp17
 70
     1
102
RTVSPropertyOp18
 70
     1
102
RTVSPropertyOp19
 70
     1
102
RTVSPropertyOp20
 70
     1
102
RTVSPropertyOp21
 70
     1
102
RTVSPropertyOp22
 70
     1
102
RTVSPropertyOp23
 70
     1
102
RTVSPropertyOp24
 70
     1
102
RTVSPropertyOp25
 70
     1
102
RTVSPropertyOp26
 70
     1
102
RTVSPropertyOp27
 70
     1
102
RTVSPropertyOp28
 70
     1
102
RTVSPropertyOp29
 70
     1
102
RTVSPropertyOp30
 70
     1
102
RTVSPropertyOp31
 70
     1
102
RTVSPropertyOp32
 70
     1
102
RTVSPropertyOp33
 70
     1
102
RTVSPropertyOp34
 70
     1
102
RTVSPropertyOp35
 70
     1
102
RTVSPropertyOp36
 70
     1
102
RTVSPropertyOp37
 70
     1
102
RTVSPropertyOp38
 70
     1
102
RTVSPropertyOp39
 70
     1
102
RTVSPropertyOp40
 70
     1
102
RTVSPropertyOp41
 70
     1
102
RTVSPropertyOp42
 70
     1
102
RTVSPropertyOp43
 70
     1
102
RTVSPropertyOp44
 70
     1
102
RTVSPropertyOp45
 70
     1
102
RTVSPropertyOp46
 70
     1
102
RTVSPropertyOp47
 70
     1
102
RTVSPropertyOp48
 70
     1
102
RTVSPropertyOp49
 70
     1
102
RTVSPropertyOp50
 70
     1
102
RTVSPropertyOp51
 70
     0
102
RTVSPropertyOp52
 70
     0
102
RTVSPropertyOp53
 70
     1
102
RTVSPropertyOp54
 70
     1
102
RTVSPropertyOp55
 70
     1
102
RTVSPropertyOp56
 70
     1
102
RTVSPropertyOp57
 70
     1
102
RTVSPropertyOp58
 70
     1
102
RTVSPropertyOp59
 70
     1
102
RTVSPropertyOp60
 70
     1
102
RTVSPropertyOp61
 70
     1
102
RTVSPropertyOp62
 70
     1
  0
XRECORD
  5
3104
102
{ACAD_REACTORS
330
3103
102
}
330
3103
100
AcDbXrecord
280
     1
102
RTVSPost2010Prop28
280
     0
102
RTVSPost2010PropOp28
 70
     1
102
RTVSPost2010Prop29
280
     1
102
RTVSPost2010PropOp29
 70
     1
102
RTVSPost2010Prop30
280
     1
102
RTVSPost2010PropOp30
 70
     1
102
RTVSPost2010Prop31
280
     0
102
RTVSPost2010PropOp31
 70
     1
102
RTVSPost2010Prop32
280
     0
102
RTVSPost2010PropOp32
 70
     1
102
RTVSPost2010Prop33
280
     0
102
RTVSPost2010PropOp33
 70
     1
102
RTVSPost2010Prop34
280
     0
102
RTVSPost2010PropOp34
 70
     1
102
RTVSPost2010Prop35
280
     0
102
RTVSPost2010PropOp35
 70
     1
102
RTVSPost2010Prop36
280
     0
102
RTVSPost2010PropOp36
 70
     1
102
RTVSPost2010Prop37
 90
       50
102
RTVSPost2010PropOp37
 70
     1
102
RTVSPost2010Prop38
140
0.0
102
RTVSPost2010PropOp38
 70
     1
102
RTVSPost2010Prop39
140
1.0
102
RTVSPost2010PropOp39
 70
     1
102
RTVSPost2010Prop40
 90
        0
102
RTVSPost2010PropOp40
 70
     1
102
RTVSPost2010Prop41ColorIndex
 90
       18
102
RTVSPost2010Prop41ColorRGB
 90
        0
102
RTVSPost2010PropOp41
 70
     1
102
RTVSPost2010Prop42
 90
       50
102
RTVSPost2010PropOp42
 70
     1
102
RTVSPost2010Prop43
 90
        3
102
RTVSPost2010PropOp43
 70
     1
102
RTVSPost2010Prop44ColorIndex
 90
        5
102
RTVSPost2010Prop44ColorRGB
 90
      255
102
RTVSPost2010PropOp44
 70
     1
102
RTVSPost2010Prop45
280
     0
102
RTVSPost2010PropOp45
 70
     1
102
RTVSPost2010Prop46
 90
       50
102
RTVSPost2010PropOp46
 70
     1
102
RTVSPost2010Prop47
 90
       50
102
RTVSPost2010PropOp47
 70
     1
102
RTVSPost2010Prop48
 90
       50
102
RTVSPost2010PropOp48
 70
     1
102
RTVSPost2010Prop49
280
     0
102
RTVSPost2010PropOp49
 70
     1
102
RTVSPost2010Prop50
 90
       50
102
RTVSPost2010PropOp50
 70
     1
102
RTVSPost2010Prop51ColorIndex
 90
      256
102
RTVSPost2010Prop51ColorRGB
 90
-16777216
102
RTVSPost2010PropOp51
 70
     0
102
RTVSPost2010Prop52
140
1.0
102
RTVSPost2010PropOp52
 70
     0
102
RTVSPost2010Prop53
 90
        2
102
RTVSPost2010PropOp53
 70
     1
102
RTVSPost2010Prop54
  1
strokes_ogs.tif
102
RTVSPost2010PropOp54
 70
     1
102
RTVSPost2010Prop55
280
     0
102
RTVSPost2010PropOp55
 70
     1
102
RTVSPost2010Prop56
140
1.0
102
RTVSPost2010PropOp56
 70
     1
102
RTVSPost2010Prop57
140
1.0
102
RTVSPost2010PropOp57
 70
     1
102
RTVSPropertyOp0
 70
     1
102
RTVSPropertyOp1
 70
     1
102
RTVSPropertyOp2
 70
     1
102
RTVSPropertyOp3
 70
     1
102
RTVSPropertyOp4
 70
     1
102
RTVSPropertyOp5
 70
     1
102
RTVSPropertyOp6
 70
     1
102
RTVSPropertyOp7
 70
     1
102
RTVSPropertyOp8
 70
     1
102
RTVSPropertyOp9
 70
     1
102
RTVSPropertyOp10
 70
     1
102
RTVSPropertyOp11
 70
     1
102
RTVSPropertyOp12
 70
     1
102
RTVSPropertyOp13
 70
     1
102
RTVSPropertyOp14
 70
     1
102
RTVSPropertyOp15
 70
     1
102
RTVSPropertyOp16
 70
     1
102
RTVSPropertyOp17
 70
     1
102
RTVSPropertyOp18
 70
     1
102
RTVSPropertyOp19
 70
     1
102
RTVSPropertyOp20
 70
     1
102
RTVSPropertyOp21
 70
     1
102
RTVSPropertyOp22
 70
     1
102
RTVSPropertyOp23
 70
     1
102
RTVSPropertyOp24
 70
     1
102
RTVSPropertyOp25
 70
     1
102
RTVSPropertyOp26
 70
     1
102
RTVSPropertyOp27
 70
     1
102
RTVSPropertyOp28
 70
     1
102
RTVSPropertyOp29
 70
     1
102
RTVSPropertyOp30
 70
     1
102
RTVSPropertyOp31
 70
     1
102
RTVSPropertyOp32
 70
     1
102
RTVSPropertyOp33
 70
     1
102
RTVSPropertyOp34
 70
     1
102
RTVSPropertyOp35
 70
     1
102
RTVSPropertyOp36
 70
     1
102
RTVSPropertyOp37
 70
     1
102
RTVSPropertyOp38
 70
     1
102
RTVSPropertyOp39
 70
     1
102
RTVSPropertyOp40
 70
     1
102
RTVSPropertyOp41
 70
     1
102
RTVSPropertyOp42
 70
     1
102
RTVSPropertyOp43
 70
     1
102
RTVSPropertyOp44
 70
     1
102
RTVSPropertyOp45
 70
     1
102
RTVSPropertyOp46
 70
     1
102
RTVSPropertyOp47
 70
     1
102
RTVSPropertyOp48
 70
     1
102
RTVSPropertyOp49
 70
     1
102
RTVSPropertyOp50
 70
     1
102
RTVSPropertyOp51
 70
     0
102
RTVSPropertyOp52
 70
     0
102
RTVSPropertyOp53
 70
     1
102
RTVSPropertyOp54
 70
     1
102
RTVSPropertyOp55
 70
     1
102
RTVSPropertyOp56
 70
     1
102
RTVSPropertyOp57
 70
     1
102
RTVSPropertyOp58
 70
     1
102
RTVSPropertyOp59
 70
     1
102
RTVSPropertyOp60
 70
     1
102
RTVSPropertyOp61
 70
     1
102
RTVSPropertyOp62
 70
     1
  0
XRECORD
  5
310C
102
{ACAD_REACTORS
330
310B
102
}
330
310B
100
AcDbXrecord
280
     1
102
RTVSPost2010Prop28
280
     0
102
RTVSPost2010PropOp28
 70
     1
102
RTVSPost2010Prop29
280
     1
102
RTVSPost2010PropOp29
 70
     1
102
RTVSPost2010Prop30
280
     1
102
RTVSPost2010PropOp30
 70
     1
102
RTVSPost2010Prop31
280
     0
102
RTVSPost2010PropOp31
 70
     1
102
RTVSPost2010Prop32
280
     0
102
RTVSPost2010PropOp32
 70
     1
102
RTVSPost2010Prop33
280
     0
102
RTVSPost2010PropOp33
 70
     1
102
RTVSPost2010Prop34
280
     0
102
RTVSPost2010PropOp34
 70
     1
102
RTVSPost2010Prop35
280
     0
102
RTVSPost2010PropOp35
 70
     1
102
RTVSPost2010Prop36
280
     0
102
RTVSPost2010PropOp36
 70
     1
102
RTVSPost2010Prop37
 90
       50
102
RTVSPost2010PropOp37
 70
     1
102
RTVSPost2010Prop38
140
0.0
102
RTVSPost2010PropOp38
 70
     1
102
RTVSPost2010Prop39
140
1.0
102
RTVSPost2010PropOp39
 70
     1
102
RTVSPost2010Prop40
 90
        0
102
RTVSPost2010PropOp40
 70
     1
102
RTVSPost2010Prop41ColorIndex
 90
       18
102
RTVSPost2010Prop41ColorRGB
 90
        0
102
RTVSPost2010PropOp41
 70
     1
102
RTVSPost2010Prop42
 90
       50
102
RTVSPost2010PropOp42
 70
     1
102
RTVSPost2010Prop43
 90
        3
102
RTVSPost2010PropOp43
 70
     1
102
RTVSPost2010Prop44ColorIndex
 90
        5
102
RTVSPost2010Prop44ColorRGB
 90
      255
102
RTVSPost2010PropOp44
 70
     1
102
RTVSPost2010Prop45
280
     0
102
RTVSPost2010PropOp45
 70
     1
102
RTVSPost2010Prop46
 90
       50
102
RTVSPost2010PropOp46
 70
     1
102
RTVSPost2010Prop47
 90
       50
102
RTVSPost2010PropOp47
 70
     1
102
RTVSPost2010Prop48
 90
       50
102
RTVSPost2010PropOp48
 70
     1
102
RTVSPost2010Prop49
280
     0
102
RTVSPost2010PropOp49
 70
     1
102
RTVSPost2010Prop50
 90
       50
102
RTVSPost2010PropOp50
 70
     1
102
RTVSPost2010Prop51ColorIndex
 90
      256
102
RTVSPost2010Prop51ColorRGB
 90
-16777216
102
RTVSPost2010PropOp51
 70
     0
102
RTVSPost2010Prop52
140
1.0
102
RTVSPost2010PropOp52
 70
     0
102
RTVSPost2010Prop53
 90
        2
102
RTVSPost2010PropOp53
 70
     1
102
RTVSPost2010Prop54
  1
strokes_ogs.tif
102
RTVSPost2010PropOp54
 70
     1
102
RTVSPost2010Prop55
280
     0
102
RTVSPost2010PropOp55
 70
     1
102
RTVSPost2010Prop56
140
1.0
102
RTVSPost2010PropOp56
 70
     1
102
RTVSPost2010Prop57
140
1.0
102
RTVSPost2010PropOp57
 70
     1
102
RTVSPropertyOp0
 70
     1
102
RTVSPropertyOp1
 70
     1
102
RTVSPropertyOp2
 70
     1
102
RTVSPropertyOp3
 70
     1
102
RTVSPropertyOp4
 70
     1
102
RTVSPropertyOp5
 70
     1
102
RTVSPropertyOp6
 70
     1
102
RTVSPropertyOp7
 70
     1
102
RTVSPropertyOp8
 70
     1
102
RTVSPropertyOp9
 70
     1
102
RTVSPropertyOp10
 70
     1
102
RTVSPropertyOp11
 70
     1
102
RTVSPropertyOp12
 70
     1
102
RTVSPropertyOp13
 70
     1
102
RTVSPropertyOp14
 70
     1
102
RTVSPropertyOp15
 70
     1
102
RTVSPropertyOp16
 70
     1
102
RTVSPropertyOp17
 70
     1
102
RTVSPropertyOp18
 70
     1
102
RTVSPropertyOp19
 70
     1
102
RTVSPropertyOp20
 70
     1
102
RTVSPropertyOp21
 70
     1
102
RTVSPropertyOp22
 70
     1
102
RTVSPropertyOp23
 70
     1
102
RTVSPropertyOp24
 70
     1
102
RTVSPropertyOp25
 70
     1
102
RTVSPropertyOp26
 70
     1
102
RTVSPropertyOp27
 70
     1
102
RTVSPropertyOp28
 70
     1
102
RTVSPropertyOp29
 70
     1
102
RTVSPropertyOp30
 70
     1
102
RTVSPropertyOp31
 70
     1
102
RTVSPropertyOp32
 70
     1
102
RTVSPropertyOp33
 70
     1
102
RTVSPropertyOp34
 70
     1
102
RTVSPropertyOp35
 70
     1
102
RTVSPropertyOp36
 70
     1
102
RTVSPropertyOp37
 70
     1
102
RTVSPropertyOp38
 70
     1
102
RTVSPropertyOp39
 70
     1
102
RTVSPropertyOp40
 70
     1
102
RTVSPropertyOp41
 70
     1
102
RTVSPropertyOp42
 70
     1
102
RTVSPropertyOp43
 70
     1
102
RTVSPropertyOp44
 70
     1
102
RTVSPropertyOp45
 70
     1
102
RTVSPropertyOp46
 70
     1
102
RTVSPropertyOp47
 70
     1
102
RTVSPropertyOp48
 70
     1
102
RTVSPropertyOp49
 70
     1
102
RTVSPropertyOp50
 70
     1
102
RTVSPropertyOp51
 70
     0
102
RTVSPropertyOp52
 70
     0
102
RTVSPropertyOp53
 70
     1
102
RTVSPropertyOp54
 70
     1
102
RTVSPropertyOp55
 70
     1
102
RTVSPropertyOp56
 70
     1
102
RTVSPropertyOp57
 70
     1
102
RTVSPropertyOp58
 70
     1
102
RTVSPropertyOp59
 70
     1
102
RTVSPropertyOp60
 70
     1
102
RTVSPropertyOp61
 70
     1
102
RTVSPropertyOp62
 70
     1
  0
XRECORD
  5
3128
102
{ACAD_REACTORS
330
3127
102
}
330
3127
100
AcDbXrecord
280
     1
102
RTVSPost2010Prop28
280
     0
102
RTVSPost2010PropOp28
 70
     0
102
RTVSPost2010Prop29
280
     1
102
RTVSPost2010PropOp29
 70
     0
102
RTVSPost2010Prop30
280
     1
102
RTVSPost2010PropOp30
 70
     0
102
RTVSPost2010Prop31
280
     0
102
RTVSPost2010PropOp31
 70
     0
102
RTVSPost2010Prop32
280
     0
102
RTVSPost2010PropOp32
 70
     0
102
RTVSPost2010Prop33
280
     0
102
RTVSPost2010PropOp33
 70
     0
102
RTVSPost2010Prop34
280
     0
102
RTVSPost2010PropOp34
 70
     0
102
RTVSPost2010Prop35
280
     0
102
RTVSPost2010PropOp35
 70
     0
102
RTVSPost2010Prop36
280
     0
102
RTVSPost2010PropOp36
 70
     0
102
RTVSPost2010Prop37
 90
       50
102
RTVSPost2010PropOp37
 70
     0
102
RTVSPost2010Prop38
140
0.0
102
RTVSPost2010PropOp38
 70
     0
102
RTVSPost2010Prop39
140
1.0
102
RTVSPost2010PropOp39
 70
     0
102
RTVSPost2010Prop40
 90
        0
102
RTVSPost2010PropOp40
 70
     0
102
RTVSPost2010Prop41ColorIndex
 90
       18
102
RTVSPost2010Prop41ColorRGB
 90
        0
102
RTVSPost2010PropOp41
 70
     0
102
RTVSPost2010Prop42
 90
       50
102
RTVSPost2010PropOp42
 70
     0
102
RTVSPost2010Prop43
 90
        3
102
RTVSPost2010PropOp43
 70
     0
102
RTVSPost2010Prop44ColorIndex
 90
        5
102
RTVSPost2010Prop44ColorRGB
 90
      255
102
RTVSPost2010PropOp44
 70
     0
102
RTVSPost2010Prop45
280
     0
102
RTVSPost2010PropOp45
 70
     0
102
RTVSPost2010Prop46
 90
       50
102
RTVSPost2010PropOp46
 70
     0
102
RTVSPost2010Prop47
 90
       50
102
RTVSPost2010PropOp47
 70
     0
102
RTVSPost2010Prop48
 90
       50
102
RTVSPost2010PropOp48
 70
     0
102
RTVSPost2010Prop49
280
     0
102
RTVSPost2010PropOp49
 70
     0
102
RTVSPost2010Prop50
 90
       50
102
RTVSPost2010PropOp50
 70
     0
102
RTVSPost2010Prop51ColorIndex
 90
      256
102
RTVSPost2010Prop51ColorRGB
 90
-16777216
102
RTVSPost2010PropOp51
 70
     0
102
RTVSPost2010Prop52
140
1.0
102
RTVSPost2010PropOp52
 70
     0
102
RTVSPost2010Prop53
 90
        2
102
RTVSPost2010PropOp53
 70
     0
102
RTVSPost2010Prop54
  1
strokes_ogs.tif
102
RTVSPost2010PropOp54
 70
     0
102
RTVSPost2010Prop55
280
     0
102
RTVSPost2010PropOp55
 70
     0
102
RTVSPost2010Prop56
140
1.0
102
RTVSPost2010PropOp56
 70
     0
102
RTVSPost2010Prop57
140
1.0
102
RTVSPost2010PropOp57
 70
     0
102
RTVSPropertyOp0
 70
     0
102
RTVSPropertyOp1
 70
     0
102
RTVSPropertyOp2
 70
     0
102
RTVSPropertyOp3
 70
     0
102
RTVSPropertyOp4
 70
     0
102
RTVSPropertyOp5
 70
     0
102
RTVSPropertyOp6
 70
     0
102
RTVSPropertyOp7
 70
     0
102
RTVSPropertyOp8
 70
     0
102
RTVSPropertyOp9
 70
     0
102
RTVSPropertyOp10
 70
     0
102
RTVSPropertyOp11
 70
     0
102
RTVSPropertyOp12
 70
     0
102
RTVSPropertyOp13
 70
     0
102
RTVSPropertyOp14
 70
     2
102
RTVSPropertyOp15
 70
     0
102
RTVSPropertyOp16
 70
     0
102
RTVSPropertyOp17
 70
     0
102
RTVSPropertyOp18
 70
     0
102
RTVSPropertyOp19
 70
     0
102
RTVSPropertyOp20
 70
     0
102
RTVSPropertyOp21
 70
     0
102
RTVSPropertyOp22
 70
     0
102
RTVSPropertyOp23
 70
     0
102
RTVSPropertyOp24
 70
     0
102
RTVSPropertyOp25
 70
     0
102
RTVSPropertyOp26
 70
     0
102
RTVSPropertyOp27
 70
     0
102
RTVSPropertyOp28
 70
     0
102
RTVSPropertyOp29
 70
     0
102
RTVSPropertyOp30
 70
     0
102
RTVSPropertyOp31
 70
     0
102
RTVSPropertyOp32
 70
     0
102
RTVSPropertyOp33
 70
     0
102
RTVSPropertyOp34
 70
     0
102
RTVSPropertyOp35
 70
     0
102
RTVSPropertyOp36
 70
     0
102
RTVSPropertyOp37
 70
     0
102
RTVSPropertyOp38
 70
     0
102
RTVSPropertyOp39
 70
     0
102
RTVSPropertyOp40
 70
     0
102
RTVSPropertyOp41
 70
     0
102
RTVSPropertyOp42
 70
     0
102
RTVSPropertyOp43
 70
     0
102
RTVSPropertyOp44
 70
     0
102
RTVSPropertyOp45
 70
     0
102
RTVSPropertyOp46
 70
     0
102
RTVSPropertyOp47
 70
     0
102
RTVSPropertyOp48
 70
     0
102
RTVSPropertyOp49
 70
     0
102
RTVSPropertyOp50
 70
     0
102
RTVSPropertyOp51
 70
     0
102
RTVSPropertyOp52
 70
     0
102
RTVSPropertyOp53
 70
     0
102
RTVSPropertyOp54
 70
     0
102
RTVSPropertyOp55
 70
     0
102
RTVSPropertyOp56
 70
     0
102
RTVSPropertyOp57
 70
     0
102
RTVSPropertyOp58
 70
     0
102
RTVSPropertyOp59
 70
     0
102
RTVSPropertyOp60
 70
     0
102
RTVSPropertyOp61
 70
     0
102
RTVSPropertyOp62
 70
     0
  0
XRECORD
  5
3118
102
{ACAD_REACTORS
330
3117
102
}
330
3117
100
AcDbXrecord
280
     1
102
RTVSPost2010Prop28
280
     0
102
RTVSPost2010PropOp28
 70
     1
102
RTVSPost2010Prop29
280
     1
102
RTVSPost2010PropOp29
 70
     1
102
RTVSPost2010Prop30
280
     1
102
RTVSPost2010PropOp30
 70
     1
102
RTVSPost2010Prop31
280
     0
102
RTVSPost2010PropOp31
 70
     1
102
RTVSPost2010Prop32
280
     0
102
RTVSPost2010PropOp32
 70
     1
102
RTVSPost2010Prop33
280
     0
102
RTVSPost2010PropOp33
 70
     1
102
RTVSPost2010Prop34
280
     0
102
RTVSPost2010PropOp34
 70
     1
102
RTVSPost2010Prop35
280
     0
102
RTVSPost2010PropOp35
 70
     1
102
RTVSPost2010Prop36
280
     0
102
RTVSPost2010PropOp36
 70
     1
102
RTVSPost2010Prop37
 90
       50
102
RTVSPost2010PropOp37
 70
     1
102
RTVSPost2010Prop38
140
0.0
102
RTVSPost2010PropOp38
 70
     1
102
RTVSPost2010Prop39
140
1.0
102
RTVSPost2010PropOp39
 70
     1
102
RTVSPost2010Prop40
 90
        0
102
RTVSPost2010PropOp40
 70
     1
102
RTVSPost2010Prop41ColorIndex
 90
       18
102
RTVSPost2010Prop41ColorRGB
 90
        0
102
RTVSPost2010PropOp41
 70
     1
102
RTVSPost2010Prop42
 90
       50
102
RTVSPost2010PropOp42
 70
     1
102
RTVSPost2010Prop43
 90
        3
102
RTVSPost2010PropOp43
 70
     1
102
RTVSPost2010Prop44ColorIndex
 90
        5
102
RTVSPost2010Prop44ColorRGB
 90
      255
102
RTVSPost2010PropOp44
 70
     1
102
RTVSPost2010Prop45
280
     0
102
RTVSPost2010PropOp45
 70
     1
102
RTVSPost2010Prop46
 90
       50
102
RTVSPost2010PropOp46
 70
     1
102
RTVSPost2010Prop47
 90
       50
102
RTVSPost2010PropOp47
 70
     1
102
RTVSPost2010Prop48
 90
       50
102
RTVSPost2010PropOp48
 70
     1
102
RTVSPost2010Prop49
280
     0
102
RTVSPost2010PropOp49
 70
     1
102
RTVSPost2010Prop50
 90
       50
102
RTVSPost2010PropOp50
 70
     1
102
RTVSPost2010Prop51ColorIndex
 90
      256
102
RTVSPost2010Prop51ColorRGB
 90
-16777216
102
RTVSPost2010PropOp51
 70
     0
102
RTVSPost2010Prop52
140
1.0
102
RTVSPost2010PropOp52
 70
     0
102
RTVSPost2010Prop53
 90
        2
102
RTVSPost2010PropOp53
 70
     1
102
RTVSPost2010Prop54
  1
strokes_ogs.tif
102
RTVSPost2010PropOp54
 70
     1
102
RTVSPost2010Prop55
280
     0
102
RTVSPost2010PropOp55
 70
     1
102
RTVSPost2010Prop56
140
1.0
102
RTVSPost2010PropOp56
 70
     1
102
RTVSPost2010Prop57
140
1.0
102
RTVSPost2010PropOp57
 70
     1
102
RTVSPropertyOp0
 70
     1
102
RTVSPropertyOp1
 70
     1
102
RTVSPropertyOp2
 70
     1
102
RTVSPropertyOp3
 70
     1
102
RTVSPropertyOp4
 70
     1
102
RTVSPropertyOp5
 70
     1
102
RTVSPropertyOp6
 70
     1
102
RTVSPropertyOp7
 70
     1
102
RTVSPropertyOp8
 70
     1
102
RTVSPropertyOp9
 70
     1
102
RTVSPropertyOp10
 70
     1
102
RTVSPropertyOp11
 70
     1
102
RTVSPropertyOp12
 70
     1
102
RTVSPropertyOp13
 70
     1
102
RTVSPropertyOp14
 70
     1
102
RTVSPropertyOp15
 70
     1
102
RTVSPropertyOp16
 70
     1
102
RTVSPropertyOp17
 70
     1
102
RTVSPropertyOp18
 70
     1
102
RTVSPropertyOp19
 70
     1
102
RTVSPropertyOp20
 70
     1
102
RTVSPropertyOp21
 70
     1
102
RTVSPropertyOp22
 70
     1
102
RTVSPropertyOp23
 70
     1
102
RTVSPropertyOp24
 70
     1
102
RTVSPropertyOp25
 70
     1
102
RTVSPropertyOp26
 70
     1
102
RTVSPropertyOp27
 70
     1
102
RTVSPropertyOp28
 70
     1
102
RTVSPropertyOp29
 70
     1
102
RTVSPropertyOp30
 70
     1
102
RTVSPropertyOp31
 70
     1
102
RTVSPropertyOp32
 70
     1
102
RTVSPropertyOp33
 70
     1
102
RTVSPropertyOp34
 70
     1
102
RTVSPropertyOp35
 70
     1
102
RTVSPropertyOp36
 70
     1
102
RTVSPropertyOp37
 70
     1
102
RTVSPropertyOp38
 70
     1
102
RTVSPropertyOp39
 70
     1
102
RTVSPropertyOp40
 70
     1
102
RTVSPropertyOp41
 70
     1
102
RTVSPropertyOp42
 70
     1
102
RTVSPropertyOp43
 70
     1
102
RTVSPropertyOp44
 70
     1
102
RTVSPropertyOp45
 70
     1
102
RTVSPropertyOp46
 70
     1
102
RTVSPropertyOp47
 70
     1
102
RTVSPropertyOp48
 70
     1
102
RTVSPropertyOp49
 70
     1
102
RTVSPropertyOp50
 70
     1
102
RTVSPropertyOp51
 70
     0
102
RTVSPropertyOp52
 70
     0
102
RTVSPropertyOp53
 70
     1
102
RTVSPropertyOp54
 70
     1
102
RTVSPropertyOp55
 70
     1
102
RTVSPropertyOp56
 70
     1
102
RTVSPropertyOp57
 70
     1
102
RTVSPropertyOp58
 70
     1
102
RTVSPropertyOp59
 70
     1
102
RTVSPropertyOp60
 70
     1
102
RTVSPropertyOp61
 70
     1
102
RTVSPropertyOp62
 70
     1
  0
XRECORD
  5
312A
102
{ACAD_REACTORS
330
3129
102
}
330
3129
100
AcDbXrecord
280
     1
102
RTVSPost2010Prop28
280
     0
102
RTVSPost2010PropOp28
 70
     0
102
RTVSPost2010Prop29
280
     1
102
RTVSPost2010PropOp29
 70
     0
102
RTVSPost2010Prop30
280
     1
102
RTVSPost2010PropOp30
 70
     0
102
RTVSPost2010Prop31
280
     0
102
RTVSPost2010PropOp31
 70
     0
102
RTVSPost2010Prop32
280
     0
102
RTVSPost2010PropOp32
 70
     0
102
RTVSPost2010Prop33
280
     0
102
RTVSPost2010PropOp33
 70
     0
102
RTVSPost2010Prop34
280
     0
102
RTVSPost2010PropOp34
 70
     0
102
RTVSPost2010Prop35
280
     0
102
RTVSPost2010PropOp35
 70
     0
102
RTVSPost2010Prop36
280
     0
102
RTVSPost2010PropOp36
 70
     0
102
RTVSPost2010Prop37
 90
       50
102
RTVSPost2010PropOp37
 70
     0
102
RTVSPost2010Prop38
140
0.0
102
RTVSPost2010PropOp38
 70
     0
102
RTVSPost2010Prop39
140
1.0
102
RTVSPost2010PropOp39
 70
     0
102
RTVSPost2010Prop40
 90
        0
102
RTVSPost2010PropOp40
 70
     0
102
RTVSPost2010Prop41ColorIndex
 90
       18
102
RTVSPost2010Prop41ColorRGB
 90
        0
102
RTVSPost2010PropOp41
 70
     0
102
RTVSPost2010Prop42
 90
       50
102
RTVSPost2010PropOp42
 70
     0
102
RTVSPost2010Prop43
 90
        3
102
RTVSPost2010PropOp43
 70
     0
102
RTVSPost2010Prop44ColorIndex
 90
        5
102
RTVSPost2010Prop44ColorRGB
 90
      255
102
RTVSPost2010PropOp44
 70
     0
102
RTVSPost2010Prop45
280
     0
102
RTVSPost2010PropOp45
 70
     0
102
RTVSPost2010Prop46
 90
       50
102
RTVSPost2010PropOp46
 70
     0
102
RTVSPost2010Prop47
 90
       50
102
RTVSPost2010PropOp47
 70
     0
102
RTVSPost2010Prop48
 90
       50
102
RTVSPost2010PropOp48
 70
     0
102
RTVSPost2010Prop49
280
     0
102
RTVSPost2010PropOp49
 70
     0
102
RTVSPost2010Prop50
 90
       50
102
RTVSPost2010PropOp50
 70
     0
102
RTVSPost2010Prop51ColorIndex
 90
      256
102
RTVSPost2010Prop51ColorRGB
 90
-16777216
102
RTVSPost2010PropOp51
 70
     0
102
RTVSPost2010Prop52
140
1.0
102
RTVSPost2010PropOp52
 70
     0
102
RTVSPost2010Prop53
 90
        2
102
RTVSPost2010PropOp53
 70
     0
102
RTVSPost2010Prop54
  1
strokes_ogs.tif
102
RTVSPost2010PropOp54
 70
     0
102
RTVSPost2010Prop55
280
     0
102
RTVSPost2010PropOp55
 70
     0
102
RTVSPost2010Prop56
140
1.0
102
RTVSPost2010PropOp56
 70
     0
102
RTVSPost2010Prop57
140
1.0
102
RTVSPost2010PropOp57
 70
     0
102
RTVSPropertyOp0
 70
     0
102
RTVSPropertyOp1
 70
     0
102
RTVSPropertyOp2
 70
     0
102
RTVSPropertyOp3
 70
     0
102
RTVSPropertyOp4
 70
     0
102
RTVSPropertyOp5
 70
     0
102
RTVSPropertyOp6
 70
     0
102
RTVSPropertyOp7
 70
     0
102
RTVSPropertyOp8
 70
     0
102
RTVSPropertyOp9
 70
     0
102
RTVSPropertyOp10
 70
     0
102
RTVSPropertyOp11
 70
     0
102
RTVSPropertyOp12
 70
     0
102
RTVSPropertyOp13
 70
     0
102
RTVSPropertyOp14
 70
     2
102
RTVSPropertyOp15
 70
     0
102
RTVSPropertyOp16
 70
     0
102
RTVSPropertyOp17
 70
     0
102
RTVSPropertyOp18
 70
     0
102
RTVSPropertyOp19
 70
     0
102
RTVSPropertyOp20
 70
     0
102
RTVSPropertyOp21
 70
     0
102
RTVSPropertyOp22
 70
     0
102
RTVSPropertyOp23
 70
     0
102
RTVSPropertyOp24
 70
     0
102
RTVSPropertyOp25
 70
     0
102
RTVSPropertyOp26
 70
     0
102
RTVSPropertyOp27
 70
     0
102
RTVSPropertyOp28
 70
     0
102
RTVSPropertyOp29
 70
     0
102
RTVSPropertyOp30
 70
     0
102
RTVSPropertyOp31
 70
     0
102
RTVSPropertyOp32
 70
     0
102
RTVSPropertyOp33
 70
     0
102
RTVSPropertyOp34
 70
     0
102
RTVSPropertyOp35
 70
     0
102
RTVSPropertyOp36
 70
     0
102
RTVSPropertyOp37
 70
     0
102
RTVSPropertyOp38
 70
     0
102
RTVSPropertyOp39
 70
     0
102
RTVSPropertyOp40
 70
     0
102
RTVSPropertyOp41
 70
     0
102
RTVSPropertyOp42
 70
     0
102
RTVSPropertyOp43
 70
     0
102
RTVSPropertyOp44
 70
     0
102
RTVSPropertyOp45
 70
     0
102
RTVSPropertyOp46
 70
     0
102
RTVSPropertyOp47
 70
     0
102
RTVSPropertyOp48
 70
     0
102
RTVSPropertyOp49
 70
     0
102
RTVSPropertyOp50
 70
     0
102
RTVSPropertyOp51
 70
     0
102
RTVSPropertyOp52
 70
     0
102
RTVSPropertyOp53
 70
     0
102
RTVSPropertyOp54
 70
     0
102
RTVSPropertyOp55
 70
     0
102
RTVSPropertyOp56
 70
     0
102
RTVSPropertyOp57
 70
     0
102
RTVSPropertyOp58
 70
     0
102
RTVSPropertyOp59
 70
     0
102
RTVSPropertyOp60
 70
     0
102
RTVSPropertyOp61
 70
     0
102
RTVSPropertyOp62
 70
     0
  0
XRECORD
  5
3110
102
{ACAD_REACTORS
330
310F
102
}
330
310F
100
AcDbXrecord
280
     1
102
RTVSPost2010Prop28
280
     0
102
RTVSPost2010PropOp28
 70
     1
102
RTVSPost2010Prop29
280
     1
102
RTVSPost2010PropOp29
 70
     1
102
RTVSPost2010Prop30
280
     1
102
RTVSPost2010PropOp30
 70
     1
102
RTVSPost2010Prop31
280
     0
102
RTVSPost2010PropOp31
 70
     1
102
RTVSPost2010Prop32
280
     0
102
RTVSPost2010PropOp32
 70
     1
102
RTVSPost2010Prop33
280
     0
102
RTVSPost2010PropOp33
 70
     1
102
RTVSPost2010Prop34
280
     0
102
RTVSPost2010PropOp34
 70
     1
102
RTVSPost2010Prop35
280
     0
102
RTVSPost2010PropOp35
 70
     1
102
RTVSPost2010Prop36
280
     0
102
RTVSPost2010PropOp36
 70
     1
102
RTVSPost2010Prop37
 90
       50
102
RTVSPost2010PropOp37
 70
     1
102
RTVSPost2010Prop38
140
0.0
102
RTVSPost2010PropOp38
 70
     1
102
RTVSPost2010Prop39
140
1.0
102
RTVSPost2010PropOp39
 70
     1
102
RTVSPost2010Prop40
 90
        0
102
RTVSPost2010PropOp40
 70
     1
102
RTVSPost2010Prop41ColorIndex
 90
       18
102
RTVSPost2010Prop41ColorRGB
 90
        0
102
RTVSPost2010PropOp41
 70
     1
102
RTVSPost2010Prop42
 90
       50
102
RTVSPost2010PropOp42
 70
     1
102
RTVSPost2010Prop43
 90
        3
102
RTVSPost2010PropOp43
 70
     1
102
RTVSPost2010Prop44ColorIndex
 90
        5
102
RTVSPost2010Prop44ColorRGB
 90
      255
102
RTVSPost2010PropOp44
 70
     1
102
RTVSPost2010Prop45
280
     0
102
RTVSPost2010PropOp45
 70
     1
102
RTVSPost2010Prop46
 90
       50
102
RTVSPost2010PropOp46
 70
     1
102
RTVSPost2010Prop47
 90
       50
102
RTVSPost2010PropOp47
 70
     1
102
RTVSPost2010Prop48
 90
       50
102
RTVSPost2010PropOp48
 70
     1
102
RTVSPost2010Prop49
280
     0
102
RTVSPost2010PropOp49
 70
     1
102
RTVSPost2010Prop50
 90
       50
102
RTVSPost2010PropOp50
 70
     1
102
RTVSPost2010Prop51ColorIndex
 90
      256
102
RTVSPost2010Prop51ColorRGB
 90
-16777216
102
RTVSPost2010PropOp51
 70
     0
102
RTVSPost2010Prop52
140
1.0
102
RTVSPost2010PropOp52
 70
     0
102
RTVSPost2010Prop53
 90
        2
102
RTVSPost2010PropOp53
 70
     1
102
RTVSPost2010Prop54
  1
strokes_ogs.tif
102
RTVSPost2010PropOp54
 70
     1
102
RTVSPost2010Prop55
280
     0
102
RTVSPost2010PropOp55
 70
     1
102
RTVSPost2010Prop56
140
1.0
102
RTVSPost2010PropOp56
 70
     1
102
RTVSPost2010Prop57
140
1.0
102
RTVSPost2010PropOp57
 70
     1
102
RTVSPropertyOp0
 70
     1
102
RTVSPropertyOp1
 70
     1
102
RTVSPropertyOp2
 70
     1
102
RTVSPropertyOp3
 70
     1
102
RTVSPropertyOp4
 70
     1
102
RTVSPropertyOp5
 70
     1
102
RTVSPropertyOp6
 70
     1
102
RTVSPropertyOp7
 70
     1
102
RTVSPropertyOp8
 70
     1
102
RTVSPropertyOp9
 70
     1
102
RTVSPropertyOp10
 70
     1
102
RTVSPropertyOp11
 70
     1
102
RTVSPropertyOp12
 70
     1
102
RTVSPropertyOp13
 70
     1
102
RTVSPropertyOp14
 70
     1
102
RTVSPropertyOp15
 70
     1
102
RTVSPropertyOp16
 70
     1
102
RTVSPropertyOp17
 70
     1
102
RTVSPropertyOp18
 70
     1
102
RTVSPropertyOp19
 70
     1
102
RTVSPropertyOp20
 70
     1
102
RTVSPropertyOp21
 70
     1
102
RTVSPropertyOp22
 70
     1
102
RTVSPropertyOp23
 70
     1
102
RTVSPropertyOp24
 70
     1
102
RTVSPropertyOp25
 70
     1
102
RTVSPropertyOp26
 70
     1
102
RTVSPropertyOp27
 70
     1
102
RTVSPropertyOp28
 70
     1
102
RTVSPropertyOp29
 70
     1
102
RTVSPropertyOp30
 70
     1
102
RTVSPropertyOp31
 70
     1
102
RTVSPropertyOp32
 70
     1
102
RTVSPropertyOp33
 70
     1
102
RTVSPropertyOp34
 70
     1
102
RTVSPropertyOp35
 70
     1
102
RTVSPropertyOp36
 70
     1
102
RTVSPropertyOp37
 70
     1
102
RTVSPropertyOp38
 70
     1
102
RTVSPropertyOp39
 70
     1
102
RTVSPropertyOp40
 70
     1
102
RTVSPropertyOp41
 70
     1
102
RTVSPropertyOp42
 70
     1
102
RTVSPropertyOp43
 70
     1
102
RTVSPropertyOp44
 70
     1
102
RTVSPropertyOp45
 70
     1
102
RTVSPropertyOp46
 70
     1
102
RTVSPropertyOp47
 70
     1
102
RTVSPropertyOp48
 70
     1
102
RTVSPropertyOp49
 70
     1
102
RTVSPropertyOp50
 70
     1
102
RTVSPropertyOp51
 70
     0
102
RTVSPropertyOp52
 70
     0
102
RTVSPropertyOp53
 70
     1
102
RTVSPropertyOp54
 70
     1
102
RTVSPropertyOp55
 70
     1
102
RTVSPropertyOp56
 70
     1
102
RTVSPropertyOp57
 70
     1
102
RTVSPropertyOp58
 70
     1
102
RTVSPropertyOp59
 70
     1
102
RTVSPropertyOp60
 70
     1
102
RTVSPropertyOp61
 70
     1
102
RTVSPropertyOp62
 70
     1
  0
XRECORD
  5
3126
102
{ACAD_REACTORS
330
3125
102
}
330
3125
100
AcDbXrecord
280
     1
102
RTVSPost2010Prop28
280
     0
102
RTVSPost2010PropOp28
 70
     1
102
RTVSPost2010Prop29
280
     1
102
RTVSPost2010PropOp29
 70
     1
102
RTVSPost2010Prop30
280
     1
102
RTVSPost2010PropOp30
 70
     1
102
RTVSPost2010Prop31
280
     0
102
RTVSPost2010PropOp31
 70
     1
102
RTVSPost2010Prop32
280
     0
102
RTVSPost2010PropOp32
 70
     1
102
RTVSPost2010Prop33
280
     0
102
RTVSPost2010PropOp33
 70
     1
102
RTVSPost2010Prop34
280
     0
102
RTVSPost2010PropOp34
 70
     1
102
RTVSPost2010Prop35
280
     0
102
RTVSPost2010PropOp35
 70
     1
102
RTVSPost2010Prop36
280
     0
102
RTVSPost2010PropOp36
 70
     1
102
RTVSPost2010Prop37
 90
       50
102
RTVSPost2010PropOp37
 70
     1
102
RTVSPost2010Prop38
140
0.0
102
RTVSPost2010PropOp38
 70
     1
102
RTVSPost2010Prop39
140
1.0
102
RTVSPost2010PropOp39
 70
     1
102
RTVSPost2010Prop40
 90
        0
102
RTVSPost2010PropOp40
 70
     1
102
RTVSPost2010Prop41ColorIndex
 90
       18
102
RTVSPost2010Prop41ColorRGB
 90
        0
102
RTVSPost2010PropOp41
 70
     1
102
RTVSPost2010Prop42
 90
       50
102
RTVSPost2010PropOp42
 70
     1
102
RTVSPost2010Prop43
 90
        3
102
RTVSPost2010PropOp43
 70
     1
102
RTVSPost2010Prop44ColorIndex
 90
        5
102
RTVSPost2010Prop44ColorRGB
 90
      255
102
RTVSPost2010PropOp44
 70
     1
102
RTVSPost2010Prop45
280
     0
102
RTVSPost2010PropOp45
 70
     1
102
RTVSPost2010Prop46
 90
       50
102
RTVSPost2010PropOp46
 70
     1
102
RTVSPost2010Prop47
 90
       50
102
RTVSPost2010PropOp47
 70
     1
102
RTVSPost2010Prop48
 90
       50
102
RTVSPost2010PropOp48
 70
     1
102
RTVSPost2010Prop49
280
     0
102
RTVSPost2010PropOp49
 70
     1
102
RTVSPost2010Prop50
 90
       50
102
RTVSPost2010PropOp50
 70
     1
102
RTVSPost2010Prop51ColorIndex
 90
      256
102
RTVSPost2010Prop51ColorRGB
 90
-16777216
102
RTVSPost2010PropOp51
 70
     0
102
RTVSPost2010Prop52
140
1.0
102
RTVSPost2010PropOp52
 70
     0
102
RTVSPost2010Prop53
 90
        2
102
RTVSPost2010PropOp53
 70
     1
102
RTVSPost2010Prop54
  1
strokes_ogs.tif
102
RTVSPost2010PropOp54
 70
     1
102
RTVSPost2010Prop55
280
     0
102
RTVSPost2010PropOp55
 70
     1
102
RTVSPost2010Prop56
140
1.0
102
RTVSPost2010PropOp56
 70
     1
102
RTVSPost2010Prop57
140
1.0
102
RTVSPost2010PropOp57
 70
     1
102
RTVSPropertyOp0
 70
     1
102
RTVSPropertyOp1
 70
     1
102
RTVSPropertyOp2
 70
     1
102
RTVSPropertyOp3
 70
     1
102
RTVSPropertyOp4
 70
     1
102
RTVSPropertyOp5
 70
     1
102
RTVSPropertyOp6
 70
     1
102
RTVSPropertyOp7
 70
     1
102
RTVSPropertyOp8
 70
     1
102
RTVSPropertyOp9
 70
     1
102
RTVSPropertyOp10
 70
     1
102
RTVSPropertyOp11
 70
     1
102
RTVSPropertyOp12
 70
     1
102
RTVSPropertyOp13
 70
     1
102
RTVSPropertyOp14
 70
     1
102
RTVSPropertyOp15
 70
     1
102
RTVSPropertyOp16
 70
     1
102
RTVSPropertyOp17
 70
     1
102
RTVSPropertyOp18
 70
     1
102
RTVSPropertyOp19
 70
     1
102
RTVSPropertyOp20
 70
     1
102
RTVSPropertyOp21
 70
     1
102
RTVSPropertyOp22
 70
     1
102
RTVSPropertyOp23
 70
     1
102
RTVSPropertyOp24
 70
     1
102
RTVSPropertyOp25
 70
     1
102
RTVSPropertyOp26
 70
     1
102
RTVSPropertyOp27
 70
     1
102
RTVSPropertyOp28
 70
     1
102
RTVSPropertyOp29
 70
     1
102
RTVSPropertyOp30
 70
     1
102
RTVSPropertyOp31
 70
     1
102
RTVSPropertyOp32
 70
     1
102
RTVSPropertyOp33
 70
     1
102
RTVSPropertyOp34
 70
     1
102
RTVSPropertyOp35
 70
     1
102
RTVSPropertyOp36
 70
     1
102
RTVSPropertyOp37
 70
     1
102
RTVSPropertyOp38
 70
     1
102
RTVSPropertyOp39
 70
     1
102
RTVSPropertyOp40
 70
     1
102
RTVSPropertyOp41
 70
     1
102
RTVSPropertyOp42
 70
     1
102
RTVSPropertyOp43
 70
     1
102
RTVSPropertyOp44
 70
     1
102
RTVSPropertyOp45
 70
     1
102
RTVSPropertyOp46
 70
     1
102
RTVSPropertyOp47
 70
     1
102
RTVSPropertyOp48
 70
     1
102
RTVSPropertyOp49
 70
     1
102
RTVSPropertyOp50
 70
     1
102
RTVSPropertyOp51
 70
     0
102
RTVSPropertyOp52
 70
     0
102
RTVSPropertyOp53
 70
     1
102
RTVSPropertyOp54
 70
     1
102
RTVSPropertyOp55
 70
     1
102
RTVSPropertyOp56
 70
     1
102
RTVSPropertyOp57
 70
     1
102
RTVSPropertyOp58
 70
     1
102
RTVSPropertyOp59
 70
     1
102
RTVSPropertyOp60
 70
     1
102
RTVSPropertyOp61
 70
     1
102
RTVSPropertyOp62
 70
     1
  0
XRECORD
  5
3124
102
{ACAD_REACTORS
330
3123
102
}
330
3123
100
AcDbXrecord
280
     1
102
RTVSPost2010Prop28
280
     0
102
RTVSPost2010PropOp28
 70
     1
102
RTVSPost2010Prop29
280
     1
102
RTVSPost2010PropOp29
 70
     1
102
RTVSPost2010Prop30
280
     1
102
RTVSPost2010PropOp30
 70
     1
102
RTVSPost2010Prop31
280
     0
102
RTVSPost2010PropOp31
 70
     1
102
RTVSPost2010Prop32
280
     0
102
RTVSPost2010PropOp32
 70
     1
102
RTVSPost2010Prop33
280
     0
102
RTVSPost2010PropOp33
 70
     1
102
RTVSPost2010Prop34
280
     0
102
RTVSPost2010PropOp34
 70
     1
102
RTVSPost2010Prop35
280
     0
102
RTVSPost2010PropOp35
 70
     1
102
RTVSPost2010Prop36
280
     0
102
RTVSPost2010PropOp36
 70
     1
102
RTVSPost2010Prop37
 90
       50
102
RTVSPost2010PropOp37
 70
     1
102
RTVSPost2010Prop38
140
0.0
102
RTVSPost2010PropOp38
 70
     1
102
RTVSPost2010Prop39
140
1.0
102
RTVSPost2010PropOp39
 70
     1
102
RTVSPost2010Prop40
 90
        0
102
RTVSPost2010PropOp40
 70
     1
102
RTVSPost2010Prop41ColorIndex
 90
       18
102
RTVSPost2010Prop41ColorRGB
 90
        0
102
RTVSPost2010PropOp41
 70
     1
102
RTVSPost2010Prop42
 90
       50
102
RTVSPost2010PropOp42
 70
     1
102
RTVSPost2010Prop43
 90
        3
102
RTVSPost2010PropOp43
 70
     1
102
RTVSPost2010Prop44ColorIndex
 90
        5
102
RTVSPost2010Prop44ColorRGB
 90
      255
102
RTVSPost2010PropOp44
 70
     1
102
RTVSPost2010Prop45
280
     0
102
RTVSPost2010PropOp45
 70
     1
102
RTVSPost2010Prop46
 90
       50
102
RTVSPost2010PropOp46
 70
     1
102
RTVSPost2010Prop47
 90
       50
102
RTVSPost2010PropOp47
 70
     1
102
RTVSPost2010Prop48
 90
       50
102
RTVSPost2010PropOp48
 70
     1
102
RTVSPost2010Prop49
280
     0
102
RTVSPost2010PropOp49
 70
     1
102
RTVSPost2010Prop50
 90
       50
102
RTVSPost2010PropOp50
 70
     1
102
RTVSPost2010Prop51ColorIndex
 90
      256
102
RTVSPost2010Prop51ColorRGB
 90
-16777216
102
RTVSPost2010PropOp51
 70
     0
102
RTVSPost2010Prop52
140
1.0
102
RTVSPost2010PropOp52
 70
     0
102
RTVSPost2010Prop53
 90
        2
102
RTVSPost2010PropOp53
 70
     1
102
RTVSPost2010Prop54
  1
strokes_ogs.tif
102
RTVSPost2010PropOp54
 70
     1
102
RTVSPost2010Prop55
280
     0
102
RTVSPost2010PropOp55
 70
     1
102
RTVSPost2010Prop56
140
1.0
102
RTVSPost2010PropOp56
 70
     1
102
RTVSPost2010Prop57
140
1.0
102
RTVSPost2010PropOp57
 70
     1
102
RTVSPropertyOp0
 70
     1
102
RTVSPropertyOp1
 70
     1
102
RTVSPropertyOp2
 70
     1
102
RTVSPropertyOp3
 70
     1
102
RTVSPropertyOp4
 70
     1
102
RTVSPropertyOp5
 70
     1
102
RTVSPropertyOp6
 70
     1
102
RTVSPropertyOp7
 70
     1
102
RTVSPropertyOp8
 70
     1
102
RTVSPropertyOp9
 70
     1
102
RTVSPropertyOp10
 70
     1
102
RTVSPropertyOp11
 70
     1
102
RTVSPropertyOp12
 70
     1
102
RTVSPropertyOp13
 70
     1
102
RTVSPropertyOp14
 70
     1
102
RTVSPropertyOp15
 70
     1
102
RTVSPropertyOp16
 70
     1
102
RTVSPropertyOp17
 70
     1
102
RTVSPropertyOp18
 70
     1
102
RTVSPropertyOp19
 70
     1
102
RTVSPropertyOp20
 70
     1
102
RTVSPropertyOp21
 70
     1
102
RTVSPropertyOp22
 70
     1
102
RTVSPropertyOp23
 70
     1
102
RTVSPropertyOp24
 70
     1
102
RTVSPropertyOp25
 70
     1
102
RTVSPropertyOp26
 70
     1
102
RTVSPropertyOp27
 70
     1
102
RTVSPropertyOp28
 70
     1
102
RTVSPropertyOp29
 70
     1
102
RTVSPropertyOp30
 70
     1
102
RTVSPropertyOp31
 70
     1
102
RTVSPropertyOp32
 70
     1
102
RTVSPropertyOp33
 70
     1
102
RTVSPropertyOp34
 70
     1
102
RTVSPropertyOp35
 70
     1
102
RTVSPropertyOp36
 70
     1
102
RTVSPropertyOp37
 70
     1
102
RTVSPropertyOp38
 70
     1
102
RTVSPropertyOp39
 70
     1
102
RTVSPropertyOp40
 70
     1
102
RTVSPropertyOp41
 70
     1
102
RTVSPropertyOp42
 70
     1
102
RTVSPropertyOp43
 70
     1
102
RTVSPropertyOp44
 70
     1
102
RTVSPropertyOp45
 70
     1
102
RTVSPropertyOp46
 70
     1
102
RTVSPropertyOp47
 70
     1
102
RTVSPropertyOp48
 70
     1
102
RTVSPropertyOp49
 70
     1
102
RTVSPropertyOp50
 70
     1
102
RTVSPropertyOp51
 70
     0
102
RTVSPropertyOp52
 70
     0
102
RTVSPropertyOp53
 70
     1
102
RTVSPropertyOp54
 70
     1
102
RTVSPropertyOp55
 70
     1
102
RTVSPropertyOp56
 70
     1
102
RTVSPropertyOp57
 70
     1
102
RTVSPropertyOp58
 70
     1
102
RTVSPropertyOp59
 70
     1
102
RTVSPropertyOp60
 70
     1
102
RTVSPropertyOp61
 70
     1
102
RTVSPropertyOp62
 70
     1
  0
XRECORD
  5
311E
102
{ACAD_REACTORS
330
311D
102
}
330
311D
100
AcDbXrecord
280
     1
102
RTVSPost2010Prop28
280
     0
102
RTVSPost2010PropOp28
 70
     1
102
RTVSPost2010Prop29
280
     1
102
RTVSPost2010PropOp29
 70
     1
102
RTVSPost2010Prop30
280
     1
102
RTVSPost2010PropOp30
 70
     1
102
RTVSPost2010Prop31
280
     0
102
RTVSPost2010PropOp31
 70
     1
102
RTVSPost2010Prop32
280
     0
102
RTVSPost2010PropOp32
 70
     1
102
RTVSPost2010Prop33
280
     0
102
RTVSPost2010PropOp33
 70
     1
102
RTVSPost2010Prop34
280
     0
102
RTVSPost2010PropOp34
 70
     1
102
RTVSPost2010Prop35
280
     0
102
RTVSPost2010PropOp35
 70
     1
102
RTVSPost2010Prop36
280
     0
102
RTVSPost2010PropOp36
 70
     1
102
RTVSPost2010Prop37
 90
       50
102
RTVSPost2010PropOp37
 70
     1
102
RTVSPost2010Prop38
140
0.0
102
RTVSPost2010PropOp38
 70
     1
102
RTVSPost2010Prop39
140
1.0
102
RTVSPost2010PropOp39
 70
     1
102
RTVSPost2010Prop40
 90
        0
102
RTVSPost2010PropOp40
 70
     1
102
RTVSPost2010Prop41ColorIndex
 90
       18
102
RTVSPost2010Prop41ColorRGB
 90
        0
102
RTVSPost2010PropOp41
 70
     1
102
RTVSPost2010Prop42
 90
       50
102
RTVSPost2010PropOp42
 70
     1
102
RTVSPost2010Prop43
 90
        3
102
RTVSPost2010PropOp43
 70
     1
102
RTVSPost2010Prop44ColorIndex
 90
        5
102
RTVSPost2010Prop44ColorRGB
 90
      255
102
RTVSPost2010PropOp44
 70
     1
102
RTVSPost2010Prop45
280
     0
102
RTVSPost2010PropOp45
 70
     1
102
RTVSPost2010Prop46
 90
       50
102
RTVSPost2010PropOp46
 70
     1
102
RTVSPost2010Prop47
 90
       50
102
RTVSPost2010PropOp47
 70
     1
102
RTVSPost2010Prop48
 90
       50
102
RTVSPost2010PropOp48
 70
     1
102
RTVSPost2010Prop49
280
     0
102
RTVSPost2010PropOp49
 70
     1
102
RTVSPost2010Prop50
 90
       50
102
RTVSPost2010PropOp50
 70
     1
102
RTVSPost2010Prop51ColorIndex
 90
      256
102
RTVSPost2010Prop51ColorRGB
 90
-16777216
102
RTVSPost2010PropOp51
 70
     0
102
RTVSPost2010Prop52
140
1.0
102
RTVSPost2010PropOp52
 70
     0
102
RTVSPost2010Prop53
 90
        2
102
RTVSPost2010PropOp53
 70
     1
102
RTVSPost2010Prop54
  1
strokes_ogs.tif
102
RTVSPost2010PropOp54
 70
     1
102
RTVSPost2010Prop55
280
     0
102
RTVSPost2010PropOp55
 70
     1
102
RTVSPost2010Prop56
140
1.0
102
RTVSPost2010PropOp56
 70
     1
102
RTVSPost2010Prop57
140
1.0
102
RTVSPost2010PropOp57
 70
     1
102
RTVSPropertyOp0
 70
     1
102
RTVSPropertyOp1
 70
     1
102
RTVSPropertyOp2
 70
     1
102
RTVSPropertyOp3
 70
     1
102
RTVSPropertyOp4
 70
     1
102
RTVSPropertyOp5
 70
     1
102
RTVSPropertyOp6
 70
     1
102
RTVSPropertyOp7
 70
     1
102
RTVSPropertyOp8
 70
     1
102
RTVSPropertyOp9
 70
     1
102
RTVSPropertyOp10
 70
     1
102
RTVSPropertyOp11
 70
     1
102
RTVSPropertyOp12
 70
     1
102
RTVSPropertyOp13
 70
     1
102
RTVSPropertyOp14
 70
     1
102
RTVSPropertyOp15
 70
     1
102
RTVSPropertyOp16
 70
     1
102
RTVSPropertyOp17
 70
     1
102
RTVSPropertyOp18
 70
     1
102
RTVSPropertyOp19
 70
     1
102
RTVSPropertyOp20
 70
     1
102
RTVSPropertyOp21
 70
     1
102
RTVSPropertyOp22
 70
     1
102
RTVSPropertyOp23
 70
     1
102
RTVSPropertyOp24
 70
     1
102
RTVSPropertyOp25
 70
     1
102
RTVSPropertyOp26
 70
     1
102
RTVSPropertyOp27
 70
     1
102
RTVSPropertyOp28
 70
     1
102
RTVSPropertyOp29
 70
     1
102
RTVSPropertyOp30
 70
     1
102
RTVSPropertyOp31
 70
     1
102
RTVSPropertyOp32
 70
     1
102
RTVSPropertyOp33
 70
     1
102
RTVSPropertyOp34
 70
     1
102
RTVSPropertyOp35
 70
     1
102
RTVSPropertyOp36
 70
     1
102
RTVSPropertyOp37
 70
     1
102
RTVSPropertyOp38
 70
     1
102
RTVSPropertyOp39
 70
     1
102
RTVSPropertyOp40
 70
     1
102
RTVSPropertyOp41
 70
     1
102
RTVSPropertyOp42
 70
     1
102
RTVSPropertyOp43
 70
     1
102
RTVSPropertyOp44
 70
     1
102
RTVSPropertyOp45
 70
     1
102
RTVSPropertyOp46
 70
     1
102
RTVSPropertyOp47
 70
     1
102
RTVSPropertyOp48
 70
     1
102
RTVSPropertyOp49
 70
     1
102
RTVSPropertyOp50
 70
     1
102
RTVSPropertyOp51
 70
     0
102
RTVSPropertyOp52
 70
     0
102
RTVSPropertyOp53
 70
     1
102
RTVSPropertyOp54
 70
     1
102
RTVSPropertyOp55
 70
     1
102
RTVSPropertyOp56
 70
     1
102
RTVSPropertyOp57
 70
     1
102
RTVSPropertyOp58
 70
     1
102
RTVSPropertyOp59
 70
     1
102
RTVSPropertyOp60
 70
     1
102
RTVSPropertyOp61
 70
     1
102
RTVSPropertyOp62
 70
     1
  0
XRECORD
  5
3120
102
{ACAD_REACTORS
330
311F
102
}
330
311F
100
AcDbXrecord
280
     1
102
RTVSPost2010Prop28
280
     0
102
RTVSPost2010PropOp28
 70
     1
102
RTVSPost2010Prop29
280
     1
102
RTVSPost2010PropOp29
 70
     1
102
RTVSPost2010Prop30
280
     1
102
RTVSPost2010PropOp30
 70
     1
102
RTVSPost2010Prop31
280
     0
102
RTVSPost2010PropOp31
 70
     1
102
RTVSPost2010Prop32
280
     0
102
RTVSPost2010PropOp32
 70
     1
102
RTVSPost2010Prop33
280
     0
102
RTVSPost2010PropOp33
 70
     1
102
RTVSPost2010Prop34
280
     0
102
RTVSPost2010PropOp34
 70
     1
102
RTVSPost2010Prop35
280
     0
102
RTVSPost2010PropOp35
 70
     1
102
RTVSPost2010Prop36
280
     0
102
RTVSPost2010PropOp36
 70
     1
102
RTVSPost2010Prop37
 90
       50
102
RTVSPost2010PropOp37
 70
     1
102
RTVSPost2010Prop38
140
0.0
102
RTVSPost2010PropOp38
 70
     1
102
RTVSPost2010Prop39
140
1.0
102
RTVSPost2010PropOp39
 70
     1
102
RTVSPost2010Prop40
 90
        0
102
RTVSPost2010PropOp40
 70
     1
102
RTVSPost2010Prop41ColorIndex
 90
       18
102
RTVSPost2010Prop41ColorRGB
 90
        0
102
RTVSPost2010PropOp41
 70
     1
102
RTVSPost2010Prop42
 90
       50
102
RTVSPost2010PropOp42
 70
     1
102
RTVSPost2010Prop43
 90
        3
102
RTVSPost2010PropOp43
 70
     1
102
RTVSPost2010Prop44ColorIndex
 90
        5
102
RTVSPost2010Prop44ColorRGB
 90
      255
102
RTVSPost2010PropOp44
 70
     1
102
RTVSPost2010Prop45
280
     0
102
RTVSPost2010PropOp45
 70
     1
102
RTVSPost2010Prop46
 90
       50
102
RTVSPost2010PropOp46
 70
     1
102
RTVSPost2010Prop47
 90
       50
102
RTVSPost2010PropOp47
 70
     1
102
RTVSPost2010Prop48
 90
       50
102
RTVSPost2010PropOp48
 70
     1
102
RTVSPost2010Prop49
280
     0
102
RTVSPost2010PropOp49
 70
     1
102
RTVSPost2010Prop50
 90
       50
102
RTVSPost2010PropOp50
 70
     1
102
RTVSPost2010Prop51ColorIndex
 90
      256
102
RTVSPost2010Prop51ColorRGB
 90
-16777216
102
RTVSPost2010PropOp51
 70
     0
102
RTVSPost2010Prop52
140
1.0
102
RTVSPost2010PropOp52
 70
     0
102
RTVSPost2010Prop53
 90
        2
102
RTVSPost2010PropOp53
 70
     1
102
RTVSPost2010Prop54
  1
strokes_ogs.tif
102
RTVSPost2010PropOp54
 70
     1
102
RTVSPost2010Prop55
280
     0
102
RTVSPost2010PropOp55
 70
     1
102
RTVSPost2010Prop56
140
1.0
102
RTVSPost2010PropOp56
 70
     1
102
RTVSPost2010Prop57
140
1.0
102
RTVSPost2010PropOp57
 70
     1
102
RTVSPropertyOp0
 70
     1
102
RTVSPropertyOp1
 70
     1
102
RTVSPropertyOp2
 70
     1
102
RTVSPropertyOp3
 70
     1
102
RTVSPropertyOp4
 70
     1
102
RTVSPropertyOp5
 70
     1
102
RTVSPropertyOp6
 70
     1
102
RTVSPropertyOp7
 70
     1
102
RTVSPropertyOp8
 70
     1
102
RTVSPropertyOp9
 70
     1
102
RTVSPropertyOp10
 70
     1
102
RTVSPropertyOp11
 70
     1
102
RTVSPropertyOp12
 70
     1
102
RTVSPropertyOp13
 70
     1
102
RTVSPropertyOp14
 70
     1
102
RTVSPropertyOp15
 70
     1
102
RTVSPropertyOp16
 70
     1
102
RTVSPropertyOp17
 70
     1
102
RTVSPropertyOp18
 70
     1
102
RTVSPropertyOp19
 70
     1
102
RTVSPropertyOp20
 70
     1
102
RTVSPropertyOp21
 70
     1
102
RTVSPropertyOp22
 70
     1
102
RTVSPropertyOp23
 70
     1
102
RTVSPropertyOp24
 70
     1
102
RTVSPropertyOp25
 70
     1
102
RTVSPropertyOp26
 70
     1
102
RTVSPropertyOp27
 70
     1
102
RTVSPropertyOp28
 70
     1
102
RTVSPropertyOp29
 70
     1
102
RTVSPropertyOp30
 70
     1
102
RTVSPropertyOp31
 70
     1
102
RTVSPropertyOp32
 70
     1
102
RTVSPropertyOp33
 70
     1
102
RTVSPropertyOp34
 70
     1
102
RTVSPropertyOp35
 70
     1
102
RTVSPropertyOp36
 70
     1
102
RTVSPropertyOp37
 70
     1
102
RTVSPropertyOp38
 70
     1
102
RTVSPropertyOp39
 70
     1
102
RTVSPropertyOp40
 70
     1
102
RTVSPropertyOp41
 70
     1
102
RTVSPropertyOp42
 70
     1
102
RTVSPropertyOp43
 70
     1
102
RTVSPropertyOp44
 70
     1
102
RTVSPropertyOp45
 70
     1
102
RTVSPropertyOp46
 70
     1
102
RTVSPropertyOp47
 70
     1
102
RTVSPropertyOp48
 70
     1
102
RTVSPropertyOp49
 70
     1
102
RTVSPropertyOp50
 70
     1
102
RTVSPropertyOp51
 70
     0
102
RTVSPropertyOp52
 70
     0
102
RTVSPropertyOp53
 70
     1
102
RTVSPropertyOp54
 70
     1
102
RTVSPropertyOp55
 70
     1
102
RTVSPropertyOp56
 70
     1
102
RTVSPropertyOp57
 70
     1
102
RTVSPropertyOp58
 70
     1
102
RTVSPropertyOp59
 70
     1
102
RTVSPropertyOp60
 70
     1
102
RTVSPropertyOp61
 70
     1
102
RTVSPropertyOp62
 70
     1
  0
XRECORD
  5
3116
102
{ACAD_REACTORS
330
3115
102
}
330
3115
100
AcDbXrecord
280
     1
102
RTVSPost2010Prop28
280
     0
102
RTVSPost2010PropOp28
 70
     1
102
RTVSPost2010Prop29
280
     1
102
RTVSPost2010PropOp29
 70
     1
102
RTVSPost2010Prop30
280
     1
102
RTVSPost2010PropOp30
 70
     1
102
RTVSPost2010Prop31
280
     0
102
RTVSPost2010PropOp31
 70
     1
102
RTVSPost2010Prop32
280
     0
102
RTVSPost2010PropOp32
 70
     1
102
RTVSPost2010Prop33
280
     0
102
RTVSPost2010PropOp33
 70
     1
102
RTVSPost2010Prop34
280
     0
102
RTVSPost2010PropOp34
 70
     1
102
RTVSPost2010Prop35
280
     0
102
RTVSPost2010PropOp35
 70
     1
102
RTVSPost2010Prop36
280
     0
102
RTVSPost2010PropOp36
 70
     1
102
RTVSPost2010Prop37
 90
       50
102
RTVSPost2010PropOp37
 70
     1
102
RTVSPost2010Prop38
140
0.0
102
RTVSPost2010PropOp38
 70
     1
102
RTVSPost2010Prop39
140
1.0
102
RTVSPost2010PropOp39
 70
     1
102
RTVSPost2010Prop40
 90
        0
102
RTVSPost2010PropOp40
 70
     1
102
RTVSPost2010Prop41ColorIndex
 90
       18
102
RTVSPost2010Prop41ColorRGB
 90
        0
102
RTVSPost2010PropOp41
 70
     1
102
RTVSPost2010Prop42
 90
       50
102
RTVSPost2010PropOp42
 70
     1
102
RTVSPost2010Prop43
 90
        3
102
RTVSPost2010PropOp43
 70
     1
102
RTVSPost2010Prop44ColorIndex
 90
        5
102
RTVSPost2010Prop44ColorRGB
 90
      255
102
RTVSPost2010PropOp44
 70
     1
102
RTVSPost2010Prop45
280
     0
102
RTVSPost2010PropOp45
 70
     1
102
RTVSPost2010Prop46
 90
       50
102
RTVSPost2010PropOp46
 70
     1
102
RTVSPost2010Prop47
 90
       50
102
RTVSPost2010PropOp47
 70
     1
102
RTVSPost2010Prop48
 90
       50
102
RTVSPost2010PropOp48
 70
     1
102
RTVSPost2010Prop49
280
     0
102
RTVSPost2010PropOp49
 70
     1
102
RTVSPost2010Prop50
 90
       50
102
RTVSPost2010PropOp50
 70
     1
102
RTVSPost2010Prop51ColorIndex
 90
      256
102
RTVSPost2010Prop51ColorRGB
 90
-16777216
102
RTVSPost2010PropOp51
 70
     0
102
RTVSPost2010Prop52
140
1.0
102
RTVSPost2010PropOp52
 70
     0
102
RTVSPost2010Prop53
 90
        2
102
RTVSPost2010PropOp53
 70
     1
102
RTVSPost2010Prop54
  1
strokes_ogs.tif
102
RTVSPost2010PropOp54
 70
     1
102
RTVSPost2010Prop55
280
     0
102
RTVSPost2010PropOp55
 70
     1
102
RTVSPost2010Prop56
140
1.0
102
RTVSPost2010PropOp56
 70
     1
102
RTVSPost2010Prop57
140
1.0
102
RTVSPost2010PropOp57
 70
     1
102
RTVSPropertyOp0
 70
     1
102
RTVSPropertyOp1
 70
     1
102
RTVSPropertyOp2
 70
     1
102
RTVSPropertyOp3
 70
     1
102
RTVSPropertyOp4
 70
     1
102
RTVSPropertyOp5
 70
     1
102
RTVSPropertyOp6
 70
     1
102
RTVSPropertyOp7
 70
     1
102
RTVSPropertyOp8
 70
     1
102
RTVSPropertyOp9
 70
     1
102
RTVSPropertyOp10
 70
     1
102
RTVSPropertyOp11
 70
     1
102
RTVSPropertyOp12
 70
     1
102
RTVSPropertyOp13
 70
     1
102
RTVSPropertyOp14
 70
     1
102
RTVSPropertyOp15
 70
     1
102
RTVSPropertyOp16
 70
     1
102
RTVSPropertyOp17
 70
     1
102
RTVSPropertyOp18
 70
     1
102
RTVSPropertyOp19
 70
     1
102
RTVSPropertyOp20
 70
     1
102
RTVSPropertyOp21
 70
     1
102
RTVSPropertyOp22
 70
     1
102
RTVSPropertyOp23
 70
     1
102
RTVSPropertyOp24
 70
     1
102
RTVSPropertyOp25
 70
     1
102
RTVSPropertyOp26
 70
     1
102
RTVSPropertyOp27
 70
     1
102
RTVSPropertyOp28
 70
     1
102
RTVSPropertyOp29
 70
     1
102
RTVSPropertyOp30
 70
     1
102
RTVSPropertyOp31
 70
     1
102
RTVSPropertyOp32
 70
     1
102
RTVSPropertyOp33
 70
     1
102
RTVSPropertyOp34
 70
     1
102
RTVSPropertyOp35
 70
     1
102
RTVSPropertyOp36
 70
     1
102
RTVSPropertyOp37
 70
     1
102
RTVSPropertyOp38
 70
     1
102
RTVSPropertyOp39
 70
     1
102
RTVSPropertyOp40
 70
     1
102
RTVSPropertyOp41
 70
     1
102
RTVSPropertyOp42
 70
     1
102
RTVSPropertyOp43
 70
     1
102
RTVSPropertyOp44
 70
     1
102
RTVSPropertyOp45
 70
     1
102
RTVSPropertyOp46
 70
     1
102
RTVSPropertyOp47
 70
     1
102
RTVSPropertyOp48
 70
     1
102
RTVSPropertyOp49
 70
     1
102
RTVSPropertyOp50
 70
     1
102
RTVSPropertyOp51
 70
     0
102
RTVSPropertyOp52
 70
     0
102
RTVSPropertyOp53
 70
     1
102
RTVSPropertyOp54
 70
     1
102
RTVSPropertyOp55
 70
     1
102
RTVSPropertyOp56
 70
     1
102
RTVSPropertyOp57
 70
     1
102
RTVSPropertyOp58
 70
     1
102
RTVSPropertyOp59
 70
     1
102
RTVSPropertyOp60
 70
     1
102
RTVSPropertyOp61
 70
     1
102
RTVSPropertyOp62
 70
     1
  0
XRECORD
  5
310A
102
{ACAD_REACTORS
330
3109
102
}
330
3109
100
AcDbXrecord
280
     1
102
RTVSPost2010Prop28
280
     0
102
RTVSPost2010PropOp28
 70
     1
102
RTVSPost2010Prop29
280
     1
102
RTVSPost2010PropOp29
 70
     1
102
RTVSPost2010Prop30
280
     1
102
RTVSPost2010PropOp30
 70
     1
102
RTVSPost2010Prop31
280
     0
102
RTVSPost2010PropOp31
 70
     1
102
RTVSPost2010Prop32
280
     0
102
RTVSPost2010PropOp32
 70
     1
102
RTVSPost2010Prop33
280
     0
102
RTVSPost2010PropOp33
 70
     1
102
RTVSPost2010Prop34
280
     0
102
RTVSPost2010PropOp34
 70
     1
102
RTVSPost2010Prop35
280
     0
102
RTVSPost2010PropOp35
 70
     1
102
RTVSPost2010Prop36
280
     0
102
RTVSPost2010PropOp36
 70
     1
102
RTVSPost2010Prop37
 90
       50
102
RTVSPost2010PropOp37
 70
     1
102
RTVSPost2010Prop38
140
0.0
102
RTVSPost2010PropOp38
 70
     1
102
RTVSPost2010Prop39
140
1.0
102
RTVSPost2010PropOp39
 70
     1
102
RTVSPost2010Prop40
 90
        0
102
RTVSPost2010PropOp40
 70
     1
102
RTVSPost2010Prop41ColorIndex
 90
       18
102
RTVSPost2010Prop41ColorRGB
 90
        0
102
RTVSPost2010PropOp41
 70
     1
102
RTVSPost2010Prop42
 90
       50
102
RTVSPost2010PropOp42
 70
     1
102
RTVSPost2010Prop43
 90
        3
102
RTVSPost2010PropOp43
 70
     1
102
RTVSPost2010Prop44ColorIndex
 90
        5
102
RTVSPost2010Prop44ColorRGB
 90
      255
102
RTVSPost2010PropOp44
 70
     1
102
RTVSPost2010Prop45
280
     0
102
RTVSPost2010PropOp45
 70
     1
102
RTVSPost2010Prop46
 90
       50
102
RTVSPost2010PropOp46
 70
     1
102
RTVSPost2010Prop47
 90
       50
102
RTVSPost2010PropOp47
 70
     1
102
RTVSPost2010Prop48
 90
       50
102
RTVSPost2010PropOp48
 70
     1
102
RTVSPost2010Prop49
280
     0
102
RTVSPost2010PropOp49
 70
     1
102
RTVSPost2010Prop50
 90
       50
102
RTVSPost2010PropOp50
 70
     1
102
RTVSPost2010Prop51ColorIndex
 90
      256
102
RTVSPost2010Prop51ColorRGB
 90
-16777216
102
RTVSPost2010PropOp51
 70
     0
102
RTVSPost2010Prop52
140
1.0
102
RTVSPost2010PropOp52
 70
     0
102
RTVSPost2010Prop53
 90
        2
102
RTVSPost2010PropOp53
 70
     1
102
RTVSPost2010Prop54
  1
strokes_ogs.tif
102
RTVSPost2010PropOp54
 70
     1
102
RTVSPost2010Prop55
280
     0
102
RTVSPost2010PropOp55
 70
     1
102
RTVSPost2010Prop56
140
1.0
102
RTVSPost2010PropOp56
 70
     1
102
RTVSPost2010Prop57
140
1.0
102
RTVSPost2010PropOp57
 70
     1
102
RTVSPropertyOp0
 70
     1
102
RTVSPropertyOp1
 70
     1
102
RTVSPropertyOp2
 70
     1
102
RTVSPropertyOp3
 70
     1
102
RTVSPropertyOp4
 70
     1
102
RTVSPropertyOp5
 70
     1
102
RTVSPropertyOp6
 70
     1
102
RTVSPropertyOp7
 70
     1
102
RTVSPropertyOp8
 70
     1
102
RTVSPropertyOp9
 70
     1
102
RTVSPropertyOp10
 70
     1
102
RTVSPropertyOp11
 70
     1
102
RTVSPropertyOp12
 70
     1
102
RTVSPropertyOp13
 70
     1
102
RTVSPropertyOp14
 70
     1
102
RTVSPropertyOp15
 70
     1
102
RTVSPropertyOp16
 70
     1
102
RTVSPropertyOp17
 70
     1
102
RTVSPropertyOp18
 70
     1
102
RTVSPropertyOp19
 70
     1
102
RTVSPropertyOp20
 70
     1
102
RTVSPropertyOp21
 70
     1
102
RTVSPropertyOp22
 70
     1
102
RTVSPropertyOp23
 70
     1
102
RTVSPropertyOp24
 70
     1
102
RTVSPropertyOp25
 70
     1
102
RTVSPropertyOp26
 70
     1
102
RTVSPropertyOp27
 70
     1
102
RTVSPropertyOp28
 70
     1
102
RTVSPropertyOp29
 70
     1
102
RTVSPropertyOp30
 70
     1
102
RTVSPropertyOp31
 70
     1
102
RTVSPropertyOp32
 70
     1
102
RTVSPropertyOp33
 70
     1
102
RTVSPropertyOp34
 70
     1
102
RTVSPropertyOp35
 70
     1
102
RTVSPropertyOp36
 70
     1
102
RTVSPropertyOp37
 70
     1
102
RTVSPropertyOp38
 70
     1
102
RTVSPropertyOp39
 70
     1
102
RTVSPropertyOp40
 70
     1
102
RTVSPropertyOp41
 70
     1
102
RTVSPropertyOp42
 70
     1
102
RTVSPropertyOp43
 70
     1
102
RTVSPropertyOp44
 70
     1
102
RTVSPropertyOp45
 70
     1
102
RTVSPropertyOp46
 70
     1
102
RTVSPropertyOp47
 70
     1
102
RTVSPropertyOp48
 70
     1
102
RTVSPropertyOp49
 70
     1
102
RTVSPropertyOp50
 70
     1
102
RTVSPropertyOp51
 70
     0
102
RTVSPropertyOp52
 70
     0
102
RTVSPropertyOp53
 70
     1
102
RTVSPropertyOp54
 70
     1
102
RTVSPropertyOp55
 70
     1
102
RTVSPropertyOp56
 70
     1
102
RTVSPropertyOp57
 70
     1
102
RTVSPropertyOp58
 70
     1
102
RTVSPropertyOp59
 70
     1
102
RTVSPropertyOp60
 70
     1
102
RTVSPropertyOp61
 70
     1
102
RTVSPropertyOp62
 70
     1
  0
XRECORD
  5
3122
102
{ACAD_REACTORS
330
3121
102
}
330
3121
100
AcDbXrecord
280
     1
102
RTVSPost2010Prop28
280
     0
102
RTVSPost2010PropOp28
 70
     1
102
RTVSPost2010Prop29
280
     1
102
RTVSPost2010PropOp29
 70
     1
102
RTVSPost2010Prop30
280
     1
102
RTVSPost2010PropOp30
 70
     1
102
RTVSPost2010Prop31
280
     0
102
RTVSPost2010PropOp31
 70
     1
102
RTVSPost2010Prop32
280
     0
102
RTVSPost2010PropOp32
 70
     1
102
RTVSPost2010Prop33
280
     0
102
RTVSPost2010PropOp33
 70
     1
102
RTVSPost2010Prop34
280
     0
102
RTVSPost2010PropOp34
 70
     1
102
RTVSPost2010Prop35
280
     0
102
RTVSPost2010PropOp35
 70
     1
102
RTVSPost2010Prop36
280
     0
102
RTVSPost2010PropOp36
 70
     1
102
RTVSPost2010Prop37
 90
       50
102
RTVSPost2010PropOp37
 70
     1
102
RTVSPost2010Prop38
140
0.0
102
RTVSPost2010PropOp38
 70
     1
102
RTVSPost2010Prop39
140
1.0
102
RTVSPost2010PropOp39
 70
     1
102
RTVSPost2010Prop40
 90
        0
102
RTVSPost2010PropOp40
 70
     1
102
RTVSPost2010Prop41ColorIndex
 90
       18
102
RTVSPost2010Prop41ColorRGB
 90
        0
102
RTVSPost2010PropOp41
 70
     1
102
RTVSPost2010Prop42
 90
       50
102
RTVSPost2010PropOp42
 70
     1
102
RTVSPost2010Prop43
 90
        3
102
RTVSPost2010PropOp43
 70
     1
102
RTVSPost2010Prop44ColorIndex
 90
        5
102
RTVSPost2010Prop44ColorRGB
 90
      255
102
RTVSPost2010PropOp44
 70
     1
102
RTVSPost2010Prop45
280
     0
102
RTVSPost2010PropOp45
 70
     1
102
RTVSPost2010Prop46
 90
       50
102
RTVSPost2010PropOp46
 70
     1
102
RTVSPost2010Prop47
 90
       50
102
RTVSPost2010PropOp47
 70
     1
102
RTVSPost2010Prop48
 90
       50
102
RTVSPost2010PropOp48
 70
     1
102
RTVSPost2010Prop49
280
     0
102
RTVSPost2010PropOp49
 70
     1
102
RTVSPost2010Prop50
 90
       50
102
RTVSPost2010PropOp50
 70
     1
102
RTVSPost2010Prop51ColorIndex
 90
      256
102
RTVSPost2010Prop51ColorRGB
 90
-16777216
102
RTVSPost2010PropOp51
 70
     0
102
RTVSPost2010Prop52
140
1.0
102
RTVSPost2010PropOp52
 70
     0
102
RTVSPost2010Prop53
 90
        2
102
RTVSPost2010PropOp53
 70
     1
102
RTVSPost2010Prop54
  1
strokes_ogs.tif
102
RTVSPost2010PropOp54
 70
     1
102
RTVSPost2010Prop55
280
     0
102
RTVSPost2010PropOp55
 70
     1
102
RTVSPost2010Prop56
140
1.0
102
RTVSPost2010PropOp56
 70
     1
102
RTVSPost2010Prop57
140
1.0
102
RTVSPost2010PropOp57
 70
     1
102
RTVSPropertyOp0
 70
     1
102
RTVSPropertyOp1
 70
     1
102
RTVSPropertyOp2
 70
     1
102
RTVSPropertyOp3
 70
     1
102
RTVSPropertyOp4
 70
     1
102
RTVSPropertyOp5
 70
     1
102
RTVSPropertyOp6
 70
     1
102
RTVSPropertyOp7
 70
     1
102
RTVSPropertyOp8
 70
     1
102
RTVSPropertyOp9
 70
     1
102
RTVSPropertyOp10
 70
     1
102
RTVSPropertyOp11
 70
     1
102
RTVSPropertyOp12
 70
     1
102
RTVSPropertyOp13
 70
     1
102
RTVSPropertyOp14
 70
     1
102
RTVSPropertyOp15
 70
     1
102
RTVSPropertyOp16
 70
     1
102
RTVSPropertyOp17
 70
     1
102
RTVSPropertyOp18
 70
     1
102
RTVSPropertyOp19
 70
     1
102
RTVSPropertyOp20
 70
     1
102
RTVSPropertyOp21
 70
     1
102
RTVSPropertyOp22
 70
     1
102
RTVSPropertyOp23
 70
     1
102
RTVSPropertyOp24
 70
     1
102
RTVSPropertyOp25
 70
     1
102
RTVSPropertyOp26
 70
     1
102
RTVSPropertyOp27
 70
     1
102
RTVSPropertyOp28
 70
     1
102
RTVSPropertyOp29
 70
     1
102
RTVSPropertyOp30
 70
     1
102
RTVSPropertyOp31
 70
     1
102
RTVSPropertyOp32
 70
     1
102
RTVSPropertyOp33
 70
     1
102
RTVSPropertyOp34
 70
     1
102
RTVSPropertyOp35
 70
     1
102
RTVSPropertyOp36
 70
     1
102
RTVSPropertyOp37
 70
     1
102
RTVSPropertyOp38
 70
     1
102
RTVSPropertyOp39
 70
     1
102
RTVSPropertyOp40
 70
     1
102
RTVSPropertyOp41
 70
     1
102
RTVSPropertyOp42
 70
     1
102
RTVSPropertyOp43
 70
     1
102
RTVSPropertyOp44
 70
     1
102
RTVSPropertyOp45
 70
     1
102
RTVSPropertyOp46
 70
     1
102
RTVSPropertyOp47
 70
     1
102
RTVSPropertyOp48
 70
     1
102
RTVSPropertyOp49
 70
     1
102
RTVSPropertyOp50
 70
     1
102
RTVSPropertyOp51
 70
     0
102
RTVSPropertyOp52
 70
     0
102
RTVSPropertyOp53
 70
     1
102
RTVSPropertyOp54
 70
     1
102
RTVSPropertyOp55
 70
     1
102
RTVSPropertyOp56
 70
     1
102
RTVSPropertyOp57
 70
     1
102
RTVSPropertyOp58
 70
     1
102
RTVSPropertyOp59
 70
     1
102
RTVSPropertyOp60
 70
     1
102
RTVSPropertyOp61
 70
     1
102
RTVSPropertyOp62
 70
     1
  0
ENDSEC
  0
EOF
